  0
SECTION
  2
HEADER
  9
$ACADVER
  1
AC1015
  9
$ACADMAINTVER
 70
    13
  9
$DWGCODEPAGE
  3
ANSI_1252
  9
$INSBASE
 10
0.0
 20
0.0
 30
0.0
  9
$EXTMIN
 10
-278.4914935536116
 20
-379.3886682834672
 30
0.0
  9
$EXTMAX
 10
1641.711169311722
 20
1190.977839947954
 30
0.0
  9
$LIMMIN
 10
0.0
 20
0.0
  9
$LIMMAX
 10
420.0
 20
297.0
  9
$ORTHOMODE
 70
     1
  9
$REGENMODE
 70
     1
  9
$FILLMODE
 70
     1
  9
$QTEXTMODE
 70
     0
  9
$MIRRTEXT
 70
     1
  9
$LTSCALE
 40
1.0
  9
$ATTMODE
 70
     1
  9
$TEXTSIZE
 40
2.5
  9
$TRACEWID
 40
1.0
  9
$TEXTSTYLE
  7
STANDARD
  9
$CLAYER
  8
AM_0
  9
$CELTYPE
  6
ByLayer
  9
$CECOLOR
 62
   256
  9
$CELTSCALE
 40
1.0
  9
$DISPSILH
 70
     0
  9
$DIMSCALE
 40
1.0
  9
$DIMASZ
 40
2.5
  9
$DIMEXO
 40
0.625
  9
$DIMDLI
 40
3.75
  9
$DIMRND
 40
0.0
  9
$DIMDLE
 40
0.0
  9
$DIMEXE
 40
1.25
  9
$DIMTP
 40
0.0
  9
$DIMTM
 40
0.0
  9
$DIMTXT
 40
2.5
  9
$DIMCEN
 40
2.5
  9
$DIMTSZ
 40
0.0
  9
$DIMTOL
 70
     0
  9
$DIMLIM
 70
     0
  9
$DIMTIH
 70
     0
  9
$DIMTOH
 70
     0
  9
$DIMSE1
 70
     0
  9
$DIMSE2
 70
     0
  9
$DIMTAD
 70
     1
  9
$DIMZIN
 70
     8
  9
$DIMBLK
  1

  9
$DIMASO
 70
     1
  9
$DIMSHO
 70
     1
  9
$DIMPOST
  1

  9
$DIMAPOST
  1

  9
$DIMALT
 70
     0
  9
$DIMALTD
 70
     3
  9
$DIMALTF
 40
0.03937007874016
  9
$DIMLFAC
 40
1.0
  9
$DIMTOFL
 70
     1
  9
$DIMTVP
 40
0.0
  9
$DIMTIX
 70
     0
  9
$DIMSOXD
 70
     0
  9
$DIMSAH
 70
     0
  9
$DIMBLK1
  1

  9
$DIMBLK2
  1

  9
$DIMSTYLE
  2
ISO-25
  9
$DIMCLRD
 70
     0
  9
$DIMCLRE
 70
     0
  9
$DIMCLRT
 70
     0
  9
$DIMTFAC
 40
1.0
  9
$DIMGAP
 40
0.625
  9
$DIMJUST
 70
     0
  9
$DIMSD1
 70
     0
  9
$DIMSD2
 70
     0
  9
$DIMTOLJ
 70
     1
  9
$DIMTZIN
 70
     0
  9
$DIMALTZ
 70
     0
  9
$DIMALTTZ
 70
     0
  9
$DIMUPT
 70
     0
  9
$DIMDEC
 70
     4
  9
$DIMTDEC
 70
     4
  9
$DIMALTU
 70
     2
  9
$DIMALTTD
 70
     2
  9
$DIMTXSTY
  7
STANDARD
  9
$DIMAUNIT
 70
     0
  9
$DIMADEC
 70
     0
  9
$DIMALTRND
 40
0.0
  9
$DIMAZIN
 70
     0
  9
$DIMDSEP
 70
    46
  9
$DIMATFIT
 70
     3
  9
$DIMFRAC
 70
     0
  9
$DIMLDRBLK
  1

  9
$DIMLUNIT
 70
     2
  9
$DIMLWD
 70
    -2
  9
$DIMLWE
 70
    -2
  9
$DIMTMOVE
 70
     0
  9
$LUNITS
 70
     2
  9
$LUPREC
 70
     2
  9
$SKETCHINC
 40
1.0
  9
$FILLETRAD
 40
2.5
  9
$AUNITS
 70
     0
  9
$AUPREC
 70
     0
  9
$MENU
  1
.
  9
$ELEVATION
 40
0.0
  9
$PELEVATION
 40
0.0
  9
$THICKNESS
 40
0.0
  9
$LIMCHECK
 70
     0
  9
$CHAMFERA
 40
2.5
  9
$CHAMFERB
 40
2.5
  9
$CHAMFERC
 40
0.0
  9
$CHAMFERD
 40
0.0
  9
$SKPOLY
 70
     0
  9
$TDCREATE
 40
2452802.821489792
  9
$TDUCREATE
 40
2452802.988156458
  9
$TDUPDATE
 40
2453865.545445601
  9
$TDUUPDATE
 40
2453865.712112268
  9
$TDINDWG
 40
0.0370520602
  9
$TDUSRTIMER
 40
0.0370520602
  9
$USRTIMER
 70
     1
  9
$ANGBASE
 50
0.0
  9
$ANGDIR
 70
     0
  9
$PDMODE
 70
     0
  9
$PDSIZE
 40
0.0
  9
$PLINEWID
 40
0.0
  9
$SPLFRAME
 70
     0
  9
$SPLINETYPE
 70
     6
  9
$SPLINESEGS
 70
     8
  9
$HANDSEED
  5
2AE6
  9
$SURFTAB1
 70
     6
  9
$SURFTAB2
 70
     6
  9
$SURFTYPE
 70
     6
  9
$SURFU
 70
     6
  9
$SURFV
 70
     6
  9
$UCSBASE
  2

  9
$UCSNAME
  2

  9
$UCSORG
 10
0.0
 20
0.0
 30
0.0
  9
$UCSXDIR
 10
1.0
 20
0.0
 30
0.0
  9
$UCSYDIR
 10
0.0
 20
1.0
 30
0.0
  9
$UCSORTHOREF
  2

  9
$UCSORTHOVIEW
 70
     0
  9
$UCSORGTOP
 10
0.0
 20
0.0
 30
0.0
  9
$UCSORGBOTTOM
 10
0.0
 20
0.0
 30
0.0
  9
$UCSORGLEFT
 10
0.0
 20
0.0
 30
0.0
  9
$UCSORGRIGHT
 10
0.0
 20
0.0
 30
0.0
  9
$UCSORGFRONT
 10
0.0
 20
0.0
 30
0.0
  9
$UCSORGBACK
 10
0.0
 20
0.0
 30
0.0
  9
$PUCSBASE
  2

  9
$PUCSNAME
  2

  9
$PUCSORG
 10
0.0
 20
0.0
 30
0.0
  9
$PUCSXDIR
 10
1.0
 20
0.0
 30
0.0
  9
$PUCSYDIR
 10
0.0
 20
1.0
 30
0.0
  9
$PUCSORTHOREF
  2

  9
$PUCSORTHOVIEW
 70
     0
  9
$PUCSORGTOP
 10
0.0
 20
0.0
 30
0.0
  9
$PUCSORGBOTTOM
 10
0.0
 20
0.0
 30
0.0
  9
$PUCSORGLEFT
 10
0.0
 20
0.0
 30
0.0
  9
$PUCSORGRIGHT
 10
0.0
 20
0.0
 30
0.0
  9
$PUCSORGFRONT
 10
0.0
 20
0.0
 30
0.0
  9
$PUCSORGBACK
 10
0.0
 20
0.0
 30
0.0
  9
$USERI1
 70
     0
  9
$USERI2
 70
     0
  9
$USERI3
 70
     0
  9
$USERI4
 70
     0
  9
$USERI5
 70
     0
  9
$USERR1
 40
0.0
  9
$USERR2
 40
0.0
  9
$USERR3
 40
0.0
  9
$USERR4
 40
0.0
  9
$USERR5
 40
0.0
  9
$WORLDVIEW
 70
     1
  9
$SHADEDGE
 70
     3
  9
$SHADEDIF
 70
    70
  9
$TILEMODE
 70
     1
  9
$MAXACTVP
 70
    64
  9
$PINSBASE
 10
0.0
 20
0.0
 30
0.0
  9
$PLIMCHECK
 70
     0
  9
$PEXTMIN
 10
1.000000000000000E+20
 20
1.000000000000000E+20
 30
1.000000000000000E+20
  9
$PEXTMAX
 10
-1.000000000000000E+20
 20
-1.000000000000000E+20
 30
-1.000000000000000E+20
  9
$PLIMMIN
 10
0.0
 20
0.0
  9
$PLIMMAX
 10
420.0
 20
297.0
  9
$UNITMODE
 70
     0
  9
$VISRETAIN
 70
     1
  9
$PLINEGEN
 70
     0
  9
$PSLTSCALE
 70
     1
  9
$TREEDEPTH
 70
  3020
  9
$CMLSTYLE
  2
Standard
  9
$CMLJUST
 70
     0
  9
$CMLSCALE
 40
1.0
  9
$PROXYGRAPHICS
 70
     1
  9
$MEASUREMENT
 70
     0
  9
$CELWEIGHT
370
    -1
  9
$ENDCAPS
280
     0
  9
$JOINSTYLE
280
     0
  9
$LWDISPLAY
290
     0
  9
$INSUNITS
 70
     0
  9
$HYPERLINKBASE
  1

  9
$STYLESHEET
  1

  9
$XEDIT
290
     1
  9
$CEPSNTYPE
380
     0
  9
$PSTYLEMODE
290
     1
  9
$FINGERPRINTGUID
  2
{C5135BDF-A7A0-428E-8284-B2A7BA4E1ADF}
  9
$VERSIONGUID
  2
{782EC26D-1333-403E-9C17-5EC96E35ADA7}
  9
$EXTNAMES
290
     1
  9
$PSVPSCALE
 40
0.0
  9
$OLESTARTUP
290
     0
  0
ENDSEC
  0
SECTION
  2
CLASSES
  0
CLASS
  1
ACDBDICTIONARYWDFLT
  2
AcDbDictionaryWithDefault
  3
AutoCAD 2000
 90
        0
280
     0
281
     0
  0
CLASS
  1
ACDBPLACEHOLDER
  2
AcDbPlaceHolder
  3
AutoCAD 2000
 90
        0
280
     0
281
     0
  0
CLASS
  1
LAYOUT
  2
AcDbLayout
  3
AutoCAD 2000
 90
        0
280
     0
281
     0
  0
CLASS
  1
DICTIONARYVAR
  2
AcDbDictionaryVar
  3
AutoCAD 2000
 90
        0
280
     0
281
     0
  0
ENDSEC
  0
SECTION
  2
TABLES
  0
TABLE
  2
VPORT
  5
23D0
330
0
100
AcDbSymbolTable
 70
     3
  0
VPORT
  5
2AE5
330
23D0
100
AcDbSymbolTableRecord
100
AcDbViewportTableRecord
  2
*Active
 70
     0
 10
0.0
 20
0.0
 11
1.0
 21
1.0
 12
972.0435217438645
 22
839.3932408447881
 13
0.0
 23
0.0
 14
2.5
 24
2.5
 15
10.0
 25
10.0
 16
0.0
 26
0.0
 36
1.0
 17
0.0
 27
0.0
 37
0.0
 40
1143.075389174948
 41
1.182835820895522
 42
50.0
 43
0.0
 44
0.0
 50
0.0
 51
0.0
 71
     0
 72
   100
 73
     1
 74
     3
 75
     0
 76
     0
 77
     0
 78
     0
281
     0
 65
     1
110
0.0
120
0.0
130
0.0
111
1.0
121
0.0
131
0.0
112
0.0
122
1.0
132
0.0
 79
     0
146
0.0
  0
ENDTAB
  0
TABLE
  2
LTYPE
  5
23CD
330
0
100
AcDbSymbolTable
 70
     4
  0
LTYPE
  5
23DB
330
23CD
100
AcDbSymbolTableRecord
100
AcDbLinetypeTableRecord
  2
ByBlock
 70
     0
  3

 72
    65
 73
     0
 40
0.0
  0
LTYPE
  5
23DC
330
23CD
100
AcDbSymbolTableRecord
100
AcDbLinetypeTableRecord
  2
ByLayer
 70
     0
  3

 72
    65
 73
     0
 40
0.0
  0
LTYPE
  5
23DD
330
23CD
100
AcDbSymbolTableRecord
100
AcDbLinetypeTableRecord
  2
CONTINUOUS
 70
     0
  3
Solid line
 72
    65
 73
     0
 40
0.0
  0
LTYPE
  5
23EC
330
23CD
100
AcDbSymbolTableRecord
100
AcDbLinetypeTableRecord
  2
CENTER
 70
     0
  3
Center ____ _ ____ _ ____ _ ____ _ ____ _ ____
 72
    65
 73
     4
 40
50.8
 49
31.75
 74
     0
 49
-6.349999999999997
 74
     0
 49
6.349999999999997
 74
     0
 49
-6.349999999999997
 74
     0
  0
LTYPE
  5
23ED
330
23CD
100
AcDbSymbolTableRecord
100
AcDbLinetypeTableRecord
  2
DIVIDE
 70
     0
  3
__ . . __ . . 
 72
    65
 73
     6
 40
35.69078929588715
 49
14.27631571835485
 74
     0
 49
-7.138157859177431
 74
     0
 49
0.0
 74
     0
 49
-7.138157859177431
 74
     0
 49
0.0
 74
     0
 49
-7.138157859177431
 74
     0
  0
LTYPE
  5
23EE
330
23CD
100
AcDbSymbolTableRecord
100
AcDbLinetypeTableRecord
  2
PHANTOM
 70
     0
  3
_____ _ _ _____ _ _ 
 72
    65
 73
     6
 40
71.38157859177431
 49
35.69078929588715
 74
     0
 49
-7.138157859177431
 74
     0
 49
7.138157859177431
 74
     0
 49
-7.138157859177431
 74
     0
 49
7.138157859177431
 74
     0
 49
-7.138157859177431
 74
     0
  0
ENDTAB
  0
TABLE
  2
LAYER
  5
23CA
330
0
100
AcDbSymbolTable
 70
     5
  0
LAYER
  5
23D8
330
23CA
100
AcDbSymbolTableRecord
100
AcDbLayerTableRecord
  2
0
 70
     0
 62
     7
  6
CONTINUOUS
370
    -3
390
23D7
  0
LAYER
  5
23EA
330
23CA
100
AcDbSymbolTableRecord
100
AcDbLayerTableRecord
  2
AM_0
 70
     0
 62
     7
  6
CONTINUOUS
370
    -3
390
23D7
  0
LAYER
  5
23EF
330
23CA
100
AcDbSymbolTableRecord
100
AcDbLayerTableRecord
  2
1
 70
     0
 62
     7
  6
CONTINUOUS
370
    -3
390
23D7
  0
LAYER
  5
23F0
330
23CA
100
AcDbSymbolTableRecord
100
AcDbLayerTableRecord
  2
2
 70
     0
 62
     7
  6
CONTINUOUS
370
    -3
390
23D7
  0
LAYER
  5
268A
330
23CA
100
AcDbSymbolTableRecord
100
AcDbLayerTableRecord
  2
LAYER_1
 70
     0
 62
     5
  6
CONTINUOUS
370
    -3
390
23D7
  0
ENDTAB
  0
TABLE
  2
STYLE
  5
23CB
330
0
100
AcDbSymbolTable
 70
     1
  0
STYLE
  5
23D9
330
23CB
100
AcDbSymbolTableRecord
100
AcDbTextStyleTableRecord
  2
STANDARD
 70
     0
 40
0.0
 41
1.0
 50
0.0
 71
     0
 42
2.5
  3
ISOCP.SHX
  4

  0
ENDTAB
  0
TABLE
  2
VIEW
  5
23CE
330
0
100
AcDbSymbolTable
 70
     0
  0
ENDTAB
  0
TABLE
  2
UCS
  5
23CF
330
0
100
AcDbSymbolTable
 70
     0
  0
ENDTAB
  0
TABLE
  2
APPID
  5
23D1
330
0
100
AcDbSymbolTable
 70
    13
  0
APPID
  5
23DA
330
23D1
100
AcDbSymbolTableRecord
100
AcDbRegAppTableRecord
  2
ACAD
 70
     0
  0
APPID
  5
23F1
330
23D1
100
AcDbSymbolTableRecord
100
AcDbRegAppTableRecord
  2
GENIUS_GENDIM_13
 70
     0
  0
APPID
  5
23F2
330
23D1
100
AcDbSymbolTableRecord
100
AcDbRegAppTableRecord
  2
GENIUS_GENDTOL_13
 70
     0
  0
APPID
  5
23F3
330
23D1
100
AcDbSymbolTableRecord
100
AcDbRegAppTableRecord
  2
GENIUS_GE3DTOL_13
 70
     0
  0
APPID
  5
23F4
330
23D1
100
AcDbSymbolTableRecord
100
AcDbRegAppTableRecord
  2
MCAD_NO_VIS
 70
     0
  0
APPID
  5
23F5
330
23D1
100
AcDbSymbolTableRecord
100
AcDbRegAppTableRecord
  2
ACAD_TEMP_GRAPHIC
 70
     0
  0
APPID
  5
23F6
330
23D1
100
AcDbSymbolTableRecord
100
AcDbRegAppTableRecord
  2
AD_DRAW
 70
     0
  0
APPID
  5
23F7
330
23D1
100
AcDbSymbolTableRecord
100
AcDbRegAppTableRecord
  2
ACATTRIBSERVICES
 70
     0
  0
APPID
  5
23F8
330
23D1
100
AcDbSymbolTableRecord
100
AcDbRegAppTableRecord
  2
ASURF_PCURVE_APPNAME
 70
     0
  0
APPID
  5
23F9
330
23D1
100
AcDbSymbolTableRecord
100
AcDbRegAppTableRecord
  2
DESIGNERASSEMBLIES
 70
     0
  0
APPID
  5
23FA
330
23D1
100
AcDbSymbolTableRecord
100
AcDbRegAppTableRecord
  2
ACADM_DIM_EDIT
 70
     0
  0
APPID
  5
23FB
330
23D1
100
AcDbSymbolTableRecord
100
AcDbRegAppTableRecord
  2
G3V_ENTHND
 70
     0
  0
APPID
  5
23FC
330
23D1
100
AcDbSymbolTableRecord
100
AcDbRegAppTableRecord
  2
GENIUS_GENDIMSH_14
 70
     0
  0
ENDTAB
  0
TABLE
  2
DIMSTYLE
  5
23D2
330
0
100
AcDbSymbolTable
 70
     2
100
AcDbDimStyleTable
 71
     0
  0
DIMSTYLE
105
23FD
330
23D2
100
AcDbSymbolTableRecord
100
AcDbDimStyleTableRecord
  2
ISO-25
 70
     0
 41
2.5
 42
0.625
 43
3.75
 44
1.25
 73
     0
 74
     0
 77
     1
 78
     8
140
2.5
141
2.5
143
0.03937007874016
147
0.625
171
     3
172
     1
271
     2
272
     2
274
     3
279
     2
284
     8
285
     8
286
     8
340
23D9
  0
DIMSTYLE
105
268B
330
23D2
100
AcDbSymbolTableRecord
100
AcDbDimStyleTableRecord
  2
Standard
 70
     0
340
23D9
  0
ENDTAB
  0
TABLE
  2
BLOCK_RECORD
  5
23C9
330
0
100
AcDbSymbolTable
 70
    25
  0
BLOCK_RECORD
  5
23E6
330
23C9
100
AcDbSymbolTableRecord
100
AcDbBlockTableRecord
  2
*Model_Space
340
23E9
  0
BLOCK_RECORD
  5
23E2
330
23C9
100
AcDbSymbolTableRecord
100
AcDbBlockTableRecord
  2
*Paper_Space
340
23E5
  0
BLOCK_RECORD
  5
23FF
330
23C9
100
AcDbSymbolTableRecord
100
AcDbBlockTableRecord
  2
$MODEL_SPACE
340
0
  0
BLOCK_RECORD
  5
2402
330
23C9
100
AcDbSymbolTableRecord
100
AcDbBlockTableRecord
  2
$PAPER_SPACE
340
0
  0
BLOCK_RECORD
  5
261E
330
23C9
100
AcDbSymbolTableRecord
100
AcDbBlockTableRecord
  2
AI9-BLK14
340
0
310
2800000020000000200000000100080000000000000400000000000000000000000000000000000000000000000080000080000000808000800000008000800080800000C0C0C000C0DCC000F0CAA6000020400000206000002080000020A0000020C0000020E00000400000004020000040400000406000004080000040A0
310
000040C0000040E00000600000006020000060400000606000006080000060A0000060C0000060E00000800000008020000080400000806000008080000080A0000080C0000080E00000A0000000A0200000A0400000A0600000A0800000A0A00000A0C00000A0E00000C0000000C0200000C0400000C0600000C0800000C0
310
A00000C0C00000C0E00000E0000000E0200000E0400000E0600000E0800000E0A00000E0C00000E0E00040000000400020004000400040006000400080004000A0004000C0004000E00040200000402020004020400040206000402080004020A0004020C0004020E000404000004040200040404000404060004040800040
310
40A0004040C0004040E00040600000406020004060400040606000406080004060A0004060C0004060E00040800000408020004080400040806000408080004080A0004080C0004080E00040A0000040A0200040A0400040A0600040A0800040A0A00040A0C00040A0E00040C0000040C0200040C0400040C0600040C08000
310
40C0A00040C0C00040C0E00040E0000040E0200040E0400040E0600040E0800040E0A00040E0C00040E0E00080000000800020008000400080006000800080008000A0008000C0008000E00080200000802020008020400080206000802080008020A0008020C0008020E00080400000804020008040400080406000804080
310
008040A0008040C0008040E00080600000806020008060400080606000806080008060A0008060C0008060E00080800000808020008080400080806000808080008080A0008080C0008080E00080A0000080A0200080A0400080A0600080A0800080A0A00080A0C00080A0E00080C0000080C0200080C0400080C0600080C0
310
800080C0A00080C0C00080C0E00080E0000080E0200080E0400080E0600080E0800080E0A00080E0C00080E0E000C0000000C0002000C0004000C0006000C0008000C000A000C000C000C000E000C0200000C0202000C0204000C0206000C0208000C020A000C020C000C020E000C0400000C0402000C0404000C0406000C0
310
408000C040A000C040C000C040E000C0600000C0602000C0604000C0606000C0608000C060A000C060C000C060E000C0800000C0802000C0804000C0806000C0808000C080A000C080C000C080E000C0A00000C0A02000C0A04000C0A06000C0A08000C0A0A000C0A0C000C0A0E000C0C00000C0C02000C0C04000C0C06000
310
C0C08000C0C0A000F0FBFF00A4A0A000808080000000FF0000FF000000FFFF00FF000000FF00FF00FFFF0000FFFFFF00FF00FFFFFFFF00FFFFFFFFFFFFFFFFFFFFFFFFFFFFFFFFFFFFFFFFFFFFFFFFFFFF00FFFFFFFF00FFFFFFFFFFFFFFFFFFFFFFFFFFFFFFFFFFFFFFFFFFFFFFFFFFFF00FFFFFFFF00FFFFFFFFFFFFFFFF
310
FFFFFFFFFFFFFFFFFFFFFFFFFFFFFFFFFFFF00FFFFFFFF00FFFFFFFFFFFFFFFFFFFFFFFFFFFFFFFFFFFFFFFFFFFFFFFFFFFF00FFFFFFFF00FFFFFFFFFFFFFFFFFFFFFFFFFFFFFFFFFFFFFFFFFFFFFFFFFFFF00FFFFFFFF00FFFFFFFFFFFFFFFFFFFFFFFFFFFFFFFFFFFFFFFFFFFFFFFFFFFF00FFFFFFFF00FFFFFFFFFFFFFF
310
FFFFFFFFFFFFFFFFFFFFFFFFFFFFFFFFFFFFFF00FFFFFFFF00FFFFFFFFFFFFFFFFFFFFFFFFFFFFFFFFFFFFFFFFFFFFFFFFFFFF00FFFFFFFF00FFFFFFFFFFFFFFFFFFFFFFFFFFFFFFFFFFFFFFFFFFFFFFFFFFFF00FFFFFFFF00FFFFFFFFFFFFFFFFFFFFFFFFFFFFFFFFFFFFFFFFFFFFFFFFFFFF00FFFFFFFF00FFFFFFFFFFFF
310
FFFFFFFFFFFFFFFFFFFFFFFFFFFFFFFFFFFFFFFF00FFFFFFFF00FFFFFFFFFFFFFFFFFFFFFFFFFFFFFFFFFFFFFFFFFFFFFFFFFFFF00FFFFFFFF00FFFFFFFFFFFFFFFFFFFFFFFFFFFFFFFFFFFFFFFFFFFFFFFFFFFF00FFFFFFFF0000000000000000000000000000000000000000000000000000FF00FFFFFFFFFFFFFFFFFFFF
310
FFFFFFFFFFFFFFFFFFFFFFFFFFFFFFFFFFFFFFFFFF00FFFFFFFFFFFFFFFFFFFFFFFFFFFFFFFFFFFFFFFFFFFFFFFFFFFFFFFFFFFFFF00FFFFFFFFFFFFFFFFFFFFFFFFFFFFFFFFFFFFFFFFFFFFFFFFFFFFFFFFFFFFFF00FFFFFFFFFFFFFFFFFFFFFFFFFFFFFFFFFFFFFFFFFFFFFFFFFFFFFFFFFF00FF00000000000000000000
310
0000000000000000000000000000000000000000FFFFFFFFFFFFFFFFFFFFFFFFFFFFFFFFFFFFFFFFFFFFFFFFFFFFFFFFFFFFFFFFFFFFFFFFFFFFFFFFFFFFFFFFFFFFFFFFFFFFFFFFFFFFFFFFFFFFFFFFFFFFFFFFFFFFFFFFFFFFFFFFFFFFFFFFFFFFFFFFFFFFFFFFFFFFFFFFFFFFFFFFFFFFFFFFFFFFFFFFFFFFFFFFFFFFFF
310
FFFFFFFFFFFFFFFFFFFFFFFFFFFFFFFFFFFFFFFFFFFFFFFFFFFFFFFFFFFFFFFFFFFFFFFFFFFFFFFFFFFFFFFFFFFFFFFFFFFFFFFFFFFFFFFFFFFFFFFFFFFFFFFFFFFFFFFFFFFFFFFFFFFFFFFFFFFFFFFFFFFFFFFFFFFFFFFFFFFFFFFFFFFFFFFFFFFFFFFFFFFFFFFFFFFFFFFFFFFFFFFFFFFFFFFFFFFFFFFFFFFFFFFFFFFFFF
310
FFFFFFFFFFFFFFFFFFFFFFFFFFFFFFFFFFFFFFFFFFFFFFFFFFFFFFFFFFFFFFFFFFFFFFFFFFFFFFFFFFFFFFFFFFFFFFFFFFFFFFFFFFFFFFFFFFFFFFFFFFFFFFFFFFFFFFFFFFFFFFFFFFFFFFFFFFFFFFFFFFFFFFFFFFFFFFFFFFFFFFFFFFFFFFFFFFFFFFFFFFFFFFFFFFFFFFFFFFFFFFFFFFFFFFFFFFFFFFFFFFFFFFFFFFFFFF
310
FFFFFFFFFFFFFFFFFFFFFFFFFFFFFFFFFFFFFFFFFFFFFFFFFFFFFFFFFFFFFFFFFFFFFFFFFFFFFFFFFFFFFFFFFFFFFFFFFFFFFFFFFFFFFFFF
102
{BLKREFS
331
265F
102
}
  0
BLOCK_RECORD
  5
2623
330
23C9
100
AcDbSymbolTableRecord
100
AcDbBlockTableRecord
  2
AI9-BLK13
340
0
310
2800000020000000200000000100080000000000000400000000000000000000000000000000000000000000000080000080000000808000800000008000800080800000C0C0C000C0DCC000F0CAA6000020400000206000002080000020A0000020C0000020E00000400000004020000040400000406000004080000040A0
310
000040C0000040E00000600000006020000060400000606000006080000060A0000060C0000060E00000800000008020000080400000806000008080000080A0000080C0000080E00000A0000000A0200000A0400000A0600000A0800000A0A00000A0C00000A0E00000C0000000C0200000C0400000C0600000C0800000C0
310
A00000C0C00000C0E00000E0000000E0200000E0400000E0600000E0800000E0A00000E0C00000E0E00040000000400020004000400040006000400080004000A0004000C0004000E00040200000402020004020400040206000402080004020A0004020C0004020E000404000004040200040404000404060004040800040
310
40A0004040C0004040E00040600000406020004060400040606000406080004060A0004060C0004060E00040800000408020004080400040806000408080004080A0004080C0004080E00040A0000040A0200040A0400040A0600040A0800040A0A00040A0C00040A0E00040C0000040C0200040C0400040C0600040C08000
310
40C0A00040C0C00040C0E00040E0000040E0200040E0400040E0600040E0800040E0A00040E0C00040E0E00080000000800020008000400080006000800080008000A0008000C0008000E00080200000802020008020400080206000802080008020A0008020C0008020E00080400000804020008040400080406000804080
310
008040A0008040C0008040E00080600000806020008060400080606000806080008060A0008060C0008060E00080800000808020008080400080806000808080008080A0008080C0008080E00080A0000080A0200080A0400080A0600080A0800080A0A00080A0C00080A0E00080C0000080C0200080C0400080C0600080C0
310
800080C0A00080C0C00080C0E00080E0000080E0200080E0400080E0600080E0800080E0A00080E0C00080E0E000C0000000C0002000C0004000C0006000C0008000C000A000C000C000C000E000C0200000C0202000C0204000C0206000C0208000C020A000C020C000C020E000C0400000C0402000C0404000C0406000C0
310
408000C040A000C040C000C040E000C0600000C0602000C0604000C0606000C0608000C060A000C060C000C060E000C0800000C0802000C0804000C0806000C0808000C080A000C080C000C080E000C0A00000C0A02000C0A04000C0A06000C0A08000C0A0A000C0A0C000C0A0E000C0C00000C0C02000C0C04000C0C06000
310
C0C08000C0C0A000F0FBFF00A4A0A000808080000000FF0000FF000000FFFF00FF000000FF00FF00FFFF0000FFFFFF00FFFFFFFFFFFFFFFFFFFFFFFFFFFFFFFFFFFFFFFFFFFFFFFFFFFFFFFFFFFFFFFFFFFFFFFFFFFFFFFFFFFFFF0000FFFFFFFFFFFF0000FFFFFFFFFFFFFFFFFFFFFFFFFFFFFFFFFFFFFFFFFFFF0000FFFF
310
FFFFFFFF0000FFFFFFFFFFFFFFFFFFFFFFFFFFFFFFFFFFFFFFFFFFFF0000FFFFFFFFFFFF0000FFFFFFFFFFFFFFFFFFFFFFFFFFFFFFFFFFFFFFFFFFFF0000FFFFFFFFFFFF0000FFFFFFFFFFFFFFFFFFFFFFFFFFFFFFFFFFFFFFFFFFFF0000FFFFFFFFFFFF0000FFFFFFFFFFFFFFFFFFFFFFFFFFFFFFFFFFFFFFFFFFFF0000FF
310
FFFFFFFFFF0000FFFFFFFFFFFFFFFFFFFFFFFFFFFFFFFFFFFFFFFFFFFF0000FFFFFFFFFFFF0000FFFFFFFFFFFFFFFFFFFFFFFFFFFFFFFFFFFFFFFFFFFF0000FFFFFFFFFFFF0000FFFFFFFFFFFFFFFFFFFFFFFFFFFFFFFFFFFFFFFFFFFF0000FFFFFFFFFFFF0000FFFFFFFFFFFFFFFFFFFFFFFFFFFFFFFFFFFFFFFFFFFF0000
310
FFFFFFFFFFFF0000FFFFFFFFFFFFFFFFFFFFFFFFFFFFFFFFFFFFFFFFFFFF0000FFFFFFFFFFFF0000FFFFFFFFFFFFFFFFFFFFFFFFFFFFFFFFFFFFFFFFFFFF0000FFFFFFFFFFFF0000FFFFFFFFFFFFFFFFFFFFFFFFFFFFFFFFFFFFFFFFFFFF0000FFFFFFFFFFFF0000FFFFFFFFFFFFFFFFFFFFFFFFFFFFFFFFFFFFFFFFFFFF00
310
00FFFFFFFFFFFF0000FFFFFFFFFFFFFFFFFFFFFFFFFFFFFFFFFFFFFFFFFFFF00000000000000000000FFFFFFFFFFFFFFFFFFFFFFFFFFFFFFFFFFFFFFFFFFFF00FFFFFFFFFFFFFFFF00FFFFFFFFFFFFFFFFFFFFFFFFFFFFFFFFFFFFFFFFFFFF00FFFFFFFFFFFFFFFF00FFFFFFFFFFFFFFFFFFFFFFFFFFFFFFFFFFFFFFFFFFFF
310
00000000000000000000FFFFFFFFFFFFFFFFFFFFFFFFFFFFFFFFFFFFFFFFFFFF0000FFFFFFFFFFFF0000FFFFFFFFFFFFFFFFFFFFFFFFFFFFFFFFFFFFFFFFFFFF0000FFFFFFFFFFFF0000FFFFFFFFFFFFFFFFFFFFFFFFFFFFFFFFFFFFFFFFFFFF0000FFFFFFFFFFFF0000FFFFFFFFFFFFFFFFFFFFFFFFFFFFFFFFFFFFFFFFFF
310
FF0000FFFFFFFFFFFF0000FFFFFFFFFFFFFFFFFFFFFFFFFFFFFFFFFFFFFFFFFFFF0000FFFFFFFFFFFF0000FFFFFFFFFFFFFFFFFFFFFFFFFFFFFFFFFFFFFFFFFFFF0000FFFFFFFFFFFF0000FFFFFFFFFFFFFFFFFFFFFFFFFFFFFFFFFFFFFFFFFFFF0000FFFFFFFFFFFF0000FFFFFFFFFFFFFFFFFFFFFFFFFFFFFFFFFFFFFFFF
310
FFFF0000FFFFFFFFFFFF0000FFFFFFFFFFFFFFFFFFFFFFFFFFFFFFFFFFFFFFFFFFFF0000FFFFFFFFFFFF0000FFFFFFFFFFFFFFFFFFFFFFFFFFFFFFFFFFFFFFFFFFFF0000FFFFFFFFFFFF0000FFFFFFFFFFFFFFFFFFFFFFFFFFFFFFFFFFFFFFFFFFFF0000FFFFFFFFFFFF0000FFFFFFFFFFFFFFFFFFFFFFFFFFFFFFFFFFFFFF
310
FFFFFF0000FFFFFFFFFFFF0000FFFFFFFFFFFFFFFFFFFFFFFFFFFFFFFFFFFFFFFFFFFFFFFFFFFFFFFFFFFFFFFFFFFFFFFFFFFFFFFFFFFFFF
102
{BLKREFS
331
2660
102
}
  0
BLOCK_RECORD
  5
2628
330
23C9
100
AcDbSymbolTableRecord
100
AcDbBlockTableRecord
  2
AI9-BLK11
340
0
310
2800000020000000200000000100080000000000000400000000000000000000000000000000000000000000000080000080000000808000800000008000800080800000C0C0C000C0DCC000F0CAA6000020400000206000002080000020A0000020C0000020E00000400000004020000040400000406000004080000040A0
310
000040C0000040E00000600000006020000060400000606000006080000060A0000060C0000060E00000800000008020000080400000806000008080000080A0000080C0000080E00000A0000000A0200000A0400000A0600000A0800000A0A00000A0C00000A0E00000C0000000C0200000C0400000C0600000C0800000C0
310
A00000C0C00000C0E00000E0000000E0200000E0400000E0600000E0800000E0A00000E0C00000E0E00040000000400020004000400040006000400080004000A0004000C0004000E00040200000402020004020400040206000402080004020A0004020C0004020E000404000004040200040404000404060004040800040
310
40A0004040C0004040E00040600000406020004060400040606000406080004060A0004060C0004060E00040800000408020004080400040806000408080004080A0004080C0004080E00040A0000040A0200040A0400040A0600040A0800040A0A00040A0C00040A0E00040C0000040C0200040C0400040C0600040C08000
310
40C0A00040C0C00040C0E00040E0000040E0200040E0400040E0600040E0800040E0A00040E0C00040E0E00080000000800020008000400080006000800080008000A0008000C0008000E00080200000802020008020400080206000802080008020A0008020C0008020E00080400000804020008040400080406000804080
310
008040A0008040C0008040E00080600000806020008060400080606000806080008060A0008060C0008060E00080800000808020008080400080806000808080008080A0008080C0008080E00080A0000080A0200080A0400080A0600080A0800080A0A00080A0C00080A0E00080C0000080C0200080C0400080C0600080C0
310
800080C0A00080C0C00080C0E00080E0000080E0200080E0400080E0600080E0800080E0A00080E0C00080E0E000C0000000C0002000C0004000C0006000C0008000C000A000C000C000C000E000C0200000C0202000C0204000C0206000C0208000C020A000C020C000C020E000C0400000C0402000C0404000C0406000C0
310
408000C040A000C040C000C040E000C0600000C0602000C0604000C0606000C0608000C060A000C060C000C060E000C0800000C0802000C0804000C0806000C0808000C080A000C080C000C080E000C0A00000C0A02000C0A04000C0A06000C0A08000C0A0A000C0A0C000C0A0E000C0C00000C0C02000C0C04000C0C06000
310
C0C08000C0C0A000F0FBFF00A4A0A000808080000000FF0000FF000000FFFF00FF000000FF00FF00FFFF0000FFFFFF00FFFFFFFFFFFFFFFFFFFFFFFFFFFFFFFFFFFFFFFFFFFFFFFFFFFFFFFFFFFFFFFFFFFFFFFFFFFFFFFFFFFFFFFFFFFF00000000FFFFFFFFFFFFFFFFFFFFFF000000FFFFFFFFFFFFFFFFFFFFFFFFFFFF00
310
FFFF00FFFFFFFFFFFFFFFFFFFFFF00FFFFFFFFFFFFFFFFFFFFFFFFFFFFFFFF00FFFF00FFFFFFFFFFFFFFFFFFFFFF00FFFFFFFFFFFFFFFFFFFFFFFFFFFFFFFF00FFFF00FFFFFFFFFFFFFFFFFFFFFF00FFFFFFFFFFFFFFFFFFFFFFFFFFFFFFFF00FFFF00FFFFFFFFFFFFFFFFFFFFFF00FFFFFFFFFFFFFFFFFFFFFFFFFFFFFFFF
310
00FFFF00FFFFFFFFFFFFFFFFFFFFFF00FFFFFFFFFFFFFFFFFFFFFFFFFFFFFFFF00FFFF00FFFFFFFFFFFFFFFFFFFFFF00FFFFFFFFFFFFFFFFFFFFFFFFFFFFFFFF00FFFF00FFFFFFFFFFFFFFFFFFFFFF00FFFFFFFFFFFFFFFFFFFFFFFFFFFFFFFF00FFFF00FFFFFFFFFFFFFFFFFFFFFF00FFFFFFFFFFFFFFFFFFFFFFFFFFFFFF
310
FF00FFFF00FFFFFFFFFFFFFFFFFFFFFF00FFFFFFFFFFFFFFFFFFFFFFFFFFFFFFFF00FFFF00FFFFFFFFFFFFFFFFFFFFFF00FFFFFFFFFFFFFFFFFFFFFFFFFFFFFFFF00FFFF00FFFFFFFFFFFFFFFFFFFFFF00FFFFFFFFFFFFFFFFFFFFFFFFFFFFFFFF00FFFF00FFFFFFFFFFFFFFFFFFFFFF00FFFFFFFFFFFFFFFFFFFFFFFFFFFF
310
FFFF00FFFF00FFFFFFFFFFFFFFFFFFFFFF00FFFFFFFFFFFFFFFFFFFFFFFFFFFFFFFF00FFFF00FFFFFFFFFFFFFFFFFFFFFF00FFFFFFFFFFFFFFFFFFFFFFFFFFFFFFFF00FFFF00FFFFFFFFFFFFFFFFFFFFFF00FFFFFFFFFFFFFFFFFFFFFFFFFFFFFFFF00FFFF00FFFFFFFFFFFFFFFFFFFF00FFFFFFFFFFFFFFFFFFFFFFFFFFFF
310
FFFFFF00FFFF00FFFFFFFFFFFFFFFFFFFF00FFFFFFFFFFFFFFFFFFFFFFFFFFFFFFFFFF00FFFF00FFFFFFFFFFFFFFFFFFFF00FFFFFFFFFFFFFFFFFFFFFFFFFFFFFFFFFF00FFFF00FFFFFFFFFFFFFFFFFFFF00FFFFFFFFFFFFFFFFFFFFFFFFFFFFFFFFFF00FFFF00FFFFFFFFFFFFFFFFFFFF00FFFFFFFFFFFFFFFFFFFFFFFFFF
310
FFFFFFFF00FFFF00FFFFFFFFFFFFFFFFFF0000FFFF00FFFFFFFFFFFFFFFFFFFFFFFFFFFF00FFFF00FFFFFFFFFFFFFFFF0000FFFFFF00FFFFFFFFFFFFFFFFFFFFFFFFFFFF00FFFF00000000000000000000FFFFFFFF00FFFFFFFFFFFFFFFFFFFFFFFFFFFF00FFFFFFFFFFFFFFFFFFFFFFFFFFFFFF00FFFFFFFFFFFFFFFFFFFF
310
FFFFFFFFFF00FFFFFFFFFFFFFFFFFFFFFFFFFFFF00FFFFFFFFFFFFFFFFFFFFFFFFFFFFFFFF00FFFFFFFFFFFFFFFFFFFFFFFFFFFF00FFFFFFFFFFFFFFFFFFFFFFFFFFFFFFFF00FFFFFFFFFFFFFFFFFFFFFFFFFFFFFF00FFFFFFFFFFFFFFFFFFFFFFFFFFFFFF00FFFFFFFFFFFFFFFFFFFFFFFFFFFFFF00FFFFFFFFFFFFFFFFFF
310
FFFFFFFFFFFF00FFFF00000000000000000000FFFFFFFF00FFFFFFFFFFFFFFFFFFFFFFFFFFFF00FFFF00FFFFFFFFFFFFFFFFFF0000FFFF00
102
{BLKREFS
331
2661
102
}
  0
BLOCK_RECORD
  5
262D
330
23C9
100
AcDbSymbolTableRecord
100
AcDbBlockTableRecord
  2
AI9-BLK10
340
0
310
2800000020000000200000000100080000000000000400000000000000000000000000000000000000000000000080000080000000808000800000008000800080800000C0C0C000C0DCC000F0CAA6000020400000206000002080000020A0000020C0000020E00000400000004020000040400000406000004080000040A0
310
000040C0000040E00000600000006020000060400000606000006080000060A0000060C0000060E00000800000008020000080400000806000008080000080A0000080C0000080E00000A0000000A0200000A0400000A0600000A0800000A0A00000A0C00000A0E00000C0000000C0200000C0400000C0600000C0800000C0
310
A00000C0C00000C0E00000E0000000E0200000E0400000E0600000E0800000E0A00000E0C00000E0E00040000000400020004000400040006000400080004000A0004000C0004000E00040200000402020004020400040206000402080004020A0004020C0004020E000404000004040200040404000404060004040800040
310
40A0004040C0004040E00040600000406020004060400040606000406080004060A0004060C0004060E00040800000408020004080400040806000408080004080A0004080C0004080E00040A0000040A0200040A0400040A0600040A0800040A0A00040A0C00040A0E00040C0000040C0200040C0400040C0600040C08000
310
40C0A00040C0C00040C0E00040E0000040E0200040E0400040E0600040E0800040E0A00040E0C00040E0E00080000000800020008000400080006000800080008000A0008000C0008000E00080200000802020008020400080206000802080008020A0008020C0008020E00080400000804020008040400080406000804080
310
008040A0008040C0008040E00080600000806020008060400080606000806080008060A0008060C0008060E00080800000808020008080400080806000808080008080A0008080C0008080E00080A0000080A0200080A0400080A0600080A0800080A0A00080A0C00080A0E00080C0000080C0200080C0400080C0600080C0
310
800080C0A00080C0C00080C0E00080E0000080E0200080E0400080E0600080E0800080E0A00080E0C00080E0E000C0000000C0002000C0004000C0006000C0008000C000A000C000C000C000E000C0200000C0202000C0204000C0206000C0208000C020A000C020C000C020E000C0400000C0402000C0404000C0406000C0
310
408000C040A000C040C000C040E000C0600000C0602000C0604000C0606000C0608000C060A000C060C000C060E000C0800000C0802000C0804000C0806000C0808000C080A000C080C000C080E000C0A00000C0A02000C0A04000C0A06000C0A08000C0A0A000C0A0C000C0A0E000C0C00000C0C02000C0C04000C0C06000
310
C0C08000C0C0A000F0FBFF00A4A0A000808080000000FF0000FF000000FFFF00FF000000FF00FF00FFFF0000FFFFFF00FFFFFFFFFFFFFFFFFFFFFFFFFFFFFFFF00FFFFFFFFFFFFFFFFFFFFFFFF00FFFFFFFFFFFFFFFFFFFFFFFFFFFFFFFFFFFF00FFFFFFFFFFFFFFFFFFFFFF00FFFFFFFFFFFFFFFFFFFFFFFFFFFFFFFFFFFF
310
FF00FFFFFFFFFFFFFFFFFFFFFF00FFFFFFFFFFFFFFFFFFFFFFFFFFFFFFFFFFFFFF00FFFFFFFFFFFFFFFFFFFFFF00FFFFFFFFFFFFFFFFFFFFFFFFFFFFFFFFFFFFFF00FFFFFFFFFFFFFFFFFFFFFF00FFFFFFFFFFFFFFFFFFFFFFFFFFFFFFFFFFFFFF00FFFFFFFFFFFFFFFFFFFFFF00FFFFFFFFFFFFFFFFFFFFFFFFFFFFFFFFFF
310
FFFF00FFFFFFFFFFFFFFFFFFFFFF00FFFFFFFFFFFFFFFFFFFFFFFFFFFFFFFFFFFFFF00FFFFFFFFFFFFFFFFFFFF00FFFFFFFFFFFFFFFFFFFFFFFFFFFFFFFFFFFFFFFF00FFFFFFFFFFFFFFFFFFFF00FFFFFFFFFFFFFFFFFFFFFFFFFFFFFFFFFFFFFFFF00FFFFFFFFFFFFFFFFFFFF00FFFFFFFFFFFFFFFFFFFFFFFFFFFFFFFFFF
310
FFFFFF00FFFFFFFFFFFFFFFFFFFF00FFFFFFFFFFFFFFFFFFFFFFFFFFFFFFFFFFFFFFFF00FFFFFFFFFFFFFFFFFFFF00FFFFFFFFFFFFFFFFFFFFFFFFFFFFFFFFFFFFFFFF00FFFFFFFFFFFFFFFFFFFF00FFFFFFFFFFFFFFFFFFFFFFFFFFFFFFFFFFFFFFFF00FFFFFFFFFFFFFFFFFF00FFFFFFFFFFFFFFFFFFFFFFFFFFFFFFFFFF
310
FFFFFFFF00FFFFFFFFFFFFFFFFFF00FFFFFFFFFFFFFFFFFFFFFFFFFFFFFFFFFFFFFFFFFF00FFFFFFFFFFFFFFFFFF00FFFFFFFFFFFFFFFFFFFFFFFFFFFFFFFFFFFFFFFFFF0000000000000000000000FFFFFFFFFFFFFFFFFFFFFFFFFFFFFFFFFFFFFFFFFFFFFFFFFFFFFFFFFFFFFFFFFFFFFFFFFFFFFFFFFFFFFFFFFFFFFFFF
310
FFFFFFFFFFFFFFFFFFFFFFFFFFFFFFFFFFFFFFFFFFFFFFFFFFFFFFFFFFFFFFFFFFFFFFFFFFFFFFFFFFFFFFFFFFFFFFFFFFFFFFFFFFFFFFFFFFFFFFFFFFFFFFFFFFFFFFFFFFFFFFFFFFFFFFFFFFFFFFFFFFFFFFFFFFFFFFFFFFFFFFFFFFFFFFFFFFFFFFFFFFFFFFFFFFFFFFFFFFFFFFFFFFFFFFFFFFFFFFFFFFFFFFFFFFFFFF
310
FFFFFFFFFFFFFFFFFFFFFFFFFFFFFFFFFFFFFFFFFFFFFFFFFFFFFFFFFFFFFFFFFFFFFFFFFFFFFFFFFFFFFFFFFFFFFFFFFFFFFFFFFFFFFFFFFFFFFFFFFFFFFFFFFFFFFFFFFFFFFFFFFFFFFFFFFFFFFFFFFFFFFFFFFFFFFFFFFFFFFFFFFFFFFFFFFFFFFFFFFFFFFFFFFFFFFFFFFFFFFFFFFFFFFFFFFFFFFFFFFFFFFFFFFFFFFF
310
FFFFFFFFFFFFFFFFFFFFFFFFFFFFFFFFFFFFFFFFFFFFFFFFFFFFFFFFFFFFFFFFFFFFFFFFFFFFFFFFFFFFFFFFFFFFFFFFFFFFFFFFFFFFFFFFFFFFFFFFFFFFFFFFFFFFFFFFFFFFFFFFFFFFFFFFFFFFFFFFFFFFFFFFFFFFFFFFFFFFFFFFFFFFFFFFFFFFFFFFFFFFFFFFFFFFFFFFFFFFFFFFFFFFFFFFFFFFFFFFFFFFFFFFFFFFFF
310
FFFFFFFFFFFFFFFFFFFFFFFFFFFFFFFFFFFFFFFFFFFFFFFFFFFFFFFFFFFFFFFFFFFFFFFFFFFFFFFFFFFFFFFFFFFFFFFFFFFFFFFFFFFFFFFF
102
{BLKREFS
331
2662
102
}
  0
BLOCK_RECORD
  5
2631
330
23C9
100
AcDbSymbolTableRecord
100
AcDbBlockTableRecord
  2
AI9-BLK9
340
0
310
2800000020000000200000000100080000000000000400000000000000000000000000000000000000000000000080000080000000808000800000008000800080800000C0C0C000C0DCC000F0CAA6000020400000206000002080000020A0000020C0000020E00000400000004020000040400000406000004080000040A0
310
000040C0000040E00000600000006020000060400000606000006080000060A0000060C0000060E00000800000008020000080400000806000008080000080A0000080C0000080E00000A0000000A0200000A0400000A0600000A0800000A0A00000A0C00000A0E00000C0000000C0200000C0400000C0600000C0800000C0
310
A00000C0C00000C0E00000E0000000E0200000E0400000E0600000E0800000E0A00000E0C00000E0E00040000000400020004000400040006000400080004000A0004000C0004000E00040200000402020004020400040206000402080004020A0004020C0004020E000404000004040200040404000404060004040800040
310
40A0004040C0004040E00040600000406020004060400040606000406080004060A0004060C0004060E00040800000408020004080400040806000408080004080A0004080C0004080E00040A0000040A0200040A0400040A0600040A0800040A0A00040A0C00040A0E00040C0000040C0200040C0400040C0600040C08000
310
40C0A00040C0C00040C0E00040E0000040E0200040E0400040E0600040E0800040E0A00040E0C00040E0E00080000000800020008000400080006000800080008000A0008000C0008000E00080200000802020008020400080206000802080008020A0008020C0008020E00080400000804020008040400080406000804080
310
008040A0008040C0008040E00080600000806020008060400080606000806080008060A0008060C0008060E00080800000808020008080400080806000808080008080A0008080C0008080E00080A0000080A0200080A0400080A0600080A0800080A0A00080A0C00080A0E00080C0000080C0200080C0400080C0600080C0
310
800080C0A00080C0C00080C0E00080E0000080E0200080E0400080E0600080E0800080E0A00080E0C00080E0E000C0000000C0002000C0004000C0006000C0008000C000A000C000C000C000E000C0200000C0202000C0204000C0206000C0208000C020A000C020C000C020E000C0400000C0402000C0404000C0406000C0
310
408000C040A000C040C000C040E000C0600000C0602000C0604000C0606000C0608000C060A000C060C000C060E000C0800000C0802000C0804000C0806000C0808000C080A000C080C000C080E000C0A00000C0A02000C0A04000C0A06000C0A08000C0A0A000C0A0C000C0A0E000C0C00000C0C02000C0C04000C0C06000
310
C0C08000C0C0A000F0FBFF00A4A0A000808080000000FF0000FF000000FFFF00FF000000FF00FF00FFFF0000FFFFFF00FFFFFFFFFFFFFFFFFFFFFFFFFFFFFFFFFFFFFFFFFFFFFFFFFFFFFFFFFFFFFFFFFFFFFFFFFFFFFFFFFFFFFFFFFFFFFF0000FFFFFFFFFFFFFFFFFFFFFFFFFFFFFFFFFFFFFFFFFFFFFFFFFFFFFFFF0000
310
FF0000FFFFFFFFFFFFFFFFFFFFFFFFFFFFFFFFFFFFFFFFFFFFFFFFFFFFFF00FFFFFF0000FFFFFFFFFFFFFFFFFFFFFFFFFFFFFFFFFFFFFFFFFFFFFFFFFFFF00FFFFFFFF0000FFFFFFFFFFFFFFFFFFFFFFFFFFFFFFFFFFFFFFFFFFFFFFFF00FF00000000FF00FFFFFFFFFFFFFFFFFFFFFFFFFFFFFFFFFFFFFFFFFFFFFFFF0000
310
00FFFF00FF00FFFFFFFFFFFFFFFFFFFFFFFFFFFFFFFFFFFFFFFFFFFFFFFF0000FFFFFFFF0000FFFFFFFFFFFFFFFFFFFFFFFFFFFFFFFFFFFFFFFFFFFFFFFF0000FFFFFFFF0000FFFFFFFFFFFFFFFFFFFFFFFFFFFFFFFFFFFFFFFFFFFFFF00FF00FFFFFFFF00FF00FFFFFFFFFFFFFFFFFFFFFFFFFFFFFFFFFFFFFFFFFFFF0000
310
FFFFFFFFFF00FF00FFFFFFFFFFFFFFFFFFFFFFFFFFFFFFFFFFFFFFFFFFFF0000FFFFFFFFFFFF0000FFFFFFFFFFFFFFFFFFFFFFFFFFFFFFFFFFFFFFFFFFFF0000FFFFFFFFFFFF0000FFFFFFFFFFFFFFFFFFFFFFFFFFFFFFFFFFFFFFFFFFFF0000FFFFFFFFFFFF0000FFFFFFFFFFFFFFFFFFFFFFFFFFFFFFFFFFFFFFFFFFFF00
310
00FFFFFFFFFFFF0000FFFFFFFFFFFFFFFFFFFFFFFFFFFFFFFFFFFFFFFFFFFF0000FFFFFFFFFFFF0000FFFFFFFFFFFFFFFFFFFFFFFFFFFFFFFFFFFFFFFFFFFF0000FFFFFFFFFFFF0000FFFFFFFFFFFFFFFFFFFFFFFFFFFFFFFFFFFFFFFFFFFF0000FFFFFFFFFFFF0000FFFFFFFFFFFFFFFFFFFFFFFFFFFFFFFFFFFFFFFFFFFF
310
0000FFFFFFFFFFFF0000FFFFFFFFFFFFFFFFFFFFFFFFFFFFFFFFFFFFFFFFFFFF0000FFFFFFFFFFFF0000FFFFFFFFFFFFFFFFFFFFFFFFFFFFFFFFFFFFFFFFFFFF0000FFFFFFFFFFFF0000FFFFFFFFFFFFFFFFFFFFFFFFFFFFFFFFFFFFFFFFFFFF00FF00FFFFFFFF00FF00FFFFFFFFFFFFFFFFFFFFFFFFFFFFFFFFFFFFFFFFFF
310
FF00FF00FFFFFFFF00FF00FFFFFFFFFFFFFFFFFFFFFFFFFFFFFFFFFFFFFFFFFFFF00FF00FFFFFFFF00FF00FFFFFFFFFFFFFFFFFFFFFFFFFFFFFFFFFFFFFFFFFFFFFF0000FFFFFFFF0000FFFFFFFFFFFFFFFFFFFFFFFFFFFFFFFFFFFFFFFFFFFFFFFF00FF00FFFF00FF00FFFFFFFFFFFFFFFFFFFFFFFFFFFFFFFFFFFFFFFFFF
310
FFFFFF00FF00000000FF00FFFFFFFFFFFFFFFFFFFFFFFFFFFFFFFFFFFFFFFFFFFFFFFFFF00FFFFFFFF0000FFFFFFFFFFFFFFFFFFFFFFFFFFFFFFFFFFFFFFFFFFFFFFFFFF00FFFFFFFF00FFFFFFFFFFFFFFFFFFFFFFFFFFFFFFFFFFFFFFFFFFFFFFFFFFFFFF00000000FFFFFFFFFFFFFFFFFFFFFFFFFFFFFFFFFFFFFFFFFFFF
310
FFFFFFFFFFFFFF0000FFFFFFFFFFFFFFFFFFFFFFFFFFFFFFFFFFFFFFFFFFFFFFFFFFFFFFFFFFFFFFFFFFFFFFFFFFFFFFFFFFFFFFFFFFFFFF
102
{BLKREFS
331
2663
102
}
  0
BLOCK_RECORD
  5
2636
330
23C9
100
AcDbSymbolTableRecord
100
AcDbBlockTableRecord
  2
AI9-BLK8
340
0
310
2800000020000000200000000100080000000000000400000000000000000000000000000000000000000000000080000080000000808000800000008000800080800000C0C0C000C0DCC000F0CAA6000020400000206000002080000020A0000020C0000020E00000400000004020000040400000406000004080000040A0
310
000040C0000040E00000600000006020000060400000606000006080000060A0000060C0000060E00000800000008020000080400000806000008080000080A0000080C0000080E00000A0000000A0200000A0400000A0600000A0800000A0A00000A0C00000A0E00000C0000000C0200000C0400000C0600000C0800000C0
310
A00000C0C00000C0E00000E0000000E0200000E0400000E0600000E0800000E0A00000E0C00000E0E00040000000400020004000400040006000400080004000A0004000C0004000E00040200000402020004020400040206000402080004020A0004020C0004020E000404000004040200040404000404060004040800040
310
40A0004040C0004040E00040600000406020004060400040606000406080004060A0004060C0004060E00040800000408020004080400040806000408080004080A0004080C0004080E00040A0000040A0200040A0400040A0600040A0800040A0A00040A0C00040A0E00040C0000040C0200040C0400040C0600040C08000
310
40C0A00040C0C00040C0E00040E0000040E0200040E0400040E0600040E0800040E0A00040E0C00040E0E00080000000800020008000400080006000800080008000A0008000C0008000E00080200000802020008020400080206000802080008020A0008020C0008020E00080400000804020008040400080406000804080
310
008040A0008040C0008040E00080600000806020008060400080606000806080008060A0008060C0008060E00080800000808020008080400080806000808080008080A0008080C0008080E00080A0000080A0200080A0400080A0600080A0800080A0A00080A0C00080A0E00080C0000080C0200080C0400080C0600080C0
310
800080C0A00080C0C00080C0E00080E0000080E0200080E0400080E0600080E0800080E0A00080E0C00080E0E000C0000000C0002000C0004000C0006000C0008000C000A000C000C000C000E000C0200000C0202000C0204000C0206000C0208000C020A000C020C000C020E000C0400000C0402000C0404000C0406000C0
310
408000C040A000C040C000C040E000C0600000C0602000C0604000C0606000C0608000C060A000C060C000C060E000C0800000C0802000C0804000C0806000C0808000C080A000C080C000C080E000C0A00000C0A02000C0A04000C0A06000C0A08000C0A0A000C0A0C000C0A0E000C0C00000C0C02000C0C04000C0C06000
310
C0C08000C0C0A000F0FBFF00A4A0A000808080000000FF0000FF000000FFFF00FF000000FF00FF00FFFF0000FFFFFF00FFFFFFFFFFFFFFFFFFFFFFFFFFFFFFFFFFFFFFFFFFFFFFFFFFFFFFFFFFFFFFFFFFFFFFFFFFFFFFFFFFFFFF0000FFFFFFFFFFFF0000FFFFFFFFFFFFFFFFFFFFFFFFFFFFFFFFFFFFFFFFFFFF0000FFFF
310
FFFFFFFF0000FFFFFFFFFFFFFFFFFFFFFFFFFFFFFFFFFFFFFFFFFFFF0000FFFFFFFFFF00FF00FFFFFFFFFFFFFFFFFFFFFFFFFFFFFFFFFFFFFFFFFFFF0000FFFFFFFFFF00FF00FFFFFFFFFFFFFFFFFFFFFFFFFFFFFFFFFFFFFFFFFFFF0000FFFFFFFFFF00FF00FFFFFFFFFFFFFFFFFFFFFFFFFFFFFFFFFFFFFFFFFFFF0000FF
310
FFFFFF00FFFF00FFFFFFFFFFFFFFFFFFFFFFFFFFFFFFFFFFFFFFFFFFFF0000FFFFFFFF00FF0000FFFFFFFFFFFFFFFFFFFFFFFFFFFFFFFFFFFFFFFFFFFF0000FFFFFFFF00FF0000FFFFFFFFFFFFFFFFFFFFFFFFFFFFFFFFFFFFFFFFFFFF0000FFFFFFFF00000000FFFFFFFFFFFFFFFFFFFFFFFFFFFFFFFFFFFFFFFFFFFF0000
310
FFFFFF00FF000000FFFFFFFFFFFFFFFFFFFFFFFFFFFFFFFFFFFFFFFFFFFF0000FFFFFF00FF000000FFFFFFFFFFFFFFFFFFFFFFFFFFFFFFFFFFFFFFFFFFFF0000FFFFFF00FF000000FFFFFFFFFFFFFFFFFFFFFFFFFFFFFFFFFFFFFFFFFFFF0000FFFF00FF00FF0000FFFFFFFFFFFFFFFFFFFFFFFFFFFFFFFFFFFFFFFFFFFF00
310
00FFFF00FF00FF0000FFFFFFFFFFFFFFFFFFFFFFFFFFFFFFFFFFFFFFFFFFFF0000FFFF00FF00FF0000FFFFFFFFFFFFFFFFFFFFFFFFFFFFFFFFFFFFFFFFFFFF0000FF00FFFF00FF0000FFFFFFFFFFFFFFFFFFFFFFFFFFFFFFFFFFFFFFFFFFFF0000FF00FF00FFFF0000FFFFFFFFFFFFFFFFFFFFFFFFFFFFFFFFFFFFFFFFFFFF
310
0000FF00FF00FFFF0000FFFFFFFFFFFFFFFFFFFFFFFFFFFFFFFFFFFFFFFFFFFF0000FF00FF00FFFF0000FFFFFFFFFFFFFFFFFFFFFFFFFFFFFFFFFFFFFFFFFFFF000000FFFF00FFFF0000FFFFFFFFFFFFFFFFFFFFFFFFFFFFFFFFFFFFFFFFFFFF000000FF00FFFFFF0000FFFFFFFFFFFFFFFFFFFFFFFFFFFFFFFFFFFFFFFFFF
310
FF000000FF00FFFFFF0000FFFFFFFFFFFFFFFFFFFFFFFFFFFFFFFFFFFFFFFFFFFF0000FFFF00FFFFFF0000FFFFFFFFFFFFFFFFFFFFFFFFFFFFFFFFFFFFFFFFFFFF0000FFFF00FFFFFF0000FFFFFFFFFFFFFFFFFFFFFFFFFFFFFFFFFFFFFFFFFFFF00FFFF00FFFFFFFF0000FFFFFFFFFFFFFFFFFFFFFFFFFFFFFFFFFFFFFFFF
310
FFFF00FFFF00FFFFFFFF0000FFFFFFFFFFFFFFFFFFFFFFFFFFFFFFFFFFFFFFFFFFFF00FFFF00FFFFFFFF0000FFFFFFFFFFFFFFFFFFFFFFFFFFFFFFFFFFFFFFFFFFFF00FFFF00FFFFFFFF0000FFFFFFFFFFFFFFFFFFFFFFFFFFFFFFFFFFFFFFFFFFFF00FF00FFFFFFFFFF0000FFFFFFFFFFFFFFFFFFFFFFFFFFFFFFFFFFFFFF
310
FFFFFF000000FFFFFFFFFF0000FFFFFFFFFFFFFFFFFFFFFFFFFFFFFFFFFFFFFFFFFFFFFFFFFFFFFFFFFFFFFFFFFFFFFFFFFFFFFFFFFFFFFF
102
{BLKREFS
331
2664
102
}
  0
BLOCK_RECORD
  5
263B
330
23C9
100
AcDbSymbolTableRecord
100
AcDbBlockTableRecord
  2
AI9-BLK7
340
0
310
2800000020000000200000000100080000000000000400000000000000000000000000000000000000000000000080000080000000808000800000008000800080800000C0C0C000C0DCC000F0CAA6000020400000206000002080000020A0000020C0000020E00000400000004020000040400000406000004080000040A0
310
000040C0000040E00000600000006020000060400000606000006080000060A0000060C0000060E00000800000008020000080400000806000008080000080A0000080C0000080E00000A0000000A0200000A0400000A0600000A0800000A0A00000A0C00000A0E00000C0000000C0200000C0400000C0600000C0800000C0
310
A00000C0C00000C0E00000E0000000E0200000E0400000E0600000E0800000E0A00000E0C00000E0E00040000000400020004000400040006000400080004000A0004000C0004000E00040200000402020004020400040206000402080004020A0004020C0004020E000404000004040200040404000404060004040800040
310
40A0004040C0004040E00040600000406020004060400040606000406080004060A0004060C0004060E00040800000408020004080400040806000408080004080A0004080C0004080E00040A0000040A0200040A0400040A0600040A0800040A0A00040A0C00040A0E00040C0000040C0200040C0400040C0600040C08000
310
40C0A00040C0C00040C0E00040E0000040E0200040E0400040E0600040E0800040E0A00040E0C00040E0E00080000000800020008000400080006000800080008000A0008000C0008000E00080200000802020008020400080206000802080008020A0008020C0008020E00080400000804020008040400080406000804080
310
008040A0008040C0008040E00080600000806020008060400080606000806080008060A0008060C0008060E00080800000808020008080400080806000808080008080A0008080C0008080E00080A0000080A0200080A0400080A0600080A0800080A0A00080A0C00080A0E00080C0000080C0200080C0400080C0600080C0
310
800080C0A00080C0C00080C0E00080E0000080E0200080E0400080E0600080E0800080E0A00080E0C00080E0E000C0000000C0002000C0004000C0006000C0008000C000A000C000C000C000E000C0200000C0202000C0204000C0206000C0208000C020A000C020C000C020E000C0400000C0402000C0404000C0406000C0
310
408000C040A000C040C000C040E000C0600000C0602000C0604000C0606000C0608000C060A000C060C000C060E000C0800000C0802000C0804000C0806000C0808000C080A000C080C000C080E000C0A00000C0A02000C0A04000C0A06000C0A08000C0A0A000C0A0C000C0A0E000C0C00000C0C02000C0C04000C0C06000
310
C0C08000C0C0A000F0FBFF00A4A0A000808080000000FF0000FF000000FFFF00FF000000FF00FF00FFFF0000FFFFFF00FFFFFFFFFFFFFFFFFFFFFFFFFFFFFFFFFFFFFFFFFFFFFFFFFFFFFFFFFFFFFFFFFFFFFFFFFFFFFFFFFFFFFFFFFFFFFF0000FFFFFFFFFFFFFFFFFFFFFFFFFFFFFFFFFFFFFFFFFFFFFFFFFFFFFFFFFFFF
310
0000FFFFFFFFFFFFFFFFFFFFFFFFFFFFFFFFFFFFFFFFFFFFFFFFFFFFFFFFFFFF0000FFFFFFFFFFFFFFFFFFFFFFFFFFFFFFFFFFFFFFFFFFFFFFFFFFFFFFFFFFFF0000FFFFFFFFFFFFFFFFFFFFFFFFFFFFFFFFFFFFFFFFFFFFFFFFFFFFFFFFFFFF0000FFFFFFFFFFFFFFFFFFFFFFFFFFFFFFFFFFFFFFFFFFFFFFFFFFFFFFFFFF
310
FF0000FFFFFFFFFFFFFFFFFFFFFFFFFFFFFFFFFFFFFFFFFFFFFFFFFFFFFFFFFFFF0000FFFFFFFFFFFFFFFFFFFFFFFFFFFFFFFFFFFFFFFFFFFFFFFFFFFFFFFFFFFF0000FFFFFFFFFFFFFFFFFFFFFFFFFFFFFFFFFFFFFFFFFFFFFFFFFFFFFFFFFFFF0000FFFFFFFFFFFFFFFFFFFFFFFFFFFFFFFFFFFFFFFFFFFFFFFFFFFFFFFF
310
FFFF0000FFFFFFFFFFFFFFFFFFFFFFFFFFFFFFFFFFFFFFFFFFFFFFFFFFFFFFFFFFFF0000FFFFFFFFFFFFFFFFFFFFFFFFFFFFFFFFFFFFFFFFFFFFFFFFFFFFFFFFFFFF0000FFFFFFFFFFFFFFFFFFFFFFFFFFFFFFFFFFFFFFFFFFFFFFFFFFFFFFFFFFFF0000FFFFFFFFFFFFFFFFFFFFFFFFFFFFFFFFFFFFFFFFFFFFFFFFFFFFFF
310
FFFFFF0000FFFFFFFFFFFFFFFFFFFFFFFFFFFFFFFFFFFFFFFFFFFFFFFFFFFFFFFFFFFF0000FFFFFFFFFFFFFFFFFFFFFFFFFFFFFFFFFFFFFFFFFFFFFFFFFFFFFFFFFFFF0000FFFFFFFFFFFFFFFFFFFFFFFFFFFFFFFFFFFFFFFFFFFFFFFFFFFFFFFFFFFF0000FFFFFFFFFFFFFFFFFFFFFFFFFFFFFFFFFFFFFFFFFFFFFFFFFFFF
310
FFFFFFFF0000FFFFFFFFFFFFFFFFFFFFFFFFFFFFFFFFFFFFFFFFFFFFFFFFFFFFFFFFFFFF0000FFFFFFFFFFFFFFFFFFFFFFFFFFFFFFFFFFFFFFFFFFFFFFFFFFFFFFFFFFFF0000FFFFFFFFFFFFFFFFFFFFFFFFFFFFFFFFFFFFFFFFFFFFFFFFFFFFFFFFFFFF0000FFFFFFFFFFFFFFFFFFFFFFFFFFFFFFFFFFFFFFFFFFFFFFFFFF
310
FFFFFFFFFF0000FFFFFFFFFFFFFFFFFFFFFFFFFFFFFFFFFFFFFFFFFFFFFFFFFFFFFFFFFFFF0000FFFFFFFFFFFFFFFFFFFFFFFFFFFFFFFFFFFFFFFFFFFFFFFFFFFFFFFFFFFF0000FFFFFFFFFFFFFFFFFFFFFFFFFFFFFFFFFFFFFFFFFFFFFFFFFFFFFFFFFFFF0000FFFFFFFFFFFFFFFFFFFFFFFFFFFFFFFFFFFFFFFFFFFFFFFF
310
FFFFFFFFFFFF0000FFFFFFFFFFFFFFFFFFFFFFFFFFFFFFFFFFFFFFFFFFFFFFFFFFFFFFFFFFFF0000FFFFFFFFFFFFFFFFFFFFFFFFFFFFFFFFFFFFFFFFFFFFFFFFFFFFFFFFFFFF0000FFFFFFFFFFFFFFFFFFFFFFFFFFFFFFFFFFFFFFFFFFFFFFFFFFFFFFFFFFFF0000FFFFFFFFFFFFFFFFFFFFFFFFFFFFFFFFFFFFFFFFFFFFFF
310
FFFFFFFFFFFFFF0000FFFFFFFFFFFFFFFFFFFFFFFFFFFFFFFFFFFFFFFFFFFFFFFFFFFFFFFFFFFFFFFFFFFFFFFFFFFFFFFFFFFFFFFFFFFFFF
102
{BLKREFS
331
2665
102
}
  0
BLOCK_RECORD
  5
2640
330
23C9
100
AcDbSymbolTableRecord
100
AcDbBlockTableRecord
  2
AI9-BLK6
340
0
310
2800000020000000200000000100080000000000000400000000000000000000000000000000000000000000000080000080000000808000800000008000800080800000C0C0C000C0DCC000F0CAA6000020400000206000002080000020A0000020C0000020E00000400000004020000040400000406000004080000040A0
310
000040C0000040E00000600000006020000060400000606000006080000060A0000060C0000060E00000800000008020000080400000806000008080000080A0000080C0000080E00000A0000000A0200000A0400000A0600000A0800000A0A00000A0C00000A0E00000C0000000C0200000C0400000C0600000C0800000C0
310
A00000C0C00000C0E00000E0000000E0200000E0400000E0600000E0800000E0A00000E0C00000E0E00040000000400020004000400040006000400080004000A0004000C0004000E00040200000402020004020400040206000402080004020A0004020C0004020E000404000004040200040404000404060004040800040
310
40A0004040C0004040E00040600000406020004060400040606000406080004060A0004060C0004060E00040800000408020004080400040806000408080004080A0004080C0004080E00040A0000040A0200040A0400040A0600040A0800040A0A00040A0C00040A0E00040C0000040C0200040C0400040C0600040C08000
310
40C0A00040C0C00040C0E00040E0000040E0200040E0400040E0600040E0800040E0A00040E0C00040E0E00080000000800020008000400080006000800080008000A0008000C0008000E00080200000802020008020400080206000802080008020A0008020C0008020E00080400000804020008040400080406000804080
310
008040A0008040C0008040E00080600000806020008060400080606000806080008060A0008060C0008060E00080800000808020008080400080806000808080008080A0008080C0008080E00080A0000080A0200080A0400080A0600080A0800080A0A00080A0C00080A0E00080C0000080C0200080C0400080C0600080C0
310
800080C0A00080C0C00080C0E00080E0000080E0200080E0400080E0600080E0800080E0A00080E0C00080E0E000C0000000C0002000C0004000C0006000C0008000C000A000C000C000C000E000C0200000C0202000C0204000C0206000C0208000C020A000C020C000C020E000C0400000C0402000C0404000C0406000C0
310
408000C040A000C040C000C040E000C0600000C0602000C0604000C0606000C0608000C060A000C060C000C060E000C0800000C0802000C0804000C0806000C0808000C080A000C080C000C080E000C0A00000C0A02000C0A04000C0A06000C0A08000C0A0A000C0A0C000C0A0E000C0C00000C0C02000C0C04000C0C06000
310
C0C08000C0C0A000F0FBFF00A4A0A000808080000000FF0000FF000000FFFF00FF000000FF00FF00FFFF0000FFFFFF00FFFFFFFFFFFFFFFFFFFFFFFF00FFFFFFFFFFFFFF00FFFFFFFFFFFFFFFFFFFFFFFFFFFFFFFFFFFFFFFFFFFFFF00FFFFFFFFFFFFFF00FFFFFFFFFFFFFFFFFFFFFFFFFFFFFFFFFFFFFFFFFFFFFF00FFFF
310
FFFFFFFFFF00FFFFFFFFFFFFFFFFFFFFFFFFFFFFFFFFFFFFFFFFFFFF00FFFFFFFFFFFFFFFF00FFFFFFFFFFFFFFFFFFFFFFFFFFFFFFFFFFFFFFFFFFFF00FFFFFFFFFFFFFF00FFFFFFFFFFFFFFFFFFFFFFFFFFFFFFFFFFFFFFFFFFFFFF00FFFFFFFFFFFFFF00FFFFFFFFFFFFFFFFFFFFFFFFFFFFFFFFFFFFFFFFFFFF00FFFFFF
310
FFFFFFFFFF00FFFFFFFFFFFFFFFFFFFFFFFFFFFFFFFFFFFFFFFFFFFF00FFFFFFFFFFFFFF00FFFFFFFFFFFFFFFFFFFFFFFFFFFFFFFFFFFFFFFFFFFF00FFFFFFFFFFFFFFFF00FFFFFFFFFFFFFFFFFFFFFFFFFFFFFFFFFFFFFFFFFF00FFFFFFFFFFFFFFFFFF00FFFFFFFFFFFFFFFFFFFFFFFFFFFFFFFFFFFFFFFF00FFFFFFFFFF
310
FFFFFFFFFF00FFFFFFFFFFFFFFFFFFFFFFFFFFFFFFFFFFFFFF00FFFFFFFFFFFFFFFFFFFF00FFFFFFFFFFFFFFFFFFFFFFFFFFFFFFFFFFFF0000FFFFFFFFFFFFFFFFFFFFFF00FFFFFFFFFFFFFFFFFFFFFFFFFFFF00000000FFFFFFFFFFFFFFFFFFFFFFFFFF00FFFFFFFFFFFFFFFFFFFFFFFFFFFFFFFFFFFFFFFFFFFFFFFFFFFF
310
FFFFFFFF00FFFFFFFFFFFFFFFFFFFFFFFFFFFFFFFFFFFFFFFFFFFFFFFFFFFFFFFFFFFFFF00FFFFFFFFFFFFFFFFFFFFFFFFFFFFFFFFFFFFFFFFFFFFFFFFFFFFFFFFFFFFFF00FFFFFFFFFFFFFFFFFFFFFFFFFFFFFFFFFFFFFFFFFFFFFFFFFFFFFFFFFFFF00FFFFFFFFFFFFFFFFFFFFFFFFFFFFFFFFFFFFFFFFFFFFFFFFFFFFFF
310
FFFFFFFF00FFFFFFFFFFFFFFFFFFFFFFFFFFFFFFFFFFFFFFFFFFFFFFFFFFFFFFFFFFFF00FFFFFFFFFFFFFFFFFFFFFFFFFFFFFFFFFFFFFFFFFFFFFFFFFFFFFFFFFFFF00FFFFFFFFFFFFFFFFFFFFFFFFFFFFFFFFFFFFFFFFFFFFFFFFFFFFFFFFFFFF00FFFFFFFFFFFFFFFFFFFFFFFFFFFFFFFFFFFFFFFFFFFFFFFFFFFFFFFFFF
310
FF00FFFFFFFFFFFFFFFFFFFFFFFFFFFFFFFFFFFFFFFFFFFFFFFFFFFFFFFFFFFFFF00FFFFFFFFFFFFFFFFFFFFFFFFFFFFFFFFFFFFFFFFFFFFFFFFFFFFFFFFFFFF00FFFFFFFFFFFFFFFFFFFFFFFFFFFFFFFFFFFFFFFFFFFFFFFFFFFFFFFFFF0000FFFFFFFFFFFFFFFFFFFFFFFFFFFFFFFFFFFFFFFFFFFFFFFFFFFFFFFF0000FF
310
FFFFFFFFFFFFFFFFFFFFFFFFFFFFFFFFFFFFFFFFFFFFFFFFFF00000000FFFFFFFFFFFFFFFFFFFFFFFFFFFFFFFFFFFFFFFFFFFFFFFFFFFF0000FFFFFFFFFFFFFFFFFFFFFFFFFFFFFFFFFFFFFFFFFFFFFFFFFFFFFFFFFFFFFFFFFFFFFFFFFFFFFFFFFFFFFFFFFFFFFFFFFFFFFFFFFFFFFFFFFFFFFFFFFFFFFFFFFFFFFFFFFFFF
310
FFFFFFFFFFFFFFFFFFFFFFFFFFFFFFFFFFFFFFFFFFFFFFFFFFFFFFFFFFFFFFFFFFFFFFFFFFFFFFFFFFFFFFFFFFFFFFFFFFFFFFFFFFFFFFFF
102
{BLKREFS
331
2666
102
}
  0
BLOCK_RECORD
  5
2644
330
23C9
100
AcDbSymbolTableRecord
100
AcDbBlockTableRecord
  2
AI9-BLK5
340
0
310
2800000020000000200000000100080000000000000400000000000000000000000000000000000000000000000080000080000000808000800000008000800080800000C0C0C000C0DCC000F0CAA6000020400000206000002080000020A0000020C0000020E00000400000004020000040400000406000004080000040A0
310
000040C0000040E00000600000006020000060400000606000006080000060A0000060C0000060E00000800000008020000080400000806000008080000080A0000080C0000080E00000A0000000A0200000A0400000A0600000A0800000A0A00000A0C00000A0E00000C0000000C0200000C0400000C0600000C0800000C0
310
A00000C0C00000C0E00000E0000000E0200000E0400000E0600000E0800000E0A00000E0C00000E0E00040000000400020004000400040006000400080004000A0004000C0004000E00040200000402020004020400040206000402080004020A0004020C0004020E000404000004040200040404000404060004040800040
310
40A0004040C0004040E00040600000406020004060400040606000406080004060A0004060C0004060E00040800000408020004080400040806000408080004080A0004080C0004080E00040A0000040A0200040A0400040A0600040A0800040A0A00040A0C00040A0E00040C0000040C0200040C0400040C0600040C08000
310
40C0A00040C0C00040C0E00040E0000040E0200040E0400040E0600040E0800040E0A00040E0C00040E0E00080000000800020008000400080006000800080008000A0008000C0008000E00080200000802020008020400080206000802080008020A0008020C0008020E00080400000804020008040400080406000804080
310
008040A0008040C0008040E00080600000806020008060400080606000806080008060A0008060C0008060E00080800000808020008080400080806000808080008080A0008080C0008080E00080A0000080A0200080A0400080A0600080A0800080A0A00080A0C00080A0E00080C0000080C0200080C0400080C0600080C0
310
800080C0A00080C0C00080C0E00080E0000080E0200080E0400080E0600080E0800080E0A00080E0C00080E0E000C0000000C0002000C0004000C0006000C0008000C000A000C000C000C000E000C0200000C0202000C0204000C0206000C0208000C020A000C020C000C020E000C0400000C0402000C0404000C0406000C0
310
408000C040A000C040C000C040E000C0600000C0602000C0604000C0606000C0608000C060A000C060C000C060E000C0800000C0802000C0804000C0806000C0808000C080A000C080C000C080E000C0A00000C0A02000C0A04000C0A06000C0A08000C0A0A000C0A0C000C0A0E000C0C00000C0C02000C0C04000C0C06000
310
C0C08000C0C0A000F0FBFF00A4A0A000808080000000FF0000FF000000FFFF00FF000000FF00FF00FFFF0000FFFFFF00FFFFFFFFFFFFFFFFFFFFFFFFFFFFFFFFFFFFFFFFFFFFFFFFFFFFFFFFFFFFFFFFFFFFFFFFFFFFFFFF000000000000000000000000000000000000000000000000FFFFFFFFFFFFFFFF00FFFFFFFFFFFF
310
FFFFFFFFFFFFFFFFFFFFFFFFFFFFFFFFFFFFFFFFFFFFFFFFFF00FFFFFFFFFFFFFFFFFFFFFFFFFFFFFFFFFFFFFFFFFFFFFFFFFFFFFFFFFFFFFF00FFFFFFFFFFFFFFFFFFFFFFFFFFFFFFFFFFFFFFFFFFFFFFFFFFFFFFFFFFFFFF00FFFFFFFFFFFFFFFFFFFFFFFFFFFFFFFFFFFFFFFFFFFFFFFFFFFFFFFFFFFFFF00FFFFFFFFFF
310
FFFFFFFFFFFFFFFFFFFFFFFFFFFFFFFFFFFFFFFFFFFFFFFFFFFF00FFFFFFFFFFFFFFFFFFFFFFFFFFFFFFFFFFFFFFFFFFFFFFFFFFFFFFFFFFFFFF00FFFFFFFFFFFFFFFFFFFFFFFFFFFFFFFFFFFFFFFFFFFFFFFFFFFFFFFFFFFFFF00FFFFFFFFFFFFFFFFFFFFFFFFFFFFFFFFFFFFFFFFFFFFFFFFFFFFFFFFFFFFFF00FFFFFFFF
310
FFFFFFFFFFFFFFFFFFFFFFFFFFFFFFFFFFFFFFFFFFFFFFFFFFFFFF00FFFFFFFFFFFFFFFFFFFFFFFFFFFFFFFFFFFFFFFFFFFFFFFFFFFFFFFFFFFFFF00FFFFFFFFFFFFFFFFFFFFFFFFFFFFFFFFFFFFFFFFFFFFFFFFFFFFFFFFFFFFFF00FFFFFFFFFFFFFFFFFFFFFFFFFFFFFFFFFFFFFFFFFFFFFFFFFFFFFFFFFFFFFF00FFFFFF
310
FFFFFFFFFFFFFFFFFFFFFFFFFFFFFFFFFFFFFFFFFFFFFFFFFFFFFFFF00FFFFFFFFFFFFFFFFFFFFFFFFFFFFFFFFFFFFFFFFFFFFFFFFFFFFFFFFFFFFFF00FFFFFFFFFFFFFFFFFFFFFFFFFFFFFFFFFFFFFFFFFFFFFFFFFFFFFFFFFFFFFF00FFFFFFFFFFFFFFFFFFFFFFFFFFFFFFFFFFFFFFFFFFFFFFFFFFFFFFFFFFFFFF00FFFF
310
FFFFFFFFFFFFFFFFFFFFFFFFFFFFFFFFFFFFFFFFFFFFFFFFFFFFFFFFFF00FFFFFFFFFFFFFFFFFFFFFFFFFFFFFFFFFFFFFFFFFFFFFFFFFFFFFFFFFFFFFF00FFFFFFFFFFFFFFFFFFFFFFFFFFFFFFFFFFFFFFFFFFFFFFFFFFFFFFFFFFFFFF00FFFFFFFFFFFFFFFFFFFFFFFFFFFFFFFFFFFFFFFFFFFFFFFFFFFFFFFFFFFFFF00FF
310
FFFFFFFFFFFFFFFFFFFFFFFFFFFFFFFFFFFFFFFFFFFFFFFFFFFFFFFFFFFF00FFFFFFFFFFFFFFFFFFFFFFFFFFFFFFFFFFFFFFFFFFFFFFFFFFFFFFFFFFFFFF00FFFFFFFFFFFFFFFFFFFFFFFFFFFFFFFFFFFFFFFFFFFFFFFFFFFFFFFFFFFFFF00FFFFFFFFFFFFFFFFFFFFFFFFFFFFFFFFFFFFFFFFFFFFFFFFFFFFFFFFFFFFFF00
310
FFFFFFFFFFFFFFFFFFFFFFFFFFFFFFFFFFFFFFFFFFFFFFFFFFFFFFFFFFFFFF00FFFFFFFFFFFFFFFFFFFFFFFFFFFFFFFFFFFFFFFFFFFFFFFFFFFFFFFFFFFFFF00FFFFFFFFFFFFFFFFFFFFFFFFFFFFFFFFFFFFFFFFFFFFFFFFFFFFFFFFFFFFFF00FFFFFFFFFFFFFFFFFFFFFFFFFFFFFFFFFFFFFFFFFFFFFFFFFFFFFFFFFFFFFF
310
00FFFFFFFFFFFFFFFFFFFFFFFFFFFF000000000000000000FFFFFFFFFFFFFFFF00FFFFFFFFFFFFFFFFFFFFFFFFFFFF00FFFFFFFFFFFFFFFF
102
{BLKREFS
331
2667
102
}
  0
BLOCK_RECORD
  5
2649
330
23C9
100
AcDbSymbolTableRecord
100
AcDbBlockTableRecord
  2
AI9-BLK4
340
0
310
2800000020000000200000000100080000000000000400000000000000000000000000000000000000000000000080000080000000808000800000008000800080800000C0C0C000C0DCC000F0CAA6000020400000206000002080000020A0000020C0000020E00000400000004020000040400000406000004080000040A0
310
000040C0000040E00000600000006020000060400000606000006080000060A0000060C0000060E00000800000008020000080400000806000008080000080A0000080C0000080E00000A0000000A0200000A0400000A0600000A0800000A0A00000A0C00000A0E00000C0000000C0200000C0400000C0600000C0800000C0
310
A00000C0C00000C0E00000E0000000E0200000E0400000E0600000E0800000E0A00000E0C00000E0E00040000000400020004000400040006000400080004000A0004000C0004000E00040200000402020004020400040206000402080004020A0004020C0004020E000404000004040200040404000404060004040800040
310
40A0004040C0004040E00040600000406020004060400040606000406080004060A0004060C0004060E00040800000408020004080400040806000408080004080A0004080C0004080E00040A0000040A0200040A0400040A0600040A0800040A0A00040A0C00040A0E00040C0000040C0200040C0400040C0600040C08000
310
40C0A00040C0C00040C0E00040E0000040E0200040E0400040E0600040E0800040E0A00040E0C00040E0E00080000000800020008000400080006000800080008000A0008000C0008000E00080200000802020008020400080206000802080008020A0008020C0008020E00080400000804020008040400080406000804080
310
008040A0008040C0008040E00080600000806020008060400080606000806080008060A0008060C0008060E00080800000808020008080400080806000808080008080A0008080C0008080E00080A0000080A0200080A0400080A0600080A0800080A0A00080A0C00080A0E00080C0000080C0200080C0400080C0600080C0
310
800080C0A00080C0C00080C0E00080E0000080E0200080E0400080E0600080E0800080E0A00080E0C00080E0E000C0000000C0002000C0004000C0006000C0008000C000A000C000C000C000E000C0200000C0202000C0204000C0206000C0208000C020A000C020C000C020E000C0400000C0402000C0404000C0406000C0
310
408000C040A000C040C000C040E000C0600000C0602000C0604000C0606000C0608000C060A000C060C000C060E000C0800000C0802000C0804000C0806000C0808000C080A000C080C000C080E000C0A00000C0A02000C0A04000C0A06000C0A08000C0A0A000C0A0C000C0A0E000C0C00000C0C02000C0C04000C0C06000
310
C0C08000C0C0A000F0FBFF00A4A0A000808080000000FF0000FF000000FFFF00FF000000FF00FF00FFFF0000FFFFFF00FFFFFFFFFFFFFFFFFFFFFFFFFFFFFFFFFFFFFFFFFFFFFFFFFFFFFFFFFFFFFFFFFFFFFFFFFFFFFFFFFFFFFFFFFFFF00000000FFFFFFFFFFFFFFFFFFFFFF000000FFFFFFFFFFFFFFFFFFFFFFFFFFFF00
310
FFFF00FFFFFFFFFFFFFFFFFFFFFF00FFFFFFFFFFFFFFFFFFFFFFFFFFFFFFFF00FFFF00FFFFFFFFFFFFFFFFFFFFFF00FFFFFFFFFFFFFFFFFFFFFFFFFFFFFFFF00FFFF00FFFFFFFFFFFFFFFFFFFFFF00FFFFFFFFFFFFFFFFFFFFFFFFFFFFFFFF00FFFF00FFFFFFFFFFFFFFFFFFFFFF00FFFFFFFFFFFFFFFFFFFFFFFFFFFFFFFF
310
00FFFF00FFFFFFFFFFFFFFFFFFFFFF00FFFFFFFFFFFFFFFFFFFFFFFFFFFFFFFF00FFFF00FFFFFFFFFFFFFFFFFFFFFF00FFFFFFFFFFFFFFFFFFFFFFFFFFFFFFFF00FFFF00FFFFFFFFFFFFFFFFFFFFFF00FFFFFFFFFFFFFFFFFFFFFFFFFFFFFFFF00FFFF00FFFFFFFFFFFFFFFFFFFFFF00FFFFFFFFFFFFFFFFFFFFFFFFFFFFFF
310
FF00FFFF00FFFFFFFFFFFFFFFFFFFFFF00FFFFFFFFFFFFFFFFFFFFFFFFFFFFFFFF00FFFF00FFFFFFFFFFFFFFFFFFFFFF00FFFFFFFFFFFFFFFFFFFFFFFFFFFFFFFF00FFFF00FFFFFFFFFFFFFFFFFFFFFF00FFFFFFFFFFFFFFFFFFFFFFFFFFFFFFFF00FFFF00FFFFFFFFFFFFFFFFFFFFFF00FFFFFFFFFFFFFFFFFFFFFFFFFFFF
310
FFFF00FFFF00FFFFFFFFFFFFFFFFFFFFFF00FFFFFFFFFFFFFFFFFFFFFFFFFFFFFFFF00FFFF00FFFFFFFFFFFFFFFFFFFFFF00FFFFFFFFFFFFFFFFFFFFFFFFFFFFFFFF00FFFF00FFFFFFFFFFFFFFFFFFFFFF00FFFFFFFFFFFFFFFFFFFFFFFFFFFFFFFF00FFFF00FFFFFFFFFFFFFFFFFFFF00FFFFFFFFFFFFFFFFFFFFFFFFFFFF
310
FFFFFF00FFFF00FFFFFFFFFFFFFFFFFFFF00FFFFFFFFFFFFFFFFFFFFFFFFFFFFFFFFFF00FFFF00FFFFFFFFFFFFFFFFFFFF00FFFFFFFFFFFFFFFFFFFFFFFFFFFFFFFFFF00FFFF00FFFFFFFFFFFFFFFFFFFF00FFFFFFFFFFFFFFFFFFFFFFFFFFFFFFFFFF00FFFF00FFFFFFFFFFFFFFFFFFFF00FFFFFFFFFFFFFFFFFFFFFFFFFF
310
FFFFFFFF00FFFF00FFFFFFFFFFFFFFFFFF0000FFFF00FFFFFFFFFFFFFFFFFFFFFFFFFFFF00FFFF00FFFFFFFFFFFFFFFF0000FFFFFF00FFFFFFFFFFFFFFFFFFFFFFFFFFFF00FFFF00000000000000000000FFFFFFFF00FFFFFFFFFFFFFFFFFFFFFFFFFFFF00FFFFFFFFFFFFFFFFFFFFFFFFFFFFFF00FFFFFFFFFFFFFFFFFFFF
310
FFFFFFFFFF00FFFFFFFFFFFFFFFFFFFFFFFFFFFF00FFFFFFFFFFFFFFFFFFFFFFFFFFFFFFFF00FFFFFFFFFFFFFFFFFFFFFFFFFFFF00FFFFFFFFFFFFFFFFFFFFFFFFFFFFFFFF00FFFFFFFFFFFFFFFFFFFFFFFFFFFFFF00FFFFFFFFFFFFFFFFFFFFFFFFFFFFFF00FFFFFFFFFFFFFFFFFFFFFFFFFFFFFF00FFFFFFFFFFFFFFFFFF
310
FFFFFFFFFFFF00FFFF00000000000000000000FFFFFFFF00FFFFFFFFFFFFFFFFFFFFFFFFFFFF00FFFF00FFFFFFFFFFFFFFFFFF0000FFFF00
102
{BLKREFS
331
2668
102
}
  0
BLOCK_RECORD
  5
264E
330
23C9
100
AcDbSymbolTableRecord
100
AcDbBlockTableRecord
  2
AI9-BLK3
340
0
310
2800000020000000200000000100080000000000000400000000000000000000000000000000000000000000000080000080000000808000800000008000800080800000C0C0C000C0DCC000F0CAA6000020400000206000002080000020A0000020C0000020E00000400000004020000040400000406000004080000040A0
310
000040C0000040E00000600000006020000060400000606000006080000060A0000060C0000060E00000800000008020000080400000806000008080000080A0000080C0000080E00000A0000000A0200000A0400000A0600000A0800000A0A00000A0C00000A0E00000C0000000C0200000C0400000C0600000C0800000C0
310
A00000C0C00000C0E00000E0000000E0200000E0400000E0600000E0800000E0A00000E0C00000E0E00040000000400020004000400040006000400080004000A0004000C0004000E00040200000402020004020400040206000402080004020A0004020C0004020E000404000004040200040404000404060004040800040
310
40A0004040C0004040E00040600000406020004060400040606000406080004060A0004060C0004060E00040800000408020004080400040806000408080004080A0004080C0004080E00040A0000040A0200040A0400040A0600040A0800040A0A00040A0C00040A0E00040C0000040C0200040C0400040C0600040C08000
310
40C0A00040C0C00040C0E00040E0000040E0200040E0400040E0600040E0800040E0A00040E0C00040E0E00080000000800020008000400080006000800080008000A0008000C0008000E00080200000802020008020400080206000802080008020A0008020C0008020E00080400000804020008040400080406000804080
310
008040A0008040C0008040E00080600000806020008060400080606000806080008060A0008060C0008060E00080800000808020008080400080806000808080008080A0008080C0008080E00080A0000080A0200080A0400080A0600080A0800080A0A00080A0C00080A0E00080C0000080C0200080C0400080C0600080C0
310
800080C0A00080C0C00080C0E00080E0000080E0200080E0400080E0600080E0800080E0A00080E0C00080E0E000C0000000C0002000C0004000C0006000C0008000C000A000C000C000C000E000C0200000C0202000C0204000C0206000C0208000C020A000C020C000C020E000C0400000C0402000C0404000C0406000C0
310
408000C040A000C040C000C040E000C0600000C0602000C0604000C0606000C0608000C060A000C060C000C060E000C0800000C0802000C0804000C0806000C0808000C080A000C080C000C080E000C0A00000C0A02000C0A04000C0A06000C0A08000C0A0A000C0A0C000C0A0E000C0C00000C0C02000C0C04000C0C06000
310
C0C08000C0C0A000F0FBFF00A4A0A000808080000000FF0000FF000000FFFF00FF000000FF00FF00FFFF0000FFFFFF00FFFFFFFFFFFFFFFFFFFFFFFFFFFFFFFFFFFFFFFFFFFFFFFFFFFFFFFFFFFFFFFFFFFFFFFFFFFFFFFFFFFFFFFFFFFFFF0000FFFFFFFFFFFFFFFFFFFFFFFFFFFFFFFFFFFFFFFFFFFFFFFFFFFFFFFFFFFF
310
0000FFFFFFFFFFFFFFFFFFFFFFFFFFFFFFFFFFFFFFFFFFFFFFFFFFFFFFFFFFFF0000FFFFFFFFFFFFFFFFFFFFFFFFFFFFFFFFFFFFFFFFFFFFFFFFFFFFFFFFFFFF0000FFFFFFFFFFFFFFFFFFFFFFFFFFFFFFFFFFFFFFFFFFFFFFFFFFFFFFFFFFFF0000FFFFFFFFFFFFFFFFFFFFFFFFFFFFFFFFFFFFFFFFFFFFFFFFFFFFFFFFFF
310
FF0000FFFFFFFFFFFFFFFFFFFFFFFFFFFFFFFFFFFFFFFFFFFFFFFFFFFFFFFFFFFF0000FFFFFFFFFFFFFFFFFFFFFFFFFFFFFFFFFFFFFFFFFFFFFFFFFFFFFFFFFFFF0000FFFFFFFFFFFFFFFFFFFFFFFFFFFFFFFFFFFFFFFFFFFFFFFFFFFFFFFFFFFF0000FFFFFFFFFFFFFFFFFFFFFFFFFFFFFFFFFFFFFFFFFFFFFFFFFFFFFFFF
310
FFFF0000FFFFFFFFFFFFFFFFFFFFFFFFFFFFFFFFFFFFFFFFFFFFFFFFFFFFFFFFFFFF0000FFFFFFFFFFFFFFFFFFFFFFFFFFFFFFFFFFFFFFFFFFFFFFFFFFFFFFFFFFFF0000FFFFFFFFFFFFFFFFFFFFFFFFFFFFFFFFFFFFFFFFFFFFFFFFFFFFFFFFFFFF0000FFFFFFFFFFFFFFFFFFFFFFFFFFFFFFFFFFFFFFFFFFFFFFFFFFFFFF
310
FFFFFF0000FFFFFFFFFFFFFFFFFFFFFFFFFFFFFFFFFFFFFFFFFFFFFFFFFFFFFFFFFFFF0000FFFFFFFFFFFFFFFFFFFFFFFFFFFFFFFFFFFFFFFFFFFFFFFFFFFFFFFFFFFF0000FFFFFFFFFFFFFFFFFFFFFFFFFFFFFFFFFFFFFFFFFFFFFFFFFFFFFFFFFFFF0000FFFFFFFFFFFFFFFFFFFFFFFFFFFFFFFFFFFFFFFFFFFFFFFFFFFF
310
FFFFFFFF0000FFFFFFFFFFFFFFFFFFFFFFFFFFFFFFFFFFFFFFFFFFFFFFFFFFFFFFFFFFFF0000FFFFFFFFFFFFFFFFFFFFFFFFFFFFFFFFFFFFFFFFFFFFFFFFFFFFFFFFFFFF0000FFFFFFFFFFFFFFFFFFFFFFFFFFFFFFFFFFFFFFFFFFFFFFFFFFFFFFFFFFFF0000FFFFFFFFFFFFFFFFFFFFFFFFFFFFFFFFFFFFFFFFFFFFFFFFFF
310
FFFFFFFFFF0000FFFFFFFFFFFFFFFFFFFFFFFFFFFFFFFFFFFFFFFFFFFFFFFFFFFFFFFFFFFF0000FFFFFFFFFFFFFFFFFFFFFFFFFFFFFFFFFFFFFFFFFFFFFFFFFFFFFFFFFFFF0000FFFFFFFFFFFFFFFFFFFFFFFFFFFFFFFFFFFFFFFFFFFFFFFFFFFFFFFFFFFF0000FFFFFFFFFFFFFFFFFFFFFFFFFFFFFFFFFFFFFFFFFFFFFFFF
310
FFFFFFFFFFFF0000FFFFFFFFFFFFFFFFFFFFFFFFFFFFFFFFFFFFFFFFFFFFFFFFFFFFFFFFFFFF0000FFFFFFFFFFFFFFFFFFFFFFFFFFFFFFFFFFFFFFFFFFFFFFFFFFFFFFFFFFFF0000FFFFFFFFFFFFFFFFFFFFFFFFFFFFFFFFFFFFFFFFFFFFFFFFFFFFFFFFFFFF0000FFFFFFFFFFFFFFFFFFFFFFFFFFFFFFFFFFFFFFFFFFFFFF
310
FFFFFFFFFFFFFF0000FFFFFFFFFFFFFFFFFFFFFFFFFFFFFFFFFFFFFFFFFFFFFFFFFFFFFFFFFFFFFFFFFFFFFFFFFFFFFFFFFFFFFFFFFFFFFF
102
{BLKREFS
331
2669
102
}
  0
BLOCK_RECORD
  5
2653
330
23C9
100
AcDbSymbolTableRecord
100
AcDbBlockTableRecord
  2
AI9-BLK2
340
0
310
2800000020000000200000000100080000000000000400000000000000000000000000000000000000000000000080000080000000808000800000008000800080800000C0C0C000C0DCC000F0CAA6000020400000206000002080000020A0000020C0000020E00000400000004020000040400000406000004080000040A0
310
000040C0000040E00000600000006020000060400000606000006080000060A0000060C0000060E00000800000008020000080400000806000008080000080A0000080C0000080E00000A0000000A0200000A0400000A0600000A0800000A0A00000A0C00000A0E00000C0000000C0200000C0400000C0600000C0800000C0
310
A00000C0C00000C0E00000E0000000E0200000E0400000E0600000E0800000E0A00000E0C00000E0E00040000000400020004000400040006000400080004000A0004000C0004000E00040200000402020004020400040206000402080004020A0004020C0004020E000404000004040200040404000404060004040800040
310
40A0004040C0004040E00040600000406020004060400040606000406080004060A0004060C0004060E00040800000408020004080400040806000408080004080A0004080C0004080E00040A0000040A0200040A0400040A0600040A0800040A0A00040A0C00040A0E00040C0000040C0200040C0400040C0600040C08000
310
40C0A00040C0C00040C0E00040E0000040E0200040E0400040E0600040E0800040E0A00040E0C00040E0E00080000000800020008000400080006000800080008000A0008000C0008000E00080200000802020008020400080206000802080008020A0008020C0008020E00080400000804020008040400080406000804080
310
008040A0008040C0008040E00080600000806020008060400080606000806080008060A0008060C0008060E00080800000808020008080400080806000808080008080A0008080C0008080E00080A0000080A0200080A0400080A0600080A0800080A0A00080A0C00080A0E00080C0000080C0200080C0400080C0600080C0
310
800080C0A00080C0C00080C0E00080E0000080E0200080E0400080E0600080E0800080E0A00080E0C00080E0E000C0000000C0002000C0004000C0006000C0008000C000A000C000C000C000E000C0200000C0202000C0204000C0206000C0208000C020A000C020C000C020E000C0400000C0402000C0404000C0406000C0
310
408000C040A000C040C000C040E000C0600000C0602000C0604000C0606000C0608000C060A000C060C000C060E000C0800000C0802000C0804000C0806000C0808000C080A000C080C000C080E000C0A00000C0A02000C0A04000C0A06000C0A08000C0A0A000C0A0C000C0A0E000C0C00000C0C02000C0C04000C0C06000
310
C0C08000C0C0A000F0FBFF00A4A0A000808080000000FF0000FF000000FFFF00FF000000FF00FF00FFFF0000FFFFFF00FFFFFFFFFFFFFFFFFFFFFFFFFFFFFFFFFFFFFFFFFFFFFFFFFFFFFFFFFFFFFFFFFFFFFFFFFFFFFFFFFFFFFFFFFFFFFF0000FFFFFFFFFFFFFFFFFFFFFFFFFFFFFFFFFFFFFFFFFFFFFFFFFFFFFFFFFFFF
310
0000FFFFFFFFFFFFFFFFFFFFFFFFFFFFFFFFFFFFFFFFFFFFFFFFFFFFFFFFFFFF0000FFFFFFFFFFFFFFFFFFFFFFFFFFFFFFFFFFFFFFFFFFFFFFFFFFFFFFFFFF00FFFF00FFFFFFFFFFFFFFFFFFFFFFFFFFFFFFFFFFFFFFFFFFFFFFFFFFFFFFFF00FFFF00FFFFFFFFFFFFFFFFFFFFFFFFFFFFFFFFFFFFFFFFFFFFFFFFFFFFFFFF
310
00FF0000FFFFFFFFFFFFFFFFFFFFFFFFFFFFFFFFFFFFFFFFFFFFFFFFFFFFFFFF00FF0000FFFFFFFFFFFFFFFFFFFFFFFFFFFFFFFFFFFFFFFFFFFFFFFFFFFFFFFF00FF0000FFFFFFFFFFFFFFFFFFFFFFFFFFFFFFFFFFFFFFFFFFFFFFFFFFFFFFFF00000000FFFFFFFFFFFFFFFFFFFFFFFFFFFFFFFFFFFFFFFFFFFFFFFFFFFFFF
310
00FF00FF0000FFFFFFFFFFFFFFFFFFFFFFFFFFFFFFFFFFFFFFFFFFFFFFFFFFFF00FF00FF0000FFFFFFFFFFFFFFFFFFFFFFFFFFFFFFFFFFFFFFFFFFFFFFFFFFFF00FF00FF0000FFFFFFFFFFFFFFFFFFFFFFFFFFFFFFFFFFFFFFFFFFFFFFFFFFFF00FF00FF0000FFFFFFFFFFFFFFFFFFFFFFFFFFFFFFFFFFFFFFFFFFFFFFFFFF
310
FF00FF00FF0000FFFFFFFFFFFFFFFFFFFFFFFFFFFFFFFFFFFFFFFFFFFFFFFFFFFF0000FFFF0000FFFFFFFFFFFFFFFFFFFFFFFFFFFFFFFFFFFFFFFFFFFFFFFFFF00FF00FFFF00FF00FFFFFFFFFFFFFFFFFFFFFFFFFFFFFFFFFFFFFFFFFFFFFFFF00FF00FFFF00FF00FFFFFFFFFFFFFFFFFFFFFFFFFFFFFFFFFFFFFFFFFFFFFF
310
FF00FF00FFFFFF0000FFFFFFFFFFFFFFFFFFFFFFFFFFFFFFFFFFFFFFFFFFFFFFFF00FF00FFFFFF0000FFFFFFFFFFFFFFFFFFFFFFFFFFFFFFFFFFFFFFFFFFFFFFFF00FF00FFFFFF0000FFFFFFFFFFFFFFFFFFFFFFFFFFFFFFFFFFFFFFFFFFFFFFFF0000FFFFFFFF0000FFFFFFFFFFFFFFFFFFFFFFFFFFFFFFFFFFFFFFFFFFFF
310
FF00FF00FFFFFFFF00FF00FFFFFFFFFFFFFFFFFFFFFFFFFFFFFFFFFFFFFFFFFFFF00FF00FFFFFFFF00FF00FFFFFFFFFFFFFFFFFFFFFFFFFFFFFFFFFFFFFFFFFFFF00FF00FFFFFFFF00FF00FFFFFFFFFFFFFFFFFFFFFFFFFFFFFFFFFFFFFFFFFFFF00FF00FFFFFFFF00FF00FFFFFFFFFFFFFFFFFFFFFFFFFFFFFFFFFFFFFFFF
310
FFFF00FF00FFFFFFFFFF0000FFFFFFFFFFFFFFFFFFFFFFFFFFFFFFFFFFFFFFFFFFFF0000FFFFFFFFFFFF0000FFFFFFFFFFFFFFFFFFFFFFFFFFFFFFFFFFFFFFFFFF00FF00FFFFFFFFFFFF00FF00FFFFFFFFFFFFFFFFFFFFFFFFFFFFFFFFFFFFFFFF00FF00FFFFFFFFFFFF00FF00FFFFFFFFFFFFFFFFFFFFFFFFFFFFFFFFFFFF
310
FFFF000000FFFFFFFFFFFF000000FFFFFFFFFFFFFFFFFFFFFFFFFFFFFFFFFFFFFFFFFFFFFFFFFFFFFFFFFFFFFFFFFFFFFFFFFFFFFFFFFFFF
102
{BLKREFS
331
266A
102
}
  0
BLOCK_RECORD
  5
2658
330
23C9
100
AcDbSymbolTableRecord
100
AcDbBlockTableRecord
  2
AI9-BLK1
340
0
310
2800000020000000200000000100080000000000000400000000000000000000000000000000000000000000000080000080000000808000800000008000800080800000C0C0C000C0DCC000F0CAA6000020400000206000002080000020A0000020C0000020E00000400000004020000040400000406000004080000040A0
310
000040C0000040E00000600000006020000060400000606000006080000060A0000060C0000060E00000800000008020000080400000806000008080000080A0000080C0000080E00000A0000000A0200000A0400000A0600000A0800000A0A00000A0C00000A0E00000C0000000C0200000C0400000C0600000C0800000C0
310
A00000C0C00000C0E00000E0000000E0200000E0400000E0600000E0800000E0A00000E0C00000E0E00040000000400020004000400040006000400080004000A0004000C0004000E00040200000402020004020400040206000402080004020A0004020C0004020E000404000004040200040404000404060004040800040
310
40A0004040C0004040E00040600000406020004060400040606000406080004060A0004060C0004060E00040800000408020004080400040806000408080004080A0004080C0004080E00040A0000040A0200040A0400040A0600040A0800040A0A00040A0C00040A0E00040C0000040C0200040C0400040C0600040C08000
310
40C0A00040C0C00040C0E00040E0000040E0200040E0400040E0600040E0800040E0A00040E0C00040E0E00080000000800020008000400080006000800080008000A0008000C0008000E00080200000802020008020400080206000802080008020A0008020C0008020E00080400000804020008040400080406000804080
310
008040A0008040C0008040E00080600000806020008060400080606000806080008060A0008060C0008060E00080800000808020008080400080806000808080008080A0008080C0008080E00080A0000080A0200080A0400080A0600080A0800080A0A00080A0C00080A0E00080C0000080C0200080C0400080C0600080C0
310
800080C0A00080C0C00080C0E00080E0000080E0200080E0400080E0600080E0800080E0A00080E0C00080E0E000C0000000C0002000C0004000C0006000C0008000C000A000C000C000C000E000C0200000C0202000C0204000C0206000C0208000C020A000C020C000C020E000C0400000C0402000C0404000C0406000C0
310
408000C040A000C040C000C040E000C0600000C0602000C0604000C0606000C0608000C060A000C060C000C060E000C0800000C0802000C0804000C0806000C0808000C080A000C080C000C080E000C0A00000C0A02000C0A04000C0A06000C0A08000C0A0A000C0A0C000C0A0E000C0C00000C0C02000C0C04000C0C06000
310
C0C08000C0C0A000F0FBFF00A4A0A000808080000000FF0000FF000000FFFF00FF000000FF00FF00FFFF0000FFFFFF00FFFFFFFFFFFFFFFFFFFFFFFFFFFFFFFFFFFFFFFFFFFFFFFFFFFFFFFFFFFFFFFFFFFFFFFFFFFFFFFFFFFFFF00000000000000000000FFFFFFFFFFFFFFFFFFFFFFFFFFFFFFFFFFFFFFFFFFFF00FFFFFF
310
FFFFFFFFFF00FFFFFFFFFFFFFFFFFFFFFFFFFFFFFFFFFFFFFFFFFFFF00FFFFFFFFFFFFFFFF00FFFFFFFFFFFFFFFFFFFFFFFFFFFFFFFFFFFFFFFFFFFF00FFFFFFFFFFFFFFFF00FFFFFFFFFFFFFFFFFFFFFFFFFFFFFFFFFFFFFFFFFFFF00FF0000000000000000FFFFFFFFFFFFFFFFFFFFFFFFFFFFFFFFFFFFFFFFFFFF00FF00
310
FFFFFFFFFFFFFFFFFFFFFFFFFFFFFFFFFFFFFFFFFFFFFFFFFFFFFFFFFF00FF00FFFFFFFFFFFFFFFFFFFFFFFFFFFFFFFFFFFFFFFFFFFFFFFFFFFFFFFFFF00FF00FFFFFFFFFFFFFFFFFFFFFFFFFFFFFFFFFFFFFFFFFFFFFFFFFFFFFFFFFF00FF00FFFFFFFFFFFFFFFFFFFFFFFFFFFFFFFFFFFFFFFFFFFFFFFFFFFFFFFFFF00FF
310
00FFFFFFFFFFFFFFFFFFFFFFFFFFFFFFFFFFFFFFFFFFFFFFFFFFFFFFFFFF00FF00FFFFFFFFFFFFFFFFFFFFFFFFFFFFFFFFFFFFFFFFFFFFFFFFFFFFFFFFFF00FF00FFFFFFFFFFFFFFFFFFFFFFFFFFFFFFFFFFFFFFFFFFFFFFFFFFFFFFFFFF00FF00FFFFFFFFFFFFFFFFFFFFFFFFFFFFFFFFFFFFFFFFFFFFFFFFFFFFFFFFFF00
310
FF00000000000000FFFFFFFFFFFFFFFFFFFFFFFFFFFFFFFFFFFFFFFFFFFFFF00FFFFFFFFFFFFFF00FFFFFFFFFFFFFFFFFFFFFFFFFFFFFFFFFFFFFFFFFFFFFF00FFFFFFFFFFFFFF00FFFFFFFFFFFFFFFFFFFFFFFFFFFFFFFFFFFFFFFFFFFFFF00FFFFFFFFFFFFFF00FFFFFFFFFFFFFFFFFFFFFFFFFFFFFFFFFFFFFFFFFFFFFF
310
00FF00000000000000FFFFFFFFFFFFFFFFFFFFFFFFFFFFFFFFFFFFFFFFFFFFFF00FF00FFFFFFFFFFFFFFFFFFFFFFFFFFFFFFFFFFFFFFFFFFFFFFFFFFFFFFFFFF00FF00FFFFFFFFFFFFFFFFFFFFFFFFFFFFFFFFFFFFFFFFFFFFFFFFFFFFFFFFFF00FF00FFFFFFFFFFFFFFFFFFFFFFFFFFFFFFFFFFFFFFFFFFFFFFFFFFFFFFFF
310
FF00FF00FFFFFFFFFFFFFFFFFFFFFFFFFFFFFFFFFFFFFFFFFFFFFFFFFFFFFFFFFF00FF00FFFFFFFFFFFFFFFFFFFFFFFFFFFFFFFFFFFFFFFFFFFFFFFFFFFFFFFFFF00FF00FFFFFFFFFFFFFFFFFFFFFFFFFFFFFFFFFFFFFFFFFFFFFFFFFFFFFFFFFF00FF00FFFFFFFFFFFFFFFFFFFFFFFFFFFFFFFFFFFFFFFFFFFFFFFFFFFFFF
310
FFFF00FF0000000000000000FFFFFFFFFFFFFFFFFFFFFFFFFFFFFFFFFFFFFFFFFFFF00FFFFFFFFFFFFFFFF00FFFFFFFFFFFFFFFFFFFFFFFFFFFFFFFFFFFFFFFFFFFF00FFFFFFFFFFFFFFFF00FFFFFFFFFFFFFFFFFFFFFFFFFFFFFFFFFFFFFFFFFFFF00FFFFFFFFFFFFFFFF00FFFFFFFFFFFFFFFFFFFFFFFFFFFFFFFFFFFFFF
310
FFFFFF00000000000000000000FFFFFFFFFFFFFFFFFFFFFFFFFFFFFFFFFFFFFFFFFFFFFFFFFFFFFFFFFFFFFFFFFFFFFFFFFFFFFFFFFFFFFF
102
{BLKREFS
331
266B
102
}
  0
BLOCK_RECORD
  5
265D
330
23C9
100
AcDbSymbolTableRecord
100
AcDbBlockTableRecord
  2
HD_LLC_logo_OT5
340
0
310
2800000020000000200000000100080000000000000400000000000000000000000000000000000000000000000080000080000000808000800000008000800080800000C0C0C000C0DCC000F0CAA6000020400000206000002080000020A0000020C0000020E00000400000004020000040400000406000004080000040A0
310
000040C0000040E00000600000006020000060400000606000006080000060A0000060C0000060E00000800000008020000080400000806000008080000080A0000080C0000080E00000A0000000A0200000A0400000A0600000A0800000A0A00000A0C00000A0E00000C0000000C0200000C0400000C0600000C0800000C0
310
A00000C0C00000C0E00000E0000000E0200000E0400000E0600000E0800000E0A00000E0C00000E0E00040000000400020004000400040006000400080004000A0004000C0004000E00040200000402020004020400040206000402080004020A0004020C0004020E000404000004040200040404000404060004040800040
310
40A0004040C0004040E00040600000406020004060400040606000406080004060A0004060C0004060E00040800000408020004080400040806000408080004080A0004080C0004080E00040A0000040A0200040A0400040A0600040A0800040A0A00040A0C00040A0E00040C0000040C0200040C0400040C0600040C08000
310
40C0A00040C0C00040C0E00040E0000040E0200040E0400040E0600040E0800040E0A00040E0C00040E0E00080000000800020008000400080006000800080008000A0008000C0008000E00080200000802020008020400080206000802080008020A0008020C0008020E00080400000804020008040400080406000804080
310
008040A0008040C0008040E00080600000806020008060400080606000806080008060A0008060C0008060E00080800000808020008080400080806000808080008080A0008080C0008080E00080A0000080A0200080A0400080A0600080A0800080A0A00080A0C00080A0E00080C0000080C0200080C0400080C0600080C0
310
800080C0A00080C0C00080C0E00080E0000080E0200080E0400080E0600080E0800080E0A00080E0C00080E0E000C0000000C0002000C0004000C0006000C0008000C000A000C000C000C000E000C0200000C0202000C0204000C0206000C0208000C020A000C020C000C020E000C0400000C0402000C0404000C0406000C0
310
408000C040A000C040C000C040E000C0600000C0602000C0604000C0606000C0608000C060A000C060C000C060E000C0800000C0802000C0804000C0806000C0808000C080A000C080C000C080E000C0A00000C0A02000C0A04000C0A06000C0A08000C0A0A000C0A0C000C0A0E000C0C00000C0C02000C0C04000C0C06000
310
C0C08000C0C0A000F0FBFF00A4A0A000808080000000FF0000FF000000FFFF00FF000000FF00FF00FFFF0000FFFFFF00FFFFFFFFFFFFFFFFFFFFFFFFFFFFFFFFFFFFFFFFFFFFFFFFFFFFFFFFFFFFFFFFFFFFFFFFFFFFFFFFFFFFFFFFFFFFFFFFFFFFFFFFFFFFFFFFFFFFFFFFFFFFFFFFFFFFFFFFFFFFFFFFFFFFFFFFFFFFFF
310
FFFFFFFFFFFFFFFFFFFFFFFFFFFFFFFFFFFFFFFFFFFFFFFFFFFFFFFFFFFFFFFFFFFFFFFFFFFFFFFFFFFFFFFFFFFFFFFFFFFFFFFFFFFFFFFFFFFFFFFFFFFFFFFFFFFFFFFFFFFFFFFFFFFFFFFFFFFFFFFFFFFFFFFFFFFFFFFFFFFFFFFFFFFFFFFFFFFFFFFFFFFFFFFFFFFFFFFFFFFFFFFFFFFFFFFFFFFFFFFFFFFFFFFFFFFFFF
310
FFFFFFFFFFFFFFFFFFFFFFFFFFFFFFFFFFFFFFFFFFFFFFFFFFFFFFFFFFFFFFFFFFFFFFFFFFFFFFFFFFFFFFFFFFFFFFFFFFFFFFFFFFFFFFFFFFFFFFFFFFFFFFFFFFFFFFFFFFFFFFFFFFFFFFFFFFFFFFFFFFFFFFFFFFFFFFFFFFFFFFFFFFFFFFFFFFFFFFFFFFFFFFFFFFFFFFFFFFFFFFFFFFFFFFFFFFFFFFFFFFFFFFFFFFFFFF
310
FFFFFFFFFFFFFFFFFFFFFFFFFFFFFFFFFFFFFFFFFFFFFFFFFFFFFFFFFFFFFFFFFFFFFFFFFFFFFFFFFFFFFFFFFFFFFFFFFFFFFFFF0000000000000000000000000000000000000000000000000000000000FFFFFF0000000000000000000000000000000000FFFFFFFFFFFFFFFFFFFF0000FFFFFF0000000000000000000000
310
00000000000000FFFFFFFFFFFFFFFFFFFF0000FFFF000000000000000000000000000000000000FFFFFF00000000FFFFFF0000FFFF00FFFFFFFFFFFF00FFFFFF00FFFFFFFFFF00FFFFFF0000000000FFFF0000FFFF00FFFFFFFFFFFF00FFFFFF00FFFFFFFFFF00FFFFFF00FFFF0000FFFF0000FFFF00FFFFFFFFFFFF00FFFF
310
00FFFFFFFFFFFF00FFFFFF00FFFF0000FFFF0000FFFF0000000000FFFF00000000FFFFFF00000000FFFFFF00000000FFFFFF0000FFFFFFFFFFFF00FFFFFFFFFFFFFFFFFF00FFFFFFFFFFFFFFFFFFFFFFFFFF0000FFFFFFFFFFFF00FFFFFFFFFFFFFFFFFF00FFFFFFFFFFFFFFFFFFFFFFFFFF0000FFFFFFFFFFFF00FFFFFFFF
310
FFFFFFFFFF00FFFFFFFFFFFFFFFFFFFFFFFF0000FFFFFF0000000000FFFF00000000FFFFFF0000000000000000000000000000FFFFFFFF00FFFFFFFFFFFF00FFFF00FFFFFFFFFFFF00FFFFFFFFFFFFFFFFFFFFFFFFFFFF00FFFFFFFFFFFF00FFFFFF00FFFFFFFFFF00FFFFFFFFFFFFFFFFFFFFFFFFFFFF0000000000000000
310
FFFFFF00000000000000FFFFFFFFFFFFFFFFFFFFFFFFFFFFFFFFFFFFFFFFFFFFFFFFFFFFFFFFFFFFFFFFFFFFFFFFFFFFFFFFFFFFFFFFFFFFFFFFFFFFFFFFFFFFFFFFFFFFFFFFFFFFFFFFFFFFFFFFFFFFFFFFFFFFFFFFFFFFFFFFFFFFFFFFFFFFFFFFFFFFFFFFFFFFFFFFFFFFFFFFFFFFFFFFFFFFFFFFFFFFFFFFFFFFFFFFFF
310
FFFFFFFFFFFFFFFFFFFFFFFFFFFFFFFFFFFFFFFFFFFFFFFFFFFFFFFFFFFFFFFFFFFFFFFFFFFFFFFFFFFFFFFFFFFFFFFFFFFFFFFFFFFFFFFF
102
{BLKREFS
331
2683
102
}
  0
BLOCK_RECORD
  5
2682
330
23C9
100
AcDbSymbolTableRecord
100
AcDbBlockTableRecord
  2
HD logo-new
340
0
310
2800000020000000200000000100080000000000000400000000000000000000000000000000000000000000000080000080000000808000800000008000800080800000C0C0C000C0DCC000F0CAA6000020400000206000002080000020A0000020C0000020E00000400000004020000040400000406000004080000040A0
310
000040C0000040E00000600000006020000060400000606000006080000060A0000060C0000060E00000800000008020000080400000806000008080000080A0000080C0000080E00000A0000000A0200000A0400000A0600000A0800000A0A00000A0C00000A0E00000C0000000C0200000C0400000C0600000C0800000C0
310
A00000C0C00000C0E00000E0000000E0200000E0400000E0600000E0800000E0A00000E0C00000E0E00040000000400020004000400040006000400080004000A0004000C0004000E00040200000402020004020400040206000402080004020A0004020C0004020E000404000004040200040404000404060004040800040
310
40A0004040C0004040E00040600000406020004060400040606000406080004060A0004060C0004060E00040800000408020004080400040806000408080004080A0004080C0004080E00040A0000040A0200040A0400040A0600040A0800040A0A00040A0C00040A0E00040C0000040C0200040C0400040C0600040C08000
310
40C0A00040C0C00040C0E00040E0000040E0200040E0400040E0600040E0800040E0A00040E0C00040E0E00080000000800020008000400080006000800080008000A0008000C0008000E00080200000802020008020400080206000802080008020A0008020C0008020E00080400000804020008040400080406000804080
310
008040A0008040C0008040E00080600000806020008060400080606000806080008060A0008060C0008060E00080800000808020008080400080806000808080008080A0008080C0008080E00080A0000080A0200080A0400080A0600080A0800080A0A00080A0C00080A0E00080C0000080C0200080C0400080C0600080C0
310
800080C0A00080C0C00080C0E00080E0000080E0200080E0400080E0600080E0800080E0A00080E0C00080E0E000C0000000C0002000C0004000C0006000C0008000C000A000C000C000C000E000C0200000C0202000C0204000C0206000C0208000C020A000C020C000C020E000C0400000C0402000C0404000C0406000C0
310
408000C040A000C040C000C040E000C0600000C0602000C0604000C0606000C0608000C060A000C060C000C060E000C0800000C0802000C0804000C0806000C0808000C080A000C080C000C080E000C0A00000C0A02000C0A04000C0A06000C0A08000C0A0A000C0A0C000C0A0E000C0C00000C0C02000C0C04000C0C06000
310
C0C08000C0C0A000F0FBFF00A4A0A000808080000000FF0000FF000000FFFF00FF000000FF00FF00FFFF0000FFFFFF00FFFFFFFFFFFFFFFFFFFFFFFFFFFFFFFFFFFFFFFFFFFFFFFFFFFFFFFFFFFFFFFFFFFFFFFFFFFFFFFFFFFFFFFFFFFFFFFFFFFFFFFFFFFFFFFFFFFFFFFFFFFFFFFFFFFFFFFFFFFFFFFFFFFFFFFFFFFFFF
310
FFFFFFFFFFFFFFFFFFFFFFFFFFFFFFFFFFFFFFFFFFFFFFFFFFFFFFFFFFFFFFFFFFFFFFFFFFFFFFFFFFFFFFFFFFFFFFFFFFFFFFFFFFFFFFFFFFFFFFFFFFFFFFFFFFFFFFFFFFFFFFFFFFFFFFFFFFFFFFFFFFFFFFFFFFFFFFFFFFFFFFFFFFFFFFFFFFFFFFFFFFFFFFFFFFFFFFFFFFFFFFFFFFFFFFFFFFFFFFFFFFFFFFFFFFFFFF
310
FFFFFFFFFFFFFFFFFFFFFFFFFFFFFFFFFFFFFFFFFFFFFFFFFFFFFFFFFFFFFFFFFFFFFFFFFFFFFFFFFFFFFFFFFFFFFFFFFFFFFFFFFFFFFFFFFFFFFFFFFFFFFFFFFFFFFFFFFFFFFFFFFFFFFFFFFFFFFFFFFFFFFFFFFFFFFFFFFFFFFFFFFFFFFFFFFFFFFFFFFFFFFFFFFFFFFFFFFFFFFFFFFFFFFFFFFFFFFFFFFFFFFFFFFFFFFF
310
FFFFFFFFFFFFFFFFFFFFFFFFFFFFFFFFFFFFFFFFFFFFFFFFFFFFFFFFFFFFFFFFFFFFFFFFFFFFFFFFFFFFFFFFFFFFFFFFFFFFFFFF0000000000000000000000000000000000000000000000000000000000FFFFFF0000000000000000000000000000000000FFFFFFFFFFFFFFFFFFFF0000FFFFFF0000000000000000000000
310
00000000000000FFFFFFFFFFFFFFFFFFFF0000FFFF000000000000000000000000000000000000FFFFFF00000000FFFFFF0000FFFF00FFFFFFFFFFFF00FFFFFF00FFFFFFFFFF00FFFFFF0000000000FFFF0000FFFF00FFFFFFFFFFFF00FFFFFF00FFFFFFFFFF00FFFFFF00FFFF0000FFFF0000FFFF00FFFFFFFFFFFF00FFFF
310
00FFFFFFFFFFFF00FFFFFF00FFFF0000FFFF0000FFFF0000000000FFFF00000000FFFFFF00000000FFFFFF00000000FFFFFF0000FFFFFFFFFFFF00FFFFFFFFFFFFFFFFFF00FFFFFFFFFFFFFFFFFFFFFFFFFF0000FFFFFFFFFFFF00FFFFFFFFFFFFFFFFFF00FFFFFFFFFFFFFFFFFFFFFFFFFF0000FFFFFFFFFFFF00FFFFFFFF
310
FFFFFFFFFF00FFFFFFFFFFFFFFFFFFFFFFFF0000FFFFFF0000000000FFFF00000000FFFFFF0000000000000000000000000000FFFFFFFF00FFFFFFFFFFFF00FFFF00FFFFFFFFFFFF00FFFFFFFFFFFFFFFFFFFFFFFFFFFF00FFFFFFFFFFFF00FFFFFF00FFFFFFFFFF00FFFFFFFFFFFFFFFFFFFFFFFFFFFF0000000000000000
310
FFFFFF00000000000000FFFFFFFFFFFFFFFFFFFFFFFFFFFFFFFFFFFFFFFFFFFFFFFFFFFFFFFFFFFFFFFFFFFFFFFFFFFFFFFFFFFFFFFFFFFFFFFFFFFFFFFFFFFFFFFFFFFFFFFFFFFFFFFFFFFFFFFFFFFFFFFFFFFFFFFFFFFFFFFFFFFFFFFFFFFFFFFFFFFFFFFFFFFFFFFFFFFFFFFFFFFFFFFFFFFFFFFFFFFFFFFFFFFFFFFFFF
310
FFFFFFFFFFFFFFFFFFFFFFFFFFFFFFFFFFFFFFFFFFFFFFFFFFFFFFFFFFFFFFFFFFFFFFFFFFFFFFFFFFFFFFFFFFFFFFFFFFFFFFFFFFFFFFFF
102
{BLKREFS
331
2687
331
2AD3
331
2AD7
102
}
  0
BLOCK_RECORD
  5
2686
330
23C9
100
AcDbSymbolTableRecord
100
AcDbBlockTableRecord
  2
HD Logo
340
0
310
2800000020000000200000000100080000000000000400000000000000000000000000000000000000000000000080000080000000808000800000008000800080800000C0C0C000C0DCC000F0CAA6000020400000206000002080000020A0000020C0000020E00000400000004020000040400000406000004080000040A0
310
000040C0000040E00000600000006020000060400000606000006080000060A0000060C0000060E00000800000008020000080400000806000008080000080A0000080C0000080E00000A0000000A0200000A0400000A0600000A0800000A0A00000A0C00000A0E00000C0000000C0200000C0400000C0600000C0800000C0
310
A00000C0C00000C0E00000E0000000E0200000E0400000E0600000E0800000E0A00000E0C00000E0E00040000000400020004000400040006000400080004000A0004000C0004000E00040200000402020004020400040206000402080004020A0004020C0004020E000404000004040200040404000404060004040800040
310
40A0004040C0004040E00040600000406020004060400040606000406080004060A0004060C0004060E00040800000408020004080400040806000408080004080A0004080C0004080E00040A0000040A0200040A0400040A0600040A0800040A0A00040A0C00040A0E00040C0000040C0200040C0400040C0600040C08000
310
40C0A00040C0C00040C0E00040E0000040E0200040E0400040E0600040E0800040E0A00040E0C00040E0E00080000000800020008000400080006000800080008000A0008000C0008000E00080200000802020008020400080206000802080008020A0008020C0008020E00080400000804020008040400080406000804080
310
008040A0008040C0008040E00080600000806020008060400080606000806080008060A0008060C0008060E00080800000808020008080400080806000808080008080A0008080C0008080E00080A0000080A0200080A0400080A0600080A0800080A0A00080A0C00080A0E00080C0000080C0200080C0400080C0600080C0
310
800080C0A00080C0C00080C0E00080E0000080E0200080E0400080E0600080E0800080E0A00080E0C00080E0E000C0000000C0002000C0004000C0006000C0008000C000A000C000C000C000E000C0200000C0202000C0204000C0206000C0208000C020A000C020C000C020E000C0400000C0402000C0404000C0406000C0
310
408000C040A000C040C000C040E000C0600000C0602000C0604000C0606000C0608000C060A000C060C000C060E000C0800000C0802000C0804000C0806000C0808000C080A000C080C000C080E000C0A00000C0A02000C0A04000C0A06000C0A08000C0A0A000C0A0C000C0A0E000C0C00000C0C02000C0C04000C0C06000
310
C0C08000C0C0A000F0FBFF00A4A0A000808080000000FF0000FF000000FFFF00FF000000FF00FF00FFFF0000FFFFFF00FFFFFFFFFFFFFFFFFFFFFFFFFFFFFFFFFFFFFFFFFFFFFFFFFFFFFFFFFFFFFFFFFFFFFFFFFFFFFFFFFFFFFFFFFFFFFFFFFFFFFFFFFFFFFFFFFFFFFFFFFFFFFFFFFFFFFFFFFFFFFFFFFFFFFFFFFFFFFF
310
FFFFFFFFFFFFFFFFFFFFFFFFFFFFFFFFFFFFFFFFFFFFFFFFFFFFFFFFFFFFFFFFFFFFFFFFFFFFFFFFFFFFFFFFFFFFFFFFFFFFFFFFFFFFFFFFFFFFFFFFFFFFFFFFFFFFFFFFFFFFFFFFFFFFFFFFFFFFFFFFFFFFFFFFFFFFFFFFFFFFFFFFFFFFFFFFFFFFFFFFFFFFFFFFFFFFFFFFFFFFFFFFFFFFFFFFFFFFFFFFFFFFFFFFFFFFFF
310
FFFFFFFFFFFFFFFFFFFFFFFFFFFFFFFFFFFFFFFFFFFFFFFFFFFFFFFFFFFFFFFFFFFFFFFFFFFFFFFFFFFFFFFFFFFFFFFFFFFFFFFFFFFFFFFFFFFFFFFFFFFFFFFFFFFFFFFFFFFFFFFFFFFFFFFFFFFFFFFFFFFFFFFFFFFFFFFFFFFFFFFFFFFFFFFFFFFFFFFFFFFFFFFFFFFFFFFFFFFFFFFFFFFFFFFFFFFFFFFFFFFFFFFFFFFFFF
310
FFFFFFFFFFFFFFFFFFFFFFFFFFFFFFFFFFFFFFFFFFFFFFFFFFFFFFFFFFFFFFFFFFFFFFFFFFFFFFFFFFFFFFFFFFFFFFFFFFFFFFFF0000000000000000000000000000000000000000000000000000000000FFFFFF0000000000000000000000000000000000FFFFFFFFFFFFFFFFFFFF0000FFFFFF0000000000000000000000
310
00000000000000FFFFFFFFFFFFFFFFFFFF0000FFFF000000000000000000000000000000000000FFFFFF00000000FFFFFF0000FFFF00FFFFFFFFFFFF00FFFFFF00FFFFFFFFFF00FFFFFF0000000000FFFF0000FFFF00FFFFFFFFFFFF00FFFFFF00FFFFFFFFFF00FFFFFF00FFFF0000FFFF0000FFFF00FFFFFFFFFFFF00FFFF
310
00FFFFFFFFFFFF00FFFFFF00FFFF0000FFFF0000FFFF0000000000FFFF00000000FFFFFF00000000FFFFFF00000000FFFFFF0000FFFFFFFFFFFF00FFFFFFFFFFFFFFFFFF00FFFFFFFFFFFFFFFFFFFFFFFFFF0000FFFFFFFFFFFF00FFFFFFFFFFFFFFFFFF00FFFFFFFFFFFFFFFFFFFFFFFFFF0000FFFFFFFFFFFF00FFFFFFFF
310
FFFFFFFFFF00FFFFFFFFFFFFFFFFFFFFFFFF0000FFFFFF0000000000FFFF00000000FFFFFF0000000000000000000000000000FFFFFFFF00FFFFFFFFFFFF00FFFF00FFFFFFFFFFFF00FFFFFFFFFFFFFFFFFFFFFFFFFFFF00FFFFFFFFFFFF00FFFFFF00FFFFFFFFFF00FFFFFFFFFFFFFFFFFFFFFFFFFFFF0000000000000000
310
FFFFFF00000000000000FFFFFFFFFFFFFFFFFFFFFFFFFFFFFFFFFFFFFFFFFFFFFFFFFFFFFFFFFFFFFFFFFFFFFFFFFFFFFFFFFFFFFFFFFFFFFFFFFFFFFFFFFFFFFFFFFFFFFFFFFFFFFFFFFFFFFFFFFFFFFFFFFFFFFFFFFFFFFFFFFFFFFFFFFFFFFFFFFFFFFFFFFFFFFFFFFFFFFFFFFFFFFFFFFFFFFFFFFFFFFFFFFFFFFFFFFF
310
FFFFFFFFFFFFFFFFFFFFFFFFFFFFFFFFFFFFFFFFFFFFFFFFFFFFFFFFFFFFFFFFFFFFFFFFFFFFFFFFFFFFFFFFFFFFFFFFFFFFFFFFFFFFFFFF
102
{BLKREFS
331
268D
331
2691
331
269F
331
26A3
102
}
  0
BLOCK_RECORD
  5
26A4
330
23C9
100
AcDbSymbolTableRecord
100
AcDbBlockTableRecord
  2
Harmonic Drive LLC
340
0
310
2800000020000000200000000100080000000000000400000000000000000000000000000000000000000000000080000080000000808000800000008000800080800000C0C0C000C0DCC000F0CAA6000020400000206000002080000020A0000020C0000020E00000400000004020000040400000406000004080000040A0
310
000040C0000040E00000600000006020000060400000606000006080000060A0000060C0000060E00000800000008020000080400000806000008080000080A0000080C0000080E00000A0000000A0200000A0400000A0600000A0800000A0A00000A0C00000A0E00000C0000000C0200000C0400000C0600000C0800000C0
310
A00000C0C00000C0E00000E0000000E0200000E0400000E0600000E0800000E0A00000E0C00000E0E00040000000400020004000400040006000400080004000A0004000C0004000E00040200000402020004020400040206000402080004020A0004020C0004020E000404000004040200040404000404060004040800040
310
40A0004040C0004040E00040600000406020004060400040606000406080004060A0004060C0004060E00040800000408020004080400040806000408080004080A0004080C0004080E00040A0000040A0200040A0400040A0600040A0800040A0A00040A0C00040A0E00040C0000040C0200040C0400040C0600040C08000
310
40C0A00040C0C00040C0E00040E0000040E0200040E0400040E0600040E0800040E0A00040E0C00040E0E00080000000800020008000400080006000800080008000A0008000C0008000E00080200000802020008020400080206000802080008020A0008020C0008020E00080400000804020008040400080406000804080
310
008040A0008040C0008040E00080600000806020008060400080606000806080008060A0008060C0008060E00080800000808020008080400080806000808080008080A0008080C0008080E00080A0000080A0200080A0400080A0600080A0800080A0A00080A0C00080A0E00080C0000080C0200080C0400080C0600080C0
310
800080C0A00080C0C00080C0E00080E0000080E0200080E0400080E0600080E0800080E0A00080E0C00080E0E000C0000000C0002000C0004000C0006000C0008000C000A000C000C000C000E000C0200000C0202000C0204000C0206000C0208000C020A000C020C000C020E000C0400000C0402000C0404000C0406000C0
310
408000C040A000C040C000C040E000C0600000C0602000C0604000C0606000C0608000C060A000C060C000C060E000C0800000C0802000C0804000C0806000C0808000C080A000C080C000C080E000C0A00000C0A02000C0A04000C0A06000C0A08000C0A0A000C0A0C000C0A0E000C0C00000C0C02000C0C04000C0C06000
310
C0C08000C0C0A000F0FBFF00A4A0A000808080000000FF0000FF000000FFFF00FF000000FF00FF00FFFF0000FFFFFF00FFFFFFFFFFFFFFFFFFFFFFFFFFFFFFFFFFFFFFFFFFFFFFFFFFFFFFFFFFFFFFFFFFFFFFFFFFFFFFFFFFFFFFFFFFFFFFFFFFFFFFFFFFFFFFFFFFFFFFFFFFFFFFFFFFFFFFFFFFFFFFFFFFFFFFFFFFFFFF
310
FFFFFFFFFFFFFFFFFFFFFFFFFFFFFFFFFFFFFFFFFFFFFFFFFFFFFFFFFFFFFFFFFFFFFFFFFFFFFFFFFFFFFFFFFFFFFFFFFFFFFFFFFFFFFFFFFFFFFFFFFFFFFFFFFFFFFFFFFFFFFFFFFFFFFFFFFFFFFFFFFFFFFFFFFFFFFFFFFFFFFFFFFFFFFFFFFFFFFFFFFFFFFFFFFFFFFFFFFFFFFFFFFFFFFFFFFFFFFFFFFFFFFFFFFFFFFF
310
FFFFFFFFFFFFFFFFFFFFFFFFFFFFFFFFFFFFFFFFFFFFFFFFFFFFFFFFFFFFFFFFFFFFFFFFFFFFFFFFFFFFFFFFFFFFFFFFFFFFFFFFFFFFFFFFFFFFFFFFFFFFFFFFFFFFFFFFFFFFFFFFFFFFFFFFFFFFFFFFFFFFFFFFFFFFFFFFFFFFFFFFFFFFFFFFFFFFFFFFFFFFFFFFFFFFFFFFFFFFFFFFFFFFFFFFFFFFFFFFFFFFFFFFFFFFFF
310
FFFFFFFFFFFFFFFFFFFFFFFFFFFFFFFFFFFFFFFFFFFFFFFFFFFFFFFFFFFFFFFFFFFFFFFFFFFFFFFFFFFFFFFFFFFFFFFFFFFFFFFFFFFFFFFFFFFFFFFFFFFFFFFFFFFFFFFFFFFFFFFFFFFFFFFFFFFFFFFFFFFFFFFFFFFFFFFFFFFFFFFF0000000000000000000000000000FFFFFFFFFFFFFFFFFFFFFFFFFFFFFFFFFFFF000000
310
0000000000000000000000FFFFFFFFFFFFFFFFFFFFFFFFFFFFFFFFFFFFFFFFFF000000000000000000FFFFFFFFFFFFFFFFFFFFFFFFFFFFFFFFFFFFFFFFFFFFFF000000000000000000FFFFFFFFFFFFFFFFFFFFFFFFFFFFFFFFFFFFFFFFFF000000000000000000000000FFFFFFFFFFFFFFFFFFFFFFFFFFFFFFFFFFFFFFFF00
310
FFFFFF00FF0000FF000000FFFFFFFFFFFFFFFFFFFFFFFFFFFFFFFFFFFFFFFFFFFFFFFFFFFFFFFFFFFFFFFFFFFFFFFFFFFFFFFFFFFFFFFFFFFFFFFFFFFFFFFFFFFFFFFFFFFFFFFFFFFFFFFFFFFFFFFFFFFFFFFFFFFFFFFFFFFFFFFFFFFFFFFFFFFFFFFFFFFFFFFFFFFFFFFFFFFFFFFFFFFFFFFFFFFFFFFFFFFFFFFFFFFFFFFF
310
FFFFFFFFFFFFFFFFFFFFFFFFFFFFFFFFFFFFFFFFFFFFFFFFFFFFFFFFFFFFFFFFFFFFFFFFFFFFFFFFFFFFFFFFFFFFFFFFFFFFFFFFFFFFFFFFFFFFFFFFFFFFFFFFFFFFFFFFFFFFFFFFFFFFFFFFFFFFFFFFFFFFFFFFFFFFFFFFFFFFFFFFFFFFFFFFFFFFFFFFFFFFFFFFFFFFFFFFFFFFFFFFFFFFFFFFFFFFFFFFFFFFFFFFFFFFFF
310
FFFFFFFFFFFFFFFFFFFFFFFFFFFFFFFFFFFFFFFFFFFFFFFFFFFFFFFFFFFFFFFFFFFFFFFFFFFFFFFFFFFFFFFFFFFFFFFFFFFFFFFFFFFFFFFFFFFFFFFFFFFFFFFFFFFFFFFFFFFFFFFFFFFFFFFFFFFFFFFFFFFFFFFFFFFFFFFFFFFFFFFFFFFFFFFFFFFFFFFFFFFFFFFFFFFFFFFFFFFFFFFFFFFFFFFFFFFFFFFFFFFFFFFFFFFFFF
310
FFFFFFFFFFFFFFFFFFFFFFFFFFFFFFFFFFFFFFFFFFFFFFFFFFFFFFFFFFFFFFFFFFFFFFFFFFFFFFFFFFFFFFFFFFFFFFFFFFFFFFFFFFFFFFFF
102
{BLKREFS
331
26A9
331
26AE
102
}
  0
BLOCK_RECORD
  5
2AC8
330
23C9
100
AcDbSymbolTableRecord
100
AcDbBlockTableRecord
  2
HD LLC
340
0
310
2800000020000000200000000100080000000000000400000000000000000000000000000000000000000000000080000080000000808000800000008000800080800000C0C0C000C0DCC000F0CAA6000020400000206000002080000020A0000020C0000020E00000400000004020000040400000406000004080000040A0
310
000040C0000040E00000600000006020000060400000606000006080000060A0000060C0000060E00000800000008020000080400000806000008080000080A0000080C0000080E00000A0000000A0200000A0400000A0600000A0800000A0A00000A0C00000A0E00000C0000000C0200000C0400000C0600000C0800000C0
310
A00000C0C00000C0E00000E0000000E0200000E0400000E0600000E0800000E0A00000E0C00000E0E00040000000400020004000400040006000400080004000A0004000C0004000E00040200000402020004020400040206000402080004020A0004020C0004020E000404000004040200040404000404060004040800040
310
40A0004040C0004040E00040600000406020004060400040606000406080004060A0004060C0004060E00040800000408020004080400040806000408080004080A0004080C0004080E00040A0000040A0200040A0400040A0600040A0800040A0A00040A0C00040A0E00040C0000040C0200040C0400040C0600040C08000
310
40C0A00040C0C00040C0E00040E0000040E0200040E0400040E0600040E0800040E0A00040E0C00040E0E00080000000800020008000400080006000800080008000A0008000C0008000E00080200000802020008020400080206000802080008020A0008020C0008020E00080400000804020008040400080406000804080
310
008040A0008040C0008040E00080600000806020008060400080606000806080008060A0008060C0008060E00080800000808020008080400080806000808080008080A0008080C0008080E00080A0000080A0200080A0400080A0600080A0800080A0A00080A0C00080A0E00080C0000080C0200080C0400080C0600080C0
310
800080C0A00080C0C00080C0E00080E0000080E0200080E0400080E0600080E0800080E0A00080E0C00080E0E000C0000000C0002000C0004000C0006000C0008000C000A000C000C000C000E000C0200000C0202000C0204000C0206000C0208000C020A000C020C000C020E000C0400000C0402000C0404000C0406000C0
310
408000C040A000C040C000C040E000C0600000C0602000C0604000C0606000C0608000C060A000C060C000C060E000C0800000C0802000C0804000C0806000C0808000C080A000C080C000C080E000C0A00000C0A02000C0A04000C0A06000C0A08000C0A0A000C0A0C000C0A0E000C0C00000C0C02000C0C04000C0C06000
310
C0C08000C0C0A000F0FBFF00A4A0A000808080000000FF0000FF000000FFFF00FF000000FF00FF00FFFF0000FFFFFF00FFFFFFFFFFFFFFFFFFFFFFFFFFFFFFFFFFFFFFFFFFFFFFFFFFFFFFFFFFFFFFFFFFFFFFFFFFFFFFFFFFFFFFFFFFFFFFFFFFFFFFFFFFFFFFFFFFFFFFFFFFFFFFFFFFFFFFFFFFFFFFFFFFFFFFFFFFFFFF
310
FFFFFFFFFFFFFFFFFFFFFFFFFFFFFFFFFFFFFFFFFFFFFFFFFFFFFFFFFFFFFFFFFFFFFFFFFFFFFFFFFFFFFFFFFFFFFFFFFFFFFFFFFFFFFFFFFFFFFFFFFFFFFFFFFFFFFFFFFFFFFFFFFFFFFFFFFFFFFFFFFFFFFFFFFFFFFFFFFFFFFFFFFFFFFFFFFFFFFFFFFFFFFFFFFFFFFFFFFFFFFFFFFFFFFFFFFFFFFFFFFFFFFFFFFFFFFF
310
FFFFFFFFFFFFFFFFFFFFFFFFFFFFFFFFFFFFFFFFFFFFFFFFFFFFFFFFFFFFFFFFFFFFFFFFFFFFFFFFFFFFFFFFFFFFFFFFFFFFFFFFFFFFFFFFFFFFFFFFFFFFFFFFFFFFFFFFFFFFFFFFFFFFFFFFFFFFFFFFFFFFFFFFFFFFFFFFFFFFFFFFFFFFFFFFFFFFFFFFFFFFFFFFFFFFFFFFFFFFFFFFFFFFFFFFFFFFFFFFFFFFFFFFFFFFFF
310
FFFFFFFFFFFFFFFFFFFFFFFFFFFFFFFFFFFFFFFFFFFFFFFFFFFFFFFFFFFFFFFFFFFFFFFFFFFFFFFFFFFFFFFFFFFFFFFFFFFFFFFFFFFFFFFFFFFFFFFFFFFFFFFFFFFFFFFFFFFFFFFFFFFFFFFFFFFFFFFFFFFFFFFFFFFFFFFFFFFFFFFFFFFFFFFFFFFFFFFFFFFFFFFFFFFFFFFFFFFFFFFFFFFFFFFFFFFFFFFFFFFFFFFFFFFF00
310
000000000000000000FFFFFFFFFFFFFFFFFFFFFFFFFFFFFFFFFFFFFFFFFFFF00000000000000000000FFFFFFFFFFFFFFFFFFFFFFFFFFFFFFFFFFFFFFFFFFFF00000000000000000000FFFFFFFFFFFFFFFFFFFFFFFFFFFFFFFFFFFFFFFFFFFF00000000000000000000FFFFFFFFFFFFFFFFFFFFFFFFFFFFFFFFFFFFFFFFFFFF
310
FFFFFFFFFFFFFFFFFFFFFFFFFFFFFFFFFFFFFFFFFFFFFFFFFFFFFFFFFFFFFFFFFFFFFFFFFFFFFFFFFFFFFFFFFFFFFFFFFFFFFFFFFFFFFFFFFFFFFFFFFFFFFFFFFFFFFFFFFFFFFFFFFFFFFFFFFFFFFFFFFFFFFFFFFFFFFFFFFFFFFFFFFFFFFFFFFFFFFFFFFFFFFFFFFFFFFFFFFFFFFFFFFFFFFFFFFFFFFFFFFFFFFFFFFFFFFF
310
FFFFFFFFFFFFFFFFFFFFFFFFFFFFFFFFFFFFFFFFFFFFFFFFFFFFFFFFFFFFFFFFFFFFFFFFFFFFFFFFFFFFFFFFFFFFFFFFFFFFFFFFFFFFFFFFFFFFFFFFFFFFFFFFFFFFFFFFFFFFFFFFFFFFFFFFFFFFFFFFFFFFFFFFFFFFFFFFFFFFFFFFFFFFFFFFFFFFFFFFFFFFFFFFFFFFFFFFFFFFFFFFFFFFFFFFFFFFFFFFFFFFFFFFFFFFFF
310
FFFFFFFFFFFFFFFFFFFFFFFFFFFFFFFFFFFFFFFFFFFFFFFFFFFFFFFFFFFFFFFFFFFFFFFFFFFFFFFFFFFFFFFFFFFFFFFFFFFFFFFFFFFFFFFFFFFFFFFFFFFFFFFFFFFFFFFFFFFFFFFFFFFFFFFFFFFFFFFFFFFFFFFFFFFFFFFFFFFFFFFFFFFFFFFFFFFFFFFFFFFFFFFFFFFFFFFFFFFFFFFFFFFFFFFFFFFFFFFFFFFFFFFFFFFFFF
310
FFFFFFFFFFFFFFFFFFFFFFFFFFFFFFFFFFFFFFFFFFFFFFFFFFFFFFFFFFFFFFFFFFFFFFFFFFFFFFFFFFFFFFFFFFFFFFFFFFFFFFFFFFFFFFFF
102
{BLKREFS
331
2ACD
331
2AD1
102
}
  0
BLOCK_RECORD
  5
2AD8
330
23C9
100
AcDbSymbolTableRecord
100
AcDbBlockTableRecord
  2
NTC
340
0
310
2800000020000000200000000100080000000000000400000000000000000000000000000000000000000000000080000080000000808000800000008000800080800000C0C0C000C0DCC000F0CAA6000020400000206000002080000020A0000020C0000020E00000400000004020000040400000406000004080000040A0
310
000040C0000040E00000600000006020000060400000606000006080000060A0000060C0000060E00000800000008020000080400000806000008080000080A0000080C0000080E00000A0000000A0200000A0400000A0600000A0800000A0A00000A0C00000A0E00000C0000000C0200000C0400000C0600000C0800000C0
310
A00000C0C00000C0E00000E0000000E0200000E0400000E0600000E0800000E0A00000E0C00000E0E00040000000400020004000400040006000400080004000A0004000C0004000E00040200000402020004020400040206000402080004020A0004020C0004020E000404000004040200040404000404060004040800040
310
40A0004040C0004040E00040600000406020004060400040606000406080004060A0004060C0004060E00040800000408020004080400040806000408080004080A0004080C0004080E00040A0000040A0200040A0400040A0600040A0800040A0A00040A0C00040A0E00040C0000040C0200040C0400040C0600040C08000
310
40C0A00040C0C00040C0E00040E0000040E0200040E0400040E0600040E0800040E0A00040E0C00040E0E00080000000800020008000400080006000800080008000A0008000C0008000E00080200000802020008020400080206000802080008020A0008020C0008020E00080400000804020008040400080406000804080
310
008040A0008040C0008040E00080600000806020008060400080606000806080008060A0008060C0008060E00080800000808020008080400080806000808080008080A0008080C0008080E00080A0000080A0200080A0400080A0600080A0800080A0A00080A0C00080A0E00080C0000080C0200080C0400080C0600080C0
310
800080C0A00080C0C00080C0E00080E0000080E0200080E0400080E0600080E0800080E0A00080E0C00080E0E000C0000000C0002000C0004000C0006000C0008000C000A000C000C000C000E000C0200000C0202000C0204000C0206000C0208000C020A000C020C000C020E000C0400000C0402000C0404000C0406000C0
310
408000C040A000C040C000C040E000C0600000C0602000C0604000C0606000C0608000C060A000C060C000C060E000C0800000C0802000C0804000C0806000C0808000C080A000C080C000C080E000C0A00000C0A02000C0A04000C0A06000C0A08000C0A0A000C0A0C000C0A0E000C0C00000C0C02000C0C04000C0C06000
310
C0C08000C0C0A000F0FBFF00A4A0A000808080000000FF0000FF000000FFFF00FF000000FF00FF00FFFF0000FFFFFF00FFFFFFFFFFFFFFFFFFFFFFFFFFFFFFFFFFFFFFFFFFFFFFFFFFFFFFFFFFFFFFFFFFFFFFFFFFFFFFFFFFFFFFFFFFFFFFFFFFFFFFFFFFFFFFFFFFFFFFFFFFFFFFFFFFFFFFFFFFFFFFFFFFFFFFFFFFFFFF
310
FFFFFFFFFFFFFFFFFFFFFFFFFFFFFFFFFFFFFFFFFFFFFFFFFFFFFFFFFFFFFFFFFFFFFFFFFFFFFFFFFFFFFFFFFFFFFFFFFFFFFFFFFFFFFFFFFFFFFFFFFFFFFFFFFFFFFFFFFFFFFFFFFFFFFFFFFFFFFFFFFFFFFFFFFFFFFFFFFFFFFFFFFFFFFFFFFFFFFFFFFFFFFFFFFFFFFFFFFFFFFFFFFFFFFFFFFFFFFFFFFFFFFFFFFFFFFF
310
FFFFFFFFFFFFFFFFFFFFFFFFFFFFFFFFFFFFFFFFFFFFFFFFFFFFFFFFFFFFFFFFFFFFFFFFFFFFFFFFFFFFFFFFFFFFFFFFFFFFFFFFFFFFFFFFFFFFFFFFFFFFFFFFFFFFFFFFFFFFFFFFFFFFFFFFFFFFFFFFFFFFFFFFFFFFFFFFFFFFFFFFFFFFFFFFFFFFFFFFFFFFFFFFFFFFFFFFFFFFFFFFFFFFFFFFFFFFFFFFFFFFFFFFFFFFFF
310
FFFFFFFFFFFFFFFFFFFFFFFFFFFFFFFFFFFFFFFF000000000000000000000000000000000000000000000000000000000000FFFF00FF0000000000000000FFFFFFFFFFFFFFFFFFFFFFFFFFFFFFFFFFFFFF00FFFF00FF0000000000000000FFFFFFFFFFFFFFFFFFFFFFFFFFFFFFFFFFFFFF00FFFF00FF000000000000000000
310
00000000000000000000000000FFFFFFFFFF00FFFF00FF0000000000000000000000000000000000000000000000000000FF00FFFF00FF0000000000000000000000000000000000000000000000000000FF00FFFF00FF0000000000000000000000000000000000000000000000000000FF00FFFF00FF0000000000000000
310
00000000000000000000000000000000FFFFFF00FFFF00FF0000000000FFFFFFFFFFFFFFFFFFFFFFFFFFFFFFFFFFFFFFFFFFFF00FFFF000000000000000000000000000000000000000000000000000000000000FFFFFFFFFFFFFFFFFFFFFFFFFFFFFFFFFFFFFFFFFFFFFFFFFFFFFFFFFFFFFFFFFFFFFFFFFFFFFFFFFFFFFF
310
FFFFFFFFFFFFFFFFFFFFFFFFFFFFFFFFFFFFFFFFFFFFFFFFFFFFFFFFFFFFFFFFFFFFFFFFFFFFFFFFFFFFFFFFFFFFFFFFFFFFFFFFFFFFFFFFFFFFFFFFFFFFFFFFFFFFFFFFFFFFFFFFFFFFFFFFFFFFFFFFFFFFFFFFFFFFFFFFFFFFFFFFFFFFFFFFFFFFFFFFFFFFFFFFFFFFFFFFFFFFFFFFFFFFFFFFFFFFFFFFFFFFFFFFFFFFFF
310
FFFFFFFFFFFFFFFFFFFFFFFFFFFFFFFFFFFFFFFFFFFFFFFFFFFFFFFFFFFFFFFFFFFFFFFFFFFFFFFFFFFFFFFFFFFFFFFFFFFFFFFFFFFFFFFFFFFFFFFFFFFFFFFFFFFFFFFFFFFFFFFFFFFFFFFFFFFFFFFFFFFFFFFFFFFFFFFFFFFFFFFFFFFFFFFFFFFFFFFFFFFFFFFFFFFFFFFFFFFFFFFFFFFFFFFFFFFFFFFFFFFFFFFFFFFFFF
310
FFFFFFFFFFFFFFFFFFFFFFFFFFFFFFFFFFFFFFFFFFFFFFFFFFFFFFFFFFFFFFFFFFFFFFFFFFFFFFFFFFFFFFFFFFFFFFFFFFFFFFFFFFFFFFFF
102
{BLKREFS
331
2ADE
331
2AE4
102
}
  0
ENDTAB
  0
ENDSEC
  0
SECTION
  2
BLOCKS
  0
BLOCK
  5
23E7
330
23E6
100
AcDbEntity
  8
0
100
AcDbBlockBegin
  2
*Model_Space
 70
     0
 10
0.0
 20
0.0
 30
0.0
  3
*Model_Space
  1

  0
ENDBLK
  5
23E8
330
23E6
100
AcDbEntity
  8
0
100
AcDbBlockEnd
  0
BLOCK
  5
23E3
330
23E2
100
AcDbEntity
 67
     1
  8
0
100
AcDbBlockBegin
  2
*Paper_Space
 70
     0
 10
0.0
 20
0.0
 30
0.0
  3
*Paper_Space
  1

  0
ENDBLK
  5
23E4
330
23E2
100
AcDbEntity
 67
     1
  8
0
100
AcDbBlockEnd
  0
BLOCK
  5
2400
330
23FF
100
AcDbEntity
  8
0
100
AcDbBlockBegin
  2
$MODEL_SPACE
 70
     0
 10
0.0
 20
0.0
 30
0.0
  3
$MODEL_SPACE
  1

  0
ENDBLK
  5
2401
330
23FF
100
AcDbEntity
  8
0
100
AcDbBlockEnd
  0
BLOCK
  5
2403
330
2402
100
AcDbEntity
  8
0
100
AcDbBlockBegin
  2
$PAPER_SPACE
 70
     0
 10
0.0
 20
0.0
 30
0.0
  3
$PAPER_SPACE
  1

  0
ENDBLK
  5
2404
330
2402
100
AcDbEntity
  8
0
100
AcDbBlockEnd
  0
BLOCK
  5
2621
330
261E
100
AcDbEntity
  8
0
 62
     7
100
AcDbBlockBegin
  2
AI9-BLK14
 70
     0
 10
0.0
 20
0.0
 30
0.0
  3
AI9-BLK14
  1

  0
SPLINE
  5
261F
330
261E
100
AcDbEntity
  8
LAYER_1
 62
     7
100
AcDbSpline
210
0.0
220
0.0
230
1.0
 70
    11
 71
     3
 72
    23
 73
    19
 74
     0
 42
0.0000000001
 43
0.0000000001
 40
0.0
 40
0.0
 40
0.0
 40
0.0
 40
1.0
 40
1.0
 40
1.0
 40
2.0
 40
2.0
 40
2.0
 40
3.0
 40
3.0
 40
3.0
 40
4.0
 40
4.0
 40
4.0
 40
5.0
 40
5.0
 40
5.0
 40
6.0
 40
6.0
 40
6.0
 40
6.0
 10
-10.90321044921874
 20
10.88107571072048
 30
0.0
 10
-10.90321044921874
 20
10.88107571072048
 30
0.0
 10
-10.90321044921874
 20
-10.88107571072048
 30
0.0
 10
-10.90321044921874
 20
-10.88107571072048
 30
0.0
 10
-10.90321044921874
 20
-10.88107571072048
 30
0.0
 10
1.752692328559025
 20
-10.88107571072048
 30
0.0
 10
1.752692328559025
 20
-10.88107571072048
 30
0.0
 10
3.280592176649305
 20
-10.88107571072048
 30
0.0
 10
10.90321044921874
 20
-10.32383151584201
 30
0.0
 10
10.90321044921874
 20
0.6792867024739583
 30
0.0
 10
10.90321044921874
 20
10.61700914171006
 30
0.0
 10
2.773129611545138
 20
10.87952541775172
 30
0.0
 10
2.691136338975693
 20
10.88090345594618
 30
0.0
 10
2.691136338975693
 20
10.88090345594618
 30
0.0
 10
-9.903099229600693
 20
10.88107571072048
 30
0.0
 10
-9.903099229600693
 20
10.88107571072048
 30
0.0
 10
-9.903099229600693
 20
10.88107571072048
 30
0.0
 10
-10.90321044921874
 20
10.88107571072048
 30
0.0
 10
-10.90321044921874
 20
10.88107571072048
 30
0.0
  0
SPLINE
  5
2620
330
261E
100
AcDbEntity
  8
LAYER_1
 62
     7
100
AcDbSpline
210
0.0
220
0.0
230
1.0
 70
    11
 71
     3
 72
    20
 73
    16
 74
     0
 42
0.0000000001
 43
0.0000000001
 40
0.0
 40
0.0
 40
0.0
 40
0.0
 40
1.0
 40
1.0
 40
1.0
 40
2.0
 40
2.0
 40
2.0
 40
3.0
 40
3.0
 40
3.0
 40
4.0
 40
4.0
 40
4.0
 40
5.0
 40
5.0
 40
5.0
 40
5.0
 10
2.672877332899305
 20
8.881197781032986
 30
0.0
 10
2.905421278211805
 20
8.874307590060762
 30
0.0
 10
8.902988009982637
 20
8.616442192925347
 30
0.0
 10
8.902988009982637
 20
0.6792867024739583
 30
0.0
 10
8.902988009982637
 20
-8.191661919487842
 30
0.0
 10
3.430109320746526
 20
-8.881197781032986
 30
0.0
 10
1.752692328559025
 20
-8.881197781032986
 30
0.0
 10
1.752692328559025
 20
-8.881197781032986
 30
0.0
 10
-7.231427680121528
 20
-8.881197781032986
 30
0.0
 10
-8.902988009982637
 20
-8.881197781032986
 30
0.0
 10
-8.902988009982637
 20
-7.174497477213541
 30
0.0
 10
-8.902988009982637
 20
7.174497477213541
 30
0.0
 10
-8.902988009982637
 20
8.881197781032986
 30
0.0
 10
-7.208690049913191
 20
8.881197781032986
 30
0.0
 10
2.672877332899305
 20
8.881197781032986
 30
0.0
 10
2.672877332899305
 20
8.881197781032986
 30
0.0
  0
ENDBLK
  5
2622
330
261E
100
AcDbEntity
  8
0
100
AcDbBlockEnd
  0
BLOCK
  5
2626
330
2623
100
AcDbEntity
  8
0
 62
     7
100
AcDbBlockBegin
  2
AI9-BLK13
 70
     0
 10
0.0
 20
0.0
 30
0.0
  3
AI9-BLK13
  1

  0
LWPOLYLINE
  5
2624
330
2623
100
AcDbEntity
  8
LAYER_1
 62
     7
100
AcDbPolyline
 90
       12
 70
     1
 43
0.0
 10
-3.792361111111107
 20
10.7376736111111
 10
-2.469444444444443
 20
10.7376736111111
 10
-2.469444444444443
 20
1.874131944444444
 10
2.469444444444443
 20
1.874131944444444
 10
2.469444444444443
 20
10.7376736111111
 10
3.792361111111107
 20
10.7376736111111
 10
3.792361111111107
 20
-10.7376736111111
 10
2.469444444444443
 20
-10.7376736111111
 10
2.469444444444443
 20
-0.6835069444444444
 10
-2.469444444444443
 20
-0.6835069444444444
 10
-2.469444444444443
 20
-10.7376736111111
 10
-3.792361111111107
 20
-10.7376736111111
  0
HATCH
  5
2625
330
2623
100
AcDbEntity
  8
LAYER_1
 62
     7
100
AcDbHatch
 10
0.0
 20
0.0
 30
0.0
210
0.0
220
0.0
230
1.0
  2
SOLID
 70
     1
 71
     0
 91
        1
 92
        3
 72
     0
 73
     1
 93
       12
 10
-3.792361111111107
 20
10.7376736111111
 10
-2.469444444444443
 20
10.7376736111111
 10
-2.469444444444443
 20
1.874131944444444
 10
2.469444444444443
 20
1.874131944444444
 10
2.469444444444443
 20
10.7376736111111
 10
3.792361111111107
 20
10.7376736111111
 10
3.792361111111107
 20
-10.7376736111111
 10
2.469444444444443
 20
-10.7376736111111
 10
2.469444444444443
 20
-0.6835069444444444
 10
-2.469444444444443
 20
-0.6835069444444444
 10
-2.469444444444443
 20
-10.7376736111111
 10
-3.792361111111107
 20
-10.7376736111111
 97
        0
 75
     2
 76
     1
 98
        1
 10
0.0
 20
0.0
  0
ENDBLK
  5
2627
330
2623
100
AcDbEntity
  8
0
100
AcDbBlockEnd
  0
BLOCK
  5
262B
330
2628
100
AcDbEntity
  8
0
 62
     7
100
AcDbBlockBegin
  2
AI9-BLK11
 70
     0
 10
0.0
 20
0.0
 30
0.0
  3
AI9-BLK11
  1

  0
SPLINE
  5
2629
330
2628
100
AcDbEntity
  8
LAYER_1
 62
     7
100
AcDbSpline
210
0.0
220
0.0
230
1.0
 70
    11
 71
     3
 72
    26
 73
    22
 74
     0
 42
0.0000000001
 43
0.0000000001
 40
0.0
 40
0.0
 40
0.0
 40
0.0
 40
1.0
 40
1.0
 40
1.0
 40
2.0
 40
2.0
 40
2.0
 40
3.0
 40
3.0
 40
3.0
 40
4.0
 40
4.0
 40
4.0
 40
5.0
 40
5.0
 40
5.0
 40
6.0
 40
6.0
 40
6.0
 40
7.0
 40
7.0
 40
7.0
 40
7.0
 10
-2.645833333333333
 20
0.9039930555555551
 30
0.0
 10
-2.645833333333333
 20
0.9039930555555551
 30
0.0
 10
-2.645833333333333
 20
8.180034722222217
 30
0.0
 10
-2.645833333333333
 20
8.180034722222217
 30
0.0
 10
-2.645833333333333
 20
8.180034722222217
 30
0.0
 10
0.465087890625
 20
8.180034722222217
 30
0.0
 10
0.465087890625
 20
8.180034722222217
 30
0.0
 10
0.9026150173611108
 20
8.180034722222217
 30
0.0
 10
1.24988064236111
 20
8.034651692708331
 30
0.0
 10
1.506884765625
 20
7.745263671874997
 30
0.0
 10
2.001600477430554
 20
7.194048394097221
 30
0.0
 10
2.248958333333332
 20
6.160519748263887
 30
0.0
 10
2.248958333333332
 20
4.643299696180553
 30
0.0
 10
2.248958333333332
 20
3.232188585069443
 30
0.0
 10
2.072569444444444
 20
2.256537543402775
 30
0.0
 10
1.720480685763888
 20
1.715657552083333
 30
0.0
 10
1.368391927083333
 20
1.174088541666665
 30
0.0
 10
0.8929687499999998
 20
0.9039930555555551
 30
0.0
 10
0.2942111545138888
 20
0.9039930555555551
 30
0.0
 10
0.2942111545138888
 20
0.9039930555555551
 30
0.0
 10
-2.645833333333333
 20
0.9039930555555551
 30
0.0
 10
-2.645833333333333
 20
0.9039930555555551
 30
0.0
  0
SPLINE
  5
262A
330
2628
100
AcDbEntity
  8
LAYER_1
 62
     7
100
AcDbSpline
210
0.0
220
0.0
230
1.0
 70
    11
 71
     3
 72
    68
 73
    64
 74
     0
 42
0.0000000001
 43
0.0000000001
 40
0.0
 40
0.0
 40
0.0
 40
0.0
 40
1.0
 40
1.0
 40
1.0
 40
2.0
 40
2.0
 40
2.0
 40
3.0
 40
3.0
 40
3.0
 40
4.0
 40
4.0
 40
4.0
 40
5.0
 40
5.0
 40
5.0
 40
6.0
 40
6.0
 40
6.0
 40
7.0
 40
7.0
 40
7.0
 40
8.0
 40
8.0
 40
8.0
 40
9.0
 40
9.0
 40
9.0
 40
10.0
 40
10.0
 40
10.0
 40
11.0
 40
11.0
 40
11.0
 40
12.0
 40
12.0
 40
12.0
 40
13.0
 40
13.0
 40
13.0
 40
14.0
 40
14.0
 40
14.0
 40
15.0
 40
15.0
 40
15.0
 40
16.0
 40
16.0
 40
16.0
 40
17.0
 40
17.0
 40
17.0
 40
18.0
 40
18.0
 40
18.0
 40
19.0
 40
19.0
 40
19.0
 40
20.0
 40
20.0
 40
20.0
 40
21.0
 40
21.0
 40
21.0
 40
21.0
 10
-3.968749999999998
 20
-10.7376736111111
 30
0.0
 10
-3.968749999999998
 20
-10.7376736111111
 30
0.0
 10
-2.645833333333333
 20
-10.7376736111111
 30
0.0
 10
-2.645833333333333
 20
-10.7376736111111
 30
0.0
 10
-2.645833333333333
 20
-10.7376736111111
 30
0.0
 10
-2.645833333333333
 20
-1.521354166666665
 30
0.0
 10
-2.645833333333333
 20
-1.521354166666665
 30
0.0
 10
-2.645833333333333
 20
-1.521354166666665
 30
0.0
 10
0.2390896267361111
 20
-1.521354166666665
 30
0.0
 10
0.2390896267361111
 20
-1.521354166666665
 30
0.0
 10
0.7599880642361111
 20
-1.521354166666665
 30
0.0
 10
1.143771701388887
 20
-1.65295681423611
 30
0.0
 10
1.390440538194444
 20
-1.916162109374999
 30
0.0
 10
1.816254340277773
 20
-2.39434136284722
 30
0.0
 10
2.04363064236111
 20
-3.335541449652775
 30
0.0
 10
2.072569444444444
 20
-4.739762369791666
 30
0.0
 10
2.072569444444444
 20
-4.739762369791666
 30
0.0
 10
2.160763888888888
 20
-8.324039713541665
 30
0.0
 10
2.160763888888888
 20
-8.324039713541665
 30
0.0
 10
2.18005642361111
 20
-9.163264973958332
 30
0.0
 10
2.202794053819443
 20
-9.728949652777775
 30
0.0
 10
2.227598741319444
 20
-10.02109374999998
 30
0.0
 10
2.252403428819443
 20
-10.31392686631944
 30
0.0
 10
2.28892144097222
 20
-10.55301649305555
 30
0.0
 10
2.33853081597222
 20
-10.7376736111111
 30
0.0
 10
2.33853081597222
 20
-10.7376736111111
 30
0.0
 10
3.968749999999998
 20
-10.7376736111111
 30
0.0
 10
3.968749999999998
 20
-10.7376736111111
 30
0.0
 10
3.968749999999998
 20
-10.7376736111111
 30
0.0
 10
3.968749999999998
 20
-10.25260416666666
 30
0.0
 10
3.968749999999998
 20
-10.25260416666666
 30
0.0
 10
3.766867404513888
 20
-10.05830078125
 30
0.0
 10
3.625618489583333
 20
-9.621462673611112
 30
0.0
 10
3.545692274305555
 20
-8.942089843749997
 30
0.0
 10
3.49470486111111
 20
-8.543836805555555
 30
0.0
 10
3.459564887152775
 20
-7.937499999999999
 30
0.0
 10
3.439583333333333
 20
-7.121701388888887
 30
0.0
 10
3.439583333333333
 20
-7.121701388888887
 30
0.0
 10
3.395486111111106
 20
-4.232644314236106
 30
0.0
 10
3.395486111111106
 20
-4.232644314236106
 30
0.0
 10
3.375504557291666
 20
-2.981385633680555
 30
0.0
 10
3.26870659722222
 20
-2.077392578125
 30
0.0
 10
3.075781249999999
 20
-1.522043185763888
 30
0.0
 10
2.882166883680555
 20
-0.9666937934027776
 30
0.0
 10
2.592089843749999
 20
-0.5188313802083333
 30
0.0
 10
2.204861111111106
 20
-0.1770779079861111
 30
0.0
 10
2.63618706597222
 20
0.3197048611111111
 30
0.0
 10
2.971739366319443
 20
0.9770290798611107
 30
0.0
 10
3.211518012152775
 20
1.79558376736111
 30
0.0
 10
3.451296657986107
 20
2.613449435763888
 30
0.0
 10
3.571874999999999
 20
3.66558159722222
 30
0.0
 10
3.571874999999999
 20
4.951291232638888
 30
0.0
 10
3.571874999999999
 20
7.415912543402777
 30
0.0
 10
3.124701605902775
 20
9.106076388888887
 30
0.0
 10
2.231043836805555
 20
10.02178276909722
 30
0.0
 10
1.759754774305553
 20
10.498583984375
 30
0.0
 10
1.163753255208332
 20
10.7376736111111
 30
0.0
 10
0.443039279513889
 20
10.7376736111111
 30
0.0
 10
0.443039279513889
 20
10.7376736111111
 30
0.0
 10
-3.968749999999998
 20
10.7376736111111
 30
0.0
 10
-3.968749999999998
 20
10.7376736111111
 30
0.0
 10
-3.968749999999998
 20
10.7376736111111
 30
0.0
 10
-3.968749999999998
 20
-10.7376736111111
 30
0.0
 10
-3.968749999999998
 20
-10.7376736111111
 30
0.0
  0
ENDBLK
  5
262C
330
2628
100
AcDbEntity
  8
0
100
AcDbBlockEnd
  0
BLOCK
  5
262F
330
262D
100
AcDbEntity
  8
0
 62
     7
100
AcDbBlockBegin
  2
AI9-BLK10
 70
     0
 10
0.0
 20
0.0
 30
0.0
  3
AI9-BLK10
  1

  0
SPLINE
  5
262E
330
262D
100
AcDbEntity
  8
LAYER_1
 62
     7
100
AcDbSpline
210
0.0
220
0.0
230
1.0
 70
    11
 71
     3
 72
    59
 73
    55
 74
     0
 42
0.0000000001
 43
0.0000000001
 40
0.0
 40
0.0
 40
0.0
 40
0.0
 40
1.0
 40
1.0
 40
1.0
 40
2.0
 40
2.0
 40
2.0
 40
3.0
 40
3.0
 40
3.0
 40
4.0
 40
4.0
 40
4.0
 40
5.0
 40
5.0
 40
5.0
 40
6.0
 40
6.0
 40
6.0
 40
7.0
 40
7.0
 40
7.0
 40
8.0
 40
8.0
 40
8.0
 40
9.0
 40
9.0
 40
9.0
 40
10.0
 40
10.0
 40
10.0
 40
11.0
 40
11.0
 40
11.0
 40
12.0
 40
12.0
 40
12.0
 40
13.0
 40
13.0
 40
13.0
 40
14.0
 40
14.0
 40
14.0
 40
15.0
 40
15.0
 40
15.0
 40
16.0
 40
16.0
 40
16.0
 40
17.0
 40
17.0
 40
17.0
 40
18.0
 40
18.0
 40
18.0
 40
18.0
 10
-4.652256944444443
 20
10.7376736111111
 30
0.0
 10
-4.652256944444443
 20
10.7376736111111
 30
0.0
 10
-2.798795572916666
 20
10.7376736111111
 30
0.0
 10
-2.798795572916666
 20
10.7376736111111
 30
0.0
 10
-2.798795572916666
 20
10.7376736111111
 30
0.0
 10
0.0
 20
-7.419357638888887
 30
0.0
 10
0.0
 20
-7.419357638888887
 30
0.0
 10
0.0
 20
-7.419357638888887
 30
0.0
 10
2.793283420138888
 20
10.7376736111111
 30
0.0
 10
2.793283420138888
 20
10.7376736111111
 30
0.0
 10
2.793283420138888
 20
10.7376736111111
 30
0.0
 10
4.652256944444443
 20
10.7376736111111
 30
0.0
 10
4.652256944444443
 20
10.7376736111111
 30
0.0
 10
4.652256944444443
 20
10.7376736111111
 30
0.0
 10
4.652256944444443
 20
-10.7376736111111
 30
0.0
 10
4.652256944444443
 20
-10.7376736111111
 30
0.0
 10
4.652256944444443
 20
-10.7376736111111
 30
0.0
 10
3.41753472222222
 20
-10.7376736111111
 30
0.0
 10
3.41753472222222
 20
-10.7376736111111
 30
0.0
 10
3.41753472222222
 20
-10.7376736111111
 30
0.0
 10
3.41753472222222
 20
1.936832682291665
 30
0.0
 10
3.41753472222222
 20
1.936832682291665
 30
0.0
 10
3.41753472222222
 20
2.375048828124999
 30
0.0
 10
3.424424913194443
 20
3.101274956597221
 30
0.0
 10
3.439583333333333
 20
4.11482204861111
 30
0.0
 10
3.454052734374998
 20
5.128369140624998
 30
0.0
 10
3.461631944444443
 20
6.214952256944441
 30
0.0
 10
3.461631944444443
 20
7.375260416666666
 30
0.0
 10
3.461631944444443
 20
7.375260416666666
 30
0.0
 10
0.6538791232638889
 20
-10.7376736111111
 30
0.0
 10
0.6538791232638889
 20
-10.7376736111111
 30
0.0
 10
0.6538791232638889
 20
-10.7376736111111
 30
0.0
 10
-0.6628363715277778
 20
-10.7376736111111
 30
0.0
 10
-0.6628363715277778
 20
-10.7376736111111
 30
0.0
 10
-0.6628363715277778
 20
-10.7376736111111
 30
0.0
 10
-3.461631944444443
 20
7.375260416666666
 30
0.0
 10
-3.461631944444443
 20
7.375260416666666
 30
0.0
 10
-3.461631944444443
 20
7.375260416666666
 30
0.0
 10
-3.461631944444443
 20
6.717247178819441
 30
0.0
 10
-3.461631944444443
 20
6.717247178819441
 30
0.0
 10
-3.461631944444443
 20
6.190836588541666
 30
0.0
 10
-3.45474175347222
 20
5.389507378472222
 30
0.0
 10
-3.439583333333333
 20
4.312570529513888
 30
0.0
 10
-3.425113932291666
 20
3.235633680555555
 30
0.0
 10
-3.41753472222222
 20
2.44395073784722
 30
0.0
 10
-3.41753472222222
 20
1.936832682291665
 30
0.0
 10
-3.41753472222222
 20
1.936832682291665
 30
0.0
 10
-3.41753472222222
 20
-10.7376736111111
 30
0.0
 10
-3.41753472222222
 20
-10.7376736111111
 30
0.0
 10
-3.41753472222222
 20
-10.7376736111111
 30
0.0
 10
-4.652256944444443
 20
-10.7376736111111
 30
0.0
 10
-4.652256944444443
 20
-10.7376736111111
 30
0.0
 10
-4.652256944444443
 20
-10.7376736111111
 30
0.0
 10
-4.652256944444443
 20
10.7376736111111
 30
0.0
 10
-4.652256944444443
 20
10.7376736111111
 30
0.0
  0
ENDBLK
  5
2630
330
262D
100
AcDbEntity
  8
0
100
AcDbBlockEnd
  0
BLOCK
  5
2634
330
2631
100
AcDbEntity
  8
0
 62
     7
100
AcDbBlockBegin
  2
AI9-BLK9
 70
     0
 10
0.0
 20
0.0
 30
0.0
  3
AI9-BLK9
  1

  0
SPLINE
  5
2632
330
2631
100
AcDbEntity
  8
LAYER_1
 62
     7
100
AcDbSpline
210
0.0
220
0.0
230
1.0
 70
    11
 71
     3
 72
    29
 73
    25
 74
     0
 42
0.0000000001
 43
0.0000000001
 40
0.0
 40
0.0
 40
0.0
 40
0.0
 40
1.0
 40
1.0
 40
1.0
 40
2.0
 40
2.0
 40
2.0
 40
3.0
 40
3.0
 40
3.0
 40
4.0
 40
4.0
 40
4.0
 40
5.0
 40
5.0
 40
5.0
 40
6.0
 40
6.0
 40
6.0
 40
7.0
 40
7.0
 40
7.0
 40
8.0
 40
8.0
 40
8.0
 40
8.0
 10
0.0668348524305556
 20
-8.753298611111111
 30
0.0
 10
-0.9067491319444444
 20
-8.753298611111111
 30
0.0
 10
-1.60954861111111
 20
-7.936810980902778
 30
0.0
 10
-2.041563585069444
 20
-6.30383572048611
 30
0.0
 10
-2.474267578124999
 20
-4.670860460069443
 30
0.0
 10
-2.689930555555555
 20
-2.664436848958333
 30
0.0
 10
-2.689930555555555
 20
-0.28525390625
 30
0.0
 10
-2.689930555555555
 20
2.68855251736111
 30
0.0
 10
-2.439127604166666
 20
4.938199869791666
 30
0.0
 10
-1.937521701388888
 20
6.464377170138886
 30
0.0
 10
-1.43591579861111
 20
7.989865451388887
 30
0.0
 10
-0.7827256944444444
 20
8.753298611111111
 30
0.0
 10
0.0220486111111111
 20
8.753298611111111
 30
0.0
 10
0.8468044704861108
 20
8.753298611111111
 30
0.0
 10
1.49792751736111
 20
7.982975260416663
 30
0.0
 10
1.974728732638888
 20
6.442328559027776
 30
0.0
 10
2.451529947916665
 20
4.901681857638886
 30
0.0
 10
2.689930555555555
 20
2.868386501736111
 30
0.0
 10
2.689930555555555
 20
0.3438205295138888
 30
0.0
 10
2.689930555555555
 20
-2.045697699652774
 30
0.0
 10
2.483224826388884
 20
-4.15891927083333
 30
0.0
 10
2.071191406249999
 20
-5.996533203124998
 30
0.0
 10
1.65915798611111
 20
-7.834836154513887
 30
0.0
 10
0.9908094618055557
 20
-8.753298611111111
 30
0.0
 10
0.0668348524305556
 20
-8.753298611111111
 30
0.0
  0
SPLINE
  5
2633
330
2631
100
AcDbEntity
  8
LAYER_1
 62
     7
100
AcDbSpline
210
0.0
220
0.0
230
1.0
 70
    11
 71
     3
 72
    29
 73
    25
 74
     0
 42
0.0000000001
 43
0.0000000001
 40
0.0
 40
0.0
 40
0.0
 40
0.0
 40
1.0
 40
1.0
 40
1.0
 40
2.0
 40
2.0
 40
2.0
 40
3.0
 40
3.0
 40
3.0
 40
4.0
 40
4.0
 40
4.0
 40
5.0
 40
5.0
 40
5.0
 40
6.0
 40
6.0
 40
6.0
 40
7.0
 40
7.0
 40
7.0
 40
8.0
 40
8.0
 40
8.0
 40
8.0
 10
-0.0289388020833333
 20
11.35503472222222
 30
0.0
 10
-1.317404513888887
 20
11.35503472222222
 30
0.0
 10
-2.28892144097222
 20
10.02798394097222
 30
0.0
 10
-2.94280056423611
 20
7.374571397569441
 30
0.0
 10
-3.450607638888888
 20
5.30613606770833
 30
0.0
 10
-3.704166666666666
 20
2.81877712673611
 30
0.0
 10
-3.704166666666666
 20
-0.0881944444444445
 30
0.0
 10
-3.704166666666666
 20
-3.307291666666666
 30
0.0
 10
-3.406510416666666
 20
-5.97035047743055
 30
0.0
 10
-2.811197916666666
 20
-8.077370876736106
 30
0.0
 10
-2.147672526041664
 20
-10.26293945312499
 30
0.0
 10
-1.229899088541666
 20
-11.35503472222222
 30
0.0
 10
-0.0585666232638889
 20
-11.35503472222222
 30
0.0
 10
1.20027126736111
 20
-11.35503472222222
 30
0.0
 10
2.166276041666665
 20
-10.10653211805555
 30
0.0
 10
2.840136718749998
 20
-7.609526909722221
 30
0.0
 10
3.416156684027776
 20
-5.483213975694441
 30
0.0
 10
3.704166666666666
 20
-2.814643012152775
 30
0.0
 10
3.704166666666666
 20
0.3948079427083333
 30
0.0
 10
3.704166666666666
 20
3.360346137152776
 30
0.0
 10
3.449918619791666
 20
5.793961588541666
 30
0.0
 10
2.94280056423611
 20
7.696343315972222
 30
0.0
 10
2.298567708333333
 20
10.13547092013888
 30
0.0
 10
1.307758246527777
 20
11.35503472222222
 30
0.0
 10
-0.0289388020833333
 20
11.35503472222222
 30
0.0
  0
ENDBLK
  5
2635
330
2631
100
AcDbEntity
  8
0
100
AcDbBlockEnd
  0
BLOCK
  5
2639
330
2636
100
AcDbEntity
  8
0
 62
     7
100
AcDbBlockBegin
  2
AI9-BLK8
 70
     0
 10
0.0
 20
0.0
 30
0.0
  3
AI9-BLK8
  1

  0
LWPOLYLINE
  5
2637
330
2636
100
AcDbEntity
  8
LAYER_1
 62
     7
100
AcDbPolyline
 90
       10
 70
     1
 43
0.0
 10
-3.792361111111107
 20
10.7376736111111
 10
-2.268939887152773
 20
10.7376736111111
 10
2.557638888888888
 20
-6.505718315972222
 10
2.557638888888888
 20
10.7376736111111
 10
3.792361111111107
 20
10.7376736111111
 10
3.792361111111107
 20
-10.7376736111111
 10
2.32612847222222
 20
-10.7376736111111
 10
-2.557638888888888
 20
6.549815538194441
 10
-2.557638888888888
 20
-10.7376736111111
 10
-3.792361111111107
 20
-10.7376736111111
  0
HATCH
  5
2638
330
2636
100
AcDbEntity
  8
LAYER_1
 62
     7
100
AcDbHatch
 10
0.0
 20
0.0
 30
0.0
210
0.0
220
0.0
230
1.0
  2
SOLID
 70
     1
 71
     0
 91
        1
 92
        3
 72
     0
 73
     1
 93
       10
 10
-3.792361111111107
 20
10.7376736111111
 10
-2.268939887152773
 20
10.7376736111111
 10
2.557638888888888
 20
-6.505718315972222
 10
2.557638888888888
 20
10.7376736111111
 10
3.792361111111107
 20
10.7376736111111
 10
3.792361111111107
 20
-10.7376736111111
 10
2.32612847222222
 20
-10.7376736111111
 10
-2.557638888888888
 20
6.549815538194441
 10
-2.557638888888888
 20
-10.7376736111111
 10
-3.792361111111107
 20
-10.7376736111111
 97
        0
 75
     2
 76
     1
 98
        1
 10
0.0
 20
0.0
  0
ENDBLK
  5
263A
330
2636
100
AcDbEntity
  8
0
100
AcDbBlockEnd
  0
BLOCK
  5
263E
330
263B
100
AcDbEntity
  8
0
 62
     7
100
AcDbBlockBegin
  2
AI9-BLK7
 70
     0
 10
0.0
 20
0.0
 30
0.0
  3
AI9-BLK7
  1

  0
LWPOLYLINE
  5
263C
330
263B
100
AcDbEntity
  8
LAYER_1
 62
     7
100
AcDbPolyline
 90
        4
 70
     1
 43
0.0
 10
-0.6614583333333333
 20
10.7376736111111
 10
0.6614583333333333
 20
10.7376736111111
 10
0.6614583333333333
 20
-10.7376736111111
 10
-0.6614583333333333
 20
-10.7376736111111
  0
HATCH
  5
263D
330
263B
100
AcDbEntity
  8
LAYER_1
 62
     7
100
AcDbHatch
 10
0.0
 20
0.0
 30
0.0
210
0.0
220
0.0
230
1.0
  2
SOLID
 70
     1
 71
     0
 91
        1
 92
        3
 72
     0
 73
     1
 93
        4
 10
-0.6614583333333333
 20
10.7376736111111
 10
0.6614583333333333
 20
10.7376736111111
 10
0.6614583333333333
 20
-10.7376736111111
 10
-0.6614583333333333
 20
-10.7376736111111
 97
        0
 75
     2
 76
     1
 98
        1
 10
0.0
 20
0.0
  0
ENDBLK
  5
263F
330
263B
100
AcDbEntity
  8
0
100
AcDbBlockEnd
  0
BLOCK
  5
2642
330
2640
100
AcDbEntity
  8
0
 62
     7
100
AcDbBlockBegin
  2
AI9-BLK6
 70
     0
 10
0.0
 20
0.0
 30
0.0
  3
AI9-BLK6
  1

  0
SPLINE
  5
2641
330
2640
100
AcDbEntity
  8
LAYER_1
 62
     7
100
AcDbSpline
210
0.0
220
0.0
230
1.0
 70
    11
 71
     3
 72
    59
 73
    55
 74
     0
 42
0.0000000001
 43
0.0000000001
 40
0.0
 40
0.0
 40
0.0
 40
0.0
 40
1.0
 40
1.0
 40
1.0
 40
2.0
 40
2.0
 40
2.0
 40
3.0
 40
3.0
 40
3.0
 40
4.0
 40
4.0
 40
4.0
 40
5.0
 40
5.0
 40
5.0
 40
6.0
 40
6.0
 40
6.0
 40
7.0
 40
7.0
 40
7.0
 40
8.0
 40
8.0
 40
8.0
 40
9.0
 40
9.0
 40
9.0
 40
10.0
 40
10.0
 40
10.0
 40
11.0
 40
11.0
 40
11.0
 40
12.0
 40
12.0
 40
12.0
 40
13.0
 40
13.0
 40
13.0
 40
14.0
 40
14.0
 40
14.0
 40
15.0
 40
15.0
 40
15.0
 40
16.0
 40
16.0
 40
16.0
 40
17.0
 40
17.0
 40
17.0
 40
18.0
 40
18.0
 40
18.0
 40
18.0
 10
3.062689887152775
 20
9.168088107638887
 30
0.0
 10
3.735172526041666
 20
7.739062499999997
 30
0.0
 10
4.110687934027776
 20
6.116422526041666
 30
0.0
 10
4.189236111111108
 20
4.299479166666666
 30
0.0
 10
4.189236111111108
 20
4.299479166666666
 30
0.0
 10
2.866319444444443
 20
4.299479166666666
 30
0.0
 10
2.866319444444443
 20
4.299479166666666
 30
0.0
 10
2.720936414930555
 20
5.667871093749997
 30
0.0
 10
2.435682508680555
 20
6.752387152777776
 30
0.0
 10
2.009868706597218
 20
7.553027343749997
 30
0.0
 10
1.584054904513888
 20
8.352978515624997
 30
0.0
 10
0.9839192708333332
 20
8.753298611111111
 30
0.0
 10
0.2101508246527778
 20
8.753298611111111
 30
0.0
 10
-0.7386284722222222
 20
8.753298611111111
 30
0.0
 10
-1.503439670138888
 20
8.010536024305555
 30
0.0
 10
-2.083593749999999
 20
6.526388888888886
 30
0.0
 10
-2.664436848958333
 20
5.042241753472221
 30
0.0
 10
-2.954513888888888
 20
2.767100694444443
 30
0.0
 10
-2.954513888888888
 20
-0.2990342881944444
 30
0.0
 10
-2.954513888888888
 20
-2.811197916666666
 30
0.0
 10
-2.693375651041666
 20
-4.847938368055555
 30
0.0
 10
-2.17041015625
 20
-6.409944661458332
 30
0.0
 10
-1.648133680555553
 20
-7.972639973958332
 30
0.0
 10
-0.8640299479166666
 20
-8.753298611111111
 30
0.0
 10
0.1812120225694444
 20
-8.753298611111111
 30
0.0
 10
1.138948567708333
 20
-8.753298611111111
 30
0.0
 10
1.865174696180553
 20
-7.927853732638887
 30
0.0
 10
2.359201388888884
 20
-6.275585937499998
 30
0.0
 10
2.62998589409722
 20
-5.406043836805555
 30
0.0
 10
2.828423394097221
 20
-4.262272135416666
 30
0.0
 10
2.954513888888888
 20
-2.844270833333331
 30
0.0
 10
2.954513888888888
 20
-2.844270833333331
 30
0.0
 10
4.277430555555555
 20
-2.844270833333331
 30
0.0
 10
4.277430555555555
 20
-2.844270833333331
 30
0.0
 10
4.169943576388888
 20
-5.109765624999996
 30
0.0
 10
3.795117187499998
 20
-7.009391276041665
 30
0.0
 10
3.151573350694443
 20
-8.542458767361106
 30
0.0
 10
2.381249999999999
 20
-10.38834092881943
 30
0.0
 10
1.347721354166665
 20
-11.3109375
 30
0.0
 10
0.0509874131944445
 20
-11.3109375
 30
0.0
 10
-1.07004665798611
 20
-11.3109375
 30
0.0
 10
-2.010557725694444
 20
-10.55577256944443
 30
0.0
 10
-2.771234809027776
 20
-9.04475368923611
 30
0.0
 10
-3.775824652777775
 20
-7.046598307291666
 30
0.0
 10
-4.277430555555555
 20
-3.961170789930555
 30
0.0
 10
-4.277430555555555
 20
0.2115288628472222
 30
0.0
 10
-4.277430555555555
 20
3.379638671874998
 30
0.0
 10
-3.902604166666666
 20
5.977929687499997
 30
0.0
 10
-3.151573350694443
 20
8.005712890624996
 30
0.0
 10
-2.333018663194443
 20
10.20919596354165
 30
0.0
 10
-1.20647243923611
 20
11.3109375
 30
0.0
 10
0.2266872829861111
 20
11.3109375
 30
0.0
 10
1.444873046875
 20
11.3109375
 30
0.0
 10
2.390207248263884
 20
10.59642469618055
 30
0.0
 10
3.062689887152775
 20
9.168088107638887
 30
0.0
  0
ENDBLK
  5
2643
330
2640
100
AcDbEntity
  8
0
100
AcDbBlockEnd
  0
BLOCK
  5
2647
330
2644
100
AcDbEntity
  8
0
 62
     7
100
AcDbBlockBegin
  2
AI9-BLK5
 70
     0
 10
0.0
 20
0.0
 30
0.0
  3
AI9-BLK5
  1

  0
SPLINE
  5
2645
330
2644
100
AcDbEntity
  8
LAYER_1
 62
     7
100
AcDbSpline
210
0.0
220
0.0
230
1.0
 70
    11
 71
     3
 72
    32
 73
    28
 74
     0
 42
0.0000000001
 43
0.0000000001
 40
0.0
 40
0.0
 40
0.0
 40
0.0
 40
1.0
 40
1.0
 40
1.0
 40
2.0
 40
2.0
 40
2.0
 40
3.0
 40
3.0
 40
3.0
 40
4.0
 40
4.0
 40
4.0
 40
5.0
 40
5.0
 40
5.0
 40
6.0
 40
6.0
 40
6.0
 40
7.0
 40
7.0
 40
7.0
 40
8.0
 40
8.0
 40
8.0
 40
9.0
 40
9.0
 40
9.0
 40
9.0
 10
-2.62378472222222
 20
-8.268229166666666
 30
0.0
 10
-2.62378472222222
 20
-8.268229166666666
 30
0.0
 10
-2.62378472222222
 20
8.180034722222217
 30
0.0
 10
-2.62378472222222
 20
8.180034722222217
 30
0.0
 10
-2.62378472222222
 20
8.180034722222217
 30
0.0
 10
-0.3376193576388888
 20
8.180034722222217
 30
0.0
 10
-0.3376193576388888
 20
8.180034722222217
 30
0.0
 10
0.6972873263888888
 20
8.180034722222217
 30
0.0
 10
1.449007161458333
 20
7.445540364583332
 30
0.0
 10
1.918918185763885
 20
5.977929687499997
 30
0.0
 10
2.388829210069443
 20
4.510319010416666
 30
0.0
 10
2.62378472222222
 20
2.449462890624999
 30
0.0
 10
2.62378472222222
 20
-0.204638671875
 30
0.0
 10
2.62378472222222
 20
-0.8950358072916666
 30
0.0
 10
2.590022786458332
 20
-1.643310546874999
 30
0.0
 10
2.523187934027773
 20
-2.45015190972222
 30
0.0
 10
2.408121744791666
 20
-3.80200737847222
 30
0.0
 10
2.226220703124999
 20
-4.909950086805555
 30
0.0
 10
1.976795789930553
 20
-5.774669053819441
 30
0.0
 10
1.659847005208333
 20
-6.853672960069442
 30
0.0
 10
1.252636718749998
 20
-7.583344184027778
 30
0.0
 10
0.7544759114583333
 20
-7.962304687499997
 30
0.0
 10
0.4664659288194444
 20
-8.166254340277777
 30
0.0
 10
0.1074869791666666
 20
-8.268229166666666
 30
0.0
 10
-0.3231499565972222
 20
-8.268229166666666
 30
0.0
 10
-0.3231499565972222
 20
-8.268229166666666
 30
0.0
 10
-2.62378472222222
 20
-8.268229166666666
 30
0.0
 10
-2.62378472222222
 20
-8.268229166666666
 30
0.0
  0
SPLINE
  5
2646
330
2644
100
AcDbEntity
  8
LAYER_1
 62
     7
100
AcDbSpline
210
0.0
220
0.0
230
1.0
 70
    11
 71
     3
 72
    26
 73
    22
 74
     0
 42
0.0000000001
 43
0.0000000001
 40
0.0
 40
0.0
 40
0.0
 40
0.0
 40
1.0
 40
1.0
 40
1.0
 40
2.0
 40
2.0
 40
2.0
 40
3.0
 40
3.0
 40
3.0
 40
4.0
 40
4.0
 40
4.0
 40
5.0
 40
5.0
 40
5.0
 40
6.0
 40
6.0
 40
6.0
 40
7.0
 40
7.0
 40
7.0
 40
7.0
 10
-3.946701388888888
 20
-10.7376736111111
 30
0.0
 10
-3.946701388888888
 20
-10.7376736111111
 30
0.0
 10
-0.0943956163194444
 20
-10.7376736111111
 30
0.0
 10
-0.0943956163194444
 20
-10.7376736111111
 30
0.0
 10
1.546847873263885
 20
-10.7376736111111
 30
0.0
 10
2.705777994791666
 20
-9.11021050347222
 30
0.0
 10
3.381705729166666
 20
-5.854595269097222
 30
0.0
 10
3.757910156249999
 20
-4.01284722222222
 30
0.0
 10
3.946701388888888
 20
-1.951991102430555
 30
0.0
 10
3.946701388888888
 20
0.328662109375
 30
0.0
 10
3.946701388888888
 20
3.281797960069443
 30
0.0
 10
3.622862413194443
 20
5.703700086805552
 30
0.0
 10
2.976562499999998
 20
7.594368489583332
 30
0.0
 10
2.25171440972222
 20
9.689675564236106
 30
0.0
 10
1.233344184027777
 20
10.7376736111111
 30
0.0
 10
-0.0799262152777778
 20
10.7376736111111
 30
0.0
 10
-0.0799262152777778
 20
10.7376736111111
 30
0.0
 10
-3.946701388888888
 20
10.7376736111111
 30
0.0
 10
-3.946701388888888
 20
10.7376736111111
 30
0.0
 10
-3.946701388888888
 20
10.7376736111111
 30
0.0
 10
-3.946701388888888
 20
-10.7376736111111
 30
0.0
 10
-3.946701388888888
 20
-10.7376736111111
 30
0.0
  0
ENDBLK
  5
2648
330
2644
100
AcDbEntity
  8
0
100
AcDbBlockEnd
  0
BLOCK
  5
264C
330
2649
100
AcDbEntity
  8
0
 62
     7
100
AcDbBlockBegin
  2
AI9-BLK4
 70
     0
 10
0.0
 20
0.0
 30
0.0
  3
AI9-BLK4
  1

  0
SPLINE
  5
264A
330
2649
100
AcDbEntity
  8
LAYER_1
 62
     7
100
AcDbSpline
210
0.0
220
0.0
230
1.0
 70
    11
 71
     3
 72
    26
 73
    22
 74
     0
 42
0.0000000001
 43
0.0000000001
 40
0.0
 40
0.0
 40
0.0
 40
0.0
 40
1.0
 40
1.0
 40
1.0
 40
2.0
 40
2.0
 40
2.0
 40
3.0
 40
3.0
 40
3.0
 40
4.0
 40
4.0
 40
4.0
 40
5.0
 40
5.0
 40
5.0
 40
6.0
 40
6.0
 40
6.0
 40
7.0
 40
7.0
 40
7.0
 40
7.0
 10
-2.645833333333333
 20
0.9039930555555551
 30
0.0
 10
-2.645833333333333
 20
0.9039930555555551
 30
0.0
 10
-2.645833333333333
 20
8.180034722222217
 30
0.0
 10
-2.645833333333333
 20
8.180034722222217
 30
0.0
 10
-2.645833333333333
 20
8.180034722222217
 30
0.0
 10
0.465087890625
 20
8.180034722222217
 30
0.0
 10
0.465087890625
 20
8.180034722222217
 30
0.0
 10
0.9026150173611108
 20
8.180034722222217
 30
0.0
 10
1.24988064236111
 20
8.034651692708331
 30
0.0
 10
1.506884765625
 20
7.745263671874997
 30
0.0
 10
2.001600477430554
 20
7.194048394097221
 30
0.0
 10
2.248958333333332
 20
6.160519748263887
 30
0.0
 10
2.248958333333332
 20
4.643299696180553
 30
0.0
 10
2.248958333333332
 20
3.232188585069443
 30
0.0
 10
2.072569444444444
 20
2.256537543402775
 30
0.0
 10
1.720480685763888
 20
1.715657552083333
 30
0.0
 10
1.368391927083333
 20
1.174088541666665
 30
0.0
 10
0.8929687499999998
 20
0.9039930555555551
 30
0.0
 10
0.2942111545138888
 20
0.9039930555555551
 30
0.0
 10
0.2942111545138888
 20
0.9039930555555551
 30
0.0
 10
-2.645833333333333
 20
0.9039930555555551
 30
0.0
 10
-2.645833333333333
 20
0.9039930555555551
 30
0.0
  0
SPLINE
  5
264B
330
2649
100
AcDbEntity
  8
LAYER_1
 62
     7
100
AcDbSpline
210
0.0
220
0.0
230
1.0
 70
    11
 71
     3
 72
    68
 73
    64
 74
     0
 42
0.0000000001
 43
0.0000000001
 40
0.0
 40
0.0
 40
0.0
 40
0.0
 40
1.0
 40
1.0
 40
1.0
 40
2.0
 40
2.0
 40
2.0
 40
3.0
 40
3.0
 40
3.0
 40
4.0
 40
4.0
 40
4.0
 40
5.0
 40
5.0
 40
5.0
 40
6.0
 40
6.0
 40
6.0
 40
7.0
 40
7.0
 40
7.0
 40
8.0
 40
8.0
 40
8.0
 40
9.0
 40
9.0
 40
9.0
 40
10.0
 40
10.0
 40
10.0
 40
11.0
 40
11.0
 40
11.0
 40
12.0
 40
12.0
 40
12.0
 40
13.0
 40
13.0
 40
13.0
 40
14.0
 40
14.0
 40
14.0
 40
15.0
 40
15.0
 40
15.0
 40
16.0
 40
16.0
 40
16.0
 40
17.0
 40
17.0
 40
17.0
 40
18.0
 40
18.0
 40
18.0
 40
19.0
 40
19.0
 40
19.0
 40
20.0
 40
20.0
 40
20.0
 40
21.0
 40
21.0
 40
21.0
 40
21.0
 10
-3.968749999999998
 20
-10.7376736111111
 30
0.0
 10
-3.968749999999998
 20
-10.7376736111111
 30
0.0
 10
-2.645833333333333
 20
-10.7376736111111
 30
0.0
 10
-2.645833333333333
 20
-10.7376736111111
 30
0.0
 10
-2.645833333333333
 20
-10.7376736111111
 30
0.0
 10
-2.645833333333333
 20
-1.521354166666665
 30
0.0
 10
-2.645833333333333
 20
-1.521354166666665
 30
0.0
 10
-2.645833333333333
 20
-1.521354166666665
 30
0.0
 10
0.2390896267361111
 20
-1.521354166666665
 30
0.0
 10
0.2390896267361111
 20
-1.521354166666665
 30
0.0
 10
0.7599880642361111
 20
-1.521354166666665
 30
0.0
 10
1.143771701388887
 20
-1.65295681423611
 30
0.0
 10
1.390440538194444
 20
-1.916162109374999
 30
0.0
 10
1.816254340277773
 20
-2.39434136284722
 30
0.0
 10
2.04363064236111
 20
-3.335541449652775
 30
0.0
 10
2.072569444444444
 20
-4.739762369791666
 30
0.0
 10
2.072569444444444
 20
-4.739762369791666
 30
0.0
 10
2.160763888888888
 20
-8.324039713541665
 30
0.0
 10
2.160763888888888
 20
-8.324039713541665
 30
0.0
 10
2.18005642361111
 20
-9.163264973958332
 30
0.0
 10
2.202794053819443
 20
-9.728949652777775
 30
0.0
 10
2.227598741319444
 20
-10.02109374999998
 30
0.0
 10
2.252403428819443
 20
-10.31392686631944
 30
0.0
 10
2.28892144097222
 20
-10.55301649305555
 30
0.0
 10
2.33853081597222
 20
-10.7376736111111
 30
0.0
 10
2.33853081597222
 20
-10.7376736111111
 30
0.0
 10
3.968749999999998
 20
-10.7376736111111
 30
0.0
 10
3.968749999999998
 20
-10.7376736111111
 30
0.0
 10
3.968749999999998
 20
-10.7376736111111
 30
0.0
 10
3.968749999999998
 20
-10.25260416666666
 30
0.0
 10
3.968749999999998
 20
-10.25260416666666
 30
0.0
 10
3.766867404513888
 20
-10.05830078125
 30
0.0
 10
3.625618489583333
 20
-9.621462673611112
 30
0.0
 10
3.545692274305555
 20
-8.942089843749997
 30
0.0
 10
3.49470486111111
 20
-8.543836805555555
 30
0.0
 10
3.459564887152775
 20
-7.937499999999999
 30
0.0
 10
3.439583333333333
 20
-7.121701388888887
 30
0.0
 10
3.439583333333333
 20
-7.121701388888887
 30
0.0
 10
3.395486111111106
 20
-4.232644314236106
 30
0.0
 10
3.395486111111106
 20
-4.232644314236106
 30
0.0
 10
3.375504557291666
 20
-2.981385633680555
 30
0.0
 10
3.26870659722222
 20
-2.077392578125
 30
0.0
 10
3.075781249999999
 20
-1.522043185763888
 30
0.0
 10
2.882166883680555
 20
-0.9666937934027776
 30
0.0
 10
2.592089843749999
 20
-0.5188313802083333
 30
0.0
 10
2.204861111111106
 20
-0.1770779079861111
 30
0.0
 10
2.63618706597222
 20
0.3197048611111111
 30
0.0
 10
2.971739366319443
 20
0.9770290798611107
 30
0.0
 10
3.211518012152775
 20
1.79558376736111
 30
0.0
 10
3.451296657986107
 20
2.613449435763888
 30
0.0
 10
3.571874999999999
 20
3.66558159722222
 30
0.0
 10
3.571874999999999
 20
4.951291232638888
 30
0.0
 10
3.571874999999999
 20
7.415912543402777
 30
0.0
 10
3.124701605902775
 20
9.106076388888887
 30
0.0
 10
2.231043836805555
 20
10.02178276909722
 30
0.0
 10
1.759754774305553
 20
10.498583984375
 30
0.0
 10
1.163753255208332
 20
10.7376736111111
 30
0.0
 10
0.443039279513889
 20
10.7376736111111
 30
0.0
 10
0.443039279513889
 20
10.7376736111111
 30
0.0
 10
-3.968749999999998
 20
10.7376736111111
 30
0.0
 10
-3.968749999999998
 20
10.7376736111111
 30
0.0
 10
-3.968749999999998
 20
10.7376736111111
 30
0.0
 10
-3.968749999999998
 20
-10.7376736111111
 30
0.0
 10
-3.968749999999998
 20
-10.7376736111111
 30
0.0
  0
ENDBLK
  5
264D
330
2649
100
AcDbEntity
  8
0
100
AcDbBlockEnd
  0
BLOCK
  5
2651
330
264E
100
AcDbEntity
  8
0
 62
     7
100
AcDbBlockBegin
  2
AI9-BLK3
 70
     0
 10
0.0
 20
0.0
 30
0.0
  3
AI9-BLK3
  1

  0
LWPOLYLINE
  5
264F
330
264E
100
AcDbEntity
  8
LAYER_1
 62
     7
100
AcDbPolyline
 90
        4
 70
     1
 43
0.0
 10
-0.6613722059461809
 20
10.7376736111111
 10
0.6613722059461809
 20
10.7376736111111
 10
0.6613722059461809
 20
-10.7376736111111
 10
-0.6613722059461809
 20
-10.7376736111111
  0
HATCH
  5
2650
330
264E
100
AcDbEntity
  8
LAYER_1
 62
     7
100
AcDbHatch
 10
0.0
 20
0.0
 30
0.0
210
0.0
220
0.0
230
1.0
  2
SOLID
 70
     1
 71
     0
 91
        1
 92
        3
 72
     0
 73
     1
 93
        4
 10
-0.6613722059461809
 20
10.7376736111111
 10
0.6613722059461809
 20
10.7376736111111
 10
0.6613722059461809
 20
-10.7376736111111
 10
-0.6613722059461809
 20
-10.7376736111111
 97
        0
 75
     2
 76
     1
 98
        1
 10
0.0
 20
0.0
  0
ENDBLK
  5
2652
330
264E
100
AcDbEntity
  8
0
100
AcDbBlockEnd
  0
BLOCK
  5
2656
330
2653
100
AcDbEntity
  8
0
 62
     7
100
AcDbBlockBegin
  2
AI9-BLK2
 70
     0
 10
0.0
 20
0.0
 30
0.0
  3
AI9-BLK2
  1

  0
LWPOLYLINE
  5
2654
330
2653
100
AcDbEntity
  8
LAYER_1
 62
     7
100
AcDbPolyline
 90
        7
 70
     1
 43
0.0
 10
-2.785704210069443
 20
10.7376736111111
 10
0.0
 20
-7.550960286458332
 10
2.771234809027776
 20
10.7376736111111
 10
4.233333333333331
 20
10.7376736111111
 10
0.6910861545138888
 20
-10.7376736111111
 10
-0.7055555555555558
 20
-10.7376736111111
 10
-4.233333333333331
 20
10.7376736111111
  0
HATCH
  5
2655
330
2653
100
AcDbEntity
  8
LAYER_1
 62
     7
100
AcDbHatch
 10
0.0
 20
0.0
 30
0.0
210
0.0
220
0.0
230
1.0
  2
SOLID
 70
     1
 71
     0
 91
        1
 92
        3
 72
     0
 73
     1
 93
        7
 10
-2.785704210069443
 20
10.7376736111111
 10
0.0
 20
-7.550960286458332
 10
2.771234809027776
 20
10.7376736111111
 10
4.233333333333331
 20
10.7376736111111
 10
0.6910861545138888
 20
-10.7376736111111
 10
-0.7055555555555558
 20
-10.7376736111111
 10
-4.233333333333331
 20
10.7376736111111
 97
        0
 75
     2
 76
     1
 98
        1
 10
0.0
 20
0.0
  0
ENDBLK
  5
2657
330
2653
100
AcDbEntity
  8
0
100
AcDbBlockEnd
  0
BLOCK
  5
265B
330
2658
100
AcDbEntity
  8
0
 62
     7
100
AcDbBlockBegin
  2
AI9-BLK1
 70
     0
 10
0.0
 20
0.0
 30
0.0
  3
AI9-BLK1
  1

  0
LWPOLYLINE
  5
2659
330
2658
100
AcDbEntity
  8
LAYER_1
 62
     7
100
AcDbPolyline
 90
       12
 70
     1
 43
0.0
 10
-3.571874999999999
 20
10.7376736111111
 10
3.483680555555555
 20
10.7376736111111
 10
3.483680555555555
 20
8.091840277777777
 10
-2.248958333333332
 20
8.091840277777777
 10
-2.248958333333332
 20
1.565451388888888
 10
3.042708333333333
 20
1.565451388888888
 10
3.042708333333333
 20
-0.9039930555555551
 10
-2.248958333333332
 20
-0.9039930555555551
 10
-2.248958333333332
 20
-8.180034722222217
 10
3.571874999999999
 20
-8.180034722222217
 10
3.571874999999999
 20
-10.7376736111111
 10
-3.571874999999999
 20
-10.7376736111111
  0
HATCH
  5
265A
330
2658
100
AcDbEntity
  8
LAYER_1
 62
     7
100
AcDbHatch
 10
0.0
 20
0.0
 30
0.0
210
0.0
220
0.0
230
1.0
  2
SOLID
 70
     1
 71
     0
 91
        1
 92
        3
 72
     0
 73
     1
 93
       12
 10
-3.571874999999999
 20
10.7376736111111
 10
3.483680555555555
 20
10.7376736111111
 10
3.483680555555555
 20
8.091840277777777
 10
-2.248958333333332
 20
8.091840277777777
 10
-2.248958333333332
 20
1.565451388888888
 10
3.042708333333333
 20
1.565451388888888
 10
3.042708333333333
 20
-0.9039930555555551
 10
-2.248958333333332
 20
-0.9039930555555551
 10
-2.248958333333332
 20
-8.180034722222217
 10
3.571874999999999
 20
-8.180034722222217
 10
3.571874999999999
 20
-10.7376736111111
 10
-3.571874999999999
 20
-10.7376736111111
 97
        0
 75
     2
 76
     1
 98
        1
 10
0.0
 20
0.0
  0
ENDBLK
  5
265C
330
2658
100
AcDbEntity
  8
0
100
AcDbBlockEnd
  0
BLOCK
  5
2680
330
265D
100
AcDbEntity
  8
0
100
AcDbBlockBegin
  2
HD_LLC_logo_OT5
 70
     0
 10
0.0
 20
0.0
 30
0.0
  3
HD_LLC_logo_OT5
  1

  0
SPLINE
  5
265E
102
{ACAD_REACTORS
330
267E
102
}
330
265D
100
AcDbEntity
  8
LAYER_1
 62
     7
100
AcDbSpline
210
0.0
220
0.0
230
1.0
 70
    11
 71
     3
 72
   113
 73
   109
 74
     0
 42
0.0000000001
 43
0.0000000001
 40
0.0
 40
0.0
 40
0.0
 40
0.0
 40
1.0
 40
1.0
 40
1.0
 40
2.0
 40
2.0
 40
2.0
 40
3.0
 40
3.0
 40
3.0
 40
4.0
 40
4.0
 40
4.0
 40
5.0
 40
5.0
 40
5.0
 40
6.0
 40
6.0
 40
6.0
 40
7.0
 40
7.0
 40
7.0
 40
8.0
 40
8.0
 40
8.0
 40
9.0
 40
9.0
 40
9.0
 40
10.0
 40
10.0
 40
10.0
 40
11.0
 40
11.0
 40
11.0
 40
12.0
 40
12.0
 40
12.0
 40
13.0
 40
13.0
 40
13.0
 40
14.0
 40
14.0
 40
14.0
 40
15.0
 40
15.0
 40
15.0
 40
16.0
 40
16.0
 40
16.0
 40
17.0
 40
17.0
 40
17.0
 40
18.0
 40
18.0
 40
18.0
 40
19.0
 40
19.0
 40
19.0
 40
20.0
 40
20.0
 40
20.0
 40
21.0
 40
21.0
 40
21.0
 40
22.0
 40
22.0
 40
22.0
 40
23.0
 40
23.0
 40
23.0
 40
24.0
 40
24.0
 40
24.0
 40
25.0
 40
25.0
 40
25.0
 40
26.0
 40
26.0
 40
26.0
 40
27.0
 40
27.0
 40
27.0
 40
28.0
 40
28.0
 40
28.0
 40
29.0
 40
29.0
 40
29.0
 40
30.0
 40
30.0
 40
30.0
 40
31.0
 40
31.0
 40
31.0
 40
32.0
 40
32.0
 40
32.0
 40
33.0
 40
33.0
 40
33.0
 40
34.0
 40
34.0
 40
34.0
 40
35.0
 40
35.0
 40
35.0
 40
36.0
 40
36.0
 40
36.0
 40
36.0
 10
193.3039632161458
 20
186.1548733181423
 30
0.0
 10
193.3039632161458
 20
186.1860514322916
 30
0.0
 10
193.3039632161458
 20
219.6932223849826
 30
0.0
 10
193.3039632161458
 20
219.6932223849826
 30
0.0
 10
193.3039632161458
 20
219.6932223849826
 30
0.0
 10
193.2974175347219
 20
219.7488606770833
 30
0.0
 10
193.2974175347219
 20
219.7488606770833
 30
0.0
 10
191.5293945312499
 20
235.455740017361
 30
0.0
 10
175.1458984374999
 20
235.2467949761284
 30
0.0
 10
174.9808783637151
 20
235.2428331163193
 30
0.0
 10
174.9808783637151
 20
235.2428331163193
 30
0.0
 10
125.8827555338541
 20
235.2430053710937
 30
0.0
 10
125.8827555338541
 20
235.2430053710937
 30
0.0
 10
125.8827555338541
 20
235.2430053710937
 30
0.0
 10
125.8827555338541
 20
255.5278998480901
 30
0.0
 10
125.8827555338541
 20
255.5278998480901
 30
0.0
 10
125.8827555338541
 20
255.5278998480901
 30
0.0
 10
84.5626247829861
 20
255.5278998480901
 30
0.0
 10
84.5626247829861
 20
255.5278998480901
 30
0.0
 10
84.5626247829861
 20
255.5278998480901
 30
0.0
 10
84.55711263020829
 20
233.7919311523436
 30
0.0
 10
84.55711263020829
 20
233.7919311523436
 30
0.0
 10
84.55711263020829
 20
233.7919311523436
 30
0.0
 10
64.42052951388888
 20
233.7919311523436
 30
0.0
 10
64.42052951388888
 20
233.7919311523436
 30
0.0
 10
64.42052951388888
 20
233.7919311523436
 30
0.0
 10
64.41501736111111
 20
255.5278998480901
 30
0.0
 10
64.41501736111111
 20
255.5278998480901
 30
0.0
 10
64.41501736111111
 20
255.5278998480901
 30
0.0
 10
23.91757541232637
 20
255.5278998480901
 30
0.0
 10
23.91757541232637
 20
255.5278998480901
 30
0.0
 10
23.91757541232637
 20
255.5278998480901
 30
0.0
 10
23.91757541232637
 20
233.2393378363715
 30
0.0
 10
23.91757541232637
 20
233.2393378363715
 30
0.0
 10
23.91757541232637
 20
233.2393378363715
 30
0.0
 10
43.65624999999999
 20
233.2393378363715
 30
0.0
 10
43.65624999999999
 20
233.2393378363715
 30
0.0
 10
43.65624999999999
 20
233.2393378363715
 30
0.0
 10
43.65624999999999
 20
211.5188720703125
 30
0.0
 10
43.65624999999999
 20
211.5188720703125
 30
0.0
 10
43.65624999999999
 20
211.5188720703125
 30
0.0
 10
23.91757541232637
 20
211.5188720703125
 30
0.0
 10
23.91757541232637
 20
211.5188720703125
 30
0.0
 10
23.91757541232637
 20
211.5188720703125
 30
0.0
 10
23.91757541232637
 20
189.2303100585936
 30
0.0
 10
23.91757541232637
 20
189.2303100585936
 30
0.0
 10
23.91757541232637
 20
189.2303100585936
 30
0.0
 10
64.41501736111111
 20
189.2303100585936
 30
0.0
 10
64.41501736111111
 20
189.2303100585936
 30
0.0
 10
64.41501736111111
 20
189.2303100585936
 30
0.0
 10
64.42052951388888
 20
211.069976128472
 30
0.0
 10
64.42052951388888
 20
211.069976128472
 30
0.0
 10
64.42052951388888
 20
211.069976128472
 30
0.0
 10
84.55711263020829
 20
211.069976128472
 30
0.0
 10
84.55711263020829
 20
211.069976128472
 30
0.0
 10
84.55711263020829
 20
211.069976128472
 30
0.0
 10
84.5626247829861
 20
189.2303100585936
 30
0.0
 10
84.5626247829861
 20
189.2303100585936
 30
0.0
 10
84.5626247829861
 20
189.2303100585936
 30
0.0
 10
125.8827555338541
 20
189.2303100585936
 30
0.0
 10
125.8827555338541
 20
189.2303100585936
 30
0.0
 10
125.8827555338541
 20
189.2303100585936
 30
0.0
 10
125.8827555338541
 20
211.5188720703125
 30
0.0
 10
125.8827555338541
 20
211.5188720703125
 30
0.0
 10
125.8827555338541
 20
211.5188720703125
 30
0.0
 10
105.3213921440971
 20
211.5188720703125
 30
0.0
 10
105.3213921440971
 20
211.5188720703125
 30
0.0
 10
105.3213921440971
 20
211.5188720703125
 30
0.0
 10
105.3213921440971
 20
233.2393378363715
 30
0.0
 10
105.3213921440971
 20
233.2393378363715
 30
0.0
 10
105.3213921440971
 20
233.2393378363715
 30
0.0
 10
175.0046495225693
 20
233.243127441406
 30
0.0
 10
175.0046495225693
 20
233.243127441406
 30
0.0
 10
175.6268337673611
 20
233.2560465494791
 30
0.0
 10
189.7165852864583
 20
233.3962619357638
 30
0.0
 10
191.3037407769094
 20
219.5690266927083
 30
0.0
 10
191.3037407769094
 20
219.4332899305555
 30
0.0
 10
191.3037407769094
 20
186.1142211914062
 30
0.0
 10
191.3037407769094
 20
186.1142211914062
 30
0.0
 10
191.3037407769094
 20
186.1142211914062
 30
0.0
 10
191.3051188151039
 20
186.0880384657115
 30
0.0
 10
191.3051188151039
 20
186.0880384657115
 30
0.0
 10
191.3054633246526
 20
186.0787367078991
 30
0.0
 10
191.3109754774304
 20
185.9566080729166
 30
0.0
 10
191.3109754774304
 20
185.7399115668401
 30
0.0
 10
191.3109754774304
 20
184.2090833875865
 30
0.0
 10
191.0488037109374
 20
177.9643310546874
 30
0.0
 10
186.9866916232638
 20
173.5652886284722
 30
0.0
 10
184.2540418836804
 20
170.6064683702255
 30
0.0
 10
180.3224989149304
 20
169.0308539496526
 30
0.0
 10
175.300927734375
 20
168.8825425889756
 30
0.0
 10
175.300927734375
 20
168.8825425889756
 30
0.0
 10
107.0094889322916
 20
168.8828870985243
 30
0.0
 10
107.0094889322916
 20
168.8828870985243
 30
0.0
 10
107.0094889322916
 20
168.8828870985243
 30
0.0
 10
107.0094889322916
 20
166.8830091688368
 30
0.0
 10
107.0094889322916
 20
166.8830091688368
 30
0.0
 10
107.0094889322916
 20
166.8830091688368
 30
0.0
 10
175.3305555555555
 20
166.8830091688368
 30
0.0
 10
175.3305555555555
 20
166.8830091688368
 30
0.0
 10
180.9467502170138
 20
167.0485460069444
 30
0.0
 10
185.3571614583333
 20
168.8448187934026
 30
0.0
 10
188.4687717013888
 20
172.2223904079861
 30
0.0
 10
192.9649658203124
 20
177.1034016927083
 30
0.0
 10
193.3136094835069
 20
183.7202243381076
 30
0.0
 10
193.3136094835069
 20
185.6520616319443
 30
0.0
 10
193.3136094835069
 20
185.9247409396701
 30
0.0
 10
193.3070638020833
 20
186.0868326822916
 30
0.0
 10
193.3039632161458
 20
186.1548733181423
 30
0.0
  0
INSERT
  5
265F
102
{ACAD_REACTORS
330
267F
102
}
330
265D
100
AcDbEntity
  8
LAYER_1
 62
     7
100
AcDbBlockReference
  2
AI9-BLK14
 10
159.5625257703993
 20
200.5118781195744
 30
0.0
  0
INSERT
  5
2660
330
265D
100
AcDbEntity
  8
LAYER_1
 62
     7
100
AcDbBlockReference
  2
AI9-BLK13
 10
27.69615614149305
 20
179.2145562065971
 30
0.0
 42
0.9200000000000001
  0
INSERT
  5
2661
102
{ACAD_REACTORS
330
266C
102
}
330
265D
100
AcDbEntity
  8
LAYER_1
 62
     7
100
AcDbBlockReference
  2
AI9-BLK11
 10
44.76591525607638
 20
179.2145562065971
 30
0.0
 42
0.9200000000000001
  0
INSERT
  5
2662
102
{ACAD_REACTORS
330
267A
102
}
330
265D
100
AcDbEntity
  8
LAYER_1
 62
     7
100
AcDbBlockReference
  2
AI9-BLK10
 10
54.04665798611111
 20
179.2145562065971
 30
0.0
 42
0.9200000000000001
  0
INSERT
  5
2663
102
{ACAD_REACTORS
330
2679
102
}
330
265D
100
AcDbEntity
  8
LAYER_1
 62
     7
100
AcDbBlockReference
  2
AI9-BLK9
 10
62.79013807508679
 20
179.2145562065971
 30
0.0
 42
0.9
  0
INSERT
  5
2664
330
265D
100
AcDbEntity
  8
LAYER_1
 62
     7
100
AcDbBlockReference
  2
AI9-BLK8
 10
71.03046196831595
 20
179.2145562065971
 30
0.0
 42
0.9200000000000001
  0
INSERT
  5
2665
330
265D
100
AcDbEntity
  8
LAYER_1
 62
     7
100
AcDbBlockReference
  2
AI9-BLK7
 10
76.93793945312498
 20
179.2145562065971
 30
0.0
 42
0.9200000000000001
  0
INSERT
  5
2666
102
{ACAD_REACTORS
330
266D
102
}
330
265D
100
AcDbEntity
  8
LAYER_1
 62
     7
100
AcDbBlockReference
  2
AI9-BLK6
 10
82.55602891710069
 20
179.2145562065971
 30
0.0
 42
0.9
  0
INSERT
  5
2667
102
{ACAD_REACTORS
330
267B
102
}
330
265D
100
AcDbEntity
  8
LAYER_1
 62
     7
100
AcDbBlockReference
  2
AI9-BLK5
 10
94.32430284288193
 20
179.2145562065971
 30
0.0
 42
0.9200000000000001
  0
INSERT
  5
2668
102
{ACAD_REACTORS
330
267C
102
}
330
265D
100
AcDbEntity
  8
LAYER_1
 62
     7
100
AcDbBlockReference
  2
AI9-BLK4
 10
103.2081705729166
 20
179.2145562065971
 30
0.0
 42
0.9200000000000001
  0
INSERT
  5
2669
330
265D
100
AcDbEntity
  8
LAYER_1
 62
     7
100
AcDbBlockReference
  2
AI9-BLK3
 10
108.850978597005
 20
179.2145562065971
 30
0.0
 42
0.9200000000000001
  0
INSERT
  5
266A
330
265D
100
AcDbEntity
  8
LAYER_1
 62
     7
100
AcDbBlockReference
  2
AI9-BLK2
 10
114.2045708550346
 20
179.2145562065971
 30
0.0
 42
0.9200000000000001
  0
INSERT
  5
266B
330
265D
100
AcDbEntity
  8
LAYER_1
 62
     7
100
AcDbBlockReference
  2
AI9-BLK1
 10
122.4125108506944
 20
179.2145562065971
 30
0.0
 42
0.9200000000000001
  0
HATCH
  5
266C
330
265D
100
AcDbEntity
  8
0
  6
Continuous
100
AcDbHatch
 10
0.0
 20
0.0
 30
0.0
210
0.0
220
0.0
230
1.0
  2
SOLID
 70
     1
 71
     1
 91
        2
 92
       16
 93
        1
 72
     4
 94
        3
 73
     0
 74
     0
 95
       26
 96
       22
 40
0.0
 40
0.0
 40
0.0
 40
0.0
 40
1.0
 40
1.0
 40
1.0
 40
2.0
 40
2.0
 40
2.0
 40
3.0
 40
3.0
 40
3.0
 40
4.0
 40
4.0
 40
4.0
 40
5.0
 40
5.0
 40
5.0
 40
6.0
 40
6.0
 40
6.0
 40
7.0
 40
7.0
 40
7.0
 40
7.0
 10
42.12008192274304
 20
180.0462298177081
 10
42.12008192274304
 20
180.0462298177081
 10
42.12008192274304
 20
186.7401881510414
 10
42.12008192274304
 20
186.7401881510414
 10
42.12008192274304
 20
186.7401881510414
 10
45.23100314670138
 20
186.7401881510414
 10
45.23100314670138
 20
186.7401881510414
 10
45.66853027343749
 20
186.7401881510414
 10
46.01579589843749
 20
186.6064357638887
 10
46.27280002170138
 20
186.3401987847219
 10
46.76751573350694
 20
185.8330807291664
 10
47.01487358940972
 20
184.8822343749997
 10
47.01487358940972
 20
183.4863919270832
 10
47.01487358940972
 20
182.188169704861
 10
46.83848470052082
 20
181.2905707465276
 10
46.48639594184028
 20
180.7929611545137
 10
46.13430718315971
 20
180.2947176649304
 10
45.65888400607638
 20
180.0462298177081
 10
45.06012641059028
 20
180.0462298177081
 10
45.06012641059028
 20
180.0462298177081
 10
42.12008192274304
 20
180.0462298177081
 10
42.12008192274304
 20
180.0462298177081
 97
        1
330
2661
 92
        1
 93
        1
 72
     4
 94
        3
 73
     0
 74
     0
 95
       68
 96
       64
 40
0.0
 40
0.0
 40
0.0
 40
0.0
 40
1.0
 40
1.0
 40
1.0
 40
2.0
 40
2.0
 40
2.0
 40
3.0
 40
3.0
 40
3.0
 40
4.0
 40
4.0
 40
4.0
 40
5.0
 40
5.0
 40
5.0
 40
6.0
 40
6.0
 40
6.0
 40
7.0
 40
7.0
 40
7.0
 40
8.0
 40
8.0
 40
8.0
 40
9.0
 40
9.0
 40
9.0
 40
10.0
 40
10.0
 40
10.0
 40
11.0
 40
11.0
 40
11.0
 40
12.0
 40
12.0
 40
12.0
 40
13.0
 40
13.0
 40
13.0
 40
14.0
 40
14.0
 40
14.0
 40
15.0
 40
15.0
 40
15.0
 40
16.0
 40
16.0
 40
16.0
 40
17.0
 40
17.0
 40
17.0
 40
18.0
 40
18.0
 40
18.0
 40
19.0
 40
19.0
 40
19.0
 40
20.0
 40
20.0
 40
20.0
 40
21.0
 40
21.0
 40
21.0
 40
21.0
 10
40.79716525607638
 20
169.3358964843748
 10
40.79716525607638
 20
169.3358964843748
 10
42.12008192274304
 20
169.3358964843748
 10
42.12008192274304
 20
169.3358964843748
 10
42.12008192274304
 20
169.3358964843748
 10
42.12008192274304
 20
177.8149103732637
 10
42.12008192274304
 20
177.8149103732637
 10
42.12008192274304
 20
177.8149103732637
 10
45.00500488281249
 20
177.8149103732637
 10
45.00500488281249
 20
177.8149103732637
 10
45.52590332031249
 20
177.8149103732637
 10
45.90968695746528
 20
177.6938359374998
 10
46.15635579427083
 20
177.451687065972
 10
46.58216959635415
 20
177.0117621527776
 10
46.80954589843749
 20
176.1458580729164
 10
46.83848470052082
 20
174.8539748263887
 10
46.83848470052082
 20
174.8539748263887
 10
46.92667914496527
 20
171.5564396701386
 10
46.92667914496527
 20
171.5564396701386
 10
46.94597167968749
 20
170.7843524305554
 10
46.96870930989581
 20
170.2639225260415
 10
46.99351399739582
 20
169.9951499565971
 10
47.01831868489581
 20
169.7257434895831
 10
47.0548366970486
 20
169.5057810329859
 10
47.10444607204859
 20
169.3358964843748
 10
47.10444607204859
 20
169.3358964843748
 10
48.73466525607638
 20
169.3358964843748
 10
48.73466525607638
 20
169.3358964843748
 10
48.73466525607638
 20
169.3358964843748
 10
48.73466525607638
 20
169.7821603732636
 10
48.73466525607638
 20
169.7821603732636
 10
48.53278266059028
 20
169.9609194878471
 10
48.39153374565971
 20
170.3628105468748
 10
48.31160753038194
 20
170.9878335503471
 10
48.26062011718749
 20
171.3542263454858
 10
48.22548014322915
 20
171.9120562065971
 10
48.20549858940971
 20
172.6625909288193
 10
48.20549858940971
 20
172.6625909288193
 10
48.16140136718749
 20
175.3205234374999
 10
48.16140136718749
 20
175.3205234374999
 10
48.14141981336803
 20
176.4716814236109
 10
48.03462185329859
 20
177.3033550347219
 10
47.84169650607638
 20
177.8142764756942
 10
47.64808213975693
 20
178.3251979166665
 10
47.35800509982638
 20
178.7372313368054
 10
46.97077636718749
 20
179.0516445312498
 10
47.4021023220486
 20
179.5086846788193
 10
47.73765462239582
 20
180.1134229600693
 10
47.97743326822915
 20
180.8664932725692
 10
48.21721191406249
 20
181.6189296874999
 10
48.33779025607638
 20
182.5868912760414
 10
48.33779025607638
 20
183.7697441406248
 10
48.33779025607638
 20
186.0371957465275
 10
47.89061686197914
 20
187.5921464843749
 10
46.99695909288194
 20
188.4345963541665
 10
46.52567003038194
 20
188.8732534722221
 10
45.92966851128472
 20
189.0932159288193
 10
45.20895453559027
 20
189.0932159288193
 10
45.20895453559027
 20
189.0932159288193
 10
40.79716525607638
 20
189.0932159288193
 10
40.79716525607638
 20
189.0932159288193
 10
40.79716525607638
 20
189.0932159288193
 10
40.79716525607638
 20
169.3358964843748
 10
40.79716525607638
 20
169.3358964843748
 97
        0
 75
     0
 76
     1
 98
        0
  0
HATCH
  5
266D
330
265D
100
AcDbEntity
  8
0
  6
Continuous
100
AcDbHatch
 10
0.0
 20
0.0
 30
0.0
210
0.0
220
0.0
230
1.0
  2
SOLID
 70
     1
 71
     1
 91
        1
 92
        1
 93
        1
 72
     4
 94
        3
 73
     0
 74
     0
 95
       59
 96
       55
 40
0.0
 40
0.0
 40
0.0
 40
0.0
 40
1.0
 40
1.0
 40
1.0
 40
2.0
 40
2.0
 40
2.0
 40
3.0
 40
3.0
 40
3.0
 40
4.0
 40
4.0
 40
4.0
 40
5.0
 40
5.0
 40
5.0
 40
6.0
 40
6.0
 40
6.0
 40
7.0
 40
7.0
 40
7.0
 40
8.0
 40
8.0
 40
8.0
 40
9.0
 40
9.0
 40
9.0
 40
10.0
 40
10.0
 40
10.0
 40
11.0
 40
11.0
 40
11.0
 40
12.0
 40
12.0
 40
12.0
 40
13.0
 40
13.0
 40
13.0
 40
14.0
 40
14.0
 40
14.0
 40
15.0
 40
15.0
 40
15.0
 40
16.0
 40
16.0
 40
16.0
 40
17.0
 40
17.0
 40
17.0
 40
18.0
 40
18.0
 40
18.0
 40
18.0
 10
85.61871880425345
 20
187.4658355034721
 10
86.29120144314233
 20
186.1797124565971
 10
86.66671685112847
 20
184.7193364800346
 10
86.7452650282118
 20
183.0840874565969
 10
86.7452650282118
 20
183.0840874565969
 10
85.42234836154511
 20
183.0840874565969
 10
85.42234836154511
 20
183.0840874565969
 10
85.27696533203123
 20
184.315640190972
 10
84.99171142578125
 20
185.2917046440971
 10
84.56589762369791
 20
186.0122808159719
 10
84.14008382161458
 20
186.7322368706595
 10
83.53994818793401
 20
187.092524956597
 10
82.76617974175344
 20
187.092524956597
 10
81.81740044487847
 20
187.092524956597
 10
81.05258924696178
 20
186.4240386284721
 10
80.47243516710068
 20
185.0883062065971
 10
79.89159206814234
 20
183.7525737847219
 10
79.6015150282118
 20
181.7049468315971
 10
79.6015150282118
 20
178.9454253472221
 10
79.6015150282118
 20
176.684478081597
 10
79.86265326605901
 20
174.8514116753471
 10
80.38561876085069
 20
173.4456060112846
 10
80.90789523654512
 20
172.0391802300345
 10
81.69199896918403
 20
171.3365874565971
 10
82.73724093967013
 20
171.3365874565971
 10
83.69497748480901
 20
171.3365874565971
 10
84.42120361328125
 20
172.0794878472221
 10
84.91523030598958
 20
173.566528862847
 10
85.18601481119791
 20
174.349116753472
 10
85.38445231119791
 20
175.3785112847221
 10
85.51054280598959
 20
176.6547124565971
 10
85.51054280598959
 20
176.6547124565971
 10
86.83345947265625
 20
176.6547124565971
 10
86.83345947265625
 20
176.6547124565971
 10
86.72597249348957
 20
174.6157671440971
 10
86.35114610460069
 20
172.9061040581596
 10
85.70760226779514
 20
171.526343315972
 10
84.93727891710069
 20
169.8650493706596
 10
83.90375027126735
 20
169.0347124565971
 10
82.60701633029514
 20
169.0347124565971
 10
81.48598225911458
 20
169.0347124565971
 10
80.54547119140625
 20
169.7143608940971
 10
79.78479410807292
 20
171.0742778862845
 10
78.78020426432292
 20
172.8726177300345
 10
78.27859836154512
 20
175.6495024956596
 10
78.27859836154512
 20
179.4049321831595
 10
78.27859836154512
 20
182.2562310112846
 10
78.65342475043402
 20
184.594692925347
 10
79.40445556640622
 20
186.4196978081596
 10
80.22301025390625
 20
188.4028325737846
 10
81.34955647786458
 20
189.3943999565971
 10
82.78271620008679
 20
189.3943999565971
 10
84.00090196397568
 20
189.3943999565971
 10
84.94623616536458
 20
188.7513384331595
 10
85.61871880425345
 20
187.4658355034721
 97
        1
330
2666
 75
     0
 76
     1
 98
        1
 10
0.0
 20
0.0
  0
LINE
  5
266E
102
{ACAD_REACTORS
330
267D
102
}
330
265D
100
AcDbEntity
  8
LAYER_1
 62
     7
100
AcDbLine
 10
34.65766059027778
 20
177.4497853732638
 30
0.0
 11
36.19830729166666
 21
186.1658769531249
 31
0.0
  0
LINE
  5
266F
102
{ACAD_REACTORS
330
267D
102
}
330
265D
100
AcDbEntity
  8
LAYER_1
 62
     7
100
AcDbLine
 10
36.19830729166666
 20
186.1658769531249
 30
0.0
 11
37.67556423611111
 21
177.4497853732638
 31
0.0
  0
LINE
  5
2670
102
{ACAD_REACTORS
330
267D
102
}
330
265D
100
AcDbEntity
  8
LAYER_1
 62
     7
100
AcDbLine
 10
37.67556423611111
 20
177.4497853732638
 30
0.0
 11
34.65766059027778
 21
177.4497853732638
 31
0.0
  0
LINE
  5
2671
102
{ACAD_REACTORS
330
267D
102
}
330
265D
100
AcDbEntity
  8
LAYER_1
 62
     7
100
AcDbLine
 10
31.83957248263888
 20
169.3358964843748
 30
0.0
 11
33.22450086805555
 21
169.3358964843748
 31
0.0
  0
LINE
  5
2672
102
{ACAD_REACTORS
330
267D
102
}
330
265D
100
AcDbEntity
  8
LAYER_1
 62
     7
100
AcDbLine
 10
33.22450086805555
 20
169.3358964843748
 30
0.0
 11
34.27043185763887
 21
175.2590353732638
 31
0.0
  0
LINE
  5
2673
102
{ACAD_REACTORS
330
267D
102
}
330
265D
100
AcDbEntity
  8
LAYER_1
 62
     7
100
AcDbLine
 10
34.27043185763887
 20
175.2590353732638
 30
0.0
 11
38.04694552951389
 21
175.2590353732638
 31
0.0
  0
LINE
  5
2674
102
{ACAD_REACTORS
330
267D
102
}
330
265D
100
AcDbEntity
  8
LAYER_1
 62
     7
100
AcDbLine
 10
38.04694552951389
 20
175.2590353732638
 30
0.0
 11
39.05015733506942
 21
169.3358964843748
 31
0.0
  0
LINE
  5
2675
102
{ACAD_REACTORS
330
267D
102
}
330
265D
100
AcDbEntity
  8
LAYER_1
 62
     7
100
AcDbLine
 10
39.05015733506942
 20
169.3358964843748
 30
0.0
 11
40.43508572048611
 21
169.3358964843748
 31
0.0
  0
LINE
  5
2676
102
{ACAD_REACTORS
330
267D
102
}
330
265D
100
AcDbEntity
  8
LAYER_1
 62
     7
100
AcDbLine
 10
40.43508572048611
 20
169.3358964843748
 30
0.0
 11
36.952783203125
 21
189.0932159288193
 31
0.0
  0
LINE
  5
2677
102
{ACAD_REACTORS
330
267D
102
}
330
265D
100
AcDbEntity
  8
LAYER_1
 62
     7
100
AcDbLine
 10
36.952783203125
 20
189.0932159288193
 30
0.0
 11
35.47828233506943
 21
189.0932159288193
 31
0.0
  0
LINE
  5
2678
102
{ACAD_REACTORS
330
267D
102
}
330
265D
100
AcDbEntity
  8
LAYER_1
 62
     7
100
AcDbLine
 10
35.47828233506943
 20
189.0932159288193
 30
0.0
 11
31.83957248263888
 21
169.3358964843748
 31
0.0
  0
HATCH
  5
2679
330
265D
100
AcDbEntity
  8
0
  6
Continuous
100
AcDbHatch
 10
0.0
 20
0.0
 30
0.0
210
0.0
220
0.0
230
1.0
  2
SOLID
 70
     1
 71
     1
 91
        2
 92
       16
 93
        1
 72
     4
 94
        3
 73
     0
 74
     0
 95
       29
 96
       25
 40
0.0
 40
0.0
 40
0.0
 40
0.0
 40
1.0
 40
1.0
 40
1.0
 40
2.0
 40
2.0
 40
2.0
 40
3.0
 40
3.0
 40
3.0
 40
4.0
 40
4.0
 40
4.0
 40
5.0
 40
5.0
 40
5.0
 40
6.0
 40
6.0
 40
6.0
 40
7.0
 40
7.0
 40
7.0
 40
8.0
 40
8.0
 40
8.0
 40
8.0
 10
62.85697292751734
 20
171.3365874565971
 10
61.88338894314235
 20
171.3365874565971
 10
61.18058946397566
 20
172.0714263237844
 10
60.74857449001735
 20
173.5411040581595
 10
60.31587049696178
 20
175.0107817925344
 10
60.10020751953123
 20
176.8165630425344
 10
60.10020751953123
 20
178.9578276909721
 10
60.10020751953123
 20
181.6342534722221
 10
60.35101047092013
 20
183.6589360894095
 10
60.85261637369789
 20
185.032495659722
 10
61.35422227647566
 20
186.4054351128471
 10
62.00741238064235
 20
187.092524956597
 10
62.81218668619789
 20
187.092524956597
 10
63.6369425455729
 20
187.092524956597
 10
64.28806559244789
 20
186.3992339409721
 10
64.76486680772568
 20
185.0126519097221
 10
65.24166802300347
 20
183.6260698784719
 10
65.48006863064235
 20
181.7961040581595
 10
65.48006863064235
 20
179.5239946831596
 10
65.48006863064235
 20
177.3734282769096
 10
65.27336290147568
 20
175.471528862847
 10
64.86132948133678
 20
173.8176763237846
 10
64.4492960611979
 20
172.1632036675345
 10
63.78094753689235
 20
171.3365874565971
 10
62.85697292751734
 20
171.3365874565971
 97
        1
330
2663
 92
        1
 93
        1
 72
     4
 94
        3
 73
     0
 74
     0
 95
       29
 96
       25
 40
0.0
 40
0.0
 40
0.0
 40
0.0
 40
1.0
 40
1.0
 40
1.0
 40
2.0
 40
2.0
 40
2.0
 40
3.0
 40
3.0
 40
3.0
 40
4.0
 40
4.0
 40
4.0
 40
5.0
 40
5.0
 40
5.0
 40
6.0
 40
6.0
 40
6.0
 40
7.0
 40
7.0
 40
7.0
 40
8.0
 40
8.0
 40
8.0
 40
8.0
 10
62.76119927300346
 20
189.4340874565971
 10
61.47273356119789
 20
189.4340874565971
 10
60.50121663411457
 20
188.239741753472
 10
59.84733751085068
 20
185.8516704644094
 10
59.3395304361979
 20
183.9900786675345
 10
59.08597140842012
 20
181.7514556206596
 10
59.08597140842012
 20
179.1351812065971
 10
59.08597140842012
 20
176.2379937065971
 10
59.38362765842011
 20
173.8412407769095
 10
59.97894015842011
 20
171.9449224175346
 10
60.64246554904511
 20
169.9779106987846
 10
61.56023898654511
 20
168.9950249565971
 10
62.7315714518229
 20
168.9950249565971
 10
63.9904093424479
 20
168.9950249565971
 10
64.95641411675345
 20
170.118677300347
 10
65.63027479383679
 20
172.3659819878471
 10
66.20629475911457
 20
174.279663628472
 10
66.49430474175345
 20
176.6813774956594
 10
66.49430474175345
 20
179.5698833550345
 10
66.49430474175345
 20
182.2388677300344
 10
66.24005669487845
 20
184.4291216362844
 10
65.73293863932289
 20
186.141265190972
 10
65.08870578342011
 20
188.336480034722
 10
64.09789632161457
 20
189.4340874565971
 10
62.76119927300346
 20
189.4340874565971
 97
        0
 75
     0
 76
     1
 98
        0
  0
HATCH
  5
267A
330
265D
100
AcDbEntity
  8
0
  6
Continuous
100
AcDbHatch
 10
0.0
 20
0.0
 30
0.0
210
0.0
220
0.0
230
1.0
  2
SOLID
 70
     1
 71
     1
 91
        1
 92
        1
 93
        1
 72
     4
 94
        3
 73
     0
 74
     0
 95
       59
 96
       55
 40
0.0
 40
0.0
 40
0.0
 40
0.0
 40
1.0
 40
1.0
 40
1.0
 40
2.0
 40
2.0
 40
2.0
 40
3.0
 40
3.0
 40
3.0
 40
4.0
 40
4.0
 40
4.0
 40
5.0
 40
5.0
 40
5.0
 40
6.0
 40
6.0
 40
6.0
 40
7.0
 40
7.0
 40
7.0
 40
8.0
 40
8.0
 40
8.0
 40
9.0
 40
9.0
 40
9.0
 40
10.0
 40
10.0
 40
10.0
 40
11.0
 40
11.0
 40
11.0
 40
12.0
 40
12.0
 40
12.0
 40
13.0
 40
13.0
 40
13.0
 40
14.0
 40
14.0
 40
14.0
 40
15.0
 40
15.0
 40
15.0
 40
16.0
 40
16.0
 40
16.0
 40
17.0
 40
17.0
 40
17.0
 40
18.0
 40
18.0
 40
18.0
 40
18.0
 10
49.39440104166666
 20
189.0932159288193
 10
49.39440104166666
 20
189.0932159288193
 10
51.24786241319444
 20
189.0932159288193
 10
51.24786241319444
 20
189.0932159288193
 10
51.24786241319444
 20
189.0932159288193
 10
54.04665798611111
 20
172.3887471788193
 10
54.04665798611111
 20
172.3887471788193
 10
54.04665798611111
 20
172.3887471788193
 10
56.83994140624999
 20
189.0932159288193
 10
56.83994140624999
 20
189.0932159288193
 10
56.83994140624999
 20
189.0932159288193
 10
58.69891493055554
 20
189.0932159288193
 10
58.69891493055554
 20
189.0932159288193
 10
58.69891493055554
 20
189.0932159288193
 10
58.69891493055554
 20
169.3358964843748
 10
58.69891493055554
 20
169.3358964843748
 10
58.69891493055554
 20
169.3358964843748
 10
57.46419270833333
 20
169.3358964843748
 10
57.46419270833333
 20
169.3358964843748
 10
57.46419270833333
 20
169.3358964843748
 10
57.46419270833333
 20
180.9964422743054
 10
57.46419270833333
 20
180.9964422743054
 10
57.46419270833333
 20
181.3996011284721
 10
57.47108289930555
 20
182.0677291666664
 10
57.48624131944444
 20
183.0001924913193
 10
57.50071072048609
 20
183.9326558159721
 10
57.50828993055554
 20
184.932312282986
 10
57.50828993055554
 20
185.9997957899304
 10
57.50828993055554
 20
185.9997957899304
 10
54.700537109375
 20
169.3358964843748
 10
54.700537109375
 20
169.3358964843748
 10
54.700537109375
 20
169.3358964843748
 10
53.38382161458333
 20
169.3358964843748
 10
53.38382161458333
 20
169.3358964843748
 10
53.38382161458333
 20
169.3358964843748
 10
50.58502604166665
 20
185.9997957899304
 10
50.58502604166665
 20
185.9997957899304
 10
50.58502604166665
 20
185.9997957899304
 10
50.58502604166665
 20
185.3944236111109
 10
50.58502604166665
 20
185.3944236111109
 10
50.58502604166665
 20
184.9101258680554
 10
50.59191623263888
 20
184.1729029947915
 10
50.60707465277777
 20
183.1821210937498
 10
50.62154405381943
 20
182.1913391927082
 10
50.62912326388889
 20
181.4629908854165
 10
50.62912326388889
 20
180.9964422743054
 10
50.62912326388889
 20
180.9964422743054
 10
50.62912326388889
 20
169.3358964843748
 10
50.62912326388889
 20
169.3358964843748
 10
50.62912326388889
 20
169.3358964843748
 10
49.39440104166666
 20
169.3358964843748
 10
49.39440104166666
 20
169.3358964843748
 10
49.39440104166666
 20
169.3358964843748
 10
49.39440104166666
 20
189.0932159288193
 10
49.39440104166666
 20
189.0932159288193
 97
        1
330
2662
 75
     0
 76
     1
 98
        1
 10
0.0
 20
0.0
  0
HATCH
  5
267B
330
265D
100
AcDbEntity
  8
0
  6
Continuous
100
AcDbHatch
 10
0.0
 20
0.0
 30
0.0
210
0.0
220
0.0
230
1.0
  2
SOLID
 70
     1
 71
     1
 91
        2
 92
       16
 93
        1
 72
     4
 94
        3
 73
     0
 74
     0
 95
       32
 96
       28
 40
0.0
 40
0.0
 40
0.0
 40
0.0
 40
1.0
 40
1.0
 40
1.0
 40
2.0
 40
2.0
 40
2.0
 40
3.0
 40
3.0
 40
3.0
 40
4.0
 40
4.0
 40
4.0
 40
5.0
 40
5.0
 40
5.0
 40
6.0
 40
6.0
 40
6.0
 40
7.0
 40
7.0
 40
7.0
 40
8.0
 40
8.0
 40
8.0
 40
9.0
 40
9.0
 40
9.0
 40
9.0
 10
91.70051812065969
 20
171.6077853732636
 10
91.70051812065969
 20
171.6077853732636
 10
91.70051812065969
 20
186.7401881510414
 10
91.70051812065969
 20
186.7401881510414
 10
91.70051812065969
 20
186.7401881510414
 10
93.98668348524305
 20
186.7401881510414
 10
93.98668348524305
 20
186.7401881510414
 10
95.02159016927082
 20
186.7401881510414
 10
95.77331000434028
 20
186.0644533420137
 10
96.24322102864582
 20
184.7142515190969
 10
96.71313205295138
 20
183.3640496961804
 10
96.94808756510417
 20
181.4680620659721
 10
96.94808756510417
 20
179.026288628472
 10
96.94808756510417
 20
178.3911232638887
 10
96.91432562934028
 20
177.7027105034721
 10
96.84749077690971
 20
176.9604164496525
 10
96.7324245876736
 20
175.7167094184025
 10
96.55052354600693
 20
174.6974021267359
 10
96.30109863281248
 20
173.9018606770831
 10
95.98414984809028
 20
172.9091770833332
 10
95.57693956163193
 20
172.2378795572914
 10
95.07877875434026
 20
171.8892358940971
 10
94.79076877170138
 20
171.7016022135415
 10
94.43178982204859
 20
171.6077853732636
 10
94.00115288628471
 20
171.6077853732636
 10
94.00115288628471
 20
171.6077853732636
 10
91.70051812065969
 20
171.6077853732636
 10
91.70051812065969
 20
171.6077853732636
 97
        1
330
2667
 92
        1
 93
        1
 72
     4
 94
        3
 73
     0
 74
     0
 95
       26
 96
       22
 40
0.0
 40
0.0
 40
0.0
 40
0.0
 40
1.0
 40
1.0
 40
1.0
 40
2.0
 40
2.0
 40
2.0
 40
3.0
 40
3.0
 40
3.0
 40
4.0
 40
4.0
 40
4.0
 40
5.0
 40
5.0
 40
5.0
 40
6.0
 40
6.0
 40
6.0
 40
7.0
 40
7.0
 40
7.0
 40
7.0
 10
90.37760145399305
 20
169.3358964843748
 10
90.37760145399305
 20
169.3358964843748
 10
94.22990722656248
 20
169.3358964843748
 10
94.22990722656248
 20
169.3358964843748
 10
95.87115071614581
 20
169.3358964843748
 10
97.03008083767359
 20
170.8331625434026
 10
97.70600857204859
 20
173.8283285590275
 10
98.08221299913194
 20
175.5227367621525
 10
98.27100423177082
 20
177.4187243923609
 10
98.27100423177082
 20
179.5169253472221
 10
98.27100423177082
 20
182.233810329861
 10
97.94716525607638
 20
184.4619602864582
 10
97.30086534288195
 20
186.2013752170136
 10
96.57601725260416
 20
188.1290577256942
 10
95.5576470269097
 20
189.0932159288193
 10
94.24437662760416
 20
189.0932159288193
 10
94.24437662760416
 20
189.0932159288193
 10
90.37760145399305
 20
189.0932159288193
 10
90.37760145399305
 20
189.0932159288193
 10
90.37760145399305
 20
189.0932159288193
 10
90.37760145399305
 20
169.3358964843748
 10
90.37760145399305
 20
169.3358964843748
 97
        0
 75
     0
 76
     1
 98
        0
  0
HATCH
  5
267C
330
265D
100
AcDbEntity
  8
0
  6
Continuous
100
AcDbHatch
 10
0.0
 20
0.0
 30
0.0
210
0.0
220
0.0
230
1.0
  2
SOLID
 70
     1
 71
     1
 91
        2
 92
       16
 93
        1
 72
     4
 94
        3
 73
     0
 74
     0
 95
       26
 96
       22
 40
0.0
 40
0.0
 40
0.0
 40
0.0
 40
1.0
 40
1.0
 40
1.0
 40
2.0
 40
2.0
 40
2.0
 40
3.0
 40
3.0
 40
3.0
 40
4.0
 40
4.0
 40
4.0
 40
5.0
 40
5.0
 40
5.0
 40
6.0
 40
6.0
 40
6.0
 40
7.0
 40
7.0
 40
7.0
 40
7.0
 10
100.5623372395832
 20
180.0462298177081
 10
100.5623372395832
 20
180.0462298177081
 10
100.5623372395832
 20
186.7401881510414
 10
100.5623372395832
 20
186.7401881510414
 10
100.5623372395832
 20
186.7401881510414
 10
103.6732584635416
 20
186.7401881510414
 10
103.6732584635416
 20
186.7401881510414
 10
104.1107855902777
 20
186.7401881510414
 10
104.4580512152777
 20
186.6064357638887
 10
104.7150553385415
 20
186.3401987847219
 10
105.2097710503471
 20
185.8330807291664
 10
105.4571289062498
 20
184.8822343749997
 10
105.4571289062498
 20
183.4863919270832
 10
105.4571289062498
 20
182.188169704861
 10
105.280740017361
 20
181.2905707465276
 10
104.9286512586804
 20
180.7929611545137
 10
104.5765624999999
 20
180.2947176649304
 10
104.1011393229166
 20
180.0462298177081
 10
103.5023817274304
 20
180.0462298177081
 10
103.5023817274304
 20
180.0462298177081
 10
100.5623372395832
 20
180.0462298177081
 10
100.5623372395832
 20
180.0462298177081
 97
        1
330
2668
 92
        1
 93
        1
 72
     4
 94
        3
 73
     0
 74
     0
 95
       68
 96
       64
 40
0.0
 40
0.0
 40
0.0
 40
0.0
 40
1.0
 40
1.0
 40
1.0
 40
2.0
 40
2.0
 40
2.0
 40
3.0
 40
3.0
 40
3.0
 40
4.0
 40
4.0
 40
4.0
 40
5.0
 40
5.0
 40
5.0
 40
6.0
 40
6.0
 40
6.0
 40
7.0
 40
7.0
 40
7.0
 40
8.0
 40
8.0
 40
8.0
 40
9.0
 40
9.0
 40
9.0
 40
10.0
 40
10.0
 40
10.0
 40
11.0
 40
11.0
 40
11.0
 40
12.0
 40
12.0
 40
12.0
 40
13.0
 40
13.0
 40
13.0
 40
14.0
 40
14.0
 40
14.0
 40
15.0
 40
15.0
 40
15.0
 40
16.0
 40
16.0
 40
16.0
 40
17.0
 40
17.0
 40
17.0
 40
18.0
 40
18.0
 40
18.0
 40
19.0
 40
19.0
 40
19.0
 40
20.0
 40
20.0
 40
20.0
 40
21.0
 40
21.0
 40
21.0
 40
21.0
 10
99.23942057291661
 20
169.3358964843748
 10
99.23942057291661
 20
169.3358964843748
 10
100.5623372395832
 20
169.3358964843748
 10
100.5623372395832
 20
169.3358964843748
 10
100.5623372395832
 20
169.3358964843748
 10
100.5623372395832
 20
177.8149103732637
 10
100.5623372395832
 20
177.8149103732637
 10
100.5623372395832
 20
177.8149103732637
 10
103.4472601996527
 20
177.8149103732637
 10
103.4472601996527
 20
177.8149103732637
 10
103.9681586371527
 20
177.8149103732637
 10
104.3519422743053
 20
177.6938359374998
 10
104.5986111111109
 20
177.451687065972
 10
105.0244249131943
 20
177.0117621527776
 10
105.2518012152777
 20
176.1458580729164
 10
105.280740017361
 20
174.8539748263887
 10
105.280740017361
 20
174.8539748263887
 10
105.3689344618053
 20
171.5564396701386
 10
105.3689344618053
 20
171.5564396701386
 10
105.3882269965277
 20
170.7843524305554
 10
105.4109646267359
 20
170.2639225260415
 10
105.4357693142359
 20
169.9951499565971
 10
105.4605740017359
 20
169.7257434895831
 10
105.4970920138888
 20
169.5057810329859
 10
105.5467013888887
 20
169.3358964843748
 10
105.5467013888887
 20
169.3358964843748
 10
107.1769205729166
 20
169.3358964843748
 10
107.1769205729166
 20
169.3358964843748
 10
107.1769205729166
 20
169.3358964843748
 10
107.1769205729166
 20
169.7821603732636
 10
107.1769205729166
 20
169.7821603732636
 10
106.9750379774303
 20
169.9609194878471
 10
106.8337890624998
 20
170.3628105468748
 10
106.7538628472221
 20
170.9878335503471
 10
106.7028754340275
 20
171.3542263454858
 10
106.6677354600692
 20
171.9120562065971
 10
106.6477539062498
 20
172.6625909288193
 10
106.6477539062498
 20
172.6625909288193
 10
106.6036566840277
 20
175.3205234374999
 10
106.6036566840277
 20
175.3205234374999
 10
106.5836751302082
 20
176.4716814236109
 10
106.4768771701387
 20
177.3033550347219
 10
106.2839518229166
 20
177.8142764756942
 10
106.0903374565971
 20
178.3251979166665
 10
105.8002604166666
 20
178.7372313368054
 10
105.4130316840277
 20
179.0516445312498
 10
105.8443576388887
 20
179.5086846788193
 10
106.179909939236
 20
180.1134229600693
 10
106.4196885850692
 20
180.8664932725692
 10
106.6594672309027
 20
181.6189296874999
 10
106.7800455729166
 20
182.5868912760414
 10
106.7800455729166
 20
183.7697441406248
 10
106.7800455729166
 20
186.0371957465275
 10
106.3328721788193
 20
187.5921464843749
 10
105.4392144097221
 20
188.4345963541665
 10
104.9679253472221
 20
188.8732534722221
 10
104.3719238281249
 20
189.0932159288193
 10
103.6512098524303
 20
189.0932159288193
 10
103.6512098524303
 20
189.0932159288193
 10
99.23942057291661
 20
189.0932159288193
 10
99.23942057291661
 20
189.0932159288193
 10
99.23942057291661
 20
189.0932159288193
 10
99.23942057291661
 20
169.3358964843748
 10
99.23942057291661
 20
169.3358964843748
 97
        0
 75
     0
 76
     1
 98
        0
  0
HATCH
  5
267D
330
265D
100
AcDbEntity
  8
0
  6
Continuous
100
AcDbHatch
 10
0.0
 20
0.0
 30
0.0
210
0.0
220
0.0
230
1.0
  2
SOLID
 70
     1
 71
     1
 91
        2
 92
        1
 93
        8
 72
     1
 10
35.47828233506943
 20
189.0932159288193
 11
31.83957248263888
 21
169.3358964843748
 72
     1
 10
31.83957248263888
 20
169.3358964843748
 11
33.22450086805555
 21
169.3358964843748
 72
     1
 10
33.22450086805555
 20
169.3358964843748
 11
34.27043185763887
 21
175.2590353732638
 72
     1
 10
34.27043185763887
 20
175.2590353732638
 11
38.04694552951389
 21
175.2590353732638
 72
     1
 10
38.04694552951389
 20
175.2590353732638
 11
39.05015733506942
 21
169.3358964843748
 72
     1
 10
39.05015733506942
 20
169.3358964843748
 11
40.43508572048611
 21
169.3358964843748
 72
     1
 10
40.43508572048611
 20
169.3358964843748
 11
36.952783203125
 21
189.0932159288193
 72
     1
 10
36.952783203125
 20
189.0932159288193
 11
35.47828233506943
 21
189.0932159288193
 97
        8
330
2678
330
2671
330
2672
330
2673
330
2674
330
2675
330
2676
330
2677
 92
       16
 93
        3
 72
     1
 10
37.67556423611111
 20
177.4497853732638
 11
34.65766059027778
 21
177.4497853732638
 72
     1
 10
34.65766059027778
 20
177.4497853732638
 11
36.19830729166666
 21
186.1658769531249
 72
     1
 10
36.19830729166666
 20
186.1658769531249
 11
37.67556423611111
 21
177.4497853732638
 97
        3
330
2670
330
266E
330
266F
 75
     0
 76
     1
 98
        1
 10
0.0
 20
0.0
  0
HATCH
  5
267E
330
265D
100
AcDbEntity
  8
0
  6
Continuous
100
AcDbHatch
 10
0.0
 20
0.0
 30
0.0
210
0.0
220
0.0
230
1.0
  2
SOLID
 70
     1
 71
     1
 91
        1
 92
        1
 93
        1
 72
     4
 94
        3
 73
     0
 74
     0
 95
      113
 96
      109
 40
0.0
 40
0.0
 40
0.0
 40
0.0
 40
1.0
 40
1.0
 40
1.0
 40
2.0
 40
2.0
 40
2.0
 40
3.0
 40
3.0
 40
3.0
 40
4.0
 40
4.0
 40
4.0
 40
5.0
 40
5.0
 40
5.0
 40
6.0
 40
6.0
 40
6.0
 40
7.0
 40
7.0
 40
7.0
 40
8.0
 40
8.0
 40
8.0
 40
9.0
 40
9.0
 40
9.0
 40
10.0
 40
10.0
 40
10.0
 40
11.0
 40
11.0
 40
11.0
 40
12.0
 40
12.0
 40
12.0
 40
13.0
 40
13.0
 40
13.0
 40
14.0
 40
14.0
 40
14.0
 40
15.0
 40
15.0
 40
15.0
 40
16.0
 40
16.0
 40
16.0
 40
17.0
 40
17.0
 40
17.0
 40
18.0
 40
18.0
 40
18.0
 40
19.0
 40
19.0
 40
19.0
 40
20.0
 40
20.0
 40
20.0
 40
21.0
 40
21.0
 40
21.0
 40
22.0
 40
22.0
 40
22.0
 40
23.0
 40
23.0
 40
23.0
 40
24.0
 40
24.0
 40
24.0
 40
25.0
 40
25.0
 40
25.0
 40
26.0
 40
26.0
 40
26.0
 40
27.0
 40
27.0
 40
27.0
 40
28.0
 40
28.0
 40
28.0
 40
29.0
 40
29.0
 40
29.0
 40
30.0
 40
30.0
 40
30.0
 40
31.0
 40
31.0
 40
31.0
 40
32.0
 40
32.0
 40
32.0
 40
33.0
 40
33.0
 40
33.0
 40
34.0
 40
34.0
 40
34.0
 40
35.0
 40
35.0
 40
35.0
 40
36.0
 40
36.0
 40
36.0
 40
36.0
 10
193.3039632161458
 20
186.1548733181423
 10
193.3039632161458
 20
186.1860514322916
 10
193.3039632161458
 20
219.6932223849826
 10
193.3039632161458
 20
219.6932223849826
 10
193.3039632161458
 20
219.6932223849826
 10
193.2974175347219
 20
219.7488606770833
 10
193.2974175347219
 20
219.7488606770833
 10
191.5293945312499
 20
235.455740017361
 10
175.1458984374999
 20
235.2467949761284
 10
174.9808783637151
 20
235.2428331163193
 10
174.9808783637151
 20
235.2428331163193
 10
125.8827555338541
 20
235.2430053710937
 10
125.8827555338541
 20
235.2430053710937
 10
125.8827555338541
 20
235.2430053710937
 10
125.8827555338541
 20
255.5278998480901
 10
125.8827555338541
 20
255.5278998480901
 10
125.8827555338541
 20
255.5278998480901
 10
84.5626247829861
 20
255.5278998480901
 10
84.5626247829861
 20
255.5278998480901
 10
84.5626247829861
 20
255.5278998480901
 10
84.55711263020829
 20
233.7919311523436
 10
84.55711263020829
 20
233.7919311523436
 10
84.55711263020829
 20
233.7919311523436
 10
64.42052951388888
 20
233.7919311523436
 10
64.42052951388888
 20
233.7919311523436
 10
64.42052951388888
 20
233.7919311523436
 10
64.41501736111111
 20
255.5278998480901
 10
64.41501736111111
 20
255.5278998480901
 10
64.41501736111111
 20
255.5278998480901
 10
23.91757541232637
 20
255.5278998480901
 10
23.91757541232637
 20
255.5278998480901
 10
23.91757541232637
 20
255.5278998480901
 10
23.91757541232637
 20
233.2393378363715
 10
23.91757541232637
 20
233.2393378363715
 10
23.91757541232637
 20
233.2393378363715
 10
43.65624999999999
 20
233.2393378363715
 10
43.65624999999999
 20
233.2393378363715
 10
43.65624999999999
 20
233.2393378363715
 10
43.65624999999999
 20
211.5188720703125
 10
43.65624999999999
 20
211.5188720703125
 10
43.65624999999999
 20
211.5188720703125
 10
23.91757541232637
 20
211.5188720703125
 10
23.91757541232637
 20
211.5188720703125
 10
23.91757541232637
 20
211.5188720703125
 10
23.91757541232637
 20
189.2303100585936
 10
23.91757541232637
 20
189.2303100585936
 10
23.91757541232637
 20
189.2303100585936
 10
64.41501736111111
 20
189.2303100585936
 10
64.41501736111111
 20
189.2303100585936
 10
64.41501736111111
 20
189.2303100585936
 10
64.42052951388888
 20
211.069976128472
 10
64.42052951388888
 20
211.069976128472
 10
64.42052951388888
 20
211.069976128472
 10
84.55711263020829
 20
211.069976128472
 10
84.55711263020829
 20
211.069976128472
 10
84.55711263020829
 20
211.069976128472
 10
84.5626247829861
 20
189.2303100585936
 10
84.5626247829861
 20
189.2303100585936
 10
84.5626247829861
 20
189.2303100585936
 10
125.8827555338541
 20
189.2303100585936
 10
125.8827555338541
 20
189.2303100585936
 10
125.8827555338541
 20
189.2303100585936
 10
125.8827555338541
 20
211.5188720703125
 10
125.8827555338541
 20
211.5188720703125
 10
125.8827555338541
 20
211.5188720703125
 10
105.3213921440971
 20
211.5188720703125
 10
105.3213921440971
 20
211.5188720703125
 10
105.3213921440971
 20
211.5188720703125
 10
105.3213921440971
 20
233.2393378363715
 10
105.3213921440971
 20
233.2393378363715
 10
105.3213921440971
 20
233.2393378363715
 10
175.0046495225693
 20
233.243127441406
 10
175.0046495225693
 20
233.243127441406
 10
175.6268337673611
 20
233.2560465494791
 10
189.7165852864583
 20
233.3962619357638
 10
191.3037407769094
 20
219.5690266927083
 10
191.3037407769094
 20
219.4332899305555
 10
191.3037407769094
 20
186.1142211914062
 10
191.3037407769094
 20
186.1142211914062
 10
191.3037407769094
 20
186.1142211914062
 10
191.3051188151039
 20
186.0880384657115
 10
191.3051188151039
 20
186.0880384657115
 10
191.3054633246526
 20
186.0787367078991
 10
191.3109754774304
 20
185.9566080729166
 10
191.3109754774304
 20
185.7399115668401
 10
191.3109754774304
 20
184.2090833875865
 10
191.0488037109374
 20
177.9643310546874
 10
186.9866916232638
 20
173.5652886284722
 10
184.2540418836804
 20
170.6064683702255
 10
180.3224989149304
 20
169.0308539496526
 10
175.300927734375
 20
168.8825425889756
 10
175.300927734375
 20
168.8825425889756
 10
107.0094889322916
 20
168.8828870985243
 10
107.0094889322916
 20
168.8828870985243
 10
107.0094889322916
 20
168.8828870985243
 10
107.0094889322916
 20
166.8830091688368
 10
107.0094889322916
 20
166.8830091688368
 10
107.0094889322916
 20
166.8830091688368
 10
175.3305555555555
 20
166.8830091688368
 10
175.3305555555555
 20
166.8830091688368
 10
180.9467502170138
 20
167.0485460069444
 10
185.3571614583333
 20
168.8448187934026
 10
188.4687717013888
 20
172.2223904079861
 10
192.9649658203124
 20
177.1034016927083
 10
193.3136094835069
 20
183.7202243381076
 10
193.3136094835069
 20
185.6520616319443
 10
193.3136094835069
 20
185.9247409396701
 10
193.3070638020833
 20
186.0868326822916
 10
193.3039632161458
 20
186.1548733181423
 97
        1
330
265E
 75
     0
 76
     1
 98
        1
 10
0.0
 20
0.0
  0
HATCH
  5
267F
330
265D
100
AcDbEntity
  8
0
  6
Continuous
100
AcDbHatch
 10
0.0
 20
0.0
 30
0.0
210
0.0
220
0.0
230
1.0
  2
SOLID
 70
     1
 71
     1
 91
        2
 92
        1
 93
        1
 72
     4
 94
        3
 73
     0
 74
     0
 95
       23
 96
       19
 40
0.0
 40
0.0
 40
0.0
 40
0.0
 40
1.0
 40
1.0
 40
1.0
 40
2.0
 40
2.0
 40
2.0
 40
3.0
 40
3.0
 40
3.0
 40
4.0
 40
4.0
 40
4.0
 40
5.0
 40
5.0
 40
5.0
 40
6.0
 40
6.0
 40
6.0
 40
6.0
 10
148.6593153211804
 20
211.3929538302948
 10
148.6593153211804
 20
211.3929538302948
 10
148.6593153211804
 20
189.6308024088539
 10
148.6593153211804
 20
189.6308024088539
 10
148.6593153211804
 20
189.6308024088539
 10
161.3152180989583
 20
189.6308024088539
 10
161.3152180989583
 20
189.6308024088539
 10
162.8431179470484
 20
189.6308024088539
 10
170.4657362196179
 20
190.1880466037322
 10
170.4657362196179
 20
201.1911648220483
 10
170.4657362196179
 20
211.1288872612844
 10
162.3356553819444
 20
211.3914035373261
 10
162.2536621093749
 20
211.3927815755205
 10
162.2536621093749
 20
211.3927815755205
 10
149.6594265407986
 20
211.3929538302948
 10
149.6594265407986
 20
211.3929538302948
 10
149.6594265407986
 20
211.3929538302948
 10
148.6593153211804
 20
211.3929538302948
 10
148.6593153211804
 20
211.3929538302948
 97
        1
330
265F
 92
       16
 93
        1
 72
     4
 94
        3
 73
     0
 74
     0
 95
       20
 96
       16
 40
0.0
 40
0.0
 40
0.0
 40
0.0
 40
1.0
 40
1.0
 40
1.0
 40
2.0
 40
2.0
 40
2.0
 40
3.0
 40
3.0
 40
3.0
 40
4.0
 40
4.0
 40
4.0
 40
5.0
 40
5.0
 40
5.0
 40
5.0
 10
162.2354031032985
 20
209.3930759006072
 10
162.467947048611
 20
209.3861857096351
 10
168.4655137803819
 20
209.1283203124997
 10
168.4655137803819
 20
201.1911648220483
 10
168.4655137803819
 20
192.3202162000865
 10
162.9926350911458
 20
191.6306803385413
 10
161.3152180989583
 20
191.6306803385413
 10
161.3152180989583
 20
191.6306803385413
 10
152.3310980902776
 20
191.6306803385413
 10
150.6595377604166
 20
191.6306803385413
 10
150.6595377604166
 20
193.3373806423608
 10
150.6595377604166
 20
207.6863755967879
 10
150.6595377604166
 20
209.3930759006072
 10
152.353835720486
 20
209.3930759006072
 10
162.2354031032985
 20
209.3930759006072
 10
162.2354031032985
 20
209.3930759006072
 97
        0
 75
     0
 76
     1
 98
        0
  0
ENDBLK
  5
2681
330
265D
100
AcDbEntity
  8
0
100
AcDbBlockEnd
  0
BLOCK
  5
2684
330
2682
100
AcDbEntity
  8
0
100
AcDbBlockBegin
  2
HD logo-new
 70
     0
 10
0.0
 20
0.0
 30
0.0
  3
HD logo-new
  1

  0
INSERT
  5
2683
330
2682
100
AcDbEntity
  8
0
 62
     3
100
AcDbBlockReference
  2
HD_LLC_logo_OT5
 10
-27.1607188578505
 20
-68.37367811463031
 30
0.0
 41
0.2999999999999971
 42
0.3000000000000007
 43
0.3
  0
ENDBLK
  5
2685
330
2682
100
AcDbEntity
  8
0
100
AcDbBlockEnd
  0
BLOCK
  5
2688
330
2686
100
AcDbEntity
  8
0
100
AcDbBlockBegin
  2
HD Logo
 70
     0
 10
0.0
 20
0.0
 30
0.0
  3
HD Logo
  1

  0
INSERT
  5
2687
330
2686
100
AcDbEntity
  8
0
100
AcDbBlockReference
  2
HD logo-new
 10
0.9700256734946606
 20
7.273795608420527
 30
0.0
  0
ENDBLK
  5
2689
330
2686
100
AcDbEntity
  8
0
100
AcDbBlockEnd
  0
BLOCK
  5
26A6
330
26A4
100
AcDbEntity
  8
0
100
AcDbBlockBegin
  2
Harmonic Drive LLC
 70
     0
 10
0.0
 20
0.0
 30
0.0
  3
Harmonic Drive LLC
  1

  0
MTEXT
  5
26A5
330
26A4
100
AcDbEntity
  8
0
100
AcDbMText
 10
8.730232253264317
 20
-1.454758693481394
 30
0.0
 40
5.25
 41
158.5992
 71
     5
 72
     5
  1
{\fArial|b0|i0|c0|p34;Harmonic Drive LLC\P800-921-3332\Pwww.harmonicdrive.net}
 73
     1
 44
1.0
  0
ENDBLK
  5
26A7
330
26A4
100
AcDbEntity
  8
0
100
AcDbBlockEnd
  0
BLOCK
  5
2ACA
330
2AC8
100
AcDbEntity
  8
0
100
AcDbBlockBegin
  2
HD LLC
 70
     0
 10
0.0
 20
0.0
 30
0.0
  3
HD LLC
  1

  0
MTEXT
  5
2AC9
330
2AC8
100
AcDbEntity
  8
0
100
AcDbMText
 10
-2.314970886968865
 20
1.247205085865914
 30
0.0
 40
5.675387507387601
 41
236.1828726592229
 71
     5
 72
     5
  1
Harmonic Drive LLC\P800-921-3332\Pwww.harmonicdrive.net
 73
     1
 44
1.0
  0
ENDBLK
  5
2ACB
330
2AC8
100
AcDbEntity
  8
0
100
AcDbBlockEnd
  0
BLOCK
  5
2ADB
330
2AD8
100
AcDbEntity
  8
0
100
AcDbBlockBegin
  2
NTC
 70
     0
 10
0.0
 20
0.0
 30
0.0
  3
NTC
  1

  0
LWPOLYLINE
  5
2AD9
330
2AD8
100
AcDbEntity
  8
0
100
AcDbPolyline
 90
        8
 70
     1
 43
0.0
 10
4.581008201925953
 20
-10.78862239032818
 10
319.3921777697513
 20
-10.78862239032818
 42
-0.4142135623730951
 10
324.9046777697513
 20
-16.30112239032816
 10
324.9046777697513
 20
-117.4075202476924
 42
-0.4142135623730951
 10
319.3921777697513
 20
-122.9200202476925
 10
4.581008201925838
 20
-122.9200202476925
 42
-0.4142135623730951
 10
-0.9314917980741483
 20
-117.4075202476924
 10
-0.9314917980740915
 20
-16.30112239032816
 42
-0.4142135623730951
  0
MTEXT
  5
2ADA
330
2AD8
100
AcDbEntity
  8
0
  6
Continuous
370
    30
100
AcDbMText
 10
21.65307678143926
 20
-17.4535155144544
 30
0.0
 40
8.75
 41
294.5432999999998
 71
     1
 72
     5
  3
{\fTxt|b1|i0|c0|p2;Notice:\P\Ftxt.shx;\H0.5714x;All specifications and dimensions shown in the drawing are subject to change without notice. This drawing is the property of Harmonic Drive LLC.   This data is believed to be accurate, however, Harmonic
  1
 Drive LLC assumes no liability for any errors or omissions in the specifications, models, or drawings.\P\PHarmonic Drive LLC\PTel: 800-921-3332\Pwww.harmonicdrive.net}
 73
     1
 44
1.0
  0
ENDBLK
  5
2ADC
330
2AD8
100
AcDbEntity
  8
0
100
AcDbBlockEnd
  0
ENDSEC
  0
SECTION
  2
ENTITIES
  0
TEXT
  5
2617
330
23E6
100
AcDbEntity
  8
1
 62
     3
100
AcDbText
 10
-163.8085141536138
 20
-303.3176004716021
 30
0.0
 40
8.0
  1
 
 41
0.9
100
AcDbText
  0
TEXT
  5
28C2
330
23E6
100
AcDbEntity
  8
1
 62
     0
100
AcDbText
 10
766.4260042995515
 20
717.4257288928199
 30
0.0
 40
13.0
  1
REMARKS:  M.H.C = MINIMUM HOUSING CLEARANCE
 41
0.9
100
AcDbText
  0
LINE
  5
28C3
330
23E6
100
AcDbEntity
  8
1
 62
     7
100
AcDbLine
 10
940.5574686528481
 20
885.7788426498693
 30
0.0
 11
902.3624686528487
 21
885.7788426498691
 31
0.0
  0
LINE
  5
28C4
330
23E6
100
AcDbEntity
  8
1
  6
CENTER
 62
     3
100
AcDbLine
 10
877.4482929963367
 20
1010.977842649869
 30
0.0
 11
1038.058633029248
 21
1010.977842649869
 31
0.0
  0
LINE
  5
28C5
330
23E6
100
AcDbEntity
  8
1
 62
     7
100
AcDbLine
 10
902.3624686528487
 20
1136.176842649869
 30
0.0
 11
940.5574686528481
 21
1136.176842649869
 31
0.0
  0
LINE
  5
28C6
330
23E6
100
AcDbEntity
  8
1
 62
     7
100
AcDbLine
 10
1009.617468652848
 20
1133.171842649869
 30
0.0
 11
902.8674686528486
 21
1133.171842649869
 31
0.0
  0
LINE
  5
28C7
330
23E6
100
AcDbEntity
  8
1
 62
     7
100
AcDbLine
 10
902.8674686528486
 20
888.7838426498692
 30
0.0
 11
1009.617468652848
 21
888.7838426498692
 31
0.0
  0
LINE
  5
28C8
330
23E6
100
AcDbEntity
  8
2
  6
CENTER
 62
     3
100
AcDbLine
 10
587.1174686528487
 20
830.9778453529272
 30
0.0
 11
587.1174686528487
 21
1190.977839947954
 31
0.0
  0
CIRCLE
  5
28C9
330
23E6
100
AcDbEntity
  8
1
 62
     7
100
AcDbCircle
 10
587.1174686528487
 20
1010.977842649869
 30
0.0
 40
78.9999988136804
  0
CIRCLE
  5
28CA
330
23E6
100
AcDbEntity
  8
1
 62
     7
100
AcDbCircle
 10
587.1174686528487
 20
1010.977842649869
 30
0.0
 40
39.99999939940522
  0
CIRCLE
  5
28CB
330
23E6
100
AcDbEntity
  8
1
 62
     7
100
AcDbCircle
 10
587.1174686528487
 20
1010.977842649869
 30
0.0
 40
135.9999979576267
  0
CIRCLE
  5
28CC
330
23E6
100
AcDbEntity
  8
1
 62
     7
100
AcDbCircle
 10
587.1174686528487
 20
1010.977842649869
 30
0.0
 40
164.9999975215934
  0
CIRCLE
  5
28CD
330
23E6
100
AcDbEntity
  8
1
  6
CENTER
 62
     3
100
AcDbCircle
 10
587.1174686528487
 20
1010.977842649869
 30
0.0
 40
65.0000000000001
  0
CIRCLE
  5
28CE
330
23E6
100
AcDbEntity
  8
1
 62
     7
100
AcDbCircle
 10
587.1174686528489
 20
1075.977842649869
 30
0.0
 40
10.99999999999997
  0
CIRCLE
  5
28CF
330
23E6
100
AcDbEntity
  8
1
 62
     7
100
AcDbCircle
 10
587.1174686528486
 20
945.9778426498694
 30
0.0
 40
10.99999999999998
  0
CIRCLE
  5
28D0
330
23E6
100
AcDbEntity
  8
1
  6
CENTER
 62
     3
100
AcDbCircle
 10
587.1174686528487
 20
1010.977842649869
 30
0.0
 40
150.0
  0
CIRCLE
  5
28D1
330
23E6
100
AcDbEntity
  8
1
 62
     7
100
AcDbCircle
 10
587.1174686528487
 20
1010.977842649869
 30
0.0
 40
128.0569999999999
  0
CIRCLE
  5
28D2
330
23E6
100
AcDbEntity
  8
1
 62
     7
100
AcDbCircle
 10
587.1174686528487
 20
1010.977842649869
 30
0.0
 40
125.1990000000001
  0
LINE
  5
28D3
330
23E6
100
AcDbEntity
  8
2
  6
CENTER
 62
     3
100
AcDbLine
 10
407.117471362536
 20
1010.977842649869
 30
0.0
 11
712.3164686528488
 21
1010.977842649869
 31
0.0
  0
CIRCLE
  5
28D4
330
23E6
100
AcDbEntity
  8
1
 62
     7
100
AcDbCircle
 10
554.6174686528488
 20
1067.269493895857
 30
0.0
 40
11.0
  0
LINE
  5
28D5
330
23E6
100
AcDbEntity
  8
1
  6
CENTER
 62
     3
100
AcDbLine
 10
564.4892173327639
 20
1050.171123622693
 30
0.0
 11
544.9236093830651
 21
1084.059750672545
 31
0.0
  0
CIRCLE
  5
28D6
330
23E6
100
AcDbEntity
  8
1
 62
     7
100
AcDbCircle
 10
554.6174686528486
 20
954.6861914038808
 30
0.0
 40
11.00000000000006
  0
CIRCLE
  5
28D7
330
23E6
100
AcDbEntity
  8
1
 62
     7
100
AcDbCircle
 10
448.5355387761557
 20
953.5753277951057
 30
0.0
 40
6.999999999999894
  0
LINE
  5
28D8
330
23E6
100
AcDbEntity
  8
1
  6
CENTER
 62
     3
100
AcDbLine
 10
564.4892173327639
 20
971.7845616770448
 30
0.0
 11
544.9236093830651
 21
937.8959346271928
 31
0.0
  0
LINE
  5
28D9
330
23E6
100
AcDbEntity
  8
1
  6
CENTER
 62
     3
100
AcDbLine
 10
438.8348036847872
 20
949.5571517552724
 30
0.0
 11
458.2362738675242
 21
957.5935038349392
 31
0.0
  0
CIRCLE
  5
28DA
330
23E6
100
AcDbEntity
  8
1
 62
     7
100
AcDbCircle
 10
481.0514514748668
 20
904.9118254718871
 30
0.0
 40
7.000000000000076
  0
LINE
  5
28DB
330
23E6
100
AcDbEntity
  8
1
  6
CENTER
 62
     3
100
AcDbLine
 10
473.6268302724083
 20
897.4872042694284
 30
0.0
 11
488.4760726773253
 21
912.3364466743458
 31
0.0
  0
CIRCLE
  5
28DC
330
23E6
100
AcDbEntity
  8
1
 62
     7
100
AcDbCircle
 10
529.7149537980852
 20
872.3959127731763
 30
0.0
 40
7.000000000000119
  0
LINE
  5
28DD
330
23E6
100
AcDbEntity
  8
1
  6
CENTER
 62
     3
100
AcDbLine
 10
525.6967777582518
 20
862.6951776818078
 30
0.0
 11
533.733129837919
 21
882.0966478645448
 31
0.0
  0
LINE
  5
28DE
330
23E6
100
AcDbEntity
  8
1
  6
CENTER
 62
     3
100
AcDbLine
 10
556.3907429353085
 20
856.5041609863603
 30
0.0
 11
559.3170977655505
 21
871.2159401924088
 31
0.0
  0
CIRCLE
  5
28DF
330
23E6
100
AcDbEntity
  8
1
 62
     7
100
AcDbCircle
 10
557.8539203504294
 20
863.8600505893847
 30
0.0
 40
4.800000000000125
  0
CIRCLE
  5
28E0
330
23E6
100
AcDbEntity
  8
1
 62
     3
100
AcDbCircle
 10
557.8539203504294
 20
863.8600505893847
 30
0.0
 40
6.0
  0
CIRCLE
  5
28E1
330
23E6
100
AcDbEntity
  8
1
 62
     7
100
AcDbCircle
 10
437.1174686528486
 20
1010.977842649869
 30
0.0
 40
7.0
  0
CIRCLE
  5
28E2
330
23E6
100
AcDbEntity
  8
1
 62
     7
100
AcDbCircle
 10
522.1174686528489
 20
1010.977842649869
 30
0.0
 40
11.0000000000001
  0
CIRCLE
  5
28E3
330
23E6
100
AcDbEntity
  8
1
 62
     7
100
AcDbCircle
 10
530.8258174068602
 20
978.4778426498695
 30
0.0
 40
11.0
  0
LINE
  5
28E4
330
23E6
100
AcDbEntity
  8
1
  6
CENTER
 62
     3
100
AcDbLine
 10
547.9241876800244
 20
988.3495913297842
 30
0.0
 11
514.0355606301725
 21
968.7839833800856
 31
0.0
  0
CIRCLE
  5
28E5
330
23E6
100
AcDbEntity
  8
1
 62
     7
100
AcDbCircle
 10
530.8258174068604
 20
1043.477842649869
 30
0.0
 40
10.99999999999997
  0
LINE
  5
28E6
330
23E6
100
AcDbEntity
  8
1
  6
CENTER
 62
     3
100
AcDbLine
 10
547.9241876800244
 20
1033.606093969954
 30
0.0
 11
514.0355606301725
 21
1053.171701919653
 31
0.0
  0
CIRCLE
  5
28E7
330
23E6
100
AcDbEntity
  8
1
 62
     7
100
AcDbCircle
 10
481.0514514748668
 20
1117.043859827851
 30
0.0
 40
7.000000000000111
  0
LINE
  5
28E8
330
23E6
100
AcDbEntity
  8
1
  6
CENTER
 62
     3
100
AcDbLine
 10
473.6268302724083
 20
1124.468481030309
 30
0.0
 11
488.4760726773253
 21
1109.619238625392
 31
0.0
  0
CIRCLE
  5
28E9
330
23E6
100
AcDbEntity
  8
1
 62
     7
100
AcDbCircle
 10
448.5355387761557
 20
1068.380357504632
 30
0.0
 40
7.000000000000076
  0
LINE
  5
28EA
330
23E6
100
AcDbEntity
  8
1
  6
CENTER
 62
     3
100
AcDbLine
 10
438.8348036847872
 20
1072.398533544465
 30
0.0
 11
458.2362738675242
 21
1064.362181464799
 31
0.0
  0
LINE
  5
28EB
330
23E6
100
AcDbEntity
  8
1
  6
CENTER
 62
     3
100
AcDbLine
 10
566.1061683354745
 20
1089.393082967397
 30
0.0
 11
570.7217288955376
 21
1072.167576451831
 31
0.0
  0
CIRCLE
  5
28EC
330
23E6
100
AcDbEntity
  8
1
 62
     7
100
AcDbCircle
 10
568.7413164505697
 20
1079.558576316393
 30
0.0
 40
3.800000000000006
  0
CIRCLE
  5
28ED
330
23E6
100
AcDbEntity
  8
1
 62
     3
100
AcDbCircle
 10
568.7413164505697
 20
1079.558576316393
 30
0.0
 40
5.0
  0
ARC
  5
28EE
330
23E6
100
AcDbEntity
  8
1
  6
CENTER
 62
     3
100
AcDbCircle
 10
587.117468652849
 20
1010.977842649867
 30
0.0
 40
71.00000000000129
100
AcDbArc
 50
98.68495716139538
 51
110.8731185409531
  0
CIRCLE
  5
28EF
330
23E6
100
AcDbEntity
  8
1
 62
     7
100
AcDbCircle
 10
529.7149537980852
 20
1149.559772526562
 30
0.0
 40
6.99999999999996
  0
LINE
  5
28F0
330
23E6
100
AcDbEntity
  8
1
  6
CENTER
 62
     3
100
AcDbLine
 10
525.6967777582518
 20
1159.26050761793
 30
0.0
 11
533.733129837919
 21
1139.859037435193
 31
0.0
  0
CIRCLE
  5
28F1
330
23E6
100
AcDbEntity
  8
1
 62
     7
100
AcDbCircle
 10
619.6174686528487
 20
1067.269493895857
 30
0.0
 40
10.99999999999986
  0
LINE
  5
28F2
330
23E6
100
AcDbEntity
  8
1
  6
CENTER
 62
     3
100
AcDbLine
 10
609.7457199729336
 20
1050.171123622693
 30
0.0
 11
629.3113279226325
 21
1084.059750672545
 31
0.0
  0
LINE
  5
28F3
330
23E6
100
AcDbEntity
  8
1
 62
     7
100
AcDbLine
 10
887.1174686528487
 20
931.4778426498692
 30
0.0
 11
887.1174686528487
 21
1086.977842649869
 31
0.0
  0
LINE
  5
28F4
330
23E6
100
AcDbEntity
  8
1
 62
     7
100
AcDbLine
 10
897.1174686528486
 20
894.5338426498691
 30
0.0
 11
897.1174686528486
 21
1127.421842649869
 31
0.0
  0
LINE
  5
28F5
330
23E6
100
AcDbEntity
  8
2
  6
CENTER
 62
     3
100
AcDbLine
 10
712.3164686528488
 20
1010.977842649869
 30
0.0
 11
767.1174659564963
 21
1010.977842649869
 31
0.0
  0
CIRCLE
  5
28F6
330
23E6
100
AcDbEntity
  8
1
 62
     7
100
AcDbCircle
 10
619.6174686528486
 20
954.6861914038807
 30
0.0
 40
11.0
  0
CIRCLE
  5
28F7
330
23E6
100
AcDbEntity
  8
1
 62
     7
100
AcDbCircle
 10
725.6993985295416
 20
953.5753277951057
 30
0.0
 40
7.000000000000079
  0
LINE
  5
28F8
330
23E6
100
AcDbEntity
  8
1
  6
CENTER
 62
     3
100
AcDbLine
 10
609.7457199729334
 20
971.7845616770448
 30
0.0
 11
629.3113279226324
 21
937.8959346271926
 31
0.0
  0
LINE
  5
28F9
330
23E6
100
AcDbEntity
  8
1
  6
CENTER
 62
     3
100
AcDbLine
 10
735.4001336209103
 20
949.5571517552724
 30
0.0
 11
715.9986634381732
 21
957.5935038349392
 31
0.0
  0
LINE
  5
28FA
330
23E6
100
AcDbEntity
  8
1
  6
CENTER
 62
     3
100
AcDbLine
 10
608.0678390611744
 20
932.7899958486096
 30
0.0
 11
602.7733870304905
 21
952.5491598253585
 31
0.0
  0
CIRCLE
  5
28FB
330
23E6
100
AcDbEntity
  8
1
 62
     7
100
AcDbCircle
 10
587.1174686528487
 20
860.9778426498692
 30
0.0
 40
7.0
  0
CIRCLE
  5
28FC
330
23E6
100
AcDbEntity
  8
1
 62
     7
100
AcDbCircle
 10
644.519983507612
 20
872.3959127731761
 30
0.0
 40
7.000000000000111
  0
LINE
  5
28FD
330
23E6
100
AcDbEntity
  8
1
  6
CENTER
 62
     3
100
AcDbLine
 10
648.5381595474454
 20
862.6951776818078
 30
0.0
 11
640.5018074677786
 21
882.0966478645447
 31
0.0
  0
ARC
  5
28FE
330
23E6
100
AcDbEntity
  8
1
  6
CENTER
 62
     3
100
AcDbCircle
 10
587.117468652849
 20
1010.977842649867
 30
0.0
 40
71.00000000000121
100
AcDbArc
 50
278.9454980476945
 51
290.7625029287532
  0
CIRCLE
  5
28FF
330
23E6
100
AcDbEntity
  8
1
 62
     3
100
AcDbCircle
 10
605.4936208551283
 20
942.3971089833431
 30
0.0
 40
5.0
  0
CIRCLE
  5
2900
330
23E6
100
AcDbEntity
  8
1
 62
     7
100
AcDbCircle
 10
605.4936208551283
 20
942.3971089833431
 30
0.0
 40
3.800000000000068
  0
CIRCLE
  5
2901
330
23E6
100
AcDbEntity
  8
1
 62
     7
100
AcDbCircle
 10
693.1834858308307
 20
904.9118254718871
 30
0.0
 40
7.000000000000023
  0
LINE
  5
2902
330
23E6
100
AcDbEntity
  8
1
  6
CENTER
 62
     3
100
AcDbLine
 10
700.6081070332895
 20
897.4872042694283
 30
0.0
 11
685.758864628372
 21
912.3364466743458
 31
0.0
  0
CIRCLE
  5
2903
330
23E6
100
AcDbEntity
  8
1
 62
     7
100
AcDbCircle
 10
652.1174686528487
 20
1010.977842649868
 30
0.0
 40
10.99999999999988
  0
CIRCLE
  5
2904
330
23E6
100
AcDbEntity
  8
1
 62
     7
100
AcDbCircle
 10
643.4091198988372
 20
978.4778426498689
 30
0.0
 40
10.99999999999996
  0
LINE
  5
2905
330
23E6
100
AcDbEntity
  8
1
  6
CENTER
 62
     3
100
AcDbLine
 10
626.3107496256732
 20
988.3495913297842
 30
0.0
 11
660.1993766755253
 21
968.7839833800854
 31
0.0
  0
CIRCLE
  5
2906
330
23E6
100
AcDbEntity
  8
1
 62
     7
100
AcDbCircle
 10
643.4091198988373
 20
1043.477842649869
 30
0.0
 40
11.0
  0
LINE
  5
2907
330
23E6
100
AcDbEntity
  8
1
  6
CENTER
 62
     3
100
AcDbLine
 10
626.3107496256732
 20
1033.606093969954
 30
0.0
 11
660.1993766755253
 21
1053.171701919653
 31
0.0
  0
CIRCLE
  5
2908
330
23E6
100
AcDbEntity
  8
1
 62
     7
100
AcDbCircle
 10
737.1174686528487
 20
1010.977842649869
 30
0.0
 40
7.0
  0
LINE
  5
2909
330
23E6
100
AcDbEntity
  8
1
 62
     7
100
AcDbLine
 10
894.1124686528485
 20
929.9778426498692
 30
0.0
 11
894.1124686528485
 21
894.0288426498691
 31
0.0
  0
LINE
  5
290A
330
23E6
100
AcDbEntity
  8
1
  6
DIVIDE
 62
     7
100
AcDbLine
 10
890.1174685613439
 20
878.4778426498691
 30
0.0
 11
890.1174685613439
 21
900.5543428402779
 31
0.0
  0
LINE
  5
290B
330
23E6
100
AcDbEntity
  8
1
  6
DIVIDE
 62
     7
100
AcDbLine
 10
919.894033202263
 20
878.4778426498691
 30
0.0
 11
890.1174685613439
 21
878.4778426498691
 31
0.0
  0
ARC
  5
290C
330
23E6
100
AcDbEntity
  8
1
 62
     7
100
AcDbCircle
 10
902.3624686528487
 20
894.0288426498691
 30
0.0
 40
8.250000000000001
100
AcDbArc
 50
180.0
 51
270.0
  0
ARC
  5
290D
330
23E6
100
AcDbEntity
  8
1
 62
     7
100
AcDbCircle
 10
902.8674686528486
 20
894.5338426498691
 30
0.0
 40
5.749999999999982
100
AcDbArc
 50
180.0
 51
270.0
  0
LINE
  5
290E
330
23E6
100
AcDbEntity
  8
1
  6
CENTER
 62
     3
100
AcDbLine
 10
885.1174686528487
 20
939.9778426498691
 30
0.0
 11
899.1174686528488
 21
939.9778426498691
 31
0.0
  0
LINE
  5
290F
330
23E6
100
AcDbEntity
  8
1
 62
     3
100
AcDbLine
 10
887.1174686528487
 20
934.9778426498692
 30
0.0
 11
897.1174686528486
 21
934.9778426498692
 31
0.0
  0
LINE
  5
2910
330
23E6
100
AcDbEntity
  8
1
 62
     7
100
AcDbLine
 10
887.1174686528487
 20
935.9778426498692
 30
0.0
 11
897.1174686528486
 21
935.9778426498692
 31
0.0
  0
ARC
  5
2911
330
23E6
100
AcDbEntity
  8
1
 62
     7
100
AcDbCircle
 10
893.1124686528486
 20
929.9778426498692
 30
0.0
 40
1.0
100
AcDbArc
 50
0.0
 51
90.0
  0
LINE
  5
2912
330
23E6
100
AcDbEntity
  8
1
 62
     7
100
AcDbLine
 10
893.1124686528486
 20
930.9778426498692
 30
0.0
 11
887.6174686528488
 21
930.9778426498692
 31
0.0
  0
LINE
  5
2913
330
23E6
100
AcDbEntity
  8
1
 62
     7
100
AcDbLine
 10
887.1174686528487
 20
931.4778426498692
 30
0.0
 11
887.6174686528488
 21
930.9778426498692
 31
0.0
  0
LINE
  5
2914
330
23E6
100
AcDbEntity
  8
1
 62
     3
100
AcDbLine
 10
887.1174686528487
 20
944.9778426498692
 30
0.0
 11
897.1174686528486
 21
944.9778426498692
 31
0.0
  0
LINE
  5
2915
330
23E6
100
AcDbEntity
  8
1
 62
     7
100
AcDbLine
 10
887.1174686528487
 20
943.9778426498692
 30
0.0
 11
897.1174686528486
 21
943.9778426498692
 31
0.0
  0
LINE
  5
2916
330
23E6
100
AcDbEntity
  8
1
 62
     7
100
AcDbLine
 10
887.1174686528487
 20
970.9778426498692
 30
0.0
 11
897.1174686528486
 21
970.9778426498692
 31
0.0
  0
LINE
  5
2917
330
23E6
100
AcDbEntity
  8
1
 62
     7
100
AcDbLine
 10
897.1174686528486
 20
1050.977842649869
 30
0.0
 11
887.1174686528487
 21
1050.977842649869
 31
0.0
  0
CIRCLE
  5
2918
330
23E6
100
AcDbEntity
  8
1
 62
     3
100
AcDbCircle
 10
616.381016955268
 20
1158.095634710353
 30
0.0
 40
6.000000000000056
  0
CIRCLE
  5
2919
330
23E6
100
AcDbEntity
  8
1
 62
     7
100
AcDbCircle
 10
587.1174686528487
 20
1160.977842649869
 30
0.0
 40
7.0
  0
CIRCLE
  5
291A
330
23E6
100
AcDbEntity
  8
1
 62
     7
100
AcDbCircle
 10
616.381016955268
 20
1158.095634710353
 30
0.0
 40
4.799999999999955
  0
LINE
  5
291B
330
23E6
100
AcDbEntity
  8
1
  6
CENTER
 62
     3
100
AcDbLine
 10
617.844194370389
 20
1165.451524313378
 30
0.0
 11
614.917839540147
 21
1150.739745107329
 31
0.0
  0
LINE
  5
291C
330
23E6
100
AcDbEntity
  8
1
  6
CENTER
 62
     3
100
AcDbLine
 10
648.5381595474456
 20
1159.26050761793
 30
0.0
 11
640.5018074677788
 21
1139.859037435193
 31
0.0
  0
CIRCLE
  5
291D
330
23E6
100
AcDbEntity
  8
1
 62
     7
100
AcDbCircle
 10
644.5199835076122
 20
1149.559772526562
 30
0.0
 40
7.000000000000023
  0
CIRCLE
  5
291E
330
23E6
100
AcDbEntity
  8
1
 62
     7
100
AcDbCircle
 10
693.1834858308308
 20
1117.043859827851
 30
0.0
 40
6.99999999999996
  0
LINE
  5
291F
330
23E6
100
AcDbEntity
  8
1
  6
CENTER
 62
     3
100
AcDbLine
 10
700.6081070332896
 20
1124.468481030309
 30
0.0
 11
685.758864628372
 21
1109.619238625392
 31
0.0
  0
CIRCLE
  5
2920
330
23E6
100
AcDbEntity
  8
1
 62
     7
100
AcDbCircle
 10
725.6993985295416
 20
1068.380357504632
 30
0.0
 40
6.999999999999959
  0
LINE
  5
2921
330
23E6
100
AcDbEntity
  8
1
  6
CENTER
 62
     3
100
AcDbLine
 10
735.4001336209103
 20
1072.398533544465
 30
0.0
 11
715.9986634381732
 21
1064.362181464799
 31
0.0
  0
LINE
  5
2922
330
23E6
100
AcDbEntity
  8
1
 62
     7
100
AcDbLine
 10
894.1124686528485
 20
1127.926842649869
 30
0.0
 11
894.1124686528485
 21
1091.977842649869
 31
0.0
  0
LINE
  5
2923
330
23E6
100
AcDbEntity
  8
1
 62
     7
100
AcDbLine
 10
887.1174686528487
 20
1086.977842649869
 30
0.0
 11
887.1174686528487
 21
1090.477842649869
 31
0.0
  0
LINE
  5
2924
330
23E6
100
AcDbEntity
  8
1
 62
     7
100
AcDbLine
 10
887.1174686528487
 20
1064.977842649869
 30
0.0
 11
897.1174686528486
 21
1064.977842649869
 31
0.0
  0
LINE
  5
2925
330
23E6
100
AcDbEntity
  8
1
  6
CENTER
 62
     3
100
AcDbLine
 10
886.1174686528487
 20
1075.977842649869
 30
0.0
 11
898.1174686528488
 21
1075.977842649869
 31
0.0
  0
LINE
  5
2926
330
23E6
100
AcDbEntity
  8
1
 62
     7
100
AcDbLine
 10
887.1174686528487
 20
1086.977842649869
 30
0.0
 11
897.1174686528486
 21
1086.977842649869
 31
0.0
  0
ARC
  5
2927
330
23E6
100
AcDbEntity
  8
1
 62
     7
100
AcDbCircle
 10
893.1124686528486
 20
1091.977842649869
 30
0.0
 40
1.0
100
AcDbArc
 50
270.0
 51
0.0
  0
LINE
  5
2928
330
23E6
100
AcDbEntity
  8
1
 62
     7
100
AcDbLine
 10
887.6174686528488
 20
1090.977842649869
 30
0.0
 11
893.1124686528486
 21
1090.977842649869
 31
0.0
  0
LINE
  5
2929
330
23E6
100
AcDbEntity
  8
1
 62
     7
100
AcDbLine
 10
887.6174686528488
 20
1090.977842649869
 30
0.0
 11
887.1174686528487
 21
1090.477842649869
 31
0.0
  0
LINE
  5
292A
330
23E6
100
AcDbEntity
  8
1
  6
DIVIDE
 62
     7
100
AcDbLine
 10
890.1174685613439
 20
1121.40134245946
 30
0.0
 11
890.1174685613439
 21
1143.477842649869
 31
0.0
  0
ARC
  5
292B
330
23E6
100
AcDbEntity
  8
1
 62
     7
100
AcDbCircle
 10
902.8674686528486
 20
1127.421842649869
 30
0.0
 40
5.75
100
AcDbArc
 50
90.0
 51
180.0
  0
ARC
  5
292C
330
23E6
100
AcDbEntity
  8
1
 62
     7
100
AcDbCircle
 10
902.3624686528487
 20
1127.926842649869
 30
0.0
 40
8.25
100
AcDbArc
 50
90.0
 51
180.0
  0
LINE
  5
292D
330
23E6
100
AcDbEntity
  8
1
  6
DIVIDE
 62
     7
100
AcDbLine
 10
890.1174685613439
 20
1143.477842649869
 30
0.0
 11
919.894033202263
 21
1143.477842649869
 31
0.0
  0
LINE
  5
292E
330
23E6
100
AcDbEntity
  8
2
  6
CENTER
 62
     3
100
AcDbLine
 10
1312.117468652409
 20
830.9778453529272
 30
0.0
 11
1312.117468652409
 21
1190.977839947954
 31
0.0
  0
TEXT
  5
292F
330
23E6
100
AcDbEntity
  8
1
 62
     0
100
AcDbText
 10
1217.700951245373
 20
729.4053889015489
 30
0.0
 40
18.0
  1
CSF-100-XXX-2A-GR.dxf
 41
0.9
 72
     1
 11
1339.63349913666
 21
738.4053889015489
 31
0.0
100
AcDbText
 73
     2
  0
TEXT
  5
2930
330
23E6
100
AcDbEntity
  8
1
 62
     0
100
AcDbText
 10
1309.708481039225
 20
685.5102353241313
 30
0.0
 40
20.4
  1
2002/3
 41
0.9
 72
     1
 11
1348.411614916255
 21
695.7102353241313
 31
0.0
100
AcDbText
 73
     2
  0
CIRCLE
  5
2931
330
23E6
100
AcDbEntity
  8
0
 62
     7
100
AcDbCircle
 10
1312.117468652409
 20
1010.977842649869
 30
0.0
 40
122.707498157075
  0
CIRCLE
  5
2932
330
23E6
100
AcDbEntity
  8
0
 62
     7
100
AcDbCircle
 10
1312.117468652409
 20
1010.977842649869
 30
0.0
 40
116.5874982492423
  0
CIRCLE
  5
2933
330
23E6
100
AcDbEntity
  8
0
 62
     7
100
AcDbCircle
 10
1312.117468652409
 20
1010.977842649869
 30
0.0
 40
95.24999856939336
  0
CIRCLE
  5
2934
330
23E6
100
AcDbEntity
  8
0
 62
     7
100
AcDbCircle
 10
1312.117468652409
 20
1010.977842649869
 30
0.0
 40
88.89999866456387
  0
CIRCLE
  5
2935
330
23E6
100
AcDbEntity
  8
1
 62
     7
100
AcDbCircle
 10
1312.117468652409
 20
1010.977842649869
 30
0.0
 40
32.49999951253108
  0
CIRCLE
  5
2936
330
23E6
100
AcDbEntity
  8
1
 62
     7
100
AcDbCircle
 10
1312.117468652409
 20
1010.977842649869
 30
0.0
 40
164.9999975220508
  0
CIRCLE
  5
2937
330
23E6
100
AcDbEntity
  8
1
 62
     7
100
AcDbCircle
 10
1282.85392034999
 20
1158.095634710353
 30
0.0
 40
4.0
  0
CIRCLE
  5
2938
330
23E6
100
AcDbEntity
  8
1
 62
     3
100
AcDbCircle
 10
1282.85392034999
 20
1158.095634710353
 30
0.0
 40
5.5
  0
CIRCLE
  5
2939
330
23E6
100
AcDbEntity
  8
1
 62
     7
100
AcDbCircle
 10
1282.85392034999
 20
1158.095634710353
 30
0.0
 40
7.0
  0
CIRCLE
  5
293A
330
23E6
100
AcDbEntity
  8
1
 62
     7
100
AcDbCircle
 10
1312.117468652409
 20
1010.977842649869
 30
0.0
 40
128.0569999999999
  0
CIRCLE
  5
293B
330
23E6
100
AcDbEntity
  8
1
 62
     7
100
AcDbCircle
 10
1312.117468652409
 20
1010.977842649869
 30
0.0
 40
125.7209999998659
  0
CIRCLE
  5
293C
330
23E6
100
AcDbEntity
  8
1
  6
CENTER
 62
     3
100
AcDbCircle
 10
1312.117468652409
 20
1010.977842649869
 30
0.0
 40
149.9999999999998
  0
ARC
  5
293D
330
23E6
100
AcDbEntity
  8
0
 62
     7
100
AcDbCircle
 10
1312.117468652414
 20
1012.873967621453
 30
0.0
 40
35.91802446039501
100
AcDbArc
 50
90.00000000000651
 51
250.7303611220291
  0
ARC
  5
293E
330
23E6
100
AcDbEntity
  8
0
 62
     7
100
AcDbCircle
 10
1269.784395447613
 20
913.525428241947
 30
0.0
 40
13.20999980143488
100
AcDbArc
 50
303.3220639265333
 51
21.82001746899295
  0
ARC
  5
293F
330
23E6
100
AcDbEntity
  8
0
 62
     7
100
AcDbCircle
 10
1312.117468652404
 20
1010.97784264987
 30
0.0
 40
114.019998287279
100
AcDbArc
 50
252.0834022481234
 51
256.6085977556876
  0
ARC
  5
2940
330
23E6
100
AcDbEntity
  8
0
 62
     7
100
AcDbCircle
 10
1283.565186109224
 20
1112.883464306268
 30
0.0
 40
11.90624982115426
100
AcDbArc
 50
132.37562623909
 51
259.8683383312262
  0
ARC
  5
2941
330
23E6
100
AcDbEntity
  8
0
 62
     7
100
AcDbCircle
 10
1269.951735595065
 20
913.9106519041074
 30
0.0
 40
11.90624982120836
100
AcDbArc
 50
273.2436262408363
 51
40.73633833061173
  0
ARC
  5
2942
330
23E6
100
AcDbEntity
  8
1
 62
     7
100
AcDbCircle
 10
1312.117468209307
 20
1010.977842774075
 30
0.0
 40
38.49999942100209
100
AcDbArc
 50
74.35905678837777
 51
254.3590567883777
  0
LINE
  5
2943
330
23E6
100
AcDbEntity
  8
2
  6
CENTER
 62
     3
100
AcDbLine
 10
1132.117471363316
 20
1010.977842649869
 30
0.0
 11
1492.117465957505
 21
1010.977842649869
 31
0.0
  0
LINE
  5
2944
330
23E6
100
AcDbEntity
  8
1
  6
CENTER
 62
     3
100
AcDbLine
 10
1285.377822963024
 20
1145.407119429568
 30
0.0
 11
1279.724987528858
 21
1173.825842250238
 31
0.0
  0
ARC
  5
2945
330
23E6
100
AcDbEntity
  8
0
 62
     7
100
AcDbCircle
 10
1218.153168556768
 20
1059.667665724991
 30
0.0
 40
11.90624982046464
100
AcDbArc
 50
358.3916616683684
 51
125.8843737613907
  0
LINE
  5
2946
330
23E6
100
AcDbEntity
  8
0
 62
     7
100
AcDbLine
 10
978.2174686528488
 20
1044.477842146658
 30
0.0
 11
978.2174686528488
 21
1099.877841314433
 31
0.0
  0
LINE
  5
2947
330
23E6
100
AcDbEntity
  8
0
 62
     7
100
AcDbLine
 10
1003.817468652848
 20
1099.877841314433
 30
0.0
 11
1003.817468652848
 21
1044.477842146658
 31
0.0
  0
LINE
  5
2948
330
23E6
100
AcDbEntity
  8
0
 62
     7
100
AcDbLine
 10
988.4399689649816
 20
1044.477842146658
 30
0.0
 11
988.4399689649816
 21
1099.877841314433
 31
0.0
  0
LINE
  5
2949
330
23E6
100
AcDbEntity
  8
0
 62
     7
100
AcDbLine
 10
970.2174686528488
 20
1087.227842649869
 30
0.0
 11
970.2174686528488
 21
1045.977842124174
 31
0.0
  0
LINE
  5
294A
330
23E6
100
AcDbEntity
  8
1
 62
     7
100
AcDbLine
 10
959.9174686528485
 20
1087.227842649869
 30
0.0
 11
959.9174686528485
 21
1043.477842649869
 31
0.0
  0
LINE
  5
294B
330
23E6
100
AcDbEntity
  8
0
 62
     7
100
AcDbLine
 10
988.239968968182
 20
1086.977841508185
 30
0.0
 11
988.2399689681362
 21
1056.727841962595
 31
0.0
  0
LINE
  5
294C
330
23E6
100
AcDbEntity
  8
0
 62
     7
100
AcDbLine
 10
978.2174686528488
 20
977.4778431531562
 30
0.0
 11
978.2174686528488
 21
922.077843985356
 31
0.0
  0
LINE
  5
294D
330
23E6
100
AcDbEntity
  8
0
 62
     7
100
AcDbLine
 10
1003.817468652848
 20
922.077843985356
 30
0.0
 11
1003.817468652848
 21
977.4778431531562
 31
0.0
  0
LINE
  5
294E
330
23E6
100
AcDbEntity
  8
0
 62
     7
100
AcDbLine
 10
970.2174686528488
 20
934.7278426498691
 30
0.0
 11
970.2174686528488
 21
975.9778431756915
 31
0.0
  0
LINE
  5
294F
330
23E6
100
AcDbEntity
  8
1
 62
     7
100
AcDbLine
 10
959.9174686528485
 20
934.7278426498691
 30
0.0
 11
959.9174686528485
 21
978.4778426498691
 31
0.0
  0
LINE
  5
2950
330
23E6
100
AcDbEntity
  8
0
 62
     7
100
AcDbLine
 10
960.2399693884992
 20
970.9778432508088
 30
0.0
 11
960.2399693883976
 21
934.9778437916546
 31
0.0
  0
LINE
  5
2951
330
23E6
100
AcDbEntity
  8
1
  6
CENTER
 62
     3
100
AcDbLine
 10
959.1947484557049
 20
860.9778426498692
 30
0.0
 11
1023.153738942453
 21
860.9778426498692
 31
0.0
  0
CIRCLE
  5
2952
330
23E6
100
AcDbEntity
  8
1
 62
     7
100
AcDbCircle
 10
991.1199686528489
 20
905.1343426498693
 30
0.0
 40
11.90625000000011
  0
LINE
  5
2953
330
23E6
100
AcDbEntity
  8
1
 62
     7
100
AcDbLine
 10
974.4937186528487
 20
905.5099962218946
 30
0.0
 11
974.4937186528487
 21
897.9443426498692
 31
0.0
  0
LINE
  5
2954
330
23E6
100
AcDbEntity
  8
1
 62
     7
100
AcDbLine
 10
978.9137186528487
 20
896.9443426498692
 30
0.0
 11
978.9137186528487
 21
913.6543426498691
 31
0.0
  0
LINE
  5
2955
330
23E6
100
AcDbEntity
  8
1
 62
     7
100
AcDbLine
 10
1009.217468652848
 20
914.4127473133574
 30
0.0
 11
1009.217468652848
 21
889.6228680536538
 31
0.0
  0
LINE
  5
2956
330
23E6
100
AcDbEntity
  8
1
 62
     7
100
AcDbLine
 10
973.0224686528487
 20
889.6228680536538
 30
0.0
 11
973.0224686528487
 21
914.4127473133574
 31
0.0
  0
LINE
  5
2957
330
23E6
100
AcDbEntity
  8
1
 62
     7
100
AcDbLine
 10
1012.117468652848
 20
920.7490543634468
 30
0.0
 11
1012.117468652848
 21
887.9885480049612
 31
0.0
  0
LINE
  5
2958
330
23E6
100
AcDbEntity
  8
1
  6
DIVIDE
 62
     7
100
AcDbLine
 10
1015.117468652947
 20
878.4778426498691
 30
0.0
 11
1015.117468652947
 21
900.5543428402912
 31
0.0
  0
LINE
  5
2959
330
23E6
100
AcDbEntity
  8
0
 62
     7
100
AcDbLine
 10
960.1174686522464
 20
882.9208426498691
 30
0.0
 11
1012.117468653047
 21
882.9208426498691
 31
0.0
  0
LINE
  5
295A
330
23E6
100
AcDbEntity
  8
1
 62
     7
100
AcDbLine
 10
973.6224686528489
 20
894.3768426498692
 30
0.0
 11
973.0224686528487
 21
893.7768426498692
 31
0.0
  0
LINE
  5
295B
330
23E6
100
AcDbEntity
  8
1
 62
     7
100
AcDbLine
 10
974.5224686528487
 20
888.7568426498692
 30
0.0
 11
973.0224686528487
 21
889.6228680536538
 31
0.0
  0
LINE
  5
295C
330
23E6
100
AcDbEntity
  8
0
 62
     7
100
AcDbLine
 10
1011.71746865833
 20
845.9778451284915
 30
0.0
 11
966.5174685554356
 21
845.9778451282375
 31
0.0
  0
LINE
  5
295D
330
23E6
100
AcDbEntity
  8
0
 62
     7
100
AcDbLine
 10
961.2488394852835
 20
885.256842650085
 30
0.0
 11
1010.986097820182
 21
885.2568426495771
 31
0.0
  0
LINE
  5
295E
330
23E6
100
AcDbEntity
  8
1
 62
     7
100
AcDbLine
 10
966.1174685613435
 20
853.9778426498694
 30
0.0
 11
1012.117468652848
 21
853.9778426498694
 31
0.0
  0
LINE
  5
295F
330
23E6
100
AcDbEntity
  8
1
 62
     7
100
AcDbLine
 10
966.1174685613435
 20
867.9778426498693
 30
0.0
 11
1012.117468652759
 21
867.9778426498693
 31
0.0
  0
LINE
  5
2960
330
23E6
100
AcDbEntity
  8
1
 62
     7
100
AcDbLine
 10
967.2020135917286
 20
883.1638426498692
 30
0.0
 11
987.1174686528489
 21
882.9208426498691
 31
0.0
  0
LINE
  5
2961
330
23E6
100
AcDbEntity
  8
0
 62
     7
100
AcDbLine
 10
966.1174685613435
 20
846.3778451218217
 30
0.0
 11
966.1174685613435
 21
874.677844697368
 31
0.0
  0
LINE
  5
2962
330
23E6
100
AcDbEntity
  8
0
 62
     7
100
AcDbLine
 10
966.5174685554356
 20
845.9778451282375
 30
0.0
 11
966.1174685613435
 21
846.3778451218217
 31
0.0
  0
ARC
  5
2963
330
23E6
100
AcDbEntity
  8
1
 62
     7
100
AcDbCircle
 10
944.2427445780049
 20
786.2788426498692
 30
0.0
 40
99.56822414126177
100
AcDbArc
 50
76.66828923636451
 51
92.12114857651144
  0
LINE
  5
2964
330
23E6
100
AcDbEntity
  8
0
 62
     7
100
AcDbLine
 10
960.1174686585963
 20
884.1254718099358
 30
0.0
 11
961.2488394852835
 21
885.256842650085
 31
0.0
  0
LINE
  5
2965
330
23E6
100
AcDbEntity
  8
0
 62
     7
100
AcDbLine
 10
965.8174685656472
 20
874.9778446933182
 30
0.0
 11
960.9174686394146
 21
874.9778446928102
 31
0.0
  0
LINE
  5
2966
330
23E6
100
AcDbEntity
  8
0
 62
     7
100
AcDbLine
 10
960.9174686394146
 20
874.9778446928102
 30
0.0
 11
960.1174686514847
 21
875.7778446804866
 31
0.0
  0
LINE
  5
2967
330
23E6
100
AcDbEntity
  8
0
 62
     7
100
AcDbLine
 10
960.1174686514847
 20
875.7778446804866
 30
0.0
 11
960.1174686525004
 21
884.1254718170475
 31
0.0
  0
ARC
  5
2968
330
23E6
100
AcDbEntity
  8
0
 62
     7
100
AcDbCircle
 10
965.8174685659011
 20
874.677844697876
 30
0.0
 40
0.299999995442306
100
AcDbArc
 50
359.9999999029773
 51
90.00000004848203
  0
LINE
  5
2969
330
23E6
100
AcDbEntity
  8
0
 62
     7
100
AcDbLine
 10
1012.117468653048
 20
884.1254718170475
 30
0.0
 11
1012.117468652759
 21
867.9778426498693
 31
0.0
  0
LINE
  5
296A
330
23E6
100
AcDbEntity
  8
0
 62
     7
100
AcDbLine
 10
1012.117468652848
 20
867.9778426498693
 30
0.0
 11
1012.117468652848
 21
853.9778426498694
 31
0.0
  0
LINE
  5
296B
330
23E6
100
AcDbEntity
  8
0
 62
     7
100
AcDbLine
 10
1012.117468652616
 20
846.3778451220758
 30
0.0
 11
1011.71746865833
 21
845.9778451284915
 31
0.0
  0
LINE
  5
296C
330
23E6
100
AcDbEntity
  8
0
 62
     7
100
AcDbLine
 10
1012.117468652756
 20
853.9778426498694
 30
0.0
 11
1012.117468652616
 21
846.3778451220758
 31
0.0
  0
LINE
  5
296D
330
23E6
100
AcDbEntity
  8
1
 62
     7
100
AcDbLine
 10
1007.717468652848
 20
888.7568426498692
 30
0.0
 11
974.5224686528487
 21
888.7568426498692
 31
0.0
  0
LINE
  5
296E
330
23E6
100
AcDbEntity
  8
1
 62
     7
100
AcDbLine
 10
987.1174686528489
 20
882.9208426498691
 30
0.0
 11
999.1174686528486
 21
882.9208426498691
 31
0.0
  0
LINE
  5
296F
330
23E6
100
AcDbEntity
  8
1
 62
     7
100
AcDbLine
 10
986.0175199453651
 20
894.3768426498692
 30
0.0
 11
973.6224686528489
 21
894.3768426498692
 31
0.0
  0
ARC
  5
2970
330
23E6
100
AcDbEntity
  8
1
 62
     7
100
AcDbCircle
 10
975.4937186528485
 20
897.9443426498692
 30
0.0
 40
1.0
100
AcDbArc
 50
180.0
 51
270.0
  0
LINE
  5
2971
330
23E6
100
AcDbEntity
  8
1
 62
     7
100
AcDbLine
 10
982.392621968766
 20
897.0354409392466
 30
0.0
 11
978.9137186528487
 21
896.9443426498692
 31
0.0
  0
LINE
  5
2972
330
23E6
100
AcDbEntity
  8
1
 62
     7
100
AcDbLine
 10
978.9137186528487
 20
896.9443426498692
 30
0.0
 11
975.4937186528485
 21
896.9443426498692
 31
0.0
  0
LINE
  5
2973
330
23E6
100
AcDbEntity
  8
0
 62
     7
100
AcDbLine
 10
1010.986097820182
 20
885.2568426495771
 30
0.0
 11
1012.117468653048
 21
884.1254718170475
 31
0.0
  0
LINE
  5
2974
330
23E6
100
AcDbEntity
  8
1
 62
     7
100
AcDbLine
 10
1011.912443399679
 20
886.2728173966997
 30
0.0
 11
1008.668830059611
 21
883.0292040566318
 31
0.0
  0
LINE
  5
2975
330
23E6
100
AcDbEntity
  8
1
 62
     7
100
AcDbLine
 10
1008.668830059611
 20
883.0292040566318
 30
0.0
 11
999.1174686528486
 21
882.9208426498691
 31
0.0
  0
LINE
  5
2976
330
23E6
100
AcDbEntity
  8
1
  6
DIVIDE
 62
     7
100
AcDbLine
 10
1012.117468652947
 20
878.4778426498691
 30
0.0
 11
1015.117468652947
 21
878.4778426498691
 31
0.0
  0
LINE
  5
2977
330
23E6
100
AcDbEntity
  8
1
 62
     7
100
AcDbLine
 10
1008.617468652848
 20
894.3768426498692
 30
0.0
 11
996.2224173603322
 21
894.3768426498692
 31
0.0
  0
ARC
  5
2978
330
23E6
100
AcDbEntity
  8
1
 62
     7
100
AcDbCircle
 10
1011.417468652848
 20
886.7677921435303
 30
0.0
 40
0.7000000000002348
100
AcDbArc
 50
315.0000000000184
 51
0.0
  0
ARC
  5
2979
330
23E6
100
AcDbEntity
  8
1
 62
     7
100
AcDbCircle
 10
1011.417468652848
 20
887.9885480049612
 30
0.0
 40
0.7000000000003013
100
AcDbArc
 50
0.0
 51
86.99999999998773
  0
LINE
  5
297A
330
23E6
100
AcDbEntity
  8
1
 62
     7
100
AcDbLine
 10
1009.217468652848
 20
889.6228680536538
 30
0.0
 11
1007.717468652848
 21
888.7568426498692
 31
0.0
  0
LINE
  5
297B
330
23E6
100
AcDbEntity
  8
1
 62
     7
100
AcDbLine
 10
1009.217468652848
 20
893.7768426498692
 30
0.0
 11
1008.617468652848
 21
894.3768426498692
 31
0.0
  0
LINE
  5
297C
330
23E6
100
AcDbEntity
  8
1
 62
     7
100
AcDbLine
 10
1012.117468652848
 20
887.9885480049612
 30
0.0
 11
1012.117468652848
 21
886.7677921435303
 31
0.0
  0
LINE
  5
297D
330
23E6
100
AcDbEntity
  8
1
 62
     7
100
AcDbLine
 10
1011.454103822218
 20
888.6875886792894
 30
0.0
 11
1009.617468652848
 21
888.7838426498692
 31
0.0
  0
LINE
  5
297E
330
23E6
100
AcDbEntity
  8
0
 62
     7
100
AcDbLine
 10
978.2174686527165
 20
934.9778437914006
 30
0.0
 11
972.7399692006519
 21
934.9778437914006
 31
0.0
  0
LINE
  5
297F
330
23E6
100
AcDbEntity
  8
0
 62
     7
100
AcDbLine
 10
972.7399692006519
 20
934.9778437914006
 30
0.0
 11
972.739969200594
 21
907.9778441970349
 31
0.0
  0
LINE
  5
2980
330
23E6
100
AcDbEntity
  8
0
 62
     7
100
AcDbLine
 10
970.3399692366531
 20
907.9778441970349
 30
0.0
 11
970.3399692366993
 21
934.9778437914006
 31
0.0
  0
LINE
  5
2981
330
23E6
100
AcDbEntity
  8
0
 62
     7
100
AcDbLine
 10
972.739969200594
 20
907.9778441970349
 30
0.0
 11
970.3399692366531
 21
907.9778441970349
 31
0.0
  0
LINE
  5
2982
330
23E6
100
AcDbEntity
  8
1
 62
     7
100
AcDbLine
 10
970.2174686528488
 20
934.7278426498691
 30
0.0
 11
959.9174686528485
 21
934.7278426498691
 31
0.0
  0
LINE
  5
2983
330
23E6
100
AcDbEntity
  8
0
 62
     7
100
AcDbLine
 10
960.2399693883976
 20
934.9778437916546
 30
0.0
 11
970.2174686526406
 21
934.9778437916546
 31
0.0
  0
LINE
  5
2984
330
23E6
100
AcDbEntity
  8
0
 62
     7
100
AcDbLine
 10
970.3399692366993
 20
934.9778437914006
 30
0.0
 11
970.2174686526406
 21
934.9778437914006
 31
0.0
  0
LINE
  5
2985
330
23E6
100
AcDbEntity
  8
1
 62
     7
100
AcDbLine
 10
1002.519968652848
 20
922.0643426498693
 30
0.0
 11
979.7199686528486
 21
922.0643426498693
 31
0.0
  0
LINE
  5
2986
330
23E6
100
AcDbEntity
  8
0
 62
     7
100
AcDbLine
 10
978.2174686528488
 20
922.077843985356
 30
0.0
 11
1003.817468652848
 21
922.077843985356
 31
0.0
  0
LINE
  5
2987
330
23E6
100
AcDbEntity
  8
1
 62
     7
100
AcDbLine
 10
974.4937186528487
 20
905.5099962218946
 30
0.0
 11
973.6314668875692
 21
912.532473306464
 31
0.0
  0
LINE
  5
2988
330
23E6
100
AcDbEntity
  8
1
 62
     7
100
AcDbLine
 10
985.6589807328379
 20
915.7143426498691
 30
0.0
 11
979.7199686528486
 21
915.7143426498691
 31
0.0
  0
ARC
  5
2989
330
23E6
100
AcDbEntity
  8
1
 62
     7
100
AcDbCircle
 10
974.6240130392104
 20
912.6543426498692
 30
0.0
 40
1.0
100
AcDbArc
 50
90.0
 51
187.0000000000059
  0
LINE
  5
298A
330
23E6
100
AcDbEntity
  8
1
 62
     7
100
AcDbLine
 10
974.6240130392104
 20
913.6543426498691
 30
0.0
 11
982.8032151358506
 21
913.6543426498691
 31
0.0
  0
LINE
  5
298B
330
23E6
100
AcDbEntity
  8
1
 62
     7
100
AcDbLine
 10
978.4199686528486
 20
917.0143426498691
 30
0.0
 11
978.4199686528486
 21
920.7643426498691
 31
0.0
  0
LINE
  5
298C
330
23E6
100
AcDbEntity
  8
1
 62
     7
100
AcDbLine
 10
978.4199686528486
 20
917.0143426498691
 30
0.0
 11
979.7199686528486
 21
915.7143426498691
 31
0.0
  0
LINE
  5
298D
330
23E6
100
AcDbEntity
  8
1
 62
     7
100
AcDbLine
 10
979.7199686528486
 20
922.0643426498693
 30
0.0
 11
978.4199686528486
 21
920.7643426498691
 31
0.0
  0
LINE
  5
298E
330
23E6
100
AcDbEntity
  8
1
 62
     7
100
AcDbLine
 10
1003.819968652848
 20
920.7643426498691
 30
0.0
 11
1002.519968652848
 21
922.0643426498693
 31
0.0
  0
LINE
  5
298F
330
23E6
100
AcDbEntity
  8
1
 62
     7
100
AcDbLine
 10
1002.519968652848
 20
915.7143426498691
 30
0.0
 11
1003.819968652848
 21
917.0143426498691
 31
0.0
  0
LINE
  5
2990
330
23E6
100
AcDbEntity
  8
1
 62
     7
100
AcDbLine
 10
1003.819968652848
 20
920.7643426498691
 30
0.0
 11
1003.819968652848
 21
917.0143426498691
 31
0.0
  0
LINE
  5
2991
330
23E6
100
AcDbEntity
  8
1
 62
     7
100
AcDbLine
 10
1002.519968652848
 20
915.7143426498691
 30
0.0
 11
996.5809565728591
 21
915.7143426498691
 31
0.0
  0
LINE
  5
2992
330
23E6
100
AcDbEntity
  8
0
 62
     7
100
AcDbLine
 10
955.4174688752471
 20
1043.477842649869
 30
0.0
 11
955.4174688752471
 21
978.4778426498691
 31
0.0
  0
LINE
  5
2993
330
23E6
100
AcDbEntity
  8
0
 62
     7
100
AcDbLine
 10
1012.117468652848
 20
978.977843130621
 30
0.0
 11
1012.117468652848
 21
1042.977842169219
 31
0.0
  0
LINE
  5
2994
330
23E6
100
AcDbEntity
  8
0
 62
     7
100
AcDbLine
 10
972.7174686152903
 20
978.4778431381326
 30
0.0
 11
1005.839968703707
 21
978.4778431381326
 31
0.0
  0
LINE
  5
2995
330
23E6
100
AcDbEntity
  8
0
 62
     7
100
AcDbLine
 10
955.4174688752471
 20
996.977842860147
 30
0.0
 11
1012.117468652848
 21
996.977842860147
 31
0.0
  0
LINE
  5
2996
330
23E6
100
AcDbEntity
  8
0
 62
     7
100
AcDbLine
 10
973.2174686076334
 20
978.2278431420156
 30
0.0
 11
970.7174686452088
 21
975.7278431793203
 31
0.0
  0
LINE
  5
2997
330
23E6
100
AcDbEntity
  8
0
 62
     7
100
AcDbLine
 10
959.9174686528485
 20
977.4778431531562
 30
0.0
 11
970.2174686528488
 21
977.4778431531562
 31
0.0
  0
LINE
  5
2998
330
23E6
100
AcDbEntity
  8
0
 62
     7
100
AcDbLine
 10
970.7174686452088
 20
970.9778432508088
 30
0.0
 11
960.2399693884992
 21
970.9778432508088
 31
0.0
  0
LINE
  5
2999
330
23E6
100
AcDbEntity
  8
1
 62
     7
100
AcDbLine
 10
959.9174686528485
 20
978.4778426498691
 30
0.0
 11
955.4174688752471
 21
978.4778426498691
 31
0.0
  0
ARC
  5
299A
330
23E6
100
AcDbEntity
  8
0
 62
     7
100
AcDbCircle
 10
972.7174686152903
 20
975.9778431756915
 30
0.0
 40
2.499999962441189
100
AcDbArc
 50
90.0
 51
180.0
  0
LINE
  5
299B
330
23E6
100
AcDbEntity
  8
0
 62
     7
100
AcDbLine
 10
970.7174686452088
 20
970.9778432508088
 30
0.0
 11
970.7174686452319
 21
977.4778431531562
 31
0.0
  0
LINE
  5
299C
330
23E6
100
AcDbEntity
  8
0
 62
     7
100
AcDbLine
 10
1005.839968703707
 20
972.4778432285276
 30
0.0
 11
1005.839968703707
 21
979.9778431155973
 31
0.0
  0
LINE
  5
299D
330
23E6
100
AcDbEntity
  8
0
 62
     7
100
AcDbLine
 10
1008.517468652848
 20
974.9778431909689
 30
0.0
 11
1008.517468652848
 21
979.9778431155973
 31
0.0
  0
LINE
  5
299E
330
23E6
100
AcDbEntity
  8
0
 62
     7
100
AcDbLine
 10
1003.817468652848
 20
977.4778431531562
 30
0.0
 11
978.2174686528488
 21
977.4778431531562
 31
0.0
  0
LINE
  5
299F
330
23E6
100
AcDbEntity
  8
0
 62
     7
100
AcDbLine
 10
988.4399689649816
 20
965.4778433336922
 30
0.0
 11
988.4399689649816
 21
977.4778431531562
 31
0.0
  0
LINE
  5
29A0
330
23E6
100
AcDbEntity
  8
0
 62
     7
100
AcDbLine
 10
977.7399691256162
 20
965.2278433370669
 30
0.0
 11
977.7399691256388
 21
978.4778431381326
 31
0.0
  0
LINE
  5
29A1
330
23E6
100
AcDbEntity
  8
0
 62
     7
100
AcDbLine
 10
978.2174686528488
 20
965.4778433336922
 30
0.0
 11
988.4399689649816
 21
965.4778433336922
 31
0.0
  0
LINE
  5
29A2
330
23E6
100
AcDbEntity
  8
0
 62
     7
100
AcDbLine
 10
978.2174686527847
 20
965.2278433370669
 30
0.0
 11
977.7399691256162
 21
965.2278433370669
 31
0.0
  0
LINE
  5
29A3
330
23E6
100
AcDbEntity
  8
0
 62
     7
100
AcDbLine
 10
977.7399691256388
 20
978.2278431420156
 30
0.0
 11
973.2174686076334
 21
978.2278431420156
 31
0.0
  0
LINE
  5
29A4
330
23E6
100
AcDbEntity
  8
0
 62
     7
100
AcDbLine
 10
973.2174686076334
 20
978.2278431420156
 30
0.0
 11
973.2174686076792
 21
978.4778431381326
 31
0.0
  0
LINE
  5
29A5
330
23E6
100
AcDbEntity
  8
0
 62
     7
100
AcDbLine
 10
1005.839968703707
 20
974.9778431909689
 30
0.0
 11
1008.517468652848
 21
974.9778431909689
 31
0.0
  0
LINE
  5
29A6
330
23E6
100
AcDbEntity
  8
0
 62
     7
100
AcDbLine
 10
1003.817468652823
 20
978.4778431381326
 30
0.0
 11
1003.817468652823
 21
977.4778431531562
 31
0.0
  0
LINE
  5
29A7
330
23E6
100
AcDbEntity
  8
0
 62
     7
100
AcDbLine
 10
1003.817468652823
 20
972.4778432285276
 30
0.0
 11
1005.839968703707
 21
972.4778432285276
 31
0.0
  0
LINE
  5
29A8
330
23E6
100
AcDbEntity
  8
0
 62
     7
100
AcDbLine
 10
1008.517468652848
 20
978.4778431381326
 30
0.0
 11
1011.61746866038
 21
978.4778431381326
 31
0.0
  0
LINE
  5
29A9
330
23E6
100
AcDbEntity
  8
0
 62
     7
100
AcDbLine
 10
1011.61746866038
 20
978.4778431381326
 30
0.0
 11
1012.117468652848
 21
978.977843130621
 31
0.0
  0
LINE
  5
29AA
330
23E6
100
AcDbEntity
  8
0
 62
     7
100
AcDbLine
 10
1005.839968703707
 20
979.9778431155973
 30
0.0
 11
1008.517468652848
 21
979.9778431155973
 31
0.0
  0
LINE
  5
29AB
330
23E6
100
AcDbEntity
  8
0
 62
     7
100
AcDbLine
 10
972.7174686152903
 20
1043.477842161707
 30
0.0
 11
1005.839968703707
 21
1043.477842161707
 31
0.0
  0
LINE
  5
29AC
330
23E6
100
AcDbEntity
  8
0
 62
     7
100
AcDbLine
 10
955.4174688752471
 20
1028.277842390036
 30
0.0
 11
1012.117468652848
 21
1028.277842390036
 31
0.0
  0
LINE
  5
29AD
330
23E6
100
AcDbEntity
  8
0
 62
     7
100
AcDbLine
 10
955.4174688752471
 20
1024.394250343851
 30
0.0
 11
1012.117468652848
 21
1024.394250343851
 31
0.0
  0
LINE
  5
29AE
330
23E6
100
AcDbEntity
  8
0
 62
     7
100
AcDbLine
 10
973.2174686077705
 20
1043.727842157849
 30
0.0
 11
970.7174686453706
 21
1046.227842120418
 31
0.0
  0
LINE
  5
29AF
330
23E6
100
AcDbEntity
  8
0
 62
     7
100
AcDbLine
 10
970.7174686454166
 20
1044.477842146658
 30
0.0
 11
970.7174686453935
 21
1050.977842049107
 31
0.0
  0
LINE
  5
29B0
330
23E6
100
AcDbEntity
  8
1
 62
     7
100
AcDbLine
 10
959.9174686528485
 20
1043.477842649869
 30
0.0
 11
955.4174688752471
 21
1043.477842649869
 31
0.0
  0
ARC
  5
29B1
330
23E6
100
AcDbEntity
  8
0
 62
     7
100
AcDbCircle
 10
972.7174686152649
 20
1045.977842124199
 30
0.0
 40
2.49999996241604
100
AcDbArc
 50
180.0000000005797
 51
270.0000000005797
  0
LINE
  5
29B2
330
23E6
100
AcDbEntity
  8
0
 62
     7
100
AcDbLine
 10
970.7174686453935
 20
1050.977842049107
 30
0.0
 11
970.2174686528948
 21
1050.977842049107
 31
0.0
  0
LINE
  5
29B3
330
23E6
100
AcDbEntity
  8
0
 62
     7
100
AcDbLine
 10
1003.817468652848
 20
1044.477842146658
 30
0.0
 11
978.2174686528488
 21
1044.477842146658
 31
0.0
  0
LINE
  5
29B4
330
23E6
100
AcDbEntity
  8
0
 62
     7
100
AcDbLine
 10
977.7399691258244
 20
1056.727841962671
 30
0.0
 11
977.7399691257787
 21
1043.477842161707
 31
0.0
  0
LINE
  5
29B5
330
23E6
100
AcDbEntity
  8
0
 62
     7
100
AcDbLine
 10
977.7399691257787
 20
1043.727842157951
 30
0.0
 11
973.2174686077705
 21
1043.727842157849
 31
0.0
  0
LINE
  5
29B6
330
23E6
100
AcDbEntity
  8
0
 62
     7
100
AcDbLine
 10
973.2174686077705
 20
1043.727842157849
 30
0.0
 11
973.2174686078163
 21
1043.477842161707
 31
0.0
  0
LINE
  5
29B7
330
23E6
100
AcDbEntity
  8
0
 62
     7
100
AcDbLine
 10
978.2174686528488
 20
1056.477841966427
 30
0.0
 11
988.4399689649816
 21
1056.477841966427
 31
0.0
  0
LINE
  5
29B8
330
23E6
100
AcDbEntity
  8
0
 62
     7
100
AcDbLine
 10
988.2399689681362
 20
1056.727841962595
 30
0.0
 11
978.2174686529931
 21
1056.727841962671
 31
0.0
  0
LINE
  5
29B9
330
23E6
100
AcDbEntity
  8
0
 62
     7
100
AcDbLine
 10
978.2174686529931
 20
1056.727841962671
 30
0.0
 11
977.7399691258244
 21
1056.727841962671
 31
0.0
  0
LINE
  5
29BA
330
23E6
100
AcDbEntity
  8
0
 62
     7
100
AcDbLine
 10
1005.839968703707
 20
1049.477842071591
 30
0.0
 11
1005.839968703707
 21
1041.977842184267
 31
0.0
  0
LINE
  5
29BB
330
23E6
100
AcDbEntity
  8
0
 62
     7
100
AcDbLine
 10
1005.839968703707
 20
1041.977842184267
 30
0.0
 11
1008.517468652848
 21
1041.977842184267
 31
0.0
  0
LINE
  5
29BC
330
23E6
100
AcDbEntity
  8
0
 62
     7
100
AcDbLine
 10
1005.839968703707
 20
1046.977842109125
 30
0.0
 11
1008.517468652848
 21
1046.977842109125
 31
0.0
  0
LINE
  5
29BD
330
23E6
100
AcDbEntity
  8
0
 62
     7
100
AcDbLine
 10
1003.817468652823
 20
1044.477842146658
 30
0.0
 11
1003.817468652823
 21
1043.477842161707
 31
0.0
  0
LINE
  5
29BE
330
23E6
100
AcDbEntity
  8
0
 62
     7
100
AcDbLine
 10
1008.517468652848
 20
1043.477842161707
 30
0.0
 11
1011.61746866038
 21
1043.477842161707
 31
0.0
  0
LINE
  5
29BF
330
23E6
100
AcDbEntity
  8
0
 62
     7
100
AcDbLine
 10
1011.61746866038
 20
1043.477842161707
 30
0.0
 11
1012.117468652848
 21
1042.977842169219
 31
0.0
  0
LINE
  5
29C0
330
23E6
100
AcDbEntity
  8
0
 62
     7
100
AcDbLine
 10
1008.517468652848
 20
1046.977842109125
 30
0.0
 11
1008.517468652848
 21
1041.977842184267
 31
0.0
  0
LINE
  5
29C1
330
23E6
100
AcDbEntity
  8
0
 62
     7
100
AcDbLine
 10
1003.817468652823
 20
1049.477842071591
 30
0.0
 11
1005.839968703707
 21
1049.477842071591
 31
0.0
  0
CIRCLE
  5
29C2
330
23E6
100
AcDbEntity
  8
1
 62
     7
100
AcDbCircle
 10
1173.535538775717
 20
953.5753277951059
 30
0.0
 40
6.999999999999992
  0
ARC
  5
29C3
330
23E6
100
AcDbEntity
  8
0
 62
     7
100
AcDbCircle
 10
1225.656064215848
 20
949.9498645868968
 30
0.0
 40
11.90624982090007
100
AcDbArc
 50
60.99966166884534
 51
188.4923737608458
  0
LINE
  5
29C4
330
23E6
100
AcDbEntity
  8
1
  6
CENTER
 62
     3
100
AcDbLine
 10
1163.834803684348
 20
949.5571517552724
 30
0.0
 11
1183.236273867085
 21
957.5935038349392
 31
0.0
  0
CIRCLE
  5
29C5
330
23E6
100
AcDbEntity
  8
1
 62
     7
100
AcDbCircle
 10
1206.051451474427
 20
904.9118254718871
 30
0.0
 40
6.99999999999996
  0
LINE
  5
29C6
330
23E6
100
AcDbEntity
  8
1
  6
CENTER
 62
     3
100
AcDbLine
 10
1198.626830271969
 20
897.4872042694284
 30
0.0
 11
1213.476072676886
 21
912.3364466743458
 31
0.0
  0
CIRCLE
  5
29C7
330
23E6
100
AcDbEntity
  8
1
 62
     7
100
AcDbCircle
 10
1254.714953797646
 20
872.3959127731761
 30
0.0
 40
7.000000000000111
  0
LINE
  5
29C8
330
23E6
100
AcDbEntity
  8
1
  6
CENTER
 62
     3
100
AcDbLine
 10
1250.696777757813
 20
862.6951776818078
 30
0.0
 11
1258.733129837479
 21
882.0966478645447
 31
0.0
  0
ARC
  5
29C9
330
23E6
100
AcDbEntity
  8
0
 62
     7
100
AcDbCircle
 10
1245.062124053748
 20
928.5603510499829
 30
0.0
 40
13.20999980139171
100
AcDbArc
 50
95.56798253395802
 51
174.0659360770659
  0
ARC
  5
29CA
330
23E6
100
AcDbEntity
  8
0
 62
     7
100
AcDbCircle
 10
1225.31293098525
 20
949.7076671867008
 30
0.0
 40
13.20999980124375
100
AcDbArc
 50
272.0180639253662
 51
350.5160174689079
  0
ARC
  5
29CB
330
23E6
100
AcDbEntity
  8
0
 62
     7
100
AcDbCircle
 10
1225.656064215824
 20
949.9498645868808
 30
0.0
 40
11.9062498211609
100
AcDbArc
 50
241.9396262400407
 51
9.432338330102608
  0
ARC
  5
29CC
330
23E6
100
AcDbEntity
  8
0
 62
     7
100
AcDbCircle
 10
1245.327189886548
 20
928.8861425460252
 30
0.0
 40
11.90624982102573
100
AcDbArc
 50
76.65166166941763
 51
204.1443737607799
  0
ARC
  5
29CD
330
23E6
100
AcDbEntity
  8
0
 62
     7
100
AcDbCircle
 10
1312.117468651583
 20
1010.977842650753
 30
0.0
 40
114.0199982872107
100
AcDbArc
 50
220.7794022484242
 51
225.3045977560669
  0
ARC
  5
29CE
330
23E6
100
AcDbEntity
  8
0
 62
     7
100
AcDbCircle
 10
1269.784395446992
 20
913.5254282424403
 30
0.0
 40
13.20999980176798
100
AcDbArc
 50
111.2199825346593
 51
189.7179360765687
  0
ARC
  5
29CF
330
23E6
100
AcDbEntity
  8
0
 62
     7
100
AcDbCircle
 10
1245.062124053709
 20
928.5603510496855
 30
0.0
 40
13.20999980173028
100
AcDbArc
 50
287.6700639272613
 51
6.168017468533131
  0
ARC
  5
29D0
330
23E6
100
AcDbEntity
  8
0
 62
     7
100
AcDbCircle
 10
1245.327189886574
 20
928.8861425460536
 30
0.0
 40
11.90624982098168
100
AcDbArc
 50
257.5916262401435
 51
25.08433833211515
  0
ARC
  5
29D1
330
23E6
100
AcDbEntity
  8
0
 62
     7
100
AcDbCircle
 10
1269.951735595066
 20
913.910651904105
 30
0.0
 40
11.90624982059377
100
AcDbArc
 50
92.30366166854597
 51
219.7963737611025
  0
ARC
  5
29D2
330
23E6
100
AcDbEntity
  8
0
 62
     7
100
AcDbCircle
 10
1312.117468653408
 20
1010.977842649262
 30
0.0
 40
114.0199982871699
100
AcDbArc
 50
236.4314022473214
 51
240.9565977548752
  0
ARC
  5
29D3
330
23E6
100
AcDbEntity
  8
0
 62
     7
100
AcDbCircle
 10
1312.117468652725
 20
1010.977842649677
 30
0.0
 40
97.30499853840257
100
AcDbArc
 50
236.3476334060893
 51
241.0403665948957
  0
ARC
  5
29D4
330
23E6
100
AcDbEntity
  8
0
 62
     7
100
AcDbCircle
 10
1312.117468650414
 20
1010.977842652006
 30
0.0
 40
97.30499853830473
100
AcDbArc
 50
220.6956334080667
 51
225.3883665968501
  0
CIRCLE
  5
29D5
330
23E6
100
AcDbEntity
  8
1
 62
     7
100
AcDbCircle
 10
1162.11746865241
 20
1010.977842649869
 30
0.0
 40
7.0
  0
ARC
  5
29D6
330
23E6
100
AcDbEntity
  8
0
 62
     7
100
AcDbCircle
 10
1212.397243767576
 20
975.5396526215339
 30
0.0
 40
11.90624982091774
100
AcDbArc
 50
45.34766166849224
 51
172.8403737614768
  0
ARC
  5
29D7
330
23E6
100
AcDbEntity
  8
0
 62
     7
100
AcDbCircle
 10
1225.31293098487
 20
949.7076671875193
 30
0.0
 40
13.20999980167684
100
AcDbArc
 50
79.91598253503969
 51
158.4139360772273
  0
ARC
  5
29D8
330
23E6
100
AcDbEntity
  8
0
 62
     7
100
AcDbCircle
 10
1212.00149119789
 20
975.3990115948695
 30
0.0
 40
13.20999980152868
100
AcDbArc
 50
256.3660639267877
 51
334.8640174674252
  0
ARC
  5
29D9
330
23E6
100
AcDbEntity
  8
0
 62
     7
100
AcDbCircle
 10
1212.397243767618
 20
975.5396526215497
 30
0.0
 40
11.90624982137477
100
AcDbArc
 50
226.2876262394156
 51
353.7803383309999
  0
ARC
  5
29DA
330
23E6
100
AcDbEntity
  8
0
 62
     7
100
AcDbCircle
 10
1312.117468652214
 20
1010.977842650246
 30
0.0
 40
114.0199982873474
100
AcDbArc
 50
205.1274022478442
 51
209.6525977553936
  0
ARC
  5
29DB
330
23E6
100
AcDbEntity
  8
0
 62
     7
100
AcDbCircle
 10
1312.117468652562
 20
1010.977842649576
 30
0.0
 40
97.3049985385302
100
AcDbArc
 50
205.0436334059776
 51
209.7363665946843
  0
ARC
  5
29DC
330
23E6
100
AcDbEntity
  8
0
 62
     7
100
AcDbCircle
 10
1212.001491197908
 20
975.3990115950228
 30
0.0
 40
13.20999980187448
100
AcDbArc
 50
64.26398253410697
 51
142.7619360759954
  0
ARC
  5
29DD
330
23E6
100
AcDbEntity
  8
0
 62
     7
100
AcDbCircle
 10
1206.115031483572
 20
1003.729016866647
 30
0.0
 40
13.20999980163444
100
AcDbArc
 50
240.714063927248
 51
319.2120174694609
  0
ARC
  5
29DE
330
23E6
100
AcDbEntity
  8
0
 62
     7
100
AcDbCircle
 10
1206.534052882566
 20
1003.757671048982
 30
0.0
 40
11.90624982117153
100
AcDbArc
 50
210.6356262400928
 51
338.1283383307011
  0
ARC
  5
29DF
330
23E6
100
AcDbEntity
  8
0
 62
     7
100
AcDbCircle
 10
1312.117468652299
 20
1010.977842650401
 30
0.0
 40
114.0199982872456
100
AcDbArc
 50
189.4754022479248
 51
194.0005977554233
  0
ARC
  5
29E0
330
23E6
100
AcDbEntity
  8
0
 62
     7
100
AcDbCircle
 10
1312.117468652362
 20
1010.977842650102
 30
0.0
 40
97.30499853859781
100
AcDbArc
 50
189.3916334062107
 51
194.0843665949673
  0
ARC
  5
29E1
330
23E6
100
AcDbEntity
  8
0
 62
     7
100
AcDbCircle
 10
1312.117468652382
 20
1010.977842649466
 30
0.0
 40
97.30499853845742
100
AcDbArc
 50
173.7396334057897
 51
178.4323665945298
  0
ARC
  5
29E2
330
23E6
100
AcDbEntity
  8
0
 62
     7
100
AcDbCircle
 10
1208.090113989355
 20
1032.596622513386
 30
0.0
 40
13.20999980160632
100
AcDbArc
 50
225.0620639265455
 51
303.5600174693182
  0
ARC
  5
29E3
330
23E6
100
AcDbEntity
  8
0
 62
     7
100
AcDbCircle
 10
1208.501328003393
 20
1032.51116474869
 30
0.0
 40
11.9062498208756
100
AcDbArc
 50
194.9836262403035
 51
322.4763383303882
  0
ARC
  5
29E4
330
23E6
100
AcDbEntity
  8
0
 62
     7
100
AcDbCircle
 10
1206.534052882704
 20
1003.757671048989
 30
0.0
 40
11.90624982079705
100
AcDbArc
 50
29.69566166900006
 51
157.1883737609939
  0
ARC
  5
29E5
330
23E6
100
AcDbEntity
  8
0
 62
     7
100
AcDbCircle
 10
1312.117468652499
 20
1010.977842651162
 30
0.0
 40
114.0199982873699
100
AcDbArc
 50
173.8234022482521
 51
178.3485977557727
  0
ARC
  5
29E6
330
23E6
100
AcDbEntity
  8
0
 62
     7
100
AcDbCircle
 10
1206.115031483975
 20
1003.729016867092
 30
0.0
 40
13.20999980147788
100
AcDbArc
 50
48.61198253415144
 51
127.1099360760792
  0
ARC
  5
29E7
330
23E6
100
AcDbEntity
  8
0
 62
     7
100
AcDbCircle
 10
1208.090113989737
 20
1032.596622513787
 30
0.0
 40
13.20999980160484
100
AcDbArc
 50
32.95998253391806
 51
111.4579360768541
  0
ARC
  5
29E8
330
23E6
100
AcDbEntity
  8
0
 62
     7
100
AcDbCircle
 10
1217.78025911607
 20
1059.860897565397
 30
0.0
 40
13.20999980160625
100
AcDbArc
 50
209.4100639263468
 51
287.9080174687101
  0
ARC
  5
29E9
330
23E6
100
AcDbEntity
  8
0
 62
     7
100
AcDbCircle
 10
1218.153168556785
 20
1059.667665724981
 30
0.0
 40
11.90624982141514
100
AcDbArc
 50
179.3316262398843
 51
306.8243383305304
  0
ARC
  5
29EA
330
23E6
100
AcDbEntity
  8
0
 62
     7
100
AcDbCircle
 10
1208.501328003404
 20
1032.511164748689
 30
0.0
 40
11.90624982070932
100
AcDbArc
 50
14.04366166912573
 51
141.5363737606506
  0
ARC
  5
29EB
330
23E6
100
AcDbEntity
  8
0
 62
     7
100
AcDbCircle
 10
1312.117468652068
 20
1010.977842648906
 30
0.0
 40
114.0199982874328
100
AcDbArc
 50
158.1714022469703
 51
162.6965977544871
  0
ARC
  5
29EC
330
23E6
100
AcDbEntity
  8
0
 62
     7
100
AcDbCircle
 10
1312.117468653098
 20
1010.977842651805
 30
0.0
 40
97.30499853841196
100
AcDbArc
 50
158.0876334071846
 51
162.7803665958469
  0
LINE
  5
29ED
330
23E6
100
AcDbEntity
  8
0
 62
     7
100
AcDbLine
 10
966.1174685626136
 20
1175.577840178043
 30
0.0
 11
966.1174685629795
 21
1147.27784060278
 31
0.0
  0
LINE
  5
29EE
330
23E6
100
AcDbEntity
  8
0
 62
     7
100
AcDbLine
 10
1012.117468653633
 20
1153.977842649869
 30
0.0
 11
1012.117468654031
 21
1175.577840177662
 31
0.0
  0
LINE
  5
29EF
330
23E6
100
AcDbEntity
  8
1
  6
CENTER
 62
     3
100
AcDbLine
 10
945.439969612174
 20
1160.977842649869
 30
0.0
 11
1029.439968350264
 21
1160.977842649869
 31
0.0
  0
CIRCLE
  5
29F0
330
23E6
100
AcDbEntity
  8
1
 62
     7
100
AcDbCircle
 10
991.1199686528489
 20
1116.794342649869
 30
0.0
 40
11.90625
  0
LINE
  5
29F1
330
23E6
100
AcDbEntity
  8
1
 62
     7
100
AcDbLine
 10
978.9137186528487
 20
1108.274342649869
 30
0.0
 11
978.9137186528487
 21
1124.984342649869
 31
0.0
  0
LINE
  5
29F2
330
23E6
100
AcDbEntity
  8
1
 62
     7
100
AcDbLine
 10
973.6314668875692
 20
1109.396211993274
 30
0.0
 11
974.4937186528487
 21
1116.418689077843
 31
0.0
  0
LINE
  5
29F3
330
23E6
100
AcDbEntity
  8
1
 62
     7
100
AcDbLine
 10
1009.217468652848
 20
1107.515937986381
 30
0.0
 11
1009.217468652848
 21
1132.305817246084
 31
0.0
  0
LINE
  5
29F4
330
23E6
100
AcDbEntity
  8
1
 62
     7
100
AcDbLine
 10
973.0224686528487
 20
1132.305817246084
 30
0.0
 11
973.0224686528487
 21
1107.515937986381
 31
0.0
  0
LINE
  5
29F5
330
23E6
100
AcDbEntity
  8
1
 62
     7
100
AcDbLine
 10
1012.117468652848
 20
1135.187893156208
 30
0.0
 11
1012.117468652848
 21
1099.864342649869
 31
0.0
  0
LINE
  5
29F6
330
23E6
100
AcDbEntity
  8
0
 62
     7
100
AcDbLine
 10
978.2399691183686
 20
1086.977841508388
 30
0.0
 11
972.7399692009752
 21
1086.977841508388
 31
0.0
  0
LINE
  5
29F7
330
23E6
100
AcDbEntity
  8
0
 62
     7
100
AcDbLine
 10
972.7399692009752
 20
1086.977841508388
 30
0.0
 11
972.7399692010328
 21
1113.977841102805
 31
0.0
  0
LINE
  5
29F8
330
23E6
100
AcDbEntity
  8
0
 62
     7
100
AcDbLine
 10
970.339969237092
 20
1113.977841102805
 30
0.0
 11
970.3399692370227
 21
1086.977841508388
 31
0.0
  0
LINE
  5
29F9
330
23E6
100
AcDbEntity
  8
1
 62
     7
100
AcDbLine
 10
970.2174686528488
 20
1087.227842649869
 30
0.0
 11
959.9174686528485
 21
1087.227842649869
 31
0.0
  0
LINE
  5
29FA
330
23E6
100
AcDbEntity
  8
0
 62
     7
100
AcDbLine
 10
970.3399692370227
 20
1086.977841508388
 30
0.0
 11
970.2174686529643
 21
1086.977841508388
 31
0.0
  0
LINE
  5
29FB
330
23E6
100
AcDbEntity
  8
0
 62
     7
100
AcDbLine
 10
972.7399692010328
 20
1113.977841102805
 30
0.0
 11
970.339969237092
 21
1113.977841102805
 31
0.0
  0
LINE
  5
29FC
330
23E6
100
AcDbEntity
  8
0
 62
     7
100
AcDbLine
 10
988.239968968182
 20
1086.977841508185
 30
0.0
 11
978.2399691183686
 21
1086.977841508388
 31
0.0
  0
LINE
  5
29FD
330
23E6
100
AcDbEntity
  8
1
 62
     7
100
AcDbLine
 10
979.7199686528486
 20
1099.864342649869
 30
0.0
 11
1002.519968652848
 21
1099.864342649869
 31
0.0
  0
LINE
  5
29FE
330
23E6
100
AcDbEntity
  8
0
 62
     7
100
AcDbLine
 10
978.2174686528488
 20
1099.877841314433
 30
0.0
 11
1003.817468652848
 21
1099.877841314433
 31
0.0
  0
LINE
  5
29FF
330
23E6
100
AcDbEntity
  8
1
 62
     7
100
AcDbLine
 10
978.4199686528486
 20
1101.164342649869
 30
0.0
 11
978.4199686528486
 21
1104.914342649869
 31
0.0
  0
LINE
  5
2A00
330
23E6
100
AcDbEntity
  8
1
 62
     7
100
AcDbLine
 10
978.4199686528486
 20
1101.164342649869
 30
0.0
 11
979.7199686528486
 21
1099.864342649869
 31
0.0
  0
LINE
  5
2A01
330
23E6
100
AcDbEntity
  8
1
 62
     7
100
AcDbLine
 10
979.7199686528486
 20
1106.214342649869
 30
0.0
 11
985.6589807328379
 21
1106.214342649869
 31
0.0
  0
ARC
  5
2A02
330
23E6
100
AcDbEntity
  8
1
 62
     7
100
AcDbCircle
 10
974.6240130392104
 20
1109.274342649869
 30
0.0
 40
1.000000000000109
100
AcDbArc
 50
172.999999999994
 51
270.0
  0
LINE
  5
2A03
330
23E6
100
AcDbEntity
  8
1
 62
     7
100
AcDbLine
 10
974.6240130392104
 20
1108.274342649869
 30
0.0
 11
982.8032151358506
 21
1108.274342649869
 31
0.0
  0
LINE
  5
2A04
330
23E6
100
AcDbEntity
  8
1
 62
     7
100
AcDbLine
 10
979.7199686528486
 20
1106.214342649869
 30
0.0
 11
978.4199686528486
 21
1104.914342649869
 31
0.0
  0
LINE
  5
2A05
330
23E6
100
AcDbEntity
  8
1
 62
     7
100
AcDbLine
 10
1003.819968652848
 20
1104.914342649869
 30
0.0
 11
1003.819968652848
 21
1101.164342649869
 31
0.0
  0
LINE
  5
2A06
330
23E6
100
AcDbEntity
  8
1
 62
     7
100
AcDbLine
 10
1002.519968652848
 20
1099.864342649869
 30
0.0
 11
1003.819968652848
 21
1101.164342649869
 31
0.0
  0
LINE
  5
2A07
330
23E6
100
AcDbEntity
  8
1
 62
     7
100
AcDbLine
 10
996.5809565728591
 20
1106.214342649869
 30
0.0
 11
1002.519968652848
 21
1106.214342649869
 31
0.0
  0
LINE
  5
2A08
330
23E6
100
AcDbEntity
  8
1
 62
     7
100
AcDbLine
 10
1003.819968652848
 20
1104.914342649869
 30
0.0
 11
1002.519968652848
 21
1106.214342649869
 31
0.0
  0
LINE
  5
2A09
330
23E6
100
AcDbEntity
  8
1
 62
     7
100
AcDbLine
 10
973.0224686528487
 20
1132.305817246084
 30
0.0
 11
974.5224686528487
 21
1133.171842649869
 31
0.0
  0
LINE
  5
2A0A
330
23E6
100
AcDbEntity
  8
1
 62
     7
100
AcDbLine
 10
973.0224686528487
 20
1128.151842649869
 30
0.0
 11
973.6224686528489
 21
1127.551842649869
 31
0.0
  0
LINE
  5
2A0B
330
23E6
100
AcDbEntity
  8
0
 62
     7
100
AcDbLine
 10
965.9676302895757
 20
1136.698842649948
 30
0.0
 11
1008.654791847148
 21
1136.698842649593
 31
0.0
  0
LINE
  5
2A0C
330
23E6
100
AcDbEntity
  8
0
 62
     7
100
AcDbLine
 10
961.2488394857919
 20
1136.698842649212
 30
0.0
 11
1010.986097820723
 21
1136.698842649212
 31
0.0
  0
LINE
  5
2A0D
330
23E6
100
AcDbEntity
  8
0
 62
     7
100
AcDbLine
 10
960.1174686525004
 20
1139.034842649869
 30
0.0
 11
1012.1174686536
 21
1139.034842649869
 31
0.0
  0
LINE
  5
2A0E
330
23E6
100
AcDbEntity
  8
1
 62
     3
100
AcDbLine
 10
966.11746856288
 20
1154.977842649869
 30
0.0
 11
985.5401182937535
 21
1154.977842649869
 31
0.0
  0
LINE
  5
2A0F
330
23E6
100
AcDbEntity
  8
1
 62
     3
100
AcDbLine
 10
966.1174685627896
 20
1166.977842649869
 30
0.0
 11
985.5401182936281
 21
1166.977842649869
 31
0.0
  0
LINE
  5
2A10
330
23E6
100
AcDbEntity
  8
1
 62
     7
100
AcDbLine
 10
966.1174685627896
 20
1165.477842649869
 30
0.0
 11
984.6740928898437
 21
1165.477842649869
 31
0.0
  0
LINE
  5
2A11
330
23E6
100
AcDbEntity
  8
1
 62
     7
100
AcDbLine
 10
966.1174685627896
 20
1156.477842649869
 30
0.0
 11
984.6740928898437
 21
1156.477842649869
 31
0.0
  0
LINE
  5
2A12
330
23E6
100
AcDbEntity
  8
1
 62
     7
100
AcDbLine
 10
987.1174686528489
 20
1139.034842649869
 30
0.0
 11
967.2020135917286
 21
1138.791842649869
 31
0.0
  0
LINE
  5
2A13
330
23E6
100
AcDbEntity
  8
0
 62
     7
100
AcDbLine
 10
960.1174686530081
 20
1146.177840619353
 30
0.0
 11
960.1174686525004
 21
1137.830213481843
 31
0.0
  0
ARC
  5
2A14
330
23E6
100
AcDbEntity
  8
1
 62
     7
100
AcDbCircle
 10
944.2427445780049
 20
1235.676842649869
 30
0.0
 40
99.56822414126177
100
AcDbArc
 50
267.8788514234885
 51
283.3317107636355
  0
LINE
  5
2A15
330
23E6
100
AcDbEntity
  8
0
 62
     7
100
AcDbLine
 10
960.1174686525004
 20
1137.830213481843
 30
0.0
 11
961.2488394857919
 21
1136.698842649212
 31
0.0
  0
LINE
  5
2A16
330
23E6
100
AcDbEntity
  8
0
 62
     7
100
AcDbLine
 10
965.817468567171
 20
1146.977840607309
 30
0.0
 11
960.9174686409389
 21
1146.977840606953
 31
0.0
  0
LINE
  5
2A17
330
23E6
100
AcDbEntity
  8
0
 62
     7
100
AcDbLine
 10
960.9174686409389
 20
1146.977840606953
 30
0.0
 11
960.1174686530081
 21
1146.177840619353
 31
0.0
  0
ARC
  5
2A18
330
23E6
100
AcDbEntity
  8
0
 62
     7
100
AcDbCircle
 10
965.8174685673998
 20
1147.277840602776
 30
0.0
 40
0.2999999954675161
100
AcDbArc
 50
269.9999999563577
 51
0.0000000007425705
  0
LINE
  5
2A19
330
23E6
100
AcDbEntity
  8
1
  6
DIVIDE
 62
     7
100
AcDbLine
 10
1015.117468652947
 20
1121.401342459447
 30
0.0
 11
1015.117468652947
 21
1143.477842649869
 31
0.0
  0
LINE
  5
2A1A
330
23E6
100
AcDbEntity
  8
0
 62
     7
100
AcDbLine
 10
1012.117468653599
 20
1137.830213481843
 30
0.0
 11
1012.117468653888
 21
1153.977842649869
 31
0.0
  0
LINE
  5
2A1B
330
23E6
100
AcDbEntity
  8
1
 62
     7
100
AcDbLine
 10
974.5224686528487
 20
1133.171842649869
 30
0.0
 11
1007.717468652848
 21
1133.171842649869
 31
0.0
  0
LINE
  5
2A1C
330
23E6
100
AcDbEntity
  8
1
 62
     7
100
AcDbLine
 10
999.1174686528486
 20
1139.034842649869
 30
0.0
 11
987.1174686528489
 21
1139.034842649869
 31
0.0
  0
LINE
  5
2A1D
330
23E6
100
AcDbEntity
  8
1
 62
     7
100
AcDbLine
 10
973.6224686528489
 20
1127.551842649869
 30
0.0
 11
986.0175199453651
 21
1127.551842649869
 31
0.0
  0
ARC
  5
2A1E
330
23E6
100
AcDbEntity
  8
1
 62
     7
100
AcDbCircle
 10
975.4937186528485
 20
1123.984342649869
 30
0.0
 40
1.0
100
AcDbArc
 50
90.0
 51
180.0
  0
LINE
  5
2A1F
330
23E6
100
AcDbEntity
  8
1
 62
     7
100
AcDbLine
 10
974.4937186528487
 20
1123.984342649869
 30
0.0
 11
974.4937186528487
 21
1116.418689077843
 31
0.0
  0
LINE
  5
2A20
330
23E6
100
AcDbEntity
  8
1
 62
     7
100
AcDbLine
 10
975.4937186528485
 20
1124.984342649869
 30
0.0
 11
978.9137186528487
 21
1124.984342649869
 31
0.0
  0
LINE
  5
2A21
330
23E6
100
AcDbEntity
  8
1
 62
     7
100
AcDbLine
 10
978.9137186528487
 20
1124.984342649869
 30
0.0
 11
982.392621968766
 21
1124.893244360491
 31
0.0
  0
LINE
  5
2A22
330
23E6
100
AcDbEntity
  8
1
 62
     7
100
AcDbLine
 10
996.2224173603322
 20
1127.551842649869
 30
0.0
 11
1008.617468652848
 21
1127.551842649869
 31
0.0
  0
LINE
  5
2A23
330
23E6
100
AcDbEntity
  8
1
 62
     7
100
AcDbLine
 10
1008.617468652848
 20
1127.551842649869
 30
0.0
 11
1009.217468652848
 21
1128.151842649869
 31
0.0
  0
LINE
  5
2A24
330
23E6
100
AcDbEntity
  8
1
 62
     7
100
AcDbLine
 10
999.1174686528486
 20
1139.034842649869
 30
0.0
 11
1008.668830059611
 21
1138.926481243106
 31
0.0
  0
ARC
  5
2A25
330
23E6
100
AcDbEntity
  8
1
 62
     7
100
AcDbCircle
 10
1011.417468652848
 20
1135.187893156208
 30
0.0
 40
0.7000000000003013
100
AcDbArc
 50
0.0
 51
44.99999999998157
  0
ARC
  5
2A26
330
23E6
100
AcDbEntity
  8
1
 62
     7
100
AcDbCircle
 10
1011.417468652848
 20
1133.967137294777
 30
0.0
 40
0.700000000000008
100
AcDbArc
 50
273.0000000000122
 51
0.0
  0
LINE
  5
2A27
330
23E6
100
AcDbEntity
  8
1
 62
     7
100
AcDbLine
 10
1007.717468652848
 20
1133.171842649869
 30
0.0
 11
1009.217468652848
 21
1132.305817246084
 31
0.0
  0
LINE
  5
2A28
330
23E6
100
AcDbEntity
  8
0
 62
     7
100
AcDbLine
 10
1010.986097820723
 20
1136.698842649212
 30
0.0
 11
1012.117468653599
 21
1137.830213481843
 31
0.0
  0
LINE
  5
2A29
330
23E6
100
AcDbEntity
  8
1
 62
     7
100
AcDbLine
 10
1008.668830059611
 20
1138.926481243106
 30
0.0
 11
1011.912443399679
 21
1135.682867903038
 31
0.0
  0
LINE
  5
2A2A
330
23E6
100
AcDbEntity
  8
1
 62
     7
100
AcDbLine
 10
1009.617468652848
 20
1133.171842649869
 30
0.0
 11
1011.454103822218
 21
1133.268096620448
 31
0.0
  0
LINE
  5
2A2B
330
23E6
100
AcDbEntity
  8
1
 62
     7
100
AcDbLine
 10
986.1174685628174
 20
1167.977842649869
 30
0.0
 11
1012.117468653799
 21
1167.977842649869
 31
0.0
  0
LINE
  5
2A2C
330
23E6
100
AcDbEntity
  8
1
 62
     7
100
AcDbLine
 10
986.1174685629434
 20
1153.977842649869
 30
0.0
 11
1012.117468653633
 21
1153.977842649869
 31
0.0
  0
LINE
  5
2A2D
330
23E6
100
AcDbEntity
  8
1
 62
     7
100
AcDbLine
 10
986.1174685629434
 20
1153.977842649869
 30
0.0
 11
986.1174685628174
 21
1167.977842649869
 31
0.0
  0
LINE
  5
2A2E
330
23E6
100
AcDbEntity
  8
1
 62
     7
100
AcDbLine
 10
984.6740928898437
 20
1156.477842649869
 30
0.0
 11
986.1174685629434
 21
1153.977842649869
 31
0.0
  0
LINE
  5
2A2F
330
23E6
100
AcDbEntity
  8
1
 62
     7
100
AcDbLine
 10
984.6740928898437
 20
1165.477842649869
 30
0.0
 11
986.1174685628174
 21
1167.977842649869
 31
0.0
  0
LINE
  5
2A30
330
23E6
100
AcDbEntity
  8
1
 62
     7
100
AcDbLine
 10
984.6740928898437
 20
1156.477842649869
 30
0.0
 11
984.6740928898437
 21
1165.477842649869
 31
0.0
  0
LINE
  5
2A31
330
23E6
100
AcDbEntity
  8
1
  6
DIVIDE
 62
     7
100
AcDbLine
 10
1015.117468652947
 20
1143.477842649869
 30
0.0
 11
1012.117468652947
 21
1143.477842649869
 31
0.0
  0
LINE
  5
2A32
330
23E6
100
AcDbEntity
  8
0
 62
     7
100
AcDbLine
 10
1011.717468659747
 20
1175.977840172009
 30
0.0
 11
966.5174685564515
 21
1175.977840172389
 31
0.0
  0
LINE
  5
2A33
330
23E6
100
AcDbEntity
  8
0
 62
     7
100
AcDbLine
 10
966.5174685564515
 20
1175.977840172389
 30
0.0
 11
966.1174685626136
 21
1175.577840178043
 31
0.0
  0
LINE
  5
2A34
330
23E6
100
AcDbEntity
  8
0
 62
     7
100
AcDbLine
 10
1012.117468654031
 20
1175.577840177662
 30
0.0
 11
1011.717468659747
 21
1175.977840172009
 31
0.0
  0
CIRCLE
  5
2A35
330
23E6
100
AcDbEntity
  8
1
 62
     7
100
AcDbCircle
 10
1173.535538775717
 20
1068.380357504632
 30
0.0
 40
6.99999999999984
  0
LINE
  5
2A36
330
23E6
100
AcDbEntity
  8
1
  6
CENTER
 62
     3
100
AcDbLine
 10
1163.834803684348
 20
1072.398533544466
 30
0.0
 11
1183.236273867085
 21
1064.362181464799
 31
0.0
  0
CIRCLE
  5
2A37
330
23E6
100
AcDbEntity
  8
1
 62
     7
100
AcDbCircle
 10
1206.051451474428
 20
1117.043859827851
 30
0.0
 40
6.99999999999996
  0
ARC
  5
2A38
330
23E6
100
AcDbEntity
  8
0
 62
     7
100
AcDbCircle
 10
1283.451872694154
 20
1113.287889905071
 30
0.0
 40
13.20999980164762
100
AcDbArc
 50
162.4540639266457
 51
240.9520174681258
  0
ARC
  5
2A39
330
23E6
100
AcDbEntity
  8
0
 62
     7
100
AcDbCircle
 10
1312.117468652765
 20
1010.977842650023
 30
0.0
 40
114.0199982876523
100
AcDbArc
 50
111.2154022475419
 51
115.7405977550358
  0
ARC
  5
2A3A
330
23E6
100
AcDbEntity
  8
0
 62
     7
100
AcDbCircle
 10
1257.130448979846
 20
1101.40138068697
 30
0.0
 40
11.90624982087878
100
AcDbArc
 50
327.0876616687627
 51
94.58037376113434
  0
LINE
  5
2A3B
330
23E6
100
AcDbEntity
  8
1
  6
CENTER
 62
     3
100
AcDbLine
 10
1198.626830271969
 20
1124.468481030309
 30
0.0
 11
1213.476072676886
 21
1109.619238625392
 31
0.0
  0
ARC
  5
2A3C
330
23E6
100
AcDbEntity
  8
0
 62
     7
100
AcDbCircle
 10
1234.466809000369
 20
1083.49982012249
 30
0.0
 40
13.20999980165004
100
AcDbArc
 50
1.655982533938649
 51
80.15393607613793
  0
ARC
  5
2A3D
330
23E6
100
AcDbEntity
  8
0
 62
     7
100
AcDbCircle
 10
1312.117468651566
 20
1010.977842649182
 30
0.0
 40
114.0199982875486
100
AcDbArc
 50
126.8674022467236
 51
131.3925977543453
  0
ARC
  5
2A3E
330
23E6
100
AcDbEntity
  8
0
 62
     7
100
AcDbCircle
 10
1234.773757490355
 20
1083.21314501148
 30
0.0
 40
11.90624982118822
100
AcDbArc
 50
163.6796262393652
 51
291.1723383307694
  0
ARC
  5
2A3F
330
23E6
100
AcDbEntity
  8
0
 62
     7
100
AcDbCircle
 10
1234.773757490326
 20
1083.213145011508
 30
0.0
 40
11.9062498206936
100
AcDbArc
 50
342.7396616691701
 51
110.232373760766
  0
ARC
  5
2A40
330
23E6
100
AcDbEntity
  8
0
 62
     7
100
AcDbCircle
 10
1217.780259116643
 20
1059.860897565571
 30
0.0
 40
13.20999980152261
100
AcDbArc
 50
17.30798253355935
 51
95.80593607597116
  0
ARC
  5
2A41
330
23E6
100
AcDbEntity
  8
0
 62
     7
100
AcDbCircle
 10
1234.466809000038
 20
1083.499820122156
 30
0.0
 40
13.20999980135449
100
AcDbArc
 50
193.7580639261506
 51
272.2560174695002
  0
ARC
  5
2A42
330
23E6
100
AcDbEntity
  8
0
 62
     7
100
AcDbCircle
 10
1312.11746865308
 20
1010.977842650818
 30
0.0
 40
114.0199982870972
100
AcDbArc
 50
142.5194022478987
 51
147.044597755559
  0
ARC
  5
2A43
330
23E6
100
AcDbEntity
  8
0
 62
     7
100
AcDbCircle
 10
1312.117468651993
 20
1010.977842649278
 30
0.0
 40
97.30499853838473
100
AcDbArc
 50
142.4356334053382
 51
147.1283665942422
  0
ARC
  5
2A44
330
23E6
100
AcDbEntity
  8
0
 62
     7
100
AcDbCircle
 10
1312.117468651984
 20
1010.977842649522
 30
0.0
 40
97.30499853861635
100
AcDbArc
 50
126.7836334054868
 51
131.4763665942271
  0
ARC
  5
2A45
330
23E6
100
AcDbEntity
  8
0
 62
     7
100
AcDbCircle
 10
1256.912225901921
 20
1101.760238156111
 30
0.0
 40
13.20999980135998
100
AcDbArc
 50
178.1060639254399
 51
256.6040174691884
  0
ARC
  5
2A46
330
23E6
100
AcDbEntity
  8
0
 62
     7
100
AcDbCircle
 10
1257.130448979799
 20
1101.401380687047
 30
0.0
 40
11.90624982132323
100
AcDbArc
 50
148.0276262395493
 51
275.5203383308493
  0
ARC
  5
2A47
330
23E6
100
AcDbEntity
  8
0
 62
     7
100
AcDbCircle
 10
1256.912225902726
 20
1101.760238156022
 30
0.0
 40
13.20999980172316
100
AcDbArc
 50
346.003982534591
 51
64.50193607698349
  0
ARC
  5
2A48
330
23E6
100
AcDbEntity
  8
0
 62
     7
100
AcDbCircle
 10
1312.117468652378
 20
1010.977842649855
 30
0.0
 40
97.3049985386242
100
AcDbArc
 50
111.1316334057372
 51
115.8243665944581
  0
LINE
  5
2A49
330
23E6
100
AcDbEntity
  8
1
  6
CENTER
 62
     3
100
AcDbLine
 10
1250.696777757813
 20
1159.26050761793
 30
0.0
 11
1258.73312983748
 21
1139.859037435193
 31
0.0
  0
CIRCLE
  5
2A4A
330
23E6
100
AcDbEntity
  8
1
 62
     7
100
AcDbCircle
 10
1254.714953797646
 20
1149.559772526562
 30
0.0
 40
7.000000000000007
  0
ARC
  5
2A4B
330
23E6
100
AcDbEntity
  8
0
 62
     7
100
AcDbCircle
 10
1406.085167708863
 20
1059.661105663173
 30
0.0
 40
11.90624982121474
100
AcDbArc
 50
54.11162624066346
 51
181.6043383315386
  0
CIRCLE
  5
2A4C
330
23E6
100
AcDbEntity
  8
1
 62
     7
100
AcDbCircle
 10
1450.699398529103
 20
953.5753277951057
 30
0.0
 40
6.999999999999992
  0
CIRCLE
  5
2A4D
330
23E6
100
AcDbEntity
  8
1
 62
     7
100
AcDbCircle
 10
1462.11746865241
 20
1010.977842649869
 30
0.0
 40
7.000000000000196
  0
LINE
  5
2A4E
330
23E6
100
AcDbEntity
  8
1
  6
CENTER
 62
     3
100
AcDbLine
 10
1460.400133620471
 20
949.557151755272
 30
0.0
 11
1440.998663437734
 21
957.5935038349388
 31
0.0
  0
ARC
  5
2A4F
330
23E6
100
AcDbEntity
  8
0
 62
     7
100
AcDbCircle
 10
1398.574612322996
 20
949.9438285931903
 30
0.0
 40
11.90624982107041
100
AcDbArc
 50
351.5036262410445
 51
118.9963383317673
  0
CIRCLE
  5
2A50
330
23E6
100
AcDbEntity
  8
1
 62
     7
100
AcDbCircle
 10
1369.519983507173
 20
872.3959127731761
 30
0.0
 40
6.999999999999857
  0
ARC
  5
2A51
330
23E6
100
AcDbEntity
  8
0
 62
     7
100
AcDbCircle
 10
1379.167059263934
 20
928.5556699067425
 30
0.0
 40
13.20999980143209
100
AcDbArc
 50
173.8279825351767
 51
252.325936077538
  0
ARC
  5
2A52
330
23E6
100
AcDbEntity
  8
0
 62
     7
100
AcDbCircle
 10
1354.44373829616
 20
913.5224730749827
 30
0.0
 40
13.2099998015694
100
AcDbArc
 50
350.2780639275994
 51
68.77601746868458
  0
ARC
  5
2A53
330
23E6
100
AcDbEntity
  8
0
 62
     7
100
AcDbCircle
 10
1312.117468651408
 20
1010.977842649259
 30
0.0
 40
114.0199982871846
100
AcDbArc
 50
299.039402248867
 51
303.5645977564295
  0
ARC
  5
2A54
330
23E6
100
AcDbEntity
  8
0
 62
     7
100
AcDbCircle
 10
1354.276425042058
 20
913.9077084186721
 30
0.0
 40
11.90624982125459
100
AcDbArc
 50
320.199626241398
 51
87.69233833126156
  0
ARC
  5
2A55
330
23E6
100
AcDbEntity
  8
0
 62
     7
100
AcDbCircle
 10
1378.902016176446
 20
928.8814799072188
 30
0.0
 40
11.90624982071406
100
AcDbArc
 50
154.9116616697144
 51
282.4043737616386
  0
LINE
  5
2A56
330
23E6
100
AcDbEntity
  8
1
  6
CENTER
 62
     3
100
AcDbLine
 10
1373.538159547006
 20
862.6951776818076
 30
0.0
 11
1365.501807467339
 21
882.0966478645445
 31
0.0
  0
ARC
  5
2A57
330
23E6
100
AcDbEntity
  8
0
 62
     7
100
AcDbCircle
 10
1326.581340861911
 20
905.7169355592774
 30
0.0
 40
13.20999980183233
100
AcDbArc
 50
142.5239825348915
 51
221.0219360780802
  0
ARC
  5
2A58
330
23E6
100
AcDbEntity
  8
0
 62
     7
100
AcDbCircle
 10
1297.646247884196
 20
905.7179455837427
 30
0.0
 40
13.20999980150446
100
AcDbArc
 50
318.9740639278663
 51
37.47201746956243
  0
ARC
  5
2A59
330
23E6
100
AcDbEntity
  8
0
 62
     7
100
AcDbCircle
 10
1297.703451768556
 20
906.1340317653789
 30
0.0
 40
11.90624982148617
100
AcDbArc
 50
288.8956262397789
 51
56.38833833114904
  0
ARC
  5
2A5A
330
23E6
100
AcDbEntity
  8
0
 62
     7
100
AcDbCircle
 10
1297.703451768547
 20
906.134031765306
 30
0.0
 40
11.90624982050447
100
AcDbArc
 50
107.9556616703311
 51
235.44837376136
  0
ARC
  5
2A5B
330
23E6
100
AcDbEntity
  8
0
 62
     7
100
AcDbCircle
 10
1326.524166025821
 20
906.1330257329082
 30
0.0
 40
11.90624982096503
100
AcDbArc
 50
304.5476262415324
 51
72.04033833144449
  0
ARC
  5
2A5C
330
23E6
100
AcDbEntity
  8
0
 62
     7
100
AcDbCircle
 10
1326.524166025833
 20
906.1330257328254
 30
0.0
 40
11.906249820871
100
AcDbArc
 50
123.6076616689756
 51
251.1003737607876
  0
CIRCLE
  5
2A5D
330
23E6
100
AcDbEntity
  8
1
 62
     7
100
AcDbCircle
 10
1312.117468652409
 20
860.9778426498692
 30
0.0
 40
7.0
  0
ARC
  5
2A5E
330
23E6
100
AcDbEntity
  8
0
 62
     7
100
AcDbCircle
 10
1312.117468651824
 20
1010.977842649869
 30
0.0
 40
114.0199982867894
100
AcDbArc
 50
267.7354022483457
 51
272.2605977558687
  0
LINE
  5
2A5F
330
23E6
100
AcDbEntity
  8
1
  6
CENTER
 62
     3
100
AcDbLine
 10
1338.857114341795
 20
876.5485658701695
 30
0.0
 11
1344.509949775961
 21
848.1298430494998
 31
0.0
  0
CIRCLE
  5
2A60
330
23E6
100
AcDbEntity
  8
1
 62
     7
100
AcDbCircle
 10
1341.381016954829
 20
863.8600505893847
 30
0.0
 40
7.0
  0
CIRCLE
  5
2A61
330
23E6
100
AcDbEntity
  8
1
 62
     3
100
AcDbCircle
 10
1341.381016954829
 20
863.8600505893847
 30
0.0
 40
5.5
  0
CIRCLE
  5
2A62
330
23E6
100
AcDbEntity
  8
1
 62
     7
100
AcDbCircle
 10
1341.381016954829
 20
863.8600505893847
 30
0.0
 40
4.0
  0
ARC
  5
2A63
330
23E6
100
AcDbEntity
  8
0
 62
     7
100
AcDbCircle
 10
1297.646247884029
 20
905.7179455841131
 30
0.0
 40
13.20999980151188
100
AcDbArc
 50
126.871982535879
 51
205.3699360781544
  0
ARC
  5
2A64
330
23E6
100
AcDbEntity
  8
0
 62
     7
100
AcDbCircle
 10
1312.117468650179
 20
1010.977842650494
 30
0.0
 40
97.30499853846785
100
AcDbArc
 50
251.9996334080691
 51
256.6923665966521
  0
ARC
  5
2A65
330
23E6
100
AcDbEntity
  8
0
 62
     7
100
AcDbCircle
 10
1312.11746865144
 20
1010.977842649869
 30
0.0
 40
97.304998538103
100
AcDbArc
 50
267.651633407094
 51
272.3443665958195
  0
ARC
  5
2A66
330
23E6
100
AcDbEntity
  8
0
 62
     7
100
AcDbCircle
 10
1354.443738296165
 20
913.5224730754448
 30
0.0
 40
13.20999980136757
100
AcDbArc
 50
158.1759825345243
 51
236.6739360767724
  0
ARC
  5
2A67
330
23E6
100
AcDbEntity
  8
0
 62
     7
100
AcDbCircle
 10
1312.117468651184
 20
1010.977842649525
 30
0.0
 40
114.0199982868274
100
AcDbArc
 50
283.3874022490535
 51
287.9125977565715
  0
ARC
  5
2A68
330
23E6
100
AcDbEntity
  8
0
 62
     7
100
AcDbCircle
 10
1354.276425042049
 20
913.9077084186936
 30
0.0
 40
11.90624982089138
100
AcDbArc
 50
139.2596616695514
 51
266.7523737618605
  0
ARC
  5
2A69
330
23E6
100
AcDbEntity
  8
0
 62
     7
100
AcDbCircle
 10
1326.581340862712
 20
905.7169355593925
 30
0.0
 40
13.20999980137667
100
AcDbArc
 50
334.6260639273749
 51
53.12401746885592
  0
ARC
  5
2A6A
330
23E6
100
AcDbEntity
  8
0
 62
     7
100
AcDbCircle
 10
1312.117468650971
 20
1010.977842649465
 30
0.0
 40
97.30499853827041
100
AcDbArc
 50
283.3036334076776
 51
287.9963665964412
  0
ARC
  5
2A6B
330
23E6
100
AcDbEntity
  8
0
 62
     7
100
AcDbCircle
 10
1312.117468652784
 20
1010.977842650096
 30
0.0
 40
97.30499853849686
100
AcDbArc
 50
298.9556334064502
 51
303.6483665951422
  0
CIRCLE
  5
2A6C
330
23E6
100
AcDbEntity
  8
1
 62
     7
100
AcDbCircle
 10
1418.183485830392
 20
904.9118254718869
 30
0.0
 40
6.999999999999992
  0
LINE
  5
2A6D
330
23E6
100
AcDbEntity
  8
1
  6
CENTER
 62
     3
100
AcDbLine
 10
1425.60810703285
 20
897.4872042694283
 30
0.0
 11
1410.758864627933
 21
912.3364466743458
 31
0.0
  0
ARC
  5
2A6E
330
23E6
100
AcDbEntity
  8
0
 62
     7
100
AcDbCircle
 10
1378.902016176388
 20
928.8814799072918
 30
0.0
 40
11.9062498211343
100
AcDbArc
 50
335.8516262408314
 51
103.3443383313992
  0
ARC
  5
2A6F
330
23E6
100
AcDbEntity
  8
0
 62
     7
100
AcDbCircle
 10
1398.91772864468
 20
949.7016072390605
 30
0.0
 40
13.20999980148
100
AcDbArc
 50
189.4799825344677
 51
267.9779360778944
  0
ARC
  5
2A70
330
23E6
100
AcDbEntity
  8
0
 62
     7
100
AcDbCircle
 10
1379.167059264122
 20
928.5556699067527
 30
0.0
 40
13.20999980136895
100
AcDbArc
 50
5.930063926226035
 51
84.4280174695687
  0
ARC
  5
2A71
330
23E6
100
AcDbEntity
  8
0
 62
     7
100
AcDbCircle
 10
1398.574612322992
 20
949.943828593194
 30
0.0
 40
11.90624982065439
100
AcDbArc
 50
170.5636616706317
 51
298.0563737609161
  0
ARC
  5
2A72
330
23E6
100
AcDbEntity
  8
0
 62
     7
100
AcDbCircle
 10
1312.117468652737
 20
1010.977842650219
 30
0.0
 40
97.30499853822408
100
AcDbArc
 50
314.6076334061898
 51
319.3003665949802
  0
ARC
  5
2A73
330
23E6
100
AcDbEntity
  8
0
 62
     7
100
AcDbCircle
 10
1312.11746865148
 20
1010.977842648873
 30
0.0
 40
114.0199982871014
100
AcDbArc
 50
314.6914022487094
 51
319.2165977562725
  0
ARC
  5
2A74
330
23E6
100
AcDbEntity
  8
0
 62
     7
100
AcDbCircle
 10
1312.117468652406
 20
1012.873967621453
 30
0.0
 40
35.91802446039496
100
AcDbArc
 50
289.2696388779708
 51
89.99999999999349
  0
ARC
  5
2A75
330
23E6
100
AcDbEntity
  8
1
 62
     7
100
AcDbCircle
 10
1312.117468652409
 20
1010.977842649869
 30
0.0
 40
38.4999994211431
100
AcDbArc
 50
285.5162227234377
 51
74.35905747322145
  0
ARC
  5
2A76
330
23E6
100
AcDbEntity
  8
1
 62
     7
100
AcDbCircle
 10
1312.117468652868
 20
1010.977842649869
 30
0.0
 40
13.9999997905546
100
AcDbArc
 50
106.6015491736183
 51
73.39845040725307
  0
ARC
  5
2A77
330
23E6
100
AcDbEntity
  8
0
 62
     7
100
AcDbCircle
 10
1303.882868776137
 20
972.5135932278064
 30
0.0
 40
2.1669999674952
100
AcDbArc
 50
180.0
 51
269.9999999985474
  0
ARC
  5
2A78
330
23E6
100
AcDbEntity
  8
0
 62
     7
100
AcDbCircle
 10
1299.548868841217
 20
976.9226201576135
 30
0.0
 40
2.166999967480534
100
AcDbArc
 50
0.0000000005471572
 51
70.73036112249053
  0
LINE
  5
2A79
330
23E6
100
AcDbEntity
  8
0
 62
     7
100
AcDbLine
 10
1301.715868808697
 20
972.5135932278064
 30
0.0
 11
1301.715868808697
 21
976.9226201576339
 31
0.0
  0
LINE
  5
2A7A
330
23E6
100
AcDbEntity
  8
0
 62
     7
100
AcDbLine
 10
1313.200968636134
 20
970.3465932603112
 30
0.0
 11
1320.352068528748
 21
970.3465932603112
 31
0.0
  0
CIRCLE
  5
2A7B
330
23E6
100
AcDbEntity
  8
0
 62
     7
100
AcDbCircle
 10
1306.374918738693
 20
975.5473931821125
 30
0.0
 40
2.16699996743472
  0
ARC
  5
2A7C
330
23E6
100
AcDbEntity
  8
1
 62
     7
100
AcDbCircle
 10
1312.117468653353
 20
1010.977842649867
 30
0.0
 40
38.4999994189494
100
AcDbArc
 50
268.274995116297
 51
271.5749543142198
  0
LINE
  5
2A7D
330
23E6
100
AcDbEntity
  8
0
 62
     7
100
AcDbLine
 10
1313.200968636134
 20
978.6006169393065
 30
0.0
 11
1313.200968636134
 21
970.3465932603112
 31
0.0
  0
LINE
  5
2A7E
330
23E6
100
AcDbEntity
  8
0
 62
     7
100
AcDbLine
 10
1311.03396866869
 20
978.6006169393065
 30
0.0
 11
1311.03396866869
 21
970.3465932603112
 31
0.0
  0
LINE
  5
2A7F
330
23E6
100
AcDbEntity
  8
0
 62
     7
100
AcDbLine
 10
1311.03396866869
 20
970.3465932603112
 30
0.0
 11
1303.882868776082
 21
970.3465932603112
 31
0.0
  0
CIRCLE
  5
2A80
330
23E6
100
AcDbEntity
  8
0
 62
     7
100
AcDbCircle
 10
1317.860018566143
 20
975.5473931821125
 30
0.0
 40
2.166999967445689
  0
ARC
  5
2A81
330
23E6
100
AcDbEntity
  8
0
 62
     7
100
AcDbCircle
 10
1320.352068528718
 20
972.5135932278035
 30
0.0
 40
2.166999967492456
100
AcDbArc
 50
270.0000000007979
 51
0.0000000000716515
  0
ARC
  5
2A82
330
23E6
100
AcDbEntity
  8
0
 62
     7
100
AcDbCircle
 10
1324.686068463618
 20
976.9226201576339
 30
0.0
 40
2.166999967458623
100
AcDbArc
 50
109.2696388775033
 51
180.0
  0
LINE
  5
2A83
330
23E6
100
AcDbEntity
  8
0
 62
     7
100
AcDbLine
 10
1322.519068496161
 20
972.5135932278064
 30
0.0
 11
1322.519068496161
 21
976.9226201576339
 31
0.0
  0
LINE
  5
2A84
330
23E6
100
AcDbEntity
  8
1
 62
     7
100
AcDbLine
 10
1316.117468590796
 20
1028.277842389903
 30
0.0
 11
1308.117468812322
 21
1028.277842389903
 31
0.0
  0
LINE
  5
2A85
330
23E6
100
AcDbEntity
  8
1
 62
     7
100
AcDbLine
 10
1308.117468812322
 20
1028.277842389903
 30
0.0
 11
1308.117468812322
 21
1024.394250343851
 31
0.0
  0
LINE
  5
2A86
330
23E6
100
AcDbEntity
  8
1
 62
     7
100
AcDbLine
 10
1316.117468590796
 20
1024.394250312762
 30
0.0
 11
1316.117468590796
 21
1028.277842389903
 31
0.0
  0
ARC
  5
2A87
330
23E6
100
AcDbEntity
  8
0
 62
     7
100
AcDbCircle
 10
1412.230961993057
 20
975.3920222712922
 30
0.0
 40
13.20999980163431
100
AcDbArc
 50
205.1319825348352
 51
283.6299360769372
  0
ARC
  5
2A88
330
23E6
100
AcDbEntity
  8
0
 62
     7
100
AcDbCircle
 10
1312.117468652586
 20
1010.977842650209
 30
0.0
 40
114.0199982872171
100
AcDbArc
 50
330.3434022482587
 51
334.8685977558255
  0
ARC
  5
2A89
330
23E6
100
AcDbEntity
  8
0
 62
     7
100
AcDbCircle
 10
1418.119399499285
 20
1003.721616522135
 30
0.0
 40
13.20999980176801
100
AcDbArc
 50
220.7839825354126
 51
299.2819360791015
  0
ARC
  5
2A8A
330
23E6
100
AcDbEntity
  8
0
 62
     7
100
AcDbCircle
 10
1412.230961993468
 20
975.3920222717898
 30
0.0
 40
13.20999980135883
100
AcDbArc
 50
37.2340639271703
 51
115.7320174694633
  0
ARC
  5
2A8B
330
23E6
100
AcDbEntity
  8
0
 62
     7
100
AcDbCircle
 10
1411.835219242933
 20
975.5326909258606
 30
0.0
 40
11.90624982142438
100
AcDbArc
 50
7.155626241056142
 51
134.6483383316568
  0
ARC
  5
2A8C
330
23E6
100
AcDbEntity
  8
0
 62
     7
100
AcDbCircle
 10
1411.835219242967
 20
975.5326909258471
 30
0.0
 40
11.90624982078865
100
AcDbArc
 50
186.2156616694458
 51
313.7083737610647
  0
ARC
  5
2A8D
330
23E6
100
AcDbEntity
  8
0
 62
     7
100
AcDbCircle
 10
1417.700380102071
 20
1003.750299957201
 30
0.0
 40
11.90624982070956
100
AcDbArc
 50
201.8676616703372
 51
329.3603737617863
  0
ARC
  5
2A8E
330
23E6
100
AcDbEntity
  8
0
 62
     7
100
AcDbCircle
 10
1312.117468652156
 20
1010.977842649379
 30
0.0
 40
97.30499853836048
100
AcDbArc
 50
330.2596334071302
 51
334.9523665960261
  0
ARC
  5
2A8F
330
23E6
100
AcDbEntity
  8
0
 62
     7
100
AcDbCircle
 10
1398.917728645548
 20
949.7016072397284
 30
0.0
 40
13.2099998013464
100
AcDbArc
 50
21.58206392659449
 51
100.0800174702187
  0
ARC
  5
2A90
330
23E6
100
AcDbEntity
  8
0
 62
     7
100
AcDbCircle
 10
1312.117468652461
 20
1010.977842650114
 30
0.0
 40
97.3049985384652
100
AcDbArc
 50
345.9116334069519
 51
350.6043665956765
  0
ARC
  5
2A91
330
23E6
100
AcDbEntity
  8
0
 62
     7
100
AcDbCircle
 10
1312.117468652447
 20
1010.977842650051
 30
0.0
 40
114.0199982873183
100
AcDbArc
 50
345.9954022485927
 51
350.5205977560724
  0
ARC
  5
2A92
330
23E6
100
AcDbEntity
  8
0
 62
     7
100
AcDbCircle
 10
1416.146332335742
 20
1032.589359985516
 30
0.0
 40
13.20999980161324
100
AcDbArc
 50
236.4359825364461
 51
314.9339360783915
  0
ARC
  5
2A93
330
23E6
100
AcDbEntity
  8
0
 62
     7
100
AcDbCircle
 10
1418.119399499651
 20
1003.721616522999
 30
0.0
 40
13.2099998014893
100
AcDbArc
 50
52.88606392866308
 51
131.3840174700948
  0
ARC
  5
2A94
330
23E6
100
AcDbEntity
  8
0
 62
     7
100
AcDbCircle
 10
1406.458090638022
 20
1059.854311469292
 30
0.0
 40
13.20999980179202
100
AcDbArc
 50
252.0879825351649
 51
330.5859360777239
  0
ARC
  5
2A95
330
23E6
100
AcDbEntity
  8
0
 62
     7
100
AcDbCircle
 10
1416.146332336481
 20
1032.589359984964
 30
0.0
 40
13.20999980146249
100
AcDbArc
 50
68.53806392649865
 51
147.0360174692797
  0
ARC
  5
2A96
330
23E6
100
AcDbEntity
  8
0
 62
     7
100
AcDbCircle
 10
1417.700380102084
 20
1003.7502999572
 30
0.0
 40
11.90624982113666
100
AcDbArc
 50
22.80762624117786
 51
150.3003383316371
  0
ARC
  5
2A97
330
23E6
100
AcDbEntity
  8
0
 62
     7
100
AcDbCircle
 10
1415.735112357229
 20
1032.503930928802
 30
0.0
 40
11.90624982122767
100
AcDbArc
 50
38.45962624112487
 51
165.9523383319271
  0
ARC
  5
2A98
330
23E6
100
AcDbEntity
  8
0
 62
     7
100
AcDbCircle
 10
1415.735112357227
 20
1032.503930928802
 30
0.0
 40
11.90624982069972
100
AcDbArc
 50
217.5196616707511
 51
345.012373762435
  0
ARC
  5
2A99
330
23E6
100
AcDbEntity
  8
0
 62
     7
100
AcDbCircle
 10
1406.085167708865
 20
1059.661105663174
 30
0.0
 40
11.90624982079792
100
AcDbArc
 50
233.1716616700258
 51
0.6643737616079788
  0
ARC
  5
2A9A
330
23E6
100
AcDbEntity
  8
0
 62
     7
100
AcDbCircle
 10
1312.1174686524
 20
1010.977842650014
 30
0.0
 40
97.30499853826923
100
AcDbArc
 50
1.563633407316414
 51
6.256366596044069
  0
ARC
  5
2A9B
330
23E6
100
AcDbEntity
  8
0
 62
     7
100
AcDbCircle
 10
1312.117468652391
 20
1010.977842649921
 30
0.0
 40
97.30499853850801
100
AcDbArc
 50
17.21563340686324
 51
21.90836659557722
  0
ARC
  5
2A9C
330
23E6
100
AcDbEntity
  8
0
 62
     7
100
AcDbCircle
 10
1312.117468652423
 20
1010.977842649675
 30
0.0
 40
114.0199982870589
100
AcDbArc
 50
1.647402249050169
 51
6.172597756563754
  0
ARC
  5
2A9D
330
23E6
100
AcDbEntity
  8
0
 62
     7
100
AcDbCircle
 10
1312.117468652373
 20
1010.977842649972
 30
0.0
 40
114.0199982874909
100
AcDbArc
 50
17.29940224839461
 51
21.8245977559378
  0
CIRCLE
  5
2A9E
330
23E6
100
AcDbEntity
  8
1
 62
     7
100
AcDbCircle
 10
1450.699398529103
 20
1068.380357504632
 30
0.0
 40
7.000000000000007
  0
LINE
  5
2A9F
330
23E6
100
AcDbEntity
  8
1
  6
CENTER
 62
     3
100
AcDbLine
 10
1460.400133620471
 20
1072.398533544465
 30
0.0
 11
1440.998663437734
 21
1064.362181464799
 31
0.0
  0
CIRCLE
  5
2AA0
330
23E6
100
AcDbEntity
  8
1
 62
     7
100
AcDbCircle
 10
1369.519983507174
 20
1149.559772526562
 30
0.0
 40
6.999999999999999
  0
ARC
  5
2AA1
330
23E6
100
AcDbEntity
  8
0
 62
     7
100
AcDbCircle
 10
1367.110800941584
 20
1101.397541650169
 30
0.0
 40
11.90624982064384
100
AcDbArc
 50
264.4756616702074
 51
31.9683737625825
  0
LINE
  5
2AA2
330
23E6
100
AcDbEntity
  8
1
  6
CENTER
 62
     3
100
AcDbLine
 10
1373.538159547007
 20
1159.26050761793
 30
0.0
 11
1365.50180746734
 21
1139.859037435193
 31
0.0
  0
ARC
  5
2AA3
330
23E6
100
AcDbEntity
  8
0
 62
     7
100
AcDbCircle
 10
1312.117468652411
 20
1117.22784105409
 30
0.0
 40
13.20999980159899
100
AcDbArc
 50
314.6999825337978
 51
33.19793607623068
  0
ARC
  5
2AA4
330
23E6
100
AcDbEntity
  8
0
 62
     7
100
AcDbCircle
 10
1340.783064609889
 20
1113.287889905038
 30
0.0
 40
13.20999980151332
100
AcDbArc
 50
131.1500639258977
 51
209.6480174683335
  0
ARC
  5
2AA5
330
23E6
100
AcDbEntity
  8
0
 62
     7
100
AcDbCircle
 10
1283.451872694671
 20
1113.287889904688
 30
0.0
 40
13.20999980158314
100
AcDbArc
 50
330.3519825343472
 51
48.84993607689771
  0
ARC
  5
2AA6
330
23E6
100
AcDbEntity
  8
0
 62
     7
100
AcDbCircle
 10
1312.11746865195
 20
1117.227841054444
 30
0.0
 40
13.20999980151718
100
AcDbArc
 50
146.8020639257692
 51
225.3000174689035
  0
ARC
  5
2AA7
330
23E6
100
AcDbEntity
  8
0
 62
     7
100
AcDbCircle
 10
1340.79020712524
 20
1113.285888420447
 30
0.0
 40
13.20999980167212
100
AcDbArc
 50
299.0439825358374
 51
17.54193607915651
  0
ARC
  5
2AA8
330
23E6
100
AcDbEntity
  8
0
 62
     7
100
AcDbCircle
 10
1312.117468652279
 20
1010.977842649926
 30
0.0
 40
114.0199982878097
100
AcDbArc
 50
64.25540224928923
 51
68.78059775668866
  0
ARC
  5
2AA9
330
23E6
100
AcDbEntity
  8
0
 62
     7
100
AcDbCircle
 10
1312.12488629881
 20
1117.227840795349
 30
0.0
 40
13.20999980157738
100
AcDbArc
 50
314.6959825357125
 51
33.19393607742067
  0
ARC
  5
2AAA
330
23E6
100
AcDbEntity
  8
0
 62
     7
100
AcDbCircle
 10
1340.790207126157
 20
1113.285888420461
 30
0.0
 40
13.20999980150384
100
AcDbArc
 50
131.1460639274778
 51
209.6440174691913
  0
ARC
  5
2AAB
330
23E6
100
AcDbEntity
  8
0
 62
     7
100
AcDbCircle
 10
1312.117468652409
 20
1116.807841060472
 30
0.0
 40
11.90624982118589
100
AcDbArc
 50
116.7236262394706
 51
244.2163383303687
  0
ARC
  5
2AAC
330
23E6
100
AcDbEntity
  8
0
 62
     7
100
AcDbCircle
 10
1312.117468652409
 20
1116.80784106047
 30
0.0
 40
11.90624982079953
100
AcDbArc
 50
295.7836616686174
 51
63.27637376044201
  0
ARC
  5
2AAD
330
23E6
100
AcDbEntity
  8
0
 62
     7
100
AcDbCircle
 10
1283.565186109209
 20
1112.883464306323
 30
0.0
 40
11.90624982068001
100
AcDbArc
 50
311.4356616687069
 51
78.92837375921721
  0
ARC
  5
2AAE
330
23E6
100
AcDbEntity
  8
0
 62
     7
100
AcDbCircle
 10
1367.110800941578
 20
1101.397541650159
 30
0.0
 40
11.90624982134538
100
AcDbArc
 50
85.41562624209612
 51
212.9083383318494
  0
ARC
  5
2AAF
330
23E6
100
AcDbEntity
  8
0
 62
     7
100
AcDbCircle
 10
1340.676865476668
 20
1112.881470733773
 30
0.0
 40
11.90624982104416
100
AcDbArc
 50
101.0676262418497
 51
228.5603383323523
  0
ARC
  5
2AB0
330
23E6
100
AcDbEntity
  8
0
 62
     7
100
AcDbCircle
 10
1340.676865476668
 20
1112.881470733772
 30
0.0
 40
11.90624982096992
100
AcDbArc
 50
280.1276616708875
 51
47.62037376187503
  0
ARC
  5
2AB1
330
23E6
100
AcDbEntity
  8
0
 62
     7
100
AcDbCircle
 10
1312.124856977291
 20
1116.807840802859
 30
0.0
 40
11.90624982144808
100
AcDbArc
 50
116.7196262404708
 51
244.2123383321426
  0
ARC
  5
2AB2
330
23E6
100
AcDbEntity
  8
0
 62
     7
100
AcDbCircle
 10
1312.12485697729
 20
1116.807840802847
 30
0.0
 40
11.90624982080656
100
AcDbArc
 50
295.7796616701777
 51
63.27237376225983
  0
ARC
  5
2AB3
330
23E6
100
AcDbEntity
  8
0
 62
     7
100
AcDbCircle
 10
1312.117468652593
 20
1010.977842649843
 30
0.0
 40
97.30499853848394
100
AcDbArc
 50
79.82763340570738
 51
84.52036659443846
  0
ARC
  5
2AB4
330
23E6
100
AcDbEntity
  8
0
 62
     7
100
AcDbCircle
 10
1312.117468652476
 20
1010.97784264986
 30
0.0
 40
97.30499853879321
100
AcDbArc
 50
79.82363340714981
 51
84.51636659589308
  0
ARC
  5
2AB5
330
23E6
100
AcDbEntity
  8
0
 62
     7
100
AcDbCircle
 10
1312.117468652203
 20
1010.97784264984
 30
0.0
 40
97.30499853865708
100
AcDbArc
 50
95.47963340550642
 51
100.1723665942562
  0
ARC
  5
2AB6
330
23E6
100
AcDbEntity
  8
0
 62
     7
100
AcDbCircle
 10
1312.11746865238
 20
1010.977842649882
 30
0.0
 40
97.30499853867613
100
AcDbArc
 50
64.17163340766544
 51
68.86436659646472
  0
ARC
  5
2AB7
330
23E6
100
AcDbEntity
  8
0
 62
     7
100
AcDbCircle
 10
1367.329049070771
 20
1101.756383884347
 30
0.0
 40
13.20999980151549
100
AcDbArc
 50
115.4940639271982
 51
193.9920174702757
  0
ARC
  5
2AB8
330
23E6
100
AcDbEntity
  8
0
 62
     7
100
AcDbCircle
 10
1312.117468652662
 20
1010.977842649834
 30
0.0
 40
114.0199982873724
100
AcDbArc
 50
79.91140224727345
 51
84.43659775481428
  0
ARC
  5
2AB9
330
23E6
100
AcDbEntity
  8
0
 62
     7
100
AcDbCircle
 10
1312.11746865216
 20
1010.977842649902
 30
0.0
 40
114.0199982875665
100
AcDbArc
 50
79.90740224853431
 51
84.43259775605602
  0
ARC
  5
2ABA
330
23E6
100
AcDbEntity
  8
0
 62
     7
100
AcDbCircle
 10
1312.117468652494
 20
1010.97784264988
 30
0.0
 40
114.0199982874939
100
AcDbArc
 50
95.56340224724099
 51
100.0885977548073
  0
CIRCLE
  5
2ABB
330
23E6
100
AcDbEntity
  8
1
 62
     7
100
AcDbCircle
 10
1312.117468652409
 20
1160.977842649869
 30
0.0
 40
7.0
  0
CIRCLE
  5
2ABC
330
23E6
100
AcDbEntity
  8
1
 62
     7
100
AcDbCircle
 10
1418.183485830392
 20
1117.043859827851
 30
0.0
 40
7.000000000000006
  0
LINE
  5
2ABD
330
23E6
100
AcDbEntity
  8
1
  6
CENTER
 62
     3
100
AcDbLine
 10
1425.608107032851
 20
1124.468481030309
 30
0.0
 11
1410.758864627933
 21
1109.619238625392
 31
0.0
  0
ARC
  5
2ABE
330
23E6
100
AcDbEntity
  8
0
 62
     7
100
AcDbCircle
 10
1367.329049071143
 20
1101.756383883801
 30
0.0
 40
13.20999980167083
100
AcDbArc
 50
283.3919825355525
 51
1.889936078310074
  0
ARC
  5
2ABF
330
23E6
100
AcDbEntity
  8
0
 62
     7
100
AcDbCircle
 10
1312.117468652456
 20
1010.97784264983
 30
0.0
 40
97.30499853833633
100
AcDbArc
 50
48.51963340753371
 51
53.21236659624297
  0
ARC
  5
2AC0
330
23E6
100
AcDbEntity
  8
0
 62
     7
100
AcDbCircle
 10
1389.773191101531
 20
1083.494398910284
 30
0.0
 40
13.20999980146702
100
AcDbArc
 50
99.8420639281144
 51
178.3400174703703
  0
ARC
  5
2AC1
330
23E6
100
AcDbEntity
  8
0
 62
     7
100
AcDbCircle
 10
1389.466222599299
 20
1083.207745228154
 30
0.0
 40
11.90624982122698
100
AcDbArc
 50
69.7636262408972
 51
197.256338331941
  0
ARC
  5
2AC2
330
23E6
100
AcDbEntity
  8
0
 62
     7
100
AcDbCircle
 10
1389.773191101892
 20
1083.494398909355
 30
0.0
 40
13.20999980167828
100
AcDbArc
 50
267.7399825357812
 51
346.2379360784141
  0
ARC
  5
2AC3
330
23E6
100
AcDbEntity
  8
0
 62
     7
100
AcDbCircle
 10
1312.117468652487
 20
1010.977842649759
 30
0.0
 40
97.30499853850391
100
AcDbArc
 50
32.86763340726523
 51
37.56036659596557
  0
ARC
  5
2AC4
330
23E6
100
AcDbEntity
  8
0
 62
     7
100
AcDbCircle
 10
1389.46622259931
 20
1083.207745228164
 30
0.0
 40
11.90624982073208
100
AcDbArc
 50
248.8236616700607
 51
16.31637376271014
  0
ARC
  5
2AC5
330
23E6
100
AcDbEntity
  8
0
 62
     7
100
AcDbCircle
 10
1406.458090637827
 20
1059.8543114703
 30
0.0
 40
13.20999980137908
100
AcDbArc
 50
84.19006392645023
 51
162.6880174698224
  0
ARC
  5
2AC6
330
23E6
100
AcDbEntity
  8
0
 62
     7
100
AcDbCircle
 10
1312.117468652543
 20
1010.97784264968
 30
0.0
 40
114.0199982875536
100
AcDbArc
 50
32.95140224881658
 51
37.47659775636137
  0
ARC
  5
2AC7
330
23E6
100
AcDbEntity
  8
0
 62
     7
100
AcDbCircle
 10
1312.117468652308
 20
1010.977842649951
 30
0.0
 40
114.0199982873209
100
AcDbArc
 50
48.6034022489945
 51
53.12859775649055
  0
INSERT
  5
2AD1
330
23E6
100
AcDbEntity
  8
AM_0
100
AcDbBlockReference
  2
HD LLC
 10
1376.763480544843
 20
518.2039086953409
 30
0.0
 41
4.074318686611265
 42
4.074318686611265
 43
4.074318686611265
  0
INSERT
  5
2AD7
330
23E6
100
AcDbEntity
  8
AM_0
100
AcDbBlockReference
  2
HD logo-new
 10
1066.984089653792
 20
526.2452222677018
 30
0.0
 41
3.6
 42
3.6
 43
3.6
  0
INSERT
  5
2AE4
330
23E6
100
AcDbEntity
  8
AM_0
100
AcDbBlockReference
  2
NTC
 10
344.0124484061495
 20
626.1848304474467
 30
0.0
 41
1.85
 42
1.85
 43
1.85
  0
ENDSEC
  0
SECTION
  2
OBJECTS
  0
DICTIONARY
  5
23D4
330
0
100
AcDbDictionary
281
     1
  3
ACAD_GROUP
350
23D5
  3
ACAD_LAYOUT
350
23E1
  3
ACAD_MLINESTYLE
350
23DE
  3
ACAD_PLOTSETTINGS
350
23E0
  3
ACAD_PLOTSTYLENAME
350
23D6
  3
AcDbVariableDictionary
350
26AF
  0
DICTIONARY
  5
23D5
102
{ACAD_REACTORS
330
23D4
102
}
330
23D4
100
AcDbDictionary
281
     1
  0
DICTIONARY
  5
23E1
102
{ACAD_REACTORS
330
23D4
102
}
330
23D4
100
AcDbDictionary
281
     1
  3
Layout1
350
23E5
  3
Model
350
23E9
  0
DICTIONARY
  5
23DE
102
{ACAD_REACTORS
330
23D4
102
}
330
23D4
100
AcDbDictionary
281
     1
  3
Standard
350
23DF
  0
DICTIONARY
  5
23E0
102
{ACAD_REACTORS
330
23D4
102
}
330
23D4
100
AcDbDictionary
281
     1
  0
ACDBDICTIONARYWDFLT
  5
23D6
102
{ACAD_REACTORS
330
23D4
102
}
330
23D4
100
AcDbDictionary
281
     1
  3
Normal
350
23D7
100
AcDbDictionaryWithDefault
340
23D7
  0
DICTIONARY
  5
26AF
102
{ACAD_REACTORS
330
23D4
102
}
330
23D4
100
AcDbDictionary
281
     1
  3
DIMASSOC
350
26B0
  0
LAYOUT
  5
23E5
102
{ACAD_REACTORS
330
23E1
102
}
330
23E1
100
AcDbPlotSettings
  1

  2
\\SERVER9\HP LaserJet 5100 PCL 5e
  4

  6

 40
0.0
 41
0.0
 42
0.0
 43
0.0
 44
0.0
 45
0.0
 46
0.0
 47
0.0
 48
0.0
 49
0.0
140
0.0
141
0.0
142
1.0
143
1.0
 70
   688
 72
     0
 73
     0
 74
     5
  7

 75
    16
147
1.0
148
0.0
149
0.0
100
AcDbLayout
  1
Layout1
 70
     1
 71
     1
 10
0.0
 20
0.0
 11
420.0
 21
297.0
 12
0.0
 22
0.0
 32
0.0
 14
1.000000000000000E+20
 24
1.000000000000000E+20
 34
1.000000000000000E+20
 15
-1.000000000000000E+20
 25
-1.000000000000000E+20
 35
-1.000000000000000E+20
146
0.0
 13
0.0
 23
0.0
 33
0.0
 16
1.0
 26
0.0
 36
0.0
 17
0.0
 27
1.0
 37
0.0
 76
     0
330
23E2
  0
LAYOUT
  5
23E9
102
{ACAD_REACTORS
330
23E1
102
}
330
23E1
100
AcDbPlotSettings
  1

  2
\\SERVER9\HP LaserJet 5100 PCL 5e
  4

  6

 40
0.0
 41
0.0
 42
0.0
 43
0.0
 44
0.0
 45
0.0
 46
0.0
 47
0.0
 48
0.0
 49
0.0
140
0.0
141
0.0
142
1.0
143
1.0
 70
  1712
 72
     0
 73
     0
 74
     0
  7

 75
     0
147
1.0
148
0.0
149
0.0
100
AcDbLayout
  1
Model
 70
     1
 71
     0
 10
0.0
 20
0.0
 11
12.0
 21
9.0
 12
0.0
 22
0.0
 32
0.0
 14
0.0
 24
0.0
 34
0.0
 15
0.0
 25
0.0
 35
0.0
146
0.0
 13
0.0
 23
0.0
 33
0.0
 16
1.0
 26
0.0
 36
0.0
 17
0.0
 27
1.0
 37
0.0
 76
     0
330
23E6
  0
MLINESTYLE
  5
23DF
102
{ACAD_REACTORS
330
23DE
102
}
330
23DE
100
AcDbMlineStyle
  2
STANDARD
 70
     0
  3

 62
   256
 51
90.0
 52
90.0
 71
     2
 49
0.5
 62
   256
  6
BYLAYER
 49
-0.5
 62
   256
  6
BYLAYER
  0
ACDBPLACEHOLDER
  5
23D7
102
{ACAD_REACTORS
330
23D6
102
}
330
23D6
  0
DICTIONARYVAR
  5
26B0
102
{ACAD_REACTORS
330
26AF
102
}
330
26AF
100
DictionaryVariables
280
     0
  1
1
  0
ENDSEC
  0
EOF
