  0
SECTION
  2
HEADER
  9
$ACADVER
  1
AC1015
  9
$ACADMAINTVER
 70
    13
  9
$DWGCODEPAGE
  3
ANSI_1252
  9
$INSBASE
 10
0.0
 20
0.0
 30
0.0
  9
$EXTMIN
 10
60.68302098397275
 20
72.4578431229465
 30
0.0
  9
$EXTMAX
 10
396.0126211075062
 20
252.7815501107172
 30
0.0
  9
$LIMMIN
 10
0.0
 20
0.0
  9
$LIMMAX
 10
420.0
 20
297.0
  9
$ORTHOMODE
 70
     1
  9
$REGENMODE
 70
     1
  9
$FILLMODE
 70
     1
  9
$QTEXTMODE
 70
     0
  9
$MIRRTEXT
 70
     1
  9
$LTSCALE
 40
1.0
  9
$ATTMODE
 70
     1
  9
$TEXTSIZE
 40
2.5
  9
$TRACEWID
 40
1.0
  9
$TEXTSTYLE
  7
STANDARD
  9
$CLAYER
  8
AM_0
  9
$CELTYPE
  6
ByLayer
  9
$CECOLOR
 62
   256
  9
$CELTSCALE
 40
1.0
  9
$DISPSILH
 70
     0
  9
$DIMSCALE
 40
1.0
  9
$DIMASZ
 40
2.5
  9
$DIMEXO
 40
0.625
  9
$DIMDLI
 40
3.75
  9
$DIMRND
 40
0.0
  9
$DIMDLE
 40
0.0
  9
$DIMEXE
 40
1.25
  9
$DIMTP
 40
0.0
  9
$DIMTM
 40
0.0
  9
$DIMTXT
 40
2.5
  9
$DIMCEN
 40
2.5
  9
$DIMTSZ
 40
0.0
  9
$DIMTOL
 70
     0
  9
$DIMLIM
 70
     0
  9
$DIMTIH
 70
     0
  9
$DIMTOH
 70
     0
  9
$DIMSE1
 70
     0
  9
$DIMSE2
 70
     0
  9
$DIMTAD
 70
     1
  9
$DIMZIN
 70
     8
  9
$DIMBLK
  1

  9
$DIMASO
 70
     1
  9
$DIMSHO
 70
     1
  9
$DIMPOST
  1

  9
$DIMAPOST
  1

  9
$DIMALT
 70
     0
  9
$DIMALTD
 70
     3
  9
$DIMALTF
 40
0.03937007874016
  9
$DIMLFAC
 40
1.0
  9
$DIMTOFL
 70
     1
  9
$DIMTVP
 40
0.0
  9
$DIMTIX
 70
     0
  9
$DIMSOXD
 70
     0
  9
$DIMSAH
 70
     0
  9
$DIMBLK1
  1

  9
$DIMBLK2
  1

  9
$DIMSTYLE
  2
ISO-25
  9
$DIMCLRD
 70
     0
  9
$DIMCLRE
 70
     0
  9
$DIMCLRT
 70
     0
  9
$DIMTFAC
 40
1.0
  9
$DIMGAP
 40
0.625
  9
$DIMJUST
 70
     0
  9
$DIMSD1
 70
     0
  9
$DIMSD2
 70
     0
  9
$DIMTOLJ
 70
     1
  9
$DIMTZIN
 70
     0
  9
$DIMALTZ
 70
     0
  9
$DIMALTTZ
 70
     0
  9
$DIMUPT
 70
     0
  9
$DIMDEC
 70
     4
  9
$DIMTDEC
 70
     4
  9
$DIMALTU
 70
     2
  9
$DIMALTTD
 70
     2
  9
$DIMTXSTY
  7
STANDARD
  9
$DIMAUNIT
 70
     0
  9
$DIMADEC
 70
     0
  9
$DIMALTRND
 40
0.0
  9
$DIMAZIN
 70
     0
  9
$DIMDSEP
 70
    46
  9
$DIMATFIT
 70
     3
  9
$DIMFRAC
 70
     0
  9
$DIMLDRBLK
  1

  9
$DIMLUNIT
 70
     2
  9
$DIMLWD
 70
    -2
  9
$DIMLWE
 70
    -2
  9
$DIMTMOVE
 70
     0
  9
$LUNITS
 70
     2
  9
$LUPREC
 70
     2
  9
$SKETCHINC
 40
1.0
  9
$FILLETRAD
 40
2.5
  9
$AUNITS
 70
     0
  9
$AUPREC
 70
     0
  9
$MENU
  1
.
  9
$ELEVATION
 40
0.0
  9
$PELEVATION
 40
0.0
  9
$THICKNESS
 40
0.0
  9
$LIMCHECK
 70
     0
  9
$CHAMFERA
 40
2.5
  9
$CHAMFERB
 40
2.5
  9
$CHAMFERC
 40
0.0
  9
$CHAMFERD
 40
0.0
  9
$SKPOLY
 70
     0
  9
$TDCREATE
 40
2452801.978590312
  9
$TDUCREATE
 40
2452802.145256979
  9
$TDUPDATE
 40
2453865.469499051
  9
$TDUUPDATE
 40
2453865.636165717
  9
$TDINDWG
 40
0.0332633565
  9
$TDUSRTIMER
 40
0.0332633565
  9
$USRTIMER
 70
     1
  9
$ANGBASE
 50
0.0
  9
$ANGDIR
 70
     0
  9
$PDMODE
 70
     0
  9
$PDSIZE
 40
0.0
  9
$PLINEWID
 40
0.0
  9
$SPLFRAME
 70
     0
  9
$SPLINETYPE
 70
     6
  9
$SPLINESEGS
 70
     8
  9
$HANDSEED
  5
2535
  9
$SURFTAB1
 70
     6
  9
$SURFTAB2
 70
     6
  9
$SURFTYPE
 70
     6
  9
$SURFU
 70
     6
  9
$SURFV
 70
     6
  9
$UCSBASE
  2

  9
$UCSNAME
  2

  9
$UCSORG
 10
0.0
 20
0.0
 30
0.0
  9
$UCSXDIR
 10
1.0
 20
0.0
 30
0.0
  9
$UCSYDIR
 10
0.0
 20
1.0
 30
0.0
  9
$UCSORTHOREF
  2

  9
$UCSORTHOVIEW
 70
     0
  9
$UCSORGTOP
 10
0.0
 20
0.0
 30
0.0
  9
$UCSORGBOTTOM
 10
0.0
 20
0.0
 30
0.0
  9
$UCSORGLEFT
 10
0.0
 20
0.0
 30
0.0
  9
$UCSORGRIGHT
 10
0.0
 20
0.0
 30
0.0
  9
$UCSORGFRONT
 10
0.0
 20
0.0
 30
0.0
  9
$UCSORGBACK
 10
0.0
 20
0.0
 30
0.0
  9
$PUCSBASE
  2

  9
$PUCSNAME
  2

  9
$PUCSORG
 10
0.0
 20
0.0
 30
0.0
  9
$PUCSXDIR
 10
1.0
 20
0.0
 30
0.0
  9
$PUCSYDIR
 10
0.0
 20
1.0
 30
0.0
  9
$PUCSORTHOREF
  2

  9
$PUCSORTHOVIEW
 70
     0
  9
$PUCSORGTOP
 10
0.0
 20
0.0
 30
0.0
  9
$PUCSORGBOTTOM
 10
0.0
 20
0.0
 30
0.0
  9
$PUCSORGLEFT
 10
0.0
 20
0.0
 30
0.0
  9
$PUCSORGRIGHT
 10
0.0
 20
0.0
 30
0.0
  9
$PUCSORGFRONT
 10
0.0
 20
0.0
 30
0.0
  9
$PUCSORGBACK
 10
0.0
 20
0.0
 30
0.0
  9
$USERI1
 70
     0
  9
$USERI2
 70
     0
  9
$USERI3
 70
     0
  9
$USERI4
 70
     0
  9
$USERI5
 70
     0
  9
$USERR1
 40
0.0
  9
$USERR2
 40
0.0
  9
$USERR3
 40
0.0
  9
$USERR4
 40
0.0
  9
$USERR5
 40
0.0
  9
$WORLDVIEW
 70
     1
  9
$SHADEDGE
 70
     3
  9
$SHADEDIF
 70
    70
  9
$TILEMODE
 70
     1
  9
$MAXACTVP
 70
    64
  9
$PINSBASE
 10
0.0
 20
0.0
 30
0.0
  9
$PLIMCHECK
 70
     0
  9
$PEXTMIN
 10
1.000000000000000E+20
 20
1.000000000000000E+20
 30
1.000000000000000E+20
  9
$PEXTMAX
 10
-1.000000000000000E+20
 20
-1.000000000000000E+20
 30
-1.000000000000000E+20
  9
$PLIMMIN
 10
0.0
 20
0.0
  9
$PLIMMAX
 10
420.0
 20
297.0
  9
$UNITMODE
 70
     0
  9
$VISRETAIN
 70
     1
  9
$PLINEGEN
 70
     0
  9
$PSLTSCALE
 70
     1
  9
$TREEDEPTH
 70
  3020
  9
$CMLSTYLE
  2
Standard
  9
$CMLJUST
 70
     0
  9
$CMLSCALE
 40
1.0
  9
$PROXYGRAPHICS
 70
     1
  9
$MEASUREMENT
 70
     0
  9
$CELWEIGHT
370
    -1
  9
$ENDCAPS
280
     0
  9
$JOINSTYLE
280
     0
  9
$LWDISPLAY
290
     0
  9
$INSUNITS
 70
     0
  9
$HYPERLINKBASE
  1

  9
$STYLESHEET
  1

  9
$XEDIT
290
     1
  9
$CEPSNTYPE
380
     0
  9
$PSTYLEMODE
290
     1
  9
$FINGERPRINTGUID
  2
{5C0A7F71-EEF6-454F-9620-B8BE11AF732B}
  9
$VERSIONGUID
  2
{C4D542D7-7BF9-46E9-A800-A4669F11A172}
  9
$EXTNAMES
290
     1
  9
$PSVPSCALE
 40
0.0
  9
$OLESTARTUP
290
     0
  0
ENDSEC
  0
SECTION
  2
CLASSES
  0
CLASS
  1
ACDBDICTIONARYWDFLT
  2
AcDbDictionaryWithDefault
  3
AutoCAD 2000
 90
        0
280
     0
281
     0
  0
CLASS
  1
ACDBPLACEHOLDER
  2
AcDbPlaceHolder
  3
AutoCAD 2000
 90
        0
280
     0
281
     0
  0
CLASS
  1
LAYOUT
  2
AcDbLayout
  3
AutoCAD 2000
 90
        0
280
     0
281
     0
  0
CLASS
  1
DICTIONARYVAR
  2
AcDbDictionaryVar
  3
AutoCAD 2000
 90
        0
280
     0
281
     0
  0
ENDSEC
  0
SECTION
  2
TABLES
  0
TABLE
  2
VPORT
  5
2204
330
0
100
AcDbSymbolTable
 70
     3
  0
VPORT
  5
2534
330
2204
100
AcDbSymbolTableRecord
100
AcDbViewportTableRecord
  2
*Active
 70
     0
 10
0.0
 20
0.0
 11
1.0
 21
1.0
 12
188.0621123103628
 22
196.0022419982813
 13
0.0
 23
0.0
 14
2.5
 24
2.5
 15
10.0
 25
10.0
 16
0.0
 26
0.0
 36
1.0
 17
0.0
 27
0.0
 37
0.0
 40
208.2122684638766
 41
1.182835820895522
 42
50.0
 43
0.0
 44
0.0
 50
0.0
 51
0.0
 71
     0
 72
   100
 73
     1
 74
     3
 75
     0
 76
     0
 77
     0
 78
     0
281
     0
 65
     1
110
0.0
120
0.0
130
0.0
111
1.0
121
0.0
131
0.0
112
0.0
122
1.0
132
0.0
 79
     0
146
0.0
  0
ENDTAB
  0
TABLE
  2
LTYPE
  5
2201
330
0
100
AcDbSymbolTable
 70
     4
  0
LTYPE
  5
220F
330
2201
100
AcDbSymbolTableRecord
100
AcDbLinetypeTableRecord
  2
ByBlock
 70
     0
  3

 72
    65
 73
     0
 40
0.0
  0
LTYPE
  5
2210
330
2201
100
AcDbSymbolTableRecord
100
AcDbLinetypeTableRecord
  2
ByLayer
 70
     0
  3

 72
    65
 73
     0
 40
0.0
  0
LTYPE
  5
2211
330
2201
100
AcDbSymbolTableRecord
100
AcDbLinetypeTableRecord
  2
CONTINUOUS
 70
     0
  3
Solid line
 72
    65
 73
     0
 40
0.0
  0
LTYPE
  5
2220
330
2201
100
AcDbSymbolTableRecord
100
AcDbLinetypeTableRecord
  2
CENTER
 70
     0
  3
Center ____ _ ____ _ ____ _ ____ _ ____ _ ____
 72
    65
 73
     4
 40
50.8
 49
31.75
 74
     0
 49
-6.349999999999997
 74
     0
 49
6.349999999999997
 74
     0
 49
-6.349999999999997
 74
     0
  0
LTYPE
  5
2221
330
2201
100
AcDbSymbolTableRecord
100
AcDbLinetypeTableRecord
  2
DIVIDE
 70
     0
  3
__ . . __ . . 
 72
    65
 73
     6
 40
5.341698189828708
 49
2.136679275931482
 74
     0
 49
-1.068339637965741
 74
     0
 49
0.0
 74
     0
 49
-1.068339637965741
 74
     0
 49
0.0
 74
     0
 49
-1.068339637965741
 74
     0
  0
LTYPE
  5
2222
330
2201
100
AcDbSymbolTableRecord
100
AcDbLinetypeTableRecord
  2
PHANTOM
 70
     0
  3
_____ _ _ _____ _ _ 
 72
    65
 73
     6
 40
10.68339637965742
 49
5.341698189828708
 74
     0
 49
-1.068339637965741
 74
     0
 49
1.068339637965741
 74
     0
 49
-1.068339637965741
 74
     0
 49
1.068339637965741
 74
     0
 49
-1.068339637965741
 74
     0
  0
ENDTAB
  0
TABLE
  2
LAYER
  5
21FE
330
0
100
AcDbSymbolTable
 70
     4
  0
LAYER
  5
220C
330
21FE
100
AcDbSymbolTableRecord
100
AcDbLayerTableRecord
  2
0
 70
     0
 62
     7
  6
CONTINUOUS
370
    -3
390
220B
  0
LAYER
  5
221E
330
21FE
100
AcDbSymbolTableRecord
100
AcDbLayerTableRecord
  2
AM_0
 70
     0
 62
     7
  6
CONTINUOUS
370
    -3
390
220B
  0
LAYER
  5
2223
330
21FE
100
AcDbSymbolTableRecord
100
AcDbLayerTableRecord
  2
1
 70
     0
 62
     7
  6
CONTINUOUS
370
    -3
390
220B
  0
LAYER
  5
24EC
330
21FE
100
AcDbSymbolTableRecord
100
AcDbLayerTableRecord
  2
LAYER_1
 70
     0
 62
     5
  6
CONTINUOUS
370
    -3
390
220B
  0
ENDTAB
  0
TABLE
  2
STYLE
  5
21FF
330
0
100
AcDbSymbolTable
 70
     1
  0
STYLE
  5
220D
330
21FF
100
AcDbSymbolTableRecord
100
AcDbTextStyleTableRecord
  2
STANDARD
 70
     0
 40
0.0
 41
1.0
 50
0.0
 71
     0
 42
2.5
  3
ISOCP.SHX
  4

  0
ENDTAB
  0
TABLE
  2
VIEW
  5
2202
330
0
100
AcDbSymbolTable
 70
     0
  0
ENDTAB
  0
TABLE
  2
UCS
  5
2203
330
0
100
AcDbSymbolTable
 70
     0
  0
ENDTAB
  0
TABLE
  2
APPID
  5
2205
330
0
100
AcDbSymbolTable
 70
    13
  0
APPID
  5
220E
330
2205
100
AcDbSymbolTableRecord
100
AcDbRegAppTableRecord
  2
ACAD
 70
     0
  0
APPID
  5
2224
330
2205
100
AcDbSymbolTableRecord
100
AcDbRegAppTableRecord
  2
GENIUS_GENDIM_13
 70
     0
  0
APPID
  5
2225
330
2205
100
AcDbSymbolTableRecord
100
AcDbRegAppTableRecord
  2
GENIUS_GENDTOL_13
 70
     0
  0
APPID
  5
2226
330
2205
100
AcDbSymbolTableRecord
100
AcDbRegAppTableRecord
  2
GENIUS_GE3DTOL_13
 70
     0
  0
APPID
  5
2227
330
2205
100
AcDbSymbolTableRecord
100
AcDbRegAppTableRecord
  2
MCAD_NO_VIS
 70
     0
  0
APPID
  5
2228
330
2205
100
AcDbSymbolTableRecord
100
AcDbRegAppTableRecord
  2
ACAD_TEMP_GRAPHIC
 70
     0
  0
APPID
  5
2229
330
2205
100
AcDbSymbolTableRecord
100
AcDbRegAppTableRecord
  2
AD_DRAW
 70
     0
  0
APPID
  5
222A
330
2205
100
AcDbSymbolTableRecord
100
AcDbRegAppTableRecord
  2
ACATTRIBSERVICES
 70
     0
  0
APPID
  5
222B
330
2205
100
AcDbSymbolTableRecord
100
AcDbRegAppTableRecord
  2
ASURF_PCURVE_APPNAME
 70
     0
  0
APPID
  5
222C
330
2205
100
AcDbSymbolTableRecord
100
AcDbRegAppTableRecord
  2
DESIGNERASSEMBLIES
 70
     0
  0
APPID
  5
222D
330
2205
100
AcDbSymbolTableRecord
100
AcDbRegAppTableRecord
  2
ACADM_DIM_EDIT
 70
     0
  0
APPID
  5
222E
330
2205
100
AcDbSymbolTableRecord
100
AcDbRegAppTableRecord
  2
G3V_ENTHND
 70
     0
  0
APPID
  5
222F
330
2205
100
AcDbSymbolTableRecord
100
AcDbRegAppTableRecord
  2
GENIUS_GENDIMSH_14
 70
     0
  0
ENDTAB
  0
TABLE
  2
DIMSTYLE
  5
2206
330
0
100
AcDbSymbolTable
 70
     2
100
AcDbDimStyleTable
 71
     0
  0
DIMSTYLE
105
2230
330
2206
100
AcDbSymbolTableRecord
100
AcDbDimStyleTableRecord
  2
ISO-25
 70
     0
 41
2.5
 42
0.625
 43
3.75
 44
1.25
 73
     0
 74
     0
 77
     1
 78
     8
140
2.5
141
2.5
143
0.03937007874016
147
0.625
171
     3
172
     1
271
     2
272
     2
274
     3
279
     2
284
     8
285
     8
286
     8
340
220D
  0
DIMSTYLE
105
24ED
330
2206
100
AcDbSymbolTableRecord
100
AcDbDimStyleTableRecord
  2
Standard
 70
     0
340
220D
  0
ENDTAB
  0
TABLE
  2
BLOCK_RECORD
  5
21FD
330
0
100
AcDbSymbolTable
 70
    23
  0
BLOCK_RECORD
  5
221A
330
21FD
100
AcDbSymbolTableRecord
100
AcDbBlockTableRecord
  2
*Model_Space
340
221D
  0
BLOCK_RECORD
  5
2216
330
21FD
100
AcDbSymbolTableRecord
100
AcDbBlockTableRecord
  2
*Paper_Space
340
2219
  0
BLOCK_RECORD
  5
2232
330
21FD
100
AcDbSymbolTableRecord
100
AcDbBlockTableRecord
  2
$MODEL_SPACE
340
0
  0
BLOCK_RECORD
  5
2235
330
21FD
100
AcDbSymbolTableRecord
100
AcDbBlockTableRecord
  2
$PAPER_SPACE
340
0
  0
BLOCK_RECORD
  5
2480
330
21FD
100
AcDbSymbolTableRecord
100
AcDbBlockTableRecord
  2
AI9-BLK14
340
0
310
2800000020000000200000000100080000000000000400000000000000000000000000000000000000000000000080000080000000808000800000008000800080800000C0C0C000C0DCC000F0CAA6000020400000206000002080000020A0000020C0000020E00000400000004020000040400000406000004080000040A0
310
000040C0000040E00000600000006020000060400000606000006080000060A0000060C0000060E00000800000008020000080400000806000008080000080A0000080C0000080E00000A0000000A0200000A0400000A0600000A0800000A0A00000A0C00000A0E00000C0000000C0200000C0400000C0600000C0800000C0
310
A00000C0C00000C0E00000E0000000E0200000E0400000E0600000E0800000E0A00000E0C00000E0E00040000000400020004000400040006000400080004000A0004000C0004000E00040200000402020004020400040206000402080004020A0004020C0004020E000404000004040200040404000404060004040800040
310
40A0004040C0004040E00040600000406020004060400040606000406080004060A0004060C0004060E00040800000408020004080400040806000408080004080A0004080C0004080E00040A0000040A0200040A0400040A0600040A0800040A0A00040A0C00040A0E00040C0000040C0200040C0400040C0600040C08000
310
40C0A00040C0C00040C0E00040E0000040E0200040E0400040E0600040E0800040E0A00040E0C00040E0E00080000000800020008000400080006000800080008000A0008000C0008000E00080200000802020008020400080206000802080008020A0008020C0008020E00080400000804020008040400080406000804080
310
008040A0008040C0008040E00080600000806020008060400080606000806080008060A0008060C0008060E00080800000808020008080400080806000808080008080A0008080C0008080E00080A0000080A0200080A0400080A0600080A0800080A0A00080A0C00080A0E00080C0000080C0200080C0400080C0600080C0
310
800080C0A00080C0C00080C0E00080E0000080E0200080E0400080E0600080E0800080E0A00080E0C00080E0E000C0000000C0002000C0004000C0006000C0008000C000A000C000C000C000E000C0200000C0202000C0204000C0206000C0208000C020A000C020C000C020E000C0400000C0402000C0404000C0406000C0
310
408000C040A000C040C000C040E000C0600000C0602000C0604000C0606000C0608000C060A000C060C000C060E000C0800000C0802000C0804000C0806000C0808000C080A000C080C000C080E000C0A00000C0A02000C0A04000C0A06000C0A08000C0A0A000C0A0C000C0A0E000C0C00000C0C02000C0C04000C0C06000
310
C0C08000C0C0A000F0FBFF00A4A0A000808080000000FF0000FF000000FFFF00FF000000FF00FF00FFFF0000FFFFFF00FF00FFFFFFFF00FFFFFFFFFFFFFFFFFFFFFFFFFFFFFFFFFFFFFFFFFFFFFFFFFFFF00FFFFFFFF00FFFFFFFFFFFFFFFFFFFFFFFFFFFFFFFFFFFFFFFFFFFFFFFFFFFF00FFFFFFFF00FFFFFFFFFFFFFFFF
310
FFFFFFFFFFFFFFFFFFFFFFFFFFFFFFFFFFFF00FFFFFFFF00FFFFFFFFFFFFFFFFFFFFFFFFFFFFFFFFFFFFFFFFFFFFFFFFFFFF00FFFFFFFF00FFFFFFFFFFFFFFFFFFFFFFFFFFFFFFFFFFFFFFFFFFFFFFFFFFFF00FFFFFFFF00FFFFFFFFFFFFFFFFFFFFFFFFFFFFFFFFFFFFFFFFFFFFFFFFFFFF00FFFFFFFF00FFFFFFFFFFFFFF
310
FFFFFFFFFFFFFFFFFFFFFFFFFFFFFFFFFFFFFF00FFFFFFFF00FFFFFFFFFFFFFFFFFFFFFFFFFFFFFFFFFFFFFFFFFFFFFFFFFFFF00FFFFFFFF00FFFFFFFFFFFFFFFFFFFFFFFFFFFFFFFFFFFFFFFFFFFFFFFFFFFF00FFFFFFFF00FFFFFFFFFFFFFFFFFFFFFFFFFFFFFFFFFFFFFFFFFFFFFFFFFFFF00FFFFFFFF00FFFFFFFFFFFF
310
FFFFFFFFFFFFFFFFFFFFFFFFFFFFFFFFFFFFFFFF00FFFFFFFF00FFFFFFFFFFFFFFFFFFFFFFFFFFFFFFFFFFFFFFFFFFFFFFFFFFFF00FFFFFFFF00FFFFFFFFFFFFFFFFFFFFFFFFFFFFFFFFFFFFFFFFFFFFFFFFFFFF00FFFFFFFF0000000000000000000000000000000000000000000000000000FF00FFFFFFFFFFFFFFFFFFFF
310
FFFFFFFFFFFFFFFFFFFFFFFFFFFFFFFFFFFFFFFFFF00FFFFFFFFFFFFFFFFFFFFFFFFFFFFFFFFFFFFFFFFFFFFFFFFFFFFFFFFFFFFFF00FFFFFFFFFFFFFFFFFFFFFFFFFFFFFFFFFFFFFFFFFFFFFFFFFFFFFFFFFFFFFF00FFFFFFFFFFFFFFFFFFFFFFFFFFFFFFFFFFFFFFFFFFFFFFFFFFFFFFFFFF00FF00000000000000000000
310
0000000000000000000000000000000000000000FFFFFFFFFFFFFFFFFFFFFFFFFFFFFFFFFFFFFFFFFFFFFFFFFFFFFFFFFFFFFFFFFFFFFFFFFFFFFFFFFFFFFFFFFFFFFFFFFFFFFFFFFFFFFFFFFFFFFFFFFFFFFFFFFFFFFFFFFFFFFFFFFFFFFFFFFFFFFFFFFFFFFFFFFFFFFFFFFFFFFFFFFFFFFFFFFFFFFFFFFFFFFFFFFFFFFF
310
FFFFFFFFFFFFFFFFFFFFFFFFFFFFFFFFFFFFFFFFFFFFFFFFFFFFFFFFFFFFFFFFFFFFFFFFFFFFFFFFFFFFFFFFFFFFFFFFFFFFFFFFFFFFFFFFFFFFFFFFFFFFFFFFFFFFFFFFFFFFFFFFFFFFFFFFFFFFFFFFFFFFFFFFFFFFFFFFFFFFFFFFFFFFFFFFFFFFFFFFFFFFFFFFFFFFFFFFFFFFFFFFFFFFFFFFFFFFFFFFFFFFFFFFFFFFFF
310
FFFFFFFFFFFFFFFFFFFFFFFFFFFFFFFFFFFFFFFFFFFFFFFFFFFFFFFFFFFFFFFFFFFFFFFFFFFFFFFFFFFFFFFFFFFFFFFFFFFFFFFFFFFFFFFFFFFFFFFFFFFFFFFFFFFFFFFFFFFFFFFFFFFFFFFFFFFFFFFFFFFFFFFFFFFFFFFFFFFFFFFFFFFFFFFFFFFFFFFFFFFFFFFFFFFFFFFFFFFFFFFFFFFFFFFFFFFFFFFFFFFFFFFFFFFFFF
310
FFFFFFFFFFFFFFFFFFFFFFFFFFFFFFFFFFFFFFFFFFFFFFFFFFFFFFFFFFFFFFFFFFFFFFFFFFFFFFFFFFFFFFFFFFFFFFFFFFFFFFFFFFFFFFFF
102
{BLKREFS
331
24C1
102
}
  0
BLOCK_RECORD
  5
2485
330
21FD
100
AcDbSymbolTableRecord
100
AcDbBlockTableRecord
  2
AI9-BLK13
340
0
310
2800000020000000200000000100080000000000000400000000000000000000000000000000000000000000000080000080000000808000800000008000800080800000C0C0C000C0DCC000F0CAA6000020400000206000002080000020A0000020C0000020E00000400000004020000040400000406000004080000040A0
310
000040C0000040E00000600000006020000060400000606000006080000060A0000060C0000060E00000800000008020000080400000806000008080000080A0000080C0000080E00000A0000000A0200000A0400000A0600000A0800000A0A00000A0C00000A0E00000C0000000C0200000C0400000C0600000C0800000C0
310
A00000C0C00000C0E00000E0000000E0200000E0400000E0600000E0800000E0A00000E0C00000E0E00040000000400020004000400040006000400080004000A0004000C0004000E00040200000402020004020400040206000402080004020A0004020C0004020E000404000004040200040404000404060004040800040
310
40A0004040C0004040E00040600000406020004060400040606000406080004060A0004060C0004060E00040800000408020004080400040806000408080004080A0004080C0004080E00040A0000040A0200040A0400040A0600040A0800040A0A00040A0C00040A0E00040C0000040C0200040C0400040C0600040C08000
310
40C0A00040C0C00040C0E00040E0000040E0200040E0400040E0600040E0800040E0A00040E0C00040E0E00080000000800020008000400080006000800080008000A0008000C0008000E00080200000802020008020400080206000802080008020A0008020C0008020E00080400000804020008040400080406000804080
310
008040A0008040C0008040E00080600000806020008060400080606000806080008060A0008060C0008060E00080800000808020008080400080806000808080008080A0008080C0008080E00080A0000080A0200080A0400080A0600080A0800080A0A00080A0C00080A0E00080C0000080C0200080C0400080C0600080C0
310
800080C0A00080C0C00080C0E00080E0000080E0200080E0400080E0600080E0800080E0A00080E0C00080E0E000C0000000C0002000C0004000C0006000C0008000C000A000C000C000C000E000C0200000C0202000C0204000C0206000C0208000C020A000C020C000C020E000C0400000C0402000C0404000C0406000C0
310
408000C040A000C040C000C040E000C0600000C0602000C0604000C0606000C0608000C060A000C060C000C060E000C0800000C0802000C0804000C0806000C0808000C080A000C080C000C080E000C0A00000C0A02000C0A04000C0A06000C0A08000C0A0A000C0A0C000C0A0E000C0C00000C0C02000C0C04000C0C06000
310
C0C08000C0C0A000F0FBFF00A4A0A000808080000000FF0000FF000000FFFF00FF000000FF00FF00FFFF0000FFFFFF00FFFFFFFFFFFFFFFFFFFFFFFFFFFFFFFFFFFFFFFFFFFFFFFFFFFFFFFFFFFFFFFFFFFFFFFFFFFFFFFFFFFFFF0000FFFFFFFFFFFF0000FFFFFFFFFFFFFFFFFFFFFFFFFFFFFFFFFFFFFFFFFFFF0000FFFF
310
FFFFFFFF0000FFFFFFFFFFFFFFFFFFFFFFFFFFFFFFFFFFFFFFFFFFFF0000FFFFFFFFFFFF0000FFFFFFFFFFFFFFFFFFFFFFFFFFFFFFFFFFFFFFFFFFFF0000FFFFFFFFFFFF0000FFFFFFFFFFFFFFFFFFFFFFFFFFFFFFFFFFFFFFFFFFFF0000FFFFFFFFFFFF0000FFFFFFFFFFFFFFFFFFFFFFFFFFFFFFFFFFFFFFFFFFFF0000FF
310
FFFFFFFFFF0000FFFFFFFFFFFFFFFFFFFFFFFFFFFFFFFFFFFFFFFFFFFF0000FFFFFFFFFFFF0000FFFFFFFFFFFFFFFFFFFFFFFFFFFFFFFFFFFFFFFFFFFF0000FFFFFFFFFFFF0000FFFFFFFFFFFFFFFFFFFFFFFFFFFFFFFFFFFFFFFFFFFF0000FFFFFFFFFFFF0000FFFFFFFFFFFFFFFFFFFFFFFFFFFFFFFFFFFFFFFFFFFF0000
310
FFFFFFFFFFFF0000FFFFFFFFFFFFFFFFFFFFFFFFFFFFFFFFFFFFFFFFFFFF0000FFFFFFFFFFFF0000FFFFFFFFFFFFFFFFFFFFFFFFFFFFFFFFFFFFFFFFFFFF0000FFFFFFFFFFFF0000FFFFFFFFFFFFFFFFFFFFFFFFFFFFFFFFFFFFFFFFFFFF0000FFFFFFFFFFFF0000FFFFFFFFFFFFFFFFFFFFFFFFFFFFFFFFFFFFFFFFFFFF00
310
00FFFFFFFFFFFF0000FFFFFFFFFFFFFFFFFFFFFFFFFFFFFFFFFFFFFFFFFFFF00000000000000000000FFFFFFFFFFFFFFFFFFFFFFFFFFFFFFFFFFFFFFFFFFFF00FFFFFFFFFFFFFFFF00FFFFFFFFFFFFFFFFFFFFFFFFFFFFFFFFFFFFFFFFFFFF00FFFFFFFFFFFFFFFF00FFFFFFFFFFFFFFFFFFFFFFFFFFFFFFFFFFFFFFFFFFFF
310
00000000000000000000FFFFFFFFFFFFFFFFFFFFFFFFFFFFFFFFFFFFFFFFFFFF0000FFFFFFFFFFFF0000FFFFFFFFFFFFFFFFFFFFFFFFFFFFFFFFFFFFFFFFFFFF0000FFFFFFFFFFFF0000FFFFFFFFFFFFFFFFFFFFFFFFFFFFFFFFFFFFFFFFFFFF0000FFFFFFFFFFFF0000FFFFFFFFFFFFFFFFFFFFFFFFFFFFFFFFFFFFFFFFFF
310
FF0000FFFFFFFFFFFF0000FFFFFFFFFFFFFFFFFFFFFFFFFFFFFFFFFFFFFFFFFFFF0000FFFFFFFFFFFF0000FFFFFFFFFFFFFFFFFFFFFFFFFFFFFFFFFFFFFFFFFFFF0000FFFFFFFFFFFF0000FFFFFFFFFFFFFFFFFFFFFFFFFFFFFFFFFFFFFFFFFFFF0000FFFFFFFFFFFF0000FFFFFFFFFFFFFFFFFFFFFFFFFFFFFFFFFFFFFFFF
310
FFFF0000FFFFFFFFFFFF0000FFFFFFFFFFFFFFFFFFFFFFFFFFFFFFFFFFFFFFFFFFFF0000FFFFFFFFFFFF0000FFFFFFFFFFFFFFFFFFFFFFFFFFFFFFFFFFFFFFFFFFFF0000FFFFFFFFFFFF0000FFFFFFFFFFFFFFFFFFFFFFFFFFFFFFFFFFFFFFFFFFFF0000FFFFFFFFFFFF0000FFFFFFFFFFFFFFFFFFFFFFFFFFFFFFFFFFFFFF
310
FFFFFF0000FFFFFFFFFFFF0000FFFFFFFFFFFFFFFFFFFFFFFFFFFFFFFFFFFFFFFFFFFFFFFFFFFFFFFFFFFFFFFFFFFFFFFFFFFFFFFFFFFFFF
102
{BLKREFS
331
24C2
102
}
  0
BLOCK_RECORD
  5
248A
330
21FD
100
AcDbSymbolTableRecord
100
AcDbBlockTableRecord
  2
AI9-BLK11
340
0
310
2800000020000000200000000100080000000000000400000000000000000000000000000000000000000000000080000080000000808000800000008000800080800000C0C0C000C0DCC000F0CAA6000020400000206000002080000020A0000020C0000020E00000400000004020000040400000406000004080000040A0
310
000040C0000040E00000600000006020000060400000606000006080000060A0000060C0000060E00000800000008020000080400000806000008080000080A0000080C0000080E00000A0000000A0200000A0400000A0600000A0800000A0A00000A0C00000A0E00000C0000000C0200000C0400000C0600000C0800000C0
310
A00000C0C00000C0E00000E0000000E0200000E0400000E0600000E0800000E0A00000E0C00000E0E00040000000400020004000400040006000400080004000A0004000C0004000E00040200000402020004020400040206000402080004020A0004020C0004020E000404000004040200040404000404060004040800040
310
40A0004040C0004040E00040600000406020004060400040606000406080004060A0004060C0004060E00040800000408020004080400040806000408080004080A0004080C0004080E00040A0000040A0200040A0400040A0600040A0800040A0A00040A0C00040A0E00040C0000040C0200040C0400040C0600040C08000
310
40C0A00040C0C00040C0E00040E0000040E0200040E0400040E0600040E0800040E0A00040E0C00040E0E00080000000800020008000400080006000800080008000A0008000C0008000E00080200000802020008020400080206000802080008020A0008020C0008020E00080400000804020008040400080406000804080
310
008040A0008040C0008040E00080600000806020008060400080606000806080008060A0008060C0008060E00080800000808020008080400080806000808080008080A0008080C0008080E00080A0000080A0200080A0400080A0600080A0800080A0A00080A0C00080A0E00080C0000080C0200080C0400080C0600080C0
310
800080C0A00080C0C00080C0E00080E0000080E0200080E0400080E0600080E0800080E0A00080E0C00080E0E000C0000000C0002000C0004000C0006000C0008000C000A000C000C000C000E000C0200000C0202000C0204000C0206000C0208000C020A000C020C000C020E000C0400000C0402000C0404000C0406000C0
310
408000C040A000C040C000C040E000C0600000C0602000C0604000C0606000C0608000C060A000C060C000C060E000C0800000C0802000C0804000C0806000C0808000C080A000C080C000C080E000C0A00000C0A02000C0A04000C0A06000C0A08000C0A0A000C0A0C000C0A0E000C0C00000C0C02000C0C04000C0C06000
310
C0C08000C0C0A000F0FBFF00A4A0A000808080000000FF0000FF000000FFFF00FF000000FF00FF00FFFF0000FFFFFF00FFFFFFFFFFFFFFFFFFFFFFFFFFFFFFFFFFFFFFFFFFFFFFFFFFFFFFFFFFFFFFFFFFFFFFFFFFFFFFFFFFFFFFFFFFFF00000000FFFFFFFFFFFFFFFFFFFFFF000000FFFFFFFFFFFFFFFFFFFFFFFFFFFF00
310
FFFF00FFFFFFFFFFFFFFFFFFFFFF00FFFFFFFFFFFFFFFFFFFFFFFFFFFFFFFF00FFFF00FFFFFFFFFFFFFFFFFFFFFF00FFFFFFFFFFFFFFFFFFFFFFFFFFFFFFFF00FFFF00FFFFFFFFFFFFFFFFFFFFFF00FFFFFFFFFFFFFFFFFFFFFFFFFFFFFFFF00FFFF00FFFFFFFFFFFFFFFFFFFFFF00FFFFFFFFFFFFFFFFFFFFFFFFFFFFFFFF
310
00FFFF00FFFFFFFFFFFFFFFFFFFFFF00FFFFFFFFFFFFFFFFFFFFFFFFFFFFFFFF00FFFF00FFFFFFFFFFFFFFFFFFFFFF00FFFFFFFFFFFFFFFFFFFFFFFFFFFFFFFF00FFFF00FFFFFFFFFFFFFFFFFFFFFF00FFFFFFFFFFFFFFFFFFFFFFFFFFFFFFFF00FFFF00FFFFFFFFFFFFFFFFFFFFFF00FFFFFFFFFFFFFFFFFFFFFFFFFFFFFF
310
FF00FFFF00FFFFFFFFFFFFFFFFFFFFFF00FFFFFFFFFFFFFFFFFFFFFFFFFFFFFFFF00FFFF00FFFFFFFFFFFFFFFFFFFFFF00FFFFFFFFFFFFFFFFFFFFFFFFFFFFFFFF00FFFF00FFFFFFFFFFFFFFFFFFFFFF00FFFFFFFFFFFFFFFFFFFFFFFFFFFFFFFF00FFFF00FFFFFFFFFFFFFFFFFFFFFF00FFFFFFFFFFFFFFFFFFFFFFFFFFFF
310
FFFF00FFFF00FFFFFFFFFFFFFFFFFFFFFF00FFFFFFFFFFFFFFFFFFFFFFFFFFFFFFFF00FFFF00FFFFFFFFFFFFFFFFFFFFFF00FFFFFFFFFFFFFFFFFFFFFFFFFFFFFFFF00FFFF00FFFFFFFFFFFFFFFFFFFFFF00FFFFFFFFFFFFFFFFFFFFFFFFFFFFFFFF00FFFF00FFFFFFFFFFFFFFFFFFFF00FFFFFFFFFFFFFFFFFFFFFFFFFFFF
310
FFFFFF00FFFF00FFFFFFFFFFFFFFFFFFFF00FFFFFFFFFFFFFFFFFFFFFFFFFFFFFFFFFF00FFFF00FFFFFFFFFFFFFFFFFFFF00FFFFFFFFFFFFFFFFFFFFFFFFFFFFFFFFFF00FFFF00FFFFFFFFFFFFFFFFFFFF00FFFFFFFFFFFFFFFFFFFFFFFFFFFFFFFFFF00FFFF00FFFFFFFFFFFFFFFFFFFF00FFFFFFFFFFFFFFFFFFFFFFFFFF
310
FFFFFFFF00FFFF00FFFFFFFFFFFFFFFFFF0000FFFF00FFFFFFFFFFFFFFFFFFFFFFFFFFFF00FFFF00FFFFFFFFFFFFFFFF0000FFFFFF00FFFFFFFFFFFFFFFFFFFFFFFFFFFF00FFFF00000000000000000000FFFFFFFF00FFFFFFFFFFFFFFFFFFFFFFFFFFFF00FFFFFFFFFFFFFFFFFFFFFFFFFFFFFF00FFFFFFFFFFFFFFFFFFFF
310
FFFFFFFFFF00FFFFFFFFFFFFFFFFFFFFFFFFFFFF00FFFFFFFFFFFFFFFFFFFFFFFFFFFFFFFF00FFFFFFFFFFFFFFFFFFFFFFFFFFFF00FFFFFFFFFFFFFFFFFFFFFFFFFFFFFFFF00FFFFFFFFFFFFFFFFFFFFFFFFFFFFFF00FFFFFFFFFFFFFFFFFFFFFFFFFFFFFF00FFFFFFFFFFFFFFFFFFFFFFFFFFFFFF00FFFFFFFFFFFFFFFFFF
310
FFFFFFFFFFFF00FFFF00000000000000000000FFFFFFFF00FFFFFFFFFFFFFFFFFFFFFFFFFFFF00FFFF00FFFFFFFFFFFFFFFFFF0000FFFF00
102
{BLKREFS
331
24C3
102
}
  0
BLOCK_RECORD
  5
248F
330
21FD
100
AcDbSymbolTableRecord
100
AcDbBlockTableRecord
  2
AI9-BLK10
340
0
310
2800000020000000200000000100080000000000000400000000000000000000000000000000000000000000000080000080000000808000800000008000800080800000C0C0C000C0DCC000F0CAA6000020400000206000002080000020A0000020C0000020E00000400000004020000040400000406000004080000040A0
310
000040C0000040E00000600000006020000060400000606000006080000060A0000060C0000060E00000800000008020000080400000806000008080000080A0000080C0000080E00000A0000000A0200000A0400000A0600000A0800000A0A00000A0C00000A0E00000C0000000C0200000C0400000C0600000C0800000C0
310
A00000C0C00000C0E00000E0000000E0200000E0400000E0600000E0800000E0A00000E0C00000E0E00040000000400020004000400040006000400080004000A0004000C0004000E00040200000402020004020400040206000402080004020A0004020C0004020E000404000004040200040404000404060004040800040
310
40A0004040C0004040E00040600000406020004060400040606000406080004060A0004060C0004060E00040800000408020004080400040806000408080004080A0004080C0004080E00040A0000040A0200040A0400040A0600040A0800040A0A00040A0C00040A0E00040C0000040C0200040C0400040C0600040C08000
310
40C0A00040C0C00040C0E00040E0000040E0200040E0400040E0600040E0800040E0A00040E0C00040E0E00080000000800020008000400080006000800080008000A0008000C0008000E00080200000802020008020400080206000802080008020A0008020C0008020E00080400000804020008040400080406000804080
310
008040A0008040C0008040E00080600000806020008060400080606000806080008060A0008060C0008060E00080800000808020008080400080806000808080008080A0008080C0008080E00080A0000080A0200080A0400080A0600080A0800080A0A00080A0C00080A0E00080C0000080C0200080C0400080C0600080C0
310
800080C0A00080C0C00080C0E00080E0000080E0200080E0400080E0600080E0800080E0A00080E0C00080E0E000C0000000C0002000C0004000C0006000C0008000C000A000C000C000C000E000C0200000C0202000C0204000C0206000C0208000C020A000C020C000C020E000C0400000C0402000C0404000C0406000C0
310
408000C040A000C040C000C040E000C0600000C0602000C0604000C0606000C0608000C060A000C060C000C060E000C0800000C0802000C0804000C0806000C0808000C080A000C080C000C080E000C0A00000C0A02000C0A04000C0A06000C0A08000C0A0A000C0A0C000C0A0E000C0C00000C0C02000C0C04000C0C06000
310
C0C08000C0C0A000F0FBFF00A4A0A000808080000000FF0000FF000000FFFF00FF000000FF00FF00FFFF0000FFFFFF00FFFFFFFFFFFFFFFFFFFFFFFFFFFFFFFF00FFFFFFFFFFFFFFFFFFFFFFFF00FFFFFFFFFFFFFFFFFFFFFFFFFFFFFFFFFFFF00FFFFFFFFFFFFFFFFFFFFFF00FFFFFFFFFFFFFFFFFFFFFFFFFFFFFFFFFFFF
310
FF00FFFFFFFFFFFFFFFFFFFFFF00FFFFFFFFFFFFFFFFFFFFFFFFFFFFFFFFFFFFFF00FFFFFFFFFFFFFFFFFFFFFF00FFFFFFFFFFFFFFFFFFFFFFFFFFFFFFFFFFFFFF00FFFFFFFFFFFFFFFFFFFFFF00FFFFFFFFFFFFFFFFFFFFFFFFFFFFFFFFFFFFFF00FFFFFFFFFFFFFFFFFFFFFF00FFFFFFFFFFFFFFFFFFFFFFFFFFFFFFFFFF
310
FFFF00FFFFFFFFFFFFFFFFFFFFFF00FFFFFFFFFFFFFFFFFFFFFFFFFFFFFFFFFFFFFF00FFFFFFFFFFFFFFFFFFFF00FFFFFFFFFFFFFFFFFFFFFFFFFFFFFFFFFFFFFFFF00FFFFFFFFFFFFFFFFFFFF00FFFFFFFFFFFFFFFFFFFFFFFFFFFFFFFFFFFFFFFF00FFFFFFFFFFFFFFFFFFFF00FFFFFFFFFFFFFFFFFFFFFFFFFFFFFFFFFF
310
FFFFFF00FFFFFFFFFFFFFFFFFFFF00FFFFFFFFFFFFFFFFFFFFFFFFFFFFFFFFFFFFFFFF00FFFFFFFFFFFFFFFFFFFF00FFFFFFFFFFFFFFFFFFFFFFFFFFFFFFFFFFFFFFFF00FFFFFFFFFFFFFFFFFFFF00FFFFFFFFFFFFFFFFFFFFFFFFFFFFFFFFFFFFFFFF00FFFFFFFFFFFFFFFFFF00FFFFFFFFFFFFFFFFFFFFFFFFFFFFFFFFFF
310
FFFFFFFF00FFFFFFFFFFFFFFFFFF00FFFFFFFFFFFFFFFFFFFFFFFFFFFFFFFFFFFFFFFFFF00FFFFFFFFFFFFFFFFFF00FFFFFFFFFFFFFFFFFFFFFFFFFFFFFFFFFFFFFFFFFF0000000000000000000000FFFFFFFFFFFFFFFFFFFFFFFFFFFFFFFFFFFFFFFFFFFFFFFFFFFFFFFFFFFFFFFFFFFFFFFFFFFFFFFFFFFFFFFFFFFFFFFF
310
FFFFFFFFFFFFFFFFFFFFFFFFFFFFFFFFFFFFFFFFFFFFFFFFFFFFFFFFFFFFFFFFFFFFFFFFFFFFFFFFFFFFFFFFFFFFFFFFFFFFFFFFFFFFFFFFFFFFFFFFFFFFFFFFFFFFFFFFFFFFFFFFFFFFFFFFFFFFFFFFFFFFFFFFFFFFFFFFFFFFFFFFFFFFFFFFFFFFFFFFFFFFFFFFFFFFFFFFFFFFFFFFFFFFFFFFFFFFFFFFFFFFFFFFFFFFFF
310
FFFFFFFFFFFFFFFFFFFFFFFFFFFFFFFFFFFFFFFFFFFFFFFFFFFFFFFFFFFFFFFFFFFFFFFFFFFFFFFFFFFFFFFFFFFFFFFFFFFFFFFFFFFFFFFFFFFFFFFFFFFFFFFFFFFFFFFFFFFFFFFFFFFFFFFFFFFFFFFFFFFFFFFFFFFFFFFFFFFFFFFFFFFFFFFFFFFFFFFFFFFFFFFFFFFFFFFFFFFFFFFFFFFFFFFFFFFFFFFFFFFFFFFFFFFFFF
310
FFFFFFFFFFFFFFFFFFFFFFFFFFFFFFFFFFFFFFFFFFFFFFFFFFFFFFFFFFFFFFFFFFFFFFFFFFFFFFFFFFFFFFFFFFFFFFFFFFFFFFFFFFFFFFFFFFFFFFFFFFFFFFFFFFFFFFFFFFFFFFFFFFFFFFFFFFFFFFFFFFFFFFFFFFFFFFFFFFFFFFFFFFFFFFFFFFFFFFFFFFFFFFFFFFFFFFFFFFFFFFFFFFFFFFFFFFFFFFFFFFFFFFFFFFFFFF
310
FFFFFFFFFFFFFFFFFFFFFFFFFFFFFFFFFFFFFFFFFFFFFFFFFFFFFFFFFFFFFFFFFFFFFFFFFFFFFFFFFFFFFFFFFFFFFFFFFFFFFFFFFFFFFFFF
102
{BLKREFS
331
24C4
102
}
  0
BLOCK_RECORD
  5
2493
330
21FD
100
AcDbSymbolTableRecord
100
AcDbBlockTableRecord
  2
AI9-BLK9
340
0
310
2800000020000000200000000100080000000000000400000000000000000000000000000000000000000000000080000080000000808000800000008000800080800000C0C0C000C0DCC000F0CAA6000020400000206000002080000020A0000020C0000020E00000400000004020000040400000406000004080000040A0
310
000040C0000040E00000600000006020000060400000606000006080000060A0000060C0000060E00000800000008020000080400000806000008080000080A0000080C0000080E00000A0000000A0200000A0400000A0600000A0800000A0A00000A0C00000A0E00000C0000000C0200000C0400000C0600000C0800000C0
310
A00000C0C00000C0E00000E0000000E0200000E0400000E0600000E0800000E0A00000E0C00000E0E00040000000400020004000400040006000400080004000A0004000C0004000E00040200000402020004020400040206000402080004020A0004020C0004020E000404000004040200040404000404060004040800040
310
40A0004040C0004040E00040600000406020004060400040606000406080004060A0004060C0004060E00040800000408020004080400040806000408080004080A0004080C0004080E00040A0000040A0200040A0400040A0600040A0800040A0A00040A0C00040A0E00040C0000040C0200040C0400040C0600040C08000
310
40C0A00040C0C00040C0E00040E0000040E0200040E0400040E0600040E0800040E0A00040E0C00040E0E00080000000800020008000400080006000800080008000A0008000C0008000E00080200000802020008020400080206000802080008020A0008020C0008020E00080400000804020008040400080406000804080
310
008040A0008040C0008040E00080600000806020008060400080606000806080008060A0008060C0008060E00080800000808020008080400080806000808080008080A0008080C0008080E00080A0000080A0200080A0400080A0600080A0800080A0A00080A0C00080A0E00080C0000080C0200080C0400080C0600080C0
310
800080C0A00080C0C00080C0E00080E0000080E0200080E0400080E0600080E0800080E0A00080E0C00080E0E000C0000000C0002000C0004000C0006000C0008000C000A000C000C000C000E000C0200000C0202000C0204000C0206000C0208000C020A000C020C000C020E000C0400000C0402000C0404000C0406000C0
310
408000C040A000C040C000C040E000C0600000C0602000C0604000C0606000C0608000C060A000C060C000C060E000C0800000C0802000C0804000C0806000C0808000C080A000C080C000C080E000C0A00000C0A02000C0A04000C0A06000C0A08000C0A0A000C0A0C000C0A0E000C0C00000C0C02000C0C04000C0C06000
310
C0C08000C0C0A000F0FBFF00A4A0A000808080000000FF0000FF000000FFFF00FF000000FF00FF00FFFF0000FFFFFF00FFFFFFFFFFFFFFFFFFFFFFFFFFFFFFFFFFFFFFFFFFFFFFFFFFFFFFFFFFFFFFFFFFFFFFFFFFFFFFFFFFFFFFFFFFFFFF0000FFFFFFFFFFFFFFFFFFFFFFFFFFFFFFFFFFFFFFFFFFFFFFFFFFFFFFFF0000
310
FF0000FFFFFFFFFFFFFFFFFFFFFFFFFFFFFFFFFFFFFFFFFFFFFFFFFFFFFF00FFFFFF0000FFFFFFFFFFFFFFFFFFFFFFFFFFFFFFFFFFFFFFFFFFFFFFFFFFFF00FFFFFFFF0000FFFFFFFFFFFFFFFFFFFFFFFFFFFFFFFFFFFFFFFFFFFFFFFF00FF00000000FF00FFFFFFFFFFFFFFFFFFFFFFFFFFFFFFFFFFFFFFFFFFFFFFFF0000
310
00FFFF00FF00FFFFFFFFFFFFFFFFFFFFFFFFFFFFFFFFFFFFFFFFFFFFFFFF0000FFFFFFFF0000FFFFFFFFFFFFFFFFFFFFFFFFFFFFFFFFFFFFFFFFFFFFFFFF0000FFFFFFFF0000FFFFFFFFFFFFFFFFFFFFFFFFFFFFFFFFFFFFFFFFFFFFFF00FF00FFFFFFFF00FF00FFFFFFFFFFFFFFFFFFFFFFFFFFFFFFFFFFFFFFFFFFFF0000
310
FFFFFFFFFF00FF00FFFFFFFFFFFFFFFFFFFFFFFFFFFFFFFFFFFFFFFFFFFF0000FFFFFFFFFFFF0000FFFFFFFFFFFFFFFFFFFFFFFFFFFFFFFFFFFFFFFFFFFF0000FFFFFFFFFFFF0000FFFFFFFFFFFFFFFFFFFFFFFFFFFFFFFFFFFFFFFFFFFF0000FFFFFFFFFFFF0000FFFFFFFFFFFFFFFFFFFFFFFFFFFFFFFFFFFFFFFFFFFF00
310
00FFFFFFFFFFFF0000FFFFFFFFFFFFFFFFFFFFFFFFFFFFFFFFFFFFFFFFFFFF0000FFFFFFFFFFFF0000FFFFFFFFFFFFFFFFFFFFFFFFFFFFFFFFFFFFFFFFFFFF0000FFFFFFFFFFFF0000FFFFFFFFFFFFFFFFFFFFFFFFFFFFFFFFFFFFFFFFFFFF0000FFFFFFFFFFFF0000FFFFFFFFFFFFFFFFFFFFFFFFFFFFFFFFFFFFFFFFFFFF
310
0000FFFFFFFFFFFF0000FFFFFFFFFFFFFFFFFFFFFFFFFFFFFFFFFFFFFFFFFFFF0000FFFFFFFFFFFF0000FFFFFFFFFFFFFFFFFFFFFFFFFFFFFFFFFFFFFFFFFFFF0000FFFFFFFFFFFF0000FFFFFFFFFFFFFFFFFFFFFFFFFFFFFFFFFFFFFFFFFFFF00FF00FFFFFFFF00FF00FFFFFFFFFFFFFFFFFFFFFFFFFFFFFFFFFFFFFFFFFF
310
FF00FF00FFFFFFFF00FF00FFFFFFFFFFFFFFFFFFFFFFFFFFFFFFFFFFFFFFFFFFFF00FF00FFFFFFFF00FF00FFFFFFFFFFFFFFFFFFFFFFFFFFFFFFFFFFFFFFFFFFFFFF0000FFFFFFFF0000FFFFFFFFFFFFFFFFFFFFFFFFFFFFFFFFFFFFFFFFFFFFFFFF00FF00FFFF00FF00FFFFFFFFFFFFFFFFFFFFFFFFFFFFFFFFFFFFFFFFFF
310
FFFFFF00FF00000000FF00FFFFFFFFFFFFFFFFFFFFFFFFFFFFFFFFFFFFFFFFFFFFFFFFFF00FFFFFFFF0000FFFFFFFFFFFFFFFFFFFFFFFFFFFFFFFFFFFFFFFFFFFFFFFFFF00FFFFFFFF00FFFFFFFFFFFFFFFFFFFFFFFFFFFFFFFFFFFFFFFFFFFFFFFFFFFFFF00000000FFFFFFFFFFFFFFFFFFFFFFFFFFFFFFFFFFFFFFFFFFFF
310
FFFFFFFFFFFFFF0000FFFFFFFFFFFFFFFFFFFFFFFFFFFFFFFFFFFFFFFFFFFFFFFFFFFFFFFFFFFFFFFFFFFFFFFFFFFFFFFFFFFFFFFFFFFFFF
102
{BLKREFS
331
24C5
102
}
  0
BLOCK_RECORD
  5
2498
330
21FD
100
AcDbSymbolTableRecord
100
AcDbBlockTableRecord
  2
AI9-BLK8
340
0
310
2800000020000000200000000100080000000000000400000000000000000000000000000000000000000000000080000080000000808000800000008000800080800000C0C0C000C0DCC000F0CAA6000020400000206000002080000020A0000020C0000020E00000400000004020000040400000406000004080000040A0
310
000040C0000040E00000600000006020000060400000606000006080000060A0000060C0000060E00000800000008020000080400000806000008080000080A0000080C0000080E00000A0000000A0200000A0400000A0600000A0800000A0A00000A0C00000A0E00000C0000000C0200000C0400000C0600000C0800000C0
310
A00000C0C00000C0E00000E0000000E0200000E0400000E0600000E0800000E0A00000E0C00000E0E00040000000400020004000400040006000400080004000A0004000C0004000E00040200000402020004020400040206000402080004020A0004020C0004020E000404000004040200040404000404060004040800040
310
40A0004040C0004040E00040600000406020004060400040606000406080004060A0004060C0004060E00040800000408020004080400040806000408080004080A0004080C0004080E00040A0000040A0200040A0400040A0600040A0800040A0A00040A0C00040A0E00040C0000040C0200040C0400040C0600040C08000
310
40C0A00040C0C00040C0E00040E0000040E0200040E0400040E0600040E0800040E0A00040E0C00040E0E00080000000800020008000400080006000800080008000A0008000C0008000E00080200000802020008020400080206000802080008020A0008020C0008020E00080400000804020008040400080406000804080
310
008040A0008040C0008040E00080600000806020008060400080606000806080008060A0008060C0008060E00080800000808020008080400080806000808080008080A0008080C0008080E00080A0000080A0200080A0400080A0600080A0800080A0A00080A0C00080A0E00080C0000080C0200080C0400080C0600080C0
310
800080C0A00080C0C00080C0E00080E0000080E0200080E0400080E0600080E0800080E0A00080E0C00080E0E000C0000000C0002000C0004000C0006000C0008000C000A000C000C000C000E000C0200000C0202000C0204000C0206000C0208000C020A000C020C000C020E000C0400000C0402000C0404000C0406000C0
310
408000C040A000C040C000C040E000C0600000C0602000C0604000C0606000C0608000C060A000C060C000C060E000C0800000C0802000C0804000C0806000C0808000C080A000C080C000C080E000C0A00000C0A02000C0A04000C0A06000C0A08000C0A0A000C0A0C000C0A0E000C0C00000C0C02000C0C04000C0C06000
310
C0C08000C0C0A000F0FBFF00A4A0A000808080000000FF0000FF000000FFFF00FF000000FF00FF00FFFF0000FFFFFF00FFFFFFFFFFFFFFFFFFFFFFFFFFFFFFFFFFFFFFFFFFFFFFFFFFFFFFFFFFFFFFFFFFFFFFFFFFFFFFFFFFFFFF0000FFFFFFFFFFFF0000FFFFFFFFFFFFFFFFFFFFFFFFFFFFFFFFFFFFFFFFFFFF0000FFFF
310
FFFFFFFF0000FFFFFFFFFFFFFFFFFFFFFFFFFFFFFFFFFFFFFFFFFFFF0000FFFFFFFFFF00FF00FFFFFFFFFFFFFFFFFFFFFFFFFFFFFFFFFFFFFFFFFFFF0000FFFFFFFFFF00FF00FFFFFFFFFFFFFFFFFFFFFFFFFFFFFFFFFFFFFFFFFFFF0000FFFFFFFFFF00FF00FFFFFFFFFFFFFFFFFFFFFFFFFFFFFFFFFFFFFFFFFFFF0000FF
310
FFFFFF00FFFF00FFFFFFFFFFFFFFFFFFFFFFFFFFFFFFFFFFFFFFFFFFFF0000FFFFFFFF00FF0000FFFFFFFFFFFFFFFFFFFFFFFFFFFFFFFFFFFFFFFFFFFF0000FFFFFFFF00FF0000FFFFFFFFFFFFFFFFFFFFFFFFFFFFFFFFFFFFFFFFFFFF0000FFFFFFFF00000000FFFFFFFFFFFFFFFFFFFFFFFFFFFFFFFFFFFFFFFFFFFF0000
310
FFFFFF00FF000000FFFFFFFFFFFFFFFFFFFFFFFFFFFFFFFFFFFFFFFFFFFF0000FFFFFF00FF000000FFFFFFFFFFFFFFFFFFFFFFFFFFFFFFFFFFFFFFFFFFFF0000FFFFFF00FF000000FFFFFFFFFFFFFFFFFFFFFFFFFFFFFFFFFFFFFFFFFFFF0000FFFF00FF00FF0000FFFFFFFFFFFFFFFFFFFFFFFFFFFFFFFFFFFFFFFFFFFF00
310
00FFFF00FF00FF0000FFFFFFFFFFFFFFFFFFFFFFFFFFFFFFFFFFFFFFFFFFFF0000FFFF00FF00FF0000FFFFFFFFFFFFFFFFFFFFFFFFFFFFFFFFFFFFFFFFFFFF0000FF00FFFF00FF0000FFFFFFFFFFFFFFFFFFFFFFFFFFFFFFFFFFFFFFFFFFFF0000FF00FF00FFFF0000FFFFFFFFFFFFFFFFFFFFFFFFFFFFFFFFFFFFFFFFFFFF
310
0000FF00FF00FFFF0000FFFFFFFFFFFFFFFFFFFFFFFFFFFFFFFFFFFFFFFFFFFF0000FF00FF00FFFF0000FFFFFFFFFFFFFFFFFFFFFFFFFFFFFFFFFFFFFFFFFFFF000000FFFF00FFFF0000FFFFFFFFFFFFFFFFFFFFFFFFFFFFFFFFFFFFFFFFFFFF000000FF00FFFFFF0000FFFFFFFFFFFFFFFFFFFFFFFFFFFFFFFFFFFFFFFFFF
310
FF000000FF00FFFFFF0000FFFFFFFFFFFFFFFFFFFFFFFFFFFFFFFFFFFFFFFFFFFF0000FFFF00FFFFFF0000FFFFFFFFFFFFFFFFFFFFFFFFFFFFFFFFFFFFFFFFFFFF0000FFFF00FFFFFF0000FFFFFFFFFFFFFFFFFFFFFFFFFFFFFFFFFFFFFFFFFFFF00FFFF00FFFFFFFF0000FFFFFFFFFFFFFFFFFFFFFFFFFFFFFFFFFFFFFFFF
310
FFFF00FFFF00FFFFFFFF0000FFFFFFFFFFFFFFFFFFFFFFFFFFFFFFFFFFFFFFFFFFFF00FFFF00FFFFFFFF0000FFFFFFFFFFFFFFFFFFFFFFFFFFFFFFFFFFFFFFFFFFFF00FFFF00FFFFFFFF0000FFFFFFFFFFFFFFFFFFFFFFFFFFFFFFFFFFFFFFFFFFFF00FF00FFFFFFFFFF0000FFFFFFFFFFFFFFFFFFFFFFFFFFFFFFFFFFFFFF
310
FFFFFF000000FFFFFFFFFF0000FFFFFFFFFFFFFFFFFFFFFFFFFFFFFFFFFFFFFFFFFFFFFFFFFFFFFFFFFFFFFFFFFFFFFFFFFFFFFFFFFFFFFF
102
{BLKREFS
331
24C6
102
}
  0
BLOCK_RECORD
  5
249D
330
21FD
100
AcDbSymbolTableRecord
100
AcDbBlockTableRecord
  2
AI9-BLK7
340
0
310
2800000020000000200000000100080000000000000400000000000000000000000000000000000000000000000080000080000000808000800000008000800080800000C0C0C000C0DCC000F0CAA6000020400000206000002080000020A0000020C0000020E00000400000004020000040400000406000004080000040A0
310
000040C0000040E00000600000006020000060400000606000006080000060A0000060C0000060E00000800000008020000080400000806000008080000080A0000080C0000080E00000A0000000A0200000A0400000A0600000A0800000A0A00000A0C00000A0E00000C0000000C0200000C0400000C0600000C0800000C0
310
A00000C0C00000C0E00000E0000000E0200000E0400000E0600000E0800000E0A00000E0C00000E0E00040000000400020004000400040006000400080004000A0004000C0004000E00040200000402020004020400040206000402080004020A0004020C0004020E000404000004040200040404000404060004040800040
310
40A0004040C0004040E00040600000406020004060400040606000406080004060A0004060C0004060E00040800000408020004080400040806000408080004080A0004080C0004080E00040A0000040A0200040A0400040A0600040A0800040A0A00040A0C00040A0E00040C0000040C0200040C0400040C0600040C08000
310
40C0A00040C0C00040C0E00040E0000040E0200040E0400040E0600040E0800040E0A00040E0C00040E0E00080000000800020008000400080006000800080008000A0008000C0008000E00080200000802020008020400080206000802080008020A0008020C0008020E00080400000804020008040400080406000804080
310
008040A0008040C0008040E00080600000806020008060400080606000806080008060A0008060C0008060E00080800000808020008080400080806000808080008080A0008080C0008080E00080A0000080A0200080A0400080A0600080A0800080A0A00080A0C00080A0E00080C0000080C0200080C0400080C0600080C0
310
800080C0A00080C0C00080C0E00080E0000080E0200080E0400080E0600080E0800080E0A00080E0C00080E0E000C0000000C0002000C0004000C0006000C0008000C000A000C000C000C000E000C0200000C0202000C0204000C0206000C0208000C020A000C020C000C020E000C0400000C0402000C0404000C0406000C0
310
408000C040A000C040C000C040E000C0600000C0602000C0604000C0606000C0608000C060A000C060C000C060E000C0800000C0802000C0804000C0806000C0808000C080A000C080C000C080E000C0A00000C0A02000C0A04000C0A06000C0A08000C0A0A000C0A0C000C0A0E000C0C00000C0C02000C0C04000C0C06000
310
C0C08000C0C0A000F0FBFF00A4A0A000808080000000FF0000FF000000FFFF00FF000000FF00FF00FFFF0000FFFFFF00FFFFFFFFFFFFFFFFFFFFFFFFFFFFFFFFFFFFFFFFFFFFFFFFFFFFFFFFFFFFFFFFFFFFFFFFFFFFFFFFFFFFFFFFFFFFFF0000FFFFFFFFFFFFFFFFFFFFFFFFFFFFFFFFFFFFFFFFFFFFFFFFFFFFFFFFFFFF
310
0000FFFFFFFFFFFFFFFFFFFFFFFFFFFFFFFFFFFFFFFFFFFFFFFFFFFFFFFFFFFF0000FFFFFFFFFFFFFFFFFFFFFFFFFFFFFFFFFFFFFFFFFFFFFFFFFFFFFFFFFFFF0000FFFFFFFFFFFFFFFFFFFFFFFFFFFFFFFFFFFFFFFFFFFFFFFFFFFFFFFFFFFF0000FFFFFFFFFFFFFFFFFFFFFFFFFFFFFFFFFFFFFFFFFFFFFFFFFFFFFFFFFF
310
FF0000FFFFFFFFFFFFFFFFFFFFFFFFFFFFFFFFFFFFFFFFFFFFFFFFFFFFFFFFFFFF0000FFFFFFFFFFFFFFFFFFFFFFFFFFFFFFFFFFFFFFFFFFFFFFFFFFFFFFFFFFFF0000FFFFFFFFFFFFFFFFFFFFFFFFFFFFFFFFFFFFFFFFFFFFFFFFFFFFFFFFFFFF0000FFFFFFFFFFFFFFFFFFFFFFFFFFFFFFFFFFFFFFFFFFFFFFFFFFFFFFFF
310
FFFF0000FFFFFFFFFFFFFFFFFFFFFFFFFFFFFFFFFFFFFFFFFFFFFFFFFFFFFFFFFFFF0000FFFFFFFFFFFFFFFFFFFFFFFFFFFFFFFFFFFFFFFFFFFFFFFFFFFFFFFFFFFF0000FFFFFFFFFFFFFFFFFFFFFFFFFFFFFFFFFFFFFFFFFFFFFFFFFFFFFFFFFFFF0000FFFFFFFFFFFFFFFFFFFFFFFFFFFFFFFFFFFFFFFFFFFFFFFFFFFFFF
310
FFFFFF0000FFFFFFFFFFFFFFFFFFFFFFFFFFFFFFFFFFFFFFFFFFFFFFFFFFFFFFFFFFFF0000FFFFFFFFFFFFFFFFFFFFFFFFFFFFFFFFFFFFFFFFFFFFFFFFFFFFFFFFFFFF0000FFFFFFFFFFFFFFFFFFFFFFFFFFFFFFFFFFFFFFFFFFFFFFFFFFFFFFFFFFFF0000FFFFFFFFFFFFFFFFFFFFFFFFFFFFFFFFFFFFFFFFFFFFFFFFFFFF
310
FFFFFFFF0000FFFFFFFFFFFFFFFFFFFFFFFFFFFFFFFFFFFFFFFFFFFFFFFFFFFFFFFFFFFF0000FFFFFFFFFFFFFFFFFFFFFFFFFFFFFFFFFFFFFFFFFFFFFFFFFFFFFFFFFFFF0000FFFFFFFFFFFFFFFFFFFFFFFFFFFFFFFFFFFFFFFFFFFFFFFFFFFFFFFFFFFF0000FFFFFFFFFFFFFFFFFFFFFFFFFFFFFFFFFFFFFFFFFFFFFFFFFF
310
FFFFFFFFFF0000FFFFFFFFFFFFFFFFFFFFFFFFFFFFFFFFFFFFFFFFFFFFFFFFFFFFFFFFFFFF0000FFFFFFFFFFFFFFFFFFFFFFFFFFFFFFFFFFFFFFFFFFFFFFFFFFFFFFFFFFFF0000FFFFFFFFFFFFFFFFFFFFFFFFFFFFFFFFFFFFFFFFFFFFFFFFFFFFFFFFFFFF0000FFFFFFFFFFFFFFFFFFFFFFFFFFFFFFFFFFFFFFFFFFFFFFFF
310
FFFFFFFFFFFF0000FFFFFFFFFFFFFFFFFFFFFFFFFFFFFFFFFFFFFFFFFFFFFFFFFFFFFFFFFFFF0000FFFFFFFFFFFFFFFFFFFFFFFFFFFFFFFFFFFFFFFFFFFFFFFFFFFFFFFFFFFF0000FFFFFFFFFFFFFFFFFFFFFFFFFFFFFFFFFFFFFFFFFFFFFFFFFFFFFFFFFFFF0000FFFFFFFFFFFFFFFFFFFFFFFFFFFFFFFFFFFFFFFFFFFFFF
310
FFFFFFFFFFFFFF0000FFFFFFFFFFFFFFFFFFFFFFFFFFFFFFFFFFFFFFFFFFFFFFFFFFFFFFFFFFFFFFFFFFFFFFFFFFFFFFFFFFFFFFFFFFFFFF
102
{BLKREFS
331
24C7
102
}
  0
BLOCK_RECORD
  5
24A2
330
21FD
100
AcDbSymbolTableRecord
100
AcDbBlockTableRecord
  2
AI9-BLK6
340
0
310
2800000020000000200000000100080000000000000400000000000000000000000000000000000000000000000080000080000000808000800000008000800080800000C0C0C000C0DCC000F0CAA6000020400000206000002080000020A0000020C0000020E00000400000004020000040400000406000004080000040A0
310
000040C0000040E00000600000006020000060400000606000006080000060A0000060C0000060E00000800000008020000080400000806000008080000080A0000080C0000080E00000A0000000A0200000A0400000A0600000A0800000A0A00000A0C00000A0E00000C0000000C0200000C0400000C0600000C0800000C0
310
A00000C0C00000C0E00000E0000000E0200000E0400000E0600000E0800000E0A00000E0C00000E0E00040000000400020004000400040006000400080004000A0004000C0004000E00040200000402020004020400040206000402080004020A0004020C0004020E000404000004040200040404000404060004040800040
310
40A0004040C0004040E00040600000406020004060400040606000406080004060A0004060C0004060E00040800000408020004080400040806000408080004080A0004080C0004080E00040A0000040A0200040A0400040A0600040A0800040A0A00040A0C00040A0E00040C0000040C0200040C0400040C0600040C08000
310
40C0A00040C0C00040C0E00040E0000040E0200040E0400040E0600040E0800040E0A00040E0C00040E0E00080000000800020008000400080006000800080008000A0008000C0008000E00080200000802020008020400080206000802080008020A0008020C0008020E00080400000804020008040400080406000804080
310
008040A0008040C0008040E00080600000806020008060400080606000806080008060A0008060C0008060E00080800000808020008080400080806000808080008080A0008080C0008080E00080A0000080A0200080A0400080A0600080A0800080A0A00080A0C00080A0E00080C0000080C0200080C0400080C0600080C0
310
800080C0A00080C0C00080C0E00080E0000080E0200080E0400080E0600080E0800080E0A00080E0C00080E0E000C0000000C0002000C0004000C0006000C0008000C000A000C000C000C000E000C0200000C0202000C0204000C0206000C0208000C020A000C020C000C020E000C0400000C0402000C0404000C0406000C0
310
408000C040A000C040C000C040E000C0600000C0602000C0604000C0606000C0608000C060A000C060C000C060E000C0800000C0802000C0804000C0806000C0808000C080A000C080C000C080E000C0A00000C0A02000C0A04000C0A06000C0A08000C0A0A000C0A0C000C0A0E000C0C00000C0C02000C0C04000C0C06000
310
C0C08000C0C0A000F0FBFF00A4A0A000808080000000FF0000FF000000FFFF00FF000000FF00FF00FFFF0000FFFFFF00FFFFFFFFFFFFFFFFFFFFFFFF00FFFFFFFFFFFFFF00FFFFFFFFFFFFFFFFFFFFFFFFFFFFFFFFFFFFFFFFFFFFFF00FFFFFFFFFFFFFF00FFFFFFFFFFFFFFFFFFFFFFFFFFFFFFFFFFFFFFFFFFFFFF00FFFF
310
FFFFFFFFFF00FFFFFFFFFFFFFFFFFFFFFFFFFFFFFFFFFFFFFFFFFFFF00FFFFFFFFFFFFFFFF00FFFFFFFFFFFFFFFFFFFFFFFFFFFFFFFFFFFFFFFFFFFF00FFFFFFFFFFFFFF00FFFFFFFFFFFFFFFFFFFFFFFFFFFFFFFFFFFFFFFFFFFFFF00FFFFFFFFFFFFFF00FFFFFFFFFFFFFFFFFFFFFFFFFFFFFFFFFFFFFFFFFFFF00FFFFFF
310
FFFFFFFFFF00FFFFFFFFFFFFFFFFFFFFFFFFFFFFFFFFFFFFFFFFFFFF00FFFFFFFFFFFFFF00FFFFFFFFFFFFFFFFFFFFFFFFFFFFFFFFFFFFFFFFFFFF00FFFFFFFFFFFFFFFF00FFFFFFFFFFFFFFFFFFFFFFFFFFFFFFFFFFFFFFFFFF00FFFFFFFFFFFFFFFFFF00FFFFFFFFFFFFFFFFFFFFFFFFFFFFFFFFFFFFFFFF00FFFFFFFFFF
310
FFFFFFFFFF00FFFFFFFFFFFFFFFFFFFFFFFFFFFFFFFFFFFFFF00FFFFFFFFFFFFFFFFFFFF00FFFFFFFFFFFFFFFFFFFFFFFFFFFFFFFFFFFF0000FFFFFFFFFFFFFFFFFFFFFF00FFFFFFFFFFFFFFFFFFFFFFFFFFFF00000000FFFFFFFFFFFFFFFFFFFFFFFFFF00FFFFFFFFFFFFFFFFFFFFFFFFFFFFFFFFFFFFFFFFFFFFFFFFFFFF
310
FFFFFFFF00FFFFFFFFFFFFFFFFFFFFFFFFFFFFFFFFFFFFFFFFFFFFFFFFFFFFFFFFFFFFFF00FFFFFFFFFFFFFFFFFFFFFFFFFFFFFFFFFFFFFFFFFFFFFFFFFFFFFFFFFFFFFF00FFFFFFFFFFFFFFFFFFFFFFFFFFFFFFFFFFFFFFFFFFFFFFFFFFFFFFFFFFFF00FFFFFFFFFFFFFFFFFFFFFFFFFFFFFFFFFFFFFFFFFFFFFFFFFFFFFF
310
FFFFFFFF00FFFFFFFFFFFFFFFFFFFFFFFFFFFFFFFFFFFFFFFFFFFFFFFFFFFFFFFFFFFF00FFFFFFFFFFFFFFFFFFFFFFFFFFFFFFFFFFFFFFFFFFFFFFFFFFFFFFFFFFFF00FFFFFFFFFFFFFFFFFFFFFFFFFFFFFFFFFFFFFFFFFFFFFFFFFFFFFFFFFFFF00FFFFFFFFFFFFFFFFFFFFFFFFFFFFFFFFFFFFFFFFFFFFFFFFFFFFFFFFFF
310
FF00FFFFFFFFFFFFFFFFFFFFFFFFFFFFFFFFFFFFFFFFFFFFFFFFFFFFFFFFFFFFFF00FFFFFFFFFFFFFFFFFFFFFFFFFFFFFFFFFFFFFFFFFFFFFFFFFFFFFFFFFFFF00FFFFFFFFFFFFFFFFFFFFFFFFFFFFFFFFFFFFFFFFFFFFFFFFFFFFFFFFFF0000FFFFFFFFFFFFFFFFFFFFFFFFFFFFFFFFFFFFFFFFFFFFFFFFFFFFFFFF0000FF
310
FFFFFFFFFFFFFFFFFFFFFFFFFFFFFFFFFFFFFFFFFFFFFFFFFF00000000FFFFFFFFFFFFFFFFFFFFFFFFFFFFFFFFFFFFFFFFFFFFFFFFFFFF0000FFFFFFFFFFFFFFFFFFFFFFFFFFFFFFFFFFFFFFFFFFFFFFFFFFFFFFFFFFFFFFFFFFFFFFFFFFFFFFFFFFFFFFFFFFFFFFFFFFFFFFFFFFFFFFFFFFFFFFFFFFFFFFFFFFFFFFFFFFFF
310
FFFFFFFFFFFFFFFFFFFFFFFFFFFFFFFFFFFFFFFFFFFFFFFFFFFFFFFFFFFFFFFFFFFFFFFFFFFFFFFFFFFFFFFFFFFFFFFFFFFFFFFFFFFFFFFF
102
{BLKREFS
331
24C8
102
}
  0
BLOCK_RECORD
  5
24A6
330
21FD
100
AcDbSymbolTableRecord
100
AcDbBlockTableRecord
  2
AI9-BLK5
340
0
310
2800000020000000200000000100080000000000000400000000000000000000000000000000000000000000000080000080000000808000800000008000800080800000C0C0C000C0DCC000F0CAA6000020400000206000002080000020A0000020C0000020E00000400000004020000040400000406000004080000040A0
310
000040C0000040E00000600000006020000060400000606000006080000060A0000060C0000060E00000800000008020000080400000806000008080000080A0000080C0000080E00000A0000000A0200000A0400000A0600000A0800000A0A00000A0C00000A0E00000C0000000C0200000C0400000C0600000C0800000C0
310
A00000C0C00000C0E00000E0000000E0200000E0400000E0600000E0800000E0A00000E0C00000E0E00040000000400020004000400040006000400080004000A0004000C0004000E00040200000402020004020400040206000402080004020A0004020C0004020E000404000004040200040404000404060004040800040
310
40A0004040C0004040E00040600000406020004060400040606000406080004060A0004060C0004060E00040800000408020004080400040806000408080004080A0004080C0004080E00040A0000040A0200040A0400040A0600040A0800040A0A00040A0C00040A0E00040C0000040C0200040C0400040C0600040C08000
310
40C0A00040C0C00040C0E00040E0000040E0200040E0400040E0600040E0800040E0A00040E0C00040E0E00080000000800020008000400080006000800080008000A0008000C0008000E00080200000802020008020400080206000802080008020A0008020C0008020E00080400000804020008040400080406000804080
310
008040A0008040C0008040E00080600000806020008060400080606000806080008060A0008060C0008060E00080800000808020008080400080806000808080008080A0008080C0008080E00080A0000080A0200080A0400080A0600080A0800080A0A00080A0C00080A0E00080C0000080C0200080C0400080C0600080C0
310
800080C0A00080C0C00080C0E00080E0000080E0200080E0400080E0600080E0800080E0A00080E0C00080E0E000C0000000C0002000C0004000C0006000C0008000C000A000C000C000C000E000C0200000C0202000C0204000C0206000C0208000C020A000C020C000C020E000C0400000C0402000C0404000C0406000C0
310
408000C040A000C040C000C040E000C0600000C0602000C0604000C0606000C0608000C060A000C060C000C060E000C0800000C0802000C0804000C0806000C0808000C080A000C080C000C080E000C0A00000C0A02000C0A04000C0A06000C0A08000C0A0A000C0A0C000C0A0E000C0C00000C0C02000C0C04000C0C06000
310
C0C08000C0C0A000F0FBFF00A4A0A000808080000000FF0000FF000000FFFF00FF000000FF00FF00FFFF0000FFFFFF00FFFFFFFFFFFFFFFFFFFFFFFFFFFFFFFFFFFFFFFFFFFFFFFFFFFFFFFFFFFFFFFFFFFFFFFFFFFFFFFF000000000000000000000000000000000000000000000000FFFFFFFFFFFFFFFF00FFFFFFFFFFFF
310
FFFFFFFFFFFFFFFFFFFFFFFFFFFFFFFFFFFFFFFFFFFFFFFFFF00FFFFFFFFFFFFFFFFFFFFFFFFFFFFFFFFFFFFFFFFFFFFFFFFFFFFFFFFFFFFFF00FFFFFFFFFFFFFFFFFFFFFFFFFFFFFFFFFFFFFFFFFFFFFFFFFFFFFFFFFFFFFF00FFFFFFFFFFFFFFFFFFFFFFFFFFFFFFFFFFFFFFFFFFFFFFFFFFFFFFFFFFFFFF00FFFFFFFFFF
310
FFFFFFFFFFFFFFFFFFFFFFFFFFFFFFFFFFFFFFFFFFFFFFFFFFFF00FFFFFFFFFFFFFFFFFFFFFFFFFFFFFFFFFFFFFFFFFFFFFFFFFFFFFFFFFFFFFF00FFFFFFFFFFFFFFFFFFFFFFFFFFFFFFFFFFFFFFFFFFFFFFFFFFFFFFFFFFFFFF00FFFFFFFFFFFFFFFFFFFFFFFFFFFFFFFFFFFFFFFFFFFFFFFFFFFFFFFFFFFFFF00FFFFFFFF
310
FFFFFFFFFFFFFFFFFFFFFFFFFFFFFFFFFFFFFFFFFFFFFFFFFFFFFF00FFFFFFFFFFFFFFFFFFFFFFFFFFFFFFFFFFFFFFFFFFFFFFFFFFFFFFFFFFFFFF00FFFFFFFFFFFFFFFFFFFFFFFFFFFFFFFFFFFFFFFFFFFFFFFFFFFFFFFFFFFFFF00FFFFFFFFFFFFFFFFFFFFFFFFFFFFFFFFFFFFFFFFFFFFFFFFFFFFFFFFFFFFFF00FFFFFF
310
FFFFFFFFFFFFFFFFFFFFFFFFFFFFFFFFFFFFFFFFFFFFFFFFFFFFFFFF00FFFFFFFFFFFFFFFFFFFFFFFFFFFFFFFFFFFFFFFFFFFFFFFFFFFFFFFFFFFFFF00FFFFFFFFFFFFFFFFFFFFFFFFFFFFFFFFFFFFFFFFFFFFFFFFFFFFFFFFFFFFFF00FFFFFFFFFFFFFFFFFFFFFFFFFFFFFFFFFFFFFFFFFFFFFFFFFFFFFFFFFFFFFF00FFFF
310
FFFFFFFFFFFFFFFFFFFFFFFFFFFFFFFFFFFFFFFFFFFFFFFFFFFFFFFFFF00FFFFFFFFFFFFFFFFFFFFFFFFFFFFFFFFFFFFFFFFFFFFFFFFFFFFFFFFFFFFFF00FFFFFFFFFFFFFFFFFFFFFFFFFFFFFFFFFFFFFFFFFFFFFFFFFFFFFFFFFFFFFF00FFFFFFFFFFFFFFFFFFFFFFFFFFFFFFFFFFFFFFFFFFFFFFFFFFFFFFFFFFFFFF00FF
310
FFFFFFFFFFFFFFFFFFFFFFFFFFFFFFFFFFFFFFFFFFFFFFFFFFFFFFFFFFFF00FFFFFFFFFFFFFFFFFFFFFFFFFFFFFFFFFFFFFFFFFFFFFFFFFFFFFFFFFFFFFF00FFFFFFFFFFFFFFFFFFFFFFFFFFFFFFFFFFFFFFFFFFFFFFFFFFFFFFFFFFFFFF00FFFFFFFFFFFFFFFFFFFFFFFFFFFFFFFFFFFFFFFFFFFFFFFFFFFFFFFFFFFFFF00
310
FFFFFFFFFFFFFFFFFFFFFFFFFFFFFFFFFFFFFFFFFFFFFFFFFFFFFFFFFFFFFF00FFFFFFFFFFFFFFFFFFFFFFFFFFFFFFFFFFFFFFFFFFFFFFFFFFFFFFFFFFFFFF00FFFFFFFFFFFFFFFFFFFFFFFFFFFFFFFFFFFFFFFFFFFFFFFFFFFFFFFFFFFFFF00FFFFFFFFFFFFFFFFFFFFFFFFFFFFFFFFFFFFFFFFFFFFFFFFFFFFFFFFFFFFFF
310
00FFFFFFFFFFFFFFFFFFFFFFFFFFFF000000000000000000FFFFFFFFFFFFFFFF00FFFFFFFFFFFFFFFFFFFFFFFFFFFF00FFFFFFFFFFFFFFFF
102
{BLKREFS
331
24C9
102
}
  0
BLOCK_RECORD
  5
24AB
330
21FD
100
AcDbSymbolTableRecord
100
AcDbBlockTableRecord
  2
AI9-BLK4
340
0
310
2800000020000000200000000100080000000000000400000000000000000000000000000000000000000000000080000080000000808000800000008000800080800000C0C0C000C0DCC000F0CAA6000020400000206000002080000020A0000020C0000020E00000400000004020000040400000406000004080000040A0
310
000040C0000040E00000600000006020000060400000606000006080000060A0000060C0000060E00000800000008020000080400000806000008080000080A0000080C0000080E00000A0000000A0200000A0400000A0600000A0800000A0A00000A0C00000A0E00000C0000000C0200000C0400000C0600000C0800000C0
310
A00000C0C00000C0E00000E0000000E0200000E0400000E0600000E0800000E0A00000E0C00000E0E00040000000400020004000400040006000400080004000A0004000C0004000E00040200000402020004020400040206000402080004020A0004020C0004020E000404000004040200040404000404060004040800040
310
40A0004040C0004040E00040600000406020004060400040606000406080004060A0004060C0004060E00040800000408020004080400040806000408080004080A0004080C0004080E00040A0000040A0200040A0400040A0600040A0800040A0A00040A0C00040A0E00040C0000040C0200040C0400040C0600040C08000
310
40C0A00040C0C00040C0E00040E0000040E0200040E0400040E0600040E0800040E0A00040E0C00040E0E00080000000800020008000400080006000800080008000A0008000C0008000E00080200000802020008020400080206000802080008020A0008020C0008020E00080400000804020008040400080406000804080
310
008040A0008040C0008040E00080600000806020008060400080606000806080008060A0008060C0008060E00080800000808020008080400080806000808080008080A0008080C0008080E00080A0000080A0200080A0400080A0600080A0800080A0A00080A0C00080A0E00080C0000080C0200080C0400080C0600080C0
310
800080C0A00080C0C00080C0E00080E0000080E0200080E0400080E0600080E0800080E0A00080E0C00080E0E000C0000000C0002000C0004000C0006000C0008000C000A000C000C000C000E000C0200000C0202000C0204000C0206000C0208000C020A000C020C000C020E000C0400000C0402000C0404000C0406000C0
310
408000C040A000C040C000C040E000C0600000C0602000C0604000C0606000C0608000C060A000C060C000C060E000C0800000C0802000C0804000C0806000C0808000C080A000C080C000C080E000C0A00000C0A02000C0A04000C0A06000C0A08000C0A0A000C0A0C000C0A0E000C0C00000C0C02000C0C04000C0C06000
310
C0C08000C0C0A000F0FBFF00A4A0A000808080000000FF0000FF000000FFFF00FF000000FF00FF00FFFF0000FFFFFF00FFFFFFFFFFFFFFFFFFFFFFFFFFFFFFFFFFFFFFFFFFFFFFFFFFFFFFFFFFFFFFFFFFFFFFFFFFFFFFFFFFFFFFFFFFFF00000000FFFFFFFFFFFFFFFFFFFFFF000000FFFFFFFFFFFFFFFFFFFFFFFFFFFF00
310
FFFF00FFFFFFFFFFFFFFFFFFFFFF00FFFFFFFFFFFFFFFFFFFFFFFFFFFFFFFF00FFFF00FFFFFFFFFFFFFFFFFFFFFF00FFFFFFFFFFFFFFFFFFFFFFFFFFFFFFFF00FFFF00FFFFFFFFFFFFFFFFFFFFFF00FFFFFFFFFFFFFFFFFFFFFFFFFFFFFFFF00FFFF00FFFFFFFFFFFFFFFFFFFFFF00FFFFFFFFFFFFFFFFFFFFFFFFFFFFFFFF
310
00FFFF00FFFFFFFFFFFFFFFFFFFFFF00FFFFFFFFFFFFFFFFFFFFFFFFFFFFFFFF00FFFF00FFFFFFFFFFFFFFFFFFFFFF00FFFFFFFFFFFFFFFFFFFFFFFFFFFFFFFF00FFFF00FFFFFFFFFFFFFFFFFFFFFF00FFFFFFFFFFFFFFFFFFFFFFFFFFFFFFFF00FFFF00FFFFFFFFFFFFFFFFFFFFFF00FFFFFFFFFFFFFFFFFFFFFFFFFFFFFF
310
FF00FFFF00FFFFFFFFFFFFFFFFFFFFFF00FFFFFFFFFFFFFFFFFFFFFFFFFFFFFFFF00FFFF00FFFFFFFFFFFFFFFFFFFFFF00FFFFFFFFFFFFFFFFFFFFFFFFFFFFFFFF00FFFF00FFFFFFFFFFFFFFFFFFFFFF00FFFFFFFFFFFFFFFFFFFFFFFFFFFFFFFF00FFFF00FFFFFFFFFFFFFFFFFFFFFF00FFFFFFFFFFFFFFFFFFFFFFFFFFFF
310
FFFF00FFFF00FFFFFFFFFFFFFFFFFFFFFF00FFFFFFFFFFFFFFFFFFFFFFFFFFFFFFFF00FFFF00FFFFFFFFFFFFFFFFFFFFFF00FFFFFFFFFFFFFFFFFFFFFFFFFFFFFFFF00FFFF00FFFFFFFFFFFFFFFFFFFFFF00FFFFFFFFFFFFFFFFFFFFFFFFFFFFFFFF00FFFF00FFFFFFFFFFFFFFFFFFFF00FFFFFFFFFFFFFFFFFFFFFFFFFFFF
310
FFFFFF00FFFF00FFFFFFFFFFFFFFFFFFFF00FFFFFFFFFFFFFFFFFFFFFFFFFFFFFFFFFF00FFFF00FFFFFFFFFFFFFFFFFFFF00FFFFFFFFFFFFFFFFFFFFFFFFFFFFFFFFFF00FFFF00FFFFFFFFFFFFFFFFFFFF00FFFFFFFFFFFFFFFFFFFFFFFFFFFFFFFFFF00FFFF00FFFFFFFFFFFFFFFFFFFF00FFFFFFFFFFFFFFFFFFFFFFFFFF
310
FFFFFFFF00FFFF00FFFFFFFFFFFFFFFFFF0000FFFF00FFFFFFFFFFFFFFFFFFFFFFFFFFFF00FFFF00FFFFFFFFFFFFFFFF0000FFFFFF00FFFFFFFFFFFFFFFFFFFFFFFFFFFF00FFFF00000000000000000000FFFFFFFF00FFFFFFFFFFFFFFFFFFFFFFFFFFFF00FFFFFFFFFFFFFFFFFFFFFFFFFFFFFF00FFFFFFFFFFFFFFFFFFFF
310
FFFFFFFFFF00FFFFFFFFFFFFFFFFFFFFFFFFFFFF00FFFFFFFFFFFFFFFFFFFFFFFFFFFFFFFF00FFFFFFFFFFFFFFFFFFFFFFFFFFFF00FFFFFFFFFFFFFFFFFFFFFFFFFFFFFFFF00FFFFFFFFFFFFFFFFFFFFFFFFFFFFFF00FFFFFFFFFFFFFFFFFFFFFFFFFFFFFF00FFFFFFFFFFFFFFFFFFFFFFFFFFFFFF00FFFFFFFFFFFFFFFFFF
310
FFFFFFFFFFFF00FFFF00000000000000000000FFFFFFFF00FFFFFFFFFFFFFFFFFFFFFFFFFFFF00FFFF00FFFFFFFFFFFFFFFFFF0000FFFF00
102
{BLKREFS
331
24CA
102
}
  0
BLOCK_RECORD
  5
24B0
330
21FD
100
AcDbSymbolTableRecord
100
AcDbBlockTableRecord
  2
AI9-BLK3
340
0
310
2800000020000000200000000100080000000000000400000000000000000000000000000000000000000000000080000080000000808000800000008000800080800000C0C0C000C0DCC000F0CAA6000020400000206000002080000020A0000020C0000020E00000400000004020000040400000406000004080000040A0
310
000040C0000040E00000600000006020000060400000606000006080000060A0000060C0000060E00000800000008020000080400000806000008080000080A0000080C0000080E00000A0000000A0200000A0400000A0600000A0800000A0A00000A0C00000A0E00000C0000000C0200000C0400000C0600000C0800000C0
310
A00000C0C00000C0E00000E0000000E0200000E0400000E0600000E0800000E0A00000E0C00000E0E00040000000400020004000400040006000400080004000A0004000C0004000E00040200000402020004020400040206000402080004020A0004020C0004020E000404000004040200040404000404060004040800040
310
40A0004040C0004040E00040600000406020004060400040606000406080004060A0004060C0004060E00040800000408020004080400040806000408080004080A0004080C0004080E00040A0000040A0200040A0400040A0600040A0800040A0A00040A0C00040A0E00040C0000040C0200040C0400040C0600040C08000
310
40C0A00040C0C00040C0E00040E0000040E0200040E0400040E0600040E0800040E0A00040E0C00040E0E00080000000800020008000400080006000800080008000A0008000C0008000E00080200000802020008020400080206000802080008020A0008020C0008020E00080400000804020008040400080406000804080
310
008040A0008040C0008040E00080600000806020008060400080606000806080008060A0008060C0008060E00080800000808020008080400080806000808080008080A0008080C0008080E00080A0000080A0200080A0400080A0600080A0800080A0A00080A0C00080A0E00080C0000080C0200080C0400080C0600080C0
310
800080C0A00080C0C00080C0E00080E0000080E0200080E0400080E0600080E0800080E0A00080E0C00080E0E000C0000000C0002000C0004000C0006000C0008000C000A000C000C000C000E000C0200000C0202000C0204000C0206000C0208000C020A000C020C000C020E000C0400000C0402000C0404000C0406000C0
310
408000C040A000C040C000C040E000C0600000C0602000C0604000C0606000C0608000C060A000C060C000C060E000C0800000C0802000C0804000C0806000C0808000C080A000C080C000C080E000C0A00000C0A02000C0A04000C0A06000C0A08000C0A0A000C0A0C000C0A0E000C0C00000C0C02000C0C04000C0C06000
310
C0C08000C0C0A000F0FBFF00A4A0A000808080000000FF0000FF000000FFFF00FF000000FF00FF00FFFF0000FFFFFF00FFFFFFFFFFFFFFFFFFFFFFFFFFFFFFFFFFFFFFFFFFFFFFFFFFFFFFFFFFFFFFFFFFFFFFFFFFFFFFFFFFFFFFFFFFFFFF0000FFFFFFFFFFFFFFFFFFFFFFFFFFFFFFFFFFFFFFFFFFFFFFFFFFFFFFFFFFFF
310
0000FFFFFFFFFFFFFFFFFFFFFFFFFFFFFFFFFFFFFFFFFFFFFFFFFFFFFFFFFFFF0000FFFFFFFFFFFFFFFFFFFFFFFFFFFFFFFFFFFFFFFFFFFFFFFFFFFFFFFFFFFF0000FFFFFFFFFFFFFFFFFFFFFFFFFFFFFFFFFFFFFFFFFFFFFFFFFFFFFFFFFFFF0000FFFFFFFFFFFFFFFFFFFFFFFFFFFFFFFFFFFFFFFFFFFFFFFFFFFFFFFFFF
310
FF0000FFFFFFFFFFFFFFFFFFFFFFFFFFFFFFFFFFFFFFFFFFFFFFFFFFFFFFFFFFFF0000FFFFFFFFFFFFFFFFFFFFFFFFFFFFFFFFFFFFFFFFFFFFFFFFFFFFFFFFFFFF0000FFFFFFFFFFFFFFFFFFFFFFFFFFFFFFFFFFFFFFFFFFFFFFFFFFFFFFFFFFFF0000FFFFFFFFFFFFFFFFFFFFFFFFFFFFFFFFFFFFFFFFFFFFFFFFFFFFFFFF
310
FFFF0000FFFFFFFFFFFFFFFFFFFFFFFFFFFFFFFFFFFFFFFFFFFFFFFFFFFFFFFFFFFF0000FFFFFFFFFFFFFFFFFFFFFFFFFFFFFFFFFFFFFFFFFFFFFFFFFFFFFFFFFFFF0000FFFFFFFFFFFFFFFFFFFFFFFFFFFFFFFFFFFFFFFFFFFFFFFFFFFFFFFFFFFF0000FFFFFFFFFFFFFFFFFFFFFFFFFFFFFFFFFFFFFFFFFFFFFFFFFFFFFF
310
FFFFFF0000FFFFFFFFFFFFFFFFFFFFFFFFFFFFFFFFFFFFFFFFFFFFFFFFFFFFFFFFFFFF0000FFFFFFFFFFFFFFFFFFFFFFFFFFFFFFFFFFFFFFFFFFFFFFFFFFFFFFFFFFFF0000FFFFFFFFFFFFFFFFFFFFFFFFFFFFFFFFFFFFFFFFFFFFFFFFFFFFFFFFFFFF0000FFFFFFFFFFFFFFFFFFFFFFFFFFFFFFFFFFFFFFFFFFFFFFFFFFFF
310
FFFFFFFF0000FFFFFFFFFFFFFFFFFFFFFFFFFFFFFFFFFFFFFFFFFFFFFFFFFFFFFFFFFFFF0000FFFFFFFFFFFFFFFFFFFFFFFFFFFFFFFFFFFFFFFFFFFFFFFFFFFFFFFFFFFF0000FFFFFFFFFFFFFFFFFFFFFFFFFFFFFFFFFFFFFFFFFFFFFFFFFFFFFFFFFFFF0000FFFFFFFFFFFFFFFFFFFFFFFFFFFFFFFFFFFFFFFFFFFFFFFFFF
310
FFFFFFFFFF0000FFFFFFFFFFFFFFFFFFFFFFFFFFFFFFFFFFFFFFFFFFFFFFFFFFFFFFFFFFFF0000FFFFFFFFFFFFFFFFFFFFFFFFFFFFFFFFFFFFFFFFFFFFFFFFFFFFFFFFFFFF0000FFFFFFFFFFFFFFFFFFFFFFFFFFFFFFFFFFFFFFFFFFFFFFFFFFFFFFFFFFFF0000FFFFFFFFFFFFFFFFFFFFFFFFFFFFFFFFFFFFFFFFFFFFFFFF
310
FFFFFFFFFFFF0000FFFFFFFFFFFFFFFFFFFFFFFFFFFFFFFFFFFFFFFFFFFFFFFFFFFFFFFFFFFF0000FFFFFFFFFFFFFFFFFFFFFFFFFFFFFFFFFFFFFFFFFFFFFFFFFFFFFFFFFFFF0000FFFFFFFFFFFFFFFFFFFFFFFFFFFFFFFFFFFFFFFFFFFFFFFFFFFFFFFFFFFF0000FFFFFFFFFFFFFFFFFFFFFFFFFFFFFFFFFFFFFFFFFFFFFF
310
FFFFFFFFFFFFFF0000FFFFFFFFFFFFFFFFFFFFFFFFFFFFFFFFFFFFFFFFFFFFFFFFFFFFFFFFFFFFFFFFFFFFFFFFFFFFFFFFFFFFFFFFFFFFFF
102
{BLKREFS
331
24CB
102
}
  0
BLOCK_RECORD
  5
24B5
330
21FD
100
AcDbSymbolTableRecord
100
AcDbBlockTableRecord
  2
AI9-BLK2
340
0
310
2800000020000000200000000100080000000000000400000000000000000000000000000000000000000000000080000080000000808000800000008000800080800000C0C0C000C0DCC000F0CAA6000020400000206000002080000020A0000020C0000020E00000400000004020000040400000406000004080000040A0
310
000040C0000040E00000600000006020000060400000606000006080000060A0000060C0000060E00000800000008020000080400000806000008080000080A0000080C0000080E00000A0000000A0200000A0400000A0600000A0800000A0A00000A0C00000A0E00000C0000000C0200000C0400000C0600000C0800000C0
310
A00000C0C00000C0E00000E0000000E0200000E0400000E0600000E0800000E0A00000E0C00000E0E00040000000400020004000400040006000400080004000A0004000C0004000E00040200000402020004020400040206000402080004020A0004020C0004020E000404000004040200040404000404060004040800040
310
40A0004040C0004040E00040600000406020004060400040606000406080004060A0004060C0004060E00040800000408020004080400040806000408080004080A0004080C0004080E00040A0000040A0200040A0400040A0600040A0800040A0A00040A0C00040A0E00040C0000040C0200040C0400040C0600040C08000
310
40C0A00040C0C00040C0E00040E0000040E0200040E0400040E0600040E0800040E0A00040E0C00040E0E00080000000800020008000400080006000800080008000A0008000C0008000E00080200000802020008020400080206000802080008020A0008020C0008020E00080400000804020008040400080406000804080
310
008040A0008040C0008040E00080600000806020008060400080606000806080008060A0008060C0008060E00080800000808020008080400080806000808080008080A0008080C0008080E00080A0000080A0200080A0400080A0600080A0800080A0A00080A0C00080A0E00080C0000080C0200080C0400080C0600080C0
310
800080C0A00080C0C00080C0E00080E0000080E0200080E0400080E0600080E0800080E0A00080E0C00080E0E000C0000000C0002000C0004000C0006000C0008000C000A000C000C000C000E000C0200000C0202000C0204000C0206000C0208000C020A000C020C000C020E000C0400000C0402000C0404000C0406000C0
310
408000C040A000C040C000C040E000C0600000C0602000C0604000C0606000C0608000C060A000C060C000C060E000C0800000C0802000C0804000C0806000C0808000C080A000C080C000C080E000C0A00000C0A02000C0A04000C0A06000C0A08000C0A0A000C0A0C000C0A0E000C0C00000C0C02000C0C04000C0C06000
310
C0C08000C0C0A000F0FBFF00A4A0A000808080000000FF0000FF000000FFFF00FF000000FF00FF00FFFF0000FFFFFF00FFFFFFFFFFFFFFFFFFFFFFFFFFFFFFFFFFFFFFFFFFFFFFFFFFFFFFFFFFFFFFFFFFFFFFFFFFFFFFFFFFFFFFFFFFFFFF0000FFFFFFFFFFFFFFFFFFFFFFFFFFFFFFFFFFFFFFFFFFFFFFFFFFFFFFFFFFFF
310
0000FFFFFFFFFFFFFFFFFFFFFFFFFFFFFFFFFFFFFFFFFFFFFFFFFFFFFFFFFFFF0000FFFFFFFFFFFFFFFFFFFFFFFFFFFFFFFFFFFFFFFFFFFFFFFFFFFFFFFFFF00FFFF00FFFFFFFFFFFFFFFFFFFFFFFFFFFFFFFFFFFFFFFFFFFFFFFFFFFFFFFF00FFFF00FFFFFFFFFFFFFFFFFFFFFFFFFFFFFFFFFFFFFFFFFFFFFFFFFFFFFFFF
310
00FF0000FFFFFFFFFFFFFFFFFFFFFFFFFFFFFFFFFFFFFFFFFFFFFFFFFFFFFFFF00FF0000FFFFFFFFFFFFFFFFFFFFFFFFFFFFFFFFFFFFFFFFFFFFFFFFFFFFFFFF00FF0000FFFFFFFFFFFFFFFFFFFFFFFFFFFFFFFFFFFFFFFFFFFFFFFFFFFFFFFF00000000FFFFFFFFFFFFFFFFFFFFFFFFFFFFFFFFFFFFFFFFFFFFFFFFFFFFFF
310
00FF00FF0000FFFFFFFFFFFFFFFFFFFFFFFFFFFFFFFFFFFFFFFFFFFFFFFFFFFF00FF00FF0000FFFFFFFFFFFFFFFFFFFFFFFFFFFFFFFFFFFFFFFFFFFFFFFFFFFF00FF00FF0000FFFFFFFFFFFFFFFFFFFFFFFFFFFFFFFFFFFFFFFFFFFFFFFFFFFF00FF00FF0000FFFFFFFFFFFFFFFFFFFFFFFFFFFFFFFFFFFFFFFFFFFFFFFFFF
310
FF00FF00FF0000FFFFFFFFFFFFFFFFFFFFFFFFFFFFFFFFFFFFFFFFFFFFFFFFFFFF0000FFFF0000FFFFFFFFFFFFFFFFFFFFFFFFFFFFFFFFFFFFFFFFFFFFFFFFFF00FF00FFFF00FF00FFFFFFFFFFFFFFFFFFFFFFFFFFFFFFFFFFFFFFFFFFFFFFFF00FF00FFFF00FF00FFFFFFFFFFFFFFFFFFFFFFFFFFFFFFFFFFFFFFFFFFFFFF
310
FF00FF00FFFFFF0000FFFFFFFFFFFFFFFFFFFFFFFFFFFFFFFFFFFFFFFFFFFFFFFF00FF00FFFFFF0000FFFFFFFFFFFFFFFFFFFFFFFFFFFFFFFFFFFFFFFFFFFFFFFF00FF00FFFFFF0000FFFFFFFFFFFFFFFFFFFFFFFFFFFFFFFFFFFFFFFFFFFFFFFF0000FFFFFFFF0000FFFFFFFFFFFFFFFFFFFFFFFFFFFFFFFFFFFFFFFFFFFF
310
FF00FF00FFFFFFFF00FF00FFFFFFFFFFFFFFFFFFFFFFFFFFFFFFFFFFFFFFFFFFFF00FF00FFFFFFFF00FF00FFFFFFFFFFFFFFFFFFFFFFFFFFFFFFFFFFFFFFFFFFFF00FF00FFFFFFFF00FF00FFFFFFFFFFFFFFFFFFFFFFFFFFFFFFFFFFFFFFFFFFFF00FF00FFFFFFFF00FF00FFFFFFFFFFFFFFFFFFFFFFFFFFFFFFFFFFFFFFFF
310
FFFF00FF00FFFFFFFFFF0000FFFFFFFFFFFFFFFFFFFFFFFFFFFFFFFFFFFFFFFFFFFF0000FFFFFFFFFFFF0000FFFFFFFFFFFFFFFFFFFFFFFFFFFFFFFFFFFFFFFFFF00FF00FFFFFFFFFFFF00FF00FFFFFFFFFFFFFFFFFFFFFFFFFFFFFFFFFFFFFFFF00FF00FFFFFFFFFFFF00FF00FFFFFFFFFFFFFFFFFFFFFFFFFFFFFFFFFFFF
310
FFFF000000FFFFFFFFFFFF000000FFFFFFFFFFFFFFFFFFFFFFFFFFFFFFFFFFFFFFFFFFFFFFFFFFFFFFFFFFFFFFFFFFFFFFFFFFFFFFFFFFFF
102
{BLKREFS
331
24CC
102
}
  0
BLOCK_RECORD
  5
24BA
330
21FD
100
AcDbSymbolTableRecord
100
AcDbBlockTableRecord
  2
AI9-BLK1
340
0
310
2800000020000000200000000100080000000000000400000000000000000000000000000000000000000000000080000080000000808000800000008000800080800000C0C0C000C0DCC000F0CAA6000020400000206000002080000020A0000020C0000020E00000400000004020000040400000406000004080000040A0
310
000040C0000040E00000600000006020000060400000606000006080000060A0000060C0000060E00000800000008020000080400000806000008080000080A0000080C0000080E00000A0000000A0200000A0400000A0600000A0800000A0A00000A0C00000A0E00000C0000000C0200000C0400000C0600000C0800000C0
310
A00000C0C00000C0E00000E0000000E0200000E0400000E0600000E0800000E0A00000E0C00000E0E00040000000400020004000400040006000400080004000A0004000C0004000E00040200000402020004020400040206000402080004020A0004020C0004020E000404000004040200040404000404060004040800040
310
40A0004040C0004040E00040600000406020004060400040606000406080004060A0004060C0004060E00040800000408020004080400040806000408080004080A0004080C0004080E00040A0000040A0200040A0400040A0600040A0800040A0A00040A0C00040A0E00040C0000040C0200040C0400040C0600040C08000
310
40C0A00040C0C00040C0E00040E0000040E0200040E0400040E0600040E0800040E0A00040E0C00040E0E00080000000800020008000400080006000800080008000A0008000C0008000E00080200000802020008020400080206000802080008020A0008020C0008020E00080400000804020008040400080406000804080
310
008040A0008040C0008040E00080600000806020008060400080606000806080008060A0008060C0008060E00080800000808020008080400080806000808080008080A0008080C0008080E00080A0000080A0200080A0400080A0600080A0800080A0A00080A0C00080A0E00080C0000080C0200080C0400080C0600080C0
310
800080C0A00080C0C00080C0E00080E0000080E0200080E0400080E0600080E0800080E0A00080E0C00080E0E000C0000000C0002000C0004000C0006000C0008000C000A000C000C000C000E000C0200000C0202000C0204000C0206000C0208000C020A000C020C000C020E000C0400000C0402000C0404000C0406000C0
310
408000C040A000C040C000C040E000C0600000C0602000C0604000C0606000C0608000C060A000C060C000C060E000C0800000C0802000C0804000C0806000C0808000C080A000C080C000C080E000C0A00000C0A02000C0A04000C0A06000C0A08000C0A0A000C0A0C000C0A0E000C0C00000C0C02000C0C04000C0C06000
310
C0C08000C0C0A000F0FBFF00A4A0A000808080000000FF0000FF000000FFFF00FF000000FF00FF00FFFF0000FFFFFF00FFFFFFFFFFFFFFFFFFFFFFFFFFFFFFFFFFFFFFFFFFFFFFFFFFFFFFFFFFFFFFFFFFFFFFFFFFFFFFFFFFFFFF00000000000000000000FFFFFFFFFFFFFFFFFFFFFFFFFFFFFFFFFFFFFFFFFFFF00FFFFFF
310
FFFFFFFFFF00FFFFFFFFFFFFFFFFFFFFFFFFFFFFFFFFFFFFFFFFFFFF00FFFFFFFFFFFFFFFF00FFFFFFFFFFFFFFFFFFFFFFFFFFFFFFFFFFFFFFFFFFFF00FFFFFFFFFFFFFFFF00FFFFFFFFFFFFFFFFFFFFFFFFFFFFFFFFFFFFFFFFFFFF00FF0000000000000000FFFFFFFFFFFFFFFFFFFFFFFFFFFFFFFFFFFFFFFFFFFF00FF00
310
FFFFFFFFFFFFFFFFFFFFFFFFFFFFFFFFFFFFFFFFFFFFFFFFFFFFFFFFFF00FF00FFFFFFFFFFFFFFFFFFFFFFFFFFFFFFFFFFFFFFFFFFFFFFFFFFFFFFFFFF00FF00FFFFFFFFFFFFFFFFFFFFFFFFFFFFFFFFFFFFFFFFFFFFFFFFFFFFFFFFFF00FF00FFFFFFFFFFFFFFFFFFFFFFFFFFFFFFFFFFFFFFFFFFFFFFFFFFFFFFFFFF00FF
310
00FFFFFFFFFFFFFFFFFFFFFFFFFFFFFFFFFFFFFFFFFFFFFFFFFFFFFFFFFF00FF00FFFFFFFFFFFFFFFFFFFFFFFFFFFFFFFFFFFFFFFFFFFFFFFFFFFFFFFFFF00FF00FFFFFFFFFFFFFFFFFFFFFFFFFFFFFFFFFFFFFFFFFFFFFFFFFFFFFFFFFF00FF00FFFFFFFFFFFFFFFFFFFFFFFFFFFFFFFFFFFFFFFFFFFFFFFFFFFFFFFFFF00
310
FF00000000000000FFFFFFFFFFFFFFFFFFFFFFFFFFFFFFFFFFFFFFFFFFFFFF00FFFFFFFFFFFFFF00FFFFFFFFFFFFFFFFFFFFFFFFFFFFFFFFFFFFFFFFFFFFFF00FFFFFFFFFFFFFF00FFFFFFFFFFFFFFFFFFFFFFFFFFFFFFFFFFFFFFFFFFFFFF00FFFFFFFFFFFFFF00FFFFFFFFFFFFFFFFFFFFFFFFFFFFFFFFFFFFFFFFFFFFFF
310
00FF00000000000000FFFFFFFFFFFFFFFFFFFFFFFFFFFFFFFFFFFFFFFFFFFFFF00FF00FFFFFFFFFFFFFFFFFFFFFFFFFFFFFFFFFFFFFFFFFFFFFFFFFFFFFFFFFF00FF00FFFFFFFFFFFFFFFFFFFFFFFFFFFFFFFFFFFFFFFFFFFFFFFFFFFFFFFFFF00FF00FFFFFFFFFFFFFFFFFFFFFFFFFFFFFFFFFFFFFFFFFFFFFFFFFFFFFFFF
310
FF00FF00FFFFFFFFFFFFFFFFFFFFFFFFFFFFFFFFFFFFFFFFFFFFFFFFFFFFFFFFFF00FF00FFFFFFFFFFFFFFFFFFFFFFFFFFFFFFFFFFFFFFFFFFFFFFFFFFFFFFFFFF00FF00FFFFFFFFFFFFFFFFFFFFFFFFFFFFFFFFFFFFFFFFFFFFFFFFFFFFFFFFFF00FF00FFFFFFFFFFFFFFFFFFFFFFFFFFFFFFFFFFFFFFFFFFFFFFFFFFFFFF
310
FFFF00FF0000000000000000FFFFFFFFFFFFFFFFFFFFFFFFFFFFFFFFFFFFFFFFFFFF00FFFFFFFFFFFFFFFF00FFFFFFFFFFFFFFFFFFFFFFFFFFFFFFFFFFFFFFFFFFFF00FFFFFFFFFFFFFFFF00FFFFFFFFFFFFFFFFFFFFFFFFFFFFFFFFFFFFFFFFFFFF00FFFFFFFFFFFFFFFF00FFFFFFFFFFFFFFFFFFFFFFFFFFFFFFFFFFFFFF
310
FFFFFF00000000000000000000FFFFFFFFFFFFFFFFFFFFFFFFFFFFFFFFFFFFFFFFFFFFFFFFFFFFFFFFFFFFFFFFFFFFFFFFFFFFFFFFFFFFFF
102
{BLKREFS
331
24CD
102
}
  0
BLOCK_RECORD
  5
24BF
330
21FD
100
AcDbSymbolTableRecord
100
AcDbBlockTableRecord
  2
HD_LLC_logo_OT5
340
0
310
2800000020000000200000000100080000000000000400000000000000000000000000000000000000000000000080000080000000808000800000008000800080800000C0C0C000C0DCC000F0CAA6000020400000206000002080000020A0000020C0000020E00000400000004020000040400000406000004080000040A0
310
000040C0000040E00000600000006020000060400000606000006080000060A0000060C0000060E00000800000008020000080400000806000008080000080A0000080C0000080E00000A0000000A0200000A0400000A0600000A0800000A0A00000A0C00000A0E00000C0000000C0200000C0400000C0600000C0800000C0
310
A00000C0C00000C0E00000E0000000E0200000E0400000E0600000E0800000E0A00000E0C00000E0E00040000000400020004000400040006000400080004000A0004000C0004000E00040200000402020004020400040206000402080004020A0004020C0004020E000404000004040200040404000404060004040800040
310
40A0004040C0004040E00040600000406020004060400040606000406080004060A0004060C0004060E00040800000408020004080400040806000408080004080A0004080C0004080E00040A0000040A0200040A0400040A0600040A0800040A0A00040A0C00040A0E00040C0000040C0200040C0400040C0600040C08000
310
40C0A00040C0C00040C0E00040E0000040E0200040E0400040E0600040E0800040E0A00040E0C00040E0E00080000000800020008000400080006000800080008000A0008000C0008000E00080200000802020008020400080206000802080008020A0008020C0008020E00080400000804020008040400080406000804080
310
008040A0008040C0008040E00080600000806020008060400080606000806080008060A0008060C0008060E00080800000808020008080400080806000808080008080A0008080C0008080E00080A0000080A0200080A0400080A0600080A0800080A0A00080A0C00080A0E00080C0000080C0200080C0400080C0600080C0
310
800080C0A00080C0C00080C0E00080E0000080E0200080E0400080E0600080E0800080E0A00080E0C00080E0E000C0000000C0002000C0004000C0006000C0008000C000A000C000C000C000E000C0200000C0202000C0204000C0206000C0208000C020A000C020C000C020E000C0400000C0402000C0404000C0406000C0
310
408000C040A000C040C000C040E000C0600000C0602000C0604000C0606000C0608000C060A000C060C000C060E000C0800000C0802000C0804000C0806000C0808000C080A000C080C000C080E000C0A00000C0A02000C0A04000C0A06000C0A08000C0A0A000C0A0C000C0A0E000C0C00000C0C02000C0C04000C0C06000
310
C0C08000C0C0A000F0FBFF00A4A0A000808080000000FF0000FF000000FFFF00FF000000FF00FF00FFFF0000FFFFFF00FFFFFFFFFFFFFFFFFFFFFFFFFFFFFFFFFFFFFFFFFFFFFFFFFFFFFFFFFFFFFFFFFFFFFFFFFFFFFFFFFFFFFFFFFFFFFFFFFFFFFFFFFFFFFFFFFFFFFFFFFFFFFFFFFFFFFFFFFFFFFFFFFFFFFFFFFFFFFF
310
FFFFFFFFFFFFFFFFFFFFFFFFFFFFFFFFFFFFFFFFFFFFFFFFFFFFFFFFFFFFFFFFFFFFFFFFFFFFFFFFFFFFFFFFFFFFFFFFFFFFFFFFFFFFFFFFFFFFFFFFFFFFFFFFFFFFFFFFFFFFFFFFFFFFFFFFFFFFFFFFFFFFFFFFFFFFFFFFFFFFFFFFFFFFFFFFFFFFFFFFFFFFFFFFFFFFFFFFFFFFFFFFFFFFFFFFFFFFFFFFFFFFFFFFFFFFFF
310
FFFFFFFFFFFFFFFFFFFFFFFFFFFFFFFFFFFFFFFFFFFFFFFFFFFFFFFFFFFFFFFFFFFFFFFFFFFFFFFFFFFFFFFFFFFFFFFFFFFFFFFFFFFFFFFFFFFFFFFFFFFFFFFFFFFFFFFFFFFFFFFFFFFFFFFFFFFFFFFFFFFFFFFFFFFFFFFFFFFFFFFFFFFFFFFFFFFFFFFFFFFFFFFFFFFFFFFFFFFFFFFFFFFFFFFFFFFFFFFFFFFFFFFFFFFFFF
310
FFFFFFFFFFFFFFFFFFFFFFFFFFFFFFFFFFFFFFFFFFFFFFFFFFFFFFFFFFFFFFFFFFFFFFFFFFFFFFFFFFFFFFFFFFFFFFFFFFFFFFFF0000000000000000000000000000000000000000000000000000000000FFFFFF0000000000000000000000000000000000FFFFFFFFFFFFFFFFFFFF0000FFFFFF0000000000000000000000
310
00000000000000FFFFFFFFFFFFFFFFFFFF0000FFFF000000000000000000000000000000000000FFFFFF00000000FFFFFF0000FFFF00FFFFFFFFFFFF00FFFFFF00FFFFFFFFFF00FFFFFF0000000000FFFF0000FFFF00FFFFFFFFFFFF00FFFFFF00FFFFFFFFFF00FFFFFF00FFFF0000FFFF0000FFFF00FFFFFFFFFFFF00FFFF
310
00FFFFFFFFFFFF00FFFFFF00FFFF0000FFFF0000FFFF0000000000FFFF00000000FFFFFF00000000FFFFFF00000000FFFFFF0000FFFFFFFFFFFF00FFFFFFFFFFFFFFFFFF00FFFFFFFFFFFFFFFFFFFFFFFFFF0000FFFFFFFFFFFF00FFFFFFFFFFFFFFFFFF00FFFFFFFFFFFFFFFFFFFFFFFFFF0000FFFFFFFFFFFF00FFFFFFFF
310
FFFFFFFFFF00FFFFFFFFFFFFFFFFFFFFFFFF0000FFFFFF0000000000FFFF00000000FFFFFF0000000000000000000000000000FFFFFFFF00FFFFFFFFFFFF00FFFF00FFFFFFFFFFFF00FFFFFFFFFFFFFFFFFFFFFFFFFFFF00FFFFFFFFFFFF00FFFFFF00FFFFFFFFFF00FFFFFFFFFFFFFFFFFFFFFFFFFFFF0000000000000000
310
FFFFFF00000000000000FFFFFFFFFFFFFFFFFFFFFFFFFFFFFFFFFFFFFFFFFFFFFFFFFFFFFFFFFFFFFFFFFFFFFFFFFFFFFFFFFFFFFFFFFFFFFFFFFFFFFFFFFFFFFFFFFFFFFFFFFFFFFFFFFFFFFFFFFFFFFFFFFFFFFFFFFFFFFFFFFFFFFFFFFFFFFFFFFFFFFFFFFFFFFFFFFFFFFFFFFFFFFFFFFFFFFFFFFFFFFFFFFFFFFFFFFF
310
FFFFFFFFFFFFFFFFFFFFFFFFFFFFFFFFFFFFFFFFFFFFFFFFFFFFFFFFFFFFFFFFFFFFFFFFFFFFFFFFFFFFFFFFFFFFFFFFFFFFFFFFFFFFFFFF
102
{BLKREFS
331
24E5
102
}
  0
BLOCK_RECORD
  5
24E4
330
21FD
100
AcDbSymbolTableRecord
100
AcDbBlockTableRecord
  2
HD logo-new
340
0
310
2800000020000000200000000100080000000000000400000000000000000000000000000000000000000000000080000080000000808000800000008000800080800000C0C0C000C0DCC000F0CAA6000020400000206000002080000020A0000020C0000020E00000400000004020000040400000406000004080000040A0
310
000040C0000040E00000600000006020000060400000606000006080000060A0000060C0000060E00000800000008020000080400000806000008080000080A0000080C0000080E00000A0000000A0200000A0400000A0600000A0800000A0A00000A0C00000A0E00000C0000000C0200000C0400000C0600000C0800000C0
310
A00000C0C00000C0E00000E0000000E0200000E0400000E0600000E0800000E0A00000E0C00000E0E00040000000400020004000400040006000400080004000A0004000C0004000E00040200000402020004020400040206000402080004020A0004020C0004020E000404000004040200040404000404060004040800040
310
40A0004040C0004040E00040600000406020004060400040606000406080004060A0004060C0004060E00040800000408020004080400040806000408080004080A0004080C0004080E00040A0000040A0200040A0400040A0600040A0800040A0A00040A0C00040A0E00040C0000040C0200040C0400040C0600040C08000
310
40C0A00040C0C00040C0E00040E0000040E0200040E0400040E0600040E0800040E0A00040E0C00040E0E00080000000800020008000400080006000800080008000A0008000C0008000E00080200000802020008020400080206000802080008020A0008020C0008020E00080400000804020008040400080406000804080
310
008040A0008040C0008040E00080600000806020008060400080606000806080008060A0008060C0008060E00080800000808020008080400080806000808080008080A0008080C0008080E00080A0000080A0200080A0400080A0600080A0800080A0A00080A0C00080A0E00080C0000080C0200080C0400080C0600080C0
310
800080C0A00080C0C00080C0E00080E0000080E0200080E0400080E0600080E0800080E0A00080E0C00080E0E000C0000000C0002000C0004000C0006000C0008000C000A000C000C000C000E000C0200000C0202000C0204000C0206000C0208000C020A000C020C000C020E000C0400000C0402000C0404000C0406000C0
310
408000C040A000C040C000C040E000C0600000C0602000C0604000C0606000C0608000C060A000C060C000C060E000C0800000C0802000C0804000C0806000C0808000C080A000C080C000C080E000C0A00000C0A02000C0A04000C0A06000C0A08000C0A0A000C0A0C000C0A0E000C0C00000C0C02000C0C04000C0C06000
310
C0C08000C0C0A000F0FBFF00A4A0A000808080000000FF0000FF000000FFFF00FF000000FF00FF00FFFF0000FFFFFF00FFFFFFFFFFFFFFFFFFFFFFFFFFFFFFFFFFFFFFFFFFFFFFFFFFFFFFFFFFFFFFFFFFFFFFFFFFFFFFFFFFFFFFFFFFFFFFFFFFFFFFFFFFFFFFFFFFFFFFFFFFFFFFFFFFFFFFFFFFFFFFFFFFFFFFFFFFFFFF
310
FFFFFFFFFFFFFFFFFFFFFFFFFFFFFFFFFFFFFFFFFFFFFFFFFFFFFFFFFFFFFFFFFFFFFFFFFFFFFFFFFFFFFFFFFFFFFFFFFFFFFFFFFFFFFFFFFFFFFFFFFFFFFFFFFFFFFFFFFFFFFFFFFFFFFFFFFFFFFFFFFFFFFFFFFFFFFFFFFFFFFFFFFFFFFFFFFFFFFFFFFFFFFFFFFFFFFFFFFFFFFFFFFFFFFFFFFFFFFFFFFFFFFFFFFFFFFF
310
FFFFFFFFFFFFFFFFFFFFFFFFFFFFFFFFFFFFFFFFFFFFFFFFFFFFFFFFFFFFFFFFFFFFFFFFFFFFFFFFFFFFFFFFFFFFFFFFFFFFFFFFFFFFFFFFFFFFFFFFFFFFFFFFFFFFFFFFFFFFFFFFFFFFFFFFFFFFFFFFFFFFFFFFFFFFFFFFFFFFFFFFFFFFFFFFFFFFFFFFFFFFFFFFFFFFFFFFFFFFFFFFFFFFFFFFFFFFFFFFFFFFFFFFFFFFFF
310
FFFFFFFFFFFFFFFFFFFFFFFFFFFFFFFFFFFFFFFFFFFFFFFFFFFFFFFFFFFFFFFFFFFFFFFFFFFFFFFFFFFFFFFFFFFFFFFFFFFFFFFF0000000000000000000000000000000000000000000000000000000000FFFFFF0000000000000000000000000000000000FFFFFFFFFFFFFFFFFFFF0000FFFFFF0000000000000000000000
310
00000000000000FFFFFFFFFFFFFFFFFFFF0000FFFF000000000000000000000000000000000000FFFFFF00000000FFFFFF0000FFFF00FFFFFFFFFFFF00FFFFFF00FFFFFFFFFF00FFFFFF0000000000FFFF0000FFFF00FFFFFFFFFFFF00FFFFFF00FFFFFFFFFF00FFFFFF00FFFF0000FFFF0000FFFF00FFFFFFFFFFFF00FFFF
310
00FFFFFFFFFFFF00FFFFFF00FFFF0000FFFF0000FFFF0000000000FFFF00000000FFFFFF00000000FFFFFF00000000FFFFFF0000FFFFFFFFFFFF00FFFFFFFFFFFFFFFFFF00FFFFFFFFFFFFFFFFFFFFFFFFFF0000FFFFFFFFFFFF00FFFFFFFFFFFFFFFFFF00FFFFFFFFFFFFFFFFFFFFFFFFFF0000FFFFFFFFFFFF00FFFFFFFF
310
FFFFFFFFFF00FFFFFFFFFFFFFFFFFFFFFFFF0000FFFFFF0000000000FFFF00000000FFFFFF0000000000000000000000000000FFFFFFFF00FFFFFFFFFFFF00FFFF00FFFFFFFFFFFF00FFFFFFFFFFFFFFFFFFFFFFFFFFFF00FFFFFFFFFFFF00FFFFFF00FFFFFFFFFF00FFFFFFFFFFFFFFFFFFFFFFFFFFFF0000000000000000
310
FFFFFF00000000000000FFFFFFFFFFFFFFFFFFFFFFFFFFFFFFFFFFFFFFFFFFFFFFFFFFFFFFFFFFFFFFFFFFFFFFFFFFFFFFFFFFFFFFFFFFFFFFFFFFFFFFFFFFFFFFFFFFFFFFFFFFFFFFFFFFFFFFFFFFFFFFFFFFFFFFFFFFFFFFFFFFFFFFFFFFFFFFFFFFFFFFFFFFFFFFFFFFFFFFFFFFFFFFFFFFFFFFFFFFFFFFFFFFFFFFFFFF
310
FFFFFFFFFFFFFFFFFFFFFFFFFFFFFFFFFFFFFFFFFFFFFFFFFFFFFFFFFFFFFFFFFFFFFFFFFFFFFFFFFFFFFFFFFFFFFFFFFFFFFFFFFFFFFFFF
102
{BLKREFS
331
24E9
102
}
  0
BLOCK_RECORD
  5
24E8
330
21FD
100
AcDbSymbolTableRecord
100
AcDbBlockTableRecord
  2
HD Logo
340
0
310
2800000020000000200000000100080000000000000400000000000000000000000000000000000000000000000080000080000000808000800000008000800080800000C0C0C000C0DCC000F0CAA6000020400000206000002080000020A0000020C0000020E00000400000004020000040400000406000004080000040A0
310
000040C0000040E00000600000006020000060400000606000006080000060A0000060C0000060E00000800000008020000080400000806000008080000080A0000080C0000080E00000A0000000A0200000A0400000A0600000A0800000A0A00000A0C00000A0E00000C0000000C0200000C0400000C0600000C0800000C0
310
A00000C0C00000C0E00000E0000000E0200000E0400000E0600000E0800000E0A00000E0C00000E0E00040000000400020004000400040006000400080004000A0004000C0004000E00040200000402020004020400040206000402080004020A0004020C0004020E000404000004040200040404000404060004040800040
310
40A0004040C0004040E00040600000406020004060400040606000406080004060A0004060C0004060E00040800000408020004080400040806000408080004080A0004080C0004080E00040A0000040A0200040A0400040A0600040A0800040A0A00040A0C00040A0E00040C0000040C0200040C0400040C0600040C08000
310
40C0A00040C0C00040C0E00040E0000040E0200040E0400040E0600040E0800040E0A00040E0C00040E0E00080000000800020008000400080006000800080008000A0008000C0008000E00080200000802020008020400080206000802080008020A0008020C0008020E00080400000804020008040400080406000804080
310
008040A0008040C0008040E00080600000806020008060400080606000806080008060A0008060C0008060E00080800000808020008080400080806000808080008080A0008080C0008080E00080A0000080A0200080A0400080A0600080A0800080A0A00080A0C00080A0E00080C0000080C0200080C0400080C0600080C0
310
800080C0A00080C0C00080C0E00080E0000080E0200080E0400080E0600080E0800080E0A00080E0C00080E0E000C0000000C0002000C0004000C0006000C0008000C000A000C000C000C000E000C0200000C0202000C0204000C0206000C0208000C020A000C020C000C020E000C0400000C0402000C0404000C0406000C0
310
408000C040A000C040C000C040E000C0600000C0602000C0604000C0606000C0608000C060A000C060C000C060E000C0800000C0802000C0804000C0806000C0808000C080A000C080C000C080E000C0A00000C0A02000C0A04000C0A06000C0A08000C0A0A000C0A0C000C0A0E000C0C00000C0C02000C0C04000C0C06000
310
C0C08000C0C0A000F0FBFF00A4A0A000808080000000FF0000FF000000FFFF00FF000000FF00FF00FFFF0000FFFFFF00FFFFFFFFFFFFFFFFFFFFFFFFFFFFFFFFFFFFFFFFFFFFFFFFFFFFFFFFFFFFFFFFFFFFFFFFFFFFFFFFFFFFFFFFFFFFFFFFFFFFFFFFFFFFFFFFFFFFFFFFFFFFFFFFFFFFFFFFFFFFFFFFFFFFFFFFFFFFFF
310
FFFFFFFFFFFFFFFFFFFFFFFFFFFFFFFFFFFFFFFFFFFFFFFFFFFFFFFFFFFFFFFFFFFFFFFFFFFFFFFFFFFFFFFFFFFFFFFFFFFFFFFFFFFFFFFFFFFFFFFFFFFFFFFFFFFFFFFFFFFFFFFFFFFFFFFFFFFFFFFFFFFFFFFFFFFFFFFFFFFFFFFFFFFFFFFFFFFFFFFFFFFFFFFFFFFFFFFFFFFFFFFFFFFFFFFFFFFFFFFFFFFFFFFFFFFFFF
310
FFFFFFFFFFFFFFFFFFFFFFFFFFFFFFFFFFFFFFFFFFFFFFFFFFFFFFFFFFFFFFFFFFFFFFFFFFFFFFFFFFFFFFFFFFFFFFFFFFFFFFFFFFFFFFFFFFFFFFFFFFFFFFFFFFFFFFFFFFFFFFFFFFFFFFFFFFFFFFFFFFFFFFFFFFFFFFFFFFFFFFFFFFFFFFFFFFFFFFFFFFFFFFFFFFFFFFFFFFFFFFFFFFFFFFFFFFFFFFFFFFFFFFFFFFFFFF
310
FFFFFFFFFFFFFFFFFFFFFFFFFFFFFFFFFFFFFFFFFFFFFFFFFFFFFFFFFFFFFFFFFFFFFFFFFFFFFFFFFFFFFFFFFFFFFFFFFFFFFFFF0000000000000000000000000000000000000000000000000000000000FFFFFF0000000000000000000000000000000000FFFFFFFFFFFFFFFFFFFF0000FFFFFF0000000000000000000000
310
00000000000000FFFFFFFFFFFFFFFFFFFF0000FFFF000000000000000000000000000000000000FFFFFF00000000FFFFFF0000FFFF00FFFFFFFFFFFF00FFFFFF00FFFFFFFFFF00FFFFFF0000000000FFFF0000FFFF00FFFFFFFFFFFF00FFFFFF00FFFFFFFFFF00FFFFFF00FFFF0000FFFF0000FFFF00FFFFFFFFFFFF00FFFF
310
00FFFFFFFFFFFF00FFFFFF00FFFF0000FFFF0000FFFF0000000000FFFF00000000FFFFFF00000000FFFFFF00000000FFFFFF0000FFFFFFFFFFFF00FFFFFFFFFFFFFFFFFF00FFFFFFFFFFFFFFFFFFFFFFFFFF0000FFFFFFFFFFFF00FFFFFFFFFFFFFFFFFF00FFFFFFFFFFFFFFFFFFFFFFFFFF0000FFFFFFFFFFFF00FFFFFFFF
310
FFFFFFFFFF00FFFFFFFFFFFFFFFFFFFFFFFF0000FFFFFF0000000000FFFF00000000FFFFFF0000000000000000000000000000FFFFFFFF00FFFFFFFFFFFF00FFFF00FFFFFFFFFFFF00FFFFFFFFFFFFFFFFFFFFFFFFFFFF00FFFFFFFFFFFF00FFFFFF00FFFFFFFFFF00FFFFFFFFFFFFFFFFFFFFFFFFFFFF0000000000000000
310
FFFFFF00000000000000FFFFFFFFFFFFFFFFFFFFFFFFFFFFFFFFFFFFFFFFFFFFFFFFFFFFFFFFFFFFFFFFFFFFFFFFFFFFFFFFFFFFFFFFFFFFFFFFFFFFFFFFFFFFFFFFFFFFFFFFFFFFFFFFFFFFFFFFFFFFFFFFFFFFFFFFFFFFFFFFFFFFFFFFFFFFFFFFFFFFFFFFFFFFFFFFFFFFFFFFFFFFFFFFFFFFFFFFFFFFFFFFFFFFFFFFFF
310
FFFFFFFFFFFFFFFFFFFFFFFFFFFFFFFFFFFFFFFFFFFFFFFFFFFFFFFFFFFFFFFFFFFFFFFFFFFFFFFFFFFFFFFFFFFFFFFFFFFFFFFFFFFFFFFF
102
{BLKREFS
331
24EF
331
24F3
102
}
  0
BLOCK_RECORD
  5
2509
330
21FD
100
AcDbSymbolTableRecord
100
AcDbBlockTableRecord
  2
Harmonic Drive LLC
340
0
310
2800000020000000200000000100080000000000000400000000000000000000000000000000000000000000000080000080000000808000800000008000800080800000C0C0C000C0DCC000F0CAA6000020400000206000002080000020A0000020C0000020E00000400000004020000040400000406000004080000040A0
310
000040C0000040E00000600000006020000060400000606000006080000060A0000060C0000060E00000800000008020000080400000806000008080000080A0000080C0000080E00000A0000000A0200000A0400000A0600000A0800000A0A00000A0C00000A0E00000C0000000C0200000C0400000C0600000C0800000C0
310
A00000C0C00000C0E00000E0000000E0200000E0400000E0600000E0800000E0A00000E0C00000E0E00040000000400020004000400040006000400080004000A0004000C0004000E00040200000402020004020400040206000402080004020A0004020C0004020E000404000004040200040404000404060004040800040
310
40A0004040C0004040E00040600000406020004060400040606000406080004060A0004060C0004060E00040800000408020004080400040806000408080004080A0004080C0004080E00040A0000040A0200040A0400040A0600040A0800040A0A00040A0C00040A0E00040C0000040C0200040C0400040C0600040C08000
310
40C0A00040C0C00040C0E00040E0000040E0200040E0400040E0600040E0800040E0A00040E0C00040E0E00080000000800020008000400080006000800080008000A0008000C0008000E00080200000802020008020400080206000802080008020A0008020C0008020E00080400000804020008040400080406000804080
310
008040A0008040C0008040E00080600000806020008060400080606000806080008060A0008060C0008060E00080800000808020008080400080806000808080008080A0008080C0008080E00080A0000080A0200080A0400080A0600080A0800080A0A00080A0C00080A0E00080C0000080C0200080C0400080C0600080C0
310
800080C0A00080C0C00080C0E00080E0000080E0200080E0400080E0600080E0800080E0A00080E0C00080E0E000C0000000C0002000C0004000C0006000C0008000C000A000C000C000C000E000C0200000C0202000C0204000C0206000C0208000C020A000C020C000C020E000C0400000C0402000C0404000C0406000C0
310
408000C040A000C040C000C040E000C0600000C0602000C0604000C0606000C0608000C060A000C060C000C060E000C0800000C0802000C0804000C0806000C0808000C080A000C080C000C080E000C0A00000C0A02000C0A04000C0A06000C0A08000C0A0A000C0A0C000C0A0E000C0C00000C0C02000C0C04000C0C06000
310
C0C08000C0C0A000F0FBFF00A4A0A000808080000000FF0000FF000000FFFF00FF000000FF00FF00FFFF0000FFFFFF00FFFFFFFFFFFFFFFFFFFFFFFFFFFFFFFFFFFFFFFFFFFFFFFFFFFFFFFFFFFFFFFFFFFFFFFFFFFFFFFFFFFFFFFFFFFFFFFFFFFFFFFFFFFFFFFFFFFFFFFFFFFFFFFFFFFFFFFFFFFFFFFFFFFFFFFFFFFFFF
310
FFFFFFFFFFFFFFFFFFFFFFFFFFFFFFFFFFFFFFFFFFFFFFFFFFFFFFFFFFFFFFFFFFFFFFFFFFFFFFFFFFFFFFFFFFFFFFFFFFFFFFFFFFFFFFFFFFFFFFFFFFFFFFFFFFFFFFFFFFFFFFFFFFFFFFFFFFFFFFFFFFFFFFFFFFFFFFFFFFFFFFFFFFFFFFFFFFFFFFFFFFFFFFFFFFFFFFFFFFFFFFFFFFFFFFFFFFFFFFFFFFFFFFFFFFFFFF
310
FFFFFFFFFFFFFFFFFFFFFFFFFFFFFFFFFFFFFFFFFFFFFFFFFFFFFFFFFFFFFFFFFFFFFFFFFFFFFFFFFFFFFFFFFFFFFFFFFFFFFFFFFFFFFFFFFFFFFFFFFFFFFFFFFFFFFFFFFFFFFFFFFFFFFFFFFFFFFFFFFFFFFFFFFFFFFFFFFFFFFFFFFFFFFFFFFFFFFFFFFFFFFFFFFFFFFFFFFFFFFFFFFFFFFFFFFFFFFFFFFFFFFFFFFFFFFF
310
FFFFFFFFFFFFFFFFFFFFFFFFFFFFFFFFFFFFFFFFFFFFFFFFFFFFFFFFFFFFFFFFFFFFFFFFFFFFFFFFFFFFFFFFFFFFFFFFFFFFFFFFFFFFFFFFFFFFFFFFFFFFFFFFFFFFFFFFFFFFFFFFFFFFFFFFFFFFFFFFFFFFFFFFFFFFFFFFFFFFFFFF0000000000000000000000000000FFFFFFFFFFFFFFFFFFFFFFFFFFFFFFFFFFFF000000
310
0000000000000000000000FFFFFFFFFFFFFFFFFFFFFFFFFFFFFFFFFFFFFFFFFF000000000000000000FFFFFFFFFFFFFFFFFFFFFFFFFFFFFFFFFFFFFFFFFFFFFF000000000000000000FFFFFFFFFFFFFFFFFFFFFFFFFFFFFFFFFFFFFFFFFF000000000000000000000000FFFFFFFFFFFFFFFFFFFFFFFFFFFFFFFFFFFFFFFF00
310
FFFFFF00FF0000FF000000FFFFFFFFFFFFFFFFFFFFFFFFFFFFFFFFFFFFFFFFFFFFFFFFFFFFFFFFFFFFFFFFFFFFFFFFFFFFFFFFFFFFFFFFFFFFFFFFFFFFFFFFFFFFFFFFFFFFFFFFFFFFFFFFFFFFFFFFFFFFFFFFFFFFFFFFFFFFFFFFFFFFFFFFFFFFFFFFFFFFFFFFFFFFFFFFFFFFFFFFFFFFFFFFFFFFFFFFFFFFFFFFFFFFFFFF
310
FFFFFFFFFFFFFFFFFFFFFFFFFFFFFFFFFFFFFFFFFFFFFFFFFFFFFFFFFFFFFFFFFFFFFFFFFFFFFFFFFFFFFFFFFFFFFFFFFFFFFFFFFFFFFFFFFFFFFFFFFFFFFFFFFFFFFFFFFFFFFFFFFFFFFFFFFFFFFFFFFFFFFFFFFFFFFFFFFFFFFFFFFFFFFFFFFFFFFFFFFFFFFFFFFFFFFFFFFFFFFFFFFFFFFFFFFFFFFFFFFFFFFFFFFFFFFF
310
FFFFFFFFFFFFFFFFFFFFFFFFFFFFFFFFFFFFFFFFFFFFFFFFFFFFFFFFFFFFFFFFFFFFFFFFFFFFFFFFFFFFFFFFFFFFFFFFFFFFFFFFFFFFFFFFFFFFFFFFFFFFFFFFFFFFFFFFFFFFFFFFFFFFFFFFFFFFFFFFFFFFFFFFFFFFFFFFFFFFFFFFFFFFFFFFFFFFFFFFFFFFFFFFFFFFFFFFFFFFFFFFFFFFFFFFFFFFFFFFFFFFFFFFFFFFFF
310
FFFFFFFFFFFFFFFFFFFFFFFFFFFFFFFFFFFFFFFFFFFFFFFFFFFFFFFFFFFFFFFFFFFFFFFFFFFFFFFFFFFFFFFFFFFFFFFFFFFFFFFFFFFFFFFF
102
{BLKREFS
331
250E
331
2513
102
}
  0
BLOCK_RECORD
  5
251C
330
21FD
100
AcDbSymbolTableRecord
100
AcDbBlockTableRecord
  2
HD LLC
340
0
310
2800000020000000200000000100080000000000000400000000000000000000000000000000000000000000000080000080000000808000800000008000800080800000C0C0C000C0DCC000F0CAA6000020400000206000002080000020A0000020C0000020E00000400000004020000040400000406000004080000040A0
310
000040C0000040E00000600000006020000060400000606000006080000060A0000060C0000060E00000800000008020000080400000806000008080000080A0000080C0000080E00000A0000000A0200000A0400000A0600000A0800000A0A00000A0C00000A0E00000C0000000C0200000C0400000C0600000C0800000C0
310
A00000C0C00000C0E00000E0000000E0200000E0400000E0600000E0800000E0A00000E0C00000E0E00040000000400020004000400040006000400080004000A0004000C0004000E00040200000402020004020400040206000402080004020A0004020C0004020E000404000004040200040404000404060004040800040
310
40A0004040C0004040E00040600000406020004060400040606000406080004060A0004060C0004060E00040800000408020004080400040806000408080004080A0004080C0004080E00040A0000040A0200040A0400040A0600040A0800040A0A00040A0C00040A0E00040C0000040C0200040C0400040C0600040C08000
310
40C0A00040C0C00040C0E00040E0000040E0200040E0400040E0600040E0800040E0A00040E0C00040E0E00080000000800020008000400080006000800080008000A0008000C0008000E00080200000802020008020400080206000802080008020A0008020C0008020E00080400000804020008040400080406000804080
310
008040A0008040C0008040E00080600000806020008060400080606000806080008060A0008060C0008060E00080800000808020008080400080806000808080008080A0008080C0008080E00080A0000080A0200080A0400080A0600080A0800080A0A00080A0C00080A0E00080C0000080C0200080C0400080C0600080C0
310
800080C0A00080C0C00080C0E00080E0000080E0200080E0400080E0600080E0800080E0A00080E0C00080E0E000C0000000C0002000C0004000C0006000C0008000C000A000C000C000C000E000C0200000C0202000C0204000C0206000C0208000C020A000C020C000C020E000C0400000C0402000C0404000C0406000C0
310
408000C040A000C040C000C040E000C0600000C0602000C0604000C0606000C0608000C060A000C060C000C060E000C0800000C0802000C0804000C0806000C0808000C080A000C080C000C080E000C0A00000C0A02000C0A04000C0A06000C0A08000C0A0A000C0A0C000C0A0E000C0C00000C0C02000C0C04000C0C06000
310
C0C08000C0C0A000F0FBFF00A4A0A000808080000000FF0000FF000000FFFF00FF000000FF00FF00FFFF0000FFFFFF00FFFFFFFFFFFFFFFFFFFFFFFFFFFFFFFFFFFFFFFFFFFFFFFFFFFFFFFFFFFFFFFFFFFFFFFFFFFFFFFFFFFFFFFFFFFFFFFFFFFFFFFFFFFFFFFFFFFFFFFFFFFFFFFFFFFFFFFFFFFFFFFFFFFFFFFFFFFFFF
310
FFFFFFFFFFFFFFFFFFFFFFFFFFFFFFFFFFFFFFFFFFFFFFFFFFFFFFFFFFFFFFFFFFFFFFFFFFFFFFFFFFFFFFFFFFFFFFFFFFFFFFFFFFFFFFFFFFFFFFFFFFFFFFFFFFFFFFFFFFFFFFFFFFFFFFFFFFFFFFFFFFFFFFFFFFFFFFFFFFFFFFFFFFFFFFFFFFFFFFFFFFFFFFFFFFFFFFFFFFFFFFFFFFFFFFFFFFFFFFFFFFFFFFFFFFFFFF
310
FFFFFFFFFFFFFFFFFFFFFFFFFFFFFFFFFFFFFFFFFFFFFFFFFFFFFFFFFFFFFFFFFFFFFFFFFFFFFFFFFFFFFFFFFFFFFFFFFFFFFFFFFFFFFFFFFFFFFFFFFFFFFFFFFFFFFFFFFFFFFFFFFFFFFFFFFFFFFFFFFFFFFFFFFFFFFFFFFFFFFFFFFFFFFFFFFFFFFFFFFFFFFFFFFFFFFFFFFFFFFFFFFFFFFFFFFFFFFFFFFFFFFFFFFFFFFF
310
FFFFFFFFFFFFFFFFFFFFFFFFFFFFFFFFFFFFFFFFFFFFFFFFFFFFFFFFFFFFFFFFFFFFFFFFFFFFFFFFFFFFFFFFFFFFFFFFFFFFFFFFFFFFFFFFFFFFFFFFFFFFFFFFFFFFFFFFFFFFFFFFFFFFFFFFFFFFFFFFFFFFFFFFFFFFFFFFFFFFFFFFFFFFFFFFFFFFFFFFFFFFFFFFFFFFFFFFFFFFFFFFFFFFFFFFFFFFFFFFFFFFFFFFFFFF00
310
000000000000000000FFFFFFFFFFFFFFFFFFFFFFFFFFFFFFFFFFFFFFFFFFFF00000000000000000000FFFFFFFFFFFFFFFFFFFFFFFFFFFFFFFFFFFFFFFFFFFF00000000000000000000FFFFFFFFFFFFFFFFFFFFFFFFFFFFFFFFFFFFFFFFFFFF00000000000000000000FFFFFFFFFFFFFFFFFFFFFFFFFFFFFFFFFFFFFFFFFFFF
310
FFFFFFFFFFFFFFFFFFFFFFFFFFFFFFFFFFFFFFFFFFFFFFFFFFFFFFFFFFFFFFFFFFFFFFFFFFFFFFFFFFFFFFFFFFFFFFFFFFFFFFFFFFFFFFFFFFFFFFFFFFFFFFFFFFFFFFFFFFFFFFFFFFFFFFFFFFFFFFFFFFFFFFFFFFFFFFFFFFFFFFFFFFFFFFFFFFFFFFFFFFFFFFFFFFFFFFFFFFFFFFFFFFFFFFFFFFFFFFFFFFFFFFFFFFFFFF
310
FFFFFFFFFFFFFFFFFFFFFFFFFFFFFFFFFFFFFFFFFFFFFFFFFFFFFFFFFFFFFFFFFFFFFFFFFFFFFFFFFFFFFFFFFFFFFFFFFFFFFFFFFFFFFFFFFFFFFFFFFFFFFFFFFFFFFFFFFFFFFFFFFFFFFFFFFFFFFFFFFFFFFFFFFFFFFFFFFFFFFFFFFFFFFFFFFFFFFFFFFFFFFFFFFFFFFFFFFFFFFFFFFFFFFFFFFFFFFFFFFFFFFFFFFFFFFF
310
FFFFFFFFFFFFFFFFFFFFFFFFFFFFFFFFFFFFFFFFFFFFFFFFFFFFFFFFFFFFFFFFFFFFFFFFFFFFFFFFFFFFFFFFFFFFFFFFFFFFFFFFFFFFFFFFFFFFFFFFFFFFFFFFFFFFFFFFFFFFFFFFFFFFFFFFFFFFFFFFFFFFFFFFFFFFFFFFFFFFFFFFFFFFFFFFFFFFFFFFFFFFFFFFFFFFFFFFFFFFFFFFFFFFFFFFFFFFFFFFFFFFFFFFFFFFFF
310
FFFFFFFFFFFFFFFFFFFFFFFFFFFFFFFFFFFFFFFFFFFFFFFFFFFFFFFFFFFFFFFFFFFFFFFFFFFFFFFFFFFFFFFFFFFFFFFFFFFFFFFFFFFFFFFF
102
{BLKREFS
331
2521
331
2525
102
}
  0
BLOCK_RECORD
  5
2527
330
21FD
100
AcDbSymbolTableRecord
100
AcDbBlockTableRecord
  2
NTC
340
0
310
2800000020000000200000000100080000000000000400000000000000000000000000000000000000000000000080000080000000808000800000008000800080800000C0C0C000C0DCC000F0CAA6000020400000206000002080000020A0000020C0000020E00000400000004020000040400000406000004080000040A0
310
000040C0000040E00000600000006020000060400000606000006080000060A0000060C0000060E00000800000008020000080400000806000008080000080A0000080C0000080E00000A0000000A0200000A0400000A0600000A0800000A0A00000A0C00000A0E00000C0000000C0200000C0400000C0600000C0800000C0
310
A00000C0C00000C0E00000E0000000E0200000E0400000E0600000E0800000E0A00000E0C00000E0E00040000000400020004000400040006000400080004000A0004000C0004000E00040200000402020004020400040206000402080004020A0004020C0004020E000404000004040200040404000404060004040800040
310
40A0004040C0004040E00040600000406020004060400040606000406080004060A0004060C0004060E00040800000408020004080400040806000408080004080A0004080C0004080E00040A0000040A0200040A0400040A0600040A0800040A0A00040A0C00040A0E00040C0000040C0200040C0400040C0600040C08000
310
40C0A00040C0C00040C0E00040E0000040E0200040E0400040E0600040E0800040E0A00040E0C00040E0E00080000000800020008000400080006000800080008000A0008000C0008000E00080200000802020008020400080206000802080008020A0008020C0008020E00080400000804020008040400080406000804080
310
008040A0008040C0008040E00080600000806020008060400080606000806080008060A0008060C0008060E00080800000808020008080400080806000808080008080A0008080C0008080E00080A0000080A0200080A0400080A0600080A0800080A0A00080A0C00080A0E00080C0000080C0200080C0400080C0600080C0
310
800080C0A00080C0C00080C0E00080E0000080E0200080E0400080E0600080E0800080E0A00080E0C00080E0E000C0000000C0002000C0004000C0006000C0008000C000A000C000C000C000E000C0200000C0202000C0204000C0206000C0208000C020A000C020C000C020E000C0400000C0402000C0404000C0406000C0
310
408000C040A000C040C000C040E000C0600000C0602000C0604000C0606000C0608000C060A000C060C000C060E000C0800000C0802000C0804000C0806000C0808000C080A000C080C000C080E000C0A00000C0A02000C0A04000C0A06000C0A08000C0A0A000C0A0C000C0A0E000C0C00000C0C02000C0C04000C0C06000
310
C0C08000C0C0A000F0FBFF00A4A0A000808080000000FF0000FF000000FFFF00FF000000FF00FF00FFFF0000FFFFFF00FFFFFFFFFFFFFFFFFFFFFFFFFFFFFFFFFFFFFFFFFFFFFFFFFFFFFFFFFFFFFFFFFFFFFFFFFFFFFFFFFFFFFFFFFFFFFFFFFFFFFFFFFFFFFFFFFFFFFFFFFFFFFFFFFFFFFFFFFFFFFFFFFFFFFFFFFFFFFF
310
FFFFFFFFFFFFFFFFFFFFFFFFFFFFFFFFFFFFFFFFFFFFFFFFFFFFFFFFFFFFFFFFFFFFFFFFFFFFFFFFFFFFFFFFFFFFFFFFFFFFFFFFFFFFFFFFFFFFFFFFFFFFFFFFFFFFFFFFFFFFFFFFFFFFFFFFFFFFFFFFFFFFFFFFFFFFFFFFFFFFFFFFFFFFFFFFFFFFFFFFFFFFFFFFFFFFFFFFFFFFFFFFFFFFFFFFFFFFFFFFFFFFFFFFFFFFFF
310
FFFFFFFFFFFFFFFFFFFFFFFFFFFFFFFFFFFFFFFFFFFFFFFFFFFFFFFFFFFFFFFFFFFFFFFFFFFFFFFFFFFFFFFFFFFFFFFFFFFFFFFFFFFFFFFFFFFFFFFFFFFFFFFFFFFFFFFFFFFFFFFFFFFFFFFFFFFFFFFFFFFFFFFFFFFFFFFFFFFFFFFFFFFFFFFFFFFFFFFFFFFFFFFFFFFFFFFFFFFFFFFFFFFFFFFFFFFFFFFFFFFFFFFFFFFFFF
310
FFFFFFFFFFFFFFFFFFFFFFFFFFFFFFFFFFFFFFFF000000000000000000000000000000000000000000000000000000000000FFFF00FF0000000000000000FFFFFFFFFFFFFFFFFFFFFFFFFFFFFFFFFFFFFF00FFFF00FF0000000000000000FFFFFFFFFFFFFFFFFFFFFFFFFFFFFFFFFFFFFF00FFFF00FF000000000000000000
310
00000000000000000000000000FFFFFFFFFF00FFFF00FF0000000000000000000000000000000000000000000000000000FF00FFFF00FF0000000000000000000000000000000000000000000000000000FF00FFFF00FF0000000000000000000000000000000000000000000000000000FF00FFFF00FF0000000000000000
310
00000000000000000000000000000000FFFFFF00FFFF00FF0000000000FFFFFFFFFFFFFFFFFFFFFFFFFFFFFFFFFFFFFFFFFFFF00FFFF000000000000000000000000000000000000000000000000000000000000FFFFFFFFFFFFFFFFFFFFFFFFFFFFFFFFFFFFFFFFFFFFFFFFFFFFFFFFFFFFFFFFFFFFFFFFFFFFFFFFFFFFFF
310
FFFFFFFFFFFFFFFFFFFFFFFFFFFFFFFFFFFFFFFFFFFFFFFFFFFFFFFFFFFFFFFFFFFFFFFFFFFFFFFFFFFFFFFFFFFFFFFFFFFFFFFFFFFFFFFFFFFFFFFFFFFFFFFFFFFFFFFFFFFFFFFFFFFFFFFFFFFFFFFFFFFFFFFFFFFFFFFFFFFFFFFFFFFFFFFFFFFFFFFFFFFFFFFFFFFFFFFFFFFFFFFFFFFFFFFFFFFFFFFFFFFFFFFFFFFFFF
310
FFFFFFFFFFFFFFFFFFFFFFFFFFFFFFFFFFFFFFFFFFFFFFFFFFFFFFFFFFFFFFFFFFFFFFFFFFFFFFFFFFFFFFFFFFFFFFFFFFFFFFFFFFFFFFFFFFFFFFFFFFFFFFFFFFFFFFFFFFFFFFFFFFFFFFFFFFFFFFFFFFFFFFFFFFFFFFFFFFFFFFFFFFFFFFFFFFFFFFFFFFFFFFFFFFFFFFFFFFFFFFFFFFFFFFFFFFFFFFFFFFFFFFFFFFFFFF
310
FFFFFFFFFFFFFFFFFFFFFFFFFFFFFFFFFFFFFFFFFFFFFFFFFFFFFFFFFFFFFFFFFFFFFFFFFFFFFFFFFFFFFFFFFFFFFFFFFFFFFFFFFFFFFFFF
102
{BLKREFS
331
252D
331
2533
102
}
  0
ENDTAB
  0
ENDSEC
  0
SECTION
  2
BLOCKS
  0
BLOCK
  5
221B
330
221A
100
AcDbEntity
  8
0
100
AcDbBlockBegin
  2
*Model_Space
 70
     0
 10
0.0
 20
0.0
 30
0.0
  3
*Model_Space
  1

  0
ENDBLK
  5
221C
330
221A
100
AcDbEntity
  8
0
100
AcDbBlockEnd
  0
BLOCK
  5
2217
330
2216
100
AcDbEntity
 67
     1
  8
0
100
AcDbBlockBegin
  2
*Paper_Space
 70
     0
 10
0.0
 20
0.0
 30
0.0
  3
*Paper_Space
  1

  0
ENDBLK
  5
2218
330
2216
100
AcDbEntity
 67
     1
  8
0
100
AcDbBlockEnd
  0
BLOCK
  5
2233
330
2232
100
AcDbEntity
  8
0
100
AcDbBlockBegin
  2
$MODEL_SPACE
 70
     0
 10
0.0
 20
0.0
 30
0.0
  3
$MODEL_SPACE
  1

  0
ENDBLK
  5
2234
330
2232
100
AcDbEntity
  8
0
100
AcDbBlockEnd
  0
BLOCK
  5
2236
330
2235
100
AcDbEntity
  8
0
100
AcDbBlockBegin
  2
$PAPER_SPACE
 70
     0
 10
0.0
 20
0.0
 30
0.0
  3
$PAPER_SPACE
  1

  0
ENDBLK
  5
2237
330
2235
100
AcDbEntity
  8
0
100
AcDbBlockEnd
  0
BLOCK
  5
2483
330
2480
100
AcDbEntity
  8
0
 62
     7
100
AcDbBlockBegin
  2
AI9-BLK14
 70
     0
 10
0.0
 20
0.0
 30
0.0
  3
AI9-BLK14
  1

  0
SPLINE
  5
2481
330
2480
100
AcDbEntity
  8
LAYER_1
 62
     7
100
AcDbSpline
210
0.0
220
0.0
230
1.0
 70
    11
 71
     3
 72
    23
 73
    19
 74
     0
 42
0.0000000001
 43
0.0000000001
 40
0.0
 40
0.0
 40
0.0
 40
0.0
 40
1.0
 40
1.0
 40
1.0
 40
2.0
 40
2.0
 40
2.0
 40
3.0
 40
3.0
 40
3.0
 40
4.0
 40
4.0
 40
4.0
 40
5.0
 40
5.0
 40
5.0
 40
6.0
 40
6.0
 40
6.0
 40
6.0
 10
-10.90321044921874
 20
10.88107571072048
 30
0.0
 10
-10.90321044921874
 20
10.88107571072048
 30
0.0
 10
-10.90321044921874
 20
-10.88107571072048
 30
0.0
 10
-10.90321044921874
 20
-10.88107571072048
 30
0.0
 10
-10.90321044921874
 20
-10.88107571072048
 30
0.0
 10
1.752692328559025
 20
-10.88107571072048
 30
0.0
 10
1.752692328559025
 20
-10.88107571072048
 30
0.0
 10
3.280592176649305
 20
-10.88107571072048
 30
0.0
 10
10.90321044921874
 20
-10.32383151584201
 30
0.0
 10
10.90321044921874
 20
0.6792867024739583
 30
0.0
 10
10.90321044921874
 20
10.61700914171006
 30
0.0
 10
2.773129611545138
 20
10.87952541775172
 30
0.0
 10
2.691136338975693
 20
10.88090345594618
 30
0.0
 10
2.691136338975693
 20
10.88090345594618
 30
0.0
 10
-9.903099229600693
 20
10.88107571072048
 30
0.0
 10
-9.903099229600693
 20
10.88107571072048
 30
0.0
 10
-9.903099229600693
 20
10.88107571072048
 30
0.0
 10
-10.90321044921874
 20
10.88107571072048
 30
0.0
 10
-10.90321044921874
 20
10.88107571072048
 30
0.0
  0
SPLINE
  5
2482
330
2480
100
AcDbEntity
  8
LAYER_1
 62
     7
100
AcDbSpline
210
0.0
220
0.0
230
1.0
 70
    11
 71
     3
 72
    20
 73
    16
 74
     0
 42
0.0000000001
 43
0.0000000001
 40
0.0
 40
0.0
 40
0.0
 40
0.0
 40
1.0
 40
1.0
 40
1.0
 40
2.0
 40
2.0
 40
2.0
 40
3.0
 40
3.0
 40
3.0
 40
4.0
 40
4.0
 40
4.0
 40
5.0
 40
5.0
 40
5.0
 40
5.0
 10
2.672877332899305
 20
8.881197781032986
 30
0.0
 10
2.905421278211805
 20
8.874307590060762
 30
0.0
 10
8.902988009982637
 20
8.616442192925347
 30
0.0
 10
8.902988009982637
 20
0.6792867024739583
 30
0.0
 10
8.902988009982637
 20
-8.191661919487842
 30
0.0
 10
3.430109320746526
 20
-8.881197781032986
 30
0.0
 10
1.752692328559025
 20
-8.881197781032986
 30
0.0
 10
1.752692328559025
 20
-8.881197781032986
 30
0.0
 10
-7.231427680121528
 20
-8.881197781032986
 30
0.0
 10
-8.902988009982637
 20
-8.881197781032986
 30
0.0
 10
-8.902988009982637
 20
-7.174497477213541
 30
0.0
 10
-8.902988009982637
 20
7.174497477213541
 30
0.0
 10
-8.902988009982637
 20
8.881197781032986
 30
0.0
 10
-7.208690049913191
 20
8.881197781032986
 30
0.0
 10
2.672877332899305
 20
8.881197781032986
 30
0.0
 10
2.672877332899305
 20
8.881197781032986
 30
0.0
  0
ENDBLK
  5
2484
330
2480
100
AcDbEntity
  8
0
100
AcDbBlockEnd
  0
BLOCK
  5
2488
330
2485
100
AcDbEntity
  8
0
 62
     7
100
AcDbBlockBegin
  2
AI9-BLK13
 70
     0
 10
0.0
 20
0.0
 30
0.0
  3
AI9-BLK13
  1

  0
LWPOLYLINE
  5
2486
330
2485
100
AcDbEntity
  8
LAYER_1
 62
     7
100
AcDbPolyline
 90
       12
 70
     1
 43
0.0
 10
-3.792361111111107
 20
10.7376736111111
 10
-2.469444444444443
 20
10.7376736111111
 10
-2.469444444444443
 20
1.874131944444444
 10
2.469444444444443
 20
1.874131944444444
 10
2.469444444444443
 20
10.7376736111111
 10
3.792361111111107
 20
10.7376736111111
 10
3.792361111111107
 20
-10.7376736111111
 10
2.469444444444443
 20
-10.7376736111111
 10
2.469444444444443
 20
-0.6835069444444444
 10
-2.469444444444443
 20
-0.6835069444444444
 10
-2.469444444444443
 20
-10.7376736111111
 10
-3.792361111111107
 20
-10.7376736111111
  0
HATCH
  5
2487
330
2485
100
AcDbEntity
  8
LAYER_1
 62
     7
100
AcDbHatch
 10
0.0
 20
0.0
 30
0.0
210
0.0
220
0.0
230
1.0
  2
SOLID
 70
     1
 71
     0
 91
        1
 92
        3
 72
     0
 73
     1
 93
       12
 10
-3.792361111111107
 20
10.7376736111111
 10
-2.469444444444443
 20
10.7376736111111
 10
-2.469444444444443
 20
1.874131944444444
 10
2.469444444444443
 20
1.874131944444444
 10
2.469444444444443
 20
10.7376736111111
 10
3.792361111111107
 20
10.7376736111111
 10
3.792361111111107
 20
-10.7376736111111
 10
2.469444444444443
 20
-10.7376736111111
 10
2.469444444444443
 20
-0.6835069444444444
 10
-2.469444444444443
 20
-0.6835069444444444
 10
-2.469444444444443
 20
-10.7376736111111
 10
-3.792361111111107
 20
-10.7376736111111
 97
        0
 75
     2
 76
     1
 98
        1
 10
0.0
 20
0.0
  0
ENDBLK
  5
2489
330
2485
100
AcDbEntity
  8
0
100
AcDbBlockEnd
  0
BLOCK
  5
248D
330
248A
100
AcDbEntity
  8
0
 62
     7
100
AcDbBlockBegin
  2
AI9-BLK11
 70
     0
 10
0.0
 20
0.0
 30
0.0
  3
AI9-BLK11
  1

  0
SPLINE
  5
248B
330
248A
100
AcDbEntity
  8
LAYER_1
 62
     7
100
AcDbSpline
210
0.0
220
0.0
230
1.0
 70
    11
 71
     3
 72
    26
 73
    22
 74
     0
 42
0.0000000001
 43
0.0000000001
 40
0.0
 40
0.0
 40
0.0
 40
0.0
 40
1.0
 40
1.0
 40
1.0
 40
2.0
 40
2.0
 40
2.0
 40
3.0
 40
3.0
 40
3.0
 40
4.0
 40
4.0
 40
4.0
 40
5.0
 40
5.0
 40
5.0
 40
6.0
 40
6.0
 40
6.0
 40
7.0
 40
7.0
 40
7.0
 40
7.0
 10
-2.645833333333333
 20
0.9039930555555551
 30
0.0
 10
-2.645833333333333
 20
0.9039930555555551
 30
0.0
 10
-2.645833333333333
 20
8.180034722222217
 30
0.0
 10
-2.645833333333333
 20
8.180034722222217
 30
0.0
 10
-2.645833333333333
 20
8.180034722222217
 30
0.0
 10
0.465087890625
 20
8.180034722222217
 30
0.0
 10
0.465087890625
 20
8.180034722222217
 30
0.0
 10
0.9026150173611108
 20
8.180034722222217
 30
0.0
 10
1.24988064236111
 20
8.034651692708331
 30
0.0
 10
1.506884765625
 20
7.745263671874997
 30
0.0
 10
2.001600477430554
 20
7.194048394097221
 30
0.0
 10
2.248958333333332
 20
6.160519748263887
 30
0.0
 10
2.248958333333332
 20
4.643299696180553
 30
0.0
 10
2.248958333333332
 20
3.232188585069443
 30
0.0
 10
2.072569444444444
 20
2.256537543402775
 30
0.0
 10
1.720480685763888
 20
1.715657552083333
 30
0.0
 10
1.368391927083333
 20
1.174088541666665
 30
0.0
 10
0.8929687499999998
 20
0.9039930555555551
 30
0.0
 10
0.2942111545138888
 20
0.9039930555555551
 30
0.0
 10
0.2942111545138888
 20
0.9039930555555551
 30
0.0
 10
-2.645833333333333
 20
0.9039930555555551
 30
0.0
 10
-2.645833333333333
 20
0.9039930555555551
 30
0.0
  0
SPLINE
  5
248C
330
248A
100
AcDbEntity
  8
LAYER_1
 62
     7
100
AcDbSpline
210
0.0
220
0.0
230
1.0
 70
    11
 71
     3
 72
    68
 73
    64
 74
     0
 42
0.0000000001
 43
0.0000000001
 40
0.0
 40
0.0
 40
0.0
 40
0.0
 40
1.0
 40
1.0
 40
1.0
 40
2.0
 40
2.0
 40
2.0
 40
3.0
 40
3.0
 40
3.0
 40
4.0
 40
4.0
 40
4.0
 40
5.0
 40
5.0
 40
5.0
 40
6.0
 40
6.0
 40
6.0
 40
7.0
 40
7.0
 40
7.0
 40
8.0
 40
8.0
 40
8.0
 40
9.0
 40
9.0
 40
9.0
 40
10.0
 40
10.0
 40
10.0
 40
11.0
 40
11.0
 40
11.0
 40
12.0
 40
12.0
 40
12.0
 40
13.0
 40
13.0
 40
13.0
 40
14.0
 40
14.0
 40
14.0
 40
15.0
 40
15.0
 40
15.0
 40
16.0
 40
16.0
 40
16.0
 40
17.0
 40
17.0
 40
17.0
 40
18.0
 40
18.0
 40
18.0
 40
19.0
 40
19.0
 40
19.0
 40
20.0
 40
20.0
 40
20.0
 40
21.0
 40
21.0
 40
21.0
 40
21.0
 10
-3.968749999999998
 20
-10.7376736111111
 30
0.0
 10
-3.968749999999998
 20
-10.7376736111111
 30
0.0
 10
-2.645833333333333
 20
-10.7376736111111
 30
0.0
 10
-2.645833333333333
 20
-10.7376736111111
 30
0.0
 10
-2.645833333333333
 20
-10.7376736111111
 30
0.0
 10
-2.645833333333333
 20
-1.521354166666665
 30
0.0
 10
-2.645833333333333
 20
-1.521354166666665
 30
0.0
 10
-2.645833333333333
 20
-1.521354166666665
 30
0.0
 10
0.2390896267361111
 20
-1.521354166666665
 30
0.0
 10
0.2390896267361111
 20
-1.521354166666665
 30
0.0
 10
0.7599880642361111
 20
-1.521354166666665
 30
0.0
 10
1.143771701388887
 20
-1.65295681423611
 30
0.0
 10
1.390440538194444
 20
-1.916162109374999
 30
0.0
 10
1.816254340277774
 20
-2.39434136284722
 30
0.0
 10
2.04363064236111
 20
-3.335541449652775
 30
0.0
 10
2.072569444444444
 20
-4.739762369791666
 30
0.0
 10
2.072569444444444
 20
-4.739762369791666
 30
0.0
 10
2.160763888888888
 20
-8.324039713541665
 30
0.0
 10
2.160763888888888
 20
-8.324039713541665
 30
0.0
 10
2.18005642361111
 20
-9.163264973958332
 30
0.0
 10
2.202794053819443
 20
-9.728949652777775
 30
0.0
 10
2.227598741319444
 20
-10.02109374999998
 30
0.0
 10
2.252403428819443
 20
-10.31392686631944
 30
0.0
 10
2.28892144097222
 20
-10.55301649305555
 30
0.0
 10
2.33853081597222
 20
-10.7376736111111
 30
0.0
 10
2.33853081597222
 20
-10.7376736111111
 30
0.0
 10
3.968749999999998
 20
-10.7376736111111
 30
0.0
 10
3.968749999999998
 20
-10.7376736111111
 30
0.0
 10
3.968749999999998
 20
-10.7376736111111
 30
0.0
 10
3.968749999999998
 20
-10.25260416666666
 30
0.0
 10
3.968749999999998
 20
-10.25260416666666
 30
0.0
 10
3.766867404513888
 20
-10.05830078125
 30
0.0
 10
3.625618489583333
 20
-9.621462673611112
 30
0.0
 10
3.545692274305555
 20
-8.942089843749997
 30
0.0
 10
3.49470486111111
 20
-8.543836805555555
 30
0.0
 10
3.459564887152775
 20
-7.937499999999999
 30
0.0
 10
3.439583333333333
 20
-7.121701388888887
 30
0.0
 10
3.439583333333333
 20
-7.121701388888887
 30
0.0
 10
3.395486111111107
 20
-4.232644314236107
 30
0.0
 10
3.395486111111107
 20
-4.232644314236107
 30
0.0
 10
3.375504557291666
 20
-2.981385633680555
 30
0.0
 10
3.26870659722222
 20
-2.077392578125
 30
0.0
 10
3.075781249999999
 20
-1.522043185763888
 30
0.0
 10
2.882166883680555
 20
-0.9666937934027776
 30
0.0
 10
2.592089843749999
 20
-0.5188313802083333
 30
0.0
 10
2.204861111111107
 20
-0.1770779079861111
 30
0.0
 10
2.63618706597222
 20
0.3197048611111111
 30
0.0
 10
2.971739366319443
 20
0.9770290798611107
 30
0.0
 10
3.211518012152775
 20
1.79558376736111
 30
0.0
 10
3.451296657986107
 20
2.613449435763888
 30
0.0
 10
3.571874999999999
 20
3.66558159722222
 30
0.0
 10
3.571874999999999
 20
4.951291232638888
 30
0.0
 10
3.571874999999999
 20
7.415912543402777
 30
0.0
 10
3.124701605902775
 20
9.106076388888887
 30
0.0
 10
2.231043836805555
 20
10.02178276909722
 30
0.0
 10
1.759754774305553
 20
10.498583984375
 30
0.0
 10
1.163753255208332
 20
10.7376736111111
 30
0.0
 10
0.443039279513889
 20
10.7376736111111
 30
0.0
 10
0.443039279513889
 20
10.7376736111111
 30
0.0
 10
-3.968749999999998
 20
10.7376736111111
 30
0.0
 10
-3.968749999999998
 20
10.7376736111111
 30
0.0
 10
-3.968749999999998
 20
10.7376736111111
 30
0.0
 10
-3.968749999999998
 20
-10.7376736111111
 30
0.0
 10
-3.968749999999998
 20
-10.7376736111111
 30
0.0
  0
ENDBLK
  5
248E
330
248A
100
AcDbEntity
  8
0
100
AcDbBlockEnd
  0
BLOCK
  5
2491
330
248F
100
AcDbEntity
  8
0
 62
     7
100
AcDbBlockBegin
  2
AI9-BLK10
 70
     0
 10
0.0
 20
0.0
 30
0.0
  3
AI9-BLK10
  1

  0
SPLINE
  5
2490
330
248F
100
AcDbEntity
  8
LAYER_1
 62
     7
100
AcDbSpline
210
0.0
220
0.0
230
1.0
 70
    11
 71
     3
 72
    59
 73
    55
 74
     0
 42
0.0000000001
 43
0.0000000001
 40
0.0
 40
0.0
 40
0.0
 40
0.0
 40
1.0
 40
1.0
 40
1.0
 40
2.0
 40
2.0
 40
2.0
 40
3.0
 40
3.0
 40
3.0
 40
4.0
 40
4.0
 40
4.0
 40
5.0
 40
5.0
 40
5.0
 40
6.0
 40
6.0
 40
6.0
 40
7.0
 40
7.0
 40
7.0
 40
8.0
 40
8.0
 40
8.0
 40
9.0
 40
9.0
 40
9.0
 40
10.0
 40
10.0
 40
10.0
 40
11.0
 40
11.0
 40
11.0
 40
12.0
 40
12.0
 40
12.0
 40
13.0
 40
13.0
 40
13.0
 40
14.0
 40
14.0
 40
14.0
 40
15.0
 40
15.0
 40
15.0
 40
16.0
 40
16.0
 40
16.0
 40
17.0
 40
17.0
 40
17.0
 40
18.0
 40
18.0
 40
18.0
 40
18.0
 10
-4.652256944444443
 20
10.7376736111111
 30
0.0
 10
-4.652256944444443
 20
10.7376736111111
 30
0.0
 10
-2.798795572916666
 20
10.7376736111111
 30
0.0
 10
-2.798795572916666
 20
10.7376736111111
 30
0.0
 10
-2.798795572916666
 20
10.7376736111111
 30
0.0
 10
0.0
 20
-7.419357638888887
 30
0.0
 10
0.0
 20
-7.419357638888887
 30
0.0
 10
0.0
 20
-7.419357638888887
 30
0.0
 10
2.793283420138888
 20
10.7376736111111
 30
0.0
 10
2.793283420138888
 20
10.7376736111111
 30
0.0
 10
2.793283420138888
 20
10.7376736111111
 30
0.0
 10
4.652256944444443
 20
10.7376736111111
 30
0.0
 10
4.652256944444443
 20
10.7376736111111
 30
0.0
 10
4.652256944444443
 20
10.7376736111111
 30
0.0
 10
4.652256944444443
 20
-10.7376736111111
 30
0.0
 10
4.652256944444443
 20
-10.7376736111111
 30
0.0
 10
4.652256944444443
 20
-10.7376736111111
 30
0.0
 10
3.41753472222222
 20
-10.7376736111111
 30
0.0
 10
3.41753472222222
 20
-10.7376736111111
 30
0.0
 10
3.41753472222222
 20
-10.7376736111111
 30
0.0
 10
3.41753472222222
 20
1.936832682291665
 30
0.0
 10
3.41753472222222
 20
1.936832682291665
 30
0.0
 10
3.41753472222222
 20
2.375048828124999
 30
0.0
 10
3.424424913194443
 20
3.101274956597221
 30
0.0
 10
3.439583333333333
 20
4.11482204861111
 30
0.0
 10
3.454052734374998
 20
5.128369140624998
 30
0.0
 10
3.461631944444443
 20
6.214952256944441
 30
0.0
 10
3.461631944444443
 20
7.375260416666666
 30
0.0
 10
3.461631944444443
 20
7.375260416666666
 30
0.0
 10
0.6538791232638889
 20
-10.7376736111111
 30
0.0
 10
0.6538791232638889
 20
-10.7376736111111
 30
0.0
 10
0.6538791232638889
 20
-10.7376736111111
 30
0.0
 10
-0.6628363715277778
 20
-10.7376736111111
 30
0.0
 10
-0.6628363715277778
 20
-10.7376736111111
 30
0.0
 10
-0.6628363715277778
 20
-10.7376736111111
 30
0.0
 10
-3.461631944444443
 20
7.375260416666666
 30
0.0
 10
-3.461631944444443
 20
7.375260416666666
 30
0.0
 10
-3.461631944444443
 20
7.375260416666666
 30
0.0
 10
-3.461631944444443
 20
6.717247178819441
 30
0.0
 10
-3.461631944444443
 20
6.717247178819441
 30
0.0
 10
-3.461631944444443
 20
6.190836588541666
 30
0.0
 10
-3.45474175347222
 20
5.389507378472222
 30
0.0
 10
-3.439583333333333
 20
4.312570529513888
 30
0.0
 10
-3.425113932291666
 20
3.235633680555555
 30
0.0
 10
-3.41753472222222
 20
2.44395073784722
 30
0.0
 10
-3.41753472222222
 20
1.936832682291665
 30
0.0
 10
-3.41753472222222
 20
1.936832682291665
 30
0.0
 10
-3.41753472222222
 20
-10.7376736111111
 30
0.0
 10
-3.41753472222222
 20
-10.7376736111111
 30
0.0
 10
-3.41753472222222
 20
-10.7376736111111
 30
0.0
 10
-4.652256944444443
 20
-10.7376736111111
 30
0.0
 10
-4.652256944444443
 20
-10.7376736111111
 30
0.0
 10
-4.652256944444443
 20
-10.7376736111111
 30
0.0
 10
-4.652256944444443
 20
10.7376736111111
 30
0.0
 10
-4.652256944444443
 20
10.7376736111111
 30
0.0
  0
ENDBLK
  5
2492
330
248F
100
AcDbEntity
  8
0
100
AcDbBlockEnd
  0
BLOCK
  5
2496
330
2493
100
AcDbEntity
  8
0
 62
     7
100
AcDbBlockBegin
  2
AI9-BLK9
 70
     0
 10
0.0
 20
0.0
 30
0.0
  3
AI9-BLK9
  1

  0
SPLINE
  5
2494
330
2493
100
AcDbEntity
  8
LAYER_1
 62
     7
100
AcDbSpline
210
0.0
220
0.0
230
1.0
 70
    11
 71
     3
 72
    29
 73
    25
 74
     0
 42
0.0000000001
 43
0.0000000001
 40
0.0
 40
0.0
 40
0.0
 40
0.0
 40
1.0
 40
1.0
 40
1.0
 40
2.0
 40
2.0
 40
2.0
 40
3.0
 40
3.0
 40
3.0
 40
4.0
 40
4.0
 40
4.0
 40
5.0
 40
5.0
 40
5.0
 40
6.0
 40
6.0
 40
6.0
 40
7.0
 40
7.0
 40
7.0
 40
8.0
 40
8.0
 40
8.0
 40
8.0
 10
0.0668348524305556
 20
-8.753298611111111
 30
0.0
 10
-0.9067491319444444
 20
-8.753298611111111
 30
0.0
 10
-1.60954861111111
 20
-7.936810980902778
 30
0.0
 10
-2.041563585069444
 20
-6.30383572048611
 30
0.0
 10
-2.474267578124999
 20
-4.670860460069443
 30
0.0
 10
-2.689930555555555
 20
-2.664436848958333
 30
0.0
 10
-2.689930555555555
 20
-0.28525390625
 30
0.0
 10
-2.689930555555555
 20
2.68855251736111
 30
0.0
 10
-2.439127604166666
 20
4.938199869791666
 30
0.0
 10
-1.937521701388888
 20
6.464377170138886
 30
0.0
 10
-1.43591579861111
 20
7.989865451388887
 30
0.0
 10
-0.7827256944444444
 20
8.753298611111111
 30
0.0
 10
0.0220486111111111
 20
8.753298611111111
 30
0.0
 10
0.8468044704861108
 20
8.753298611111111
 30
0.0
 10
1.49792751736111
 20
7.982975260416663
 30
0.0
 10
1.974728732638888
 20
6.442328559027776
 30
0.0
 10
2.451529947916665
 20
4.901681857638886
 30
0.0
 10
2.689930555555555
 20
2.868386501736111
 30
0.0
 10
2.689930555555555
 20
0.3438205295138888
 30
0.0
 10
2.689930555555555
 20
-2.045697699652774
 30
0.0
 10
2.483224826388885
 20
-4.15891927083333
 30
0.0
 10
2.071191406249999
 20
-5.996533203124998
 30
0.0
 10
1.65915798611111
 20
-7.834836154513887
 30
0.0
 10
0.9908094618055557
 20
-8.753298611111111
 30
0.0
 10
0.0668348524305556
 20
-8.753298611111111
 30
0.0
  0
SPLINE
  5
2495
330
2493
100
AcDbEntity
  8
LAYER_1
 62
     7
100
AcDbSpline
210
0.0
220
0.0
230
1.0
 70
    11
 71
     3
 72
    29
 73
    25
 74
     0
 42
0.0000000001
 43
0.0000000001
 40
0.0
 40
0.0
 40
0.0
 40
0.0
 40
1.0
 40
1.0
 40
1.0
 40
2.0
 40
2.0
 40
2.0
 40
3.0
 40
3.0
 40
3.0
 40
4.0
 40
4.0
 40
4.0
 40
5.0
 40
5.0
 40
5.0
 40
6.0
 40
6.0
 40
6.0
 40
7.0
 40
7.0
 40
7.0
 40
8.0
 40
8.0
 40
8.0
 40
8.0
 10
-0.0289388020833333
 20
11.35503472222222
 30
0.0
 10
-1.317404513888887
 20
11.35503472222222
 30
0.0
 10
-2.28892144097222
 20
10.02798394097222
 30
0.0
 10
-2.94280056423611
 20
7.374571397569441
 30
0.0
 10
-3.450607638888888
 20
5.30613606770833
 30
0.0
 10
-3.704166666666666
 20
2.81877712673611
 30
0.0
 10
-3.704166666666666
 20
-0.0881944444444445
 30
0.0
 10
-3.704166666666666
 20
-3.307291666666666
 30
0.0
 10
-3.406510416666666
 20
-5.970350477430551
 30
0.0
 10
-2.811197916666666
 20
-8.077370876736106
 30
0.0
 10
-2.147672526041664
 20
-10.26293945312499
 30
0.0
 10
-1.229899088541666
 20
-11.35503472222222
 30
0.0
 10
-0.0585666232638889
 20
-11.35503472222222
 30
0.0
 10
1.20027126736111
 20
-11.35503472222222
 30
0.0
 10
2.166276041666665
 20
-10.10653211805555
 30
0.0
 10
2.840136718749998
 20
-7.609526909722221
 30
0.0
 10
3.416156684027776
 20
-5.483213975694441
 30
0.0
 10
3.704166666666666
 20
-2.814643012152775
 30
0.0
 10
3.704166666666666
 20
0.3948079427083333
 30
0.0
 10
3.704166666666666
 20
3.360346137152776
 30
0.0
 10
3.449918619791666
 20
5.793961588541666
 30
0.0
 10
2.94280056423611
 20
7.696343315972222
 30
0.0
 10
2.298567708333333
 20
10.13547092013888
 30
0.0
 10
1.307758246527777
 20
11.35503472222222
 30
0.0
 10
-0.0289388020833333
 20
11.35503472222222
 30
0.0
  0
ENDBLK
  5
2497
330
2493
100
AcDbEntity
  8
0
100
AcDbBlockEnd
  0
BLOCK
  5
249B
330
2498
100
AcDbEntity
  8
0
 62
     7
100
AcDbBlockBegin
  2
AI9-BLK8
 70
     0
 10
0.0
 20
0.0
 30
0.0
  3
AI9-BLK8
  1

  0
LWPOLYLINE
  5
2499
330
2498
100
AcDbEntity
  8
LAYER_1
 62
     7
100
AcDbPolyline
 90
       10
 70
     1
 43
0.0
 10
-3.792361111111107
 20
10.7376736111111
 10
-2.268939887152774
 20
10.7376736111111
 10
2.557638888888888
 20
-6.505718315972222
 10
2.557638888888888
 20
10.7376736111111
 10
3.792361111111107
 20
10.7376736111111
 10
3.792361111111107
 20
-10.7376736111111
 10
2.32612847222222
 20
-10.7376736111111
 10
-2.557638888888888
 20
6.549815538194441
 10
-2.557638888888888
 20
-10.7376736111111
 10
-3.792361111111107
 20
-10.7376736111111
  0
HATCH
  5
249A
330
2498
100
AcDbEntity
  8
LAYER_1
 62
     7
100
AcDbHatch
 10
0.0
 20
0.0
 30
0.0
210
0.0
220
0.0
230
1.0
  2
SOLID
 70
     1
 71
     0
 91
        1
 92
        3
 72
     0
 73
     1
 93
       10
 10
-3.792361111111107
 20
10.7376736111111
 10
-2.268939887152774
 20
10.7376736111111
 10
2.557638888888888
 20
-6.505718315972222
 10
2.557638888888888
 20
10.7376736111111
 10
3.792361111111107
 20
10.7376736111111
 10
3.792361111111107
 20
-10.7376736111111
 10
2.32612847222222
 20
-10.7376736111111
 10
-2.557638888888888
 20
6.549815538194441
 10
-2.557638888888888
 20
-10.7376736111111
 10
-3.792361111111107
 20
-10.7376736111111
 97
        0
 75
     2
 76
     1
 98
        1
 10
0.0
 20
0.0
  0
ENDBLK
  5
249C
330
2498
100
AcDbEntity
  8
0
100
AcDbBlockEnd
  0
BLOCK
  5
24A0
330
249D
100
AcDbEntity
  8
0
 62
     7
100
AcDbBlockBegin
  2
AI9-BLK7
 70
     0
 10
0.0
 20
0.0
 30
0.0
  3
AI9-BLK7
  1

  0
LWPOLYLINE
  5
249E
330
249D
100
AcDbEntity
  8
LAYER_1
 62
     7
100
AcDbPolyline
 90
        4
 70
     1
 43
0.0
 10
-0.6614583333333333
 20
10.7376736111111
 10
0.6614583333333333
 20
10.7376736111111
 10
0.6614583333333333
 20
-10.7376736111111
 10
-0.6614583333333333
 20
-10.7376736111111
  0
HATCH
  5
249F
330
249D
100
AcDbEntity
  8
LAYER_1
 62
     7
100
AcDbHatch
 10
0.0
 20
0.0
 30
0.0
210
0.0
220
0.0
230
1.0
  2
SOLID
 70
     1
 71
     0
 91
        1
 92
        3
 72
     0
 73
     1
 93
        4
 10
-0.6614583333333333
 20
10.7376736111111
 10
0.6614583333333333
 20
10.7376736111111
 10
0.6614583333333333
 20
-10.7376736111111
 10
-0.6614583333333333
 20
-10.7376736111111
 97
        0
 75
     2
 76
     1
 98
        1
 10
0.0
 20
0.0
  0
ENDBLK
  5
24A1
330
249D
100
AcDbEntity
  8
0
100
AcDbBlockEnd
  0
BLOCK
  5
24A4
330
24A2
100
AcDbEntity
  8
0
 62
     7
100
AcDbBlockBegin
  2
AI9-BLK6
 70
     0
 10
0.0
 20
0.0
 30
0.0
  3
AI9-BLK6
  1

  0
SPLINE
  5
24A3
330
24A2
100
AcDbEntity
  8
LAYER_1
 62
     7
100
AcDbSpline
210
0.0
220
0.0
230
1.0
 70
    11
 71
     3
 72
    59
 73
    55
 74
     0
 42
0.0000000001
 43
0.0000000001
 40
0.0
 40
0.0
 40
0.0
 40
0.0
 40
1.0
 40
1.0
 40
1.0
 40
2.0
 40
2.0
 40
2.0
 40
3.0
 40
3.0
 40
3.0
 40
4.0
 40
4.0
 40
4.0
 40
5.0
 40
5.0
 40
5.0
 40
6.0
 40
6.0
 40
6.0
 40
7.0
 40
7.0
 40
7.0
 40
8.0
 40
8.0
 40
8.0
 40
9.0
 40
9.0
 40
9.0
 40
10.0
 40
10.0
 40
10.0
 40
11.0
 40
11.0
 40
11.0
 40
12.0
 40
12.0
 40
12.0
 40
13.0
 40
13.0
 40
13.0
 40
14.0
 40
14.0
 40
14.0
 40
15.0
 40
15.0
 40
15.0
 40
16.0
 40
16.0
 40
16.0
 40
17.0
 40
17.0
 40
17.0
 40
18.0
 40
18.0
 40
18.0
 40
18.0
 10
3.062689887152775
 20
9.168088107638887
 30
0.0
 10
3.735172526041666
 20
7.739062499999997
 30
0.0
 10
4.110687934027776
 20
6.116422526041666
 30
0.0
 10
4.189236111111108
 20
4.299479166666666
 30
0.0
 10
4.189236111111108
 20
4.299479166666666
 30
0.0
 10
2.866319444444443
 20
4.299479166666666
 30
0.0
 10
2.866319444444443
 20
4.299479166666666
 30
0.0
 10
2.720936414930555
 20
5.667871093749997
 30
0.0
 10
2.435682508680555
 20
6.752387152777776
 30
0.0
 10
2.009868706597219
 20
7.553027343749997
 30
0.0
 10
1.584054904513888
 20
8.352978515624997
 30
0.0
 10
0.9839192708333332
 20
8.753298611111111
 30
0.0
 10
0.2101508246527778
 20
8.753298611111111
 30
0.0
 10
-0.7386284722222222
 20
8.753298611111111
 30
0.0
 10
-1.503439670138888
 20
8.010536024305555
 30
0.0
 10
-2.083593749999999
 20
6.526388888888886
 30
0.0
 10
-2.664436848958333
 20
5.042241753472221
 30
0.0
 10
-2.954513888888888
 20
2.767100694444443
 30
0.0
 10
-2.954513888888888
 20
-0.2990342881944444
 30
0.0
 10
-2.954513888888888
 20
-2.811197916666666
 30
0.0
 10
-2.693375651041666
 20
-4.847938368055555
 30
0.0
 10
-2.17041015625
 20
-6.409944661458332
 30
0.0
 10
-1.648133680555553
 20
-7.972639973958332
 30
0.0
 10
-0.8640299479166666
 20
-8.753298611111111
 30
0.0
 10
0.1812120225694444
 20
-8.753298611111111
 30
0.0
 10
1.138948567708333
 20
-8.753298611111111
 30
0.0
 10
1.865174696180553
 20
-7.927853732638887
 30
0.0
 10
2.359201388888885
 20
-6.275585937499998
 30
0.0
 10
2.62998589409722
 20
-5.406043836805555
 30
0.0
 10
2.828423394097221
 20
-4.262272135416666
 30
0.0
 10
2.954513888888888
 20
-2.844270833333331
 30
0.0
 10
2.954513888888888
 20
-2.844270833333331
 30
0.0
 10
4.277430555555555
 20
-2.844270833333331
 30
0.0
 10
4.277430555555555
 20
-2.844270833333331
 30
0.0
 10
4.169943576388888
 20
-5.109765624999996
 30
0.0
 10
3.795117187499998
 20
-7.009391276041665
 30
0.0
 10
3.151573350694443
 20
-8.542458767361106
 30
0.0
 10
2.381249999999999
 20
-10.38834092881943
 30
0.0
 10
1.347721354166665
 20
-11.3109375
 30
0.0
 10
0.0509874131944445
 20
-11.3109375
 30
0.0
 10
-1.07004665798611
 20
-11.3109375
 30
0.0
 10
-2.010557725694444
 20
-10.55577256944443
 30
0.0
 10
-2.771234809027776
 20
-9.04475368923611
 30
0.0
 10
-3.775824652777775
 20
-7.046598307291666
 30
0.0
 10
-4.277430555555555
 20
-3.961170789930555
 30
0.0
 10
-4.277430555555555
 20
0.2115288628472222
 30
0.0
 10
-4.277430555555555
 20
3.379638671874998
 30
0.0
 10
-3.902604166666666
 20
5.977929687499997
 30
0.0
 10
-3.151573350694443
 20
8.005712890624996
 30
0.0
 10
-2.333018663194443
 20
10.20919596354165
 30
0.0
 10
-1.20647243923611
 20
11.3109375
 30
0.0
 10
0.2266872829861111
 20
11.3109375
 30
0.0
 10
1.444873046875
 20
11.3109375
 30
0.0
 10
2.390207248263885
 20
10.59642469618055
 30
0.0
 10
3.062689887152775
 20
9.168088107638887
 30
0.0
  0
ENDBLK
  5
24A5
330
24A2
100
AcDbEntity
  8
0
100
AcDbBlockEnd
  0
BLOCK
  5
24A9
330
24A6
100
AcDbEntity
  8
0
 62
     7
100
AcDbBlockBegin
  2
AI9-BLK5
 70
     0
 10
0.0
 20
0.0
 30
0.0
  3
AI9-BLK5
  1

  0
SPLINE
  5
24A7
330
24A6
100
AcDbEntity
  8
LAYER_1
 62
     7
100
AcDbSpline
210
0.0
220
0.0
230
1.0
 70
    11
 71
     3
 72
    32
 73
    28
 74
     0
 42
0.0000000001
 43
0.0000000001
 40
0.0
 40
0.0
 40
0.0
 40
0.0
 40
1.0
 40
1.0
 40
1.0
 40
2.0
 40
2.0
 40
2.0
 40
3.0
 40
3.0
 40
3.0
 40
4.0
 40
4.0
 40
4.0
 40
5.0
 40
5.0
 40
5.0
 40
6.0
 40
6.0
 40
6.0
 40
7.0
 40
7.0
 40
7.0
 40
8.0
 40
8.0
 40
8.0
 40
9.0
 40
9.0
 40
9.0
 40
9.0
 10
-2.62378472222222
 20
-8.268229166666666
 30
0.0
 10
-2.62378472222222
 20
-8.268229166666666
 30
0.0
 10
-2.62378472222222
 20
8.180034722222217
 30
0.0
 10
-2.62378472222222
 20
8.180034722222217
 30
0.0
 10
-2.62378472222222
 20
8.180034722222217
 30
0.0
 10
-0.3376193576388888
 20
8.180034722222217
 30
0.0
 10
-0.3376193576388888
 20
8.180034722222217
 30
0.0
 10
0.6972873263888888
 20
8.180034722222217
 30
0.0
 10
1.449007161458333
 20
7.445540364583332
 30
0.0
 10
1.918918185763885
 20
5.977929687499997
 30
0.0
 10
2.388829210069443
 20
4.510319010416666
 30
0.0
 10
2.62378472222222
 20
2.449462890624999
 30
0.0
 10
2.62378472222222
 20
-0.204638671875
 30
0.0
 10
2.62378472222222
 20
-0.8950358072916666
 30
0.0
 10
2.590022786458332
 20
-1.643310546874999
 30
0.0
 10
2.523187934027774
 20
-2.45015190972222
 30
0.0
 10
2.408121744791666
 20
-3.80200737847222
 30
0.0
 10
2.226220703124999
 20
-4.909950086805555
 30
0.0
 10
1.976795789930553
 20
-5.774669053819441
 30
0.0
 10
1.659847005208333
 20
-6.853672960069442
 30
0.0
 10
1.252636718749998
 20
-7.583344184027778
 30
0.0
 10
0.7544759114583333
 20
-7.962304687499997
 30
0.0
 10
0.4664659288194444
 20
-8.166254340277777
 30
0.0
 10
0.1074869791666666
 20
-8.268229166666666
 30
0.0
 10
-0.3231499565972222
 20
-8.268229166666666
 30
0.0
 10
-0.3231499565972222
 20
-8.268229166666666
 30
0.0
 10
-2.62378472222222
 20
-8.268229166666666
 30
0.0
 10
-2.62378472222222
 20
-8.268229166666666
 30
0.0
  0
SPLINE
  5
24A8
330
24A6
100
AcDbEntity
  8
LAYER_1
 62
     7
100
AcDbSpline
210
0.0
220
0.0
230
1.0
 70
    11
 71
     3
 72
    26
 73
    22
 74
     0
 42
0.0000000001
 43
0.0000000001
 40
0.0
 40
0.0
 40
0.0
 40
0.0
 40
1.0
 40
1.0
 40
1.0
 40
2.0
 40
2.0
 40
2.0
 40
3.0
 40
3.0
 40
3.0
 40
4.0
 40
4.0
 40
4.0
 40
5.0
 40
5.0
 40
5.0
 40
6.0
 40
6.0
 40
6.0
 40
7.0
 40
7.0
 40
7.0
 40
7.0
 10
-3.946701388888888
 20
-10.7376736111111
 30
0.0
 10
-3.946701388888888
 20
-10.7376736111111
 30
0.0
 10
-0.0943956163194444
 20
-10.7376736111111
 30
0.0
 10
-0.0943956163194444
 20
-10.7376736111111
 30
0.0
 10
1.546847873263885
 20
-10.7376736111111
 30
0.0
 10
2.705777994791666
 20
-9.11021050347222
 30
0.0
 10
3.381705729166666
 20
-5.854595269097222
 30
0.0
 10
3.757910156249999
 20
-4.01284722222222
 30
0.0
 10
3.946701388888888
 20
-1.951991102430555
 30
0.0
 10
3.946701388888888
 20
0.328662109375
 30
0.0
 10
3.946701388888888
 20
3.281797960069443
 30
0.0
 10
3.622862413194443
 20
5.703700086805552
 30
0.0
 10
2.976562499999998
 20
7.594368489583332
 30
0.0
 10
2.25171440972222
 20
9.689675564236106
 30
0.0
 10
1.233344184027777
 20
10.7376736111111
 30
0.0
 10
-0.0799262152777778
 20
10.7376736111111
 30
0.0
 10
-0.0799262152777778
 20
10.7376736111111
 30
0.0
 10
-3.946701388888888
 20
10.7376736111111
 30
0.0
 10
-3.946701388888888
 20
10.7376736111111
 30
0.0
 10
-3.946701388888888
 20
10.7376736111111
 30
0.0
 10
-3.946701388888888
 20
-10.7376736111111
 30
0.0
 10
-3.946701388888888
 20
-10.7376736111111
 30
0.0
  0
ENDBLK
  5
24AA
330
24A6
100
AcDbEntity
  8
0
100
AcDbBlockEnd
  0
BLOCK
  5
24AE
330
24AB
100
AcDbEntity
  8
0
 62
     7
100
AcDbBlockBegin
  2
AI9-BLK4
 70
     0
 10
0.0
 20
0.0
 30
0.0
  3
AI9-BLK4
  1

  0
SPLINE
  5
24AC
330
24AB
100
AcDbEntity
  8
LAYER_1
 62
     7
100
AcDbSpline
210
0.0
220
0.0
230
1.0
 70
    11
 71
     3
 72
    26
 73
    22
 74
     0
 42
0.0000000001
 43
0.0000000001
 40
0.0
 40
0.0
 40
0.0
 40
0.0
 40
1.0
 40
1.0
 40
1.0
 40
2.0
 40
2.0
 40
2.0
 40
3.0
 40
3.0
 40
3.0
 40
4.0
 40
4.0
 40
4.0
 40
5.0
 40
5.0
 40
5.0
 40
6.0
 40
6.0
 40
6.0
 40
7.0
 40
7.0
 40
7.0
 40
7.0
 10
-2.645833333333333
 20
0.9039930555555551
 30
0.0
 10
-2.645833333333333
 20
0.9039930555555551
 30
0.0
 10
-2.645833333333333
 20
8.180034722222217
 30
0.0
 10
-2.645833333333333
 20
8.180034722222217
 30
0.0
 10
-2.645833333333333
 20
8.180034722222217
 30
0.0
 10
0.465087890625
 20
8.180034722222217
 30
0.0
 10
0.465087890625
 20
8.180034722222217
 30
0.0
 10
0.9026150173611108
 20
8.180034722222217
 30
0.0
 10
1.24988064236111
 20
8.034651692708331
 30
0.0
 10
1.506884765625
 20
7.745263671874997
 30
0.0
 10
2.001600477430554
 20
7.194048394097221
 30
0.0
 10
2.248958333333332
 20
6.160519748263887
 30
0.0
 10
2.248958333333332
 20
4.643299696180553
 30
0.0
 10
2.248958333333332
 20
3.232188585069443
 30
0.0
 10
2.072569444444444
 20
2.256537543402775
 30
0.0
 10
1.720480685763888
 20
1.715657552083333
 30
0.0
 10
1.368391927083333
 20
1.174088541666665
 30
0.0
 10
0.8929687499999998
 20
0.9039930555555551
 30
0.0
 10
0.2942111545138888
 20
0.9039930555555551
 30
0.0
 10
0.2942111545138888
 20
0.9039930555555551
 30
0.0
 10
-2.645833333333333
 20
0.9039930555555551
 30
0.0
 10
-2.645833333333333
 20
0.9039930555555551
 30
0.0
  0
SPLINE
  5
24AD
330
24AB
100
AcDbEntity
  8
LAYER_1
 62
     7
100
AcDbSpline
210
0.0
220
0.0
230
1.0
 70
    11
 71
     3
 72
    68
 73
    64
 74
     0
 42
0.0000000001
 43
0.0000000001
 40
0.0
 40
0.0
 40
0.0
 40
0.0
 40
1.0
 40
1.0
 40
1.0
 40
2.0
 40
2.0
 40
2.0
 40
3.0
 40
3.0
 40
3.0
 40
4.0
 40
4.0
 40
4.0
 40
5.0
 40
5.0
 40
5.0
 40
6.0
 40
6.0
 40
6.0
 40
7.0
 40
7.0
 40
7.0
 40
8.0
 40
8.0
 40
8.0
 40
9.0
 40
9.0
 40
9.0
 40
10.0
 40
10.0
 40
10.0
 40
11.0
 40
11.0
 40
11.0
 40
12.0
 40
12.0
 40
12.0
 40
13.0
 40
13.0
 40
13.0
 40
14.0
 40
14.0
 40
14.0
 40
15.0
 40
15.0
 40
15.0
 40
16.0
 40
16.0
 40
16.0
 40
17.0
 40
17.0
 40
17.0
 40
18.0
 40
18.0
 40
18.0
 40
19.0
 40
19.0
 40
19.0
 40
20.0
 40
20.0
 40
20.0
 40
21.0
 40
21.0
 40
21.0
 40
21.0
 10
-3.968749999999998
 20
-10.7376736111111
 30
0.0
 10
-3.968749999999998
 20
-10.7376736111111
 30
0.0
 10
-2.645833333333333
 20
-10.7376736111111
 30
0.0
 10
-2.645833333333333
 20
-10.7376736111111
 30
0.0
 10
-2.645833333333333
 20
-10.7376736111111
 30
0.0
 10
-2.645833333333333
 20
-1.521354166666665
 30
0.0
 10
-2.645833333333333
 20
-1.521354166666665
 30
0.0
 10
-2.645833333333333
 20
-1.521354166666665
 30
0.0
 10
0.2390896267361111
 20
-1.521354166666665
 30
0.0
 10
0.2390896267361111
 20
-1.521354166666665
 30
0.0
 10
0.7599880642361111
 20
-1.521354166666665
 30
0.0
 10
1.143771701388887
 20
-1.65295681423611
 30
0.0
 10
1.390440538194444
 20
-1.916162109374999
 30
0.0
 10
1.816254340277774
 20
-2.39434136284722
 30
0.0
 10
2.04363064236111
 20
-3.335541449652775
 30
0.0
 10
2.072569444444444
 20
-4.739762369791666
 30
0.0
 10
2.072569444444444
 20
-4.739762369791666
 30
0.0
 10
2.160763888888888
 20
-8.324039713541665
 30
0.0
 10
2.160763888888888
 20
-8.324039713541665
 30
0.0
 10
2.18005642361111
 20
-9.163264973958332
 30
0.0
 10
2.202794053819443
 20
-9.728949652777775
 30
0.0
 10
2.227598741319444
 20
-10.02109374999998
 30
0.0
 10
2.252403428819443
 20
-10.31392686631944
 30
0.0
 10
2.28892144097222
 20
-10.55301649305555
 30
0.0
 10
2.33853081597222
 20
-10.7376736111111
 30
0.0
 10
2.33853081597222
 20
-10.7376736111111
 30
0.0
 10
3.968749999999998
 20
-10.7376736111111
 30
0.0
 10
3.968749999999998
 20
-10.7376736111111
 30
0.0
 10
3.968749999999998
 20
-10.7376736111111
 30
0.0
 10
3.968749999999998
 20
-10.25260416666666
 30
0.0
 10
3.968749999999998
 20
-10.25260416666666
 30
0.0
 10
3.766867404513888
 20
-10.05830078125
 30
0.0
 10
3.625618489583333
 20
-9.621462673611112
 30
0.0
 10
3.545692274305555
 20
-8.942089843749997
 30
0.0
 10
3.49470486111111
 20
-8.543836805555555
 30
0.0
 10
3.459564887152775
 20
-7.937499999999999
 30
0.0
 10
3.439583333333333
 20
-7.121701388888887
 30
0.0
 10
3.439583333333333
 20
-7.121701388888887
 30
0.0
 10
3.395486111111107
 20
-4.232644314236107
 30
0.0
 10
3.395486111111107
 20
-4.232644314236107
 30
0.0
 10
3.375504557291666
 20
-2.981385633680555
 30
0.0
 10
3.26870659722222
 20
-2.077392578125
 30
0.0
 10
3.075781249999999
 20
-1.522043185763888
 30
0.0
 10
2.882166883680555
 20
-0.9666937934027776
 30
0.0
 10
2.592089843749999
 20
-0.5188313802083333
 30
0.0
 10
2.204861111111107
 20
-0.1770779079861111
 30
0.0
 10
2.63618706597222
 20
0.3197048611111111
 30
0.0
 10
2.971739366319443
 20
0.9770290798611107
 30
0.0
 10
3.211518012152775
 20
1.79558376736111
 30
0.0
 10
3.451296657986107
 20
2.613449435763888
 30
0.0
 10
3.571874999999999
 20
3.66558159722222
 30
0.0
 10
3.571874999999999
 20
4.951291232638888
 30
0.0
 10
3.571874999999999
 20
7.415912543402777
 30
0.0
 10
3.124701605902775
 20
9.106076388888887
 30
0.0
 10
2.231043836805555
 20
10.02178276909722
 30
0.0
 10
1.759754774305553
 20
10.498583984375
 30
0.0
 10
1.163753255208332
 20
10.7376736111111
 30
0.0
 10
0.443039279513889
 20
10.7376736111111
 30
0.0
 10
0.443039279513889
 20
10.7376736111111
 30
0.0
 10
-3.968749999999998
 20
10.7376736111111
 30
0.0
 10
-3.968749999999998
 20
10.7376736111111
 30
0.0
 10
-3.968749999999998
 20
10.7376736111111
 30
0.0
 10
-3.968749999999998
 20
-10.7376736111111
 30
0.0
 10
-3.968749999999998
 20
-10.7376736111111
 30
0.0
  0
ENDBLK
  5
24AF
330
24AB
100
AcDbEntity
  8
0
100
AcDbBlockEnd
  0
BLOCK
  5
24B3
330
24B0
100
AcDbEntity
  8
0
 62
     7
100
AcDbBlockBegin
  2
AI9-BLK3
 70
     0
 10
0.0
 20
0.0
 30
0.0
  3
AI9-BLK3
  1

  0
LWPOLYLINE
  5
24B1
330
24B0
100
AcDbEntity
  8
LAYER_1
 62
     7
100
AcDbPolyline
 90
        4
 70
     1
 43
0.0
 10
-0.6613722059461809
 20
10.7376736111111
 10
0.6613722059461809
 20
10.7376736111111
 10
0.6613722059461809
 20
-10.7376736111111
 10
-0.6613722059461809
 20
-10.7376736111111
  0
HATCH
  5
24B2
330
24B0
100
AcDbEntity
  8
LAYER_1
 62
     7
100
AcDbHatch
 10
0.0
 20
0.0
 30
0.0
210
0.0
220
0.0
230
1.0
  2
SOLID
 70
     1
 71
     0
 91
        1
 92
        3
 72
     0
 73
     1
 93
        4
 10
-0.6613722059461809
 20
10.7376736111111
 10
0.6613722059461809
 20
10.7376736111111
 10
0.6613722059461809
 20
-10.7376736111111
 10
-0.6613722059461809
 20
-10.7376736111111
 97
        0
 75
     2
 76
     1
 98
        1
 10
0.0
 20
0.0
  0
ENDBLK
  5
24B4
330
24B0
100
AcDbEntity
  8
0
100
AcDbBlockEnd
  0
BLOCK
  5
24B8
330
24B5
100
AcDbEntity
  8
0
 62
     7
100
AcDbBlockBegin
  2
AI9-BLK2
 70
     0
 10
0.0
 20
0.0
 30
0.0
  3
AI9-BLK2
  1

  0
LWPOLYLINE
  5
24B6
330
24B5
100
AcDbEntity
  8
LAYER_1
 62
     7
100
AcDbPolyline
 90
        7
 70
     1
 43
0.0
 10
-2.785704210069443
 20
10.7376736111111
 10
0.0
 20
-7.550960286458332
 10
2.771234809027776
 20
10.7376736111111
 10
4.233333333333331
 20
10.7376736111111
 10
0.6910861545138888
 20
-10.7376736111111
 10
-0.7055555555555558
 20
-10.7376736111111
 10
-4.233333333333331
 20
10.7376736111111
  0
HATCH
  5
24B7
330
24B5
100
AcDbEntity
  8
LAYER_1
 62
     7
100
AcDbHatch
 10
0.0
 20
0.0
 30
0.0
210
0.0
220
0.0
230
1.0
  2
SOLID
 70
     1
 71
     0
 91
        1
 92
        3
 72
     0
 73
     1
 93
        7
 10
-2.785704210069443
 20
10.7376736111111
 10
0.0
 20
-7.550960286458332
 10
2.771234809027776
 20
10.7376736111111
 10
4.233333333333331
 20
10.7376736111111
 10
0.6910861545138888
 20
-10.7376736111111
 10
-0.7055555555555558
 20
-10.7376736111111
 10
-4.233333333333331
 20
10.7376736111111
 97
        0
 75
     2
 76
     1
 98
        1
 10
0.0
 20
0.0
  0
ENDBLK
  5
24B9
330
24B5
100
AcDbEntity
  8
0
100
AcDbBlockEnd
  0
BLOCK
  5
24BD
330
24BA
100
AcDbEntity
  8
0
 62
     7
100
AcDbBlockBegin
  2
AI9-BLK1
 70
     0
 10
0.0
 20
0.0
 30
0.0
  3
AI9-BLK1
  1

  0
LWPOLYLINE
  5
24BB
330
24BA
100
AcDbEntity
  8
LAYER_1
 62
     7
100
AcDbPolyline
 90
       12
 70
     1
 43
0.0
 10
-3.571874999999999
 20
10.7376736111111
 10
3.483680555555555
 20
10.7376736111111
 10
3.483680555555555
 20
8.091840277777777
 10
-2.248958333333332
 20
8.091840277777777
 10
-2.248958333333332
 20
1.565451388888888
 10
3.042708333333333
 20
1.565451388888888
 10
3.042708333333333
 20
-0.9039930555555551
 10
-2.248958333333332
 20
-0.9039930555555551
 10
-2.248958333333332
 20
-8.180034722222217
 10
3.571874999999999
 20
-8.180034722222217
 10
3.571874999999999
 20
-10.7376736111111
 10
-3.571874999999999
 20
-10.7376736111111
  0
HATCH
  5
24BC
330
24BA
100
AcDbEntity
  8
LAYER_1
 62
     7
100
AcDbHatch
 10
0.0
 20
0.0
 30
0.0
210
0.0
220
0.0
230
1.0
  2
SOLID
 70
     1
 71
     0
 91
        1
 92
        3
 72
     0
 73
     1
 93
       12
 10
-3.571874999999999
 20
10.7376736111111
 10
3.483680555555555
 20
10.7376736111111
 10
3.483680555555555
 20
8.091840277777777
 10
-2.248958333333332
 20
8.091840277777777
 10
-2.248958333333332
 20
1.565451388888888
 10
3.042708333333333
 20
1.565451388888888
 10
3.042708333333333
 20
-0.9039930555555551
 10
-2.248958333333332
 20
-0.9039930555555551
 10
-2.248958333333332
 20
-8.180034722222217
 10
3.571874999999999
 20
-8.180034722222217
 10
3.571874999999999
 20
-10.7376736111111
 10
-3.571874999999999
 20
-10.7376736111111
 97
        0
 75
     2
 76
     1
 98
        1
 10
0.0
 20
0.0
  0
ENDBLK
  5
24BE
330
24BA
100
AcDbEntity
  8
0
100
AcDbBlockEnd
  0
BLOCK
  5
24E2
330
24BF
100
AcDbEntity
  8
0
100
AcDbBlockBegin
  2
HD_LLC_logo_OT5
 70
     0
 10
0.0
 20
0.0
 30
0.0
  3
HD_LLC_logo_OT5
  1

  0
SPLINE
  5
24C0
102
{ACAD_REACTORS
330
24E0
102
}
330
24BF
100
AcDbEntity
  8
LAYER_1
 62
     7
100
AcDbSpline
210
0.0
220
0.0
230
1.0
 70
    11
 71
     3
 72
   113
 73
   109
 74
     0
 42
0.0000000001
 43
0.0000000001
 40
0.0
 40
0.0
 40
0.0
 40
0.0
 40
1.0
 40
1.0
 40
1.0
 40
2.0
 40
2.0
 40
2.0
 40
3.0
 40
3.0
 40
3.0
 40
4.0
 40
4.0
 40
4.0
 40
5.0
 40
5.0
 40
5.0
 40
6.0
 40
6.0
 40
6.0
 40
7.0
 40
7.0
 40
7.0
 40
8.0
 40
8.0
 40
8.0
 40
9.0
 40
9.0
 40
9.0
 40
10.0
 40
10.0
 40
10.0
 40
11.0
 40
11.0
 40
11.0
 40
12.0
 40
12.0
 40
12.0
 40
13.0
 40
13.0
 40
13.0
 40
14.0
 40
14.0
 40
14.0
 40
15.0
 40
15.0
 40
15.0
 40
16.0
 40
16.0
 40
16.0
 40
17.0
 40
17.0
 40
17.0
 40
18.0
 40
18.0
 40
18.0
 40
19.0
 40
19.0
 40
19.0
 40
20.0
 40
20.0
 40
20.0
 40
21.0
 40
21.0
 40
21.0
 40
22.0
 40
22.0
 40
22.0
 40
23.0
 40
23.0
 40
23.0
 40
24.0
 40
24.0
 40
24.0
 40
25.0
 40
25.0
 40
25.0
 40
26.0
 40
26.0
 40
26.0
 40
27.0
 40
27.0
 40
27.0
 40
28.0
 40
28.0
 40
28.0
 40
29.0
 40
29.0
 40
29.0
 40
30.0
 40
30.0
 40
30.0
 40
31.0
 40
31.0
 40
31.0
 40
32.0
 40
32.0
 40
32.0
 40
33.0
 40
33.0
 40
33.0
 40
34.0
 40
34.0
 40
34.0
 40
35.0
 40
35.0
 40
35.0
 40
36.0
 40
36.0
 40
36.0
 40
36.0
 10
193.3039632161458
 20
186.1548733181423
 30
0.0
 10
193.3039632161458
 20
186.1860514322916
 30
0.0
 10
193.3039632161458
 20
219.6932223849826
 30
0.0
 10
193.3039632161458
 20
219.6932223849826
 30
0.0
 10
193.3039632161458
 20
219.6932223849826
 30
0.0
 10
193.2974175347219
 20
219.7488606770833
 30
0.0
 10
193.2974175347219
 20
219.7488606770833
 30
0.0
 10
191.5293945312499
 20
235.455740017361
 30
0.0
 10
175.1458984374999
 20
235.2467949761284
 30
0.0
 10
174.9808783637151
 20
235.2428331163193
 30
0.0
 10
174.9808783637151
 20
235.2428331163193
 30
0.0
 10
125.8827555338541
 20
235.2430053710937
 30
0.0
 10
125.8827555338541
 20
235.2430053710937
 30
0.0
 10
125.8827555338541
 20
235.2430053710937
 30
0.0
 10
125.8827555338541
 20
255.5278998480901
 30
0.0
 10
125.8827555338541
 20
255.5278998480901
 30
0.0
 10
125.8827555338541
 20
255.5278998480901
 30
0.0
 10
84.5626247829861
 20
255.5278998480901
 30
0.0
 10
84.5626247829861
 20
255.5278998480901
 30
0.0
 10
84.5626247829861
 20
255.5278998480901
 30
0.0
 10
84.55711263020829
 20
233.7919311523436
 30
0.0
 10
84.55711263020829
 20
233.7919311523436
 30
0.0
 10
84.55711263020829
 20
233.7919311523436
 30
0.0
 10
64.42052951388888
 20
233.7919311523436
 30
0.0
 10
64.42052951388888
 20
233.7919311523436
 30
0.0
 10
64.42052951388888
 20
233.7919311523436
 30
0.0
 10
64.41501736111111
 20
255.5278998480901
 30
0.0
 10
64.41501736111111
 20
255.5278998480901
 30
0.0
 10
64.41501736111111
 20
255.5278998480901
 30
0.0
 10
23.91757541232637
 20
255.5278998480901
 30
0.0
 10
23.91757541232637
 20
255.5278998480901
 30
0.0
 10
23.91757541232637
 20
255.5278998480901
 30
0.0
 10
23.91757541232637
 20
233.2393378363715
 30
0.0
 10
23.91757541232637
 20
233.2393378363715
 30
0.0
 10
23.91757541232637
 20
233.2393378363715
 30
0.0
 10
43.65624999999999
 20
233.2393378363715
 30
0.0
 10
43.65624999999999
 20
233.2393378363715
 30
0.0
 10
43.65624999999999
 20
233.2393378363715
 30
0.0
 10
43.65624999999999
 20
211.5188720703125
 30
0.0
 10
43.65624999999999
 20
211.5188720703125
 30
0.0
 10
43.65624999999999
 20
211.5188720703125
 30
0.0
 10
23.91757541232637
 20
211.5188720703125
 30
0.0
 10
23.91757541232637
 20
211.5188720703125
 30
0.0
 10
23.91757541232637
 20
211.5188720703125
 30
0.0
 10
23.91757541232637
 20
189.2303100585936
 30
0.0
 10
23.91757541232637
 20
189.2303100585936
 30
0.0
 10
23.91757541232637
 20
189.2303100585936
 30
0.0
 10
64.41501736111111
 20
189.2303100585936
 30
0.0
 10
64.41501736111111
 20
189.2303100585936
 30
0.0
 10
64.41501736111111
 20
189.2303100585936
 30
0.0
 10
64.42052951388888
 20
211.069976128472
 30
0.0
 10
64.42052951388888
 20
211.069976128472
 30
0.0
 10
64.42052951388888
 20
211.069976128472
 30
0.0
 10
84.55711263020829
 20
211.069976128472
 30
0.0
 10
84.55711263020829
 20
211.069976128472
 30
0.0
 10
84.55711263020829
 20
211.069976128472
 30
0.0
 10
84.5626247829861
 20
189.2303100585936
 30
0.0
 10
84.5626247829861
 20
189.2303100585936
 30
0.0
 10
84.5626247829861
 20
189.2303100585936
 30
0.0
 10
125.8827555338541
 20
189.2303100585936
 30
0.0
 10
125.8827555338541
 20
189.2303100585936
 30
0.0
 10
125.8827555338541
 20
189.2303100585936
 30
0.0
 10
125.8827555338541
 20
211.5188720703125
 30
0.0
 10
125.8827555338541
 20
211.5188720703125
 30
0.0
 10
125.8827555338541
 20
211.5188720703125
 30
0.0
 10
105.3213921440971
 20
211.5188720703125
 30
0.0
 10
105.3213921440971
 20
211.5188720703125
 30
0.0
 10
105.3213921440971
 20
211.5188720703125
 30
0.0
 10
105.3213921440971
 20
233.2393378363715
 30
0.0
 10
105.3213921440971
 20
233.2393378363715
 30
0.0
 10
105.3213921440971
 20
233.2393378363715
 30
0.0
 10
175.0046495225693
 20
233.243127441406
 30
0.0
 10
175.0046495225693
 20
233.243127441406
 30
0.0
 10
175.6268337673611
 20
233.2560465494791
 30
0.0
 10
189.7165852864583
 20
233.3962619357638
 30
0.0
 10
191.3037407769094
 20
219.5690266927083
 30
0.0
 10
191.3037407769094
 20
219.4332899305555
 30
0.0
 10
191.3037407769094
 20
186.1142211914062
 30
0.0
 10
191.3037407769094
 20
186.1142211914062
 30
0.0
 10
191.3037407769094
 20
186.1142211914062
 30
0.0
 10
191.3051188151039
 20
186.0880384657115
 30
0.0
 10
191.3051188151039
 20
186.0880384657115
 30
0.0
 10
191.3054633246526
 20
186.0787367078991
 30
0.0
 10
191.3109754774304
 20
185.9566080729166
 30
0.0
 10
191.3109754774304
 20
185.7399115668401
 30
0.0
 10
191.3109754774304
 20
184.2090833875865
 30
0.0
 10
191.0488037109374
 20
177.9643310546874
 30
0.0
 10
186.9866916232638
 20
173.5652886284722
 30
0.0
 10
184.2540418836804
 20
170.6064683702255
 30
0.0
 10
180.3224989149304
 20
169.0308539496526
 30
0.0
 10
175.300927734375
 20
168.8825425889756
 30
0.0
 10
175.300927734375
 20
168.8825425889756
 30
0.0
 10
107.0094889322916
 20
168.8828870985243
 30
0.0
 10
107.0094889322916
 20
168.8828870985243
 30
0.0
 10
107.0094889322916
 20
168.8828870985243
 30
0.0
 10
107.0094889322916
 20
166.8830091688368
 30
0.0
 10
107.0094889322916
 20
166.8830091688368
 30
0.0
 10
107.0094889322916
 20
166.8830091688368
 30
0.0
 10
175.3305555555555
 20
166.8830091688368
 30
0.0
 10
175.3305555555555
 20
166.8830091688368
 30
0.0
 10
180.9467502170138
 20
167.0485460069444
 30
0.0
 10
185.3571614583333
 20
168.8448187934026
 30
0.0
 10
188.4687717013888
 20
172.2223904079861
 30
0.0
 10
192.9649658203124
 20
177.1034016927083
 30
0.0
 10
193.3136094835069
 20
183.7202243381076
 30
0.0
 10
193.3136094835069
 20
185.6520616319443
 30
0.0
 10
193.3136094835069
 20
185.9247409396701
 30
0.0
 10
193.3070638020833
 20
186.0868326822916
 30
0.0
 10
193.3039632161458
 20
186.1548733181423
 30
0.0
  0
INSERT
  5
24C1
102
{ACAD_REACTORS
330
24E1
102
}
330
24BF
100
AcDbEntity
  8
LAYER_1
 62
     7
100
AcDbBlockReference
  2
AI9-BLK14
 10
159.5625257703993
 20
200.5118781195744
 30
0.0
  0
INSERT
  5
24C2
330
24BF
100
AcDbEntity
  8
LAYER_1
 62
     7
100
AcDbBlockReference
  2
AI9-BLK13
 10
27.69615614149305
 20
179.2145562065971
 30
0.0
 42
0.9200000000000001
  0
INSERT
  5
24C3
102
{ACAD_REACTORS
330
24CE
102
}
330
24BF
100
AcDbEntity
  8
LAYER_1
 62
     7
100
AcDbBlockReference
  2
AI9-BLK11
 10
44.76591525607638
 20
179.2145562065971
 30
0.0
 42
0.9200000000000001
  0
INSERT
  5
24C4
102
{ACAD_REACTORS
330
24DC
102
}
330
24BF
100
AcDbEntity
  8
LAYER_1
 62
     7
100
AcDbBlockReference
  2
AI9-BLK10
 10
54.04665798611111
 20
179.2145562065971
 30
0.0
 42
0.9200000000000001
  0
INSERT
  5
24C5
102
{ACAD_REACTORS
330
24DB
102
}
330
24BF
100
AcDbEntity
  8
LAYER_1
 62
     7
100
AcDbBlockReference
  2
AI9-BLK9
 10
62.79013807508679
 20
179.2145562065971
 30
0.0
 42
0.9
  0
INSERT
  5
24C6
330
24BF
100
AcDbEntity
  8
LAYER_1
 62
     7
100
AcDbBlockReference
  2
AI9-BLK8
 10
71.03046196831595
 20
179.2145562065971
 30
0.0
 42
0.9200000000000001
  0
INSERT
  5
24C7
330
24BF
100
AcDbEntity
  8
LAYER_1
 62
     7
100
AcDbBlockReference
  2
AI9-BLK7
 10
76.93793945312498
 20
179.2145562065971
 30
0.0
 42
0.9200000000000001
  0
INSERT
  5
24C8
102
{ACAD_REACTORS
330
24CF
102
}
330
24BF
100
AcDbEntity
  8
LAYER_1
 62
     7
100
AcDbBlockReference
  2
AI9-BLK6
 10
82.55602891710069
 20
179.2145562065971
 30
0.0
 42
0.9
  0
INSERT
  5
24C9
102
{ACAD_REACTORS
330
24DD
102
}
330
24BF
100
AcDbEntity
  8
LAYER_1
 62
     7
100
AcDbBlockReference
  2
AI9-BLK5
 10
94.32430284288193
 20
179.2145562065971
 30
0.0
 42
0.9200000000000001
  0
INSERT
  5
24CA
102
{ACAD_REACTORS
330
24DE
102
}
330
24BF
100
AcDbEntity
  8
LAYER_1
 62
     7
100
AcDbBlockReference
  2
AI9-BLK4
 10
103.2081705729166
 20
179.2145562065971
 30
0.0
 42
0.9200000000000001
  0
INSERT
  5
24CB
330
24BF
100
AcDbEntity
  8
LAYER_1
 62
     7
100
AcDbBlockReference
  2
AI9-BLK3
 10
108.850978597005
 20
179.2145562065971
 30
0.0
 42
0.9200000000000001
  0
INSERT
  5
24CC
330
24BF
100
AcDbEntity
  8
LAYER_1
 62
     7
100
AcDbBlockReference
  2
AI9-BLK2
 10
114.2045708550346
 20
179.2145562065971
 30
0.0
 42
0.9200000000000001
  0
INSERT
  5
24CD
330
24BF
100
AcDbEntity
  8
LAYER_1
 62
     7
100
AcDbBlockReference
  2
AI9-BLK1
 10
122.4125108506944
 20
179.2145562065971
 30
0.0
 42
0.9200000000000001
  0
HATCH
  5
24CE
330
24BF
100
AcDbEntity
  8
0
  6
Continuous
100
AcDbHatch
 10
0.0
 20
0.0
 30
0.0
210
0.0
220
0.0
230
1.0
  2
SOLID
 70
     1
 71
     1
 91
        2
 92
       16
 93
        1
 72
     4
 94
        3
 73
     0
 74
     0
 95
       26
 96
       22
 40
0.0
 40
0.0
 40
0.0
 40
0.0
 40
1.0
 40
1.0
 40
1.0
 40
2.0
 40
2.0
 40
2.0
 40
3.0
 40
3.0
 40
3.0
 40
4.0
 40
4.0
 40
4.0
 40
5.0
 40
5.0
 40
5.0
 40
6.0
 40
6.0
 40
6.0
 40
7.0
 40
7.0
 40
7.0
 40
7.0
 10
42.12008192274304
 20
180.0462298177081
 10
42.12008192274304
 20
180.0462298177081
 10
42.12008192274304
 20
186.7401881510414
 10
42.12008192274304
 20
186.7401881510414
 10
42.12008192274304
 20
186.7401881510414
 10
45.23100314670138
 20
186.7401881510414
 10
45.23100314670138
 20
186.7401881510414
 10
45.66853027343749
 20
186.7401881510414
 10
46.01579589843749
 20
186.6064357638887
 10
46.27280002170138
 20
186.3401987847219
 10
46.76751573350694
 20
185.8330807291664
 10
47.01487358940972
 20
184.8822343749997
 10
47.01487358940972
 20
183.4863919270832
 10
47.01487358940972
 20
182.188169704861
 10
46.83848470052082
 20
181.2905707465276
 10
46.48639594184028
 20
180.7929611545137
 10
46.13430718315971
 20
180.2947176649304
 10
45.65888400607638
 20
180.0462298177081
 10
45.06012641059028
 20
180.0462298177081
 10
45.06012641059028
 20
180.0462298177081
 10
42.12008192274304
 20
180.0462298177081
 10
42.12008192274304
 20
180.0462298177081
 97
        1
330
24C3
 92
        1
 93
        1
 72
     4
 94
        3
 73
     0
 74
     0
 95
       68
 96
       64
 40
0.0
 40
0.0
 40
0.0
 40
0.0
 40
1.0
 40
1.0
 40
1.0
 40
2.0
 40
2.0
 40
2.0
 40
3.0
 40
3.0
 40
3.0
 40
4.0
 40
4.0
 40
4.0
 40
5.0
 40
5.0
 40
5.0
 40
6.0
 40
6.0
 40
6.0
 40
7.0
 40
7.0
 40
7.0
 40
8.0
 40
8.0
 40
8.0
 40
9.0
 40
9.0
 40
9.0
 40
10.0
 40
10.0
 40
10.0
 40
11.0
 40
11.0
 40
11.0
 40
12.0
 40
12.0
 40
12.0
 40
13.0
 40
13.0
 40
13.0
 40
14.0
 40
14.0
 40
14.0
 40
15.0
 40
15.0
 40
15.0
 40
16.0
 40
16.0
 40
16.0
 40
17.0
 40
17.0
 40
17.0
 40
18.0
 40
18.0
 40
18.0
 40
19.0
 40
19.0
 40
19.0
 40
20.0
 40
20.0
 40
20.0
 40
21.0
 40
21.0
 40
21.0
 40
21.0
 10
40.79716525607638
 20
169.3358964843748
 10
40.79716525607638
 20
169.3358964843748
 10
42.12008192274304
 20
169.3358964843748
 10
42.12008192274304
 20
169.3358964843748
 10
42.12008192274304
 20
169.3358964843748
 10
42.12008192274304
 20
177.8149103732637
 10
42.12008192274304
 20
177.8149103732637
 10
42.12008192274304
 20
177.8149103732637
 10
45.00500488281249
 20
177.8149103732637
 10
45.00500488281249
 20
177.8149103732637
 10
45.52590332031249
 20
177.8149103732637
 10
45.90968695746528
 20
177.6938359374998
 10
46.15635579427083
 20
177.451687065972
 10
46.58216959635415
 20
177.0117621527776
 10
46.80954589843749
 20
176.1458580729164
 10
46.83848470052082
 20
174.8539748263887
 10
46.83848470052082
 20
174.8539748263887
 10
46.92667914496527
 20
171.5564396701386
 10
46.92667914496527
 20
171.5564396701386
 10
46.94597167968749
 20
170.7843524305554
 10
46.96870930989581
 20
170.2639225260415
 10
46.99351399739582
 20
169.9951499565971
 10
47.01831868489581
 20
169.7257434895831
 10
47.0548366970486
 20
169.5057810329859
 10
47.10444607204859
 20
169.3358964843748
 10
47.10444607204859
 20
169.3358964843748
 10
48.73466525607638
 20
169.3358964843748
 10
48.73466525607638
 20
169.3358964843748
 10
48.73466525607638
 20
169.3358964843748
 10
48.73466525607638
 20
169.7821603732636
 10
48.73466525607638
 20
169.7821603732636
 10
48.53278266059028
 20
169.9609194878471
 10
48.39153374565971
 20
170.3628105468748
 10
48.31160753038194
 20
170.9878335503471
 10
48.26062011718749
 20
171.3542263454858
 10
48.22548014322915
 20
171.9120562065971
 10
48.20549858940971
 20
172.6625909288193
 10
48.20549858940971
 20
172.6625909288193
 10
48.16140136718749
 20
175.3205234374999
 10
48.16140136718749
 20
175.3205234374999
 10
48.14141981336803
 20
176.4716814236109
 10
48.03462185329859
 20
177.3033550347219
 10
47.84169650607638
 20
177.8142764756942
 10
47.64808213975693
 20
178.3251979166665
 10
47.35800509982638
 20
178.7372313368054
 10
46.97077636718749
 20
179.0516445312498
 10
47.4021023220486
 20
179.5086846788193
 10
47.73765462239582
 20
180.1134229600693
 10
47.97743326822915
 20
180.8664932725692
 10
48.21721191406249
 20
181.6189296874999
 10
48.33779025607638
 20
182.5868912760414
 10
48.33779025607638
 20
183.7697441406248
 10
48.33779025607638
 20
186.0371957465275
 10
47.89061686197916
 20
187.5921464843749
 10
46.99695909288194
 20
188.4345963541665
 10
46.52567003038194
 20
188.8732534722221
 10
45.92966851128472
 20
189.0932159288193
 10
45.20895453559027
 20
189.0932159288193
 10
45.20895453559027
 20
189.0932159288193
 10
40.79716525607638
 20
189.0932159288193
 10
40.79716525607638
 20
189.0932159288193
 10
40.79716525607638
 20
189.0932159288193
 10
40.79716525607638
 20
169.3358964843748
 10
40.79716525607638
 20
169.3358964843748
 97
        0
 75
     0
 76
     1
 98
        0
  0
HATCH
  5
24CF
330
24BF
100
AcDbEntity
  8
0
  6
Continuous
100
AcDbHatch
 10
0.0
 20
0.0
 30
0.0
210
0.0
220
0.0
230
1.0
  2
SOLID
 70
     1
 71
     1
 91
        1
 92
        1
 93
        1
 72
     4
 94
        3
 73
     0
 74
     0
 95
       59
 96
       55
 40
0.0
 40
0.0
 40
0.0
 40
0.0
 40
1.0
 40
1.0
 40
1.0
 40
2.0
 40
2.0
 40
2.0
 40
3.0
 40
3.0
 40
3.0
 40
4.0
 40
4.0
 40
4.0
 40
5.0
 40
5.0
 40
5.0
 40
6.0
 40
6.0
 40
6.0
 40
7.0
 40
7.0
 40
7.0
 40
8.0
 40
8.0
 40
8.0
 40
9.0
 40
9.0
 40
9.0
 40
10.0
 40
10.0
 40
10.0
 40
11.0
 40
11.0
 40
11.0
 40
12.0
 40
12.0
 40
12.0
 40
13.0
 40
13.0
 40
13.0
 40
14.0
 40
14.0
 40
14.0
 40
15.0
 40
15.0
 40
15.0
 40
16.0
 40
16.0
 40
16.0
 40
17.0
 40
17.0
 40
17.0
 40
18.0
 40
18.0
 40
18.0
 40
18.0
 10
85.61871880425345
 20
187.4658355034721
 10
86.29120144314233
 20
186.1797124565971
 10
86.66671685112847
 20
184.7193364800346
 10
86.7452650282118
 20
183.0840874565969
 10
86.7452650282118
 20
183.0840874565969
 10
85.42234836154511
 20
183.0840874565969
 10
85.42234836154511
 20
183.0840874565969
 10
85.27696533203123
 20
184.315640190972
 10
84.99171142578125
 20
185.2917046440971
 10
84.56589762369791
 20
186.0122808159719
 10
84.14008382161458
 20
186.7322368706595
 10
83.53994818793401
 20
187.092524956597
 10
82.76617974175344
 20
187.092524956597
 10
81.81740044487847
 20
187.092524956597
 10
81.05258924696178
 20
186.4240386284721
 10
80.47243516710068
 20
185.0883062065971
 10
79.89159206814234
 20
183.7525737847219
 10
79.6015150282118
 20
181.7049468315971
 10
79.6015150282118
 20
178.9454253472221
 10
79.6015150282118
 20
176.684478081597
 10
79.86265326605901
 20
174.8514116753471
 10
80.38561876085069
 20
173.4456060112846
 10
80.90789523654512
 20
172.0391802300345
 10
81.69199896918403
 20
171.3365874565971
 10
82.73724093967013
 20
171.3365874565971
 10
83.69497748480901
 20
171.3365874565971
 10
84.42120361328125
 20
172.0794878472221
 10
84.91523030598958
 20
173.566528862847
 10
85.18601481119791
 20
174.349116753472
 10
85.38445231119791
 20
175.3785112847221
 10
85.51054280598959
 20
176.6547124565971
 10
85.51054280598959
 20
176.6547124565971
 10
86.83345947265625
 20
176.6547124565971
 10
86.83345947265625
 20
176.6547124565971
 10
86.72597249348957
 20
174.6157671440971
 10
86.35114610460069
 20
172.9061040581596
 10
85.70760226779514
 20
171.526343315972
 10
84.93727891710069
 20
169.8650493706596
 10
83.90375027126735
 20
169.0347124565971
 10
82.60701633029514
 20
169.0347124565971
 10
81.48598225911458
 20
169.0347124565971
 10
80.54547119140625
 20
169.7143608940971
 10
79.78479410807292
 20
171.0742778862845
 10
78.78020426432292
 20
172.8726177300345
 10
78.27859836154512
 20
175.6495024956596
 10
78.27859836154512
 20
179.4049321831595
 10
78.27859836154512
 20
182.2562310112846
 10
78.65342475043402
 20
184.594692925347
 10
79.40445556640622
 20
186.4196978081596
 10
80.22301025390625
 20
188.4028325737846
 10
81.34955647786458
 20
189.3943999565971
 10
82.78271620008679
 20
189.3943999565971
 10
84.00090196397568
 20
189.3943999565971
 10
84.94623616536458
 20
188.7513384331595
 10
85.61871880425345
 20
187.4658355034721
 97
        1
330
24C8
 75
     0
 76
     1
 98
        1
 10
0.0
 20
0.0
  0
LINE
  5
24D0
102
{ACAD_REACTORS
330
24DF
102
}
330
24BF
100
AcDbEntity
  8
LAYER_1
 62
     7
100
AcDbLine
 10
34.65766059027778
 20
177.4497853732638
 30
0.0
 11
36.19830729166666
 21
186.1658769531249
 31
0.0
  0
LINE
  5
24D1
102
{ACAD_REACTORS
330
24DF
102
}
330
24BF
100
AcDbEntity
  8
LAYER_1
 62
     7
100
AcDbLine
 10
36.19830729166666
 20
186.1658769531249
 30
0.0
 11
37.67556423611111
 21
177.4497853732638
 31
0.0
  0
LINE
  5
24D2
102
{ACAD_REACTORS
330
24DF
102
}
330
24BF
100
AcDbEntity
  8
LAYER_1
 62
     7
100
AcDbLine
 10
37.67556423611111
 20
177.4497853732638
 30
0.0
 11
34.65766059027778
 21
177.4497853732638
 31
0.0
  0
LINE
  5
24D3
102
{ACAD_REACTORS
330
24DF
102
}
330
24BF
100
AcDbEntity
  8
LAYER_1
 62
     7
100
AcDbLine
 10
31.83957248263888
 20
169.3358964843748
 30
0.0
 11
33.22450086805555
 21
169.3358964843748
 31
0.0
  0
LINE
  5
24D4
102
{ACAD_REACTORS
330
24DF
102
}
330
24BF
100
AcDbEntity
  8
LAYER_1
 62
     7
100
AcDbLine
 10
33.22450086805555
 20
169.3358964843748
 30
0.0
 11
34.27043185763887
 21
175.2590353732638
 31
0.0
  0
LINE
  5
24D5
102
{ACAD_REACTORS
330
24DF
102
}
330
24BF
100
AcDbEntity
  8
LAYER_1
 62
     7
100
AcDbLine
 10
34.27043185763887
 20
175.2590353732638
 30
0.0
 11
38.04694552951389
 21
175.2590353732638
 31
0.0
  0
LINE
  5
24D6
102
{ACAD_REACTORS
330
24DF
102
}
330
24BF
100
AcDbEntity
  8
LAYER_1
 62
     7
100
AcDbLine
 10
38.04694552951389
 20
175.2590353732638
 30
0.0
 11
39.05015733506942
 21
169.3358964843748
 31
0.0
  0
LINE
  5
24D7
102
{ACAD_REACTORS
330
24DF
102
}
330
24BF
100
AcDbEntity
  8
LAYER_1
 62
     7
100
AcDbLine
 10
39.05015733506942
 20
169.3358964843748
 30
0.0
 11
40.43508572048611
 21
169.3358964843748
 31
0.0
  0
LINE
  5
24D8
102
{ACAD_REACTORS
330
24DF
102
}
330
24BF
100
AcDbEntity
  8
LAYER_1
 62
     7
100
AcDbLine
 10
40.43508572048611
 20
169.3358964843748
 30
0.0
 11
36.952783203125
 21
189.0932159288193
 31
0.0
  0
LINE
  5
24D9
102
{ACAD_REACTORS
330
24DF
102
}
330
24BF
100
AcDbEntity
  8
LAYER_1
 62
     7
100
AcDbLine
 10
36.952783203125
 20
189.0932159288193
 30
0.0
 11
35.47828233506943
 21
189.0932159288193
 31
0.0
  0
LINE
  5
24DA
102
{ACAD_REACTORS
330
24DF
102
}
330
24BF
100
AcDbEntity
  8
LAYER_1
 62
     7
100
AcDbLine
 10
35.47828233506943
 20
189.0932159288193
 30
0.0
 11
31.83957248263888
 21
169.3358964843748
 31
0.0
  0
HATCH
  5
24DB
330
24BF
100
AcDbEntity
  8
0
  6
Continuous
100
AcDbHatch
 10
0.0
 20
0.0
 30
0.0
210
0.0
220
0.0
230
1.0
  2
SOLID
 70
     1
 71
     1
 91
        2
 92
       16
 93
        1
 72
     4
 94
        3
 73
     0
 74
     0
 95
       29
 96
       25
 40
0.0
 40
0.0
 40
0.0
 40
0.0
 40
1.0
 40
1.0
 40
1.0
 40
2.0
 40
2.0
 40
2.0
 40
3.0
 40
3.0
 40
3.0
 40
4.0
 40
4.0
 40
4.0
 40
5.0
 40
5.0
 40
5.0
 40
6.0
 40
6.0
 40
6.0
 40
7.0
 40
7.0
 40
7.0
 40
8.0
 40
8.0
 40
8.0
 40
8.0
 10
62.85697292751734
 20
171.3365874565971
 10
61.88338894314235
 20
171.3365874565971
 10
61.18058946397566
 20
172.0714263237844
 10
60.74857449001735
 20
173.5411040581595
 10
60.31587049696178
 20
175.0107817925344
 10
60.10020751953123
 20
176.8165630425344
 10
60.10020751953123
 20
178.9578276909721
 10
60.10020751953123
 20
181.6342534722221
 10
60.35101047092013
 20
183.6589360894095
 10
60.85261637369789
 20
185.032495659722
 10
61.35422227647566
 20
186.4054351128471
 10
62.00741238064235
 20
187.092524956597
 10
62.81218668619789
 20
187.092524956597
 10
63.6369425455729
 20
187.092524956597
 10
64.28806559244789
 20
186.3992339409721
 10
64.76486680772568
 20
185.0126519097221
 10
65.24166802300347
 20
183.6260698784719
 10
65.48006863064235
 20
181.7961040581595
 10
65.48006863064235
 20
179.5239946831596
 10
65.48006863064235
 20
177.3734282769096
 10
65.27336290147568
 20
175.471528862847
 10
64.86132948133678
 20
173.8176763237846
 10
64.4492960611979
 20
172.1632036675345
 10
63.78094753689235
 20
171.3365874565971
 10
62.85697292751734
 20
171.3365874565971
 97
        1
330
24C5
 92
        1
 93
        1
 72
     4
 94
        3
 73
     0
 74
     0
 95
       29
 96
       25
 40
0.0
 40
0.0
 40
0.0
 40
0.0
 40
1.0
 40
1.0
 40
1.0
 40
2.0
 40
2.0
 40
2.0
 40
3.0
 40
3.0
 40
3.0
 40
4.0
 40
4.0
 40
4.0
 40
5.0
 40
5.0
 40
5.0
 40
6.0
 40
6.0
 40
6.0
 40
7.0
 40
7.0
 40
7.0
 40
8.0
 40
8.0
 40
8.0
 40
8.0
 10
62.76119927300346
 20
189.4340874565971
 10
61.47273356119789
 20
189.4340874565971
 10
60.50121663411457
 20
188.239741753472
 10
59.84733751085068
 20
185.8516704644094
 10
59.3395304361979
 20
183.9900786675345
 10
59.08597140842012
 20
181.7514556206596
 10
59.08597140842012
 20
179.1351812065971
 10
59.08597140842012
 20
176.2379937065971
 10
59.38362765842011
 20
173.8412407769095
 10
59.97894015842011
 20
171.9449224175346
 10
60.64246554904511
 20
169.9779106987846
 10
61.56023898654511
 20
168.9950249565971
 10
62.7315714518229
 20
168.9950249565971
 10
63.9904093424479
 20
168.9950249565971
 10
64.95641411675345
 20
170.118677300347
 10
65.63027479383679
 20
172.3659819878471
 10
66.20629475911457
 20
174.279663628472
 10
66.49430474175345
 20
176.6813774956594
 10
66.49430474175345
 20
179.5698833550345
 10
66.49430474175345
 20
182.2388677300344
 10
66.24005669487845
 20
184.4291216362844
 10
65.73293863932289
 20
186.141265190972
 10
65.08870578342011
 20
188.336480034722
 10
64.09789632161457
 20
189.4340874565971
 10
62.76119927300346
 20
189.4340874565971
 97
        0
 75
     0
 76
     1
 98
        0
  0
HATCH
  5
24DC
330
24BF
100
AcDbEntity
  8
0
  6
Continuous
100
AcDbHatch
 10
0.0
 20
0.0
 30
0.0
210
0.0
220
0.0
230
1.0
  2
SOLID
 70
     1
 71
     1
 91
        1
 92
        1
 93
        1
 72
     4
 94
        3
 73
     0
 74
     0
 95
       59
 96
       55
 40
0.0
 40
0.0
 40
0.0
 40
0.0
 40
1.0
 40
1.0
 40
1.0
 40
2.0
 40
2.0
 40
2.0
 40
3.0
 40
3.0
 40
3.0
 40
4.0
 40
4.0
 40
4.0
 40
5.0
 40
5.0
 40
5.0
 40
6.0
 40
6.0
 40
6.0
 40
7.0
 40
7.0
 40
7.0
 40
8.0
 40
8.0
 40
8.0
 40
9.0
 40
9.0
 40
9.0
 40
10.0
 40
10.0
 40
10.0
 40
11.0
 40
11.0
 40
11.0
 40
12.0
 40
12.0
 40
12.0
 40
13.0
 40
13.0
 40
13.0
 40
14.0
 40
14.0
 40
14.0
 40
15.0
 40
15.0
 40
15.0
 40
16.0
 40
16.0
 40
16.0
 40
17.0
 40
17.0
 40
17.0
 40
18.0
 40
18.0
 40
18.0
 40
18.0
 10
49.39440104166666
 20
189.0932159288193
 10
49.39440104166666
 20
189.0932159288193
 10
51.24786241319444
 20
189.0932159288193
 10
51.24786241319444
 20
189.0932159288193
 10
51.24786241319444
 20
189.0932159288193
 10
54.04665798611111
 20
172.3887471788193
 10
54.04665798611111
 20
172.3887471788193
 10
54.04665798611111
 20
172.3887471788193
 10
56.83994140624999
 20
189.0932159288193
 10
56.83994140624999
 20
189.0932159288193
 10
56.83994140624999
 20
189.0932159288193
 10
58.69891493055554
 20
189.0932159288193
 10
58.69891493055554
 20
189.0932159288193
 10
58.69891493055554
 20
189.0932159288193
 10
58.69891493055554
 20
169.3358964843748
 10
58.69891493055554
 20
169.3358964843748
 10
58.69891493055554
 20
169.3358964843748
 10
57.46419270833333
 20
169.3358964843748
 10
57.46419270833333
 20
169.3358964843748
 10
57.46419270833333
 20
169.3358964843748
 10
57.46419270833333
 20
180.9964422743054
 10
57.46419270833333
 20
180.9964422743054
 10
57.46419270833333
 20
181.3996011284721
 10
57.47108289930555
 20
182.0677291666664
 10
57.48624131944444
 20
183.0001924913193
 10
57.50071072048609
 20
183.9326558159721
 10
57.50828993055554
 20
184.932312282986
 10
57.50828993055554
 20
185.9997957899304
 10
57.50828993055554
 20
185.9997957899304
 10
54.700537109375
 20
169.3358964843748
 10
54.700537109375
 20
169.3358964843748
 10
54.700537109375
 20
169.3358964843748
 10
53.38382161458333
 20
169.3358964843748
 10
53.38382161458333
 20
169.3358964843748
 10
53.38382161458333
 20
169.3358964843748
 10
50.58502604166665
 20
185.9997957899304
 10
50.58502604166665
 20
185.9997957899304
 10
50.58502604166665
 20
185.9997957899304
 10
50.58502604166665
 20
185.3944236111109
 10
50.58502604166665
 20
185.3944236111109
 10
50.58502604166665
 20
184.9101258680554
 10
50.59191623263888
 20
184.1729029947915
 10
50.60707465277777
 20
183.1821210937498
 10
50.62154405381943
 20
182.1913391927082
 10
50.62912326388889
 20
181.4629908854165
 10
50.62912326388889
 20
180.9964422743054
 10
50.62912326388889
 20
180.9964422743054
 10
50.62912326388889
 20
169.3358964843748
 10
50.62912326388889
 20
169.3358964843748
 10
50.62912326388889
 20
169.3358964843748
 10
49.39440104166666
 20
169.3358964843748
 10
49.39440104166666
 20
169.3358964843748
 10
49.39440104166666
 20
169.3358964843748
 10
49.39440104166666
 20
189.0932159288193
 10
49.39440104166666
 20
189.0932159288193
 97
        1
330
24C4
 75
     0
 76
     1
 98
        1
 10
0.0
 20
0.0
  0
HATCH
  5
24DD
330
24BF
100
AcDbEntity
  8
0
  6
Continuous
100
AcDbHatch
 10
0.0
 20
0.0
 30
0.0
210
0.0
220
0.0
230
1.0
  2
SOLID
 70
     1
 71
     1
 91
        2
 92
       16
 93
        1
 72
     4
 94
        3
 73
     0
 74
     0
 95
       32
 96
       28
 40
0.0
 40
0.0
 40
0.0
 40
0.0
 40
1.0
 40
1.0
 40
1.0
 40
2.0
 40
2.0
 40
2.0
 40
3.0
 40
3.0
 40
3.0
 40
4.0
 40
4.0
 40
4.0
 40
5.0
 40
5.0
 40
5.0
 40
6.0
 40
6.0
 40
6.0
 40
7.0
 40
7.0
 40
7.0
 40
8.0
 40
8.0
 40
8.0
 40
9.0
 40
9.0
 40
9.0
 40
9.0
 10
91.70051812065969
 20
171.6077853732636
 10
91.70051812065969
 20
171.6077853732636
 10
91.70051812065969
 20
186.7401881510414
 10
91.70051812065969
 20
186.7401881510414
 10
91.70051812065969
 20
186.7401881510414
 10
93.98668348524305
 20
186.7401881510414
 10
93.98668348524305
 20
186.7401881510414
 10
95.02159016927082
 20
186.7401881510414
 10
95.77331000434028
 20
186.0644533420137
 10
96.24322102864582
 20
184.7142515190969
 10
96.71313205295138
 20
183.3640496961804
 10
96.94808756510417
 20
181.4680620659721
 10
96.94808756510417
 20
179.026288628472
 10
96.94808756510417
 20
178.3911232638887
 10
96.91432562934028
 20
177.7027105034721
 10
96.84749077690971
 20
176.9604164496525
 10
96.7324245876736
 20
175.7167094184025
 10
96.55052354600693
 20
174.6974021267359
 10
96.30109863281248
 20
173.9018606770831
 10
95.98414984809028
 20
172.9091770833332
 10
95.57693956163193
 20
172.2378795572914
 10
95.07877875434026
 20
171.8892358940971
 10
94.79076877170138
 20
171.7016022135415
 10
94.43178982204859
 20
171.6077853732636
 10
94.00115288628471
 20
171.6077853732636
 10
94.00115288628471
 20
171.6077853732636
 10
91.70051812065969
 20
171.6077853732636
 10
91.70051812065969
 20
171.6077853732636
 97
        1
330
24C9
 92
        1
 93
        1
 72
     4
 94
        3
 73
     0
 74
     0
 95
       26
 96
       22
 40
0.0
 40
0.0
 40
0.0
 40
0.0
 40
1.0
 40
1.0
 40
1.0
 40
2.0
 40
2.0
 40
2.0
 40
3.0
 40
3.0
 40
3.0
 40
4.0
 40
4.0
 40
4.0
 40
5.0
 40
5.0
 40
5.0
 40
6.0
 40
6.0
 40
6.0
 40
7.0
 40
7.0
 40
7.0
 40
7.0
 10
90.37760145399305
 20
169.3358964843748
 10
90.37760145399305
 20
169.3358964843748
 10
94.22990722656248
 20
169.3358964843748
 10
94.22990722656248
 20
169.3358964843748
 10
95.87115071614581
 20
169.3358964843748
 10
97.03008083767359
 20
170.8331625434026
 10
97.70600857204859
 20
173.8283285590275
 10
98.08221299913194
 20
175.5227367621525
 10
98.27100423177082
 20
177.4187243923609
 10
98.27100423177082
 20
179.5169253472221
 10
98.27100423177082
 20
182.233810329861
 10
97.94716525607638
 20
184.4619602864582
 10
97.30086534288195
 20
186.2013752170136
 10
96.57601725260416
 20
188.1290577256942
 10
95.5576470269097
 20
189.0932159288193
 10
94.24437662760416
 20
189.0932159288193
 10
94.24437662760416
 20
189.0932159288193
 10
90.37760145399305
 20
189.0932159288193
 10
90.37760145399305
 20
189.0932159288193
 10
90.37760145399305
 20
189.0932159288193
 10
90.37760145399305
 20
169.3358964843748
 10
90.37760145399305
 20
169.3358964843748
 97
        0
 75
     0
 76
     1
 98
        0
  0
HATCH
  5
24DE
330
24BF
100
AcDbEntity
  8
0
  6
Continuous
100
AcDbHatch
 10
0.0
 20
0.0
 30
0.0
210
0.0
220
0.0
230
1.0
  2
SOLID
 70
     1
 71
     1
 91
        2
 92
       16
 93
        1
 72
     4
 94
        3
 73
     0
 74
     0
 95
       26
 96
       22
 40
0.0
 40
0.0
 40
0.0
 40
0.0
 40
1.0
 40
1.0
 40
1.0
 40
2.0
 40
2.0
 40
2.0
 40
3.0
 40
3.0
 40
3.0
 40
4.0
 40
4.0
 40
4.0
 40
5.0
 40
5.0
 40
5.0
 40
6.0
 40
6.0
 40
6.0
 40
7.0
 40
7.0
 40
7.0
 40
7.0
 10
100.5623372395832
 20
180.0462298177081
 10
100.5623372395832
 20
180.0462298177081
 10
100.5623372395832
 20
186.7401881510414
 10
100.5623372395832
 20
186.7401881510414
 10
100.5623372395832
 20
186.7401881510414
 10
103.6732584635416
 20
186.7401881510414
 10
103.6732584635416
 20
186.7401881510414
 10
104.1107855902777
 20
186.7401881510414
 10
104.4580512152777
 20
186.6064357638887
 10
104.7150553385415
 20
186.3401987847219
 10
105.2097710503471
 20
185.8330807291664
 10
105.4571289062498
 20
184.8822343749997
 10
105.4571289062498
 20
183.4863919270832
 10
105.4571289062498
 20
182.188169704861
 10
105.280740017361
 20
181.2905707465276
 10
104.9286512586804
 20
180.7929611545137
 10
104.5765624999999
 20
180.2947176649304
 10
104.1011393229166
 20
180.0462298177081
 10
103.5023817274304
 20
180.0462298177081
 10
103.5023817274304
 20
180.0462298177081
 10
100.5623372395832
 20
180.0462298177081
 10
100.5623372395832
 20
180.0462298177081
 97
        1
330
24CA
 92
        1
 93
        1
 72
     4
 94
        3
 73
     0
 74
     0
 95
       68
 96
       64
 40
0.0
 40
0.0
 40
0.0
 40
0.0
 40
1.0
 40
1.0
 40
1.0
 40
2.0
 40
2.0
 40
2.0
 40
3.0
 40
3.0
 40
3.0
 40
4.0
 40
4.0
 40
4.0
 40
5.0
 40
5.0
 40
5.0
 40
6.0
 40
6.0
 40
6.0
 40
7.0
 40
7.0
 40
7.0
 40
8.0
 40
8.0
 40
8.0
 40
9.0
 40
9.0
 40
9.0
 40
10.0
 40
10.0
 40
10.0
 40
11.0
 40
11.0
 40
11.0
 40
12.0
 40
12.0
 40
12.0
 40
13.0
 40
13.0
 40
13.0
 40
14.0
 40
14.0
 40
14.0
 40
15.0
 40
15.0
 40
15.0
 40
16.0
 40
16.0
 40
16.0
 40
17.0
 40
17.0
 40
17.0
 40
18.0
 40
18.0
 40
18.0
 40
19.0
 40
19.0
 40
19.0
 40
20.0
 40
20.0
 40
20.0
 40
21.0
 40
21.0
 40
21.0
 40
21.0
 10
99.23942057291661
 20
169.3358964843748
 10
99.23942057291661
 20
169.3358964843748
 10
100.5623372395832
 20
169.3358964843748
 10
100.5623372395832
 20
169.3358964843748
 10
100.5623372395832
 20
169.3358964843748
 10
100.5623372395832
 20
177.8149103732637
 10
100.5623372395832
 20
177.8149103732637
 10
100.5623372395832
 20
177.8149103732637
 10
103.4472601996527
 20
177.8149103732637
 10
103.4472601996527
 20
177.8149103732637
 10
103.9681586371527
 20
177.8149103732637
 10
104.3519422743053
 20
177.6938359374998
 10
104.5986111111109
 20
177.451687065972
 10
105.0244249131943
 20
177.0117621527776
 10
105.2518012152777
 20
176.1458580729164
 10
105.280740017361
 20
174.8539748263887
 10
105.280740017361
 20
174.8539748263887
 10
105.3689344618053
 20
171.5564396701386
 10
105.3689344618053
 20
171.5564396701386
 10
105.3882269965277
 20
170.7843524305554
 10
105.4109646267359
 20
170.2639225260415
 10
105.4357693142359
 20
169.9951499565971
 10
105.4605740017359
 20
169.7257434895831
 10
105.4970920138888
 20
169.5057810329859
 10
105.5467013888887
 20
169.3358964843748
 10
105.5467013888887
 20
169.3358964843748
 10
107.1769205729166
 20
169.3358964843748
 10
107.1769205729166
 20
169.3358964843748
 10
107.1769205729166
 20
169.3358964843748
 10
107.1769205729166
 20
169.7821603732636
 10
107.1769205729166
 20
169.7821603732636
 10
106.9750379774303
 20
169.9609194878471
 10
106.8337890624998
 20
170.3628105468748
 10
106.7538628472221
 20
170.9878335503471
 10
106.7028754340275
 20
171.3542263454858
 10
106.6677354600692
 20
171.9120562065971
 10
106.6477539062498
 20
172.6625909288193
 10
106.6477539062498
 20
172.6625909288193
 10
106.6036566840277
 20
175.3205234374999
 10
106.6036566840277
 20
175.3205234374999
 10
106.5836751302082
 20
176.4716814236109
 10
106.4768771701387
 20
177.3033550347219
 10
106.2839518229166
 20
177.8142764756942
 10
106.0903374565971
 20
178.3251979166665
 10
105.8002604166666
 20
178.7372313368054
 10
105.4130316840277
 20
179.0516445312498
 10
105.8443576388887
 20
179.5086846788193
 10
106.179909939236
 20
180.1134229600693
 10
106.4196885850692
 20
180.8664932725692
 10
106.6594672309027
 20
181.6189296874999
 10
106.7800455729166
 20
182.5868912760414
 10
106.7800455729166
 20
183.7697441406248
 10
106.7800455729166
 20
186.0371957465275
 10
106.3328721788193
 20
187.5921464843749
 10
105.4392144097221
 20
188.4345963541665
 10
104.9679253472221
 20
188.8732534722221
 10
104.3719238281249
 20
189.0932159288193
 10
103.6512098524303
 20
189.0932159288193
 10
103.6512098524303
 20
189.0932159288193
 10
99.23942057291661
 20
189.0932159288193
 10
99.23942057291661
 20
189.0932159288193
 10
99.23942057291661
 20
189.0932159288193
 10
99.23942057291661
 20
169.3358964843748
 10
99.23942057291661
 20
169.3358964843748
 97
        0
 75
     0
 76
     1
 98
        0
  0
HATCH
  5
24DF
330
24BF
100
AcDbEntity
  8
0
  6
Continuous
100
AcDbHatch
 10
0.0
 20
0.0
 30
0.0
210
0.0
220
0.0
230
1.0
  2
SOLID
 70
     1
 71
     1
 91
        2
 92
        1
 93
        8
 72
     1
 10
35.47828233506943
 20
189.0932159288193
 11
31.83957248263888
 21
169.3358964843748
 72
     1
 10
31.83957248263888
 20
169.3358964843748
 11
33.22450086805555
 21
169.3358964843748
 72
     1
 10
33.22450086805555
 20
169.3358964843748
 11
34.27043185763887
 21
175.2590353732638
 72
     1
 10
34.27043185763887
 20
175.2590353732638
 11
38.04694552951389
 21
175.2590353732638
 72
     1
 10
38.04694552951389
 20
175.2590353732638
 11
39.05015733506942
 21
169.3358964843748
 72
     1
 10
39.05015733506942
 20
169.3358964843748
 11
40.43508572048611
 21
169.3358964843748
 72
     1
 10
40.43508572048611
 20
169.3358964843748
 11
36.952783203125
 21
189.0932159288193
 72
     1
 10
36.952783203125
 20
189.0932159288193
 11
35.47828233506943
 21
189.0932159288193
 97
        8
330
24DA
330
24D3
330
24D4
330
24D5
330
24D6
330
24D7
330
24D8
330
24D9
 92
       16
 93
        3
 72
     1
 10
37.67556423611111
 20
177.4497853732638
 11
34.65766059027778
 21
177.4497853732638
 72
     1
 10
34.65766059027778
 20
177.4497853732638
 11
36.19830729166666
 21
186.1658769531249
 72
     1
 10
36.19830729166666
 20
186.1658769531249
 11
37.67556423611111
 21
177.4497853732638
 97
        3
330
24D2
330
24D0
330
24D1
 75
     0
 76
     1
 98
        1
 10
0.0
 20
0.0
  0
HATCH
  5
24E0
330
24BF
100
AcDbEntity
  8
0
  6
Continuous
100
AcDbHatch
 10
0.0
 20
0.0
 30
0.0
210
0.0
220
0.0
230
1.0
  2
SOLID
 70
     1
 71
     1
 91
        1
 92
        1
 93
        1
 72
     4
 94
        3
 73
     0
 74
     0
 95
      113
 96
      109
 40
0.0
 40
0.0
 40
0.0
 40
0.0
 40
1.0
 40
1.0
 40
1.0
 40
2.0
 40
2.0
 40
2.0
 40
3.0
 40
3.0
 40
3.0
 40
4.0
 40
4.0
 40
4.0
 40
5.0
 40
5.0
 40
5.0
 40
6.0
 40
6.0
 40
6.0
 40
7.0
 40
7.0
 40
7.0
 40
8.0
 40
8.0
 40
8.0
 40
9.0
 40
9.0
 40
9.0
 40
10.0
 40
10.0
 40
10.0
 40
11.0
 40
11.0
 40
11.0
 40
12.0
 40
12.0
 40
12.0
 40
13.0
 40
13.0
 40
13.0
 40
14.0
 40
14.0
 40
14.0
 40
15.0
 40
15.0
 40
15.0
 40
16.0
 40
16.0
 40
16.0
 40
17.0
 40
17.0
 40
17.0
 40
18.0
 40
18.0
 40
18.0
 40
19.0
 40
19.0
 40
19.0
 40
20.0
 40
20.0
 40
20.0
 40
21.0
 40
21.0
 40
21.0
 40
22.0
 40
22.0
 40
22.0
 40
23.0
 40
23.0
 40
23.0
 40
24.0
 40
24.0
 40
24.0
 40
25.0
 40
25.0
 40
25.0
 40
26.0
 40
26.0
 40
26.0
 40
27.0
 40
27.0
 40
27.0
 40
28.0
 40
28.0
 40
28.0
 40
29.0
 40
29.0
 40
29.0
 40
30.0
 40
30.0
 40
30.0
 40
31.0
 40
31.0
 40
31.0
 40
32.0
 40
32.0
 40
32.0
 40
33.0
 40
33.0
 40
33.0
 40
34.0
 40
34.0
 40
34.0
 40
35.0
 40
35.0
 40
35.0
 40
36.0
 40
36.0
 40
36.0
 40
36.0
 10
193.3039632161458
 20
186.1548733181423
 10
193.3039632161458
 20
186.1860514322916
 10
193.3039632161458
 20
219.6932223849826
 10
193.3039632161458
 20
219.6932223849826
 10
193.3039632161458
 20
219.6932223849826
 10
193.2974175347219
 20
219.7488606770833
 10
193.2974175347219
 20
219.7488606770833
 10
191.5293945312499
 20
235.455740017361
 10
175.1458984374999
 20
235.2467949761284
 10
174.9808783637151
 20
235.2428331163193
 10
174.9808783637151
 20
235.2428331163193
 10
125.8827555338541
 20
235.2430053710937
 10
125.8827555338541
 20
235.2430053710937
 10
125.8827555338541
 20
235.2430053710937
 10
125.8827555338541
 20
255.5278998480901
 10
125.8827555338541
 20
255.5278998480901
 10
125.8827555338541
 20
255.5278998480901
 10
84.5626247829861
 20
255.5278998480901
 10
84.5626247829861
 20
255.5278998480901
 10
84.5626247829861
 20
255.5278998480901
 10
84.55711263020829
 20
233.7919311523436
 10
84.55711263020829
 20
233.7919311523436
 10
84.55711263020829
 20
233.7919311523436
 10
64.42052951388888
 20
233.7919311523436
 10
64.42052951388888
 20
233.7919311523436
 10
64.42052951388888
 20
233.7919311523436
 10
64.41501736111111
 20
255.5278998480901
 10
64.41501736111111
 20
255.5278998480901
 10
64.41501736111111
 20
255.5278998480901
 10
23.91757541232637
 20
255.5278998480901
 10
23.91757541232637
 20
255.5278998480901
 10
23.91757541232637
 20
255.5278998480901
 10
23.91757541232637
 20
233.2393378363715
 10
23.91757541232637
 20
233.2393378363715
 10
23.91757541232637
 20
233.2393378363715
 10
43.65624999999999
 20
233.2393378363715
 10
43.65624999999999
 20
233.2393378363715
 10
43.65624999999999
 20
233.2393378363715
 10
43.65624999999999
 20
211.5188720703125
 10
43.65624999999999
 20
211.5188720703125
 10
43.65624999999999
 20
211.5188720703125
 10
23.91757541232637
 20
211.5188720703125
 10
23.91757541232637
 20
211.5188720703125
 10
23.91757541232637
 20
211.5188720703125
 10
23.91757541232637
 20
189.2303100585936
 10
23.91757541232637
 20
189.2303100585936
 10
23.91757541232637
 20
189.2303100585936
 10
64.41501736111111
 20
189.2303100585936
 10
64.41501736111111
 20
189.2303100585936
 10
64.41501736111111
 20
189.2303100585936
 10
64.42052951388888
 20
211.069976128472
 10
64.42052951388888
 20
211.069976128472
 10
64.42052951388888
 20
211.069976128472
 10
84.55711263020829
 20
211.069976128472
 10
84.55711263020829
 20
211.069976128472
 10
84.55711263020829
 20
211.069976128472
 10
84.5626247829861
 20
189.2303100585936
 10
84.5626247829861
 20
189.2303100585936
 10
84.5626247829861
 20
189.2303100585936
 10
125.8827555338541
 20
189.2303100585936
 10
125.8827555338541
 20
189.2303100585936
 10
125.8827555338541
 20
189.2303100585936
 10
125.8827555338541
 20
211.5188720703125
 10
125.8827555338541
 20
211.5188720703125
 10
125.8827555338541
 20
211.5188720703125
 10
105.3213921440971
 20
211.5188720703125
 10
105.3213921440971
 20
211.5188720703125
 10
105.3213921440971
 20
211.5188720703125
 10
105.3213921440971
 20
233.2393378363715
 10
105.3213921440971
 20
233.2393378363715
 10
105.3213921440971
 20
233.2393378363715
 10
175.0046495225693
 20
233.243127441406
 10
175.0046495225693
 20
233.243127441406
 10
175.6268337673611
 20
233.2560465494791
 10
189.7165852864583
 20
233.3962619357638
 10
191.3037407769094
 20
219.5690266927083
 10
191.3037407769094
 20
219.4332899305555
 10
191.3037407769094
 20
186.1142211914062
 10
191.3037407769094
 20
186.1142211914062
 10
191.3037407769094
 20
186.1142211914062
 10
191.3051188151039
 20
186.0880384657115
 10
191.3051188151039
 20
186.0880384657115
 10
191.3054633246526
 20
186.0787367078991
 10
191.3109754774304
 20
185.9566080729166
 10
191.3109754774304
 20
185.7399115668401
 10
191.3109754774304
 20
184.2090833875865
 10
191.0488037109374
 20
177.9643310546874
 10
186.9866916232638
 20
173.5652886284722
 10
184.2540418836804
 20
170.6064683702255
 10
180.3224989149304
 20
169.0308539496526
 10
175.300927734375
 20
168.8825425889756
 10
175.300927734375
 20
168.8825425889756
 10
107.0094889322916
 20
168.8828870985243
 10
107.0094889322916
 20
168.8828870985243
 10
107.0094889322916
 20
168.8828870985243
 10
107.0094889322916
 20
166.8830091688368
 10
107.0094889322916
 20
166.8830091688368
 10
107.0094889322916
 20
166.8830091688368
 10
175.3305555555555
 20
166.8830091688368
 10
175.3305555555555
 20
166.8830091688368
 10
180.9467502170138
 20
167.0485460069444
 10
185.3571614583333
 20
168.8448187934026
 10
188.4687717013888
 20
172.2223904079861
 10
192.9649658203124
 20
177.1034016927083
 10
193.3136094835069
 20
183.7202243381076
 10
193.3136094835069
 20
185.6520616319443
 10
193.3136094835069
 20
185.9247409396701
 10
193.3070638020833
 20
186.0868326822916
 10
193.3039632161458
 20
186.1548733181423
 97
        1
330
24C0
 75
     0
 76
     1
 98
        1
 10
0.0
 20
0.0
  0
HATCH
  5
24E1
330
24BF
100
AcDbEntity
  8
0
  6
Continuous
100
AcDbHatch
 10
0.0
 20
0.0
 30
0.0
210
0.0
220
0.0
230
1.0
  2
SOLID
 70
     1
 71
     1
 91
        2
 92
        1
 93
        1
 72
     4
 94
        3
 73
     0
 74
     0
 95
       23
 96
       19
 40
0.0
 40
0.0
 40
0.0
 40
0.0
 40
1.0
 40
1.0
 40
1.0
 40
2.0
 40
2.0
 40
2.0
 40
3.0
 40
3.0
 40
3.0
 40
4.0
 40
4.0
 40
4.0
 40
5.0
 40
5.0
 40
5.0
 40
6.0
 40
6.0
 40
6.0
 40
6.0
 10
148.6593153211804
 20
211.3929538302949
 10
148.6593153211804
 20
211.3929538302949
 10
148.6593153211804
 20
189.630802408854
 10
148.6593153211804
 20
189.630802408854
 10
148.6593153211804
 20
189.630802408854
 10
161.3152180989583
 20
189.630802408854
 10
161.3152180989583
 20
189.630802408854
 10
162.8431179470484
 20
189.630802408854
 10
170.4657362196179
 20
190.1880466037324
 10
170.4657362196179
 20
201.1911648220484
 10
170.4657362196179
 20
211.1288872612845
 10
162.3356553819444
 20
211.3914035373261
 10
162.2536621093749
 20
211.3927815755205
 10
162.2536621093749
 20
211.3927815755205
 10
149.6594265407986
 20
211.3929538302949
 10
149.6594265407986
 20
211.3929538302949
 10
149.6594265407986
 20
211.3929538302949
 10
148.6593153211804
 20
211.3929538302949
 10
148.6593153211804
 20
211.3929538302949
 97
        1
330
24C1
 92
       16
 93
        1
 72
     4
 94
        3
 73
     0
 74
     0
 95
       20
 96
       16
 40
0.0
 40
0.0
 40
0.0
 40
0.0
 40
1.0
 40
1.0
 40
1.0
 40
2.0
 40
2.0
 40
2.0
 40
3.0
 40
3.0
 40
3.0
 40
4.0
 40
4.0
 40
4.0
 40
5.0
 40
5.0
 40
5.0
 40
5.0
 10
162.2354031032985
 20
209.3930759006075
 10
162.467947048611
 20
209.3861857096352
 10
168.4655137803819
 20
209.1283203124997
 10
168.4655137803819
 20
201.1911648220484
 10
168.4655137803819
 20
192.3202162000866
 10
162.9926350911458
 20
191.6306803385414
 10
161.3152180989583
 20
191.6306803385414
 10
161.3152180989583
 20
191.6306803385414
 10
152.3310980902776
 20
191.6306803385414
 10
150.6595377604166
 20
191.6306803385414
 10
150.6595377604166
 20
193.3373806423609
 10
150.6595377604166
 20
207.686375596788
 10
150.6595377604166
 20
209.3930759006075
 10
152.353835720486
 20
209.3930759006075
 10
162.2354031032985
 20
209.3930759006075
 10
162.2354031032985
 20
209.3930759006075
 97
        0
 75
     0
 76
     1
 98
        0
  0
ENDBLK
  5
24E3
330
24BF
100
AcDbEntity
  8
0
100
AcDbBlockEnd
  0
BLOCK
  5
24E6
330
24E4
100
AcDbEntity
  8
0
100
AcDbBlockBegin
  2
HD logo-new
 70
     0
 10
0.0
 20
0.0
 30
0.0
  3
HD logo-new
  1

  0
INSERT
  5
24E5
330
24E4
100
AcDbEntity
  8
0
 62
     3
100
AcDbBlockReference
  2
HD_LLC_logo_OT5
 10
-27.1607188578505
 20
-68.37367811463031
 30
0.0
 41
0.2999999999999971
 42
0.3000000000000007
 43
0.3
  0
ENDBLK
  5
24E7
330
24E4
100
AcDbEntity
  8
0
100
AcDbBlockEnd
  0
BLOCK
  5
24EA
330
24E8
100
AcDbEntity
  8
0
100
AcDbBlockBegin
  2
HD Logo
 70
     0
 10
0.0
 20
0.0
 30
0.0
  3
HD Logo
  1

  0
INSERT
  5
24E9
330
24E8
100
AcDbEntity
  8
0
100
AcDbBlockReference
  2
HD logo-new
 10
0.9700256734946606
 20
7.273795608420527
 30
0.0
  0
ENDBLK
  5
24EB
330
24E8
100
AcDbEntity
  8
0
100
AcDbBlockEnd
  0
BLOCK
  5
250B
330
2509
100
AcDbEntity
  8
0
100
AcDbBlockBegin
  2
Harmonic Drive LLC
 70
     0
 10
0.0
 20
0.0
 30
0.0
  3
Harmonic Drive LLC
  1

  0
MTEXT
  5
250A
330
2509
100
AcDbEntity
  8
0
100
AcDbMText
 10
8.730232253264317
 20
-1.454758693481394
 30
0.0
 40
5.25
 41
158.5992
 71
     5
 72
     5
  1
{\fArial|b0|i0|c0|p34;Harmonic Drive LLC\P800-921-3332\Pwww.harmonicdrive.net}
 73
     1
 44
1.0
  0
ENDBLK
  5
250C
330
2509
100
AcDbEntity
  8
0
100
AcDbBlockEnd
  0
BLOCK
  5
251E
330
251C
100
AcDbEntity
  8
0
100
AcDbBlockBegin
  2
HD LLC
 70
     0
 10
0.0
 20
0.0
 30
0.0
  3
HD LLC
  1

  0
MTEXT
  5
251D
330
251C
100
AcDbEntity
  8
0
100
AcDbMText
 10
-2.314970886968865
 20
1.247205085865914
 30
0.0
 40
5.675387507387601
 41
236.1828726592229
 71
     5
 72
     5
  1
Harmonic Drive LLC\P800-921-3332\Pwww.harmonicdrive.net
 73
     1
 44
1.0
  0
ENDBLK
  5
251F
330
251C
100
AcDbEntity
  8
0
100
AcDbBlockEnd
  0
BLOCK
  5
252A
330
2527
100
AcDbEntity
  8
0
100
AcDbBlockBegin
  2
NTC
 70
     0
 10
0.0
 20
0.0
 30
0.0
  3
NTC
  1

  0
LWPOLYLINE
  5
2528
330
2527
100
AcDbEntity
  8
0
100
AcDbPolyline
 90
        8
 70
     1
 43
0.0
 10
4.581008201925953
 20
-10.78862239032818
 10
319.3921777697513
 20
-10.78862239032818
 42
-0.4142135623730951
 10
324.9046777697513
 20
-16.30112239032816
 10
324.9046777697513
 20
-117.4075202476924
 42
-0.4142135623730951
 10
319.3921777697513
 20
-122.9200202476925
 10
4.581008201925838
 20
-122.9200202476925
 42
-0.4142135623730951
 10
-0.9314917980741483
 20
-117.4075202476924
 10
-0.9314917980740915
 20
-16.30112239032816
 42
-0.4142135623730951
  0
MTEXT
  5
2529
330
2527
100
AcDbEntity
  8
0
  6
Continuous
370
    30
100
AcDbMText
 10
21.65307678143926
 20
-17.4535155144544
 30
0.0
 40
8.75
 41
294.5432999999998
 71
     1
 72
     5
  3
{\fTxt|b1|i0|c0|p2;Notice:\P\Ftxt.shx;\H0.5714x;All specifications and dimensions shown in the drawing are subject to change without notice. This drawing is the property of Harmonic Drive LLC.   This data is believed to be accurate, however, Harmonic
  1
 Drive LLC assumes no liability for any errors or omissions in the specifications, models, or drawings.\P\PHarmonic Drive LLC\PTel: 800-921-3332\Pwww.harmonicdrive.net}
 73
     1
 44
1.0
  0
ENDBLK
  5
252B
330
2527
100
AcDbEntity
  8
0
100
AcDbBlockEnd
  0
ENDSEC
  0
SECTION
  2
ENTITIES
  0
LINE
  5
2238
330
221A
100
AcDbEntity
  8
0
 62
     7
100
AcDbLine
 10
239.3297203790361
 20
224.9595361824041
 30
0.0
 11
239.3297203790361
 21
223.5790746675714
 31
0.0
  0
LINE
  5
2239
330
221A
100
AcDbEntity
  8
0
 62
     7
100
AcDbLine
 10
239.3297203790361
 20
223.5790746675714
 30
0.0
 11
240.5257210902528
 21
223.5790746675714
 31
0.0
  0
LINE
  5
223A
330
221A
100
AcDbEntity
  8
0
 62
     7
100
AcDbLine
 10
240.8881455481894
 20
223.941499125522
 30
0.0
 11
240.8881455481894
 21
224.6788960886509
 31
0.0
  0
LINE
  5
223B
330
221A
100
AcDbEntity
  8
0
 62
     7
100
AcDbLine
 10
238.9672959210943
 20
224.9595361824041
 30
0.0
 11
238.9672959210943
 21
223.5790746675714
 31
0.0
  0
LINE
  5
223C
330
221A
100
AcDbEntity
  8
0
 62
     7
100
AcDbLine
 10
238.9672959210943
 20
223.5790746675714
 30
0.0
 11
237.7712952098788
 21
223.5790746675714
 31
0.0
  0
LINE
  5
223D
330
221A
100
AcDbEntity
  8
0
 62
     7
100
AcDbLine
 10
237.4088707519466
 20
223.941499125522
 30
0.0
 11
237.4088707519466
 21
224.6788960886509
 31
0.0
  0
LINE
  5
223E
330
221A
100
AcDbEntity
  8
1
 62
     7
100
AcDbLine
 10
175.678896386316
 20
243.2065501107173
 30
0.0
 11
176.2788963863158
 21
243.2065501107173
 31
0.0
  0
LINE
  5
223F
330
221A
100
AcDbEntity
  8
1
 62
     7
100
AcDbLine
 10
176.2788963863158
 20
241.7565501107171
 30
0.0
 11
176.2788963863158
 21
243.2065501107173
 31
0.0
  0
LINE
  5
2240
330
221A
100
AcDbEntity
  8
1
 62
     7
100
AcDbLine
 10
176.2788963863158
 20
241.7565501107171
 30
0.0
 11
175.5588963863158
 21
241.7565501107171
 31
0.0
  0
LINE
  5
2241
330
221A
100
AcDbEntity
  8
1
 62
     7
100
AcDbLine
 10
175.5588963863158
 20
241.7565501107171
 30
0.0
 11
175.678896386316
 21
242.7338716820742
 31
0.0
  0
LINE
  5
2242
330
221A
100
AcDbEntity
  8
1
 62
     7
100
AcDbLine
 10
175.678896386316
 20
242.7338716820742
 30
0.0
 11
175.678896386316
 21
243.2065501107173
 31
0.0
  0
LINE
  5
2243
330
221A
100
AcDbEntity
  8
1
 62
     7
100
AcDbLine
 10
176.2788963863158
 20
243.2065501107173
 30
0.0
 11
176.6352508237118
 21
243.1941059395512
 31
0.0
  0
LINE
  5
2244
330
221A
100
AcDbEntity
  8
1
 62
     7
100
AcDbLine
 10
176.2788963863158
 20
241.7565501107171
 30
0.0
 11
176.5980506259286
 21
241.7676952223511
 31
0.0
  0
LINE
  5
2245
330
221A
100
AcDbEntity
  8
1
 62
     7
100
AcDbLine
 10
178.9588963863159
 20
243.1129624484789
 30
0.0
 11
178.5530002848315
 21
243.127136652677
 31
0.0
  0
LINE
  5
2246
330
221A
100
AcDbEntity
  8
1
 62
     7
100
AcDbLine
 10
178.9588963863159
 20
241.8501377729551
 30
0.0
 11
178.9588963863159
 21
243.1129624484789
 31
0.0
  0
LINE
  5
2247
330
221A
100
AcDbEntity
  8
1
 62
     7
100
AcDbLine
 10
178.5866429024538
 20
241.8371383948524
 30
0.0
 11
178.9588963863159
 21
241.8501377729551
 31
0.0
  0
LINE
  5
2248
330
221A
100
AcDbEntity
  8
1
 62
     7
100
AcDbLine
 10
178.9588963863159
 20
219.0629624484794
 30
0.0
 11
178.5866429024538
 21
219.0759618265816
 31
0.0
  0
LINE
  5
2249
330
221A
100
AcDbEntity
  8
1
 62
     7
100
AcDbLine
 10
178.9588963863159
 20
217.800137772955
 30
0.0
 11
178.9588963863159
 21
219.0629624484794
 31
0.0
  0
LINE
  5
224A
330
221A
100
AcDbEntity
  8
1
 62
     7
100
AcDbLine
 10
178.5530002848315
 20
217.7859635687575
 30
0.0
 11
178.9588963863159
 21
217.800137772955
 31
0.0
  0
LINE
  5
224B
330
221A
100
AcDbEntity
  8
1
 62
     7
100
AcDbLine
 10
176.5980506259286
 20
219.1454049990835
 30
0.0
 11
176.2788963863158
 21
219.1565501107171
 31
0.0
  0
LINE
  5
224C
330
221A
100
AcDbEntity
  8
1
 62
     7
100
AcDbLine
 10
176.6352508237118
 20
217.7189942818828
 30
0.0
 11
176.2788963863158
 21
217.7065501107172
 31
0.0
  0
LINE
  5
224D
330
221A
100
AcDbEntity
  8
1
 62
     7
100
AcDbLine
 10
175.678896386316
 20
217.7065501107172
 30
0.0
 11
175.678896386316
 21
218.1792285393604
 31
0.0
  0
LINE
  5
224E
330
221A
100
AcDbEntity
  8
1
 62
     7
100
AcDbLine
 10
175.678896386316
 20
218.1792285393604
 30
0.0
 11
175.5588963863158
 21
219.1565501107171
 31
0.0
  0
LINE
  5
224F
330
221A
100
AcDbEntity
  8
1
 62
     7
100
AcDbLine
 10
175.5588963863158
 20
219.1565501107171
 30
0.0
 11
176.2788963863158
 21
219.1565501107171
 31
0.0
  0
LINE
  5
2250
330
221A
100
AcDbEntity
  8
1
 62
     7
100
AcDbLine
 10
176.2788963863158
 20
217.7065501107172
 30
0.0
 11
176.2788963863158
 21
219.1565501107171
 31
0.0
  0
LINE
  5
2251
330
221A
100
AcDbEntity
  8
1
 62
     7
100
AcDbLine
 10
176.2788963863158
 20
217.7065501107172
 30
0.0
 11
175.678896386316
 21
217.7065501107172
 31
0.0
  0
LINE
  5
2256
330
221A
100
AcDbEntity
  8
1
 62
     7
100
AcDbLine
 10
175.4695213863159
 20
244.0875501107173
 30
0.0
 11
177.5695213863159
 21
244.0875501107173
 31
0.0
  0
LINE
  5
2257
330
221A
100
AcDbEntity
  8
1
 62
     7
100
AcDbLine
 10
175.2695213863154
 20
243.8875501107172
 30
0.0
 11
175.2695213863154
 21
243.666550110717
 31
0.0
  0
LINE
  5
2258
330
221A
100
AcDbEntity
  8
1
 62
     7
100
AcDbLine
 10
175.4195213863158
 20
243.5165501107174
 30
0.0
 11
177.0282934854969
 21
243.5165501107174
 31
0.0
  0
LINE
  5
2259
330
221A
100
AcDbEntity
  8
1
 62
     7
100
AcDbLine
 10
175.3045213863159
 20
241.4245501107174
 30
0.0
 11
176.9748823019755
 21
241.4245501107174
 31
0.0
  0
LINE
  5
225A
330
221A
100
AcDbEntity
  8
1
 62
     7
100
AcDbLine
 10
175.1545213863159
 20
241.0245501107174
 30
0.0
 11
175.1545213863159
 21
241.2745501107174
 31
0.0
  0
LINE
  5
225B
330
221A
100
AcDbEntity
  8
1
 62
     7
100
AcDbLine
 10
175.3545213863158
 20
240.8245501107173
 30
0.0
 11
177.5695213863159
 21
240.8245501107173
 31
0.0
  0
LINE
  5
225C
330
221A
100
AcDbEntity
  8
1
 62
     7
100
AcDbLine
 10
175.2695213863154
 20
243.666550110717
 30
0.0
 11
175.4195213863158
 21
243.5165501107174
 31
0.0
  0
LINE
  5
225D
330
221A
100
AcDbEntity
  8
1
 62
     7
100
AcDbLine
 10
175.2695213863154
 20
241.3895501107172
 30
0.0
 11
175.1545213863159
 21
241.2745501107174
 31
0.0
  0
LINE
  5
225E
330
221A
100
AcDbEntity
  8
1
 62
     7
100
AcDbLine
 10
175.1545213863159
 20
241.0245501107174
 30
0.0
 11
175.3545213863158
 21
240.8245501107173
 31
0.0
  0
LINE
  5
225F
330
221A
100
AcDbEntity
  8
1
 62
     7
100
AcDbLine
 10
175.4695213863159
 20
244.0875501107173
 30
0.0
 11
175.2695213863154
 21
243.8875501107172
 31
0.0
  0
LINE
  5
2260
330
221A
100
AcDbEntity
  8
1
 62
     7
100
AcDbLine
 10
175.2695213863154
 20
241.3895501107172
 30
0.0
 11
175.2695213863154
 21
243.666550110717
 31
0.0
  0
LINE
  5
2261
330
221A
100
AcDbEntity
  8
1
 62
     7
100
AcDbLine
 10
175.3045213863159
 20
241.4245501107174
 30
0.0
 11
175.2695213863154
 21
241.3895501107172
 31
0.0
  0
LINE
  5
2262
330
221A
100
AcDbEntity
  8
1
 62
     7
100
AcDbLine
 10
179.8695213863159
 20
241.3895501107172
 30
0.0
 11
179.8345213863159
 21
241.4245501107174
 31
0.0
  0
LINE
  5
2263
330
221A
100
AcDbEntity
  8
1
 62
     7
100
AcDbLine
 10
179.8695213863159
 20
243.666550110717
 30
0.0
 11
179.8695213863159
 21
241.3895501107172
 31
0.0
  0
LINE
  5
2264
330
221A
100
AcDbEntity
  8
1
 62
     7
100
AcDbLine
 10
179.8695213863159
 20
243.8875501107172
 30
0.0
 11
179.6695213863158
 21
244.0875501107173
 31
0.0
  0
LINE
  5
2265
330
221A
100
AcDbEntity
  8
1
 62
     7
100
AcDbLine
 10
179.7845213863159
 20
240.8245501107173
 30
0.0
 11
179.9845213863154
 21
241.0245501107174
 31
0.0
  0
LINE
  5
2266
330
221A
100
AcDbEntity
  8
1
 62
     7
100
AcDbLine
 10
179.9845213863154
 20
241.2745501107174
 30
0.0
 11
179.8695213863159
 21
241.3895501107172
 31
0.0
  0
LINE
  5
2267
330
221A
100
AcDbEntity
  8
1
 62
     7
100
AcDbLine
 10
179.7195213863159
 20
243.5165501107174
 30
0.0
 11
179.8695213863159
 21
243.666550110717
 31
0.0
  0
LINE
  5
2268
330
221A
100
AcDbEntity
  8
1
 62
     7
100
AcDbLine
 10
177.5695213863159
 20
240.8245501107173
 30
0.0
 11
179.7845213863159
 21
240.8245501107173
 31
0.0
  0
LINE
  5
2269
330
221A
100
AcDbEntity
  8
1
 62
     7
100
AcDbLine
 10
179.9845213863154
 20
241.2745501107174
 30
0.0
 11
179.9845213863154
 21
241.0245501107174
 31
0.0
  0
LINE
  5
226A
330
221A
100
AcDbEntity
  8
1
 62
     7
100
AcDbLine
 10
178.1641604706562
 20
241.4245501107174
 30
0.0
 11
179.8345213863159
 21
241.4245501107174
 31
0.0
  0
LINE
  5
226B
330
221A
100
AcDbEntity
  8
1
 62
     7
100
AcDbLine
 10
178.1107492871348
 20
243.5165501107174
 30
0.0
 11
179.7195213863159
 21
243.5165501107174
 31
0.0
  0
LINE
  5
226C
330
221A
100
AcDbEntity
  8
1
 62
     7
100
AcDbLine
 10
179.8695213863159
 20
243.666550110717
 30
0.0
 11
179.8695213863159
 21
243.8875501107172
 31
0.0
  0
LINE
  5
226D
330
221A
100
AcDbEntity
  8
1
 62
     7
100
AcDbLine
 10
177.5695213863159
 20
244.0875501107173
 30
0.0
 11
179.6695213863158
 21
244.0875501107173
 31
0.0
  0
LINE
  5
226E
330
221A
100
AcDbEntity
  8
1
 62
     7
100
AcDbLine
 10
179.6695213863158
 20
216.8255501107172
 30
0.0
 11
177.5695213863159
 21
216.8255501107172
 31
0.0
  0
LINE
  5
226F
330
221A
100
AcDbEntity
  8
1
 62
     7
100
AcDbLine
 10
179.8695213863159
 20
217.0255501107173
 30
0.0
 11
179.8695213863159
 21
217.2465501107172
 31
0.0
  0
LINE
  5
2270
330
221A
100
AcDbEntity
  8
1
 62
     7
100
AcDbLine
 10
179.7195213863159
 20
217.3965501107173
 30
0.0
 11
178.1107492871348
 21
217.3965501107173
 31
0.0
  0
LINE
  5
2271
330
221A
100
AcDbEntity
  8
1
 62
     7
100
AcDbLine
 10
179.8345213863159
 20
219.4885501107174
 30
0.0
 11
178.1641604706562
 21
219.4885501107174
 31
0.0
  0
LINE
  5
2272
330
221A
100
AcDbEntity
  8
1
 62
     7
100
AcDbLine
 10
179.9845213863154
 20
219.8885501107174
 30
0.0
 11
179.9845213863154
 21
219.6385501107174
 31
0.0
  0
LINE
  5
2273
330
221A
100
AcDbEntity
  8
1
 62
     7
100
AcDbLine
 10
179.7845213863159
 20
220.0885501107172
 30
0.0
 11
177.5695213863159
 21
220.0885501107172
 31
0.0
  0
LINE
  5
2274
330
221A
100
AcDbEntity
  8
1
 62
     7
100
AcDbLine
 10
179.8695213863159
 20
217.2465501107172
 30
0.0
 11
179.7195213863159
 21
217.3965501107173
 31
0.0
  0
LINE
  5
2275
330
221A
100
AcDbEntity
  8
1
 62
     7
100
AcDbLine
 10
179.8695213863159
 20
219.5235501107172
 30
0.0
 11
179.9845213863154
 21
219.6385501107174
 31
0.0
  0
LINE
  5
2276
330
221A
100
AcDbEntity
  8
1
 62
     7
100
AcDbLine
 10
179.9845213863154
 20
219.8885501107174
 30
0.0
 11
179.7845213863159
 21
220.0885501107172
 31
0.0
  0
LINE
  5
2277
330
221A
100
AcDbEntity
  8
1
 62
     7
100
AcDbLine
 10
179.6695213863158
 20
216.8255501107172
 30
0.0
 11
179.8695213863159
 21
217.0255501107173
 31
0.0
  0
LINE
  5
2278
330
221A
100
AcDbEntity
  8
1
 62
     7
100
AcDbLine
 10
179.8695213863159
 20
219.5235501107172
 30
0.0
 11
179.8695213863159
 21
217.2465501107172
 31
0.0
  0
LINE
  5
2279
330
221A
100
AcDbEntity
  8
1
 62
     7
100
AcDbLine
 10
179.8345213863159
 20
219.4885501107174
 30
0.0
 11
179.8695213863159
 21
219.5235501107172
 31
0.0
  0
LINE
  5
227A
330
221A
100
AcDbEntity
  8
1
 62
     7
100
AcDbLine
 10
175.2695213863154
 20
219.5235501107172
 30
0.0
 11
175.3045213863159
 21
219.4885501107174
 31
0.0
  0
LINE
  5
227B
330
221A
100
AcDbEntity
  8
1
 62
     7
100
AcDbLine
 10
175.2695213863154
 20
217.2465501107172
 30
0.0
 11
175.2695213863154
 21
219.5235501107172
 31
0.0
  0
LINE
  5
227C
330
221A
100
AcDbEntity
  8
1
 62
     7
100
AcDbLine
 10
175.2695213863154
 20
217.0255501107173
 30
0.0
 11
175.4695213863159
 21
216.8255501107172
 31
0.0
  0
LINE
  5
227D
330
221A
100
AcDbEntity
  8
1
 62
     7
100
AcDbLine
 10
175.3545213863158
 20
220.0885501107172
 30
0.0
 11
175.1545213863159
 21
219.8885501107174
 31
0.0
  0
LINE
  5
227E
330
221A
100
AcDbEntity
  8
1
 62
     7
100
AcDbLine
 10
175.1545213863159
 20
219.6385501107174
 30
0.0
 11
175.2695213863154
 21
219.5235501107172
 31
0.0
  0
LINE
  5
227F
330
221A
100
AcDbEntity
  8
1
 62
     7
100
AcDbLine
 10
175.4195213863158
 20
217.3965501107173
 30
0.0
 11
175.2695213863154
 21
217.2465501107172
 31
0.0
  0
LINE
  5
2280
330
221A
100
AcDbEntity
  8
1
 62
     7
100
AcDbLine
 10
177.5695213863159
 20
220.0885501107172
 30
0.0
 11
175.3545213863158
 21
220.0885501107172
 31
0.0
  0
LINE
  5
2281
330
221A
100
AcDbEntity
  8
1
 62
     7
100
AcDbLine
 10
175.1545213863159
 20
219.6385501107174
 30
0.0
 11
175.1545213863159
 21
219.8885501107174
 31
0.0
  0
LINE
  5
2282
330
221A
100
AcDbEntity
  8
1
 62
     7
100
AcDbLine
 10
176.9748823019755
 20
219.4885501107174
 30
0.0
 11
175.3045213863159
 21
219.4885501107174
 31
0.0
  0
LINE
  5
2283
330
221A
100
AcDbEntity
  8
1
 62
     7
100
AcDbLine
 10
177.0282934854969
 20
217.3965501107173
 30
0.0
 11
175.4195213863158
 21
217.3965501107173
 31
0.0
  0
LINE
  5
2284
330
221A
100
AcDbEntity
  8
1
 62
     7
100
AcDbLine
 10
175.2695213863154
 20
217.2465501107172
 30
0.0
 11
175.2695213863154
 21
217.0255501107173
 31
0.0
  0
LINE
  5
2285
330
221A
100
AcDbEntity
  8
1
 62
     7
100
AcDbLine
 10
177.5695213863159
 20
216.8255501107172
 30
0.0
 11
175.4695213863159
 21
216.8255501107172
 31
0.0
  0
LINE
  5
2286
330
221A
100
AcDbEntity
  8
1
  6
CENTER
 62
     3
100
AcDbLine
 10
164.952974890782
 20
230.4565501107173
 30
0.0
 11
158.4600680518152
 21
230.4565501107173
 31
0.0
  0
LINE
  5
2287
330
221A
100
AcDbEntity
  8
1
 62
     7
100
AcDbLine
 10
180.6695213863156
 20
216.3065501107173
 30
0.0
 11
180.6695213863156
 21
216.432052608496
 31
0.0
  0
LINE
  5
2288
330
221A
100
AcDbEntity
  8
1
 62
     7
100
AcDbLine
 10
179.7491164507986
 20
216.3065501107173
 30
0.0
 11
180.6695213863156
 21
216.3065501107173
 31
0.0
  0
LINE
  5
2289
330
221A
100
AcDbEntity
  8
1
 62
     7
100
AcDbLine
 10
180.6695213863156
 20
216.432052608496
 30
0.0
 11
173.6695213863159
 21
216.432052608496
 31
0.0
  0
LINE
  5
228A
330
221A
100
AcDbEntity
  8
1
 62
     7
100
AcDbLine
 10
173.6695213863159
 20
216.3065501107173
 30
0.0
 11
179.7491164507986
 21
216.3065501107173
 31
0.0
  0
LINE
  5
228B
330
221A
100
AcDbEntity
  8
1
 62
     7
100
AcDbLine
 10
180.6695213863156
 20
244.4810476129384
 30
0.0
 11
180.6695213863156
 21
244.6065501107173
 31
0.0
  0
LINE
  5
228C
330
221A
100
AcDbEntity
  8
1
 62
     7
100
AcDbLine
 10
179.7491164507986
 20
244.6065501107173
 30
0.0
 11
180.6695213863156
 21
244.6065501107173
 31
0.0
  0
LINE
  5
228D
330
221A
100
AcDbEntity
  8
1
 62
     7
100
AcDbLine
 10
180.0939317295306
 20
244.4810476129384
 30
0.0
 11
180.6037234006484
 21
244.2954986189749
 31
0.0
  0
LINE
  5
228E
330
221A
100
AcDbEntity
  8
1
 62
     7
100
AcDbLine
 10
180.0939317295306
 20
244.4810476129384
 30
0.0
 11
180.6695213863156
 21
244.4810476129384
 31
0.0
  0
LINE
  5
228F
330
221A
100
AcDbEntity
  8
1
 62
     7
100
AcDbLine
 10
175.2695213863154
 20
240.8245501107173
 30
0.0
 11
180.2695213863158
 21
240.8245501107173
 31
0.0
  0
LINE
  5
2290
330
221A
100
AcDbEntity
  8
1
 62
     7
100
AcDbLine
 10
175.2695213863154
 20
220.0885501107172
 30
0.0
 11
180.2695213863158
 21
220.0885501107172
 31
0.0
  0
LINE
  5
2291
330
221A
100
AcDbEntity
  8
1
 62
     3
100
AcDbLine
 10
244.5160029101919
 20
229.2565501107171
 30
0.0
 11
245.6485081500642
 21
229.2565501107171
 31
0.0
  0
LINE
  5
2292
330
221A
100
AcDbEntity
  8
1
 62
     3
100
AcDbLine
 10
245.6485081500642
 20
231.6565501107171
 30
0.0
 11
244.5160029101919
 21
231.6565501107171
 31
0.0
  0
LINE
  5
2293
330
221A
100
AcDbEntity
  8
1
 62
     7
100
AcDbLine
 10
245.4753030693073
 20
231.9565501107172
 30
0.0
 11
244.4400107721933
 21
231.9565501107172
 31
0.0
  0
LINE
  5
2294
330
221A
100
AcDbEntity
  8
1
 62
     7
100
AcDbLine
 10
245.6485081500642
 20
231.6565501107171
 30
0.0
 11
245.4753030693073
 21
231.9565501107172
 31
0.0
  0
LINE
  5
2295
330
221A
100
AcDbEntity
  8
1
 62
     7
100
AcDbLine
 10
245.6485081500642
 20
229.2565501107171
 30
0.0
 11
245.6485081500642
 21
231.6565501107171
 31
0.0
  0
LINE
  5
2296
330
221A
100
AcDbEntity
  8
1
 62
     7
100
AcDbLine
 10
245.4753030693073
 20
228.9565501107173
 30
0.0
 11
245.6485081500642
 21
229.2565501107171
 31
0.0
  0
LINE
  5
2297
330
221A
100
AcDbEntity
  8
1
 62
     7
100
AcDbLine
 10
244.4400107721933
 20
228.9565501107173
 30
0.0
 11
245.4753030693073
 21
228.9565501107173
 31
0.0
  0
LINE
  5
2298
330
221A
100
AcDbEntity
  8
1
 62
     7
100
AcDbLine
 10
245.4753030693073
 20
231.9565501107172
 30
0.0
 11
245.4753030693073
 21
228.9565501107173
 31
0.0
  0
LINE
  5
2299
330
221A
100
AcDbEntity
  8
1
 62
     7
100
AcDbLine
 10
237.6485081500641
 20
236.7833450299603
 30
0.0
 11
240.6485081500642
 21
236.7833450299603
 31
0.0
  0
LINE
  5
229A
330
221A
100
AcDbEntity
  8
1
 62
     7
100
AcDbLine
 10
240.6485081500642
 20
235.7480527328465
 30
0.0
 11
240.6485081500642
 21
236.7833450299603
 31
0.0
  0
LINE
  5
229B
330
221A
100
AcDbEntity
  8
1
 62
     7
100
AcDbLine
 10
240.6485081500642
 20
236.7833450299603
 30
0.0
 11
240.348508150064
 21
236.9565501107173
 31
0.0
  0
LINE
  5
229C
330
221A
100
AcDbEntity
  8
1
 62
     7
100
AcDbLine
 10
240.348508150064
 20
236.9565501107173
 30
0.0
 11
237.9485081500642
 21
236.9565501107173
 31
0.0
  0
LINE
  5
229D
330
221A
100
AcDbEntity
  8
1
 62
     7
100
AcDbLine
 10
237.9485081500642
 20
236.9565501107173
 30
0.0
 11
237.6485081500641
 21
236.7833450299603
 31
0.0
  0
LINE
  5
229E
330
221A
100
AcDbEntity
  8
1
 62
     7
100
AcDbLine
 10
237.6485081500641
 20
236.7833450299603
 30
0.0
 11
237.6485081500641
 21
235.7480527328465
 31
0.0
  0
LINE
  5
229F
330
221A
100
AcDbEntity
  8
1
 62
     3
100
AcDbLine
 10
237.9485081500642
 20
236.9565501107173
 30
0.0
 11
237.9485081500642
 21
235.8240448708451
 31
0.0
  0
LINE
  5
22A0
330
221A
100
AcDbEntity
  8
1
 62
     3
100
AcDbLine
 10
240.348508150064
 20
235.8240448708451
 30
0.0
 11
240.348508150064
 21
236.9565501107173
 31
0.0
  0
LINE
  5
22A1
330
221A
100
AcDbEntity
  8
1
  6
DIVIDE
 62
     7
100
AcDbLine
 10
161.6695213863158
 20
215.4565501107172
 30
0.0
 11
166.6495213863159
 21
215.4565501107172
 31
0.0
  0
LINE
  5
22A2
330
221A
100
AcDbEntity
  8
1
  6
DIVIDE
 62
     7
100
AcDbLine
 10
161.6695213863158
 20
217.9565501107173
 30
0.0
 11
161.6695213863158
 21
215.4565501107172
 31
0.0
  0
LINE
  5
22A3
330
221A
100
AcDbEntity
  8
1
  6
DIVIDE
 62
     7
100
AcDbLine
 10
161.6695213863158
 20
245.4565501107173
 30
0.0
 11
161.6695213863158
 21
242.9565501107173
 31
0.0
  0
LINE
  5
22A4
330
221A
100
AcDbEntity
  8
1
  6
DIVIDE
 62
     7
100
AcDbLine
 10
166.6495213863159
 20
245.4565501107173
 30
0.0
 11
161.6695213863158
 21
245.4565501107173
 31
0.0
  0
LINE
  5
22A5
330
221A
100
AcDbEntity
  8
1
 62
     7
100
AcDbLine
 10
178.6695213863158
 20
246.5065501107172
 30
0.0
 11
178.6695213863158
 21
249.4065501107173
 31
0.0
  0
LINE
  5
22A6
330
221A
100
AcDbEntity
  8
1
 62
     7
100
AcDbLine
 10
178.6695213863158
 20
246.5065501107172
 30
0.0
 11
180.6695213863156
 21
246.5065501107172
 31
0.0
  0
LINE
  5
22A7
330
221A
100
AcDbEntity
  8
1
 62
     7
100
AcDbLine
 10
178.4559017867151
 20
246.8765501107174
 30
0.0
 11
178.6695213863158
 21
246.5065501107172
 31
0.0
  0
LINE
  5
22A8
330
221A
100
AcDbEntity
  8
1
 62
     7
100
AcDbLine
 10
178.4559017867151
 20
249.0365501107171
 30
0.0
 11
178.4559017867151
 21
246.8765501107174
 31
0.0
  0
LINE
  5
22A9
330
221A
100
AcDbEntity
  8
1
 62
     7
100
AcDbLine
 10
178.6695213863158
 20
249.4065501107173
 30
0.0
 11
180.6695213863156
 21
249.4065501107173
 31
0.0
  0
LINE
  5
22AA
330
221A
100
AcDbEntity
  8
1
 62
     7
100
AcDbLine
 10
178.6695213863158
 20
249.4065501107173
 30
0.0
 11
178.4559017867151
 21
249.0365501107171
 31
0.0
  0
LINE
  5
22AB
330
221A
100
AcDbEntity
  8
1
 62
     7
100
AcDbLine
 10
180.6695213863156
 20
249.4065501107173
 30
0.0
 11
180.6695213863156
 21
246.5065501107172
 31
0.0
  0
LINE
  5
22AC
330
221A
100
AcDbEntity
  8
1
 62
     7
100
AcDbLine
 10
175.6695213863158
 20
249.2065501107173
 30
0.0
 11
175.6695213863158
 21
250.0565501107173
 31
0.0
  0
LINE
  5
22AD
330
221A
100
AcDbEntity
  8
1
 62
     7
100
AcDbLine
 10
180.6695213863156
 20
246.5065501107172
 30
0.0
 11
180.6695213863156
 21
244.6065501107173
 31
0.0
  0
LINE
  5
22AE
330
221A
100
AcDbEntity
  8
1
 62
     7
100
AcDbLine
 10
175.6695213863158
 20
246.256550110717
 30
0.0
 11
175.6695213863158
 21
246.7065501107172
 31
0.0
  0
LINE
  5
22AF
330
221A
100
AcDbEntity
  8
1
  6
CENTER
 62
     3
100
AcDbLine
 10
174.2695213863154
 20
247.9565501107173
 30
0.0
 11
182.0695213863159
 21
247.9565501107173
 31
0.0
  0
LINE
  5
22B0
330
221A
100
AcDbEntity
  8
1
 62
     7
100
AcDbLine
 10
175.6695213863158
 20
249.0365501107171
 30
0.0
 11
175.6695213863158
 21
246.8765501107174
 31
0.0
  0
LINE
  5
22B1
330
221A
100
AcDbEntity
  8
1
 62
     7
100
AcDbLine
 10
175.6695213863158
 20
249.0365501107171
 30
0.0
 11
178.4559017867151
 21
249.0365501107171
 31
0.0
  0
LINE
  5
22B2
330
221A
100
AcDbEntity
  8
1
 62
     7
100
AcDbLine
 10
175.6695213863158
 20
246.8765501107174
 30
0.0
 11
175.6695213863158
 21
246.7065501107172
 31
0.0
  0
LINE
  5
22B3
330
221A
100
AcDbEntity
  8
1
 62
     7
100
AcDbLine
 10
175.6695213863158
 20
246.8765501107174
 30
0.0
 11
178.4559017867151
 21
246.8765501107174
 31
0.0
  0
LINE
  5
22B4
330
221A
100
AcDbEntity
  8
1
 62
     7
100
AcDbLine
 10
175.6695213863158
 20
249.2065501107173
 30
0.0
 11
175.6695213863158
 21
249.0365501107171
 31
0.0
  0
LINE
  5
22B5
330
221A
100
AcDbEntity
  8
1
 62
     3
100
AcDbLine
 10
175.6695213863158
 20
249.2065501107173
 30
0.0
 11
178.5540513324779
 21
249.2065501107173
 31
0.0
  0
LINE
  5
22B6
330
221A
100
AcDbEntity
  8
1
 62
     3
100
AcDbLine
 10
175.6695213863158
 20
246.7065501107172
 30
0.0
 11
178.5540513324779
 21
246.7065501107172
 31
0.0
  0
LINE
  5
22B7
330
221A
100
AcDbEntity
  8
1
 62
     7
100
AcDbLine
 10
180.6695213863156
 20
250.0565501107173
 30
0.0
 11
180.6695213863156
 21
249.4065501107173
 31
0.0
  0
LINE
  5
22B8
330
221A
100
AcDbEntity
  8
1
 62
     7
100
AcDbLine
 10
180.6695213863156
 20
244.201529356896
 30
0.0
 11
180.6695213863156
 21
244.1875501107173
 31
0.0
  0
LINE
  5
22B9
330
221A
100
AcDbEntity
  8
1
 62
     7
100
AcDbLine
 10
161.1695213863159
 20
234.7565501107172
 30
0.0
 11
161.1695213863159
 21
233.756550110717
 31
0.0
  0
LINE
  5
22BA
330
221A
100
AcDbEntity
  8
1
 62
     7
100
AcDbLine
 10
163.1695213863158
 20
234.7565501107172
 30
0.0
 11
163.1695213863158
 21
233.756550110717
 31
0.0
  0
LINE
  5
22BB
330
221A
100
AcDbEntity
  8
1
 62
     7
100
AcDbLine
 10
163.1695213863158
 20
234.7565501107172
 30
0.0
 11
161.1695213863159
 21
234.7565501107172
 31
0.0
  0
LINE
  5
22BC
330
221A
100
AcDbEntity
  8
1
 62
     7
100
AcDbLine
 10
163.1695213863158
 20
238.1565501107171
 30
0.0
 11
163.1695213863158
 21
234.7565501107172
 31
0.0
  0
LINE
  5
22BD
330
221A
100
AcDbEntity
  8
1
 62
     7
100
AcDbLine
 10
161.1695213863159
 20
238.1565501107171
 30
0.0
 11
161.1695213863159
 21
234.7565501107172
 31
0.0
  0
LINE
  5
22BE
330
221A
100
AcDbEntity
  8
1
 62
     7
100
AcDbLine
 10
161.1695213863159
 20
238.1565501107171
 30
0.0
 11
163.1695213863158
 21
238.1565501107171
 31
0.0
  0
LINE
  5
22BF
330
221A
100
AcDbEntity
  8
1
  6
CENTER
 62
     3
100
AcDbLine
 10
159.0531564942295
 20
236.4565501107172
 30
0.0
 11
165.5085268539418
 21
236.4565501107172
 31
0.0
  0
LINE
  5
22C0
330
221A
100
AcDbEntity
  8
1
 62
     7
100
AcDbLine
 10
161.4495213863158
 20
227.4565501107173
 30
0.0
 11
162.8495213863159
 21
227.4565501107173
 31
0.0
  0
LINE
  5
22C1
330
221A
100
AcDbEntity
  8
1
 62
     7
100
AcDbLine
 10
163.1695213863158
 20
227.1565501107172
 30
0.0
 11
163.1695213863158
 21
217.3255501107173
 31
0.0
  0
LINE
  5
22C2
330
221A
100
AcDbEntity
  8
1
 62
     7
100
AcDbLine
 10
180.5695213863159
 20
216.8255501107172
 30
0.0
 11
163.6495213863158
 21
216.8255501107172
 31
0.0
  0
LINE
  5
22C3
330
221A
100
AcDbEntity
  8
1
 62
     7
100
AcDbLine
 10
180.6695213863156
 20
216.7255501107173
 30
0.0
 11
180.6695213863156
 21
216.7115708645382
 31
0.0
  0
LINE
  5
22C4
330
221A
100
AcDbEntity
  8
1
 62
     7
100
AcDbLine
 10
180.6037234006484
 20
216.6176016024596
 30
0.0
 11
179.7491164507986
 21
216.3065501107173
 31
0.0
  0
LINE
  5
22C5
330
221A
100
AcDbEntity
  8
1
 62
     7
100
AcDbLine
 10
163.5991721613629
 20
216.6355501107172
 30
0.0
 11
172.6319242945771
 21
216.6355501107172
 31
0.0
  0
LINE
  5
22C6
330
221A
100
AcDbEntity
  8
1
 62
     7
100
AcDbLine
 10
162.9095213863159
 20
221.342309039345
 30
0.0
 11
162.9095213863159
 21
217.30392051343
 31
0.0
  0
LINE
  5
22C7
330
221A
100
AcDbEntity
  8
1
 62
     7
100
AcDbLine
 10
162.6895967748213
 20
221.5565501107173
 30
0.0
 11
161.1695213863159
 21
221.5565501107173
 31
0.0
  0
LINE
  5
22C8
330
221A
100
AcDbEntity
  8
1
 62
     7
100
AcDbLine
 10
161.1695213863159
 20
227.1565501107172
 30
0.0
 11
161.1695213863159
 21
221.5565501107173
 31
0.0
  0
LINE
  5
22C9
330
221A
100
AcDbEntity
  8
1
 62
     7
100
AcDbLine
 10
162.8495213863159
 20
227.4565501107173
 30
0.0
 11
163.1695213863158
 21
227.1565501107172
 31
0.0
  0
LINE
  5
22CA
330
221A
100
AcDbEntity
  8
1
 62
     7
100
AcDbLine
 10
161.4495213863158
 20
227.4565501107173
 30
0.0
 11
161.1695213863159
 21
227.1565501107172
 31
0.0
  0
LINE
  5
22CB
330
221A
100
AcDbEntity
  8
1
 62
     7
100
AcDbLine
 10
161.1695213863159
 20
230.4565501107173
 30
0.0
 11
161.1695213863159
 21
227.1565501107172
 31
0.0
  0
LINE
  5
22CC
330
221A
100
AcDbEntity
  8
1
 62
     7
100
AcDbLine
 10
163.1495213863156
 20
230.4565501107173
 30
0.0
 11
163.1695213863158
 21
227.1565501107172
 31
0.0
  0
LINE
  5
22CD
330
221A
100
AcDbEntity
  8
1
 62
     7
100
AcDbLine
 10
180.6695213863156
 20
222.8310379525474
 30
0.0
 11
180.6695213863156
 21
216.7255501107173
 31
0.0
  0
LINE
  5
22CE
330
221A
100
AcDbEntity
  8
1
 62
     7
100
AcDbLine
 10
180.6695213863156
 20
244.1875501107173
 30
0.0
 11
180.6695213863156
 21
238.0820622688871
 31
0.0
  0
LINE
  5
22CF
330
221A
100
AcDbEntity
  8
1
 62
     7
100
AcDbLine
 10
163.1695213863158
 20
233.756550110717
 30
0.0
 11
163.1495213863156
 21
230.4565501107173
 31
0.0
  0
LINE
  5
22D0
330
221A
100
AcDbEntity
  8
1
 62
     7
100
AcDbLine
 10
161.1695213863159
 20
233.756550110717
 30
0.0
 11
161.1695213863159
 21
230.4565501107173
 31
0.0
  0
LINE
  5
22D1
330
221A
100
AcDbEntity
  8
1
 62
     7
100
AcDbLine
 10
161.1695213863159
 20
233.756550110717
 30
0.0
 11
161.4495213863158
 21
233.4565501107173
 31
0.0
  0
LINE
  5
22D2
330
221A
100
AcDbEntity
  8
1
 62
     7
100
AcDbLine
 10
163.1695213863158
 20
233.756550110717
 30
0.0
 11
162.8495213863159
 21
233.4565501107173
 31
0.0
  0
LINE
  5
22D3
330
221A
100
AcDbEntity
  8
1
 62
     7
100
AcDbLine
 10
161.1695213863159
 20
239.3565501107171
 30
0.0
 11
161.1695213863159
 21
238.1565501107171
 31
0.0
  0
LINE
  5
22D4
330
221A
100
AcDbEntity
  8
1
 62
     7
100
AcDbLine
 10
161.1695213863159
 20
239.3565501107171
 30
0.0
 11
162.6895967748213
 21
239.3565501107171
 31
0.0
  0
LINE
  5
22D5
330
221A
100
AcDbEntity
  8
1
 62
     7
100
AcDbLine
 10
162.9095213863159
 20
243.6091797080046
 30
0.0
 11
162.9095213863159
 21
239.5707911820894
 31
0.0
  0
LINE
  5
22D6
330
221A
100
AcDbEntity
  8
1
 62
     7
100
AcDbLine
 10
172.6319242945771
 20
244.2775501107172
 30
0.0
 11
163.5991721613629
 21
244.2775501107172
 31
0.0
  0
LINE
  5
22D7
330
221A
100
AcDbEntity
  8
1
 62
     7
100
AcDbLine
 10
179.7491164507986
 20
244.6065501107173
 30
0.0
 11
180.0939317295306
 21
244.4810476129384
 31
0.0
  0
LINE
  5
22D8
330
221A
100
AcDbEntity
  8
1
 62
     7
100
AcDbLine
 10
163.6695213863158
 20
244.0875501107173
 30
0.0
 11
180.5695213863159
 21
244.0875501107173
 31
0.0
  0
LINE
  5
22D9
330
221A
100
AcDbEntity
  8
1
 62
     7
100
AcDbLine
 10
163.1695213863158
 20
243.5875501107168
 30
0.0
 11
163.1695213863158
 21
238.1565501107171
 31
0.0
  0
LINE
  5
22DA
330
221A
100
AcDbEntity
  8
1
 62
     7
100
AcDbLine
 10
162.8495213863159
 20
233.4565501107173
 30
0.0
 11
161.4495213863158
 21
233.4565501107173
 31
0.0
  0
LINE
  5
22DB
330
221A
100
AcDbEntity
  8
1
  6
CENTER
 62
     3
100
AcDbLine
 10
216.6485081500642
 20
230.4565501107173
 30
0.0
 11
261.6485081500637
 21
230.4565501107173
 31
0.0
  0
LINE
  5
22DC
330
221A
100
AcDbEntity
  8
1
 62
     7
100
AcDbLine
 10
173.8695213863159
 20
214.9565501107173
 30
0.0
 11
173.6695213863159
 21
215.1565501107171
 31
0.0
  0
LINE
  5
22DD
330
221A
100
AcDbEntity
  8
1
 62
     7
100
AcDbLine
 10
173.6695213863159
 20
245.7565501107171
 30
0.0
 11
173.8695213863159
 21
245.9565501107173
 31
0.0
  0
LINE
  5
22DE
330
221A
100
AcDbEntity
  8
1
 62
     7
100
AcDbLine
 10
180.2695213863158
 20
210.4565501107173
 30
0.0
 11
180.6695213863156
 21
210.856550110717
 31
0.0
  0
LINE
  5
22DF
330
221A
100
AcDbEntity
  8
1
 62
     7
100
AcDbLine
 10
176.0695213863159
 20
210.4565501107173
 30
0.0
 11
175.6695213863158
 21
210.856550110717
 31
0.0
  0
LINE
  5
22E0
330
221A
100
AcDbEntity
  8
1
 62
     7
100
AcDbLine
 10
180.6695213863156
 20
250.0565501107173
 30
0.0
 11
180.2695213863158
 21
250.4565501107173
 31
0.0
  0
LINE
  5
22E1
330
221A
100
AcDbEntity
  8
1
 62
     7
100
AcDbLine
 10
175.6695213863158
 20
250.0565501107173
 30
0.0
 11
176.0695213863159
 21
250.4565501107173
 31
0.0
  0
LINE
  5
22E2
330
221A
100
AcDbEntity
  8
1
 62
     7
100
AcDbLine
 10
180.6695213863156
 20
214.4065501107172
 30
0.0
 11
180.6695213863156
 21
216.3065501107173
 31
0.0
  0
LINE
  5
22E3
330
221A
100
AcDbEntity
  8
1
 62
     7
100
AcDbLine
 10
176.0695213863159
 20
210.4565501107173
 30
0.0
 11
180.2695213863158
 21
210.4565501107173
 31
0.0
  0
LINE
  5
22E4
330
221A
100
AcDbEntity
  8
1
 62
     7
100
AcDbLine
 10
175.6695213863158
 20
211.5065501107173
 30
0.0
 11
175.6695213863158
 21
210.856550110717
 31
0.0
  0
LINE
  5
22E5
330
221A
100
AcDbEntity
  8
1
 62
     7
100
AcDbLine
 10
173.8695213863159
 20
214.9565501107173
 30
0.0
 11
175.3695213863159
 21
214.9565501107173
 31
0.0
  0
LINE
  5
22E6
330
221A
100
AcDbEntity
  8
1
 62
     7
100
AcDbLine
 10
173.6695213863159
 20
216.3065501107173
 30
0.0
 11
173.6695213863159
 21
215.1565501107171
 31
0.0
  0
LINE
  5
22E7
330
221A
100
AcDbEntity
  8
1
 62
     7
100
AcDbLine
 10
173.6695213863159
 20
216.432052608496
 30
0.0
 11
173.6695213863159
 21
216.3065501107173
 31
0.0
  0
LINE
  5
22E8
330
221A
100
AcDbEntity
  8
1
  6
CENTER
 62
     3
100
AcDbLine
 10
182.3588773575384
 20
212.9565501107173
 30
0.0
 11
172.2610103071791
 21
212.9565501107173
 31
0.0
  0
LINE
  5
22E9
330
221A
100
AcDbEntity
  8
1
 62
     7
100
AcDbLine
 10
180.6695213863156
 20
211.5065501107173
 30
0.0
 11
175.6695213863158
 21
211.5065501107173
 31
0.0
  0
LINE
  5
22EA
330
221A
100
AcDbEntity
  8
1
 62
     7
100
AcDbLine
 10
175.6695213863158
 20
214.4065501107172
 30
0.0
 11
175.6695213863158
 21
211.5065501107173
 31
0.0
  0
LINE
  5
22EB
330
221A
100
AcDbEntity
  8
1
 62
     7
100
AcDbLine
 10
180.6695213863156
 20
211.5065501107173
 30
0.0
 11
180.6695213863156
 21
210.856550110717
 31
0.0
  0
LINE
  5
22EC
330
221A
100
AcDbEntity
  8
1
 62
     7
100
AcDbLine
 10
175.6695213863158
 20
214.4065501107172
 30
0.0
 11
180.6695213863156
 21
214.4065501107172
 31
0.0
  0
LINE
  5
22ED
330
221A
100
AcDbEntity
  8
1
 62
     7
100
AcDbLine
 10
180.6695213863156
 20
211.5065501107173
 30
0.0
 11
180.6695213863156
 21
214.4065501107172
 31
0.0
  0
LINE
  5
22EE
330
221A
100
AcDbEntity
  8
1
 62
     7
100
AcDbLine
 10
175.6695213863158
 20
214.4065501107172
 30
0.0
 11
175.6695213863158
 21
214.6565501107172
 31
0.0
  0
LINE
  5
22EF
330
221A
100
AcDbEntity
  8
1
 62
     7
100
AcDbLine
 10
173.6695213863159
 20
244.4810476129384
 30
0.0
 11
180.0939317295306
 21
244.4810476129384
 31
0.0
  0
LINE
  5
22F0
330
221A
100
AcDbEntity
  8
1
 62
     7
100
AcDbLine
 10
173.6695213863159
 20
244.6065501107173
 30
0.0
 11
173.6695213863159
 21
244.4810476129384
 31
0.0
  0
LINE
  5
22F1
330
221A
100
AcDbEntity
  8
1
 62
     7
100
AcDbLine
 10
173.6695213863159
 20
244.6065501107173
 30
0.0
 11
179.7491164507986
 21
244.6065501107173
 31
0.0
  0
LINE
  5
22F2
330
221A
100
AcDbEntity
  8
1
 62
     7
100
AcDbLine
 10
173.6695213863159
 20
244.6065501107173
 30
0.0
 11
173.6695213863159
 21
245.7565501107171
 31
0.0
  0
LINE
  5
22F3
330
221A
100
AcDbEntity
  8
1
 62
     7
100
AcDbLine
 10
173.8695213863159
 20
245.9565501107173
 30
0.0
 11
175.3695213863159
 21
245.9565501107173
 31
0.0
  0
LINE
  5
22F4
330
221A
100
AcDbEntity
  8
1
 62
     7
100
AcDbLine
 10
176.0695213863159
 20
250.4565501107173
 30
0.0
 11
180.2695213863158
 21
250.4565501107173
 31
0.0
  0
LINE
  5
22F5
330
221A
100
AcDbEntity
  8
1
 62
     7
100
AcDbLine
 10
182.4695213863159
 20
232.9565501107173
 30
0.0
 11
171.2695213863158
 21
232.9565501107173
 31
0.0
  0
LINE
  5
22F6
330
221A
100
AcDbEntity
  8
1
 62
     3
100
AcDbLine
 10
182.4695213863159
 20
233.2565501107171
 30
0.0
 11
182.4695213863159
 21
232.9565501107173
 31
0.0
  0
LINE
  5
22F7
330
221A
100
AcDbEntity
  8
1
 62
     7
100
AcDbLine
 10
185.4695213863159
 20
232.9565501107173
 30
0.0
 11
185.1695213863159
 21
232.9565501107173
 31
0.0
  0
LINE
  5
22F8
330
221A
100
AcDbEntity
  8
1
 62
     3
100
AcDbLine
 10
185.4695213863159
 20
233.2565501107171
 30
0.0
 11
185.4695213863159
 21
232.9565501107173
 31
0.0
  0
LINE
  5
22F9
330
221A
100
AcDbEntity
  8
1
 62
     3
100
AcDbLine
 10
185.1695213863159
 20
232.9565501107173
 30
0.0
 11
185.1695213863159
 21
236.9565501107173
 31
0.0
  0
LINE
  5
22FA
330
221A
100
AcDbEntity
  8
1
 62
     3
100
AcDbLine
 10
182.7695213863158
 20
236.9565501107173
 30
0.0
 11
182.7695213863158
 21
232.9565501107173
 31
0.0
  0
LINE
  5
22FB
330
221A
100
AcDbEntity
  8
1
 62
     7
100
AcDbLine
 10
182.7695213863158
 20
232.9565501107173
 30
0.0
 11
182.4695213863159
 21
232.9565501107173
 31
0.0
  0
LINE
  5
22FC
330
221A
100
AcDbEntity
  8
1
 62
     7
100
AcDbLine
 10
182.4695213863159
 20
233.2565501107171
 30
0.0
 11
182.7695213863158
 21
232.9565501107173
 31
0.0
  0
LINE
  5
22FD
330
221A
100
AcDbEntity
  8
1
 62
     7
100
AcDbLine
 10
182.4695213863159
 20
236.7833450299603
 30
0.0
 11
182.4695213863159
 21
233.2565501107171
 31
0.0
  0
LINE
  5
22FE
330
221A
100
AcDbEntity
  8
1
 62
     7
100
AcDbLine
 10
182.7695213863158
 20
236.9565501107173
 30
0.0
 11
182.4695213863159
 21
236.7833450299603
 31
0.0
  0
LINE
  5
22FF
330
221A
100
AcDbEntity
  8
1
 62
     7
100
AcDbLine
 10
185.1695213863159
 20
236.9565501107173
 30
0.0
 11
182.7695213863158
 21
236.9565501107173
 31
0.0
  0
LINE
  5
2300
330
221A
100
AcDbEntity
  8
1
 62
     7
100
AcDbLine
 10
185.4695213863159
 20
236.7833450299603
 30
0.0
 11
185.1695213863159
 21
236.9565501107173
 31
0.0
  0
LINE
  5
2301
330
221A
100
AcDbEntity
  8
1
 62
     7
100
AcDbLine
 10
185.4695213863159
 20
233.2565501107171
 30
0.0
 11
185.4695213863159
 21
236.7833450299603
 31
0.0
  0
LINE
  5
2302
330
221A
100
AcDbEntity
  8
1
 62
     7
100
AcDbLine
 10
185.1695213863159
 20
232.9565501107173
 30
0.0
 11
182.7695213863158
 21
232.9565501107173
 31
0.0
  0
LINE
  5
2303
330
221A
100
AcDbEntity
  8
1
 62
     7
100
AcDbLine
 10
185.1695213863159
 20
232.9565501107173
 30
0.0
 11
185.4695213863159
 21
233.2565501107171
 31
0.0
  0
LINE
  5
2304
330
221A
100
AcDbEntity
  8
1
 62
     7
100
AcDbLine
 10
185.4695213863159
 20
233.2565501107171
 30
0.0
 11
182.4695213863159
 21
233.2565501107171
 31
0.0
  0
LINE
  5
2305
330
221A
100
AcDbEntity
  8
1
 62
     7
100
AcDbLine
 10
182.4695213863159
 20
236.7833450299603
 30
0.0
 11
185.4695213863159
 21
236.7833450299603
 31
0.0
  0
LINE
  5
2306
330
221A
100
AcDbEntity
  8
1
 62
     7
100
AcDbLine
 10
185.4695213863159
 20
235.9565501107173
 30
0.0
 11
186.4695213863159
 21
235.9565501107173
 31
0.0
  0
LINE
  5
2307
330
221A
100
AcDbEntity
  8
1
 62
     7
100
AcDbLine
 10
175.0695213863159
 20
224.4065501107173
 30
0.0
 11
175.0695213863159
 21
223.7065501107172
 31
0.0
  0
LINE
  5
2308
330
221A
100
AcDbEntity
  8
1
 62
     7
100
AcDbLine
 10
174.7695213863158
 20
224.7065501107173
 30
0.0
 11
175.0695213863159
 21
224.4065501107173
 31
0.0
  0
LINE
  5
2309
330
221A
100
AcDbEntity
  8
1
 62
     7
100
AcDbLine
 10
175.0695213863159
 20
224.9565501107173
 30
0.0
 11
175.0695213863159
 21
224.4065501107173
 31
0.0
  0
LINE
  5
230A
330
221A
100
AcDbEntity
  8
1
 62
     7
100
AcDbLine
 10
173.1695213863158
 20
224.9565501107173
 30
0.0
 11
173.1695213863158
 21
224.4065501107173
 31
0.0
  0
LINE
  5
230B
330
221A
100
AcDbEntity
  8
1
 62
     7
100
AcDbLine
 10
173.1695213863158
 20
224.9565501107173
 30
0.0
 11
173.4695213863159
 21
224.9565501107173
 31
0.0
  0
LINE
  5
230C
330
221A
100
AcDbEntity
  8
1
 62
     7
100
AcDbLine
 10
175.2695213863154
 20
221.2065501107173
 30
0.0
 11
175.2695213863154
 21
220.0885501107172
 31
0.0
  0
LINE
  5
230D
330
221A
100
AcDbEntity
  8
1
 62
     7
100
AcDbLine
 10
175.2695213863154
 20
224.7065501107173
 30
0.0
 11
175.2695213863154
 21
223.7065501107172
 31
0.0
  0
LINE
  5
230E
330
221A
100
AcDbEntity
  8
1
 62
     7
100
AcDbLine
 10
177.3695213863159
 20
224.7065501107173
 30
0.0
 11
175.2695213863154
 21
224.7065501107173
 31
0.0
  0
LINE
  5
230F
330
221A
100
AcDbEntity
  8
1
 62
     7
100
AcDbLine
 10
175.2695213863154
 20
224.9565501107173
 30
0.0
 11
175.2695213863154
 21
224.7065501107173
 31
0.0
  0
LINE
  5
2310
330
221A
100
AcDbEntity
  8
1
 62
     7
100
AcDbLine
 10
177.3695213863159
 20
224.7065501107173
 30
0.0
 11
177.3695213863159
 21
220.0885501107172
 31
0.0
  0
LINE
  5
2311
330
221A
100
AcDbEntity
  8
1
 62
     7
100
AcDbLine
 10
180.2695213863158
 20
220.0885501107172
 30
0.0
 11
180.2695213863158
 21
222.9565501107173
 31
0.0
  0
LINE
  5
2312
330
221A
100
AcDbEntity
  8
1
 62
     7
100
AcDbLine
 10
180.7695213863159
 20
222.9565501107173
 30
0.0
 11
180.2695213863158
 21
222.9565501107173
 31
0.0
  0
LINE
  5
2313
330
221A
100
AcDbEntity
  8
1
 62
     7
100
AcDbLine
 10
180.7695213863159
 20
223.3601555349221
 30
0.0
 11
180.7695213863159
 21
222.9565501107173
 31
0.0
  0
LINE
  5
2314
330
221A
100
AcDbEntity
  8
1
 62
     7
100
AcDbLine
 10
180.2695213863158
 20
222.9565501107173
 30
0.0
 11
180.2695213863158
 21
224.7065501107173
 31
0.0
  0
LINE
  5
2315
330
221A
100
AcDbEntity
  8
1
 62
     7
100
AcDbLine
 10
180.2695213863158
 20
224.7065501107173
 30
0.0
 11
177.3695213863159
 21
224.7065501107173
 31
0.0
  0
LINE
  5
2316
330
221A
100
AcDbEntity
  8
1
 62
     7
100
AcDbLine
 10
180.7695213863159
 20
224.7065501107173
 30
0.0
 11
180.2695213863158
 21
224.7065501107173
 31
0.0
  0
LINE
  5
2317
330
221A
100
AcDbEntity
  8
1
 62
     7
100
AcDbLine
 10
180.2695213863158
 20
224.9565501107173
 30
0.0
 11
180.2695213863158
 21
224.7065501107173
 31
0.0
  0
LINE
  5
2318
330
221A
100
AcDbEntity
  8
1
 62
     7
100
AcDbLine
 10
180.2695213863158
 20
222.9565501107173
 30
0.0
 11
180.2695213863158
 21
224.7065501107173
 31
0.0
  0
LINE
  5
2319
330
221A
100
AcDbEntity
  8
1
 62
     7
100
AcDbLine
 10
180.7695213863159
 20
224.7065501107173
 30
0.0
 11
180.2695213863158
 21
224.7065501107173
 31
0.0
  0
LINE
  5
231A
330
221A
100
AcDbEntity
  8
1
 62
     7
100
AcDbLine
 10
180.7695213863159
 20
224.9565501107173
 30
0.0
 11
180.7695213863159
 21
224.7065501107173
 31
0.0
  0
LINE
  5
231B
330
221A
100
AcDbEntity
  8
1
 62
     7
100
AcDbLine
 10
180.7695213863159
 20
224.7065501107173
 30
0.0
 11
180.7695213863159
 21
223.3601555349221
 31
0.0
  0
LINE
  5
231C
330
221A
100
AcDbEntity
  8
1
 62
     7
100
AcDbLine
 10
180.7695213863159
 20
224.7065501107173
 30
0.0
 11
180.7695213863159
 21
223.3601555349221
 31
0.0
  0
LINE
  5
231D
330
221A
100
AcDbEntity
  8
1
 62
     7
100
AcDbLine
 10
181.9195213863158
 20
224.9565501107173
 30
0.0
 11
181.9195213863158
 21
223.3601555349221
 31
0.0
  0
LINE
  5
231E
330
221A
100
AcDbEntity
  8
1
 62
     7
100
AcDbLine
 10
180.7695213863159
 20
223.3601555349221
 30
0.0
 11
181.9195213863158
 21
223.3601555349221
 31
0.0
  0
LINE
  5
231F
330
221A
100
AcDbEntity
  8
1
 62
     7
100
AcDbLine
 10
180.7695213863159
 20
237.5529446865122
 30
0.0
 11
180.7695213863159
 21
236.2065501107172
 31
0.0
  0
LINE
  5
2320
330
221A
100
AcDbEntity
  8
1
 62
     7
100
AcDbLine
 10
181.9195213863158
 20
237.5529446865122
 30
0.0
 11
180.7695213863159
 21
237.5529446865122
 31
0.0
  0
LINE
  5
2321
330
221A
100
AcDbEntity
  8
1
 62
     7
100
AcDbLine
 10
181.9195213863158
 20
237.5529446865122
 30
0.0
 11
181.9195213863158
 21
235.9565501107173
 31
0.0
  0
LINE
  5
2322
330
221A
100
AcDbEntity
  8
1
 62
     7
100
AcDbLine
 10
180.7695213863159
 20
236.2065501107172
 30
0.0
 11
180.7695213863159
 21
235.9565501107173
 31
0.0
  0
LINE
  5
2323
330
221A
100
AcDbEntity
  8
1
 62
     7
100
AcDbLine
 10
180.2695213863158
 20
236.2065501107172
 30
0.0
 11
180.2695213863158
 21
235.9565501107173
 31
0.0
  0
LINE
  5
2324
330
221A
100
AcDbEntity
  8
1
 62
     7
100
AcDbLine
 10
175.2695213863154
 20
235.9565501107173
 30
0.0
 11
180.2695213863158
 21
235.9565501107173
 31
0.0
  0
LINE
  5
2325
330
221A
100
AcDbEntity
  8
1
 62
     7
100
AcDbLine
 10
175.2695213863154
 20
235.9565501107173
 30
0.0
 11
175.0695213863159
 21
235.9565501107173
 31
0.0
  0
LINE
  5
2326
330
221A
100
AcDbEntity
  8
1
 62
     7
100
AcDbLine
 10
175.2695213863154
 20
236.2065501107172
 30
0.0
 11
175.2695213863154
 21
235.9565501107173
 31
0.0
  0
LINE
  5
2327
330
221A
100
AcDbEntity
  8
1
 62
     7
100
AcDbLine
 10
175.0695213863159
 20
235.9565501107173
 30
0.0
 11
174.7695213863158
 21
235.9565501107173
 31
0.0
  0
LINE
  5
2328
330
221A
100
AcDbEntity
  8
1
 62
     7
100
AcDbLine
 10
175.0695213863159
 20
236.5065501107173
 30
0.0
 11
175.0695213863159
 21
235.9565501107173
 31
0.0
  0
LINE
  5
2329
330
221A
100
AcDbEntity
  8
1
 62
     7
100
AcDbLine
 10
173.1695213863158
 20
236.5065501107173
 30
0.0
 11
173.1695213863158
 21
235.9565501107173
 31
0.0
  0
LINE
  5
232A
330
221A
100
AcDbEntity
  8
1
 62
     7
100
AcDbLine
 10
180.7695213863159
 20
237.9565501107173
 30
0.0
 11
180.7695213863159
 21
237.5529446865122
 31
0.0
  0
LINE
  5
232B
330
221A
100
AcDbEntity
  8
1
 62
     7
100
AcDbLine
 10
180.2695213863158
 20
237.9565501107173
 30
0.0
 11
180.2695213863158
 21
240.8245501107173
 31
0.0
  0
LINE
  5
232C
330
221A
100
AcDbEntity
  8
1
 62
     7
100
AcDbLine
 10
180.2695213863158
 20
237.9565501107173
 30
0.0
 11
180.7695213863159
 21
237.9565501107173
 31
0.0
  0
LINE
  5
232D
330
221A
100
AcDbEntity
  8
1
 62
     7
100
AcDbLine
 10
180.2695213863158
 20
236.2065501107172
 30
0.0
 11
180.7695213863159
 21
236.2065501107172
 31
0.0
  0
LINE
  5
232E
330
221A
100
AcDbEntity
  8
1
 62
     7
100
AcDbLine
 10
175.2695213863154
 20
236.2065501107172
 30
0.0
 11
180.2695213863158
 21
236.2065501107172
 31
0.0
  0
LINE
  5
232F
330
221A
100
AcDbEntity
  8
1
 62
     7
100
AcDbLine
 10
175.2695213863154
 20
237.2065501107173
 30
0.0
 11
175.2695213863154
 21
236.2065501107172
 31
0.0
  0
LINE
  5
2330
330
221A
100
AcDbEntity
  8
1
 62
     7
100
AcDbLine
 10
175.2695213863154
 20
240.8245501107173
 30
0.0
 11
175.2695213863154
 21
239.7065501107173
 31
0.0
  0
LINE
  5
2331
330
221A
100
AcDbEntity
  8
1
 62
     7
100
AcDbLine
 10
180.2695213863158
 20
236.2065501107172
 30
0.0
 11
180.2695213863158
 21
237.9565501107173
 31
0.0
  0
LINE
  5
2332
330
221A
100
AcDbEntity
  8
1
 62
     7
100
AcDbLine
 10
186.4695213863159
 20
224.9565501107173
 30
0.0
 11
186.9695213863159
 21
225.4565501107173
 31
0.0
  0
LINE
  5
2333
330
221A
100
AcDbEntity
  8
1
 62
     7
100
AcDbLine
 10
186.9695213863159
 20
235.4565501107173
 30
0.0
 11
186.4695213863159
 21
235.9565501107173
 31
0.0
  0
LINE
  5
2334
330
221A
100
AcDbEntity
  8
1
 62
     7
100
AcDbLine
 10
175.0695213863159
 20
224.4065501107173
 30
0.0
 11
174.7695213863158
 21
224.7065501107173
 31
0.0
  0
LINE
  5
2335
330
221A
100
AcDbEntity
  8
1
 62
     7
100
AcDbLine
 10
173.1695213863158
 20
224.4065501107173
 30
0.0
 11
173.4695213863159
 21
224.7065501107173
 31
0.0
  0
LINE
  5
2336
330
221A
100
AcDbEntity
  8
1
 62
     7
100
AcDbLine
 10
175.0695213863159
 20
236.5065501107173
 30
0.0
 11
174.7695213863158
 21
236.2065501107172
 31
0.0
  0
LINE
  5
2337
330
221A
100
AcDbEntity
  8
1
 62
     7
100
AcDbLine
 10
173.1695213863158
 20
236.5065501107173
 30
0.0
 11
173.4695213863159
 21
236.2065501107172
 31
0.0
  0
LINE
  5
2338
330
221A
100
AcDbEntity
  8
1
 62
     7
100
AcDbLine
 10
174.7695213863158
 20
242.4565501107172
 30
0.0
 11
175.0695213863159
 21
242.1565501107171
 31
0.0
  0
LINE
  5
2339
330
221A
100
AcDbEntity
  8
1
 62
     7
100
AcDbLine
 10
173.1695213863158
 20
242.1565501107171
 30
0.0
 11
173.4695213863159
 21
242.4565501107172
 31
0.0
  0
LINE
  5
233A
330
221A
100
AcDbEntity
  8
1
 62
     7
100
AcDbLine
 10
174.7695213863158
 20
218.4565501107173
 30
0.0
 11
175.0695213863159
 21
218.7565501107171
 31
0.0
  0
LINE
  5
233B
330
221A
100
AcDbEntity
  8
1
 62
     7
100
AcDbLine
 10
173.1695213863158
 20
218.7565501107171
 30
0.0
 11
173.4695213863159
 21
218.4565501107173
 31
0.0
  0
LINE
  5
233C
330
221A
100
AcDbEntity
  8
1
 62
     7
100
AcDbLine
 10
175.2695213863154
 20
237.2065501107173
 30
0.0
 11
175.0695213863159
 21
237.2065501107173
 31
0.0
  0
LINE
  5
233D
330
221A
100
AcDbEntity
  8
1
 62
     7
100
AcDbLine
 10
175.2695213863154
 20
239.7065501107173
 30
0.0
 11
175.2695213863154
 21
237.2065501107173
 31
0.0
  0
LINE
  5
233E
330
221A
100
AcDbEntity
  8
1
 62
     7
100
AcDbLine
 10
175.0695213863159
 20
239.7065501107173
 30
0.0
 11
175.2695213863154
 21
239.7065501107173
 31
0.0
  0
LINE
  5
233F
330
221A
100
AcDbEntity
  8
1
 62
     7
100
AcDbLine
 10
173.1695213863158
 20
239.7065501107173
 30
0.0
 11
173.1695213863158
 21
242.1565501107171
 31
0.0
  0
LINE
  5
2340
330
221A
100
AcDbEntity
  8
1
 62
     7
100
AcDbLine
 10
173.4695213863159
 20
242.4565501107172
 30
0.0
 11
174.7695213863158
 21
242.4565501107172
 31
0.0
  0
LINE
  5
2341
330
221A
100
AcDbEntity
  8
1
 62
     7
100
AcDbLine
 10
175.0695213863159
 20
239.7065501107173
 30
0.0
 11
175.0695213863159
 21
242.1565501107171
 31
0.0
  0
LINE
  5
2342
330
221A
100
AcDbEntity
  8
1
 62
     7
100
AcDbLine
 10
171.2695213863158
 20
237.2065501107173
 30
0.0
 11
171.2695213863158
 21
239.7065501107173
 31
0.0
  0
LINE
  5
2343
330
221A
100
AcDbEntity
  8
1
 62
     7
100
AcDbLine
 10
171.2695213863158
 20
239.7065501107173
 30
0.0
 11
173.1695213863158
 21
239.7065501107173
 31
0.0
  0
LINE
  5
2344
330
221A
100
AcDbEntity
  8
1
 62
     7
100
AcDbLine
 10
173.1695213863158
 20
237.2065501107173
 30
0.0
 11
173.1695213863158
 21
236.5065501107173
 31
0.0
  0
LINE
  5
2345
330
221A
100
AcDbEntity
  8
1
 62
     7
100
AcDbLine
 10
173.1695213863158
 20
237.2065501107173
 30
0.0
 11
171.2695213863158
 21
237.2065501107173
 31
0.0
  0
LINE
  5
2346
330
221A
100
AcDbEntity
  8
1
 62
     7
100
AcDbLine
 10
175.0695213863159
 20
237.2065501107173
 30
0.0
 11
175.0695213863159
 21
236.5065501107173
 31
0.0
  0
LINE
  5
2347
330
221A
100
AcDbEntity
  8
1
 62
     7
100
AcDbLine
 10
173.4695213863159
 20
236.2065501107172
 30
0.0
 11
174.7695213863158
 21
236.2065501107172
 31
0.0
  0
LINE
  5
2348
330
221A
100
AcDbEntity
  8
1
 62
     7
100
AcDbLine
 10
173.1695213863158
 20
223.7065501107172
 30
0.0
 11
173.1695213863158
 21
224.4065501107173
 31
0.0
  0
LINE
  5
2349
330
221A
100
AcDbEntity
  8
1
 62
     7
100
AcDbLine
 10
172.9695213863159
 20
223.7065501107172
 30
0.0
 11
173.1695213863158
 21
223.7065501107172
 31
0.0
  0
LINE
  5
234A
330
221A
100
AcDbEntity
  8
1
 62
     7
100
AcDbLine
 10
173.1695213863158
 20
221.2065501107173
 30
0.0
 11
172.9695213863159
 21
221.2065501107173
 31
0.0
  0
LINE
  5
234B
330
221A
100
AcDbEntity
  8
1
 62
     7
100
AcDbLine
 10
173.1695213863158
 20
221.2065501107173
 30
0.0
 11
173.1695213863158
 21
218.7565501107171
 31
0.0
  0
LINE
  5
234C
330
221A
100
AcDbEntity
  8
1
 62
     7
100
AcDbLine
 10
173.4695213863159
 20
218.4565501107173
 30
0.0
 11
174.7695213863158
 21
218.4565501107173
 31
0.0
  0
LINE
  5
234D
330
221A
100
AcDbEntity
  8
1
 62
     7
100
AcDbLine
 10
175.0695213863159
 20
221.2065501107173
 30
0.0
 11
175.0695213863159
 21
218.7565501107171
 31
0.0
  0
LINE
  5
234E
330
221A
100
AcDbEntity
  8
1
 62
     7
100
AcDbLine
 10
175.0695213863159
 20
223.7065501107172
 30
0.0
 11
175.0695213863159
 21
224.4065501107173
 31
0.0
  0
LINE
  5
234F
330
221A
100
AcDbEntity
  8
1
 62
     7
100
AcDbLine
 10
173.4695213863159
 20
224.7065501107173
 30
0.0
 11
174.7695213863158
 21
224.7065501107173
 31
0.0
  0
LINE
  5
2350
330
221A
100
AcDbEntity
  8
1
 62
     7
100
AcDbLine
 10
177.2695213863156
 20
223.7065501107172
 30
0.0
 11
177.2695213863156
 21
221.2065501107173
 31
0.0
  0
LINE
  5
2351
330
221A
100
AcDbEntity
  8
1
 62
     7
100
AcDbLine
 10
175.0695213863159
 20
221.2065501107173
 30
0.0
 11
177.2695213863156
 21
221.2065501107173
 31
0.0
  0
LINE
  5
2352
330
221A
100
AcDbEntity
  8
1
 62
     7
100
AcDbLine
 10
175.0695213863159
 20
223.7065501107172
 30
0.0
 11
177.2695213863156
 21
223.7065501107172
 31
0.0
  0
LINE
  5
2353
330
221A
100
AcDbEntity
  8
1
 62
     7
100
AcDbLine
 10
170.9695213863159
 20
227.6565501107171
 30
0.0
 11
170.9695213863159
 21
220.4565501107173
 31
0.0
  0
LINE
  5
2354
330
221A
100
AcDbEntity
  8
1
 62
     7
100
AcDbLine
 10
172.9695213863159
 20
220.4565501107173
 30
0.0
 11
170.9695213863159
 21
220.4565501107173
 31
0.0
  0
LINE
  5
2355
330
221A
100
AcDbEntity
  8
1
 62
     7
100
AcDbLine
 10
172.9695213863159
 20
220.4565501107173
 30
0.0
 11
172.9695213863159
 21
224.7565501107172
 31
0.0
  0
LINE
  5
2356
330
221A
100
AcDbEntity
  8
1
 62
     7
100
AcDbLine
 10
180.7695213863159
 20
224.9565501107173
 30
0.0
 11
174.7695213863158
 21
224.9565501107173
 31
0.0
  0
LINE
  5
2357
330
221A
100
AcDbEntity
  8
1
 62
     7
100
AcDbLine
 10
180.7695213863159
 20
225.2565501107171
 30
0.0
 11
180.7695213863159
 21
224.9565501107173
 31
0.0
  0
LINE
  5
2358
330
221A
100
AcDbEntity
  8
1
 62
     7
100
AcDbLine
 10
181.9195213863158
 20
225.2565501107171
 30
0.0
 11
180.7695213863159
 21
225.2565501107171
 31
0.0
  0
LINE
  5
2359
330
221A
100
AcDbEntity
  8
1
 62
     7
100
AcDbLine
 10
181.9195213863158
 20
224.9565501107173
 30
0.0
 11
181.9195213863158
 21
225.2565501107171
 31
0.0
  0
LINE
  5
235A
330
221A
100
AcDbEntity
  8
1
 62
     7
100
AcDbLine
 10
181.9195213863158
 20
224.9565501107173
 30
0.0
 11
186.4695213863159
 21
224.9565501107173
 31
0.0
  0
LINE
  5
235B
330
221A
100
AcDbEntity
  8
1
 62
     7
100
AcDbLine
 10
186.9695213863159
 20
227.6565501107171
 30
0.0
 11
186.9695213863159
 21
225.4565501107173
 31
0.0
  0
LINE
  5
235C
330
221A
100
AcDbEntity
  8
1
 62
     7
100
AcDbLine
 10
171.2695213863158
 20
227.9565501107172
 30
0.0
 11
186.6695213863158
 21
227.9565501107172
 31
0.0
  0
LINE
  5
235D
330
221A
100
AcDbEntity
  8
1
 62
     7
100
AcDbLine
 10
186.9695213863159
 20
227.6565501107171
 30
0.0
 11
186.6695213863158
 21
227.9565501107172
 31
0.0
  0
LINE
  5
235E
330
221A
100
AcDbEntity
  8
1
 62
     7
100
AcDbLine
 10
170.9695213863159
 20
227.6565501107171
 30
0.0
 11
171.2695213863158
 21
227.9565501107172
 31
0.0
  0
LINE
  5
235F
330
221A
100
AcDbEntity
  8
1
 62
     7
100
AcDbLine
 10
186.9695213863159
 20
230.4565501107173
 30
0.0
 11
186.9695213863159
 21
227.6565501107171
 31
0.0
  0
LINE
  5
2360
330
221A
100
AcDbEntity
  8
1
 62
     7
100
AcDbLine
 10
170.9695213863159
 20
230.4565501107173
 30
0.0
 11
170.9695213863159
 21
227.6565501107171
 31
0.0
  0
LINE
  5
2361
330
221A
100
AcDbEntity
  8
1
 62
     7
100
AcDbLine
 10
170.9695213863159
 20
233.2565501107171
 30
0.0
 11
170.9695213863159
 21
230.4565501107173
 31
0.0
  0
LINE
  5
2362
330
221A
100
AcDbEntity
  8
1
 62
     7
100
AcDbLine
 10
186.9695213863159
 20
233.2565501107171
 30
0.0
 11
186.9695213863159
 21
230.4565501107173
 31
0.0
  0
LINE
  5
2363
330
221A
100
AcDbEntity
  8
1
 62
     7
100
AcDbLine
 10
171.2695213863158
 20
232.9565501107173
 30
0.0
 11
170.9695213863159
 21
233.2565501107171
 31
0.0
  0
LINE
  5
2364
330
221A
100
AcDbEntity
  8
1
 62
     7
100
AcDbLine
 10
186.6695213863158
 20
232.9565501107173
 30
0.0
 11
186.9695213863159
 21
233.2565501107171
 31
0.0
  0
LINE
  5
2365
330
221A
100
AcDbEntity
  8
1
 62
     7
100
AcDbLine
 10
186.6695213863158
 20
232.9565501107173
 30
0.0
 11
185.4695213863159
 21
232.9565501107173
 31
0.0
  0
LINE
  5
2366
330
221A
100
AcDbEntity
  8
1
 62
     7
100
AcDbLine
 10
186.9695213863159
 20
233.2565501107171
 30
0.0
 11
186.9695213863159
 21
235.4565501107173
 31
0.0
  0
LINE
  5
2367
330
221A
100
AcDbEntity
  8
1
 62
     7
100
AcDbLine
 10
181.9195213863158
 20
235.9565501107173
 30
0.0
 11
182.4695213863159
 21
235.9565501107173
 31
0.0
  0
LINE
  5
2368
330
221A
100
AcDbEntity
  8
1
 62
     7
100
AcDbLine
 10
181.9195213863158
 20
235.6565501107172
 30
0.0
 11
181.9195213863158
 21
235.9565501107173
 31
0.0
  0
LINE
  5
2369
330
221A
100
AcDbEntity
  8
1
 62
     7
100
AcDbLine
 10
180.7695213863159
 20
235.6565501107172
 30
0.0
 11
181.9195213863158
 21
235.6565501107172
 31
0.0
  0
LINE
  5
236A
330
221A
100
AcDbEntity
  8
1
 62
     7
100
AcDbLine
 10
180.7695213863159
 20
235.9565501107173
 30
0.0
 11
180.7695213863159
 21
235.6565501107172
 31
0.0
  0
LINE
  5
236B
330
221A
100
AcDbEntity
  8
1
 62
     7
100
AcDbLine
 10
180.7695213863159
 20
235.9565501107173
 30
0.0
 11
180.2695213863158
 21
235.9565501107173
 31
0.0
  0
LINE
  5
236C
330
221A
100
AcDbEntity
  8
1
 62
     7
100
AcDbLine
 10
172.9695213863159
 20
240.4565501107172
 30
0.0
 11
172.9695213863159
 21
239.7065501107173
 31
0.0
  0
LINE
  5
236D
330
221A
100
AcDbEntity
  8
1
 62
     7
100
AcDbLine
 10
170.9695213863159
 20
240.4565501107172
 30
0.0
 11
172.9695213863159
 21
240.4565501107172
 31
0.0
  0
LINE
  5
236E
330
221A
100
AcDbEntity
  8
1
 62
     7
100
AcDbLine
 10
170.9695213863159
 20
240.4565501107172
 30
0.0
 11
170.9695213863159
 21
235.9565501107173
 31
0.0
  0
LINE
  5
236F
330
221A
100
AcDbEntity
  8
1
 62
     7
100
AcDbLine
 10
173.1695213863158
 20
235.9565501107173
 30
0.0
 11
170.9695213863159
 21
235.9565501107173
 31
0.0
  0
LINE
  5
2370
330
221A
100
AcDbEntity
  8
1
 62
     7
100
AcDbLine
 10
170.9695213863159
 20
235.9565501107173
 30
0.0
 11
170.9695213863159
 21
233.2565501107171
 31
0.0
  0
LINE
  5
2371
330
221A
100
AcDbEntity
  8
1
 62
     7
100
AcDbLine
 10
172.9695213863159
 20
237.2065501107173
 30
0.0
 11
172.9695213863159
 21
236.1565501107171
 31
0.0
  0
LINE
  5
2372
330
221A
100
AcDbEntity
  8
1
 62
     7
100
AcDbLine
 10
174.7695213863158
 20
236.2065501107172
 30
0.0
 11
174.7695213863158
 21
235.9565501107173
 31
0.0
  0
LINE
  5
2373
330
221A
100
AcDbEntity
  8
1
 62
     7
100
AcDbLine
 10
174.7695213863158
 20
235.9565501107173
 30
0.0
 11
173.4695213863159
 21
235.9565501107173
 31
0.0
  0
LINE
  5
2374
330
221A
100
AcDbEntity
  8
1
 62
     7
100
AcDbLine
 10
173.4695213863159
 20
236.2065501107172
 30
0.0
 11
173.4695213863159
 21
235.9565501107173
 31
0.0
  0
LINE
  5
2375
330
221A
100
AcDbEntity
  8
1
 62
     7
100
AcDbLine
 10
173.4695213863159
 20
235.9565501107173
 30
0.0
 11
173.1695213863158
 21
235.9565501107173
 31
0.0
  0
LINE
  5
2376
330
221A
100
AcDbEntity
  8
1
 62
     7
100
AcDbLine
 10
174.7695213863158
 20
224.7065501107173
 30
0.0
 11
174.7695213863158
 21
224.9565501107173
 31
0.0
  0
LINE
  5
2377
330
221A
100
AcDbEntity
  8
1
 62
     7
100
AcDbLine
 10
174.7695213863158
 20
224.9565501107173
 30
0.0
 11
175.0695213863159
 21
224.9565501107173
 31
0.0
  0
LINE
  5
2378
330
221A
100
AcDbEntity
  8
1
 62
     7
100
AcDbLine
 10
174.7695213863158
 20
224.9565501107173
 30
0.0
 11
173.4695213863159
 21
224.9565501107173
 31
0.0
  0
LINE
  5
2379
330
221A
100
AcDbEntity
  8
1
 62
     7
100
AcDbLine
 10
173.4695213863159
 20
224.7065501107173
 30
0.0
 11
173.4695213863159
 21
224.9565501107173
 31
0.0
  0
LINE
  5
237A
330
221A
100
AcDbEntity
  8
1
 62
     7
100
AcDbLine
 10
173.4695213863159
 20
224.9565501107173
 30
0.0
 11
174.7695213863158
 21
224.9565501107173
 31
0.0
  0
LINE
  5
237B
330
221A
100
AcDbEntity
  8
1
 62
     7
100
AcDbLine
 10
173.4695213863159
 20
224.9565501107173
 30
0.0
 11
173.1695213863158
 21
224.9565501107173
 31
0.0
  0
LINE
  5
237C
330
221A
100
AcDbEntity
  8
1
  6
CENTER
 62
     3
100
AcDbLine
 10
97.93589143391351
 20
206.8459214476318
 30
0.0
 11
97.93589143391351
 21
252.7815501107172
 31
0.0
  0
LINE
  5
237D
330
221A
100
AcDbEntity
  8
1
  6
CENTER
 62
     3
100
AcDbLine
 10
90.53137423155659
 20
234.731550110717
 30
0.0
 11
94.9481037908572
 21
232.1815501107173
 31
0.0
  0
LINE
  5
237E
330
221A
100
AcDbEntity
  8
1
  6
CENTER
 62
     3
100
AcDbLine
 10
90.53137423155659
 20
226.1815501107173
 30
0.0
 11
94.9481037908572
 21
228.7315501107172
 31
0.0
  0
LINE
  5
237F
330
221A
100
AcDbEntity
  8
1
  6
CENTER
 62
     3
100
AcDbLine
 10
105.3404086362705
 20
226.1815501107173
 30
0.0
 11
100.9236790769699
 21
228.7315501107172
 31
0.0
  0
LINE
  5
2380
330
221A
100
AcDbEntity
  8
1
  6
CENTER
 62
     3
100
AcDbLine
 10
105.3404086362705
 20
234.731550110717
 30
0.0
 11
100.9236790769699
 21
232.1815501107173
 31
0.0
  0
LINE
  5
2381
330
221A
100
AcDbEntity
  8
1
  6
CENTER
 62
     3
100
AcDbLine
 10
185.1695213863159
 20
230.4565501107173
 30
0.0
 11
185.4695213863159
 21
230.4565501107173
 31
0.0
  0
LINE
  5
2382
330
221A
100
AcDbEntity
  8
1
  6
CENTER
 62
     3
100
AcDbLine
 10
183.3545213863158
 20
230.4565501107173
 30
0.0
 11
170.4695213863159
 21
230.4565501107173
 31
0.0
  0
LINE
  5
2383
330
221A
100
AcDbEntity
  8
1
  6
CENTER
 62
     3
100
AcDbLine
 10
189.2363890403331
 20
230.4565501107173
 30
0.0
 11
185.4695213863159
 21
230.4565501107173
 31
0.0
  0
LINE
  5
2384
330
221A
100
AcDbEntity
  8
1
  6
CENTER
 62
     3
100
AcDbLine
 10
183.9695213863159
 20
236.9565501107173
 30
0.0
 11
183.9695213863159
 21
227.4577301107171
 31
0.0
  0
LINE
  5
2385
330
221A
100
AcDbEntity
  8
1
  6
CENTER
 62
     3
100
AcDbLine
 10
73.84826646312077
 20
230.4565501107173
 30
0.0
 11
119.1691238309112
 21
230.4565501107173
 31
0.0
  0
LINE
  5
2386
330
221A
100
AcDbEntity
  8
1
  6
CENTER
 62
     3
100
AcDbLine
 10
84.02356551406821
 20
244.3688760305624
 30
0.0
 11
87.0994800122297
 21
241.2929615324008
 31
0.0
  0
LINE
  5
2387
330
221A
100
AcDbEntity
  8
1
  6
CENTER
 62
     3
100
AcDbLine
 10
84.02356551406821
 20
216.544224190872
 30
0.0
 11
87.0994800122297
 21
219.6201386890333
 31
0.0
  0
LINE
  5
2388
330
221A
100
AcDbEntity
  8
1
  6
CENTER
 62
     3
100
AcDbLine
 10
111.8482173537588
 20
216.544224190872
 30
0.0
 11
108.7723028555974
 21
219.6201386890333
 31
0.0
  0
LINE
  5
2389
330
221A
100
AcDbEntity
  8
1
  6
CENTER
 62
     3
100
AcDbLine
 10
111.8482173537588
 20
244.3688760305624
 30
0.0
 11
108.7723028555974
 21
241.2929615324008
 31
0.0
  0
LINE
  5
238A
330
221A
100
AcDbEntity
  8
1
  6
CENTER
 62
     3
100
AcDbLine
 10
105.3503829359869
 20
248.3567160531236
 30
0.0
 11
103.915320064618
 21
244.8921678062061
 31
0.0
  0
LINE
  5
238B
330
221A
100
AcDbEntity
  8
1
  6
CENTER
 62
     3
100
AcDbLine
 10
90.52139993183986
 20
212.5563841683109
 30
0.0
 11
91.95646280320898
 21
216.0209324152284
 31
0.0
  0
LINE
  5
238C
330
221A
100
AcDbEntity
  8
1
  6
CENTER
 62
     3
100
AcDbLine
 10
231.5920359636292
 20
248.6994877469036
 30
0.0
 11
233.3280310332336
 21
244.5084249056517
 31
0.0
  0
LINE
  5
238D
330
221A
100
AcDbEntity
  8
1
  6
CENTER
 62
     3
100
AcDbLine
 10
246.7049803364988
 20
212.2136124745308
 30
0.0
 11
244.9689852668948
 21
216.4046753157827
 31
0.0
  0
LINE
  5
238E
330
221A
100
AcDbEntity
  8
1
  6
CENTER
 62
     3
100
AcDbLine
 10
239.1485081500642
 20
252.1315501107173
 30
0.0
 11
239.1485081500642
 21
207.9565501107169
 31
0.0
  0
LINE
  5
238F
330
221A
100
AcDbEntity
  8
1
  6
CENTER
 62
     3
100
AcDbLine
 10
225.2361822302189
 20
244.3688760305624
 30
0.0
 11
228.3120967283803
 21
241.2929615324008
 31
0.0
  0
LINE
  5
2390
330
221A
100
AcDbEntity
  8
1
  6
CENTER
 62
     3
100
AcDbLine
 10
225.2361822302189
 20
216.544224190872
 30
0.0
 11
228.3120967283803
 21
219.6201386890335
 31
0.0
  0
LINE
  5
2391
330
221A
100
AcDbEntity
  8
1
  6
CENTER
 62
     3
100
AcDbLine
 10
253.0608340699095
 20
216.544224190872
 30
0.0
 11
249.984919571748
 21
219.6201386890336
 31
0.0
  0
LINE
  5
2392
330
221A
100
AcDbEntity
  8
1
  6
CENTER
 62
     3
100
AcDbLine
 10
253.0608340699093
 20
244.3688760305624
 30
0.0
 11
249.984919571748
 21
241.2929615324008
 31
0.0
  0
ARC
  5
2393
330
221A
100
AcDbEntity
  8
0
 62
     7
100
AcDbCircle
 10
239.1485081500642
 20
230.691654654691
 30
0.0
 40
6.007185390389389
100
AcDbArc
 50
12.15539121100526
 51
75.54018234395716
  0
ARC
  5
2394
330
221A
100
AcDbEntity
  8
0
 62
     7
100
AcDbCircle
 10
239.1485081500642
 20
230.691654654691
 30
0.0
 40
6.007185390389397
100
AcDbArc
 50
289.2696388779717
 51
343.2115871753374
  0
ARC
  5
2395
330
221A
100
AcDbEntity
  8
0
 62
     7
100
AcDbCircle
 10
240.5257210902477
 20
223.9414991255213
 30
0.0
 40
0.3624244579500413
100
AcDbArc
 50
270.0000000007995
 51
0.00000000007328
  0
ARC
  5
2396
330
221A
100
AcDbEntity
  8
0
 62
     7
100
AcDbCircle
 10
241.2505700061335
 20
224.6788960886509
 30
0.0
 40
0.3624244579443811
100
AcDbArc
 50
109.2696388775042
 51
180.0
  0
ARC
  5
2397
330
221A
100
AcDbEntity
  8
0
 62
     7
100
AcDbCircle
 10
237.771295209888
 20
223.941499125522
 30
0.0
 40
0.3624244579505032
100
AcDbArc
 50
180.0
 51
269.9999999985424
  0
ARC
  5
2398
330
221A
100
AcDbEntity
  8
0
 62
     7
100
AcDbCircle
 10
237.0464462939986
 20
224.6788960886477
 30
0.0
 40
0.3624244579480376
100
AcDbArc
 50
0.0000000005455287
 51
70.73036112249416
  0
ARC
  5
2399
330
221A
100
AcDbEntity
  8
0
 62
     7
100
AcDbCircle
 10
239.1485081500654
 20
230.691654654691
 30
0.0
 40
6.007185390389411
100
AcDbArc
 50
104.4598176560544
 51
250.730361122028
  0
ARC
  5
239A
330
221A
100
AcDbEntity
  8
1
 62
     7
100
AcDbCircle
 10
239.1485081500642
 20
242.4560501107172
 30
0.0
 40
1.200000000000053
100
AcDbArc
 50
299.2331458905188
 51
60.78569504984696
  0
ARC
  5
239B
330
221A
100
AcDbEntity
  8
1
 62
     7
100
AcDbCircle
 10
239.1485081500642
 20
242.4560501107172
 30
0.0
 40
1.40000000000005
100
AcDbArc
 50
327.0835487114455
 51
29.63676957832358
  0
ARC
  5
239C
330
221A
100
AcDbEntity
  8
1
 62
     7
100
AcDbCircle
 10
239.1485081500642
 20
242.4560501107172
 30
0.0
 40
1.199999999999965
100
AcDbArc
 50
218.0194141457341
 51
240.7668541094845
  0
ARC
  5
239D
330
221A
100
AcDbEntity
  8
1
 62
     7
100
AcDbCircle
 10
239.1485081500642
 20
230.4565501107173
 30
0.0
 40
13.05999999999994
100
AcDbArc
 50
87.42963234683291
 51
92.57036765316708
  0
ARC
  5
239E
330
221A
100
AcDbEntity
  8
1
 62
     7
100
AcDbCircle
 10
239.1485081500642
 20
230.4565501107173
 30
0.0
 40
13.05999999999992
100
AcDbArc
 50
92.57036765316708
 51
87.42963234683291
  0
ARC
  5
239F
330
221A
100
AcDbEntity
  8
1
 62
     7
100
AcDbCircle
 10
239.1485081500642
 20
230.4565501107173
 30
0.0
 40
10.96799999999995
100
AcDbArc
 50
86.93713787897257
 51
93.06286212102579
  0
ARC
  5
23A0
330
221A
100
AcDbEntity
  8
1
 62
     7
100
AcDbCircle
 10
239.1485081500642
 20
230.4565501107173
 30
0.0
 40
10.96799999999993
100
AcDbArc
 50
93.06286212102579
 51
86.93713787897257
  0
ARC
  5
23A1
330
221A
100
AcDbEntity
  8
1
 62
     7
100
AcDbCircle
 10
239.1485081500642
 20
242.4560501107172
 30
0.0
 40
1.400000000000007
100
AcDbArc
 50
150.3632304216764
 51
212.916451288558
  0
ARC
  5
23A2
330
221A
100
AcDbEntity
  8
1
 62
     7
100
AcDbCircle
 10
235.6115934347204
 20
241.9229459937481
 30
0.0
 40
1.400000000000062
100
AcDbArc
 50
167.5060875645369
 51
230.0593084314132
  0
ARC
  5
23A3
330
221A
100
AcDbEntity
  8
1
 62
     7
100
AcDbCircle
 10
232.3889491133297
 20
240.3710022831222
 30
0.0
 40
1.399999999999975
100
AcDbArc
 50
184.648944707391
 51
247.2021655742705
  0
ARC
  5
23A4
330
221A
100
AcDbEntity
  8
1
 62
     7
100
AcDbCircle
 10
229.7669212761892
 20
237.938115988121
 30
0.0
 40
1.400000000000003
100
AcDbArc
 50
201.7918018502462
 51
264.3450227171263
  0
ARC
  5
23A5
330
221A
100
AcDbEntity
  8
1
 62
     7
100
AcDbCircle
 10
227.9784886032079
 20
234.840459732602
 30
0.0
 40
1.400000000000118
100
AcDbArc
 50
218.9346589931107
 51
281.487879859982
  0
ARC
  5
23A6
330
221A
100
AcDbEntity
  8
1
 62
     7
100
AcDbCircle
 10
227.1825611857887
 20
231.3532738687074
 30
0.0
 40
1.399999999999902
100
AcDbArc
 50
236.0775161359585
 51
298.6307370028392
  0
ARC
  5
23A7
330
221A
100
AcDbEntity
  8
1
 62
     7
100
AcDbCircle
 10
227.4498606678384
 20
227.7864101637085
 30
0.0
 40
1.400000000000007
100
AcDbArc
 50
253.2203732788207
 51
315.7735941456973
  0
ARC
  5
23A8
330
221A
100
AcDbEntity
  8
1
 62
     7
100
AcDbCircle
 10
228.7566363173529
 20
224.4568001107173
 30
0.0
 40
1.40000000000003
100
AcDbArc
 50
270.3632304216768
 51
332.9164512885572
  0
ARC
  5
23A9
330
221A
100
AcDbEntity
  8
1
 62
     7
100
AcDbCircle
 10
230.9867753831821
 20
221.6602941746951
 30
0.0
 40
1.399999999999961
100
AcDbArc
 50
287.5060875645337
 51
350.0593084314128
  0
ARC
  5
23AA
330
221A
100
AcDbEntity
  8
1
 62
     7
100
AcDbCircle
 10
233.9421202225228
 20
219.6453741803221
 30
0.0
 40
1.399999999999876
100
AcDbArc
 50
304.6489447073941
 51
7.202165574269829
  0
ARC
  5
23AB
330
221A
100
AcDbEntity
  8
1
 62
     7
100
AcDbCircle
 10
237.3600754770832
 20
218.5910746114286
 30
0.0
 40
1.400000000000003
100
AcDbArc
 50
321.7918018502497
 51
24.3450227171232
  0
ARC
  5
23AC
330
221A
100
AcDbEntity
  8
1
 62
     7
100
AcDbCircle
 10
240.9369408230451
 20
218.5910746114286
 30
0.0
 40
1.400000000000003
100
AcDbArc
 50
338.934658993105
 51
41.48787985998156
  0
ARC
  5
23AD
330
221A
100
AcDbEntity
  8
1
 62
     7
100
AcDbCircle
 10
244.3548960776053
 20
219.6453741803221
 30
0.0
 40
1.399999999999945
100
AcDbArc
 50
356.0775161359663
 51
58.63073700284225
  0
ARC
  5
23AE
330
221A
100
AcDbEntity
  8
1
 62
     7
100
AcDbCircle
 10
247.3102409169463
 20
221.6602941746951
 30
0.0
 40
1.399999999999975
100
AcDbArc
 50
13.22037327881748
 51
75.77359414569873
  0
ARC
  5
23AF
330
221A
100
AcDbEntity
  8
1
 62
     7
100
AcDbCircle
 10
249.5403799827756
 20
224.4568001107173
 30
0.0
 40
1.400000000000065
100
AcDbArc
 50
30.36323042167738
 51
92.91645128855577
  0
ARC
  5
23B0
330
221A
100
AcDbEntity
  8
1
 62
     7
100
AcDbCircle
 10
250.8471556322898
 20
227.7864101637085
 30
0.0
 40
1.400000000000106
100
AcDbArc
 50
47.50608756453361
 51
110.0593084314104
  0
ARC
  5
23B1
330
221A
100
AcDbEntity
  8
1
 62
     7
100
AcDbCircle
 10
251.1144551143396
 20
231.3532738687074
 30
0.0
 40
1.400000000000034
100
AcDbArc
 50
64.64894470739252
 51
127.2021655742705
  0
ARC
  5
23B2
330
221A
100
AcDbEntity
  8
1
 62
     7
100
AcDbCircle
 10
250.3185276969204
 20
234.840459732602
 30
0.0
 40
1.39999999999983
100
AcDbArc
 50
81.79180185024883
 51
144.3450227171287
  0
ARC
  5
23B3
330
221A
100
AcDbEntity
  8
1
 62
     7
100
AcDbCircle
 10
248.5300950239393
 20
237.938115988121
 30
0.0
 40
1.40000000000008
100
AcDbArc
 50
98.93465899310776
 51
161.4878798599785
  0
ARC
  5
23B4
330
221A
100
AcDbEntity
  8
1
 62
     7
100
AcDbCircle
 10
245.9080671867987
 20
240.3710022831222
 30
0.0
 40
1.400000000000011
100
AcDbArc
 50
116.077516135966
 51
178.6307370028438
  0
ARC
  5
23B5
330
221A
100
AcDbEntity
  8
1
 62
     7
100
AcDbCircle
 10
242.6854228654074
 20
241.9229459937481
 30
0.0
 40
1.400000000000023
100
AcDbArc
 50
133.220373278821
 51
195.7735941456975
  0
ARC
  5
23B6
330
221A
100
AcDbEntity
  8
1
 62
     7
100
AcDbCircle
 10
235.6115934347204
 20
241.9229459937481
 30
0.0
 40
1.199999999999965
100
AcDbArc
 50
136.3571620930088
 51
257.909711252336
  0
ARC
  5
23B7
330
221A
100
AcDbEntity
  8
1
 62
     7
100
AcDbCircle
 10
232.3889491133297
 20
240.3710022831222
 30
0.0
 40
1.199999999999936
100
AcDbArc
 50
153.5000192358704
 51
275.0525683951944
  0
ARC
  5
23B8
330
221A
100
AcDbEntity
  8
1
 62
     7
100
AcDbCircle
 10
229.7669212761892
 20
237.938115988121
 30
0.0
 40
1.200000000000013
100
AcDbArc
 50
170.6428763787218
 51
292.1954255380496
  0
ARC
  5
23B9
330
221A
100
AcDbEntity
  8
1
 62
     7
100
AcDbCircle
 10
227.9784886032079
 20
234.840459732602
 30
0.0
 40
1.200000000000047
100
AcDbArc
 50
187.7857335215835
 51
309.3382826809098
  0
ARC
  5
23BA
330
221A
100
AcDbEntity
  8
1
 62
     7
100
AcDbCircle
 10
227.1825611857887
 20
231.3532738687074
 30
0.0
 40
1.199999999999979
100
AcDbArc
 50
204.9285906644302
 51
326.4811398237688
  0
ARC
  5
23BB
330
221A
100
AcDbEntity
  8
1
 62
     7
100
AcDbCircle
 10
227.4498606678384
 20
227.7864101637085
 30
0.0
 40
1.199999999999914
100
AcDbArc
 50
222.07144780729
 51
343.623996966624
  0
ARC
  5
23BC
330
221A
100
AcDbEntity
  8
1
 62
     7
100
AcDbCircle
 10
228.7566363173529
 20
224.4568001107173
 30
0.0
 40
1.200000000000023
100
AcDbArc
 50
239.2143049501511
 51
0.7668541094815553
  0
ARC
  5
23BD
330
221A
100
AcDbEntity
  8
1
 62
     7
100
AcDbCircle
 10
230.9867753831821
 20
221.6602941746951
 30
0.0
 40
1.200000000000011
100
AcDbArc
 50
256.3571620930094
 51
17.90971125234064
  0
ARC
  5
23BE
330
221A
100
AcDbEntity
  8
1
 62
     7
100
AcDbCircle
 10
233.9421202225228
 20
219.6453741803221
 30
0.0
 40
1.200000000000059
100
AcDbArc
 50
273.5000192358651
 51
35.05256839519923
  0
ARC
  5
23BF
330
221A
100
AcDbEntity
  8
1
 62
     7
100
AcDbCircle
 10
237.3600754770832
 20
218.5910746114286
 30
0.0
 40
1.200000000000124
100
AcDbArc
 50
290.6428763787183
 51
52.19542553804945
  0
ARC
  5
23C0
330
221A
100
AcDbEntity
  8
1
 62
     7
100
AcDbCircle
 10
240.9369408230451
 20
218.5910746114286
 30
0.0
 40
1.19999999999999
100
AcDbArc
 50
307.7857335215786
 51
69.33828268090614
  0
ARC
  5
23C1
330
221A
100
AcDbEntity
  8
1
 62
     7
100
AcDbCircle
 10
244.3548960776053
 20
219.6453741803221
 30
0.0
 40
1.199999999999969
100
AcDbArc
 50
324.9285906644348
 51
86.48113982377035
  0
ARC
  5
23C2
330
221A
100
AcDbEntity
  8
1
 62
     7
100
AcDbCircle
 10
247.3102409169463
 20
221.6602941746951
 30
0.0
 40
1.200000000000017
100
AcDbArc
 50
342.0714478072895
 51
103.6239969666274
  0
ARC
  5
23C3
330
221A
100
AcDbEntity
  8
1
 62
     7
100
AcDbCircle
 10
249.5403799827756
 20
224.4568001107173
 30
0.0
 40
1.200000000000023
100
AcDbArc
 50
359.2143049501536
 51
120.7668541094778
  0
ARC
  5
23C4
330
221A
100
AcDbEntity
  8
1
 62
     7
100
AcDbCircle
 10
250.8471556322898
 20
227.7864101637085
 30
0.0
 40
1.200000000000073
100
AcDbArc
 50
16.35716209300741
 51
137.909711252338
  0
ARC
  5
23C5
330
221A
100
AcDbEntity
  8
1
 62
     7
100
AcDbCircle
 10
251.1144551143396
 20
231.3532738687074
 30
0.0
 40
1.200000000000061
100
AcDbArc
 50
33.50001923586396
 51
155.0525683951914
  0
ARC
  5
23C6
330
221A
100
AcDbEntity
  8
1
 62
     7
100
AcDbCircle
 10
250.3185276969204
 20
234.840459732602
 30
0.0
 40
1.199999999999854
100
AcDbArc
 50
50.64287637871882
 51
172.1954255380623
  0
ARC
  5
23C7
330
221A
100
AcDbEntity
  8
1
 62
     7
100
AcDbCircle
 10
248.5300950239393
 20
237.938115988121
 30
0.0
 40
1.200000000000114
100
AcDbArc
 50
67.78573352158068
 51
189.3382826809108
  0
ARC
  5
23C8
330
221A
100
AcDbEntity
  8
1
 62
     7
100
AcDbCircle
 10
245.9080671867987
 20
240.3710022831222
 30
0.0
 40
1.19999999999992
100
AcDbArc
 50
84.92859066443815
 51
206.4811398237658
  0
ARC
  5
23C9
330
221A
100
AcDbEntity
  8
1
 62
     7
100
AcDbCircle
 10
242.6854228654074
 20
241.9229459937481
 30
0.0
 40
1.199999999999989
100
AcDbArc
 50
102.0714478072932
 51
223.623996966624
  0
ARC
  5
23CA
330
221A
100
AcDbEntity
  8
1
 62
     7
100
AcDbCircle
 10
235.6115934347204
 20
241.9229459937481
 30
0.0
 40
1.199999999999969
100
AcDbArc
 50
53.65354300568148
 51
77.92855219270506
  0
ARC
  5
23CB
330
221A
100
AcDbEntity
  8
1
 62
     7
100
AcDbCircle
 10
232.3889491133297
 20
240.3710022831222
 30
0.0
 40
1.200000000000069
100
AcDbArc
 50
333.5188601762244
 51
95.07140933556671
  0
ARC
  5
23CC
330
221A
100
AcDbEntity
  8
1
 62
     7
100
AcDbCircle
 10
229.7669212761892
 20
237.938115988121
 30
0.0
 40
1.199999999999989
100
AcDbArc
 50
350.6617173190891
 51
112.2142664784208
  0
ARC
  5
23CD
330
221A
100
AcDbEntity
  8
1
 62
     7
100
AcDbCircle
 10
227.9784886032079
 20
234.840459732602
 30
0.0
 40
1.199999999999965
100
AcDbArc
 50
7.804574461937701
 51
129.3571236212833
  0
ARC
  5
23CE
330
221A
100
AcDbEntity
  8
1
 62
     7
100
AcDbCircle
 10
227.1825611857887
 20
231.3532738687074
 30
0.0
 40
1.200000000000021
100
AcDbArc
 50
24.94743160480821
 51
146.499980764136
  0
ARC
  5
23CF
330
221A
100
AcDbEntity
  8
1
 62
     7
100
AcDbCircle
 10
227.4498606678384
 20
227.7864101637085
 30
0.0
 40
1.200000000000031
100
AcDbArc
 50
42.09028874766196
 51
163.6428379069925
  0
ARC
  5
23D0
330
221A
100
AcDbEntity
  8
1
 62
     7
100
AcDbCircle
 10
228.7566363173529
 20
224.4568001107173
 30
0.0
 40
1.200000000000053
100
AcDbArc
 50
59.23314589051845
 51
180.7856950498463
  0
ARC
  5
23D1
330
221A
100
AcDbEntity
  8
1
 62
     7
100
AcDbCircle
 10
230.9867753831821
 20
221.6602941746951
 30
0.0
 40
1.200000000000019
100
AcDbArc
 50
76.37600303337603
 51
197.9285521927037
  0
ARC
  5
23D2
330
221A
100
AcDbEntity
  8
1
 62
     7
100
AcDbCircle
 10
233.9421202225228
 20
219.6453741803221
 30
0.0
 40
1.200000000000049
100
AcDbArc
 50
93.51886017623449
 51
215.0714093355628
  0
ARC
  5
23D3
330
221A
100
AcDbEntity
  8
1
 62
     7
100
AcDbCircle
 10
237.3600754770832
 20
218.5910746114286
 30
0.0
 40
1.199999999999844
100
AcDbArc
 50
110.6617173190937
 51
232.2142664784211
  0
ARC
  5
23D4
330
221A
100
AcDbEntity
  8
1
 62
     7
100
AcDbCircle
 10
240.9369408230451
 20
218.5910746114286
 30
0.0
 40
1.199999999999894
100
AcDbArc
 50
127.8045744619505
 51
249.3571236212814
  0
ARC
  5
23D5
330
221A
100
AcDbEntity
  8
1
 62
     7
100
AcDbCircle
 10
244.3548960776053
 20
219.6453741803221
 30
0.0
 40
1.200000000000079
100
AcDbArc
 50
144.9474316048043
 51
266.4999807641345
  0
ARC
  5
23D6
330
221A
100
AcDbEntity
  8
1
 62
     7
100
AcDbCircle
 10
247.3102409169463
 20
221.6602941746951
 30
0.0
 40
1.199999999999985
100
AcDbArc
 50
162.0902887476592
 51
283.642837906992
  0
ARC
  5
23D7
330
221A
100
AcDbEntity
  8
1
 62
     7
100
AcDbCircle
 10
249.5403799827756
 20
224.4568001107173
 30
0.0
 40
1.199999999999995
100
AcDbArc
 50
179.2331458905184
 51
300.7856950498486
  0
ARC
  5
23D8
330
221A
100
AcDbEntity
  8
1
 62
     7
100
AcDbCircle
 10
250.8471556322898
 20
227.7864101637085
 30
0.0
 40
1.199999999999906
100
AcDbArc
 50
196.3760030333775
 51
317.9285521927146
  0
ARC
  5
23D9
330
221A
100
AcDbEntity
  8
1
 62
     7
100
AcDbCircle
 10
251.1144551143396
 20
231.3532738687074
 30
0.0
 40
1.199999999999959
100
AcDbArc
 50
213.5188601762309
 51
335.0714093355691
  0
ARC
  5
23DA
330
221A
100
AcDbEntity
  8
1
 62
     7
100
AcDbCircle
 10
250.3185276969204
 20
234.840459732602
 30
0.0
 40
1.200000000000027
100
AcDbArc
 50
230.6617173190885
 51
352.2142664784162
  0
ARC
  5
23DB
330
221A
100
AcDbEntity
  8
1
 62
     7
100
AcDbCircle
 10
248.5300950239393
 20
237.938115988121
 30
0.0
 40
1.200000000000092
100
AcDbArc
 50
247.8045744619449
 51
9.357123621278038
  0
ARC
  5
23DC
330
221A
100
AcDbEntity
  8
1
 62
     7
100
AcDbCircle
 10
245.9080671867987
 20
240.3710022831222
 30
0.0
 40
1.200000000000122
100
AcDbArc
 50
264.9474316048038
 51
26.49998076413903
  0
ARC
  5
23DD
330
221A
100
AcDbEntity
  8
1
 62
     7
100
AcDbCircle
 10
242.6854228654074
 20
241.9229459937481
 30
0.0
 40
1.199999999999954
100
AcDbArc
 50
282.0902887476622
 51
43.64283790699234
  0
ARC
  5
23DE
330
221A
100
AcDbEntity
  8
1
 62
     7
100
AcDbCircle
 10
235.6115934347204
 20
241.9229459937481
 30
0.0
 40
1.399999999999985
100
AcDbArc
 50
344.2264058543023
 51
46.7796267211809
  0
ARC
  5
23DF
330
221A
100
AcDbEntity
  8
1
 62
     7
100
AcDbCircle
 10
232.3889491133297
 20
240.3710022831222
 30
0.0
 40
1.399999999999983
100
AcDbArc
 50
1.369262997155835
 51
63.92248386403741
  0
ARC
  5
23E0
330
221A
100
AcDbEntity
  8
1
 62
     7
100
AcDbCircle
 10
229.7669212761892
 20
237.938115988121
 30
0.0
 40
1.399999999999965
100
AcDbArc
 50
18.5121201400213
 51
81.06534100689549
  0
ARC
  5
23E1
330
221A
100
AcDbEntity
  8
1
 62
     7
100
AcDbCircle
 10
227.9784886032079
 20
234.840459732602
 30
0.0
 40
1.399999999999927
100
AcDbArc
 50
35.65497728287257
 51
98.2081981497528
  0
ARC
  5
23E2
330
221A
100
AcDbEntity
  8
1
 62
     7
100
AcDbCircle
 10
227.1825611857887
 20
231.3532738687074
 30
0.0
 40
1.400000000000037
100
AcDbArc
 50
52.79783442573289
 51
115.3510552926072
  0
ARC
  5
23E3
330
221A
100
AcDbEntity
  8
1
 62
     7
100
AcDbCircle
 10
227.4498606678384
 20
227.7864101637085
 30
0.0
 40
1.399999999999991
100
AcDbArc
 50
69.94069156858796
 51
132.4939124354617
  0
ARC
  5
23E4
330
221A
100
AcDbEntity
  8
1
 62
     7
100
AcDbCircle
 10
228.7566363173529
 20
224.4568001107173
 30
0.0
 40
1.399999999999991
100
AcDbArc
 50
87.08354871144424
 51
149.6367695783224
  0
ARC
  5
23E5
330
221A
100
AcDbEntity
  8
1
 62
     7
100
AcDbCircle
 10
230.9867753831821
 20
221.6602941746951
 30
0.0
 40
1.399999999999969
100
AcDbArc
 50
104.2264058543046
 51
166.7796267211777
  0
ARC
  5
23E6
330
221A
100
AcDbEntity
  8
1
 62
     7
100
AcDbCircle
 10
233.9421202225228
 20
219.6453741803221
 30
0.0
 40
1.400000000000007
100
AcDbArc
 50
121.3692629971612
 51
183.9224838640335
  0
ARC
  5
23E7
330
221A
100
AcDbEntity
  8
1
 62
     7
100
AcDbCircle
 10
237.3600754770832
 20
218.5910746114286
 30
0.0
 40
1.399999999999929
100
AcDbArc
 50
138.5121201400182
 51
201.0653410068932
  0
ARC
  5
23E8
330
221A
100
AcDbEntity
  8
1
 62
     7
100
AcDbCircle
 10
240.9369408230451
 20
218.5910746114286
 30
0.0
 40
1.399999999999914
100
AcDbArc
 50
155.6549772828804
 51
218.2081981497494
  0
ARC
  5
23E9
330
221A
100
AcDbEntity
  8
1
 62
     7
100
AcDbCircle
 10
244.3548960776053
 20
219.6453741803221
 30
0.0
 40
1.400000000000009
100
AcDbArc
 50
172.79783442573
 51
235.3510552926072
  0
ARC
  5
23EA
330
221A
100
AcDbEntity
  8
1
 62
     7
100
AcDbCircle
 10
247.3102409169463
 20
221.6602941746951
 30
0.0
 40
1.399999999999985
100
AcDbArc
 50
189.9406915685865
 51
252.4939124354677
  0
ARC
  5
23EB
330
221A
100
AcDbEntity
  8
1
 62
     7
100
AcDbCircle
 10
249.5403799827756
 20
224.4568001107173
 30
0.0
 40
1.400000000000003
100
AcDbArc
 50
207.0835487114484
 51
269.6367695783245
  0
ARC
  5
23EC
330
221A
100
AcDbEntity
  8
1
 62
     7
100
AcDbCircle
 10
250.8471556322898
 20
227.7864101637085
 30
0.0
 40
1.399999999999971
100
AcDbArc
 50
224.2264058543049
 51
286.7796267211823
  0
ARC
  5
23ED
330
221A
100
AcDbEntity
  8
1
 62
     7
100
AcDbCircle
 10
251.1144551143396
 20
231.3532738687074
 30
0.0
 40
1.399999999999971
100
AcDbArc
 50
241.3692629971606
 51
303.9224838640368
  0
ARC
  5
23EE
330
221A
100
AcDbEntity
  8
1
 62
     7
100
AcDbCircle
 10
250.3185276969204
 20
234.840459732602
 30
0.0
 40
1.400000000000142
100
AcDbArc
 50
258.5121201400176
 51
321.0653410068893
  0
ARC
  5
23EF
330
221A
100
AcDbEntity
  8
1
 62
     7
100
AcDbCircle
 10
248.5300950239393
 20
237.938115988121
 30
0.0
 40
1.399999999999952
100
AcDbArc
 50
275.6549772828718
 51
338.2081981497535
  0
ARC
  5
23F0
330
221A
100
AcDbEntity
  8
1
 62
     7
100
AcDbCircle
 10
245.9080671867987
 20
240.3710022831222
 30
0.0
 40
1.399999999999945
100
AcDbArc
 50
292.7978344257308
 51
355.3510552926081
  0
ARC
  5
23F1
330
221A
100
AcDbEntity
  8
1
 62
     7
100
AcDbCircle
 10
242.6854228654074
 20
241.9229459937481
 30
0.0
 40
1.400000000000065
100
AcDbArc
 50
309.9406915685867
 51
12.49391243546297
  0
ARC
  5
23F2
330
221A
100
AcDbEntity
  8
1
 62
     7
100
AcDbCircle
 10
239.1485081500642
 20
230.4565501107173
 30
0.0
 40
12.75000000000003
100
AcDbArc
 50
94.33837954781269
 51
102.804477595044
  0
ARC
  5
23F3
330
221A
100
AcDbEntity
  8
1
 62
     7
100
AcDbCircle
 10
239.1485081500642
 20
242.4560501107172
 30
0.0
 40
1.199999999999938
100
AcDbArc
 50
119.2143049501486
 51
143.4893141371699
  0
ARC
  5
23F4
330
221A
100
AcDbEntity
  8
1
 62
     7
100
AcDbCircle
 10
235.6115934347204
 20
241.9229459937481
 30
0.0
 40
1.199999999999979
100
AcDbArc
 50
339.1234429971222
 51
53.65354300568148
  0
ARC
  5
23F5
330
221A
100
AcDbEntity
  8
1
 62
     7
100
AcDbCircle
 10
239.1485081500642
 20
230.4565501107173
 30
0.0
 40
11.3
100
AcDbArc
 50
94.79899703665195
 51
102.3438601062053
  0
ARC
  5
23F6
330
221A
100
AcDbEntity
  8
1
 62
     7
100
AcDbCircle
 10
239.1485081500642
 20
242.4560501107172
 30
0.0
 40
1.200000000000023
100
AcDbArc
 50
143.4893141371699
 51
218.0194141457341
  0
ARC
  5
23F7
330
221A
100
AcDbEntity
  8
1
 62
     7
100
AcDbCircle
 10
235.6115934347204
 20
241.9229459937481
 30
0.0
 40
1.199999999999959
100
AcDbArc
 50
316.3760030333736
 51
339.1234429971222
  0
ARC
  5
23F8
330
221A
100
AcDbEntity
  8
1
 62
     7
100
AcDbCircle
 10
239.1485081500642
 20
230.4565501107173
 30
0.0
 40
12.74999999999998
100
AcDbArc
 50
111.4812366906686
 51
119.9473347379006
  0
ARC
  5
23F9
330
221A
100
AcDbEntity
  8
1
 62
     7
100
AcDbCircle
 10
239.1485081500642
 20
230.4565501107173
 30
0.0
 40
12.74999999999996
100
AcDbArc
 50
128.6240938335263
 51
137.0901918807589
  0
ARC
  5
23FA
330
221A
100
AcDbEntity
  8
1
 62
     7
100
AcDbCircle
 10
239.1485081500642
 20
230.4565501107173
 30
0.0
 40
12.7499999999999
100
AcDbArc
 50
145.7669509763835
 51
154.2330490236158
  0
ARC
  5
23FB
330
221A
100
AcDbEntity
  8
1
 62
     7
100
AcDbCircle
 10
239.1485081500642
 20
230.4565501107173
 30
0.0
 40
12.74999999999994
100
AcDbArc
 50
162.9098081192404
 51
171.375906166474
  0
ARC
  5
23FC
330
221A
100
AcDbEntity
  8
1
 62
     7
100
AcDbCircle
 10
239.1485081500642
 20
230.4565501107173
 30
0.0
 40
12.74999999999997
100
AcDbArc
 50
180.0526652620977
 51
188.5187633093305
  0
ARC
  5
23FD
330
221A
100
AcDbEntity
  8
1
 62
     7
100
AcDbCircle
 10
239.1485081500642
 20
230.4565501107173
 30
0.0
 40
12.74999999999997
100
AcDbArc
 50
197.1955224049554
 51
205.6616204521881
  0
ARC
  5
23FE
330
221A
100
AcDbEntity
  8
1
 62
     7
100
AcDbCircle
 10
239.1485081500642
 20
230.4565501107173
 30
0.0
 40
12.74999999999998
100
AcDbArc
 50
214.3383795478124
 51
222.8044775950454
  0
ARC
  5
23FF
330
221A
100
AcDbEntity
  8
1
 62
     7
100
AcDbCircle
 10
239.1485081500642
 20
230.4565501107173
 30
0.0
 40
12.74999999999995
100
AcDbArc
 50
231.4812366906691
 51
239.947334737903
  0
ARC
  5
2400
330
221A
100
AcDbEntity
  8
1
 62
     7
100
AcDbCircle
 10
239.1485081500642
 20
230.4565501107173
 30
0.0
 40
12.75000000000007
100
AcDbArc
 50
248.6240938335273
 51
257.0901918807592
  0
ARC
  5
2401
330
221A
100
AcDbEntity
  8
1
 62
     7
100
AcDbCircle
 10
239.1485081500642
 20
230.4565501107173
 30
0.0
 40
12.74999999999996
100
AcDbArc
 50
265.7669509763834
 51
274.2330490236164
  0
ARC
  5
2402
330
221A
100
AcDbEntity
  8
1
 62
     7
100
AcDbCircle
 10
239.1485081500642
 20
230.4565501107173
 30
0.0
 40
12.75000000000005
100
AcDbArc
 50
282.9098081192406
 51
291.3759061664725
  0
ARC
  5
2403
330
221A
100
AcDbEntity
  8
1
 62
     7
100
AcDbCircle
 10
239.1485081500642
 20
230.4565501107173
 30
0.0
 40
12.75000000000007
100
AcDbArc
 50
300.0526652620977
 51
308.5187633093306
  0
ARC
  5
2404
330
221A
100
AcDbEntity
  8
1
 62
     7
100
AcDbCircle
 10
239.1485081500642
 20
230.4565501107173
 30
0.0
 40
12.75000000000002
100
AcDbArc
 50
317.1955224049546
 51
325.661620452188
  0
ARC
  5
2405
330
221A
100
AcDbEntity
  8
1
 62
     7
100
AcDbCircle
 10
239.1485081500642
 20
230.4565501107173
 30
0.0
 40
12.75000000000011
100
AcDbArc
 50
334.3383795478116
 51
342.8044775950443
  0
ARC
  5
2406
330
221A
100
AcDbEntity
  8
1
 62
     7
100
AcDbCircle
 10
239.1485081500642
 20
230.4565501107173
 30
0.0
 40
12.75000000000007
100
AcDbArc
 50
351.4812366906695
 51
359.9473347379018
  0
ARC
  5
2407
330
221A
100
AcDbEntity
  8
1
 62
     7
100
AcDbCircle
 10
239.1485081500642
 20
230.4565501107173
 30
0.0
 40
12.75000000000008
100
AcDbArc
 50
8.624093833525924
 51
17.09019188075943
  0
ARC
  5
2408
330
221A
100
AcDbEntity
  8
1
 62
     7
100
AcDbCircle
 10
239.1485081500642
 20
230.4565501107173
 30
0.0
 40
12.75000000000008
100
AcDbArc
 50
25.76695097638401
 51
34.23304902361545
  0
ARC
  5
2409
330
221A
100
AcDbEntity
  8
1
 62
     7
100
AcDbCircle
 10
239.1485081500642
 20
230.4565501107173
 30
0.0
 40
12.7500000000001
100
AcDbArc
 50
42.90980811924105
 51
51.37590616647353
  0
ARC
  5
240A
330
221A
100
AcDbEntity
  8
1
 62
     7
100
AcDbCircle
 10
239.1485081500642
 20
230.4565501107173
 30
0.0
 40
12.75000000000006
100
AcDbArc
 50
60.0526652620971
 51
68.51876330932973
  0
ARC
  5
240B
330
221A
100
AcDbEntity
  8
1
 62
     7
100
AcDbCircle
 10
239.1485081500642
 20
230.4565501107173
 30
0.0
 40
12.75000000000002
100
AcDbArc
 50
77.19552240495421
 51
85.6616204521873
  0
ARC
  5
240C
330
221A
100
AcDbEntity
  8
1
 62
     7
100
AcDbCircle
 10
239.1485081500642
 20
230.4565501107173
 30
0.0
 40
11.29999999999994
100
AcDbArc
 50
111.9418541795083
 51
119.4867172490612
  0
ARC
  5
240D
330
221A
100
AcDbEntity
  8
1
 62
     7
100
AcDbCircle
 10
239.1485081500642
 20
230.4565501107173
 30
0.0
 40
11.29999999999994
100
AcDbArc
 50
129.0847113223657
 51
136.6295743919189
  0
ARC
  5
240E
330
221A
100
AcDbEntity
  8
1
 62
     7
100
AcDbCircle
 10
239.1485081500642
 20
230.4565501107173
 30
0.0
 40
11.29999999999999
100
AcDbArc
 50
146.2275684652238
 51
153.7724315347754
  0
ARC
  5
240F
330
221A
100
AcDbEntity
  8
1
 62
     7
100
AcDbCircle
 10
239.1485081500642
 20
230.4565501107173
 30
0.0
 40
11.29999999999993
100
AcDbArc
 50
163.3704256080795
 51
170.9152886776331
  0
ARC
  5
2410
330
221A
100
AcDbEntity
  8
1
 62
     7
100
AcDbCircle
 10
239.1485081500642
 20
230.4565501107173
 30
0.0
 40
11.29999999999997
100
AcDbArc
 50
180.5132827509368
 51
188.0581458204898
  0
ARC
  5
2411
330
221A
100
AcDbEntity
  8
1
 62
     7
100
AcDbCircle
 10
239.1485081500642
 20
230.4565501107173
 30
0.0
 40
11.29999999999994
100
AcDbArc
 50
197.656139893794
 51
205.2010029633474
  0
ARC
  5
2412
330
221A
100
AcDbEntity
  8
1
 62
     7
100
AcDbCircle
 10
239.1485081500642
 20
230.4565501107173
 30
0.0
 40
11.29999999999997
100
AcDbArc
 50
214.7989970366515
 51
222.3438601062047
  0
ARC
  5
2413
330
221A
100
AcDbEntity
  8
1
 62
     7
100
AcDbCircle
 10
239.1485081500642
 20
230.4565501107173
 30
0.0
 40
11.29999999999996
100
AcDbArc
 50
231.9418541795088
 51
239.4867172490624
  0
ARC
  5
2414
330
221A
100
AcDbEntity
  8
1
 62
     7
100
AcDbCircle
 10
239.1485081500642
 20
230.4565501107173
 30
0.0
 40
11.30000000000001
100
AcDbArc
 50
249.0847113223663
 51
256.629574391919
  0
ARC
  5
2415
330
221A
100
AcDbEntity
  8
1
 62
     7
100
AcDbCircle
 10
239.1485081500642
 20
230.4565501107173
 30
0.0
 40
11.29999999999998
100
AcDbArc
 50
266.2275684652224
 51
273.7724315347774
  0
ARC
  5
2416
330
221A
100
AcDbEntity
  8
1
 62
     7
100
AcDbCircle
 10
239.1485081500642
 20
230.4565501107173
 30
0.0
 40
11.29999999999991
100
AcDbArc
 50
283.3704256080806
 51
290.9152886776336
  0
ARC
  5
2417
330
221A
100
AcDbEntity
  8
1
 62
     7
100
AcDbCircle
 10
239.1485081500642
 20
230.4565501107173
 30
0.0
 40
11.30000000000001
100
AcDbArc
 50
300.5132827509376
 51
308.0581458204906
  0
ARC
  5
2418
330
221A
100
AcDbEntity
  8
1
 62
     7
100
AcDbCircle
 10
239.1485081500642
 20
230.4565501107173
 30
0.0
 40
11.29999999999998
100
AcDbArc
 50
317.6561398937952
 51
325.2010029633485
  0
ARC
  5
2419
330
221A
100
AcDbEntity
  8
1
 62
     7
100
AcDbCircle
 10
239.1485081500642
 20
230.4565501107173
 30
0.0
 40
11.30000000000005
100
AcDbArc
 50
334.7989970366524
 51
342.3438601062051
  0
ARC
  5
241A
330
221A
100
AcDbEntity
  8
1
 62
     7
100
AcDbCircle
 10
239.1485081500642
 20
230.4565501107173
 30
0.0
 40
11.30000000000008
100
AcDbArc
 50
351.9418541795085
 51
359.486717249063
  0
ARC
  5
241B
330
221A
100
AcDbEntity
  8
1
 62
     7
100
AcDbCircle
 10
239.1485081500642
 20
230.4565501107173
 30
0.0
 40
11.30000000000005
100
AcDbArc
 50
9.084711322366898
 51
16.62957439191868
  0
ARC
  5
241C
330
221A
100
AcDbEntity
  8
1
 62
     7
100
AcDbCircle
 10
239.1485081500642
 20
230.4565501107173
 30
0.0
 40
11.30000000000005
100
AcDbArc
 50
26.22756846522305
 51
33.77243153477616
  0
ARC
  5
241D
330
221A
100
AcDbEntity
  8
1
 62
     7
100
AcDbCircle
 10
239.1485081500642
 20
230.4565501107173
 30
0.0
 40
11.30000000000001
100
AcDbArc
 50
43.37042560808106
 51
50.91528867763309
  0
ARC
  5
241E
330
221A
100
AcDbEntity
  8
1
 62
     7
100
AcDbCircle
 10
239.1485081500642
 20
230.4565501107173
 30
0.0
 40
11.30000000000016
100
AcDbArc
 50
60.51328275093793
 51
68.05814582049103
  0
ARC
  5
241F
330
221A
100
AcDbEntity
  8
1
 62
     7
100
AcDbCircle
 10
239.1485081500642
 20
230.4565501107173
 30
0.0
 40
11.30000000000005
100
AcDbArc
 50
77.65613989379464
 51
85.20100296334803
  0
ARC
  5
2420
330
221A
100
AcDbEntity
  8
1
 62
     7
100
AcDbCircle
 10
177.5695213863159
 20
242.4560501107172
 30
0.0
 40
1.190625000000059
100
AcDbArc
 50
90.0
 51
240.0374126430058
  0
ARC
  5
2421
330
221A
100
AcDbEntity
  8
1
 62
     7
100
AcDbCircle
 10
177.5695213863159
 20
242.4560501107172
 30
0.0
 40
1.190624999999913
100
AcDbArc
 50
240.0374126430058
 51
270.0
  0
ARC
  5
2422
330
221A
100
AcDbEntity
  8
1
 62
     7
100
AcDbCircle
 10
177.5695213863159
 20
242.4560501107172
 30
0.0
 40
1.190624999999978
100
AcDbArc
 50
270.0
 51
299.9625873569917
  0
ARC
  5
2423
330
221A
100
AcDbEntity
  8
1
 62
     7
100
AcDbCircle
 10
177.5695213863159
 20
242.4560501107172
 30
0.0
 40
1.190624999999891
100
AcDbArc
 50
299.9625873569917
 51
90.0
  0
ARC
  5
2424
330
221A
100
AcDbEntity
  8
1
 62
     7
100
AcDbCircle
 10
177.5695213863159
 20
218.4570501107172
 30
0.0
 40
1.190624999999899
100
AcDbArc
 50
270.0
 51
60.03741264301329
  0
ARC
  5
2425
330
221A
100
AcDbEntity
  8
1
 62
     7
100
AcDbCircle
 10
177.5695213863159
 20
218.4570501107172
 30
0.0
 40
1.19062500000009
100
AcDbArc
 50
60.03741264301329
 51
90.0
  0
ARC
  5
2426
330
221A
100
AcDbEntity
  8
1
 62
     7
100
AcDbCircle
 10
177.5695213863159
 20
218.4570501107172
 30
0.0
 40
1.19062500000001
100
AcDbArc
 50
90.0
 51
119.9625873569879
  0
ARC
  5
2427
330
221A
100
AcDbEntity
  8
1
 62
     7
100
AcDbCircle
 10
177.5695213863159
 20
218.4570501107172
 30
0.0
 40
1.19062500000011
100
AcDbArc
 50
119.9625873569879
 51
270.0
  0
ARC
  5
2428
330
221A
100
AcDbEntity
  8
1
 62
     7
100
AcDbCircle
 10
172.7046348129652
 20
207.2455501107171
 30
0.0
 40
9.390281509064907
100
AcDbArc
 50
74.78193893069057
 51
90.4436552255532
  0
ARC
  5
2429
330
221A
100
AcDbEntity
  8
1
 62
     7
100
AcDbCircle
 10
163.5995003745609
 20
217.3258783239151
 30
0.0
 40
0.6903282912216519
100
AcDbArc
 50
181.8227590018031
 51
269.972759001808
  0
ARC
  5
242A
330
221A
100
AcDbEntity
  8
1
 62
     7
100
AcDbCircle
 10
163.5995003745609
 20
243.5872218975194
 30
0.0
 40
0.6903282912215614
100
AcDbArc
 50
90.02724099819181
 51
178.1772409981881
  0
ARC
  5
242B
330
221A
100
AcDbEntity
  8
1
 62
     7
100
AcDbCircle
 10
172.7046348129653
 20
253.6675501107171
 30
0.0
 40
9.390281509064886
100
AcDbArc
 50
269.5563447744468
 51
285.2180610693094
  0
CIRCLE
  5
242C
330
221A
100
AcDbEntity
  8
0
 62
     7
100
AcDbCircle
 10
240.1089329636118
 20
224.4488933666214
 30
0.0
 40
0.3624244579422182
  0
CIRCLE
  5
242D
330
221A
100
AcDbEntity
  8
0
 62
     7
100
AcDbCircle
 10
238.1880833365204
 20
224.4488933666214
 30
0.0
 40
0.3624244579403708
  0
CIRCLE
  5
242E
330
221A
100
AcDbEntity
  8
1
 62
     7
100
AcDbCircle
 10
239.1485081500642
 20
230.4565501107173
 30
0.0
 40
10.368
  0
CIRCLE
  5
242F
330
221A
100
AcDbEntity
  8
1
 62
     7
100
AcDbCircle
 10
239.1485081500642
 20
230.4565501107173
 30
0.0
 40
13.63100000000001
  0
CIRCLE
  5
2430
330
221A
100
AcDbEntity
  8
1
 62
     7
100
AcDbCircle
 10
239.1485081500642
 20
230.4565501107173
 30
0.0
 40
5.500000000000039
  0
CIRCLE
  5
2431
330
221A
100
AcDbEntity
  8
1
 62
     7
100
AcDbCircle
 10
232.4515480836748
 20
246.6244419296646
 30
0.0
 40
1.449999999999928
  0
CIRCLE
  5
2432
330
221A
100
AcDbEntity
  8
1
 62
     7
100
AcDbCircle
 10
232.4515480836748
 20
246.6244419296646
 30
0.0
 40
0.9999999999999504
  0
CIRCLE
  5
2433
330
221A
100
AcDbEntity
  8
1
 62
     3
100
AcDbCircle
 10
232.4515480836748
 20
246.6244419296646
 30
0.0
 40
1.24999999999995
  0
CIRCLE
  5
2434
330
221A
100
AcDbEntity
  8
1
  6
CENTER
 62
     3
100
AcDbCircle
 10
239.1485081500642
 20
230.4565501107173
 30
0.0
 40
17.49999999999996
  0
CIRCLE
  5
2435
330
221A
100
AcDbEntity
  8
1
 62
     7
100
AcDbCircle
 10
97.93589143391351
 20
230.4565501107173
 30
0.0
 40
20.0
  0
CIRCLE
  5
2436
330
221A
100
AcDbEntity
  8
1
 62
     7
100
AcDbCircle
 10
97.93589143391351
 20
230.4565501107173
 30
0.0
 40
3.0
  0
CIRCLE
  5
2437
330
221A
100
AcDbEntity
  8
1
 62
     7
100
AcDbCircle
 10
239.1485081500642
 20
230.4565501107173
 30
0.0
 40
14.14999999999992
  0
CIRCLE
  5
2438
330
221A
100
AcDbEntity
  8
1
 62
     7
100
AcDbCircle
 10
239.1485081500642
 20
230.4565501107173
 30
0.0
 40
14.02449750222134
  0
CIRCLE
  5
2439
330
221A
100
AcDbEntity
  8
1
 62
     7
100
AcDbCircle
 10
239.1485081500642
 20
230.4565501107173
 30
0.0
 40
7.500000000000006
  0
CIRCLE
  5
243A
330
221A
100
AcDbEntity
  8
1
 62
     7
100
AcDbCircle
 10
239.1485081500642
 20
230.4565501107173
 30
0.0
 40
2.500000000000003
  0
CIRCLE
  5
243B
330
221A
100
AcDbEntity
  8
1
 62
     7
100
AcDbCircle
 10
239.1485081500642
 20
230.4565501107173
 30
0.0
 40
20.0
  0
CIRCLE
  5
243C
330
221A
100
AcDbEntity
  8
1
  6
CENTER
 62
     3
100
AcDbCircle
 10
97.93589143391351
 20
230.4565501107173
 30
0.0
 40
17.5
  0
CIRCLE
  5
243D
330
221A
100
AcDbEntity
  8
1
  6
CENTER
 62
     3
100
AcDbCircle
 10
97.93589143391351
 20
230.4565501107173
 30
0.0
 40
6.0
  0
CIRCLE
  5
243E
330
221A
100
AcDbEntity
  8
1
 62
     7
100
AcDbCircle
 10
97.93589143391351
 20
236.4565501107172
 30
0.0
 40
1.700000000000017
  0
CIRCLE
  5
243F
330
221A
100
AcDbEntity
  8
1
 62
     7
100
AcDbCircle
 10
92.7397390112069
 20
233.4565501107173
 30
0.0
 40
1.699999999999973
  0
CIRCLE
  5
2440
330
221A
100
AcDbEntity
  8
1
 62
     7
100
AcDbCircle
 10
92.7397390112069
 20
227.4565501107173
 30
0.0
 40
1.699999999999956
  0
CIRCLE
  5
2441
330
221A
100
AcDbEntity
  8
1
 62
     7
100
AcDbCircle
 10
97.93589143391351
 20
224.4565501107173
 30
0.0
 40
1.700000000000073
  0
CIRCLE
  5
2442
330
221A
100
AcDbEntity
  8
1
 62
     7
100
AcDbCircle
 10
103.1320438566202
 20
227.4565501107173
 30
0.0
 40
1.699999999999956
  0
CIRCLE
  5
2443
330
221A
100
AcDbEntity
  8
1
 62
     7
100
AcDbCircle
 10
103.1320438566202
 20
233.4565501107173
 30
0.0
 40
1.700000000000037
  0
CIRCLE
  5
2444
330
221A
100
AcDbEntity
  8
1
 62
     3
100
AcDbCircle
 10
183.9695213863159
 20
230.4565501107173
 30
0.0
 40
1.200000000000003
  0
CIRCLE
  5
2445
330
221A
100
AcDbEntity
  8
1
 62
     7
100
AcDbCircle
 10
183.9695213863159
 20
230.4565501107173
 30
0.0
 40
1.5
  0
CIRCLE
  5
2446
330
221A
100
AcDbEntity
  8
1
 62
     7
100
AcDbCircle
 10
97.93589143391351
 20
230.4565501107173
 30
0.0
 40
15.50000000000002
  0
CIRCLE
  5
2447
330
221A
100
AcDbEntity
  8
1
 62
     7
100
AcDbCircle
 10
97.93589143391351
 20
230.4565501107173
 30
0.0
 40
14.14999999999992
  0
CIRCLE
  5
2448
330
221A
100
AcDbEntity
  8
1
 62
     7
100
AcDbCircle
 10
97.93589143391351
 20
230.4565501107173
 30
0.0
 40
13.80099999999995
  0
CIRCLE
  5
2449
330
221A
100
AcDbEntity
  8
1
 62
     7
100
AcDbCircle
 10
97.93589143391351
 20
247.9565501107173
 30
0.0
 40
1.450000000000017
  0
CIRCLE
  5
244A
330
221A
100
AcDbEntity
  8
1
 62
     7
100
AcDbCircle
 10
85.56152276314902
 20
242.8309187814817
 30
0.0
 40
1.450000000000019
  0
CIRCLE
  5
244B
330
221A
100
AcDbEntity
  8
1
 62
     7
100
AcDbCircle
 10
80.43589143391349
 20
230.4565501107173
 30
0.0
 40
1.450000000000017
  0
CIRCLE
  5
244C
330
221A
100
AcDbEntity
  8
1
 62
     7
100
AcDbCircle
 10
85.56152276314902
 20
218.0821814399527
 30
0.0
 40
1.450000000000013
  0
CIRCLE
  5
244D
330
221A
100
AcDbEntity
  8
1
 62
     7
100
AcDbCircle
 10
97.93589143391359
 20
212.9565501107173
 30
0.0
 40
1.449999999999989
  0
CIRCLE
  5
244E
330
221A
100
AcDbEntity
  8
1
 62
     7
100
AcDbCircle
 10
110.310260104678
 20
218.0821814399527
 30
0.0
 40
1.449999999999979
  0
CIRCLE
  5
244F
330
221A
100
AcDbEntity
  8
1
 62
     7
100
AcDbCircle
 10
115.4358914339135
 20
230.4565501107173
 30
0.0
 40
1.449999999999989
  0
CIRCLE
  5
2450
330
221A
100
AcDbEntity
  8
1
 62
     7
100
AcDbCircle
 10
110.310260104678
 20
242.8309187814817
 30
0.0
 40
1.44999999999993
  0
CIRCLE
  5
2451
330
221A
100
AcDbEntity
  8
1
 62
     3
100
AcDbCircle
 10
104.6328515003025
 20
246.6244419296646
 30
0.0
 40
1.25
  0
CIRCLE
  5
2452
330
221A
100
AcDbEntity
  8
1
 62
     7
100
AcDbCircle
 10
104.6328515003025
 20
246.6244419296646
 30
0.0
 40
1.0
  0
CIRCLE
  5
2453
330
221A
100
AcDbEntity
  8
1
 62
     3
100
AcDbCircle
 10
91.23893136752441
 20
214.2886582917696
 30
0.0
 40
1.25
  0
CIRCLE
  5
2454
330
221A
100
AcDbEntity
  8
1
 62
     7
100
AcDbCircle
 10
91.23893136752441
 20
214.2886582917696
 30
0.0
 40
1.0
  0
CIRCLE
  5
2455
330
221A
100
AcDbEntity
  8
1
 62
     7
100
AcDbCircle
 10
245.8454682164533
 20
214.2886582917696
 30
0.0
 40
1.449999999999955
  0
CIRCLE
  5
2456
330
221A
100
AcDbEntity
  8
1
 62
     7
100
AcDbCircle
 10
245.8454682164533
 20
214.2886582917696
 30
0.0
 40
1.0
  0
CIRCLE
  5
2457
330
221A
100
AcDbEntity
  8
1
 62
     3
100
AcDbCircle
 10
245.8454682164533
 20
214.2886582917696
 30
0.0
 40
1.25
  0
CIRCLE
  5
2458
330
221A
100
AcDbEntity
  8
1
 62
     7
100
AcDbCircle
 10
239.1485081500642
 20
247.9565501107173
 30
0.0
 40
1.450000000000003
  0
CIRCLE
  5
2459
330
221A
100
AcDbEntity
  8
1
 62
     7
100
AcDbCircle
 10
226.7741394792992
 20
242.8309187814817
 30
0.0
 40
1.450000000000124
  0
CIRCLE
  5
245A
330
221A
100
AcDbEntity
  8
1
 62
     7
100
AcDbCircle
 10
221.6485081500642
 20
230.4565501107173
 30
0.0
 40
1.449999999999989
  0
CIRCLE
  5
245B
330
221A
100
AcDbEntity
  8
1
 62
     7
100
AcDbCircle
 10
226.7741394792992
 20
218.0821814399528
 30
0.0
 40
1.450000000000011
  0
CIRCLE
  5
245C
330
221A
100
AcDbEntity
  8
1
 62
     7
100
AcDbCircle
 10
239.1485081500642
 20
212.9565501107173
 30
0.0
 40
1.449999999999995
  0
CIRCLE
  5
245D
330
221A
100
AcDbEntity
  8
1
 62
     7
100
AcDbCircle
 10
251.5228768208288
 20
218.0821814399528
 30
0.0
 40
1.450000000000011
  0
CIRCLE
  5
245E
330
221A
100
AcDbEntity
  8
1
 62
     7
100
AcDbCircle
 10
256.648508150064
 20
230.4565501107173
 30
0.0
 40
1.450000000000017
  0
CIRCLE
  5
245F
330
221A
100
AcDbEntity
  8
1
 62
     7
100
AcDbCircle
 10
251.5228768208287
 20
242.8309187814817
 30
0.0
 40
1.449999999999926
  0
CIRCLE
  5
2460
330
221A
100
AcDbEntity
  8
1
 62
     7
100
AcDbCircle
 10
97.93589143391351
 20
230.4565501107173
 30
0.0
 40
8.900000000000051
  0
ARC
  5
2465
330
221A
100
AcDbEntity
  8
1
 62
     7
100
AcDbCircle
 10
180.5695213863159
 20
244.201529356896
 30
0.0
 40
0.1000000000000227
100
AcDbArc
 50
0.0
 51
69.99999999997569
  0
ARC
  5
2466
330
221A
100
AcDbEntity
  8
1
 62
     7
100
AcDbCircle
 10
163.6595213863158
 20
217.3155501107173
 30
0.0
 40
0.4901020301937141
100
AcDbArc
 50
178.8308606720923
 51
268.8308606720921
  0
ARC
  5
2467
330
221A
100
AcDbEntity
  8
1
 62
     7
100
AcDbCircle
 10
162.6895967748213
 20
221.3365501107173
 30
0.0
 40
0.219999999999978
100
AcDbArc
 50
1.4999999999913
 51
90.0
  0
ARC
  5
2468
330
221A
100
AcDbEntity
  8
1
 62
     7
100
AcDbCircle
 10
180.5695213863159
 20
216.7115708645382
 30
0.0
 40
0.1000000000000026
100
AcDbArc
 50
290.0000000000068
 51
0.0
  0
ARC
  5
2469
330
221A
100
AcDbEntity
  8
1
 62
     7
100
AcDbCircle
 10
180.5695213863159
 20
216.7255501107173
 30
0.0
 40
0.1000000000000227
100
AcDbArc
 50
0.0
 51
90.0
  0
ARC
  5
246A
330
221A
100
AcDbEntity
  8
1
 62
     7
100
AcDbCircle
 10
180.5695213863159
 20
244.1875501107173
 30
0.0
 40
0.1000000000000014
100
AcDbArc
 50
270.0
 51
0.0
  0
ARC
  5
246B
330
221A
100
AcDbEntity
  8
1
 62
     7
100
AcDbCircle
 10
162.6895967748213
 20
239.5765501107173
 30
0.0
 40
0.2200000000000273
100
AcDbArc
 50
270.0
 51
358.5000000000005
  0
ARC
  5
246C
330
221A
100
AcDbEntity
  8
1
 62
     7
100
AcDbCircle
 10
163.6695213863158
 20
243.5875501107168
 30
0.0
 40
0.5
100
AcDbArc
 50
90.0
 51
180.0
  0
ARC
  5
246D
330
221A
100
AcDbEntity
  8
1
 62
     7
100
AcDbCircle
 10
175.3695213863159
 20
214.6565501107172
 30
0.0
 40
0.3000000000000114
100
AcDbArc
 50
0.0
 51
90.0
  0
ARC
  5
246E
330
221A
100
AcDbEntity
  8
1
 62
     7
100
AcDbCircle
 10
175.3695213863159
 20
246.256550110717
 30
0.0
 40
0.2999999999998995
100
AcDbArc
 50
270.0
 51
0.0
  0
ARC
  5
246F
330
221A
100
AcDbEntity
  8
1
 62
     7
100
AcDbCircle
 10
173.1695213863158
 20
224.7565501107172
 30
0.0
 40
0.2000000000000171
100
AcDbArc
 50
90.0
 51
180.0
  0
ARC
  5
2470
330
221A
100
AcDbEntity
  8
1
 62
     7
100
AcDbCircle
 10
173.1695213863158
 20
236.1565501107171
 30
0.0
 40
0.2000000000000033
100
AcDbArc
 50
180.0
 51
270.0
  0
ARC
  5
2471
330
221A
100
AcDbEntity
  8
1
 62
     7
100
AcDbCircle
 10
173.1695213863158
 20
224.7565501107172
 30
0.0
 40
0.2000000000000171
100
AcDbArc
 50
90.0
 51
180.0
  0
TEXT
  5
2476
330
221A
100
AcDbEntity
  8
1
 62
     3
100
AcDbText
 10
93.81604043292513
 20
163.3312315871038
 30
0.0
 40
1.1
  1
 
 41
0.9
100
AcDbText
  0
TEXT
  5
247C
330
221A
100
AcDbEntity
  8
1
 62
     0
100
AcDbText
 10
218.6309405951712
 20
193.732510924905
 30
0.0
 40
3.299999999999999
  1
CSF-11-XXX-2A-R.dxf
 41
0.9
100
AcDbText
  0
TEXT
  5
247D
330
221A
100
AcDbEntity
  8
1
 62
     0
100
AcDbText
 10
147.5938868681217
 20
190.0247189900515
 30
0.0
 40
1.8
  1
REMARKS:  M.H.C = MINIMUM HOUSING CLEARANCE
 41
0.9
 72
     1
 11
171.0879368681218
 21
190.9247189900515
 31
0.0
100
AcDbText
 73
     2
  0
TEXT
  5
247E
330
221A
100
AcDbEntity
  8
1
 62
     0
100
AcDbText
 10
243.3966023010114
 20
187.6393167367129
 30
0.0
 40
2.2
  1
2002/3
 41
0.9
 72
     1
 11
247.5704696799069
 21
188.7393167367129
 31
0.0
100
AcDbText
 73
     2
  0
INSERT
  5
24F3
330
221A
100
AcDbEntity
  8
AM_0
100
AcDbBlockReference
  2
HD Logo
 10
195.8495924880024
 20
155.5893929052204
 30
0.0
 41
0.5400000000000002
 42
0.5400000000000002
 43
0.5400000000000002
  0
INSERT
  5
2525
330
221A
100
AcDbEntity
  8
AM_0
100
AcDbBlockReference
  2
HD LLC
 10
248.5741996562432
 20
155.2673647824713
 30
0.0
 41
0.6003214743517992
 42
0.6003214743517992
 43
0.6003214743517992
  0
INSERT
  5
2533
330
221A
100
AcDbEntity
  8
AM_0
100
AcDbBlockReference
  2
NTC
 10
68.84869005962653
 20
175.6207182020924
 30
0.0
 41
0.3200000000000001
 42
0.3200000000000001
 43
0.3200000000000001
  0
ENDSEC
  0
SECTION
  2
OBJECTS
  0
DICTIONARY
  5
2208
330
0
100
AcDbDictionary
281
     1
  3
ACAD_GROUP
350
2209
  3
ACAD_LAYOUT
350
2215
  3
ACAD_MLINESTYLE
350
2212
  3
ACAD_PLOTSETTINGS
350
2214
  3
ACAD_PLOTSTYLENAME
350
220A
  3
AcDbVariableDictionary
350
2514
  0
DICTIONARY
  5
2209
102
{ACAD_REACTORS
330
2208
102
}
330
2208
100
AcDbDictionary
281
     1
  0
DICTIONARY
  5
2215
102
{ACAD_REACTORS
330
2208
102
}
330
2208
100
AcDbDictionary
281
     1
  3
Layout1
350
2219
  3
Model
350
221D
  0
DICTIONARY
  5
2212
102
{ACAD_REACTORS
330
2208
102
}
330
2208
100
AcDbDictionary
281
     1
  3
Standard
350
2213
  0
DICTIONARY
  5
2214
102
{ACAD_REACTORS
330
2208
102
}
330
2208
100
AcDbDictionary
281
     1
  0
ACDBDICTIONARYWDFLT
  5
220A
102
{ACAD_REACTORS
330
2208
102
}
330
2208
100
AcDbDictionary
281
     1
  3
Normal
350
220B
100
AcDbDictionaryWithDefault
340
220B
  0
DICTIONARY
  5
2514
102
{ACAD_REACTORS
330
2208
102
}
330
2208
100
AcDbDictionary
281
     1
  3
DIMASSOC
350
2515
  0
LAYOUT
  5
2219
102
{ACAD_REACTORS
330
2215
102
}
330
2215
100
AcDbPlotSettings
  1

  2
\\SERVER9\HP LaserJet 5100 PCL 5e
  4

  6

 40
0.0
 41
0.0
 42
0.0
 43
0.0
 44
0.0
 45
0.0
 46
0.0
 47
0.0
 48
0.0
 49
0.0
140
0.0
141
0.0
142
1.0
143
1.0
 70
   688
 72
     0
 73
     0
 74
     5
  7

 75
    16
147
1.0
148
0.0
149
0.0
100
AcDbLayout
  1
Layout1
 70
     1
 71
     1
 10
0.0
 20
0.0
 11
420.0
 21
297.0
 12
0.0
 22
0.0
 32
0.0
 14
1.000000000000000E+20
 24
1.000000000000000E+20
 34
1.000000000000000E+20
 15
-1.000000000000000E+20
 25
-1.000000000000000E+20
 35
-1.000000000000000E+20
146
0.0
 13
0.0
 23
0.0
 33
0.0
 16
1.0
 26
0.0
 36
0.0
 17
0.0
 27
1.0
 37
0.0
 76
     0
330
2216
  0
LAYOUT
  5
221D
102
{ACAD_REACTORS
330
2215
102
}
330
2215
100
AcDbPlotSettings
  1

  2
\\SERVER9\HP LaserJet 5100 PCL 5e
  4

  6

 40
0.0
 41
0.0
 42
0.0
 43
0.0
 44
0.0
 45
0.0
 46
0.0
 47
0.0
 48
0.0
 49
0.0
140
0.0
141
0.0
142
1.0
143
1.0
 70
  1712
 72
     0
 73
     0
 74
     0
  7

 75
     0
147
1.0
148
0.0
149
0.0
100
AcDbLayout
  1
Model
 70
     1
 71
     0
 10
0.0
 20
0.0
 11
12.0
 21
9.0
 12
0.0
 22
0.0
 32
0.0
 14
0.0
 24
0.0
 34
0.0
 15
0.0
 25
0.0
 35
0.0
146
0.0
 13
0.0
 23
0.0
 33
0.0
 16
1.0
 26
0.0
 36
0.0
 17
0.0
 27
1.0
 37
0.0
 76
     0
330
221A
  0
MLINESTYLE
  5
2213
102
{ACAD_REACTORS
330
2212
102
}
330
2212
100
AcDbMlineStyle
  2
STANDARD
 70
     0
  3

 62
   256
 51
90.0
 52
90.0
 71
     2
 49
0.5
 62
   256
  6
BYLAYER
 49
-0.5
 62
   256
  6
BYLAYER
  0
ACDBPLACEHOLDER
  5
220B
102
{ACAD_REACTORS
330
220A
102
}
330
220A
  0
DICTIONARYVAR
  5
2515
102
{ACAD_REACTORS
330
2514
102
}
330
2514
100
DictionaryVariables
280
     0
  1
1
  0
ENDSEC
  0
EOF
