  0
SECTION
  2
HEADER
  9
$ACADVER
  1
AC1015
  9
$ACADMAINTVER
 70
    13
  9
$DWGCODEPAGE
  3
ANSI_1252
  9
$INSBASE
 10
0.0
 20
0.0
 30
0.0
  9
$EXTMIN
 10
69.85933977436786
 20
69.29558456437327
 30
0.0
  9
$EXTMAX
 10
397.9788616047751
 20
267.1656567081968
 30
0.0
  9
$LIMMIN
 10
0.0
 20
0.0
  9
$LIMMAX
 10
420.0
 20
297.0
  9
$ORTHOMODE
 70
     0
  9
$REGENMODE
 70
     1
  9
$FILLMODE
 70
     1
  9
$QTEXTMODE
 70
     0
  9
$MIRRTEXT
 70
     1
  9
$LTSCALE
 40
1.0
  9
$ATTMODE
 70
     1
  9
$TEXTSIZE
 40
2.5
  9
$TRACEWID
 40
1.0
  9
$TEXTSTYLE
  7
STANDARD
  9
$CLAYER
  8
AM_0
  9
$CELTYPE
  6
ByLayer
  9
$CECOLOR
 62
   256
  9
$CELTSCALE
 40
1.0
  9
$DISPSILH
 70
     0
  9
$DIMSCALE
 40
1.0
  9
$DIMASZ
 40
2.5
  9
$DIMEXO
 40
0.625
  9
$DIMDLI
 40
3.75
  9
$DIMRND
 40
0.0
  9
$DIMDLE
 40
0.0
  9
$DIMEXE
 40
1.25
  9
$DIMTP
 40
0.0
  9
$DIMTM
 40
0.0
  9
$DIMTXT
 40
2.5
  9
$DIMCEN
 40
2.5
  9
$DIMTSZ
 40
0.0
  9
$DIMTOL
 70
     0
  9
$DIMLIM
 70
     0
  9
$DIMTIH
 70
     0
  9
$DIMTOH
 70
     0
  9
$DIMSE1
 70
     0
  9
$DIMSE2
 70
     0
  9
$DIMTAD
 70
     1
  9
$DIMZIN
 70
     8
  9
$DIMBLK
  1

  9
$DIMASO
 70
     1
  9
$DIMSHO
 70
     1
  9
$DIMPOST
  1

  9
$DIMAPOST
  1

  9
$DIMALT
 70
     0
  9
$DIMALTD
 70
     3
  9
$DIMALTF
 40
0.03937007874016
  9
$DIMLFAC
 40
1.0
  9
$DIMTOFL
 70
     1
  9
$DIMTVP
 40
0.0
  9
$DIMTIX
 70
     0
  9
$DIMSOXD
 70
     0
  9
$DIMSAH
 70
     0
  9
$DIMBLK1
  1

  9
$DIMBLK2
  1

  9
$DIMSTYLE
  2
ISO-25
  9
$DIMCLRD
 70
     0
  9
$DIMCLRE
 70
     0
  9
$DIMCLRT
 70
     0
  9
$DIMTFAC
 40
1.0
  9
$DIMGAP
 40
0.625
  9
$DIMJUST
 70
     0
  9
$DIMSD1
 70
     0
  9
$DIMSD2
 70
     0
  9
$DIMTOLJ
 70
     1
  9
$DIMTZIN
 70
     0
  9
$DIMALTZ
 70
     0
  9
$DIMALTTZ
 70
     0
  9
$DIMUPT
 70
     0
  9
$DIMDEC
 70
     4
  9
$DIMTDEC
 70
     4
  9
$DIMALTU
 70
     2
  9
$DIMALTTD
 70
     2
  9
$DIMTXSTY
  7
STANDARD
  9
$DIMAUNIT
 70
     0
  9
$DIMADEC
 70
     0
  9
$DIMALTRND
 40
0.0
  9
$DIMAZIN
 70
     0
  9
$DIMDSEP
 70
    46
  9
$DIMATFIT
 70
     3
  9
$DIMFRAC
 70
     0
  9
$DIMLDRBLK
  1

  9
$DIMLUNIT
 70
     2
  9
$DIMLWD
 70
    -2
  9
$DIMLWE
 70
    -2
  9
$DIMTMOVE
 70
     0
  9
$LUNITS
 70
     2
  9
$LUPREC
 70
     2
  9
$SKETCHINC
 40
1.0
  9
$FILLETRAD
 40
2.5
  9
$AUNITS
 70
     0
  9
$AUPREC
 70
     0
  9
$MENU
  1
.
  9
$ELEVATION
 40
0.0
  9
$PELEVATION
 40
0.0
  9
$THICKNESS
 40
0.0
  9
$LIMCHECK
 70
     0
  9
$CHAMFERA
 40
2.5
  9
$CHAMFERB
 40
2.5
  9
$CHAMFERC
 40
0.0
  9
$CHAMFERD
 40
0.0
  9
$SKPOLY
 70
     0
  9
$TDCREATE
 40
2452801.997899837
  9
$TDUCREATE
 40
2452802.164566505
  9
$TDUPDATE
 40
2453865.471486354
  9
$TDUUPDATE
 40
2453865.638153021
  9
$TDINDWG
 40
0.0328159259
  9
$TDUSRTIMER
 40
0.0328155787
  9
$USRTIMER
 70
     1
  9
$ANGBASE
 50
0.0
  9
$ANGDIR
 70
     0
  9
$PDMODE
 70
     0
  9
$PDSIZE
 40
0.0
  9
$PLINEWID
 40
0.0
  9
$SPLFRAME
 70
     0
  9
$SPLINETYPE
 70
     6
  9
$SPLINESEGS
 70
     8
  9
$HANDSEED
  5
2714
  9
$SURFTAB1
 70
     6
  9
$SURFTAB2
 70
     6
  9
$SURFTYPE
 70
     6
  9
$SURFU
 70
     6
  9
$SURFV
 70
     6
  9
$UCSBASE
  2

  9
$UCSNAME
  2

  9
$UCSORG
 10
0.0
 20
0.0
 30
0.0
  9
$UCSXDIR
 10
1.0
 20
0.0
 30
0.0
  9
$UCSYDIR
 10
0.0
 20
1.0
 30
0.0
  9
$UCSORTHOREF
  2

  9
$UCSORTHOVIEW
 70
     0
  9
$UCSORGTOP
 10
0.0
 20
0.0
 30
0.0
  9
$UCSORGBOTTOM
 10
0.0
 20
0.0
 30
0.0
  9
$UCSORGLEFT
 10
0.0
 20
0.0
 30
0.0
  9
$UCSORGRIGHT
 10
0.0
 20
0.0
 30
0.0
  9
$UCSORGFRONT
 10
0.0
 20
0.0
 30
0.0
  9
$UCSORGBACK
 10
0.0
 20
0.0
 30
0.0
  9
$PUCSBASE
  2

  9
$PUCSNAME
  2

  9
$PUCSORG
 10
0.0
 20
0.0
 30
0.0
  9
$PUCSXDIR
 10
1.0
 20
0.0
 30
0.0
  9
$PUCSYDIR
 10
0.0
 20
1.0
 30
0.0
  9
$PUCSORTHOREF
  2

  9
$PUCSORTHOVIEW
 70
     0
  9
$PUCSORGTOP
 10
0.0
 20
0.0
 30
0.0
  9
$PUCSORGBOTTOM
 10
0.0
 20
0.0
 30
0.0
  9
$PUCSORGLEFT
 10
0.0
 20
0.0
 30
0.0
  9
$PUCSORGRIGHT
 10
0.0
 20
0.0
 30
0.0
  9
$PUCSORGFRONT
 10
0.0
 20
0.0
 30
0.0
  9
$PUCSORGBACK
 10
0.0
 20
0.0
 30
0.0
  9
$USERI1
 70
     0
  9
$USERI2
 70
     0
  9
$USERI3
 70
     0
  9
$USERI4
 70
     0
  9
$USERI5
 70
     0
  9
$USERR1
 40
0.0
  9
$USERR2
 40
0.0
  9
$USERR3
 40
0.0
  9
$USERR4
 40
0.0
  9
$USERR5
 40
0.0
  9
$WORLDVIEW
 70
     1
  9
$SHADEDGE
 70
     3
  9
$SHADEDIF
 70
    70
  9
$TILEMODE
 70
     1
  9
$MAXACTVP
 70
    64
  9
$PINSBASE
 10
0.0
 20
0.0
 30
0.0
  9
$PLIMCHECK
 70
     0
  9
$PEXTMIN
 10
1.000000000000000E+20
 20
1.000000000000000E+20
 30
1.000000000000000E+20
  9
$PEXTMAX
 10
-1.000000000000000E+20
 20
-1.000000000000000E+20
 30
-1.000000000000000E+20
  9
$PLIMMIN
 10
0.0
 20
0.0
  9
$PLIMMAX
 10
420.0
 20
297.0
  9
$UNITMODE
 70
     0
  9
$VISRETAIN
 70
     1
  9
$PLINEGEN
 70
     0
  9
$PSLTSCALE
 70
     1
  9
$TREEDEPTH
 70
  3020
  9
$CMLSTYLE
  2
Standard
  9
$CMLJUST
 70
     0
  9
$CMLSCALE
 40
1.0
  9
$PROXYGRAPHICS
 70
     1
  9
$MEASUREMENT
 70
     0
  9
$CELWEIGHT
370
    -1
  9
$ENDCAPS
280
     0
  9
$JOINSTYLE
280
     0
  9
$LWDISPLAY
290
     0
  9
$INSUNITS
 70
     0
  9
$HYPERLINKBASE
  1

  9
$STYLESHEET
  1

  9
$XEDIT
290
     1
  9
$CEPSNTYPE
380
     0
  9
$PSTYLEMODE
290
     1
  9
$FINGERPRINTGUID
  2
{DA458F49-22FD-49F1-B32F-5F7E530F87AA}
  9
$VERSIONGUID
  2
{D5B007C2-6DD3-4208-919E-06DECCB266D7}
  9
$EXTNAMES
290
     1
  9
$PSVPSCALE
 40
0.0
  9
$OLESTARTUP
290
     0
  0
ENDSEC
  0
SECTION
  2
CLASSES
  0
CLASS
  1
ACDBDICTIONARYWDFLT
  2
AcDbDictionaryWithDefault
  3
AutoCAD 2000
 90
        0
280
     0
281
     0
  0
CLASS
  1
ACDBPLACEHOLDER
  2
AcDbPlaceHolder
  3
AutoCAD 2000
 90
        0
280
     0
281
     0
  0
CLASS
  1
LAYOUT
  2
AcDbLayout
  3
AutoCAD 2000
 90
        0
280
     0
281
     0
  0
CLASS
  1
DICTIONARYVAR
  2
AcDbDictionaryVar
  3
AutoCAD 2000
 90
        0
280
     0
281
     0
  0
ENDSEC
  0
SECTION
  2
TABLES
  0
TABLE
  2
VPORT
  5
244C
330
0
100
AcDbSymbolTable
 70
     2
  0
VPORT
  5
2713
330
244C
100
AcDbSymbolTableRecord
100
AcDbViewportTableRecord
  2
*Active
 70
     0
 10
0.0
 20
0.0
 11
1.0
 21
1.0
 12
200.7946216119981
 22
195.6971199186351
 13
0.0
 23
0.0
 14
2.5
 24
2.5
 15
10.0
 25
10.0
 16
0.0
 26
0.0
 36
1.0
 17
0.0
 27
0.0
 37
0.0
 40
235.4462710782902
 41
1.182835820895522
 42
50.0
 43
0.0
 44
0.0
 50
0.0
 51
0.0
 71
     0
 72
   100
 73
     1
 74
     3
 75
     0
 76
     0
 77
     0
 78
     0
281
     0
 65
     1
110
0.0
120
0.0
130
0.0
111
1.0
121
0.0
131
0.0
112
0.0
122
1.0
132
0.0
 79
     0
146
0.0
  0
ENDTAB
  0
TABLE
  2
LTYPE
  5
2449
330
0
100
AcDbSymbolTable
 70
     5
  0
LTYPE
  5
2457
330
2449
100
AcDbSymbolTableRecord
100
AcDbLinetypeTableRecord
  2
ByBlock
 70
     0
  3

 72
    65
 73
     0
 40
0.0
  0
LTYPE
  5
2458
330
2449
100
AcDbSymbolTableRecord
100
AcDbLinetypeTableRecord
  2
ByLayer
 70
     0
  3

 72
    65
 73
     0
 40
0.0
  0
LTYPE
  5
2459
330
2449
100
AcDbSymbolTableRecord
100
AcDbLinetypeTableRecord
  2
CONTINUOUS
 70
     0
  3
Solid line
 72
    65
 73
     0
 40
0.0
  0
LTYPE
  5
2468
330
2449
100
AcDbSymbolTableRecord
100
AcDbLinetypeTableRecord
  2
CENTER
 70
     0
  3
Center ____ _ ____ _ ____ _ ____ _ ____ _ ____
 72
    65
 73
     4
 40
50.8
 49
31.75
 74
     0
 49
-6.349999999999997
 74
     0
 49
6.349999999999997
 74
     0
 49
-6.349999999999997
 74
     0
  0
LTYPE
  5
2469
330
2449
100
AcDbSymbolTableRecord
100
AcDbLinetypeTableRecord
  2
DASHED
 70
     0
  3
__ __ __ __ __
 72
    65
 73
     2
 40
3.819846538087772
 49
2.546564358725178
 74
     0
 49
-1.273282179362589
 74
     0
  0
LTYPE
  5
246A
330
2449
100
AcDbSymbolTableRecord
100
AcDbLinetypeTableRecord
  2
DIVIDE
 70
     0
  3
__ . . __ . . 
 72
    65
 73
     6
 40
6.366410896812951
 49
2.546564358725178
 74
     0
 49
-1.273282179362589
 74
     0
 49
0.0
 74
     0
 49
-1.273282179362589
 74
     0
 49
0.0
 74
     0
 49
-1.273282179362589
 74
     0
  0
LTYPE
  5
246B
330
2449
100
AcDbSymbolTableRecord
100
AcDbLinetypeTableRecord
  2
PHANTOM
 70
     0
  3
_____ _ _ _____ _ _ 
 72
    65
 73
     6
 40
12.7328217936259
 49
6.366410896812951
 74
     0
 49
-1.273282179362589
 74
     0
 49
1.273282179362589
 74
     0
 49
-1.273282179362589
 74
     0
 49
1.273282179362589
 74
     0
 49
-1.273282179362589
 74
     0
  0
ENDTAB
  0
TABLE
  2
LAYER
  5
2446
330
0
100
AcDbSymbolTable
 70
     5
  0
LAYER
  5
2454
330
2446
100
AcDbSymbolTableRecord
100
AcDbLayerTableRecord
  2
0
 70
     0
 62
     7
  6
CONTINUOUS
370
    -3
390
2453
  0
LAYER
  5
2466
330
2446
100
AcDbSymbolTableRecord
100
AcDbLayerTableRecord
  2
AM_0
 70
     0
 62
     7
  6
CONTINUOUS
370
    -3
390
2453
  0
LAYER
  5
246C
330
2446
100
AcDbSymbolTableRecord
100
AcDbLayerTableRecord
  2
1
 70
     0
 62
     7
  6
CONTINUOUS
370
    -3
390
2453
  0
LAYER
  5
246D
330
2446
100
AcDbSymbolTableRecord
100
AcDbLayerTableRecord
  2
2
 70
     0
 62
     7
  6
CONTINUOUS
370
    -3
390
2453
  0
LAYER
  5
26D5
330
2446
100
AcDbSymbolTableRecord
100
AcDbLayerTableRecord
  2
LAYER_1
 70
     0
 62
     5
  6
CONTINUOUS
370
    -3
390
2453
  0
ENDTAB
  0
TABLE
  2
STYLE
  5
2447
330
0
100
AcDbSymbolTable
 70
     1
  0
STYLE
  5
2455
330
2447
100
AcDbSymbolTableRecord
100
AcDbTextStyleTableRecord
  2
STANDARD
 70
     0
 40
0.0
 41
1.0
 50
0.0
 71
     0
 42
2.5
  3
ISOCP.SHX
  4

  0
ENDTAB
  0
TABLE
  2
VIEW
  5
244A
330
0
100
AcDbSymbolTable
 70
     0
  0
ENDTAB
  0
TABLE
  2
UCS
  5
244B
330
0
100
AcDbSymbolTable
 70
     0
  0
ENDTAB
  0
TABLE
  2
APPID
  5
244D
330
0
100
AcDbSymbolTable
 70
    13
  0
APPID
  5
2456
330
244D
100
AcDbSymbolTableRecord
100
AcDbRegAppTableRecord
  2
ACAD
 70
     0
  0
APPID
  5
246E
330
244D
100
AcDbSymbolTableRecord
100
AcDbRegAppTableRecord
  2
GENIUS_GENDIM_13
 70
     0
  0
APPID
  5
246F
330
244D
100
AcDbSymbolTableRecord
100
AcDbRegAppTableRecord
  2
GENIUS_GENDTOL_13
 70
     0
  0
APPID
  5
2470
330
244D
100
AcDbSymbolTableRecord
100
AcDbRegAppTableRecord
  2
GENIUS_GE3DTOL_13
 70
     0
  0
APPID
  5
2471
330
244D
100
AcDbSymbolTableRecord
100
AcDbRegAppTableRecord
  2
MCAD_NO_VIS
 70
     0
  0
APPID
  5
2472
330
244D
100
AcDbSymbolTableRecord
100
AcDbRegAppTableRecord
  2
ACAD_TEMP_GRAPHIC
 70
     0
  0
APPID
  5
2473
330
244D
100
AcDbSymbolTableRecord
100
AcDbRegAppTableRecord
  2
AD_DRAW
 70
     0
  0
APPID
  5
2474
330
244D
100
AcDbSymbolTableRecord
100
AcDbRegAppTableRecord
  2
ACATTRIBSERVICES
 70
     0
  0
APPID
  5
2475
330
244D
100
AcDbSymbolTableRecord
100
AcDbRegAppTableRecord
  2
ASURF_PCURVE_APPNAME
 70
     0
  0
APPID
  5
2476
330
244D
100
AcDbSymbolTableRecord
100
AcDbRegAppTableRecord
  2
DESIGNERASSEMBLIES
 70
     0
  0
APPID
  5
2477
330
244D
100
AcDbSymbolTableRecord
100
AcDbRegAppTableRecord
  2
ACADM_DIM_EDIT
 70
     0
  0
APPID
  5
2478
330
244D
100
AcDbSymbolTableRecord
100
AcDbRegAppTableRecord
  2
G3V_ENTHND
 70
     0
  0
APPID
  5
2479
330
244D
100
AcDbSymbolTableRecord
100
AcDbRegAppTableRecord
  2
GENIUS_GENDIMSH_14
 70
     0
  0
ENDTAB
  0
TABLE
  2
DIMSTYLE
  5
244E
330
0
100
AcDbSymbolTable
 70
     2
100
AcDbDimStyleTable
 71
     0
  0
DIMSTYLE
105
247A
330
244E
100
AcDbSymbolTableRecord
100
AcDbDimStyleTableRecord
  2
ISO-25
 70
     0
 41
2.5
 42
0.625
 43
3.75
 44
1.25
 73
     0
 74
     0
 77
     1
 78
     8
140
2.5
141
2.5
143
0.03937007874016
147
0.625
171
     3
172
     1
271
     2
272
     2
274
     3
279
     2
284
     8
285
     8
286
     8
340
2455
  0
DIMSTYLE
105
26D6
330
244E
100
AcDbSymbolTableRecord
100
AcDbDimStyleTableRecord
  2
Standard
 70
     0
340
2455
  0
ENDTAB
  0
TABLE
  2
BLOCK_RECORD
  5
2445
330
0
100
AcDbSymbolTable
 70
    23
  0
BLOCK_RECORD
  5
2462
330
2445
100
AcDbSymbolTableRecord
100
AcDbBlockTableRecord
  2
*Model_Space
340
2465
  0
BLOCK_RECORD
  5
245E
330
2445
100
AcDbSymbolTableRecord
100
AcDbBlockTableRecord
  2
*Paper_Space
340
2461
  0
BLOCK_RECORD
  5
247C
330
2445
100
AcDbSymbolTableRecord
100
AcDbBlockTableRecord
  2
$MODEL_SPACE
340
0
  0
BLOCK_RECORD
  5
247F
330
2445
100
AcDbSymbolTableRecord
100
AcDbBlockTableRecord
  2
$PAPER_SPACE
340
0
  0
BLOCK_RECORD
  5
2669
330
2445
100
AcDbSymbolTableRecord
100
AcDbBlockTableRecord
  2
AI9-BLK14
340
0
310
2800000020000000200000000100080000000000000400000000000000000000000000000000000000000000000080000080000000808000800000008000800080800000C0C0C000C0DCC000F0CAA6000020400000206000002080000020A0000020C0000020E00000400000004020000040400000406000004080000040A0
310
000040C0000040E00000600000006020000060400000606000006080000060A0000060C0000060E00000800000008020000080400000806000008080000080A0000080C0000080E00000A0000000A0200000A0400000A0600000A0800000A0A00000A0C00000A0E00000C0000000C0200000C0400000C0600000C0800000C0
310
A00000C0C00000C0E00000E0000000E0200000E0400000E0600000E0800000E0A00000E0C00000E0E00040000000400020004000400040006000400080004000A0004000C0004000E00040200000402020004020400040206000402080004020A0004020C0004020E000404000004040200040404000404060004040800040
310
40A0004040C0004040E00040600000406020004060400040606000406080004060A0004060C0004060E00040800000408020004080400040806000408080004080A0004080C0004080E00040A0000040A0200040A0400040A0600040A0800040A0A00040A0C00040A0E00040C0000040C0200040C0400040C0600040C08000
310
40C0A00040C0C00040C0E00040E0000040E0200040E0400040E0600040E0800040E0A00040E0C00040E0E00080000000800020008000400080006000800080008000A0008000C0008000E00080200000802020008020400080206000802080008020A0008020C0008020E00080400000804020008040400080406000804080
310
008040A0008040C0008040E00080600000806020008060400080606000806080008060A0008060C0008060E00080800000808020008080400080806000808080008080A0008080C0008080E00080A0000080A0200080A0400080A0600080A0800080A0A00080A0C00080A0E00080C0000080C0200080C0400080C0600080C0
310
800080C0A00080C0C00080C0E00080E0000080E0200080E0400080E0600080E0800080E0A00080E0C00080E0E000C0000000C0002000C0004000C0006000C0008000C000A000C000C000C000E000C0200000C0202000C0204000C0206000C0208000C020A000C020C000C020E000C0400000C0402000C0404000C0406000C0
310
408000C040A000C040C000C040E000C0600000C0602000C0604000C0606000C0608000C060A000C060C000C060E000C0800000C0802000C0804000C0806000C0808000C080A000C080C000C080E000C0A00000C0A02000C0A04000C0A06000C0A08000C0A0A000C0A0C000C0A0E000C0C00000C0C02000C0C04000C0C06000
310
C0C08000C0C0A000F0FBFF00A4A0A000808080000000FF0000FF000000FFFF00FF000000FF00FF00FFFF0000FFFFFF00FF00FFFFFFFF00FFFFFFFFFFFFFFFFFFFFFFFFFFFFFFFFFFFFFFFFFFFFFFFFFFFF00FFFFFFFF00FFFFFFFFFFFFFFFFFFFFFFFFFFFFFFFFFFFFFFFFFFFFFFFFFFFF00FFFFFFFF00FFFFFFFFFFFFFFFF
310
FFFFFFFFFFFFFFFFFFFFFFFFFFFFFFFFFFFF00FFFFFFFF00FFFFFFFFFFFFFFFFFFFFFFFFFFFFFFFFFFFFFFFFFFFFFFFFFFFF00FFFFFFFF00FFFFFFFFFFFFFFFFFFFFFFFFFFFFFFFFFFFFFFFFFFFFFFFFFFFF00FFFFFFFF00FFFFFFFFFFFFFFFFFFFFFFFFFFFFFFFFFFFFFFFFFFFFFFFFFFFF00FFFFFFFF00FFFFFFFFFFFFFF
310
FFFFFFFFFFFFFFFFFFFFFFFFFFFFFFFFFFFFFF00FFFFFFFF00FFFFFFFFFFFFFFFFFFFFFFFFFFFFFFFFFFFFFFFFFFFFFFFFFFFF00FFFFFFFF00FFFFFFFFFFFFFFFFFFFFFFFFFFFFFFFFFFFFFFFFFFFFFFFFFFFF00FFFFFFFF00FFFFFFFFFFFFFFFFFFFFFFFFFFFFFFFFFFFFFFFFFFFFFFFFFFFF00FFFFFFFF00FFFFFFFFFFFF
310
FFFFFFFFFFFFFFFFFFFFFFFFFFFFFFFFFFFFFFFF00FFFFFFFF00FFFFFFFFFFFFFFFFFFFFFFFFFFFFFFFFFFFFFFFFFFFFFFFFFFFF00FFFFFFFF00FFFFFFFFFFFFFFFFFFFFFFFFFFFFFFFFFFFFFFFFFFFFFFFFFFFF00FFFFFFFF0000000000000000000000000000000000000000000000000000FF00FFFFFFFFFFFFFFFFFFFF
310
FFFFFFFFFFFFFFFFFFFFFFFFFFFFFFFFFFFFFFFFFF00FFFFFFFFFFFFFFFFFFFFFFFFFFFFFFFFFFFFFFFFFFFFFFFFFFFFFFFFFFFFFF00FFFFFFFFFFFFFFFFFFFFFFFFFFFFFFFFFFFFFFFFFFFFFFFFFFFFFFFFFFFFFF00FFFFFFFFFFFFFFFFFFFFFFFFFFFFFFFFFFFFFFFFFFFFFFFFFFFFFFFFFF00FF00000000000000000000
310
0000000000000000000000000000000000000000FFFFFFFFFFFFFFFFFFFFFFFFFFFFFFFFFFFFFFFFFFFFFFFFFFFFFFFFFFFFFFFFFFFFFFFFFFFFFFFFFFFFFFFFFFFFFFFFFFFFFFFFFFFFFFFFFFFFFFFFFFFFFFFFFFFFFFFFFFFFFFFFFFFFFFFFFFFFFFFFFFFFFFFFFFFFFFFFFFFFFFFFFFFFFFFFFFFFFFFFFFFFFFFFFFFFFF
310
FFFFFFFFFFFFFFFFFFFFFFFFFFFFFFFFFFFFFFFFFFFFFFFFFFFFFFFFFFFFFFFFFFFFFFFFFFFFFFFFFFFFFFFFFFFFFFFFFFFFFFFFFFFFFFFFFFFFFFFFFFFFFFFFFFFFFFFFFFFFFFFFFFFFFFFFFFFFFFFFFFFFFFFFFFFFFFFFFFFFFFFFFFFFFFFFFFFFFFFFFFFFFFFFFFFFFFFFFFFFFFFFFFFFFFFFFFFFFFFFFFFFFFFFFFFFFF
310
FFFFFFFFFFFFFFFFFFFFFFFFFFFFFFFFFFFFFFFFFFFFFFFFFFFFFFFFFFFFFFFFFFFFFFFFFFFFFFFFFFFFFFFFFFFFFFFFFFFFFFFFFFFFFFFFFFFFFFFFFFFFFFFFFFFFFFFFFFFFFFFFFFFFFFFFFFFFFFFFFFFFFFFFFFFFFFFFFFFFFFFFFFFFFFFFFFFFFFFFFFFFFFFFFFFFFFFFFFFFFFFFFFFFFFFFFFFFFFFFFFFFFFFFFFFFFF
310
FFFFFFFFFFFFFFFFFFFFFFFFFFFFFFFFFFFFFFFFFFFFFFFFFFFFFFFFFFFFFFFFFFFFFFFFFFFFFFFFFFFFFFFFFFFFFFFFFFFFFFFFFFFFFFFF
102
{BLKREFS
331
26AA
102
}
  0
BLOCK_RECORD
  5
266E
330
2445
100
AcDbSymbolTableRecord
100
AcDbBlockTableRecord
  2
AI9-BLK13
340
0
310
2800000020000000200000000100080000000000000400000000000000000000000000000000000000000000000080000080000000808000800000008000800080800000C0C0C000C0DCC000F0CAA6000020400000206000002080000020A0000020C0000020E00000400000004020000040400000406000004080000040A0
310
000040C0000040E00000600000006020000060400000606000006080000060A0000060C0000060E00000800000008020000080400000806000008080000080A0000080C0000080E00000A0000000A0200000A0400000A0600000A0800000A0A00000A0C00000A0E00000C0000000C0200000C0400000C0600000C0800000C0
310
A00000C0C00000C0E00000E0000000E0200000E0400000E0600000E0800000E0A00000E0C00000E0E00040000000400020004000400040006000400080004000A0004000C0004000E00040200000402020004020400040206000402080004020A0004020C0004020E000404000004040200040404000404060004040800040
310
40A0004040C0004040E00040600000406020004060400040606000406080004060A0004060C0004060E00040800000408020004080400040806000408080004080A0004080C0004080E00040A0000040A0200040A0400040A0600040A0800040A0A00040A0C00040A0E00040C0000040C0200040C0400040C0600040C08000
310
40C0A00040C0C00040C0E00040E0000040E0200040E0400040E0600040E0800040E0A00040E0C00040E0E00080000000800020008000400080006000800080008000A0008000C0008000E00080200000802020008020400080206000802080008020A0008020C0008020E00080400000804020008040400080406000804080
310
008040A0008040C0008040E00080600000806020008060400080606000806080008060A0008060C0008060E00080800000808020008080400080806000808080008080A0008080C0008080E00080A0000080A0200080A0400080A0600080A0800080A0A00080A0C00080A0E00080C0000080C0200080C0400080C0600080C0
310
800080C0A00080C0C00080C0E00080E0000080E0200080E0400080E0600080E0800080E0A00080E0C00080E0E000C0000000C0002000C0004000C0006000C0008000C000A000C000C000C000E000C0200000C0202000C0204000C0206000C0208000C020A000C020C000C020E000C0400000C0402000C0404000C0406000C0
310
408000C040A000C040C000C040E000C0600000C0602000C0604000C0606000C0608000C060A000C060C000C060E000C0800000C0802000C0804000C0806000C0808000C080A000C080C000C080E000C0A00000C0A02000C0A04000C0A06000C0A08000C0A0A000C0A0C000C0A0E000C0C00000C0C02000C0C04000C0C06000
310
C0C08000C0C0A000F0FBFF00A4A0A000808080000000FF0000FF000000FFFF00FF000000FF00FF00FFFF0000FFFFFF00FFFFFFFFFFFFFFFFFFFFFFFFFFFFFFFFFFFFFFFFFFFFFFFFFFFFFFFFFFFFFFFFFFFFFFFFFFFFFFFFFFFFFF0000FFFFFFFFFFFF0000FFFFFFFFFFFFFFFFFFFFFFFFFFFFFFFFFFFFFFFFFFFF0000FFFF
310
FFFFFFFF0000FFFFFFFFFFFFFFFFFFFFFFFFFFFFFFFFFFFFFFFFFFFF0000FFFFFFFFFFFF0000FFFFFFFFFFFFFFFFFFFFFFFFFFFFFFFFFFFFFFFFFFFF0000FFFFFFFFFFFF0000FFFFFFFFFFFFFFFFFFFFFFFFFFFFFFFFFFFFFFFFFFFF0000FFFFFFFFFFFF0000FFFFFFFFFFFFFFFFFFFFFFFFFFFFFFFFFFFFFFFFFFFF0000FF
310
FFFFFFFFFF0000FFFFFFFFFFFFFFFFFFFFFFFFFFFFFFFFFFFFFFFFFFFF0000FFFFFFFFFFFF0000FFFFFFFFFFFFFFFFFFFFFFFFFFFFFFFFFFFFFFFFFFFF0000FFFFFFFFFFFF0000FFFFFFFFFFFFFFFFFFFFFFFFFFFFFFFFFFFFFFFFFFFF0000FFFFFFFFFFFF0000FFFFFFFFFFFFFFFFFFFFFFFFFFFFFFFFFFFFFFFFFFFF0000
310
FFFFFFFFFFFF0000FFFFFFFFFFFFFFFFFFFFFFFFFFFFFFFFFFFFFFFFFFFF0000FFFFFFFFFFFF0000FFFFFFFFFFFFFFFFFFFFFFFFFFFFFFFFFFFFFFFFFFFF0000FFFFFFFFFFFF0000FFFFFFFFFFFFFFFFFFFFFFFFFFFFFFFFFFFFFFFFFFFF0000FFFFFFFFFFFF0000FFFFFFFFFFFFFFFFFFFFFFFFFFFFFFFFFFFFFFFFFFFF00
310
00FFFFFFFFFFFF0000FFFFFFFFFFFFFFFFFFFFFFFFFFFFFFFFFFFFFFFFFFFF00000000000000000000FFFFFFFFFFFFFFFFFFFFFFFFFFFFFFFFFFFFFFFFFFFF00FFFFFFFFFFFFFFFF00FFFFFFFFFFFFFFFFFFFFFFFFFFFFFFFFFFFFFFFFFFFF00FFFFFFFFFFFFFFFF00FFFFFFFFFFFFFFFFFFFFFFFFFFFFFFFFFFFFFFFFFFFF
310
00000000000000000000FFFFFFFFFFFFFFFFFFFFFFFFFFFFFFFFFFFFFFFFFFFF0000FFFFFFFFFFFF0000FFFFFFFFFFFFFFFFFFFFFFFFFFFFFFFFFFFFFFFFFFFF0000FFFFFFFFFFFF0000FFFFFFFFFFFFFFFFFFFFFFFFFFFFFFFFFFFFFFFFFFFF0000FFFFFFFFFFFF0000FFFFFFFFFFFFFFFFFFFFFFFFFFFFFFFFFFFFFFFFFF
310
FF0000FFFFFFFFFFFF0000FFFFFFFFFFFFFFFFFFFFFFFFFFFFFFFFFFFFFFFFFFFF0000FFFFFFFFFFFF0000FFFFFFFFFFFFFFFFFFFFFFFFFFFFFFFFFFFFFFFFFFFF0000FFFFFFFFFFFF0000FFFFFFFFFFFFFFFFFFFFFFFFFFFFFFFFFFFFFFFFFFFF0000FFFFFFFFFFFF0000FFFFFFFFFFFFFFFFFFFFFFFFFFFFFFFFFFFFFFFF
310
FFFF0000FFFFFFFFFFFF0000FFFFFFFFFFFFFFFFFFFFFFFFFFFFFFFFFFFFFFFFFFFF0000FFFFFFFFFFFF0000FFFFFFFFFFFFFFFFFFFFFFFFFFFFFFFFFFFFFFFFFFFF0000FFFFFFFFFFFF0000FFFFFFFFFFFFFFFFFFFFFFFFFFFFFFFFFFFFFFFFFFFF0000FFFFFFFFFFFF0000FFFFFFFFFFFFFFFFFFFFFFFFFFFFFFFFFFFFFF
310
FFFFFF0000FFFFFFFFFFFF0000FFFFFFFFFFFFFFFFFFFFFFFFFFFFFFFFFFFFFFFFFFFFFFFFFFFFFFFFFFFFFFFFFFFFFFFFFFFFFFFFFFFFFF
102
{BLKREFS
331
26AB
102
}
  0
BLOCK_RECORD
  5
2673
330
2445
100
AcDbSymbolTableRecord
100
AcDbBlockTableRecord
  2
AI9-BLK11
340
0
310
2800000020000000200000000100080000000000000400000000000000000000000000000000000000000000000080000080000000808000800000008000800080800000C0C0C000C0DCC000F0CAA6000020400000206000002080000020A0000020C0000020E00000400000004020000040400000406000004080000040A0
310
000040C0000040E00000600000006020000060400000606000006080000060A0000060C0000060E00000800000008020000080400000806000008080000080A0000080C0000080E00000A0000000A0200000A0400000A0600000A0800000A0A00000A0C00000A0E00000C0000000C0200000C0400000C0600000C0800000C0
310
A00000C0C00000C0E00000E0000000E0200000E0400000E0600000E0800000E0A00000E0C00000E0E00040000000400020004000400040006000400080004000A0004000C0004000E00040200000402020004020400040206000402080004020A0004020C0004020E000404000004040200040404000404060004040800040
310
40A0004040C0004040E00040600000406020004060400040606000406080004060A0004060C0004060E00040800000408020004080400040806000408080004080A0004080C0004080E00040A0000040A0200040A0400040A0600040A0800040A0A00040A0C00040A0E00040C0000040C0200040C0400040C0600040C08000
310
40C0A00040C0C00040C0E00040E0000040E0200040E0400040E0600040E0800040E0A00040E0C00040E0E00080000000800020008000400080006000800080008000A0008000C0008000E00080200000802020008020400080206000802080008020A0008020C0008020E00080400000804020008040400080406000804080
310
008040A0008040C0008040E00080600000806020008060400080606000806080008060A0008060C0008060E00080800000808020008080400080806000808080008080A0008080C0008080E00080A0000080A0200080A0400080A0600080A0800080A0A00080A0C00080A0E00080C0000080C0200080C0400080C0600080C0
310
800080C0A00080C0C00080C0E00080E0000080E0200080E0400080E0600080E0800080E0A00080E0C00080E0E000C0000000C0002000C0004000C0006000C0008000C000A000C000C000C000E000C0200000C0202000C0204000C0206000C0208000C020A000C020C000C020E000C0400000C0402000C0404000C0406000C0
310
408000C040A000C040C000C040E000C0600000C0602000C0604000C0606000C0608000C060A000C060C000C060E000C0800000C0802000C0804000C0806000C0808000C080A000C080C000C080E000C0A00000C0A02000C0A04000C0A06000C0A08000C0A0A000C0A0C000C0A0E000C0C00000C0C02000C0C04000C0C06000
310
C0C08000C0C0A000F0FBFF00A4A0A000808080000000FF0000FF000000FFFF00FF000000FF00FF00FFFF0000FFFFFF00FFFFFFFFFFFFFFFFFFFFFFFFFFFFFFFFFFFFFFFFFFFFFFFFFFFFFFFFFFFFFFFFFFFFFFFFFFFFFFFFFFFFFFFFFFFF00000000FFFFFFFFFFFFFFFFFFFFFF000000FFFFFFFFFFFFFFFFFFFFFFFFFFFF00
310
FFFF00FFFFFFFFFFFFFFFFFFFFFF00FFFFFFFFFFFFFFFFFFFFFFFFFFFFFFFF00FFFF00FFFFFFFFFFFFFFFFFFFFFF00FFFFFFFFFFFFFFFFFFFFFFFFFFFFFFFF00FFFF00FFFFFFFFFFFFFFFFFFFFFF00FFFFFFFFFFFFFFFFFFFFFFFFFFFFFFFF00FFFF00FFFFFFFFFFFFFFFFFFFFFF00FFFFFFFFFFFFFFFFFFFFFFFFFFFFFFFF
310
00FFFF00FFFFFFFFFFFFFFFFFFFFFF00FFFFFFFFFFFFFFFFFFFFFFFFFFFFFFFF00FFFF00FFFFFFFFFFFFFFFFFFFFFF00FFFFFFFFFFFFFFFFFFFFFFFFFFFFFFFF00FFFF00FFFFFFFFFFFFFFFFFFFFFF00FFFFFFFFFFFFFFFFFFFFFFFFFFFFFFFF00FFFF00FFFFFFFFFFFFFFFFFFFFFF00FFFFFFFFFFFFFFFFFFFFFFFFFFFFFF
310
FF00FFFF00FFFFFFFFFFFFFFFFFFFFFF00FFFFFFFFFFFFFFFFFFFFFFFFFFFFFFFF00FFFF00FFFFFFFFFFFFFFFFFFFFFF00FFFFFFFFFFFFFFFFFFFFFFFFFFFFFFFF00FFFF00FFFFFFFFFFFFFFFFFFFFFF00FFFFFFFFFFFFFFFFFFFFFFFFFFFFFFFF00FFFF00FFFFFFFFFFFFFFFFFFFFFF00FFFFFFFFFFFFFFFFFFFFFFFFFFFF
310
FFFF00FFFF00FFFFFFFFFFFFFFFFFFFFFF00FFFFFFFFFFFFFFFFFFFFFFFFFFFFFFFF00FFFF00FFFFFFFFFFFFFFFFFFFFFF00FFFFFFFFFFFFFFFFFFFFFFFFFFFFFFFF00FFFF00FFFFFFFFFFFFFFFFFFFFFF00FFFFFFFFFFFFFFFFFFFFFFFFFFFFFFFF00FFFF00FFFFFFFFFFFFFFFFFFFF00FFFFFFFFFFFFFFFFFFFFFFFFFFFF
310
FFFFFF00FFFF00FFFFFFFFFFFFFFFFFFFF00FFFFFFFFFFFFFFFFFFFFFFFFFFFFFFFFFF00FFFF00FFFFFFFFFFFFFFFFFFFF00FFFFFFFFFFFFFFFFFFFFFFFFFFFFFFFFFF00FFFF00FFFFFFFFFFFFFFFFFFFF00FFFFFFFFFFFFFFFFFFFFFFFFFFFFFFFFFF00FFFF00FFFFFFFFFFFFFFFFFFFF00FFFFFFFFFFFFFFFFFFFFFFFFFF
310
FFFFFFFF00FFFF00FFFFFFFFFFFFFFFFFF0000FFFF00FFFFFFFFFFFFFFFFFFFFFFFFFFFF00FFFF00FFFFFFFFFFFFFFFF0000FFFFFF00FFFFFFFFFFFFFFFFFFFFFFFFFFFF00FFFF00000000000000000000FFFFFFFF00FFFFFFFFFFFFFFFFFFFFFFFFFFFF00FFFFFFFFFFFFFFFFFFFFFFFFFFFFFF00FFFFFFFFFFFFFFFFFFFF
310
FFFFFFFFFF00FFFFFFFFFFFFFFFFFFFFFFFFFFFF00FFFFFFFFFFFFFFFFFFFFFFFFFFFFFFFF00FFFFFFFFFFFFFFFFFFFFFFFFFFFF00FFFFFFFFFFFFFFFFFFFFFFFFFFFFFFFF00FFFFFFFFFFFFFFFFFFFFFFFFFFFFFF00FFFFFFFFFFFFFFFFFFFFFFFFFFFFFF00FFFFFFFFFFFFFFFFFFFFFFFFFFFFFF00FFFFFFFFFFFFFFFFFF
310
FFFFFFFFFFFF00FFFF00000000000000000000FFFFFFFF00FFFFFFFFFFFFFFFFFFFFFFFFFFFF00FFFF00FFFFFFFFFFFFFFFFFF0000FFFF00
102
{BLKREFS
331
26AC
102
}
  0
BLOCK_RECORD
  5
2678
330
2445
100
AcDbSymbolTableRecord
100
AcDbBlockTableRecord
  2
AI9-BLK10
340
0
310
2800000020000000200000000100080000000000000400000000000000000000000000000000000000000000000080000080000000808000800000008000800080800000C0C0C000C0DCC000F0CAA6000020400000206000002080000020A0000020C0000020E00000400000004020000040400000406000004080000040A0
310
000040C0000040E00000600000006020000060400000606000006080000060A0000060C0000060E00000800000008020000080400000806000008080000080A0000080C0000080E00000A0000000A0200000A0400000A0600000A0800000A0A00000A0C00000A0E00000C0000000C0200000C0400000C0600000C0800000C0
310
A00000C0C00000C0E00000E0000000E0200000E0400000E0600000E0800000E0A00000E0C00000E0E00040000000400020004000400040006000400080004000A0004000C0004000E00040200000402020004020400040206000402080004020A0004020C0004020E000404000004040200040404000404060004040800040
310
40A0004040C0004040E00040600000406020004060400040606000406080004060A0004060C0004060E00040800000408020004080400040806000408080004080A0004080C0004080E00040A0000040A0200040A0400040A0600040A0800040A0A00040A0C00040A0E00040C0000040C0200040C0400040C0600040C08000
310
40C0A00040C0C00040C0E00040E0000040E0200040E0400040E0600040E0800040E0A00040E0C00040E0E00080000000800020008000400080006000800080008000A0008000C0008000E00080200000802020008020400080206000802080008020A0008020C0008020E00080400000804020008040400080406000804080
310
008040A0008040C0008040E00080600000806020008060400080606000806080008060A0008060C0008060E00080800000808020008080400080806000808080008080A0008080C0008080E00080A0000080A0200080A0400080A0600080A0800080A0A00080A0C00080A0E00080C0000080C0200080C0400080C0600080C0
310
800080C0A00080C0C00080C0E00080E0000080E0200080E0400080E0600080E0800080E0A00080E0C00080E0E000C0000000C0002000C0004000C0006000C0008000C000A000C000C000C000E000C0200000C0202000C0204000C0206000C0208000C020A000C020C000C020E000C0400000C0402000C0404000C0406000C0
310
408000C040A000C040C000C040E000C0600000C0602000C0604000C0606000C0608000C060A000C060C000C060E000C0800000C0802000C0804000C0806000C0808000C080A000C080C000C080E000C0A00000C0A02000C0A04000C0A06000C0A08000C0A0A000C0A0C000C0A0E000C0C00000C0C02000C0C04000C0C06000
310
C0C08000C0C0A000F0FBFF00A4A0A000808080000000FF0000FF000000FFFF00FF000000FF00FF00FFFF0000FFFFFF00FFFFFFFFFFFFFFFFFFFFFFFFFFFFFFFF00FFFFFFFFFFFFFFFFFFFFFFFF00FFFFFFFFFFFFFFFFFFFFFFFFFFFFFFFFFFFF00FFFFFFFFFFFFFFFFFFFFFF00FFFFFFFFFFFFFFFFFFFFFFFFFFFFFFFFFFFF
310
FF00FFFFFFFFFFFFFFFFFFFFFF00FFFFFFFFFFFFFFFFFFFFFFFFFFFFFFFFFFFFFF00FFFFFFFFFFFFFFFFFFFFFF00FFFFFFFFFFFFFFFFFFFFFFFFFFFFFFFFFFFFFF00FFFFFFFFFFFFFFFFFFFFFF00FFFFFFFFFFFFFFFFFFFFFFFFFFFFFFFFFFFFFF00FFFFFFFFFFFFFFFFFFFFFF00FFFFFFFFFFFFFFFFFFFFFFFFFFFFFFFFFF
310
FFFF00FFFFFFFFFFFFFFFFFFFFFF00FFFFFFFFFFFFFFFFFFFFFFFFFFFFFFFFFFFFFF00FFFFFFFFFFFFFFFFFFFF00FFFFFFFFFFFFFFFFFFFFFFFFFFFFFFFFFFFFFFFF00FFFFFFFFFFFFFFFFFFFF00FFFFFFFFFFFFFFFFFFFFFFFFFFFFFFFFFFFFFFFF00FFFFFFFFFFFFFFFFFFFF00FFFFFFFFFFFFFFFFFFFFFFFFFFFFFFFFFF
310
FFFFFF00FFFFFFFFFFFFFFFFFFFF00FFFFFFFFFFFFFFFFFFFFFFFFFFFFFFFFFFFFFFFF00FFFFFFFFFFFFFFFFFFFF00FFFFFFFFFFFFFFFFFFFFFFFFFFFFFFFFFFFFFFFF00FFFFFFFFFFFFFFFFFFFF00FFFFFFFFFFFFFFFFFFFFFFFFFFFFFFFFFFFFFFFF00FFFFFFFFFFFFFFFFFF00FFFFFFFFFFFFFFFFFFFFFFFFFFFFFFFFFF
310
FFFFFFFF00FFFFFFFFFFFFFFFFFF00FFFFFFFFFFFFFFFFFFFFFFFFFFFFFFFFFFFFFFFFFF00FFFFFFFFFFFFFFFFFF00FFFFFFFFFFFFFFFFFFFFFFFFFFFFFFFFFFFFFFFFFF0000000000000000000000FFFFFFFFFFFFFFFFFFFFFFFFFFFFFFFFFFFFFFFFFFFFFFFFFFFFFFFFFFFFFFFFFFFFFFFFFFFFFFFFFFFFFFFFFFFFFFFF
310
FFFFFFFFFFFFFFFFFFFFFFFFFFFFFFFFFFFFFFFFFFFFFFFFFFFFFFFFFFFFFFFFFFFFFFFFFFFFFFFFFFFFFFFFFFFFFFFFFFFFFFFFFFFFFFFFFFFFFFFFFFFFFFFFFFFFFFFFFFFFFFFFFFFFFFFFFFFFFFFFFFFFFFFFFFFFFFFFFFFFFFFFFFFFFFFFFFFFFFFFFFFFFFFFFFFFFFFFFFFFFFFFFFFFFFFFFFFFFFFFFFFFFFFFFFFFFF
310
FFFFFFFFFFFFFFFFFFFFFFFFFFFFFFFFFFFFFFFFFFFFFFFFFFFFFFFFFFFFFFFFFFFFFFFFFFFFFFFFFFFFFFFFFFFFFFFFFFFFFFFFFFFFFFFFFFFFFFFFFFFFFFFFFFFFFFFFFFFFFFFFFFFFFFFFFFFFFFFFFFFFFFFFFFFFFFFFFFFFFFFFFFFFFFFFFFFFFFFFFFFFFFFFFFFFFFFFFFFFFFFFFFFFFFFFFFFFFFFFFFFFFFFFFFFFFF
310
FFFFFFFFFFFFFFFFFFFFFFFFFFFFFFFFFFFFFFFFFFFFFFFFFFFFFFFFFFFFFFFFFFFFFFFFFFFFFFFFFFFFFFFFFFFFFFFFFFFFFFFFFFFFFFFFFFFFFFFFFFFFFFFFFFFFFFFFFFFFFFFFFFFFFFFFFFFFFFFFFFFFFFFFFFFFFFFFFFFFFFFFFFFFFFFFFFFFFFFFFFFFFFFFFFFFFFFFFFFFFFFFFFFFFFFFFFFFFFFFFFFFFFFFFFFFFF
310
FFFFFFFFFFFFFFFFFFFFFFFFFFFFFFFFFFFFFFFFFFFFFFFFFFFFFFFFFFFFFFFFFFFFFFFFFFFFFFFFFFFFFFFFFFFFFFFFFFFFFFFFFFFFFFFF
102
{BLKREFS
331
26AD
102
}
  0
BLOCK_RECORD
  5
267C
330
2445
100
AcDbSymbolTableRecord
100
AcDbBlockTableRecord
  2
AI9-BLK9
340
0
310
2800000020000000200000000100080000000000000400000000000000000000000000000000000000000000000080000080000000808000800000008000800080800000C0C0C000C0DCC000F0CAA6000020400000206000002080000020A0000020C0000020E00000400000004020000040400000406000004080000040A0
310
000040C0000040E00000600000006020000060400000606000006080000060A0000060C0000060E00000800000008020000080400000806000008080000080A0000080C0000080E00000A0000000A0200000A0400000A0600000A0800000A0A00000A0C00000A0E00000C0000000C0200000C0400000C0600000C0800000C0
310
A00000C0C00000C0E00000E0000000E0200000E0400000E0600000E0800000E0A00000E0C00000E0E00040000000400020004000400040006000400080004000A0004000C0004000E00040200000402020004020400040206000402080004020A0004020C0004020E000404000004040200040404000404060004040800040
310
40A0004040C0004040E00040600000406020004060400040606000406080004060A0004060C0004060E00040800000408020004080400040806000408080004080A0004080C0004080E00040A0000040A0200040A0400040A0600040A0800040A0A00040A0C00040A0E00040C0000040C0200040C0400040C0600040C08000
310
40C0A00040C0C00040C0E00040E0000040E0200040E0400040E0600040E0800040E0A00040E0C00040E0E00080000000800020008000400080006000800080008000A0008000C0008000E00080200000802020008020400080206000802080008020A0008020C0008020E00080400000804020008040400080406000804080
310
008040A0008040C0008040E00080600000806020008060400080606000806080008060A0008060C0008060E00080800000808020008080400080806000808080008080A0008080C0008080E00080A0000080A0200080A0400080A0600080A0800080A0A00080A0C00080A0E00080C0000080C0200080C0400080C0600080C0
310
800080C0A00080C0C00080C0E00080E0000080E0200080E0400080E0600080E0800080E0A00080E0C00080E0E000C0000000C0002000C0004000C0006000C0008000C000A000C000C000C000E000C0200000C0202000C0204000C0206000C0208000C020A000C020C000C020E000C0400000C0402000C0404000C0406000C0
310
408000C040A000C040C000C040E000C0600000C0602000C0604000C0606000C0608000C060A000C060C000C060E000C0800000C0802000C0804000C0806000C0808000C080A000C080C000C080E000C0A00000C0A02000C0A04000C0A06000C0A08000C0A0A000C0A0C000C0A0E000C0C00000C0C02000C0C04000C0C06000
310
C0C08000C0C0A000F0FBFF00A4A0A000808080000000FF0000FF000000FFFF00FF000000FF00FF00FFFF0000FFFFFF00FFFFFFFFFFFFFFFFFFFFFFFFFFFFFFFFFFFFFFFFFFFFFFFFFFFFFFFFFFFFFFFFFFFFFFFFFFFFFFFFFFFFFFFFFFFFFF0000FFFFFFFFFFFFFFFFFFFFFFFFFFFFFFFFFFFFFFFFFFFFFFFFFFFFFFFF0000
310
FF0000FFFFFFFFFFFFFFFFFFFFFFFFFFFFFFFFFFFFFFFFFFFFFFFFFFFFFF00FFFFFF0000FFFFFFFFFFFFFFFFFFFFFFFFFFFFFFFFFFFFFFFFFFFFFFFFFFFF00FFFFFFFF0000FFFFFFFFFFFFFFFFFFFFFFFFFFFFFFFFFFFFFFFFFFFFFFFF00FF00000000FF00FFFFFFFFFFFFFFFFFFFFFFFFFFFFFFFFFFFFFFFFFFFFFFFF0000
310
00FFFF00FF00FFFFFFFFFFFFFFFFFFFFFFFFFFFFFFFFFFFFFFFFFFFFFFFF0000FFFFFFFF0000FFFFFFFFFFFFFFFFFFFFFFFFFFFFFFFFFFFFFFFFFFFFFFFF0000FFFFFFFF0000FFFFFFFFFFFFFFFFFFFFFFFFFFFFFFFFFFFFFFFFFFFFFF00FF00FFFFFFFF00FF00FFFFFFFFFFFFFFFFFFFFFFFFFFFFFFFFFFFFFFFFFFFF0000
310
FFFFFFFFFF00FF00FFFFFFFFFFFFFFFFFFFFFFFFFFFFFFFFFFFFFFFFFFFF0000FFFFFFFFFFFF0000FFFFFFFFFFFFFFFFFFFFFFFFFFFFFFFFFFFFFFFFFFFF0000FFFFFFFFFFFF0000FFFFFFFFFFFFFFFFFFFFFFFFFFFFFFFFFFFFFFFFFFFF0000FFFFFFFFFFFF0000FFFFFFFFFFFFFFFFFFFFFFFFFFFFFFFFFFFFFFFFFFFF00
310
00FFFFFFFFFFFF0000FFFFFFFFFFFFFFFFFFFFFFFFFFFFFFFFFFFFFFFFFFFF0000FFFFFFFFFFFF0000FFFFFFFFFFFFFFFFFFFFFFFFFFFFFFFFFFFFFFFFFFFF0000FFFFFFFFFFFF0000FFFFFFFFFFFFFFFFFFFFFFFFFFFFFFFFFFFFFFFFFFFF0000FFFFFFFFFFFF0000FFFFFFFFFFFFFFFFFFFFFFFFFFFFFFFFFFFFFFFFFFFF
310
0000FFFFFFFFFFFF0000FFFFFFFFFFFFFFFFFFFFFFFFFFFFFFFFFFFFFFFFFFFF0000FFFFFFFFFFFF0000FFFFFFFFFFFFFFFFFFFFFFFFFFFFFFFFFFFFFFFFFFFF0000FFFFFFFFFFFF0000FFFFFFFFFFFFFFFFFFFFFFFFFFFFFFFFFFFFFFFFFFFF00FF00FFFFFFFF00FF00FFFFFFFFFFFFFFFFFFFFFFFFFFFFFFFFFFFFFFFFFF
310
FF00FF00FFFFFFFF00FF00FFFFFFFFFFFFFFFFFFFFFFFFFFFFFFFFFFFFFFFFFFFF00FF00FFFFFFFF00FF00FFFFFFFFFFFFFFFFFFFFFFFFFFFFFFFFFFFFFFFFFFFFFF0000FFFFFFFF0000FFFFFFFFFFFFFFFFFFFFFFFFFFFFFFFFFFFFFFFFFFFFFFFF00FF00FFFF00FF00FFFFFFFFFFFFFFFFFFFFFFFFFFFFFFFFFFFFFFFFFF
310
FFFFFF00FF00000000FF00FFFFFFFFFFFFFFFFFFFFFFFFFFFFFFFFFFFFFFFFFFFFFFFFFF00FFFFFFFF0000FFFFFFFFFFFFFFFFFFFFFFFFFFFFFFFFFFFFFFFFFFFFFFFFFF00FFFFFFFF00FFFFFFFFFFFFFFFFFFFFFFFFFFFFFFFFFFFFFFFFFFFFFFFFFFFFFF00000000FFFFFFFFFFFFFFFFFFFFFFFFFFFFFFFFFFFFFFFFFFFF
310
FFFFFFFFFFFFFF0000FFFFFFFFFFFFFFFFFFFFFFFFFFFFFFFFFFFFFFFFFFFFFFFFFFFFFFFFFFFFFFFFFFFFFFFFFFFFFFFFFFFFFFFFFFFFFF
102
{BLKREFS
331
26AE
102
}
  0
BLOCK_RECORD
  5
2681
330
2445
100
AcDbSymbolTableRecord
100
AcDbBlockTableRecord
  2
AI9-BLK8
340
0
310
2800000020000000200000000100080000000000000400000000000000000000000000000000000000000000000080000080000000808000800000008000800080800000C0C0C000C0DCC000F0CAA6000020400000206000002080000020A0000020C0000020E00000400000004020000040400000406000004080000040A0
310
000040C0000040E00000600000006020000060400000606000006080000060A0000060C0000060E00000800000008020000080400000806000008080000080A0000080C0000080E00000A0000000A0200000A0400000A0600000A0800000A0A00000A0C00000A0E00000C0000000C0200000C0400000C0600000C0800000C0
310
A00000C0C00000C0E00000E0000000E0200000E0400000E0600000E0800000E0A00000E0C00000E0E00040000000400020004000400040006000400080004000A0004000C0004000E00040200000402020004020400040206000402080004020A0004020C0004020E000404000004040200040404000404060004040800040
310
40A0004040C0004040E00040600000406020004060400040606000406080004060A0004060C0004060E00040800000408020004080400040806000408080004080A0004080C0004080E00040A0000040A0200040A0400040A0600040A0800040A0A00040A0C00040A0E00040C0000040C0200040C0400040C0600040C08000
310
40C0A00040C0C00040C0E00040E0000040E0200040E0400040E0600040E0800040E0A00040E0C00040E0E00080000000800020008000400080006000800080008000A0008000C0008000E00080200000802020008020400080206000802080008020A0008020C0008020E00080400000804020008040400080406000804080
310
008040A0008040C0008040E00080600000806020008060400080606000806080008060A0008060C0008060E00080800000808020008080400080806000808080008080A0008080C0008080E00080A0000080A0200080A0400080A0600080A0800080A0A00080A0C00080A0E00080C0000080C0200080C0400080C0600080C0
310
800080C0A00080C0C00080C0E00080E0000080E0200080E0400080E0600080E0800080E0A00080E0C00080E0E000C0000000C0002000C0004000C0006000C0008000C000A000C000C000C000E000C0200000C0202000C0204000C0206000C0208000C020A000C020C000C020E000C0400000C0402000C0404000C0406000C0
310
408000C040A000C040C000C040E000C0600000C0602000C0604000C0606000C0608000C060A000C060C000C060E000C0800000C0802000C0804000C0806000C0808000C080A000C080C000C080E000C0A00000C0A02000C0A04000C0A06000C0A08000C0A0A000C0A0C000C0A0E000C0C00000C0C02000C0C04000C0C06000
310
C0C08000C0C0A000F0FBFF00A4A0A000808080000000FF0000FF000000FFFF00FF000000FF00FF00FFFF0000FFFFFF00FFFFFFFFFFFFFFFFFFFFFFFFFFFFFFFFFFFFFFFFFFFFFFFFFFFFFFFFFFFFFFFFFFFFFFFFFFFFFFFFFFFFFF0000FFFFFFFFFFFF0000FFFFFFFFFFFFFFFFFFFFFFFFFFFFFFFFFFFFFFFFFFFF0000FFFF
310
FFFFFFFF0000FFFFFFFFFFFFFFFFFFFFFFFFFFFFFFFFFFFFFFFFFFFF0000FFFFFFFFFF00FF00FFFFFFFFFFFFFFFFFFFFFFFFFFFFFFFFFFFFFFFFFFFF0000FFFFFFFFFF00FF00FFFFFFFFFFFFFFFFFFFFFFFFFFFFFFFFFFFFFFFFFFFF0000FFFFFFFFFF00FF00FFFFFFFFFFFFFFFFFFFFFFFFFFFFFFFFFFFFFFFFFFFF0000FF
310
FFFFFF00FFFF00FFFFFFFFFFFFFFFFFFFFFFFFFFFFFFFFFFFFFFFFFFFF0000FFFFFFFF00FF0000FFFFFFFFFFFFFFFFFFFFFFFFFFFFFFFFFFFFFFFFFFFF0000FFFFFFFF00FF0000FFFFFFFFFFFFFFFFFFFFFFFFFFFFFFFFFFFFFFFFFFFF0000FFFFFFFF00000000FFFFFFFFFFFFFFFFFFFFFFFFFFFFFFFFFFFFFFFFFFFF0000
310
FFFFFF00FF000000FFFFFFFFFFFFFFFFFFFFFFFFFFFFFFFFFFFFFFFFFFFF0000FFFFFF00FF000000FFFFFFFFFFFFFFFFFFFFFFFFFFFFFFFFFFFFFFFFFFFF0000FFFFFF00FF000000FFFFFFFFFFFFFFFFFFFFFFFFFFFFFFFFFFFFFFFFFFFF0000FFFF00FF00FF0000FFFFFFFFFFFFFFFFFFFFFFFFFFFFFFFFFFFFFFFFFFFF00
310
00FFFF00FF00FF0000FFFFFFFFFFFFFFFFFFFFFFFFFFFFFFFFFFFFFFFFFFFF0000FFFF00FF00FF0000FFFFFFFFFFFFFFFFFFFFFFFFFFFFFFFFFFFFFFFFFFFF0000FF00FFFF00FF0000FFFFFFFFFFFFFFFFFFFFFFFFFFFFFFFFFFFFFFFFFFFF0000FF00FF00FFFF0000FFFFFFFFFFFFFFFFFFFFFFFFFFFFFFFFFFFFFFFFFFFF
310
0000FF00FF00FFFF0000FFFFFFFFFFFFFFFFFFFFFFFFFFFFFFFFFFFFFFFFFFFF0000FF00FF00FFFF0000FFFFFFFFFFFFFFFFFFFFFFFFFFFFFFFFFFFFFFFFFFFF000000FFFF00FFFF0000FFFFFFFFFFFFFFFFFFFFFFFFFFFFFFFFFFFFFFFFFFFF000000FF00FFFFFF0000FFFFFFFFFFFFFFFFFFFFFFFFFFFFFFFFFFFFFFFFFF
310
FF000000FF00FFFFFF0000FFFFFFFFFFFFFFFFFFFFFFFFFFFFFFFFFFFFFFFFFFFF0000FFFF00FFFFFF0000FFFFFFFFFFFFFFFFFFFFFFFFFFFFFFFFFFFFFFFFFFFF0000FFFF00FFFFFF0000FFFFFFFFFFFFFFFFFFFFFFFFFFFFFFFFFFFFFFFFFFFF00FFFF00FFFFFFFF0000FFFFFFFFFFFFFFFFFFFFFFFFFFFFFFFFFFFFFFFF
310
FFFF00FFFF00FFFFFFFF0000FFFFFFFFFFFFFFFFFFFFFFFFFFFFFFFFFFFFFFFFFFFF00FFFF00FFFFFFFF0000FFFFFFFFFFFFFFFFFFFFFFFFFFFFFFFFFFFFFFFFFFFF00FFFF00FFFFFFFF0000FFFFFFFFFFFFFFFFFFFFFFFFFFFFFFFFFFFFFFFFFFFF00FF00FFFFFFFFFF0000FFFFFFFFFFFFFFFFFFFFFFFFFFFFFFFFFFFFFF
310
FFFFFF000000FFFFFFFFFF0000FFFFFFFFFFFFFFFFFFFFFFFFFFFFFFFFFFFFFFFFFFFFFFFFFFFFFFFFFFFFFFFFFFFFFFFFFFFFFFFFFFFFFF
102
{BLKREFS
331
26AF
102
}
  0
BLOCK_RECORD
  5
2686
330
2445
100
AcDbSymbolTableRecord
100
AcDbBlockTableRecord
  2
AI9-BLK7
340
0
310
2800000020000000200000000100080000000000000400000000000000000000000000000000000000000000000080000080000000808000800000008000800080800000C0C0C000C0DCC000F0CAA6000020400000206000002080000020A0000020C0000020E00000400000004020000040400000406000004080000040A0
310
000040C0000040E00000600000006020000060400000606000006080000060A0000060C0000060E00000800000008020000080400000806000008080000080A0000080C0000080E00000A0000000A0200000A0400000A0600000A0800000A0A00000A0C00000A0E00000C0000000C0200000C0400000C0600000C0800000C0
310
A00000C0C00000C0E00000E0000000E0200000E0400000E0600000E0800000E0A00000E0C00000E0E00040000000400020004000400040006000400080004000A0004000C0004000E00040200000402020004020400040206000402080004020A0004020C0004020E000404000004040200040404000404060004040800040
310
40A0004040C0004040E00040600000406020004060400040606000406080004060A0004060C0004060E00040800000408020004080400040806000408080004080A0004080C0004080E00040A0000040A0200040A0400040A0600040A0800040A0A00040A0C00040A0E00040C0000040C0200040C0400040C0600040C08000
310
40C0A00040C0C00040C0E00040E0000040E0200040E0400040E0600040E0800040E0A00040E0C00040E0E00080000000800020008000400080006000800080008000A0008000C0008000E00080200000802020008020400080206000802080008020A0008020C0008020E00080400000804020008040400080406000804080
310
008040A0008040C0008040E00080600000806020008060400080606000806080008060A0008060C0008060E00080800000808020008080400080806000808080008080A0008080C0008080E00080A0000080A0200080A0400080A0600080A0800080A0A00080A0C00080A0E00080C0000080C0200080C0400080C0600080C0
310
800080C0A00080C0C00080C0E00080E0000080E0200080E0400080E0600080E0800080E0A00080E0C00080E0E000C0000000C0002000C0004000C0006000C0008000C000A000C000C000C000E000C0200000C0202000C0204000C0206000C0208000C020A000C020C000C020E000C0400000C0402000C0404000C0406000C0
310
408000C040A000C040C000C040E000C0600000C0602000C0604000C0606000C0608000C060A000C060C000C060E000C0800000C0802000C0804000C0806000C0808000C080A000C080C000C080E000C0A00000C0A02000C0A04000C0A06000C0A08000C0A0A000C0A0C000C0A0E000C0C00000C0C02000C0C04000C0C06000
310
C0C08000C0C0A000F0FBFF00A4A0A000808080000000FF0000FF000000FFFF00FF000000FF00FF00FFFF0000FFFFFF00FFFFFFFFFFFFFFFFFFFFFFFFFFFFFFFFFFFFFFFFFFFFFFFFFFFFFFFFFFFFFFFFFFFFFFFFFFFFFFFFFFFFFFFFFFFFFF0000FFFFFFFFFFFFFFFFFFFFFFFFFFFFFFFFFFFFFFFFFFFFFFFFFFFFFFFFFFFF
310
0000FFFFFFFFFFFFFFFFFFFFFFFFFFFFFFFFFFFFFFFFFFFFFFFFFFFFFFFFFFFF0000FFFFFFFFFFFFFFFFFFFFFFFFFFFFFFFFFFFFFFFFFFFFFFFFFFFFFFFFFFFF0000FFFFFFFFFFFFFFFFFFFFFFFFFFFFFFFFFFFFFFFFFFFFFFFFFFFFFFFFFFFF0000FFFFFFFFFFFFFFFFFFFFFFFFFFFFFFFFFFFFFFFFFFFFFFFFFFFFFFFFFF
310
FF0000FFFFFFFFFFFFFFFFFFFFFFFFFFFFFFFFFFFFFFFFFFFFFFFFFFFFFFFFFFFF0000FFFFFFFFFFFFFFFFFFFFFFFFFFFFFFFFFFFFFFFFFFFFFFFFFFFFFFFFFFFF0000FFFFFFFFFFFFFFFFFFFFFFFFFFFFFFFFFFFFFFFFFFFFFFFFFFFFFFFFFFFF0000FFFFFFFFFFFFFFFFFFFFFFFFFFFFFFFFFFFFFFFFFFFFFFFFFFFFFFFF
310
FFFF0000FFFFFFFFFFFFFFFFFFFFFFFFFFFFFFFFFFFFFFFFFFFFFFFFFFFFFFFFFFFF0000FFFFFFFFFFFFFFFFFFFFFFFFFFFFFFFFFFFFFFFFFFFFFFFFFFFFFFFFFFFF0000FFFFFFFFFFFFFFFFFFFFFFFFFFFFFFFFFFFFFFFFFFFFFFFFFFFFFFFFFFFF0000FFFFFFFFFFFFFFFFFFFFFFFFFFFFFFFFFFFFFFFFFFFFFFFFFFFFFF
310
FFFFFF0000FFFFFFFFFFFFFFFFFFFFFFFFFFFFFFFFFFFFFFFFFFFFFFFFFFFFFFFFFFFF0000FFFFFFFFFFFFFFFFFFFFFFFFFFFFFFFFFFFFFFFFFFFFFFFFFFFFFFFFFFFF0000FFFFFFFFFFFFFFFFFFFFFFFFFFFFFFFFFFFFFFFFFFFFFFFFFFFFFFFFFFFF0000FFFFFFFFFFFFFFFFFFFFFFFFFFFFFFFFFFFFFFFFFFFFFFFFFFFF
310
FFFFFFFF0000FFFFFFFFFFFFFFFFFFFFFFFFFFFFFFFFFFFFFFFFFFFFFFFFFFFFFFFFFFFF0000FFFFFFFFFFFFFFFFFFFFFFFFFFFFFFFFFFFFFFFFFFFFFFFFFFFFFFFFFFFF0000FFFFFFFFFFFFFFFFFFFFFFFFFFFFFFFFFFFFFFFFFFFFFFFFFFFFFFFFFFFF0000FFFFFFFFFFFFFFFFFFFFFFFFFFFFFFFFFFFFFFFFFFFFFFFFFF
310
FFFFFFFFFF0000FFFFFFFFFFFFFFFFFFFFFFFFFFFFFFFFFFFFFFFFFFFFFFFFFFFFFFFFFFFF0000FFFFFFFFFFFFFFFFFFFFFFFFFFFFFFFFFFFFFFFFFFFFFFFFFFFFFFFFFFFF0000FFFFFFFFFFFFFFFFFFFFFFFFFFFFFFFFFFFFFFFFFFFFFFFFFFFFFFFFFFFF0000FFFFFFFFFFFFFFFFFFFFFFFFFFFFFFFFFFFFFFFFFFFFFFFF
310
FFFFFFFFFFFF0000FFFFFFFFFFFFFFFFFFFFFFFFFFFFFFFFFFFFFFFFFFFFFFFFFFFFFFFFFFFF0000FFFFFFFFFFFFFFFFFFFFFFFFFFFFFFFFFFFFFFFFFFFFFFFFFFFFFFFFFFFF0000FFFFFFFFFFFFFFFFFFFFFFFFFFFFFFFFFFFFFFFFFFFFFFFFFFFFFFFFFFFF0000FFFFFFFFFFFFFFFFFFFFFFFFFFFFFFFFFFFFFFFFFFFFFF
310
FFFFFFFFFFFFFF0000FFFFFFFFFFFFFFFFFFFFFFFFFFFFFFFFFFFFFFFFFFFFFFFFFFFFFFFFFFFFFFFFFFFFFFFFFFFFFFFFFFFFFFFFFFFFFF
102
{BLKREFS
331
26B0
102
}
  0
BLOCK_RECORD
  5
268B
330
2445
100
AcDbSymbolTableRecord
100
AcDbBlockTableRecord
  2
AI9-BLK6
340
0
310
2800000020000000200000000100080000000000000400000000000000000000000000000000000000000000000080000080000000808000800000008000800080800000C0C0C000C0DCC000F0CAA6000020400000206000002080000020A0000020C0000020E00000400000004020000040400000406000004080000040A0
310
000040C0000040E00000600000006020000060400000606000006080000060A0000060C0000060E00000800000008020000080400000806000008080000080A0000080C0000080E00000A0000000A0200000A0400000A0600000A0800000A0A00000A0C00000A0E00000C0000000C0200000C0400000C0600000C0800000C0
310
A00000C0C00000C0E00000E0000000E0200000E0400000E0600000E0800000E0A00000E0C00000E0E00040000000400020004000400040006000400080004000A0004000C0004000E00040200000402020004020400040206000402080004020A0004020C0004020E000404000004040200040404000404060004040800040
310
40A0004040C0004040E00040600000406020004060400040606000406080004060A0004060C0004060E00040800000408020004080400040806000408080004080A0004080C0004080E00040A0000040A0200040A0400040A0600040A0800040A0A00040A0C00040A0E00040C0000040C0200040C0400040C0600040C08000
310
40C0A00040C0C00040C0E00040E0000040E0200040E0400040E0600040E0800040E0A00040E0C00040E0E00080000000800020008000400080006000800080008000A0008000C0008000E00080200000802020008020400080206000802080008020A0008020C0008020E00080400000804020008040400080406000804080
310
008040A0008040C0008040E00080600000806020008060400080606000806080008060A0008060C0008060E00080800000808020008080400080806000808080008080A0008080C0008080E00080A0000080A0200080A0400080A0600080A0800080A0A00080A0C00080A0E00080C0000080C0200080C0400080C0600080C0
310
800080C0A00080C0C00080C0E00080E0000080E0200080E0400080E0600080E0800080E0A00080E0C00080E0E000C0000000C0002000C0004000C0006000C0008000C000A000C000C000C000E000C0200000C0202000C0204000C0206000C0208000C020A000C020C000C020E000C0400000C0402000C0404000C0406000C0
310
408000C040A000C040C000C040E000C0600000C0602000C0604000C0606000C0608000C060A000C060C000C060E000C0800000C0802000C0804000C0806000C0808000C080A000C080C000C080E000C0A00000C0A02000C0A04000C0A06000C0A08000C0A0A000C0A0C000C0A0E000C0C00000C0C02000C0C04000C0C06000
310
C0C08000C0C0A000F0FBFF00A4A0A000808080000000FF0000FF000000FFFF00FF000000FF00FF00FFFF0000FFFFFF00FFFFFFFFFFFFFFFFFFFFFFFF00FFFFFFFFFFFFFF00FFFFFFFFFFFFFFFFFFFFFFFFFFFFFFFFFFFFFFFFFFFFFF00FFFFFFFFFFFFFF00FFFFFFFFFFFFFFFFFFFFFFFFFFFFFFFFFFFFFFFFFFFFFF00FFFF
310
FFFFFFFFFF00FFFFFFFFFFFFFFFFFFFFFFFFFFFFFFFFFFFFFFFFFFFF00FFFFFFFFFFFFFFFF00FFFFFFFFFFFFFFFFFFFFFFFFFFFFFFFFFFFFFFFFFFFF00FFFFFFFFFFFFFF00FFFFFFFFFFFFFFFFFFFFFFFFFFFFFFFFFFFFFFFFFFFFFF00FFFFFFFFFFFFFF00FFFFFFFFFFFFFFFFFFFFFFFFFFFFFFFFFFFFFFFFFFFF00FFFFFF
310
FFFFFFFFFF00FFFFFFFFFFFFFFFFFFFFFFFFFFFFFFFFFFFFFFFFFFFF00FFFFFFFFFFFFFF00FFFFFFFFFFFFFFFFFFFFFFFFFFFFFFFFFFFFFFFFFFFF00FFFFFFFFFFFFFFFF00FFFFFFFFFFFFFFFFFFFFFFFFFFFFFFFFFFFFFFFFFF00FFFFFFFFFFFFFFFFFF00FFFFFFFFFFFFFFFFFFFFFFFFFFFFFFFFFFFFFFFF00FFFFFFFFFF
310
FFFFFFFFFF00FFFFFFFFFFFFFFFFFFFFFFFFFFFFFFFFFFFFFF00FFFFFFFFFFFFFFFFFFFF00FFFFFFFFFFFFFFFFFFFFFFFFFFFFFFFFFFFF0000FFFFFFFFFFFFFFFFFFFFFF00FFFFFFFFFFFFFFFFFFFFFFFFFFFF00000000FFFFFFFFFFFFFFFFFFFFFFFFFF00FFFFFFFFFFFFFFFFFFFFFFFFFFFFFFFFFFFFFFFFFFFFFFFFFFFF
310
FFFFFFFF00FFFFFFFFFFFFFFFFFFFFFFFFFFFFFFFFFFFFFFFFFFFFFFFFFFFFFFFFFFFFFF00FFFFFFFFFFFFFFFFFFFFFFFFFFFFFFFFFFFFFFFFFFFFFFFFFFFFFFFFFFFFFF00FFFFFFFFFFFFFFFFFFFFFFFFFFFFFFFFFFFFFFFFFFFFFFFFFFFFFFFFFFFF00FFFFFFFFFFFFFFFFFFFFFFFFFFFFFFFFFFFFFFFFFFFFFFFFFFFFFF
310
FFFFFFFF00FFFFFFFFFFFFFFFFFFFFFFFFFFFFFFFFFFFFFFFFFFFFFFFFFFFFFFFFFFFF00FFFFFFFFFFFFFFFFFFFFFFFFFFFFFFFFFFFFFFFFFFFFFFFFFFFFFFFFFFFF00FFFFFFFFFFFFFFFFFFFFFFFFFFFFFFFFFFFFFFFFFFFFFFFFFFFFFFFFFFFF00FFFFFFFFFFFFFFFFFFFFFFFFFFFFFFFFFFFFFFFFFFFFFFFFFFFFFFFFFF
310
FF00FFFFFFFFFFFFFFFFFFFFFFFFFFFFFFFFFFFFFFFFFFFFFFFFFFFFFFFFFFFFFF00FFFFFFFFFFFFFFFFFFFFFFFFFFFFFFFFFFFFFFFFFFFFFFFFFFFFFFFFFFFF00FFFFFFFFFFFFFFFFFFFFFFFFFFFFFFFFFFFFFFFFFFFFFFFFFFFFFFFFFF0000FFFFFFFFFFFFFFFFFFFFFFFFFFFFFFFFFFFFFFFFFFFFFFFFFFFFFFFF0000FF
310
FFFFFFFFFFFFFFFFFFFFFFFFFFFFFFFFFFFFFFFFFFFFFFFFFF00000000FFFFFFFFFFFFFFFFFFFFFFFFFFFFFFFFFFFFFFFFFFFFFFFFFFFF0000FFFFFFFFFFFFFFFFFFFFFFFFFFFFFFFFFFFFFFFFFFFFFFFFFFFFFFFFFFFFFFFFFFFFFFFFFFFFFFFFFFFFFFFFFFFFFFFFFFFFFFFFFFFFFFFFFFFFFFFFFFFFFFFFFFFFFFFFFFFF
310
FFFFFFFFFFFFFFFFFFFFFFFFFFFFFFFFFFFFFFFFFFFFFFFFFFFFFFFFFFFFFFFFFFFFFFFFFFFFFFFFFFFFFFFFFFFFFFFFFFFFFFFFFFFFFFFF
102
{BLKREFS
331
26B1
102
}
  0
BLOCK_RECORD
  5
268F
330
2445
100
AcDbSymbolTableRecord
100
AcDbBlockTableRecord
  2
AI9-BLK5
340
0
310
2800000020000000200000000100080000000000000400000000000000000000000000000000000000000000000080000080000000808000800000008000800080800000C0C0C000C0DCC000F0CAA6000020400000206000002080000020A0000020C0000020E00000400000004020000040400000406000004080000040A0
310
000040C0000040E00000600000006020000060400000606000006080000060A0000060C0000060E00000800000008020000080400000806000008080000080A0000080C0000080E00000A0000000A0200000A0400000A0600000A0800000A0A00000A0C00000A0E00000C0000000C0200000C0400000C0600000C0800000C0
310
A00000C0C00000C0E00000E0000000E0200000E0400000E0600000E0800000E0A00000E0C00000E0E00040000000400020004000400040006000400080004000A0004000C0004000E00040200000402020004020400040206000402080004020A0004020C0004020E000404000004040200040404000404060004040800040
310
40A0004040C0004040E00040600000406020004060400040606000406080004060A0004060C0004060E00040800000408020004080400040806000408080004080A0004080C0004080E00040A0000040A0200040A0400040A0600040A0800040A0A00040A0C00040A0E00040C0000040C0200040C0400040C0600040C08000
310
40C0A00040C0C00040C0E00040E0000040E0200040E0400040E0600040E0800040E0A00040E0C00040E0E00080000000800020008000400080006000800080008000A0008000C0008000E00080200000802020008020400080206000802080008020A0008020C0008020E00080400000804020008040400080406000804080
310
008040A0008040C0008040E00080600000806020008060400080606000806080008060A0008060C0008060E00080800000808020008080400080806000808080008080A0008080C0008080E00080A0000080A0200080A0400080A0600080A0800080A0A00080A0C00080A0E00080C0000080C0200080C0400080C0600080C0
310
800080C0A00080C0C00080C0E00080E0000080E0200080E0400080E0600080E0800080E0A00080E0C00080E0E000C0000000C0002000C0004000C0006000C0008000C000A000C000C000C000E000C0200000C0202000C0204000C0206000C0208000C020A000C020C000C020E000C0400000C0402000C0404000C0406000C0
310
408000C040A000C040C000C040E000C0600000C0602000C0604000C0606000C0608000C060A000C060C000C060E000C0800000C0802000C0804000C0806000C0808000C080A000C080C000C080E000C0A00000C0A02000C0A04000C0A06000C0A08000C0A0A000C0A0C000C0A0E000C0C00000C0C02000C0C04000C0C06000
310
C0C08000C0C0A000F0FBFF00A4A0A000808080000000FF0000FF000000FFFF00FF000000FF00FF00FFFF0000FFFFFF00FFFFFFFFFFFFFFFFFFFFFFFFFFFFFFFFFFFFFFFFFFFFFFFFFFFFFFFFFFFFFFFFFFFFFFFFFFFFFFFF000000000000000000000000000000000000000000000000FFFFFFFFFFFFFFFF00FFFFFFFFFFFF
310
FFFFFFFFFFFFFFFFFFFFFFFFFFFFFFFFFFFFFFFFFFFFFFFFFF00FFFFFFFFFFFFFFFFFFFFFFFFFFFFFFFFFFFFFFFFFFFFFFFFFFFFFFFFFFFFFF00FFFFFFFFFFFFFFFFFFFFFFFFFFFFFFFFFFFFFFFFFFFFFFFFFFFFFFFFFFFFFF00FFFFFFFFFFFFFFFFFFFFFFFFFFFFFFFFFFFFFFFFFFFFFFFFFFFFFFFFFFFFFF00FFFFFFFFFF
310
FFFFFFFFFFFFFFFFFFFFFFFFFFFFFFFFFFFFFFFFFFFFFFFFFFFF00FFFFFFFFFFFFFFFFFFFFFFFFFFFFFFFFFFFFFFFFFFFFFFFFFFFFFFFFFFFFFF00FFFFFFFFFFFFFFFFFFFFFFFFFFFFFFFFFFFFFFFFFFFFFFFFFFFFFFFFFFFFFF00FFFFFFFFFFFFFFFFFFFFFFFFFFFFFFFFFFFFFFFFFFFFFFFFFFFFFFFFFFFFFF00FFFFFFFF
310
FFFFFFFFFFFFFFFFFFFFFFFFFFFFFFFFFFFFFFFFFFFFFFFFFFFFFF00FFFFFFFFFFFFFFFFFFFFFFFFFFFFFFFFFFFFFFFFFFFFFFFFFFFFFFFFFFFFFF00FFFFFFFFFFFFFFFFFFFFFFFFFFFFFFFFFFFFFFFFFFFFFFFFFFFFFFFFFFFFFF00FFFFFFFFFFFFFFFFFFFFFFFFFFFFFFFFFFFFFFFFFFFFFFFFFFFFFFFFFFFFFF00FFFFFF
310
FFFFFFFFFFFFFFFFFFFFFFFFFFFFFFFFFFFFFFFFFFFFFFFFFFFFFFFF00FFFFFFFFFFFFFFFFFFFFFFFFFFFFFFFFFFFFFFFFFFFFFFFFFFFFFFFFFFFFFF00FFFFFFFFFFFFFFFFFFFFFFFFFFFFFFFFFFFFFFFFFFFFFFFFFFFFFFFFFFFFFF00FFFFFFFFFFFFFFFFFFFFFFFFFFFFFFFFFFFFFFFFFFFFFFFFFFFFFFFFFFFFFF00FFFF
310
FFFFFFFFFFFFFFFFFFFFFFFFFFFFFFFFFFFFFFFFFFFFFFFFFFFFFFFFFF00FFFFFFFFFFFFFFFFFFFFFFFFFFFFFFFFFFFFFFFFFFFFFFFFFFFFFFFFFFFFFF00FFFFFFFFFFFFFFFFFFFFFFFFFFFFFFFFFFFFFFFFFFFFFFFFFFFFFFFFFFFFFF00FFFFFFFFFFFFFFFFFFFFFFFFFFFFFFFFFFFFFFFFFFFFFFFFFFFFFFFFFFFFFF00FF
310
FFFFFFFFFFFFFFFFFFFFFFFFFFFFFFFFFFFFFFFFFFFFFFFFFFFFFFFFFFFF00FFFFFFFFFFFFFFFFFFFFFFFFFFFFFFFFFFFFFFFFFFFFFFFFFFFFFFFFFFFFFF00FFFFFFFFFFFFFFFFFFFFFFFFFFFFFFFFFFFFFFFFFFFFFFFFFFFFFFFFFFFFFF00FFFFFFFFFFFFFFFFFFFFFFFFFFFFFFFFFFFFFFFFFFFFFFFFFFFFFFFFFFFFFF00
310
FFFFFFFFFFFFFFFFFFFFFFFFFFFFFFFFFFFFFFFFFFFFFFFFFFFFFFFFFFFFFF00FFFFFFFFFFFFFFFFFFFFFFFFFFFFFFFFFFFFFFFFFFFFFFFFFFFFFFFFFFFFFF00FFFFFFFFFFFFFFFFFFFFFFFFFFFFFFFFFFFFFFFFFFFFFFFFFFFFFFFFFFFFFF00FFFFFFFFFFFFFFFFFFFFFFFFFFFFFFFFFFFFFFFFFFFFFFFFFFFFFFFFFFFFFF
310
00FFFFFFFFFFFFFFFFFFFFFFFFFFFF000000000000000000FFFFFFFFFFFFFFFF00FFFFFFFFFFFFFFFFFFFFFFFFFFFF00FFFFFFFFFFFFFFFF
102
{BLKREFS
331
26B2
102
}
  0
BLOCK_RECORD
  5
2694
330
2445
100
AcDbSymbolTableRecord
100
AcDbBlockTableRecord
  2
AI9-BLK4
340
0
310
2800000020000000200000000100080000000000000400000000000000000000000000000000000000000000000080000080000000808000800000008000800080800000C0C0C000C0DCC000F0CAA6000020400000206000002080000020A0000020C0000020E00000400000004020000040400000406000004080000040A0
310
000040C0000040E00000600000006020000060400000606000006080000060A0000060C0000060E00000800000008020000080400000806000008080000080A0000080C0000080E00000A0000000A0200000A0400000A0600000A0800000A0A00000A0C00000A0E00000C0000000C0200000C0400000C0600000C0800000C0
310
A00000C0C00000C0E00000E0000000E0200000E0400000E0600000E0800000E0A00000E0C00000E0E00040000000400020004000400040006000400080004000A0004000C0004000E00040200000402020004020400040206000402080004020A0004020C0004020E000404000004040200040404000404060004040800040
310
40A0004040C0004040E00040600000406020004060400040606000406080004060A0004060C0004060E00040800000408020004080400040806000408080004080A0004080C0004080E00040A0000040A0200040A0400040A0600040A0800040A0A00040A0C00040A0E00040C0000040C0200040C0400040C0600040C08000
310
40C0A00040C0C00040C0E00040E0000040E0200040E0400040E0600040E0800040E0A00040E0C00040E0E00080000000800020008000400080006000800080008000A0008000C0008000E00080200000802020008020400080206000802080008020A0008020C0008020E00080400000804020008040400080406000804080
310
008040A0008040C0008040E00080600000806020008060400080606000806080008060A0008060C0008060E00080800000808020008080400080806000808080008080A0008080C0008080E00080A0000080A0200080A0400080A0600080A0800080A0A00080A0C00080A0E00080C0000080C0200080C0400080C0600080C0
310
800080C0A00080C0C00080C0E00080E0000080E0200080E0400080E0600080E0800080E0A00080E0C00080E0E000C0000000C0002000C0004000C0006000C0008000C000A000C000C000C000E000C0200000C0202000C0204000C0206000C0208000C020A000C020C000C020E000C0400000C0402000C0404000C0406000C0
310
408000C040A000C040C000C040E000C0600000C0602000C0604000C0606000C0608000C060A000C060C000C060E000C0800000C0802000C0804000C0806000C0808000C080A000C080C000C080E000C0A00000C0A02000C0A04000C0A06000C0A08000C0A0A000C0A0C000C0A0E000C0C00000C0C02000C0C04000C0C06000
310
C0C08000C0C0A000F0FBFF00A4A0A000808080000000FF0000FF000000FFFF00FF000000FF00FF00FFFF0000FFFFFF00FFFFFFFFFFFFFFFFFFFFFFFFFFFFFFFFFFFFFFFFFFFFFFFFFFFFFFFFFFFFFFFFFFFFFFFFFFFFFFFFFFFFFFFFFFFF00000000FFFFFFFFFFFFFFFFFFFFFF000000FFFFFFFFFFFFFFFFFFFFFFFFFFFF00
310
FFFF00FFFFFFFFFFFFFFFFFFFFFF00FFFFFFFFFFFFFFFFFFFFFFFFFFFFFFFF00FFFF00FFFFFFFFFFFFFFFFFFFFFF00FFFFFFFFFFFFFFFFFFFFFFFFFFFFFFFF00FFFF00FFFFFFFFFFFFFFFFFFFFFF00FFFFFFFFFFFFFFFFFFFFFFFFFFFFFFFF00FFFF00FFFFFFFFFFFFFFFFFFFFFF00FFFFFFFFFFFFFFFFFFFFFFFFFFFFFFFF
310
00FFFF00FFFFFFFFFFFFFFFFFFFFFF00FFFFFFFFFFFFFFFFFFFFFFFFFFFFFFFF00FFFF00FFFFFFFFFFFFFFFFFFFFFF00FFFFFFFFFFFFFFFFFFFFFFFFFFFFFFFF00FFFF00FFFFFFFFFFFFFFFFFFFFFF00FFFFFFFFFFFFFFFFFFFFFFFFFFFFFFFF00FFFF00FFFFFFFFFFFFFFFFFFFFFF00FFFFFFFFFFFFFFFFFFFFFFFFFFFFFF
310
FF00FFFF00FFFFFFFFFFFFFFFFFFFFFF00FFFFFFFFFFFFFFFFFFFFFFFFFFFFFFFF00FFFF00FFFFFFFFFFFFFFFFFFFFFF00FFFFFFFFFFFFFFFFFFFFFFFFFFFFFFFF00FFFF00FFFFFFFFFFFFFFFFFFFFFF00FFFFFFFFFFFFFFFFFFFFFFFFFFFFFFFF00FFFF00FFFFFFFFFFFFFFFFFFFFFF00FFFFFFFFFFFFFFFFFFFFFFFFFFFF
310
FFFF00FFFF00FFFFFFFFFFFFFFFFFFFFFF00FFFFFFFFFFFFFFFFFFFFFFFFFFFFFFFF00FFFF00FFFFFFFFFFFFFFFFFFFFFF00FFFFFFFFFFFFFFFFFFFFFFFFFFFFFFFF00FFFF00FFFFFFFFFFFFFFFFFFFFFF00FFFFFFFFFFFFFFFFFFFFFFFFFFFFFFFF00FFFF00FFFFFFFFFFFFFFFFFFFF00FFFFFFFFFFFFFFFFFFFFFFFFFFFF
310
FFFFFF00FFFF00FFFFFFFFFFFFFFFFFFFF00FFFFFFFFFFFFFFFFFFFFFFFFFFFFFFFFFF00FFFF00FFFFFFFFFFFFFFFFFFFF00FFFFFFFFFFFFFFFFFFFFFFFFFFFFFFFFFF00FFFF00FFFFFFFFFFFFFFFFFFFF00FFFFFFFFFFFFFFFFFFFFFFFFFFFFFFFFFF00FFFF00FFFFFFFFFFFFFFFFFFFF00FFFFFFFFFFFFFFFFFFFFFFFFFF
310
FFFFFFFF00FFFF00FFFFFFFFFFFFFFFFFF0000FFFF00FFFFFFFFFFFFFFFFFFFFFFFFFFFF00FFFF00FFFFFFFFFFFFFFFF0000FFFFFF00FFFFFFFFFFFFFFFFFFFFFFFFFFFF00FFFF00000000000000000000FFFFFFFF00FFFFFFFFFFFFFFFFFFFFFFFFFFFF00FFFFFFFFFFFFFFFFFFFFFFFFFFFFFF00FFFFFFFFFFFFFFFFFFFF
310
FFFFFFFFFF00FFFFFFFFFFFFFFFFFFFFFFFFFFFF00FFFFFFFFFFFFFFFFFFFFFFFFFFFFFFFF00FFFFFFFFFFFFFFFFFFFFFFFFFFFF00FFFFFFFFFFFFFFFFFFFFFFFFFFFFFFFF00FFFFFFFFFFFFFFFFFFFFFFFFFFFFFF00FFFFFFFFFFFFFFFFFFFFFFFFFFFFFF00FFFFFFFFFFFFFFFFFFFFFFFFFFFFFF00FFFFFFFFFFFFFFFFFF
310
FFFFFFFFFFFF00FFFF00000000000000000000FFFFFFFF00FFFFFFFFFFFFFFFFFFFFFFFFFFFF00FFFF00FFFFFFFFFFFFFFFFFF0000FFFF00
102
{BLKREFS
331
26B3
102
}
  0
BLOCK_RECORD
  5
2699
330
2445
100
AcDbSymbolTableRecord
100
AcDbBlockTableRecord
  2
AI9-BLK3
340
0
310
2800000020000000200000000100080000000000000400000000000000000000000000000000000000000000000080000080000000808000800000008000800080800000C0C0C000C0DCC000F0CAA6000020400000206000002080000020A0000020C0000020E00000400000004020000040400000406000004080000040A0
310
000040C0000040E00000600000006020000060400000606000006080000060A0000060C0000060E00000800000008020000080400000806000008080000080A0000080C0000080E00000A0000000A0200000A0400000A0600000A0800000A0A00000A0C00000A0E00000C0000000C0200000C0400000C0600000C0800000C0
310
A00000C0C00000C0E00000E0000000E0200000E0400000E0600000E0800000E0A00000E0C00000E0E00040000000400020004000400040006000400080004000A0004000C0004000E00040200000402020004020400040206000402080004020A0004020C0004020E000404000004040200040404000404060004040800040
310
40A0004040C0004040E00040600000406020004060400040606000406080004060A0004060C0004060E00040800000408020004080400040806000408080004080A0004080C0004080E00040A0000040A0200040A0400040A0600040A0800040A0A00040A0C00040A0E00040C0000040C0200040C0400040C0600040C08000
310
40C0A00040C0C00040C0E00040E0000040E0200040E0400040E0600040E0800040E0A00040E0C00040E0E00080000000800020008000400080006000800080008000A0008000C0008000E00080200000802020008020400080206000802080008020A0008020C0008020E00080400000804020008040400080406000804080
310
008040A0008040C0008040E00080600000806020008060400080606000806080008060A0008060C0008060E00080800000808020008080400080806000808080008080A0008080C0008080E00080A0000080A0200080A0400080A0600080A0800080A0A00080A0C00080A0E00080C0000080C0200080C0400080C0600080C0
310
800080C0A00080C0C00080C0E00080E0000080E0200080E0400080E0600080E0800080E0A00080E0C00080E0E000C0000000C0002000C0004000C0006000C0008000C000A000C000C000C000E000C0200000C0202000C0204000C0206000C0208000C020A000C020C000C020E000C0400000C0402000C0404000C0406000C0
310
408000C040A000C040C000C040E000C0600000C0602000C0604000C0606000C0608000C060A000C060C000C060E000C0800000C0802000C0804000C0806000C0808000C080A000C080C000C080E000C0A00000C0A02000C0A04000C0A06000C0A08000C0A0A000C0A0C000C0A0E000C0C00000C0C02000C0C04000C0C06000
310
C0C08000C0C0A000F0FBFF00A4A0A000808080000000FF0000FF000000FFFF00FF000000FF00FF00FFFF0000FFFFFF00FFFFFFFFFFFFFFFFFFFFFFFFFFFFFFFFFFFFFFFFFFFFFFFFFFFFFFFFFFFFFFFFFFFFFFFFFFFFFFFFFFFFFFFFFFFFFF0000FFFFFFFFFFFFFFFFFFFFFFFFFFFFFFFFFFFFFFFFFFFFFFFFFFFFFFFFFFFF
310
0000FFFFFFFFFFFFFFFFFFFFFFFFFFFFFFFFFFFFFFFFFFFFFFFFFFFFFFFFFFFF0000FFFFFFFFFFFFFFFFFFFFFFFFFFFFFFFFFFFFFFFFFFFFFFFFFFFFFFFFFFFF0000FFFFFFFFFFFFFFFFFFFFFFFFFFFFFFFFFFFFFFFFFFFFFFFFFFFFFFFFFFFF0000FFFFFFFFFFFFFFFFFFFFFFFFFFFFFFFFFFFFFFFFFFFFFFFFFFFFFFFFFF
310
FF0000FFFFFFFFFFFFFFFFFFFFFFFFFFFFFFFFFFFFFFFFFFFFFFFFFFFFFFFFFFFF0000FFFFFFFFFFFFFFFFFFFFFFFFFFFFFFFFFFFFFFFFFFFFFFFFFFFFFFFFFFFF0000FFFFFFFFFFFFFFFFFFFFFFFFFFFFFFFFFFFFFFFFFFFFFFFFFFFFFFFFFFFF0000FFFFFFFFFFFFFFFFFFFFFFFFFFFFFFFFFFFFFFFFFFFFFFFFFFFFFFFF
310
FFFF0000FFFFFFFFFFFFFFFFFFFFFFFFFFFFFFFFFFFFFFFFFFFFFFFFFFFFFFFFFFFF0000FFFFFFFFFFFFFFFFFFFFFFFFFFFFFFFFFFFFFFFFFFFFFFFFFFFFFFFFFFFF0000FFFFFFFFFFFFFFFFFFFFFFFFFFFFFFFFFFFFFFFFFFFFFFFFFFFFFFFFFFFF0000FFFFFFFFFFFFFFFFFFFFFFFFFFFFFFFFFFFFFFFFFFFFFFFFFFFFFF
310
FFFFFF0000FFFFFFFFFFFFFFFFFFFFFFFFFFFFFFFFFFFFFFFFFFFFFFFFFFFFFFFFFFFF0000FFFFFFFFFFFFFFFFFFFFFFFFFFFFFFFFFFFFFFFFFFFFFFFFFFFFFFFFFFFF0000FFFFFFFFFFFFFFFFFFFFFFFFFFFFFFFFFFFFFFFFFFFFFFFFFFFFFFFFFFFF0000FFFFFFFFFFFFFFFFFFFFFFFFFFFFFFFFFFFFFFFFFFFFFFFFFFFF
310
FFFFFFFF0000FFFFFFFFFFFFFFFFFFFFFFFFFFFFFFFFFFFFFFFFFFFFFFFFFFFFFFFFFFFF0000FFFFFFFFFFFFFFFFFFFFFFFFFFFFFFFFFFFFFFFFFFFFFFFFFFFFFFFFFFFF0000FFFFFFFFFFFFFFFFFFFFFFFFFFFFFFFFFFFFFFFFFFFFFFFFFFFFFFFFFFFF0000FFFFFFFFFFFFFFFFFFFFFFFFFFFFFFFFFFFFFFFFFFFFFFFFFF
310
FFFFFFFFFF0000FFFFFFFFFFFFFFFFFFFFFFFFFFFFFFFFFFFFFFFFFFFFFFFFFFFFFFFFFFFF0000FFFFFFFFFFFFFFFFFFFFFFFFFFFFFFFFFFFFFFFFFFFFFFFFFFFFFFFFFFFF0000FFFFFFFFFFFFFFFFFFFFFFFFFFFFFFFFFFFFFFFFFFFFFFFFFFFFFFFFFFFF0000FFFFFFFFFFFFFFFFFFFFFFFFFFFFFFFFFFFFFFFFFFFFFFFF
310
FFFFFFFFFFFF0000FFFFFFFFFFFFFFFFFFFFFFFFFFFFFFFFFFFFFFFFFFFFFFFFFFFFFFFFFFFF0000FFFFFFFFFFFFFFFFFFFFFFFFFFFFFFFFFFFFFFFFFFFFFFFFFFFFFFFFFFFF0000FFFFFFFFFFFFFFFFFFFFFFFFFFFFFFFFFFFFFFFFFFFFFFFFFFFFFFFFFFFF0000FFFFFFFFFFFFFFFFFFFFFFFFFFFFFFFFFFFFFFFFFFFFFF
310
FFFFFFFFFFFFFF0000FFFFFFFFFFFFFFFFFFFFFFFFFFFFFFFFFFFFFFFFFFFFFFFFFFFFFFFFFFFFFFFFFFFFFFFFFFFFFFFFFFFFFFFFFFFFFF
102
{BLKREFS
331
26B4
102
}
  0
BLOCK_RECORD
  5
269E
330
2445
100
AcDbSymbolTableRecord
100
AcDbBlockTableRecord
  2
AI9-BLK2
340
0
310
2800000020000000200000000100080000000000000400000000000000000000000000000000000000000000000080000080000000808000800000008000800080800000C0C0C000C0DCC000F0CAA6000020400000206000002080000020A0000020C0000020E00000400000004020000040400000406000004080000040A0
310
000040C0000040E00000600000006020000060400000606000006080000060A0000060C0000060E00000800000008020000080400000806000008080000080A0000080C0000080E00000A0000000A0200000A0400000A0600000A0800000A0A00000A0C00000A0E00000C0000000C0200000C0400000C0600000C0800000C0
310
A00000C0C00000C0E00000E0000000E0200000E0400000E0600000E0800000E0A00000E0C00000E0E00040000000400020004000400040006000400080004000A0004000C0004000E00040200000402020004020400040206000402080004020A0004020C0004020E000404000004040200040404000404060004040800040
310
40A0004040C0004040E00040600000406020004060400040606000406080004060A0004060C0004060E00040800000408020004080400040806000408080004080A0004080C0004080E00040A0000040A0200040A0400040A0600040A0800040A0A00040A0C00040A0E00040C0000040C0200040C0400040C0600040C08000
310
40C0A00040C0C00040C0E00040E0000040E0200040E0400040E0600040E0800040E0A00040E0C00040E0E00080000000800020008000400080006000800080008000A0008000C0008000E00080200000802020008020400080206000802080008020A0008020C0008020E00080400000804020008040400080406000804080
310
008040A0008040C0008040E00080600000806020008060400080606000806080008060A0008060C0008060E00080800000808020008080400080806000808080008080A0008080C0008080E00080A0000080A0200080A0400080A0600080A0800080A0A00080A0C00080A0E00080C0000080C0200080C0400080C0600080C0
310
800080C0A00080C0C00080C0E00080E0000080E0200080E0400080E0600080E0800080E0A00080E0C00080E0E000C0000000C0002000C0004000C0006000C0008000C000A000C000C000C000E000C0200000C0202000C0204000C0206000C0208000C020A000C020C000C020E000C0400000C0402000C0404000C0406000C0
310
408000C040A000C040C000C040E000C0600000C0602000C0604000C0606000C0608000C060A000C060C000C060E000C0800000C0802000C0804000C0806000C0808000C080A000C080C000C080E000C0A00000C0A02000C0A04000C0A06000C0A08000C0A0A000C0A0C000C0A0E000C0C00000C0C02000C0C04000C0C06000
310
C0C08000C0C0A000F0FBFF00A4A0A000808080000000FF0000FF000000FFFF00FF000000FF00FF00FFFF0000FFFFFF00FFFFFFFFFFFFFFFFFFFFFFFFFFFFFFFFFFFFFFFFFFFFFFFFFFFFFFFFFFFFFFFFFFFFFFFFFFFFFFFFFFFFFFFFFFFFFF0000FFFFFFFFFFFFFFFFFFFFFFFFFFFFFFFFFFFFFFFFFFFFFFFFFFFFFFFFFFFF
310
0000FFFFFFFFFFFFFFFFFFFFFFFFFFFFFFFFFFFFFFFFFFFFFFFFFFFFFFFFFFFF0000FFFFFFFFFFFFFFFFFFFFFFFFFFFFFFFFFFFFFFFFFFFFFFFFFFFFFFFFFF00FFFF00FFFFFFFFFFFFFFFFFFFFFFFFFFFFFFFFFFFFFFFFFFFFFFFFFFFFFFFF00FFFF00FFFFFFFFFFFFFFFFFFFFFFFFFFFFFFFFFFFFFFFFFFFFFFFFFFFFFFFF
310
00FF0000FFFFFFFFFFFFFFFFFFFFFFFFFFFFFFFFFFFFFFFFFFFFFFFFFFFFFFFF00FF0000FFFFFFFFFFFFFFFFFFFFFFFFFFFFFFFFFFFFFFFFFFFFFFFFFFFFFFFF00FF0000FFFFFFFFFFFFFFFFFFFFFFFFFFFFFFFFFFFFFFFFFFFFFFFFFFFFFFFF00000000FFFFFFFFFFFFFFFFFFFFFFFFFFFFFFFFFFFFFFFFFFFFFFFFFFFFFF
310
00FF00FF0000FFFFFFFFFFFFFFFFFFFFFFFFFFFFFFFFFFFFFFFFFFFFFFFFFFFF00FF00FF0000FFFFFFFFFFFFFFFFFFFFFFFFFFFFFFFFFFFFFFFFFFFFFFFFFFFF00FF00FF0000FFFFFFFFFFFFFFFFFFFFFFFFFFFFFFFFFFFFFFFFFFFFFFFFFFFF00FF00FF0000FFFFFFFFFFFFFFFFFFFFFFFFFFFFFFFFFFFFFFFFFFFFFFFFFF
310
FF00FF00FF0000FFFFFFFFFFFFFFFFFFFFFFFFFFFFFFFFFFFFFFFFFFFFFFFFFFFF0000FFFF0000FFFFFFFFFFFFFFFFFFFFFFFFFFFFFFFFFFFFFFFFFFFFFFFFFF00FF00FFFF00FF00FFFFFFFFFFFFFFFFFFFFFFFFFFFFFFFFFFFFFFFFFFFFFFFF00FF00FFFF00FF00FFFFFFFFFFFFFFFFFFFFFFFFFFFFFFFFFFFFFFFFFFFFFF
310
FF00FF00FFFFFF0000FFFFFFFFFFFFFFFFFFFFFFFFFFFFFFFFFFFFFFFFFFFFFFFF00FF00FFFFFF0000FFFFFFFFFFFFFFFFFFFFFFFFFFFFFFFFFFFFFFFFFFFFFFFF00FF00FFFFFF0000FFFFFFFFFFFFFFFFFFFFFFFFFFFFFFFFFFFFFFFFFFFFFFFF0000FFFFFFFF0000FFFFFFFFFFFFFFFFFFFFFFFFFFFFFFFFFFFFFFFFFFFF
310
FF00FF00FFFFFFFF00FF00FFFFFFFFFFFFFFFFFFFFFFFFFFFFFFFFFFFFFFFFFFFF00FF00FFFFFFFF00FF00FFFFFFFFFFFFFFFFFFFFFFFFFFFFFFFFFFFFFFFFFFFF00FF00FFFFFFFF00FF00FFFFFFFFFFFFFFFFFFFFFFFFFFFFFFFFFFFFFFFFFFFF00FF00FFFFFFFF00FF00FFFFFFFFFFFFFFFFFFFFFFFFFFFFFFFFFFFFFFFF
310
FFFF00FF00FFFFFFFFFF0000FFFFFFFFFFFFFFFFFFFFFFFFFFFFFFFFFFFFFFFFFFFF0000FFFFFFFFFFFF0000FFFFFFFFFFFFFFFFFFFFFFFFFFFFFFFFFFFFFFFFFF00FF00FFFFFFFFFFFF00FF00FFFFFFFFFFFFFFFFFFFFFFFFFFFFFFFFFFFFFFFF00FF00FFFFFFFFFFFF00FF00FFFFFFFFFFFFFFFFFFFFFFFFFFFFFFFFFFFF
310
FFFF000000FFFFFFFFFFFF000000FFFFFFFFFFFFFFFFFFFFFFFFFFFFFFFFFFFFFFFFFFFFFFFFFFFFFFFFFFFFFFFFFFFFFFFFFFFFFFFFFFFF
102
{BLKREFS
331
26B5
102
}
  0
BLOCK_RECORD
  5
26A3
330
2445
100
AcDbSymbolTableRecord
100
AcDbBlockTableRecord
  2
AI9-BLK1
340
0
310
2800000020000000200000000100080000000000000400000000000000000000000000000000000000000000000080000080000000808000800000008000800080800000C0C0C000C0DCC000F0CAA6000020400000206000002080000020A0000020C0000020E00000400000004020000040400000406000004080000040A0
310
000040C0000040E00000600000006020000060400000606000006080000060A0000060C0000060E00000800000008020000080400000806000008080000080A0000080C0000080E00000A0000000A0200000A0400000A0600000A0800000A0A00000A0C00000A0E00000C0000000C0200000C0400000C0600000C0800000C0
310
A00000C0C00000C0E00000E0000000E0200000E0400000E0600000E0800000E0A00000E0C00000E0E00040000000400020004000400040006000400080004000A0004000C0004000E00040200000402020004020400040206000402080004020A0004020C0004020E000404000004040200040404000404060004040800040
310
40A0004040C0004040E00040600000406020004060400040606000406080004060A0004060C0004060E00040800000408020004080400040806000408080004080A0004080C0004080E00040A0000040A0200040A0400040A0600040A0800040A0A00040A0C00040A0E00040C0000040C0200040C0400040C0600040C08000
310
40C0A00040C0C00040C0E00040E0000040E0200040E0400040E0600040E0800040E0A00040E0C00040E0E00080000000800020008000400080006000800080008000A0008000C0008000E00080200000802020008020400080206000802080008020A0008020C0008020E00080400000804020008040400080406000804080
310
008040A0008040C0008040E00080600000806020008060400080606000806080008060A0008060C0008060E00080800000808020008080400080806000808080008080A0008080C0008080E00080A0000080A0200080A0400080A0600080A0800080A0A00080A0C00080A0E00080C0000080C0200080C0400080C0600080C0
310
800080C0A00080C0C00080C0E00080E0000080E0200080E0400080E0600080E0800080E0A00080E0C00080E0E000C0000000C0002000C0004000C0006000C0008000C000A000C000C000C000E000C0200000C0202000C0204000C0206000C0208000C020A000C020C000C020E000C0400000C0402000C0404000C0406000C0
310
408000C040A000C040C000C040E000C0600000C0602000C0604000C0606000C0608000C060A000C060C000C060E000C0800000C0802000C0804000C0806000C0808000C080A000C080C000C080E000C0A00000C0A02000C0A04000C0A06000C0A08000C0A0A000C0A0C000C0A0E000C0C00000C0C02000C0C04000C0C06000
310
C0C08000C0C0A000F0FBFF00A4A0A000808080000000FF0000FF000000FFFF00FF000000FF00FF00FFFF0000FFFFFF00FFFFFFFFFFFFFFFFFFFFFFFFFFFFFFFFFFFFFFFFFFFFFFFFFFFFFFFFFFFFFFFFFFFFFFFFFFFFFFFFFFFFFF00000000000000000000FFFFFFFFFFFFFFFFFFFFFFFFFFFFFFFFFFFFFFFFFFFF00FFFFFF
310
FFFFFFFFFF00FFFFFFFFFFFFFFFFFFFFFFFFFFFFFFFFFFFFFFFFFFFF00FFFFFFFFFFFFFFFF00FFFFFFFFFFFFFFFFFFFFFFFFFFFFFFFFFFFFFFFFFFFF00FFFFFFFFFFFFFFFF00FFFFFFFFFFFFFFFFFFFFFFFFFFFFFFFFFFFFFFFFFFFF00FF0000000000000000FFFFFFFFFFFFFFFFFFFFFFFFFFFFFFFFFFFFFFFFFFFF00FF00
310
FFFFFFFFFFFFFFFFFFFFFFFFFFFFFFFFFFFFFFFFFFFFFFFFFFFFFFFFFF00FF00FFFFFFFFFFFFFFFFFFFFFFFFFFFFFFFFFFFFFFFFFFFFFFFFFFFFFFFFFF00FF00FFFFFFFFFFFFFFFFFFFFFFFFFFFFFFFFFFFFFFFFFFFFFFFFFFFFFFFFFF00FF00FFFFFFFFFFFFFFFFFFFFFFFFFFFFFFFFFFFFFFFFFFFFFFFFFFFFFFFFFF00FF
310
00FFFFFFFFFFFFFFFFFFFFFFFFFFFFFFFFFFFFFFFFFFFFFFFFFFFFFFFFFF00FF00FFFFFFFFFFFFFFFFFFFFFFFFFFFFFFFFFFFFFFFFFFFFFFFFFFFFFFFFFF00FF00FFFFFFFFFFFFFFFFFFFFFFFFFFFFFFFFFFFFFFFFFFFFFFFFFFFFFFFFFF00FF00FFFFFFFFFFFFFFFFFFFFFFFFFFFFFFFFFFFFFFFFFFFFFFFFFFFFFFFFFF00
310
FF00000000000000FFFFFFFFFFFFFFFFFFFFFFFFFFFFFFFFFFFFFFFFFFFFFF00FFFFFFFFFFFFFF00FFFFFFFFFFFFFFFFFFFFFFFFFFFFFFFFFFFFFFFFFFFFFF00FFFFFFFFFFFFFF00FFFFFFFFFFFFFFFFFFFFFFFFFFFFFFFFFFFFFFFFFFFFFF00FFFFFFFFFFFFFF00FFFFFFFFFFFFFFFFFFFFFFFFFFFFFFFFFFFFFFFFFFFFFF
310
00FF00000000000000FFFFFFFFFFFFFFFFFFFFFFFFFFFFFFFFFFFFFFFFFFFFFF00FF00FFFFFFFFFFFFFFFFFFFFFFFFFFFFFFFFFFFFFFFFFFFFFFFFFFFFFFFFFF00FF00FFFFFFFFFFFFFFFFFFFFFFFFFFFFFFFFFFFFFFFFFFFFFFFFFFFFFFFFFF00FF00FFFFFFFFFFFFFFFFFFFFFFFFFFFFFFFFFFFFFFFFFFFFFFFFFFFFFFFF
310
FF00FF00FFFFFFFFFFFFFFFFFFFFFFFFFFFFFFFFFFFFFFFFFFFFFFFFFFFFFFFFFF00FF00FFFFFFFFFFFFFFFFFFFFFFFFFFFFFFFFFFFFFFFFFFFFFFFFFFFFFFFFFF00FF00FFFFFFFFFFFFFFFFFFFFFFFFFFFFFFFFFFFFFFFFFFFFFFFFFFFFFFFFFF00FF00FFFFFFFFFFFFFFFFFFFFFFFFFFFFFFFFFFFFFFFFFFFFFFFFFFFFFF
310
FFFF00FF0000000000000000FFFFFFFFFFFFFFFFFFFFFFFFFFFFFFFFFFFFFFFFFFFF00FFFFFFFFFFFFFFFF00FFFFFFFFFFFFFFFFFFFFFFFFFFFFFFFFFFFFFFFFFFFF00FFFFFFFFFFFFFFFF00FFFFFFFFFFFFFFFFFFFFFFFFFFFFFFFFFFFFFFFFFFFF00FFFFFFFFFFFFFFFF00FFFFFFFFFFFFFFFFFFFFFFFFFFFFFFFFFFFFFF
310
FFFFFF00000000000000000000FFFFFFFFFFFFFFFFFFFFFFFFFFFFFFFFFFFFFFFFFFFFFFFFFFFFFFFFFFFFFFFFFFFFFFFFFFFFFFFFFFFFFF
102
{BLKREFS
331
26B6
102
}
  0
BLOCK_RECORD
  5
26A8
330
2445
100
AcDbSymbolTableRecord
100
AcDbBlockTableRecord
  2
HD_LLC_logo_OT5
340
0
310
2800000020000000200000000100080000000000000400000000000000000000000000000000000000000000000080000080000000808000800000008000800080800000C0C0C000C0DCC000F0CAA6000020400000206000002080000020A0000020C0000020E00000400000004020000040400000406000004080000040A0
310
000040C0000040E00000600000006020000060400000606000006080000060A0000060C0000060E00000800000008020000080400000806000008080000080A0000080C0000080E00000A0000000A0200000A0400000A0600000A0800000A0A00000A0C00000A0E00000C0000000C0200000C0400000C0600000C0800000C0
310
A00000C0C00000C0E00000E0000000E0200000E0400000E0600000E0800000E0A00000E0C00000E0E00040000000400020004000400040006000400080004000A0004000C0004000E00040200000402020004020400040206000402080004020A0004020C0004020E000404000004040200040404000404060004040800040
310
40A0004040C0004040E00040600000406020004060400040606000406080004060A0004060C0004060E00040800000408020004080400040806000408080004080A0004080C0004080E00040A0000040A0200040A0400040A0600040A0800040A0A00040A0C00040A0E00040C0000040C0200040C0400040C0600040C08000
310
40C0A00040C0C00040C0E00040E0000040E0200040E0400040E0600040E0800040E0A00040E0C00040E0E00080000000800020008000400080006000800080008000A0008000C0008000E00080200000802020008020400080206000802080008020A0008020C0008020E00080400000804020008040400080406000804080
310
008040A0008040C0008040E00080600000806020008060400080606000806080008060A0008060C0008060E00080800000808020008080400080806000808080008080A0008080C0008080E00080A0000080A0200080A0400080A0600080A0800080A0A00080A0C00080A0E00080C0000080C0200080C0400080C0600080C0
310
800080C0A00080C0C00080C0E00080E0000080E0200080E0400080E0600080E0800080E0A00080E0C00080E0E000C0000000C0002000C0004000C0006000C0008000C000A000C000C000C000E000C0200000C0202000C0204000C0206000C0208000C020A000C020C000C020E000C0400000C0402000C0404000C0406000C0
310
408000C040A000C040C000C040E000C0600000C0602000C0604000C0606000C0608000C060A000C060C000C060E000C0800000C0802000C0804000C0806000C0808000C080A000C080C000C080E000C0A00000C0A02000C0A04000C0A06000C0A08000C0A0A000C0A0C000C0A0E000C0C00000C0C02000C0C04000C0C06000
310
C0C08000C0C0A000F0FBFF00A4A0A000808080000000FF0000FF000000FFFF00FF000000FF00FF00FFFF0000FFFFFF00FFFFFFFFFFFFFFFFFFFFFFFFFFFFFFFFFFFFFFFFFFFFFFFFFFFFFFFFFFFFFFFFFFFFFFFFFFFFFFFFFFFFFFFFFFFFFFFFFFFFFFFFFFFFFFFFFFFFFFFFFFFFFFFFFFFFFFFFFFFFFFFFFFFFFFFFFFFFFF
310
FFFFFFFFFFFFFFFFFFFFFFFFFFFFFFFFFFFFFFFFFFFFFFFFFFFFFFFFFFFFFFFFFFFFFFFFFFFFFFFFFFFFFFFFFFFFFFFFFFFFFFFFFFFFFFFFFFFFFFFFFFFFFFFFFFFFFFFFFFFFFFFFFFFFFFFFFFFFFFFFFFFFFFFFFFFFFFFFFFFFFFFFFFFFFFFFFFFFFFFFFFFFFFFFFFFFFFFFFFFFFFFFFFFFFFFFFFFFFFFFFFFFFFFFFFFFFF
310
FFFFFFFFFFFFFFFFFFFFFFFFFFFFFFFFFFFFFFFFFFFFFFFFFFFFFFFFFFFFFFFFFFFFFFFFFFFFFFFFFFFFFFFFFFFFFFFFFFFFFFFFFFFFFFFFFFFFFFFFFFFFFFFFFFFFFFFFFFFFFFFFFFFFFFFFFFFFFFFFFFFFFFFFFFFFFFFFFFFFFFFFFFFFFFFFFFFFFFFFFFFFFFFFFFFFFFFFFFFFFFFFFFFFFFFFFFFFFFFFFFFFFFFFFFFFFF
310
FFFFFFFFFFFFFFFFFFFFFFFFFFFFFFFFFFFFFFFFFFFFFFFFFFFFFFFFFFFFFFFFFFFFFFFFFFFFFFFFFFFFFFFFFFFFFFFFFFFFFFFF0000000000000000000000000000000000000000000000000000000000FFFFFF0000000000000000000000000000000000FFFFFFFFFFFFFFFFFFFF0000FFFFFF0000000000000000000000
310
00000000000000FFFFFFFFFFFFFFFFFFFF0000FFFF000000000000000000000000000000000000FFFFFF00000000FFFFFF0000FFFF00FFFFFFFFFFFF00FFFFFF00FFFFFFFFFF00FFFFFF0000000000FFFF0000FFFF00FFFFFFFFFFFF00FFFFFF00FFFFFFFFFF00FFFFFF00FFFF0000FFFF0000FFFF00FFFFFFFFFFFF00FFFF
310
00FFFFFFFFFFFF00FFFFFF00FFFF0000FFFF0000FFFF0000000000FFFF00000000FFFFFF00000000FFFFFF00000000FFFFFF0000FFFFFFFFFFFF00FFFFFFFFFFFFFFFFFF00FFFFFFFFFFFFFFFFFFFFFFFFFF0000FFFFFFFFFFFF00FFFFFFFFFFFFFFFFFF00FFFFFFFFFFFFFFFFFFFFFFFFFF0000FFFFFFFFFFFF00FFFFFFFF
310
FFFFFFFFFF00FFFFFFFFFFFFFFFFFFFFFFFF0000FFFFFF0000000000FFFF00000000FFFFFF0000000000000000000000000000FFFFFFFF00FFFFFFFFFFFF00FFFF00FFFFFFFFFFFF00FFFFFFFFFFFFFFFFFFFFFFFFFFFF00FFFFFFFFFFFF00FFFFFF00FFFFFFFFFF00FFFFFFFFFFFFFFFFFFFFFFFFFFFF0000000000000000
310
FFFFFF00000000000000FFFFFFFFFFFFFFFFFFFFFFFFFFFFFFFFFFFFFFFFFFFFFFFFFFFFFFFFFFFFFFFFFFFFFFFFFFFFFFFFFFFFFFFFFFFFFFFFFFFFFFFFFFFFFFFFFFFFFFFFFFFFFFFFFFFFFFFFFFFFFFFFFFFFFFFFFFFFFFFFFFFFFFFFFFFFFFFFFFFFFFFFFFFFFFFFFFFFFFFFFFFFFFFFFFFFFFFFFFFFFFFFFFFFFFFFFF
310
FFFFFFFFFFFFFFFFFFFFFFFFFFFFFFFFFFFFFFFFFFFFFFFFFFFFFFFFFFFFFFFFFFFFFFFFFFFFFFFFFFFFFFFFFFFFFFFFFFFFFFFFFFFFFFFF
102
{BLKREFS
331
26CE
102
}
  0
BLOCK_RECORD
  5
26CD
330
2445
100
AcDbSymbolTableRecord
100
AcDbBlockTableRecord
  2
HD logo-new
340
0
310
2800000020000000200000000100080000000000000400000000000000000000000000000000000000000000000080000080000000808000800000008000800080800000C0C0C000C0DCC000F0CAA6000020400000206000002080000020A0000020C0000020E00000400000004020000040400000406000004080000040A0
310
000040C0000040E00000600000006020000060400000606000006080000060A0000060C0000060E00000800000008020000080400000806000008080000080A0000080C0000080E00000A0000000A0200000A0400000A0600000A0800000A0A00000A0C00000A0E00000C0000000C0200000C0400000C0600000C0800000C0
310
A00000C0C00000C0E00000E0000000E0200000E0400000E0600000E0800000E0A00000E0C00000E0E00040000000400020004000400040006000400080004000A0004000C0004000E00040200000402020004020400040206000402080004020A0004020C0004020E000404000004040200040404000404060004040800040
310
40A0004040C0004040E00040600000406020004060400040606000406080004060A0004060C0004060E00040800000408020004080400040806000408080004080A0004080C0004080E00040A0000040A0200040A0400040A0600040A0800040A0A00040A0C00040A0E00040C0000040C0200040C0400040C0600040C08000
310
40C0A00040C0C00040C0E00040E0000040E0200040E0400040E0600040E0800040E0A00040E0C00040E0E00080000000800020008000400080006000800080008000A0008000C0008000E00080200000802020008020400080206000802080008020A0008020C0008020E00080400000804020008040400080406000804080
310
008040A0008040C0008040E00080600000806020008060400080606000806080008060A0008060C0008060E00080800000808020008080400080806000808080008080A0008080C0008080E00080A0000080A0200080A0400080A0600080A0800080A0A00080A0C00080A0E00080C0000080C0200080C0400080C0600080C0
310
800080C0A00080C0C00080C0E00080E0000080E0200080E0400080E0600080E0800080E0A00080E0C00080E0E000C0000000C0002000C0004000C0006000C0008000C000A000C000C000C000E000C0200000C0202000C0204000C0206000C0208000C020A000C020C000C020E000C0400000C0402000C0404000C0406000C0
310
408000C040A000C040C000C040E000C0600000C0602000C0604000C0606000C0608000C060A000C060C000C060E000C0800000C0802000C0804000C0806000C0808000C080A000C080C000C080E000C0A00000C0A02000C0A04000C0A06000C0A08000C0A0A000C0A0C000C0A0E000C0C00000C0C02000C0C04000C0C06000
310
C0C08000C0C0A000F0FBFF00A4A0A000808080000000FF0000FF000000FFFF00FF000000FF00FF00FFFF0000FFFFFF00FFFFFFFFFFFFFFFFFFFFFFFFFFFFFFFFFFFFFFFFFFFFFFFFFFFFFFFFFFFFFFFFFFFFFFFFFFFFFFFFFFFFFFFFFFFFFFFFFFFFFFFFFFFFFFFFFFFFFFFFFFFFFFFFFFFFFFFFFFFFFFFFFFFFFFFFFFFFFF
310
FFFFFFFFFFFFFFFFFFFFFFFFFFFFFFFFFFFFFFFFFFFFFFFFFFFFFFFFFFFFFFFFFFFFFFFFFFFFFFFFFFFFFFFFFFFFFFFFFFFFFFFFFFFFFFFFFFFFFFFFFFFFFFFFFFFFFFFFFFFFFFFFFFFFFFFFFFFFFFFFFFFFFFFFFFFFFFFFFFFFFFFFFFFFFFFFFFFFFFFFFFFFFFFFFFFFFFFFFFFFFFFFFFFFFFFFFFFFFFFFFFFFFFFFFFFFFF
310
FFFFFFFFFFFFFFFFFFFFFFFFFFFFFFFFFFFFFFFFFFFFFFFFFFFFFFFFFFFFFFFFFFFFFFFFFFFFFFFFFFFFFFFFFFFFFFFFFFFFFFFFFFFFFFFFFFFFFFFFFFFFFFFFFFFFFFFFFFFFFFFFFFFFFFFFFFFFFFFFFFFFFFFFFFFFFFFFFFFFFFFFFFFFFFFFFFFFFFFFFFFFFFFFFFFFFFFFFFFFFFFFFFFFFFFFFFFFFFFFFFFFFFFFFFFFFF
310
FFFFFFFFFFFFFFFFFFFFFFFFFFFFFFFFFFFFFFFFFFFFFFFFFFFFFFFFFFFFFFFFFFFFFFFFFFFFFFFFFFFFFFFFFFFFFFFFFFFFFFFF0000000000000000000000000000000000000000000000000000000000FFFFFF0000000000000000000000000000000000FFFFFFFFFFFFFFFFFFFF0000FFFFFF0000000000000000000000
310
00000000000000FFFFFFFFFFFFFFFFFFFF0000FFFF000000000000000000000000000000000000FFFFFF00000000FFFFFF0000FFFF00FFFFFFFFFFFF00FFFFFF00FFFFFFFFFF00FFFFFF0000000000FFFF0000FFFF00FFFFFFFFFFFF00FFFFFF00FFFFFFFFFF00FFFFFF00FFFF0000FFFF0000FFFF00FFFFFFFFFFFF00FFFF
310
00FFFFFFFFFFFF00FFFFFF00FFFF0000FFFF0000FFFF0000000000FFFF00000000FFFFFF00000000FFFFFF00000000FFFFFF0000FFFFFFFFFFFF00FFFFFFFFFFFFFFFFFF00FFFFFFFFFFFFFFFFFFFFFFFFFF0000FFFFFFFFFFFF00FFFFFFFFFFFFFFFFFF00FFFFFFFFFFFFFFFFFFFFFFFFFF0000FFFFFFFFFFFF00FFFFFFFF
310
FFFFFFFFFF00FFFFFFFFFFFFFFFFFFFFFFFF0000FFFFFF0000000000FFFF00000000FFFFFF0000000000000000000000000000FFFFFFFF00FFFFFFFFFFFF00FFFF00FFFFFFFFFFFF00FFFFFFFFFFFFFFFFFFFFFFFFFFFF00FFFFFFFFFFFF00FFFFFF00FFFFFFFFFF00FFFFFFFFFFFFFFFFFFFFFFFFFFFF0000000000000000
310
FFFFFF00000000000000FFFFFFFFFFFFFFFFFFFFFFFFFFFFFFFFFFFFFFFFFFFFFFFFFFFFFFFFFFFFFFFFFFFFFFFFFFFFFFFFFFFFFFFFFFFFFFFFFFFFFFFFFFFFFFFFFFFFFFFFFFFFFFFFFFFFFFFFFFFFFFFFFFFFFFFFFFFFFFFFFFFFFFFFFFFFFFFFFFFFFFFFFFFFFFFFFFFFFFFFFFFFFFFFFFFFFFFFFFFFFFFFFFFFFFFFFF
310
FFFFFFFFFFFFFFFFFFFFFFFFFFFFFFFFFFFFFFFFFFFFFFFFFFFFFFFFFFFFFFFFFFFFFFFFFFFFFFFFFFFFFFFFFFFFFFFFFFFFFFFFFFFFFFFF
102
{BLKREFS
331
26D2
102
}
  0
BLOCK_RECORD
  5
26D1
330
2445
100
AcDbSymbolTableRecord
100
AcDbBlockTableRecord
  2
HD Logo
340
0
310
2800000020000000200000000100080000000000000400000000000000000000000000000000000000000000000080000080000000808000800000008000800080800000C0C0C000C0DCC000F0CAA6000020400000206000002080000020A0000020C0000020E00000400000004020000040400000406000004080000040A0
310
000040C0000040E00000600000006020000060400000606000006080000060A0000060C0000060E00000800000008020000080400000806000008080000080A0000080C0000080E00000A0000000A0200000A0400000A0600000A0800000A0A00000A0C00000A0E00000C0000000C0200000C0400000C0600000C0800000C0
310
A00000C0C00000C0E00000E0000000E0200000E0400000E0600000E0800000E0A00000E0C00000E0E00040000000400020004000400040006000400080004000A0004000C0004000E00040200000402020004020400040206000402080004020A0004020C0004020E000404000004040200040404000404060004040800040
310
40A0004040C0004040E00040600000406020004060400040606000406080004060A0004060C0004060E00040800000408020004080400040806000408080004080A0004080C0004080E00040A0000040A0200040A0400040A0600040A0800040A0A00040A0C00040A0E00040C0000040C0200040C0400040C0600040C08000
310
40C0A00040C0C00040C0E00040E0000040E0200040E0400040E0600040E0800040E0A00040E0C00040E0E00080000000800020008000400080006000800080008000A0008000C0008000E00080200000802020008020400080206000802080008020A0008020C0008020E00080400000804020008040400080406000804080
310
008040A0008040C0008040E00080600000806020008060400080606000806080008060A0008060C0008060E00080800000808020008080400080806000808080008080A0008080C0008080E00080A0000080A0200080A0400080A0600080A0800080A0A00080A0C00080A0E00080C0000080C0200080C0400080C0600080C0
310
800080C0A00080C0C00080C0E00080E0000080E0200080E0400080E0600080E0800080E0A00080E0C00080E0E000C0000000C0002000C0004000C0006000C0008000C000A000C000C000C000E000C0200000C0202000C0204000C0206000C0208000C020A000C020C000C020E000C0400000C0402000C0404000C0406000C0
310
408000C040A000C040C000C040E000C0600000C0602000C0604000C0606000C0608000C060A000C060C000C060E000C0800000C0802000C0804000C0806000C0808000C080A000C080C000C080E000C0A00000C0A02000C0A04000C0A06000C0A08000C0A0A000C0A0C000C0A0E000C0C00000C0C02000C0C04000C0C06000
310
C0C08000C0C0A000F0FBFF00A4A0A000808080000000FF0000FF000000FFFF00FF000000FF00FF00FFFF0000FFFFFF00FFFFFFFFFFFFFFFFFFFFFFFFFFFFFFFFFFFFFFFFFFFFFFFFFFFFFFFFFFFFFFFFFFFFFFFFFFFFFFFFFFFFFFFFFFFFFFFFFFFFFFFFFFFFFFFFFFFFFFFFFFFFFFFFFFFFFFFFFFFFFFFFFFFFFFFFFFFFFF
310
FFFFFFFFFFFFFFFFFFFFFFFFFFFFFFFFFFFFFFFFFFFFFFFFFFFFFFFFFFFFFFFFFFFFFFFFFFFFFFFFFFFFFFFFFFFFFFFFFFFFFFFFFFFFFFFFFFFFFFFFFFFFFFFFFFFFFFFFFFFFFFFFFFFFFFFFFFFFFFFFFFFFFFFFFFFFFFFFFFFFFFFFFFFFFFFFFFFFFFFFFFFFFFFFFFFFFFFFFFFFFFFFFFFFFFFFFFFFFFFFFFFFFFFFFFFFFF
310
FFFFFFFFFFFFFFFFFFFFFFFFFFFFFFFFFFFFFFFFFFFFFFFFFFFFFFFFFFFFFFFFFFFFFFFFFFFFFFFFFFFFFFFFFFFFFFFFFFFFFFFFFFFFFFFFFFFFFFFFFFFFFFFFFFFFFFFFFFFFFFFFFFFFFFFFFFFFFFFFFFFFFFFFFFFFFFFFFFFFFFFFFFFFFFFFFFFFFFFFFFFFFFFFFFFFFFFFFFFFFFFFFFFFFFFFFFFFFFFFFFFFFFFFFFFFFF
310
FFFFFFFFFFFFFFFFFFFFFFFFFFFFFFFFFFFFFFFFFFFFFFFFFFFFFFFFFFFFFFFFFFFFFFFFFFFFFFFFFFFFFFFFFFFFFFFFFFFFFFFF0000000000000000000000000000000000000000000000000000000000FFFFFF0000000000000000000000000000000000FFFFFFFFFFFFFFFFFFFF0000FFFFFF0000000000000000000000
310
00000000000000FFFFFFFFFFFFFFFFFFFF0000FFFF000000000000000000000000000000000000FFFFFF00000000FFFFFF0000FFFF00FFFFFFFFFFFF00FFFFFF00FFFFFFFFFF00FFFFFF0000000000FFFF0000FFFF00FFFFFFFFFFFF00FFFFFF00FFFFFFFFFF00FFFFFF00FFFF0000FFFF0000FFFF00FFFFFFFFFFFF00FFFF
310
00FFFFFFFFFFFF00FFFFFF00FFFF0000FFFF0000FFFF0000000000FFFF00000000FFFFFF00000000FFFFFF00000000FFFFFF0000FFFFFFFFFFFF00FFFFFFFFFFFFFFFFFF00FFFFFFFFFFFFFFFFFFFFFFFFFF0000FFFFFFFFFFFF00FFFFFFFFFFFFFFFFFF00FFFFFFFFFFFFFFFFFFFFFFFFFF0000FFFFFFFFFFFF00FFFFFFFF
310
FFFFFFFFFF00FFFFFFFFFFFFFFFFFFFFFFFF0000FFFFFF0000000000FFFF00000000FFFFFF0000000000000000000000000000FFFFFFFF00FFFFFFFFFFFF00FFFF00FFFFFFFFFFFF00FFFFFFFFFFFFFFFFFFFFFFFFFFFF00FFFFFFFFFFFF00FFFFFF00FFFFFFFFFF00FFFFFFFFFFFFFFFFFFFFFFFFFFFF0000000000000000
310
FFFFFF00000000000000FFFFFFFFFFFFFFFFFFFFFFFFFFFFFFFFFFFFFFFFFFFFFFFFFFFFFFFFFFFFFFFFFFFFFFFFFFFFFFFFFFFFFFFFFFFFFFFFFFFFFFFFFFFFFFFFFFFFFFFFFFFFFFFFFFFFFFFFFFFFFFFFFFFFFFFFFFFFFFFFFFFFFFFFFFFFFFFFFFFFFFFFFFFFFFFFFFFFFFFFFFFFFFFFFFFFFFFFFFFFFFFFFFFFFFFFFF
310
FFFFFFFFFFFFFFFFFFFFFFFFFFFFFFFFFFFFFFFFFFFFFFFFFFFFFFFFFFFFFFFFFFFFFFFFFFFFFFFFFFFFFFFFFFFFFFFFFFFFFFFFFFFFFFFF
102
{BLKREFS
331
26D8
331
26DC
102
}
  0
BLOCK_RECORD
  5
26E9
330
2445
100
AcDbSymbolTableRecord
100
AcDbBlockTableRecord
  2
Harmonic Drive LLC
340
0
310
2800000020000000200000000100080000000000000400000000000000000000000000000000000000000000000080000080000000808000800000008000800080800000C0C0C000C0DCC000F0CAA6000020400000206000002080000020A0000020C0000020E00000400000004020000040400000406000004080000040A0
310
000040C0000040E00000600000006020000060400000606000006080000060A0000060C0000060E00000800000008020000080400000806000008080000080A0000080C0000080E00000A0000000A0200000A0400000A0600000A0800000A0A00000A0C00000A0E00000C0000000C0200000C0400000C0600000C0800000C0
310
A00000C0C00000C0E00000E0000000E0200000E0400000E0600000E0800000E0A00000E0C00000E0E00040000000400020004000400040006000400080004000A0004000C0004000E00040200000402020004020400040206000402080004020A0004020C0004020E000404000004040200040404000404060004040800040
310
40A0004040C0004040E00040600000406020004060400040606000406080004060A0004060C0004060E00040800000408020004080400040806000408080004080A0004080C0004080E00040A0000040A0200040A0400040A0600040A0800040A0A00040A0C00040A0E00040C0000040C0200040C0400040C0600040C08000
310
40C0A00040C0C00040C0E00040E0000040E0200040E0400040E0600040E0800040E0A00040E0C00040E0E00080000000800020008000400080006000800080008000A0008000C0008000E00080200000802020008020400080206000802080008020A0008020C0008020E00080400000804020008040400080406000804080
310
008040A0008040C0008040E00080600000806020008060400080606000806080008060A0008060C0008060E00080800000808020008080400080806000808080008080A0008080C0008080E00080A0000080A0200080A0400080A0600080A0800080A0A00080A0C00080A0E00080C0000080C0200080C0400080C0600080C0
310
800080C0A00080C0C00080C0E00080E0000080E0200080E0400080E0600080E0800080E0A00080E0C00080E0E000C0000000C0002000C0004000C0006000C0008000C000A000C000C000C000E000C0200000C0202000C0204000C0206000C0208000C020A000C020C000C020E000C0400000C0402000C0404000C0406000C0
310
408000C040A000C040C000C040E000C0600000C0602000C0604000C0606000C0608000C060A000C060C000C060E000C0800000C0802000C0804000C0806000C0808000C080A000C080C000C080E000C0A00000C0A02000C0A04000C0A06000C0A08000C0A0A000C0A0C000C0A0E000C0C00000C0C02000C0C04000C0C06000
310
C0C08000C0C0A000F0FBFF00A4A0A000808080000000FF0000FF000000FFFF00FF000000FF00FF00FFFF0000FFFFFF00FFFFFFFFFFFFFFFFFFFFFFFFFFFFFFFFFFFFFFFFFFFFFFFFFFFFFFFFFFFFFFFFFFFFFFFFFFFFFFFFFFFFFFFFFFFFFFFFFFFFFFFFFFFFFFFFFFFFFFFFFFFFFFFFFFFFFFFFFFFFFFFFFFFFFFFFFFFFFF
310
FFFFFFFFFFFFFFFFFFFFFFFFFFFFFFFFFFFFFFFFFFFFFFFFFFFFFFFFFFFFFFFFFFFFFFFFFFFFFFFFFFFFFFFFFFFFFFFFFFFFFFFFFFFFFFFFFFFFFFFFFFFFFFFFFFFFFFFFFFFFFFFFFFFFFFFFFFFFFFFFFFFFFFFFFFFFFFFFFFFFFFFFFFFFFFFFFFFFFFFFFFFFFFFFFFFFFFFFFFFFFFFFFFFFFFFFFFFFFFFFFFFFFFFFFFFFFF
310
FFFFFFFFFFFFFFFFFFFFFFFFFFFFFFFFFFFFFFFFFFFFFFFFFFFFFFFFFFFFFFFFFFFFFFFFFFFFFFFFFFFFFFFFFFFFFFFFFFFFFFFFFFFFFFFFFFFFFFFFFFFFFFFFFFFFFFFFFFFFFFFFFFFFFFFFFFFFFFFFFFFFFFFFFFFFFFFFFFFFFFFFFFFFFFFFFFFFFFFFFFFFFFFFFFFFFFFFFFFFFFFFFFFFFFFFFFFFFFFFFFFFFFFFFFFFFF
310
FFFFFFFFFFFFFFFFFFFFFFFFFFFFFFFFFFFFFFFFFFFFFFFFFFFFFFFFFFFFFFFFFFFFFFFFFFFFFFFFFFFFFFFFFFFFFFFFFFFFFFFFFFFFFFFFFFFFFFFFFFFFFFFFFFFFFFFFFFFFFFFFFFFFFFFFFFFFFFFFFFFFFFFFFFFFFFFFFFFFFFFF0000000000000000000000000000FFFFFFFFFFFFFFFFFFFFFFFFFFFFFFFFFFFF000000
310
0000000000000000000000FFFFFFFFFFFFFFFFFFFFFFFFFFFFFFFFFFFFFFFFFF000000000000000000FFFFFFFFFFFFFFFFFFFFFFFFFFFFFFFFFFFFFFFFFFFFFF000000000000000000FFFFFFFFFFFFFFFFFFFFFFFFFFFFFFFFFFFFFFFFFF000000000000000000000000FFFFFFFFFFFFFFFFFFFFFFFFFFFFFFFFFFFFFFFF00
310
FFFFFF00FF0000FF000000FFFFFFFFFFFFFFFFFFFFFFFFFFFFFFFFFFFFFFFFFFFFFFFFFFFFFFFFFFFFFFFFFFFFFFFFFFFFFFFFFFFFFFFFFFFFFFFFFFFFFFFFFFFFFFFFFFFFFFFFFFFFFFFFFFFFFFFFFFFFFFFFFFFFFFFFFFFFFFFFFFFFFFFFFFFFFFFFFFFFFFFFFFFFFFFFFFFFFFFFFFFFFFFFFFFFFFFFFFFFFFFFFFFFFFFF
310
FFFFFFFFFFFFFFFFFFFFFFFFFFFFFFFFFFFFFFFFFFFFFFFFFFFFFFFFFFFFFFFFFFFFFFFFFFFFFFFFFFFFFFFFFFFFFFFFFFFFFFFFFFFFFFFFFFFFFFFFFFFFFFFFFFFFFFFFFFFFFFFFFFFFFFFFFFFFFFFFFFFFFFFFFFFFFFFFFFFFFFFFFFFFFFFFFFFFFFFFFFFFFFFFFFFFFFFFFFFFFFFFFFFFFFFFFFFFFFFFFFFFFFFFFFFFFF
310
FFFFFFFFFFFFFFFFFFFFFFFFFFFFFFFFFFFFFFFFFFFFFFFFFFFFFFFFFFFFFFFFFFFFFFFFFFFFFFFFFFFFFFFFFFFFFFFFFFFFFFFFFFFFFFFFFFFFFFFFFFFFFFFFFFFFFFFFFFFFFFFFFFFFFFFFFFFFFFFFFFFFFFFFFFFFFFFFFFFFFFFFFFFFFFFFFFFFFFFFFFFFFFFFFFFFFFFFFFFFFFFFFFFFFFFFFFFFFFFFFFFFFFFFFFFFFF
310
FFFFFFFFFFFFFFFFFFFFFFFFFFFFFFFFFFFFFFFFFFFFFFFFFFFFFFFFFFFFFFFFFFFFFFFFFFFFFFFFFFFFFFFFFFFFFFFFFFFFFFFFFFFFFFFF
102
{BLKREFS
331
26EE
331
26F3
102
}
  0
BLOCK_RECORD
  5
26FC
330
2445
100
AcDbSymbolTableRecord
100
AcDbBlockTableRecord
  2
HD LLC
340
0
310
2800000020000000200000000100080000000000000400000000000000000000000000000000000000000000000080000080000000808000800000008000800080800000C0C0C000C0DCC000F0CAA6000020400000206000002080000020A0000020C0000020E00000400000004020000040400000406000004080000040A0
310
000040C0000040E00000600000006020000060400000606000006080000060A0000060C0000060E00000800000008020000080400000806000008080000080A0000080C0000080E00000A0000000A0200000A0400000A0600000A0800000A0A00000A0C00000A0E00000C0000000C0200000C0400000C0600000C0800000C0
310
A00000C0C00000C0E00000E0000000E0200000E0400000E0600000E0800000E0A00000E0C00000E0E00040000000400020004000400040006000400080004000A0004000C0004000E00040200000402020004020400040206000402080004020A0004020C0004020E000404000004040200040404000404060004040800040
310
40A0004040C0004040E00040600000406020004060400040606000406080004060A0004060C0004060E00040800000408020004080400040806000408080004080A0004080C0004080E00040A0000040A0200040A0400040A0600040A0800040A0A00040A0C00040A0E00040C0000040C0200040C0400040C0600040C08000
310
40C0A00040C0C00040C0E00040E0000040E0200040E0400040E0600040E0800040E0A00040E0C00040E0E00080000000800020008000400080006000800080008000A0008000C0008000E00080200000802020008020400080206000802080008020A0008020C0008020E00080400000804020008040400080406000804080
310
008040A0008040C0008040E00080600000806020008060400080606000806080008060A0008060C0008060E00080800000808020008080400080806000808080008080A0008080C0008080E00080A0000080A0200080A0400080A0600080A0800080A0A00080A0C00080A0E00080C0000080C0200080C0400080C0600080C0
310
800080C0A00080C0C00080C0E00080E0000080E0200080E0400080E0600080E0800080E0A00080E0C00080E0E000C0000000C0002000C0004000C0006000C0008000C000A000C000C000C000E000C0200000C0202000C0204000C0206000C0208000C020A000C020C000C020E000C0400000C0402000C0404000C0406000C0
310
408000C040A000C040C000C040E000C0600000C0602000C0604000C0606000C0608000C060A000C060C000C060E000C0800000C0802000C0804000C0806000C0808000C080A000C080C000C080E000C0A00000C0A02000C0A04000C0A06000C0A08000C0A0A000C0A0C000C0A0E000C0C00000C0C02000C0C04000C0C06000
310
C0C08000C0C0A000F0FBFF00A4A0A000808080000000FF0000FF000000FFFF00FF000000FF00FF00FFFF0000FFFFFF00FFFFFFFFFFFFFFFFFFFFFFFFFFFFFFFFFFFFFFFFFFFFFFFFFFFFFFFFFFFFFFFFFFFFFFFFFFFFFFFFFFFFFFFFFFFFFFFFFFFFFFFFFFFFFFFFFFFFFFFFFFFFFFFFFFFFFFFFFFFFFFFFFFFFFFFFFFFFFF
310
FFFFFFFFFFFFFFFFFFFFFFFFFFFFFFFFFFFFFFFFFFFFFFFFFFFFFFFFFFFFFFFFFFFFFFFFFFFFFFFFFFFFFFFFFFFFFFFFFFFFFFFFFFFFFFFFFFFFFFFFFFFFFFFFFFFFFFFFFFFFFFFFFFFFFFFFFFFFFFFFFFFFFFFFFFFFFFFFFFFFFFFFFFFFFFFFFFFFFFFFFFFFFFFFFFFFFFFFFFFFFFFFFFFFFFFFFFFFFFFFFFFFFFFFFFFFFF
310
FFFFFFFFFFFFFFFFFFFFFFFFFFFFFFFFFFFFFFFFFFFFFFFFFFFFFFFFFFFFFFFFFFFFFFFFFFFFFFFFFFFFFFFFFFFFFFFFFFFFFFFFFFFFFFFFFFFFFFFFFFFFFFFFFFFFFFFFFFFFFFFFFFFFFFFFFFFFFFFFFFFFFFFFFFFFFFFFFFFFFFFFFFFFFFFFFFFFFFFFFFFFFFFFFFFFFFFFFFFFFFFFFFFFFFFFFFFFFFFFFFFFFFFFFFFFFF
310
FFFFFFFFFFFFFFFFFFFFFFFFFFFFFFFFFFFFFFFFFFFFFFFFFFFFFFFFFFFFFFFFFFFFFFFFFFFFFFFFFFFFFFFFFFFFFFFFFFFFFFFFFFFFFFFFFFFFFFFFFFFFFFFFFFFFFFFFFFFFFFFFFFFFFFFFFFFFFFFFFFFFFFFFFFFFFFFFFFFFFFFFFFFFFFFFFFFFFFFFFFFFFFFFFFFFFFFFFFFFFFFFFFFFFFFFFFFFFFFFFFFFFFFFFFFF00
310
000000000000000000FFFFFFFFFFFFFFFFFFFFFFFFFFFFFFFFFFFFFFFFFFFF00000000000000000000FFFFFFFFFFFFFFFFFFFFFFFFFFFFFFFFFFFFFFFFFFFF00000000000000000000FFFFFFFFFFFFFFFFFFFFFFFFFFFFFFFFFFFFFFFFFFFF00000000000000000000FFFFFFFFFFFFFFFFFFFFFFFFFFFFFFFFFFFFFFFFFFFF
310
FFFFFFFFFFFFFFFFFFFFFFFFFFFFFFFFFFFFFFFFFFFFFFFFFFFFFFFFFFFFFFFFFFFFFFFFFFFFFFFFFFFFFFFFFFFFFFFFFFFFFFFFFFFFFFFFFFFFFFFFFFFFFFFFFFFFFFFFFFFFFFFFFFFFFFFFFFFFFFFFFFFFFFFFFFFFFFFFFFFFFFFFFFFFFFFFFFFFFFFFFFFFFFFFFFFFFFFFFFFFFFFFFFFFFFFFFFFFFFFFFFFFFFFFFFFFFF
310
FFFFFFFFFFFFFFFFFFFFFFFFFFFFFFFFFFFFFFFFFFFFFFFFFFFFFFFFFFFFFFFFFFFFFFFFFFFFFFFFFFFFFFFFFFFFFFFFFFFFFFFFFFFFFFFFFFFFFFFFFFFFFFFFFFFFFFFFFFFFFFFFFFFFFFFFFFFFFFFFFFFFFFFFFFFFFFFFFFFFFFFFFFFFFFFFFFFFFFFFFFFFFFFFFFFFFFFFFFFFFFFFFFFFFFFFFFFFFFFFFFFFFFFFFFFFFF
310
FFFFFFFFFFFFFFFFFFFFFFFFFFFFFFFFFFFFFFFFFFFFFFFFFFFFFFFFFFFFFFFFFFFFFFFFFFFFFFFFFFFFFFFFFFFFFFFFFFFFFFFFFFFFFFFFFFFFFFFFFFFFFFFFFFFFFFFFFFFFFFFFFFFFFFFFFFFFFFFFFFFFFFFFFFFFFFFFFFFFFFFFFFFFFFFFFFFFFFFFFFFFFFFFFFFFFFFFFFFFFFFFFFFFFFFFFFFFFFFFFFFFFFFFFFFFFF
310
FFFFFFFFFFFFFFFFFFFFFFFFFFFFFFFFFFFFFFFFFFFFFFFFFFFFFFFFFFFFFFFFFFFFFFFFFFFFFFFFFFFFFFFFFFFFFFFFFFFFFFFFFFFFFFFF
102
{BLKREFS
331
2701
331
2705
102
}
  0
BLOCK_RECORD
  5
2706
330
2445
100
AcDbSymbolTableRecord
100
AcDbBlockTableRecord
  2
NTC
340
0
310
2800000020000000200000000100080000000000000400000000000000000000000000000000000000000000000080000080000000808000800000008000800080800000C0C0C000C0DCC000F0CAA6000020400000206000002080000020A0000020C0000020E00000400000004020000040400000406000004080000040A0
310
000040C0000040E00000600000006020000060400000606000006080000060A0000060C0000060E00000800000008020000080400000806000008080000080A0000080C0000080E00000A0000000A0200000A0400000A0600000A0800000A0A00000A0C00000A0E00000C0000000C0200000C0400000C0600000C0800000C0
310
A00000C0C00000C0E00000E0000000E0200000E0400000E0600000E0800000E0A00000E0C00000E0E00040000000400020004000400040006000400080004000A0004000C0004000E00040200000402020004020400040206000402080004020A0004020C0004020E000404000004040200040404000404060004040800040
310
40A0004040C0004040E00040600000406020004060400040606000406080004060A0004060C0004060E00040800000408020004080400040806000408080004080A0004080C0004080E00040A0000040A0200040A0400040A0600040A0800040A0A00040A0C00040A0E00040C0000040C0200040C0400040C0600040C08000
310
40C0A00040C0C00040C0E00040E0000040E0200040E0400040E0600040E0800040E0A00040E0C00040E0E00080000000800020008000400080006000800080008000A0008000C0008000E00080200000802020008020400080206000802080008020A0008020C0008020E00080400000804020008040400080406000804080
310
008040A0008040C0008040E00080600000806020008060400080606000806080008060A0008060C0008060E00080800000808020008080400080806000808080008080A0008080C0008080E00080A0000080A0200080A0400080A0600080A0800080A0A00080A0C00080A0E00080C0000080C0200080C0400080C0600080C0
310
800080C0A00080C0C00080C0E00080E0000080E0200080E0400080E0600080E0800080E0A00080E0C00080E0E000C0000000C0002000C0004000C0006000C0008000C000A000C000C000C000E000C0200000C0202000C0204000C0206000C0208000C020A000C020C000C020E000C0400000C0402000C0404000C0406000C0
310
408000C040A000C040C000C040E000C0600000C0602000C0604000C0606000C0608000C060A000C060C000C060E000C0800000C0802000C0804000C0806000C0808000C080A000C080C000C080E000C0A00000C0A02000C0A04000C0A06000C0A08000C0A0A000C0A0C000C0A0E000C0C00000C0C02000C0C04000C0C06000
310
C0C08000C0C0A000F0FBFF00A4A0A000808080000000FF0000FF000000FFFF00FF000000FF00FF00FFFF0000FFFFFF00FFFFFFFFFFFFFFFFFFFFFFFFFFFFFFFFFFFFFFFFFFFFFFFFFFFFFFFFFFFFFFFFFFFFFFFFFFFFFFFFFFFFFFFFFFFFFFFFFFFFFFFFFFFFFFFFFFFFFFFFFFFFFFFFFFFFFFFFFFFFFFFFFFFFFFFFFFFFFF
310
FFFFFFFFFFFFFFFFFFFFFFFFFFFFFFFFFFFFFFFFFFFFFFFFFFFFFFFFFFFFFFFFFFFFFFFFFFFFFFFFFFFFFFFFFFFFFFFFFFFFFFFFFFFFFFFFFFFFFFFFFFFFFFFFFFFFFFFFFFFFFFFFFFFFFFFFFFFFFFFFFFFFFFFFFFFFFFFFFFFFFFFFFFFFFFFFFFFFFFFFFFFFFFFFFFFFFFFFFFFFFFFFFFFFFFFFFFFFFFFFFFFFFFFFFFFFFF
310
FFFFFFFFFFFFFFFFFFFFFFFFFFFFFFFFFFFFFFFFFFFFFFFFFFFFFFFFFFFFFFFFFFFFFFFFFFFFFFFFFFFFFFFFFFFFFFFFFFFFFFFFFFFFFFFFFFFFFFFFFFFFFFFFFFFFFFFFFFFFFFFFFFFFFFFFFFFFFFFFFFFFFFFFFFFFFFFFFFFFFFFFFFFFFFFFFFFFFFFFFFFFFFFFFFFFFFFFFFFFFFFFFFFFFFFFFFFFFFFFFFFFFFFFFFFFFF
310
FFFFFFFFFFFFFFFFFFFFFFFFFFFFFFFFFFFFFFFF000000000000000000000000000000000000000000000000000000000000FFFF00FF0000000000000000FFFFFFFFFFFFFFFFFFFFFFFFFFFFFFFFFFFFFF00FFFF00FF0000000000000000FFFFFFFFFFFFFFFFFFFFFFFFFFFFFFFFFFFFFF00FFFF00FF000000000000000000
310
00000000000000000000000000FFFFFFFFFF00FFFF00FF0000000000000000000000000000000000000000000000000000FF00FFFF00FF0000000000000000000000000000000000000000000000000000FF00FFFF00FF0000000000000000000000000000000000000000000000000000FF00FFFF00FF0000000000000000
310
00000000000000000000000000000000FFFFFF00FFFF00FF0000000000FFFFFFFFFFFFFFFFFFFFFFFFFFFFFFFFFFFFFFFFFFFF00FFFF000000000000000000000000000000000000000000000000000000000000FFFFFFFFFFFFFFFFFFFFFFFFFFFFFFFFFFFFFFFFFFFFFFFFFFFFFFFFFFFFFFFFFFFFFFFFFFFFFFFFFFFFFF
310
FFFFFFFFFFFFFFFFFFFFFFFFFFFFFFFFFFFFFFFFFFFFFFFFFFFFFFFFFFFFFFFFFFFFFFFFFFFFFFFFFFFFFFFFFFFFFFFFFFFFFFFFFFFFFFFFFFFFFFFFFFFFFFFFFFFFFFFFFFFFFFFFFFFFFFFFFFFFFFFFFFFFFFFFFFFFFFFFFFFFFFFFFFFFFFFFFFFFFFFFFFFFFFFFFFFFFFFFFFFFFFFFFFFFFFFFFFFFFFFFFFFFFFFFFFFFFF
310
FFFFFFFFFFFFFFFFFFFFFFFFFFFFFFFFFFFFFFFFFFFFFFFFFFFFFFFFFFFFFFFFFFFFFFFFFFFFFFFFFFFFFFFFFFFFFFFFFFFFFFFFFFFFFFFFFFFFFFFFFFFFFFFFFFFFFFFFFFFFFFFFFFFFFFFFFFFFFFFFFFFFFFFFFFFFFFFFFFFFFFFFFFFFFFFFFFFFFFFFFFFFFFFFFFFFFFFFFFFFFFFFFFFFFFFFFFFFFFFFFFFFFFFFFFFFFF
310
FFFFFFFFFFFFFFFFFFFFFFFFFFFFFFFFFFFFFFFFFFFFFFFFFFFFFFFFFFFFFFFFFFFFFFFFFFFFFFFFFFFFFFFFFFFFFFFFFFFFFFFFFFFFFFFF
102
{BLKREFS
331
270C
331
2712
102
}
  0
ENDTAB
  0
ENDSEC
  0
SECTION
  2
BLOCKS
  0
BLOCK
  5
2463
330
2462
100
AcDbEntity
  8
0
100
AcDbBlockBegin
  2
*Model_Space
 70
     0
 10
0.0
 20
0.0
 30
0.0
  3
*Model_Space
  1

  0
ENDBLK
  5
2464
330
2462
100
AcDbEntity
  8
0
100
AcDbBlockEnd
  0
BLOCK
  5
245F
330
245E
100
AcDbEntity
 67
     1
  8
0
100
AcDbBlockBegin
  2
*Paper_Space
 70
     0
 10
0.0
 20
0.0
 30
0.0
  3
*Paper_Space
  1

  0
ENDBLK
  5
2460
330
245E
100
AcDbEntity
 67
     1
  8
0
100
AcDbBlockEnd
  0
BLOCK
  5
247D
330
247C
100
AcDbEntity
  8
0
100
AcDbBlockBegin
  2
$MODEL_SPACE
 70
     0
 10
0.0
 20
0.0
 30
0.0
  3
$MODEL_SPACE
  1

  0
ENDBLK
  5
247E
330
247C
100
AcDbEntity
  8
0
100
AcDbBlockEnd
  0
BLOCK
  5
2480
330
247F
100
AcDbEntity
  8
0
100
AcDbBlockBegin
  2
$PAPER_SPACE
 70
     0
 10
0.0
 20
0.0
 30
0.0
  3
$PAPER_SPACE
  1

  0
ENDBLK
  5
2481
330
247F
100
AcDbEntity
  8
0
100
AcDbBlockEnd
  0
BLOCK
  5
266C
330
2669
100
AcDbEntity
  8
0
 62
     7
100
AcDbBlockBegin
  2
AI9-BLK14
 70
     0
 10
0.0
 20
0.0
 30
0.0
  3
AI9-BLK14
  1

  0
SPLINE
  5
266A
330
2669
100
AcDbEntity
  8
LAYER_1
 62
     7
100
AcDbSpline
210
0.0
220
0.0
230
1.0
 70
    11
 71
     3
 72
    23
 73
    19
 74
     0
 42
0.0000000001
 43
0.0000000001
 40
0.0
 40
0.0
 40
0.0
 40
0.0
 40
1.0
 40
1.0
 40
1.0
 40
2.0
 40
2.0
 40
2.0
 40
3.0
 40
3.0
 40
3.0
 40
4.0
 40
4.0
 40
4.0
 40
5.0
 40
5.0
 40
5.0
 40
6.0
 40
6.0
 40
6.0
 40
6.0
 10
-10.90321044921874
 20
10.88107571072048
 30
0.0
 10
-10.90321044921874
 20
10.88107571072048
 30
0.0
 10
-10.90321044921874
 20
-10.88107571072048
 30
0.0
 10
-10.90321044921874
 20
-10.88107571072048
 30
0.0
 10
-10.90321044921874
 20
-10.88107571072048
 30
0.0
 10
1.752692328559025
 20
-10.88107571072048
 30
0.0
 10
1.752692328559025
 20
-10.88107571072048
 30
0.0
 10
3.280592176649305
 20
-10.88107571072048
 30
0.0
 10
10.90321044921874
 20
-10.32383151584201
 30
0.0
 10
10.90321044921874
 20
0.6792867024739583
 30
0.0
 10
10.90321044921874
 20
10.61700914171006
 30
0.0
 10
2.773129611545138
 20
10.87952541775172
 30
0.0
 10
2.691136338975693
 20
10.88090345594618
 30
0.0
 10
2.691136338975693
 20
10.88090345594618
 30
0.0
 10
-9.903099229600693
 20
10.88107571072048
 30
0.0
 10
-9.903099229600693
 20
10.88107571072048
 30
0.0
 10
-9.903099229600693
 20
10.88107571072048
 30
0.0
 10
-10.90321044921874
 20
10.88107571072048
 30
0.0
 10
-10.90321044921874
 20
10.88107571072048
 30
0.0
  0
SPLINE
  5
266B
330
2669
100
AcDbEntity
  8
LAYER_1
 62
     7
100
AcDbSpline
210
0.0
220
0.0
230
1.0
 70
    11
 71
     3
 72
    20
 73
    16
 74
     0
 42
0.0000000001
 43
0.0000000001
 40
0.0
 40
0.0
 40
0.0
 40
0.0
 40
1.0
 40
1.0
 40
1.0
 40
2.0
 40
2.0
 40
2.0
 40
3.0
 40
3.0
 40
3.0
 40
4.0
 40
4.0
 40
4.0
 40
5.0
 40
5.0
 40
5.0
 40
5.0
 10
2.672877332899305
 20
8.881197781032986
 30
0.0
 10
2.905421278211805
 20
8.874307590060762
 30
0.0
 10
8.902988009982637
 20
8.616442192925347
 30
0.0
 10
8.902988009982637
 20
0.6792867024739583
 30
0.0
 10
8.902988009982637
 20
-8.191661919487842
 30
0.0
 10
3.430109320746526
 20
-8.881197781032986
 30
0.0
 10
1.752692328559025
 20
-8.881197781032986
 30
0.0
 10
1.752692328559025
 20
-8.881197781032986
 30
0.0
 10
-7.231427680121528
 20
-8.881197781032986
 30
0.0
 10
-8.902988009982637
 20
-8.881197781032986
 30
0.0
 10
-8.902988009982637
 20
-7.174497477213541
 30
0.0
 10
-8.902988009982637
 20
7.174497477213541
 30
0.0
 10
-8.902988009982637
 20
8.881197781032986
 30
0.0
 10
-7.208690049913191
 20
8.881197781032986
 30
0.0
 10
2.672877332899305
 20
8.881197781032986
 30
0.0
 10
2.672877332899305
 20
8.881197781032986
 30
0.0
  0
ENDBLK
  5
266D
330
2669
100
AcDbEntity
  8
0
100
AcDbBlockEnd
  0
BLOCK
  5
2671
330
266E
100
AcDbEntity
  8
0
 62
     7
100
AcDbBlockBegin
  2
AI9-BLK13
 70
     0
 10
0.0
 20
0.0
 30
0.0
  3
AI9-BLK13
  1

  0
LWPOLYLINE
  5
266F
330
266E
100
AcDbEntity
  8
LAYER_1
 62
     7
100
AcDbPolyline
 90
       12
 70
     1
 43
0.0
 10
-3.792361111111107
 20
10.7376736111111
 10
-2.469444444444443
 20
10.7376736111111
 10
-2.469444444444443
 20
1.874131944444444
 10
2.469444444444443
 20
1.874131944444444
 10
2.469444444444443
 20
10.7376736111111
 10
3.792361111111107
 20
10.7376736111111
 10
3.792361111111107
 20
-10.7376736111111
 10
2.469444444444443
 20
-10.7376736111111
 10
2.469444444444443
 20
-0.6835069444444444
 10
-2.469444444444443
 20
-0.6835069444444444
 10
-2.469444444444443
 20
-10.7376736111111
 10
-3.792361111111107
 20
-10.7376736111111
  0
HATCH
  5
2670
330
266E
100
AcDbEntity
  8
LAYER_1
 62
     7
100
AcDbHatch
 10
0.0
 20
0.0
 30
0.0
210
0.0
220
0.0
230
1.0
  2
SOLID
 70
     1
 71
     0
 91
        1
 92
        3
 72
     0
 73
     1
 93
       12
 10
-3.792361111111107
 20
10.7376736111111
 10
-2.469444444444443
 20
10.7376736111111
 10
-2.469444444444443
 20
1.874131944444444
 10
2.469444444444443
 20
1.874131944444444
 10
2.469444444444443
 20
10.7376736111111
 10
3.792361111111107
 20
10.7376736111111
 10
3.792361111111107
 20
-10.7376736111111
 10
2.469444444444443
 20
-10.7376736111111
 10
2.469444444444443
 20
-0.6835069444444444
 10
-2.469444444444443
 20
-0.6835069444444444
 10
-2.469444444444443
 20
-10.7376736111111
 10
-3.792361111111107
 20
-10.7376736111111
 97
        0
 75
     2
 76
     1
 98
        1
 10
0.0
 20
0.0
  0
ENDBLK
  5
2672
330
266E
100
AcDbEntity
  8
0
100
AcDbBlockEnd
  0
BLOCK
  5
2676
330
2673
100
AcDbEntity
  8
0
 62
     7
100
AcDbBlockBegin
  2
AI9-BLK11
 70
     0
 10
0.0
 20
0.0
 30
0.0
  3
AI9-BLK11
  1

  0
SPLINE
  5
2674
330
2673
100
AcDbEntity
  8
LAYER_1
 62
     7
100
AcDbSpline
210
0.0
220
0.0
230
1.0
 70
    11
 71
     3
 72
    26
 73
    22
 74
     0
 42
0.0000000001
 43
0.0000000001
 40
0.0
 40
0.0
 40
0.0
 40
0.0
 40
1.0
 40
1.0
 40
1.0
 40
2.0
 40
2.0
 40
2.0
 40
3.0
 40
3.0
 40
3.0
 40
4.0
 40
4.0
 40
4.0
 40
5.0
 40
5.0
 40
5.0
 40
6.0
 40
6.0
 40
6.0
 40
7.0
 40
7.0
 40
7.0
 40
7.0
 10
-2.645833333333333
 20
0.9039930555555551
 30
0.0
 10
-2.645833333333333
 20
0.9039930555555551
 30
0.0
 10
-2.645833333333333
 20
8.180034722222217
 30
0.0
 10
-2.645833333333333
 20
8.180034722222217
 30
0.0
 10
-2.645833333333333
 20
8.180034722222217
 30
0.0
 10
0.465087890625
 20
8.180034722222217
 30
0.0
 10
0.465087890625
 20
8.180034722222217
 30
0.0
 10
0.9026150173611108
 20
8.180034722222217
 30
0.0
 10
1.24988064236111
 20
8.034651692708331
 30
0.0
 10
1.506884765625
 20
7.745263671874997
 30
0.0
 10
2.001600477430554
 20
7.194048394097221
 30
0.0
 10
2.248958333333332
 20
6.160519748263887
 30
0.0
 10
2.248958333333332
 20
4.643299696180553
 30
0.0
 10
2.248958333333332
 20
3.232188585069443
 30
0.0
 10
2.072569444444444
 20
2.256537543402775
 30
0.0
 10
1.720480685763888
 20
1.715657552083333
 30
0.0
 10
1.368391927083333
 20
1.174088541666665
 30
0.0
 10
0.8929687499999998
 20
0.9039930555555551
 30
0.0
 10
0.2942111545138888
 20
0.9039930555555551
 30
0.0
 10
0.2942111545138888
 20
0.9039930555555551
 30
0.0
 10
-2.645833333333333
 20
0.9039930555555551
 30
0.0
 10
-2.645833333333333
 20
0.9039930555555551
 30
0.0
  0
SPLINE
  5
2675
330
2673
100
AcDbEntity
  8
LAYER_1
 62
     7
100
AcDbSpline
210
0.0
220
0.0
230
1.0
 70
    11
 71
     3
 72
    68
 73
    64
 74
     0
 42
0.0000000001
 43
0.0000000001
 40
0.0
 40
0.0
 40
0.0
 40
0.0
 40
1.0
 40
1.0
 40
1.0
 40
2.0
 40
2.0
 40
2.0
 40
3.0
 40
3.0
 40
3.0
 40
4.0
 40
4.0
 40
4.0
 40
5.0
 40
5.0
 40
5.0
 40
6.0
 40
6.0
 40
6.0
 40
7.0
 40
7.0
 40
7.0
 40
8.0
 40
8.0
 40
8.0
 40
9.0
 40
9.0
 40
9.0
 40
10.0
 40
10.0
 40
10.0
 40
11.0
 40
11.0
 40
11.0
 40
12.0
 40
12.0
 40
12.0
 40
13.0
 40
13.0
 40
13.0
 40
14.0
 40
14.0
 40
14.0
 40
15.0
 40
15.0
 40
15.0
 40
16.0
 40
16.0
 40
16.0
 40
17.0
 40
17.0
 40
17.0
 40
18.0
 40
18.0
 40
18.0
 40
19.0
 40
19.0
 40
19.0
 40
20.0
 40
20.0
 40
20.0
 40
21.0
 40
21.0
 40
21.0
 40
21.0
 10
-3.968749999999998
 20
-10.7376736111111
 30
0.0
 10
-3.968749999999998
 20
-10.7376736111111
 30
0.0
 10
-2.645833333333333
 20
-10.7376736111111
 30
0.0
 10
-2.645833333333333
 20
-10.7376736111111
 30
0.0
 10
-2.645833333333333
 20
-10.7376736111111
 30
0.0
 10
-2.645833333333333
 20
-1.521354166666665
 30
0.0
 10
-2.645833333333333
 20
-1.521354166666665
 30
0.0
 10
-2.645833333333333
 20
-1.521354166666665
 30
0.0
 10
0.2390896267361111
 20
-1.521354166666665
 30
0.0
 10
0.2390896267361111
 20
-1.521354166666665
 30
0.0
 10
0.7599880642361111
 20
-1.521354166666665
 30
0.0
 10
1.143771701388887
 20
-1.65295681423611
 30
0.0
 10
1.390440538194444
 20
-1.916162109374999
 30
0.0
 10
1.816254340277774
 20
-2.39434136284722
 30
0.0
 10
2.04363064236111
 20
-3.335541449652775
 30
0.0
 10
2.072569444444444
 20
-4.739762369791666
 30
0.0
 10
2.072569444444444
 20
-4.739762369791666
 30
0.0
 10
2.160763888888888
 20
-8.324039713541665
 30
0.0
 10
2.160763888888888
 20
-8.324039713541665
 30
0.0
 10
2.18005642361111
 20
-9.163264973958332
 30
0.0
 10
2.202794053819443
 20
-9.728949652777775
 30
0.0
 10
2.227598741319444
 20
-10.02109374999998
 30
0.0
 10
2.252403428819443
 20
-10.31392686631944
 30
0.0
 10
2.28892144097222
 20
-10.55301649305555
 30
0.0
 10
2.33853081597222
 20
-10.7376736111111
 30
0.0
 10
2.33853081597222
 20
-10.7376736111111
 30
0.0
 10
3.968749999999998
 20
-10.7376736111111
 30
0.0
 10
3.968749999999998
 20
-10.7376736111111
 30
0.0
 10
3.968749999999998
 20
-10.7376736111111
 30
0.0
 10
3.968749999999998
 20
-10.25260416666666
 30
0.0
 10
3.968749999999998
 20
-10.25260416666666
 30
0.0
 10
3.766867404513888
 20
-10.05830078125
 30
0.0
 10
3.625618489583333
 20
-9.621462673611112
 30
0.0
 10
3.545692274305555
 20
-8.942089843749997
 30
0.0
 10
3.49470486111111
 20
-8.543836805555555
 30
0.0
 10
3.459564887152775
 20
-7.937499999999999
 30
0.0
 10
3.439583333333333
 20
-7.121701388888887
 30
0.0
 10
3.439583333333333
 20
-7.121701388888887
 30
0.0
 10
3.395486111111107
 20
-4.232644314236107
 30
0.0
 10
3.395486111111107
 20
-4.232644314236107
 30
0.0
 10
3.375504557291666
 20
-2.981385633680555
 30
0.0
 10
3.26870659722222
 20
-2.077392578125
 30
0.0
 10
3.075781249999999
 20
-1.522043185763888
 30
0.0
 10
2.882166883680555
 20
-0.9666937934027776
 30
0.0
 10
2.592089843749999
 20
-0.5188313802083333
 30
0.0
 10
2.204861111111107
 20
-0.1770779079861111
 30
0.0
 10
2.63618706597222
 20
0.3197048611111111
 30
0.0
 10
2.971739366319443
 20
0.9770290798611107
 30
0.0
 10
3.211518012152775
 20
1.79558376736111
 30
0.0
 10
3.451296657986107
 20
2.613449435763888
 30
0.0
 10
3.571874999999999
 20
3.66558159722222
 30
0.0
 10
3.571874999999999
 20
4.951291232638888
 30
0.0
 10
3.571874999999999
 20
7.415912543402777
 30
0.0
 10
3.124701605902775
 20
9.106076388888887
 30
0.0
 10
2.231043836805555
 20
10.02178276909722
 30
0.0
 10
1.759754774305553
 20
10.498583984375
 30
0.0
 10
1.163753255208332
 20
10.7376736111111
 30
0.0
 10
0.443039279513889
 20
10.7376736111111
 30
0.0
 10
0.443039279513889
 20
10.7376736111111
 30
0.0
 10
-3.968749999999998
 20
10.7376736111111
 30
0.0
 10
-3.968749999999998
 20
10.7376736111111
 30
0.0
 10
-3.968749999999998
 20
10.7376736111111
 30
0.0
 10
-3.968749999999998
 20
-10.7376736111111
 30
0.0
 10
-3.968749999999998
 20
-10.7376736111111
 30
0.0
  0
ENDBLK
  5
2677
330
2673
100
AcDbEntity
  8
0
100
AcDbBlockEnd
  0
BLOCK
  5
267A
330
2678
100
AcDbEntity
  8
0
 62
     7
100
AcDbBlockBegin
  2
AI9-BLK10
 70
     0
 10
0.0
 20
0.0
 30
0.0
  3
AI9-BLK10
  1

  0
SPLINE
  5
2679
330
2678
100
AcDbEntity
  8
LAYER_1
 62
     7
100
AcDbSpline
210
0.0
220
0.0
230
1.0
 70
    11
 71
     3
 72
    59
 73
    55
 74
     0
 42
0.0000000001
 43
0.0000000001
 40
0.0
 40
0.0
 40
0.0
 40
0.0
 40
1.0
 40
1.0
 40
1.0
 40
2.0
 40
2.0
 40
2.0
 40
3.0
 40
3.0
 40
3.0
 40
4.0
 40
4.0
 40
4.0
 40
5.0
 40
5.0
 40
5.0
 40
6.0
 40
6.0
 40
6.0
 40
7.0
 40
7.0
 40
7.0
 40
8.0
 40
8.0
 40
8.0
 40
9.0
 40
9.0
 40
9.0
 40
10.0
 40
10.0
 40
10.0
 40
11.0
 40
11.0
 40
11.0
 40
12.0
 40
12.0
 40
12.0
 40
13.0
 40
13.0
 40
13.0
 40
14.0
 40
14.0
 40
14.0
 40
15.0
 40
15.0
 40
15.0
 40
16.0
 40
16.0
 40
16.0
 40
17.0
 40
17.0
 40
17.0
 40
18.0
 40
18.0
 40
18.0
 40
18.0
 10
-4.652256944444443
 20
10.7376736111111
 30
0.0
 10
-4.652256944444443
 20
10.7376736111111
 30
0.0
 10
-2.798795572916666
 20
10.7376736111111
 30
0.0
 10
-2.798795572916666
 20
10.7376736111111
 30
0.0
 10
-2.798795572916666
 20
10.7376736111111
 30
0.0
 10
0.0
 20
-7.419357638888887
 30
0.0
 10
0.0
 20
-7.419357638888887
 30
0.0
 10
0.0
 20
-7.419357638888887
 30
0.0
 10
2.793283420138888
 20
10.7376736111111
 30
0.0
 10
2.793283420138888
 20
10.7376736111111
 30
0.0
 10
2.793283420138888
 20
10.7376736111111
 30
0.0
 10
4.652256944444443
 20
10.7376736111111
 30
0.0
 10
4.652256944444443
 20
10.7376736111111
 30
0.0
 10
4.652256944444443
 20
10.7376736111111
 30
0.0
 10
4.652256944444443
 20
-10.7376736111111
 30
0.0
 10
4.652256944444443
 20
-10.7376736111111
 30
0.0
 10
4.652256944444443
 20
-10.7376736111111
 30
0.0
 10
3.41753472222222
 20
-10.7376736111111
 30
0.0
 10
3.41753472222222
 20
-10.7376736111111
 30
0.0
 10
3.41753472222222
 20
-10.7376736111111
 30
0.0
 10
3.41753472222222
 20
1.936832682291665
 30
0.0
 10
3.41753472222222
 20
1.936832682291665
 30
0.0
 10
3.41753472222222
 20
2.375048828124999
 30
0.0
 10
3.424424913194443
 20
3.101274956597221
 30
0.0
 10
3.439583333333333
 20
4.11482204861111
 30
0.0
 10
3.454052734374998
 20
5.128369140624998
 30
0.0
 10
3.461631944444443
 20
6.214952256944441
 30
0.0
 10
3.461631944444443
 20
7.375260416666666
 30
0.0
 10
3.461631944444443
 20
7.375260416666666
 30
0.0
 10
0.6538791232638889
 20
-10.7376736111111
 30
0.0
 10
0.6538791232638889
 20
-10.7376736111111
 30
0.0
 10
0.6538791232638889
 20
-10.7376736111111
 30
0.0
 10
-0.6628363715277778
 20
-10.7376736111111
 30
0.0
 10
-0.6628363715277778
 20
-10.7376736111111
 30
0.0
 10
-0.6628363715277778
 20
-10.7376736111111
 30
0.0
 10
-3.461631944444443
 20
7.375260416666666
 30
0.0
 10
-3.461631944444443
 20
7.375260416666666
 30
0.0
 10
-3.461631944444443
 20
7.375260416666666
 30
0.0
 10
-3.461631944444443
 20
6.717247178819441
 30
0.0
 10
-3.461631944444443
 20
6.717247178819441
 30
0.0
 10
-3.461631944444443
 20
6.190836588541666
 30
0.0
 10
-3.45474175347222
 20
5.389507378472222
 30
0.0
 10
-3.439583333333333
 20
4.312570529513888
 30
0.0
 10
-3.425113932291666
 20
3.235633680555555
 30
0.0
 10
-3.41753472222222
 20
2.44395073784722
 30
0.0
 10
-3.41753472222222
 20
1.936832682291665
 30
0.0
 10
-3.41753472222222
 20
1.936832682291665
 30
0.0
 10
-3.41753472222222
 20
-10.7376736111111
 30
0.0
 10
-3.41753472222222
 20
-10.7376736111111
 30
0.0
 10
-3.41753472222222
 20
-10.7376736111111
 30
0.0
 10
-4.652256944444443
 20
-10.7376736111111
 30
0.0
 10
-4.652256944444443
 20
-10.7376736111111
 30
0.0
 10
-4.652256944444443
 20
-10.7376736111111
 30
0.0
 10
-4.652256944444443
 20
10.7376736111111
 30
0.0
 10
-4.652256944444443
 20
10.7376736111111
 30
0.0
  0
ENDBLK
  5
267B
330
2678
100
AcDbEntity
  8
0
100
AcDbBlockEnd
  0
BLOCK
  5
267F
330
267C
100
AcDbEntity
  8
0
 62
     7
100
AcDbBlockBegin
  2
AI9-BLK9
 70
     0
 10
0.0
 20
0.0
 30
0.0
  3
AI9-BLK9
  1

  0
SPLINE
  5
267D
330
267C
100
AcDbEntity
  8
LAYER_1
 62
     7
100
AcDbSpline
210
0.0
220
0.0
230
1.0
 70
    11
 71
     3
 72
    29
 73
    25
 74
     0
 42
0.0000000001
 43
0.0000000001
 40
0.0
 40
0.0
 40
0.0
 40
0.0
 40
1.0
 40
1.0
 40
1.0
 40
2.0
 40
2.0
 40
2.0
 40
3.0
 40
3.0
 40
3.0
 40
4.0
 40
4.0
 40
4.0
 40
5.0
 40
5.0
 40
5.0
 40
6.0
 40
6.0
 40
6.0
 40
7.0
 40
7.0
 40
7.0
 40
8.0
 40
8.0
 40
8.0
 40
8.0
 10
0.0668348524305556
 20
-8.753298611111111
 30
0.0
 10
-0.9067491319444444
 20
-8.753298611111111
 30
0.0
 10
-1.60954861111111
 20
-7.936810980902778
 30
0.0
 10
-2.041563585069444
 20
-6.30383572048611
 30
0.0
 10
-2.474267578124999
 20
-4.670860460069443
 30
0.0
 10
-2.689930555555555
 20
-2.664436848958333
 30
0.0
 10
-2.689930555555555
 20
-0.28525390625
 30
0.0
 10
-2.689930555555555
 20
2.68855251736111
 30
0.0
 10
-2.439127604166666
 20
4.938199869791666
 30
0.0
 10
-1.937521701388888
 20
6.464377170138886
 30
0.0
 10
-1.43591579861111
 20
7.989865451388887
 30
0.0
 10
-0.7827256944444444
 20
8.753298611111111
 30
0.0
 10
0.0220486111111111
 20
8.753298611111111
 30
0.0
 10
0.8468044704861108
 20
8.753298611111111
 30
0.0
 10
1.49792751736111
 20
7.982975260416663
 30
0.0
 10
1.974728732638888
 20
6.442328559027776
 30
0.0
 10
2.451529947916665
 20
4.901681857638886
 30
0.0
 10
2.689930555555555
 20
2.868386501736111
 30
0.0
 10
2.689930555555555
 20
0.3438205295138888
 30
0.0
 10
2.689930555555555
 20
-2.045697699652774
 30
0.0
 10
2.483224826388885
 20
-4.15891927083333
 30
0.0
 10
2.071191406249999
 20
-5.996533203124998
 30
0.0
 10
1.65915798611111
 20
-7.834836154513887
 30
0.0
 10
0.9908094618055557
 20
-8.753298611111111
 30
0.0
 10
0.0668348524305556
 20
-8.753298611111111
 30
0.0
  0
SPLINE
  5
267E
330
267C
100
AcDbEntity
  8
LAYER_1
 62
     7
100
AcDbSpline
210
0.0
220
0.0
230
1.0
 70
    11
 71
     3
 72
    29
 73
    25
 74
     0
 42
0.0000000001
 43
0.0000000001
 40
0.0
 40
0.0
 40
0.0
 40
0.0
 40
1.0
 40
1.0
 40
1.0
 40
2.0
 40
2.0
 40
2.0
 40
3.0
 40
3.0
 40
3.0
 40
4.0
 40
4.0
 40
4.0
 40
5.0
 40
5.0
 40
5.0
 40
6.0
 40
6.0
 40
6.0
 40
7.0
 40
7.0
 40
7.0
 40
8.0
 40
8.0
 40
8.0
 40
8.0
 10
-0.0289388020833333
 20
11.35503472222222
 30
0.0
 10
-1.317404513888887
 20
11.35503472222222
 30
0.0
 10
-2.28892144097222
 20
10.02798394097222
 30
0.0
 10
-2.94280056423611
 20
7.374571397569441
 30
0.0
 10
-3.450607638888888
 20
5.30613606770833
 30
0.0
 10
-3.704166666666666
 20
2.81877712673611
 30
0.0
 10
-3.704166666666666
 20
-0.0881944444444445
 30
0.0
 10
-3.704166666666666
 20
-3.307291666666666
 30
0.0
 10
-3.406510416666666
 20
-5.970350477430551
 30
0.0
 10
-2.811197916666666
 20
-8.077370876736106
 30
0.0
 10
-2.147672526041664
 20
-10.26293945312499
 30
0.0
 10
-1.229899088541666
 20
-11.35503472222222
 30
0.0
 10
-0.0585666232638889
 20
-11.35503472222222
 30
0.0
 10
1.20027126736111
 20
-11.35503472222222
 30
0.0
 10
2.166276041666665
 20
-10.10653211805555
 30
0.0
 10
2.840136718749998
 20
-7.609526909722221
 30
0.0
 10
3.416156684027776
 20
-5.483213975694441
 30
0.0
 10
3.704166666666666
 20
-2.814643012152775
 30
0.0
 10
3.704166666666666
 20
0.3948079427083333
 30
0.0
 10
3.704166666666666
 20
3.360346137152776
 30
0.0
 10
3.449918619791666
 20
5.793961588541666
 30
0.0
 10
2.94280056423611
 20
7.696343315972222
 30
0.0
 10
2.298567708333333
 20
10.13547092013888
 30
0.0
 10
1.307758246527777
 20
11.35503472222222
 30
0.0
 10
-0.0289388020833333
 20
11.35503472222222
 30
0.0
  0
ENDBLK
  5
2680
330
267C
100
AcDbEntity
  8
0
100
AcDbBlockEnd
  0
BLOCK
  5
2684
330
2681
100
AcDbEntity
  8
0
 62
     7
100
AcDbBlockBegin
  2
AI9-BLK8
 70
     0
 10
0.0
 20
0.0
 30
0.0
  3
AI9-BLK8
  1

  0
LWPOLYLINE
  5
2682
330
2681
100
AcDbEntity
  8
LAYER_1
 62
     7
100
AcDbPolyline
 90
       10
 70
     1
 43
0.0
 10
-3.792361111111107
 20
10.7376736111111
 10
-2.268939887152774
 20
10.7376736111111
 10
2.557638888888888
 20
-6.505718315972222
 10
2.557638888888888
 20
10.7376736111111
 10
3.792361111111107
 20
10.7376736111111
 10
3.792361111111107
 20
-10.7376736111111
 10
2.32612847222222
 20
-10.7376736111111
 10
-2.557638888888888
 20
6.549815538194441
 10
-2.557638888888888
 20
-10.7376736111111
 10
-3.792361111111107
 20
-10.7376736111111
  0
HATCH
  5
2683
330
2681
100
AcDbEntity
  8
LAYER_1
 62
     7
100
AcDbHatch
 10
0.0
 20
0.0
 30
0.0
210
0.0
220
0.0
230
1.0
  2
SOLID
 70
     1
 71
     0
 91
        1
 92
        3
 72
     0
 73
     1
 93
       10
 10
-3.792361111111107
 20
10.7376736111111
 10
-2.268939887152774
 20
10.7376736111111
 10
2.557638888888888
 20
-6.505718315972222
 10
2.557638888888888
 20
10.7376736111111
 10
3.792361111111107
 20
10.7376736111111
 10
3.792361111111107
 20
-10.7376736111111
 10
2.32612847222222
 20
-10.7376736111111
 10
-2.557638888888888
 20
6.549815538194441
 10
-2.557638888888888
 20
-10.7376736111111
 10
-3.792361111111107
 20
-10.7376736111111
 97
        0
 75
     2
 76
     1
 98
        1
 10
0.0
 20
0.0
  0
ENDBLK
  5
2685
330
2681
100
AcDbEntity
  8
0
100
AcDbBlockEnd
  0
BLOCK
  5
2689
330
2686
100
AcDbEntity
  8
0
 62
     7
100
AcDbBlockBegin
  2
AI9-BLK7
 70
     0
 10
0.0
 20
0.0
 30
0.0
  3
AI9-BLK7
  1

  0
LWPOLYLINE
  5
2687
330
2686
100
AcDbEntity
  8
LAYER_1
 62
     7
100
AcDbPolyline
 90
        4
 70
     1
 43
0.0
 10
-0.6614583333333333
 20
10.7376736111111
 10
0.6614583333333333
 20
10.7376736111111
 10
0.6614583333333333
 20
-10.7376736111111
 10
-0.6614583333333333
 20
-10.7376736111111
  0
HATCH
  5
2688
330
2686
100
AcDbEntity
  8
LAYER_1
 62
     7
100
AcDbHatch
 10
0.0
 20
0.0
 30
0.0
210
0.0
220
0.0
230
1.0
  2
SOLID
 70
     1
 71
     0
 91
        1
 92
        3
 72
     0
 73
     1
 93
        4
 10
-0.6614583333333333
 20
10.7376736111111
 10
0.6614583333333333
 20
10.7376736111111
 10
0.6614583333333333
 20
-10.7376736111111
 10
-0.6614583333333333
 20
-10.7376736111111
 97
        0
 75
     2
 76
     1
 98
        1
 10
0.0
 20
0.0
  0
ENDBLK
  5
268A
330
2686
100
AcDbEntity
  8
0
100
AcDbBlockEnd
  0
BLOCK
  5
268D
330
268B
100
AcDbEntity
  8
0
 62
     7
100
AcDbBlockBegin
  2
AI9-BLK6
 70
     0
 10
0.0
 20
0.0
 30
0.0
  3
AI9-BLK6
  1

  0
SPLINE
  5
268C
330
268B
100
AcDbEntity
  8
LAYER_1
 62
     7
100
AcDbSpline
210
0.0
220
0.0
230
1.0
 70
    11
 71
     3
 72
    59
 73
    55
 74
     0
 42
0.0000000001
 43
0.0000000001
 40
0.0
 40
0.0
 40
0.0
 40
0.0
 40
1.0
 40
1.0
 40
1.0
 40
2.0
 40
2.0
 40
2.0
 40
3.0
 40
3.0
 40
3.0
 40
4.0
 40
4.0
 40
4.0
 40
5.0
 40
5.0
 40
5.0
 40
6.0
 40
6.0
 40
6.0
 40
7.0
 40
7.0
 40
7.0
 40
8.0
 40
8.0
 40
8.0
 40
9.0
 40
9.0
 40
9.0
 40
10.0
 40
10.0
 40
10.0
 40
11.0
 40
11.0
 40
11.0
 40
12.0
 40
12.0
 40
12.0
 40
13.0
 40
13.0
 40
13.0
 40
14.0
 40
14.0
 40
14.0
 40
15.0
 40
15.0
 40
15.0
 40
16.0
 40
16.0
 40
16.0
 40
17.0
 40
17.0
 40
17.0
 40
18.0
 40
18.0
 40
18.0
 40
18.0
 10
3.062689887152775
 20
9.168088107638887
 30
0.0
 10
3.735172526041666
 20
7.739062499999997
 30
0.0
 10
4.110687934027776
 20
6.116422526041666
 30
0.0
 10
4.189236111111108
 20
4.299479166666666
 30
0.0
 10
4.189236111111108
 20
4.299479166666666
 30
0.0
 10
2.866319444444443
 20
4.299479166666666
 30
0.0
 10
2.866319444444443
 20
4.299479166666666
 30
0.0
 10
2.720936414930555
 20
5.667871093749997
 30
0.0
 10
2.435682508680555
 20
6.752387152777776
 30
0.0
 10
2.009868706597219
 20
7.553027343749997
 30
0.0
 10
1.584054904513888
 20
8.352978515624997
 30
0.0
 10
0.9839192708333332
 20
8.753298611111111
 30
0.0
 10
0.2101508246527778
 20
8.753298611111111
 30
0.0
 10
-0.7386284722222222
 20
8.753298611111111
 30
0.0
 10
-1.503439670138888
 20
8.010536024305555
 30
0.0
 10
-2.083593749999999
 20
6.526388888888886
 30
0.0
 10
-2.664436848958333
 20
5.042241753472221
 30
0.0
 10
-2.954513888888888
 20
2.767100694444443
 30
0.0
 10
-2.954513888888888
 20
-0.2990342881944444
 30
0.0
 10
-2.954513888888888
 20
-2.811197916666666
 30
0.0
 10
-2.693375651041666
 20
-4.847938368055555
 30
0.0
 10
-2.17041015625
 20
-6.409944661458332
 30
0.0
 10
-1.648133680555553
 20
-7.972639973958332
 30
0.0
 10
-0.8640299479166666
 20
-8.753298611111111
 30
0.0
 10
0.1812120225694444
 20
-8.753298611111111
 30
0.0
 10
1.138948567708333
 20
-8.753298611111111
 30
0.0
 10
1.865174696180553
 20
-7.927853732638887
 30
0.0
 10
2.359201388888885
 20
-6.275585937499998
 30
0.0
 10
2.62998589409722
 20
-5.406043836805555
 30
0.0
 10
2.828423394097221
 20
-4.262272135416666
 30
0.0
 10
2.954513888888888
 20
-2.844270833333331
 30
0.0
 10
2.954513888888888
 20
-2.844270833333331
 30
0.0
 10
4.277430555555555
 20
-2.844270833333331
 30
0.0
 10
4.277430555555555
 20
-2.844270833333331
 30
0.0
 10
4.169943576388888
 20
-5.109765624999996
 30
0.0
 10
3.795117187499998
 20
-7.009391276041665
 30
0.0
 10
3.151573350694443
 20
-8.542458767361106
 30
0.0
 10
2.381249999999999
 20
-10.38834092881943
 30
0.0
 10
1.347721354166665
 20
-11.3109375
 30
0.0
 10
0.0509874131944445
 20
-11.3109375
 30
0.0
 10
-1.07004665798611
 20
-11.3109375
 30
0.0
 10
-2.010557725694444
 20
-10.55577256944443
 30
0.0
 10
-2.771234809027776
 20
-9.04475368923611
 30
0.0
 10
-3.775824652777775
 20
-7.046598307291666
 30
0.0
 10
-4.277430555555555
 20
-3.961170789930555
 30
0.0
 10
-4.277430555555555
 20
0.2115288628472222
 30
0.0
 10
-4.277430555555555
 20
3.379638671874998
 30
0.0
 10
-3.902604166666666
 20
5.977929687499997
 30
0.0
 10
-3.151573350694443
 20
8.005712890624996
 30
0.0
 10
-2.333018663194443
 20
10.20919596354165
 30
0.0
 10
-1.20647243923611
 20
11.3109375
 30
0.0
 10
0.2266872829861111
 20
11.3109375
 30
0.0
 10
1.444873046875
 20
11.3109375
 30
0.0
 10
2.390207248263885
 20
10.59642469618055
 30
0.0
 10
3.062689887152775
 20
9.168088107638887
 30
0.0
  0
ENDBLK
  5
268E
330
268B
100
AcDbEntity
  8
0
100
AcDbBlockEnd
  0
BLOCK
  5
2692
330
268F
100
AcDbEntity
  8
0
 62
     7
100
AcDbBlockBegin
  2
AI9-BLK5
 70
     0
 10
0.0
 20
0.0
 30
0.0
  3
AI9-BLK5
  1

  0
SPLINE
  5
2690
330
268F
100
AcDbEntity
  8
LAYER_1
 62
     7
100
AcDbSpline
210
0.0
220
0.0
230
1.0
 70
    11
 71
     3
 72
    32
 73
    28
 74
     0
 42
0.0000000001
 43
0.0000000001
 40
0.0
 40
0.0
 40
0.0
 40
0.0
 40
1.0
 40
1.0
 40
1.0
 40
2.0
 40
2.0
 40
2.0
 40
3.0
 40
3.0
 40
3.0
 40
4.0
 40
4.0
 40
4.0
 40
5.0
 40
5.0
 40
5.0
 40
6.0
 40
6.0
 40
6.0
 40
7.0
 40
7.0
 40
7.0
 40
8.0
 40
8.0
 40
8.0
 40
9.0
 40
9.0
 40
9.0
 40
9.0
 10
-2.62378472222222
 20
-8.268229166666666
 30
0.0
 10
-2.62378472222222
 20
-8.268229166666666
 30
0.0
 10
-2.62378472222222
 20
8.180034722222217
 30
0.0
 10
-2.62378472222222
 20
8.180034722222217
 30
0.0
 10
-2.62378472222222
 20
8.180034722222217
 30
0.0
 10
-0.3376193576388888
 20
8.180034722222217
 30
0.0
 10
-0.3376193576388888
 20
8.180034722222217
 30
0.0
 10
0.6972873263888888
 20
8.180034722222217
 30
0.0
 10
1.449007161458333
 20
7.445540364583332
 30
0.0
 10
1.918918185763885
 20
5.977929687499997
 30
0.0
 10
2.388829210069443
 20
4.510319010416666
 30
0.0
 10
2.62378472222222
 20
2.449462890624999
 30
0.0
 10
2.62378472222222
 20
-0.204638671875
 30
0.0
 10
2.62378472222222
 20
-0.8950358072916666
 30
0.0
 10
2.590022786458332
 20
-1.643310546874999
 30
0.0
 10
2.523187934027774
 20
-2.45015190972222
 30
0.0
 10
2.408121744791666
 20
-3.80200737847222
 30
0.0
 10
2.226220703124999
 20
-4.909950086805555
 30
0.0
 10
1.976795789930553
 20
-5.774669053819441
 30
0.0
 10
1.659847005208333
 20
-6.853672960069442
 30
0.0
 10
1.252636718749998
 20
-7.583344184027778
 30
0.0
 10
0.7544759114583333
 20
-7.962304687499997
 30
0.0
 10
0.4664659288194444
 20
-8.166254340277777
 30
0.0
 10
0.1074869791666666
 20
-8.268229166666666
 30
0.0
 10
-0.3231499565972222
 20
-8.268229166666666
 30
0.0
 10
-0.3231499565972222
 20
-8.268229166666666
 30
0.0
 10
-2.62378472222222
 20
-8.268229166666666
 30
0.0
 10
-2.62378472222222
 20
-8.268229166666666
 30
0.0
  0
SPLINE
  5
2691
330
268F
100
AcDbEntity
  8
LAYER_1
 62
     7
100
AcDbSpline
210
0.0
220
0.0
230
1.0
 70
    11
 71
     3
 72
    26
 73
    22
 74
     0
 42
0.0000000001
 43
0.0000000001
 40
0.0
 40
0.0
 40
0.0
 40
0.0
 40
1.0
 40
1.0
 40
1.0
 40
2.0
 40
2.0
 40
2.0
 40
3.0
 40
3.0
 40
3.0
 40
4.0
 40
4.0
 40
4.0
 40
5.0
 40
5.0
 40
5.0
 40
6.0
 40
6.0
 40
6.0
 40
7.0
 40
7.0
 40
7.0
 40
7.0
 10
-3.946701388888888
 20
-10.7376736111111
 30
0.0
 10
-3.946701388888888
 20
-10.7376736111111
 30
0.0
 10
-0.0943956163194444
 20
-10.7376736111111
 30
0.0
 10
-0.0943956163194444
 20
-10.7376736111111
 30
0.0
 10
1.546847873263885
 20
-10.7376736111111
 30
0.0
 10
2.705777994791666
 20
-9.11021050347222
 30
0.0
 10
3.381705729166666
 20
-5.854595269097222
 30
0.0
 10
3.757910156249999
 20
-4.01284722222222
 30
0.0
 10
3.946701388888888
 20
-1.951991102430555
 30
0.0
 10
3.946701388888888
 20
0.328662109375
 30
0.0
 10
3.946701388888888
 20
3.281797960069443
 30
0.0
 10
3.622862413194443
 20
5.703700086805552
 30
0.0
 10
2.976562499999998
 20
7.594368489583332
 30
0.0
 10
2.25171440972222
 20
9.689675564236106
 30
0.0
 10
1.233344184027777
 20
10.7376736111111
 30
0.0
 10
-0.0799262152777778
 20
10.7376736111111
 30
0.0
 10
-0.0799262152777778
 20
10.7376736111111
 30
0.0
 10
-3.946701388888888
 20
10.7376736111111
 30
0.0
 10
-3.946701388888888
 20
10.7376736111111
 30
0.0
 10
-3.946701388888888
 20
10.7376736111111
 30
0.0
 10
-3.946701388888888
 20
-10.7376736111111
 30
0.0
 10
-3.946701388888888
 20
-10.7376736111111
 30
0.0
  0
ENDBLK
  5
2693
330
268F
100
AcDbEntity
  8
0
100
AcDbBlockEnd
  0
BLOCK
  5
2697
330
2694
100
AcDbEntity
  8
0
 62
     7
100
AcDbBlockBegin
  2
AI9-BLK4
 70
     0
 10
0.0
 20
0.0
 30
0.0
  3
AI9-BLK4
  1

  0
SPLINE
  5
2695
330
2694
100
AcDbEntity
  8
LAYER_1
 62
     7
100
AcDbSpline
210
0.0
220
0.0
230
1.0
 70
    11
 71
     3
 72
    26
 73
    22
 74
     0
 42
0.0000000001
 43
0.0000000001
 40
0.0
 40
0.0
 40
0.0
 40
0.0
 40
1.0
 40
1.0
 40
1.0
 40
2.0
 40
2.0
 40
2.0
 40
3.0
 40
3.0
 40
3.0
 40
4.0
 40
4.0
 40
4.0
 40
5.0
 40
5.0
 40
5.0
 40
6.0
 40
6.0
 40
6.0
 40
7.0
 40
7.0
 40
7.0
 40
7.0
 10
-2.645833333333333
 20
0.9039930555555551
 30
0.0
 10
-2.645833333333333
 20
0.9039930555555551
 30
0.0
 10
-2.645833333333333
 20
8.180034722222217
 30
0.0
 10
-2.645833333333333
 20
8.180034722222217
 30
0.0
 10
-2.645833333333333
 20
8.180034722222217
 30
0.0
 10
0.465087890625
 20
8.180034722222217
 30
0.0
 10
0.465087890625
 20
8.180034722222217
 30
0.0
 10
0.9026150173611108
 20
8.180034722222217
 30
0.0
 10
1.24988064236111
 20
8.034651692708331
 30
0.0
 10
1.506884765625
 20
7.745263671874997
 30
0.0
 10
2.001600477430554
 20
7.194048394097221
 30
0.0
 10
2.248958333333332
 20
6.160519748263887
 30
0.0
 10
2.248958333333332
 20
4.643299696180553
 30
0.0
 10
2.248958333333332
 20
3.232188585069443
 30
0.0
 10
2.072569444444444
 20
2.256537543402775
 30
0.0
 10
1.720480685763888
 20
1.715657552083333
 30
0.0
 10
1.368391927083333
 20
1.174088541666665
 30
0.0
 10
0.8929687499999998
 20
0.9039930555555551
 30
0.0
 10
0.2942111545138888
 20
0.9039930555555551
 30
0.0
 10
0.2942111545138888
 20
0.9039930555555551
 30
0.0
 10
-2.645833333333333
 20
0.9039930555555551
 30
0.0
 10
-2.645833333333333
 20
0.9039930555555551
 30
0.0
  0
SPLINE
  5
2696
330
2694
100
AcDbEntity
  8
LAYER_1
 62
     7
100
AcDbSpline
210
0.0
220
0.0
230
1.0
 70
    11
 71
     3
 72
    68
 73
    64
 74
     0
 42
0.0000000001
 43
0.0000000001
 40
0.0
 40
0.0
 40
0.0
 40
0.0
 40
1.0
 40
1.0
 40
1.0
 40
2.0
 40
2.0
 40
2.0
 40
3.0
 40
3.0
 40
3.0
 40
4.0
 40
4.0
 40
4.0
 40
5.0
 40
5.0
 40
5.0
 40
6.0
 40
6.0
 40
6.0
 40
7.0
 40
7.0
 40
7.0
 40
8.0
 40
8.0
 40
8.0
 40
9.0
 40
9.0
 40
9.0
 40
10.0
 40
10.0
 40
10.0
 40
11.0
 40
11.0
 40
11.0
 40
12.0
 40
12.0
 40
12.0
 40
13.0
 40
13.0
 40
13.0
 40
14.0
 40
14.0
 40
14.0
 40
15.0
 40
15.0
 40
15.0
 40
16.0
 40
16.0
 40
16.0
 40
17.0
 40
17.0
 40
17.0
 40
18.0
 40
18.0
 40
18.0
 40
19.0
 40
19.0
 40
19.0
 40
20.0
 40
20.0
 40
20.0
 40
21.0
 40
21.0
 40
21.0
 40
21.0
 10
-3.968749999999998
 20
-10.7376736111111
 30
0.0
 10
-3.968749999999998
 20
-10.7376736111111
 30
0.0
 10
-2.645833333333333
 20
-10.7376736111111
 30
0.0
 10
-2.645833333333333
 20
-10.7376736111111
 30
0.0
 10
-2.645833333333333
 20
-10.7376736111111
 30
0.0
 10
-2.645833333333333
 20
-1.521354166666665
 30
0.0
 10
-2.645833333333333
 20
-1.521354166666665
 30
0.0
 10
-2.645833333333333
 20
-1.521354166666665
 30
0.0
 10
0.2390896267361111
 20
-1.521354166666665
 30
0.0
 10
0.2390896267361111
 20
-1.521354166666665
 30
0.0
 10
0.7599880642361111
 20
-1.521354166666665
 30
0.0
 10
1.143771701388887
 20
-1.65295681423611
 30
0.0
 10
1.390440538194444
 20
-1.916162109374999
 30
0.0
 10
1.816254340277774
 20
-2.39434136284722
 30
0.0
 10
2.04363064236111
 20
-3.335541449652775
 30
0.0
 10
2.072569444444444
 20
-4.739762369791666
 30
0.0
 10
2.072569444444444
 20
-4.739762369791666
 30
0.0
 10
2.160763888888888
 20
-8.324039713541665
 30
0.0
 10
2.160763888888888
 20
-8.324039713541665
 30
0.0
 10
2.18005642361111
 20
-9.163264973958332
 30
0.0
 10
2.202794053819443
 20
-9.728949652777775
 30
0.0
 10
2.227598741319444
 20
-10.02109374999998
 30
0.0
 10
2.252403428819443
 20
-10.31392686631944
 30
0.0
 10
2.28892144097222
 20
-10.55301649305555
 30
0.0
 10
2.33853081597222
 20
-10.7376736111111
 30
0.0
 10
2.33853081597222
 20
-10.7376736111111
 30
0.0
 10
3.968749999999998
 20
-10.7376736111111
 30
0.0
 10
3.968749999999998
 20
-10.7376736111111
 30
0.0
 10
3.968749999999998
 20
-10.7376736111111
 30
0.0
 10
3.968749999999998
 20
-10.25260416666666
 30
0.0
 10
3.968749999999998
 20
-10.25260416666666
 30
0.0
 10
3.766867404513888
 20
-10.05830078125
 30
0.0
 10
3.625618489583333
 20
-9.621462673611112
 30
0.0
 10
3.545692274305555
 20
-8.942089843749997
 30
0.0
 10
3.49470486111111
 20
-8.543836805555555
 30
0.0
 10
3.459564887152775
 20
-7.937499999999999
 30
0.0
 10
3.439583333333333
 20
-7.121701388888887
 30
0.0
 10
3.439583333333333
 20
-7.121701388888887
 30
0.0
 10
3.395486111111107
 20
-4.232644314236107
 30
0.0
 10
3.395486111111107
 20
-4.232644314236107
 30
0.0
 10
3.375504557291666
 20
-2.981385633680555
 30
0.0
 10
3.26870659722222
 20
-2.077392578125
 30
0.0
 10
3.075781249999999
 20
-1.522043185763888
 30
0.0
 10
2.882166883680555
 20
-0.9666937934027776
 30
0.0
 10
2.592089843749999
 20
-0.5188313802083333
 30
0.0
 10
2.204861111111107
 20
-0.1770779079861111
 30
0.0
 10
2.63618706597222
 20
0.3197048611111111
 30
0.0
 10
2.971739366319443
 20
0.9770290798611107
 30
0.0
 10
3.211518012152775
 20
1.79558376736111
 30
0.0
 10
3.451296657986107
 20
2.613449435763888
 30
0.0
 10
3.571874999999999
 20
3.66558159722222
 30
0.0
 10
3.571874999999999
 20
4.951291232638888
 30
0.0
 10
3.571874999999999
 20
7.415912543402777
 30
0.0
 10
3.124701605902775
 20
9.106076388888887
 30
0.0
 10
2.231043836805555
 20
10.02178276909722
 30
0.0
 10
1.759754774305553
 20
10.498583984375
 30
0.0
 10
1.163753255208332
 20
10.7376736111111
 30
0.0
 10
0.443039279513889
 20
10.7376736111111
 30
0.0
 10
0.443039279513889
 20
10.7376736111111
 30
0.0
 10
-3.968749999999998
 20
10.7376736111111
 30
0.0
 10
-3.968749999999998
 20
10.7376736111111
 30
0.0
 10
-3.968749999999998
 20
10.7376736111111
 30
0.0
 10
-3.968749999999998
 20
-10.7376736111111
 30
0.0
 10
-3.968749999999998
 20
-10.7376736111111
 30
0.0
  0
ENDBLK
  5
2698
330
2694
100
AcDbEntity
  8
0
100
AcDbBlockEnd
  0
BLOCK
  5
269C
330
2699
100
AcDbEntity
  8
0
 62
     7
100
AcDbBlockBegin
  2
AI9-BLK3
 70
     0
 10
0.0
 20
0.0
 30
0.0
  3
AI9-BLK3
  1

  0
LWPOLYLINE
  5
269A
330
2699
100
AcDbEntity
  8
LAYER_1
 62
     7
100
AcDbPolyline
 90
        4
 70
     1
 43
0.0
 10
-0.6613722059461809
 20
10.7376736111111
 10
0.6613722059461809
 20
10.7376736111111
 10
0.6613722059461809
 20
-10.7376736111111
 10
-0.6613722059461809
 20
-10.7376736111111
  0
HATCH
  5
269B
330
2699
100
AcDbEntity
  8
LAYER_1
 62
     7
100
AcDbHatch
 10
0.0
 20
0.0
 30
0.0
210
0.0
220
0.0
230
1.0
  2
SOLID
 70
     1
 71
     0
 91
        1
 92
        3
 72
     0
 73
     1
 93
        4
 10
-0.6613722059461809
 20
10.7376736111111
 10
0.6613722059461809
 20
10.7376736111111
 10
0.6613722059461809
 20
-10.7376736111111
 10
-0.6613722059461809
 20
-10.7376736111111
 97
        0
 75
     2
 76
     1
 98
        1
 10
0.0
 20
0.0
  0
ENDBLK
  5
269D
330
2699
100
AcDbEntity
  8
0
100
AcDbBlockEnd
  0
BLOCK
  5
26A1
330
269E
100
AcDbEntity
  8
0
 62
     7
100
AcDbBlockBegin
  2
AI9-BLK2
 70
     0
 10
0.0
 20
0.0
 30
0.0
  3
AI9-BLK2
  1

  0
LWPOLYLINE
  5
269F
330
269E
100
AcDbEntity
  8
LAYER_1
 62
     7
100
AcDbPolyline
 90
        7
 70
     1
 43
0.0
 10
-2.785704210069443
 20
10.7376736111111
 10
0.0
 20
-7.550960286458332
 10
2.771234809027776
 20
10.7376736111111
 10
4.233333333333331
 20
10.7376736111111
 10
0.6910861545138888
 20
-10.7376736111111
 10
-0.7055555555555558
 20
-10.7376736111111
 10
-4.233333333333331
 20
10.7376736111111
  0
HATCH
  5
26A0
330
269E
100
AcDbEntity
  8
LAYER_1
 62
     7
100
AcDbHatch
 10
0.0
 20
0.0
 30
0.0
210
0.0
220
0.0
230
1.0
  2
SOLID
 70
     1
 71
     0
 91
        1
 92
        3
 72
     0
 73
     1
 93
        7
 10
-2.785704210069443
 20
10.7376736111111
 10
0.0
 20
-7.550960286458332
 10
2.771234809027776
 20
10.7376736111111
 10
4.233333333333331
 20
10.7376736111111
 10
0.6910861545138888
 20
-10.7376736111111
 10
-0.7055555555555558
 20
-10.7376736111111
 10
-4.233333333333331
 20
10.7376736111111
 97
        0
 75
     2
 76
     1
 98
        1
 10
0.0
 20
0.0
  0
ENDBLK
  5
26A2
330
269E
100
AcDbEntity
  8
0
100
AcDbBlockEnd
  0
BLOCK
  5
26A6
330
26A3
100
AcDbEntity
  8
0
 62
     7
100
AcDbBlockBegin
  2
AI9-BLK1
 70
     0
 10
0.0
 20
0.0
 30
0.0
  3
AI9-BLK1
  1

  0
LWPOLYLINE
  5
26A4
330
26A3
100
AcDbEntity
  8
LAYER_1
 62
     7
100
AcDbPolyline
 90
       12
 70
     1
 43
0.0
 10
-3.571874999999999
 20
10.7376736111111
 10
3.483680555555555
 20
10.7376736111111
 10
3.483680555555555
 20
8.091840277777777
 10
-2.248958333333332
 20
8.091840277777777
 10
-2.248958333333332
 20
1.565451388888888
 10
3.042708333333333
 20
1.565451388888888
 10
3.042708333333333
 20
-0.9039930555555551
 10
-2.248958333333332
 20
-0.9039930555555551
 10
-2.248958333333332
 20
-8.180034722222217
 10
3.571874999999999
 20
-8.180034722222217
 10
3.571874999999999
 20
-10.7376736111111
 10
-3.571874999999999
 20
-10.7376736111111
  0
HATCH
  5
26A5
330
26A3
100
AcDbEntity
  8
LAYER_1
 62
     7
100
AcDbHatch
 10
0.0
 20
0.0
 30
0.0
210
0.0
220
0.0
230
1.0
  2
SOLID
 70
     1
 71
     0
 91
        1
 92
        3
 72
     0
 73
     1
 93
       12
 10
-3.571874999999999
 20
10.7376736111111
 10
3.483680555555555
 20
10.7376736111111
 10
3.483680555555555
 20
8.091840277777777
 10
-2.248958333333332
 20
8.091840277777777
 10
-2.248958333333332
 20
1.565451388888888
 10
3.042708333333333
 20
1.565451388888888
 10
3.042708333333333
 20
-0.9039930555555551
 10
-2.248958333333332
 20
-0.9039930555555551
 10
-2.248958333333332
 20
-8.180034722222217
 10
3.571874999999999
 20
-8.180034722222217
 10
3.571874999999999
 20
-10.7376736111111
 10
-3.571874999999999
 20
-10.7376736111111
 97
        0
 75
     2
 76
     1
 98
        1
 10
0.0
 20
0.0
  0
ENDBLK
  5
26A7
330
26A3
100
AcDbEntity
  8
0
100
AcDbBlockEnd
  0
BLOCK
  5
26CB
330
26A8
100
AcDbEntity
  8
0
100
AcDbBlockBegin
  2
HD_LLC_logo_OT5
 70
     0
 10
0.0
 20
0.0
 30
0.0
  3
HD_LLC_logo_OT5
  1

  0
SPLINE
  5
26A9
102
{ACAD_REACTORS
330
26C9
102
}
330
26A8
100
AcDbEntity
  8
LAYER_1
 62
     7
100
AcDbSpline
210
0.0
220
0.0
230
1.0
 70
    11
 71
     3
 72
   113
 73
   109
 74
     0
 42
0.0000000001
 43
0.0000000001
 40
0.0
 40
0.0
 40
0.0
 40
0.0
 40
1.0
 40
1.0
 40
1.0
 40
2.0
 40
2.0
 40
2.0
 40
3.0
 40
3.0
 40
3.0
 40
4.0
 40
4.0
 40
4.0
 40
5.0
 40
5.0
 40
5.0
 40
6.0
 40
6.0
 40
6.0
 40
7.0
 40
7.0
 40
7.0
 40
8.0
 40
8.0
 40
8.0
 40
9.0
 40
9.0
 40
9.0
 40
10.0
 40
10.0
 40
10.0
 40
11.0
 40
11.0
 40
11.0
 40
12.0
 40
12.0
 40
12.0
 40
13.0
 40
13.0
 40
13.0
 40
14.0
 40
14.0
 40
14.0
 40
15.0
 40
15.0
 40
15.0
 40
16.0
 40
16.0
 40
16.0
 40
17.0
 40
17.0
 40
17.0
 40
18.0
 40
18.0
 40
18.0
 40
19.0
 40
19.0
 40
19.0
 40
20.0
 40
20.0
 40
20.0
 40
21.0
 40
21.0
 40
21.0
 40
22.0
 40
22.0
 40
22.0
 40
23.0
 40
23.0
 40
23.0
 40
24.0
 40
24.0
 40
24.0
 40
25.0
 40
25.0
 40
25.0
 40
26.0
 40
26.0
 40
26.0
 40
27.0
 40
27.0
 40
27.0
 40
28.0
 40
28.0
 40
28.0
 40
29.0
 40
29.0
 40
29.0
 40
30.0
 40
30.0
 40
30.0
 40
31.0
 40
31.0
 40
31.0
 40
32.0
 40
32.0
 40
32.0
 40
33.0
 40
33.0
 40
33.0
 40
34.0
 40
34.0
 40
34.0
 40
35.0
 40
35.0
 40
35.0
 40
36.0
 40
36.0
 40
36.0
 40
36.0
 10
193.3039632161458
 20
186.1548733181423
 30
0.0
 10
193.3039632161458
 20
186.1860514322916
 30
0.0
 10
193.3039632161458
 20
219.6932223849826
 30
0.0
 10
193.3039632161458
 20
219.6932223849826
 30
0.0
 10
193.3039632161458
 20
219.6932223849826
 30
0.0
 10
193.2974175347219
 20
219.7488606770833
 30
0.0
 10
193.2974175347219
 20
219.7488606770833
 30
0.0
 10
191.5293945312499
 20
235.455740017361
 30
0.0
 10
175.1458984374999
 20
235.2467949761284
 30
0.0
 10
174.9808783637151
 20
235.2428331163193
 30
0.0
 10
174.9808783637151
 20
235.2428331163193
 30
0.0
 10
125.8827555338541
 20
235.2430053710937
 30
0.0
 10
125.8827555338541
 20
235.2430053710937
 30
0.0
 10
125.8827555338541
 20
235.2430053710937
 30
0.0
 10
125.8827555338541
 20
255.5278998480901
 30
0.0
 10
125.8827555338541
 20
255.5278998480901
 30
0.0
 10
125.8827555338541
 20
255.5278998480901
 30
0.0
 10
84.5626247829861
 20
255.5278998480901
 30
0.0
 10
84.5626247829861
 20
255.5278998480901
 30
0.0
 10
84.5626247829861
 20
255.5278998480901
 30
0.0
 10
84.55711263020829
 20
233.7919311523436
 30
0.0
 10
84.55711263020829
 20
233.7919311523436
 30
0.0
 10
84.55711263020829
 20
233.7919311523436
 30
0.0
 10
64.42052951388888
 20
233.7919311523436
 30
0.0
 10
64.42052951388888
 20
233.7919311523436
 30
0.0
 10
64.42052951388888
 20
233.7919311523436
 30
0.0
 10
64.41501736111111
 20
255.5278998480901
 30
0.0
 10
64.41501736111111
 20
255.5278998480901
 30
0.0
 10
64.41501736111111
 20
255.5278998480901
 30
0.0
 10
23.91757541232637
 20
255.5278998480901
 30
0.0
 10
23.91757541232637
 20
255.5278998480901
 30
0.0
 10
23.91757541232637
 20
255.5278998480901
 30
0.0
 10
23.91757541232637
 20
233.2393378363715
 30
0.0
 10
23.91757541232637
 20
233.2393378363715
 30
0.0
 10
23.91757541232637
 20
233.2393378363715
 30
0.0
 10
43.65624999999999
 20
233.2393378363715
 30
0.0
 10
43.65624999999999
 20
233.2393378363715
 30
0.0
 10
43.65624999999999
 20
233.2393378363715
 30
0.0
 10
43.65624999999999
 20
211.5188720703125
 30
0.0
 10
43.65624999999999
 20
211.5188720703125
 30
0.0
 10
43.65624999999999
 20
211.5188720703125
 30
0.0
 10
23.91757541232637
 20
211.5188720703125
 30
0.0
 10
23.91757541232637
 20
211.5188720703125
 30
0.0
 10
23.91757541232637
 20
211.5188720703125
 30
0.0
 10
23.91757541232637
 20
189.2303100585936
 30
0.0
 10
23.91757541232637
 20
189.2303100585936
 30
0.0
 10
23.91757541232637
 20
189.2303100585936
 30
0.0
 10
64.41501736111111
 20
189.2303100585936
 30
0.0
 10
64.41501736111111
 20
189.2303100585936
 30
0.0
 10
64.41501736111111
 20
189.2303100585936
 30
0.0
 10
64.42052951388888
 20
211.069976128472
 30
0.0
 10
64.42052951388888
 20
211.069976128472
 30
0.0
 10
64.42052951388888
 20
211.069976128472
 30
0.0
 10
84.55711263020829
 20
211.069976128472
 30
0.0
 10
84.55711263020829
 20
211.069976128472
 30
0.0
 10
84.55711263020829
 20
211.069976128472
 30
0.0
 10
84.5626247829861
 20
189.2303100585936
 30
0.0
 10
84.5626247829861
 20
189.2303100585936
 30
0.0
 10
84.5626247829861
 20
189.2303100585936
 30
0.0
 10
125.8827555338541
 20
189.2303100585936
 30
0.0
 10
125.8827555338541
 20
189.2303100585936
 30
0.0
 10
125.8827555338541
 20
189.2303100585936
 30
0.0
 10
125.8827555338541
 20
211.5188720703125
 30
0.0
 10
125.8827555338541
 20
211.5188720703125
 30
0.0
 10
125.8827555338541
 20
211.5188720703125
 30
0.0
 10
105.3213921440971
 20
211.5188720703125
 30
0.0
 10
105.3213921440971
 20
211.5188720703125
 30
0.0
 10
105.3213921440971
 20
211.5188720703125
 30
0.0
 10
105.3213921440971
 20
233.2393378363715
 30
0.0
 10
105.3213921440971
 20
233.2393378363715
 30
0.0
 10
105.3213921440971
 20
233.2393378363715
 30
0.0
 10
175.0046495225693
 20
233.243127441406
 30
0.0
 10
175.0046495225693
 20
233.243127441406
 30
0.0
 10
175.6268337673611
 20
233.2560465494791
 30
0.0
 10
189.7165852864583
 20
233.3962619357638
 30
0.0
 10
191.3037407769094
 20
219.5690266927083
 30
0.0
 10
191.3037407769094
 20
219.4332899305555
 30
0.0
 10
191.3037407769094
 20
186.1142211914062
 30
0.0
 10
191.3037407769094
 20
186.1142211914062
 30
0.0
 10
191.3037407769094
 20
186.1142211914062
 30
0.0
 10
191.3051188151039
 20
186.0880384657115
 30
0.0
 10
191.3051188151039
 20
186.0880384657115
 30
0.0
 10
191.3054633246526
 20
186.0787367078991
 30
0.0
 10
191.3109754774304
 20
185.9566080729166
 30
0.0
 10
191.3109754774304
 20
185.7399115668401
 30
0.0
 10
191.3109754774304
 20
184.2090833875865
 30
0.0
 10
191.0488037109374
 20
177.9643310546874
 30
0.0
 10
186.9866916232638
 20
173.5652886284722
 30
0.0
 10
184.2540418836804
 20
170.6064683702255
 30
0.0
 10
180.3224989149304
 20
169.0308539496526
 30
0.0
 10
175.300927734375
 20
168.8825425889756
 30
0.0
 10
175.300927734375
 20
168.8825425889756
 30
0.0
 10
107.0094889322916
 20
168.8828870985243
 30
0.0
 10
107.0094889322916
 20
168.8828870985243
 30
0.0
 10
107.0094889322916
 20
168.8828870985243
 30
0.0
 10
107.0094889322916
 20
166.8830091688368
 30
0.0
 10
107.0094889322916
 20
166.8830091688368
 30
0.0
 10
107.0094889322916
 20
166.8830091688368
 30
0.0
 10
175.3305555555555
 20
166.8830091688368
 30
0.0
 10
175.3305555555555
 20
166.8830091688368
 30
0.0
 10
180.9467502170138
 20
167.0485460069444
 30
0.0
 10
185.3571614583333
 20
168.8448187934026
 30
0.0
 10
188.4687717013888
 20
172.2223904079861
 30
0.0
 10
192.9649658203124
 20
177.1034016927083
 30
0.0
 10
193.3136094835069
 20
183.7202243381076
 30
0.0
 10
193.3136094835069
 20
185.6520616319443
 30
0.0
 10
193.3136094835069
 20
185.9247409396701
 30
0.0
 10
193.3070638020833
 20
186.0868326822916
 30
0.0
 10
193.3039632161458
 20
186.1548733181423
 30
0.0
  0
INSERT
  5
26AA
102
{ACAD_REACTORS
330
26CA
102
}
330
26A8
100
AcDbEntity
  8
LAYER_1
 62
     7
100
AcDbBlockReference
  2
AI9-BLK14
 10
159.5625257703993
 20
200.5118781195744
 30
0.0
  0
INSERT
  5
26AB
330
26A8
100
AcDbEntity
  8
LAYER_1
 62
     7
100
AcDbBlockReference
  2
AI9-BLK13
 10
27.69615614149305
 20
179.2145562065971
 30
0.0
 42
0.9200000000000001
  0
INSERT
  5
26AC
102
{ACAD_REACTORS
330
26B7
102
}
330
26A8
100
AcDbEntity
  8
LAYER_1
 62
     7
100
AcDbBlockReference
  2
AI9-BLK11
 10
44.76591525607638
 20
179.2145562065971
 30
0.0
 42
0.9200000000000001
  0
INSERT
  5
26AD
102
{ACAD_REACTORS
330
26C5
102
}
330
26A8
100
AcDbEntity
  8
LAYER_1
 62
     7
100
AcDbBlockReference
  2
AI9-BLK10
 10
54.04665798611111
 20
179.2145562065971
 30
0.0
 42
0.9200000000000001
  0
INSERT
  5
26AE
102
{ACAD_REACTORS
330
26C4
102
}
330
26A8
100
AcDbEntity
  8
LAYER_1
 62
     7
100
AcDbBlockReference
  2
AI9-BLK9
 10
62.79013807508679
 20
179.2145562065971
 30
0.0
 42
0.9
  0
INSERT
  5
26AF
330
26A8
100
AcDbEntity
  8
LAYER_1
 62
     7
100
AcDbBlockReference
  2
AI9-BLK8
 10
71.03046196831595
 20
179.2145562065971
 30
0.0
 42
0.9200000000000001
  0
INSERT
  5
26B0
330
26A8
100
AcDbEntity
  8
LAYER_1
 62
     7
100
AcDbBlockReference
  2
AI9-BLK7
 10
76.93793945312498
 20
179.2145562065971
 30
0.0
 42
0.9200000000000001
  0
INSERT
  5
26B1
102
{ACAD_REACTORS
330
26B8
102
}
330
26A8
100
AcDbEntity
  8
LAYER_1
 62
     7
100
AcDbBlockReference
  2
AI9-BLK6
 10
82.55602891710069
 20
179.2145562065971
 30
0.0
 42
0.9
  0
INSERT
  5
26B2
102
{ACAD_REACTORS
330
26C6
102
}
330
26A8
100
AcDbEntity
  8
LAYER_1
 62
     7
100
AcDbBlockReference
  2
AI9-BLK5
 10
94.32430284288193
 20
179.2145562065971
 30
0.0
 42
0.9200000000000001
  0
INSERT
  5
26B3
102
{ACAD_REACTORS
330
26C7
102
}
330
26A8
100
AcDbEntity
  8
LAYER_1
 62
     7
100
AcDbBlockReference
  2
AI9-BLK4
 10
103.2081705729166
 20
179.2145562065971
 30
0.0
 42
0.9200000000000001
  0
INSERT
  5
26B4
330
26A8
100
AcDbEntity
  8
LAYER_1
 62
     7
100
AcDbBlockReference
  2
AI9-BLK3
 10
108.850978597005
 20
179.2145562065971
 30
0.0
 42
0.9200000000000001
  0
INSERT
  5
26B5
330
26A8
100
AcDbEntity
  8
LAYER_1
 62
     7
100
AcDbBlockReference
  2
AI9-BLK2
 10
114.2045708550346
 20
179.2145562065971
 30
0.0
 42
0.9200000000000001
  0
INSERT
  5
26B6
330
26A8
100
AcDbEntity
  8
LAYER_1
 62
     7
100
AcDbBlockReference
  2
AI9-BLK1
 10
122.4125108506944
 20
179.2145562065971
 30
0.0
 42
0.9200000000000001
  0
HATCH
  5
26B7
330
26A8
100
AcDbEntity
  8
0
  6
Continuous
100
AcDbHatch
 10
0.0
 20
0.0
 30
0.0
210
0.0
220
0.0
230
1.0
  2
SOLID
 70
     1
 71
     1
 91
        2
 92
       16
 93
        1
 72
     4
 94
        3
 73
     0
 74
     0
 95
       26
 96
       22
 40
0.0
 40
0.0
 40
0.0
 40
0.0
 40
1.0
 40
1.0
 40
1.0
 40
2.0
 40
2.0
 40
2.0
 40
3.0
 40
3.0
 40
3.0
 40
4.0
 40
4.0
 40
4.0
 40
5.0
 40
5.0
 40
5.0
 40
6.0
 40
6.0
 40
6.0
 40
7.0
 40
7.0
 40
7.0
 40
7.0
 10
42.12008192274304
 20
180.0462298177081
 10
42.12008192274304
 20
180.0462298177081
 10
42.12008192274304
 20
186.7401881510414
 10
42.12008192274304
 20
186.7401881510414
 10
42.12008192274304
 20
186.7401881510414
 10
45.23100314670138
 20
186.7401881510414
 10
45.23100314670138
 20
186.7401881510414
 10
45.66853027343749
 20
186.7401881510414
 10
46.01579589843749
 20
186.6064357638887
 10
46.27280002170138
 20
186.3401987847219
 10
46.76751573350694
 20
185.8330807291664
 10
47.01487358940972
 20
184.8822343749997
 10
47.01487358940972
 20
183.4863919270832
 10
47.01487358940972
 20
182.188169704861
 10
46.83848470052082
 20
181.2905707465276
 10
46.48639594184028
 20
180.7929611545137
 10
46.13430718315971
 20
180.2947176649304
 10
45.65888400607638
 20
180.0462298177081
 10
45.06012641059028
 20
180.0462298177081
 10
45.06012641059028
 20
180.0462298177081
 10
42.12008192274304
 20
180.0462298177081
 10
42.12008192274304
 20
180.0462298177081
 97
        1
330
26AC
 92
        1
 93
        1
 72
     4
 94
        3
 73
     0
 74
     0
 95
       68
 96
       64
 40
0.0
 40
0.0
 40
0.0
 40
0.0
 40
1.0
 40
1.0
 40
1.0
 40
2.0
 40
2.0
 40
2.0
 40
3.0
 40
3.0
 40
3.0
 40
4.0
 40
4.0
 40
4.0
 40
5.0
 40
5.0
 40
5.0
 40
6.0
 40
6.0
 40
6.0
 40
7.0
 40
7.0
 40
7.0
 40
8.0
 40
8.0
 40
8.0
 40
9.0
 40
9.0
 40
9.0
 40
10.0
 40
10.0
 40
10.0
 40
11.0
 40
11.0
 40
11.0
 40
12.0
 40
12.0
 40
12.0
 40
13.0
 40
13.0
 40
13.0
 40
14.0
 40
14.0
 40
14.0
 40
15.0
 40
15.0
 40
15.0
 40
16.0
 40
16.0
 40
16.0
 40
17.0
 40
17.0
 40
17.0
 40
18.0
 40
18.0
 40
18.0
 40
19.0
 40
19.0
 40
19.0
 40
20.0
 40
20.0
 40
20.0
 40
21.0
 40
21.0
 40
21.0
 40
21.0
 10
40.79716525607638
 20
169.3358964843748
 10
40.79716525607638
 20
169.3358964843748
 10
42.12008192274304
 20
169.3358964843748
 10
42.12008192274304
 20
169.3358964843748
 10
42.12008192274304
 20
169.3358964843748
 10
42.12008192274304
 20
177.8149103732637
 10
42.12008192274304
 20
177.8149103732637
 10
42.12008192274304
 20
177.8149103732637
 10
45.00500488281249
 20
177.8149103732637
 10
45.00500488281249
 20
177.8149103732637
 10
45.52590332031249
 20
177.8149103732637
 10
45.90968695746528
 20
177.6938359374998
 10
46.15635579427083
 20
177.451687065972
 10
46.58216959635415
 20
177.0117621527776
 10
46.80954589843749
 20
176.1458580729164
 10
46.83848470052082
 20
174.8539748263887
 10
46.83848470052082
 20
174.8539748263887
 10
46.92667914496527
 20
171.5564396701386
 10
46.92667914496527
 20
171.5564396701386
 10
46.94597167968749
 20
170.7843524305554
 10
46.96870930989581
 20
170.2639225260415
 10
46.99351399739582
 20
169.9951499565971
 10
47.01831868489581
 20
169.7257434895831
 10
47.0548366970486
 20
169.5057810329859
 10
47.10444607204859
 20
169.3358964843748
 10
47.10444607204859
 20
169.3358964843748
 10
48.73466525607638
 20
169.3358964843748
 10
48.73466525607638
 20
169.3358964843748
 10
48.73466525607638
 20
169.3358964843748
 10
48.73466525607638
 20
169.7821603732636
 10
48.73466525607638
 20
169.7821603732636
 10
48.53278266059028
 20
169.9609194878471
 10
48.39153374565971
 20
170.3628105468748
 10
48.31160753038194
 20
170.9878335503471
 10
48.26062011718749
 20
171.3542263454858
 10
48.22548014322915
 20
171.9120562065971
 10
48.20549858940971
 20
172.6625909288193
 10
48.20549858940971
 20
172.6625909288193
 10
48.16140136718749
 20
175.3205234374999
 10
48.16140136718749
 20
175.3205234374999
 10
48.14141981336803
 20
176.4716814236109
 10
48.03462185329859
 20
177.3033550347219
 10
47.84169650607638
 20
177.8142764756942
 10
47.64808213975693
 20
178.3251979166665
 10
47.35800509982638
 20
178.7372313368054
 10
46.97077636718749
 20
179.0516445312498
 10
47.4021023220486
 20
179.5086846788193
 10
47.73765462239582
 20
180.1134229600693
 10
47.97743326822915
 20
180.8664932725692
 10
48.21721191406249
 20
181.6189296874999
 10
48.33779025607638
 20
182.5868912760414
 10
48.33779025607638
 20
183.7697441406248
 10
48.33779025607638
 20
186.0371957465275
 10
47.89061686197916
 20
187.5921464843749
 10
46.99695909288194
 20
188.4345963541665
 10
46.52567003038194
 20
188.8732534722221
 10
45.92966851128472
 20
189.0932159288193
 10
45.20895453559027
 20
189.0932159288193
 10
45.20895453559027
 20
189.0932159288193
 10
40.79716525607638
 20
189.0932159288193
 10
40.79716525607638
 20
189.0932159288193
 10
40.79716525607638
 20
189.0932159288193
 10
40.79716525607638
 20
169.3358964843748
 10
40.79716525607638
 20
169.3358964843748
 97
        0
 75
     0
 76
     1
 98
        0
  0
HATCH
  5
26B8
330
26A8
100
AcDbEntity
  8
0
  6
Continuous
100
AcDbHatch
 10
0.0
 20
0.0
 30
0.0
210
0.0
220
0.0
230
1.0
  2
SOLID
 70
     1
 71
     1
 91
        1
 92
        1
 93
        1
 72
     4
 94
        3
 73
     0
 74
     0
 95
       59
 96
       55
 40
0.0
 40
0.0
 40
0.0
 40
0.0
 40
1.0
 40
1.0
 40
1.0
 40
2.0
 40
2.0
 40
2.0
 40
3.0
 40
3.0
 40
3.0
 40
4.0
 40
4.0
 40
4.0
 40
5.0
 40
5.0
 40
5.0
 40
6.0
 40
6.0
 40
6.0
 40
7.0
 40
7.0
 40
7.0
 40
8.0
 40
8.0
 40
8.0
 40
9.0
 40
9.0
 40
9.0
 40
10.0
 40
10.0
 40
10.0
 40
11.0
 40
11.0
 40
11.0
 40
12.0
 40
12.0
 40
12.0
 40
13.0
 40
13.0
 40
13.0
 40
14.0
 40
14.0
 40
14.0
 40
15.0
 40
15.0
 40
15.0
 40
16.0
 40
16.0
 40
16.0
 40
17.0
 40
17.0
 40
17.0
 40
18.0
 40
18.0
 40
18.0
 40
18.0
 10
85.61871880425345
 20
187.4658355034721
 10
86.29120144314233
 20
186.1797124565971
 10
86.66671685112847
 20
184.7193364800346
 10
86.7452650282118
 20
183.0840874565969
 10
86.7452650282118
 20
183.0840874565969
 10
85.42234836154511
 20
183.0840874565969
 10
85.42234836154511
 20
183.0840874565969
 10
85.27696533203123
 20
184.315640190972
 10
84.99171142578125
 20
185.2917046440971
 10
84.56589762369791
 20
186.0122808159719
 10
84.14008382161458
 20
186.7322368706595
 10
83.53994818793401
 20
187.092524956597
 10
82.76617974175344
 20
187.092524956597
 10
81.81740044487847
 20
187.092524956597
 10
81.05258924696178
 20
186.4240386284721
 10
80.47243516710068
 20
185.0883062065971
 10
79.89159206814234
 20
183.7525737847219
 10
79.6015150282118
 20
181.7049468315971
 10
79.6015150282118
 20
178.9454253472221
 10
79.6015150282118
 20
176.684478081597
 10
79.86265326605901
 20
174.8514116753471
 10
80.38561876085069
 20
173.4456060112846
 10
80.90789523654512
 20
172.0391802300345
 10
81.69199896918403
 20
171.3365874565971
 10
82.73724093967013
 20
171.3365874565971
 10
83.69497748480901
 20
171.3365874565971
 10
84.42120361328125
 20
172.0794878472221
 10
84.91523030598958
 20
173.566528862847
 10
85.18601481119791
 20
174.349116753472
 10
85.38445231119791
 20
175.3785112847221
 10
85.51054280598959
 20
176.6547124565971
 10
85.51054280598959
 20
176.6547124565971
 10
86.83345947265625
 20
176.6547124565971
 10
86.83345947265625
 20
176.6547124565971
 10
86.72597249348957
 20
174.6157671440971
 10
86.35114610460069
 20
172.9061040581596
 10
85.70760226779514
 20
171.526343315972
 10
84.93727891710069
 20
169.8650493706596
 10
83.90375027126735
 20
169.0347124565971
 10
82.60701633029514
 20
169.0347124565971
 10
81.48598225911458
 20
169.0347124565971
 10
80.54547119140625
 20
169.7143608940971
 10
79.78479410807292
 20
171.0742778862845
 10
78.78020426432292
 20
172.8726177300345
 10
78.27859836154512
 20
175.6495024956596
 10
78.27859836154512
 20
179.4049321831595
 10
78.27859836154512
 20
182.2562310112846
 10
78.65342475043402
 20
184.594692925347
 10
79.40445556640622
 20
186.4196978081596
 10
80.22301025390625
 20
188.4028325737846
 10
81.34955647786458
 20
189.3943999565971
 10
82.78271620008679
 20
189.3943999565971
 10
84.00090196397568
 20
189.3943999565971
 10
84.94623616536458
 20
188.7513384331595
 10
85.61871880425345
 20
187.4658355034721
 97
        1
330
26B1
 75
     0
 76
     1
 98
        1
 10
0.0
 20
0.0
  0
LINE
  5
26B9
102
{ACAD_REACTORS
330
26C8
102
}
330
26A8
100
AcDbEntity
  8
LAYER_1
 62
     7
100
AcDbLine
 10
34.65766059027778
 20
177.4497853732638
 30
0.0
 11
36.19830729166666
 21
186.1658769531249
 31
0.0
  0
LINE
  5
26BA
102
{ACAD_REACTORS
330
26C8
102
}
330
26A8
100
AcDbEntity
  8
LAYER_1
 62
     7
100
AcDbLine
 10
36.19830729166666
 20
186.1658769531249
 30
0.0
 11
37.67556423611111
 21
177.4497853732638
 31
0.0
  0
LINE
  5
26BB
102
{ACAD_REACTORS
330
26C8
102
}
330
26A8
100
AcDbEntity
  8
LAYER_1
 62
     7
100
AcDbLine
 10
37.67556423611111
 20
177.4497853732638
 30
0.0
 11
34.65766059027778
 21
177.4497853732638
 31
0.0
  0
LINE
  5
26BC
102
{ACAD_REACTORS
330
26C8
102
}
330
26A8
100
AcDbEntity
  8
LAYER_1
 62
     7
100
AcDbLine
 10
31.83957248263888
 20
169.3358964843748
 30
0.0
 11
33.22450086805555
 21
169.3358964843748
 31
0.0
  0
LINE
  5
26BD
102
{ACAD_REACTORS
330
26C8
102
}
330
26A8
100
AcDbEntity
  8
LAYER_1
 62
     7
100
AcDbLine
 10
33.22450086805555
 20
169.3358964843748
 30
0.0
 11
34.27043185763887
 21
175.2590353732638
 31
0.0
  0
LINE
  5
26BE
102
{ACAD_REACTORS
330
26C8
102
}
330
26A8
100
AcDbEntity
  8
LAYER_1
 62
     7
100
AcDbLine
 10
34.27043185763887
 20
175.2590353732638
 30
0.0
 11
38.04694552951389
 21
175.2590353732638
 31
0.0
  0
LINE
  5
26BF
102
{ACAD_REACTORS
330
26C8
102
}
330
26A8
100
AcDbEntity
  8
LAYER_1
 62
     7
100
AcDbLine
 10
38.04694552951389
 20
175.2590353732638
 30
0.0
 11
39.05015733506942
 21
169.3358964843748
 31
0.0
  0
LINE
  5
26C0
102
{ACAD_REACTORS
330
26C8
102
}
330
26A8
100
AcDbEntity
  8
LAYER_1
 62
     7
100
AcDbLine
 10
39.05015733506942
 20
169.3358964843748
 30
0.0
 11
40.43508572048611
 21
169.3358964843748
 31
0.0
  0
LINE
  5
26C1
102
{ACAD_REACTORS
330
26C8
102
}
330
26A8
100
AcDbEntity
  8
LAYER_1
 62
     7
100
AcDbLine
 10
40.43508572048611
 20
169.3358964843748
 30
0.0
 11
36.952783203125
 21
189.0932159288193
 31
0.0
  0
LINE
  5
26C2
102
{ACAD_REACTORS
330
26C8
102
}
330
26A8
100
AcDbEntity
  8
LAYER_1
 62
     7
100
AcDbLine
 10
36.952783203125
 20
189.0932159288193
 30
0.0
 11
35.47828233506943
 21
189.0932159288193
 31
0.0
  0
LINE
  5
26C3
102
{ACAD_REACTORS
330
26C8
102
}
330
26A8
100
AcDbEntity
  8
LAYER_1
 62
     7
100
AcDbLine
 10
35.47828233506943
 20
189.0932159288193
 30
0.0
 11
31.83957248263888
 21
169.3358964843748
 31
0.0
  0
HATCH
  5
26C4
330
26A8
100
AcDbEntity
  8
0
  6
Continuous
100
AcDbHatch
 10
0.0
 20
0.0
 30
0.0
210
0.0
220
0.0
230
1.0
  2
SOLID
 70
     1
 71
     1
 91
        2
 92
       16
 93
        1
 72
     4
 94
        3
 73
     0
 74
     0
 95
       29
 96
       25
 40
0.0
 40
0.0
 40
0.0
 40
0.0
 40
1.0
 40
1.0
 40
1.0
 40
2.0
 40
2.0
 40
2.0
 40
3.0
 40
3.0
 40
3.0
 40
4.0
 40
4.0
 40
4.0
 40
5.0
 40
5.0
 40
5.0
 40
6.0
 40
6.0
 40
6.0
 40
7.0
 40
7.0
 40
7.0
 40
8.0
 40
8.0
 40
8.0
 40
8.0
 10
62.85697292751734
 20
171.3365874565971
 10
61.88338894314235
 20
171.3365874565971
 10
61.18058946397566
 20
172.0714263237844
 10
60.74857449001735
 20
173.5411040581595
 10
60.31587049696178
 20
175.0107817925344
 10
60.10020751953123
 20
176.8165630425344
 10
60.10020751953123
 20
178.9578276909721
 10
60.10020751953123
 20
181.6342534722221
 10
60.35101047092013
 20
183.6589360894095
 10
60.85261637369789
 20
185.032495659722
 10
61.35422227647566
 20
186.4054351128471
 10
62.00741238064235
 20
187.092524956597
 10
62.81218668619789
 20
187.092524956597
 10
63.6369425455729
 20
187.092524956597
 10
64.28806559244789
 20
186.3992339409721
 10
64.76486680772568
 20
185.0126519097221
 10
65.24166802300347
 20
183.6260698784719
 10
65.48006863064235
 20
181.7961040581595
 10
65.48006863064235
 20
179.5239946831596
 10
65.48006863064235
 20
177.3734282769096
 10
65.27336290147568
 20
175.471528862847
 10
64.86132948133678
 20
173.8176763237846
 10
64.4492960611979
 20
172.1632036675345
 10
63.78094753689235
 20
171.3365874565971
 10
62.85697292751734
 20
171.3365874565971
 97
        1
330
26AE
 92
        1
 93
        1
 72
     4
 94
        3
 73
     0
 74
     0
 95
       29
 96
       25
 40
0.0
 40
0.0
 40
0.0
 40
0.0
 40
1.0
 40
1.0
 40
1.0
 40
2.0
 40
2.0
 40
2.0
 40
3.0
 40
3.0
 40
3.0
 40
4.0
 40
4.0
 40
4.0
 40
5.0
 40
5.0
 40
5.0
 40
6.0
 40
6.0
 40
6.0
 40
7.0
 40
7.0
 40
7.0
 40
8.0
 40
8.0
 40
8.0
 40
8.0
 10
62.76119927300346
 20
189.4340874565971
 10
61.47273356119789
 20
189.4340874565971
 10
60.50121663411457
 20
188.239741753472
 10
59.84733751085068
 20
185.8516704644094
 10
59.3395304361979
 20
183.9900786675345
 10
59.08597140842012
 20
181.7514556206596
 10
59.08597140842012
 20
179.1351812065971
 10
59.08597140842012
 20
176.2379937065971
 10
59.38362765842011
 20
173.8412407769095
 10
59.97894015842011
 20
171.9449224175346
 10
60.64246554904511
 20
169.9779106987846
 10
61.56023898654511
 20
168.9950249565971
 10
62.7315714518229
 20
168.9950249565971
 10
63.9904093424479
 20
168.9950249565971
 10
64.95641411675345
 20
170.118677300347
 10
65.63027479383679
 20
172.3659819878471
 10
66.20629475911457
 20
174.279663628472
 10
66.49430474175345
 20
176.6813774956594
 10
66.49430474175345
 20
179.5698833550345
 10
66.49430474175345
 20
182.2388677300344
 10
66.24005669487845
 20
184.4291216362844
 10
65.73293863932289
 20
186.141265190972
 10
65.08870578342011
 20
188.336480034722
 10
64.09789632161457
 20
189.4340874565971
 10
62.76119927300346
 20
189.4340874565971
 97
        0
 75
     0
 76
     1
 98
        0
  0
HATCH
  5
26C5
330
26A8
100
AcDbEntity
  8
0
  6
Continuous
100
AcDbHatch
 10
0.0
 20
0.0
 30
0.0
210
0.0
220
0.0
230
1.0
  2
SOLID
 70
     1
 71
     1
 91
        1
 92
        1
 93
        1
 72
     4
 94
        3
 73
     0
 74
     0
 95
       59
 96
       55
 40
0.0
 40
0.0
 40
0.0
 40
0.0
 40
1.0
 40
1.0
 40
1.0
 40
2.0
 40
2.0
 40
2.0
 40
3.0
 40
3.0
 40
3.0
 40
4.0
 40
4.0
 40
4.0
 40
5.0
 40
5.0
 40
5.0
 40
6.0
 40
6.0
 40
6.0
 40
7.0
 40
7.0
 40
7.0
 40
8.0
 40
8.0
 40
8.0
 40
9.0
 40
9.0
 40
9.0
 40
10.0
 40
10.0
 40
10.0
 40
11.0
 40
11.0
 40
11.0
 40
12.0
 40
12.0
 40
12.0
 40
13.0
 40
13.0
 40
13.0
 40
14.0
 40
14.0
 40
14.0
 40
15.0
 40
15.0
 40
15.0
 40
16.0
 40
16.0
 40
16.0
 40
17.0
 40
17.0
 40
17.0
 40
18.0
 40
18.0
 40
18.0
 40
18.0
 10
49.39440104166666
 20
189.0932159288193
 10
49.39440104166666
 20
189.0932159288193
 10
51.24786241319444
 20
189.0932159288193
 10
51.24786241319444
 20
189.0932159288193
 10
51.24786241319444
 20
189.0932159288193
 10
54.04665798611111
 20
172.3887471788193
 10
54.04665798611111
 20
172.3887471788193
 10
54.04665798611111
 20
172.3887471788193
 10
56.83994140624999
 20
189.0932159288193
 10
56.83994140624999
 20
189.0932159288193
 10
56.83994140624999
 20
189.0932159288193
 10
58.69891493055554
 20
189.0932159288193
 10
58.69891493055554
 20
189.0932159288193
 10
58.69891493055554
 20
189.0932159288193
 10
58.69891493055554
 20
169.3358964843748
 10
58.69891493055554
 20
169.3358964843748
 10
58.69891493055554
 20
169.3358964843748
 10
57.46419270833333
 20
169.3358964843748
 10
57.46419270833333
 20
169.3358964843748
 10
57.46419270833333
 20
169.3358964843748
 10
57.46419270833333
 20
180.9964422743054
 10
57.46419270833333
 20
180.9964422743054
 10
57.46419270833333
 20
181.3996011284721
 10
57.47108289930555
 20
182.0677291666664
 10
57.48624131944444
 20
183.0001924913193
 10
57.50071072048609
 20
183.9326558159721
 10
57.50828993055554
 20
184.932312282986
 10
57.50828993055554
 20
185.9997957899304
 10
57.50828993055554
 20
185.9997957899304
 10
54.700537109375
 20
169.3358964843748
 10
54.700537109375
 20
169.3358964843748
 10
54.700537109375
 20
169.3358964843748
 10
53.38382161458333
 20
169.3358964843748
 10
53.38382161458333
 20
169.3358964843748
 10
53.38382161458333
 20
169.3358964843748
 10
50.58502604166665
 20
185.9997957899304
 10
50.58502604166665
 20
185.9997957899304
 10
50.58502604166665
 20
185.9997957899304
 10
50.58502604166665
 20
185.3944236111109
 10
50.58502604166665
 20
185.3944236111109
 10
50.58502604166665
 20
184.9101258680554
 10
50.59191623263888
 20
184.1729029947915
 10
50.60707465277777
 20
183.1821210937498
 10
50.62154405381943
 20
182.1913391927082
 10
50.62912326388889
 20
181.4629908854165
 10
50.62912326388889
 20
180.9964422743054
 10
50.62912326388889
 20
180.9964422743054
 10
50.62912326388889
 20
169.3358964843748
 10
50.62912326388889
 20
169.3358964843748
 10
50.62912326388889
 20
169.3358964843748
 10
49.39440104166666
 20
169.3358964843748
 10
49.39440104166666
 20
169.3358964843748
 10
49.39440104166666
 20
169.3358964843748
 10
49.39440104166666
 20
189.0932159288193
 10
49.39440104166666
 20
189.0932159288193
 97
        1
330
26AD
 75
     0
 76
     1
 98
        1
 10
0.0
 20
0.0
  0
HATCH
  5
26C6
330
26A8
100
AcDbEntity
  8
0
  6
Continuous
100
AcDbHatch
 10
0.0
 20
0.0
 30
0.0
210
0.0
220
0.0
230
1.0
  2
SOLID
 70
     1
 71
     1
 91
        2
 92
       16
 93
        1
 72
     4
 94
        3
 73
     0
 74
     0
 95
       32
 96
       28
 40
0.0
 40
0.0
 40
0.0
 40
0.0
 40
1.0
 40
1.0
 40
1.0
 40
2.0
 40
2.0
 40
2.0
 40
3.0
 40
3.0
 40
3.0
 40
4.0
 40
4.0
 40
4.0
 40
5.0
 40
5.0
 40
5.0
 40
6.0
 40
6.0
 40
6.0
 40
7.0
 40
7.0
 40
7.0
 40
8.0
 40
8.0
 40
8.0
 40
9.0
 40
9.0
 40
9.0
 40
9.0
 10
91.70051812065969
 20
171.6077853732636
 10
91.70051812065969
 20
171.6077853732636
 10
91.70051812065969
 20
186.7401881510414
 10
91.70051812065969
 20
186.7401881510414
 10
91.70051812065969
 20
186.7401881510414
 10
93.98668348524305
 20
186.7401881510414
 10
93.98668348524305
 20
186.7401881510414
 10
95.02159016927082
 20
186.7401881510414
 10
95.77331000434028
 20
186.0644533420137
 10
96.24322102864582
 20
184.7142515190969
 10
96.71313205295138
 20
183.3640496961804
 10
96.94808756510417
 20
181.4680620659721
 10
96.94808756510417
 20
179.026288628472
 10
96.94808756510417
 20
178.3911232638887
 10
96.91432562934028
 20
177.7027105034721
 10
96.84749077690971
 20
176.9604164496525
 10
96.7324245876736
 20
175.7167094184025
 10
96.55052354600693
 20
174.6974021267359
 10
96.30109863281248
 20
173.9018606770831
 10
95.98414984809028
 20
172.9091770833332
 10
95.57693956163193
 20
172.2378795572914
 10
95.07877875434026
 20
171.8892358940971
 10
94.79076877170138
 20
171.7016022135415
 10
94.43178982204859
 20
171.6077853732636
 10
94.00115288628471
 20
171.6077853732636
 10
94.00115288628471
 20
171.6077853732636
 10
91.70051812065969
 20
171.6077853732636
 10
91.70051812065969
 20
171.6077853732636
 97
        1
330
26B2
 92
        1
 93
        1
 72
     4
 94
        3
 73
     0
 74
     0
 95
       26
 96
       22
 40
0.0
 40
0.0
 40
0.0
 40
0.0
 40
1.0
 40
1.0
 40
1.0
 40
2.0
 40
2.0
 40
2.0
 40
3.0
 40
3.0
 40
3.0
 40
4.0
 40
4.0
 40
4.0
 40
5.0
 40
5.0
 40
5.0
 40
6.0
 40
6.0
 40
6.0
 40
7.0
 40
7.0
 40
7.0
 40
7.0
 10
90.37760145399305
 20
169.3358964843748
 10
90.37760145399305
 20
169.3358964843748
 10
94.22990722656248
 20
169.3358964843748
 10
94.22990722656248
 20
169.3358964843748
 10
95.87115071614581
 20
169.3358964843748
 10
97.03008083767359
 20
170.8331625434026
 10
97.70600857204859
 20
173.8283285590275
 10
98.08221299913194
 20
175.5227367621525
 10
98.27100423177082
 20
177.4187243923609
 10
98.27100423177082
 20
179.5169253472221
 10
98.27100423177082
 20
182.233810329861
 10
97.94716525607638
 20
184.4619602864582
 10
97.30086534288195
 20
186.2013752170136
 10
96.57601725260416
 20
188.1290577256942
 10
95.5576470269097
 20
189.0932159288193
 10
94.24437662760416
 20
189.0932159288193
 10
94.24437662760416
 20
189.0932159288193
 10
90.37760145399305
 20
189.0932159288193
 10
90.37760145399305
 20
189.0932159288193
 10
90.37760145399305
 20
189.0932159288193
 10
90.37760145399305
 20
169.3358964843748
 10
90.37760145399305
 20
169.3358964843748
 97
        0
 75
     0
 76
     1
 98
        0
  0
HATCH
  5
26C7
330
26A8
100
AcDbEntity
  8
0
  6
Continuous
100
AcDbHatch
 10
0.0
 20
0.0
 30
0.0
210
0.0
220
0.0
230
1.0
  2
SOLID
 70
     1
 71
     1
 91
        2
 92
       16
 93
        1
 72
     4
 94
        3
 73
     0
 74
     0
 95
       26
 96
       22
 40
0.0
 40
0.0
 40
0.0
 40
0.0
 40
1.0
 40
1.0
 40
1.0
 40
2.0
 40
2.0
 40
2.0
 40
3.0
 40
3.0
 40
3.0
 40
4.0
 40
4.0
 40
4.0
 40
5.0
 40
5.0
 40
5.0
 40
6.0
 40
6.0
 40
6.0
 40
7.0
 40
7.0
 40
7.0
 40
7.0
 10
100.5623372395832
 20
180.0462298177081
 10
100.5623372395832
 20
180.0462298177081
 10
100.5623372395832
 20
186.7401881510414
 10
100.5623372395832
 20
186.7401881510414
 10
100.5623372395832
 20
186.7401881510414
 10
103.6732584635416
 20
186.7401881510414
 10
103.6732584635416
 20
186.7401881510414
 10
104.1107855902777
 20
186.7401881510414
 10
104.4580512152777
 20
186.6064357638887
 10
104.7150553385415
 20
186.3401987847219
 10
105.2097710503471
 20
185.8330807291664
 10
105.4571289062498
 20
184.8822343749997
 10
105.4571289062498
 20
183.4863919270832
 10
105.4571289062498
 20
182.188169704861
 10
105.280740017361
 20
181.2905707465276
 10
104.9286512586804
 20
180.7929611545137
 10
104.5765624999999
 20
180.2947176649304
 10
104.1011393229166
 20
180.0462298177081
 10
103.5023817274304
 20
180.0462298177081
 10
103.5023817274304
 20
180.0462298177081
 10
100.5623372395832
 20
180.0462298177081
 10
100.5623372395832
 20
180.0462298177081
 97
        1
330
26B3
 92
        1
 93
        1
 72
     4
 94
        3
 73
     0
 74
     0
 95
       68
 96
       64
 40
0.0
 40
0.0
 40
0.0
 40
0.0
 40
1.0
 40
1.0
 40
1.0
 40
2.0
 40
2.0
 40
2.0
 40
3.0
 40
3.0
 40
3.0
 40
4.0
 40
4.0
 40
4.0
 40
5.0
 40
5.0
 40
5.0
 40
6.0
 40
6.0
 40
6.0
 40
7.0
 40
7.0
 40
7.0
 40
8.0
 40
8.0
 40
8.0
 40
9.0
 40
9.0
 40
9.0
 40
10.0
 40
10.0
 40
10.0
 40
11.0
 40
11.0
 40
11.0
 40
12.0
 40
12.0
 40
12.0
 40
13.0
 40
13.0
 40
13.0
 40
14.0
 40
14.0
 40
14.0
 40
15.0
 40
15.0
 40
15.0
 40
16.0
 40
16.0
 40
16.0
 40
17.0
 40
17.0
 40
17.0
 40
18.0
 40
18.0
 40
18.0
 40
19.0
 40
19.0
 40
19.0
 40
20.0
 40
20.0
 40
20.0
 40
21.0
 40
21.0
 40
21.0
 40
21.0
 10
99.23942057291661
 20
169.3358964843748
 10
99.23942057291661
 20
169.3358964843748
 10
100.5623372395832
 20
169.3358964843748
 10
100.5623372395832
 20
169.3358964843748
 10
100.5623372395832
 20
169.3358964843748
 10
100.5623372395832
 20
177.8149103732637
 10
100.5623372395832
 20
177.8149103732637
 10
100.5623372395832
 20
177.8149103732637
 10
103.4472601996527
 20
177.8149103732637
 10
103.4472601996527
 20
177.8149103732637
 10
103.9681586371527
 20
177.8149103732637
 10
104.3519422743053
 20
177.6938359374998
 10
104.5986111111109
 20
177.451687065972
 10
105.0244249131943
 20
177.0117621527776
 10
105.2518012152777
 20
176.1458580729164
 10
105.280740017361
 20
174.8539748263887
 10
105.280740017361
 20
174.8539748263887
 10
105.3689344618053
 20
171.5564396701386
 10
105.3689344618053
 20
171.5564396701386
 10
105.3882269965277
 20
170.7843524305554
 10
105.4109646267359
 20
170.2639225260415
 10
105.4357693142359
 20
169.9951499565971
 10
105.4605740017359
 20
169.7257434895831
 10
105.4970920138888
 20
169.5057810329859
 10
105.5467013888887
 20
169.3358964843748
 10
105.5467013888887
 20
169.3358964843748
 10
107.1769205729166
 20
169.3358964843748
 10
107.1769205729166
 20
169.3358964843748
 10
107.1769205729166
 20
169.3358964843748
 10
107.1769205729166
 20
169.7821603732636
 10
107.1769205729166
 20
169.7821603732636
 10
106.9750379774303
 20
169.9609194878471
 10
106.8337890624998
 20
170.3628105468748
 10
106.7538628472221
 20
170.9878335503471
 10
106.7028754340275
 20
171.3542263454858
 10
106.6677354600692
 20
171.9120562065971
 10
106.6477539062498
 20
172.6625909288193
 10
106.6477539062498
 20
172.6625909288193
 10
106.6036566840277
 20
175.3205234374999
 10
106.6036566840277
 20
175.3205234374999
 10
106.5836751302082
 20
176.4716814236109
 10
106.4768771701387
 20
177.3033550347219
 10
106.2839518229166
 20
177.8142764756942
 10
106.0903374565971
 20
178.3251979166665
 10
105.8002604166666
 20
178.7372313368054
 10
105.4130316840277
 20
179.0516445312498
 10
105.8443576388887
 20
179.5086846788193
 10
106.179909939236
 20
180.1134229600693
 10
106.4196885850692
 20
180.8664932725692
 10
106.6594672309027
 20
181.6189296874999
 10
106.7800455729166
 20
182.5868912760414
 10
106.7800455729166
 20
183.7697441406248
 10
106.7800455729166
 20
186.0371957465275
 10
106.3328721788193
 20
187.5921464843749
 10
105.4392144097221
 20
188.4345963541665
 10
104.9679253472221
 20
188.8732534722221
 10
104.3719238281249
 20
189.0932159288193
 10
103.6512098524303
 20
189.0932159288193
 10
103.6512098524303
 20
189.0932159288193
 10
99.23942057291661
 20
189.0932159288193
 10
99.23942057291661
 20
189.0932159288193
 10
99.23942057291661
 20
189.0932159288193
 10
99.23942057291661
 20
169.3358964843748
 10
99.23942057291661
 20
169.3358964843748
 97
        0
 75
     0
 76
     1
 98
        0
  0
HATCH
  5
26C8
330
26A8
100
AcDbEntity
  8
0
  6
Continuous
100
AcDbHatch
 10
0.0
 20
0.0
 30
0.0
210
0.0
220
0.0
230
1.0
  2
SOLID
 70
     1
 71
     1
 91
        2
 92
        1
 93
        8
 72
     1
 10
35.47828233506943
 20
189.0932159288193
 11
31.83957248263888
 21
169.3358964843748
 72
     1
 10
31.83957248263888
 20
169.3358964843748
 11
33.22450086805555
 21
169.3358964843748
 72
     1
 10
33.22450086805555
 20
169.3358964843748
 11
34.27043185763887
 21
175.2590353732638
 72
     1
 10
34.27043185763887
 20
175.2590353732638
 11
38.04694552951389
 21
175.2590353732638
 72
     1
 10
38.04694552951389
 20
175.2590353732638
 11
39.05015733506942
 21
169.3358964843748
 72
     1
 10
39.05015733506942
 20
169.3358964843748
 11
40.43508572048611
 21
169.3358964843748
 72
     1
 10
40.43508572048611
 20
169.3358964843748
 11
36.952783203125
 21
189.0932159288193
 72
     1
 10
36.952783203125
 20
189.0932159288193
 11
35.47828233506943
 21
189.0932159288193
 97
        8
330
26C3
330
26BC
330
26BD
330
26BE
330
26BF
330
26C0
330
26C1
330
26C2
 92
       16
 93
        3
 72
     1
 10
37.67556423611111
 20
177.4497853732638
 11
34.65766059027778
 21
177.4497853732638
 72
     1
 10
34.65766059027778
 20
177.4497853732638
 11
36.19830729166666
 21
186.1658769531249
 72
     1
 10
36.19830729166666
 20
186.1658769531249
 11
37.67556423611111
 21
177.4497853732638
 97
        3
330
26BB
330
26B9
330
26BA
 75
     0
 76
     1
 98
        1
 10
0.0
 20
0.0
  0
HATCH
  5
26C9
330
26A8
100
AcDbEntity
  8
0
  6
Continuous
100
AcDbHatch
 10
0.0
 20
0.0
 30
0.0
210
0.0
220
0.0
230
1.0
  2
SOLID
 70
     1
 71
     1
 91
        1
 92
        1
 93
        1
 72
     4
 94
        3
 73
     0
 74
     0
 95
      113
 96
      109
 40
0.0
 40
0.0
 40
0.0
 40
0.0
 40
1.0
 40
1.0
 40
1.0
 40
2.0
 40
2.0
 40
2.0
 40
3.0
 40
3.0
 40
3.0
 40
4.0
 40
4.0
 40
4.0
 40
5.0
 40
5.0
 40
5.0
 40
6.0
 40
6.0
 40
6.0
 40
7.0
 40
7.0
 40
7.0
 40
8.0
 40
8.0
 40
8.0
 40
9.0
 40
9.0
 40
9.0
 40
10.0
 40
10.0
 40
10.0
 40
11.0
 40
11.0
 40
11.0
 40
12.0
 40
12.0
 40
12.0
 40
13.0
 40
13.0
 40
13.0
 40
14.0
 40
14.0
 40
14.0
 40
15.0
 40
15.0
 40
15.0
 40
16.0
 40
16.0
 40
16.0
 40
17.0
 40
17.0
 40
17.0
 40
18.0
 40
18.0
 40
18.0
 40
19.0
 40
19.0
 40
19.0
 40
20.0
 40
20.0
 40
20.0
 40
21.0
 40
21.0
 40
21.0
 40
22.0
 40
22.0
 40
22.0
 40
23.0
 40
23.0
 40
23.0
 40
24.0
 40
24.0
 40
24.0
 40
25.0
 40
25.0
 40
25.0
 40
26.0
 40
26.0
 40
26.0
 40
27.0
 40
27.0
 40
27.0
 40
28.0
 40
28.0
 40
28.0
 40
29.0
 40
29.0
 40
29.0
 40
30.0
 40
30.0
 40
30.0
 40
31.0
 40
31.0
 40
31.0
 40
32.0
 40
32.0
 40
32.0
 40
33.0
 40
33.0
 40
33.0
 40
34.0
 40
34.0
 40
34.0
 40
35.0
 40
35.0
 40
35.0
 40
36.0
 40
36.0
 40
36.0
 40
36.0
 10
193.3039632161458
 20
186.1548733181423
 10
193.3039632161458
 20
186.1860514322916
 10
193.3039632161458
 20
219.6932223849826
 10
193.3039632161458
 20
219.6932223849826
 10
193.3039632161458
 20
219.6932223849826
 10
193.2974175347219
 20
219.7488606770833
 10
193.2974175347219
 20
219.7488606770833
 10
191.5293945312499
 20
235.455740017361
 10
175.1458984374999
 20
235.2467949761284
 10
174.9808783637151
 20
235.2428331163193
 10
174.9808783637151
 20
235.2428331163193
 10
125.8827555338541
 20
235.2430053710937
 10
125.8827555338541
 20
235.2430053710937
 10
125.8827555338541
 20
235.2430053710937
 10
125.8827555338541
 20
255.5278998480901
 10
125.8827555338541
 20
255.5278998480901
 10
125.8827555338541
 20
255.5278998480901
 10
84.5626247829861
 20
255.5278998480901
 10
84.5626247829861
 20
255.5278998480901
 10
84.5626247829861
 20
255.5278998480901
 10
84.55711263020829
 20
233.7919311523436
 10
84.55711263020829
 20
233.7919311523436
 10
84.55711263020829
 20
233.7919311523436
 10
64.42052951388888
 20
233.7919311523436
 10
64.42052951388888
 20
233.7919311523436
 10
64.42052951388888
 20
233.7919311523436
 10
64.41501736111111
 20
255.5278998480901
 10
64.41501736111111
 20
255.5278998480901
 10
64.41501736111111
 20
255.5278998480901
 10
23.91757541232637
 20
255.5278998480901
 10
23.91757541232637
 20
255.5278998480901
 10
23.91757541232637
 20
255.5278998480901
 10
23.91757541232637
 20
233.2393378363715
 10
23.91757541232637
 20
233.2393378363715
 10
23.91757541232637
 20
233.2393378363715
 10
43.65624999999999
 20
233.2393378363715
 10
43.65624999999999
 20
233.2393378363715
 10
43.65624999999999
 20
233.2393378363715
 10
43.65624999999999
 20
211.5188720703125
 10
43.65624999999999
 20
211.5188720703125
 10
43.65624999999999
 20
211.5188720703125
 10
23.91757541232637
 20
211.5188720703125
 10
23.91757541232637
 20
211.5188720703125
 10
23.91757541232637
 20
211.5188720703125
 10
23.91757541232637
 20
189.2303100585936
 10
23.91757541232637
 20
189.2303100585936
 10
23.91757541232637
 20
189.2303100585936
 10
64.41501736111111
 20
189.2303100585936
 10
64.41501736111111
 20
189.2303100585936
 10
64.41501736111111
 20
189.2303100585936
 10
64.42052951388888
 20
211.069976128472
 10
64.42052951388888
 20
211.069976128472
 10
64.42052951388888
 20
211.069976128472
 10
84.55711263020829
 20
211.069976128472
 10
84.55711263020829
 20
211.069976128472
 10
84.55711263020829
 20
211.069976128472
 10
84.5626247829861
 20
189.2303100585936
 10
84.5626247829861
 20
189.2303100585936
 10
84.5626247829861
 20
189.2303100585936
 10
125.8827555338541
 20
189.2303100585936
 10
125.8827555338541
 20
189.2303100585936
 10
125.8827555338541
 20
189.2303100585936
 10
125.8827555338541
 20
211.5188720703125
 10
125.8827555338541
 20
211.5188720703125
 10
125.8827555338541
 20
211.5188720703125
 10
105.3213921440971
 20
211.5188720703125
 10
105.3213921440971
 20
211.5188720703125
 10
105.3213921440971
 20
211.5188720703125
 10
105.3213921440971
 20
233.2393378363715
 10
105.3213921440971
 20
233.2393378363715
 10
105.3213921440971
 20
233.2393378363715
 10
175.0046495225693
 20
233.243127441406
 10
175.0046495225693
 20
233.243127441406
 10
175.6268337673611
 20
233.2560465494791
 10
189.7165852864583
 20
233.3962619357638
 10
191.3037407769094
 20
219.5690266927083
 10
191.3037407769094
 20
219.4332899305555
 10
191.3037407769094
 20
186.1142211914062
 10
191.3037407769094
 20
186.1142211914062
 10
191.3037407769094
 20
186.1142211914062
 10
191.3051188151039
 20
186.0880384657115
 10
191.3051188151039
 20
186.0880384657115
 10
191.3054633246526
 20
186.0787367078991
 10
191.3109754774304
 20
185.9566080729166
 10
191.3109754774304
 20
185.7399115668401
 10
191.3109754774304
 20
184.2090833875865
 10
191.0488037109374
 20
177.9643310546874
 10
186.9866916232638
 20
173.5652886284722
 10
184.2540418836804
 20
170.6064683702255
 10
180.3224989149304
 20
169.0308539496526
 10
175.300927734375
 20
168.8825425889756
 10
175.300927734375
 20
168.8825425889756
 10
107.0094889322916
 20
168.8828870985243
 10
107.0094889322916
 20
168.8828870985243
 10
107.0094889322916
 20
168.8828870985243
 10
107.0094889322916
 20
166.8830091688368
 10
107.0094889322916
 20
166.8830091688368
 10
107.0094889322916
 20
166.8830091688368
 10
175.3305555555555
 20
166.8830091688368
 10
175.3305555555555
 20
166.8830091688368
 10
180.9467502170138
 20
167.0485460069444
 10
185.3571614583333
 20
168.8448187934026
 10
188.4687717013888
 20
172.2223904079861
 10
192.9649658203124
 20
177.1034016927083
 10
193.3136094835069
 20
183.7202243381076
 10
193.3136094835069
 20
185.6520616319443
 10
193.3136094835069
 20
185.9247409396701
 10
193.3070638020833
 20
186.0868326822916
 10
193.3039632161458
 20
186.1548733181423
 97
        1
330
26A9
 75
     0
 76
     1
 98
        1
 10
0.0
 20
0.0
  0
HATCH
  5
26CA
330
26A8
100
AcDbEntity
  8
0
  6
Continuous
100
AcDbHatch
 10
0.0
 20
0.0
 30
0.0
210
0.0
220
0.0
230
1.0
  2
SOLID
 70
     1
 71
     1
 91
        2
 92
        1
 93
        1
 72
     4
 94
        3
 73
     0
 74
     0
 95
       23
 96
       19
 40
0.0
 40
0.0
 40
0.0
 40
0.0
 40
1.0
 40
1.0
 40
1.0
 40
2.0
 40
2.0
 40
2.0
 40
3.0
 40
3.0
 40
3.0
 40
4.0
 40
4.0
 40
4.0
 40
5.0
 40
5.0
 40
5.0
 40
6.0
 40
6.0
 40
6.0
 40
6.0
 10
148.6593153211804
 20
211.3929538302949
 10
148.6593153211804
 20
211.3929538302949
 10
148.6593153211804
 20
189.630802408854
 10
148.6593153211804
 20
189.630802408854
 10
148.6593153211804
 20
189.630802408854
 10
161.3152180989583
 20
189.630802408854
 10
161.3152180989583
 20
189.630802408854
 10
162.8431179470484
 20
189.630802408854
 10
170.4657362196179
 20
190.1880466037324
 10
170.4657362196179
 20
201.1911648220484
 10
170.4657362196179
 20
211.1288872612845
 10
162.3356553819444
 20
211.3914035373261
 10
162.2536621093749
 20
211.3927815755205
 10
162.2536621093749
 20
211.3927815755205
 10
149.6594265407986
 20
211.3929538302949
 10
149.6594265407986
 20
211.3929538302949
 10
149.6594265407986
 20
211.3929538302949
 10
148.6593153211804
 20
211.3929538302949
 10
148.6593153211804
 20
211.3929538302949
 97
        1
330
26AA
 92
       16
 93
        1
 72
     4
 94
        3
 73
     0
 74
     0
 95
       20
 96
       16
 40
0.0
 40
0.0
 40
0.0
 40
0.0
 40
1.0
 40
1.0
 40
1.0
 40
2.0
 40
2.0
 40
2.0
 40
3.0
 40
3.0
 40
3.0
 40
4.0
 40
4.0
 40
4.0
 40
5.0
 40
5.0
 40
5.0
 40
5.0
 10
162.2354031032985
 20
209.3930759006075
 10
162.467947048611
 20
209.3861857096352
 10
168.4655137803819
 20
209.1283203124997
 10
168.4655137803819
 20
201.1911648220484
 10
168.4655137803819
 20
192.3202162000866
 10
162.9926350911458
 20
191.6306803385414
 10
161.3152180989583
 20
191.6306803385414
 10
161.3152180989583
 20
191.6306803385414
 10
152.3310980902776
 20
191.6306803385414
 10
150.6595377604166
 20
191.6306803385414
 10
150.6595377604166
 20
193.3373806423609
 10
150.6595377604166
 20
207.686375596788
 10
150.6595377604166
 20
209.3930759006075
 10
152.353835720486
 20
209.3930759006075
 10
162.2354031032985
 20
209.3930759006075
 10
162.2354031032985
 20
209.3930759006075
 97
        0
 75
     0
 76
     1
 98
        0
  0
ENDBLK
  5
26CC
330
26A8
100
AcDbEntity
  8
0
100
AcDbBlockEnd
  0
BLOCK
  5
26CF
330
26CD
100
AcDbEntity
  8
0
100
AcDbBlockBegin
  2
HD logo-new
 70
     0
 10
0.0
 20
0.0
 30
0.0
  3
HD logo-new
  1

  0
INSERT
  5
26CE
330
26CD
100
AcDbEntity
  8
0
 62
     3
100
AcDbBlockReference
  2
HD_LLC_logo_OT5
 10
-27.1607188578505
 20
-68.37367811463031
 30
0.0
 41
0.2999999999999971
 42
0.3000000000000007
 43
0.3
  0
ENDBLK
  5
26D0
330
26CD
100
AcDbEntity
  8
0
100
AcDbBlockEnd
  0
BLOCK
  5
26D3
330
26D1
100
AcDbEntity
  8
0
100
AcDbBlockBegin
  2
HD Logo
 70
     0
 10
0.0
 20
0.0
 30
0.0
  3
HD Logo
  1

  0
INSERT
  5
26D2
330
26D1
100
AcDbEntity
  8
0
100
AcDbBlockReference
  2
HD logo-new
 10
0.9700256734946606
 20
7.273795608420527
 30
0.0
  0
ENDBLK
  5
26D4
330
26D1
100
AcDbEntity
  8
0
100
AcDbBlockEnd
  0
BLOCK
  5
26EB
330
26E9
100
AcDbEntity
  8
0
100
AcDbBlockBegin
  2
Harmonic Drive LLC
 70
     0
 10
0.0
 20
0.0
 30
0.0
  3
Harmonic Drive LLC
  1

  0
MTEXT
  5
26EA
330
26E9
100
AcDbEntity
  8
0
100
AcDbMText
 10
8.730232253264317
 20
-1.454758693481394
 30
0.0
 40
5.25
 41
158.5992
 71
     5
 72
     5
  1
{\fArial|b0|i0|c0|p34;Harmonic Drive LLC\P800-921-3332\Pwww.harmonicdrive.net}
 73
     1
 44
1.0
  0
ENDBLK
  5
26EC
330
26E9
100
AcDbEntity
  8
0
100
AcDbBlockEnd
  0
BLOCK
  5
26FE
330
26FC
100
AcDbEntity
  8
0
100
AcDbBlockBegin
  2
HD LLC
 70
     0
 10
0.0
 20
0.0
 30
0.0
  3
HD LLC
  1

  0
MTEXT
  5
26FD
330
26FC
100
AcDbEntity
  8
0
100
AcDbMText
 10
-2.314970886968865
 20
1.247205085865914
 30
0.0
 40
5.675387507387601
 41
236.1828726592229
 71
     5
 72
     5
  1
Harmonic Drive LLC\P800-921-3332\Pwww.harmonicdrive.net
 73
     1
 44
1.0
  0
ENDBLK
  5
26FF
330
26FC
100
AcDbEntity
  8
0
100
AcDbBlockEnd
  0
BLOCK
  5
2709
330
2706
100
AcDbEntity
  8
0
100
AcDbBlockBegin
  2
NTC
 70
     0
 10
0.0
 20
0.0
 30
0.0
  3
NTC
  1

  0
LWPOLYLINE
  5
2707
330
2706
100
AcDbEntity
  8
0
100
AcDbPolyline
 90
        8
 70
     1
 43
0.0
 10
4.581008201925953
 20
-10.78862239032818
 10
319.3921777697513
 20
-10.78862239032818
 42
-0.4142135623730951
 10
324.9046777697513
 20
-16.30112239032816
 10
324.9046777697513
 20
-117.4075202476924
 42
-0.4142135623730951
 10
319.3921777697513
 20
-122.9200202476925
 10
4.581008201925838
 20
-122.9200202476925
 42
-0.4142135623730951
 10
-0.9314917980741483
 20
-117.4075202476924
 10
-0.9314917980740915
 20
-16.30112239032816
 42
-0.4142135623730951
  0
MTEXT
  5
2708
330
2706
100
AcDbEntity
  8
0
  6
Continuous
370
    30
100
AcDbMText
 10
21.65307678143926
 20
-17.4535155144544
 30
0.0
 40
8.75
 41
294.5432999999998
 71
     1
 72
     5
  3
{\fTxt|b1|i0|c0|p2;Notice:\P\Ftxt.shx;\H0.5714x;All specifications and dimensions shown in the drawing are subject to change without notice. This drawing is the property of Harmonic Drive LLC.   This data is believed to be accurate, however, Harmonic
  1
 Drive LLC assumes no liability for any errors or omissions in the specifications, models, or drawings.\P\PHarmonic Drive LLC\PTel: 800-921-3332\Pwww.harmonicdrive.net}
 73
     1
 44
1.0
  0
ENDBLK
  5
270A
330
2706
100
AcDbEntity
  8
0
100
AcDbBlockEnd
  0
ENDSEC
  0
SECTION
  2
ENTITIES
  0
LINE
  5
2486
330
2462
100
AcDbEntity
  8
1
 62
     7
100
AcDbLine
 10
205.0999998605989
 20
226.3306573216377
 30
0.0
 11
207.2946122592973
 21
226.3306573216377
 31
0.0
  0
LINE
  5
2487
330
2462
100
AcDbEntity
  8
1
 62
     7
100
AcDbLine
 10
211.0724997708757
 20
226.3306573216377
 30
0.0
 11
208.7553873740159
 21
226.3306573216377
 31
0.0
  0
LINE
  5
2488
330
2462
100
AcDbEntity
  8
1
 62
     7
100
AcDbLine
 10
208.7553873740159
 20
253.0006569210591
 30
0.0
 11
211.0724997708757
 21
253.0006569210591
 31
0.0
  0
LINE
  5
2489
330
2462
100
AcDbEntity
  8
1
 62
     7
100
AcDbLine
 10
204.9774998624304
 20
253.0006569210591
 30
0.0
 11
207.2946122592973
 21
253.0006569210591
 31
0.0
  0
LINE
  5
248A
330
2462
100
AcDbEntity
  8
1
  6
CENTER
 62
     3
100
AcDbLine
 10
186.5087718307754
 20
239.6656571213409
 30
0.0
 11
218.1249998166455
 21
239.6656571213409
 31
0.0
  0
LINE
  5
248B
330
2462
100
AcDbEntity
  8
1
  6
CENTER
 62
     3
100
AcDbLine
 10
252.9513744808628
 20
239.6656571213409
 30
0.0
 11
307.3513743967366
 21
239.6656571213409
 31
0.0
  0
LINE
  5
248C
330
2462
100
AcDbEntity
  8
1
 62
     7
100
AcDbLine
 10
188.1249998166453
 20
250.4156029692661
 30
0.0
 11
190.5249998160591
 21
250.4156560161963
 31
0.0
  0
LINE
  5
248D
330
2462
100
AcDbEntity
  8
1
 62
     7
100
AcDbLine
 10
188.1249998166453
 20
245.915602969266
 30
0.0
 11
190.5249998160591
 21
245.9156560161964
 31
0.0
  0
LINE
  5
248E
330
2462
100
AcDbEntity
  8
1
  6
CENTER
 62
     3
100
AcDbLine
 10
187.8999998200246
 20
248.1656029692661
 30
0.0
 11
190.7499998126794
 21
248.1656560161964
 31
0.0
  0
LINE
  5
248F
330
2462
100
AcDbEntity
  8
0
 62
     7
100
AcDbLine
 10
188.1249998166453
 20
228.1656031419994
 30
0.0
 11
188.1249998166453
 21
251.1656027965404
 31
0.0
  0
LINE
  5
2490
330
2462
100
AcDbEntity
  8
1
 62
     7
100
AcDbLine
 10
188.1249998166453
 20
231.6156029692661
 30
0.0
 11
190.4749998160593
 21
231.6156560161963
 31
0.0
  0
LINE
  5
2491
330
2462
100
AcDbEntity
  8
1
 62
     7
100
AcDbLine
 10
188.1249998166453
 20
229.2156029692661
 30
0.0
 11
190.4749998160593
 21
229.2156560161963
 31
0.0
  0
LINE
  5
2492
330
2462
100
AcDbEntity
  8
1
  6
CENTER
 62
     3
100
AcDbLine
 10
187.6749998234043
 20
230.4156029692661
 30
0.0
 11
190.9249998093004
 21
230.4156560161964
 31
0.0
  0
LINE
  5
2493
330
2462
100
AcDbEntity
  8
0
 62
     7
100
AcDbLine
 10
190.5249998160591
 20
256.163655767619
 30
0.0
 11
190.5249998160591
 21
223.1676562647765
 31
0.0
  0
LINE
  5
2494
330
2462
100
AcDbEntity
  8
1
 62
     3
100
AcDbLine
 10
188.1249998166453
 20
231.9156029692661
 30
0.0
 11
190.4749998160593
 21
231.9156560161963
 31
0.0
  0
LINE
  5
2495
330
2462
100
AcDbEntity
  8
1
 62
     3
100
AcDbLine
 10
188.1249998166453
 20
228.915602969266
 30
0.0
 11
190.4749998160593
 21
228.9156560161965
 31
0.0
  0
LINE
  5
2496
330
2462
100
AcDbEntity
  8
1
  6
CENTER
 62
     3
100
AcDbLine
 10
128.6418038958256
 20
249.6249492648618
 30
0.0
 11
126.3918038958255
 21
245.7278349478318
 31
0.0
  0
LINE
  5
2497
330
2462
100
AcDbEntity
  8
1
  6
CENTER
 62
     3
100
AcDbLine
 10
117.1418038958256
 20
229.7063649778195
 30
0.0
 11
119.3918038958255
 21
233.6034792948497
 31
0.0
  0
LINE
  5
2498
330
2462
100
AcDbEntity
  8
1
  6
CENTER
 62
     3
100
AcDbLine
 10
133.1758555657658
 20
233.7281571213408
 30
0.0
 11
127.3301840902208
 21
237.1031571213408
 31
0.0
  0
LINE
  5
2499
330
2462
100
AcDbEntity
  8
1
  6
CENTER
 62
     3
100
AcDbLine
 10
112.6077522258854
 20
233.7281571213408
 30
0.0
 11
118.4534237014303
 21
237.1031571213408
 31
0.0
  0
LINE
  5
249A
330
2462
100
AcDbEntity
  8
1
  6
CENTER
 62
     3
100
AcDbLine
 10
112.6077522258854
 20
245.6031571213404
 30
0.0
 11
118.4534237014303
 21
242.2281571213408
 31
0.0
  0
LINE
  5
249B
330
2462
100
AcDbEntity
  8
1
  6
CENTER
 62
     3
100
AcDbLine
 10
133.1758555657658
 20
245.6031571213404
 30
0.0
 11
127.3301840902208
 21
242.2281571213408
 31
0.0
  0
LINE
  5
249C
330
2462
100
AcDbEntity
  8
0
 62
     7
100
AcDbLine
 10
211.6249997624179
 20
257.3156568562574
 30
0.0
 11
211.624999762468
 21
264.2656567519352
 31
0.0
  0
LINE
  5
249D
330
2462
100
AcDbEntity
  8
0
 62
     7
100
AcDbLine
 10
211.624999762274
 20
215.0656574907419
 30
0.0
 11
211.6249997622852
 21
215.9656571213408
 31
0.0
  0
LINE
  5
249E
330
2462
100
AcDbEntity
  8
0
 62
     7
100
AcDbLine
 10
203.6249997924143
 20
257.3156568562574
 30
0.0
 11
203.6249997924397
 21
258.3656568405041
 31
0.0
  0
LINE
  5
249F
330
2462
100
AcDbEntity
  8
0
 62
     7
100
AcDbLine
 10
203.6249997923128
 20
220.9656574021853
 30
0.0
 11
203.6249997922873
 21
222.015657386437
 31
0.0
  0
LINE
  5
24A0
330
2462
100
AcDbEntity
  8
0
 62
     7
100
AcDbLine
 10
203.9249997877804
 20
220.6656574067427
 30
0.0
 11
203.6249997923128
 21
220.9656574021853
 31
0.0
  0
LINE
  5
24A1
330
2462
100
AcDbEntity
  8
0
 62
     7
100
AcDbLine
 10
205.3249997667744
 20
220.6656574067427
 30
0.0
 11
203.9249997877804
 21
220.6656574067427
 31
0.0
  0
LINE
  5
24A2
330
2462
100
AcDbEntity
  8
0
 62
     7
100
AcDbLine
 10
205.6249997622423
 20
215.0656574907419
 30
0.0
 11
205.6249997622548
 21
215.9656571213408
 31
0.0
  0
LINE
  5
24A3
330
2462
100
AcDbEntity
  8
0
 62
     7
100
AcDbLine
 10
206.0249997562079
 20
214.6656574968014
 30
0.0
 11
205.6249997622423
 21
215.0656574907419
 31
0.0
  0
LINE
  5
24A4
330
2462
100
AcDbEntity
  8
0
 62
     7
100
AcDbLine
 10
211.2249997683124
 20
214.6656574968524
 30
0.0
 11
206.0249997562079
 21
214.6656574968014
 31
0.0
  0
LINE
  5
24A5
330
2462
100
AcDbEntity
  8
0
 62
     7
100
AcDbLine
 10
211.624999762274
 20
215.0656574907419
 30
0.0
 11
211.2249997683124
 21
214.6656574968524
 31
0.0
  0
LINE
  5
24A6
330
2462
100
AcDbEntity
  8
0
 62
     7
100
AcDbLine
 10
203.9249997877804
 20
222.3156573819556
 30
0.0
 11
203.6249997922873
 21
222.015657386437
 31
0.0
  0
LINE
  5
24A7
330
2462
100
AcDbEntity
  8
0
 62
     7
100
AcDbLine
 10
211.3249997668128
 20
222.3156573819556
 30
0.0
 11
203.9249997877804
 21
222.3156573819556
 31
0.0
  0
LINE
  5
24A8
330
2462
100
AcDbEntity
  8
0
 62
     7
100
AcDbLine
 10
211.6249997623039
 20
222.015657386437
 30
0.0
 11
211.3249997668128
 21
222.3156573819556
 31
0.0
  0
LINE
  5
24A9
330
2462
100
AcDbEntity
  8
0
 62
     7
100
AcDbLine
 10
203.9249997879584
 20
258.6656568360355
 30
0.0
 11
203.6249997924397
 21
258.3656568405041
 31
0.0
  0
LINE
  5
24AA
330
2462
100
AcDbEntity
  8
0
 62
     7
100
AcDbLine
 10
205.324999766952
 20
258.6656568360355
 30
0.0
 11
203.9249997879584
 21
258.6656568360355
 31
0.0
  0
LINE
  5
24AB
330
2462
100
AcDbEntity
  8
0
 62
     7
100
AcDbLine
 10
206.0249997564111
 20
264.6656567459816
 30
0.0
 11
205.6249997625144
 21
264.2656567519988
 31
0.0
  0
LINE
  5
24AC
330
2462
100
AcDbEntity
  8
0
 62
     7
100
AcDbLine
 10
211.2249997684882
 20
264.665656745936
 30
0.0
 11
206.0249997564111
 21
264.6656567459816
 31
0.0
  0
LINE
  5
24AD
330
2462
100
AcDbEntity
  8
0
 62
     7
100
AcDbLine
 10
211.624999762468
 20
264.2656567519352
 30
0.0
 11
211.2249997684882
 21
264.665656745936
 31
0.0
  0
LINE
  5
24AE
330
2462
100
AcDbEntity
  8
0
 62
     7
100
AcDbLine
 10
203.9249997879076
 20
257.0156568608175
 30
0.0
 11
203.6249997924143
 21
257.3156568562574
 31
0.0
  0
LINE
  5
24AF
330
2462
100
AcDbEntity
  8
0
 62
     7
100
AcDbLine
 10
211.3249997669225
 20
257.0156568608175
 30
0.0
 11
203.9249997879076
 21
257.0156568608175
 31
0.0
  0
LINE
  5
24B0
330
2462
100
AcDbEntity
  8
0
 62
     7
100
AcDbLine
 10
211.6249997624179
 20
257.3156568562574
 30
0.0
 11
211.3249997669225
 21
257.0156568608175
 31
0.0
  0
LINE
  5
24B1
330
2462
100
AcDbEntity
  8
0
 62
     7
100
AcDbLine
 10
211.6249997623421
 20
222.6534278254852
 30
0.0
 11
211.6249997624179
 21
224.6754438481724
 31
0.0
  0
LINE
  5
24B2
330
2462
100
AcDbEntity
  8
0
 62
     7
100
AcDbLine
 10
211.6249997623421
 20
256.8456361096413
 30
0.0
 11
211.6249997623421
 21
254.4586229343615
 31
0.0
  0
LINE
  5
24B3
330
2462
100
AcDbEntity
  8
0
 62
     7
100
AcDbLine
 10
190.1249998498537
 20
227.9156561926853
 30
0.0
 11
190.1249998498479
 21
223.1216562646409
 31
0.0
  0
LINE
  5
24B4
330
2462
100
AcDbEntity
  8
0
 62
     7
100
AcDbLine
 10
190.1249998498537
 20
251.41565583971
 30
0.0
 11
190.1249998498479
 21
256.2096557677591
 31
0.0
  0
LINE
  5
24B5
330
2462
100
AcDbEntity
  8
0
 62
     7
100
AcDbLine
 10
190.0249998235945
 20
234.1656560988199
 30
0.0
 11
190.5249998160765
 21
233.6656561063314
 31
0.0
  0
LINE
  5
24B6
330
2462
100
AcDbEntity
  8
0
 62
     7
100
AcDbLine
 10
188.6249998091305
 20
234.1656030518898
 30
0.0
 11
190.0249998235945
 21
234.1656560988199
 31
0.0
  0
LINE
  5
24B7
330
2462
100
AcDbEntity
  8
0
 62
     7
100
AcDbLine
 10
188.1249998166453
 20
233.665603059401
 30
0.0
 11
188.6249998091305
 21
234.1656030518898
 31
0.0
  0
LINE
  5
24B8
330
2462
100
AcDbEntity
  8
0
 62
     7
100
AcDbLine
 10
211.3249997667724
 20
222.7676573759552
 30
0.0
 11
190.9249998100508
 21
222.7676562707855
 31
0.0
  0
LINE
  5
24B9
330
2462
100
AcDbEntity
  8
0
 62
     7
100
AcDbLine
 10
211.5319754112308
 20
222.7531842290204
 30
0.0
 11
211.3249997667724
 21
222.7676573759552
 31
0.0
  0
LINE
  5
24BA
330
2462
100
AcDbEntity
  8
0
 62
     7
100
AcDbLine
 10
211.6249997623421
 20
222.4856781330609
 30
0.0
 11
211.6249997623421
 21
222.6534278254852
 31
0.0
  0
LINE
  5
24BB
330
2462
100
AcDbEntity
  8
0
 62
     7
100
AcDbLine
 10
190.8750086115775
 20
222.371656274465
 30
0.0
 11
199.3083799780903
 21
222.3716573795249
 31
0.0
  0
LINE
  5
24BC
330
2462
100
AcDbEntity
  8
0
 62
     7
100
AcDbLine
 10
188.1249998166453
 20
228.1656031419994
 30
0.0
 11
189.8749998536098
 21
228.1656561889294
 31
0.0
  0
LINE
  5
24BD
330
2462
100
AcDbEntity
  8
0
 62
     7
100
AcDbLine
 10
190.0249998235945
 20
245.1656559335829
 30
0.0
 11
190.5249998160765
 21
245.6656559260815
 31
0.0
  0
LINE
  5
24BE
330
2462
100
AcDbEntity
  8
0
 62
     7
100
AcDbLine
 10
188.6249998091305
 20
245.1656028866654
 30
0.0
 11
190.0249998235945
 21
245.1656559335829
 31
0.0
  0
LINE
  5
24BF
330
2462
100
AcDbEntity
  8
0
 62
     7
100
AcDbLine
 10
188.1249998166453
 20
245.6656028791516
 30
0.0
 11
188.6249998091305
 21
245.1656028866654
 31
0.0
  0
LINE
  5
24C0
330
2462
100
AcDbEntity
  8
0
 62
     7
100
AcDbLine
 10
211.3249997667724
 20
256.5636568667438
 30
0.0
 11
190.9249998100508
 21
256.5636557615996
 31
0.0
  0
LINE
  5
24C1
330
2462
100
AcDbEntity
  8
0
 62
     7
100
AcDbLine
 10
211.5319754112308
 20
256.5781300136689
 30
0.0
 11
211.3249997667724
 21
256.5636568667438
 31
0.0
  0
LINE
  5
24C2
330
2462
100
AcDbEntity
  8
0
 62
     7
100
AcDbLine
 10
204.6249997776356
 20
257.4156568547524
 30
0.0
 11
211.0964003727548
 21
257.4156568547982
 31
0.0
  0
LINE
  5
24C3
330
2462
100
AcDbEntity
  8
0
 62
     7
100
AcDbLine
 10
191.0749998400834
 20
256.959655757949
 30
0.0
 11
199.5083799780901
 21
256.9596568631697
 31
0.0
  0
LINE
  5
24C4
330
2462
100
AcDbEntity
  8
0
 62
     7
100
AcDbLine
 10
188.1249998166453
 20
251.1656027965404
 30
0.0
 11
189.8749998536098
 21
251.1656558434704
 31
0.0
  0
LINE
  5
24C5
330
2462
100
AcDbEntity
  8
0
 62
     7
100
AcDbLine
 10
216.1249997699797
 20
236.6656571664082
 30
0.0
 11
216.6249997624785
 21
236.1656571739195
 31
0.0
  0
LINE
  5
24C6
330
2462
100
AcDbEntity
  8
0
 62
     7
100
AcDbLine
 10
199.5249999443368
 20
236.6656571664082
 30
0.0
 11
216.1249997699797
 21
236.6656571664082
 31
0.0
  0
LINE
  5
24C7
330
2462
100
AcDbEntity
  8
0
 62
     7
100
AcDbLine
 10
199.0249999518481
 20
236.1656571739448
 30
0.0
 11
199.5249999443368
 21
236.6656571664082
 31
0.0
  0
LINE
  5
24C8
330
2462
100
AcDbEntity
  8
0
 62
     7
100
AcDbLine
 10
216.1249997699897
 20
242.6656570762836
 30
0.0
 11
216.6249997624785
 21
243.1656570687646
 31
0.0
  0
LINE
  5
24C9
330
2462
100
AcDbEntity
  8
0
 62
     7
100
AcDbLine
 10
199.524999944286
 20
242.6656570762886
 30
0.0
 11
215.6249996814433
 21
242.665657076284
 31
0.0
  0
LINE
  5
24CA
330
2462
100
AcDbEntity
  8
0
 62
     7
100
AcDbLine
 10
199.0249999518986
 20
243.1656570686731
 30
0.0
 11
199.524999944286
 21
242.6656570762886
 31
0.0
  0
LINE
  5
24CB
330
2462
100
AcDbEntity
  8
0
 62
     7
100
AcDbLine
 10
211.3249997670714
 20
230.9656572520112
 30
0.0
 11
211.3249997670714
 21
232.6656572264723
 31
0.0
  0
LINE
  5
24CC
330
2462
100
AcDbEntity
  8
0
 62
     7
100
AcDbLine
 10
210.1749997843472
 20
230.9656572520112
 30
0.0
 11
211.3249997670714
 21
230.9656572520112
 31
0.0
  0
LINE
  5
24CD
330
2462
100
AcDbEntity
  8
0
 62
     7
100
AcDbLine
 10
201.8249999097598
 20
232.4156572302285
 30
0.0
 11
210.1749997843472
 21
232.4156572302285
 31
0.0
  0
LINE
  5
24CE
330
2462
100
AcDbEntity
  8
0
 62
     7
100
AcDbLine
 10
210.1749997843472
 20
229.6656572715404
 30
0.0
 11
210.1749997843472
 21
232.6656572264723
 31
0.0
  0
LINE
  5
24CF
330
2462
100
AcDbEntity
  8
0
 62
     7
100
AcDbLine
 10
209.7249997911073
 20
229.6656572715404
 30
0.0
 11
210.1749997843472
 21
229.6656572715404
 31
0.0
  0
LINE
  5
24D0
330
2462
100
AcDbEntity
  8
0
 62
     7
100
AcDbLine
 10
211.2249997685988
 20
227.1306573096198
 30
0.0
 11
211.2249997685988
 21
229.6656572715404
 31
0.0
  0
LINE
  5
24D1
330
2462
100
AcDbEntity
  8
0
 62
     7
100
AcDbLine
 10
209.7249997911073
 20
228.6656572865882
 30
0.0
 11
209.7249997911073
 21
232.6656572264723
 31
0.0
  0
LINE
  5
24D2
330
2462
100
AcDbEntity
  8
0
 62
     7
100
AcDbLine
 10
211.2249997685988
 20
228.6656572865882
 30
0.0
 11
209.7249997911073
 21
228.6656572865882
 31
0.0
  0
LINE
  5
24D3
330
2462
100
AcDbEntity
  8
0
 62
     7
100
AcDbLine
 10
210.9999997719666
 20
227.1306573095944
 30
0.0
 11
211.2249997685988
 21
227.1306573096198
 31
0.0
  0
LINE
  5
24D4
330
2462
100
AcDbEntity
  8
0
 62
     7
100
AcDbLine
 10
211.3249997670714
 20
248.3656569907035
 30
0.0
 11
211.3249997670714
 21
246.665657016214
 31
0.0
  0
LINE
  5
24D5
330
2462
100
AcDbEntity
  8
0
 62
     7
100
AcDbLine
 10
210.1749997843472
 20
248.3656569907035
 30
0.0
 11
211.3249997670714
 21
248.3656569907035
 31
0.0
  0
LINE
  5
24D6
330
2462
100
AcDbEntity
  8
0
 62
     7
100
AcDbLine
 10
199.0249999518481
 20
246.915657012453
 30
0.0
 11
210.1749997843472
 21
246.915657012453
 31
0.0
  0
LINE
  5
24D7
330
2462
100
AcDbEntity
  8
0
 62
     7
100
AcDbLine
 10
210.1749997843472
 20
249.665656971164
 30
0.0
 11
210.1749997843472
 21
246.665657016214
 31
0.0
  0
LINE
  5
24D8
330
2462
100
AcDbEntity
  8
0
 62
     7
100
AcDbLine
 10
209.7249997911073
 20
249.665656971164
 30
0.0
 11
210.1749997843472
 21
249.665656971164
 31
0.0
  0
LINE
  5
24D9
330
2462
100
AcDbEntity
  8
0
 62
     7
100
AcDbLine
 10
211.2249997685988
 20
252.2006569330747
 30
0.0
 11
211.2249997685988
 21
249.665656971164
 31
0.0
  0
LINE
  5
24DA
330
2462
100
AcDbEntity
  8
0
 62
     7
100
AcDbLine
 10
209.7249997911073
 20
250.6656569561391
 30
0.0
 11
209.7249997911073
 21
246.665657016214
 31
0.0
  0
LINE
  5
24DB
330
2462
100
AcDbEntity
  8
0
 62
     7
100
AcDbLine
 10
211.2249997685988
 20
250.6656569561391
 30
0.0
 11
209.7249997911073
 21
250.6656569561391
 31
0.0
  0
LINE
  5
24DC
330
2462
100
AcDbEntity
  8
0
 62
     7
100
AcDbLine
 10
210.9999997719666
 20
252.2006569330974
 30
0.0
 11
211.2249997685988
 21
252.2006569330747
 31
0.0
  0
LINE
  5
24DD
330
2462
100
AcDbEntity
  8
0
 62
     7
100
AcDbLine
 10
207.3249998271613
 20
231.165657249032
 30
0.0
 11
204.8249998647174
 21
231.165657249032
 31
0.0
  0
LINE
  5
24DE
330
2462
100
AcDbEntity
  8
0
 62
     7
100
AcDbLine
 10
207.3249998271613
 20
227.6656573016107
 30
0.0
 11
207.3249998271613
 21
231.165657249032
 31
0.0
  0
LINE
  5
24DF
330
2462
100
AcDbEntity
  8
0
 62
     7
100
AcDbLine
 10
204.624999867722
 20
227.6656573016107
 30
0.0
 11
207.3249998271613
 21
227.6656573016107
 31
0.0
  0
LINE
  5
24E0
330
2462
100
AcDbEntity
  8
0
 62
     7
100
AcDbLine
 10
207.4249998256591
 20
232.4156572302285
 30
0.0
 11
207.4249998256591
 21
227.1306573096198
 31
0.0
  0
LINE
  5
24E1
330
2462
100
AcDbEntity
  8
0
 62
     7
100
AcDbLine
 10
204.8249998647174
 20
227.1306573096198
 30
0.0
 11
204.8249998647174
 21
232.6656572264723
 31
0.0
  0
LINE
  5
24E2
330
2462
100
AcDbEntity
  8
0
 62
     7
100
AcDbLine
 10
205.0499998612995
 20
227.1306573096198
 30
0.0
 11
204.8249998647174
 21
227.1306573096198
 31
0.0
  0
LINE
  5
24E3
330
2462
100
AcDbEntity
  8
0
 62
     7
100
AcDbLine
 10
204.624999867722
 20
224.6656573466528
 30
0.0
 11
204.624999867722
 21
227.6656573016107
 31
0.0
  0
LINE
  5
24E4
330
2462
100
AcDbEntity
  8
0
 62
     7
100
AcDbLine
 10
202.0249999067551
 20
224.6656573466528
 30
0.0
 11
204.624999867722
 21
224.6656573466528
 31
0.0
  0
LINE
  5
24E5
330
2462
100
AcDbEntity
  8
0
 62
     7
100
AcDbLine
 10
202.0249999067551
 20
227.6656573016107
 30
0.0
 11
202.0249999067551
 21
224.6656573466528
 31
0.0
  0
LINE
  5
24E6
330
2462
100
AcDbEntity
  8
0
 62
     7
100
AcDbLine
 10
201.8249999097598
 20
227.6656573016107
 30
0.0
 11
202.0249999067551
 21
227.6656573016107
 31
0.0
  0
LINE
  5
24E7
330
2462
100
AcDbEntity
  8
0
 62
     7
100
AcDbLine
 10
204.8249998647174
 20
252.2006569330747
 30
0.0
 11
204.8249998647174
 21
246.665657016214
 31
0.0
  0
LINE
  5
24E8
330
2462
100
AcDbEntity
  8
0
 62
     7
100
AcDbLine
 10
205.0499998612995
 20
252.2006569330747
 30
0.0
 11
204.8249998647174
 21
252.2006569330747
 31
0.0
  0
LINE
  5
24E9
330
2462
100
AcDbEntity
  8
0
 62
     7
100
AcDbLine
 10
204.624999867722
 20
251.6656569411142
 30
0.0
 11
204.8249998647174
 21
251.6656569411142
 31
0.0
  0
LINE
  5
24EA
330
2462
100
AcDbEntity
  8
0
 62
     7
100
AcDbLine
 10
204.624999867722
 20
254.6656568960874
 30
0.0
 11
204.624999867722
 21
251.6656569411142
 31
0.0
  0
LINE
  5
24EB
330
2462
100
AcDbEntity
  8
0
 62
     7
100
AcDbLine
 10
202.0249999067551
 20
254.6656568960874
 30
0.0
 11
204.624999867722
 21
254.6656568960874
 31
0.0
  0
LINE
  5
24EC
330
2462
100
AcDbEntity
  8
0
 62
     7
100
AcDbLine
 10
202.0249999067551
 20
251.6656569411142
 30
0.0
 11
202.0249999067551
 21
254.6656568960874
 31
0.0
  0
LINE
  5
24ED
330
2462
100
AcDbEntity
  8
0
 62
     7
100
AcDbLine
 10
199.3249999472904
 20
251.6656569411142
 30
0.0
 11
202.0249999067551
 21
251.6656569411142
 31
0.0
  0
LINE
  5
24EE
330
2462
100
AcDbEntity
  8
0
 62
     7
100
AcDbLine
 10
199.3249999472904
 20
248.1656569936649
 30
0.0
 11
199.3249999472904
 21
251.6656569411142
 31
0.0
  0
LINE
  5
24EF
330
2462
100
AcDbEntity
  8
0
 62
     7
100
AcDbLine
 10
201.8249999097598
 20
248.1656569936649
 30
0.0
 11
199.3249999472904
 21
248.1656569936649
 31
0.0
  0
LINE
  5
24F0
330
2462
100
AcDbEntity
  8
0
 62
     7
100
AcDbLine
 10
201.8249999097598
 20
232.4156572302285
 30
0.0
 11
202.0249999067551
 21
232.4156572302285
 31
0.0
  0
LINE
  5
24F1
330
2462
100
AcDbEntity
  8
0
 62
     7
100
AcDbLine
 10
216.6249997624785
 20
233.165657218987
 30
0.0
 11
216.6249997624785
 21
246.1656570237148
 31
0.0
  0
LINE
  5
24F2
330
2462
100
AcDbEntity
  8
0
 62
     7
100
AcDbLine
 10
216.1249997699897
 20
232.6656572264723
 30
0.0
 11
216.6249997624785
 21
233.165657218987
 31
0.0
  0
LINE
  5
24F3
330
2462
100
AcDbEntity
  8
0
 62
     7
100
AcDbLine
 10
211.3249997671224
 20
232.6656572264723
 30
0.0
 11
216.1249997699897
 21
232.6656572264723
 31
0.0
  0
LINE
  5
24F4
330
2462
100
AcDbEntity
  8
0
 62
     7
100
AcDbLine
 10
211.3249997671224
 20
232.9656572219663
 30
0.0
 11
211.3249997671224
 21
232.6656572264723
 31
0.0
  0
LINE
  5
24F5
330
2462
100
AcDbEntity
  8
0
 62
     7
100
AcDbLine
 10
210.174999784398
 20
232.9656572219663
 30
0.0
 11
211.3249997671224
 21
232.9656572219663
 31
0.0
  0
LINE
  5
24F6
330
2462
100
AcDbEntity
  8
0
 62
     7
100
AcDbLine
 10
210.174999784398
 20
232.6656572264723
 30
0.0
 11
210.174999784398
 21
232.9656572219663
 31
0.0
  0
LINE
  5
24F7
330
2462
100
AcDbEntity
  8
0
 62
     7
100
AcDbLine
 10
201.8249999098105
 20
232.6656572264723
 30
0.0
 11
210.174999784398
 21
232.6656572264723
 31
0.0
  0
LINE
  5
24F8
330
2462
100
AcDbEntity
  8
0
 62
     7
100
AcDbLine
 10
201.8249999098105
 20
227.1656573090712
 30
0.0
 11
201.8249999098105
 21
232.6656572264723
 31
0.0
  0
LINE
  5
24F9
330
2462
100
AcDbEntity
  8
0
 62
     7
100
AcDbLine
 10
199.0249999518481
 20
227.1656573090712
 30
0.0
 11
201.8249999098105
 21
227.1656573090712
 31
0.0
  0
LINE
  5
24FA
330
2462
100
AcDbEntity
  8
0
 62
     7
100
AcDbLine
 10
216.1249997699897
 20
246.665657016214
 30
0.0
 11
216.6249997624785
 21
246.1656570237148
 31
0.0
  0
LINE
  5
24FB
330
2462
100
AcDbEntity
  8
0
 62
     7
100
AcDbLine
 10
211.3249997671224
 20
246.665657016214
 30
0.0
 11
216.1249997699897
 21
246.665657016214
 31
0.0
  0
LINE
  5
24FC
330
2462
100
AcDbEntity
  8
0
 62
     7
100
AcDbLine
 10
211.3249997671224
 20
246.3656570207281
 30
0.0
 11
211.3249997671224
 21
246.665657016214
 31
0.0
  0
LINE
  5
24FD
330
2462
100
AcDbEntity
  8
0
 62
     7
100
AcDbLine
 10
210.174999784398
 20
246.3656570207281
 30
0.0
 11
211.3249997671224
 21
246.3656570207281
 31
0.0
  0
LINE
  5
24FE
330
2462
100
AcDbEntity
  8
0
 62
     7
100
AcDbLine
 10
210.174999784398
 20
246.665657016214
 30
0.0
 11
210.174999784398
 21
246.3656570207281
 31
0.0
  0
LINE
  5
24FF
330
2462
100
AcDbEntity
  8
0
 62
     7
100
AcDbLine
 10
201.8249999098105
 20
246.665657016214
 30
0.0
 11
210.174999784398
 21
246.665657016214
 31
0.0
  0
LINE
  5
2500
330
2462
100
AcDbEntity
  8
0
 62
     7
100
AcDbLine
 10
201.8249999098105
 20
252.1656569336128
 30
0.0
 11
201.8249999098105
 21
246.665657016214
 31
0.0
  0
LINE
  5
2501
330
2462
100
AcDbEntity
  8
0
 62
     7
100
AcDbLine
 10
199.0249999518481
 20
252.1656569336128
 30
0.0
 11
201.8249999098105
 21
252.1656569336128
 31
0.0
  0
LINE
  5
2502
330
2462
100
AcDbEntity
  8
0
 62
     7
100
AcDbLine
 10
199.0249999518481
 20
252.1656569336128
 30
0.0
 11
199.0249999518481
 21
227.1656573090712
 31
0.0
  0
LINE
  5
2503
330
2462
100
AcDbEntity
  8
1
  6
CENTER
 62
     3
100
AcDbLine
 10
135.2043038958254
 20
260.9915326895324
 30
0.0
 11
132.5793038958254
 21
256.4448993196644
 31
0.0
  0
LINE
  5
2504
330
2462
100
AcDbEntity
  8
1
  6
CENTER
 62
     3
100
AcDbLine
 10
110.5793038958255
 20
260.9915326895324
 30
0.0
 11
113.2043038958254
 21
256.4448993196644
 31
0.0
  0
LINE
  5
2505
330
2462
100
AcDbEntity
  8
1
  6
CENTER
 62
     3
100
AcDbLine
 10
110.5793038958255
 20
218.3397815531491
 30
0.0
 11
113.2043038958254
 21
222.886414923017
 31
0.0
  0
LINE
  5
2506
330
2462
100
AcDbEntity
  8
1
  6
CENTER
 62
     3
100
AcDbLine
 10
135.2043038958254
 20
218.3397815531491
 30
0.0
 11
132.5793038958254
 21
222.886414923017
 31
0.0
  0
LINE
  5
2507
330
2462
100
AcDbEntity
  8
0
 62
     7
100
AcDbLine
 10
205.6249997625144
 20
264.2656567519988
 30
0.0
 11
205.6249997624454
 21
258.9656568314753
 31
0.0
  0
LINE
  5
2508
330
2462
100
AcDbEntity
  8
1
  6
CENTER
 62
     3
100
AcDbLine
 10
204.0249997862868
 20
217.6656571213408
 30
0.0
 11
213.6249997321751
 21
217.6656571213408
 31
0.0
  0
LINE
  5
2509
330
2462
100
AcDbEntity
  8
1
 62
     7
100
AcDbLine
 10
205.6249997622548
 20
215.9656571213408
 30
0.0
 11
211.6249997622852
 21
215.9656571213408
 31
0.0
  0
LINE
  5
250A
330
2462
100
AcDbEntity
  8
0
 62
     7
100
AcDbLine
 10
205.6249997622548
 20
215.9656571213408
 30
0.0
 11
205.6249997622548
 21
219.3656571213408
 31
0.0
  0
LINE
  5
250B
330
2462
100
AcDbEntity
  8
0
 62
     7
100
AcDbLine
 10
211.6249997622852
 20
215.9656571213408
 30
0.0
 11
211.6249997622852
 21
219.3656571213408
 31
0.0
  0
LINE
  5
250C
330
2462
100
AcDbEntity
  8
1
 62
     7
100
AcDbLine
 10
205.6249997622548
 20
219.3656571213408
 30
0.0
 11
211.6249997622852
 21
219.3656571213408
 31
0.0
  0
LINE
  5
250D
330
2462
100
AcDbEntity
  8
0
 62
     7
100
AcDbLine
 10
205.6249997622548
 20
219.3656571213408
 30
0.0
 11
205.6249997622677
 21
220.365657411224
 31
0.0
  0
LINE
  5
250E
330
2462
100
AcDbEntity
  8
0
 62
     7
100
AcDbLine
 10
211.6249997622852
 20
219.3656571213408
 30
0.0
 11
211.6249997623039
 21
222.015657386437
 31
0.0
  0
LINE
  5
250F
330
2462
100
AcDbEntity
  8
1
 62
     3
100
AcDbLine
 10
212.6249996814431
 20
246.665657016214
 30
0.0
 11
212.6249996814431
 21
246.492451935457
 31
0.0
  0
LINE
  5
2510
330
2462
100
AcDbEntity
  8
1
 62
     3
100
AcDbLine
 10
215.6249996814433
 20
246.665657016214
 30
0.0
 11
215.6249996814433
 21
246.492451935457
 31
0.0
  0
LINE
  5
2511
330
2462
100
AcDbEntity
  8
0
 62
     7
100
AcDbLine
 10
215.6249996814433
 20
242.665657076284
 30
0.0
 11
216.1249997699897
 21
242.6656570762836
 31
0.0
  0
LINE
  5
2512
330
2462
100
AcDbEntity
  8
1
  6
CENTER
 62
     3
100
AcDbLine
 10
214.1249996814428
 20
247.4656570041998
 30
0.0
 11
214.1249996814428
 21
237.2656571213408
 31
0.0
  0
LINE
  5
2513
330
2462
100
AcDbEntity
  8
1
 62
     3
100
AcDbLine
 10
212.9249996814432
 20
246.665657016214
 30
0.0
 11
212.9249996814432
 21
242.665657076284
 31
0.0
  0
LINE
  5
2514
330
2462
100
AcDbEntity
  8
1
 62
     3
100
AcDbLine
 10
215.3249996814432
 20
246.665657016214
 30
0.0
 11
215.3249996814432
 21
242.665657076284
 31
0.0
  0
LINE
  5
2515
330
2462
100
AcDbEntity
  8
1
 62
     7
100
AcDbLine
 10
212.6249996814431
 20
246.492451935457
 30
0.0
 11
215.6249996814433
 21
246.492451935457
 31
0.0
  0
LINE
  5
2516
330
2462
100
AcDbEntity
  8
1
 62
     7
100
AcDbLine
 10
212.6249996814431
 20
246.492451935457
 30
0.0
 11
212.6249996814431
 21
242.9656570762844
 31
0.0
  0
LINE
  5
2517
330
2462
100
AcDbEntity
  8
1
 62
     7
100
AcDbLine
 10
215.6249996814433
 20
246.492451935457
 30
0.0
 11
215.6249996814433
 21
242.9656570762844
 31
0.0
  0
LINE
  5
2518
330
2462
100
AcDbEntity
  8
1
 62
     7
100
AcDbLine
 10
215.6249996814433
 20
242.9656570762844
 30
0.0
 11
212.6249996814431
 21
242.9656570762844
 31
0.0
  0
LINE
  5
2519
330
2462
100
AcDbEntity
  8
1
 62
     3
100
AcDbLine
 10
215.6249996814433
 20
242.9656570762844
 30
0.0
 11
215.6249996814433
 21
242.665657076284
 31
0.0
  0
LINE
  5
251A
330
2462
100
AcDbEntity
  8
1
 62
     3
100
AcDbLine
 10
212.6249996814431
 20
242.9656570762844
 30
0.0
 11
212.6249996814431
 21
242.665657076284
 31
0.0
  0
LINE
  5
251B
330
2462
100
AcDbEntity
  8
1
 62
     7
100
AcDbLine
 10
212.6249996814431
 20
246.492451935457
 30
0.0
 11
212.9249996814432
 21
246.665657016214
 31
0.0
  0
LINE
  5
251C
330
2462
100
AcDbEntity
  8
1
 62
     7
100
AcDbLine
 10
215.3249996814432
 20
246.665657016214
 30
0.0
 11
215.6249996814433
 21
246.492451935457
 31
0.0
  0
LINE
  5
251D
330
2462
100
AcDbEntity
  8
1
 62
     7
100
AcDbLine
 10
215.6249996814433
 20
242.9656570762844
 30
0.0
 11
215.3249996814432
 21
242.665657076284
 31
0.0
  0
LINE
  5
251E
330
2462
100
AcDbEntity
  8
1
 62
     7
100
AcDbLine
 10
212.9249996814432
 20
242.665657076284
 30
0.0
 11
212.6249996814431
 21
242.9656570762844
 31
0.0
  0
LINE
  5
251F
330
2462
100
AcDbEntity
  8
1
  6
CENTER
 62
     3
100
AcDbLine
 10
292.1249826666368
 20
218.3397815531491
 30
0.0
 11
289.4999826666365
 21
222.886414923017
 31
0.0
  0
LINE
  5
2520
330
2462
100
AcDbEntity
  8
1
  6
CENTER
 62
     3
100
AcDbLine
 10
292.1249826666368
 20
260.9915326895324
 30
0.0
 11
289.4999826666368
 21
256.4448993196644
 31
0.0
  0
LINE
  5
2521
330
2462
100
AcDbEntity
  8
1
  6
DASHED
 62
     3
100
AcDbLine
 10
278.3124826663875
 20
246.5030541794011
 30
0.0
 11
278.3124826663875
 21
242.2637332808013
 31
0.0
  0
LINE
  5
2522
330
2462
100
AcDbEntity
  8
1
  6
DASHED
 62
     3
100
AcDbLine
 10
281.312482666388
 20
246.5030541794011
 30
0.0
 11
281.312482666388
 21
242.2637332808013
 31
0.0
  0
LINE
  5
2523
330
2462
100
AcDbEntity
  8
1
  6
DASHED
 62
     7
100
AcDbLine
 10
278.612482666388
 20
246.5620328745591
 30
0.0
 11
278.612482666388
 21
242.4152024892801
 31
0.0
  0
LINE
  5
2524
330
2462
100
AcDbEntity
  8
1
  6
DASHED
 62
     3
100
AcDbLine
 10
282.4105588258486
 20
238.1656571213409
 30
0.0
 11
286.6498797244486
 21
238.1656571213409
 31
0.0
  0
LINE
  5
2525
330
2462
100
AcDbEntity
  8
1
  6
DASHED
 62
     3
100
AcDbLine
 10
282.4105588258486
 20
241.1656571213409
 30
0.0
 11
286.6498797244486
 21
241.1656571213409
 31
0.0
  0
LINE
  5
2526
330
2462
100
AcDbEntity
  8
1
  6
DASHED
 62
     7
100
AcDbLine
 10
282.5620280343276
 20
238.465657121341
 30
0.0
 11
286.708858419606
 21
238.465657121341
 31
0.0
  0
LINE
  5
2527
330
2462
100
AcDbEntity
  8
1
  6
DASHED
 62
     7
100
AcDbLine
 10
282.5620280343276
 20
240.8656571213408
 30
0.0
 11
286.708858419606
 21
240.8656571213408
 31
0.0
  0
LINE
  5
2528
330
2462
100
AcDbEntity
  8
1
  6
DIVIDE
 62
     7
100
AcDbLine
 10
196.0249998166457
 20
258.6656571213408
 30
0.0
 11
188.5249998166455
 21
258.6656571213408
 31
0.0
  0
LINE
  5
2529
330
2462
100
AcDbEntity
  8
1
  6
DIVIDE
 62
     7
100
AcDbLine
 10
188.5249998166455
 20
258.6656571213408
 30
0.0
 11
188.5249998166455
 21
253.6656571213409
 31
0.0
  0
LINE
  5
252A
330
2462
100
AcDbEntity
  8
1
  6
DIVIDE
 62
     7
100
AcDbLine
 10
188.5249998166455
 20
220.6656571213409
 30
0.0
 11
197.6249997025335
 21
220.6656571213409
 31
0.0
  0
LINE
  5
252B
330
2462
100
AcDbEntity
  8
1
  6
DIVIDE
 62
     7
100
AcDbLine
 10
188.5249998166455
 20
225.6656571213409
 30
0.0
 11
188.5249998166455
 21
220.6656571213409
 31
0.0
  0
LINE
  5
252C
330
2462
100
AcDbEntity
  8
1
 62
     3
100
AcDbLine
 10
205.6249997624584
 20
260.1656571213408
 30
0.0
 11
211.6249997624366
 21
260.1656571213408
 31
0.0
  0
LINE
  5
252D
330
2462
100
AcDbEntity
  8
1
 62
     3
100
AcDbLine
 10
205.6249997624584
 20
263.1656571213408
 30
0.0
 11
211.6249997624366
 21
263.1656571213408
 31
0.0
  0
LINE
  5
252E
330
2462
100
AcDbEntity
  8
1
 62
     7
100
AcDbLine
 10
205.6249997624584
 20
260.465657121341
 30
0.0
 11
211.6249997624366
 21
260.4656571213408
 31
0.0
  0
LINE
  5
252F
330
2462
100
AcDbEntity
  8
1
 62
     7
100
AcDbLine
 10
205.6249997624584
 20
262.8656571213408
 30
0.0
 11
211.6249997624366
 21
262.8656571213408
 31
0.0
  0
LINE
  5
2530
330
2462
100
AcDbEntity
  8
1
  6
CENTER
 62
     3
100
AcDbLine
 10
205.0411892116469
 20
261.6656571213408
 30
0.0
 11
212.1158282555395
 21
261.6656571213408
 31
0.0
  0
LINE
  5
2531
330
2462
100
AcDbEntity
  8
1
 62
     7
100
AcDbLine
 10
211.5957104408376
 20
222.4149674559864
 30
0.0
 11
211.0964003727409
 21
221.9156573878895
 31
0.0
  0
LINE
  5
2532
330
2462
100
AcDbEntity
  8
1
 62
     7
100
AcDbLine
 10
211.5957104408376
 20
256.9163467867155
 30
0.0
 11
211.0964003727548
 21
257.4156568547982
 31
0.0
  0
LINE
  5
2533
330
2462
100
AcDbEntity
  8
1
  6
DIVIDE
 62
     7
100
AcDbLine
 10
212.6249997624277
 20
258.6656571213408
 30
0.0
 11
211.6249997624275
 21
258.6656571213408
 31
0.0
  0
LINE
  5
2534
330
2462
100
AcDbEntity
  8
1
  6
DIVIDE
 62
     7
100
AcDbLine
 10
212.6249997621544
 20
220.6656571213409
 30
0.0
 11
211.6249997622942
 21
220.6656571213409
 31
0.0
  0
LINE
  5
2535
330
2462
100
AcDbEntity
  8
1
  6
DIVIDE
 62
     7
100
AcDbLine
 10
212.6249997621544
 20
220.6656571213409
 30
0.0
 11
212.6249997621544
 21
225.7866353683303
 31
0.0
  0
LINE
  5
2536
330
2462
100
AcDbEntity
  8
1
  6
DIVIDE
 62
     7
100
AcDbLine
 10
212.6249997624277
 20
258.6656571213408
 30
0.0
 11
212.6249997624277
 21
254.6028798875064
 31
0.0
  0
LINE
  5
2537
330
2462
100
AcDbEntity
  8
2
  6
CENTER
 62
     3
100
AcDbLine
 10
150.3918034827574
 20
239.6656571213409
 30
0.0
 11
95.39180430889336
 21
239.6656571213409
 31
0.0
  0
LINE
  5
2538
330
2462
100
AcDbEntity
  8
2
  6
CENTER
 62
     3
100
AcDbLine
 10
122.8918038958255
 20
267.1656567081968
 30
0.0
 11
122.8918038958255
 21
212.1656575344085
 31
0.0
  0
LINE
  5
2539
330
2462
100
AcDbEntity
  8
0
 62
     7
100
AcDbLine
 10
211.0964003727548
 20
221.9156573878835
 30
0.0
 11
204.6249997776356
 21
221.9156573879291
 31
0.0
  0
LINE
  5
253A
330
2462
100
AcDbEntity
  8
0
 62
     7
100
AcDbLine
 10
211.6249997623421
 20
257.4156568547982
 30
0.0
 11
203.6249997923888
 21
257.4156568547982
 31
0.0
  0
LINE
  5
253B
330
2462
100
AcDbEntity
  8
0
 62
     7
100
AcDbLine
 10
211.6249997623796
 20
221.9156573878885
 30
0.0
 11
203.6249997922893
 21
221.9156573879064
 31
0.0
  0
LINE
  5
253C
330
2462
100
AcDbEntity
  8
0
 62
     7
100
AcDbLine
 10
204.9774998624304
 20
223.2796573674395
 30
0.0
 11
204.9774998624304
 21
226.3306573216377
 31
0.0
  0
LINE
  5
253D
330
2462
100
AcDbEntity
  8
0
 62
     7
100
AcDbLine
 10
211.0724997708708
 20
223.2796573673887
 30
0.0
 11
211.0724997708757
 21
226.3306573216377
 31
0.0
  0
LINE
  5
253E
330
2462
100
AcDbEntity
  8
0
 62
     7
100
AcDbLine
 10
210.9499997727279
 20
226.3306573216377
 30
0.0
 11
208.7553873740159
 21
226.3306573216377
 31
0.0
  0
LINE
  5
253F
330
2462
100
AcDbEntity
  8
0
 62
     7
100
AcDbLine
 10
211.1999997689614
 20
226.5806573178315
 30
0.0
 11
210.9499997727279
 21
226.3306573216377
 31
0.0
  0
LINE
  5
2540
330
2462
100
AcDbEntity
  8
0
 62
     7
100
AcDbLine
 10
211.1999997689614
 20
226.930657312599
 30
0.0
 11
211.1999997689614
 21
226.5806573178315
 31
0.0
  0
LINE
  5
2541
330
2462
100
AcDbEntity
  8
0
 62
     7
100
AcDbLine
 10
210.9999997719639
 20
227.1306573095944
 30
0.0
 11
211.1999997689614
 21
226.930657312599
 31
0.0
  0
LINE
  5
2542
330
2462
100
AcDbEntity
  8
0
 62
     7
100
AcDbLine
 10
205.0499998613247
 20
227.1306573096198
 30
0.0
 11
210.9999997719639
 21
227.1306573095944
 31
0.0
  0
LINE
  5
2543
330
2462
100
AcDbEntity
  8
0
 62
     7
100
AcDbLine
 10
204.8499998643293
 20
226.930657312599
 30
0.0
 11
205.0499998613247
 21
227.1306573096198
 31
0.0
  0
LINE
  5
2544
330
2462
100
AcDbEntity
  8
0
 62
     7
100
AcDbLine
 10
204.8499998643293
 20
226.5806573178823
 30
0.0
 11
204.8499998643293
 21
226.930657312599
 31
0.0
  0
LINE
  5
2545
330
2462
100
AcDbEntity
  8
0
 62
     7
100
AcDbLine
 10
205.0999998605989
 20
226.3306573216377
 30
0.0
 11
204.8499998643293
 21
226.5806573178823
 31
0.0
  0
LINE
  5
2546
330
2462
100
AcDbEntity
  8
0
 62
     7
100
AcDbLine
 10
207.2946122592973
 20
226.3306573216377
 30
0.0
 11
205.0999998605989
 21
226.3306573216377
 31
0.0
  0
LINE
  5
2547
330
2462
100
AcDbEntity
  8
0
 62
     7
100
AcDbLine
 10
210.8724997738804
 20
223.479657364435
 30
0.0
 11
208.690006573498
 21
223.479657364435
 31
0.0
  0
LINE
  5
2548
330
2462
100
AcDbEntity
  8
0
 62
     7
100
AcDbLine
 10
211.0724997708708
 20
223.2796573673887
 30
0.0
 11
210.8724997738804
 21
223.479657364435
 31
0.0
  0
LINE
  5
2549
330
2462
100
AcDbEntity
  8
0
 62
     7
100
AcDbLine
 10
211.0724997708889
 20
222.9985974801511
 30
0.0
 11
211.0724997708708
 21
223.2796573673887
 31
0.0
  0
LINE
  5
254A
330
2462
100
AcDbEntity
  8
0
 62
     7
100
AcDbLine
 10
210.6724997768846
 20
222.7676573759552
 30
0.0
 11
211.0724997708889
 21
222.9985974801511
 31
0.0
  0
LINE
  5
254B
330
2462
100
AcDbEntity
  8
0
 62
     7
100
AcDbLine
 10
205.3774998564215
 20
222.7676573759552
 30
0.0
 11
210.6724997768846
 21
222.7676573759552
 31
0.0
  0
LINE
  5
254C
330
2462
100
AcDbEntity
  8
0
 62
     7
100
AcDbLine
 10
204.9774998624304
 20
222.9985974801511
 30
0.0
 11
205.3774998564215
 21
222.7676573759552
 31
0.0
  0
LINE
  5
254D
330
2462
100
AcDbEntity
  8
0
 62
     7
100
AcDbLine
 10
204.9774998624304
 20
223.2796573674395
 30
0.0
 11
204.9774998624304
 21
222.9985974801511
 31
0.0
  0
LINE
  5
254E
330
2462
100
AcDbEntity
  8
0
 62
     7
100
AcDbLine
 10
205.1774998594261
 20
223.479657364435
 30
0.0
 11
204.9774998624304
 21
223.2796573674395
 31
0.0
  0
LINE
  5
254F
330
2462
100
AcDbEntity
  8
0
 62
     7
100
AcDbLine
 10
207.3599930597937
 20
223.479657364435
 30
0.0
 11
205.1774998594261
 21
223.479657364435
 31
0.0
  0
LINE
  5
2550
330
2462
100
AcDbEntity
  8
0
 62
     7
100
AcDbLine
 10
211.0724997708708
 20
256.0516568753032
 30
0.0
 11
211.0724997708757
 21
253.0006569210591
 31
0.0
  0
LINE
  5
2551
330
2462
100
AcDbEntity
  8
0
 62
     7
100
AcDbLine
 10
210.9499997727279
 20
253.0006569210591
 30
0.0
 11
208.7553873740159
 21
253.0006569210591
 31
0.0
  0
LINE
  5
2552
330
2462
100
AcDbEntity
  8
0
 62
     7
100
AcDbLine
 10
211.1999997689614
 20
252.750656924868
 30
0.0
 11
210.9499997727279
 21
253.0006569210591
 31
0.0
  0
LINE
  5
2553
330
2462
100
AcDbEntity
  8
0
 62
     7
100
AcDbLine
 10
211.1999997689614
 20
252.4006569300877
 30
0.0
 11
211.1999997689614
 21
252.750656924868
 31
0.0
  0
LINE
  5
2554
330
2462
100
AcDbEntity
  8
0
 62
     7
100
AcDbLine
 10
210.9999997719639
 20
252.2006569330974
 30
0.0
 11
211.1999997689614
 21
252.4006569300877
 31
0.0
  0
LINE
  5
2555
330
2462
100
AcDbEntity
  8
0
 62
     7
100
AcDbLine
 10
205.0499998613247
 20
252.2006569330744
 30
0.0
 11
210.9999997719639
 21
252.2006569330974
 31
0.0
  0
LINE
  5
2556
330
2462
100
AcDbEntity
  8
0
 62
     7
100
AcDbLine
 10
204.8499998643293
 20
252.4006569300877
 30
0.0
 11
205.0499998613247
 21
252.2006569330744
 31
0.0
  0
LINE
  5
2557
330
2462
100
AcDbEntity
  8
0
 62
     7
100
AcDbLine
 10
204.8499998643293
 20
252.7506569248199
 30
0.0
 11
204.8499998643293
 21
252.4006569300877
 31
0.0
  0
LINE
  5
2558
330
2462
100
AcDbEntity
  8
0
 62
     7
100
AcDbLine
 10
205.0999998605989
 20
253.0006569210591
 30
0.0
 11
204.8499998643293
 21
252.7506569248199
 31
0.0
  0
LINE
  5
2559
330
2462
100
AcDbEntity
  8
0
 62
     7
100
AcDbLine
 10
207.2946122592973
 20
253.0006569210591
 30
0.0
 11
205.0999998605989
 21
253.0006569210591
 31
0.0
  0
LINE
  5
255A
330
2462
100
AcDbEntity
  8
0
 62
     7
100
AcDbLine
 10
210.8724997738804
 20
255.8516568782642
 30
0.0
 11
208.690006573498
 21
255.8516568782642
 31
0.0
  0
LINE
  5
255B
330
2462
100
AcDbEntity
  8
0
 62
     7
100
AcDbLine
 10
211.0724997708708
 20
256.0516568753032
 30
0.0
 11
210.8724997738804
 21
255.8516568782642
 31
0.0
  0
LINE
  5
255C
330
2462
100
AcDbEntity
  8
0
 62
     7
100
AcDbLine
 10
211.0724997708889
 20
256.3327167625355
 30
0.0
 11
211.0724997708708
 21
256.0516568753032
 31
0.0
  0
LINE
  5
255D
330
2462
100
AcDbEntity
  8
0
 62
     7
100
AcDbLine
 10
210.6724997768846
 20
256.5636568667438
 30
0.0
 11
211.0724997708889
 21
256.3327167625355
 31
0.0
  0
LINE
  5
255E
330
2462
100
AcDbEntity
  8
0
 62
     7
100
AcDbLine
 10
205.3774998564215
 20
256.5636568667438
 30
0.0
 11
210.6724997768846
 21
256.5636568667438
 31
0.0
  0
LINE
  5
255F
330
2462
100
AcDbEntity
  8
0
 62
     7
100
AcDbLine
 10
204.9774998624304
 20
256.3327167625355
 30
0.0
 11
205.3774998564215
 21
256.5636568667438
 31
0.0
  0
LINE
  5
2560
330
2462
100
AcDbEntity
  8
0
 62
     7
100
AcDbLine
 10
204.9774998624304
 20
253.0006569210591
 30
0.0
 11
204.9774998624304
 21
256.3327167625355
 31
0.0
  0
LINE
  5
2561
330
2462
100
AcDbEntity
  8
0
 62
     7
100
AcDbLine
 10
205.1774998594261
 20
255.8516568782642
 30
0.0
 11
204.9774998624304
 21
256.051656875255
 31
0.0
  0
LINE
  5
2562
330
2462
100
AcDbEntity
  8
0
 62
     7
100
AcDbLine
 10
207.3599930597937
 20
255.8516568782642
 30
0.0
 11
205.1774998594261
 21
255.8516568782642
 31
0.0
  0
LINE
  5
2563
330
2462
100
AcDbEntity
  8
0
 62
     7
100
AcDbLine
 10
206.4249998406764
 20
225.9856573268028
 30
0.0
 11
206.4249998406764
 21
223.9156573578943
 31
0.0
  0
LINE
  5
2564
330
2462
100
AcDbEntity
  8
0
 62
     7
100
AcDbLine
 10
205.4049998559996
 20
225.9856573268536
 30
0.0
 11
206.7249998361721
 21
225.9856573268028
 31
0.0
  0
LINE
  5
2565
330
2462
100
AcDbEntity
  8
0
 62
     7
100
AcDbLine
 10
205.5349998540491
 20
224.9268923069997
 30
0.0
 11
205.4049998559996
 21
225.9856573268536
 31
0.0
  0
LINE
  5
2566
330
2462
100
AcDbEntity
  8
0
 62
     7
100
AcDbLine
 10
205.5349998540441
 20
223.9156573578943
 30
0.0
 11
205.5349998540491
 21
224.9268923069997
 31
0.0
  0
LINE
  5
2567
330
2462
100
AcDbEntity
  8
0
 62
     7
100
AcDbLine
 10
206.7249998361721
 20
223.9156573578943
 30
0.0
 11
205.5349998540441
 21
223.9156573578943
 31
0.0
  0
LINE
  5
2568
330
2462
100
AcDbEntity
  8
0
 62
     7
100
AcDbLine
 10
206.4249998406764
 20
253.3456569158864
 30
0.0
 11
206.4249998406764
 21
255.4156568848024
 31
0.0
  0
LINE
  5
2569
330
2462
100
AcDbEntity
  8
0
 62
     7
100
AcDbLine
 10
205.4049998559996
 20
253.3456569158408
 30
0.0
 11
206.7249998361721
 21
253.3456569158864
 31
0.0
  0
LINE
  5
256A
330
2462
100
AcDbEntity
  8
0
 62
     7
100
AcDbLine
 10
205.5349998540491
 20
254.4044219356845
 30
0.0
 11
205.4049998559996
 21
253.3456569158408
 31
0.0
  0
LINE
  5
256B
330
2462
100
AcDbEntity
  8
0
 62
     7
100
AcDbLine
 10
205.5349998540441
 20
255.4156568848024
 30
0.0
 11
205.5349998540491
 21
254.4044219356845
 31
0.0
  0
LINE
  5
256C
330
2462
100
AcDbEntity
  8
0
 62
     7
100
AcDbLine
 10
206.7249998361721
 20
255.4156568848024
 30
0.0
 11
205.5349998540441
 21
255.4156568848024
 31
0.0
  0
LINE
  5
256D
330
2462
100
AcDbEntity
  8
0
 62
     7
100
AcDbLine
 10
277.5724827000407
 20
231.382323912452
 30
0.0
 11
277.5724827000407
 21
232.3318144064946
 31
0.0
  0
LINE
  5
256E
330
2462
100
AcDbEntity
  8
0
 62
     7
100
AcDbLine
 10
279.5791493365596
 20
230.9156572527844
 30
0.0
 11
278.0391493596844
 21
230.9156572527844
 31
0.0
  0
LINE
  5
256F
330
2462
100
AcDbEntity
  8
0
 62
     7
100
AcDbLine
 10
279.5791493365596
 20
232.693173504225
 30
0.0
 11
279.5791493365596
 21
230.9156572527844
 31
0.0
  0
LINE
  5
2570
330
2462
100
AcDbEntity
  8
0
 62
     7
100
AcDbLine
 10
282.0524826327438
 20
231.382323912452
 30
0.0
 11
282.0524826327438
 21
232.3318144064946
 31
0.0
  0
LINE
  5
2571
330
2462
100
AcDbEntity
  8
0
 62
     7
100
AcDbLine
 10
280.0458159962165
 20
230.9156572527844
 30
0.0
 11
281.5858159730938
 21
230.9156572527844
 31
0.0
  0
LINE
  5
2572
330
2462
100
AcDbEntity
  8
0
 62
     7
100
AcDbLine
 10
280.0458159962165
 20
232.693173504225
 30
0.0
 11
280.0458159962165
 21
230.9156572527844
 31
0.0
  0
LINE
  5
2573
330
2462
100
AcDbEntity
  8
2
  6
CENTER
 62
     3
100
AcDbLine
 10
279.812482666388
 20
267.1656567081968
 30
0.0
 11
279.812482666388
 21
212.1656575344085
 31
0.0
  0
LINE
  5
2574
330
2462
100
AcDbEntity
  8
1
  6
DASHED
 62
     7
100
AcDbLine
 10
281.012482666388
 20
246.5620328745591
 30
0.0
 11
281.012482666388
 21
242.4152024892801
 31
0.0
  0
LINE
  5
2575
330
2462
100
AcDbEntity
  8
1
  6
CENTER
 62
     3
100
AcDbLine
 10
270.1249826661393
 20
222.886414923017
 30
0.0
 11
267.4999826661393
 21
218.3397815531491
 31
0.0
  0
LINE
  5
2576
330
2462
100
AcDbEntity
  8
1
  6
CENTER
 62
     3
100
AcDbLine
 10
270.1249826661393
 20
256.4448993196644
 30
0.0
 11
267.4999826661393
 21
260.9915326895324
 31
0.0
  0
ARC
  5
2577
330
2462
100
AcDbEntity
  8
0
 62
     7
100
AcDbCircle
 10
269.0366719422888
 20
249.7295617790073
 30
0.0
 40
1.587499976142603
100
AcDbArc
 50
162.98385271518
 51
291.0187342084274
  0
ARC
  5
2578
330
2462
100
AcDbEntity
  8
0
 62
     7
100
AcDbCircle
 10
266.7210592534729
 20
246.449085955147
 30
0.0
 40
1.587499976193038
100
AcDbArc
 50
358.546483301733
 51
126.5813647933144
  0
ARC
  5
2579
330
2462
100
AcDbEntity
  8
0
 62
     7
100
AcDbCircle
 10
272.1514772161587
 20
252.2636438339573
 30
0.0
 40
1.587499976178254
100
AcDbArc
 50
327.2421354809412
 51
95.27701697400187
  0
ARC
  5
257A
330
2462
100
AcDbEntity
  8
0
 62
     7
100
AcDbCircle
 10
269.0366719422871
 20
249.7295617790086
 30
0.0
 40
1.587499976175504
100
AcDbArc
 50
342.8943093906683
 51
110.9291908831784
  0
ARC
  5
257B
330
2462
100
AcDbEntity
  8
0
 62
     7
100
AcDbCircle
 10
279.8124826668536
 20
239.6656571211692
 30
0.0
 40
13.67999979450177
100
AcDbArc
 50
236.4597932896818
 51
240.931338342744
  0
ARC
  5
257C
330
2462
100
AcDbEntity
  8
0
 62
     7
100
AcDbCircle
 10
273.9180975827379
 20
226.0955339491068
 30
0.0
 40
1.779999972885599
100
AcDbArc
 50
114.9958602631096
 51
186.1041246776166
  0
ARC
  5
257D
330
2462
100
AcDbEntity
  8
0
 62
     7
100
AcDbCircle
 10
270.4755367907204
 20
228.1890086499116
 30
0.0
 40
1.779999973288326
100
AcDbArc
 50
291.2870069665391
 51
2.395271370418206
  0
ARC
  5
257E
330
2462
100
AcDbEntity
  8
0
 62
     7
100
AcDbCircle
 10
279.8124826668094
 20
239.6656571211958
 30
0.0
 40
15.7499997634728
100
AcDbArc
 50
236.5099136345345
 51
240.8812180002558
  0
ARC
  5
257F
330
2462
100
AcDbEntity
  8
0
 62
     7
100
AcDbCircle
 10
279.8124826667641
 20
239.6656571211548
 30
0.0
 40
15.7499997634728
100
AcDbArc
 50
220.8577396549565
 51
225.2290440206774
  0
ARC
  5
2580
330
2462
100
AcDbEntity
  8
0
 62
     7
100
AcDbCircle
 10
279.8124826667993
 20
239.665657121117
 30
0.0
 40
13.67999979450175
100
AcDbArc
 50
220.8076193101045
 51
225.279164363166
  0
ARC
  5
2581
330
2462
100
AcDbEntity
  8
0
 62
     7
100
AcDbCircle
 10
267.7254133604825
 20
231.1336717712139
 30
0.0
 40
1.779999973288294
100
AcDbArc
 50
275.634832986958
 51
346.743097390841
  0
ARC
  5
2582
330
2462
100
AcDbEntity
  8
0
 62
     7
100
AcDbCircle
 10
270.4755019416666
 20
228.1890370017924
 30
0.0
 40
1.779999972885564
100
AcDbArc
 50
99.343686283528
 51
170.4519506980391
  0
ARC
  5
2583
330
2462
100
AcDbEntity
  8
0
 62
     7
100
AcDbCircle
 10
279.8124826667091
 20
239.6656571211273
 30
0.0
 40
15.74999976347275
100
AcDbArc
 50
205.2055656753787
 51
209.5768700410995
  0
ARC
  5
2584
330
2462
100
AcDbEntity
  8
0
 62
     7
100
AcDbCircle
 10
265.8717325735934
 20
234.7111132200454
 30
0.0
 40
1.779999973288314
100
AcDbArc
 50
259.9826590073798
 51
331.090923411262
  0
ARC
  5
2585
330
2462
100
AcDbEntity
  8
0
 62
     7
100
AcDbCircle
 10
279.8124826667328
 20
239.6656571210813
 30
0.0
 40
13.67999979450181
100
AcDbArc
 50
205.155445330526
 51
209.6269903835884
  0
ARC
  5
2586
330
2462
100
AcDbEntity
  8
0
 62
     7
100
AcDbCircle
 10
267.7253874529723
 20
231.1337084738919
 30
0.0
 40
1.77999997288559
100
AcDbArc
 50
83.69151230395043
 51
154.7997767184608
  0
ARC
  5
2587
330
2462
100
AcDbEntity
  8
0
 62
     7
100
AcDbCircle
 10
279.8124826666488
 20
239.6656571211158
 30
0.0
 40
15.74999976347285
100
AcDbArc
 50
189.5533916958017
 51
193.9246960615225
  0
ARC
  5
2588
330
2462
100
AcDbEntity
  8
0
 62
     7
100
AcDbCircle
 10
265.0519734551524
 20
238.6560105276104
 30
0.0
 40
1.779999973288334
100
AcDbArc
 50
244.3304850278021
 51
315.4387494316826
  0
ARC
  5
2589
330
2462
100
AcDbEntity
  8
0
 62
     7
100
AcDbCircle
 10
279.8124826666596
 20
239.665657121065
 30
0.0
 40
13.67999979450176
100
AcDbArc
 50
189.5032713509488
 51
193.9748164040119
  0
ARC
  5
258A
330
2462
100
AcDbEntity
  8
0
 62
     7
100
AcDbCircle
 10
265.8717175290679
 20
234.7111555514519
 30
0.0
 40
1.77999997288552
100
AcDbArc
 50
68.03933832437394
 51
139.1476027388864
  0
ARC
  5
258B
330
2462
100
AcDbEntity
  8
0
 62
     7
100
AcDbCircle
 10
265.3269337893394
 20
242.6757887048391
 30
0.0
 40
1.779999973288354
100
AcDbArc
 50
228.6783110482246
 51
299.7865754521038
  0
ARC
  5
258C
330
2462
100
AcDbEntity
  8
0
 62
     7
100
AcDbCircle
 10
265.0519703893954
 20
238.6560553482177
 30
0.0
 40
1.779999972885504
100
AcDbArc
 50
52.38716434479591
 51
123.4954287593087
  0
ARC
  5
258D
330
2462
100
AcDbEntity
  8
0
 62
     7
100
AcDbCircle
 10
279.8124826665878
 20
239.6656571211208
 30
0.0
 40
15.7499997634728
100
AcDbArc
 50
173.9012177162241
 51
178.2725220819457
  0
ARC
  5
258E
330
2462
100
AcDbEntity
  8
0
 62
     7
100
AcDbCircle
 10
279.8124826665841
 20
239.6656571210693
 30
0.0
 40
13.67999979450173
100
AcDbArc
 50
173.8510973713716
 51
178.3226424244347
  0
ARC
  5
258F
330
2462
100
AcDbEntity
  8
0
 62
     7
100
AcDbCircle
 10
266.6762210258553
 20
246.4723191910694
 30
0.0
 40
1.779999973288318
100
AcDbArc
 50
213.0261370686458
 51
284.1344014725286
  0
ARC
  5
2590
330
2462
100
AcDbEntity
  8
0
 62
     7
100
AcDbCircle
 10
265.3269429297242
 20
242.6758326905082
 30
0.0
 40
1.779999972885416
100
AcDbArc
 50
36.73499036521821
 51
107.84325477973
  0
ARC
  5
2591
330
2462
100
AcDbEntity
  8
0
 62
     7
100
AcDbCircle
 10
279.81248266653
 20
239.6656571211422
 30
0.0
 40
15.74999976347275
100
AcDbArc
 50
158.2490437366458
 51
162.6203481023688
  0
ARC
  5
2592
330
2462
100
AcDbEntity
  8
0
 62
     7
100
AcDbCircle
 10
279.812482666513
 20
239.6656571210936
 30
0.0
 40
13.67999979450173
100
AcDbArc
 50
158.1989233917937
 51
162.6704684448564
  0
ARC
  5
2593
330
2462
100
AcDbEntity
  8
0
 62
     7
100
AcDbCircle
 10
266.6762416944815
 20
246.4723590795844
 30
0.0
 40
1.779999972885405
100
AcDbArc
 50
21.08281638563937
 51
92.19108080015642
  0
ARC
  5
2594
330
2462
100
AcDbEntity
  8
0
 62
     7
100
AcDbCircle
 10
268.9997647021011
 20
249.7640306857298
 30
0.0
 40
1.77999997328835
100
AcDbArc
 50
197.373963089067
 51
268.4822274929479
  0
ARC
  5
2595
330
2462
100
AcDbEntity
  8
0
 62
     7
100
AcDbCircle
 10
279.8124826664805
 20
239.6656571211785
 30
0.0
 40
15.7499997634728
100
AcDbArc
 50
142.5968697570689
 51
146.9681741227915
  0
ARC
  5
2596
330
2462
100
AcDbEntity
  8
0
 62
     7
100
AcDbCircle
 10
268.9997647021011
 20
249.7640306857298
 30
0.0
 40
1.77999997328835
100
AcDbArc
 50
197.373963089067
 51
268.4822274929479
  0
ARC
  5
2597
330
2462
100
AcDbEntity
  8
0
 62
     7
100
AcDbCircle
 10
279.8124826664508
 20
239.665657121136
 30
0.0
 40
13.67999979450167
100
AcDbArc
 50
142.5467494122159
 51
147.0182944652794
  0
ARC
  5
2598
330
2462
100
AcDbEntity
  8
0
 62
     7
100
AcDbCircle
 10
272.1252382116583
 20
252.3067920037773
 30
0.0
 40
1.779999973288455
100
AcDbArc
 50
181.72178910949
 51
252.8300535133741
  0
ARC
  5
2599
330
2462
100
AcDbEntity
  8
0
 62
     7
100
AcDbCircle
 10
279.8124826664424
 20
239.6656571212266
 30
0.0
 40
15.74999976347275
100
AcDbArc
 50
126.9446957774915
 51
131.316000143213
  0
ARC
  5
259A
330
2462
100
AcDbEntity
  8
0
 62
     7
100
AcDbCircle
 10
268.9997953660709
 20
249.7640635187418
 30
0.0
 40
1.77999997288534
100
AcDbArc
 50
5.430642406062641
 51
76.53890682057974
  0
ARC
  5
259B
330
2462
100
AcDbEntity
  8
0
 62
     7
100
AcDbCircle
 10
279.8124826664025
 20
239.6656571211939
 30
0.0
 40
13.67999979450178
100
AcDbArc
 50
126.8945754326401
 51
131.3661204857011
  0
ARC
  5
259C
330
2462
100
AcDbEntity
  8
0
 62
     7
100
AcDbCircle
 10
275.8208394804544
 20
253.9120181690173
 30
0.0
 40
1.779999973288438
100
AcDbArc
 50
166.0696151299129
 51
237.1778795337934
  0
ARC
  5
259D
330
2462
100
AcDbEntity
  8
0
 62
     7
100
AcDbCircle
 10
279.8124826663716
 20
239.6656571212626
 30
0.0
 40
13.67999979450181
100
AcDbArc
 50
111.2424014530613
 51
115.7139465061239
  0
ARC
  5
259E
330
2462
100
AcDbEntity
  8
0
 62
     7
100
AcDbCircle
 10
279.8124826664188
 20
239.6656571212831
 30
0.0
 40
15.74999976347275
100
AcDbArc
 50
111.2925217979144
 51
115.6638261636361
  0
ARC
  5
259F
330
2462
100
AcDbEntity
  8
0
 62
     7
100
AcDbCircle
 10
272.1252765967656
 20
252.3068153462117
 30
0.0
 40
1.779999972885228
100
AcDbArc
 50
349.778468426483
 51
60.88673284100126
  0
ARC
  5
25A0
330
2462
100
AcDbEntity
  8
0
 62
     7
100
AcDbCircle
 10
273.9382578946039
 20
226.1418352853834
 30
0.0
 40
1.587499976142605
100
AcDbArc
 50
272.5490700861505
 51
40.58395157867336
  0
ARC
  5
25A1
330
2462
100
AcDbEntity
  8
0
 62
     7
100
AcDbCircle
 10
273.9382578946075
 20
226.1418352853921
 30
0.0
 40
1.587499976163734
100
AcDbArc
 50
92.45952676168085
 51
220.4944082530718
  0
ARC
  5
25A2
330
2462
100
AcDbEntity
  8
0
 62
     7
100
AcDbCircle
 10
270.5074066194366
 20
228.2281821604989
 30
0.0
 40
1.587499976151469
100
AcDbArc
 50
256.8968961755917
 51
24.93177766852332
  0
ARC
  5
25A3
330
2462
100
AcDbEntity
  8
0
 62
     7
100
AcDbCircle
 10
270.5074066194345
 20
228.2281821604966
 30
0.0
 40
1.587499976152138
100
AcDbArc
 50
76.80735285078633
 51
204.8422343427446
  0
ARC
  5
25A4
330
2462
100
AcDbEntity
  8
0
 62
     7
100
AcDbCircle
 10
267.7666702665363
 20
231.1627942301599
 30
0.0
 40
1.587499976135546
100
AcDbArc
 50
241.2447222658553
 51
9.279603758245118
  0
ARC
  5
25A5
330
2462
100
AcDbEntity
  8
0
 62
     7
100
AcDbCircle
 10
267.7666702665363
 20
231.1627942301599
 30
0.0
 40
1.587499976150489
100
AcDbArc
 50
61.15517894087052
 51
189.1900604344598
  0
ARC
  5
25A6
330
2462
100
AcDbEntity
  8
0
 62
     7
100
AcDbCircle
 10
265.9193167130751
 20
234.7280247421559
 30
0.0
 40
1.587499976099838
100
AcDbArc
 50
225.5925483554428
 51
353.6274298479352
  0
ARC
  5
25A7
330
2462
100
AcDbEntity
  8
0
 62
     7
100
AcDbCircle
 10
265.919316713072
 20
234.7280247421549
 30
0.0
 40
1.587499976212989
100
AcDbArc
 50
45.50300503216004
 51
173.5378865242454
  0
ARC
  5
25A8
330
2462
100
AcDbEntity
  8
0
 62
     7
100
AcDbCircle
 10
265.1023557208992
 20
238.6594568594133
 30
0.0
 40
1.587499976143804
100
AcDbArc
 50
209.9403744461525
 51
337.975255938138
  0
ARC
  5
25A9
330
2462
100
AcDbEntity
  8
0
 62
     7
100
AcDbCircle
 10
265.1023557208992
 20
238.6594568594133
 30
0.0
 40
1.587499976120549
100
AcDbArc
 50
29.85083112039355
 51
157.88571261288
  0
ARC
  5
25AA
330
2462
100
AcDbEntity
  8
0
 62
     7
100
AcDbCircle
 10
265.3763775495328
 20
242.6655142470286
 30
0.0
 40
1.587499976120949
100
AcDbArc
 50
194.2882005353651
 51
322.3230820274772
  0
ARC
  5
25AB
330
2462
100
AcDbEntity
  8
0
 62
     7
100
AcDbCircle
 10
265.3763775495328
 20
242.6655142470286
 30
0.0
 40
1.587499976187489
100
AcDbArc
 50
14.1986572111606
 51
142.2335387039213
  0
ARC
  5
25AC
330
2462
100
AcDbEntity
  8
0
 62
     7
100
AcDbCircle
 10
266.7210592534729
 20
246.449085955147
 30
0.0
 40
1.587499976125561
100
AcDbArc
 50
178.6360266253988
 51
306.6709081177561
  0
ARC
  5
25AD
330
2462
100
AcDbEntity
  8
0
 62
     7
100
AcDbCircle
 10
272.1514772161587
 20
252.2636438339573
 30
0.0
 40
1.587499976136375
100
AcDbArc
 50
147.3316788052999
 51
275.3665602971618
  0
ARC
  5
25AE
330
2462
100
AcDbEntity
  8
0
 62
     7
100
AcDbCircle
 10
275.834464217285
 20
253.8633908467857
 30
0.0
 40
1.587499976124129
100
AcDbArc
 50
131.6795048956848
 51
259.7143863877137
  0
ARC
  5
25AF
330
2462
100
AcDbEntity
  8
1
 62
     7
100
AcDbCircle
 10
279.812482666388
 20
239.6656571213409
 30
0.0
 40
24.99999962456469
100
AcDbArc
 50
258.463040791549
 51
101.5369592084509
  0
ARC
  5
25B0
330
2462
100
AcDbEntity
  8
0
 62
     7
100
AcDbCircle
 10
205.3249997667871
 20
220.3656574112624
 30
0.0
 40
0.2999999954804409
100
AcDbArc
 50
359.9999999927045
 51
90.00000000245405
  0
ARC
  5
25B1
330
2462
100
AcDbEntity
  8
0
 62
     7
100
AcDbCircle
 10
205.3249997669559
 20
258.965656831525
 30
0.0
 40
0.2999999954894896
100
AcDbArc
 50
269.9999999992507
 51
359.9999999905223
  0
ARC
  5
25B2
330
2462
100
AcDbEntity
  8
0
 62
     7
100
AcDbCircle
 10
190.8749991653611
 20
223.1216555899189
 30
0.0
 40
0.7499993155134838
100
AcDbArc
 50
179.9999484549663
 51
270.0007216384369
  0
ARC
  5
25B3
330
2462
100
AcDbEntity
  8
0
 62
     7
100
AcDbCircle
 10
189.8749998536066
 20
227.9156561926884
 30
0.0
 40
0.2499999962411719
100
AcDbArc
 50
359.999999999272
 51
89.99999999927046
  0
ARC
  5
25B4
330
2462
100
AcDbEntity
  8
0
 62
     7
100
AcDbCircle
 10
190.9749998401017
 20
256.1096557677621
 30
0.0
 40
0.8558621286831041
100
AcDbArc
 50
83.29016311670093
 51
173.2901631161842
  0
ARC
  5
25B5
330
2462
100
AcDbEntity
  8
0
 62
     7
100
AcDbCircle
 10
189.8749998536098
 20
251.41565583971
 30
0.0
 40
0.2499999962392909
100
AcDbArc
 50
270.0
 51
0.0
  0
ARC
  5
25B6
330
2462
100
AcDbEntity
  8
0
 62
     7
100
AcDbCircle
 10
211.5249997639541
 20
222.6534278254764
 30
0.0
 40
0.0999999983882276
100
AcDbArc
 50
0.0000000049830386
 51
85.99999999137283
  0
ARC
  5
25B7
330
2462
100
AcDbEntity
  8
0
 62
     7
100
AcDbCircle
 10
211.5249997637512
 20
222.4856781330728
 30
0.0
 40
0.0999999985401404
100
AcDbArc
 50
314.9999999999906
 51
359.9999999931946
  0
ARC
  5
25B8
330
2462
100
AcDbEntity
  8
0
 62
     7
100
AcDbCircle
 10
200.4426083354937
 20
204.3740033183464
 30
0.0
 40
18.0333586908425
100
AcDbArc
 50
76.58955347839027
 51
93.6060626517894
  0
ARC
  5
25B9
330
2462
100
AcDbEntity
  8
0
 62
     7
100
AcDbCircle
 10
190.9249998100508
 20
223.1676562647765
 30
0.0
 40
0.3999999939917989
100
AcDbArc
 50
180.0
 51
270.0
  0
ARC
  5
25BA
330
2462
100
AcDbEntity
  8
0
 62
     7
100
AcDbCircle
 10
211.524999763944
 20
256.6778864172146
 30
0.0
 40
0.0999999983981004
100
AcDbArc
 50
274.0000000140024
 51
0.0000000012718148
  0
ARC
  5
25BB
330
2462
100
AcDbEntity
  8
0
 62
     7
100
AcDbCircle
 10
200.5426083355274
 20
274.2888540951751
 30
0.0
 40
17.36003182603876
100
AcDbArc
 50
266.5845668265436
 51
283.6010759999451
  0
ARC
  5
25BC
330
2462
100
AcDbEntity
  8
0
 62
     7
100
AcDbCircle
 10
190.9249998100508
 20
256.163655767619
 30
0.0
 40
0.3999999939808312
100
AcDbArc
 50
90.0
 51
180.0
  0
ARC
  5
25BD
330
2462
100
AcDbEntity
  8
0
 62
     7
100
AcDbCircle
 10
211.5249997637512
 20
256.8456361096293
 30
0.0
 40
0.0999999985401097
100
AcDbArc
 50
0.0000000068410932
 51
45.00000000002533
  0
ARC
  5
25BE
330
2462
100
AcDbEntity
  8
1
  6
CENTER
 62
     3
100
AcDbCircle
 10
122.8918038958255
 20
239.6656571213409
 30
0.0
 40
9.250000000000019
100
AcDbArc
 50
45.49108912530186
 51
73.84437879489363
  0
ARC
  5
25BF
330
2462
100
AcDbEntity
  8
1
  6
CENTER
 62
     3
100
AcDbCircle
 10
122.8918038958255
 20
239.6656571213409
 30
0.0
 40
9.25000000000003
100
AcDbArc
 50
226.0634023995474
 51
253.4740473602599
  0
ARC
  5
25C0
330
2462
100
AcDbEntity
  8
0
 62
     7
100
AcDbCircle
 10
279.8124826663889
 20
240.0739904485554
 30
0.0
 40
7.734999883809233
100
AcDbArc
 50
130.2716567142278
 51
250.730361122028
  0
ARC
  5
25C1
330
2462
100
AcDbEntity
  8
0
 62
     7
100
AcDbCircle
 10
277.1058160403762
 20
232.3318144064901
 30
0.0
 40
0.4666666596644973
100
AcDbArc
 50
0.0000000005406434
 51
70.73036112248178
  0
ARC
  5
25C2
330
2462
100
AcDbEntity
  8
0
 62
     7
100
AcDbCircle
 10
278.0391493596964
 20
231.382323912452
 30
0.0
 40
0.4666666596676948
100
AcDbArc
 50
180.0
 51
269.9999999985278
  0
ARC
  5
25C3
330
2462
100
AcDbEntity
  8
0
 62
     7
100
AcDbCircle
 10
279.8124826663873
 20
240.0739904485554
 30
0.0
 40
7.73499988380939
100
AcDbArc
 50
289.2696388779717
 51
89.99999999999348
  0
ARC
  5
25C4
330
2462
100
AcDbEntity
  8
0
 62
     7
100
AcDbCircle
 10
282.5191492924028
 20
232.3318144064946
 30
0.0
 40
0.4666666596596531
100
AcDbArc
 50
109.269638877499
 51
180.0
  0
ARC
  5
25C5
330
2462
100
AcDbEntity
  8
0
 62
     7
100
AcDbCircle
 10
281.5858159730875
 20
231.3823239124515
 30
0.0
 40
0.4666666596669984
100
AcDbArc
 50
270.0000000007849
 51
0.00000000007328
  0
ARC
  5
25C6
330
2462
100
AcDbEntity
  8
0
 62
     7
100
AcDbCircle
 10
279.8124826663889
 20
240.0739904485554
 30
0.0
 40
7.734999883809304
100
AcDbArc
 50
90.00000000000651
 51
130.2716567142278
  0
ARC
  5
25C7
330
2462
100
AcDbEntity
  8
0
 62
     7
100
AcDbCircle
 10
279.8124826843479
 20
254.4101568998967
 30
0.0
 40
1.587499976126061
100
AcDbArc
 50
295.937787522042
 51
63.9726690144196
  0
ARC
  5
25C8
330
2462
100
AcDbEntity
  8
0
 62
     7
100
AcDbCircle
 10
279.8124826843479
 20
254.4101568998982
 30
0.0
 40
1.587499976159324
100
AcDbArc
 50
116.0273308464571
 51
244.0622123389403
  0
ARC
  5
25C9
330
2462
100
AcDbEntity
  8
0
 62
     7
100
AcDbCircle
 10
283.7905011154908
 20
253.8633908467857
 30
0.0
 40
1.58749997612406
100
AcDbArc
 50
280.2856136122895
 51
48.32049510431168
  0
ARC
  5
25CA
330
2462
100
AcDbEntity
  8
0
 62
     7
100
AcDbCircle
 10
283.7905011154908
 20
253.8633908467857
 30
0.0
 40
1.587499976161653
100
AcDbArc
 50
100.3751569363384
 51
228.410038428508
  0
ARC
  5
25CB
330
2462
100
AcDbEntity
  8
0
 62
     7
100
AcDbCircle
 10
287.4734881166172
 20
252.2636438339573
 30
0.0
 40
1.587499976136129
100
AcDbArc
 50
264.6334397028379
 51
32.66832119469921
  0
ARC
  5
25CC
330
2462
100
AcDbEntity
  8
0
 62
     7
100
AcDbCircle
 10
287.4734881166172
 20
252.2636438339573
 30
0.0
 40
1.587499976177863
100
AcDbArc
 50
84.72298302599325
 51
212.7578645190585
  0
ARC
  5
25CD
330
2462
100
AcDbEntity
  8
0
 62
     7
100
AcDbCircle
 10
290.5882933904872
 20
249.7295617790073
 30
0.0
 40
1.587499976142549
100
AcDbArc
 50
248.981265791571
 51
17.01614728481986
  0
ARC
  5
25CE
330
2462
100
AcDbEntity
  8
0
 62
     7
100
AcDbCircle
 10
290.5882933904891
 20
249.7295617790086
 30
0.0
 40
1.587499976173925
100
AcDbArc
 50
69.07080911682159
 51
197.1056906093313
  0
ARC
  5
25CF
330
2462
100
AcDbEntity
  8
0
 62
     7
100
AcDbCircle
 10
292.903906079303
 20
246.449085955147
 30
0.0
 40
1.587499976125118
100
AcDbArc
 50
233.3290918822459
 51
1.363973374601165
  0
ARC
  5
25D0
330
2462
100
AcDbEntity
  8
0
 62
     7
100
AcDbCircle
 10
292.903906079303
 20
246.449085955147
 30
0.0
 40
1.587499976194504
100
AcDbArc
 50
53.41863520668535
 51
181.4535166982668
  0
ARC
  5
25D1
330
2462
100
AcDbEntity
  8
0
 62
     7
100
AcDbCircle
 10
294.2485877832431
 20
242.6655142470286
 30
0.0
 40
1.587499976119818
100
AcDbArc
 50
217.6769179725224
 51
345.7117994646346
  0
ARC
  5
25D2
330
2462
100
AcDbEntity
  8
0
 62
     7
100
AcDbCircle
 10
294.2485877832431
 20
242.6655142470286
 30
0.0
 40
1.587499976187781
100
AcDbArc
 50
37.76646129607641
 51
165.8013427888394
  0
ARC
  5
25D3
330
2462
100
AcDbEntity
  8
0
 62
     7
100
AcDbCircle
 10
294.5226096118768
 20
238.6594568594133
 30
0.0
 40
1.587499976144445
100
AcDbArc
 50
202.0247440618601
 51
330.059625553845
  0
ARC
  5
25D4
330
2462
100
AcDbEntity
  8
0
 62
     7
100
AcDbCircle
 10
294.5226096118768
 20
238.6594568594133
 30
0.0
 40
1.58749997612158
100
AcDbArc
 50
22.11428738712112
 51
150.1491688796064
  0
ARC
  5
25D5
330
2462
100
AcDbEntity
  8
0
 62
     7
100
AcDbCircle
 10
293.7056486197008
 20
234.7280247421559
 30
0.0
 40
1.587499976099753
100
AcDbArc
 50
186.3725701520645
 51
314.4074516445594
  0
ARC
  5
25D6
330
2462
100
AcDbEntity
  8
0
 62
     7
100
AcDbCircle
 10
293.705648619704
 20
234.7280247421549
 30
0.0
 40
1.587499976212869
100
AcDbArc
 50
6.462113475754526
 51
134.4969949678395
  0
ARC
  5
25D7
330
2462
100
AcDbEntity
  8
0
 62
     7
100
AcDbCircle
 10
291.8582950662397
 20
231.1627942301599
 30
0.0
 40
1.587499976133722
100
AcDbArc
 50
170.7203962417548
 51
298.7552777341445
  0
ARC
  5
25D8
330
2462
100
AcDbEntity
  8
0
 62
     7
100
AcDbCircle
 10
291.8582950662397
 20
231.1627942301599
 30
0.0
 40
1.587499976150289
100
AcDbArc
 50
350.8099395655396
 51
118.844821059128
  0
ARC
  5
25D9
330
2462
100
AcDbEntity
  8
0
 62
     7
100
AcDbCircle
 10
289.1175587133395
 20
228.2281821604989
 30
0.0
 40
1.587499976151528
100
AcDbArc
 50
155.0682223314781
 51
283.1031038244066
  0
ARC
  5
25DA
330
2462
100
AcDbEntity
  8
0
 62
     7
100
AcDbCircle
 10
289.1175587133411
 20
228.2281821604966
 30
0.0
 40
1.587499976152245
100
AcDbArc
 50
335.1577656572568
 51
103.1926471492121
  0
ARC
  5
25DB
330
2462
100
AcDbEntity
  8
0
 62
     7
100
AcDbCircle
 10
285.6867074381721
 20
226.1418352853834
 30
0.0
 40
1.587499976142654
100
AcDbArc
 50
139.4160484213266
 51
267.4509299138441
  0
ARC
  5
25DC
330
2462
100
AcDbEntity
  8
0
 62
     7
100
AcDbCircle
 10
285.6867074381682
 20
226.1418352853921
 30
0.0
 40
1.587499976163738
100
AcDbArc
 50
319.5055917469278
 51
87.54047323831587
  0
ARC
  5
25DD
330
2462
100
AcDbEntity
  8
0
 62
     7
100
AcDbCircle
 10
281.8201917846473
 20
225.0584884081434
 30
0.0
 40
1.587499976168079
100
AcDbArc
 50
123.7638745115405
 51
251.7987560044884
  0
ARC
  5
25DE
330
2462
100
AcDbEntity
  8
0
 62
     7
100
AcDbCircle
 10
281.8201917846466
 20
225.0584884081511
 30
0.0
 40
1.587499976172301
100
AcDbArc
 50
303.8534178367449
 51
71.88829932942471
  0
ARC
  5
25DF
330
2462
100
AcDbEntity
  8
0
 62
     7
100
AcDbCircle
 10
277.8047735304368
 20
225.0584884105967
 30
0.0
 40
1.587499976130265
100
AcDbArc
 50
108.1117006018688
 51
236.146582095193
  0
ARC
  5
25E0
330
2462
100
AcDbEntity
  8
0
 62
     7
100
AcDbCircle
 10
277.8047735304356
 20
225.0584884105883
 30
0.0
 40
1.587499976207219
100
AcDbArc
 50
288.2012439256829
 51
56.23612541828899
  0
ARC
  5
25E1
330
2462
100
AcDbEntity
  8
0
 62
     7
100
AcDbCircle
 10
275.8344642345591
 20
253.8633908516391
 30
0.0
 40
1.587499976182718
100
AcDbArc
 50
311.5899615005888
 51
79.62484299397948
  0
ARC
  5
25E2
330
2462
100
AcDbEntity
  8
0
 62
     7
100
AcDbCircle
 10
279.812482666388
 20
254.4101568998967
 30
0.0
 40
1.58749997613962
100
AcDbArc
 50
295.9377875915856
 51
63.97266908399791
  0
ARC
  5
25E3
330
2462
100
AcDbEntity
  8
0
 62
     7
100
AcDbCircle
 10
279.812482666388
 20
254.4101568998978
 30
0.0
 40
1.587499976173659
100
AcDbArc
 50
116.0273309160159
 51
244.0622124084935
  0
ARC
  5
25E4
330
2462
100
AcDbEntity
  8
0
 62
     7
100
AcDbCircle
 10
279.8124826663792
 20
239.6656571213421
 30
0.0
 40
15.74999976352724
100
AcDbArc
 50
79.98434781967604
 51
84.35565218547491
  0
ARC
  5
25E5
330
2462
100
AcDbEntity
  8
0
 62
     7
100
AcDbCircle
 10
283.8050771672604
 20
253.9117515889317
 30
0.0
 40
1.779999973278614
100
AcDbArc
 50
134.7614411516034
 51
205.8697055551145
  0
ARC
  5
25E6
330
2462
100
AcDbEntity
  8
0
 62
     7
100
AcDbCircle
 10
279.812482666388
 20
239.6656571213409
 30
0.0
 40
13.67999979459754
100
AcDbArc
 50
79.93422747506851
 51
84.40577252809909
  0
ARC
  5
25E7
330
2462
100
AcDbEntity
  8
0
 62
     7
100
AcDbCircle
 10
279.812482666385
 20
239.6656571213421
 30
0.0
 40
15.74999976345566
100
AcDbArc
 50
64.3323478202188
 51
68.70365218613975
  0
ARC
  5
25E8
330
2462
100
AcDbEntity
  8
0
 62
     7
100
AcDbCircle
 10
287.5005328526626
 20
252.3063019925849
 30
0.0
 40
1.779999973292045
100
AcDbArc
 50
119.1094411536974
 51
190.2177055560532
  0
ARC
  5
25E9
330
2462
100
AcDbEntity
  8
0
 62
     7
100
AcDbCircle
 10
279.8124826664026
 20
239.6656571213345
 30
0.0
 40
13.67999979451622
100
AcDbArc
 50
64.28222747571791
 51
68.75377252870355
  0
ARC
  5
25EA
330
2462
100
AcDbEntity
  8
0
 62
     7
100
AcDbCircle
 10
283.8050771671436
 20
253.9117515888861
 30
0.0
 40
1.779999972874643
100
AcDbArc
 50
302.8182944494183
 51
13.92655886403884
  0
ARC
  5
25EB
330
2462
100
AcDbEntity
  8
0
 62
     7
100
AcDbCircle
 10
279.812482666376
 20
239.6656571213508
 30
0.0
 40
15.74999976346409
100
AcDbArc
 50
48.6803478199997
 51
53.05165218579951
  0
ARC
  5
25EC
330
2462
100
AcDbEntity
  8
0
 62
     7
100
AcDbCircle
 10
290.6258136182502
 20
249.7633742966188
 30
0.0
 40
1.779999973282745
100
AcDbArc
 50
103.4574411522343
 51
174.5657055555964
  0
ARC
  5
25ED
330
2462
100
AcDbEntity
  8
0
 62
     7
100
AcDbCircle
 10
279.8124826664021
 20
239.6656571213295
 30
0.0
 40
13.67999979449513
100
AcDbArc
 50
48.63022747552224
 51
53.10177252852888
  0
ARC
  5
25EE
330
2462
100
AcDbEntity
  8
0
 62
     7
100
AcDbCircle
 10
287.5005328527108
 20
252.3063019924453
 30
0.0
 40
1.779999972873913
100
AcDbArc
 50
287.1662944489179
 51
358.2745588634829
  0
ARC
  5
25EF
330
2462
100
AcDbEntity
  8
0
 62
     7
100
AcDbCircle
 10
279.8124826663926
 20
239.6656571213344
 30
0.0
 40
15.7499997634656
100
AcDbArc
 50
33.02834781975331
 51
37.39965218555102
  0
ARC
  5
25F0
330
2462
100
AcDbEntity
  8
0
 62
     7
100
AcDbCircle
 10
292.9491368055029
 20
246.4715616502898
 30
0.0
 40
1.779999973302671
100
AcDbArc
 50
87.80544115322106
 51
158.913705556996
  0
ARC
  5
25F1
330
2462
100
AcDbEntity
  8
0
 62
     7
100
AcDbCircle
 10
279.8124826663991
 20
239.6656571213245
 30
0.0
 40
13.67999979450685
100
AcDbArc
 50
32.97822747511634
 51
37.44977252822414
  0
ARC
  5
25F2
330
2462
100
AcDbEntity
  8
0
 62
     7
100
AcDbCircle
 10
290.6258136183216
 20
249.7633742965045
 30
0.0
 40
1.77999997287608
100
AcDbArc
 50
271.5142944484264
 51
342.6225588621572
  0
ARC
  5
25F3
330
2462
100
AcDbEntity
  8
0
 62
     7
100
AcDbCircle
 10
279.8124826663802
 20
239.6656571213632
 30
0.0
 40
15.74999976345153
100
AcDbArc
 50
17.37634781938877
 51
21.7476521852013
  0
ARC
  5
25F4
330
2462
100
AcDbEntity
  8
0
 62
     7
100
AcDbCircle
 10
294.2981959671868
 20
242.6749973469876
 30
0.0
 40
1.779999973305514
100
AcDbArc
 50
72.15344115225109
 51
143.2617055558515
  0
ARC
  5
25F5
330
2462
100
AcDbEntity
  8
0
 62
     7
100
AcDbCircle
 10
279.812482666388
 20
239.6656571213409
 30
0.0
 40
13.67999979452389
100
AcDbArc
 50
17.32622747485661
 51
21.79777252784621
  0
ARC
  5
25F6
330
2462
100
AcDbEntity
  8
0
 62
     7
100
AcDbCircle
 10
292.9491368054572
 20
246.4715616501271
 30
0.0
 40
1.779999972874917
100
AcDbArc
 50
255.8622944495557
 51
326.9705588631897
  0
ARC
  5
25F7
330
2462
100
AcDbEntity
  8
0
 62
     7
100
AcDbCircle
 10
279.8124826663884
 20
239.6656571213345
 30
0.0
 40
15.74999976339722
100
AcDbArc
 50
1.72434781999549
 51
6.095652185826977
  0
ARC
  5
25F8
330
2462
100
AcDbEntity
  8
0
 62
     7
100
AcDbCircle
 10
294.5729397665079
 20
238.6552489750398
 30
0.0
 40
1.779999973287174
100
AcDbArc
 50
56.50144115380541
 51
127.609705556894
  0
ARC
  5
25F9
330
2462
100
AcDbEntity
  8
0
 62
     7
100
AcDbCircle
 10
279.8124826663876
 20
239.6656571213441
 30
0.0
 40
13.67999979449584
100
AcDbArc
 50
1.674227475321014
 51
6.145772528352369
  0
ARC
  5
25FA
330
2462
100
AcDbEntity
  8
0
 62
     7
100
AcDbCircle
 10
294.2981959670951
 20
242.6749973470462
 30
0.0
 40
1.779999972869648
100
AcDbArc
 50
240.2102944493453
 51
311.3185588635711
  0
ARC
  5
25FB
330
2462
100
AcDbEntity
  8
0
 62
     7
100
AcDbCircle
 10
279.8124826663805
 20
239.665657121304
 30
0.0
 40
15.74999976344985
100
AcDbArc
 50
346.0723478198167
 51
350.4436521856991
  0
ARC
  5
25FC
330
2462
100
AcDbEntity
  8
0
 62
     7
100
AcDbCircle
 10
293.7529921627186
 20
234.7104362978881
 30
0.0
 40
1.77999997324659
100
AcDbArc
 50
40.84944115216145
 51
111.9577055550248
  0
ARC
  5
25FD
330
2462
100
AcDbEntity
  8
0
 62
     7
100
AcDbCircle
 10
279.8124826664011
 20
239.6656571214037
 30
0.0
 40
13.67999979451488
100
AcDbArc
 50
346.0222274748411
 51
350.4937725277948
  0
ARC
  5
25FE
330
2462
100
AcDbEntity
  8
0
 62
     7
100
AcDbCircle
 10
294.5729397664442
 20
238.6552489748982
 30
0.0
 40
1.779999972836898
100
AcDbArc
 50
224.5582944490795
 51
295.6665588621685
  0
ARC
  5
25FF
330
2462
100
AcDbEntity
  8
0
 62
     7
100
AcDbCircle
 10
279.8124826663652
 20
239.6656571212965
 30
0.0
 40
15.74999976345025
100
AcDbArc
 50
330.4203478196503
 51
334.7916521854159
  0
ARC
  5
2600
330
2462
100
AcDbEntity
  8
0
 62
     7
100
AcDbCircle
 10
291.8991635755708
 20
231.1331215646811
 30
0.0
 40
1.77999997327335
100
AcDbArc
 50
25.1974411522474
 51
96.30570555499478
  0
ARC
  5
2601
330
2462
100
AcDbEntity
  8
0
 62
     7
100
AcDbCircle
 10
279.812482666421
 20
239.6656571214044
 30
0.0
 40
13.6799997944957
100
AcDbArc
 50
330.370227474514
 51
334.8417725275524
  0
ARC
  5
2602
330
2462
100
AcDbEntity
  8
0
 62
     7
100
AcDbCircle
 10
293.7529921626209
 20
234.7104362977868
 30
0.0
 40
1.77999997287712
100
AcDbArc
 50
208.9062944484629
 51
280.0145588620828
  0
ARC
  5
2603
330
2462
100
AcDbEntity
  8
0
 62
     7
100
AcDbCircle
 10
279.8124826663311
 20
239.6656571212801
 30
0.0
 40
15.74999976344182
100
AcDbArc
 50
314.7683478193536
 51
319.1396521852821
  0
ARC
  5
2604
330
2462
100
AcDbEntity
  8
0
 62
     7
100
AcDbCircle
 10
289.1489409544125
 20
228.1886119849783
 30
0.0
 40
1.779999973286424
100
AcDbArc
 50
9.545441151332212
 51
80.65370555523019
  0
ARC
  5
2605
330
2462
100
AcDbEntity
  8
0
 62
     7
100
AcDbCircle
 10
279.8124826664014
 20
239.6656571213553
 30
0.0
 40
13.67999979450087
100
AcDbArc
 50
314.7182274743195
 51
319.18977252738
  0
ARC
  5
2606
330
2462
100
AcDbEntity
  8
0
 62
     7
100
AcDbCircle
 10
291.899163575438
 20
231.1331215646013
 30
0.0
 40
1.779999972845188
100
AcDbArc
 50
193.2542944485268
 51
264.3625588623846
  0
ARC
  5
2607
330
2462
100
AcDbEntity
  8
0
 62
     7
100
AcDbCircle
 10
279.8124826662941
 20
239.665657121284
 30
0.0
 40
15.74999976347426
100
AcDbArc
 50
299.1163478196255
 51
303.4876521855047
  0
ARC
  5
2608
330
2462
100
AcDbEntity
  8
0
 62
     7
100
AcDbCircle
 10
285.7062912252906
 20
226.0952835414773
 30
0.0
 40
1.779999973254696
100
AcDbArc
 50
353.8934411504316
 51
65.00170555556315
  0
ARC
  5
2609
330
2462
100
AcDbEntity
  8
0
 62
     7
100
AcDbCircle
 10
279.812482666388
 20
239.6656571213409
 30
0.0
 40
13.67999979451187
100
AcDbArc
 50
299.0662274744551
 51
303.5377725276513
  0
ARC
  5
260A
330
2462
100
AcDbEntity
  8
0
 62
     7
100
AcDbCircle
 10
289.1489409543851
 20
228.1886119850056
 30
0.0
 40
1.77999997287001
100
AcDbArc
 50
177.602294448002
 51
248.7105588621929
  0
ARC
  5
260B
330
2462
100
AcDbEntity
  8
0
 62
     7
100
AcDbCircle
 10
279.81248266617
 20
239.6656571212794
 30
0.0
 40
15.7499997634571
100
AcDbArc
 50
283.4643478202356
 51
287.8356521860678
  0
ARC
  5
260C
330
2462
100
AcDbEntity
  8
0
 62
     7
100
AcDbCircle
 10
281.826534330912
 20
225.0083853998281
 30
0.0
 40
1.779999973264969
100
AcDbArc
 50
338.2414411512371
 51
49.34970555507899
  0
ARC
  5
260D
330
2462
100
AcDbEntity
  8
0
 62
     7
100
AcDbCircle
 10
279.8124826662796
 20
239.6656571213104
 30
0.0
 40
13.67999979448432
100
AcDbArc
 50
283.4142274752491
 51
287.8857725282959
  0
ARC
  5
260E
330
2462
100
AcDbEntity
  8
0
 62
     7
100
AcDbCircle
 10
285.7062912252546
 20
226.0952835415591
 30
0.0
 40
1.779999972881186
100
AcDbArc
 50
161.950294449597
 51
233.0585588625426
  0
ARC
  5
260F
330
2462
100
AcDbEntity
  8
0
 62
     7
100
AcDbCircle
 10
279.8124826663404
 20
239.6656571213409
 30
0.0
 40
15.74999976346096
100
AcDbArc
 50
267.812347819256
 51
272.1836521850744
  0
ARC
  5
2610
330
2462
100
AcDbEntity
  8
0
 62
     7
100
AcDbCircle
 10
277.7974077368288
 20
225.0085260427641
 30
0.0
 40
1.779999973286803
100
AcDbArc
 50
322.5894411512703
 51
33.69770555523103
  0
ARC
  5
2611
330
2462
100
AcDbEntity
  8
0
 62
     7
100
AcDbCircle
 10
279.8124826666368
 20
239.6656571213409
 30
0.0
 40
13.67999979447102
100
AcDbArc
 50
267.7622274733983
 51
272.23377252642
  0
ARC
  5
2612
330
2462
100
AcDbEntity
  8
0
 62
     7
100
AcDbCircle
 10
281.8265343307601
 20
225.0083853998694
 30
0.0
 40
1.779999972900629
100
AcDbArc
 50
146.2982944484614
 51
217.4065588637373
  0
ARC
  5
2613
330
2462
100
AcDbEntity
  8
0
 62
     7
100
AcDbCircle
 10
279.8124826664728
 20
239.665657121317
 30
0.0
 40
15.74999976343099
100
AcDbArc
 50
252.1603478188654
 51
256.5316521847043
  0
ARC
  5
2614
330
2462
100
AcDbEntity
  8
0
 62
     7
100
AcDbCircle
 10
273.9177267316545
 20
226.0956950397523
 30
0.0
 40
1.77999997326691
100
AcDbArc
 50
306.9374411516631
 51
18.04570555500016
  0
ARC
  5
2615
330
2462
100
AcDbEntity
  8
0
 62
     7
100
AcDbCircle
 10
279.8124826663112
 20
239.6656571213624
 30
0.0
 40
13.67999979453712
100
AcDbArc
 50
252.1102274749015
 51
256.5817725280389
  0
ARC
  5
2616
330
2462
100
AcDbEntity
  8
0
 62
     7
100
AcDbCircle
 10
277.7974077368148
 20
225.0085260428241
 30
0.0
 40
1.779999972856066
100
AcDbArc
 50
130.6462944496939
 51
201.7545588618099
  0
ARC
  5
2617
330
2462
100
AcDbEntity
  8
0
 62
     7
100
AcDbCircle
 10
279.8124826664114
 20
239.6656571213441
 30
0.0
 40
15.74999976347275
100
AcDbArc
 50
95.64034781833674
 51
100.0116521840582
  0
ARC
  5
2618
330
2462
100
AcDbEntity
  8
0
 62
     7
100
AcDbCircle
 10
279.8124826663188
 20
254.4606568991896
 30
0.0
 40
1.779999973288346
100
AcDbArc
 50
150.4174411503347
 51
221.5257055542187
  0
ARC
  5
2619
330
2462
100
AcDbEntity
  8
0
 62
     7
100
AcDbCircle
 10
279.8124826663603
 20
239.665657121337
 30
0.0
 40
13.67999979450181
100
AcDbArc
 50
95.59022747348352
 51
100.061772526546
  0
ARC
  5
261A
330
2462
100
AcDbEntity
  8
0
 62
     7
100
AcDbCircle
 10
275.8208827398514
 20
253.9120302896729
 30
0.0
 40
1.779999972885335
100
AcDbArc
 50
334.1262944469072
 51
45.23455886142475
  0
ARC
  5
261B
330
2462
100
AcDbEntity
  8
0
 62
     7
100
AcDbCircle
 10
279.8124826664096
 20
239.665657121338
 30
0.0
 40
15.74999976346699
100
AcDbArc
 50
79.98834781826339
 51
84.35965218407842
  0
ARC
  5
261C
330
2462
100
AcDbEntity
  8
0
 62
     7
100
AcDbCircle
 10
283.8040825928816
 20
253.9120302897508
 30
0.0
 40
1.77999997327613
100
AcDbArc
 50
134.7654411506324
 51
205.873705554048
  0
ARC
  5
261D
330
2462
100
AcDbEntity
  8
0
 62
     7
100
AcDbCircle
 10
279.8124826663991
 20
239.665657121339
 30
0.0
 40
13.67999979452002
100
AcDbArc
 50
79.9382274735758
 51
84.4097725266195
  0
ARC
  5
261E
330
2462
100
AcDbEntity
  8
0
 62
     7
100
AcDbCircle
 10
279.812482666388
 20
254.4606568991439
 30
0.0
 40
1.779999972859698
100
AcDbArc
 50
318.4742944474608
 51
29.58255886088595
  0
ARC
  5
261F
330
2462
100
AcDbEntity
  8
1
 62
     7
100
AcDbCircle
 10
279.8124827414752
 20
239.6656574891911
 30
0.0
 40
25.0
100
AcDbArc
 50
100.2463811573207
 51
258.463040791549
  0
CIRCLE
  5
2620
330
2462
100
AcDbEntity
  8
1
 62
     7
100
AcDbCircle
 10
127.5168038958255
 20
247.6763921063469
 30
0.0
 40
1.199999999999989
  0
CIRCLE
  5
2621
330
2462
100
AcDbEntity
  8
1
 62
     3
100
AcDbCircle
 10
127.5168038958255
 20
247.6763921063469
 30
0.0
 40
1.5
  0
CIRCLE
  5
2622
330
2462
100
AcDbEntity
  8
1
 62
     7
100
AcDbCircle
 10
118.2668038958255
 20
231.6549221363344
 30
0.0
 40
1.200000000000017
  0
CIRCLE
  5
2623
330
2462
100
AcDbEntity
  8
1
 62
     3
100
AcDbCircle
 10
118.2668038958255
 20
231.6549221363344
 30
0.0
 40
1.5
  0
CIRCLE
  5
2624
330
2462
100
AcDbEntity
  8
1
 62
     7
100
AcDbCircle
 10
130.253019827993
 20
235.4156571213409
 30
0.0
 40
2.25000000000001
  0
CIRCLE
  5
2625
330
2462
100
AcDbEntity
  8
1
 62
     7
100
AcDbCircle
 10
122.8918038958255
 20
231.1656571213409
 30
0.0
 40
2.250000000000019
  0
CIRCLE
  5
2626
330
2462
100
AcDbEntity
  8
1
 62
     7
100
AcDbCircle
 10
115.5305879636578
 20
235.4156571213409
 30
0.0
 40
2.24999999999999
  0
CIRCLE
  5
2627
330
2462
100
AcDbEntity
  8
1
 62
     7
100
AcDbCircle
 10
115.5305879636578
 20
243.915657121341
 30
0.0
 40
2.249999999999876
  0
CIRCLE
  5
2628
330
2462
100
AcDbEntity
  8
1
 62
     7
100
AcDbCircle
 10
122.8918038958255
 20
248.1656571213409
 30
0.0
 40
2.250000000000015
  0
CIRCLE
  5
2629
330
2462
100
AcDbEntity
  8
1
 62
     7
100
AcDbCircle
 10
130.253019827993
 20
243.9156571213409
 30
0.0
 40
2.25
  0
CIRCLE
  5
262A
330
2462
100
AcDbEntity
  8
1
  6
CENTER
 62
     3
100
AcDbCircle
 10
122.8918038958255
 20
239.6656571213409
 30
0.0
 40
8.499999999999921
  0
CIRCLE
  5
262B
330
2462
100
AcDbEntity
  8
1
 62
     7
100
AcDbCircle
 10
122.8918038958255
 20
239.6656571213409
 30
0.0
 40
24.999999624552
  0
CIRCLE
  5
262C
330
2462
100
AcDbEntity
  8
1
 62
     7
100
AcDbCircle
 10
122.8918038958255
 20
239.6656571213409
 30
0.0
 40
18.99999971464878
  0
CIRCLE
  5
262D
330
2462
100
AcDbEntity
  8
1
 62
     7
100
AcDbCircle
 10
122.8918038958255
 20
239.6656571213409
 30
0.0
 40
17.7499997334142
  0
CIRCLE
  5
262E
330
2462
100
AcDbEntity
  8
1
 62
     7
100
AcDbCircle
 10
122.8918038958255
 20
239.6656571213409
 30
0.0
 40
17.1939997417906
  0
CIRCLE
  5
262F
330
2462
100
AcDbEntity
  8
1
 62
     7
100
AcDbCircle
 10
122.8918038958255
 20
239.6656571213409
 30
0.0
 40
5.499999917401709
  0
CIRCLE
  5
2630
330
2462
100
AcDbEntity
  8
1
 62
     7
100
AcDbCircle
 10
279.812482666388
 20
239.6656571213409
 30
0.0
 40
2.999999955059593
  0
CIRCLE
  5
2631
330
2462
100
AcDbEntity
  8
1
 62
     7
100
AcDbCircle
 10
133.8918038958254
 20
258.7182160045985
 30
0.0
 40
1.75
  0
CIRCLE
  5
2632
330
2462
100
AcDbEntity
  8
1
 62
     7
100
AcDbCircle
 10
111.8918038958255
 20
258.7182160045985
 30
0.0
 40
1.750000000000045
  0
CIRCLE
  5
2633
330
2462
100
AcDbEntity
  8
1
 62
     7
100
AcDbCircle
 10
100.8918038958255
 20
239.6656571213409
 30
0.0
 40
1.750000000000019
  0
CIRCLE
  5
2634
330
2462
100
AcDbEntity
  8
1
 62
     7
100
AcDbCircle
 10
111.8918038958255
 20
220.6130982380833
 30
0.0
 40
1.75
  0
CIRCLE
  5
2635
330
2462
100
AcDbEntity
  8
1
 62
     7
100
AcDbCircle
 10
133.8918038958254
 20
220.6130982380833
 30
0.0
 40
1.750000000000045
  0
CIRCLE
  5
2636
330
2462
100
AcDbEntity
  8
1
 62
     7
100
AcDbCircle
 10
144.8918038958254
 20
239.6656571213409
 30
0.0
 40
1.749999999999944
  0
CIRCLE
  5
2637
330
2462
100
AcDbEntity
  8
1
  6
CENTER
 62
     3
100
AcDbCircle
 10
122.8918038958255
 20
239.6656571213409
 30
0.0
 40
21.99999999999992
  0
CIRCLE
  5
2638
330
2462
100
AcDbEntity
  8
1
 62
     3
100
AcDbCircle
 10
122.8918038958255
 20
261.6656571213408
 30
0.0
 40
1.5
  0
CIRCLE
  5
2639
330
2462
100
AcDbEntity
  8
1
 62
     7
100
AcDbCircle
 10
122.8918038958255
 20
261.6656571213408
 30
0.0
 40
1.199999999999979
  0
CIRCLE
  5
263A
330
2462
100
AcDbEntity
  8
1
 62
     7
100
AcDbCircle
 10
122.8918038958255
 20
217.6656571213408
 30
0.0
 40
1.200000000000023
  0
CIRCLE
  5
263B
330
2462
100
AcDbEntity
  8
1
 62
     3
100
AcDbCircle
 10
122.8918038958255
 20
217.6656571213408
 30
0.0
 40
1.500000000000014
  0
CIRCLE
  5
263C
330
2462
100
AcDbEntity
  8
1
 62
     3
100
AcDbCircle
 10
214.1249996814428
 20
239.6656571213409
 30
0.0
 40
1.199999999999989
  0
CIRCLE
  5
263D
330
2462
100
AcDbEntity
  8
1
 62
     7
100
AcDbCircle
 10
214.1249996814428
 20
239.6656571213409
 30
0.0
 40
1.5
  0
CIRCLE
  5
263E
330
2462
100
AcDbEntity
  8
1
 62
     3
100
AcDbCircle
 10
279.8124826666366
 20
217.6656571213408
 30
0.0
 40
1.5
  0
CIRCLE
  5
263F
330
2462
100
AcDbEntity
  8
1
 62
     7
100
AcDbCircle
 10
279.8124826666366
 20
217.6656571213408
 30
0.0
 40
1.199999999999789
  0
CIRCLE
  5
2640
330
2462
100
AcDbEntity
  8
1
 62
     7
100
AcDbCircle
 10
279.8124826666368
 20
261.6656571213408
 30
0.0
 40
1.199999999999902
  0
CIRCLE
  5
2641
330
2462
100
AcDbEntity
  8
1
 62
     3
100
AcDbCircle
 10
279.8124826666368
 20
261.6656571213408
 30
0.0
 40
1.5
  0
CIRCLE
  5
2642
330
2462
100
AcDbEntity
  8
1
 62
     7
100
AcDbCircle
 10
301.8124826666368
 20
239.6656571213409
 30
0.0
 40
1.749999999999944
  0
CIRCLE
  5
2643
330
2462
100
AcDbEntity
  8
1
 62
     7
100
AcDbCircle
 10
290.8124826666368
 20
220.6130982380833
 30
0.0
 40
1.750000000000045
  0
CIRCLE
  5
2644
330
2462
100
AcDbEntity
  8
1
 62
     7
100
AcDbCircle
 10
290.8124826666368
 20
258.7182160045985
 30
0.0
 40
1.75
  0
CIRCLE
  5
2645
330
2462
100
AcDbEntity
  8
1
 62
     7
100
AcDbCircle
 10
122.8918038958255
 20
239.6656571213409
 30
0.0
 40
11.49999982727941
  0
CIRCLE
  5
2646
330
2462
100
AcDbEntity
  8
0
 62
     7
100
AcDbCircle
 10
208.0249998166457
 20
224.9211573427874
 30
0.0
 40
1.587499976158198
  0
CIRCLE
  5
2647
330
2462
100
AcDbEntity
  8
0
 62
     7
100
AcDbCircle
 10
208.0249998166457
 20
254.4101568998967
 30
0.0
 40
1.587499976158198
  0
CIRCLE
  5
2648
330
2462
100
AcDbEntity
  8
0
 62
     7
100
AcDbCircle
 10
278.5758160183003
 20
232.0356572359464
 30
0.0
 40
0.4666666596546066
  0
CIRCLE
  5
2649
330
2462
100
AcDbEntity
  8
0
 62
     7
100
AcDbCircle
 10
281.0491493144791
 20
232.0356572359464
 30
0.0
 40
0.4666666596568946
  0
CIRCLE
  5
264A
330
2462
100
AcDbEntity
  8
1
 62
     7
100
AcDbCircle
 10
268.8124826661393
 20
220.6130982380833
 30
0.0
 40
1.750000000000045
  0
CIRCLE
  5
264B
330
2462
100
AcDbEntity
  8
1
 62
     7
100
AcDbCircle
 10
257.8124826661393
 20
239.6656571213409
 30
0.0
 40
1.749999999999944
  0
CIRCLE
  5
264C
330
2462
100
AcDbEntity
  8
1
 62
     7
100
AcDbCircle
 10
268.8124826661393
 20
258.7182160045985
 30
0.0
 40
1.75
  0
CIRCLE
  5
264D
330
2462
100
AcDbEntity
  8
1
  6
CENTER
 62
     3
100
AcDbCircle
 10
279.8124826666368
 20
239.6656571213409
 30
0.0
 40
22.00000000000001
  0
CIRCLE
  5
264E
330
2462
100
AcDbEntity
  8
1
 62
     7
100
AcDbCircle
 10
279.812482666388
 20
239.6656571213409
 30
0.0
 40
17.74999973347778
  0
CIRCLE
  5
264F
330
2462
100
AcDbEntity
  8
1
 62
     7
100
AcDbCircle
 10
279.812482666388
 20
239.6656571213409
 30
0.0
 40
17.24999974098899
  0
CIRCLE
  5
2650
330
2462
100
AcDbEntity
  8
0
 62
     7
100
AcDbCircle
 10
279.812482666388
 20
239.6656571213409
 30
0.0
 40
16.94799974540335
  0
CIRCLE
  5
2651
330
2462
100
AcDbEntity
  8
0
 62
     7
100
AcDbCircle
 10
279.812482666388
 20
239.6656571213409
 30
0.0
 40
16.18599975692363
  0
CIRCLE
  5
2652
330
2462
100
AcDbEntity
  8
0
 62
     7
100
AcDbCircle
 10
279.812482666388
 20
239.6656571213409
 30
0.0
 40
12.53499981175657
  0
CIRCLE
  5
2653
330
2462
100
AcDbEntity
  8
1
 62
     7
100
AcDbCircle
 10
279.812482666388
 20
239.6656571213409
 30
0.0
 40
10.99999983487969
  0
CIRCLE
  5
2654
330
2462
100
AcDbEntity
  8
1
 62
     7
100
AcDbCircle
 10
279.812482666388
 20
239.6656571213409
 30
0.0
 40
9.999999849902119
  0
CIRCLE
  5
2655
330
2462
100
AcDbEntity
  8
1
 62
     7
100
AcDbCircle
 10
279.812482666388
 20
239.6656571213409
 30
0.0
 40
6.999999894969603
  0
CIRCLE
  5
2656
330
2462
100
AcDbEntity
  8
0
 62
     7
100
AcDbCircle
 10
279.812482666388
 20
239.6656571213409
 30
0.0
 40
13.3349997997183
  0
TEXT
  5
265B
330
2462
100
AcDbEntity
  8
1
 62
     0
100
AcDbText
 10
283.5532854588573
 20
182.4388428296103
 30
0.0
 40
2.799999999999998
  1
2002/3
 41
0.9
 72
     1
 11
288.8654803047241
 21
183.8388428296103
 31
0.0
100
AcDbText
 73
     2
  0
TEXT
  5
2660
330
2462
100
AcDbEntity
  8
1
 62
     3
100
AcDbText
 10
114.4566829931602
 20
159.2626766156118
 30
0.0
 40
1.399999999999999
  1
 
 41
0.9
100
AcDbText
  0
TEXT
  5
2666
330
2462
100
AcDbEntity
  8
1
 62
     0
100
AcDbText
 10
181.0401369355495
 20
186.4757657108399
 30
0.0
 40
2.412285636053375
  1
REMARKS:  M.H.C = MINIMUM HOUSING CLEARANCE
 41
0.9
 72
     1
 11
212.5258921287271
 21
187.6819085288666
 31
0.0
100
AcDbText
 73
     2
  0
TEXT
  5
2667
330
2462
100
AcDbEntity
  8
1
 62
     0
100
AcDbText
 10
264.9947472229237
 20
188.5918768394516
 30
0.0
 40
2.799999999999998
  1
CSF-14-XXX-2A-R.dxf
 41
0.9
100
AcDbText
  0
INSERT
  5
26DC
330
2462
100
AcDbEntity
  8
AM_0
100
AcDbBlockReference
  2
HD Logo
 10
229.9765407014062
 20
149.7467573995349
 30
0.0
 41
0.595
 42
0.595
 43
0.595
  0
INSERT
  5
2705
330
2462
100
AcDbEntity
  8
AM_0
100
AcDbBlockReference
  2
HD LLC
 10
292.3876473200007
 20
152.5855912059622
 30
0.0
 41
0.7
 42
0.7
 43
0.7
  0
INSERT
  5
2712
330
2462
100
AcDbEntity
  8
AM_0
100
AcDbBlockReference
  2
NTC
 10
78.54382176498805
 20
173.2346677911472
 30
0.0
 41
0.4
 42
0.4
 43
0.4
  0
ENDSEC
  0
SECTION
  2
OBJECTS
  0
DICTIONARY
  5
2450
330
0
100
AcDbDictionary
281
     1
  3
ACAD_GROUP
350
2451
  3
ACAD_LAYOUT
350
245D
  3
ACAD_MLINESTYLE
350
245A
  3
ACAD_PLOTSETTINGS
350
245C
  3
ACAD_PLOTSTYLENAME
350
2452
  3
AcDbVariableDictionary
350
26F4
  0
DICTIONARY
  5
2451
102
{ACAD_REACTORS
330
2450
102
}
330
2450
100
AcDbDictionary
281
     1
  0
DICTIONARY
  5
245D
102
{ACAD_REACTORS
330
2450
102
}
330
2450
100
AcDbDictionary
281
     1
  3
Layout1
350
2461
  3
Model
350
2465
  0
DICTIONARY
  5
245A
102
{ACAD_REACTORS
330
2450
102
}
330
2450
100
AcDbDictionary
281
     1
  3
Standard
350
245B
  0
DICTIONARY
  5
245C
102
{ACAD_REACTORS
330
2450
102
}
330
2450
100
AcDbDictionary
281
     1
  0
ACDBDICTIONARYWDFLT
  5
2452
102
{ACAD_REACTORS
330
2450
102
}
330
2450
100
AcDbDictionary
281
     1
  3
Normal
350
2453
100
AcDbDictionaryWithDefault
340
2453
  0
DICTIONARY
  5
26F4
102
{ACAD_REACTORS
330
2450
102
}
330
2450
100
AcDbDictionary
281
     1
  3
DIMASSOC
350
26F5
  0
LAYOUT
  5
2461
102
{ACAD_REACTORS
330
245D
102
}
330
245D
100
AcDbPlotSettings
  1

  2
\\SERVER9\HP LaserJet 5100 PCL 5e
  4

  6

 40
0.0
 41
0.0
 42
0.0
 43
0.0
 44
0.0
 45
0.0
 46
0.0
 47
0.0
 48
0.0
 49
0.0
140
0.0
141
0.0
142
1.0
143
1.0
 70
   688
 72
     0
 73
     0
 74
     5
  7

 75
    16
147
1.0
148
0.0
149
0.0
100
AcDbLayout
  1
Layout1
 70
     1
 71
     1
 10
0.0
 20
0.0
 11
420.0
 21
297.0
 12
0.0
 22
0.0
 32
0.0
 14
1.000000000000000E+20
 24
1.000000000000000E+20
 34
1.000000000000000E+20
 15
-1.000000000000000E+20
 25
-1.000000000000000E+20
 35
-1.000000000000000E+20
146
0.0
 13
0.0
 23
0.0
 33
0.0
 16
1.0
 26
0.0
 36
0.0
 17
0.0
 27
1.0
 37
0.0
 76
     0
330
245E
  0
LAYOUT
  5
2465
102
{ACAD_REACTORS
330
245D
102
}
330
245D
100
AcDbPlotSettings
  1

  2
\\SERVER9\HP LaserJet 5100 PCL 5e
  4

  6

 40
0.0
 41
0.0
 42
0.0
 43
0.0
 44
0.0
 45
0.0
 46
0.0
 47
0.0
 48
0.0
 49
0.0
140
0.0
141
0.0
142
1.0
143
1.0
 70
  1712
 72
     0
 73
     0
 74
     0
  7

 75
     0
147
1.0
148
0.0
149
0.0
100
AcDbLayout
  1
Model
 70
     1
 71
     0
 10
0.0
 20
0.0
 11
12.0
 21
9.0
 12
0.0
 22
0.0
 32
0.0
 14
0.0
 24
0.0
 34
0.0
 15
0.0
 25
0.0
 35
0.0
146
0.0
 13
0.0
 23
0.0
 33
0.0
 16
1.0
 26
0.0
 36
0.0
 17
0.0
 27
1.0
 37
0.0
 76
     0
330
2462
  0
MLINESTYLE
  5
245B
102
{ACAD_REACTORS
330
245A
102
}
330
245A
100
AcDbMlineStyle
  2
STANDARD
 70
     0
  3

 62
   256
 51
90.0
 52
90.0
 71
     2
 49
0.5
 62
   256
  6
BYLAYER
 49
-0.5
 62
   256
  6
BYLAYER
  0
ACDBPLACEHOLDER
  5
2453
102
{ACAD_REACTORS
330
2452
102
}
330
2452
  0
DICTIONARYVAR
  5
26F5
102
{ACAD_REACTORS
330
26F4
102
}
330
26F4
100
DictionaryVariables
280
     0
  1
1
  0
ENDSEC
  0
EOF
