  0
SECTION
  2
HEADER
  9
$ACADVER
  1
AC1015
  9
$ACADMAINTVER
 70
    13
  9
$DWGCODEPAGE
  3
ANSI_1252
  9
$INSBASE
 10
0.0
 20
0.0
 30
0.0
  9
$EXTMIN
 10
-1.513704974964069
 20
74.55162314280314
 30
0.0
  9
$EXTMAX
 10
343.3294526692189
 20
274.3802940180434
 30
0.0
  9
$LIMMIN
 10
0.0
 20
0.0
  9
$LIMMAX
 10
420.0
 20
297.0
  9
$ORTHOMODE
 70
     1
  9
$REGENMODE
 70
     1
  9
$FILLMODE
 70
     1
  9
$QTEXTMODE
 70
     0
  9
$MIRRTEXT
 70
     1
  9
$LTSCALE
 40
1.0
  9
$ATTMODE
 70
     1
  9
$TEXTSIZE
 40
2.5
  9
$TRACEWID
 40
1.0
  9
$TEXTSTYLE
  7
STANDARD
  9
$CLAYER
  8
AM_0
  9
$CELTYPE
  6
ByLayer
  9
$CECOLOR
 62
   256
  9
$CELTSCALE
 40
1.0
  9
$DISPSILH
 70
     0
  9
$DIMSCALE
 40
1.0
  9
$DIMASZ
 40
2.5
  9
$DIMEXO
 40
0.625
  9
$DIMDLI
 40
3.75
  9
$DIMRND
 40
0.0
  9
$DIMDLE
 40
0.0
  9
$DIMEXE
 40
1.25
  9
$DIMTP
 40
0.0
  9
$DIMTM
 40
0.0
  9
$DIMTXT
 40
2.5
  9
$DIMCEN
 40
2.5
  9
$DIMTSZ
 40
0.0
  9
$DIMTOL
 70
     0
  9
$DIMLIM
 70
     0
  9
$DIMTIH
 70
     0
  9
$DIMTOH
 70
     0
  9
$DIMSE1
 70
     0
  9
$DIMSE2
 70
     0
  9
$DIMTAD
 70
     1
  9
$DIMZIN
 70
     8
  9
$DIMBLK
  1

  9
$DIMASO
 70
     1
  9
$DIMSHO
 70
     1
  9
$DIMPOST
  1

  9
$DIMAPOST
  1

  9
$DIMALT
 70
     0
  9
$DIMALTD
 70
     3
  9
$DIMALTF
 40
0.03937007874016
  9
$DIMLFAC
 40
1.0
  9
$DIMTOFL
 70
     1
  9
$DIMTVP
 40
0.0
  9
$DIMTIX
 70
     0
  9
$DIMSOXD
 70
     0
  9
$DIMSAH
 70
     0
  9
$DIMBLK1
  1

  9
$DIMBLK2
  1

  9
$DIMSTYLE
  2
ISO-25
  9
$DIMCLRD
 70
     0
  9
$DIMCLRE
 70
     0
  9
$DIMCLRT
 70
     0
  9
$DIMTFAC
 40
1.0
  9
$DIMGAP
 40
0.625
  9
$DIMJUST
 70
     0
  9
$DIMSD1
 70
     0
  9
$DIMSD2
 70
     0
  9
$DIMTOLJ
 70
     1
  9
$DIMTZIN
 70
     0
  9
$DIMALTZ
 70
     0
  9
$DIMALTTZ
 70
     0
  9
$DIMUPT
 70
     0
  9
$DIMDEC
 70
     4
  9
$DIMTDEC
 70
     4
  9
$DIMALTU
 70
     2
  9
$DIMALTTD
 70
     2
  9
$DIMTXSTY
  7
STANDARD
  9
$DIMAUNIT
 70
     0
  9
$DIMADEC
 70
     0
  9
$DIMALTRND
 40
0.0
  9
$DIMAZIN
 70
     0
  9
$DIMDSEP
 70
    46
  9
$DIMATFIT
 70
     3
  9
$DIMFRAC
 70
     0
  9
$DIMLDRBLK
  1

  9
$DIMLUNIT
 70
     2
  9
$DIMLWD
 70
    -2
  9
$DIMLWE
 70
    -2
  9
$DIMTMOVE
 70
     0
  9
$LUNITS
 70
     2
  9
$LUPREC
 70
     2
  9
$SKETCHINC
 40
1.0
  9
$FILLETRAD
 40
2.5
  9
$AUNITS
 70
     0
  9
$AUPREC
 70
     0
  9
$MENU
  1
.
  9
$ELEVATION
 40
0.0
  9
$PELEVATION
 40
0.0
  9
$THICKNESS
 40
0.0
  9
$LIMCHECK
 70
     0
  9
$CHAMFERA
 40
2.5
  9
$CHAMFERB
 40
2.5
  9
$CHAMFERC
 40
0.0
  9
$CHAMFERD
 40
0.0
  9
$SKPOLY
 70
     0
  9
$TDCREATE
 40
2452802.014930185
  9
$TDUCREATE
 40
2452802.181596851
  9
$TDUPDATE
 40
2453865.475513229
  9
$TDUUPDATE
 40
2453865.642179895
  9
$TDINDWG
 40
0.0358800000
  9
$TDUSRTIMER
 40
0.0358796412
  9
$USRTIMER
 70
     1
  9
$ANGBASE
 50
0.0
  9
$ANGDIR
 70
     0
  9
$PDMODE
 70
     0
  9
$PDSIZE
 40
0.0
  9
$PLINEWID
 40
0.0
  9
$SPLFRAME
 70
     0
  9
$SPLINETYPE
 70
     6
  9
$SPLINESEGS
 70
     8
  9
$HANDSEED
  5
268D
  9
$SURFTAB1
 70
     6
  9
$SURFTAB2
 70
     6
  9
$SURFTYPE
 70
     6
  9
$SURFU
 70
     6
  9
$SURFV
 70
     6
  9
$UCSBASE
  2

  9
$UCSNAME
  2

  9
$UCSORG
 10
0.0
 20
0.0
 30
0.0
  9
$UCSXDIR
 10
1.0
 20
0.0
 30
0.0
  9
$UCSYDIR
 10
0.0
 20
1.0
 30
0.0
  9
$UCSORTHOREF
  2

  9
$UCSORTHOVIEW
 70
     0
  9
$UCSORGTOP
 10
0.0
 20
0.0
 30
0.0
  9
$UCSORGBOTTOM
 10
0.0
 20
0.0
 30
0.0
  9
$UCSORGLEFT
 10
0.0
 20
0.0
 30
0.0
  9
$UCSORGRIGHT
 10
0.0
 20
0.0
 30
0.0
  9
$UCSORGFRONT
 10
0.0
 20
0.0
 30
0.0
  9
$UCSORGBACK
 10
0.0
 20
0.0
 30
0.0
  9
$PUCSBASE
  2

  9
$PUCSNAME
  2

  9
$PUCSORG
 10
0.0
 20
0.0
 30
0.0
  9
$PUCSXDIR
 10
1.0
 20
0.0
 30
0.0
  9
$PUCSYDIR
 10
0.0
 20
1.0
 30
0.0
  9
$PUCSORTHOREF
  2

  9
$PUCSORTHOVIEW
 70
     0
  9
$PUCSORGTOP
 10
0.0
 20
0.0
 30
0.0
  9
$PUCSORGBOTTOM
 10
0.0
 20
0.0
 30
0.0
  9
$PUCSORGLEFT
 10
0.0
 20
0.0
 30
0.0
  9
$PUCSORGRIGHT
 10
0.0
 20
0.0
 30
0.0
  9
$PUCSORGFRONT
 10
0.0
 20
0.0
 30
0.0
  9
$PUCSORGBACK
 10
0.0
 20
0.0
 30
0.0
  9
$USERI1
 70
     0
  9
$USERI2
 70
     0
  9
$USERI3
 70
     0
  9
$USERI4
 70
     0
  9
$USERI5
 70
     0
  9
$USERR1
 40
0.0
  9
$USERR2
 40
0.0
  9
$USERR3
 40
0.0
  9
$USERR4
 40
0.0
  9
$USERR5
 40
0.0
  9
$WORLDVIEW
 70
     1
  9
$SHADEDGE
 70
     3
  9
$SHADEDIF
 70
    70
  9
$TILEMODE
 70
     1
  9
$MAXACTVP
 70
    64
  9
$PINSBASE
 10
0.0
 20
0.0
 30
0.0
  9
$PLIMCHECK
 70
     0
  9
$PEXTMIN
 10
1.000000000000000E+20
 20
1.000000000000000E+20
 30
1.000000000000000E+20
  9
$PEXTMAX
 10
-1.000000000000000E+20
 20
-1.000000000000000E+20
 30
-1.000000000000000E+20
  9
$PLIMMIN
 10
0.0
 20
0.0
  9
$PLIMMAX
 10
420.0
 20
297.0
  9
$UNITMODE
 70
     0
  9
$VISRETAIN
 70
     1
  9
$PLINEGEN
 70
     0
  9
$PSLTSCALE
 70
     1
  9
$TREEDEPTH
 70
  3020
  9
$CMLSTYLE
  2
Standard
  9
$CMLJUST
 70
     0
  9
$CMLSCALE
 40
1.0
  9
$PROXYGRAPHICS
 70
     1
  9
$MEASUREMENT
 70
     0
  9
$CELWEIGHT
370
    -1
  9
$ENDCAPS
280
     0
  9
$JOINSTYLE
280
     0
  9
$LWDISPLAY
290
     0
  9
$INSUNITS
 70
     0
  9
$HYPERLINKBASE
  1

  9
$STYLESHEET
  1

  9
$XEDIT
290
     1
  9
$CEPSNTYPE
380
     0
  9
$PSTYLEMODE
290
     1
  9
$FINGERPRINTGUID
  2
{C2FD2A99-6BE3-450E-8DDB-648E95799BF6}
  9
$VERSIONGUID
  2
{5EA1D271-FB28-4DFF-861B-CB05B5AF4CEB}
  9
$EXTNAMES
290
     1
  9
$PSVPSCALE
 40
0.0
  9
$OLESTARTUP
290
     0
  0
ENDSEC
  0
SECTION
  2
CLASSES
  0
CLASS
  1
ACDBDICTIONARYWDFLT
  2
AcDbDictionaryWithDefault
  3
AutoCAD 2000
 90
        0
280
     0
281
     0
  0
CLASS
  1
ACDBPLACEHOLDER
  2
AcDbPlaceHolder
  3
AutoCAD 2000
 90
        0
280
     0
281
     0
  0
CLASS
  1
LAYOUT
  2
AcDbLayout
  3
AutoCAD 2000
 90
        0
280
     0
281
     0
  0
CLASS
  1
DICTIONARYVAR
  2
AcDbDictionaryVar
  3
AutoCAD 2000
 90
        0
280
     0
281
     0
  0
ENDSEC
  0
SECTION
  2
TABLES
  0
TABLE
  2
VPORT
  5
233E
330
0
100
AcDbSymbolTable
 70
     2
  0
VPORT
  5
268C
330
233E
100
AcDbSymbolTableRecord
100
AcDbViewportTableRecord
  2
*Active
 70
     0
 10
0.0
 20
0.0
 11
1.0
 21
1.0
 12
183.7018615312948
 22
187.5911689313502
 13
0.0
 23
0.0
 14
2.5
 24
2.5
 15
10.0
 25
10.0
 16
0.0
 26
0.0
 36
1.0
 17
0.0
 27
0.0
 37
0.0
 40
339.2826177818683
 41
1.182835820895522
 42
50.0
 43
0.0
 44
0.0
 50
0.0
 51
0.0
 71
     0
 72
   100
 73
     1
 74
     3
 75
     0
 76
     0
 77
     0
 78
     0
281
     0
 65
     1
110
0.0
120
0.0
130
0.0
111
1.0
121
0.0
131
0.0
112
0.0
122
1.0
132
0.0
 79
     0
146
0.0
  0
ENDTAB
  0
TABLE
  2
LTYPE
  5
233B
330
0
100
AcDbSymbolTable
 70
     6
  0
LTYPE
  5
2349
330
233B
100
AcDbSymbolTableRecord
100
AcDbLinetypeTableRecord
  2
ByBlock
 70
     0
  3

 72
    65
 73
     0
 40
0.0
  0
LTYPE
  5
234A
330
233B
100
AcDbSymbolTableRecord
100
AcDbLinetypeTableRecord
  2
ByLayer
 70
     0
  3

 72
    65
 73
     0
 40
0.0
  0
LTYPE
  5
234B
330
233B
100
AcDbSymbolTableRecord
100
AcDbLinetypeTableRecord
  2
CONTINUOUS
 70
     0
  3
Solid line
 72
    65
 73
     0
 40
0.0
  0
LTYPE
  5
235A
330
233B
100
AcDbSymbolTableRecord
100
AcDbLinetypeTableRecord
  2
CENTER
 70
     0
  3
Center ____ _ ____ _ ____ _ ____ _ ____ _ ____
 72
    65
 73
     4
 40
50.8
 49
31.75
 74
     0
 49
-6.349999999999997
 74
     0
 49
6.349999999999997
 74
     0
 49
-6.349999999999997
 74
     0
  0
LTYPE
  5
235B
330
233B
100
AcDbSymbolTableRecord
100
AcDbLinetypeTableRecord
  2
DASHDOT
 70
     0
  3
__ . __ . __ .
 72
    65
 73
     4
 40
5.89912280701754
 49
2.94956140350877
 74
     0
 49
-1.474780701754385
 74
     0
 49
0.0
 74
     0
 49
-1.474780701754385
 74
     0
  0
LTYPE
  5
235C
330
233B
100
AcDbSymbolTableRecord
100
AcDbLinetypeTableRecord
  2
DASHED
 70
     0
  3
__ __ __ __ __
 72
    65
 73
     2
 40
4.424342105263153
 49
2.94956140350877
 74
     0
 49
-1.474780701754385
 74
     0
  0
LTYPE
  5
235D
330
233B
100
AcDbSymbolTableRecord
100
AcDbLinetypeTableRecord
  2
DIVIDE
 70
     0
  3
__ . . __ . . 
 72
    65
 73
     6
 40
7.373903508771926
 49
2.94956140350877
 74
     0
 49
-1.474780701754385
 74
     0
 49
0.0
 74
     0
 49
-1.474780701754385
 74
     0
 49
0.0
 74
     0
 49
-1.474780701754385
 74
     0
  0
LTYPE
  5
235E
330
233B
100
AcDbSymbolTableRecord
100
AcDbLinetypeTableRecord
  2
PHANTOM
 70
     0
  3
_____ _ _ _____ _ _ 
 72
    65
 73
     6
 40
14.74780701754385
 49
7.373903508771926
 74
     0
 49
-1.474780701754385
 74
     0
 49
1.474780701754385
 74
     0
 49
-1.474780701754385
 74
     0
 49
1.474780701754385
 74
     0
 49
-1.474780701754385
 74
     0
  0
ENDTAB
  0
TABLE
  2
LAYER
  5
2338
330
0
100
AcDbSymbolTable
 70
     4
  0
LAYER
  5
2346
330
2338
100
AcDbSymbolTableRecord
100
AcDbLayerTableRecord
  2
0
 70
     0
 62
     7
  6
CONTINUOUS
370
    -3
390
2345
  0
LAYER
  5
2358
330
2338
100
AcDbSymbolTableRecord
100
AcDbLayerTableRecord
  2
AM_0
 70
     0
 62
     7
  6
CONTINUOUS
370
    -3
390
2345
  0
LAYER
  5
235F
330
2338
100
AcDbSymbolTableRecord
100
AcDbLayerTableRecord
  2
1
 70
     0
 62
     7
  6
CONTINUOUS
370
    -3
390
2345
  0
LAYER
  5
2658
330
2338
100
AcDbSymbolTableRecord
100
AcDbLayerTableRecord
  2
LAYER_1
 70
     0
 62
     5
  6
CONTINUOUS
370
    -3
390
2345
  0
ENDTAB
  0
TABLE
  2
STYLE
  5
2339
330
0
100
AcDbSymbolTable
 70
     1
  0
STYLE
  5
2347
330
2339
100
AcDbSymbolTableRecord
100
AcDbTextStyleTableRecord
  2
STANDARD
 70
     0
 40
0.0
 41
1.0
 50
0.0
 71
     0
 42
2.5
  3
ISOCP.SHX
  4

  0
ENDTAB
  0
TABLE
  2
VIEW
  5
233C
330
0
100
AcDbSymbolTable
 70
     0
  0
ENDTAB
  0
TABLE
  2
UCS
  5
233D
330
0
100
AcDbSymbolTable
 70
     0
  0
ENDTAB
  0
TABLE
  2
APPID
  5
233F
330
0
100
AcDbSymbolTable
 70
    13
  0
APPID
  5
2348
330
233F
100
AcDbSymbolTableRecord
100
AcDbRegAppTableRecord
  2
ACAD
 70
     0
  0
APPID
  5
2360
330
233F
100
AcDbSymbolTableRecord
100
AcDbRegAppTableRecord
  2
GENIUS_GENDIM_13
 70
     0
  0
APPID
  5
2361
330
233F
100
AcDbSymbolTableRecord
100
AcDbRegAppTableRecord
  2
GENIUS_GENDTOL_13
 70
     0
  0
APPID
  5
2362
330
233F
100
AcDbSymbolTableRecord
100
AcDbRegAppTableRecord
  2
GENIUS_GE3DTOL_13
 70
     0
  0
APPID
  5
2363
330
233F
100
AcDbSymbolTableRecord
100
AcDbRegAppTableRecord
  2
MCAD_NO_VIS
 70
     0
  0
APPID
  5
2364
330
233F
100
AcDbSymbolTableRecord
100
AcDbRegAppTableRecord
  2
ACAD_TEMP_GRAPHIC
 70
     0
  0
APPID
  5
2365
330
233F
100
AcDbSymbolTableRecord
100
AcDbRegAppTableRecord
  2
AD_DRAW
 70
     0
  0
APPID
  5
2366
330
233F
100
AcDbSymbolTableRecord
100
AcDbRegAppTableRecord
  2
ACATTRIBSERVICES
 70
     0
  0
APPID
  5
2367
330
233F
100
AcDbSymbolTableRecord
100
AcDbRegAppTableRecord
  2
ASURF_PCURVE_APPNAME
 70
     0
  0
APPID
  5
2368
330
233F
100
AcDbSymbolTableRecord
100
AcDbRegAppTableRecord
  2
DESIGNERASSEMBLIES
 70
     0
  0
APPID
  5
2369
330
233F
100
AcDbSymbolTableRecord
100
AcDbRegAppTableRecord
  2
ACADM_DIM_EDIT
 70
     0
  0
APPID
  5
236A
330
233F
100
AcDbSymbolTableRecord
100
AcDbRegAppTableRecord
  2
G3V_ENTHND
 70
     0
  0
APPID
  5
236B
330
233F
100
AcDbSymbolTableRecord
100
AcDbRegAppTableRecord
  2
GENIUS_GENDIMSH_14
 70
     0
  0
ENDTAB
  0
TABLE
  2
DIMSTYLE
  5
2340
330
0
100
AcDbSymbolTable
 70
     2
100
AcDbDimStyleTable
 71
     0
  0
DIMSTYLE
105
236C
330
2340
100
AcDbSymbolTableRecord
100
AcDbDimStyleTableRecord
  2
ISO-25
 70
     0
 41
2.5
 42
0.625
 43
3.75
 44
1.25
 73
     0
 74
     0
 77
     1
 78
     8
140
2.5
141
2.5
143
0.03937007874016
147
0.625
171
     3
172
     1
271
     2
272
     2
274
     3
279
     2
284
     8
285
     8
286
     8
340
2347
  0
DIMSTYLE
105
2659
330
2340
100
AcDbSymbolTableRecord
100
AcDbDimStyleTableRecord
  2
Standard
 70
     0
340
2347
  0
ENDTAB
  0
TABLE
  2
BLOCK_RECORD
  5
2337
330
0
100
AcDbSymbolTable
 70
    21
  0
BLOCK_RECORD
  5
2354
330
2337
100
AcDbSymbolTableRecord
100
AcDbBlockTableRecord
  2
*Model_Space
340
2357
  0
BLOCK_RECORD
  5
2350
330
2337
100
AcDbSymbolTableRecord
100
AcDbBlockTableRecord
  2
*Paper_Space
340
2353
  0
BLOCK_RECORD
  5
236E
330
2337
100
AcDbSymbolTableRecord
100
AcDbBlockTableRecord
  2
$MODEL_SPACE
340
0
  0
BLOCK_RECORD
  5
2371
330
2337
100
AcDbSymbolTableRecord
100
AcDbBlockTableRecord
  2
$PAPER_SPACE
340
0
  0
BLOCK_RECORD
  5
25EC
330
2337
100
AcDbSymbolTableRecord
100
AcDbBlockTableRecord
  2
AI9-BLK14
340
0
310
2800000020000000200000000100080000000000000400000000000000000000000000000000000000000000000080000080000000808000800000008000800080800000C0C0C000C0DCC000F0CAA6000020400000206000002080000020A0000020C0000020E00000400000004020000040400000406000004080000040A0
310
000040C0000040E00000600000006020000060400000606000006080000060A0000060C0000060E00000800000008020000080400000806000008080000080A0000080C0000080E00000A0000000A0200000A0400000A0600000A0800000A0A00000A0C00000A0E00000C0000000C0200000C0400000C0600000C0800000C0
310
A00000C0C00000C0E00000E0000000E0200000E0400000E0600000E0800000E0A00000E0C00000E0E00040000000400020004000400040006000400080004000A0004000C0004000E00040200000402020004020400040206000402080004020A0004020C0004020E000404000004040200040404000404060004040800040
310
40A0004040C0004040E00040600000406020004060400040606000406080004060A0004060C0004060E00040800000408020004080400040806000408080004080A0004080C0004080E00040A0000040A0200040A0400040A0600040A0800040A0A00040A0C00040A0E00040C0000040C0200040C0400040C0600040C08000
310
40C0A00040C0C00040C0E00040E0000040E0200040E0400040E0600040E0800040E0A00040E0C00040E0E00080000000800020008000400080006000800080008000A0008000C0008000E00080200000802020008020400080206000802080008020A0008020C0008020E00080400000804020008040400080406000804080
310
008040A0008040C0008040E00080600000806020008060400080606000806080008060A0008060C0008060E00080800000808020008080400080806000808080008080A0008080C0008080E00080A0000080A0200080A0400080A0600080A0800080A0A00080A0C00080A0E00080C0000080C0200080C0400080C0600080C0
310
800080C0A00080C0C00080C0E00080E0000080E0200080E0400080E0600080E0800080E0A00080E0C00080E0E000C0000000C0002000C0004000C0006000C0008000C000A000C000C000C000E000C0200000C0202000C0204000C0206000C0208000C020A000C020C000C020E000C0400000C0402000C0404000C0406000C0
310
408000C040A000C040C000C040E000C0600000C0602000C0604000C0606000C0608000C060A000C060C000C060E000C0800000C0802000C0804000C0806000C0808000C080A000C080C000C080E000C0A00000C0A02000C0A04000C0A06000C0A08000C0A0A000C0A0C000C0A0E000C0C00000C0C02000C0C04000C0C06000
310
C0C08000C0C0A000F0FBFF00A4A0A000808080000000FF0000FF000000FFFF00FF000000FF00FF00FFFF0000FFFFFF00FF00FFFFFFFF00FFFFFFFFFFFFFFFFFFFFFFFFFFFFFFFFFFFFFFFFFFFFFFFFFFFF00FFFFFFFF00FFFFFFFFFFFFFFFFFFFFFFFFFFFFFFFFFFFFFFFFFFFFFFFFFFFF00FFFFFFFF00FFFFFFFFFFFFFFFF
310
FFFFFFFFFFFFFFFFFFFFFFFFFFFFFFFFFFFF00FFFFFFFF00FFFFFFFFFFFFFFFFFFFFFFFFFFFFFFFFFFFFFFFFFFFFFFFFFFFF00FFFFFFFF00FFFFFFFFFFFFFFFFFFFFFFFFFFFFFFFFFFFFFFFFFFFFFFFFFFFF00FFFFFFFF00FFFFFFFFFFFFFFFFFFFFFFFFFFFFFFFFFFFFFFFFFFFFFFFFFFFF00FFFFFFFF00FFFFFFFFFFFFFF
310
FFFFFFFFFFFFFFFFFFFFFFFFFFFFFFFFFFFFFF00FFFFFFFF00FFFFFFFFFFFFFFFFFFFFFFFFFFFFFFFFFFFFFFFFFFFFFFFFFFFF00FFFFFFFF00FFFFFFFFFFFFFFFFFFFFFFFFFFFFFFFFFFFFFFFFFFFFFFFFFFFF00FFFFFFFF00FFFFFFFFFFFFFFFFFFFFFFFFFFFFFFFFFFFFFFFFFFFFFFFFFFFF00FFFFFFFF00FFFFFFFFFFFF
310
FFFFFFFFFFFFFFFFFFFFFFFFFFFFFFFFFFFFFFFF00FFFFFFFF00FFFFFFFFFFFFFFFFFFFFFFFFFFFFFFFFFFFFFFFFFFFFFFFFFFFF00FFFFFFFF00FFFFFFFFFFFFFFFFFFFFFFFFFFFFFFFFFFFFFFFFFFFFFFFFFFFF00FFFFFFFF0000000000000000000000000000000000000000000000000000FF00FFFFFFFFFFFFFFFFFFFF
310
FFFFFFFFFFFFFFFFFFFFFFFFFFFFFFFFFFFFFFFFFF00FFFFFFFFFFFFFFFFFFFFFFFFFFFFFFFFFFFFFFFFFFFFFFFFFFFFFFFFFFFFFF00FFFFFFFFFFFFFFFFFFFFFFFFFFFFFFFFFFFFFFFFFFFFFFFFFFFFFFFFFFFFFF00FFFFFFFFFFFFFFFFFFFFFFFFFFFFFFFFFFFFFFFFFFFFFFFFFFFFFFFFFF00FF00000000000000000000
310
0000000000000000000000000000000000000000FFFFFFFFFFFFFFFFFFFFFFFFFFFFFFFFFFFFFFFFFFFFFFFFFFFFFFFFFFFFFFFFFFFFFFFFFFFFFFFFFFFFFFFFFFFFFFFFFFFFFFFFFFFFFFFFFFFFFFFFFFFFFFFFFFFFFFFFFFFFFFFFFFFFFFFFFFFFFFFFFFFFFFFFFFFFFFFFFFFFFFFFFFFFFFFFFFFFFFFFFFFFFFFFFFFFFF
310
FFFFFFFFFFFFFFFFFFFFFFFFFFFFFFFFFFFFFFFFFFFFFFFFFFFFFFFFFFFFFFFFFFFFFFFFFFFFFFFFFFFFFFFFFFFFFFFFFFFFFFFFFFFFFFFFFFFFFFFFFFFFFFFFFFFFFFFFFFFFFFFFFFFFFFFFFFFFFFFFFFFFFFFFFFFFFFFFFFFFFFFFFFFFFFFFFFFFFFFFFFFFFFFFFFFFFFFFFFFFFFFFFFFFFFFFFFFFFFFFFFFFFFFFFFFFFF
310
FFFFFFFFFFFFFFFFFFFFFFFFFFFFFFFFFFFFFFFFFFFFFFFFFFFFFFFFFFFFFFFFFFFFFFFFFFFFFFFFFFFFFFFFFFFFFFFFFFFFFFFFFFFFFFFFFFFFFFFFFFFFFFFFFFFFFFFFFFFFFFFFFFFFFFFFFFFFFFFFFFFFFFFFFFFFFFFFFFFFFFFFFFFFFFFFFFFFFFFFFFFFFFFFFFFFFFFFFFFFFFFFFFFFFFFFFFFFFFFFFFFFFFFFFFFFFF
310
FFFFFFFFFFFFFFFFFFFFFFFFFFFFFFFFFFFFFFFFFFFFFFFFFFFFFFFFFFFFFFFFFFFFFFFFFFFFFFFFFFFFFFFFFFFFFFFFFFFFFFFFFFFFFFFF
102
{BLKREFS
331
262D
102
}
  0
BLOCK_RECORD
  5
25F1
330
2337
100
AcDbSymbolTableRecord
100
AcDbBlockTableRecord
  2
AI9-BLK13
340
0
310
2800000020000000200000000100080000000000000400000000000000000000000000000000000000000000000080000080000000808000800000008000800080800000C0C0C000C0DCC000F0CAA6000020400000206000002080000020A0000020C0000020E00000400000004020000040400000406000004080000040A0
310
000040C0000040E00000600000006020000060400000606000006080000060A0000060C0000060E00000800000008020000080400000806000008080000080A0000080C0000080E00000A0000000A0200000A0400000A0600000A0800000A0A00000A0C00000A0E00000C0000000C0200000C0400000C0600000C0800000C0
310
A00000C0C00000C0E00000E0000000E0200000E0400000E0600000E0800000E0A00000E0C00000E0E00040000000400020004000400040006000400080004000A0004000C0004000E00040200000402020004020400040206000402080004020A0004020C0004020E000404000004040200040404000404060004040800040
310
40A0004040C0004040E00040600000406020004060400040606000406080004060A0004060C0004060E00040800000408020004080400040806000408080004080A0004080C0004080E00040A0000040A0200040A0400040A0600040A0800040A0A00040A0C00040A0E00040C0000040C0200040C0400040C0600040C08000
310
40C0A00040C0C00040C0E00040E0000040E0200040E0400040E0600040E0800040E0A00040E0C00040E0E00080000000800020008000400080006000800080008000A0008000C0008000E00080200000802020008020400080206000802080008020A0008020C0008020E00080400000804020008040400080406000804080
310
008040A0008040C0008040E00080600000806020008060400080606000806080008060A0008060C0008060E00080800000808020008080400080806000808080008080A0008080C0008080E00080A0000080A0200080A0400080A0600080A0800080A0A00080A0C00080A0E00080C0000080C0200080C0400080C0600080C0
310
800080C0A00080C0C00080C0E00080E0000080E0200080E0400080E0600080E0800080E0A00080E0C00080E0E000C0000000C0002000C0004000C0006000C0008000C000A000C000C000C000E000C0200000C0202000C0204000C0206000C0208000C020A000C020C000C020E000C0400000C0402000C0404000C0406000C0
310
408000C040A000C040C000C040E000C0600000C0602000C0604000C0606000C0608000C060A000C060C000C060E000C0800000C0802000C0804000C0806000C0808000C080A000C080C000C080E000C0A00000C0A02000C0A04000C0A06000C0A08000C0A0A000C0A0C000C0A0E000C0C00000C0C02000C0C04000C0C06000
310
C0C08000C0C0A000F0FBFF00A4A0A000808080000000FF0000FF000000FFFF00FF000000FF00FF00FFFF0000FFFFFF00FFFFFFFFFFFFFFFFFFFFFFFFFFFFFFFFFFFFFFFFFFFFFFFFFFFFFFFFFFFFFFFFFFFFFFFFFFFFFFFFFFFFFF0000FFFFFFFFFFFF0000FFFFFFFFFFFFFFFFFFFFFFFFFFFFFFFFFFFFFFFFFFFF0000FFFF
310
FFFFFFFF0000FFFFFFFFFFFFFFFFFFFFFFFFFFFFFFFFFFFFFFFFFFFF0000FFFFFFFFFFFF0000FFFFFFFFFFFFFFFFFFFFFFFFFFFFFFFFFFFFFFFFFFFF0000FFFFFFFFFFFF0000FFFFFFFFFFFFFFFFFFFFFFFFFFFFFFFFFFFFFFFFFFFF0000FFFFFFFFFFFF0000FFFFFFFFFFFFFFFFFFFFFFFFFFFFFFFFFFFFFFFFFFFF0000FF
310
FFFFFFFFFF0000FFFFFFFFFFFFFFFFFFFFFFFFFFFFFFFFFFFFFFFFFFFF0000FFFFFFFFFFFF0000FFFFFFFFFFFFFFFFFFFFFFFFFFFFFFFFFFFFFFFFFFFF0000FFFFFFFFFFFF0000FFFFFFFFFFFFFFFFFFFFFFFFFFFFFFFFFFFFFFFFFFFF0000FFFFFFFFFFFF0000FFFFFFFFFFFFFFFFFFFFFFFFFFFFFFFFFFFFFFFFFFFF0000
310
FFFFFFFFFFFF0000FFFFFFFFFFFFFFFFFFFFFFFFFFFFFFFFFFFFFFFFFFFF0000FFFFFFFFFFFF0000FFFFFFFFFFFFFFFFFFFFFFFFFFFFFFFFFFFFFFFFFFFF0000FFFFFFFFFFFF0000FFFFFFFFFFFFFFFFFFFFFFFFFFFFFFFFFFFFFFFFFFFF0000FFFFFFFFFFFF0000FFFFFFFFFFFFFFFFFFFFFFFFFFFFFFFFFFFFFFFFFFFF00
310
00FFFFFFFFFFFF0000FFFFFFFFFFFFFFFFFFFFFFFFFFFFFFFFFFFFFFFFFFFF00000000000000000000FFFFFFFFFFFFFFFFFFFFFFFFFFFFFFFFFFFFFFFFFFFF00FFFFFFFFFFFFFFFF00FFFFFFFFFFFFFFFFFFFFFFFFFFFFFFFFFFFFFFFFFFFF00FFFFFFFFFFFFFFFF00FFFFFFFFFFFFFFFFFFFFFFFFFFFFFFFFFFFFFFFFFFFF
310
00000000000000000000FFFFFFFFFFFFFFFFFFFFFFFFFFFFFFFFFFFFFFFFFFFF0000FFFFFFFFFFFF0000FFFFFFFFFFFFFFFFFFFFFFFFFFFFFFFFFFFFFFFFFFFF0000FFFFFFFFFFFF0000FFFFFFFFFFFFFFFFFFFFFFFFFFFFFFFFFFFFFFFFFFFF0000FFFFFFFFFFFF0000FFFFFFFFFFFFFFFFFFFFFFFFFFFFFFFFFFFFFFFFFF
310
FF0000FFFFFFFFFFFF0000FFFFFFFFFFFFFFFFFFFFFFFFFFFFFFFFFFFFFFFFFFFF0000FFFFFFFFFFFF0000FFFFFFFFFFFFFFFFFFFFFFFFFFFFFFFFFFFFFFFFFFFF0000FFFFFFFFFFFF0000FFFFFFFFFFFFFFFFFFFFFFFFFFFFFFFFFFFFFFFFFFFF0000FFFFFFFFFFFF0000FFFFFFFFFFFFFFFFFFFFFFFFFFFFFFFFFFFFFFFF
310
FFFF0000FFFFFFFFFFFF0000FFFFFFFFFFFFFFFFFFFFFFFFFFFFFFFFFFFFFFFFFFFF0000FFFFFFFFFFFF0000FFFFFFFFFFFFFFFFFFFFFFFFFFFFFFFFFFFFFFFFFFFF0000FFFFFFFFFFFF0000FFFFFFFFFFFFFFFFFFFFFFFFFFFFFFFFFFFFFFFFFFFF0000FFFFFFFFFFFF0000FFFFFFFFFFFFFFFFFFFFFFFFFFFFFFFFFFFFFF
310
FFFFFF0000FFFFFFFFFFFF0000FFFFFFFFFFFFFFFFFFFFFFFFFFFFFFFFFFFFFFFFFFFFFFFFFFFFFFFFFFFFFFFFFFFFFFFFFFFFFFFFFFFFFF
102
{BLKREFS
331
262E
102
}
  0
BLOCK_RECORD
  5
25F6
330
2337
100
AcDbSymbolTableRecord
100
AcDbBlockTableRecord
  2
AI9-BLK11
340
0
310
2800000020000000200000000100080000000000000400000000000000000000000000000000000000000000000080000080000000808000800000008000800080800000C0C0C000C0DCC000F0CAA6000020400000206000002080000020A0000020C0000020E00000400000004020000040400000406000004080000040A0
310
000040C0000040E00000600000006020000060400000606000006080000060A0000060C0000060E00000800000008020000080400000806000008080000080A0000080C0000080E00000A0000000A0200000A0400000A0600000A0800000A0A00000A0C00000A0E00000C0000000C0200000C0400000C0600000C0800000C0
310
A00000C0C00000C0E00000E0000000E0200000E0400000E0600000E0800000E0A00000E0C00000E0E00040000000400020004000400040006000400080004000A0004000C0004000E00040200000402020004020400040206000402080004020A0004020C0004020E000404000004040200040404000404060004040800040
310
40A0004040C0004040E00040600000406020004060400040606000406080004060A0004060C0004060E00040800000408020004080400040806000408080004080A0004080C0004080E00040A0000040A0200040A0400040A0600040A0800040A0A00040A0C00040A0E00040C0000040C0200040C0400040C0600040C08000
310
40C0A00040C0C00040C0E00040E0000040E0200040E0400040E0600040E0800040E0A00040E0C00040E0E00080000000800020008000400080006000800080008000A0008000C0008000E00080200000802020008020400080206000802080008020A0008020C0008020E00080400000804020008040400080406000804080
310
008040A0008040C0008040E00080600000806020008060400080606000806080008060A0008060C0008060E00080800000808020008080400080806000808080008080A0008080C0008080E00080A0000080A0200080A0400080A0600080A0800080A0A00080A0C00080A0E00080C0000080C0200080C0400080C0600080C0
310
800080C0A00080C0C00080C0E00080E0000080E0200080E0400080E0600080E0800080E0A00080E0C00080E0E000C0000000C0002000C0004000C0006000C0008000C000A000C000C000C000E000C0200000C0202000C0204000C0206000C0208000C020A000C020C000C020E000C0400000C0402000C0404000C0406000C0
310
408000C040A000C040C000C040E000C0600000C0602000C0604000C0606000C0608000C060A000C060C000C060E000C0800000C0802000C0804000C0806000C0808000C080A000C080C000C080E000C0A00000C0A02000C0A04000C0A06000C0A08000C0A0A000C0A0C000C0A0E000C0C00000C0C02000C0C04000C0C06000
310
C0C08000C0C0A000F0FBFF00A4A0A000808080000000FF0000FF000000FFFF00FF000000FF00FF00FFFF0000FFFFFF00FFFFFFFFFFFFFFFFFFFFFFFFFFFFFFFFFFFFFFFFFFFFFFFFFFFFFFFFFFFFFFFFFFFFFFFFFFFFFFFFFFFFFFFFFFFF00000000FFFFFFFFFFFFFFFFFFFFFF000000FFFFFFFFFFFFFFFFFFFFFFFFFFFF00
310
FFFF00FFFFFFFFFFFFFFFFFFFFFF00FFFFFFFFFFFFFFFFFFFFFFFFFFFFFFFF00FFFF00FFFFFFFFFFFFFFFFFFFFFF00FFFFFFFFFFFFFFFFFFFFFFFFFFFFFFFF00FFFF00FFFFFFFFFFFFFFFFFFFFFF00FFFFFFFFFFFFFFFFFFFFFFFFFFFFFFFF00FFFF00FFFFFFFFFFFFFFFFFFFFFF00FFFFFFFFFFFFFFFFFFFFFFFFFFFFFFFF
310
00FFFF00FFFFFFFFFFFFFFFFFFFFFF00FFFFFFFFFFFFFFFFFFFFFFFFFFFFFFFF00FFFF00FFFFFFFFFFFFFFFFFFFFFF00FFFFFFFFFFFFFFFFFFFFFFFFFFFFFFFF00FFFF00FFFFFFFFFFFFFFFFFFFFFF00FFFFFFFFFFFFFFFFFFFFFFFFFFFFFFFF00FFFF00FFFFFFFFFFFFFFFFFFFFFF00FFFFFFFFFFFFFFFFFFFFFFFFFFFFFF
310
FF00FFFF00FFFFFFFFFFFFFFFFFFFFFF00FFFFFFFFFFFFFFFFFFFFFFFFFFFFFFFF00FFFF00FFFFFFFFFFFFFFFFFFFFFF00FFFFFFFFFFFFFFFFFFFFFFFFFFFFFFFF00FFFF00FFFFFFFFFFFFFFFFFFFFFF00FFFFFFFFFFFFFFFFFFFFFFFFFFFFFFFF00FFFF00FFFFFFFFFFFFFFFFFFFFFF00FFFFFFFFFFFFFFFFFFFFFFFFFFFF
310
FFFF00FFFF00FFFFFFFFFFFFFFFFFFFFFF00FFFFFFFFFFFFFFFFFFFFFFFFFFFFFFFF00FFFF00FFFFFFFFFFFFFFFFFFFFFF00FFFFFFFFFFFFFFFFFFFFFFFFFFFFFFFF00FFFF00FFFFFFFFFFFFFFFFFFFFFF00FFFFFFFFFFFFFFFFFFFFFFFFFFFFFFFF00FFFF00FFFFFFFFFFFFFFFFFFFF00FFFFFFFFFFFFFFFFFFFFFFFFFFFF
310
FFFFFF00FFFF00FFFFFFFFFFFFFFFFFFFF00FFFFFFFFFFFFFFFFFFFFFFFFFFFFFFFFFF00FFFF00FFFFFFFFFFFFFFFFFFFF00FFFFFFFFFFFFFFFFFFFFFFFFFFFFFFFFFF00FFFF00FFFFFFFFFFFFFFFFFFFF00FFFFFFFFFFFFFFFFFFFFFFFFFFFFFFFFFF00FFFF00FFFFFFFFFFFFFFFFFFFF00FFFFFFFFFFFFFFFFFFFFFFFFFF
310
FFFFFFFF00FFFF00FFFFFFFFFFFFFFFFFF0000FFFF00FFFFFFFFFFFFFFFFFFFFFFFFFFFF00FFFF00FFFFFFFFFFFFFFFF0000FFFFFF00FFFFFFFFFFFFFFFFFFFFFFFFFFFF00FFFF00000000000000000000FFFFFFFF00FFFFFFFFFFFFFFFFFFFFFFFFFFFF00FFFFFFFFFFFFFFFFFFFFFFFFFFFFFF00FFFFFFFFFFFFFFFFFFFF
310
FFFFFFFFFF00FFFFFFFFFFFFFFFFFFFFFFFFFFFF00FFFFFFFFFFFFFFFFFFFFFFFFFFFFFFFF00FFFFFFFFFFFFFFFFFFFFFFFFFFFF00FFFFFFFFFFFFFFFFFFFFFFFFFFFFFFFF00FFFFFFFFFFFFFFFFFFFFFFFFFFFFFF00FFFFFFFFFFFFFFFFFFFFFFFFFFFFFF00FFFFFFFFFFFFFFFFFFFFFFFFFFFFFF00FFFFFFFFFFFFFFFFFF
310
FFFFFFFFFFFF00FFFF00000000000000000000FFFFFFFF00FFFFFFFFFFFFFFFFFFFFFFFFFFFF00FFFF00FFFFFFFFFFFFFFFFFF0000FFFF00
102
{BLKREFS
331
262F
102
}
  0
BLOCK_RECORD
  5
25FB
330
2337
100
AcDbSymbolTableRecord
100
AcDbBlockTableRecord
  2
AI9-BLK10
340
0
310
2800000020000000200000000100080000000000000400000000000000000000000000000000000000000000000080000080000000808000800000008000800080800000C0C0C000C0DCC000F0CAA6000020400000206000002080000020A0000020C0000020E00000400000004020000040400000406000004080000040A0
310
000040C0000040E00000600000006020000060400000606000006080000060A0000060C0000060E00000800000008020000080400000806000008080000080A0000080C0000080E00000A0000000A0200000A0400000A0600000A0800000A0A00000A0C00000A0E00000C0000000C0200000C0400000C0600000C0800000C0
310
A00000C0C00000C0E00000E0000000E0200000E0400000E0600000E0800000E0A00000E0C00000E0E00040000000400020004000400040006000400080004000A0004000C0004000E00040200000402020004020400040206000402080004020A0004020C0004020E000404000004040200040404000404060004040800040
310
40A0004040C0004040E00040600000406020004060400040606000406080004060A0004060C0004060E00040800000408020004080400040806000408080004080A0004080C0004080E00040A0000040A0200040A0400040A0600040A0800040A0A00040A0C00040A0E00040C0000040C0200040C0400040C0600040C08000
310
40C0A00040C0C00040C0E00040E0000040E0200040E0400040E0600040E0800040E0A00040E0C00040E0E00080000000800020008000400080006000800080008000A0008000C0008000E00080200000802020008020400080206000802080008020A0008020C0008020E00080400000804020008040400080406000804080
310
008040A0008040C0008040E00080600000806020008060400080606000806080008060A0008060C0008060E00080800000808020008080400080806000808080008080A0008080C0008080E00080A0000080A0200080A0400080A0600080A0800080A0A00080A0C00080A0E00080C0000080C0200080C0400080C0600080C0
310
800080C0A00080C0C00080C0E00080E0000080E0200080E0400080E0600080E0800080E0A00080E0C00080E0E000C0000000C0002000C0004000C0006000C0008000C000A000C000C000C000E000C0200000C0202000C0204000C0206000C0208000C020A000C020C000C020E000C0400000C0402000C0404000C0406000C0
310
408000C040A000C040C000C040E000C0600000C0602000C0604000C0606000C0608000C060A000C060C000C060E000C0800000C0802000C0804000C0806000C0808000C080A000C080C000C080E000C0A00000C0A02000C0A04000C0A06000C0A08000C0A0A000C0A0C000C0A0E000C0C00000C0C02000C0C04000C0C06000
310
C0C08000C0C0A000F0FBFF00A4A0A000808080000000FF0000FF000000FFFF00FF000000FF00FF00FFFF0000FFFFFF00FFFFFFFFFFFFFFFFFFFFFFFFFFFFFFFF00FFFFFFFFFFFFFFFFFFFFFFFF00FFFFFFFFFFFFFFFFFFFFFFFFFFFFFFFFFFFF00FFFFFFFFFFFFFFFFFFFFFF00FFFFFFFFFFFFFFFFFFFFFFFFFFFFFFFFFFFF
310
FF00FFFFFFFFFFFFFFFFFFFFFF00FFFFFFFFFFFFFFFFFFFFFFFFFFFFFFFFFFFFFF00FFFFFFFFFFFFFFFFFFFFFF00FFFFFFFFFFFFFFFFFFFFFFFFFFFFFFFFFFFFFF00FFFFFFFFFFFFFFFFFFFFFF00FFFFFFFFFFFFFFFFFFFFFFFFFFFFFFFFFFFFFF00FFFFFFFFFFFFFFFFFFFFFF00FFFFFFFFFFFFFFFFFFFFFFFFFFFFFFFFFF
310
FFFF00FFFFFFFFFFFFFFFFFFFFFF00FFFFFFFFFFFFFFFFFFFFFFFFFFFFFFFFFFFFFF00FFFFFFFFFFFFFFFFFFFF00FFFFFFFFFFFFFFFFFFFFFFFFFFFFFFFFFFFFFFFF00FFFFFFFFFFFFFFFFFFFF00FFFFFFFFFFFFFFFFFFFFFFFFFFFFFFFFFFFFFFFF00FFFFFFFFFFFFFFFFFFFF00FFFFFFFFFFFFFFFFFFFFFFFFFFFFFFFFFF
310
FFFFFF00FFFFFFFFFFFFFFFFFFFF00FFFFFFFFFFFFFFFFFFFFFFFFFFFFFFFFFFFFFFFF00FFFFFFFFFFFFFFFFFFFF00FFFFFFFFFFFFFFFFFFFFFFFFFFFFFFFFFFFFFFFF00FFFFFFFFFFFFFFFFFFFF00FFFFFFFFFFFFFFFFFFFFFFFFFFFFFFFFFFFFFFFF00FFFFFFFFFFFFFFFFFF00FFFFFFFFFFFFFFFFFFFFFFFFFFFFFFFFFF
310
FFFFFFFF00FFFFFFFFFFFFFFFFFF00FFFFFFFFFFFFFFFFFFFFFFFFFFFFFFFFFFFFFFFFFF00FFFFFFFFFFFFFFFFFF00FFFFFFFFFFFFFFFFFFFFFFFFFFFFFFFFFFFFFFFFFF0000000000000000000000FFFFFFFFFFFFFFFFFFFFFFFFFFFFFFFFFFFFFFFFFFFFFFFFFFFFFFFFFFFFFFFFFFFFFFFFFFFFFFFFFFFFFFFFFFFFFFFF
310
FFFFFFFFFFFFFFFFFFFFFFFFFFFFFFFFFFFFFFFFFFFFFFFFFFFFFFFFFFFFFFFFFFFFFFFFFFFFFFFFFFFFFFFFFFFFFFFFFFFFFFFFFFFFFFFFFFFFFFFFFFFFFFFFFFFFFFFFFFFFFFFFFFFFFFFFFFFFFFFFFFFFFFFFFFFFFFFFFFFFFFFFFFFFFFFFFFFFFFFFFFFFFFFFFFFFFFFFFFFFFFFFFFFFFFFFFFFFFFFFFFFFFFFFFFFFFF
310
FFFFFFFFFFFFFFFFFFFFFFFFFFFFFFFFFFFFFFFFFFFFFFFFFFFFFFFFFFFFFFFFFFFFFFFFFFFFFFFFFFFFFFFFFFFFFFFFFFFFFFFFFFFFFFFFFFFFFFFFFFFFFFFFFFFFFFFFFFFFFFFFFFFFFFFFFFFFFFFFFFFFFFFFFFFFFFFFFFFFFFFFFFFFFFFFFFFFFFFFFFFFFFFFFFFFFFFFFFFFFFFFFFFFFFFFFFFFFFFFFFFFFFFFFFFFFF
310
FFFFFFFFFFFFFFFFFFFFFFFFFFFFFFFFFFFFFFFFFFFFFFFFFFFFFFFFFFFFFFFFFFFFFFFFFFFFFFFFFFFFFFFFFFFFFFFFFFFFFFFFFFFFFFFFFFFFFFFFFFFFFFFFFFFFFFFFFFFFFFFFFFFFFFFFFFFFFFFFFFFFFFFFFFFFFFFFFFFFFFFFFFFFFFFFFFFFFFFFFFFFFFFFFFFFFFFFFFFFFFFFFFFFFFFFFFFFFFFFFFFFFFFFFFFFFF
310
FFFFFFFFFFFFFFFFFFFFFFFFFFFFFFFFFFFFFFFFFFFFFFFFFFFFFFFFFFFFFFFFFFFFFFFFFFFFFFFFFFFFFFFFFFFFFFFFFFFFFFFFFFFFFFFF
102
{BLKREFS
331
2630
102
}
  0
BLOCK_RECORD
  5
25FF
330
2337
100
AcDbSymbolTableRecord
100
AcDbBlockTableRecord
  2
AI9-BLK9
340
0
310
2800000020000000200000000100080000000000000400000000000000000000000000000000000000000000000080000080000000808000800000008000800080800000C0C0C000C0DCC000F0CAA6000020400000206000002080000020A0000020C0000020E00000400000004020000040400000406000004080000040A0
310
000040C0000040E00000600000006020000060400000606000006080000060A0000060C0000060E00000800000008020000080400000806000008080000080A0000080C0000080E00000A0000000A0200000A0400000A0600000A0800000A0A00000A0C00000A0E00000C0000000C0200000C0400000C0600000C0800000C0
310
A00000C0C00000C0E00000E0000000E0200000E0400000E0600000E0800000E0A00000E0C00000E0E00040000000400020004000400040006000400080004000A0004000C0004000E00040200000402020004020400040206000402080004020A0004020C0004020E000404000004040200040404000404060004040800040
310
40A0004040C0004040E00040600000406020004060400040606000406080004060A0004060C0004060E00040800000408020004080400040806000408080004080A0004080C0004080E00040A0000040A0200040A0400040A0600040A0800040A0A00040A0C00040A0E00040C0000040C0200040C0400040C0600040C08000
310
40C0A00040C0C00040C0E00040E0000040E0200040E0400040E0600040E0800040E0A00040E0C00040E0E00080000000800020008000400080006000800080008000A0008000C0008000E00080200000802020008020400080206000802080008020A0008020C0008020E00080400000804020008040400080406000804080
310
008040A0008040C0008040E00080600000806020008060400080606000806080008060A0008060C0008060E00080800000808020008080400080806000808080008080A0008080C0008080E00080A0000080A0200080A0400080A0600080A0800080A0A00080A0C00080A0E00080C0000080C0200080C0400080C0600080C0
310
800080C0A00080C0C00080C0E00080E0000080E0200080E0400080E0600080E0800080E0A00080E0C00080E0E000C0000000C0002000C0004000C0006000C0008000C000A000C000C000C000E000C0200000C0202000C0204000C0206000C0208000C020A000C020C000C020E000C0400000C0402000C0404000C0406000C0
310
408000C040A000C040C000C040E000C0600000C0602000C0604000C0606000C0608000C060A000C060C000C060E000C0800000C0802000C0804000C0806000C0808000C080A000C080C000C080E000C0A00000C0A02000C0A04000C0A06000C0A08000C0A0A000C0A0C000C0A0E000C0C00000C0C02000C0C04000C0C06000
310
C0C08000C0C0A000F0FBFF00A4A0A000808080000000FF0000FF000000FFFF00FF000000FF00FF00FFFF0000FFFFFF00FFFFFFFFFFFFFFFFFFFFFFFFFFFFFFFFFFFFFFFFFFFFFFFFFFFFFFFFFFFFFFFFFFFFFFFFFFFFFFFFFFFFFFFFFFFFFF0000FFFFFFFFFFFFFFFFFFFFFFFFFFFFFFFFFFFFFFFFFFFFFFFFFFFFFFFF0000
310
FF0000FFFFFFFFFFFFFFFFFFFFFFFFFFFFFFFFFFFFFFFFFFFFFFFFFFFFFF00FFFFFF0000FFFFFFFFFFFFFFFFFFFFFFFFFFFFFFFFFFFFFFFFFFFFFFFFFFFF00FFFFFFFF0000FFFFFFFFFFFFFFFFFFFFFFFFFFFFFFFFFFFFFFFFFFFFFFFF00FF00000000FF00FFFFFFFFFFFFFFFFFFFFFFFFFFFFFFFFFFFFFFFFFFFFFFFF0000
310
00FFFF00FF00FFFFFFFFFFFFFFFFFFFFFFFFFFFFFFFFFFFFFFFFFFFFFFFF0000FFFFFFFF0000FFFFFFFFFFFFFFFFFFFFFFFFFFFFFFFFFFFFFFFFFFFFFFFF0000FFFFFFFF0000FFFFFFFFFFFFFFFFFFFFFFFFFFFFFFFFFFFFFFFFFFFFFF00FF00FFFFFFFF00FF00FFFFFFFFFFFFFFFFFFFFFFFFFFFFFFFFFFFFFFFFFFFF0000
310
FFFFFFFFFF00FF00FFFFFFFFFFFFFFFFFFFFFFFFFFFFFFFFFFFFFFFFFFFF0000FFFFFFFFFFFF0000FFFFFFFFFFFFFFFFFFFFFFFFFFFFFFFFFFFFFFFFFFFF0000FFFFFFFFFFFF0000FFFFFFFFFFFFFFFFFFFFFFFFFFFFFFFFFFFFFFFFFFFF0000FFFFFFFFFFFF0000FFFFFFFFFFFFFFFFFFFFFFFFFFFFFFFFFFFFFFFFFFFF00
310
00FFFFFFFFFFFF0000FFFFFFFFFFFFFFFFFFFFFFFFFFFFFFFFFFFFFFFFFFFF0000FFFFFFFFFFFF0000FFFFFFFFFFFFFFFFFFFFFFFFFFFFFFFFFFFFFFFFFFFF0000FFFFFFFFFFFF0000FFFFFFFFFFFFFFFFFFFFFFFFFFFFFFFFFFFFFFFFFFFF0000FFFFFFFFFFFF0000FFFFFFFFFFFFFFFFFFFFFFFFFFFFFFFFFFFFFFFFFFFF
310
0000FFFFFFFFFFFF0000FFFFFFFFFFFFFFFFFFFFFFFFFFFFFFFFFFFFFFFFFFFF0000FFFFFFFFFFFF0000FFFFFFFFFFFFFFFFFFFFFFFFFFFFFFFFFFFFFFFFFFFF0000FFFFFFFFFFFF0000FFFFFFFFFFFFFFFFFFFFFFFFFFFFFFFFFFFFFFFFFFFF00FF00FFFFFFFF00FF00FFFFFFFFFFFFFFFFFFFFFFFFFFFFFFFFFFFFFFFFFF
310
FF00FF00FFFFFFFF00FF00FFFFFFFFFFFFFFFFFFFFFFFFFFFFFFFFFFFFFFFFFFFF00FF00FFFFFFFF00FF00FFFFFFFFFFFFFFFFFFFFFFFFFFFFFFFFFFFFFFFFFFFFFF0000FFFFFFFF0000FFFFFFFFFFFFFFFFFFFFFFFFFFFFFFFFFFFFFFFFFFFFFFFF00FF00FFFF00FF00FFFFFFFFFFFFFFFFFFFFFFFFFFFFFFFFFFFFFFFFFF
310
FFFFFF00FF00000000FF00FFFFFFFFFFFFFFFFFFFFFFFFFFFFFFFFFFFFFFFFFFFFFFFFFF00FFFFFFFF0000FFFFFFFFFFFFFFFFFFFFFFFFFFFFFFFFFFFFFFFFFFFFFFFFFF00FFFFFFFF00FFFFFFFFFFFFFFFFFFFFFFFFFFFFFFFFFFFFFFFFFFFFFFFFFFFFFF00000000FFFFFFFFFFFFFFFFFFFFFFFFFFFFFFFFFFFFFFFFFFFF
310
FFFFFFFFFFFFFF0000FFFFFFFFFFFFFFFFFFFFFFFFFFFFFFFFFFFFFFFFFFFFFFFFFFFFFFFFFFFFFFFFFFFFFFFFFFFFFFFFFFFFFFFFFFFFFF
102
{BLKREFS
331
2631
102
}
  0
BLOCK_RECORD
  5
2604
330
2337
100
AcDbSymbolTableRecord
100
AcDbBlockTableRecord
  2
AI9-BLK8
340
0
310
2800000020000000200000000100080000000000000400000000000000000000000000000000000000000000000080000080000000808000800000008000800080800000C0C0C000C0DCC000F0CAA6000020400000206000002080000020A0000020C0000020E00000400000004020000040400000406000004080000040A0
310
000040C0000040E00000600000006020000060400000606000006080000060A0000060C0000060E00000800000008020000080400000806000008080000080A0000080C0000080E00000A0000000A0200000A0400000A0600000A0800000A0A00000A0C00000A0E00000C0000000C0200000C0400000C0600000C0800000C0
310
A00000C0C00000C0E00000E0000000E0200000E0400000E0600000E0800000E0A00000E0C00000E0E00040000000400020004000400040006000400080004000A0004000C0004000E00040200000402020004020400040206000402080004020A0004020C0004020E000404000004040200040404000404060004040800040
310
40A0004040C0004040E00040600000406020004060400040606000406080004060A0004060C0004060E00040800000408020004080400040806000408080004080A0004080C0004080E00040A0000040A0200040A0400040A0600040A0800040A0A00040A0C00040A0E00040C0000040C0200040C0400040C0600040C08000
310
40C0A00040C0C00040C0E00040E0000040E0200040E0400040E0600040E0800040E0A00040E0C00040E0E00080000000800020008000400080006000800080008000A0008000C0008000E00080200000802020008020400080206000802080008020A0008020C0008020E00080400000804020008040400080406000804080
310
008040A0008040C0008040E00080600000806020008060400080606000806080008060A0008060C0008060E00080800000808020008080400080806000808080008080A0008080C0008080E00080A0000080A0200080A0400080A0600080A0800080A0A00080A0C00080A0E00080C0000080C0200080C0400080C0600080C0
310
800080C0A00080C0C00080C0E00080E0000080E0200080E0400080E0600080E0800080E0A00080E0C00080E0E000C0000000C0002000C0004000C0006000C0008000C000A000C000C000C000E000C0200000C0202000C0204000C0206000C0208000C020A000C020C000C020E000C0400000C0402000C0404000C0406000C0
310
408000C040A000C040C000C040E000C0600000C0602000C0604000C0606000C0608000C060A000C060C000C060E000C0800000C0802000C0804000C0806000C0808000C080A000C080C000C080E000C0A00000C0A02000C0A04000C0A06000C0A08000C0A0A000C0A0C000C0A0E000C0C00000C0C02000C0C04000C0C06000
310
C0C08000C0C0A000F0FBFF00A4A0A000808080000000FF0000FF000000FFFF00FF000000FF00FF00FFFF0000FFFFFF00FFFFFFFFFFFFFFFFFFFFFFFFFFFFFFFFFFFFFFFFFFFFFFFFFFFFFFFFFFFFFFFFFFFFFFFFFFFFFFFFFFFFFF0000FFFFFFFFFFFF0000FFFFFFFFFFFFFFFFFFFFFFFFFFFFFFFFFFFFFFFFFFFF0000FFFF
310
FFFFFFFF0000FFFFFFFFFFFFFFFFFFFFFFFFFFFFFFFFFFFFFFFFFFFF0000FFFFFFFFFF00FF00FFFFFFFFFFFFFFFFFFFFFFFFFFFFFFFFFFFFFFFFFFFF0000FFFFFFFFFF00FF00FFFFFFFFFFFFFFFFFFFFFFFFFFFFFFFFFFFFFFFFFFFF0000FFFFFFFFFF00FF00FFFFFFFFFFFFFFFFFFFFFFFFFFFFFFFFFFFFFFFFFFFF0000FF
310
FFFFFF00FFFF00FFFFFFFFFFFFFFFFFFFFFFFFFFFFFFFFFFFFFFFFFFFF0000FFFFFFFF00FF0000FFFFFFFFFFFFFFFFFFFFFFFFFFFFFFFFFFFFFFFFFFFF0000FFFFFFFF00FF0000FFFFFFFFFFFFFFFFFFFFFFFFFFFFFFFFFFFFFFFFFFFF0000FFFFFFFF00000000FFFFFFFFFFFFFFFFFFFFFFFFFFFFFFFFFFFFFFFFFFFF0000
310
FFFFFF00FF000000FFFFFFFFFFFFFFFFFFFFFFFFFFFFFFFFFFFFFFFFFFFF0000FFFFFF00FF000000FFFFFFFFFFFFFFFFFFFFFFFFFFFFFFFFFFFFFFFFFFFF0000FFFFFF00FF000000FFFFFFFFFFFFFFFFFFFFFFFFFFFFFFFFFFFFFFFFFFFF0000FFFF00FF00FF0000FFFFFFFFFFFFFFFFFFFFFFFFFFFFFFFFFFFFFFFFFFFF00
310
00FFFF00FF00FF0000FFFFFFFFFFFFFFFFFFFFFFFFFFFFFFFFFFFFFFFFFFFF0000FFFF00FF00FF0000FFFFFFFFFFFFFFFFFFFFFFFFFFFFFFFFFFFFFFFFFFFF0000FF00FFFF00FF0000FFFFFFFFFFFFFFFFFFFFFFFFFFFFFFFFFFFFFFFFFFFF0000FF00FF00FFFF0000FFFFFFFFFFFFFFFFFFFFFFFFFFFFFFFFFFFFFFFFFFFF
310
0000FF00FF00FFFF0000FFFFFFFFFFFFFFFFFFFFFFFFFFFFFFFFFFFFFFFFFFFF0000FF00FF00FFFF0000FFFFFFFFFFFFFFFFFFFFFFFFFFFFFFFFFFFFFFFFFFFF000000FFFF00FFFF0000FFFFFFFFFFFFFFFFFFFFFFFFFFFFFFFFFFFFFFFFFFFF000000FF00FFFFFF0000FFFFFFFFFFFFFFFFFFFFFFFFFFFFFFFFFFFFFFFFFF
310
FF000000FF00FFFFFF0000FFFFFFFFFFFFFFFFFFFFFFFFFFFFFFFFFFFFFFFFFFFF0000FFFF00FFFFFF0000FFFFFFFFFFFFFFFFFFFFFFFFFFFFFFFFFFFFFFFFFFFF0000FFFF00FFFFFF0000FFFFFFFFFFFFFFFFFFFFFFFFFFFFFFFFFFFFFFFFFFFF00FFFF00FFFFFFFF0000FFFFFFFFFFFFFFFFFFFFFFFFFFFFFFFFFFFFFFFF
310
FFFF00FFFF00FFFFFFFF0000FFFFFFFFFFFFFFFFFFFFFFFFFFFFFFFFFFFFFFFFFFFF00FFFF00FFFFFFFF0000FFFFFFFFFFFFFFFFFFFFFFFFFFFFFFFFFFFFFFFFFFFF00FFFF00FFFFFFFF0000FFFFFFFFFFFFFFFFFFFFFFFFFFFFFFFFFFFFFFFFFFFF00FF00FFFFFFFFFF0000FFFFFFFFFFFFFFFFFFFFFFFFFFFFFFFFFFFFFF
310
FFFFFF000000FFFFFFFFFF0000FFFFFFFFFFFFFFFFFFFFFFFFFFFFFFFFFFFFFFFFFFFFFFFFFFFFFFFFFFFFFFFFFFFFFFFFFFFFFFFFFFFFFF
102
{BLKREFS
331
2632
102
}
  0
BLOCK_RECORD
  5
2609
330
2337
100
AcDbSymbolTableRecord
100
AcDbBlockTableRecord
  2
AI9-BLK7
340
0
310
2800000020000000200000000100080000000000000400000000000000000000000000000000000000000000000080000080000000808000800000008000800080800000C0C0C000C0DCC000F0CAA6000020400000206000002080000020A0000020C0000020E00000400000004020000040400000406000004080000040A0
310
000040C0000040E00000600000006020000060400000606000006080000060A0000060C0000060E00000800000008020000080400000806000008080000080A0000080C0000080E00000A0000000A0200000A0400000A0600000A0800000A0A00000A0C00000A0E00000C0000000C0200000C0400000C0600000C0800000C0
310
A00000C0C00000C0E00000E0000000E0200000E0400000E0600000E0800000E0A00000E0C00000E0E00040000000400020004000400040006000400080004000A0004000C0004000E00040200000402020004020400040206000402080004020A0004020C0004020E000404000004040200040404000404060004040800040
310
40A0004040C0004040E00040600000406020004060400040606000406080004060A0004060C0004060E00040800000408020004080400040806000408080004080A0004080C0004080E00040A0000040A0200040A0400040A0600040A0800040A0A00040A0C00040A0E00040C0000040C0200040C0400040C0600040C08000
310
40C0A00040C0C00040C0E00040E0000040E0200040E0400040E0600040E0800040E0A00040E0C00040E0E00080000000800020008000400080006000800080008000A0008000C0008000E00080200000802020008020400080206000802080008020A0008020C0008020E00080400000804020008040400080406000804080
310
008040A0008040C0008040E00080600000806020008060400080606000806080008060A0008060C0008060E00080800000808020008080400080806000808080008080A0008080C0008080E00080A0000080A0200080A0400080A0600080A0800080A0A00080A0C00080A0E00080C0000080C0200080C0400080C0600080C0
310
800080C0A00080C0C00080C0E00080E0000080E0200080E0400080E0600080E0800080E0A00080E0C00080E0E000C0000000C0002000C0004000C0006000C0008000C000A000C000C000C000E000C0200000C0202000C0204000C0206000C0208000C020A000C020C000C020E000C0400000C0402000C0404000C0406000C0
310
408000C040A000C040C000C040E000C0600000C0602000C0604000C0606000C0608000C060A000C060C000C060E000C0800000C0802000C0804000C0806000C0808000C080A000C080C000C080E000C0A00000C0A02000C0A04000C0A06000C0A08000C0A0A000C0A0C000C0A0E000C0C00000C0C02000C0C04000C0C06000
310
C0C08000C0C0A000F0FBFF00A4A0A000808080000000FF0000FF000000FFFF00FF000000FF00FF00FFFF0000FFFFFF00FFFFFFFFFFFFFFFFFFFFFFFFFFFFFFFFFFFFFFFFFFFFFFFFFFFFFFFFFFFFFFFFFFFFFFFFFFFFFFFFFFFFFFFFFFFFFF0000FFFFFFFFFFFFFFFFFFFFFFFFFFFFFFFFFFFFFFFFFFFFFFFFFFFFFFFFFFFF
310
0000FFFFFFFFFFFFFFFFFFFFFFFFFFFFFFFFFFFFFFFFFFFFFFFFFFFFFFFFFFFF0000FFFFFFFFFFFFFFFFFFFFFFFFFFFFFFFFFFFFFFFFFFFFFFFFFFFFFFFFFFFF0000FFFFFFFFFFFFFFFFFFFFFFFFFFFFFFFFFFFFFFFFFFFFFFFFFFFFFFFFFFFF0000FFFFFFFFFFFFFFFFFFFFFFFFFFFFFFFFFFFFFFFFFFFFFFFFFFFFFFFFFF
310
FF0000FFFFFFFFFFFFFFFFFFFFFFFFFFFFFFFFFFFFFFFFFFFFFFFFFFFFFFFFFFFF0000FFFFFFFFFFFFFFFFFFFFFFFFFFFFFFFFFFFFFFFFFFFFFFFFFFFFFFFFFFFF0000FFFFFFFFFFFFFFFFFFFFFFFFFFFFFFFFFFFFFFFFFFFFFFFFFFFFFFFFFFFF0000FFFFFFFFFFFFFFFFFFFFFFFFFFFFFFFFFFFFFFFFFFFFFFFFFFFFFFFF
310
FFFF0000FFFFFFFFFFFFFFFFFFFFFFFFFFFFFFFFFFFFFFFFFFFFFFFFFFFFFFFFFFFF0000FFFFFFFFFFFFFFFFFFFFFFFFFFFFFFFFFFFFFFFFFFFFFFFFFFFFFFFFFFFF0000FFFFFFFFFFFFFFFFFFFFFFFFFFFFFFFFFFFFFFFFFFFFFFFFFFFFFFFFFFFF0000FFFFFFFFFFFFFFFFFFFFFFFFFFFFFFFFFFFFFFFFFFFFFFFFFFFFFF
310
FFFFFF0000FFFFFFFFFFFFFFFFFFFFFFFFFFFFFFFFFFFFFFFFFFFFFFFFFFFFFFFFFFFF0000FFFFFFFFFFFFFFFFFFFFFFFFFFFFFFFFFFFFFFFFFFFFFFFFFFFFFFFFFFFF0000FFFFFFFFFFFFFFFFFFFFFFFFFFFFFFFFFFFFFFFFFFFFFFFFFFFFFFFFFFFF0000FFFFFFFFFFFFFFFFFFFFFFFFFFFFFFFFFFFFFFFFFFFFFFFFFFFF
310
FFFFFFFF0000FFFFFFFFFFFFFFFFFFFFFFFFFFFFFFFFFFFFFFFFFFFFFFFFFFFFFFFFFFFF0000FFFFFFFFFFFFFFFFFFFFFFFFFFFFFFFFFFFFFFFFFFFFFFFFFFFFFFFFFFFF0000FFFFFFFFFFFFFFFFFFFFFFFFFFFFFFFFFFFFFFFFFFFFFFFFFFFFFFFFFFFF0000FFFFFFFFFFFFFFFFFFFFFFFFFFFFFFFFFFFFFFFFFFFFFFFFFF
310
FFFFFFFFFF0000FFFFFFFFFFFFFFFFFFFFFFFFFFFFFFFFFFFFFFFFFFFFFFFFFFFFFFFFFFFF0000FFFFFFFFFFFFFFFFFFFFFFFFFFFFFFFFFFFFFFFFFFFFFFFFFFFFFFFFFFFF0000FFFFFFFFFFFFFFFFFFFFFFFFFFFFFFFFFFFFFFFFFFFFFFFFFFFFFFFFFFFF0000FFFFFFFFFFFFFFFFFFFFFFFFFFFFFFFFFFFFFFFFFFFFFFFF
310
FFFFFFFFFFFF0000FFFFFFFFFFFFFFFFFFFFFFFFFFFFFFFFFFFFFFFFFFFFFFFFFFFFFFFFFFFF0000FFFFFFFFFFFFFFFFFFFFFFFFFFFFFFFFFFFFFFFFFFFFFFFFFFFFFFFFFFFF0000FFFFFFFFFFFFFFFFFFFFFFFFFFFFFFFFFFFFFFFFFFFFFFFFFFFFFFFFFFFF0000FFFFFFFFFFFFFFFFFFFFFFFFFFFFFFFFFFFFFFFFFFFFFF
310
FFFFFFFFFFFFFF0000FFFFFFFFFFFFFFFFFFFFFFFFFFFFFFFFFFFFFFFFFFFFFFFFFFFFFFFFFFFFFFFFFFFFFFFFFFFFFFFFFFFFFFFFFFFFFF
102
{BLKREFS
331
2633
102
}
  0
BLOCK_RECORD
  5
260E
330
2337
100
AcDbSymbolTableRecord
100
AcDbBlockTableRecord
  2
AI9-BLK6
340
0
310
2800000020000000200000000100080000000000000400000000000000000000000000000000000000000000000080000080000000808000800000008000800080800000C0C0C000C0DCC000F0CAA6000020400000206000002080000020A0000020C0000020E00000400000004020000040400000406000004080000040A0
310
000040C0000040E00000600000006020000060400000606000006080000060A0000060C0000060E00000800000008020000080400000806000008080000080A0000080C0000080E00000A0000000A0200000A0400000A0600000A0800000A0A00000A0C00000A0E00000C0000000C0200000C0400000C0600000C0800000C0
310
A00000C0C00000C0E00000E0000000E0200000E0400000E0600000E0800000E0A00000E0C00000E0E00040000000400020004000400040006000400080004000A0004000C0004000E00040200000402020004020400040206000402080004020A0004020C0004020E000404000004040200040404000404060004040800040
310
40A0004040C0004040E00040600000406020004060400040606000406080004060A0004060C0004060E00040800000408020004080400040806000408080004080A0004080C0004080E00040A0000040A0200040A0400040A0600040A0800040A0A00040A0C00040A0E00040C0000040C0200040C0400040C0600040C08000
310
40C0A00040C0C00040C0E00040E0000040E0200040E0400040E0600040E0800040E0A00040E0C00040E0E00080000000800020008000400080006000800080008000A0008000C0008000E00080200000802020008020400080206000802080008020A0008020C0008020E00080400000804020008040400080406000804080
310
008040A0008040C0008040E00080600000806020008060400080606000806080008060A0008060C0008060E00080800000808020008080400080806000808080008080A0008080C0008080E00080A0000080A0200080A0400080A0600080A0800080A0A00080A0C00080A0E00080C0000080C0200080C0400080C0600080C0
310
800080C0A00080C0C00080C0E00080E0000080E0200080E0400080E0600080E0800080E0A00080E0C00080E0E000C0000000C0002000C0004000C0006000C0008000C000A000C000C000C000E000C0200000C0202000C0204000C0206000C0208000C020A000C020C000C020E000C0400000C0402000C0404000C0406000C0
310
408000C040A000C040C000C040E000C0600000C0602000C0604000C0606000C0608000C060A000C060C000C060E000C0800000C0802000C0804000C0806000C0808000C080A000C080C000C080E000C0A00000C0A02000C0A04000C0A06000C0A08000C0A0A000C0A0C000C0A0E000C0C00000C0C02000C0C04000C0C06000
310
C0C08000C0C0A000F0FBFF00A4A0A000808080000000FF0000FF000000FFFF00FF000000FF00FF00FFFF0000FFFFFF00FFFFFFFFFFFFFFFFFFFFFFFF00FFFFFFFFFFFFFF00FFFFFFFFFFFFFFFFFFFFFFFFFFFFFFFFFFFFFFFFFFFFFF00FFFFFFFFFFFFFF00FFFFFFFFFFFFFFFFFFFFFFFFFFFFFFFFFFFFFFFFFFFFFF00FFFF
310
FFFFFFFFFF00FFFFFFFFFFFFFFFFFFFFFFFFFFFFFFFFFFFFFFFFFFFF00FFFFFFFFFFFFFFFF00FFFFFFFFFFFFFFFFFFFFFFFFFFFFFFFFFFFFFFFFFFFF00FFFFFFFFFFFFFF00FFFFFFFFFFFFFFFFFFFFFFFFFFFFFFFFFFFFFFFFFFFFFF00FFFFFFFFFFFFFF00FFFFFFFFFFFFFFFFFFFFFFFFFFFFFFFFFFFFFFFFFFFF00FFFFFF
310
FFFFFFFFFF00FFFFFFFFFFFFFFFFFFFFFFFFFFFFFFFFFFFFFFFFFFFF00FFFFFFFFFFFFFF00FFFFFFFFFFFFFFFFFFFFFFFFFFFFFFFFFFFFFFFFFFFF00FFFFFFFFFFFFFFFF00FFFFFFFFFFFFFFFFFFFFFFFFFFFFFFFFFFFFFFFFFF00FFFFFFFFFFFFFFFFFF00FFFFFFFFFFFFFFFFFFFFFFFFFFFFFFFFFFFFFFFF00FFFFFFFFFF
310
FFFFFFFFFF00FFFFFFFFFFFFFFFFFFFFFFFFFFFFFFFFFFFFFF00FFFFFFFFFFFFFFFFFFFF00FFFFFFFFFFFFFFFFFFFFFFFFFFFFFFFFFFFF0000FFFFFFFFFFFFFFFFFFFFFF00FFFFFFFFFFFFFFFFFFFFFFFFFFFF00000000FFFFFFFFFFFFFFFFFFFFFFFFFF00FFFFFFFFFFFFFFFFFFFFFFFFFFFFFFFFFFFFFFFFFFFFFFFFFFFF
310
FFFFFFFF00FFFFFFFFFFFFFFFFFFFFFFFFFFFFFFFFFFFFFFFFFFFFFFFFFFFFFFFFFFFFFF00FFFFFFFFFFFFFFFFFFFFFFFFFFFFFFFFFFFFFFFFFFFFFFFFFFFFFFFFFFFFFF00FFFFFFFFFFFFFFFFFFFFFFFFFFFFFFFFFFFFFFFFFFFFFFFFFFFFFFFFFFFF00FFFFFFFFFFFFFFFFFFFFFFFFFFFFFFFFFFFFFFFFFFFFFFFFFFFFFF
310
FFFFFFFF00FFFFFFFFFFFFFFFFFFFFFFFFFFFFFFFFFFFFFFFFFFFFFFFFFFFFFFFFFFFF00FFFFFFFFFFFFFFFFFFFFFFFFFFFFFFFFFFFFFFFFFFFFFFFFFFFFFFFFFFFF00FFFFFFFFFFFFFFFFFFFFFFFFFFFFFFFFFFFFFFFFFFFFFFFFFFFFFFFFFFFF00FFFFFFFFFFFFFFFFFFFFFFFFFFFFFFFFFFFFFFFFFFFFFFFFFFFFFFFFFF
310
FF00FFFFFFFFFFFFFFFFFFFFFFFFFFFFFFFFFFFFFFFFFFFFFFFFFFFFFFFFFFFFFF00FFFFFFFFFFFFFFFFFFFFFFFFFFFFFFFFFFFFFFFFFFFFFFFFFFFFFFFFFFFF00FFFFFFFFFFFFFFFFFFFFFFFFFFFFFFFFFFFFFFFFFFFFFFFFFFFFFFFFFF0000FFFFFFFFFFFFFFFFFFFFFFFFFFFFFFFFFFFFFFFFFFFFFFFFFFFFFFFF0000FF
310
FFFFFFFFFFFFFFFFFFFFFFFFFFFFFFFFFFFFFFFFFFFFFFFFFF00000000FFFFFFFFFFFFFFFFFFFFFFFFFFFFFFFFFFFFFFFFFFFFFFFFFFFF0000FFFFFFFFFFFFFFFFFFFFFFFFFFFFFFFFFFFFFFFFFFFFFFFFFFFFFFFFFFFFFFFFFFFFFFFFFFFFFFFFFFFFFFFFFFFFFFFFFFFFFFFFFFFFFFFFFFFFFFFFFFFFFFFFFFFFFFFFFFFF
310
FFFFFFFFFFFFFFFFFFFFFFFFFFFFFFFFFFFFFFFFFFFFFFFFFFFFFFFFFFFFFFFFFFFFFFFFFFFFFFFFFFFFFFFFFFFFFFFFFFFFFFFFFFFFFFFF
102
{BLKREFS
331
2634
102
}
  0
BLOCK_RECORD
  5
2612
330
2337
100
AcDbSymbolTableRecord
100
AcDbBlockTableRecord
  2
AI9-BLK5
340
0
310
2800000020000000200000000100080000000000000400000000000000000000000000000000000000000000000080000080000000808000800000008000800080800000C0C0C000C0DCC000F0CAA6000020400000206000002080000020A0000020C0000020E00000400000004020000040400000406000004080000040A0
310
000040C0000040E00000600000006020000060400000606000006080000060A0000060C0000060E00000800000008020000080400000806000008080000080A0000080C0000080E00000A0000000A0200000A0400000A0600000A0800000A0A00000A0C00000A0E00000C0000000C0200000C0400000C0600000C0800000C0
310
A00000C0C00000C0E00000E0000000E0200000E0400000E0600000E0800000E0A00000E0C00000E0E00040000000400020004000400040006000400080004000A0004000C0004000E00040200000402020004020400040206000402080004020A0004020C0004020E000404000004040200040404000404060004040800040
310
40A0004040C0004040E00040600000406020004060400040606000406080004060A0004060C0004060E00040800000408020004080400040806000408080004080A0004080C0004080E00040A0000040A0200040A0400040A0600040A0800040A0A00040A0C00040A0E00040C0000040C0200040C0400040C0600040C08000
310
40C0A00040C0C00040C0E00040E0000040E0200040E0400040E0600040E0800040E0A00040E0C00040E0E00080000000800020008000400080006000800080008000A0008000C0008000E00080200000802020008020400080206000802080008020A0008020C0008020E00080400000804020008040400080406000804080
310
008040A0008040C0008040E00080600000806020008060400080606000806080008060A0008060C0008060E00080800000808020008080400080806000808080008080A0008080C0008080E00080A0000080A0200080A0400080A0600080A0800080A0A00080A0C00080A0E00080C0000080C0200080C0400080C0600080C0
310
800080C0A00080C0C00080C0E00080E0000080E0200080E0400080E0600080E0800080E0A00080E0C00080E0E000C0000000C0002000C0004000C0006000C0008000C000A000C000C000C000E000C0200000C0202000C0204000C0206000C0208000C020A000C020C000C020E000C0400000C0402000C0404000C0406000C0
310
408000C040A000C040C000C040E000C0600000C0602000C0604000C0606000C0608000C060A000C060C000C060E000C0800000C0802000C0804000C0806000C0808000C080A000C080C000C080E000C0A00000C0A02000C0A04000C0A06000C0A08000C0A0A000C0A0C000C0A0E000C0C00000C0C02000C0C04000C0C06000
310
C0C08000C0C0A000F0FBFF00A4A0A000808080000000FF0000FF000000FFFF00FF000000FF00FF00FFFF0000FFFFFF00FFFFFFFFFFFFFFFFFFFFFFFFFFFFFFFFFFFFFFFFFFFFFFFFFFFFFFFFFFFFFFFFFFFFFFFFFFFFFFFF000000000000000000000000000000000000000000000000FFFFFFFFFFFFFFFF00FFFFFFFFFFFF
310
FFFFFFFFFFFFFFFFFFFFFFFFFFFFFFFFFFFFFFFFFFFFFFFFFF00FFFFFFFFFFFFFFFFFFFFFFFFFFFFFFFFFFFFFFFFFFFFFFFFFFFFFFFFFFFFFF00FFFFFFFFFFFFFFFFFFFFFFFFFFFFFFFFFFFFFFFFFFFFFFFFFFFFFFFFFFFFFF00FFFFFFFFFFFFFFFFFFFFFFFFFFFFFFFFFFFFFFFFFFFFFFFFFFFFFFFFFFFFFF00FFFFFFFFFF
310
FFFFFFFFFFFFFFFFFFFFFFFFFFFFFFFFFFFFFFFFFFFFFFFFFFFF00FFFFFFFFFFFFFFFFFFFFFFFFFFFFFFFFFFFFFFFFFFFFFFFFFFFFFFFFFFFFFF00FFFFFFFFFFFFFFFFFFFFFFFFFFFFFFFFFFFFFFFFFFFFFFFFFFFFFFFFFFFFFF00FFFFFFFFFFFFFFFFFFFFFFFFFFFFFFFFFFFFFFFFFFFFFFFFFFFFFFFFFFFFFF00FFFFFFFF
310
FFFFFFFFFFFFFFFFFFFFFFFFFFFFFFFFFFFFFFFFFFFFFFFFFFFFFF00FFFFFFFFFFFFFFFFFFFFFFFFFFFFFFFFFFFFFFFFFFFFFFFFFFFFFFFFFFFFFF00FFFFFFFFFFFFFFFFFFFFFFFFFFFFFFFFFFFFFFFFFFFFFFFFFFFFFFFFFFFFFF00FFFFFFFFFFFFFFFFFFFFFFFFFFFFFFFFFFFFFFFFFFFFFFFFFFFFFFFFFFFFFF00FFFFFF
310
FFFFFFFFFFFFFFFFFFFFFFFFFFFFFFFFFFFFFFFFFFFFFFFFFFFFFFFF00FFFFFFFFFFFFFFFFFFFFFFFFFFFFFFFFFFFFFFFFFFFFFFFFFFFFFFFFFFFFFF00FFFFFFFFFFFFFFFFFFFFFFFFFFFFFFFFFFFFFFFFFFFFFFFFFFFFFFFFFFFFFF00FFFFFFFFFFFFFFFFFFFFFFFFFFFFFFFFFFFFFFFFFFFFFFFFFFFFFFFFFFFFFF00FFFF
310
FFFFFFFFFFFFFFFFFFFFFFFFFFFFFFFFFFFFFFFFFFFFFFFFFFFFFFFFFF00FFFFFFFFFFFFFFFFFFFFFFFFFFFFFFFFFFFFFFFFFFFFFFFFFFFFFFFFFFFFFF00FFFFFFFFFFFFFFFFFFFFFFFFFFFFFFFFFFFFFFFFFFFFFFFFFFFFFFFFFFFFFF00FFFFFFFFFFFFFFFFFFFFFFFFFFFFFFFFFFFFFFFFFFFFFFFFFFFFFFFFFFFFFF00FF
310
FFFFFFFFFFFFFFFFFFFFFFFFFFFFFFFFFFFFFFFFFFFFFFFFFFFFFFFFFFFF00FFFFFFFFFFFFFFFFFFFFFFFFFFFFFFFFFFFFFFFFFFFFFFFFFFFFFFFFFFFFFF00FFFFFFFFFFFFFFFFFFFFFFFFFFFFFFFFFFFFFFFFFFFFFFFFFFFFFFFFFFFFFF00FFFFFFFFFFFFFFFFFFFFFFFFFFFFFFFFFFFFFFFFFFFFFFFFFFFFFFFFFFFFFF00
310
FFFFFFFFFFFFFFFFFFFFFFFFFFFFFFFFFFFFFFFFFFFFFFFFFFFFFFFFFFFFFF00FFFFFFFFFFFFFFFFFFFFFFFFFFFFFFFFFFFFFFFFFFFFFFFFFFFFFFFFFFFFFF00FFFFFFFFFFFFFFFFFFFFFFFFFFFFFFFFFFFFFFFFFFFFFFFFFFFFFFFFFFFFFF00FFFFFFFFFFFFFFFFFFFFFFFFFFFFFFFFFFFFFFFFFFFFFFFFFFFFFFFFFFFFFF
310
00FFFFFFFFFFFFFFFFFFFFFFFFFFFF000000000000000000FFFFFFFFFFFFFFFF00FFFFFFFFFFFFFFFFFFFFFFFFFFFF00FFFFFFFFFFFFFFFF
102
{BLKREFS
331
2635
102
}
  0
BLOCK_RECORD
  5
2617
330
2337
100
AcDbSymbolTableRecord
100
AcDbBlockTableRecord
  2
AI9-BLK4
340
0
310
2800000020000000200000000100080000000000000400000000000000000000000000000000000000000000000080000080000000808000800000008000800080800000C0C0C000C0DCC000F0CAA6000020400000206000002080000020A0000020C0000020E00000400000004020000040400000406000004080000040A0
310
000040C0000040E00000600000006020000060400000606000006080000060A0000060C0000060E00000800000008020000080400000806000008080000080A0000080C0000080E00000A0000000A0200000A0400000A0600000A0800000A0A00000A0C00000A0E00000C0000000C0200000C0400000C0600000C0800000C0
310
A00000C0C00000C0E00000E0000000E0200000E0400000E0600000E0800000E0A00000E0C00000E0E00040000000400020004000400040006000400080004000A0004000C0004000E00040200000402020004020400040206000402080004020A0004020C0004020E000404000004040200040404000404060004040800040
310
40A0004040C0004040E00040600000406020004060400040606000406080004060A0004060C0004060E00040800000408020004080400040806000408080004080A0004080C0004080E00040A0000040A0200040A0400040A0600040A0800040A0A00040A0C00040A0E00040C0000040C0200040C0400040C0600040C08000
310
40C0A00040C0C00040C0E00040E0000040E0200040E0400040E0600040E0800040E0A00040E0C00040E0E00080000000800020008000400080006000800080008000A0008000C0008000E00080200000802020008020400080206000802080008020A0008020C0008020E00080400000804020008040400080406000804080
310
008040A0008040C0008040E00080600000806020008060400080606000806080008060A0008060C0008060E00080800000808020008080400080806000808080008080A0008080C0008080E00080A0000080A0200080A0400080A0600080A0800080A0A00080A0C00080A0E00080C0000080C0200080C0400080C0600080C0
310
800080C0A00080C0C00080C0E00080E0000080E0200080E0400080E0600080E0800080E0A00080E0C00080E0E000C0000000C0002000C0004000C0006000C0008000C000A000C000C000C000E000C0200000C0202000C0204000C0206000C0208000C020A000C020C000C020E000C0400000C0402000C0404000C0406000C0
310
408000C040A000C040C000C040E000C0600000C0602000C0604000C0606000C0608000C060A000C060C000C060E000C0800000C0802000C0804000C0806000C0808000C080A000C080C000C080E000C0A00000C0A02000C0A04000C0A06000C0A08000C0A0A000C0A0C000C0A0E000C0C00000C0C02000C0C04000C0C06000
310
C0C08000C0C0A000F0FBFF00A4A0A000808080000000FF0000FF000000FFFF00FF000000FF00FF00FFFF0000FFFFFF00FFFFFFFFFFFFFFFFFFFFFFFFFFFFFFFFFFFFFFFFFFFFFFFFFFFFFFFFFFFFFFFFFFFFFFFFFFFFFFFFFFFFFFFFFFFF00000000FFFFFFFFFFFFFFFFFFFFFF000000FFFFFFFFFFFFFFFFFFFFFFFFFFFF00
310
FFFF00FFFFFFFFFFFFFFFFFFFFFF00FFFFFFFFFFFFFFFFFFFFFFFFFFFFFFFF00FFFF00FFFFFFFFFFFFFFFFFFFFFF00FFFFFFFFFFFFFFFFFFFFFFFFFFFFFFFF00FFFF00FFFFFFFFFFFFFFFFFFFFFF00FFFFFFFFFFFFFFFFFFFFFFFFFFFFFFFF00FFFF00FFFFFFFFFFFFFFFFFFFFFF00FFFFFFFFFFFFFFFFFFFFFFFFFFFFFFFF
310
00FFFF00FFFFFFFFFFFFFFFFFFFFFF00FFFFFFFFFFFFFFFFFFFFFFFFFFFFFFFF00FFFF00FFFFFFFFFFFFFFFFFFFFFF00FFFFFFFFFFFFFFFFFFFFFFFFFFFFFFFF00FFFF00FFFFFFFFFFFFFFFFFFFFFF00FFFFFFFFFFFFFFFFFFFFFFFFFFFFFFFF00FFFF00FFFFFFFFFFFFFFFFFFFFFF00FFFFFFFFFFFFFFFFFFFFFFFFFFFFFF
310
FF00FFFF00FFFFFFFFFFFFFFFFFFFFFF00FFFFFFFFFFFFFFFFFFFFFFFFFFFFFFFF00FFFF00FFFFFFFFFFFFFFFFFFFFFF00FFFFFFFFFFFFFFFFFFFFFFFFFFFFFFFF00FFFF00FFFFFFFFFFFFFFFFFFFFFF00FFFFFFFFFFFFFFFFFFFFFFFFFFFFFFFF00FFFF00FFFFFFFFFFFFFFFFFFFFFF00FFFFFFFFFFFFFFFFFFFFFFFFFFFF
310
FFFF00FFFF00FFFFFFFFFFFFFFFFFFFFFF00FFFFFFFFFFFFFFFFFFFFFFFFFFFFFFFF00FFFF00FFFFFFFFFFFFFFFFFFFFFF00FFFFFFFFFFFFFFFFFFFFFFFFFFFFFFFF00FFFF00FFFFFFFFFFFFFFFFFFFFFF00FFFFFFFFFFFFFFFFFFFFFFFFFFFFFFFF00FFFF00FFFFFFFFFFFFFFFFFFFF00FFFFFFFFFFFFFFFFFFFFFFFFFFFF
310
FFFFFF00FFFF00FFFFFFFFFFFFFFFFFFFF00FFFFFFFFFFFFFFFFFFFFFFFFFFFFFFFFFF00FFFF00FFFFFFFFFFFFFFFFFFFF00FFFFFFFFFFFFFFFFFFFFFFFFFFFFFFFFFF00FFFF00FFFFFFFFFFFFFFFFFFFF00FFFFFFFFFFFFFFFFFFFFFFFFFFFFFFFFFF00FFFF00FFFFFFFFFFFFFFFFFFFF00FFFFFFFFFFFFFFFFFFFFFFFFFF
310
FFFFFFFF00FFFF00FFFFFFFFFFFFFFFFFF0000FFFF00FFFFFFFFFFFFFFFFFFFFFFFFFFFF00FFFF00FFFFFFFFFFFFFFFF0000FFFFFF00FFFFFFFFFFFFFFFFFFFFFFFFFFFF00FFFF00000000000000000000FFFFFFFF00FFFFFFFFFFFFFFFFFFFFFFFFFFFF00FFFFFFFFFFFFFFFFFFFFFFFFFFFFFF00FFFFFFFFFFFFFFFFFFFF
310
FFFFFFFFFF00FFFFFFFFFFFFFFFFFFFFFFFFFFFF00FFFFFFFFFFFFFFFFFFFFFFFFFFFFFFFF00FFFFFFFFFFFFFFFFFFFFFFFFFFFF00FFFFFFFFFFFFFFFFFFFFFFFFFFFFFFFF00FFFFFFFFFFFFFFFFFFFFFFFFFFFFFF00FFFFFFFFFFFFFFFFFFFFFFFFFFFFFF00FFFFFFFFFFFFFFFFFFFFFFFFFFFFFF00FFFFFFFFFFFFFFFFFF
310
FFFFFFFFFFFF00FFFF00000000000000000000FFFFFFFF00FFFFFFFFFFFFFFFFFFFFFFFFFFFF00FFFF00FFFFFFFFFFFFFFFFFF0000FFFF00
102
{BLKREFS
331
2636
102
}
  0
BLOCK_RECORD
  5
261C
330
2337
100
AcDbSymbolTableRecord
100
AcDbBlockTableRecord
  2
AI9-BLK3
340
0
310
2800000020000000200000000100080000000000000400000000000000000000000000000000000000000000000080000080000000808000800000008000800080800000C0C0C000C0DCC000F0CAA6000020400000206000002080000020A0000020C0000020E00000400000004020000040400000406000004080000040A0
310
000040C0000040E00000600000006020000060400000606000006080000060A0000060C0000060E00000800000008020000080400000806000008080000080A0000080C0000080E00000A0000000A0200000A0400000A0600000A0800000A0A00000A0C00000A0E00000C0000000C0200000C0400000C0600000C0800000C0
310
A00000C0C00000C0E00000E0000000E0200000E0400000E0600000E0800000E0A00000E0C00000E0E00040000000400020004000400040006000400080004000A0004000C0004000E00040200000402020004020400040206000402080004020A0004020C0004020E000404000004040200040404000404060004040800040
310
40A0004040C0004040E00040600000406020004060400040606000406080004060A0004060C0004060E00040800000408020004080400040806000408080004080A0004080C0004080E00040A0000040A0200040A0400040A0600040A0800040A0A00040A0C00040A0E00040C0000040C0200040C0400040C0600040C08000
310
40C0A00040C0C00040C0E00040E0000040E0200040E0400040E0600040E0800040E0A00040E0C00040E0E00080000000800020008000400080006000800080008000A0008000C0008000E00080200000802020008020400080206000802080008020A0008020C0008020E00080400000804020008040400080406000804080
310
008040A0008040C0008040E00080600000806020008060400080606000806080008060A0008060C0008060E00080800000808020008080400080806000808080008080A0008080C0008080E00080A0000080A0200080A0400080A0600080A0800080A0A00080A0C00080A0E00080C0000080C0200080C0400080C0600080C0
310
800080C0A00080C0C00080C0E00080E0000080E0200080E0400080E0600080E0800080E0A00080E0C00080E0E000C0000000C0002000C0004000C0006000C0008000C000A000C000C000C000E000C0200000C0202000C0204000C0206000C0208000C020A000C020C000C020E000C0400000C0402000C0404000C0406000C0
310
408000C040A000C040C000C040E000C0600000C0602000C0604000C0606000C0608000C060A000C060C000C060E000C0800000C0802000C0804000C0806000C0808000C080A000C080C000C080E000C0A00000C0A02000C0A04000C0A06000C0A08000C0A0A000C0A0C000C0A0E000C0C00000C0C02000C0C04000C0C06000
310
C0C08000C0C0A000F0FBFF00A4A0A000808080000000FF0000FF000000FFFF00FF000000FF00FF00FFFF0000FFFFFF00FFFFFFFFFFFFFFFFFFFFFFFFFFFFFFFFFFFFFFFFFFFFFFFFFFFFFFFFFFFFFFFFFFFFFFFFFFFFFFFFFFFFFFFFFFFFFF0000FFFFFFFFFFFFFFFFFFFFFFFFFFFFFFFFFFFFFFFFFFFFFFFFFFFFFFFFFFFF
310
0000FFFFFFFFFFFFFFFFFFFFFFFFFFFFFFFFFFFFFFFFFFFFFFFFFFFFFFFFFFFF0000FFFFFFFFFFFFFFFFFFFFFFFFFFFFFFFFFFFFFFFFFFFFFFFFFFFFFFFFFFFF0000FFFFFFFFFFFFFFFFFFFFFFFFFFFFFFFFFFFFFFFFFFFFFFFFFFFFFFFFFFFF0000FFFFFFFFFFFFFFFFFFFFFFFFFFFFFFFFFFFFFFFFFFFFFFFFFFFFFFFFFF
310
FF0000FFFFFFFFFFFFFFFFFFFFFFFFFFFFFFFFFFFFFFFFFFFFFFFFFFFFFFFFFFFF0000FFFFFFFFFFFFFFFFFFFFFFFFFFFFFFFFFFFFFFFFFFFFFFFFFFFFFFFFFFFF0000FFFFFFFFFFFFFFFFFFFFFFFFFFFFFFFFFFFFFFFFFFFFFFFFFFFFFFFFFFFF0000FFFFFFFFFFFFFFFFFFFFFFFFFFFFFFFFFFFFFFFFFFFFFFFFFFFFFFFF
310
FFFF0000FFFFFFFFFFFFFFFFFFFFFFFFFFFFFFFFFFFFFFFFFFFFFFFFFFFFFFFFFFFF0000FFFFFFFFFFFFFFFFFFFFFFFFFFFFFFFFFFFFFFFFFFFFFFFFFFFFFFFFFFFF0000FFFFFFFFFFFFFFFFFFFFFFFFFFFFFFFFFFFFFFFFFFFFFFFFFFFFFFFFFFFF0000FFFFFFFFFFFFFFFFFFFFFFFFFFFFFFFFFFFFFFFFFFFFFFFFFFFFFF
310
FFFFFF0000FFFFFFFFFFFFFFFFFFFFFFFFFFFFFFFFFFFFFFFFFFFFFFFFFFFFFFFFFFFF0000FFFFFFFFFFFFFFFFFFFFFFFFFFFFFFFFFFFFFFFFFFFFFFFFFFFFFFFFFFFF0000FFFFFFFFFFFFFFFFFFFFFFFFFFFFFFFFFFFFFFFFFFFFFFFFFFFFFFFFFFFF0000FFFFFFFFFFFFFFFFFFFFFFFFFFFFFFFFFFFFFFFFFFFFFFFFFFFF
310
FFFFFFFF0000FFFFFFFFFFFFFFFFFFFFFFFFFFFFFFFFFFFFFFFFFFFFFFFFFFFFFFFFFFFF0000FFFFFFFFFFFFFFFFFFFFFFFFFFFFFFFFFFFFFFFFFFFFFFFFFFFFFFFFFFFF0000FFFFFFFFFFFFFFFFFFFFFFFFFFFFFFFFFFFFFFFFFFFFFFFFFFFFFFFFFFFF0000FFFFFFFFFFFFFFFFFFFFFFFFFFFFFFFFFFFFFFFFFFFFFFFFFF
310
FFFFFFFFFF0000FFFFFFFFFFFFFFFFFFFFFFFFFFFFFFFFFFFFFFFFFFFFFFFFFFFFFFFFFFFF0000FFFFFFFFFFFFFFFFFFFFFFFFFFFFFFFFFFFFFFFFFFFFFFFFFFFFFFFFFFFF0000FFFFFFFFFFFFFFFFFFFFFFFFFFFFFFFFFFFFFFFFFFFFFFFFFFFFFFFFFFFF0000FFFFFFFFFFFFFFFFFFFFFFFFFFFFFFFFFFFFFFFFFFFFFFFF
310
FFFFFFFFFFFF0000FFFFFFFFFFFFFFFFFFFFFFFFFFFFFFFFFFFFFFFFFFFFFFFFFFFFFFFFFFFF0000FFFFFFFFFFFFFFFFFFFFFFFFFFFFFFFFFFFFFFFFFFFFFFFFFFFFFFFFFFFF0000FFFFFFFFFFFFFFFFFFFFFFFFFFFFFFFFFFFFFFFFFFFFFFFFFFFFFFFFFFFF0000FFFFFFFFFFFFFFFFFFFFFFFFFFFFFFFFFFFFFFFFFFFFFF
310
FFFFFFFFFFFFFF0000FFFFFFFFFFFFFFFFFFFFFFFFFFFFFFFFFFFFFFFFFFFFFFFFFFFFFFFFFFFFFFFFFFFFFFFFFFFFFFFFFFFFFFFFFFFFFF
102
{BLKREFS
331
2637
102
}
  0
BLOCK_RECORD
  5
2621
330
2337
100
AcDbSymbolTableRecord
100
AcDbBlockTableRecord
  2
AI9-BLK2
340
0
310
2800000020000000200000000100080000000000000400000000000000000000000000000000000000000000000080000080000000808000800000008000800080800000C0C0C000C0DCC000F0CAA6000020400000206000002080000020A0000020C0000020E00000400000004020000040400000406000004080000040A0
310
000040C0000040E00000600000006020000060400000606000006080000060A0000060C0000060E00000800000008020000080400000806000008080000080A0000080C0000080E00000A0000000A0200000A0400000A0600000A0800000A0A00000A0C00000A0E00000C0000000C0200000C0400000C0600000C0800000C0
310
A00000C0C00000C0E00000E0000000E0200000E0400000E0600000E0800000E0A00000E0C00000E0E00040000000400020004000400040006000400080004000A0004000C0004000E00040200000402020004020400040206000402080004020A0004020C0004020E000404000004040200040404000404060004040800040
310
40A0004040C0004040E00040600000406020004060400040606000406080004060A0004060C0004060E00040800000408020004080400040806000408080004080A0004080C0004080E00040A0000040A0200040A0400040A0600040A0800040A0A00040A0C00040A0E00040C0000040C0200040C0400040C0600040C08000
310
40C0A00040C0C00040C0E00040E0000040E0200040E0400040E0600040E0800040E0A00040E0C00040E0E00080000000800020008000400080006000800080008000A0008000C0008000E00080200000802020008020400080206000802080008020A0008020C0008020E00080400000804020008040400080406000804080
310
008040A0008040C0008040E00080600000806020008060400080606000806080008060A0008060C0008060E00080800000808020008080400080806000808080008080A0008080C0008080E00080A0000080A0200080A0400080A0600080A0800080A0A00080A0C00080A0E00080C0000080C0200080C0400080C0600080C0
310
800080C0A00080C0C00080C0E00080E0000080E0200080E0400080E0600080E0800080E0A00080E0C00080E0E000C0000000C0002000C0004000C0006000C0008000C000A000C000C000C000E000C0200000C0202000C0204000C0206000C0208000C020A000C020C000C020E000C0400000C0402000C0404000C0406000C0
310
408000C040A000C040C000C040E000C0600000C0602000C0604000C0606000C0608000C060A000C060C000C060E000C0800000C0802000C0804000C0806000C0808000C080A000C080C000C080E000C0A00000C0A02000C0A04000C0A06000C0A08000C0A0A000C0A0C000C0A0E000C0C00000C0C02000C0C04000C0C06000
310
C0C08000C0C0A000F0FBFF00A4A0A000808080000000FF0000FF000000FFFF00FF000000FF00FF00FFFF0000FFFFFF00FFFFFFFFFFFFFFFFFFFFFFFFFFFFFFFFFFFFFFFFFFFFFFFFFFFFFFFFFFFFFFFFFFFFFFFFFFFFFFFFFFFFFFFFFFFFFF0000FFFFFFFFFFFFFFFFFFFFFFFFFFFFFFFFFFFFFFFFFFFFFFFFFFFFFFFFFFFF
310
0000FFFFFFFFFFFFFFFFFFFFFFFFFFFFFFFFFFFFFFFFFFFFFFFFFFFFFFFFFFFF0000FFFFFFFFFFFFFFFFFFFFFFFFFFFFFFFFFFFFFFFFFFFFFFFFFFFFFFFFFF00FFFF00FFFFFFFFFFFFFFFFFFFFFFFFFFFFFFFFFFFFFFFFFFFFFFFFFFFFFFFF00FFFF00FFFFFFFFFFFFFFFFFFFFFFFFFFFFFFFFFFFFFFFFFFFFFFFFFFFFFFFF
310
00FF0000FFFFFFFFFFFFFFFFFFFFFFFFFFFFFFFFFFFFFFFFFFFFFFFFFFFFFFFF00FF0000FFFFFFFFFFFFFFFFFFFFFFFFFFFFFFFFFFFFFFFFFFFFFFFFFFFFFFFF00FF0000FFFFFFFFFFFFFFFFFFFFFFFFFFFFFFFFFFFFFFFFFFFFFFFFFFFFFFFF00000000FFFFFFFFFFFFFFFFFFFFFFFFFFFFFFFFFFFFFFFFFFFFFFFFFFFFFF
310
00FF00FF0000FFFFFFFFFFFFFFFFFFFFFFFFFFFFFFFFFFFFFFFFFFFFFFFFFFFF00FF00FF0000FFFFFFFFFFFFFFFFFFFFFFFFFFFFFFFFFFFFFFFFFFFFFFFFFFFF00FF00FF0000FFFFFFFFFFFFFFFFFFFFFFFFFFFFFFFFFFFFFFFFFFFFFFFFFFFF00FF00FF0000FFFFFFFFFFFFFFFFFFFFFFFFFFFFFFFFFFFFFFFFFFFFFFFFFF
310
FF00FF00FF0000FFFFFFFFFFFFFFFFFFFFFFFFFFFFFFFFFFFFFFFFFFFFFFFFFFFF0000FFFF0000FFFFFFFFFFFFFFFFFFFFFFFFFFFFFFFFFFFFFFFFFFFFFFFFFF00FF00FFFF00FF00FFFFFFFFFFFFFFFFFFFFFFFFFFFFFFFFFFFFFFFFFFFFFFFF00FF00FFFF00FF00FFFFFFFFFFFFFFFFFFFFFFFFFFFFFFFFFFFFFFFFFFFFFF
310
FF00FF00FFFFFF0000FFFFFFFFFFFFFFFFFFFFFFFFFFFFFFFFFFFFFFFFFFFFFFFF00FF00FFFFFF0000FFFFFFFFFFFFFFFFFFFFFFFFFFFFFFFFFFFFFFFFFFFFFFFF00FF00FFFFFF0000FFFFFFFFFFFFFFFFFFFFFFFFFFFFFFFFFFFFFFFFFFFFFFFF0000FFFFFFFF0000FFFFFFFFFFFFFFFFFFFFFFFFFFFFFFFFFFFFFFFFFFFF
310
FF00FF00FFFFFFFF00FF00FFFFFFFFFFFFFFFFFFFFFFFFFFFFFFFFFFFFFFFFFFFF00FF00FFFFFFFF00FF00FFFFFFFFFFFFFFFFFFFFFFFFFFFFFFFFFFFFFFFFFFFF00FF00FFFFFFFF00FF00FFFFFFFFFFFFFFFFFFFFFFFFFFFFFFFFFFFFFFFFFFFF00FF00FFFFFFFF00FF00FFFFFFFFFFFFFFFFFFFFFFFFFFFFFFFFFFFFFFFF
310
FFFF00FF00FFFFFFFFFF0000FFFFFFFFFFFFFFFFFFFFFFFFFFFFFFFFFFFFFFFFFFFF0000FFFFFFFFFFFF0000FFFFFFFFFFFFFFFFFFFFFFFFFFFFFFFFFFFFFFFFFF00FF00FFFFFFFFFFFF00FF00FFFFFFFFFFFFFFFFFFFFFFFFFFFFFFFFFFFFFFFF00FF00FFFFFFFFFFFF00FF00FFFFFFFFFFFFFFFFFFFFFFFFFFFFFFFFFFFF
310
FFFF000000FFFFFFFFFFFF000000FFFFFFFFFFFFFFFFFFFFFFFFFFFFFFFFFFFFFFFFFFFFFFFFFFFFFFFFFFFFFFFFFFFFFFFFFFFFFFFFFFFF
102
{BLKREFS
331
2638
102
}
  0
BLOCK_RECORD
  5
2626
330
2337
100
AcDbSymbolTableRecord
100
AcDbBlockTableRecord
  2
AI9-BLK1
340
0
310
2800000020000000200000000100080000000000000400000000000000000000000000000000000000000000000080000080000000808000800000008000800080800000C0C0C000C0DCC000F0CAA6000020400000206000002080000020A0000020C0000020E00000400000004020000040400000406000004080000040A0
310
000040C0000040E00000600000006020000060400000606000006080000060A0000060C0000060E00000800000008020000080400000806000008080000080A0000080C0000080E00000A0000000A0200000A0400000A0600000A0800000A0A00000A0C00000A0E00000C0000000C0200000C0400000C0600000C0800000C0
310
A00000C0C00000C0E00000E0000000E0200000E0400000E0600000E0800000E0A00000E0C00000E0E00040000000400020004000400040006000400080004000A0004000C0004000E00040200000402020004020400040206000402080004020A0004020C0004020E000404000004040200040404000404060004040800040
310
40A0004040C0004040E00040600000406020004060400040606000406080004060A0004060C0004060E00040800000408020004080400040806000408080004080A0004080C0004080E00040A0000040A0200040A0400040A0600040A0800040A0A00040A0C00040A0E00040C0000040C0200040C0400040C0600040C08000
310
40C0A00040C0C00040C0E00040E0000040E0200040E0400040E0600040E0800040E0A00040E0C00040E0E00080000000800020008000400080006000800080008000A0008000C0008000E00080200000802020008020400080206000802080008020A0008020C0008020E00080400000804020008040400080406000804080
310
008040A0008040C0008040E00080600000806020008060400080606000806080008060A0008060C0008060E00080800000808020008080400080806000808080008080A0008080C0008080E00080A0000080A0200080A0400080A0600080A0800080A0A00080A0C00080A0E00080C0000080C0200080C0400080C0600080C0
310
800080C0A00080C0C00080C0E00080E0000080E0200080E0400080E0600080E0800080E0A00080E0C00080E0E000C0000000C0002000C0004000C0006000C0008000C000A000C000C000C000E000C0200000C0202000C0204000C0206000C0208000C020A000C020C000C020E000C0400000C0402000C0404000C0406000C0
310
408000C040A000C040C000C040E000C0600000C0602000C0604000C0606000C0608000C060A000C060C000C060E000C0800000C0802000C0804000C0806000C0808000C080A000C080C000C080E000C0A00000C0A02000C0A04000C0A06000C0A08000C0A0A000C0A0C000C0A0E000C0C00000C0C02000C0C04000C0C06000
310
C0C08000C0C0A000F0FBFF00A4A0A000808080000000FF0000FF000000FFFF00FF000000FF00FF00FFFF0000FFFFFF00FFFFFFFFFFFFFFFFFFFFFFFFFFFFFFFFFFFFFFFFFFFFFFFFFFFFFFFFFFFFFFFFFFFFFFFFFFFFFFFFFFFFFF00000000000000000000FFFFFFFFFFFFFFFFFFFFFFFFFFFFFFFFFFFFFFFFFFFF00FFFFFF
310
FFFFFFFFFF00FFFFFFFFFFFFFFFFFFFFFFFFFFFFFFFFFFFFFFFFFFFF00FFFFFFFFFFFFFFFF00FFFFFFFFFFFFFFFFFFFFFFFFFFFFFFFFFFFFFFFFFFFF00FFFFFFFFFFFFFFFF00FFFFFFFFFFFFFFFFFFFFFFFFFFFFFFFFFFFFFFFFFFFF00FF0000000000000000FFFFFFFFFFFFFFFFFFFFFFFFFFFFFFFFFFFFFFFFFFFF00FF00
310
FFFFFFFFFFFFFFFFFFFFFFFFFFFFFFFFFFFFFFFFFFFFFFFFFFFFFFFFFF00FF00FFFFFFFFFFFFFFFFFFFFFFFFFFFFFFFFFFFFFFFFFFFFFFFFFFFFFFFFFF00FF00FFFFFFFFFFFFFFFFFFFFFFFFFFFFFFFFFFFFFFFFFFFFFFFFFFFFFFFFFF00FF00FFFFFFFFFFFFFFFFFFFFFFFFFFFFFFFFFFFFFFFFFFFFFFFFFFFFFFFFFF00FF
310
00FFFFFFFFFFFFFFFFFFFFFFFFFFFFFFFFFFFFFFFFFFFFFFFFFFFFFFFFFF00FF00FFFFFFFFFFFFFFFFFFFFFFFFFFFFFFFFFFFFFFFFFFFFFFFFFFFFFFFFFF00FF00FFFFFFFFFFFFFFFFFFFFFFFFFFFFFFFFFFFFFFFFFFFFFFFFFFFFFFFFFF00FF00FFFFFFFFFFFFFFFFFFFFFFFFFFFFFFFFFFFFFFFFFFFFFFFFFFFFFFFFFF00
310
FF00000000000000FFFFFFFFFFFFFFFFFFFFFFFFFFFFFFFFFFFFFFFFFFFFFF00FFFFFFFFFFFFFF00FFFFFFFFFFFFFFFFFFFFFFFFFFFFFFFFFFFFFFFFFFFFFF00FFFFFFFFFFFFFF00FFFFFFFFFFFFFFFFFFFFFFFFFFFFFFFFFFFFFFFFFFFFFF00FFFFFFFFFFFFFF00FFFFFFFFFFFFFFFFFFFFFFFFFFFFFFFFFFFFFFFFFFFFFF
310
00FF00000000000000FFFFFFFFFFFFFFFFFFFFFFFFFFFFFFFFFFFFFFFFFFFFFF00FF00FFFFFFFFFFFFFFFFFFFFFFFFFFFFFFFFFFFFFFFFFFFFFFFFFFFFFFFFFF00FF00FFFFFFFFFFFFFFFFFFFFFFFFFFFFFFFFFFFFFFFFFFFFFFFFFFFFFFFFFF00FF00FFFFFFFFFFFFFFFFFFFFFFFFFFFFFFFFFFFFFFFFFFFFFFFFFFFFFFFF
310
FF00FF00FFFFFFFFFFFFFFFFFFFFFFFFFFFFFFFFFFFFFFFFFFFFFFFFFFFFFFFFFF00FF00FFFFFFFFFFFFFFFFFFFFFFFFFFFFFFFFFFFFFFFFFFFFFFFFFFFFFFFFFF00FF00FFFFFFFFFFFFFFFFFFFFFFFFFFFFFFFFFFFFFFFFFFFFFFFFFFFFFFFFFF00FF00FFFFFFFFFFFFFFFFFFFFFFFFFFFFFFFFFFFFFFFFFFFFFFFFFFFFFF
310
FFFF00FF0000000000000000FFFFFFFFFFFFFFFFFFFFFFFFFFFFFFFFFFFFFFFFFFFF00FFFFFFFFFFFFFFFF00FFFFFFFFFFFFFFFFFFFFFFFFFFFFFFFFFFFFFFFFFFFF00FFFFFFFFFFFFFFFF00FFFFFFFFFFFFFFFFFFFFFFFFFFFFFFFFFFFFFFFFFFFF00FFFFFFFFFFFFFFFF00FFFFFFFFFFFFFFFFFFFFFFFFFFFFFFFFFFFFFF
310
FFFFFF00000000000000000000FFFFFFFFFFFFFFFFFFFFFFFFFFFFFFFFFFFFFFFFFFFFFFFFFFFFFFFFFFFFFFFFFFFFFFFFFFFFFFFFFFFFFF
102
{BLKREFS
331
2639
102
}
  0
BLOCK_RECORD
  5
262B
330
2337
100
AcDbSymbolTableRecord
100
AcDbBlockTableRecord
  2
HD_LLC_logo_OT5
340
0
310
2800000020000000200000000100080000000000000400000000000000000000000000000000000000000000000080000080000000808000800000008000800080800000C0C0C000C0DCC000F0CAA6000020400000206000002080000020A0000020C0000020E00000400000004020000040400000406000004080000040A0
310
000040C0000040E00000600000006020000060400000606000006080000060A0000060C0000060E00000800000008020000080400000806000008080000080A0000080C0000080E00000A0000000A0200000A0400000A0600000A0800000A0A00000A0C00000A0E00000C0000000C0200000C0400000C0600000C0800000C0
310
A00000C0C00000C0E00000E0000000E0200000E0400000E0600000E0800000E0A00000E0C00000E0E00040000000400020004000400040006000400080004000A0004000C0004000E00040200000402020004020400040206000402080004020A0004020C0004020E000404000004040200040404000404060004040800040
310
40A0004040C0004040E00040600000406020004060400040606000406080004060A0004060C0004060E00040800000408020004080400040806000408080004080A0004080C0004080E00040A0000040A0200040A0400040A0600040A0800040A0A00040A0C00040A0E00040C0000040C0200040C0400040C0600040C08000
310
40C0A00040C0C00040C0E00040E0000040E0200040E0400040E0600040E0800040E0A00040E0C00040E0E00080000000800020008000400080006000800080008000A0008000C0008000E00080200000802020008020400080206000802080008020A0008020C0008020E00080400000804020008040400080406000804080
310
008040A0008040C0008040E00080600000806020008060400080606000806080008060A0008060C0008060E00080800000808020008080400080806000808080008080A0008080C0008080E00080A0000080A0200080A0400080A0600080A0800080A0A00080A0C00080A0E00080C0000080C0200080C0400080C0600080C0
310
800080C0A00080C0C00080C0E00080E0000080E0200080E0400080E0600080E0800080E0A00080E0C00080E0E000C0000000C0002000C0004000C0006000C0008000C000A000C000C000C000E000C0200000C0202000C0204000C0206000C0208000C020A000C020C000C020E000C0400000C0402000C0404000C0406000C0
310
408000C040A000C040C000C040E000C0600000C0602000C0604000C0606000C0608000C060A000C060C000C060E000C0800000C0802000C0804000C0806000C0808000C080A000C080C000C080E000C0A00000C0A02000C0A04000C0A06000C0A08000C0A0A000C0A0C000C0A0E000C0C00000C0C02000C0C04000C0C06000
310
C0C08000C0C0A000F0FBFF00A4A0A000808080000000FF0000FF000000FFFF00FF000000FF00FF00FFFF0000FFFFFF00FFFFFFFFFFFFFFFFFFFFFFFFFFFFFFFFFFFFFFFFFFFFFFFFFFFFFFFFFFFFFFFFFFFFFFFFFFFFFFFFFFFFFFFFFFFFFFFFFFFFFFFFFFFFFFFFFFFFFFFFFFFFFFFFFFFFFFFFFFFFFFFFFFFFFFFFFFFFFF
310
FFFFFFFFFFFFFFFFFFFFFFFFFFFFFFFFFFFFFFFFFFFFFFFFFFFFFFFFFFFFFFFFFFFFFFFFFFFFFFFFFFFFFFFFFFFFFFFFFFFFFFFFFFFFFFFFFFFFFFFFFFFFFFFFFFFFFFFFFFFFFFFFFFFFFFFFFFFFFFFFFFFFFFFFFFFFFFFFFFFFFFFFFFFFFFFFFFFFFFFFFFFFFFFFFFFFFFFFFFFFFFFFFFFFFFFFFFFFFFFFFFFFFFFFFFFFFF
310
FFFFFFFFFFFFFFFFFFFFFFFFFFFFFFFFFFFFFFFFFFFFFFFFFFFFFFFFFFFFFFFFFFFFFFFFFFFFFFFFFFFFFFFFFFFFFFFFFFFFFFFFFFFFFFFFFFFFFFFFFFFFFFFFFFFFFFFFFFFFFFFFFFFFFFFFFFFFFFFFFFFFFFFFFFFFFFFFFFFFFFFFFFFFFFFFFFFFFFFFFFFFFFFFFFFFFFFFFFFFFFFFFFFFFFFFFFFFFFFFFFFFFFFFFFFFFF
310
FFFFFFFFFFFFFFFFFFFFFFFFFFFFFFFFFFFFFFFFFFFFFFFFFFFFFFFFFFFFFFFFFFFFFFFFFFFFFFFFFFFFFFFFFFFFFFFFFFFFFFFF0000000000000000000000000000000000000000000000000000000000FFFFFF0000000000000000000000000000000000FFFFFFFFFFFFFFFFFFFF0000FFFFFF0000000000000000000000
310
00000000000000FFFFFFFFFFFFFFFFFFFF0000FFFF000000000000000000000000000000000000FFFFFF00000000FFFFFF0000FFFF00FFFFFFFFFFFF00FFFFFF00FFFFFFFFFF00FFFFFF0000000000FFFF0000FFFF00FFFFFFFFFFFF00FFFFFF00FFFFFFFFFF00FFFFFF00FFFF0000FFFF0000FFFF00FFFFFFFFFFFF00FFFF
310
00FFFFFFFFFFFF00FFFFFF00FFFF0000FFFF0000FFFF0000000000FFFF00000000FFFFFF00000000FFFFFF00000000FFFFFF0000FFFFFFFFFFFF00FFFFFFFFFFFFFFFFFF00FFFFFFFFFFFFFFFFFFFFFFFFFF0000FFFFFFFFFFFF00FFFFFFFFFFFFFFFFFF00FFFFFFFFFFFFFFFFFFFFFFFFFF0000FFFFFFFFFFFF00FFFFFFFF
310
FFFFFFFFFF00FFFFFFFFFFFFFFFFFFFFFFFF0000FFFFFF0000000000FFFF00000000FFFFFF0000000000000000000000000000FFFFFFFF00FFFFFFFFFFFF00FFFF00FFFFFFFFFFFF00FFFFFFFFFFFFFFFFFFFFFFFFFFFF00FFFFFFFFFFFF00FFFFFF00FFFFFFFFFF00FFFFFFFFFFFFFFFFFFFFFFFFFFFF0000000000000000
310
FFFFFF00000000000000FFFFFFFFFFFFFFFFFFFFFFFFFFFFFFFFFFFFFFFFFFFFFFFFFFFFFFFFFFFFFFFFFFFFFFFFFFFFFFFFFFFFFFFFFFFFFFFFFFFFFFFFFFFFFFFFFFFFFFFFFFFFFFFFFFFFFFFFFFFFFFFFFFFFFFFFFFFFFFFFFFFFFFFFFFFFFFFFFFFFFFFFFFFFFFFFFFFFFFFFFFFFFFFFFFFFFFFFFFFFFFFFFFFFFFFFFF
310
FFFFFFFFFFFFFFFFFFFFFFFFFFFFFFFFFFFFFFFFFFFFFFFFFFFFFFFFFFFFFFFFFFFFFFFFFFFFFFFFFFFFFFFFFFFFFFFFFFFFFFFFFFFFFFFF
102
{BLKREFS
331
2651
102
}
  0
BLOCK_RECORD
  5
2650
330
2337
100
AcDbSymbolTableRecord
100
AcDbBlockTableRecord
  2
HD logo-new
340
0
310
2800000020000000200000000100080000000000000400000000000000000000000000000000000000000000000080000080000000808000800000008000800080800000C0C0C000C0DCC000F0CAA6000020400000206000002080000020A0000020C0000020E00000400000004020000040400000406000004080000040A0
310
000040C0000040E00000600000006020000060400000606000006080000060A0000060C0000060E00000800000008020000080400000806000008080000080A0000080C0000080E00000A0000000A0200000A0400000A0600000A0800000A0A00000A0C00000A0E00000C0000000C0200000C0400000C0600000C0800000C0
310
A00000C0C00000C0E00000E0000000E0200000E0400000E0600000E0800000E0A00000E0C00000E0E00040000000400020004000400040006000400080004000A0004000C0004000E00040200000402020004020400040206000402080004020A0004020C0004020E000404000004040200040404000404060004040800040
310
40A0004040C0004040E00040600000406020004060400040606000406080004060A0004060C0004060E00040800000408020004080400040806000408080004080A0004080C0004080E00040A0000040A0200040A0400040A0600040A0800040A0A00040A0C00040A0E00040C0000040C0200040C0400040C0600040C08000
310
40C0A00040C0C00040C0E00040E0000040E0200040E0400040E0600040E0800040E0A00040E0C00040E0E00080000000800020008000400080006000800080008000A0008000C0008000E00080200000802020008020400080206000802080008020A0008020C0008020E00080400000804020008040400080406000804080
310
008040A0008040C0008040E00080600000806020008060400080606000806080008060A0008060C0008060E00080800000808020008080400080806000808080008080A0008080C0008080E00080A0000080A0200080A0400080A0600080A0800080A0A00080A0C00080A0E00080C0000080C0200080C0400080C0600080C0
310
800080C0A00080C0C00080C0E00080E0000080E0200080E0400080E0600080E0800080E0A00080E0C00080E0E000C0000000C0002000C0004000C0006000C0008000C000A000C000C000C000E000C0200000C0202000C0204000C0206000C0208000C020A000C020C000C020E000C0400000C0402000C0404000C0406000C0
310
408000C040A000C040C000C040E000C0600000C0602000C0604000C0606000C0608000C060A000C060C000C060E000C0800000C0802000C0804000C0806000C0808000C080A000C080C000C080E000C0A00000C0A02000C0A04000C0A06000C0A08000C0A0A000C0A0C000C0A0E000C0C00000C0C02000C0C04000C0C06000
310
C0C08000C0C0A000F0FBFF00A4A0A000808080000000FF0000FF000000FFFF00FF000000FF00FF00FFFF0000FFFFFF00FFFFFFFFFFFFFFFFFFFFFFFFFFFFFFFFFFFFFFFFFFFFFFFFFFFFFFFFFFFFFFFFFFFFFFFFFFFFFFFFFFFFFFFFFFFFFFFFFFFFFFFFFFFFFFFFFFFFFFFFFFFFFFFFFFFFFFFFFFFFFFFFFFFFFFFFFFFFFF
310
FFFFFFFFFFFFFFFFFFFFFFFFFFFFFFFFFFFFFFFFFFFFFFFFFFFFFFFFFFFFFFFFFFFFFFFFFFFFFFFFFFFFFFFFFFFFFFFFFFFFFFFFFFFFFFFFFFFFFFFFFFFFFFFFFFFFFFFFFFFFFFFFFFFFFFFFFFFFFFFFFFFFFFFFFFFFFFFFFFFFFFFFFFFFFFFFFFFFFFFFFFFFFFFFFFFFFFFFFFFFFFFFFFFFFFFFFFFFFFFFFFFFFFFFFFFFFF
310
FFFFFFFFFFFFFFFFFFFFFFFFFFFFFFFFFFFFFFFFFFFFFFFFFFFFFFFFFFFFFFFFFFFFFFFFFFFFFFFFFFFFFFFFFFFFFFFFFFFFFFFFFFFFFFFFFFFFFFFFFFFFFFFFFFFFFFFFFFFFFFFFFFFFFFFFFFFFFFFFFFFFFFFFFFFFFFFFFFFFFFFFFFFFFFFFFFFFFFFFFFFFFFFFFFFFFFFFFFFFFFFFFFFFFFFFFFFFFFFFFFFFFFFFFFFFFF
310
FFFFFFFFFFFFFFFFFFFFFFFFFFFFFFFFFFFFFFFFFFFFFFFFFFFFFFFFFFFFFFFFFFFFFFFFFFFFFFFFFFFFFFFFFFFFFFFFFFFFFFFF0000000000000000000000000000000000000000000000000000000000FFFFFF0000000000000000000000000000000000FFFFFFFFFFFFFFFFFFFF0000FFFFFF0000000000000000000000
310
00000000000000FFFFFFFFFFFFFFFFFFFF0000FFFF000000000000000000000000000000000000FFFFFF00000000FFFFFF0000FFFF00FFFFFFFFFFFF00FFFFFF00FFFFFFFFFF00FFFFFF0000000000FFFF0000FFFF00FFFFFFFFFFFF00FFFFFF00FFFFFFFFFF00FFFFFF00FFFF0000FFFF0000FFFF00FFFFFFFFFFFF00FFFF
310
00FFFFFFFFFFFF00FFFFFF00FFFF0000FFFF0000FFFF0000000000FFFF00000000FFFFFF00000000FFFFFF00000000FFFFFF0000FFFFFFFFFFFF00FFFFFFFFFFFFFFFFFF00FFFFFFFFFFFFFFFFFFFFFFFFFF0000FFFFFFFFFFFF00FFFFFFFFFFFFFFFFFF00FFFFFFFFFFFFFFFFFFFFFFFFFF0000FFFFFFFFFFFF00FFFFFFFF
310
FFFFFFFFFF00FFFFFFFFFFFFFFFFFFFFFFFF0000FFFFFF0000000000FFFF00000000FFFFFF0000000000000000000000000000FFFFFFFF00FFFFFFFFFFFF00FFFF00FFFFFFFFFFFF00FFFFFFFFFFFFFFFFFFFFFFFFFFFF00FFFFFFFFFFFF00FFFFFF00FFFFFFFFFF00FFFFFFFFFFFFFFFFFFFFFFFFFFFF0000000000000000
310
FFFFFF00000000000000FFFFFFFFFFFFFFFFFFFFFFFFFFFFFFFFFFFFFFFFFFFFFFFFFFFFFFFFFFFFFFFFFFFFFFFFFFFFFFFFFFFFFFFFFFFFFFFFFFFFFFFFFFFFFFFFFFFFFFFFFFFFFFFFFFFFFFFFFFFFFFFFFFFFFFFFFFFFFFFFFFFFFFFFFFFFFFFFFFFFFFFFFFFFFFFFFFFFFFFFFFFFFFFFFFFFFFFFFFFFFFFFFFFFFFFFFF
310
FFFFFFFFFFFFFFFFFFFFFFFFFFFFFFFFFFFFFFFFFFFFFFFFFFFFFFFFFFFFFFFFFFFFFFFFFFFFFFFFFFFFFFFFFFFFFFFFFFFFFFFFFFFFFFFF
102
{BLKREFS
331
2655
102
}
  0
BLOCK_RECORD
  5
2654
330
2337
100
AcDbSymbolTableRecord
100
AcDbBlockTableRecord
  2
HD Logo
340
0
310
2800000020000000200000000100080000000000000400000000000000000000000000000000000000000000000080000080000000808000800000008000800080800000C0C0C000C0DCC000F0CAA6000020400000206000002080000020A0000020C0000020E00000400000004020000040400000406000004080000040A0
310
000040C0000040E00000600000006020000060400000606000006080000060A0000060C0000060E00000800000008020000080400000806000008080000080A0000080C0000080E00000A0000000A0200000A0400000A0600000A0800000A0A00000A0C00000A0E00000C0000000C0200000C0400000C0600000C0800000C0
310
A00000C0C00000C0E00000E0000000E0200000E0400000E0600000E0800000E0A00000E0C00000E0E00040000000400020004000400040006000400080004000A0004000C0004000E00040200000402020004020400040206000402080004020A0004020C0004020E000404000004040200040404000404060004040800040
310
40A0004040C0004040E00040600000406020004060400040606000406080004060A0004060C0004060E00040800000408020004080400040806000408080004080A0004080C0004080E00040A0000040A0200040A0400040A0600040A0800040A0A00040A0C00040A0E00040C0000040C0200040C0400040C0600040C08000
310
40C0A00040C0C00040C0E00040E0000040E0200040E0400040E0600040E0800040E0A00040E0C00040E0E00080000000800020008000400080006000800080008000A0008000C0008000E00080200000802020008020400080206000802080008020A0008020C0008020E00080400000804020008040400080406000804080
310
008040A0008040C0008040E00080600000806020008060400080606000806080008060A0008060C0008060E00080800000808020008080400080806000808080008080A0008080C0008080E00080A0000080A0200080A0400080A0600080A0800080A0A00080A0C00080A0E00080C0000080C0200080C0400080C0600080C0
310
800080C0A00080C0C00080C0E00080E0000080E0200080E0400080E0600080E0800080E0A00080E0C00080E0E000C0000000C0002000C0004000C0006000C0008000C000A000C000C000C000E000C0200000C0202000C0204000C0206000C0208000C020A000C020C000C020E000C0400000C0402000C0404000C0406000C0
310
408000C040A000C040C000C040E000C0600000C0602000C0604000C0606000C0608000C060A000C060C000C060E000C0800000C0802000C0804000C0806000C0808000C080A000C080C000C080E000C0A00000C0A02000C0A04000C0A06000C0A08000C0A0A000C0A0C000C0A0E000C0C00000C0C02000C0C04000C0C06000
310
C0C08000C0C0A000F0FBFF00A4A0A000808080000000FF0000FF000000FFFF00FF000000FF00FF00FFFF0000FFFFFF00FFFFFFFFFFFFFFFFFFFFFFFFFFFFFFFFFFFFFFFFFFFFFFFFFFFFFFFFFFFFFFFFFFFFFFFFFFFFFFFFFFFFFFFFFFFFFFFFFFFFFFFFFFFFFFFFFFFFFFFFFFFFFFFFFFFFFFFFFFFFFFFFFFFFFFFFFFFFFF
310
FFFFFFFFFFFFFFFFFFFFFFFFFFFFFFFFFFFFFFFFFFFFFFFFFFFFFFFFFFFFFFFFFFFFFFFFFFFFFFFFFFFFFFFFFFFFFFFFFFFFFFFFFFFFFFFFFFFFFFFFFFFFFFFFFFFFFFFFFFFFFFFFFFFFFFFFFFFFFFFFFFFFFFFFFFFFFFFFFFFFFFFFFFFFFFFFFFFFFFFFFFFFFFFFFFFFFFFFFFFFFFFFFFFFFFFFFFFFFFFFFFFFFFFFFFFFFF
310
FFFFFFFFFFFFFFFFFFFFFFFFFFFFFFFFFFFFFFFFFFFFFFFFFFFFFFFFFFFFFFFFFFFFFFFFFFFFFFFFFFFFFFFFFFFFFFFFFFFFFFFFFFFFFFFFFFFFFFFFFFFFFFFFFFFFFFFFFFFFFFFFFFFFFFFFFFFFFFFFFFFFFFFFFFFFFFFFFFFFFFFFFFFFFFFFFFFFFFFFFFFFFFFFFFFFFFFFFFFFFFFFFFFFFFFFFFFFFFFFFFFFFFFFFFFFFF
310
FFFFFFFFFFFFFFFFFFFFFFFFFFFFFFFFFFFFFFFFFFFFFFFFFFFFFFFFFFFFFFFFFFFFFFFFFFFFFFFFFFFFFFFFFFFFFFFFFFFFFFFF0000000000000000000000000000000000000000000000000000000000FFFFFF0000000000000000000000000000000000FFFFFFFFFFFFFFFFFFFF0000FFFFFF0000000000000000000000
310
00000000000000FFFFFFFFFFFFFFFFFFFF0000FFFF000000000000000000000000000000000000FFFFFF00000000FFFFFF0000FFFF00FFFFFFFFFFFF00FFFFFF00FFFFFFFFFF00FFFFFF0000000000FFFF0000FFFF00FFFFFFFFFFFF00FFFFFF00FFFFFFFFFF00FFFFFF00FFFF0000FFFF0000FFFF00FFFFFFFFFFFF00FFFF
310
00FFFFFFFFFFFF00FFFFFF00FFFF0000FFFF0000FFFF0000000000FFFF00000000FFFFFF00000000FFFFFF00000000FFFFFF0000FFFFFFFFFFFF00FFFFFFFFFFFFFFFFFF00FFFFFFFFFFFFFFFFFFFFFFFFFF0000FFFFFFFFFFFF00FFFFFFFFFFFFFFFFFF00FFFFFFFFFFFFFFFFFFFFFFFFFF0000FFFFFFFFFFFF00FFFFFFFF
310
FFFFFFFFFF00FFFFFFFFFFFFFFFFFFFFFFFF0000FFFFFF0000000000FFFF00000000FFFFFF0000000000000000000000000000FFFFFFFF00FFFFFFFFFFFF00FFFF00FFFFFFFFFFFF00FFFFFFFFFFFFFFFFFFFFFFFFFFFF00FFFFFFFFFFFF00FFFFFF00FFFFFFFFFF00FFFFFFFFFFFFFFFFFFFFFFFFFFFF0000000000000000
310
FFFFFF00000000000000FFFFFFFFFFFFFFFFFFFFFFFFFFFFFFFFFFFFFFFFFFFFFFFFFFFFFFFFFFFFFFFFFFFFFFFFFFFFFFFFFFFFFFFFFFFFFFFFFFFFFFFFFFFFFFFFFFFFFFFFFFFFFFFFFFFFFFFFFFFFFFFFFFFFFFFFFFFFFFFFFFFFFFFFFFFFFFFFFFFFFFFFFFFFFFFFFFFFFFFFFFFFFFFFFFFFFFFFFFFFFFFFFFFFFFFFFF
310
FFFFFFFFFFFFFFFFFFFFFFFFFFFFFFFFFFFFFFFFFFFFFFFFFFFFFFFFFFFFFFFFFFFFFFFFFFFFFFFFFFFFFFFFFFFFFFFFFFFFFFFFFFFFFFFF
102
{BLKREFS
331
265B
331
265F
102
}
  0
BLOCK_RECORD
  5
266C
330
2337
100
AcDbSymbolTableRecord
100
AcDbBlockTableRecord
  2
Harmonic Drive LLC
340
0
310
2800000020000000200000000100080000000000000400000000000000000000000000000000000000000000000080000080000000808000800000008000800080800000C0C0C000C0DCC000F0CAA6000020400000206000002080000020A0000020C0000020E00000400000004020000040400000406000004080000040A0
310
000040C0000040E00000600000006020000060400000606000006080000060A0000060C0000060E00000800000008020000080400000806000008080000080A0000080C0000080E00000A0000000A0200000A0400000A0600000A0800000A0A00000A0C00000A0E00000C0000000C0200000C0400000C0600000C0800000C0
310
A00000C0C00000C0E00000E0000000E0200000E0400000E0600000E0800000E0A00000E0C00000E0E00040000000400020004000400040006000400080004000A0004000C0004000E00040200000402020004020400040206000402080004020A0004020C0004020E000404000004040200040404000404060004040800040
310
40A0004040C0004040E00040600000406020004060400040606000406080004060A0004060C0004060E00040800000408020004080400040806000408080004080A0004080C0004080E00040A0000040A0200040A0400040A0600040A0800040A0A00040A0C00040A0E00040C0000040C0200040C0400040C0600040C08000
310
40C0A00040C0C00040C0E00040E0000040E0200040E0400040E0600040E0800040E0A00040E0C00040E0E00080000000800020008000400080006000800080008000A0008000C0008000E00080200000802020008020400080206000802080008020A0008020C0008020E00080400000804020008040400080406000804080
310
008040A0008040C0008040E00080600000806020008060400080606000806080008060A0008060C0008060E00080800000808020008080400080806000808080008080A0008080C0008080E00080A0000080A0200080A0400080A0600080A0800080A0A00080A0C00080A0E00080C0000080C0200080C0400080C0600080C0
310
800080C0A00080C0C00080C0E00080E0000080E0200080E0400080E0600080E0800080E0A00080E0C00080E0E000C0000000C0002000C0004000C0006000C0008000C000A000C000C000C000E000C0200000C0202000C0204000C0206000C0208000C020A000C020C000C020E000C0400000C0402000C0404000C0406000C0
310
408000C040A000C040C000C040E000C0600000C0602000C0604000C0606000C0608000C060A000C060C000C060E000C0800000C0802000C0804000C0806000C0808000C080A000C080C000C080E000C0A00000C0A02000C0A04000C0A06000C0A08000C0A0A000C0A0C000C0A0E000C0C00000C0C02000C0C04000C0C06000
310
C0C08000C0C0A000F0FBFF00A4A0A000808080000000FF0000FF000000FFFF00FF000000FF00FF00FFFF0000FFFFFF00FFFFFFFFFFFFFFFFFFFFFFFFFFFFFFFFFFFFFFFFFFFFFFFFFFFFFFFFFFFFFFFFFFFFFFFFFFFFFFFFFFFFFFFFFFFFFFFFFFFFFFFFFFFFFFFFFFFFFFFFFFFFFFFFFFFFFFFFFFFFFFFFFFFFFFFFFFFFFF
310
FFFFFFFFFFFFFFFFFFFFFFFFFFFFFFFFFFFFFFFFFFFFFFFFFFFFFFFFFFFFFFFFFFFFFFFFFFFFFFFFFFFFFFFFFFFFFFFFFFFFFFFFFFFFFFFFFFFFFFFFFFFFFFFFFFFFFFFFFFFFFFFFFFFFFFFFFFFFFFFFFFFFFFFFFFFFFFFFFFFFFFFFFFFFFFFFFFFFFFFFFFFFFFFFFFFFFFFFFFFFFFFFFFFFFFFFFFFFFFFFFFFFFFFFFFFFFF
310
FFFFFFFFFFFFFFFFFFFFFFFFFFFFFFFFFFFFFFFFFFFFFFFFFFFFFFFFFFFFFFFFFFFFFFFFFFFFFFFFFFFFFFFFFFFFFFFFFFFFFFFFFFFFFFFFFFFFFFFFFFFFFFFFFFFFFFFFFFFFFFFFFFFFFFFFFFFFFFFFFFFFFFFFFFFFFFFFFFFFFFFFFFFFFFFFFFFFFFFFFFFFFFFFFFFFFFFFFFFFFFFFFFFFFFFFFFFFFFFFFFFFFFFFFFFFFF
310
FFFFFFFFFFFFFFFFFFFFFFFFFFFFFFFFFFFFFFFFFFFFFFFFFFFFFFFFFFFFFFFFFFFFFFFFFFFFFFFFFFFFFFFFFFFFFFFFFFFFFFFFFFFFFFFFFFFFFFFFFFFFFFFFFFFFFFFFFFFFFFFFFFFFFFFFFFFFFFFFFFFFFFFFFFFFFFFFFFFFFFFF0000000000000000000000000000FFFFFFFFFFFFFFFFFFFFFFFFFFFFFFFFFFFF000000
310
0000000000000000000000FFFFFFFFFFFFFFFFFFFFFFFFFFFFFFFFFFFFFFFFFF000000000000000000FFFFFFFFFFFFFFFFFFFFFFFFFFFFFFFFFFFFFFFFFFFFFF000000000000000000FFFFFFFFFFFFFFFFFFFFFFFFFFFFFFFFFFFFFFFFFF000000000000000000000000FFFFFFFFFFFFFFFFFFFFFFFFFFFFFFFFFFFFFFFF00
310
FFFFFF00FF0000FF000000FFFFFFFFFFFFFFFFFFFFFFFFFFFFFFFFFFFFFFFFFFFFFFFFFFFFFFFFFFFFFFFFFFFFFFFFFFFFFFFFFFFFFFFFFFFFFFFFFFFFFFFFFFFFFFFFFFFFFFFFFFFFFFFFFFFFFFFFFFFFFFFFFFFFFFFFFFFFFFFFFFFFFFFFFFFFFFFFFFFFFFFFFFFFFFFFFFFFFFFFFFFFFFFFFFFFFFFFFFFFFFFFFFFFFFFF
310
FFFFFFFFFFFFFFFFFFFFFFFFFFFFFFFFFFFFFFFFFFFFFFFFFFFFFFFFFFFFFFFFFFFFFFFFFFFFFFFFFFFFFFFFFFFFFFFFFFFFFFFFFFFFFFFFFFFFFFFFFFFFFFFFFFFFFFFFFFFFFFFFFFFFFFFFFFFFFFFFFFFFFFFFFFFFFFFFFFFFFFFFFFFFFFFFFFFFFFFFFFFFFFFFFFFFFFFFFFFFFFFFFFFFFFFFFFFFFFFFFFFFFFFFFFFFFF
310
FFFFFFFFFFFFFFFFFFFFFFFFFFFFFFFFFFFFFFFFFFFFFFFFFFFFFFFFFFFFFFFFFFFFFFFFFFFFFFFFFFFFFFFFFFFFFFFFFFFFFFFFFFFFFFFFFFFFFFFFFFFFFFFFFFFFFFFFFFFFFFFFFFFFFFFFFFFFFFFFFFFFFFFFFFFFFFFFFFFFFFFFFFFFFFFFFFFFFFFFFFFFFFFFFFFFFFFFFFFFFFFFFFFFFFFFFFFFFFFFFFFFFFFFFFFFFF
310
FFFFFFFFFFFFFFFFFFFFFFFFFFFFFFFFFFFFFFFFFFFFFFFFFFFFFFFFFFFFFFFFFFFFFFFFFFFFFFFFFFFFFFFFFFFFFFFFFFFFFFFFFFFFFFFF
102
{BLKREFS
331
2671
331
2676
102
}
  0
BLOCK_RECORD
  5
267F
330
2337
100
AcDbSymbolTableRecord
100
AcDbBlockTableRecord
  2
NTC
340
0
310
2800000020000000200000000100080000000000000400000000000000000000000000000000000000000000000080000080000000808000800000008000800080800000C0C0C000C0DCC000F0CAA6000020400000206000002080000020A0000020C0000020E00000400000004020000040400000406000004080000040A0
310
000040C0000040E00000600000006020000060400000606000006080000060A0000060C0000060E00000800000008020000080400000806000008080000080A0000080C0000080E00000A0000000A0200000A0400000A0600000A0800000A0A00000A0C00000A0E00000C0000000C0200000C0400000C0600000C0800000C0
310
A00000C0C00000C0E00000E0000000E0200000E0400000E0600000E0800000E0A00000E0C00000E0E00040000000400020004000400040006000400080004000A0004000C0004000E00040200000402020004020400040206000402080004020A0004020C0004020E000404000004040200040404000404060004040800040
310
40A0004040C0004040E00040600000406020004060400040606000406080004060A0004060C0004060E00040800000408020004080400040806000408080004080A0004080C0004080E00040A0000040A0200040A0400040A0600040A0800040A0A00040A0C00040A0E00040C0000040C0200040C0400040C0600040C08000
310
40C0A00040C0C00040C0E00040E0000040E0200040E0400040E0600040E0800040E0A00040E0C00040E0E00080000000800020008000400080006000800080008000A0008000C0008000E00080200000802020008020400080206000802080008020A0008020C0008020E00080400000804020008040400080406000804080
310
008040A0008040C0008040E00080600000806020008060400080606000806080008060A0008060C0008060E00080800000808020008080400080806000808080008080A0008080C0008080E00080A0000080A0200080A0400080A0600080A0800080A0A00080A0C00080A0E00080C0000080C0200080C0400080C0600080C0
310
800080C0A00080C0C00080C0E00080E0000080E0200080E0400080E0600080E0800080E0A00080E0C00080E0E000C0000000C0002000C0004000C0006000C0008000C000A000C000C000C000E000C0200000C0202000C0204000C0206000C0208000C020A000C020C000C020E000C0400000C0402000C0404000C0406000C0
310
408000C040A000C040C000C040E000C0600000C0602000C0604000C0606000C0608000C060A000C060C000C060E000C0800000C0802000C0804000C0806000C0808000C080A000C080C000C080E000C0A00000C0A02000C0A04000C0A06000C0A08000C0A0A000C0A0C000C0A0E000C0C00000C0C02000C0C04000C0C06000
310
C0C08000C0C0A000F0FBFF00A4A0A000808080000000FF0000FF000000FFFF00FF000000FF00FF00FFFF0000FFFFFF00FFFFFFFFFFFFFFFFFFFFFFFFFFFFFFFFFFFFFFFFFFFFFFFFFFFFFFFFFFFFFFFFFFFFFFFFFFFFFFFFFFFFFFFFFFFFFFFFFFFFFFFFFFFFFFFFFFFFFFFFFFFFFFFFFFFFFFFFFFFFFFFFFFFFFFFFFFFFFF
310
FFFFFFFFFFFFFFFFFFFFFFFFFFFFFFFFFFFFFFFFFFFFFFFFFFFFFFFFFFFFFFFFFFFFFFFFFFFFFFFFFFFFFFFFFFFFFFFFFFFFFFFFFFFFFFFFFFFFFFFFFFFFFFFFFFFFFFFFFFFFFFFFFFFFFFFFFFFFFFFFFFFFFFFFFFFFFFFFFFFFFFFFFFFFFFFFFFFFFFFFFFFFFFFFFFFFFFFFFFFFFFFFFFFFFFFFFFFFFFFFFFFFFFFFFFFFFF
310
FFFFFFFFFFFFFFFFFFFFFFFFFFFFFFFFFFFFFFFFFFFFFFFFFFFFFFFFFFFFFFFFFFFFFFFFFFFFFFFFFFFFFFFFFFFFFFFFFFFFFFFFFFFFFFFFFFFFFFFFFFFFFFFFFFFFFFFFFFFFFFFFFFFFFFFFFFFFFFFFFFFFFFFFFFFFFFFFFFFFFFFFFFFFFFFFFFFFFFFFFFFFFFFFFFFFFFFFFFFFFFFFFFFFFFFFFFFFFFFFFFFFFFFFFFFFFF
310
FFFFFFFFFFFFFFFFFFFFFFFFFFFFFFFFFFFFFFFF000000000000000000000000000000000000000000000000000000000000FFFF00FF0000000000000000FFFFFFFFFFFFFFFFFFFFFFFFFFFFFFFFFFFFFF00FFFF00FF0000000000000000FFFFFFFFFFFFFFFFFFFFFFFFFFFFFFFFFFFFFF00FFFF00FF000000000000000000
310
00000000000000000000000000FFFFFFFFFF00FFFF00FF0000000000000000000000000000000000000000000000000000FF00FFFF00FF0000000000000000000000000000000000000000000000000000FF00FFFF00FF0000000000000000000000000000000000000000000000000000FF00FFFF00FF0000000000000000
310
00000000000000000000000000000000FFFFFF00FFFF00FF0000000000FFFFFFFFFFFFFFFFFFFFFFFFFFFFFFFFFFFFFFFFFFFF00FFFF000000000000000000000000000000000000000000000000000000000000FFFFFFFFFFFFFFFFFFFFFFFFFFFFFFFFFFFFFFFFFFFFFFFFFFFFFFFFFFFFFFFFFFFFFFFFFFFFFFFFFFFFFF
310
FFFFFFFFFFFFFFFFFFFFFFFFFFFFFFFFFFFFFFFFFFFFFFFFFFFFFFFFFFFFFFFFFFFFFFFFFFFFFFFFFFFFFFFFFFFFFFFFFFFFFFFFFFFFFFFFFFFFFFFFFFFFFFFFFFFFFFFFFFFFFFFFFFFFFFFFFFFFFFFFFFFFFFFFFFFFFFFFFFFFFFFFFFFFFFFFFFFFFFFFFFFFFFFFFFFFFFFFFFFFFFFFFFFFFFFFFFFFFFFFFFFFFFFFFFFFFF
310
FFFFFFFFFFFFFFFFFFFFFFFFFFFFFFFFFFFFFFFFFFFFFFFFFFFFFFFFFFFFFFFFFFFFFFFFFFFFFFFFFFFFFFFFFFFFFFFFFFFFFFFFFFFFFFFFFFFFFFFFFFFFFFFFFFFFFFFFFFFFFFFFFFFFFFFFFFFFFFFFFFFFFFFFFFFFFFFFFFFFFFFFFFFFFFFFFFFFFFFFFFFFFFFFFFFFFFFFFFFFFFFFFFFFFFFFFFFFFFFFFFFFFFFFFFFFFF
310
FFFFFFFFFFFFFFFFFFFFFFFFFFFFFFFFFFFFFFFFFFFFFFFFFFFFFFFFFFFFFFFFFFFFFFFFFFFFFFFFFFFFFFFFFFFFFFFFFFFFFFFFFFFFFFFF
102
{BLKREFS
331
2685
331
268B
102
}
  0
ENDTAB
  0
ENDSEC
  0
SECTION
  2
BLOCKS
  0
BLOCK
  5
2355
330
2354
100
AcDbEntity
  8
0
100
AcDbBlockBegin
  2
*Model_Space
 70
     0
 10
0.0
 20
0.0
 30
0.0
  3
*Model_Space
  1

  0
ENDBLK
  5
2356
330
2354
100
AcDbEntity
  8
0
100
AcDbBlockEnd
  0
BLOCK
  5
2351
330
2350
100
AcDbEntity
 67
     1
  8
0
100
AcDbBlockBegin
  2
*Paper_Space
 70
     0
 10
0.0
 20
0.0
 30
0.0
  3
*Paper_Space
  1

  0
ENDBLK
  5
2352
330
2350
100
AcDbEntity
 67
     1
  8
0
100
AcDbBlockEnd
  0
BLOCK
  5
236F
330
236E
100
AcDbEntity
  8
0
100
AcDbBlockBegin
  2
$MODEL_SPACE
 70
     0
 10
0.0
 20
0.0
 30
0.0
  3
$MODEL_SPACE
  1

  0
ENDBLK
  5
2370
330
236E
100
AcDbEntity
  8
0
100
AcDbBlockEnd
  0
BLOCK
  5
2372
330
2371
100
AcDbEntity
  8
0
100
AcDbBlockBegin
  2
$PAPER_SPACE
 70
     0
 10
0.0
 20
0.0
 30
0.0
  3
$PAPER_SPACE
  1

  0
ENDBLK
  5
2373
330
2371
100
AcDbEntity
  8
0
100
AcDbBlockEnd
  0
BLOCK
  5
25EF
330
25EC
100
AcDbEntity
  8
0
 62
     7
100
AcDbBlockBegin
  2
AI9-BLK14
 70
     0
 10
0.0
 20
0.0
 30
0.0
  3
AI9-BLK14
  1

  0
SPLINE
  5
25ED
330
25EC
100
AcDbEntity
  8
LAYER_1
 62
     7
100
AcDbSpline
210
0.0
220
0.0
230
1.0
 70
    11
 71
     3
 72
    23
 73
    19
 74
     0
 42
0.0000000001
 43
0.0000000001
 40
0.0
 40
0.0
 40
0.0
 40
0.0
 40
1.0
 40
1.0
 40
1.0
 40
2.0
 40
2.0
 40
2.0
 40
3.0
 40
3.0
 40
3.0
 40
4.0
 40
4.0
 40
4.0
 40
5.0
 40
5.0
 40
5.0
 40
6.0
 40
6.0
 40
6.0
 40
6.0
 10
-10.90321044921874
 20
10.88107571072048
 30
0.0
 10
-10.90321044921874
 20
10.88107571072048
 30
0.0
 10
-10.90321044921874
 20
-10.88107571072048
 30
0.0
 10
-10.90321044921874
 20
-10.88107571072048
 30
0.0
 10
-10.90321044921874
 20
-10.88107571072048
 30
0.0
 10
1.752692328559025
 20
-10.88107571072048
 30
0.0
 10
1.752692328559025
 20
-10.88107571072048
 30
0.0
 10
3.280592176649305
 20
-10.88107571072048
 30
0.0
 10
10.90321044921874
 20
-10.32383151584201
 30
0.0
 10
10.90321044921874
 20
0.6792867024739583
 30
0.0
 10
10.90321044921874
 20
10.61700914171006
 30
0.0
 10
2.773129611545138
 20
10.87952541775172
 30
0.0
 10
2.691136338975693
 20
10.88090345594618
 30
0.0
 10
2.691136338975693
 20
10.88090345594618
 30
0.0
 10
-9.903099229600693
 20
10.88107571072048
 30
0.0
 10
-9.903099229600693
 20
10.88107571072048
 30
0.0
 10
-9.903099229600693
 20
10.88107571072048
 30
0.0
 10
-10.90321044921874
 20
10.88107571072048
 30
0.0
 10
-10.90321044921874
 20
10.88107571072048
 30
0.0
  0
SPLINE
  5
25EE
330
25EC
100
AcDbEntity
  8
LAYER_1
 62
     7
100
AcDbSpline
210
0.0
220
0.0
230
1.0
 70
    11
 71
     3
 72
    20
 73
    16
 74
     0
 42
0.0000000001
 43
0.0000000001
 40
0.0
 40
0.0
 40
0.0
 40
0.0
 40
1.0
 40
1.0
 40
1.0
 40
2.0
 40
2.0
 40
2.0
 40
3.0
 40
3.0
 40
3.0
 40
4.0
 40
4.0
 40
4.0
 40
5.0
 40
5.0
 40
5.0
 40
5.0
 10
2.672877332899305
 20
8.881197781032986
 30
0.0
 10
2.905421278211805
 20
8.874307590060762
 30
0.0
 10
8.902988009982637
 20
8.616442192925347
 30
0.0
 10
8.902988009982637
 20
0.6792867024739583
 30
0.0
 10
8.902988009982637
 20
-8.191661919487842
 30
0.0
 10
3.430109320746526
 20
-8.881197781032986
 30
0.0
 10
1.752692328559025
 20
-8.881197781032986
 30
0.0
 10
1.752692328559025
 20
-8.881197781032986
 30
0.0
 10
-7.231427680121528
 20
-8.881197781032986
 30
0.0
 10
-8.902988009982637
 20
-8.881197781032986
 30
0.0
 10
-8.902988009982637
 20
-7.174497477213541
 30
0.0
 10
-8.902988009982637
 20
7.174497477213541
 30
0.0
 10
-8.902988009982637
 20
8.881197781032986
 30
0.0
 10
-7.208690049913191
 20
8.881197781032986
 30
0.0
 10
2.672877332899305
 20
8.881197781032986
 30
0.0
 10
2.672877332899305
 20
8.881197781032986
 30
0.0
  0
ENDBLK
  5
25F0
330
25EC
100
AcDbEntity
  8
0
100
AcDbBlockEnd
  0
BLOCK
  5
25F4
330
25F1
100
AcDbEntity
  8
0
 62
     7
100
AcDbBlockBegin
  2
AI9-BLK13
 70
     0
 10
0.0
 20
0.0
 30
0.0
  3
AI9-BLK13
  1

  0
LWPOLYLINE
  5
25F2
330
25F1
100
AcDbEntity
  8
LAYER_1
 62
     7
100
AcDbPolyline
 90
       12
 70
     1
 43
0.0
 10
-3.792361111111107
 20
10.7376736111111
 10
-2.469444444444443
 20
10.7376736111111
 10
-2.469444444444443
 20
1.874131944444444
 10
2.469444444444443
 20
1.874131944444444
 10
2.469444444444443
 20
10.7376736111111
 10
3.792361111111107
 20
10.7376736111111
 10
3.792361111111107
 20
-10.7376736111111
 10
2.469444444444443
 20
-10.7376736111111
 10
2.469444444444443
 20
-0.6835069444444444
 10
-2.469444444444443
 20
-0.6835069444444444
 10
-2.469444444444443
 20
-10.7376736111111
 10
-3.792361111111107
 20
-10.7376736111111
  0
HATCH
  5
25F3
330
25F1
100
AcDbEntity
  8
LAYER_1
 62
     7
100
AcDbHatch
 10
0.0
 20
0.0
 30
0.0
210
0.0
220
0.0
230
1.0
  2
SOLID
 70
     1
 71
     0
 91
        1
 92
        3
 72
     0
 73
     1
 93
       12
 10
-3.792361111111107
 20
10.7376736111111
 10
-2.469444444444443
 20
10.7376736111111
 10
-2.469444444444443
 20
1.874131944444444
 10
2.469444444444443
 20
1.874131944444444
 10
2.469444444444443
 20
10.7376736111111
 10
3.792361111111107
 20
10.7376736111111
 10
3.792361111111107
 20
-10.7376736111111
 10
2.469444444444443
 20
-10.7376736111111
 10
2.469444444444443
 20
-0.6835069444444444
 10
-2.469444444444443
 20
-0.6835069444444444
 10
-2.469444444444443
 20
-10.7376736111111
 10
-3.792361111111107
 20
-10.7376736111111
 97
        0
 75
     2
 76
     1
 98
        1
 10
0.0
 20
0.0
  0
ENDBLK
  5
25F5
330
25F1
100
AcDbEntity
  8
0
100
AcDbBlockEnd
  0
BLOCK
  5
25F9
330
25F6
100
AcDbEntity
  8
0
 62
     7
100
AcDbBlockBegin
  2
AI9-BLK11
 70
     0
 10
0.0
 20
0.0
 30
0.0
  3
AI9-BLK11
  1

  0
SPLINE
  5
25F7
330
25F6
100
AcDbEntity
  8
LAYER_1
 62
     7
100
AcDbSpline
210
0.0
220
0.0
230
1.0
 70
    11
 71
     3
 72
    26
 73
    22
 74
     0
 42
0.0000000001
 43
0.0000000001
 40
0.0
 40
0.0
 40
0.0
 40
0.0
 40
1.0
 40
1.0
 40
1.0
 40
2.0
 40
2.0
 40
2.0
 40
3.0
 40
3.0
 40
3.0
 40
4.0
 40
4.0
 40
4.0
 40
5.0
 40
5.0
 40
5.0
 40
6.0
 40
6.0
 40
6.0
 40
7.0
 40
7.0
 40
7.0
 40
7.0
 10
-2.645833333333333
 20
0.9039930555555551
 30
0.0
 10
-2.645833333333333
 20
0.9039930555555551
 30
0.0
 10
-2.645833333333333
 20
8.180034722222217
 30
0.0
 10
-2.645833333333333
 20
8.180034722222217
 30
0.0
 10
-2.645833333333333
 20
8.180034722222217
 30
0.0
 10
0.465087890625
 20
8.180034722222217
 30
0.0
 10
0.465087890625
 20
8.180034722222217
 30
0.0
 10
0.9026150173611108
 20
8.180034722222217
 30
0.0
 10
1.24988064236111
 20
8.034651692708331
 30
0.0
 10
1.506884765625
 20
7.745263671874997
 30
0.0
 10
2.001600477430554
 20
7.194048394097221
 30
0.0
 10
2.248958333333332
 20
6.160519748263887
 30
0.0
 10
2.248958333333332
 20
4.643299696180553
 30
0.0
 10
2.248958333333332
 20
3.232188585069443
 30
0.0
 10
2.072569444444444
 20
2.256537543402775
 30
0.0
 10
1.720480685763888
 20
1.715657552083333
 30
0.0
 10
1.368391927083333
 20
1.174088541666665
 30
0.0
 10
0.8929687499999998
 20
0.9039930555555551
 30
0.0
 10
0.2942111545138888
 20
0.9039930555555551
 30
0.0
 10
0.2942111545138888
 20
0.9039930555555551
 30
0.0
 10
-2.645833333333333
 20
0.9039930555555551
 30
0.0
 10
-2.645833333333333
 20
0.9039930555555551
 30
0.0
  0
SPLINE
  5
25F8
330
25F6
100
AcDbEntity
  8
LAYER_1
 62
     7
100
AcDbSpline
210
0.0
220
0.0
230
1.0
 70
    11
 71
     3
 72
    68
 73
    64
 74
     0
 42
0.0000000001
 43
0.0000000001
 40
0.0
 40
0.0
 40
0.0
 40
0.0
 40
1.0
 40
1.0
 40
1.0
 40
2.0
 40
2.0
 40
2.0
 40
3.0
 40
3.0
 40
3.0
 40
4.0
 40
4.0
 40
4.0
 40
5.0
 40
5.0
 40
5.0
 40
6.0
 40
6.0
 40
6.0
 40
7.0
 40
7.0
 40
7.0
 40
8.0
 40
8.0
 40
8.0
 40
9.0
 40
9.0
 40
9.0
 40
10.0
 40
10.0
 40
10.0
 40
11.0
 40
11.0
 40
11.0
 40
12.0
 40
12.0
 40
12.0
 40
13.0
 40
13.0
 40
13.0
 40
14.0
 40
14.0
 40
14.0
 40
15.0
 40
15.0
 40
15.0
 40
16.0
 40
16.0
 40
16.0
 40
17.0
 40
17.0
 40
17.0
 40
18.0
 40
18.0
 40
18.0
 40
19.0
 40
19.0
 40
19.0
 40
20.0
 40
20.0
 40
20.0
 40
21.0
 40
21.0
 40
21.0
 40
21.0
 10
-3.968749999999998
 20
-10.7376736111111
 30
0.0
 10
-3.968749999999998
 20
-10.7376736111111
 30
0.0
 10
-2.645833333333333
 20
-10.7376736111111
 30
0.0
 10
-2.645833333333333
 20
-10.7376736111111
 30
0.0
 10
-2.645833333333333
 20
-10.7376736111111
 30
0.0
 10
-2.645833333333333
 20
-1.521354166666665
 30
0.0
 10
-2.645833333333333
 20
-1.521354166666665
 30
0.0
 10
-2.645833333333333
 20
-1.521354166666665
 30
0.0
 10
0.2390896267361111
 20
-1.521354166666665
 30
0.0
 10
0.2390896267361111
 20
-1.521354166666665
 30
0.0
 10
0.7599880642361111
 20
-1.521354166666665
 30
0.0
 10
1.143771701388887
 20
-1.65295681423611
 30
0.0
 10
1.390440538194444
 20
-1.916162109374999
 30
0.0
 10
1.816254340277774
 20
-2.39434136284722
 30
0.0
 10
2.04363064236111
 20
-3.335541449652775
 30
0.0
 10
2.072569444444444
 20
-4.739762369791666
 30
0.0
 10
2.072569444444444
 20
-4.739762369791666
 30
0.0
 10
2.160763888888888
 20
-8.324039713541665
 30
0.0
 10
2.160763888888888
 20
-8.324039713541665
 30
0.0
 10
2.18005642361111
 20
-9.163264973958332
 30
0.0
 10
2.202794053819443
 20
-9.728949652777775
 30
0.0
 10
2.227598741319444
 20
-10.02109374999998
 30
0.0
 10
2.252403428819443
 20
-10.31392686631944
 30
0.0
 10
2.28892144097222
 20
-10.55301649305555
 30
0.0
 10
2.33853081597222
 20
-10.7376736111111
 30
0.0
 10
2.33853081597222
 20
-10.7376736111111
 30
0.0
 10
3.968749999999998
 20
-10.7376736111111
 30
0.0
 10
3.968749999999998
 20
-10.7376736111111
 30
0.0
 10
3.968749999999998
 20
-10.7376736111111
 30
0.0
 10
3.968749999999998
 20
-10.25260416666666
 30
0.0
 10
3.968749999999998
 20
-10.25260416666666
 30
0.0
 10
3.766867404513888
 20
-10.05830078125
 30
0.0
 10
3.625618489583333
 20
-9.621462673611112
 30
0.0
 10
3.545692274305555
 20
-8.942089843749997
 30
0.0
 10
3.49470486111111
 20
-8.543836805555555
 30
0.0
 10
3.459564887152775
 20
-7.937499999999999
 30
0.0
 10
3.439583333333333
 20
-7.121701388888887
 30
0.0
 10
3.439583333333333
 20
-7.121701388888887
 30
0.0
 10
3.395486111111107
 20
-4.232644314236107
 30
0.0
 10
3.395486111111107
 20
-4.232644314236107
 30
0.0
 10
3.375504557291666
 20
-2.981385633680555
 30
0.0
 10
3.26870659722222
 20
-2.077392578125
 30
0.0
 10
3.075781249999999
 20
-1.522043185763888
 30
0.0
 10
2.882166883680555
 20
-0.9666937934027776
 30
0.0
 10
2.592089843749999
 20
-0.5188313802083333
 30
0.0
 10
2.204861111111107
 20
-0.1770779079861111
 30
0.0
 10
2.63618706597222
 20
0.3197048611111111
 30
0.0
 10
2.971739366319443
 20
0.9770290798611107
 30
0.0
 10
3.211518012152775
 20
1.79558376736111
 30
0.0
 10
3.451296657986107
 20
2.613449435763888
 30
0.0
 10
3.571874999999999
 20
3.66558159722222
 30
0.0
 10
3.571874999999999
 20
4.951291232638888
 30
0.0
 10
3.571874999999999
 20
7.415912543402777
 30
0.0
 10
3.124701605902775
 20
9.106076388888887
 30
0.0
 10
2.231043836805555
 20
10.02178276909722
 30
0.0
 10
1.759754774305553
 20
10.498583984375
 30
0.0
 10
1.163753255208332
 20
10.7376736111111
 30
0.0
 10
0.443039279513889
 20
10.7376736111111
 30
0.0
 10
0.443039279513889
 20
10.7376736111111
 30
0.0
 10
-3.968749999999998
 20
10.7376736111111
 30
0.0
 10
-3.968749999999998
 20
10.7376736111111
 30
0.0
 10
-3.968749999999998
 20
10.7376736111111
 30
0.0
 10
-3.968749999999998
 20
-10.7376736111111
 30
0.0
 10
-3.968749999999998
 20
-10.7376736111111
 30
0.0
  0
ENDBLK
  5
25FA
330
25F6
100
AcDbEntity
  8
0
100
AcDbBlockEnd
  0
BLOCK
  5
25FD
330
25FB
100
AcDbEntity
  8
0
 62
     7
100
AcDbBlockBegin
  2
AI9-BLK10
 70
     0
 10
0.0
 20
0.0
 30
0.0
  3
AI9-BLK10
  1

  0
SPLINE
  5
25FC
330
25FB
100
AcDbEntity
  8
LAYER_1
 62
     7
100
AcDbSpline
210
0.0
220
0.0
230
1.0
 70
    11
 71
     3
 72
    59
 73
    55
 74
     0
 42
0.0000000001
 43
0.0000000001
 40
0.0
 40
0.0
 40
0.0
 40
0.0
 40
1.0
 40
1.0
 40
1.0
 40
2.0
 40
2.0
 40
2.0
 40
3.0
 40
3.0
 40
3.0
 40
4.0
 40
4.0
 40
4.0
 40
5.0
 40
5.0
 40
5.0
 40
6.0
 40
6.0
 40
6.0
 40
7.0
 40
7.0
 40
7.0
 40
8.0
 40
8.0
 40
8.0
 40
9.0
 40
9.0
 40
9.0
 40
10.0
 40
10.0
 40
10.0
 40
11.0
 40
11.0
 40
11.0
 40
12.0
 40
12.0
 40
12.0
 40
13.0
 40
13.0
 40
13.0
 40
14.0
 40
14.0
 40
14.0
 40
15.0
 40
15.0
 40
15.0
 40
16.0
 40
16.0
 40
16.0
 40
17.0
 40
17.0
 40
17.0
 40
18.0
 40
18.0
 40
18.0
 40
18.0
 10
-4.652256944444443
 20
10.7376736111111
 30
0.0
 10
-4.652256944444443
 20
10.7376736111111
 30
0.0
 10
-2.798795572916666
 20
10.7376736111111
 30
0.0
 10
-2.798795572916666
 20
10.7376736111111
 30
0.0
 10
-2.798795572916666
 20
10.7376736111111
 30
0.0
 10
0.0
 20
-7.419357638888887
 30
0.0
 10
0.0
 20
-7.419357638888887
 30
0.0
 10
0.0
 20
-7.419357638888887
 30
0.0
 10
2.793283420138888
 20
10.7376736111111
 30
0.0
 10
2.793283420138888
 20
10.7376736111111
 30
0.0
 10
2.793283420138888
 20
10.7376736111111
 30
0.0
 10
4.652256944444443
 20
10.7376736111111
 30
0.0
 10
4.652256944444443
 20
10.7376736111111
 30
0.0
 10
4.652256944444443
 20
10.7376736111111
 30
0.0
 10
4.652256944444443
 20
-10.7376736111111
 30
0.0
 10
4.652256944444443
 20
-10.7376736111111
 30
0.0
 10
4.652256944444443
 20
-10.7376736111111
 30
0.0
 10
3.41753472222222
 20
-10.7376736111111
 30
0.0
 10
3.41753472222222
 20
-10.7376736111111
 30
0.0
 10
3.41753472222222
 20
-10.7376736111111
 30
0.0
 10
3.41753472222222
 20
1.936832682291665
 30
0.0
 10
3.41753472222222
 20
1.936832682291665
 30
0.0
 10
3.41753472222222
 20
2.375048828124999
 30
0.0
 10
3.424424913194443
 20
3.101274956597221
 30
0.0
 10
3.439583333333333
 20
4.11482204861111
 30
0.0
 10
3.454052734374998
 20
5.128369140624998
 30
0.0
 10
3.461631944444443
 20
6.214952256944441
 30
0.0
 10
3.461631944444443
 20
7.375260416666666
 30
0.0
 10
3.461631944444443
 20
7.375260416666666
 30
0.0
 10
0.6538791232638889
 20
-10.7376736111111
 30
0.0
 10
0.6538791232638889
 20
-10.7376736111111
 30
0.0
 10
0.6538791232638889
 20
-10.7376736111111
 30
0.0
 10
-0.6628363715277778
 20
-10.7376736111111
 30
0.0
 10
-0.6628363715277778
 20
-10.7376736111111
 30
0.0
 10
-0.6628363715277778
 20
-10.7376736111111
 30
0.0
 10
-3.461631944444443
 20
7.375260416666666
 30
0.0
 10
-3.461631944444443
 20
7.375260416666666
 30
0.0
 10
-3.461631944444443
 20
7.375260416666666
 30
0.0
 10
-3.461631944444443
 20
6.717247178819441
 30
0.0
 10
-3.461631944444443
 20
6.717247178819441
 30
0.0
 10
-3.461631944444443
 20
6.190836588541666
 30
0.0
 10
-3.45474175347222
 20
5.389507378472222
 30
0.0
 10
-3.439583333333333
 20
4.312570529513888
 30
0.0
 10
-3.425113932291666
 20
3.235633680555555
 30
0.0
 10
-3.41753472222222
 20
2.44395073784722
 30
0.0
 10
-3.41753472222222
 20
1.936832682291665
 30
0.0
 10
-3.41753472222222
 20
1.936832682291665
 30
0.0
 10
-3.41753472222222
 20
-10.7376736111111
 30
0.0
 10
-3.41753472222222
 20
-10.7376736111111
 30
0.0
 10
-3.41753472222222
 20
-10.7376736111111
 30
0.0
 10
-4.652256944444443
 20
-10.7376736111111
 30
0.0
 10
-4.652256944444443
 20
-10.7376736111111
 30
0.0
 10
-4.652256944444443
 20
-10.7376736111111
 30
0.0
 10
-4.652256944444443
 20
10.7376736111111
 30
0.0
 10
-4.652256944444443
 20
10.7376736111111
 30
0.0
  0
ENDBLK
  5
25FE
330
25FB
100
AcDbEntity
  8
0
100
AcDbBlockEnd
  0
BLOCK
  5
2602
330
25FF
100
AcDbEntity
  8
0
 62
     7
100
AcDbBlockBegin
  2
AI9-BLK9
 70
     0
 10
0.0
 20
0.0
 30
0.0
  3
AI9-BLK9
  1

  0
SPLINE
  5
2600
330
25FF
100
AcDbEntity
  8
LAYER_1
 62
     7
100
AcDbSpline
210
0.0
220
0.0
230
1.0
 70
    11
 71
     3
 72
    29
 73
    25
 74
     0
 42
0.0000000001
 43
0.0000000001
 40
0.0
 40
0.0
 40
0.0
 40
0.0
 40
1.0
 40
1.0
 40
1.0
 40
2.0
 40
2.0
 40
2.0
 40
3.0
 40
3.0
 40
3.0
 40
4.0
 40
4.0
 40
4.0
 40
5.0
 40
5.0
 40
5.0
 40
6.0
 40
6.0
 40
6.0
 40
7.0
 40
7.0
 40
7.0
 40
8.0
 40
8.0
 40
8.0
 40
8.0
 10
0.0668348524305556
 20
-8.753298611111111
 30
0.0
 10
-0.9067491319444444
 20
-8.753298611111111
 30
0.0
 10
-1.60954861111111
 20
-7.936810980902778
 30
0.0
 10
-2.041563585069444
 20
-6.30383572048611
 30
0.0
 10
-2.474267578124999
 20
-4.670860460069443
 30
0.0
 10
-2.689930555555555
 20
-2.664436848958333
 30
0.0
 10
-2.689930555555555
 20
-0.28525390625
 30
0.0
 10
-2.689930555555555
 20
2.68855251736111
 30
0.0
 10
-2.439127604166666
 20
4.938199869791666
 30
0.0
 10
-1.937521701388888
 20
6.464377170138886
 30
0.0
 10
-1.43591579861111
 20
7.989865451388887
 30
0.0
 10
-0.7827256944444444
 20
8.753298611111111
 30
0.0
 10
0.0220486111111111
 20
8.753298611111111
 30
0.0
 10
0.8468044704861108
 20
8.753298611111111
 30
0.0
 10
1.49792751736111
 20
7.982975260416663
 30
0.0
 10
1.974728732638888
 20
6.442328559027776
 30
0.0
 10
2.451529947916665
 20
4.901681857638886
 30
0.0
 10
2.689930555555555
 20
2.868386501736111
 30
0.0
 10
2.689930555555555
 20
0.3438205295138888
 30
0.0
 10
2.689930555555555
 20
-2.045697699652774
 30
0.0
 10
2.483224826388885
 20
-4.15891927083333
 30
0.0
 10
2.071191406249999
 20
-5.996533203124998
 30
0.0
 10
1.65915798611111
 20
-7.834836154513887
 30
0.0
 10
0.9908094618055557
 20
-8.753298611111111
 30
0.0
 10
0.0668348524305556
 20
-8.753298611111111
 30
0.0
  0
SPLINE
  5
2601
330
25FF
100
AcDbEntity
  8
LAYER_1
 62
     7
100
AcDbSpline
210
0.0
220
0.0
230
1.0
 70
    11
 71
     3
 72
    29
 73
    25
 74
     0
 42
0.0000000001
 43
0.0000000001
 40
0.0
 40
0.0
 40
0.0
 40
0.0
 40
1.0
 40
1.0
 40
1.0
 40
2.0
 40
2.0
 40
2.0
 40
3.0
 40
3.0
 40
3.0
 40
4.0
 40
4.0
 40
4.0
 40
5.0
 40
5.0
 40
5.0
 40
6.0
 40
6.0
 40
6.0
 40
7.0
 40
7.0
 40
7.0
 40
8.0
 40
8.0
 40
8.0
 40
8.0
 10
-0.0289388020833333
 20
11.35503472222222
 30
0.0
 10
-1.317404513888887
 20
11.35503472222222
 30
0.0
 10
-2.28892144097222
 20
10.02798394097222
 30
0.0
 10
-2.94280056423611
 20
7.374571397569441
 30
0.0
 10
-3.450607638888888
 20
5.30613606770833
 30
0.0
 10
-3.704166666666666
 20
2.81877712673611
 30
0.0
 10
-3.704166666666666
 20
-0.0881944444444445
 30
0.0
 10
-3.704166666666666
 20
-3.307291666666666
 30
0.0
 10
-3.406510416666666
 20
-5.970350477430551
 30
0.0
 10
-2.811197916666666
 20
-8.077370876736106
 30
0.0
 10
-2.147672526041664
 20
-10.26293945312499
 30
0.0
 10
-1.229899088541666
 20
-11.35503472222222
 30
0.0
 10
-0.0585666232638889
 20
-11.35503472222222
 30
0.0
 10
1.20027126736111
 20
-11.35503472222222
 30
0.0
 10
2.166276041666665
 20
-10.10653211805555
 30
0.0
 10
2.840136718749998
 20
-7.609526909722221
 30
0.0
 10
3.416156684027776
 20
-5.483213975694441
 30
0.0
 10
3.704166666666666
 20
-2.814643012152775
 30
0.0
 10
3.704166666666666
 20
0.3948079427083333
 30
0.0
 10
3.704166666666666
 20
3.360346137152776
 30
0.0
 10
3.449918619791666
 20
5.793961588541666
 30
0.0
 10
2.94280056423611
 20
7.696343315972222
 30
0.0
 10
2.298567708333333
 20
10.13547092013888
 30
0.0
 10
1.307758246527777
 20
11.35503472222222
 30
0.0
 10
-0.0289388020833333
 20
11.35503472222222
 30
0.0
  0
ENDBLK
  5
2603
330
25FF
100
AcDbEntity
  8
0
100
AcDbBlockEnd
  0
BLOCK
  5
2607
330
2604
100
AcDbEntity
  8
0
 62
     7
100
AcDbBlockBegin
  2
AI9-BLK8
 70
     0
 10
0.0
 20
0.0
 30
0.0
  3
AI9-BLK8
  1

  0
LWPOLYLINE
  5
2605
330
2604
100
AcDbEntity
  8
LAYER_1
 62
     7
100
AcDbPolyline
 90
       10
 70
     1
 43
0.0
 10
-3.792361111111107
 20
10.7376736111111
 10
-2.268939887152774
 20
10.7376736111111
 10
2.557638888888888
 20
-6.505718315972222
 10
2.557638888888888
 20
10.7376736111111
 10
3.792361111111107
 20
10.7376736111111
 10
3.792361111111107
 20
-10.7376736111111
 10
2.32612847222222
 20
-10.7376736111111
 10
-2.557638888888888
 20
6.549815538194441
 10
-2.557638888888888
 20
-10.7376736111111
 10
-3.792361111111107
 20
-10.7376736111111
  0
HATCH
  5
2606
330
2604
100
AcDbEntity
  8
LAYER_1
 62
     7
100
AcDbHatch
 10
0.0
 20
0.0
 30
0.0
210
0.0
220
0.0
230
1.0
  2
SOLID
 70
     1
 71
     0
 91
        1
 92
        3
 72
     0
 73
     1
 93
       10
 10
-3.792361111111107
 20
10.7376736111111
 10
-2.268939887152774
 20
10.7376736111111
 10
2.557638888888888
 20
-6.505718315972222
 10
2.557638888888888
 20
10.7376736111111
 10
3.792361111111107
 20
10.7376736111111
 10
3.792361111111107
 20
-10.7376736111111
 10
2.32612847222222
 20
-10.7376736111111
 10
-2.557638888888888
 20
6.549815538194441
 10
-2.557638888888888
 20
-10.7376736111111
 10
-3.792361111111107
 20
-10.7376736111111
 97
        0
 75
     2
 76
     1
 98
        1
 10
0.0
 20
0.0
  0
ENDBLK
  5
2608
330
2604
100
AcDbEntity
  8
0
100
AcDbBlockEnd
  0
BLOCK
  5
260C
330
2609
100
AcDbEntity
  8
0
 62
     7
100
AcDbBlockBegin
  2
AI9-BLK7
 70
     0
 10
0.0
 20
0.0
 30
0.0
  3
AI9-BLK7
  1

  0
LWPOLYLINE
  5
260A
330
2609
100
AcDbEntity
  8
LAYER_1
 62
     7
100
AcDbPolyline
 90
        4
 70
     1
 43
0.0
 10
-0.6614583333333333
 20
10.7376736111111
 10
0.6614583333333333
 20
10.7376736111111
 10
0.6614583333333333
 20
-10.7376736111111
 10
-0.6614583333333333
 20
-10.7376736111111
  0
HATCH
  5
260B
330
2609
100
AcDbEntity
  8
LAYER_1
 62
     7
100
AcDbHatch
 10
0.0
 20
0.0
 30
0.0
210
0.0
220
0.0
230
1.0
  2
SOLID
 70
     1
 71
     0
 91
        1
 92
        3
 72
     0
 73
     1
 93
        4
 10
-0.6614583333333333
 20
10.7376736111111
 10
0.6614583333333333
 20
10.7376736111111
 10
0.6614583333333333
 20
-10.7376736111111
 10
-0.6614583333333333
 20
-10.7376736111111
 97
        0
 75
     2
 76
     1
 98
        1
 10
0.0
 20
0.0
  0
ENDBLK
  5
260D
330
2609
100
AcDbEntity
  8
0
100
AcDbBlockEnd
  0
BLOCK
  5
2610
330
260E
100
AcDbEntity
  8
0
 62
     7
100
AcDbBlockBegin
  2
AI9-BLK6
 70
     0
 10
0.0
 20
0.0
 30
0.0
  3
AI9-BLK6
  1

  0
SPLINE
  5
260F
330
260E
100
AcDbEntity
  8
LAYER_1
 62
     7
100
AcDbSpline
210
0.0
220
0.0
230
1.0
 70
    11
 71
     3
 72
    59
 73
    55
 74
     0
 42
0.0000000001
 43
0.0000000001
 40
0.0
 40
0.0
 40
0.0
 40
0.0
 40
1.0
 40
1.0
 40
1.0
 40
2.0
 40
2.0
 40
2.0
 40
3.0
 40
3.0
 40
3.0
 40
4.0
 40
4.0
 40
4.0
 40
5.0
 40
5.0
 40
5.0
 40
6.0
 40
6.0
 40
6.0
 40
7.0
 40
7.0
 40
7.0
 40
8.0
 40
8.0
 40
8.0
 40
9.0
 40
9.0
 40
9.0
 40
10.0
 40
10.0
 40
10.0
 40
11.0
 40
11.0
 40
11.0
 40
12.0
 40
12.0
 40
12.0
 40
13.0
 40
13.0
 40
13.0
 40
14.0
 40
14.0
 40
14.0
 40
15.0
 40
15.0
 40
15.0
 40
16.0
 40
16.0
 40
16.0
 40
17.0
 40
17.0
 40
17.0
 40
18.0
 40
18.0
 40
18.0
 40
18.0
 10
3.062689887152775
 20
9.168088107638887
 30
0.0
 10
3.735172526041666
 20
7.739062499999997
 30
0.0
 10
4.110687934027776
 20
6.116422526041666
 30
0.0
 10
4.189236111111108
 20
4.299479166666666
 30
0.0
 10
4.189236111111108
 20
4.299479166666666
 30
0.0
 10
2.866319444444443
 20
4.299479166666666
 30
0.0
 10
2.866319444444443
 20
4.299479166666666
 30
0.0
 10
2.720936414930555
 20
5.667871093749997
 30
0.0
 10
2.435682508680555
 20
6.752387152777776
 30
0.0
 10
2.009868706597219
 20
7.553027343749997
 30
0.0
 10
1.584054904513888
 20
8.352978515624997
 30
0.0
 10
0.9839192708333332
 20
8.753298611111111
 30
0.0
 10
0.2101508246527778
 20
8.753298611111111
 30
0.0
 10
-0.7386284722222222
 20
8.753298611111111
 30
0.0
 10
-1.503439670138888
 20
8.010536024305555
 30
0.0
 10
-2.083593749999999
 20
6.526388888888886
 30
0.0
 10
-2.664436848958333
 20
5.042241753472221
 30
0.0
 10
-2.954513888888888
 20
2.767100694444443
 30
0.0
 10
-2.954513888888888
 20
-0.2990342881944444
 30
0.0
 10
-2.954513888888888
 20
-2.811197916666666
 30
0.0
 10
-2.693375651041666
 20
-4.847938368055555
 30
0.0
 10
-2.17041015625
 20
-6.409944661458332
 30
0.0
 10
-1.648133680555553
 20
-7.972639973958332
 30
0.0
 10
-0.8640299479166666
 20
-8.753298611111111
 30
0.0
 10
0.1812120225694444
 20
-8.753298611111111
 30
0.0
 10
1.138948567708333
 20
-8.753298611111111
 30
0.0
 10
1.865174696180553
 20
-7.927853732638887
 30
0.0
 10
2.359201388888885
 20
-6.275585937499998
 30
0.0
 10
2.62998589409722
 20
-5.406043836805555
 30
0.0
 10
2.828423394097221
 20
-4.262272135416666
 30
0.0
 10
2.954513888888888
 20
-2.844270833333331
 30
0.0
 10
2.954513888888888
 20
-2.844270833333331
 30
0.0
 10
4.277430555555555
 20
-2.844270833333331
 30
0.0
 10
4.277430555555555
 20
-2.844270833333331
 30
0.0
 10
4.169943576388888
 20
-5.109765624999996
 30
0.0
 10
3.795117187499998
 20
-7.009391276041665
 30
0.0
 10
3.151573350694443
 20
-8.542458767361106
 30
0.0
 10
2.381249999999999
 20
-10.38834092881943
 30
0.0
 10
1.347721354166665
 20
-11.3109375
 30
0.0
 10
0.0509874131944445
 20
-11.3109375
 30
0.0
 10
-1.07004665798611
 20
-11.3109375
 30
0.0
 10
-2.010557725694444
 20
-10.55577256944443
 30
0.0
 10
-2.771234809027776
 20
-9.04475368923611
 30
0.0
 10
-3.775824652777775
 20
-7.046598307291666
 30
0.0
 10
-4.277430555555555
 20
-3.961170789930555
 30
0.0
 10
-4.277430555555555
 20
0.2115288628472222
 30
0.0
 10
-4.277430555555555
 20
3.379638671874998
 30
0.0
 10
-3.902604166666666
 20
5.977929687499997
 30
0.0
 10
-3.151573350694443
 20
8.005712890624996
 30
0.0
 10
-2.333018663194443
 20
10.20919596354165
 30
0.0
 10
-1.20647243923611
 20
11.3109375
 30
0.0
 10
0.2266872829861111
 20
11.3109375
 30
0.0
 10
1.444873046875
 20
11.3109375
 30
0.0
 10
2.390207248263885
 20
10.59642469618055
 30
0.0
 10
3.062689887152775
 20
9.168088107638887
 30
0.0
  0
ENDBLK
  5
2611
330
260E
100
AcDbEntity
  8
0
100
AcDbBlockEnd
  0
BLOCK
  5
2615
330
2612
100
AcDbEntity
  8
0
 62
     7
100
AcDbBlockBegin
  2
AI9-BLK5
 70
     0
 10
0.0
 20
0.0
 30
0.0
  3
AI9-BLK5
  1

  0
SPLINE
  5
2613
330
2612
100
AcDbEntity
  8
LAYER_1
 62
     7
100
AcDbSpline
210
0.0
220
0.0
230
1.0
 70
    11
 71
     3
 72
    32
 73
    28
 74
     0
 42
0.0000000001
 43
0.0000000001
 40
0.0
 40
0.0
 40
0.0
 40
0.0
 40
1.0
 40
1.0
 40
1.0
 40
2.0
 40
2.0
 40
2.0
 40
3.0
 40
3.0
 40
3.0
 40
4.0
 40
4.0
 40
4.0
 40
5.0
 40
5.0
 40
5.0
 40
6.0
 40
6.0
 40
6.0
 40
7.0
 40
7.0
 40
7.0
 40
8.0
 40
8.0
 40
8.0
 40
9.0
 40
9.0
 40
9.0
 40
9.0
 10
-2.62378472222222
 20
-8.268229166666666
 30
0.0
 10
-2.62378472222222
 20
-8.268229166666666
 30
0.0
 10
-2.62378472222222
 20
8.180034722222217
 30
0.0
 10
-2.62378472222222
 20
8.180034722222217
 30
0.0
 10
-2.62378472222222
 20
8.180034722222217
 30
0.0
 10
-0.3376193576388888
 20
8.180034722222217
 30
0.0
 10
-0.3376193576388888
 20
8.180034722222217
 30
0.0
 10
0.6972873263888888
 20
8.180034722222217
 30
0.0
 10
1.449007161458333
 20
7.445540364583332
 30
0.0
 10
1.918918185763885
 20
5.977929687499997
 30
0.0
 10
2.388829210069443
 20
4.510319010416666
 30
0.0
 10
2.62378472222222
 20
2.449462890624999
 30
0.0
 10
2.62378472222222
 20
-0.204638671875
 30
0.0
 10
2.62378472222222
 20
-0.8950358072916666
 30
0.0
 10
2.590022786458332
 20
-1.643310546874999
 30
0.0
 10
2.523187934027774
 20
-2.45015190972222
 30
0.0
 10
2.408121744791666
 20
-3.80200737847222
 30
0.0
 10
2.226220703124999
 20
-4.909950086805555
 30
0.0
 10
1.976795789930553
 20
-5.774669053819441
 30
0.0
 10
1.659847005208333
 20
-6.853672960069442
 30
0.0
 10
1.252636718749998
 20
-7.583344184027778
 30
0.0
 10
0.7544759114583333
 20
-7.962304687499997
 30
0.0
 10
0.4664659288194444
 20
-8.166254340277777
 30
0.0
 10
0.1074869791666666
 20
-8.268229166666666
 30
0.0
 10
-0.3231499565972222
 20
-8.268229166666666
 30
0.0
 10
-0.3231499565972222
 20
-8.268229166666666
 30
0.0
 10
-2.62378472222222
 20
-8.268229166666666
 30
0.0
 10
-2.62378472222222
 20
-8.268229166666666
 30
0.0
  0
SPLINE
  5
2614
330
2612
100
AcDbEntity
  8
LAYER_1
 62
     7
100
AcDbSpline
210
0.0
220
0.0
230
1.0
 70
    11
 71
     3
 72
    26
 73
    22
 74
     0
 42
0.0000000001
 43
0.0000000001
 40
0.0
 40
0.0
 40
0.0
 40
0.0
 40
1.0
 40
1.0
 40
1.0
 40
2.0
 40
2.0
 40
2.0
 40
3.0
 40
3.0
 40
3.0
 40
4.0
 40
4.0
 40
4.0
 40
5.0
 40
5.0
 40
5.0
 40
6.0
 40
6.0
 40
6.0
 40
7.0
 40
7.0
 40
7.0
 40
7.0
 10
-3.946701388888888
 20
-10.7376736111111
 30
0.0
 10
-3.946701388888888
 20
-10.7376736111111
 30
0.0
 10
-0.0943956163194444
 20
-10.7376736111111
 30
0.0
 10
-0.0943956163194444
 20
-10.7376736111111
 30
0.0
 10
1.546847873263885
 20
-10.7376736111111
 30
0.0
 10
2.705777994791666
 20
-9.11021050347222
 30
0.0
 10
3.381705729166666
 20
-5.854595269097222
 30
0.0
 10
3.757910156249999
 20
-4.01284722222222
 30
0.0
 10
3.946701388888888
 20
-1.951991102430555
 30
0.0
 10
3.946701388888888
 20
0.328662109375
 30
0.0
 10
3.946701388888888
 20
3.281797960069443
 30
0.0
 10
3.622862413194443
 20
5.703700086805552
 30
0.0
 10
2.976562499999998
 20
7.594368489583332
 30
0.0
 10
2.25171440972222
 20
9.689675564236106
 30
0.0
 10
1.233344184027777
 20
10.7376736111111
 30
0.0
 10
-0.0799262152777778
 20
10.7376736111111
 30
0.0
 10
-0.0799262152777778
 20
10.7376736111111
 30
0.0
 10
-3.946701388888888
 20
10.7376736111111
 30
0.0
 10
-3.946701388888888
 20
10.7376736111111
 30
0.0
 10
-3.946701388888888
 20
10.7376736111111
 30
0.0
 10
-3.946701388888888
 20
-10.7376736111111
 30
0.0
 10
-3.946701388888888
 20
-10.7376736111111
 30
0.0
  0
ENDBLK
  5
2616
330
2612
100
AcDbEntity
  8
0
100
AcDbBlockEnd
  0
BLOCK
  5
261A
330
2617
100
AcDbEntity
  8
0
 62
     7
100
AcDbBlockBegin
  2
AI9-BLK4
 70
     0
 10
0.0
 20
0.0
 30
0.0
  3
AI9-BLK4
  1

  0
SPLINE
  5
2618
330
2617
100
AcDbEntity
  8
LAYER_1
 62
     7
100
AcDbSpline
210
0.0
220
0.0
230
1.0
 70
    11
 71
     3
 72
    26
 73
    22
 74
     0
 42
0.0000000001
 43
0.0000000001
 40
0.0
 40
0.0
 40
0.0
 40
0.0
 40
1.0
 40
1.0
 40
1.0
 40
2.0
 40
2.0
 40
2.0
 40
3.0
 40
3.0
 40
3.0
 40
4.0
 40
4.0
 40
4.0
 40
5.0
 40
5.0
 40
5.0
 40
6.0
 40
6.0
 40
6.0
 40
7.0
 40
7.0
 40
7.0
 40
7.0
 10
-2.645833333333333
 20
0.9039930555555551
 30
0.0
 10
-2.645833333333333
 20
0.9039930555555551
 30
0.0
 10
-2.645833333333333
 20
8.180034722222217
 30
0.0
 10
-2.645833333333333
 20
8.180034722222217
 30
0.0
 10
-2.645833333333333
 20
8.180034722222217
 30
0.0
 10
0.465087890625
 20
8.180034722222217
 30
0.0
 10
0.465087890625
 20
8.180034722222217
 30
0.0
 10
0.9026150173611108
 20
8.180034722222217
 30
0.0
 10
1.24988064236111
 20
8.034651692708331
 30
0.0
 10
1.506884765625
 20
7.745263671874997
 30
0.0
 10
2.001600477430554
 20
7.194048394097221
 30
0.0
 10
2.248958333333332
 20
6.160519748263887
 30
0.0
 10
2.248958333333332
 20
4.643299696180553
 30
0.0
 10
2.248958333333332
 20
3.232188585069443
 30
0.0
 10
2.072569444444444
 20
2.256537543402775
 30
0.0
 10
1.720480685763888
 20
1.715657552083333
 30
0.0
 10
1.368391927083333
 20
1.174088541666665
 30
0.0
 10
0.8929687499999998
 20
0.9039930555555551
 30
0.0
 10
0.2942111545138888
 20
0.9039930555555551
 30
0.0
 10
0.2942111545138888
 20
0.9039930555555551
 30
0.0
 10
-2.645833333333333
 20
0.9039930555555551
 30
0.0
 10
-2.645833333333333
 20
0.9039930555555551
 30
0.0
  0
SPLINE
  5
2619
330
2617
100
AcDbEntity
  8
LAYER_1
 62
     7
100
AcDbSpline
210
0.0
220
0.0
230
1.0
 70
    11
 71
     3
 72
    68
 73
    64
 74
     0
 42
0.0000000001
 43
0.0000000001
 40
0.0
 40
0.0
 40
0.0
 40
0.0
 40
1.0
 40
1.0
 40
1.0
 40
2.0
 40
2.0
 40
2.0
 40
3.0
 40
3.0
 40
3.0
 40
4.0
 40
4.0
 40
4.0
 40
5.0
 40
5.0
 40
5.0
 40
6.0
 40
6.0
 40
6.0
 40
7.0
 40
7.0
 40
7.0
 40
8.0
 40
8.0
 40
8.0
 40
9.0
 40
9.0
 40
9.0
 40
10.0
 40
10.0
 40
10.0
 40
11.0
 40
11.0
 40
11.0
 40
12.0
 40
12.0
 40
12.0
 40
13.0
 40
13.0
 40
13.0
 40
14.0
 40
14.0
 40
14.0
 40
15.0
 40
15.0
 40
15.0
 40
16.0
 40
16.0
 40
16.0
 40
17.0
 40
17.0
 40
17.0
 40
18.0
 40
18.0
 40
18.0
 40
19.0
 40
19.0
 40
19.0
 40
20.0
 40
20.0
 40
20.0
 40
21.0
 40
21.0
 40
21.0
 40
21.0
 10
-3.968749999999998
 20
-10.7376736111111
 30
0.0
 10
-3.968749999999998
 20
-10.7376736111111
 30
0.0
 10
-2.645833333333333
 20
-10.7376736111111
 30
0.0
 10
-2.645833333333333
 20
-10.7376736111111
 30
0.0
 10
-2.645833333333333
 20
-10.7376736111111
 30
0.0
 10
-2.645833333333333
 20
-1.521354166666665
 30
0.0
 10
-2.645833333333333
 20
-1.521354166666665
 30
0.0
 10
-2.645833333333333
 20
-1.521354166666665
 30
0.0
 10
0.2390896267361111
 20
-1.521354166666665
 30
0.0
 10
0.2390896267361111
 20
-1.521354166666665
 30
0.0
 10
0.7599880642361111
 20
-1.521354166666665
 30
0.0
 10
1.143771701388887
 20
-1.65295681423611
 30
0.0
 10
1.390440538194444
 20
-1.916162109374999
 30
0.0
 10
1.816254340277774
 20
-2.39434136284722
 30
0.0
 10
2.04363064236111
 20
-3.335541449652775
 30
0.0
 10
2.072569444444444
 20
-4.739762369791666
 30
0.0
 10
2.072569444444444
 20
-4.739762369791666
 30
0.0
 10
2.160763888888888
 20
-8.324039713541665
 30
0.0
 10
2.160763888888888
 20
-8.324039713541665
 30
0.0
 10
2.18005642361111
 20
-9.163264973958332
 30
0.0
 10
2.202794053819443
 20
-9.728949652777775
 30
0.0
 10
2.227598741319444
 20
-10.02109374999998
 30
0.0
 10
2.252403428819443
 20
-10.31392686631944
 30
0.0
 10
2.28892144097222
 20
-10.55301649305555
 30
0.0
 10
2.33853081597222
 20
-10.7376736111111
 30
0.0
 10
2.33853081597222
 20
-10.7376736111111
 30
0.0
 10
3.968749999999998
 20
-10.7376736111111
 30
0.0
 10
3.968749999999998
 20
-10.7376736111111
 30
0.0
 10
3.968749999999998
 20
-10.7376736111111
 30
0.0
 10
3.968749999999998
 20
-10.25260416666666
 30
0.0
 10
3.968749999999998
 20
-10.25260416666666
 30
0.0
 10
3.766867404513888
 20
-10.05830078125
 30
0.0
 10
3.625618489583333
 20
-9.621462673611112
 30
0.0
 10
3.545692274305555
 20
-8.942089843749997
 30
0.0
 10
3.49470486111111
 20
-8.543836805555555
 30
0.0
 10
3.459564887152775
 20
-7.937499999999999
 30
0.0
 10
3.439583333333333
 20
-7.121701388888887
 30
0.0
 10
3.439583333333333
 20
-7.121701388888887
 30
0.0
 10
3.395486111111107
 20
-4.232644314236107
 30
0.0
 10
3.395486111111107
 20
-4.232644314236107
 30
0.0
 10
3.375504557291666
 20
-2.981385633680555
 30
0.0
 10
3.26870659722222
 20
-2.077392578125
 30
0.0
 10
3.075781249999999
 20
-1.522043185763888
 30
0.0
 10
2.882166883680555
 20
-0.9666937934027776
 30
0.0
 10
2.592089843749999
 20
-0.5188313802083333
 30
0.0
 10
2.204861111111107
 20
-0.1770779079861111
 30
0.0
 10
2.63618706597222
 20
0.3197048611111111
 30
0.0
 10
2.971739366319443
 20
0.9770290798611107
 30
0.0
 10
3.211518012152775
 20
1.79558376736111
 30
0.0
 10
3.451296657986107
 20
2.613449435763888
 30
0.0
 10
3.571874999999999
 20
3.66558159722222
 30
0.0
 10
3.571874999999999
 20
4.951291232638888
 30
0.0
 10
3.571874999999999
 20
7.415912543402777
 30
0.0
 10
3.124701605902775
 20
9.106076388888887
 30
0.0
 10
2.231043836805555
 20
10.02178276909722
 30
0.0
 10
1.759754774305553
 20
10.498583984375
 30
0.0
 10
1.163753255208332
 20
10.7376736111111
 30
0.0
 10
0.443039279513889
 20
10.7376736111111
 30
0.0
 10
0.443039279513889
 20
10.7376736111111
 30
0.0
 10
-3.968749999999998
 20
10.7376736111111
 30
0.0
 10
-3.968749999999998
 20
10.7376736111111
 30
0.0
 10
-3.968749999999998
 20
10.7376736111111
 30
0.0
 10
-3.968749999999998
 20
-10.7376736111111
 30
0.0
 10
-3.968749999999998
 20
-10.7376736111111
 30
0.0
  0
ENDBLK
  5
261B
330
2617
100
AcDbEntity
  8
0
100
AcDbBlockEnd
  0
BLOCK
  5
261F
330
261C
100
AcDbEntity
  8
0
 62
     7
100
AcDbBlockBegin
  2
AI9-BLK3
 70
     0
 10
0.0
 20
0.0
 30
0.0
  3
AI9-BLK3
  1

  0
LWPOLYLINE
  5
261D
330
261C
100
AcDbEntity
  8
LAYER_1
 62
     7
100
AcDbPolyline
 90
        4
 70
     1
 43
0.0
 10
-0.6613722059461809
 20
10.7376736111111
 10
0.6613722059461809
 20
10.7376736111111
 10
0.6613722059461809
 20
-10.7376736111111
 10
-0.6613722059461809
 20
-10.7376736111111
  0
HATCH
  5
261E
330
261C
100
AcDbEntity
  8
LAYER_1
 62
     7
100
AcDbHatch
 10
0.0
 20
0.0
 30
0.0
210
0.0
220
0.0
230
1.0
  2
SOLID
 70
     1
 71
     0
 91
        1
 92
        3
 72
     0
 73
     1
 93
        4
 10
-0.6613722059461809
 20
10.7376736111111
 10
0.6613722059461809
 20
10.7376736111111
 10
0.6613722059461809
 20
-10.7376736111111
 10
-0.6613722059461809
 20
-10.7376736111111
 97
        0
 75
     2
 76
     1
 98
        1
 10
0.0
 20
0.0
  0
ENDBLK
  5
2620
330
261C
100
AcDbEntity
  8
0
100
AcDbBlockEnd
  0
BLOCK
  5
2624
330
2621
100
AcDbEntity
  8
0
 62
     7
100
AcDbBlockBegin
  2
AI9-BLK2
 70
     0
 10
0.0
 20
0.0
 30
0.0
  3
AI9-BLK2
  1

  0
LWPOLYLINE
  5
2622
330
2621
100
AcDbEntity
  8
LAYER_1
 62
     7
100
AcDbPolyline
 90
        7
 70
     1
 43
0.0
 10
-2.785704210069443
 20
10.7376736111111
 10
0.0
 20
-7.550960286458332
 10
2.771234809027776
 20
10.7376736111111
 10
4.233333333333331
 20
10.7376736111111
 10
0.6910861545138888
 20
-10.7376736111111
 10
-0.7055555555555558
 20
-10.7376736111111
 10
-4.233333333333331
 20
10.7376736111111
  0
HATCH
  5
2623
330
2621
100
AcDbEntity
  8
LAYER_1
 62
     7
100
AcDbHatch
 10
0.0
 20
0.0
 30
0.0
210
0.0
220
0.0
230
1.0
  2
SOLID
 70
     1
 71
     0
 91
        1
 92
        3
 72
     0
 73
     1
 93
        7
 10
-2.785704210069443
 20
10.7376736111111
 10
0.0
 20
-7.550960286458332
 10
2.771234809027776
 20
10.7376736111111
 10
4.233333333333331
 20
10.7376736111111
 10
0.6910861545138888
 20
-10.7376736111111
 10
-0.7055555555555558
 20
-10.7376736111111
 10
-4.233333333333331
 20
10.7376736111111
 97
        0
 75
     2
 76
     1
 98
        1
 10
0.0
 20
0.0
  0
ENDBLK
  5
2625
330
2621
100
AcDbEntity
  8
0
100
AcDbBlockEnd
  0
BLOCK
  5
2629
330
2626
100
AcDbEntity
  8
0
 62
     7
100
AcDbBlockBegin
  2
AI9-BLK1
 70
     0
 10
0.0
 20
0.0
 30
0.0
  3
AI9-BLK1
  1

  0
LWPOLYLINE
  5
2627
330
2626
100
AcDbEntity
  8
LAYER_1
 62
     7
100
AcDbPolyline
 90
       12
 70
     1
 43
0.0
 10
-3.571874999999999
 20
10.7376736111111
 10
3.483680555555555
 20
10.7376736111111
 10
3.483680555555555
 20
8.091840277777777
 10
-2.248958333333332
 20
8.091840277777777
 10
-2.248958333333332
 20
1.565451388888888
 10
3.042708333333333
 20
1.565451388888888
 10
3.042708333333333
 20
-0.9039930555555551
 10
-2.248958333333332
 20
-0.9039930555555551
 10
-2.248958333333332
 20
-8.180034722222217
 10
3.571874999999999
 20
-8.180034722222217
 10
3.571874999999999
 20
-10.7376736111111
 10
-3.571874999999999
 20
-10.7376736111111
  0
HATCH
  5
2628
330
2626
100
AcDbEntity
  8
LAYER_1
 62
     7
100
AcDbHatch
 10
0.0
 20
0.0
 30
0.0
210
0.0
220
0.0
230
1.0
  2
SOLID
 70
     1
 71
     0
 91
        1
 92
        3
 72
     0
 73
     1
 93
       12
 10
-3.571874999999999
 20
10.7376736111111
 10
3.483680555555555
 20
10.7376736111111
 10
3.483680555555555
 20
8.091840277777777
 10
-2.248958333333332
 20
8.091840277777777
 10
-2.248958333333332
 20
1.565451388888888
 10
3.042708333333333
 20
1.565451388888888
 10
3.042708333333333
 20
-0.9039930555555551
 10
-2.248958333333332
 20
-0.9039930555555551
 10
-2.248958333333332
 20
-8.180034722222217
 10
3.571874999999999
 20
-8.180034722222217
 10
3.571874999999999
 20
-10.7376736111111
 10
-3.571874999999999
 20
-10.7376736111111
 97
        0
 75
     2
 76
     1
 98
        1
 10
0.0
 20
0.0
  0
ENDBLK
  5
262A
330
2626
100
AcDbEntity
  8
0
100
AcDbBlockEnd
  0
BLOCK
  5
264E
330
262B
100
AcDbEntity
  8
0
100
AcDbBlockBegin
  2
HD_LLC_logo_OT5
 70
     0
 10
0.0
 20
0.0
 30
0.0
  3
HD_LLC_logo_OT5
  1

  0
SPLINE
  5
262C
102
{ACAD_REACTORS
330
264C
102
}
330
262B
100
AcDbEntity
  8
LAYER_1
 62
     7
100
AcDbSpline
210
0.0
220
0.0
230
1.0
 70
    11
 71
     3
 72
   113
 73
   109
 74
     0
 42
0.0000000001
 43
0.0000000001
 40
0.0
 40
0.0
 40
0.0
 40
0.0
 40
1.0
 40
1.0
 40
1.0
 40
2.0
 40
2.0
 40
2.0
 40
3.0
 40
3.0
 40
3.0
 40
4.0
 40
4.0
 40
4.0
 40
5.0
 40
5.0
 40
5.0
 40
6.0
 40
6.0
 40
6.0
 40
7.0
 40
7.0
 40
7.0
 40
8.0
 40
8.0
 40
8.0
 40
9.0
 40
9.0
 40
9.0
 40
10.0
 40
10.0
 40
10.0
 40
11.0
 40
11.0
 40
11.0
 40
12.0
 40
12.0
 40
12.0
 40
13.0
 40
13.0
 40
13.0
 40
14.0
 40
14.0
 40
14.0
 40
15.0
 40
15.0
 40
15.0
 40
16.0
 40
16.0
 40
16.0
 40
17.0
 40
17.0
 40
17.0
 40
18.0
 40
18.0
 40
18.0
 40
19.0
 40
19.0
 40
19.0
 40
20.0
 40
20.0
 40
20.0
 40
21.0
 40
21.0
 40
21.0
 40
22.0
 40
22.0
 40
22.0
 40
23.0
 40
23.0
 40
23.0
 40
24.0
 40
24.0
 40
24.0
 40
25.0
 40
25.0
 40
25.0
 40
26.0
 40
26.0
 40
26.0
 40
27.0
 40
27.0
 40
27.0
 40
28.0
 40
28.0
 40
28.0
 40
29.0
 40
29.0
 40
29.0
 40
30.0
 40
30.0
 40
30.0
 40
31.0
 40
31.0
 40
31.0
 40
32.0
 40
32.0
 40
32.0
 40
33.0
 40
33.0
 40
33.0
 40
34.0
 40
34.0
 40
34.0
 40
35.0
 40
35.0
 40
35.0
 40
36.0
 40
36.0
 40
36.0
 40
36.0
 10
193.3039632161458
 20
186.1548733181423
 30
0.0
 10
193.3039632161458
 20
186.1860514322916
 30
0.0
 10
193.3039632161458
 20
219.6932223849826
 30
0.0
 10
193.3039632161458
 20
219.6932223849826
 30
0.0
 10
193.3039632161458
 20
219.6932223849826
 30
0.0
 10
193.2974175347219
 20
219.7488606770833
 30
0.0
 10
193.2974175347219
 20
219.7488606770833
 30
0.0
 10
191.5293945312499
 20
235.455740017361
 30
0.0
 10
175.1458984374999
 20
235.2467949761284
 30
0.0
 10
174.9808783637151
 20
235.2428331163193
 30
0.0
 10
174.9808783637151
 20
235.2428331163193
 30
0.0
 10
125.8827555338541
 20
235.2430053710937
 30
0.0
 10
125.8827555338541
 20
235.2430053710937
 30
0.0
 10
125.8827555338541
 20
235.2430053710937
 30
0.0
 10
125.8827555338541
 20
255.5278998480901
 30
0.0
 10
125.8827555338541
 20
255.5278998480901
 30
0.0
 10
125.8827555338541
 20
255.5278998480901
 30
0.0
 10
84.5626247829861
 20
255.5278998480901
 30
0.0
 10
84.5626247829861
 20
255.5278998480901
 30
0.0
 10
84.5626247829861
 20
255.5278998480901
 30
0.0
 10
84.55711263020829
 20
233.7919311523436
 30
0.0
 10
84.55711263020829
 20
233.7919311523436
 30
0.0
 10
84.55711263020829
 20
233.7919311523436
 30
0.0
 10
64.42052951388888
 20
233.7919311523436
 30
0.0
 10
64.42052951388888
 20
233.7919311523436
 30
0.0
 10
64.42052951388888
 20
233.7919311523436
 30
0.0
 10
64.41501736111111
 20
255.5278998480901
 30
0.0
 10
64.41501736111111
 20
255.5278998480901
 30
0.0
 10
64.41501736111111
 20
255.5278998480901
 30
0.0
 10
23.91757541232637
 20
255.5278998480901
 30
0.0
 10
23.91757541232637
 20
255.5278998480901
 30
0.0
 10
23.91757541232637
 20
255.5278998480901
 30
0.0
 10
23.91757541232637
 20
233.2393378363715
 30
0.0
 10
23.91757541232637
 20
233.2393378363715
 30
0.0
 10
23.91757541232637
 20
233.2393378363715
 30
0.0
 10
43.65624999999999
 20
233.2393378363715
 30
0.0
 10
43.65624999999999
 20
233.2393378363715
 30
0.0
 10
43.65624999999999
 20
233.2393378363715
 30
0.0
 10
43.65624999999999
 20
211.5188720703125
 30
0.0
 10
43.65624999999999
 20
211.5188720703125
 30
0.0
 10
43.65624999999999
 20
211.5188720703125
 30
0.0
 10
23.91757541232637
 20
211.5188720703125
 30
0.0
 10
23.91757541232637
 20
211.5188720703125
 30
0.0
 10
23.91757541232637
 20
211.5188720703125
 30
0.0
 10
23.91757541232637
 20
189.2303100585936
 30
0.0
 10
23.91757541232637
 20
189.2303100585936
 30
0.0
 10
23.91757541232637
 20
189.2303100585936
 30
0.0
 10
64.41501736111111
 20
189.2303100585936
 30
0.0
 10
64.41501736111111
 20
189.2303100585936
 30
0.0
 10
64.41501736111111
 20
189.2303100585936
 30
0.0
 10
64.42052951388888
 20
211.069976128472
 30
0.0
 10
64.42052951388888
 20
211.069976128472
 30
0.0
 10
64.42052951388888
 20
211.069976128472
 30
0.0
 10
84.55711263020829
 20
211.069976128472
 30
0.0
 10
84.55711263020829
 20
211.069976128472
 30
0.0
 10
84.55711263020829
 20
211.069976128472
 30
0.0
 10
84.5626247829861
 20
189.2303100585936
 30
0.0
 10
84.5626247829861
 20
189.2303100585936
 30
0.0
 10
84.5626247829861
 20
189.2303100585936
 30
0.0
 10
125.8827555338541
 20
189.2303100585936
 30
0.0
 10
125.8827555338541
 20
189.2303100585936
 30
0.0
 10
125.8827555338541
 20
189.2303100585936
 30
0.0
 10
125.8827555338541
 20
211.5188720703125
 30
0.0
 10
125.8827555338541
 20
211.5188720703125
 30
0.0
 10
125.8827555338541
 20
211.5188720703125
 30
0.0
 10
105.3213921440971
 20
211.5188720703125
 30
0.0
 10
105.3213921440971
 20
211.5188720703125
 30
0.0
 10
105.3213921440971
 20
211.5188720703125
 30
0.0
 10
105.3213921440971
 20
233.2393378363715
 30
0.0
 10
105.3213921440971
 20
233.2393378363715
 30
0.0
 10
105.3213921440971
 20
233.2393378363715
 30
0.0
 10
175.0046495225693
 20
233.243127441406
 30
0.0
 10
175.0046495225693
 20
233.243127441406
 30
0.0
 10
175.6268337673611
 20
233.2560465494791
 30
0.0
 10
189.7165852864583
 20
233.3962619357638
 30
0.0
 10
191.3037407769094
 20
219.5690266927083
 30
0.0
 10
191.3037407769094
 20
219.4332899305555
 30
0.0
 10
191.3037407769094
 20
186.1142211914062
 30
0.0
 10
191.3037407769094
 20
186.1142211914062
 30
0.0
 10
191.3037407769094
 20
186.1142211914062
 30
0.0
 10
191.3051188151039
 20
186.0880384657115
 30
0.0
 10
191.3051188151039
 20
186.0880384657115
 30
0.0
 10
191.3054633246526
 20
186.0787367078991
 30
0.0
 10
191.3109754774304
 20
185.9566080729166
 30
0.0
 10
191.3109754774304
 20
185.7399115668401
 30
0.0
 10
191.3109754774304
 20
184.2090833875865
 30
0.0
 10
191.0488037109374
 20
177.9643310546874
 30
0.0
 10
186.9866916232638
 20
173.5652886284722
 30
0.0
 10
184.2540418836804
 20
170.6064683702255
 30
0.0
 10
180.3224989149304
 20
169.0308539496526
 30
0.0
 10
175.300927734375
 20
168.8825425889756
 30
0.0
 10
175.300927734375
 20
168.8825425889756
 30
0.0
 10
107.0094889322916
 20
168.8828870985243
 30
0.0
 10
107.0094889322916
 20
168.8828870985243
 30
0.0
 10
107.0094889322916
 20
168.8828870985243
 30
0.0
 10
107.0094889322916
 20
166.8830091688368
 30
0.0
 10
107.0094889322916
 20
166.8830091688368
 30
0.0
 10
107.0094889322916
 20
166.8830091688368
 30
0.0
 10
175.3305555555555
 20
166.8830091688368
 30
0.0
 10
175.3305555555555
 20
166.8830091688368
 30
0.0
 10
180.9467502170138
 20
167.0485460069444
 30
0.0
 10
185.3571614583333
 20
168.8448187934026
 30
0.0
 10
188.4687717013888
 20
172.2223904079861
 30
0.0
 10
192.9649658203124
 20
177.1034016927083
 30
0.0
 10
193.3136094835069
 20
183.7202243381076
 30
0.0
 10
193.3136094835069
 20
185.6520616319443
 30
0.0
 10
193.3136094835069
 20
185.9247409396701
 30
0.0
 10
193.3070638020833
 20
186.0868326822916
 30
0.0
 10
193.3039632161458
 20
186.1548733181423
 30
0.0
  0
INSERT
  5
262D
102
{ACAD_REACTORS
330
264D
102
}
330
262B
100
AcDbEntity
  8
LAYER_1
 62
     7
100
AcDbBlockReference
  2
AI9-BLK14
 10
159.5625257703993
 20
200.5118781195744
 30
0.0
  0
INSERT
  5
262E
330
262B
100
AcDbEntity
  8
LAYER_1
 62
     7
100
AcDbBlockReference
  2
AI9-BLK13
 10
27.69615614149305
 20
179.2145562065971
 30
0.0
 42
0.9200000000000001
  0
INSERT
  5
262F
102
{ACAD_REACTORS
330
263A
102
}
330
262B
100
AcDbEntity
  8
LAYER_1
 62
     7
100
AcDbBlockReference
  2
AI9-BLK11
 10
44.76591525607638
 20
179.2145562065971
 30
0.0
 42
0.9200000000000001
  0
INSERT
  5
2630
102
{ACAD_REACTORS
330
2648
102
}
330
262B
100
AcDbEntity
  8
LAYER_1
 62
     7
100
AcDbBlockReference
  2
AI9-BLK10
 10
54.04665798611111
 20
179.2145562065971
 30
0.0
 42
0.9200000000000001
  0
INSERT
  5
2631
102
{ACAD_REACTORS
330
2647
102
}
330
262B
100
AcDbEntity
  8
LAYER_1
 62
     7
100
AcDbBlockReference
  2
AI9-BLK9
 10
62.79013807508679
 20
179.2145562065971
 30
0.0
 42
0.9
  0
INSERT
  5
2632
330
262B
100
AcDbEntity
  8
LAYER_1
 62
     7
100
AcDbBlockReference
  2
AI9-BLK8
 10
71.03046196831595
 20
179.2145562065971
 30
0.0
 42
0.9200000000000001
  0
INSERT
  5
2633
330
262B
100
AcDbEntity
  8
LAYER_1
 62
     7
100
AcDbBlockReference
  2
AI9-BLK7
 10
76.93793945312498
 20
179.2145562065971
 30
0.0
 42
0.9200000000000001
  0
INSERT
  5
2634
102
{ACAD_REACTORS
330
263B
102
}
330
262B
100
AcDbEntity
  8
LAYER_1
 62
     7
100
AcDbBlockReference
  2
AI9-BLK6
 10
82.55602891710069
 20
179.2145562065971
 30
0.0
 42
0.9
  0
INSERT
  5
2635
102
{ACAD_REACTORS
330
2649
102
}
330
262B
100
AcDbEntity
  8
LAYER_1
 62
     7
100
AcDbBlockReference
  2
AI9-BLK5
 10
94.32430284288193
 20
179.2145562065971
 30
0.0
 42
0.9200000000000001
  0
INSERT
  5
2636
102
{ACAD_REACTORS
330
264A
102
}
330
262B
100
AcDbEntity
  8
LAYER_1
 62
     7
100
AcDbBlockReference
  2
AI9-BLK4
 10
103.2081705729166
 20
179.2145562065971
 30
0.0
 42
0.9200000000000001
  0
INSERT
  5
2637
330
262B
100
AcDbEntity
  8
LAYER_1
 62
     7
100
AcDbBlockReference
  2
AI9-BLK3
 10
108.850978597005
 20
179.2145562065971
 30
0.0
 42
0.9200000000000001
  0
INSERT
  5
2638
330
262B
100
AcDbEntity
  8
LAYER_1
 62
     7
100
AcDbBlockReference
  2
AI9-BLK2
 10
114.2045708550346
 20
179.2145562065971
 30
0.0
 42
0.9200000000000001
  0
INSERT
  5
2639
330
262B
100
AcDbEntity
  8
LAYER_1
 62
     7
100
AcDbBlockReference
  2
AI9-BLK1
 10
122.4125108506944
 20
179.2145562065971
 30
0.0
 42
0.9200000000000001
  0
HATCH
  5
263A
330
262B
100
AcDbEntity
  8
0
  6
Continuous
100
AcDbHatch
 10
0.0
 20
0.0
 30
0.0
210
0.0
220
0.0
230
1.0
  2
SOLID
 70
     1
 71
     1
 91
        2
 92
       16
 93
        1
 72
     4
 94
        3
 73
     0
 74
     0
 95
       26
 96
       22
 40
0.0
 40
0.0
 40
0.0
 40
0.0
 40
1.0
 40
1.0
 40
1.0
 40
2.0
 40
2.0
 40
2.0
 40
3.0
 40
3.0
 40
3.0
 40
4.0
 40
4.0
 40
4.0
 40
5.0
 40
5.0
 40
5.0
 40
6.0
 40
6.0
 40
6.0
 40
7.0
 40
7.0
 40
7.0
 40
7.0
 10
42.12008192274304
 20
180.0462298177081
 10
42.12008192274304
 20
180.0462298177081
 10
42.12008192274304
 20
186.7401881510414
 10
42.12008192274304
 20
186.7401881510414
 10
42.12008192274304
 20
186.7401881510414
 10
45.23100314670138
 20
186.7401881510414
 10
45.23100314670138
 20
186.7401881510414
 10
45.66853027343749
 20
186.7401881510414
 10
46.01579589843749
 20
186.6064357638887
 10
46.27280002170138
 20
186.3401987847219
 10
46.76751573350694
 20
185.8330807291664
 10
47.01487358940972
 20
184.8822343749997
 10
47.01487358940972
 20
183.4863919270832
 10
47.01487358940972
 20
182.188169704861
 10
46.83848470052082
 20
181.2905707465276
 10
46.48639594184028
 20
180.7929611545137
 10
46.13430718315971
 20
180.2947176649304
 10
45.65888400607638
 20
180.0462298177081
 10
45.06012641059028
 20
180.0462298177081
 10
45.06012641059028
 20
180.0462298177081
 10
42.12008192274304
 20
180.0462298177081
 10
42.12008192274304
 20
180.0462298177081
 97
        1
330
262F
 92
        1
 93
        1
 72
     4
 94
        3
 73
     0
 74
     0
 95
       68
 96
       64
 40
0.0
 40
0.0
 40
0.0
 40
0.0
 40
1.0
 40
1.0
 40
1.0
 40
2.0
 40
2.0
 40
2.0
 40
3.0
 40
3.0
 40
3.0
 40
4.0
 40
4.0
 40
4.0
 40
5.0
 40
5.0
 40
5.0
 40
6.0
 40
6.0
 40
6.0
 40
7.0
 40
7.0
 40
7.0
 40
8.0
 40
8.0
 40
8.0
 40
9.0
 40
9.0
 40
9.0
 40
10.0
 40
10.0
 40
10.0
 40
11.0
 40
11.0
 40
11.0
 40
12.0
 40
12.0
 40
12.0
 40
13.0
 40
13.0
 40
13.0
 40
14.0
 40
14.0
 40
14.0
 40
15.0
 40
15.0
 40
15.0
 40
16.0
 40
16.0
 40
16.0
 40
17.0
 40
17.0
 40
17.0
 40
18.0
 40
18.0
 40
18.0
 40
19.0
 40
19.0
 40
19.0
 40
20.0
 40
20.0
 40
20.0
 40
21.0
 40
21.0
 40
21.0
 40
21.0
 10
40.79716525607638
 20
169.3358964843748
 10
40.79716525607638
 20
169.3358964843748
 10
42.12008192274304
 20
169.3358964843748
 10
42.12008192274304
 20
169.3358964843748
 10
42.12008192274304
 20
169.3358964843748
 10
42.12008192274304
 20
177.8149103732637
 10
42.12008192274304
 20
177.8149103732637
 10
42.12008192274304
 20
177.8149103732637
 10
45.00500488281249
 20
177.8149103732637
 10
45.00500488281249
 20
177.8149103732637
 10
45.52590332031249
 20
177.8149103732637
 10
45.90968695746528
 20
177.6938359374998
 10
46.15635579427083
 20
177.451687065972
 10
46.58216959635415
 20
177.0117621527776
 10
46.80954589843749
 20
176.1458580729164
 10
46.83848470052082
 20
174.8539748263887
 10
46.83848470052082
 20
174.8539748263887
 10
46.92667914496527
 20
171.5564396701386
 10
46.92667914496527
 20
171.5564396701386
 10
46.94597167968749
 20
170.7843524305554
 10
46.96870930989581
 20
170.2639225260415
 10
46.99351399739582
 20
169.9951499565971
 10
47.01831868489581
 20
169.7257434895831
 10
47.0548366970486
 20
169.5057810329859
 10
47.10444607204859
 20
169.3358964843748
 10
47.10444607204859
 20
169.3358964843748
 10
48.73466525607638
 20
169.3358964843748
 10
48.73466525607638
 20
169.3358964843748
 10
48.73466525607638
 20
169.3358964843748
 10
48.73466525607638
 20
169.7821603732636
 10
48.73466525607638
 20
169.7821603732636
 10
48.53278266059028
 20
169.9609194878471
 10
48.39153374565971
 20
170.3628105468748
 10
48.31160753038194
 20
170.9878335503471
 10
48.26062011718749
 20
171.3542263454858
 10
48.22548014322915
 20
171.9120562065971
 10
48.20549858940971
 20
172.6625909288193
 10
48.20549858940971
 20
172.6625909288193
 10
48.16140136718749
 20
175.3205234374999
 10
48.16140136718749
 20
175.3205234374999
 10
48.14141981336803
 20
176.4716814236109
 10
48.03462185329859
 20
177.3033550347219
 10
47.84169650607638
 20
177.8142764756942
 10
47.64808213975693
 20
178.3251979166665
 10
47.35800509982638
 20
178.7372313368054
 10
46.97077636718749
 20
179.0516445312498
 10
47.4021023220486
 20
179.5086846788193
 10
47.73765462239582
 20
180.1134229600693
 10
47.97743326822915
 20
180.8664932725692
 10
48.21721191406249
 20
181.6189296874999
 10
48.33779025607638
 20
182.5868912760414
 10
48.33779025607638
 20
183.7697441406248
 10
48.33779025607638
 20
186.0371957465275
 10
47.89061686197916
 20
187.5921464843749
 10
46.99695909288194
 20
188.4345963541665
 10
46.52567003038194
 20
188.8732534722221
 10
45.92966851128472
 20
189.0932159288193
 10
45.20895453559027
 20
189.0932159288193
 10
45.20895453559027
 20
189.0932159288193
 10
40.79716525607638
 20
189.0932159288193
 10
40.79716525607638
 20
189.0932159288193
 10
40.79716525607638
 20
189.0932159288193
 10
40.79716525607638
 20
169.3358964843748
 10
40.79716525607638
 20
169.3358964843748
 97
        0
 75
     0
 76
     1
 98
        0
  0
HATCH
  5
263B
330
262B
100
AcDbEntity
  8
0
  6
Continuous
100
AcDbHatch
 10
0.0
 20
0.0
 30
0.0
210
0.0
220
0.0
230
1.0
  2
SOLID
 70
     1
 71
     1
 91
        1
 92
        1
 93
        1
 72
     4
 94
        3
 73
     0
 74
     0
 95
       59
 96
       55
 40
0.0
 40
0.0
 40
0.0
 40
0.0
 40
1.0
 40
1.0
 40
1.0
 40
2.0
 40
2.0
 40
2.0
 40
3.0
 40
3.0
 40
3.0
 40
4.0
 40
4.0
 40
4.0
 40
5.0
 40
5.0
 40
5.0
 40
6.0
 40
6.0
 40
6.0
 40
7.0
 40
7.0
 40
7.0
 40
8.0
 40
8.0
 40
8.0
 40
9.0
 40
9.0
 40
9.0
 40
10.0
 40
10.0
 40
10.0
 40
11.0
 40
11.0
 40
11.0
 40
12.0
 40
12.0
 40
12.0
 40
13.0
 40
13.0
 40
13.0
 40
14.0
 40
14.0
 40
14.0
 40
15.0
 40
15.0
 40
15.0
 40
16.0
 40
16.0
 40
16.0
 40
17.0
 40
17.0
 40
17.0
 40
18.0
 40
18.0
 40
18.0
 40
18.0
 10
85.61871880425345
 20
187.4658355034721
 10
86.29120144314233
 20
186.1797124565971
 10
86.66671685112847
 20
184.7193364800346
 10
86.7452650282118
 20
183.0840874565969
 10
86.7452650282118
 20
183.0840874565969
 10
85.42234836154511
 20
183.0840874565969
 10
85.42234836154511
 20
183.0840874565969
 10
85.27696533203123
 20
184.315640190972
 10
84.99171142578125
 20
185.2917046440971
 10
84.56589762369791
 20
186.0122808159719
 10
84.14008382161458
 20
186.7322368706595
 10
83.53994818793401
 20
187.092524956597
 10
82.76617974175344
 20
187.092524956597
 10
81.81740044487847
 20
187.092524956597
 10
81.05258924696178
 20
186.4240386284721
 10
80.47243516710068
 20
185.0883062065971
 10
79.89159206814234
 20
183.7525737847219
 10
79.6015150282118
 20
181.7049468315971
 10
79.6015150282118
 20
178.9454253472221
 10
79.6015150282118
 20
176.684478081597
 10
79.86265326605901
 20
174.8514116753471
 10
80.38561876085069
 20
173.4456060112846
 10
80.90789523654512
 20
172.0391802300345
 10
81.69199896918403
 20
171.3365874565971
 10
82.73724093967013
 20
171.3365874565971
 10
83.69497748480901
 20
171.3365874565971
 10
84.42120361328125
 20
172.0794878472221
 10
84.91523030598958
 20
173.566528862847
 10
85.18601481119791
 20
174.349116753472
 10
85.38445231119791
 20
175.3785112847221
 10
85.51054280598959
 20
176.6547124565971
 10
85.51054280598959
 20
176.6547124565971
 10
86.83345947265625
 20
176.6547124565971
 10
86.83345947265625
 20
176.6547124565971
 10
86.72597249348957
 20
174.6157671440971
 10
86.35114610460069
 20
172.9061040581596
 10
85.70760226779514
 20
171.526343315972
 10
84.93727891710069
 20
169.8650493706596
 10
83.90375027126735
 20
169.0347124565971
 10
82.60701633029514
 20
169.0347124565971
 10
81.48598225911458
 20
169.0347124565971
 10
80.54547119140625
 20
169.7143608940971
 10
79.78479410807292
 20
171.0742778862845
 10
78.78020426432292
 20
172.8726177300345
 10
78.27859836154512
 20
175.6495024956596
 10
78.27859836154512
 20
179.4049321831595
 10
78.27859836154512
 20
182.2562310112846
 10
78.65342475043402
 20
184.594692925347
 10
79.40445556640622
 20
186.4196978081596
 10
80.22301025390625
 20
188.4028325737846
 10
81.34955647786458
 20
189.3943999565971
 10
82.78271620008679
 20
189.3943999565971
 10
84.00090196397568
 20
189.3943999565971
 10
84.94623616536458
 20
188.7513384331595
 10
85.61871880425345
 20
187.4658355034721
 97
        1
330
2634
 75
     0
 76
     1
 98
        1
 10
0.0
 20
0.0
  0
LINE
  5
263C
102
{ACAD_REACTORS
330
264B
102
}
330
262B
100
AcDbEntity
  8
LAYER_1
 62
     7
100
AcDbLine
 10
34.65766059027778
 20
177.4497853732638
 30
0.0
 11
36.19830729166666
 21
186.1658769531249
 31
0.0
  0
LINE
  5
263D
102
{ACAD_REACTORS
330
264B
102
}
330
262B
100
AcDbEntity
  8
LAYER_1
 62
     7
100
AcDbLine
 10
36.19830729166666
 20
186.1658769531249
 30
0.0
 11
37.67556423611111
 21
177.4497853732638
 31
0.0
  0
LINE
  5
263E
102
{ACAD_REACTORS
330
264B
102
}
330
262B
100
AcDbEntity
  8
LAYER_1
 62
     7
100
AcDbLine
 10
37.67556423611111
 20
177.4497853732638
 30
0.0
 11
34.65766059027778
 21
177.4497853732638
 31
0.0
  0
LINE
  5
263F
102
{ACAD_REACTORS
330
264B
102
}
330
262B
100
AcDbEntity
  8
LAYER_1
 62
     7
100
AcDbLine
 10
31.83957248263888
 20
169.3358964843748
 30
0.0
 11
33.22450086805555
 21
169.3358964843748
 31
0.0
  0
LINE
  5
2640
102
{ACAD_REACTORS
330
264B
102
}
330
262B
100
AcDbEntity
  8
LAYER_1
 62
     7
100
AcDbLine
 10
33.22450086805555
 20
169.3358964843748
 30
0.0
 11
34.27043185763887
 21
175.2590353732638
 31
0.0
  0
LINE
  5
2641
102
{ACAD_REACTORS
330
264B
102
}
330
262B
100
AcDbEntity
  8
LAYER_1
 62
     7
100
AcDbLine
 10
34.27043185763887
 20
175.2590353732638
 30
0.0
 11
38.04694552951389
 21
175.2590353732638
 31
0.0
  0
LINE
  5
2642
102
{ACAD_REACTORS
330
264B
102
}
330
262B
100
AcDbEntity
  8
LAYER_1
 62
     7
100
AcDbLine
 10
38.04694552951389
 20
175.2590353732638
 30
0.0
 11
39.05015733506942
 21
169.3358964843748
 31
0.0
  0
LINE
  5
2643
102
{ACAD_REACTORS
330
264B
102
}
330
262B
100
AcDbEntity
  8
LAYER_1
 62
     7
100
AcDbLine
 10
39.05015733506942
 20
169.3358964843748
 30
0.0
 11
40.43508572048611
 21
169.3358964843748
 31
0.0
  0
LINE
  5
2644
102
{ACAD_REACTORS
330
264B
102
}
330
262B
100
AcDbEntity
  8
LAYER_1
 62
     7
100
AcDbLine
 10
40.43508572048611
 20
169.3358964843748
 30
0.0
 11
36.952783203125
 21
189.0932159288193
 31
0.0
  0
LINE
  5
2645
102
{ACAD_REACTORS
330
264B
102
}
330
262B
100
AcDbEntity
  8
LAYER_1
 62
     7
100
AcDbLine
 10
36.952783203125
 20
189.0932159288193
 30
0.0
 11
35.47828233506943
 21
189.0932159288193
 31
0.0
  0
LINE
  5
2646
102
{ACAD_REACTORS
330
264B
102
}
330
262B
100
AcDbEntity
  8
LAYER_1
 62
     7
100
AcDbLine
 10
35.47828233506943
 20
189.0932159288193
 30
0.0
 11
31.83957248263888
 21
169.3358964843748
 31
0.0
  0
HATCH
  5
2647
330
262B
100
AcDbEntity
  8
0
  6
Continuous
100
AcDbHatch
 10
0.0
 20
0.0
 30
0.0
210
0.0
220
0.0
230
1.0
  2
SOLID
 70
     1
 71
     1
 91
        2
 92
       16
 93
        1
 72
     4
 94
        3
 73
     0
 74
     0
 95
       29
 96
       25
 40
0.0
 40
0.0
 40
0.0
 40
0.0
 40
1.0
 40
1.0
 40
1.0
 40
2.0
 40
2.0
 40
2.0
 40
3.0
 40
3.0
 40
3.0
 40
4.0
 40
4.0
 40
4.0
 40
5.0
 40
5.0
 40
5.0
 40
6.0
 40
6.0
 40
6.0
 40
7.0
 40
7.0
 40
7.0
 40
8.0
 40
8.0
 40
8.0
 40
8.0
 10
62.85697292751734
 20
171.3365874565971
 10
61.88338894314235
 20
171.3365874565971
 10
61.18058946397566
 20
172.0714263237844
 10
60.74857449001735
 20
173.5411040581595
 10
60.31587049696178
 20
175.0107817925344
 10
60.10020751953123
 20
176.8165630425344
 10
60.10020751953123
 20
178.9578276909721
 10
60.10020751953123
 20
181.6342534722221
 10
60.35101047092013
 20
183.6589360894095
 10
60.85261637369789
 20
185.032495659722
 10
61.35422227647566
 20
186.4054351128471
 10
62.00741238064235
 20
187.092524956597
 10
62.81218668619789
 20
187.092524956597
 10
63.6369425455729
 20
187.092524956597
 10
64.28806559244789
 20
186.3992339409721
 10
64.76486680772568
 20
185.0126519097221
 10
65.24166802300347
 20
183.6260698784719
 10
65.48006863064235
 20
181.7961040581595
 10
65.48006863064235
 20
179.5239946831596
 10
65.48006863064235
 20
177.3734282769096
 10
65.27336290147568
 20
175.471528862847
 10
64.86132948133678
 20
173.8176763237846
 10
64.4492960611979
 20
172.1632036675345
 10
63.78094753689235
 20
171.3365874565971
 10
62.85697292751734
 20
171.3365874565971
 97
        1
330
2631
 92
        1
 93
        1
 72
     4
 94
        3
 73
     0
 74
     0
 95
       29
 96
       25
 40
0.0
 40
0.0
 40
0.0
 40
0.0
 40
1.0
 40
1.0
 40
1.0
 40
2.0
 40
2.0
 40
2.0
 40
3.0
 40
3.0
 40
3.0
 40
4.0
 40
4.0
 40
4.0
 40
5.0
 40
5.0
 40
5.0
 40
6.0
 40
6.0
 40
6.0
 40
7.0
 40
7.0
 40
7.0
 40
8.0
 40
8.0
 40
8.0
 40
8.0
 10
62.76119927300346
 20
189.4340874565971
 10
61.47273356119789
 20
189.4340874565971
 10
60.50121663411457
 20
188.239741753472
 10
59.84733751085068
 20
185.8516704644094
 10
59.3395304361979
 20
183.9900786675345
 10
59.08597140842012
 20
181.7514556206596
 10
59.08597140842012
 20
179.1351812065971
 10
59.08597140842012
 20
176.2379937065971
 10
59.38362765842011
 20
173.8412407769095
 10
59.97894015842011
 20
171.9449224175346
 10
60.64246554904511
 20
169.9779106987846
 10
61.56023898654511
 20
168.9950249565971
 10
62.7315714518229
 20
168.9950249565971
 10
63.9904093424479
 20
168.9950249565971
 10
64.95641411675345
 20
170.118677300347
 10
65.63027479383679
 20
172.3659819878471
 10
66.20629475911457
 20
174.279663628472
 10
66.49430474175345
 20
176.6813774956594
 10
66.49430474175345
 20
179.5698833550345
 10
66.49430474175345
 20
182.2388677300344
 10
66.24005669487845
 20
184.4291216362844
 10
65.73293863932289
 20
186.141265190972
 10
65.08870578342011
 20
188.336480034722
 10
64.09789632161457
 20
189.4340874565971
 10
62.76119927300346
 20
189.4340874565971
 97
        0
 75
     0
 76
     1
 98
        0
  0
HATCH
  5
2648
330
262B
100
AcDbEntity
  8
0
  6
Continuous
100
AcDbHatch
 10
0.0
 20
0.0
 30
0.0
210
0.0
220
0.0
230
1.0
  2
SOLID
 70
     1
 71
     1
 91
        1
 92
        1
 93
        1
 72
     4
 94
        3
 73
     0
 74
     0
 95
       59
 96
       55
 40
0.0
 40
0.0
 40
0.0
 40
0.0
 40
1.0
 40
1.0
 40
1.0
 40
2.0
 40
2.0
 40
2.0
 40
3.0
 40
3.0
 40
3.0
 40
4.0
 40
4.0
 40
4.0
 40
5.0
 40
5.0
 40
5.0
 40
6.0
 40
6.0
 40
6.0
 40
7.0
 40
7.0
 40
7.0
 40
8.0
 40
8.0
 40
8.0
 40
9.0
 40
9.0
 40
9.0
 40
10.0
 40
10.0
 40
10.0
 40
11.0
 40
11.0
 40
11.0
 40
12.0
 40
12.0
 40
12.0
 40
13.0
 40
13.0
 40
13.0
 40
14.0
 40
14.0
 40
14.0
 40
15.0
 40
15.0
 40
15.0
 40
16.0
 40
16.0
 40
16.0
 40
17.0
 40
17.0
 40
17.0
 40
18.0
 40
18.0
 40
18.0
 40
18.0
 10
49.39440104166666
 20
189.0932159288193
 10
49.39440104166666
 20
189.0932159288193
 10
51.24786241319444
 20
189.0932159288193
 10
51.24786241319444
 20
189.0932159288193
 10
51.24786241319444
 20
189.0932159288193
 10
54.04665798611111
 20
172.3887471788193
 10
54.04665798611111
 20
172.3887471788193
 10
54.04665798611111
 20
172.3887471788193
 10
56.83994140624999
 20
189.0932159288193
 10
56.83994140624999
 20
189.0932159288193
 10
56.83994140624999
 20
189.0932159288193
 10
58.69891493055554
 20
189.0932159288193
 10
58.69891493055554
 20
189.0932159288193
 10
58.69891493055554
 20
189.0932159288193
 10
58.69891493055554
 20
169.3358964843748
 10
58.69891493055554
 20
169.3358964843748
 10
58.69891493055554
 20
169.3358964843748
 10
57.46419270833333
 20
169.3358964843748
 10
57.46419270833333
 20
169.3358964843748
 10
57.46419270833333
 20
169.3358964843748
 10
57.46419270833333
 20
180.9964422743054
 10
57.46419270833333
 20
180.9964422743054
 10
57.46419270833333
 20
181.3996011284721
 10
57.47108289930555
 20
182.0677291666664
 10
57.48624131944444
 20
183.0001924913193
 10
57.50071072048609
 20
183.9326558159721
 10
57.50828993055554
 20
184.932312282986
 10
57.50828993055554
 20
185.9997957899304
 10
57.50828993055554
 20
185.9997957899304
 10
54.700537109375
 20
169.3358964843748
 10
54.700537109375
 20
169.3358964843748
 10
54.700537109375
 20
169.3358964843748
 10
53.38382161458333
 20
169.3358964843748
 10
53.38382161458333
 20
169.3358964843748
 10
53.38382161458333
 20
169.3358964843748
 10
50.58502604166665
 20
185.9997957899304
 10
50.58502604166665
 20
185.9997957899304
 10
50.58502604166665
 20
185.9997957899304
 10
50.58502604166665
 20
185.3944236111109
 10
50.58502604166665
 20
185.3944236111109
 10
50.58502604166665
 20
184.9101258680554
 10
50.59191623263888
 20
184.1729029947915
 10
50.60707465277777
 20
183.1821210937498
 10
50.62154405381943
 20
182.1913391927082
 10
50.62912326388889
 20
181.4629908854165
 10
50.62912326388889
 20
180.9964422743054
 10
50.62912326388889
 20
180.9964422743054
 10
50.62912326388889
 20
169.3358964843748
 10
50.62912326388889
 20
169.3358964843748
 10
50.62912326388889
 20
169.3358964843748
 10
49.39440104166666
 20
169.3358964843748
 10
49.39440104166666
 20
169.3358964843748
 10
49.39440104166666
 20
169.3358964843748
 10
49.39440104166666
 20
189.0932159288193
 10
49.39440104166666
 20
189.0932159288193
 97
        1
330
2630
 75
     0
 76
     1
 98
        1
 10
0.0
 20
0.0
  0
HATCH
  5
2649
330
262B
100
AcDbEntity
  8
0
  6
Continuous
100
AcDbHatch
 10
0.0
 20
0.0
 30
0.0
210
0.0
220
0.0
230
1.0
  2
SOLID
 70
     1
 71
     1
 91
        2
 92
       16
 93
        1
 72
     4
 94
        3
 73
     0
 74
     0
 95
       32
 96
       28
 40
0.0
 40
0.0
 40
0.0
 40
0.0
 40
1.0
 40
1.0
 40
1.0
 40
2.0
 40
2.0
 40
2.0
 40
3.0
 40
3.0
 40
3.0
 40
4.0
 40
4.0
 40
4.0
 40
5.0
 40
5.0
 40
5.0
 40
6.0
 40
6.0
 40
6.0
 40
7.0
 40
7.0
 40
7.0
 40
8.0
 40
8.0
 40
8.0
 40
9.0
 40
9.0
 40
9.0
 40
9.0
 10
91.70051812065969
 20
171.6077853732636
 10
91.70051812065969
 20
171.6077853732636
 10
91.70051812065969
 20
186.7401881510414
 10
91.70051812065969
 20
186.7401881510414
 10
91.70051812065969
 20
186.7401881510414
 10
93.98668348524305
 20
186.7401881510414
 10
93.98668348524305
 20
186.7401881510414
 10
95.02159016927082
 20
186.7401881510414
 10
95.77331000434028
 20
186.0644533420137
 10
96.24322102864582
 20
184.7142515190969
 10
96.71313205295138
 20
183.3640496961804
 10
96.94808756510417
 20
181.4680620659721
 10
96.94808756510417
 20
179.026288628472
 10
96.94808756510417
 20
178.3911232638887
 10
96.91432562934028
 20
177.7027105034721
 10
96.84749077690971
 20
176.9604164496525
 10
96.7324245876736
 20
175.7167094184025
 10
96.55052354600693
 20
174.6974021267359
 10
96.30109863281248
 20
173.9018606770831
 10
95.98414984809028
 20
172.9091770833332
 10
95.57693956163193
 20
172.2378795572914
 10
95.07877875434026
 20
171.8892358940971
 10
94.79076877170138
 20
171.7016022135415
 10
94.43178982204859
 20
171.6077853732636
 10
94.00115288628471
 20
171.6077853732636
 10
94.00115288628471
 20
171.6077853732636
 10
91.70051812065969
 20
171.6077853732636
 10
91.70051812065969
 20
171.6077853732636
 97
        1
330
2635
 92
        1
 93
        1
 72
     4
 94
        3
 73
     0
 74
     0
 95
       26
 96
       22
 40
0.0
 40
0.0
 40
0.0
 40
0.0
 40
1.0
 40
1.0
 40
1.0
 40
2.0
 40
2.0
 40
2.0
 40
3.0
 40
3.0
 40
3.0
 40
4.0
 40
4.0
 40
4.0
 40
5.0
 40
5.0
 40
5.0
 40
6.0
 40
6.0
 40
6.0
 40
7.0
 40
7.0
 40
7.0
 40
7.0
 10
90.37760145399305
 20
169.3358964843748
 10
90.37760145399305
 20
169.3358964843748
 10
94.22990722656248
 20
169.3358964843748
 10
94.22990722656248
 20
169.3358964843748
 10
95.87115071614581
 20
169.3358964843748
 10
97.03008083767359
 20
170.8331625434026
 10
97.70600857204859
 20
173.8283285590275
 10
98.08221299913194
 20
175.5227367621525
 10
98.27100423177082
 20
177.4187243923609
 10
98.27100423177082
 20
179.5169253472221
 10
98.27100423177082
 20
182.233810329861
 10
97.94716525607638
 20
184.4619602864582
 10
97.30086534288195
 20
186.2013752170136
 10
96.57601725260416
 20
188.1290577256942
 10
95.5576470269097
 20
189.0932159288193
 10
94.24437662760416
 20
189.0932159288193
 10
94.24437662760416
 20
189.0932159288193
 10
90.37760145399305
 20
189.0932159288193
 10
90.37760145399305
 20
189.0932159288193
 10
90.37760145399305
 20
189.0932159288193
 10
90.37760145399305
 20
169.3358964843748
 10
90.37760145399305
 20
169.3358964843748
 97
        0
 75
     0
 76
     1
 98
        0
  0
HATCH
  5
264A
330
262B
100
AcDbEntity
  8
0
  6
Continuous
100
AcDbHatch
 10
0.0
 20
0.0
 30
0.0
210
0.0
220
0.0
230
1.0
  2
SOLID
 70
     1
 71
     1
 91
        2
 92
       16
 93
        1
 72
     4
 94
        3
 73
     0
 74
     0
 95
       26
 96
       22
 40
0.0
 40
0.0
 40
0.0
 40
0.0
 40
1.0
 40
1.0
 40
1.0
 40
2.0
 40
2.0
 40
2.0
 40
3.0
 40
3.0
 40
3.0
 40
4.0
 40
4.0
 40
4.0
 40
5.0
 40
5.0
 40
5.0
 40
6.0
 40
6.0
 40
6.0
 40
7.0
 40
7.0
 40
7.0
 40
7.0
 10
100.5623372395832
 20
180.0462298177081
 10
100.5623372395832
 20
180.0462298177081
 10
100.5623372395832
 20
186.7401881510414
 10
100.5623372395832
 20
186.7401881510414
 10
100.5623372395832
 20
186.7401881510414
 10
103.6732584635416
 20
186.7401881510414
 10
103.6732584635416
 20
186.7401881510414
 10
104.1107855902777
 20
186.7401881510414
 10
104.4580512152777
 20
186.6064357638887
 10
104.7150553385415
 20
186.3401987847219
 10
105.2097710503471
 20
185.8330807291664
 10
105.4571289062498
 20
184.8822343749997
 10
105.4571289062498
 20
183.4863919270832
 10
105.4571289062498
 20
182.188169704861
 10
105.280740017361
 20
181.2905707465276
 10
104.9286512586804
 20
180.7929611545137
 10
104.5765624999999
 20
180.2947176649304
 10
104.1011393229166
 20
180.0462298177081
 10
103.5023817274304
 20
180.0462298177081
 10
103.5023817274304
 20
180.0462298177081
 10
100.5623372395832
 20
180.0462298177081
 10
100.5623372395832
 20
180.0462298177081
 97
        1
330
2636
 92
        1
 93
        1
 72
     4
 94
        3
 73
     0
 74
     0
 95
       68
 96
       64
 40
0.0
 40
0.0
 40
0.0
 40
0.0
 40
1.0
 40
1.0
 40
1.0
 40
2.0
 40
2.0
 40
2.0
 40
3.0
 40
3.0
 40
3.0
 40
4.0
 40
4.0
 40
4.0
 40
5.0
 40
5.0
 40
5.0
 40
6.0
 40
6.0
 40
6.0
 40
7.0
 40
7.0
 40
7.0
 40
8.0
 40
8.0
 40
8.0
 40
9.0
 40
9.0
 40
9.0
 40
10.0
 40
10.0
 40
10.0
 40
11.0
 40
11.0
 40
11.0
 40
12.0
 40
12.0
 40
12.0
 40
13.0
 40
13.0
 40
13.0
 40
14.0
 40
14.0
 40
14.0
 40
15.0
 40
15.0
 40
15.0
 40
16.0
 40
16.0
 40
16.0
 40
17.0
 40
17.0
 40
17.0
 40
18.0
 40
18.0
 40
18.0
 40
19.0
 40
19.0
 40
19.0
 40
20.0
 40
20.0
 40
20.0
 40
21.0
 40
21.0
 40
21.0
 40
21.0
 10
99.23942057291661
 20
169.3358964843748
 10
99.23942057291661
 20
169.3358964843748
 10
100.5623372395832
 20
169.3358964843748
 10
100.5623372395832
 20
169.3358964843748
 10
100.5623372395832
 20
169.3358964843748
 10
100.5623372395832
 20
177.8149103732637
 10
100.5623372395832
 20
177.8149103732637
 10
100.5623372395832
 20
177.8149103732637
 10
103.4472601996527
 20
177.8149103732637
 10
103.4472601996527
 20
177.8149103732637
 10
103.9681586371527
 20
177.8149103732637
 10
104.3519422743053
 20
177.6938359374998
 10
104.5986111111109
 20
177.451687065972
 10
105.0244249131943
 20
177.0117621527776
 10
105.2518012152777
 20
176.1458580729164
 10
105.280740017361
 20
174.8539748263887
 10
105.280740017361
 20
174.8539748263887
 10
105.3689344618053
 20
171.5564396701386
 10
105.3689344618053
 20
171.5564396701386
 10
105.3882269965277
 20
170.7843524305554
 10
105.4109646267359
 20
170.2639225260415
 10
105.4357693142359
 20
169.9951499565971
 10
105.4605740017359
 20
169.7257434895831
 10
105.4970920138888
 20
169.5057810329859
 10
105.5467013888887
 20
169.3358964843748
 10
105.5467013888887
 20
169.3358964843748
 10
107.1769205729166
 20
169.3358964843748
 10
107.1769205729166
 20
169.3358964843748
 10
107.1769205729166
 20
169.3358964843748
 10
107.1769205729166
 20
169.7821603732636
 10
107.1769205729166
 20
169.7821603732636
 10
106.9750379774303
 20
169.9609194878471
 10
106.8337890624998
 20
170.3628105468748
 10
106.7538628472221
 20
170.9878335503471
 10
106.7028754340275
 20
171.3542263454858
 10
106.6677354600692
 20
171.9120562065971
 10
106.6477539062498
 20
172.6625909288193
 10
106.6477539062498
 20
172.6625909288193
 10
106.6036566840277
 20
175.3205234374999
 10
106.6036566840277
 20
175.3205234374999
 10
106.5836751302082
 20
176.4716814236109
 10
106.4768771701387
 20
177.3033550347219
 10
106.2839518229166
 20
177.8142764756942
 10
106.0903374565971
 20
178.3251979166665
 10
105.8002604166666
 20
178.7372313368054
 10
105.4130316840277
 20
179.0516445312498
 10
105.8443576388887
 20
179.5086846788193
 10
106.179909939236
 20
180.1134229600693
 10
106.4196885850692
 20
180.8664932725692
 10
106.6594672309027
 20
181.6189296874999
 10
106.7800455729166
 20
182.5868912760414
 10
106.7800455729166
 20
183.7697441406248
 10
106.7800455729166
 20
186.0371957465275
 10
106.3328721788193
 20
187.5921464843749
 10
105.4392144097221
 20
188.4345963541665
 10
104.9679253472221
 20
188.8732534722221
 10
104.3719238281249
 20
189.0932159288193
 10
103.6512098524303
 20
189.0932159288193
 10
103.6512098524303
 20
189.0932159288193
 10
99.23942057291661
 20
189.0932159288193
 10
99.23942057291661
 20
189.0932159288193
 10
99.23942057291661
 20
189.0932159288193
 10
99.23942057291661
 20
169.3358964843748
 10
99.23942057291661
 20
169.3358964843748
 97
        0
 75
     0
 76
     1
 98
        0
  0
HATCH
  5
264B
330
262B
100
AcDbEntity
  8
0
  6
Continuous
100
AcDbHatch
 10
0.0
 20
0.0
 30
0.0
210
0.0
220
0.0
230
1.0
  2
SOLID
 70
     1
 71
     1
 91
        2
 92
        1
 93
        8
 72
     1
 10
35.47828233506943
 20
189.0932159288193
 11
31.83957248263888
 21
169.3358964843748
 72
     1
 10
31.83957248263888
 20
169.3358964843748
 11
33.22450086805555
 21
169.3358964843748
 72
     1
 10
33.22450086805555
 20
169.3358964843748
 11
34.27043185763887
 21
175.2590353732638
 72
     1
 10
34.27043185763887
 20
175.2590353732638
 11
38.04694552951389
 21
175.2590353732638
 72
     1
 10
38.04694552951389
 20
175.2590353732638
 11
39.05015733506942
 21
169.3358964843748
 72
     1
 10
39.05015733506942
 20
169.3358964843748
 11
40.43508572048611
 21
169.3358964843748
 72
     1
 10
40.43508572048611
 20
169.3358964843748
 11
36.952783203125
 21
189.0932159288193
 72
     1
 10
36.952783203125
 20
189.0932159288193
 11
35.47828233506943
 21
189.0932159288193
 97
        8
330
2646
330
263F
330
2640
330
2641
330
2642
330
2643
330
2644
330
2645
 92
       16
 93
        3
 72
     1
 10
37.67556423611111
 20
177.4497853732638
 11
34.65766059027778
 21
177.4497853732638
 72
     1
 10
34.65766059027778
 20
177.4497853732638
 11
36.19830729166666
 21
186.1658769531249
 72
     1
 10
36.19830729166666
 20
186.1658769531249
 11
37.67556423611111
 21
177.4497853732638
 97
        3
330
263E
330
263C
330
263D
 75
     0
 76
     1
 98
        1
 10
0.0
 20
0.0
  0
HATCH
  5
264C
330
262B
100
AcDbEntity
  8
0
  6
Continuous
100
AcDbHatch
 10
0.0
 20
0.0
 30
0.0
210
0.0
220
0.0
230
1.0
  2
SOLID
 70
     1
 71
     1
 91
        1
 92
        1
 93
        1
 72
     4
 94
        3
 73
     0
 74
     0
 95
      113
 96
      109
 40
0.0
 40
0.0
 40
0.0
 40
0.0
 40
1.0
 40
1.0
 40
1.0
 40
2.0
 40
2.0
 40
2.0
 40
3.0
 40
3.0
 40
3.0
 40
4.0
 40
4.0
 40
4.0
 40
5.0
 40
5.0
 40
5.0
 40
6.0
 40
6.0
 40
6.0
 40
7.0
 40
7.0
 40
7.0
 40
8.0
 40
8.0
 40
8.0
 40
9.0
 40
9.0
 40
9.0
 40
10.0
 40
10.0
 40
10.0
 40
11.0
 40
11.0
 40
11.0
 40
12.0
 40
12.0
 40
12.0
 40
13.0
 40
13.0
 40
13.0
 40
14.0
 40
14.0
 40
14.0
 40
15.0
 40
15.0
 40
15.0
 40
16.0
 40
16.0
 40
16.0
 40
17.0
 40
17.0
 40
17.0
 40
18.0
 40
18.0
 40
18.0
 40
19.0
 40
19.0
 40
19.0
 40
20.0
 40
20.0
 40
20.0
 40
21.0
 40
21.0
 40
21.0
 40
22.0
 40
22.0
 40
22.0
 40
23.0
 40
23.0
 40
23.0
 40
24.0
 40
24.0
 40
24.0
 40
25.0
 40
25.0
 40
25.0
 40
26.0
 40
26.0
 40
26.0
 40
27.0
 40
27.0
 40
27.0
 40
28.0
 40
28.0
 40
28.0
 40
29.0
 40
29.0
 40
29.0
 40
30.0
 40
30.0
 40
30.0
 40
31.0
 40
31.0
 40
31.0
 40
32.0
 40
32.0
 40
32.0
 40
33.0
 40
33.0
 40
33.0
 40
34.0
 40
34.0
 40
34.0
 40
35.0
 40
35.0
 40
35.0
 40
36.0
 40
36.0
 40
36.0
 40
36.0
 10
193.3039632161458
 20
186.1548733181423
 10
193.3039632161458
 20
186.1860514322916
 10
193.3039632161458
 20
219.6932223849826
 10
193.3039632161458
 20
219.6932223849826
 10
193.3039632161458
 20
219.6932223849826
 10
193.2974175347219
 20
219.7488606770833
 10
193.2974175347219
 20
219.7488606770833
 10
191.5293945312499
 20
235.455740017361
 10
175.1458984374999
 20
235.2467949761284
 10
174.9808783637151
 20
235.2428331163193
 10
174.9808783637151
 20
235.2428331163193
 10
125.8827555338541
 20
235.2430053710937
 10
125.8827555338541
 20
235.2430053710937
 10
125.8827555338541
 20
235.2430053710937
 10
125.8827555338541
 20
255.5278998480901
 10
125.8827555338541
 20
255.5278998480901
 10
125.8827555338541
 20
255.5278998480901
 10
84.5626247829861
 20
255.5278998480901
 10
84.5626247829861
 20
255.5278998480901
 10
84.5626247829861
 20
255.5278998480901
 10
84.55711263020829
 20
233.7919311523436
 10
84.55711263020829
 20
233.7919311523436
 10
84.55711263020829
 20
233.7919311523436
 10
64.42052951388888
 20
233.7919311523436
 10
64.42052951388888
 20
233.7919311523436
 10
64.42052951388888
 20
233.7919311523436
 10
64.41501736111111
 20
255.5278998480901
 10
64.41501736111111
 20
255.5278998480901
 10
64.41501736111111
 20
255.5278998480901
 10
23.91757541232637
 20
255.5278998480901
 10
23.91757541232637
 20
255.5278998480901
 10
23.91757541232637
 20
255.5278998480901
 10
23.91757541232637
 20
233.2393378363715
 10
23.91757541232637
 20
233.2393378363715
 10
23.91757541232637
 20
233.2393378363715
 10
43.65624999999999
 20
233.2393378363715
 10
43.65624999999999
 20
233.2393378363715
 10
43.65624999999999
 20
233.2393378363715
 10
43.65624999999999
 20
211.5188720703125
 10
43.65624999999999
 20
211.5188720703125
 10
43.65624999999999
 20
211.5188720703125
 10
23.91757541232637
 20
211.5188720703125
 10
23.91757541232637
 20
211.5188720703125
 10
23.91757541232637
 20
211.5188720703125
 10
23.91757541232637
 20
189.2303100585936
 10
23.91757541232637
 20
189.2303100585936
 10
23.91757541232637
 20
189.2303100585936
 10
64.41501736111111
 20
189.2303100585936
 10
64.41501736111111
 20
189.2303100585936
 10
64.41501736111111
 20
189.2303100585936
 10
64.42052951388888
 20
211.069976128472
 10
64.42052951388888
 20
211.069976128472
 10
64.42052951388888
 20
211.069976128472
 10
84.55711263020829
 20
211.069976128472
 10
84.55711263020829
 20
211.069976128472
 10
84.55711263020829
 20
211.069976128472
 10
84.5626247829861
 20
189.2303100585936
 10
84.5626247829861
 20
189.2303100585936
 10
84.5626247829861
 20
189.2303100585936
 10
125.8827555338541
 20
189.2303100585936
 10
125.8827555338541
 20
189.2303100585936
 10
125.8827555338541
 20
189.2303100585936
 10
125.8827555338541
 20
211.5188720703125
 10
125.8827555338541
 20
211.5188720703125
 10
125.8827555338541
 20
211.5188720703125
 10
105.3213921440971
 20
211.5188720703125
 10
105.3213921440971
 20
211.5188720703125
 10
105.3213921440971
 20
211.5188720703125
 10
105.3213921440971
 20
233.2393378363715
 10
105.3213921440971
 20
233.2393378363715
 10
105.3213921440971
 20
233.2393378363715
 10
175.0046495225693
 20
233.243127441406
 10
175.0046495225693
 20
233.243127441406
 10
175.6268337673611
 20
233.2560465494791
 10
189.7165852864583
 20
233.3962619357638
 10
191.3037407769094
 20
219.5690266927083
 10
191.3037407769094
 20
219.4332899305555
 10
191.3037407769094
 20
186.1142211914062
 10
191.3037407769094
 20
186.1142211914062
 10
191.3037407769094
 20
186.1142211914062
 10
191.3051188151039
 20
186.0880384657115
 10
191.3051188151039
 20
186.0880384657115
 10
191.3054633246526
 20
186.0787367078991
 10
191.3109754774304
 20
185.9566080729166
 10
191.3109754774304
 20
185.7399115668401
 10
191.3109754774304
 20
184.2090833875865
 10
191.0488037109374
 20
177.9643310546874
 10
186.9866916232638
 20
173.5652886284722
 10
184.2540418836804
 20
170.6064683702255
 10
180.3224989149304
 20
169.0308539496526
 10
175.300927734375
 20
168.8825425889756
 10
175.300927734375
 20
168.8825425889756
 10
107.0094889322916
 20
168.8828870985243
 10
107.0094889322916
 20
168.8828870985243
 10
107.0094889322916
 20
168.8828870985243
 10
107.0094889322916
 20
166.8830091688368
 10
107.0094889322916
 20
166.8830091688368
 10
107.0094889322916
 20
166.8830091688368
 10
175.3305555555555
 20
166.8830091688368
 10
175.3305555555555
 20
166.8830091688368
 10
180.9467502170138
 20
167.0485460069444
 10
185.3571614583333
 20
168.8448187934026
 10
188.4687717013888
 20
172.2223904079861
 10
192.9649658203124
 20
177.1034016927083
 10
193.3136094835069
 20
183.7202243381076
 10
193.3136094835069
 20
185.6520616319443
 10
193.3136094835069
 20
185.9247409396701
 10
193.3070638020833
 20
186.0868326822916
 10
193.3039632161458
 20
186.1548733181423
 97
        1
330
262C
 75
     0
 76
     1
 98
        1
 10
0.0
 20
0.0
  0
HATCH
  5
264D
330
262B
100
AcDbEntity
  8
0
  6
Continuous
100
AcDbHatch
 10
0.0
 20
0.0
 30
0.0
210
0.0
220
0.0
230
1.0
  2
SOLID
 70
     1
 71
     1
 91
        2
 92
        1
 93
        1
 72
     4
 94
        3
 73
     0
 74
     0
 95
       23
 96
       19
 40
0.0
 40
0.0
 40
0.0
 40
0.0
 40
1.0
 40
1.0
 40
1.0
 40
2.0
 40
2.0
 40
2.0
 40
3.0
 40
3.0
 40
3.0
 40
4.0
 40
4.0
 40
4.0
 40
5.0
 40
5.0
 40
5.0
 40
6.0
 40
6.0
 40
6.0
 40
6.0
 10
148.6593153211804
 20
211.3929538302949
 10
148.6593153211804
 20
211.3929538302949
 10
148.6593153211804
 20
189.630802408854
 10
148.6593153211804
 20
189.630802408854
 10
148.6593153211804
 20
189.630802408854
 10
161.3152180989583
 20
189.630802408854
 10
161.3152180989583
 20
189.630802408854
 10
162.8431179470484
 20
189.630802408854
 10
170.4657362196179
 20
190.1880466037324
 10
170.4657362196179
 20
201.1911648220484
 10
170.4657362196179
 20
211.1288872612845
 10
162.3356553819444
 20
211.3914035373261
 10
162.2536621093749
 20
211.3927815755205
 10
162.2536621093749
 20
211.3927815755205
 10
149.6594265407986
 20
211.3929538302949
 10
149.6594265407986
 20
211.3929538302949
 10
149.6594265407986
 20
211.3929538302949
 10
148.6593153211804
 20
211.3929538302949
 10
148.6593153211804
 20
211.3929538302949
 97
        1
330
262D
 92
       16
 93
        1
 72
     4
 94
        3
 73
     0
 74
     0
 95
       20
 96
       16
 40
0.0
 40
0.0
 40
0.0
 40
0.0
 40
1.0
 40
1.0
 40
1.0
 40
2.0
 40
2.0
 40
2.0
 40
3.0
 40
3.0
 40
3.0
 40
4.0
 40
4.0
 40
4.0
 40
5.0
 40
5.0
 40
5.0
 40
5.0
 10
162.2354031032985
 20
209.3930759006075
 10
162.467947048611
 20
209.3861857096352
 10
168.4655137803819
 20
209.1283203124997
 10
168.4655137803819
 20
201.1911648220484
 10
168.4655137803819
 20
192.3202162000866
 10
162.9926350911458
 20
191.6306803385414
 10
161.3152180989583
 20
191.6306803385414
 10
161.3152180989583
 20
191.6306803385414
 10
152.3310980902776
 20
191.6306803385414
 10
150.6595377604166
 20
191.6306803385414
 10
150.6595377604166
 20
193.3373806423609
 10
150.6595377604166
 20
207.686375596788
 10
150.6595377604166
 20
209.3930759006075
 10
152.353835720486
 20
209.3930759006075
 10
162.2354031032985
 20
209.3930759006075
 10
162.2354031032985
 20
209.3930759006075
 97
        0
 75
     0
 76
     1
 98
        0
  0
ENDBLK
  5
264F
330
262B
100
AcDbEntity
  8
0
100
AcDbBlockEnd
  0
BLOCK
  5
2652
330
2650
100
AcDbEntity
  8
0
100
AcDbBlockBegin
  2
HD logo-new
 70
     0
 10
0.0
 20
0.0
 30
0.0
  3
HD logo-new
  1

  0
INSERT
  5
2651
330
2650
100
AcDbEntity
  8
0
 62
     3
100
AcDbBlockReference
  2
HD_LLC_logo_OT5
 10
-27.1607188578505
 20
-68.37367811463031
 30
0.0
 41
0.2999999999999971
 42
0.3000000000000007
 43
0.3
  0
ENDBLK
  5
2653
330
2650
100
AcDbEntity
  8
0
100
AcDbBlockEnd
  0
BLOCK
  5
2656
330
2654
100
AcDbEntity
  8
0
100
AcDbBlockBegin
  2
HD Logo
 70
     0
 10
0.0
 20
0.0
 30
0.0
  3
HD Logo
  1

  0
INSERT
  5
2655
330
2654
100
AcDbEntity
  8
0
100
AcDbBlockReference
  2
HD logo-new
 10
0.9700256734946606
 20
7.273795608420527
 30
0.0
  0
ENDBLK
  5
2657
330
2654
100
AcDbEntity
  8
0
100
AcDbBlockEnd
  0
BLOCK
  5
266E
330
266C
100
AcDbEntity
  8
0
100
AcDbBlockBegin
  2
Harmonic Drive LLC
 70
     0
 10
0.0
 20
0.0
 30
0.0
  3
Harmonic Drive LLC
  1

  0
MTEXT
  5
266D
330
266C
100
AcDbEntity
  8
0
100
AcDbMText
 10
8.730232253264317
 20
-1.454758693481394
 30
0.0
 40
5.25
 41
158.5992
 71
     5
 72
     5
  1
{\fArial|b0|i0|c0|p34;Harmonic Drive LLC\P800-921-3332\Pwww.harmonicdrive.net}
 73
     1
 44
1.0
  0
ENDBLK
  5
266F
330
266C
100
AcDbEntity
  8
0
100
AcDbBlockEnd
  0
BLOCK
  5
2682
330
267F
100
AcDbEntity
  8
0
100
AcDbBlockBegin
  2
NTC
 70
     0
 10
0.0
 20
0.0
 30
0.0
  3
NTC
  1

  0
LWPOLYLINE
  5
2680
330
267F
100
AcDbEntity
  8
0
100
AcDbPolyline
 90
        8
 70
     1
 43
0.0
 10
4.581008201925953
 20
-10.78862239032818
 10
319.3921777697513
 20
-10.78862239032818
 42
-0.4142135623730951
 10
324.9046777697513
 20
-16.30112239032816
 10
324.9046777697513
 20
-117.4075202476924
 42
-0.4142135623730951
 10
319.3921777697513
 20
-122.9200202476925
 10
4.581008201925838
 20
-122.9200202476925
 42
-0.4142135623730951
 10
-0.9314917980741483
 20
-117.4075202476924
 10
-0.9314917980740915
 20
-16.30112239032816
 42
-0.4142135623730951
  0
MTEXT
  5
2681
330
267F
100
AcDbEntity
  8
0
  6
Continuous
370
    30
100
AcDbMText
 10
21.65307678143926
 20
-17.4535155144544
 30
0.0
 40
8.75
 41
294.5432999999998
 71
     1
 72
     5
  3
{\fTxt|b1|i0|c0|p2;Notice:\P\Ftxt.shx;\H0.5714x;All specifications and dimensions shown in the drawing are subject to change without notice. This drawing is the property of Harmonic Drive LLC.   This data is believed to be accurate, however, Harmonic
  1
 Drive LLC assumes no liability for any errors or omissions in the specifications, models, or drawings.\P\PHarmonic Drive LLC\PTel: 800-921-3332\Pwww.harmonicdrive.net}
 73
     1
 44
1.0
  0
ENDBLK
  5
2683
330
267F
100
AcDbEntity
  8
0
100
AcDbBlockEnd
  0
ENDSEC
  0
SECTION
  2
ENTITIES
  0
LINE
  5
2374
330
2354
100
AcDbEntity
  8
1
  6
CENTER
 62
     3
100
AcDbLine
 10
255.563722897294
 20
241.04696068471
 30
0.0
 11
322.2303895639606
 21
241.04696068471
 31
0.0
  0
LINE
  5
2375
330
2354
100
AcDbEntity
  8
1
  6
CENTER
 62
     3
100
AcDbLine
 10
56.1436632648586
 20
241.04696068471
 30
0.0
 11
122.8103299315252
 21
241.04696068471
 31
0.0
  0
LINE
  5
2376
330
2354
100
AcDbEntity
  8
1
  6
CENTER
 62
     3
100
AcDbLine
 10
288.8970562306276
 20
274.3802940180434
 30
0.0
 11
288.8970562306276
 21
207.7136273513767
 31
0.0
  0
LINE
  5
2377
330
2354
100
AcDbEntity
  8
1
  6
CENTER
 62
     3
100
AcDbLine
 10
89.47699659819193
 20
274.3802940180434
 30
0.0
 11
89.47699659819193
 21
207.7136273513767
 31
0.0
  0
LINE
  5
2378
330
2354
100
AcDbEntity
  8
1
  6
CENTER
 62
     3
100
AcDbLine
 10
176.9453017095593
 20
241.04696068471
 30
0.0
 11
215.536736928922
 21
241.04696068471
 31
0.0
  0
LINE
  5
2379
330
2354
100
AcDbEntity
  8
1
 62
     7
100
AcDbLine
 10
180.278635042893
 20
254.1469606847098
 30
0.0
 11
180.278635042893
 21
253.29696068471
 31
0.0
  0
LINE
  5
237A
330
2354
100
AcDbEntity
  8
1
 62
     7
100
AcDbLine
 10
200.2786350428928
 20
270.6469606847099
 30
0.0
 11
200.2786350428928
 21
269.54696068471
 31
0.0
  0
LINE
  5
237B
330
2354
100
AcDbEntity
  8
1
 62
     7
100
AcDbLine
 10
200.2786350428928
 20
211.44696068471
 30
0.0
 11
200.2786350428928
 21
212.29696068471
 31
0.0
  0
LINE
  5
237C
330
2354
100
AcDbEntity
  8
1
 62
     7
100
AcDbLine
 10
200.6786350428928
 20
271.04696068471
 30
0.0
 11
206.3786350428926
 21
271.04696068471
 31
0.0
  0
LINE
  5
237D
330
2354
100
AcDbEntity
  8
1
 62
     7
100
AcDbLine
 10
200.078635042893
 20
265.04696068471
 30
0.0
 11
198.1786350428928
 21
265.04696068471
 31
0.0
  0
LINE
  5
237E
330
2354
100
AcDbEntity
  8
1
 62
     7
100
AcDbLine
 10
200.078635042893
 20
217.0469606847098
 30
0.0
 11
198.1786350428928
 21
217.0469606847098
 31
0.0
  0
LINE
  5
237F
330
2354
100
AcDbEntity
  8
1
 62
     7
100
AcDbLine
 10
200.6786350428928
 20
211.0469606847098
 30
0.0
 11
206.3786350428926
 21
211.0469606847098
 31
0.0
  0
LINE
  5
2380
330
2354
100
AcDbEntity
  8
1
 62
     7
100
AcDbLine
 10
180.778635042893
 20
236.04696068471
 30
0.0
 11
182.778635042893
 21
236.04696068471
 31
0.0
  0
LINE
  5
2381
330
2354
100
AcDbEntity
  8
1
 62
     7
100
AcDbLine
 10
180.278635042893
 20
235.5469606847099
 30
0.0
 11
180.278635042893
 21
231.7969606847098
 31
0.0
  0
LINE
  5
2382
330
2354
100
AcDbEntity
  8
1
 62
     7
100
AcDbLine
 10
180.778635042893
 20
246.0469606847099
 30
0.0
 11
182.778635042893
 21
246.0469606847099
 31
0.0
  0
LINE
  5
2383
330
2354
100
AcDbEntity
  8
1
 62
     7
100
AcDbLine
 10
206.778635042893
 20
270.6469606847099
 30
0.0
 11
206.778635042893
 21
269.54696068471
 31
0.0
  0
LINE
  5
2384
330
2354
100
AcDbEntity
  8
1
 62
     7
100
AcDbLine
 10
206.778635042893
 20
211.44696068471
 30
0.0
 11
206.778635042893
 21
212.29696068471
 31
0.0
  0
LINE
  5
2385
330
2354
100
AcDbEntity
  8
1
 62
     7
100
AcDbLine
 10
212.7786350428928
 20
249.6469606847099
 30
0.0
 11
212.7786350428928
 21
245.44696068471
 31
0.0
  0
LINE
  5
2386
330
2354
100
AcDbEntity
  8
1
 62
     7
100
AcDbLine
 10
183.278635042893
 20
260.90796068471
 30
0.0
 11
183.278635042893
 21
253.29696068471
 31
0.0
  0
LINE
  5
2387
330
2354
100
AcDbEntity
  8
1
 62
     7
100
AcDbLine
 10
184.2286350428929
 20
261.90796068471
 30
0.0
 11
206.2786350428928
 21
261.90796068471
 31
0.0
  0
LINE
  5
2388
330
2354
100
AcDbEntity
  8
1
 62
     7
100
AcDbLine
 10
184.2286350428929
 20
220.18596068471
 30
0.0
 11
206.2786350428928
 21
220.18596068471
 31
0.0
  0
LINE
  5
2389
330
2354
100
AcDbEntity
  8
1
 62
     7
100
AcDbLine
 10
198.778635042893
 20
262.88196068471
 30
0.0
 11
206.188635042893
 21
262.88196068471
 31
0.0
  0
LINE
  5
238A
330
2354
100
AcDbEntity
  8
1
 62
     7
100
AcDbLine
 10
206.7200563991303
 20
262.3505393284726
 30
0.0
 11
206.188635042893
 21
262.88196068471
 31
0.0
  0
LINE
  5
238B
330
2354
100
AcDbEntity
  8
1
 62
     7
100
AcDbLine
 10
198.778635042893
 20
219.21196068471
 30
0.0
 11
206.188635042893
 21
219.21196068471
 31
0.0
  0
LINE
  5
238C
330
2354
100
AcDbEntity
  8
1
 62
     7
100
AcDbLine
 10
206.7200563991303
 20
219.743382040947
 30
0.0
 11
206.188635042893
 21
219.21196068471
 31
0.0
  0
LINE
  5
238D
330
2354
100
AcDbEntity
  8
1
 62
     7
100
AcDbLine
 10
206.2786350428928
 20
220.18596068471
 30
0.0
 11
206.5891022341415
 21
220.1696897886764
 31
0.0
  0
LINE
  5
238E
330
2354
100
AcDbEntity
  8
1
 62
     7
100
AcDbLine
 10
206.778635042893
 20
219.9699638817254
 30
0.0
 11
206.778635042893
 21
219.8848033971846
 31
0.0
  0
LINE
  5
238F
330
2354
100
AcDbEntity
  8
1
 62
     7
100
AcDbLine
 10
206.2786350428928
 20
261.90796068471
 30
0.0
 11
206.5891022341415
 21
261.9242315807436
 31
0.0
  0
LINE
  5
2390
330
2354
100
AcDbEntity
  8
1
 62
     7
100
AcDbLine
 10
206.778635042893
 20
262.1239574876943
 30
0.0
 11
206.778635042893
 21
262.2091179722354
 31
0.0
  0
LINE
  5
2391
330
2354
100
AcDbEntity
  8
1
 62
     7
100
AcDbLine
 10
180.778635042893
 20
227.4469606847099
 30
0.0
 11
182.6366350428926
 21
227.4469606847099
 31
0.0
  0
LINE
  5
2392
330
2354
100
AcDbEntity
  8
1
 62
     7
100
AcDbLine
 10
180.778635042893
 20
254.64696068471
 30
0.0
 11
182.6366350428926
 21
254.64696068471
 31
0.0
  0
LINE
  5
2393
330
2354
100
AcDbEntity
  8
1
 62
     7
100
AcDbLine
 10
184.2566350428929
 20
262.1999606847098
 30
0.0
 11
193.9436350428928
 21
262.1999606847098
 31
0.0
  0
LINE
  5
2394
330
2354
100
AcDbEntity
  8
1
 62
     7
100
AcDbLine
 10
182.9366350428926
 20
260.8799606847099
 30
0.0
 11
182.9366350428926
 21
254.94696068471
 31
0.0
  0
LINE
  5
2395
330
2354
100
AcDbEntity
  8
1
 62
     7
100
AcDbLine
 10
182.9366350428926
 20
221.21396068471
 30
0.0
 11
182.9366350428926
 21
227.1469606847098
 31
0.0
  0
LINE
  5
2396
330
2354
100
AcDbEntity
  8
1
 62
     7
100
AcDbLine
 10
184.2566350428929
 20
219.8739606847099
 30
0.0
 11
193.9436350428928
 21
219.8739606847099
 31
0.0
  0
LINE
  5
2397
330
2354
100
AcDbEntity
  8
1
 62
     7
100
AcDbLine
 10
197.778635042893
 20
217.44696068471
 30
0.0
 11
197.778635042893
 21
219.21196068471
 31
0.0
  0
LINE
  5
2398
330
2354
100
AcDbEntity
  8
1
 62
     7
100
AcDbLine
 10
198.778635042893
 20
219.21196068471
 30
0.0
 11
197.778635042893
 21
219.21196068471
 31
0.0
  0
LINE
  5
2399
330
2354
100
AcDbEntity
  8
1
 62
     7
100
AcDbLine
 10
197.778635042893
 20
219.21196068471
 30
0.0
 11
197.778635042893
 21
219.4799761521933
 31
0.0
  0
LINE
  5
239A
330
2354
100
AcDbEntity
  8
1
 62
     7
100
AcDbLine
 10
197.778635042893
 20
264.6469606847098
 30
0.0
 11
197.778635042893
 21
262.88196068471
 31
0.0
  0
LINE
  5
239B
330
2354
100
AcDbEntity
  8
1
 62
     7
100
AcDbLine
 10
198.778635042893
 20
262.88196068471
 30
0.0
 11
197.778635042893
 21
262.88196068471
 31
0.0
  0
LINE
  5
239C
330
2354
100
AcDbEntity
  8
1
 62
     7
100
AcDbLine
 10
197.778635042893
 20
262.88196068471
 30
0.0
 11
197.778635042893
 21
262.6195183410732
 31
0.0
  0
LINE
  5
239D
330
2354
100
AcDbEntity
  8
1
 62
     7
100
AcDbLine
 10
200.6786350428928
 20
271.04696068471
 30
0.0
 11
200.2786350428928
 21
270.6469606847099
 31
0.0
  0
LINE
  5
239E
330
2354
100
AcDbEntity
  8
1
 62
     7
100
AcDbLine
 10
206.778635042893
 20
270.6469606847099
 30
0.0
 11
206.3786350428926
 21
271.04696068471
 31
0.0
  0
LINE
  5
239F
330
2354
100
AcDbEntity
  8
1
 62
     7
100
AcDbLine
 10
197.778635042893
 20
264.6469606847098
 30
0.0
 11
198.1786350428928
 21
265.04696068471
 31
0.0
  0
LINE
  5
23A0
330
2354
100
AcDbEntity
  8
1
 62
     7
100
AcDbLine
 10
206.778635042893
 20
263.8482913744283
 30
0.0
 11
206.778635042893
 21
263.54696068471
 31
0.0
  0
LINE
  5
23A1
330
2354
100
AcDbEntity
  8
1
 62
     7
100
AcDbLine
 10
206.188635042893
 20
262.88196068471
 30
0.0
 11
206.778635042893
 21
262.88196068471
 31
0.0
  0
LINE
  5
23A2
330
2354
100
AcDbEntity
  8
1
 62
     7
100
AcDbLine
 10
206.778635042893
 20
262.88196068471
 30
0.0
 11
206.778635042893
 21
262.1239574876943
 31
0.0
  0
LINE
  5
23A3
330
2354
100
AcDbEntity
  8
1
 62
     7
100
AcDbLine
 10
206.778635042893
 20
218.4800714882912
 30
0.0
 11
206.778635042893
 21
218.54696068471
 31
0.0
  0
LINE
  5
23A4
330
2354
100
AcDbEntity
  8
1
 62
     7
100
AcDbLine
 10
206.188635042893
 20
219.21196068471
 30
0.0
 11
206.778635042893
 21
219.21196068471
 31
0.0
  0
LINE
  5
23A5
330
2354
100
AcDbEntity
  8
1
 62
     7
100
AcDbLine
 10
206.778635042893
 20
219.21196068471
 30
0.0
 11
206.778635042893
 21
219.8848033971846
 31
0.0
  0
LINE
  5
23A6
330
2354
100
AcDbEntity
  8
1
 62
     7
100
AcDbLine
 10
197.778635042893
 20
217.44696068471
 30
0.0
 11
198.1786350428928
 21
217.0469606847098
 31
0.0
  0
LINE
  5
23A7
330
2354
100
AcDbEntity
  8
1
 62
     7
100
AcDbLine
 10
200.6786350428928
 20
211.0469606847098
 30
0.0
 11
200.2786350428928
 21
211.44696068471
 31
0.0
  0
LINE
  5
23A8
330
2354
100
AcDbEntity
  8
1
 62
     7
100
AcDbLine
 10
206.778635042893
 20
211.44696068471
 30
0.0
 11
206.3786350428926
 21
211.0469606847098
 31
0.0
  0
LINE
  5
23A9
330
2354
100
AcDbEntity
  8
1
  6
CENTER
 62
     3
100
AcDbLine
 10
179.9786350428929
 20
250.5469606847098
 30
0.0
 11
183.5786350428929
 21
250.5469606847098
 31
0.0
  0
LINE
  5
23AA
330
2354
100
AcDbEntity
  8
1
 62
     7
100
AcDbLine
 10
180.278635042893
 20
247.7969606847099
 30
0.0
 11
183.278635042893
 21
247.7969606847099
 31
0.0
  0
LINE
  5
23AB
330
2354
100
AcDbEntity
  8
1
 62
     7
100
AcDbLine
 10
180.278635042893
 20
247.7969606847099
 30
0.0
 11
180.278635042893
 21
246.54696068471
 31
0.0
  0
LINE
  5
23AC
330
2354
100
AcDbEntity
  8
1
 62
     7
100
AcDbLine
 10
183.278635042893
 20
247.7969606847099
 30
0.0
 11
183.278635042893
 21
246.54696068471
 31
0.0
  0
LINE
  5
23AD
330
2354
100
AcDbEntity
  8
1
 62
     7
100
AcDbLine
 10
180.278635042893
 20
253.29696068471
 30
0.0
 11
183.278635042893
 21
253.29696068471
 31
0.0
  0
LINE
  5
23AE
330
2354
100
AcDbEntity
  8
1
 62
     7
100
AcDbLine
 10
180.278635042893
 20
253.29696068471
 30
0.0
 11
180.278635042893
 21
247.7969606847099
 31
0.0
  0
LINE
  5
23AF
330
2354
100
AcDbEntity
  8
1
 62
     7
100
AcDbLine
 10
183.278635042893
 20
253.29696068471
 30
0.0
 11
183.278635042893
 21
247.7969606847099
 31
0.0
  0
LINE
  5
23B0
330
2354
100
AcDbEntity
  8
1
  6
CENTER
 62
     3
100
AcDbLine
 10
199.6286350428928
 20
214.04696068471
 30
0.0
 11
207.4286350428927
 21
214.04696068471
 31
0.0
  0
LINE
  5
23B1
330
2354
100
AcDbEntity
  8
1
 62
     7
100
AcDbLine
 10
200.2786350428928
 20
212.29696068471
 30
0.0
 11
206.778635042893
 21
212.29696068471
 31
0.0
  0
LINE
  5
23B2
330
2354
100
AcDbEntity
  8
1
 62
     7
100
AcDbLine
 10
200.2786350428928
 20
212.29696068471
 30
0.0
 11
200.2786350428928
 21
215.79696068471
 31
0.0
  0
LINE
  5
23B3
330
2354
100
AcDbEntity
  8
1
 62
     7
100
AcDbLine
 10
206.778635042893
 20
212.29696068471
 30
0.0
 11
206.778635042893
 21
215.79696068471
 31
0.0
  0
LINE
  5
23B4
330
2354
100
AcDbEntity
  8
1
 62
     7
100
AcDbLine
 10
200.2786350428928
 20
215.79696068471
 30
0.0
 11
206.778635042893
 21
215.79696068471
 31
0.0
  0
LINE
  5
23B5
330
2354
100
AcDbEntity
  8
1
 62
     7
100
AcDbLine
 10
200.2786350428928
 20
215.79696068471
 30
0.0
 11
200.2786350428928
 21
216.84696068471
 31
0.0
  0
LINE
  5
23B6
330
2354
100
AcDbEntity
  8
1
 62
     7
100
AcDbLine
 10
206.778635042893
 20
215.79696068471
 30
0.0
 11
206.778635042893
 21
218.4800714882912
 31
0.0
  0
LINE
  5
23B7
330
2354
100
AcDbEntity
  8
1
 62
     3
100
AcDbLine
 10
180.278635042893
 20
228.79696068471
 30
0.0
 11
183.278635042893
 21
228.79696068471
 31
0.0
  0
LINE
  5
23B8
330
2354
100
AcDbEntity
  8
1
 62
     7
100
AcDbLine
 10
180.278635042893
 20
228.79696068471
 30
0.0
 11
180.278635042893
 21
227.94696068471
 31
0.0
  0
LINE
  5
23B9
330
2354
100
AcDbEntity
  8
1
 62
     7
100
AcDbLine
 10
183.278635042893
 20
228.79696068471
 30
0.0
 11
183.278635042893
 21
221.18596068471
 31
0.0
  0
LINE
  5
23BA
330
2354
100
AcDbEntity
  8
1
 62
     3
100
AcDbLine
 10
180.278635042893
 20
231.7969606847098
 30
0.0
 11
183.278635042893
 21
231.7969606847098
 31
0.0
  0
LINE
  5
23BB
330
2354
100
AcDbEntity
  8
1
 62
     7
100
AcDbLine
 10
180.278635042893
 20
231.7969606847098
 30
0.0
 11
180.278635042893
 21
231.49696068471
 31
0.0
  0
LINE
  5
23BC
330
2354
100
AcDbEntity
  8
1
 62
     7
100
AcDbLine
 10
183.278635042893
 20
231.7969606847098
 30
0.0
 11
183.278635042893
 21
231.49696068471
 31
0.0
  0
LINE
  5
23BD
330
2354
100
AcDbEntity
  8
1
  6
CENTER
 62
     3
100
AcDbLine
 10
179.6786350428928
 20
230.29696068471
 30
0.0
 11
183.8786350428926
 21
230.29696068471
 31
0.0
  0
LINE
  5
23BE
330
2354
100
AcDbEntity
  8
1
 62
     7
100
AcDbLine
 10
180.278635042893
 20
229.09696068471
 30
0.0
 11
183.278635042893
 21
229.09696068471
 31
0.0
  0
LINE
  5
23BF
330
2354
100
AcDbEntity
  8
1
 62
     7
100
AcDbLine
 10
180.278635042893
 20
229.09696068471
 30
0.0
 11
180.278635042893
 21
228.79696068471
 31
0.0
  0
LINE
  5
23C0
330
2354
100
AcDbEntity
  8
1
 62
     7
100
AcDbLine
 10
183.278635042893
 20
229.09696068471
 30
0.0
 11
183.278635042893
 21
228.79696068471
 31
0.0
  0
LINE
  5
23C1
330
2354
100
AcDbEntity
  8
1
 62
     7
100
AcDbLine
 10
180.278635042893
 20
231.49696068471
 30
0.0
 11
183.278635042893
 21
231.49696068471
 31
0.0
  0
LINE
  5
23C2
330
2354
100
AcDbEntity
  8
1
 62
     7
100
AcDbLine
 10
180.278635042893
 20
231.49696068471
 30
0.0
 11
180.278635042893
 21
229.09696068471
 31
0.0
  0
LINE
  5
23C3
330
2354
100
AcDbEntity
  8
1
 62
     7
100
AcDbLine
 10
183.278635042893
 20
231.49696068471
 30
0.0
 11
183.278635042893
 21
229.09696068471
 31
0.0
  0
LINE
  5
23C4
330
2354
100
AcDbEntity
  8
1
 62
     3
100
AcDbLine
 10
200.2786350428928
 20
266.54696068471
 30
0.0
 11
206.778635042893
 21
266.54696068471
 31
0.0
  0
LINE
  5
23C5
330
2354
100
AcDbEntity
  8
1
 62
     7
100
AcDbLine
 10
200.2786350428928
 20
266.54696068471
 30
0.0
 11
200.2786350428928
 21
265.24696068471
 31
0.0
  0
LINE
  5
23C6
330
2354
100
AcDbEntity
  8
1
 62
     7
100
AcDbLine
 10
206.778635042893
 20
266.54696068471
 30
0.0
 11
206.778635042893
 21
263.8482913744283
 31
0.0
  0
LINE
  5
23C7
330
2354
100
AcDbEntity
  8
1
 62
     3
100
AcDbLine
 10
200.2786350428928
 20
269.54696068471
 30
0.0
 11
206.778635042893
 21
269.54696068471
 31
0.0
  0
LINE
  5
23C8
330
2354
100
AcDbEntity
  8
1
 62
     7
100
AcDbLine
 10
200.2786350428928
 20
269.54696068471
 30
0.0
 11
200.2786350428928
 21
269.24696068471
 31
0.0
  0
LINE
  5
23C9
330
2354
100
AcDbEntity
  8
1
 62
     7
100
AcDbLine
 10
206.778635042893
 20
269.54696068471
 30
0.0
 11
206.778635042893
 21
269.24696068471
 31
0.0
  0
LINE
  5
23CA
330
2354
100
AcDbEntity
  8
1
  6
CENTER
 62
     3
100
AcDbLine
 10
198.9786350428929
 20
268.04696068471
 30
0.0
 11
208.0786350428929
 21
268.04696068471
 31
0.0
  0
LINE
  5
23CB
330
2354
100
AcDbEntity
  8
1
 62
     7
100
AcDbLine
 10
200.2786350428928
 20
266.84696068471
 30
0.0
 11
206.778635042893
 21
266.84696068471
 31
0.0
  0
LINE
  5
23CC
330
2354
100
AcDbEntity
  8
1
 62
     7
100
AcDbLine
 10
200.2786350428928
 20
266.84696068471
 30
0.0
 11
200.2786350428928
 21
266.54696068471
 31
0.0
  0
LINE
  5
23CD
330
2354
100
AcDbEntity
  8
1
 62
     7
100
AcDbLine
 10
206.778635042893
 20
266.84696068471
 30
0.0
 11
206.778635042893
 21
266.54696068471
 31
0.0
  0
LINE
  5
23CE
330
2354
100
AcDbEntity
  8
1
 62
     7
100
AcDbLine
 10
200.2786350428928
 20
269.24696068471
 30
0.0
 11
206.778635042893
 21
269.24696068471
 31
0.0
  0
LINE
  5
23CF
330
2354
100
AcDbEntity
  8
1
 62
     7
100
AcDbLine
 10
200.2786350428928
 20
269.24696068471
 30
0.0
 11
200.2786350428928
 21
266.84696068471
 31
0.0
  0
LINE
  5
23D0
330
2354
100
AcDbEntity
  8
1
 62
     7
100
AcDbLine
 10
206.778635042893
 20
269.24696068471
 30
0.0
 11
206.778635042893
 21
266.84696068471
 31
0.0
  0
LINE
  5
23D1
330
2354
100
AcDbEntity
  8
1
 62
     7
100
AcDbLine
 10
210.9786350428929
 20
250.0469606847099
 30
0.0
 11
210.9786350428929
 21
245.04696068471
 31
0.0
  0
LINE
  5
23D2
330
2354
100
AcDbEntity
  8
1
 62
     7
100
AcDbLine
 10
210.8186350428924
 20
245.04696068471
 30
0.0
 11
212.3786350428928
 21
245.04696068471
 31
0.0
  0
LINE
  5
23D3
330
2354
100
AcDbEntity
  8
1
 62
     7
100
AcDbLine
 10
210.8186350428924
 20
250.0469606847099
 30
0.0
 11
212.3786350428928
 21
250.0469606847099
 31
0.0
  0
LINE
  5
23D4
330
2354
100
AcDbEntity
  8
1
 62
     7
100
AcDbLine
 10
208.578635042893
 20
250.0469606847099
 30
0.0
 11
208.578635042893
 21
245.04696068471
 31
0.0
  0
LINE
  5
23D5
330
2354
100
AcDbEntity
  8
1
  6
CENTER
 62
     3
100
AcDbLine
 10
209.778635042893
 20
251.04696068471
 30
0.0
 11
209.778635042893
 21
244.0469606847099
 31
0.0
  0
LINE
  5
23D6
330
2354
100
AcDbEntity
  8
1
 62
     3
100
AcDbLine
 10
211.2786350428931
 20
250.0469606847099
 30
0.0
 11
211.2786350428931
 21
245.04696068471
 31
0.0
  0
LINE
  5
23D7
330
2354
100
AcDbEntity
  8
1
 62
     7
100
AcDbLine
 10
210.5186350428926
 20
245.04696068471
 30
0.0
 11
210.8186350428924
 21
245.04696068471
 31
0.0
  0
LINE
  5
23D8
330
2354
100
AcDbEntity
  8
1
 62
     7
100
AcDbLine
 10
210.5186350428926
 20
250.0469606847099
 30
0.0
 11
210.8186350428924
 21
250.0469606847099
 31
0.0
  0
LINE
  5
23D9
330
2354
100
AcDbEntity
  8
1
 62
     3
100
AcDbLine
 10
208.2786350428929
 20
250.0469606847099
 30
0.0
 11
208.2786350428929
 21
245.04696068471
 31
0.0
  0
LINE
  5
23DA
330
2354
100
AcDbEntity
  8
1
 62
     7
100
AcDbLine
 10
196.1286350428926
 20
251.04696068471
 30
0.0
 11
196.1286350428926
 21
255.54696068471
 31
0.0
  0
LINE
  5
23DB
330
2354
100
AcDbEntity
  8
1
 62
     7
100
AcDbLine
 10
199.6786350428928
 20
226.54696068471
 30
0.0
 11
199.6786350428928
 21
230.99696068471
 31
0.0
  0
LINE
  5
23DC
330
2354
100
AcDbEntity
  8
1
 62
     7
100
AcDbLine
 10
196.1286350428926
 20
231.74696068471
 30
0.0
 11
196.1286350428926
 21
230.99696068471
 31
0.0
  0
LINE
  5
23DD
330
2354
100
AcDbEntity
  8
1
 62
     7
100
AcDbLine
 10
206.0286350428929
 20
250.0469606847099
 30
0.0
 11
206.0286350428929
 21
249.59696068471
 31
0.0
  0
LINE
  5
23DE
330
2354
100
AcDbEntity
  8
1
 62
     7
100
AcDbLine
 10
206.0286350428929
 20
249.59696068471
 30
0.0
 11
206.1786350428928
 21
249.59696068471
 31
0.0
  0
LINE
  5
23DF
330
2354
100
AcDbEntity
  8
1
 62
     7
100
AcDbLine
 10
207.3786350428926
 20
249.59696068471
 30
0.0
 11
207.3786350428926
 21
250.0469606847099
 31
0.0
  0
LINE
  5
23E0
330
2354
100
AcDbEntity
  8
1
 62
     7
100
AcDbLine
 10
208.9186350428925
 20
250.0469606847099
 30
0.0
 11
210.5186350428926
 21
250.0469606847099
 31
0.0
  0
LINE
  5
23E1
330
2354
100
AcDbEntity
  8
1
 62
     7
100
AcDbLine
 10
193.4786350428929
 20
226.54696068471
 30
0.0
 11
196.1286350428926
 21
226.54696068471
 31
0.0
  0
LINE
  5
23E2
330
2354
100
AcDbEntity
  8
1
 62
     7
100
AcDbLine
 10
193.4786350428929
 20
230.99696068471
 30
0.0
 11
193.4786350428929
 21
226.54696068471
 31
0.0
  0
LINE
  5
23E3
330
2354
100
AcDbEntity
  8
1
 62
     7
100
AcDbLine
 10
196.1286350428926
 20
230.99696068471
 30
0.0
 11
193.4786350428929
 21
230.99696068471
 31
0.0
  0
LINE
  5
23E4
330
2354
100
AcDbEntity
  8
1
 62
     7
100
AcDbLine
 10
196.1286350428926
 20
251.04696068471
 30
0.0
 11
196.1286350428926
 21
250.0469606847099
 31
0.0
  0
LINE
  5
23E5
330
2354
100
AcDbEntity
  8
1
 62
     7
100
AcDbLine
 10
196.1286350428926
 20
255.54696068471
 30
0.0
 11
197.4786350428929
 21
255.54696068471
 31
0.0
  0
LINE
  5
23E6
330
2354
100
AcDbEntity
  8
1
 62
     7
100
AcDbLine
 10
197.4786350428929
 20
259.54696068471
 30
0.0
 11
199.4786350428929
 21
259.54696068471
 31
0.0
  0
LINE
  5
23E7
330
2354
100
AcDbEntity
  8
1
 62
     7
100
AcDbLine
 10
199.4786350428929
 20
255.54696068471
 30
0.0
 11
199.6786350428928
 21
255.54696068471
 31
0.0
  0
LINE
  5
23E8
330
2354
100
AcDbEntity
  8
1
 62
     7
100
AcDbLine
 10
197.4786350428929
 20
259.54696068471
 30
0.0
 11
197.4786350428929
 21
255.54696068471
 31
0.0
  0
LINE
  5
23E9
330
2354
100
AcDbEntity
  8
1
 62
     7
100
AcDbLine
 10
199.4786350428929
 20
259.54696068471
 30
0.0
 11
199.4786350428929
 21
255.54696068471
 31
0.0
  0
LINE
  5
23EA
330
2354
100
AcDbEntity
  8
1
 62
     7
100
AcDbLine
 10
199.6786350428928
 20
250.0469606847099
 30
0.0
 11
199.4786350428929
 21
250.0469606847099
 31
0.0
  0
LINE
  5
23EB
330
2354
100
AcDbEntity
  8
1
 62
     7
100
AcDbLine
 10
199.6786350428928
 20
250.34696068471
 30
0.0
 11
199.6786350428928
 21
250.0469606847099
 31
0.0
  0
LINE
  5
23EC
330
2354
100
AcDbEntity
  8
1
 62
     7
100
AcDbLine
 10
196.1286350428926
 20
226.2567612269608
 30
0.0
 11
193.278635042893
 21
226.2567612269608
 31
0.0
  0
LINE
  5
23ED
330
2354
100
AcDbEntity
  8
1
 62
     7
100
AcDbLine
 10
196.1286350428926
 20
226.54696068471
 30
0.0
 11
196.1286350428926
 21
226.2567612269608
 31
0.0
  0
LINE
  5
23EE
330
2354
100
AcDbEntity
  8
1
 62
     7
100
AcDbLine
 10
199.6786350428928
 20
256.19446068471
 30
0.0
 11
202.4786350428929
 21
256.19446068471
 31
0.0
  0
LINE
  5
23EF
330
2354
100
AcDbEntity
  8
1
 62
     7
100
AcDbLine
 10
199.6786350428928
 20
255.54696068471
 30
0.0
 11
199.6786350428928
 21
256.19446068471
 31
0.0
  0
LINE
  5
23F0
330
2354
100
AcDbEntity
  8
1
 62
     7
100
AcDbLine
 10
199.6786350428928
 20
250.34696068471
 30
0.0
 11
202.4786350428929
 21
250.34696068471
 31
0.0
  0
LINE
  5
23F1
330
2354
100
AcDbEntity
  8
1
 62
     7
100
AcDbLine
 10
207.3786350428926
 20
252.1469606847098
 30
0.0
 11
206.1786350428928
 21
252.1469606847098
 31
0.0
  0
LINE
  5
23F2
330
2354
100
AcDbEntity
  8
1
 62
     7
100
AcDbLine
 10
206.1786350428928
 20
252.1469606847098
 30
0.0
 11
206.1786350428928
 21
250.34696068471
 31
0.0
  0
LINE
  5
23F3
330
2354
100
AcDbEntity
  8
1
 62
     7
100
AcDbLine
 10
206.1786350428928
 20
249.59696068471
 30
0.0
 11
207.3786350428926
 21
249.59696068471
 31
0.0
  0
LINE
  5
23F4
330
2354
100
AcDbEntity
  8
1
 62
     7
100
AcDbLine
 10
207.3786350428926
 20
250.0469606847099
 30
0.0
 11
207.3786350428926
 21
252.1469606847098
 31
0.0
  0
LINE
  5
23F5
330
2354
100
AcDbEntity
  8
1
 62
     7
100
AcDbLine
 10
206.1786350428928
 20
250.34696068471
 30
0.0
 11
206.1786350428928
 21
250.0469606847099
 31
0.0
  0
LINE
  5
23F6
330
2354
100
AcDbEntity
  8
1
 62
     7
100
AcDbLine
 10
206.1786350428928
 20
253.29696068471
 30
0.0
 11
206.1786350428928
 21
252.1469606847098
 31
0.0
  0
LINE
  5
23F7
330
2354
100
AcDbEntity
  8
1
 62
     7
100
AcDbLine
 10
207.7086350428928
 20
250.0469606847099
 30
0.0
 11
207.7186350428926
 21
250.0469606847099
 31
0.0
  0
LINE
  5
23F8
330
2354
100
AcDbEntity
  8
1
 62
     7
100
AcDbLine
 10
206.1786350428928
 20
250.0469606847099
 30
0.0
 11
206.1786350428928
 21
249.59696068471
 31
0.0
  0
LINE
  5
23F9
330
2354
100
AcDbEntity
  8
1
  6
CENTER
 62
     3
100
AcDbLine
 10
209.778635042893
 20
238.64696068471
 30
0.0
 11
209.778635042893
 21
243.44696068471
 31
0.0
  0
LINE
  5
23FA
330
2354
100
AcDbEntity
  8
1
 62
     7
100
AcDbLine
 10
206.1786350428928
 20
232.49696068471
 30
0.0
 11
206.1786350428928
 21
232.04696068471
 31
0.0
  0
LINE
  5
23FB
330
2354
100
AcDbEntity
  8
1
 62
     7
100
AcDbLine
 10
207.8186350428928
 20
232.04696068471
 30
0.0
 11
207.6686350428929
 21
232.04696068471
 31
0.0
  0
LINE
  5
23FC
330
2354
100
AcDbEntity
  8
1
 62
     7
100
AcDbLine
 10
206.1786350428928
 20
228.79696068471
 30
0.0
 11
204.9786350428929
 21
228.79696068471
 31
0.0
  0
LINE
  5
23FD
330
2354
100
AcDbEntity
  8
1
 62
     7
100
AcDbLine
 10
206.1786350428928
 20
232.04696068471
 30
0.0
 11
206.1786350428928
 21
231.74696068471
 31
0.0
  0
LINE
  5
23FE
330
2354
100
AcDbEntity
  8
1
 62
     7
100
AcDbLine
 10
207.3786350428926
 20
232.49696068471
 30
0.0
 11
206.1786350428928
 21
232.49696068471
 31
0.0
  0
LINE
  5
23FF
330
2354
100
AcDbEntity
  8
1
 62
     7
100
AcDbLine
 10
206.1786350428928
 20
231.74696068471
 30
0.0
 11
206.1786350428928
 21
228.79696068471
 31
0.0
  0
LINE
  5
2400
330
2354
100
AcDbEntity
  8
1
 62
     7
100
AcDbLine
 10
207.6686350428929
 20
232.04696068471
 30
0.0
 11
207.3786350428926
 21
232.04696068471
 31
0.0
  0
LINE
  5
2401
330
2354
100
AcDbEntity
  8
1
 62
     7
100
AcDbLine
 10
206.4786350428929
 20
225.89946068471
 30
0.0
 11
199.6786350428928
 21
225.89946068471
 31
0.0
  0
LINE
  5
2402
330
2354
100
AcDbEntity
  8
1
 62
     7
100
AcDbLine
 10
199.6786350428928
 20
225.89946068471
 30
0.0
 11
199.6786350428928
 21
226.54696068471
 31
0.0
  0
LINE
  5
2403
330
2354
100
AcDbEntity
  8
1
 62
     7
100
AcDbLine
 10
196.1286350428926
 20
256.04696068471
 30
0.0
 11
196.1286350428926
 21
255.54696068471
 31
0.0
  0
LINE
  5
2404
330
2354
100
AcDbEntity
  8
1
 62
     7
100
AcDbLine
 10
199.6786350428928
 20
232.04696068471
 30
0.0
 11
199.6786350428928
 21
231.74696068471
 31
0.0
  0
LINE
  5
2405
330
2354
100
AcDbEntity
  8
1
 62
     7
100
AcDbLine
 10
196.1286350428926
 20
232.04696068471
 30
0.0
 11
196.328635042893
 21
232.04696068471
 31
0.0
  0
LINE
  5
2406
330
2354
100
AcDbEntity
  8
1
 62
     7
100
AcDbLine
 10
199.4786350428929
 20
226.54696068471
 30
0.0
 11
199.4786350428929
 21
222.54696068471
 31
0.0
  0
LINE
  5
2407
330
2354
100
AcDbEntity
  8
1
 62
     7
100
AcDbLine
 10
197.4786350428929
 20
226.54696068471
 30
0.0
 11
197.4786350428929
 21
222.54696068471
 31
0.0
  0
LINE
  5
2408
330
2354
100
AcDbEntity
  8
1
 62
     7
100
AcDbLine
 10
199.6786350428928
 20
226.54696068471
 30
0.0
 11
199.4786350428929
 21
226.54696068471
 31
0.0
  0
LINE
  5
2409
330
2354
100
AcDbEntity
  8
1
 62
     7
100
AcDbLine
 10
199.4786350428929
 20
222.54696068471
 30
0.0
 11
197.4786350428929
 21
222.54696068471
 31
0.0
  0
LINE
  5
240A
330
2354
100
AcDbEntity
  8
1
 62
     7
100
AcDbLine
 10
197.4786350428929
 20
226.54696068471
 30
0.0
 11
196.1286350428926
 21
226.54696068471
 31
0.0
  0
LINE
  5
240B
330
2354
100
AcDbEntity
  8
1
 62
     7
100
AcDbLine
 10
196.1286350428926
 20
232.04696068471
 30
0.0
 11
196.1286350428926
 21
231.74696068471
 31
0.0
  0
LINE
  5
240C
330
2354
100
AcDbEntity
  8
1
 62
     7
100
AcDbLine
 10
196.1286350428926
 20
231.74696068471
 30
0.0
 11
193.278635042893
 21
231.74696068471
 31
0.0
  0
LINE
  5
240D
330
2354
100
AcDbEntity
  8
1
 62
     7
100
AcDbLine
 10
207.3786350428926
 20
232.04696068471
 30
0.0
 11
207.3786350428926
 21
232.49696068471
 31
0.0
  0
LINE
  5
240E
330
2354
100
AcDbEntity
  8
1
 62
     7
100
AcDbLine
 10
206.1786350428928
 20
232.49696068471
 30
0.0
 11
206.0286350428929
 21
232.49696068471
 31
0.0
  0
LINE
  5
240F
330
2354
100
AcDbEntity
  8
1
 62
     7
100
AcDbLine
 10
206.0286350428929
 20
232.49696068471
 30
0.0
 11
206.0286350428929
 21
232.04696068471
 31
0.0
  0
LINE
  5
2410
330
2354
100
AcDbEntity
  8
1
 62
     7
100
AcDbLine
 10
206.1786350428928
 20
228.79696068471
 30
0.0
 11
206.1786350428928
 21
228.74696068471
 31
0.0
  0
LINE
  5
2411
330
2354
100
AcDbEntity
  8
1
 62
     7
100
AcDbLine
 10
207.3786350428926
 20
228.74696068471
 30
0.0
 11
207.3786350428926
 21
232.04696068471
 31
0.0
  0
LINE
  5
2412
330
2354
100
AcDbEntity
  8
1
 62
     7
100
AcDbLine
 10
206.1786350428928
 20
228.74696068471
 30
0.0
 11
207.3786350428926
 21
228.74696068471
 31
0.0
  0
LINE
  5
2413
330
2354
100
AcDbEntity
  8
1
 62
     7
100
AcDbLine
 10
202.2786350428928
 20
255.54696068471
 30
0.0
 11
199.6786350428928
 21
255.54696068471
 31
0.0
  0
LINE
  5
2414
330
2354
100
AcDbEntity
  8
1
 62
     7
100
AcDbLine
 10
202.2786350428928
 20
232.04696068471
 30
0.0
 11
199.6786350428928
 21
232.04696068471
 31
0.0
  0
LINE
  5
2415
330
2354
100
AcDbEntity
  8
1
 62
     7
100
AcDbLine
 10
199.6786350428928
 20
255.54696068471
 30
0.0
 11
199.6786350428928
 21
251.04696068471
 31
0.0
  0
LINE
  5
2416
330
2354
100
AcDbEntity
  8
1
 62
     7
100
AcDbLine
 10
202.4786350428929
 20
256.19446068471
 30
0.0
 11
202.4786350428929
 21
250.34696068471
 31
0.0
  0
LINE
  5
2417
330
2354
100
AcDbEntity
  8
1
 62
     7
100
AcDbLine
 10
202.4786350428929
 20
256.19446068471
 30
0.0
 11
206.4786350428929
 21
256.19446068471
 31
0.0
  0
LINE
  5
2418
330
2354
100
AcDbEntity
  8
1
 62
     7
100
AcDbLine
 10
199.6786350428928
 20
251.04696068471
 30
0.0
 11
202.2786350428928
 21
251.04696068471
 31
0.0
  0
LINE
  5
2419
330
2354
100
AcDbEntity
  8
1
 62
     7
100
AcDbLine
 10
199.6786350428928
 20
251.04696068471
 30
0.0
 11
199.6786350428928
 21
250.34696068471
 31
0.0
  0
LINE
  5
241A
330
2354
100
AcDbEntity
  8
1
 62
     7
100
AcDbLine
 10
202.2786350428928
 20
251.04696068471
 30
0.0
 11
202.2786350428928
 21
255.54696068471
 31
0.0
  0
LINE
  5
241B
330
2354
100
AcDbEntity
  8
1
 62
     7
100
AcDbLine
 10
199.6786350428928
 20
251.04696068471
 30
0.0
 11
199.4786350428929
 21
251.04696068471
 31
0.0
  0
LINE
  5
241C
330
2354
100
AcDbEntity
  8
1
 62
     7
100
AcDbLine
 10
196.328635042893
 20
251.04696068471
 30
0.0
 11
196.1286350428926
 21
251.04696068471
 31
0.0
  0
LINE
  5
241D
330
2354
100
AcDbEntity
  8
1
 62
     7
100
AcDbLine
 10
199.4786350428929
 20
251.04696068471
 30
0.0
 11
199.4786350428929
 21
250.34696068471
 31
0.0
  0
LINE
  5
241E
330
2354
100
AcDbEntity
  8
1
 62
     7
100
AcDbLine
 10
199.4786350428929
 20
250.34696068471
 30
0.0
 11
199.4786350428929
 21
250.0469606847099
 31
0.0
  0
LINE
  5
241F
330
2354
100
AcDbEntity
  8
1
 62
     7
100
AcDbLine
 10
199.4786350428929
 20
250.0469606847099
 30
0.0
 11
196.328635042893
 21
250.0469606847099
 31
0.0
  0
LINE
  5
2420
330
2354
100
AcDbEntity
  8
1
 62
     7
100
AcDbLine
 10
196.328635042893
 20
251.04696068471
 30
0.0
 11
196.328635042893
 21
250.34696068471
 31
0.0
  0
LINE
  5
2421
330
2354
100
AcDbEntity
  8
1
 62
     7
100
AcDbLine
 10
196.328635042893
 20
250.34696068471
 30
0.0
 11
199.4786350428929
 21
250.34696068471
 31
0.0
  0
LINE
  5
2422
330
2354
100
AcDbEntity
  8
1
 62
     7
100
AcDbLine
 10
196.328635042893
 20
250.34696068471
 30
0.0
 11
196.328635042893
 21
250.0469606847099
 31
0.0
  0
LINE
  5
2423
330
2354
100
AcDbEntity
  8
1
 62
     7
100
AcDbLine
 10
196.328635042893
 20
250.0469606847099
 30
0.0
 11
196.1286350428926
 21
250.0469606847099
 31
0.0
  0
LINE
  5
2424
330
2354
100
AcDbEntity
  8
1
 62
     7
100
AcDbLine
 10
196.1286350428926
 20
230.99696068471
 30
0.0
 11
196.1286350428926
 21
226.54696068471
 31
0.0
  0
LINE
  5
2425
330
2354
100
AcDbEntity
  8
1
 62
     7
100
AcDbLine
 10
196.328635042893
 20
230.99696068471
 30
0.0
 11
196.328635042893
 21
231.74696068471
 31
0.0
  0
LINE
  5
2426
330
2354
100
AcDbEntity
  8
1
 62
     7
100
AcDbLine
 10
196.328635042893
 20
231.74696068471
 30
0.0
 11
196.328635042893
 21
232.04696068471
 31
0.0
  0
LINE
  5
2427
330
2354
100
AcDbEntity
  8
1
 62
     7
100
AcDbLine
 10
196.328635042893
 20
232.04696068471
 30
0.0
 11
199.4786350428929
 21
232.04696068471
 31
0.0
  0
LINE
  5
2428
330
2354
100
AcDbEntity
  8
1
 62
     7
100
AcDbLine
 10
199.4786350428929
 20
230.99696068471
 30
0.0
 11
199.4786350428929
 21
231.74696068471
 31
0.0
  0
LINE
  5
2429
330
2354
100
AcDbEntity
  8
1
 62
     7
100
AcDbLine
 10
199.4786350428929
 20
231.74696068471
 30
0.0
 11
196.328635042893
 21
231.74696068471
 31
0.0
  0
LINE
  5
242A
330
2354
100
AcDbEntity
  8
1
 62
     7
100
AcDbLine
 10
199.4786350428929
 20
231.74696068471
 30
0.0
 11
199.4786350428929
 21
232.04696068471
 31
0.0
  0
LINE
  5
242B
330
2354
100
AcDbEntity
  8
1
 62
     7
100
AcDbLine
 10
199.4786350428929
 20
232.04696068471
 30
0.0
 11
199.6786350428928
 21
232.04696068471
 31
0.0
  0
LINE
  5
242C
330
2354
100
AcDbEntity
  8
1
 62
     7
100
AcDbLine
 10
199.4786350428929
 20
230.99696068471
 30
0.0
 11
199.6786350428928
 21
230.99696068471
 31
0.0
  0
LINE
  5
242D
330
2354
100
AcDbEntity
  8
1
 62
     7
100
AcDbLine
 10
199.6786350428928
 20
230.99696068471
 30
0.0
 11
199.6786350428928
 21
231.74696068471
 31
0.0
  0
LINE
  5
242E
330
2354
100
AcDbEntity
  8
1
 62
     7
100
AcDbLine
 10
196.328635042893
 20
230.99696068471
 30
0.0
 11
196.1286350428926
 21
230.99696068471
 31
0.0
  0
LINE
  5
242F
330
2354
100
AcDbEntity
  8
1
 62
     7
100
AcDbLine
 10
193.278635042893
 20
226.2567612269608
 30
0.0
 11
193.278635042893
 21
231.74696068471
 31
0.0
  0
LINE
  5
2430
330
2354
100
AcDbEntity
  8
1
 62
     7
100
AcDbLine
 10
193.278635042893
 20
231.74696068471
 30
0.0
 11
193.278635042893
 21
236.64696068471
 31
0.0
  0
LINE
  5
2431
330
2354
100
AcDbEntity
  8
1
 62
     7
100
AcDbLine
 10
193.6786350428928
 20
245.04696068471
 30
0.0
 11
210.5186350428926
 21
245.04696068471
 31
0.0
  0
LINE
  5
2432
330
2354
100
AcDbEntity
  8
1
 62
     7
100
AcDbLine
 10
193.278635042893
 20
245.44696068471
 30
0.0
 11
193.278635042893
 21
256.04696068471
 31
0.0
  0
LINE
  5
2433
330
2354
100
AcDbEntity
  8
1
 62
     7
100
AcDbLine
 10
193.278635042893
 20
256.04696068471
 30
0.0
 11
196.1286350428926
 21
256.04696068471
 31
0.0
  0
LINE
  5
2434
330
2354
100
AcDbEntity
  8
1
 62
     7
100
AcDbLine
 10
212.3786350428928
 20
232.04696068471
 30
0.0
 11
208.9186350428925
 21
232.04696068471
 31
0.0
  0
LINE
  5
2435
330
2354
100
AcDbEntity
  8
1
 62
     7
100
AcDbLine
 10
212.3786350428928
 20
237.04696068471
 30
0.0
 11
193.6786350428928
 21
237.04696068471
 31
0.0
  0
LINE
  5
2436
330
2354
100
AcDbEntity
  8
1
 62
     7
100
AcDbLine
 10
212.7786350428928
 20
236.64696068471
 30
0.0
 11
212.7786350428928
 21
232.39696068471
 31
0.0
  0
LINE
  5
2437
330
2354
100
AcDbEntity
  8
1
 62
     7
100
AcDbLine
 10
212.7786350428928
 20
236.64696068471
 30
0.0
 11
212.3786350428928
 21
237.04696068471
 31
0.0
  0
LINE
  5
2438
330
2354
100
AcDbEntity
  8
1
 62
     7
100
AcDbLine
 10
212.3786350428928
 20
245.04696068471
 30
0.0
 11
212.7786350428928
 21
245.44696068471
 31
0.0
  0
LINE
  5
2439
330
2354
100
AcDbEntity
  8
1
 62
     7
100
AcDbLine
 10
193.278635042893
 20
245.44696068471
 30
0.0
 11
193.6786350428928
 21
245.04696068471
 31
0.0
  0
LINE
  5
243A
330
2354
100
AcDbEntity
  8
1
 62
     7
100
AcDbLine
 10
193.6786350428928
 20
237.04696068471
 30
0.0
 11
193.278635042893
 21
236.64696068471
 31
0.0
  0
LINE
  5
243B
330
2354
100
AcDbEntity
  8
1
 62
     7
100
AcDbLine
 10
212.7786350428928
 20
232.39696068471
 30
0.0
 11
212.3786350428928
 21
232.04696068471
 31
0.0
  0
LINE
  5
243C
330
2354
100
AcDbEntity
  8
1
 62
     7
100
AcDbLine
 10
212.3786350428928
 20
250.0469606847099
 30
0.0
 11
212.7786350428928
 21
249.6469606847099
 31
0.0
  0
LINE
  5
243D
330
2354
100
AcDbEntity
  8
1
 62
     7
100
AcDbLine
 10
212.7786350428928
 20
245.44696068471
 30
0.0
 11
212.7786350428928
 21
236.64696068471
 31
0.0
  0
LINE
  5
243E
330
2354
100
AcDbEntity
  8
1
 62
     7
100
AcDbLine
 10
193.278635042893
 20
245.44696068471
 30
0.0
 11
193.278635042893
 21
236.64696068471
 31
0.0
  0
LINE
  5
243F
330
2354
100
AcDbEntity
  8
1
 62
     7
100
AcDbLine
 10
208.9186350428925
 20
250.0469606847099
 30
0.0
 11
207.7186350428926
 21
250.0469606847099
 31
0.0
  0
LINE
  5
2440
330
2354
100
AcDbEntity
  8
1
 62
     7
100
AcDbLine
 10
207.3786350428926
 20
250.0469606847099
 30
0.0
 11
207.7086350428928
 21
250.0469606847099
 31
0.0
  0
LINE
  5
2441
330
2354
100
AcDbEntity
  8
1
 62
     7
100
AcDbLine
 10
204.9786350428929
 20
250.34696068471
 30
0.0
 11
202.4786350428929
 21
250.34696068471
 31
0.0
  0
LINE
  5
2442
330
2354
100
AcDbEntity
  8
1
 62
     7
100
AcDbLine
 10
204.9786350428929
 20
250.0469606847099
 30
0.0
 11
199.6786350428928
 21
250.0469606847099
 31
0.0
  0
LINE
  5
2443
330
2354
100
AcDbEntity
  8
1
 62
     7
100
AcDbLine
 10
208.9186350428925
 20
232.04696068471
 30
0.0
 11
207.8186350428928
 21
232.04696068471
 31
0.0
  0
LINE
  5
2444
330
2354
100
AcDbEntity
  8
1
 62
     7
100
AcDbLine
 10
206.0286350428929
 20
232.04696068471
 30
0.0
 11
204.9786350428929
 21
232.04696068471
 31
0.0
  0
LINE
  5
2445
330
2354
100
AcDbEntity
  8
1
 62
     7
100
AcDbLine
 10
206.1786350428928
 20
231.74696068471
 30
0.0
 11
204.9786350428929
 21
231.74696068471
 31
0.0
  0
LINE
  5
2446
330
2354
100
AcDbEntity
  8
1
 62
     7
100
AcDbLine
 10
206.4786350428929
 20
253.79696068471
 30
0.0
 11
206.4786350428929
 21
256.19446068471
 31
0.0
  0
LINE
  5
2447
330
2354
100
AcDbEntity
  8
1
 62
     7
100
AcDbLine
 10
206.4786350428929
 20
228.5204874223082
 30
0.0
 11
206.4786350428929
 21
228.29696068471
 31
0.0
  0
LINE
  5
2448
330
2354
100
AcDbEntity
  8
1
  6
DIVIDE
 62
     7
100
AcDbLine
 10
181.278635042893
 20
263.54696068471
 30
0.0
 11
183.9133517598426
 21
263.54696068471
 31
0.0
  0
LINE
  5
2449
330
2354
100
AcDbEntity
  8
1
  6
DIVIDE
 62
     7
100
AcDbLine
 10
181.278635042893
 20
218.54696068471
 30
0.0
 11
184.2216309172098
 21
218.54696068471
 31
0.0
  0
LINE
  5
244A
330
2354
100
AcDbEntity
  8
1
  6
DIVIDE
 62
     7
100
AcDbLine
 10
207.778635042893
 20
218.54696068471
 30
0.0
 11
206.778635042893
 21
218.54696068471
 31
0.0
  0
LINE
  5
244B
330
2354
100
AcDbEntity
  8
1
 62
     7
100
AcDbLine
 10
206.778635042893
 20
218.54696068471
 30
0.0
 11
206.778635042893
 21
219.21196068471
 31
0.0
  0
LINE
  5
244C
330
2354
100
AcDbEntity
  8
1
  6
DIVIDE
 62
     7
100
AcDbLine
 10
207.778635042893
 20
263.54696068471
 30
0.0
 11
206.778635042893
 21
263.54696068471
 31
0.0
  0
LINE
  5
244D
330
2354
100
AcDbEntity
  8
1
 62
     7
100
AcDbLine
 10
206.778635042893
 20
263.54696068471
 30
0.0
 11
206.778635042893
 21
262.88196068471
 31
0.0
  0
LINE
  5
244E
330
2354
100
AcDbEntity
  8
1
  6
DIVIDE
 62
     7
100
AcDbLine
 10
207.778635042893
 20
263.54696068471
 30
0.0
 11
207.778635042893
 21
259.4716392342741
 31
0.0
  0
LINE
  5
244F
330
2354
100
AcDbEntity
  8
1
  6
DIVIDE
 62
     7
100
AcDbLine
 10
207.778635042893
 20
218.54696068471
 30
0.0
 11
207.778635042893
 21
222.3240007715821
 31
0.0
  0
LINE
  5
2450
330
2354
100
AcDbEntity
  8
1
  6
DIVIDE
 62
     7
100
AcDbLine
 10
181.278635042893
 20
218.54696068471
 30
0.0
 11
181.278635042893
 21
221.9386518248743
 31
0.0
  0
LINE
  5
2451
330
2354
100
AcDbEntity
  8
1
  6
DIVIDE
 62
     7
100
AcDbLine
 10
181.278635042893
 20
263.54696068471
 30
0.0
 11
181.278635042893
 21
260.5506162850583
 31
0.0
  0
LINE
  5
2452
330
2354
100
AcDbEntity
  8
1
 62
     7
100
AcDbLine
 10
206.778635042893
 20
219.9699638817254
 30
0.0
 11
206.778635042893
 21
221.7728423727252
 31
0.0
  0
LINE
  5
2453
330
2354
100
AcDbEntity
  8
1
 62
     7
100
AcDbLine
 10
206.778635042893
 20
262.1239574876943
 30
0.0
 11
206.778635042893
 21
260.3982617014963
 31
0.0
  0
LINE
  5
2454
330
2354
100
AcDbEntity
  8
1
 62
     7
100
AcDbLine
 10
180.278635042893
 20
227.94696068471
 30
0.0
 11
180.778635042893
 21
227.4469606847099
 31
0.0
  0
LINE
  5
2455
330
2354
100
AcDbEntity
  8
1
 62
     7
100
AcDbLine
 10
180.778635042893
 20
254.64696068471
 30
0.0
 11
180.278635042893
 21
254.1469606847098
 31
0.0
  0
LINE
  5
2456
330
2354
100
AcDbEntity
  8
1
 62
     7
100
AcDbLine
 10
183.278635042893
 20
235.5469606847099
 30
0.0
 11
183.278635042893
 21
231.7969606847098
 31
0.0
  0
LINE
  5
2457
330
2354
100
AcDbEntity
  8
1
 62
     7
100
AcDbLine
 10
183.278635042893
 20
235.5469606847099
 30
0.0
 11
182.778635042893
 21
236.04696068471
 31
0.0
  0
LINE
  5
2458
330
2354
100
AcDbEntity
  8
1
 62
     7
100
AcDbLine
 10
183.278635042893
 20
246.54696068471
 30
0.0
 11
182.778635042893
 21
246.0469606847099
 31
0.0
  0
LINE
  5
2459
330
2354
100
AcDbEntity
  8
1
 62
     7
100
AcDbLine
 10
180.278635042893
 20
246.54696068471
 30
0.0
 11
180.778635042893
 21
246.0469606847099
 31
0.0
  0
LINE
  5
245A
330
2354
100
AcDbEntity
  8
1
 62
     7
100
AcDbLine
 10
180.278635042893
 20
235.5469606847099
 30
0.0
 11
180.778635042893
 21
236.04696068471
 31
0.0
  0
LINE
  5
245B
330
2354
100
AcDbEntity
  8
1
 62
     7
100
AcDbLine
 10
183.278635042893
 20
246.54696068471
 30
0.0
 11
183.278635042893
 21
235.5469606847099
 31
0.0
  0
LINE
  5
245C
330
2354
100
AcDbEntity
  8
1
 62
     7
100
AcDbLine
 10
180.278635042893
 20
246.54696068471
 30
0.0
 11
180.278635042893
 21
235.5469606847099
 31
0.0
  0
LINE
  5
245D
330
2354
100
AcDbEntity
  8
1
  6
DASHED
 62
     4
100
AcDbLine
 10
297.7711759052768
 20
242.54696068471
 30
0.0
 11
292.6051554741752
 21
242.54696068471
 31
0.0
  0
LINE
  5
245E
330
2354
100
AcDbEntity
  8
1
  6
DASHED
 62
     4
100
AcDbLine
 10
292.6051554741752
 20
239.5469606847099
 30
0.0
 11
297.7711759052768
 21
239.5469606847099
 31
0.0
  0
LINE
  5
245F
330
2354
100
AcDbEntity
  8
1
  6
DASHED
 62
     4
100
AcDbLine
 10
297.8295810696636
 20
239.9469606847099
 30
0.0
 11
292.7428331352334
 21
239.9469606847099
 31
0.0
  0
LINE
  5
2460
330
2354
100
AcDbEntity
  8
1
  6
DASHED
 62
     4
100
AcDbLine
 10
292.7428331352334
 20
242.14696068471
 30
0.0
 11
297.8295810696636
 21
242.14696068471
 31
0.0
  0
LINE
  5
2461
330
2354
100
AcDbEntity
  8
1
  6
DASHED
 62
     4
100
AcDbLine
 10
290.3970562306276
 20
244.721473479373
 30
0.0
 11
290.3970562306276
 21
249.921080359359
 31
0.0
  0
LINE
  5
2462
330
2354
100
AcDbEntity
  8
1
  6
DASHED
 62
     4
100
AcDbLine
 10
287.7970562306275
 20
244.8927375893159
 30
0.0
 11
287.7970562306275
 21
249.9794855237463
 31
0.0
  0
LINE
  5
2463
330
2354
100
AcDbEntity
  8
1
  6
DASHED
 62
     4
100
AcDbLine
 10
289.9970562306275
 20
249.9794855237463
 30
0.0
 11
289.9970562306275
 21
244.8927375893159
 31
0.0
  0
LINE
  5
2464
330
2354
100
AcDbEntity
  8
1
  6
DASHED
 62
     4
100
AcDbLine
 10
287.3970562306276
 20
249.921080359359
 30
0.0
 11
287.3970562306276
 21
244.721473479373
 31
0.0
  0
LINE
  5
2465
330
2354
100
AcDbEntity
  8
1
 62
     7
100
AcDbLine
 10
290.6970562306276
 20
228.9299272193769
 30
0.0
 11
290.6970562306276
 21
232.2287976106906
 31
0.0
  0
LINE
  5
2466
330
2354
100
AcDbEntity
  8
1
 62
     7
100
AcDbLine
 10
287.0970562306275
 20
228.9299272193769
 30
0.0
 11
287.0970562306275
 21
232.2287976106906
 31
0.0
  0
LINE
  5
2467
330
2354
100
AcDbEntity
  8
1
 62
     7
100
AcDbLine
 10
287.0970562306275
 20
228.74696068471
 30
0.0
 11
287.0970562306275
 21
228.9299272193769
 31
0.0
  0
LINE
  5
2468
330
2354
100
AcDbEntity
  8
1
 62
     7
100
AcDbLine
 10
290.6970562306276
 20
228.74696068471
 30
0.0
 11
290.6970562306276
 21
228.9299272193769
 31
0.0
  0
LINE
  5
2469
330
2354
100
AcDbEntity
  8
1
 62
     7
100
AcDbLine
 10
290.6970562306276
 20
228.74696068471
 30
0.0
 11
292.3970562306276
 21
228.74696068471
 31
0.0
  0
LINE
  5
246A
330
2354
100
AcDbEntity
  8
1
 62
     7
100
AcDbLine
 10
287.0970562306275
 20
228.74696068471
 30
0.0
 11
285.3970562306276
 21
228.74696068471
 31
0.0
  0
LINE
  5
246B
330
2354
100
AcDbEntity
  8
1
 62
     7
100
AcDbLine
 10
294.3970562306276
 20
230.74696068471
 30
0.0
 11
294.3970562306276
 21
231.1229254830044
 31
0.0
  0
LINE
  5
246C
330
2354
100
AcDbEntity
  8
1
 62
     7
100
AcDbLine
 10
283.3970562306276
 20
230.74696068471
 30
0.0
 11
283.3970562306276
 21
231.1229254830044
 31
0.0
  0
LINE
  5
246D
330
2354
100
AcDbEntity
  8
1
  6
CENTER
 62
     3
100
AcDbLine
 10
303.7570562306276
 20
266.7852356851834
 30
0.0
 11
301.0370562306277
 21
262.074057488596
 31
0.0
  0
LINE
  5
246E
330
2354
100
AcDbEntity
  8
1
  6
CENTER
 62
     3
100
AcDbLine
 10
303.7570562306276
 20
215.3086856842364
 30
0.0
 11
301.0370562306275
 21
220.0198638808238
 31
0.0
  0
LINE
  5
246F
330
2354
100
AcDbEntity
  8
1
  6
CENTER
 62
     3
100
AcDbLine
 10
274.0370562306275
 20
215.3086856842364
 30
0.0
 11
276.7570562306274
 21
220.0198638808238
 31
0.0
  0
LINE
  5
2470
330
2354
100
AcDbEntity
  8
1
  6
CENTER
 62
     3
100
AcDbLine
 10
274.0370562306275
 20
266.7852356851834
 30
0.0
 11
276.7570562306274
 21
262.074057488596
 31
0.0
  0
LINE
  5
2471
330
2354
100
AcDbEntity
  8
1
  6
CENTER
 62
     3
100
AcDbLine
 10
77.33699659819198
 20
220.0198638808238
 30
0.0
 11
74.6169965981919
 21
215.3086856842364
 31
0.0
  0
LINE
  5
2472
330
2354
100
AcDbEntity
  8
1
  6
CENTER
 62
     3
100
AcDbLine
 10
101.6169965981917
 20
220.0198638808238
 30
0.0
 11
104.3369965981919
 21
215.3086856842364
 31
0.0
  0
LINE
  5
2473
330
2354
100
AcDbEntity
  8
1
  6
CENTER
 62
     3
100
AcDbLine
 10
101.6169965981917
 20
262.074057488596
 30
0.0
 11
104.3369965981919
 21
266.7852356851834
 31
0.0
  0
LINE
  5
2474
330
2354
100
AcDbEntity
  8
1
  6
CENTER
 62
     3
100
AcDbLine
 10
77.33699659819198
 20
262.074057488596
 30
0.0
 11
74.6169965981919
 21
266.7852356851834
 31
0.0
  0
LINE
  5
2475
330
2354
100
AcDbEntity
  8
1
  6
CENTER
 62
     3
100
AcDbLine
 10
101.5147497107955
 20
247.99696068471
 30
0.0
 11
93.89372615749262
 21
243.59696068471
 31
0.0
  0
LINE
  5
2476
330
2354
100
AcDbEntity
  8
1
  6
CENTER
 62
     3
100
AcDbLine
 10
101.5147497107955
 20
234.0969606847099
 30
0.0
 11
93.89372615749262
 21
238.49696068471
 31
0.0
  0
LINE
  5
2477
330
2354
100
AcDbEntity
  8
1
  6
CENTER
 62
     3
100
AcDbLine
 10
77.43924348558822
 20
234.0969606847099
 30
0.0
 11
85.06026703889132
 21
238.49696068471
 31
0.0
  0
LINE
  5
2478
330
2354
100
AcDbEntity
  8
1
  6
CENTER
 62
     3
100
AcDbLine
 10
77.43924348558822
 20
247.99696068471
 30
0.0
 11
85.06026703889132
 21
243.59696068471
 31
0.0
  0
LINE
  5
2479
330
2354
100
AcDbEntity
  8
1
  6
CENTER
 62
     3
100
AcDbLine
 10
97.052040904916
 20
212.77651046243
 30
0.0
 11
95.85303532734943
 21
217.2512601964675
 31
0.0
  0
LINE
  5
247A
330
2354
100
AcDbEntity
  8
1
  6
CENTER
 62
     3
100
AcDbLine
 10
81.81093915370283
 20
269.6570765612849
 30
0.0
 11
83.14663380208537
 21
264.6721962701235
 31
0.0
  0
LINE
  5
247B
330
2354
100
AcDbEntity
  8
1
  6
CENTER
 62
     3
100
AcDbLine
 10
68.44989979430581
 20
253.18696068471
 30
0.0
 11
63.73872159771842
 21
255.90696068471
 31
0.0
  0
LINE
  5
247C
330
2354
100
AcDbEntity
  8
1
  6
CENTER
 62
     3
100
AcDbLine
 10
110.504093402078
 20
228.90696068471
 30
0.0
 11
115.2152715986654
 21
226.18696068471
 31
0.0
  0
LINE
  5
247D
330
2354
100
AcDbEntity
  8
1
  6
CENTER
 62
     3
100
AcDbLine
 10
110.504093402078
 20
253.18696068471
 30
0.0
 11
115.2152715986654
 21
255.90696068471
 31
0.0
  0
LINE
  5
247E
330
2354
100
AcDbEntity
  8
1
  6
CENTER
 62
     3
100
AcDbLine
 10
68.44989979430572
 20
228.90696068471
 30
0.0
 11
63.73872159771832
 21
226.18696068471
 31
0.0
  0
LINE
  5
247F
330
2354
100
AcDbEntity
  8
1
  6
DASHDOT
 62
     3
100
AcDbLine
 10
95.97699659819193
 20
252.3052909339077
 30
0.0
 11
93.72699659819193
 21
248.4081766168777
 31
0.0
  0
LINE
  5
2480
330
2354
100
AcDbEntity
  8
1
  6
DASHDOT
 62
     3
100
AcDbLine
 10
82.9769965981919
 20
229.7886304355122
 30
0.0
 11
85.22699659819194
 21
233.685744752542
 31
0.0
  0
LINE
  5
2481
330
2354
100
AcDbEntity
  8
1
  6
CENTER
 62
     3
100
AcDbLine
 10
263.1587812301539
 20
255.90696068471
 30
0.0
 11
267.8699594267411
 21
253.18696068471
 31
0.0
  0
LINE
  5
2482
330
2354
100
AcDbEntity
  8
1
  6
CENTER
 62
     3
100
AcDbLine
 10
314.635331231101
 20
226.18696068471
 30
0.0
 11
309.9241530345139
 21
228.90696068471
 31
0.0
  0
LINE
  5
2483
330
2354
100
AcDbEntity
  8
1
  6
CENTER
 62
     3
100
AcDbLine
 10
263.1587812301539
 20
226.18696068471
 30
0.0
 11
267.8699594267411
 21
228.90696068471
 31
0.0
  0
LINE
  5
2484
330
2354
100
AcDbEntity
  8
1
  6
CENTER
 62
     3
100
AcDbLine
 10
314.6353312311012
 20
255.90696068471
 30
0.0
 11
309.9241530345139
 21
253.18696068471
 31
0.0
  0
LINE
  5
2485
330
2354
100
AcDbEntity
  8
1
  6
CENTER
 62
     3
100
AcDbLine
 10
296.5891582510743
 20
269.7542762420208
 30
0.0
 11
295.1811826457168
 21
264.4996397470084
 31
0.0
  0
LINE
  5
2486
330
2354
100
AcDbEntity
  8
1
  6
CENTER
 62
     3
100
AcDbLine
 10
281.2049542101807
 20
212.3396451273988
 30
0.0
 11
282.6129298155381
 21
217.5942816224115
 31
0.0
  0
LINE
  5
2487
330
2354
100
AcDbEntity
  8
1
 62
     7
100
AcDbLine
 10
206.4786350428929
 20
253.79696068471
 30
0.0
 11
206.4786350428929
 21
253.6165914997591
 31
0.0
  0
LINE
  5
2488
330
2354
100
AcDbEntity
  8
1
 62
     7
100
AcDbLine
 10
206.4786350428929
 20
228.29696068471
 30
0.0
 11
206.4786350428929
 21
225.89946068471
 31
0.0
  0
LINE
  5
2489
330
2354
100
AcDbEntity
  8
1
 62
     7
100
AcDbLine
 10
204.9786350428929
 20
253.79696068471
 30
0.0
 11
204.9786350428929
 21
253.29696068471
 31
0.0
  0
LINE
  5
248A
330
2354
100
AcDbEntity
  8
1
 62
     7
100
AcDbLine
 10
204.9786350428929
 20
253.79696068471
 30
0.0
 11
206.4786350428929
 21
253.79696068471
 31
0.0
  0
LINE
  5
248B
330
2354
100
AcDbEntity
  8
1
 62
     7
100
AcDbLine
 10
204.9786350428929
 20
253.29696068471
 30
0.0
 11
206.1786350428928
 21
253.29696068471
 31
0.0
  0
LINE
  5
248C
330
2354
100
AcDbEntity
  8
1
 62
     7
100
AcDbLine
 10
204.9786350428929
 20
253.29696068471
 30
0.0
 11
204.9786350428929
 21
250.34696068471
 31
0.0
  0
LINE
  5
248D
330
2354
100
AcDbEntity
  8
1
 62
     7
100
AcDbLine
 10
204.9786350428929
 20
250.34696068471
 30
0.0
 11
206.1786350428928
 21
250.34696068471
 31
0.0
  0
LINE
  5
248E
330
2354
100
AcDbEntity
  8
1
 62
     7
100
AcDbLine
 10
204.9786350428929
 20
250.34696068471
 30
0.0
 11
204.9786350428929
 21
250.0469606847099
 31
0.0
  0
LINE
  5
248F
330
2354
100
AcDbEntity
  8
1
 62
     7
100
AcDbLine
 10
204.9786350428929
 20
250.0469606847099
 30
0.0
 11
206.0286350428929
 21
250.0469606847099
 31
0.0
  0
LINE
  5
2490
330
2354
100
AcDbEntity
  8
1
 62
     7
100
AcDbLine
 10
204.9786350428929
 20
232.04696068471
 30
0.0
 11
204.9786350428929
 21
231.74696068471
 31
0.0
  0
LINE
  5
2491
330
2354
100
AcDbEntity
  8
1
 62
     7
100
AcDbLine
 10
204.9786350428929
 20
232.04696068471
 30
0.0
 11
202.2786350428928
 21
232.04696068471
 31
0.0
  0
LINE
  5
2492
330
2354
100
AcDbEntity
  8
1
 62
     7
100
AcDbLine
 10
204.9786350428929
 20
231.74696068471
 30
0.0
 11
199.6786350428928
 21
231.74696068471
 31
0.0
  0
LINE
  5
2493
330
2354
100
AcDbEntity
  8
1
 62
     7
100
AcDbLine
 10
204.9786350428929
 20
231.74696068471
 30
0.0
 11
204.9786350428929
 21
228.79696068471
 31
0.0
  0
LINE
  5
2494
330
2354
100
AcDbEntity
  8
1
 62
     7
100
AcDbLine
 10
204.9786350428929
 20
228.79696068471
 30
0.0
 11
204.9786350428929
 21
228.29696068471
 31
0.0
  0
LINE
  5
2495
330
2354
100
AcDbEntity
  8
1
 62
     7
100
AcDbLine
 10
204.9786350428929
 20
228.29696068471
 30
0.0
 11
206.4786350428929
 21
228.29696068471
 31
0.0
  0
LINE
  5
249A
330
2354
100
AcDbEntity
  8
1
 62
     7
100
AcDbLine
 10
200.0586350428931
 20
257.23696068471
 30
0.0
 11
200.0586350428931
 21
261.07696068471
 31
0.0
  0
LINE
  5
249B
330
2354
100
AcDbEntity
  8
1
 62
     7
100
AcDbLine
 10
206.2186350428931
 20
257.23696068471
 30
0.0
 11
206.2186350428931
 21
261.07696068471
 31
0.0
  0
LINE
  5
249C
330
2354
100
AcDbEntity
  8
1
 62
     7
100
AcDbLine
 10
200.0586350428931
 20
224.8569606847099
 30
0.0
 11
200.0586350428931
 21
221.01696068471
 31
0.0
  0
LINE
  5
249D
330
2354
100
AcDbEntity
  8
1
 62
     7
100
AcDbLine
 10
206.2186350428931
 20
221.01696068471
 30
0.0
 11
206.0186350428931
 21
221.21696068471
 31
0.0
  0
LINE
  5
249E
330
2354
100
AcDbEntity
  8
1
 62
     7
100
AcDbLine
 10
206.2186350428931
 20
221.01696068471
 30
0.0
 11
206.2186350428931
 21
220.4746358193048
 31
0.0
  0
LINE
  5
249F
330
2354
100
AcDbEntity
  8
1
 62
     7
100
AcDbLine
 10
200.0586350428931
 20
261.07696068471
 30
0.0
 11
200.2586350428931
 21
260.87696068471
 31
0.0
  0
LINE
  5
24A0
330
2354
100
AcDbEntity
  8
1
 62
     7
100
AcDbLine
 10
206.2186350428931
 20
261.07696068471
 30
0.0
 11
206.0186350428931
 21
260.87696068471
 31
0.0
  0
LINE
  5
24A1
330
2354
100
AcDbEntity
  8
1
 62
     7
100
AcDbLine
 10
200.0586350428931
 20
221.01696068471
 30
0.0
 11
200.2586350428931
 21
221.21696068471
 31
0.0
  0
LINE
  5
24A2
330
2354
100
AcDbEntity
  8
1
 62
     7
100
AcDbLine
 10
200.0586350428931
 20
261.619285550115
 30
0.0
 11
200.5586350428931
 21
261.90796068471
 31
0.0
  0
LINE
  5
24A3
330
2354
100
AcDbEntity
  8
1
 62
     7
100
AcDbLine
 10
206.2186350428931
 20
261.619285550115
 30
0.0
 11
205.718635042893
 21
261.90796068471
 31
0.0
  0
LINE
  5
24A4
330
2354
100
AcDbEntity
  8
1
 62
     7
100
AcDbLine
 10
206.2186350428931
 20
261.07696068471
 30
0.0
 11
206.2186350428931
 21
261.619285550115
 31
0.0
  0
LINE
  5
24A5
330
2354
100
AcDbEntity
  8
1
 62
     7
100
AcDbLine
 10
200.5586350428931
 20
261.90796068471
 30
0.0
 11
205.718635042893
 21
261.90796068471
 31
0.0
  0
LINE
  5
24A6
330
2354
100
AcDbEntity
  8
1
 62
     7
100
AcDbLine
 10
200.0586350428931
 20
261.07696068471
 30
0.0
 11
200.0586350428931
 21
261.619285550115
 31
0.0
  0
LINE
  5
24A7
330
2354
100
AcDbEntity
  8
1
 62
     7
100
AcDbLine
 10
200.0586350428931
 20
220.4746358193048
 30
0.0
 11
200.5586350428931
 21
220.18596068471
 31
0.0
  0
LINE
  5
24A8
330
2354
100
AcDbEntity
  8
1
 62
     7
100
AcDbLine
 10
200.5586350428931
 20
220.18596068471
 30
0.0
 11
205.718635042893
 21
220.18596068471
 31
0.0
  0
LINE
  5
24A9
330
2354
100
AcDbEntity
  8
1
 62
     7
100
AcDbLine
 10
200.0586350428931
 20
221.01696068471
 30
0.0
 11
200.0586350428931
 21
220.4746358193048
 31
0.0
  0
LINE
  5
24AA
330
2354
100
AcDbEntity
  8
1
 62
     7
100
AcDbLine
 10
206.2186350428931
 20
220.4746358193048
 30
0.0
 11
205.718635042893
 21
220.18596068471
 31
0.0
  0
LINE
  5
24AB
330
2354
100
AcDbEntity
  8
1
 62
     7
100
AcDbLine
 10
206.2186350428931
 20
221.01696068471
 30
0.0
 11
206.2186350428931
 21
224.8569606847099
 31
0.0
  0
LINE
  5
24AC
330
2354
100
AcDbEntity
  8
1
 62
     7
100
AcDbLine
 10
206.4786350428929
 20
256.9769606847098
 30
0.0
 11
206.1786350428928
 21
257.2769606847098
 31
0.0
  0
LINE
  5
24AD
330
2354
100
AcDbEntity
  8
1
 62
     7
100
AcDbLine
 10
206.4786350428929
 20
256.49696068471
 30
0.0
 11
206.1786350428928
 21
256.19696068471
 31
0.0
  0
LINE
  5
24AE
330
2354
100
AcDbEntity
  8
1
 62
     7
100
AcDbLine
 10
199.7986350428931
 20
256.49696068471
 30
0.0
 11
200.0986350428926
 21
256.19696068471
 31
0.0
  0
LINE
  5
24AF
330
2354
100
AcDbEntity
  8
1
 62
     7
100
AcDbLine
 10
199.7986350428931
 20
256.9769606847098
 30
0.0
 11
200.0986350428926
 21
257.2769606847098
 31
0.0
  0
LINE
  5
24B0
330
2354
100
AcDbEntity
  8
1
 62
     7
100
AcDbLine
 10
206.4786350428929
 20
256.49696068471
 30
0.0
 11
206.4786350428929
 21
256.9769606847098
 31
0.0
  0
LINE
  5
24B1
330
2354
100
AcDbEntity
  8
1
 62
     7
100
AcDbLine
 10
199.7986350428931
 20
256.9769606847098
 30
0.0
 11
199.7986350428931
 21
256.49696068471
 31
0.0
  0
LINE
  5
24B2
330
2354
100
AcDbEntity
  8
1
 62
     7
100
AcDbLine
 10
200.0986350428926
 20
256.19696068471
 30
0.0
 11
206.1786350428928
 21
256.19696068471
 31
0.0
  0
LINE
  5
24B3
330
2354
100
AcDbEntity
  8
1
 62
     7
100
AcDbLine
 10
204.010414831601
 20
257.2769606847098
 30
0.0
 11
206.1786350428928
 21
257.2769606847098
 31
0.0
  0
LINE
  5
24B4
330
2354
100
AcDbEntity
  8
1
 62
     7
100
AcDbLine
 10
202.2668552541849
 20
257.2769606847098
 30
0.0
 11
200.0986350428926
 21
257.2769606847098
 31
0.0
  0
LINE
  5
24B5
330
2354
100
AcDbEntity
  8
1
 62
     7
100
AcDbLine
 10
206.0186350428931
 20
260.87696068471
 30
0.0
 11
204.010414831601
 21
260.87696068471
 31
0.0
  0
LINE
  5
24B6
330
2354
100
AcDbEntity
  8
1
 62
     7
100
AcDbLine
 10
200.2586350428931
 20
260.87696068471
 30
0.0
 11
202.2668552541849
 21
260.87696068471
 31
0.0
  0
LINE
  5
24B7
330
2354
100
AcDbEntity
  8
1
 62
     7
100
AcDbLine
 10
200.2586350428931
 20
221.21696068471
 30
0.0
 11
202.2668552541849
 21
221.21696068471
 31
0.0
  0
LINE
  5
24B8
330
2354
100
AcDbEntity
  8
1
 62
     7
100
AcDbLine
 10
206.0186350428931
 20
221.21696068471
 30
0.0
 11
204.010414831601
 21
221.21696068471
 31
0.0
  0
LINE
  5
24B9
330
2354
100
AcDbEntity
  8
1
 62
     7
100
AcDbLine
 10
200.0986350428926
 20
224.8169606847099
 30
0.0
 11
202.2668552541849
 21
224.8169606847099
 31
0.0
  0
LINE
  5
24BA
330
2354
100
AcDbEntity
  8
1
 62
     7
100
AcDbLine
 10
206.1786350428928
 20
224.8169606847099
 30
0.0
 11
204.010414831601
 21
224.8169606847099
 31
0.0
  0
LINE
  5
24BB
330
2354
100
AcDbEntity
  8
1
 62
     7
100
AcDbLine
 10
206.1786350428928
 20
225.89696068471
 30
0.0
 11
200.0986350428926
 21
225.89696068471
 31
0.0
  0
LINE
  5
24BC
330
2354
100
AcDbEntity
  8
1
 62
     7
100
AcDbLine
 10
199.7986350428931
 20
225.59696068471
 30
0.0
 11
199.7986350428931
 21
225.11696068471
 31
0.0
  0
LINE
  5
24BD
330
2354
100
AcDbEntity
  8
1
 62
     7
100
AcDbLine
 10
206.4786350428929
 20
225.11696068471
 30
0.0
 11
206.4786350428929
 21
225.59696068471
 31
0.0
  0
LINE
  5
24BE
330
2354
100
AcDbEntity
  8
1
 62
     7
100
AcDbLine
 10
200.0986350428926
 20
224.8169606847099
 30
0.0
 11
199.7986350428931
 21
225.11696068471
 31
0.0
  0
LINE
  5
24BF
330
2354
100
AcDbEntity
  8
1
 62
     7
100
AcDbLine
 10
200.0986350428926
 20
225.89696068471
 30
0.0
 11
199.7986350428931
 21
225.59696068471
 31
0.0
  0
LINE
  5
24C0
330
2354
100
AcDbEntity
  8
1
 62
     7
100
AcDbLine
 10
206.1786350428928
 20
225.89696068471
 30
0.0
 11
206.4786350428929
 21
225.59696068471
 31
0.0
  0
LINE
  5
24C1
330
2354
100
AcDbEntity
  8
1
 62
     7
100
AcDbLine
 10
206.1786350428928
 20
224.8169606847099
 30
0.0
 11
206.4786350428929
 21
225.11696068471
 31
0.0
  0
LINE
  5
24C2
330
2354
100
AcDbEntity
  8
1
 62
     7
100
AcDbLine
 10
201.7403861380123
 20
224.44696068471
 30
0.0
 11
201.1386350428931
 21
224.44696068471
 31
0.0
  0
LINE
  5
24C3
330
2354
100
AcDbEntity
  8
1
 62
     7
100
AcDbLine
 10
200.2807850885744
 20
224.44696068471
 30
0.0
 11
201.1386350428931
 21
224.44696068471
 31
0.0
  0
LINE
  5
24C4
330
2354
100
AcDbEntity
  8
1
 62
     7
100
AcDbLine
 10
200.1120522427956
 20
224.2562428963311
 30
0.0
 11
200.2586350428931
 21
223.0624217919543
 31
0.0
  0
LINE
  5
24C5
330
2354
100
AcDbEntity
  8
1
 62
     7
100
AcDbLine
 10
200.2586350428931
 20
221.8269606847099
 30
0.0
 11
200.2586350428931
 21
223.0624217919543
 31
0.0
  0
LINE
  5
24C6
330
2354
100
AcDbEntity
  8
1
 62
     7
100
AcDbLine
 10
200.4286350428928
 20
221.65696068471
 30
0.0
 11
201.1386350428931
 21
221.65696068471
 31
0.0
  0
LINE
  5
24C7
330
2354
100
AcDbEntity
  8
1
 62
     7
100
AcDbLine
 10
201.1386350428931
 20
224.44696068471
 30
0.0
 11
201.1386350428931
 21
221.65696068471
 31
0.0
  0
LINE
  5
24C8
330
2354
100
AcDbEntity
  8
1
 62
     7
100
AcDbLine
 10
201.6722108205072
 20
221.65696068471
 30
0.0
 11
201.1386350428931
 21
221.65696068471
 31
0.0
  0
LINE
  5
24C9
330
2354
100
AcDbEntity
  8
1
 62
     7
100
AcDbLine
 10
200.2807850885744
 20
257.64696068471
 30
0.0
 11
201.1386350428931
 21
257.64696068471
 31
0.0
  0
LINE
  5
24CA
330
2354
100
AcDbEntity
  8
1
 62
     7
100
AcDbLine
 10
200.1120522427956
 20
257.8376784730886
 30
0.0
 11
200.2586350428931
 21
259.0314995774657
 31
0.0
  0
LINE
  5
24CB
330
2354
100
AcDbEntity
  8
1
 62
     7
100
AcDbLine
 10
200.2586350428931
 20
260.26696068471
 30
0.0
 11
200.2586350428931
 21
259.0314995774657
 31
0.0
  0
LINE
  5
24CC
330
2354
100
AcDbEntity
  8
1
 62
     7
100
AcDbLine
 10
201.1386350428931
 20
260.43696068471
 30
0.0
 11
201.6722108205072
 21
260.43696068471
 31
0.0
  0
LINE
  5
24CD
330
2354
100
AcDbEntity
  8
1
 62
     7
100
AcDbLine
 10
201.1386350428931
 20
260.43696068471
 30
0.0
 11
201.1386350428931
 21
257.64696068471
 31
0.0
  0
LINE
  5
24CE
330
2354
100
AcDbEntity
  8
1
 62
     7
100
AcDbLine
 10
200.4286350428928
 20
260.43696068471
 30
0.0
 11
201.1386350428931
 21
260.43696068471
 31
0.0
  0
LINE
  5
24CF
330
2354
100
AcDbEntity
  8
1
 62
     7
100
AcDbLine
 10
201.1386350428931
 20
257.64696068471
 30
0.0
 11
201.7403861380123
 21
257.64696068471
 31
0.0
  0
ARC
  5
24D0
330
2354
100
AcDbEntity
  8
1
 62
     7
100
AcDbCircle
 10
194.0125038322958
 20
279.18996068471
 30
0.0
 40
16.99013957888967
100
AcDbArc
 50
269.7677534219059
 51
286.291383905722
  0
ARC
  5
24D1
330
2354
100
AcDbEntity
  8
1
 62
     7
100
AcDbCircle
 10
194.0813726216989
 20
202.8939606847099
 30
0.0
 40
16.9806183118743
100
AcDbArc
 50
73.94112694400533
 51
90.46475742782304
  0
ARC
  5
24D2
330
2354
100
AcDbEntity
  8
1
 62
     7
100
AcDbCircle
 10
288.8970562306276
 20
241.04696068471
 30
0.0
 40
12.25000000000002
100
AcDbArc
 50
261.550434450842
 51
278.4495655491559
  0
ARC
  5
24D3
330
2354
100
AcDbEntity
  8
1
 62
     7
100
AcDbCircle
 10
288.8970562306276
 20
241.04696068471
 30
0.0
 40
12.24999999999998
100
AcDbArc
 50
295.9974438375595
 51
244.0025561624404
  0
ARC
  5
24D4
330
2354
100
AcDbEntity
  8
1
 62
     7
100
AcDbCircle
 10
288.8970562306276
 20
241.04696068471
 30
0.0
 40
9.000000000000008
100
AcDbArc
 50
258.4630409671834
 51
281.5369590328149
  0
ARC
  5
24D5
330
2354
100
AcDbEntity
  8
1
 62
     7
100
AcDbCircle
 10
288.8970562306276
 20
241.04696068471
 30
0.0
 40
8.999999999999975
100
AcDbArc
 50
281.5369590328149
 51
258.4630409671834
  0
ARC
  5
24D6
330
2354
100
AcDbEntity
  8
1
 62
     7
100
AcDbCircle
 10
289.0680802473093
 20
241.6919257298649
 30
0.0
 40
10.45643367125288
100
AcDbArc
 50
308.240129201878
 51
90.93716381754648
  0
ARC
  5
24D7
330
2354
100
AcDbEntity
  8
1
 62
     7
100
AcDbCircle
 10
288.7260322139458
 20
241.6919257298649
 30
0.0
 40
10.4564336712529
100
AcDbArc
 50
89.06283618245346
 51
231.7598707981205
  0
ARC
  5
24D8
330
2354
100
AcDbEntity
  8
1
 62
     7
100
AcDbCircle
 10
288.8970562306276
 20
259.07696068471
 30
0.0
 40
2.000000000000003
100
AcDbArc
 50
117.4345810005076
 51
244.0596575359933
  0
ARC
  5
24D9
330
2354
100
AcDbEntity
  8
1
 62
     7
100
AcDbCircle
 10
288.8970562306276
 20
259.07696068471
 30
0.0
 40
2.00000000000001
100
AcDbArc
 50
294.5135966068193
 51
0.0
  0
ARC
  5
24DA
330
2354
100
AcDbEntity
  8
1
 62
     7
100
AcDbCircle
 10
288.8970562306276
 20
259.07696068471
 30
0.0
 40
2.0
100
AcDbArc
 50
0.0
 51
62.56541899949224
  0
ARC
  5
24DB
330
2354
100
AcDbEntity
  8
1
 62
     7
100
AcDbCircle
 10
288.8970562306276
 20
259.07696068471
 30
0.0
 40
2.169999999999959
100
AcDbArc
 50
143.8296759522465
 51
224.0393227027951
  0
ARC
  5
24DC
330
2354
100
AcDbEntity
  8
1
 62
     7
100
AcDbCircle
 10
284.0326216323716
 20
258.4083597078095
 30
0.0
 40
2.169999999999864
100
AcDbArc
 50
331.6128472971982
 51
51.82249404775498
  0
ARC
  5
24DD
330
2354
100
AcDbEntity
  8
1
 62
     7
100
AcDbCircle
 10
288.8970562306276
 20
241.04696068471
 30
0.0
 40
19.39
100
AcDbArc
 50
95.18338940748893
 51
100.4687805925105
  0
ARC
  5
24DE
330
2354
100
AcDbEntity
  8
1
 62
     7
100
AcDbCircle
 10
288.8970562306276
 20
241.04696068471
 30
0.0
 40
16.59500000000002
100
AcDbArc
 50
95.39377496286094
 51
100.2583950371412
  0
ARC
  5
24DF
330
2354
100
AcDbEntity
  8
1
 62
     7
100
AcDbCircle
 10
288.8970562306276
 20
241.04696068471
 30
0.0
 40
19.39000000000008
100
AcDbArc
 50
110.8355594074894
 51
116.1209505925097
  0
ARC
  5
24E0
330
2354
100
AcDbEntity
  8
1
 62
     7
100
AcDbCircle
 10
288.8970562306276
 20
241.04696068471
 30
0.0
 40
19.39000000000008
100
AcDbArc
 50
126.4877294074894
 51
131.7731205925109
  0
ARC
  5
24E1
330
2354
100
AcDbEntity
  8
1
 62
     7
100
AcDbCircle
 10
288.8970562306276
 20
241.04696068471
 30
0.0
 40
19.39000000000006
100
AcDbArc
 50
142.1398994074898
 51
147.4252905925103
  0
ARC
  5
24E2
330
2354
100
AcDbEntity
  8
1
 62
     7
100
AcDbCircle
 10
288.8970562306276
 20
241.04696068471
 30
0.0
 40
19.39000000000008
100
AcDbArc
 50
157.792069407489
 51
163.0774605925103
  0
ARC
  5
24E3
330
2354
100
AcDbEntity
  8
1
 62
     7
100
AcDbCircle
 10
288.8970562306276
 20
241.04696068471
 30
0.0
 40
19.3900000000001
100
AcDbArc
 50
173.4442394074893
 51
178.72963059251
  0
ARC
  5
24E4
330
2354
100
AcDbEntity
  8
1
 62
     7
100
AcDbCircle
 10
288.8970562306276
 20
241.04696068471
 30
0.0
 40
19.39
100
AcDbArc
 50
189.096409407489
 51
194.3818005925092
  0
ARC
  5
24E5
330
2354
100
AcDbEntity
  8
1
 62
     7
100
AcDbCircle
 10
288.8970562306276
 20
241.04696068471
 30
0.0
 40
19.39000000000006
100
AcDbArc
 50
204.7485794074893
 51
210.0339705925094
  0
ARC
  5
24E6
330
2354
100
AcDbEntity
  8
1
 62
     7
100
AcDbCircle
 10
288.8970562306276
 20
241.04696068471
 30
0.0
 40
19.39000000000005
100
AcDbArc
 50
220.4007494074883
 51
225.6861405925092
  0
ARC
  5
24E7
330
2354
100
AcDbEntity
  8
1
 62
     7
100
AcDbCircle
 10
288.8970562306276
 20
241.04696068471
 30
0.0
 40
19.39000000000008
100
AcDbArc
 50
236.0529194074897
 51
241.3383105925098
  0
ARC
  5
24E8
330
2354
100
AcDbEntity
  8
1
 62
     7
100
AcDbCircle
 10
288.8970562306276
 20
241.04696068471
 30
0.0
 40
19.39
100
AcDbArc
 50
251.7050894074885
 51
256.9904805925094
  0
ARC
  5
24E9
330
2354
100
AcDbEntity
  8
1
 62
     7
100
AcDbCircle
 10
288.8970562306276
 20
241.04696068471
 30
0.0
 40
19.38999999999996
100
AcDbArc
 50
267.3572594074892
 51
272.6426505925101
  0
ARC
  5
24EA
330
2354
100
AcDbEntity
  8
1
 62
     7
100
AcDbCircle
 10
288.8970562306276
 20
241.04696068471
 30
0.0
 40
19.39
100
AcDbArc
 50
283.0094294074886
 51
288.2948205925092
  0
ARC
  5
24EB
330
2354
100
AcDbEntity
  8
1
 62
     7
100
AcDbCircle
 10
288.8970562306276
 20
241.04696068471
 30
0.0
 40
19.38999999999996
100
AcDbArc
 50
298.6615994074885
 51
303.9469905925096
  0
ARC
  5
24EC
330
2354
100
AcDbEntity
  8
1
 62
     7
100
AcDbCircle
 10
288.8970562306276
 20
241.04696068471
 30
0.0
 40
19.38999999999996
100
AcDbArc
 50
314.3137694074882
 51
319.5991605925091
  0
ARC
  5
24ED
330
2354
100
AcDbEntity
  8
1
 62
     7
100
AcDbCircle
 10
288.8970562306276
 20
241.04696068471
 30
0.0
 40
19.38999999999984
100
AcDbArc
 50
329.9659394074879
 51
335.2513305925092
  0
ARC
  5
24EE
330
2354
100
AcDbEntity
  8
1
 62
     7
100
AcDbCircle
 10
288.8970562306276
 20
241.04696068471
 30
0.0
 40
19.38999999999983
100
AcDbArc
 50
345.6181094074887
 51
350.9035005925089
  0
ARC
  5
24EF
330
2354
100
AcDbEntity
  8
1
 62
     7
100
AcDbCircle
 10
288.8970562306276
 20
241.04696068471
 30
0.0
 40
19.38999999999979
100
AcDbArc
 50
1.270279407488561
 51
6.555670592509244
  0
ARC
  5
24F0
330
2354
100
AcDbEntity
  8
1
 62
     7
100
AcDbCircle
 10
288.8970562306276
 20
241.04696068471
 30
0.0
 40
19.38999999999979
100
AcDbArc
 50
16.92244940748959
 51
22.20784059251016
  0
ARC
  5
24F1
330
2354
100
AcDbEntity
  8
1
 62
     7
100
AcDbCircle
 10
288.8970562306276
 20
241.04696068471
 30
0.0
 40
19.38999999999994
100
AcDbArc
 50
32.57461940748845
 51
37.86001059250936
  0
ARC
  5
24F2
330
2354
100
AcDbEntity
  8
1
 62
     7
100
AcDbCircle
 10
288.8970562306276
 20
241.04696068471
 30
0.0
 40
19.38999999999996
100
AcDbArc
 50
48.22678940748946
 51
53.51218059251037
  0
ARC
  5
24F3
330
2354
100
AcDbEntity
  8
1
 62
     7
100
AcDbCircle
 10
288.8970562306276
 20
241.04696068471
 30
0.0
 40
19.38999999999984
100
AcDbArc
 50
63.87895940748895
 51
69.16435059250999
  0
ARC
  5
24F4
330
2354
100
AcDbEntity
  8
1
 62
     7
100
AcDbCircle
 10
288.8970562306276
 20
241.04696068471
 30
0.0
 40
19.38999999999994
100
AcDbArc
 50
79.5311294074897
 51
84.81652059251013
  0
ARC
  5
24F5
330
2354
100
AcDbEntity
  8
1
 62
     7
100
AcDbCircle
 10
288.8970562306276
 20
241.04696068471
 30
0.0
 40
16.59500000000002
100
AcDbArc
 50
111.0459449628594
 51
115.9105650371401
  0
ARC
  5
24F6
330
2354
100
AcDbEntity
  8
1
 62
     7
100
AcDbCircle
 10
288.8970562306276
 20
241.04696068471
 30
0.0
 40
16.59500000000002
100
AcDbArc
 50
126.6981149628592
 51
131.5627350371412
  0
ARC
  5
24F7
330
2354
100
AcDbEntity
  8
1
 62
     7
100
AcDbCircle
 10
288.8970562306276
 20
241.04696068471
 30
0.0
 40
16.59500000000002
100
AcDbArc
 50
142.3502849628605
 51
147.2149050371406
  0
ARC
  5
24F8
330
2354
100
AcDbEntity
  8
1
 62
     7
100
AcDbCircle
 10
288.8970562306276
 20
241.04696068471
 30
0.0
 40
16.59500000000008
100
AcDbArc
 50
158.0024549628604
 51
162.8670750371403
  0
ARC
  5
24F9
330
2354
100
AcDbEntity
  8
1
 62
     7
100
AcDbCircle
 10
288.8970562306276
 20
241.04696068471
 30
0.0
 40
16.59499999999995
100
AcDbArc
 50
173.6546249628604
 51
178.5192450371398
  0
ARC
  5
24FA
330
2354
100
AcDbEntity
  8
1
 62
     7
100
AcDbCircle
 10
288.8970562306276
 20
241.04696068471
 30
0.0
 40
16.59499999999992
100
AcDbArc
 50
189.3067949628596
 51
194.1714150371398
  0
ARC
  5
24FB
330
2354
100
AcDbEntity
  8
1
 62
     7
100
AcDbCircle
 10
288.8970562306276
 20
241.04696068471
 30
0.0
 40
16.59500000000008
100
AcDbArc
 50
204.9589649628596
 51
209.8235850371394
  0
ARC
  5
24FC
330
2354
100
AcDbEntity
  8
1
 62
     7
100
AcDbCircle
 10
288.8970562306276
 20
241.04696068471
 30
0.0
 40
16.59500000000002
100
AcDbArc
 50
220.6111349628601
 51
225.4757550371396
  0
ARC
  5
24FD
330
2354
100
AcDbEntity
  8
1
 62
     7
100
AcDbCircle
 10
288.8970562306276
 20
241.04696068471
 30
0.0
 40
16.59500000000007
100
AcDbArc
 50
236.2633049628586
 51
241.12792503714
  0
ARC
  5
24FE
330
2354
100
AcDbEntity
  8
1
 62
     7
100
AcDbCircle
 10
288.8970562306276
 20
241.04696068471
 30
0.0
 40
16.59499999999999
100
AcDbArc
 50
251.9154749628587
 51
256.7800950371392
  0
ARC
  5
24FF
330
2354
100
AcDbEntity
  8
1
 62
     7
100
AcDbCircle
 10
288.8970562306276
 20
241.04696068471
 30
0.0
 40
16.59499999999995
100
AcDbArc
 50
267.5676449628601
 51
272.432265037139
  0
ARC
  5
2500
330
2354
100
AcDbEntity
  8
1
 62
     7
100
AcDbCircle
 10
288.8970562306276
 20
241.04696068471
 30
0.0
 40
16.59499999999992
100
AcDbArc
 50
283.2198149628593
 51
288.0844350371388
  0
ARC
  5
2501
330
2354
100
AcDbEntity
  8
1
 62
     7
100
AcDbCircle
 10
288.8970562306276
 20
241.04696068471
 30
0.0
 40
16.59499999999999
100
AcDbArc
 50
298.8719849628596
 51
303.7366050371388
  0
ARC
  5
2502
330
2354
100
AcDbEntity
  8
1
 62
     7
100
AcDbCircle
 10
288.8970562306276
 20
241.04696068471
 30
0.0
 40
16.59499999999981
100
AcDbArc
 50
314.5241549628591
 51
319.3887750371396
  0
ARC
  5
2503
330
2354
100
AcDbEntity
  8
1
 62
     7
100
AcDbCircle
 10
288.8970562306276
 20
241.04696068471
 30
0.0
 40
16.59499999999999
100
AcDbArc
 50
330.1763249628588
 51
335.0409450371391
  0
ARC
  5
2504
330
2354
100
AcDbEntity
  8
1
 62
     7
100
AcDbCircle
 10
288.8970562306276
 20
241.04696068471
 30
0.0
 40
16.59499999999979
100
AcDbArc
 50
345.8284949628589
 51
350.6931150371389
  0
ARC
  5
2505
330
2354
100
AcDbEntity
  8
1
 62
     7
100
AcDbCircle
 10
288.8970562306276
 20
241.04696068471
 30
0.0
 40
16.59499999999979
100
AcDbArc
 50
1.480664962859469
 51
6.345285037139954
  0
ARC
  5
2506
330
2354
100
AcDbEntity
  8
1
 62
     7
100
AcDbCircle
 10
288.8970562306276
 20
241.04696068471
 30
0.0
 40
16.59499999999979
100
AcDbArc
 50
17.13283496285988
 51
21.99745503713919
  0
ARC
  5
2507
330
2354
100
AcDbEntity
  8
1
 62
     7
100
AcDbCircle
 10
288.8970562306276
 20
241.04696068471
 30
0.0
 40
16.59499999999995
100
AcDbArc
 50
32.78500496285919
 51
37.64962503714031
  0
ARC
  5
2508
330
2354
100
AcDbEntity
  8
1
 62
     7
100
AcDbCircle
 10
288.8970562306276
 20
241.04696068471
 30
0.0
 40
16.59499999999988
100
AcDbArc
 50
48.43717496286044
 51
53.30179503713972
  0
ARC
  5
2509
330
2354
100
AcDbEntity
  8
1
 62
     7
100
AcDbCircle
 10
288.8970562306276
 20
241.04696068471
 30
0.0
 40
16.59499999999985
100
AcDbArc
 50
64.08934496286004
 51
68.95396503713908
  0
ARC
  5
250A
330
2354
100
AcDbEntity
  8
1
 62
     7
100
AcDbCircle
 10
288.8970562306276
 20
241.04696068471
 30
0.0
 40
16.59499999999992
100
AcDbArc
 50
79.74151496285988
 51
84.60613503713915
  0
ARC
  5
250B
330
2354
100
AcDbEntity
  8
1
 62
     7
100
AcDbCircle
 10
279.5289597156975
 20
256.4521438282809
 30
0.0
 40
2.169999999999915
100
AcDbArc
 50
347.2650172972008
 51
67.47466404775295
  0
ARC
  5
250C
330
2354
100
AcDbEntity
  8
1
 62
     7
100
AcDbCircle
 10
275.7200863161148
 20
253.3533965567253
 30
0.0
 40
2.169999999999946
100
AcDbArc
 50
2.917187297201278
 51
83.12683404775196
  0
ARC
  5
250D
330
2354
100
AcDbEntity
  8
1
 62
     7
100
AcDbCircle
 10
272.8884880088703
 20
249.3419376882552
 30
0.0
 40
2.169999999999979
100
AcDbArc
 50
18.56935729720207
 51
98.77900404775495
  0
ARC
  5
250E
330
2354
100
AcDbEntity
  8
1
 62
     7
100
AcDbCircle
 10
271.2441713823622
 20
244.715278628111
 30
0.0
 40
2.170000000000011
100
AcDbArc
 50
34.22152729720085
 51
114.4311740477539
  0
ARC
  5
250F
330
2354
100
AcDbEntity
  8
1
 62
     7
100
AcDbCircle
 10
270.9090878179344
 20
239.8165573427279
 30
0.0
 40
2.170000000000046
100
AcDbArc
 50
49.87369729720145
 51
130.0833440477514
  0
ARC
  5
2510
330
2354
100
AcDbEntity
  8
1
 62
     7
100
AcDbCircle
 10
271.9080889183075
 20
235.0090893991557
 30
0.0
 40
2.169999999999995
100
AcDbArc
 50
65.52586729720278
 51
145.7355140477521
  0
ARC
  5
2511
330
2354
100
AcDbEntity
  8
1
 62
     7
100
AcDbCircle
 10
274.1670833788071
 20
230.6494225249033
 30
0.0
 40
2.169999999999999
100
AcDbArc
 50
81.17803729720145
 51
161.3876840477508
  0
ARC
  5
2512
330
2354
100
AcDbEntity
  8
1
 62
     7
100
AcDbCircle
 10
277.5185319977582
 20
227.060893107224
 30
0.0
 40
2.169999999999949
100
AcDbArc
 50
96.83020729719808
 51
177.0398540477526
  0
ARC
  5
2513
330
2354
100
AcDbEntity
  8
1
 62
     7
100
AcDbCircle
 10
281.7138732864575
 20
224.5096458243529
 30
0.0
 40
2.170000000000019
100
AcDbArc
 50
112.4823772972051
 51
192.6920240477522
  0
ARC
  5
2514
330
2354
100
AcDbEntity
  8
1
 62
     7
100
AcDbCircle
 10
286.4419581285371
 20
223.1848949220633
 30
0.0
 40
2.17000000000005
100
AcDbArc
 50
128.1345472972018
 51
208.3441940477494
  0
ARC
  5
2515
330
2354
100
AcDbEntity
  8
1
 62
     7
100
AcDbCircle
 10
291.3521262750474
 20
223.1848910656264
 30
0.0
 40
2.169999999999938
100
AcDbArc
 50
143.7867172971998
 51
223.9963640477533
  0
ARC
  5
2516
330
2354
100
AcDbEntity
  8
1
 62
     7
100
AcDbCircle
 10
296.0802131980351
 20
224.5096345410559
 30
0.0
 40
2.169999999999964
100
AcDbArc
 50
159.4388872972004
 51
239.6485340477513
  0
ARC
  5
2517
330
2354
100
AcDbEntity
  8
1
 62
     7
100
AcDbCircle
 10
300.2755584942188
 20
227.0608752338968
 30
0.0
 40
2.169999999999848
100
AcDbArc
 50
175.0910572972014
 51
255.3007040477515
  0
ARC
  5
2518
330
2354
100
AcDbEntity
  8
1
 62
     7
100
AcDbCircle
 10
303.6270127500146
 20
230.6493993871288
 30
0.0
 40
2.170000000000007
100
AcDbArc
 50
190.7432272972018
 51
270.9528740477499
  0
ARC
  5
2519
330
2354
100
AcDbEntity
  8
1
 62
     7
100
AcDbCircle
 10
305.8860140586604
 20
235.0090627129555
 30
0.0
 40
2.169999999999967
100
AcDbArc
 50
206.3953972972023
 51
286.6050440477522
  0
ARC
  5
251A
330
2354
100
AcDbEntity
  8
1
 62
     7
100
AcDbCircle
 10
306.8850227105849
 20
239.8165290872944
 30
0.0
 40
2.170000000000142
100
AcDbArc
 50
222.0475672971985
 51
302.2572140477493
  0
ARC
  5
251B
330
2354
100
AcDbEntity
  8
1
 62
     7
100
AcDbCircle
 10
306.5499468410513
 20
244.7152508990197
 30
0.0
 40
2.169999999999959
100
AcDbArc
 50
237.6997372972037
 51
317.9093840477548
  0
ARC
  5
251C
330
2354
100
AcDbEntity
  8
1
 62
     7
100
AcDbCircle
 10
304.9056374820842
 20
249.3419125420444
 30
0.0
 40
2.169999999999964
100
AcDbArc
 50
253.3519072972048
 51
333.5615540477538
  0
ARC
  5
251D
330
2354
100
AcDbEntity
  8
1
 62
     7
100
AcDbCircle
 10
302.074045476028
 20
253.353375858374
 30
0.0
 40
2.170000000000006
100
AcDbArc
 50
269.0040772972033
 51
349.2137240477525
  0
ARC
  5
251E
330
2354
100
AcDbEntity
  8
1
 62
     7
100
AcDbCircle
 10
298.2651769439509
 20
256.4521291128901
 30
0.0
 40
2.170000000000018
100
AcDbArc
 50
284.6562472972008
 51
4.865894047751547
  0
ARC
  5
251F
330
2354
100
AcDbEntity
  8
1
 62
     7
100
AcDbCircle
 10
293.7615181000992
 20
258.4083520667523
 30
0.0
 40
2.170000000000027
100
AcDbArc
 50
300.3084172972002
 51
20.51806404775095
  0
ARC
  5
2520
330
2354
100
AcDbEntity
  8
1
 62
     7
100
AcDbCircle
 10
288.8970845520854
 20
259.0769606846872
 30
0.0
 40
2.170000000000138
100
AcDbArc
 50
315.9605872972056
 51
36.17023404775395
  0
ARC
  5
2521
330
2354
100
AcDbEntity
  8
1
 62
     7
100
AcDbCircle
 10
284.0326216323716
 20
258.4083597078095
 30
0.0
 40
2.170000000000118
100
AcDbArc
 50
159.4818459522466
 51
239.6914927027947
  0
ARC
  5
2522
330
2354
100
AcDbEntity
  8
1
 62
     7
100
AcDbCircle
 10
279.5289597156975
 20
256.4521438282809
 30
0.0
 40
2.17000000000011
100
AcDbArc
 50
175.134015952248
 51
255.3436627027965
  0
ARC
  5
2523
330
2354
100
AcDbEntity
  8
1
 62
     7
100
AcDbCircle
 10
275.7200863161148
 20
253.3533965567253
 30
0.0
 40
2.169999999999995
100
AcDbArc
 50
190.7861859522468
 51
270.9958327027984
  0
ARC
  5
2524
330
2354
100
AcDbEntity
  8
1
 62
     7
100
AcDbCircle
 10
272.8884880088703
 20
249.3419376882552
 30
0.0
 40
2.170000000000054
100
AcDbArc
 50
206.4383559522472
 51
286.6480027027979
  0
ARC
  5
2525
330
2354
100
AcDbEntity
  8
1
 62
     7
100
AcDbCircle
 10
271.2441713823622
 20
244.715278628111
 30
0.0
 40
2.170000000000065
100
AcDbArc
 50
222.0905259522452
 51
302.3001727028008
  0
ARC
  5
2526
330
2354
100
AcDbEntity
  8
1
 62
     7
100
AcDbCircle
 10
270.9090878179344
 20
239.8165573427279
 30
0.0
 40
2.169999999999939
100
AcDbArc
 50
237.7426959522506
 51
317.9523427028036
  0
ARC
  5
2527
330
2354
100
AcDbEntity
  8
1
 62
     7
100
AcDbCircle
 10
271.9080889183075
 20
235.0090893991557
 30
0.0
 40
2.170000000000043
100
AcDbArc
 50
253.3948659522482
 51
333.6045127027965
  0
ARC
  5
2528
330
2354
100
AcDbEntity
  8
1
 62
     7
100
AcDbCircle
 10
274.1670833788071
 20
230.6494225249033
 30
0.0
 40
2.169999999999979
100
AcDbArc
 50
269.047035952248
 51
349.2566827027984
  0
ARC
  5
2529
330
2354
100
AcDbEntity
  8
1
 62
     7
100
AcDbCircle
 10
277.5185319977582
 20
227.060893107224
 30
0.0
 40
2.170000000000047
100
AcDbArc
 50
284.6992059522463
 51
4.90885270279748
  0
ARC
  5
252A
330
2354
100
AcDbEntity
  8
1
 62
     7
100
AcDbCircle
 10
281.7138732864575
 20
224.5096458243529
 30
0.0
 40
2.170000000000019
100
AcDbArc
 50
300.3513759522433
 51
20.56102270279807
  0
ARC
  5
252B
330
2354
100
AcDbEntity
  8
1
 62
     7
100
AcDbCircle
 10
286.4419581285371
 20
223.1848949220633
 30
0.0
 40
2.169999999999856
100
AcDbArc
 50
316.0035459522446
 51
36.21319270280108
  0
ARC
  5
252C
330
2354
100
AcDbEntity
  8
1
 62
     7
100
AcDbCircle
 10
291.3521262750474
 20
223.1848910656264
 30
0.0
 40
2.170000000000102
100
AcDbArc
 50
331.6557159522468
 51
51.86536270280043
  0
ARC
  5
252D
330
2354
100
AcDbEntity
  8
1
 62
     7
100
AcDbCircle
 10
296.0802131980351
 20
224.5096345410559
 30
0.0
 40
2.17000000000009
100
AcDbArc
 50
347.3078859522471
 51
67.5175327027949
  0
ARC
  5
252E
330
2354
100
AcDbEntity
  8
1
 62
     7
100
AcDbCircle
 10
300.2755584942188
 20
227.0608752338968
 30
0.0
 40
2.170000000000154
100
AcDbArc
 50
2.960055952245951
 51
83.16970270280013
  0
ARC
  5
252F
330
2354
100
AcDbEntity
  8
1
 62
     7
100
AcDbCircle
 10
303.6270127500146
 20
230.6493993871288
 30
0.0
 40
2.170000000000019
100
AcDbArc
 50
18.61222595224663
 51
98.82187270279249
  0
ARC
  5
2530
330
2354
100
AcDbEntity
  8
1
 62
     7
100
AcDbCircle
 10
305.8860140586604
 20
235.0090627129555
 30
0.0
 40
2.170000000000015
100
AcDbArc
 50
34.26439595224652
 51
114.4740427028001
  0
ARC
  5
2531
330
2354
100
AcDbEntity
  8
1
 62
     7
100
AcDbCircle
 10
306.8850227105849
 20
239.8165290872944
 30
0.0
 40
2.169999999999949
100
AcDbArc
 50
49.91656595224821
 51
130.1262127028005
  0
ARC
  5
2532
330
2354
100
AcDbEntity
  8
1
 62
     7
100
AcDbCircle
 10
306.5499468410513
 20
244.7152508990197
 30
0.0
 40
2.170000000000014
100
AcDbArc
 50
65.56873595224655
 51
145.7783827027981
  0
ARC
  5
2533
330
2354
100
AcDbEntity
  8
1
 62
     7
100
AcDbCircle
 10
304.9056374820842
 20
249.3419125420444
 30
0.0
 40
2.170000000000078
100
AcDbArc
 50
81.22090595224305
 51
161.4305527027966
  0
ARC
  5
2534
330
2354
100
AcDbEntity
  8
1
 62
     7
100
AcDbCircle
 10
302.074045476028
 20
253.353375858374
 30
0.0
 40
2.170000000000003
100
AcDbArc
 50
96.8730759522411
 51
177.0827227027972
  0
ARC
  5
2535
330
2354
100
AcDbEntity
  8
1
 62
     7
100
AcDbCircle
 10
298.2651769439509
 20
256.4521291128901
 30
0.0
 40
2.169999999999975
100
AcDbArc
 50
112.5252459522438
 51
192.7348927027977
  0
ARC
  5
2536
330
2354
100
AcDbEntity
  8
1
 62
     7
100
AcDbCircle
 10
293.7615181000992
 20
258.4083520667523
 30
0.0
 40
2.170000000000027
100
AcDbArc
 50
128.1774159522432
 51
208.387062702799
  0
ARC
  5
2537
330
2354
100
AcDbEntity
  8
1
 62
     7
100
AcDbCircle
 10
284.0326216323716
 20
258.4083597078095
 30
0.0
 40
1.999999999999998
100
AcDbArc
 50
133.0867510005099
 51
259.7118275359899
  0
ARC
  5
2538
330
2354
100
AcDbEntity
  8
1
 62
     7
100
AcDbCircle
 10
279.5289597156975
 20
256.4521438282809
 30
0.0
 40
2.000000000000098
100
AcDbArc
 50
148.7389210005114
 51
275.3639975359961
  0
ARC
  5
2539
330
2354
100
AcDbEntity
  8
1
 62
     7
100
AcDbCircle
 10
275.7200863161148
 20
253.3533965567253
 30
0.0
 40
1.99999999999996
100
AcDbArc
 50
164.3910910005095
 51
291.0161675359944
  0
ARC
  5
253A
330
2354
100
AcDbEntity
  8
1
 62
     7
100
AcDbCircle
 10
272.8884880088703
 20
249.3419376882552
 30
0.0
 40
2.000000000000095
100
AcDbArc
 50
180.0432610005091
 51
306.6683375359954
  0
ARC
  5
253B
330
2354
100
AcDbEntity
  8
1
 62
     7
100
AcDbCircle
 10
271.2441713823622
 20
244.715278628111
 30
0.0
 40
2.000000000000123
100
AcDbArc
 50
195.6954310005078
 51
322.3205075359931
  0
ARC
  5
253C
330
2354
100
AcDbEntity
  8
1
 62
     7
100
AcDbCircle
 10
270.9090878179344
 20
239.8165573427279
 30
0.0
 40
1.999999999999938
100
AcDbArc
 50
211.3476010005096
 51
337.972677535998
  0
ARC
  5
253D
330
2354
100
AcDbEntity
  8
1
 62
     7
100
AcDbCircle
 10
271.9080889183075
 20
235.0090893991557
 30
0.0
 40
1.99999999999996
100
AcDbArc
 50
226.9997710005111
 51
353.6248475359958
  0
ARC
  5
253E
330
2354
100
AcDbEntity
  8
1
 62
     7
100
AcDbCircle
 10
274.1670833788071
 20
230.6494225249033
 30
0.0
 40
2.000000000000003
100
AcDbArc
 50
242.6519410005084
 51
9.277017535996302
  0
ARC
  5
253F
330
2354
100
AcDbEntity
  8
1
 62
     7
100
AcDbCircle
 10
277.5185319977582
 20
227.060893107224
 30
0.0
 40
2.000000000000015
100
AcDbArc
 50
258.3041110005099
 51
24.92918753599527
  0
ARC
  5
2540
330
2354
100
AcDbEntity
  8
1
 62
     7
100
AcDbCircle
 10
281.7138732864575
 20
224.5096458243529
 30
0.0
 40
2.000000000000066
100
AcDbArc
 50
273.9562810005097
 51
40.58135753599644
  0
ARC
  5
2541
330
2354
100
AcDbEntity
  8
1
 62
     7
100
AcDbCircle
 10
286.4419581285371
 20
223.1848949220633
 30
0.0
 40
1.99999999999996
100
AcDbArc
 50
289.6084510005042
 51
56.23352753600038
  0
ARC
  5
2542
330
2354
100
AcDbEntity
  8
1
 62
     7
100
AcDbCircle
 10
291.3521262750474
 20
223.1848910656264
 30
0.0
 40
2.000000000000063
100
AcDbArc
 50
305.2606210005095
 51
71.88569753599256
  0
ARC
  5
2543
330
2354
100
AcDbEntity
  8
1
 62
     7
100
AcDbCircle
 10
296.0802131980351
 20
224.5096345410559
 30
0.0
 40
1.999999999999984
100
AcDbArc
 50
320.9127910005075
 51
87.53786753599888
  0
ARC
  5
2544
330
2354
100
AcDbEntity
  8
1
 62
     7
100
AcDbCircle
 10
300.2755584942188
 20
227.0608752338968
 30
0.0
 40
2.000000000000087
100
AcDbArc
 50
336.5649610005103
 51
103.1900375359914
  0
ARC
  5
2545
330
2354
100
AcDbEntity
  8
1
 62
     7
100
AcDbCircle
 10
303.6270127500146
 20
230.6493993871288
 30
0.0
 40
2.000000000000042
100
AcDbArc
 50
352.217131000509
 51
118.8422075359957
  0
ARC
  5
2546
330
2354
100
AcDbEntity
  8
1
 62
     7
100
AcDbCircle
 10
305.8860140586604
 20
235.0090627129555
 30
0.0
 40
2.000000000000039
100
AcDbArc
 50
7.869301000509705
 51
134.494377535994
  0
ARC
  5
2547
330
2354
100
AcDbEntity
  8
1
 62
     7
100
AcDbCircle
 10
306.8850227105849
 20
239.8165290872944
 30
0.0
 40
1.999999999999938
100
AcDbArc
 50
23.52147100050934
 51
150.1465475359958
  0
ARC
  5
2548
330
2354
100
AcDbEntity
  8
1
 62
     7
100
AcDbCircle
 10
306.5499468410513
 20
244.7152508990197
 30
0.0
 40
2.000000000000035
100
AcDbArc
 50
39.17364100050846
 51
165.7987175359959
  0
ARC
  5
2549
330
2354
100
AcDbEntity
  8
1
 62
     7
100
AcDbCircle
 10
304.9056374820842
 20
249.3419125420444
 30
0.0
 40
2.000000000000063
100
AcDbArc
 50
54.82581100050886
 51
181.450887535995
  0
ARC
  5
254A
330
2354
100
AcDbEntity
  8
1
 62
     7
100
AcDbCircle
 10
302.074045476028
 20
253.353375858374
 30
0.0
 40
2.000000000000074
100
AcDbArc
 50
70.47798100050788
 51
197.1030575359946
  0
ARC
  5
254B
330
2354
100
AcDbEntity
  8
1
 62
     7
100
AcDbCircle
 10
298.2651769439509
 20
256.4521291128901
 30
0.0
 40
2.000000000000051
100
AcDbArc
 50
86.13015100050306
 51
212.755227535996
  0
ARC
  5
254C
330
2354
100
AcDbEntity
  8
1
 62
     7
100
AcDbCircle
 10
293.7615181000992
 20
258.4083520667523
 30
0.0
 40
2.000000000000039
100
AcDbArc
 50
101.7823210005037
 51
228.4073975359948
  0
ARC
  5
254D
330
2354
100
AcDbEntity
  8
1
 62
     7
100
AcDbCircle
 10
279.5289597156975
 20
256.4521438282809
 30
0.0
 40
1.999999999999968
100
AcDbArc
 50
31.30434000000086
 51
93.86975899949332
  0
ARC
  5
254E
330
2354
100
AcDbEntity
  8
1
 62
     7
100
AcDbCircle
 10
275.7200863161148
 20
253.3533965567253
 30
0.0
 40
1.999999999999934
100
AcDbArc
 50
46.95651000000053
 51
109.5219289994916
  0
ARC
  5
254F
330
2354
100
AcDbEntity
  8
1
 62
     7
100
AcDbCircle
 10
272.8884880088703
 20
249.3419376882552
 30
0.0
 40
2.000000000000026
100
AcDbArc
 50
62.60867999999868
 51
125.1740989994884
  0
ARC
  5
2550
330
2354
100
AcDbEntity
  8
1
 62
     7
100
AcDbCircle
 10
271.2441713823622
 20
244.715278628111
 30
0.0
 40
2.000000000000035
100
AcDbArc
 50
78.26084999999824
 51
140.82626899949
  0
ARC
  5
2551
330
2354
100
AcDbEntity
  8
1
 62
     7
100
AcDbCircle
 10
270.9090878179344
 20
239.8165573427279
 30
0.0
 40
2.000000000000006
100
AcDbArc
 50
93.91301999999528
 51
156.4784389994898
  0
ARC
  5
2552
330
2354
100
AcDbEntity
  8
1
 62
     7
100
AcDbCircle
 10
271.9080889183075
 20
235.0090893991557
 30
0.0
 40
1.999999999999984
100
AcDbArc
 50
109.5651900000021
 51
172.1306089994914
  0
ARC
  5
2553
330
2354
100
AcDbEntity
  8
1
 62
     7
100
AcDbCircle
 10
274.1670833788071
 20
230.6494225249033
 30
0.0
 40
2.000000000000025
100
AcDbArc
 50
125.2173599999995
 51
187.7827789994888
  0
ARC
  5
2554
330
2354
100
AcDbEntity
  8
1
 62
     7
100
AcDbCircle
 10
277.5185319977582
 20
227.060893107224
 30
0.0
 40
1.999999999999906
100
AcDbArc
 50
140.8695299999978
 51
203.4349489994901
  0
ARC
  5
2555
330
2354
100
AcDbEntity
  8
1
 62
     7
100
AcDbCircle
 10
281.7138732864575
 20
224.5096458243529
 30
0.0
 40
1.999999999999968
100
AcDbArc
 50
156.5217000000022
 51
219.0871189994894
  0
ARC
  5
2556
330
2354
100
AcDbEntity
  8
1
 62
     7
100
AcDbCircle
 10
286.4419581285371
 20
223.1848949220633
 30
0.0
 40
2.00000000000021
100
AcDbArc
 50
172.1738700000016
 51
234.7392889994857
  0
ARC
  5
2557
330
2354
100
AcDbEntity
  8
1
 62
     7
100
AcDbCircle
 10
291.3521262750474
 20
223.1848910656264
 30
0.0
 40
2.000000000000071
100
AcDbArc
 50
187.8260400000004
 51
250.3914589994921
  0
ARC
  5
2558
330
2354
100
AcDbEntity
  8
1
 62
     7
100
AcDbCircle
 10
296.0802131980351
 20
224.5096345410559
 30
0.0
 40
2.000000000000063
100
AcDbArc
 50
203.4782100000003
 51
266.0436289994904
  0
ARC
  5
2559
330
2354
100
AcDbEntity
  8
1
 62
     7
100
AcDbCircle
 10
300.2755584942188
 20
227.0608752338968
 30
0.0
 40
1.99999999999985
100
AcDbArc
 50
219.1303800000039
 51
281.6957989994921
  0
ARC
  5
255A
330
2354
100
AcDbEntity
  8
1
 62
     7
100
AcDbCircle
 10
303.6270127500146
 20
230.6493993871288
 30
0.0
 40
2.000000000000005
100
AcDbArc
 50
234.7825499999993
 51
297.3479689994893
  0
ARC
  5
255B
330
2354
100
AcDbEntity
  8
1
 62
     7
100
AcDbCircle
 10
305.8860140586604
 20
235.0090627129555
 30
0.0
 40
1.999999999999958
100
AcDbArc
 50
250.4347200000033
 51
313.0001389994931
  0
ARC
  5
255C
330
2354
100
AcDbEntity
  8
1
 62
     7
100
AcDbCircle
 10
306.8850227105849
 20
239.8165290872944
 30
0.0
 40
2.000000000000035
100
AcDbArc
 50
266.0868899999961
 51
328.6523089994902
  0
ARC
  5
255D
330
2354
100
AcDbEntity
  8
1
 62
     7
100
AcDbCircle
 10
306.5499468410513
 20
244.7152508990197
 30
0.0
 40
2.000000000000063
100
AcDbArc
 50
281.7390600000058
 51
344.304478999492
  0
ARC
  5
255E
330
2354
100
AcDbEntity
  8
1
 62
     7
100
AcDbCircle
 10
304.9056374820842
 20
249.3419125420444
 30
0.0
 40
2.000000000000019
100
AcDbArc
 50
297.3912300000025
 51
359.9566489994902
  0
ARC
  5
255F
330
2354
100
AcDbEntity
  8
1
 62
     7
100
AcDbCircle
 10
302.074045476028
 20
253.353375858374
 30
0.0
 40
2.000000000000011
100
AcDbArc
 50
313.0434000000016
 51
15.60881899949118
  0
ARC
  5
2560
330
2354
100
AcDbEntity
  8
1
 62
     7
100
AcDbCircle
 10
298.2651769439509
 20
256.4521291128901
 30
0.0
 40
2.000000000000186
100
AcDbArc
 50
328.6955700000028
 51
31.26098899948732
  0
ARC
  5
2561
330
2354
100
AcDbEntity
  8
1
 62
     7
100
AcDbCircle
 10
293.7615181000992
 20
258.4083520667523
 30
0.0
 40
2.000000000000091
100
AcDbArc
 50
344.347740000003
 51
46.91315899949096
  0
ARC
  5
2562
330
2354
100
AcDbEntity
  8
1
 62
     7
100
AcDbCircle
 10
284.0326216323716
 20
258.4083597078095
 30
0.0
 40
2.000000000000003
100
AcDbArc
 50
310.1657666068212
 51
78.21758899949442
  0
ARC
  5
2563
330
2354
100
AcDbEntity
  8
1
 62
     7
100
AcDbCircle
 10
279.5289597156975
 20
256.4521438282809
 30
0.0
 40
2.000000000000066
100
AcDbArc
 50
325.8179366068238
 51
31.30434000000086
  0
ARC
  5
2564
330
2354
100
AcDbEntity
  8
1
 62
     7
100
AcDbCircle
 10
275.7200863161148
 20
253.3533965567253
 30
0.0
 40
2.000000000000102
100
AcDbArc
 50
341.4701066068211
 51
46.95651000000053
  0
ARC
  5
2565
330
2354
100
AcDbEntity
  8
1
 62
     7
100
AcDbCircle
 10
272.8884880088703
 20
249.3419376882552
 30
0.0
 40
1.999999999999984
100
AcDbArc
 50
357.1222766068206
 51
62.60867999999868
  0
ARC
  5
2566
330
2354
100
AcDbEntity
  8
1
 62
     7
100
AcDbCircle
 10
271.2441713823622
 20
244.715278628111
 30
0.0
 40
1.999999999999904
100
AcDbArc
 50
12.77444660682167
 51
78.26084999999824
  0
ARC
  5
2567
330
2354
100
AcDbEntity
  8
1
 62
     7
100
AcDbCircle
 10
270.9090878179344
 20
239.8165573427279
 30
0.0
 40
2.000000000000051
100
AcDbArc
 50
28.42661660682118
 51
93.91301999999528
  0
ARC
  5
2568
330
2354
100
AcDbEntity
  8
1
 62
     7
100
AcDbCircle
 10
271.9080889183075
 20
235.0090893991557
 30
0.0
 40
1.999999999999998
100
AcDbArc
 50
44.07878660682096
 51
109.5651900000021
  0
ARC
  5
2569
330
2354
100
AcDbEntity
  8
1
 62
     7
100
AcDbCircle
 10
274.1670833788071
 20
230.6494225249033
 30
0.0
 40
2.000000000000059
100
AcDbArc
 50
59.73095660682265
 51
125.2173599999995
  0
ARC
  5
256A
330
2354
100
AcDbEntity
  8
1
 62
     7
100
AcDbCircle
 10
277.5185319977582
 20
227.060893107224
 30
0.0
 40
1.999999999999964
100
AcDbArc
 50
75.38312660682287
 51
140.8695299999978
  0
ARC
  5
256B
330
2354
100
AcDbEntity
  8
1
 62
     7
100
AcDbCircle
 10
281.7138732864575
 20
224.5096458243529
 30
0.0
 40
1.99999999999996
100
AcDbArc
 50
91.03529660682184
 51
156.5217000000022
  0
ARC
  5
256C
330
2354
100
AcDbEntity
  8
1
 62
     7
100
AcDbCircle
 10
286.4419581285371
 20
223.1848949220633
 30
0.0
 40
2.000000000000035
100
AcDbArc
 50
106.6874666068281
 51
172.1738700000016
  0
ARC
  5
256D
330
2354
100
AcDbEntity
  8
1
 62
     7
100
AcDbCircle
 10
291.3521262750474
 20
223.1848910656264
 30
0.0
 40
1.999999999999918
100
AcDbArc
 50
122.3396366068201
 51
187.8260400000004
  0
ARC
  5
256E
330
2354
100
AcDbEntity
  8
1
 62
     7
100
AcDbCircle
 10
296.0802131980351
 20
224.5096345410559
 30
0.0
 40
1.999999999999992
100
AcDbArc
 50
137.9918066068224
 51
203.4782100000003
  0
ARC
  5
256F
330
2354
100
AcDbEntity
  8
1
 62
     7
100
AcDbCircle
 10
300.2755584942188
 20
227.0608752338968
 30
0.0
 40
1.99999999999995
100
AcDbArc
 50
153.6439766068208
 51
219.1303800000039
  0
ARC
  5
2570
330
2354
100
AcDbEntity
  8
1
 62
     7
100
AcDbCircle
 10
303.6270127500146
 20
230.6493993871288
 30
0.0
 40
1.999999999999857
100
AcDbArc
 50
169.2961466068215
 51
234.7825499999993
  0
ARC
  5
2571
330
2354
100
AcDbEntity
  8
1
 62
     7
100
AcDbCircle
 10
305.8860140586604
 20
235.0090627129555
 30
0.0
 40
2.00000000000005
100
AcDbArc
 50
184.948316606822
 51
250.4347200000033
  0
ARC
  5
2572
330
2354
100
AcDbEntity
  8
1
 62
     7
100
AcDbCircle
 10
306.8850227105849
 20
239.8165290872944
 30
0.0
 40
2.000000000000045
100
AcDbArc
 50
200.6004866068215
 51
266.0868899999961
  0
ARC
  5
2573
330
2354
100
AcDbEntity
  8
1
 62
     7
100
AcDbCircle
 10
306.5499468410513
 20
244.7152508990197
 30
0.0
 40
1.999999999999944
100
AcDbArc
 50
216.2526566068235
 51
281.7390600000058
  0
ARC
  5
2574
330
2354
100
AcDbEntity
  8
1
 62
     7
100
AcDbCircle
 10
304.9056374820842
 20
249.3419125420444
 30
0.0
 40
1.999999999999934
100
AcDbArc
 50
231.9048266068227
 51
297.3912300000025
  0
ARC
  5
2575
330
2354
100
AcDbEntity
  8
1
 62
     7
100
AcDbCircle
 10
302.074045476028
 20
253.353375858374
 30
0.0
 40
1.999999999999944
100
AcDbArc
 50
247.5569966068227
 51
313.0434000000016
  0
ARC
  5
2576
330
2354
100
AcDbEntity
  8
1
 62
     7
100
AcDbCircle
 10
298.2651769439509
 20
256.4521291128901
 30
0.0
 40
1.999999999999974
100
AcDbArc
 50
263.2091666068232
 51
328.6955700000028
  0
ARC
  5
2577
330
2354
100
AcDbEntity
  8
1
 62
     7
100
AcDbCircle
 10
293.7615181000992
 20
258.4083520667523
 30
0.0
 40
1.999999999999952
100
AcDbArc
 50
278.8613366068235
 51
344.347740000003
  0
ARC
  5
2578
330
2354
100
AcDbEntity
  8
1
 62
     7
100
AcDbCircle
 10
203.1386350428931
 20
259.07696068471
 30
0.0
 40
1.999999999999985
100
AcDbArc
 50
295.8419327631667
 51
64.15806723683328
  0
ARC
  5
2579
330
2354
100
AcDbEntity
  8
1
 62
     7
100
AcDbCircle
 10
203.1386350428931
 20
259.07696068471
 30
0.0
 40
2.000000000000015
100
AcDbArc
 50
137.1563569564052
 51
225.6431991617489
  0
ARC
  5
257A
330
2354
100
AcDbEntity
  8
1
 62
     7
100
AcDbCircle
 10
203.1386350428931
 20
259.07696068471
 30
0.0
 40
1.999999999999992
100
AcDbArc
 50
115.8419327631664
 51
137.1563569564052
  0
ARC
  5
257B
330
2354
100
AcDbEntity
  8
1
 62
     7
100
AcDbCircle
 10
203.1386350428931
 20
259.07696068471
 30
0.0
 40
2.000000000000003
100
AcDbArc
 50
244.1580672368332
 51
295.8419327631667
  0
ARC
  5
257C
330
2354
100
AcDbEntity
  8
1
 62
     7
100
AcDbCircle
 10
203.1386350428931
 20
259.07696068471
 30
0.0
 40
2.000000000000014
100
AcDbArc
 50
225.6431991617489
 51
244.1580672368332
  0
ARC
  5
257D
330
2354
100
AcDbEntity
  8
1
 62
     7
100
AcDbCircle
 10
203.1386350428931
 20
259.07696068471
 30
0.0
 40
1.999999999999992
100
AcDbArc
 50
64.15806723683328
 51
115.8419327631664
  0
ARC
  5
257E
330
2354
100
AcDbEntity
  8
1
 62
     7
100
AcDbCircle
 10
203.1386350428931
 20
223.01696068471
 30
0.0
 40
1.999999999999964
100
AcDbArc
 50
295.8419327631667
 51
64.15806723683328
  0
ARC
  5
257F
330
2354
100
AcDbEntity
  8
1
 62
     7
100
AcDbCircle
 10
203.1386350428931
 20
223.01696068471
 30
0.0
 40
1.99999999999998
100
AcDbArc
 50
244.1580672368318
 51
295.8419327631667
  0
ARC
  5
2580
330
2354
100
AcDbEntity
  8
1
 62
     7
100
AcDbCircle
 10
203.1386350428931
 20
223.01696068471
 30
0.0
 40
2.000000000000003
100
AcDbArc
 50
115.8419327631664
 51
134.3568008382507
  0
ARC
  5
2581
330
2354
100
AcDbEntity
  8
1
 62
     7
100
AcDbCircle
 10
203.1386350428931
 20
223.01696068471
 30
0.0
 40
1.999999999999985
100
AcDbArc
 50
64.15806723683328
 51
115.8419327631664
  0
ARC
  5
2582
330
2354
100
AcDbEntity
  8
1
 62
     7
100
AcDbCircle
 10
203.1386350428931
 20
223.01696068471
 30
0.0
 40
1.999999999999992
100
AcDbArc
 50
222.8436430435944
 51
244.1580672368318
  0
ARC
  5
2583
330
2354
100
AcDbEntity
  8
1
 62
     7
100
AcDbCircle
 10
203.1386350428931
 20
223.01696068471
 30
0.0
 40
2.0
100
AcDbArc
 50
134.3568008382507
 51
222.8436430435944
  0
CIRCLE
  5
2584
330
2354
100
AcDbEntity
  8
1
 62
     7
100
AcDbCircle
 10
89.47699659819193
 20
241.04696068471
 30
0.0
 40
21.59
  0
CIRCLE
  5
2585
330
2354
100
AcDbEntity
  8
1
 62
     7
100
AcDbCircle
 10
209.778635042893
 20
241.04696068471
 30
0.0
 40
1.200000000000017
  0
CIRCLE
  5
2586
330
2354
100
AcDbEntity
  8
1
 62
     3
100
AcDbCircle
 10
209.778635042893
 20
241.04696068471
 30
0.0
 40
1.5
  0
CIRCLE
  5
2587
330
2354
100
AcDbEntity
  8
1
 62
     7
100
AcDbCircle
 10
288.8970562306276
 20
241.04696068471
 30
0.0
 40
4.0
  0
CIRCLE
  5
2588
330
2354
100
AcDbEntity
  8
1
 62
     7
100
AcDbCircle
 10
82.48888238042393
 20
267.1269579945148
 30
0.0
 40
1.099999999999927
  0
CIRCLE
  5
2589
330
2354
100
AcDbEntity
  8
1
 62
     7
100
AcDbCircle
 10
96.46511081596004
 20
214.9669633749048
 30
0.0
 40
1.099999999999925
  0
CIRCLE
  5
258A
330
2354
100
AcDbEntity
  8
1
 62
     7
100
AcDbCircle
 10
281.9089420128593
 20
214.9669633749048
 30
0.0
 40
1.100000000000038
  0
CIRCLE
  5
258B
330
2354
100
AcDbEntity
  8
1
 62
     7
100
AcDbCircle
 10
295.8851704483956
 20
267.1269579945148
 30
0.0
 40
1.099999999999907
  0
CIRCLE
  5
258C
330
2354
100
AcDbEntity
  8
1
 62
     7
100
AcDbCircle
 10
285.2470562306275
 20
230.74696068471
 30
0.0
 40
0.8499999999998806
  0
CIRCLE
  5
258D
330
2354
100
AcDbEntity
  8
1
 62
     7
100
AcDbCircle
 10
292.5470562306275
 20
230.74696068471
 30
0.0
 40
0.8500000000001078
  0
CIRCLE
  5
258E
330
2354
100
AcDbEntity
  8
1
 62
     3
100
AcDbCircle
 10
281.9089420128593
 20
214.9669633749048
 30
0.0
 40
1.500000000000006
  0
CIRCLE
  5
258F
330
2354
100
AcDbEntity
  8
1
 62
     3
100
AcDbCircle
 10
295.8851704483956
 20
267.1269579945148
 30
0.0
 40
1.499999999999879
  0
CIRCLE
  5
2590
330
2354
100
AcDbEntity
  8
1
 62
     7
100
AcDbCircle
 10
302.3970562306276
 20
264.4296465868898
 30
0.0
 40
1.70000000000009
  0
CIRCLE
  5
2591
330
2354
100
AcDbEntity
  8
1
 62
     7
100
AcDbCircle
 10
315.8970562306276
 20
241.04696068471
 30
0.0
 40
1.700000000000017
  0
CIRCLE
  5
2592
330
2354
100
AcDbEntity
  8
1
 62
     7
100
AcDbCircle
 10
302.3970562306276
 20
217.66427478253
 30
0.0
 40
1.699999999999974
  0
CIRCLE
  5
2593
330
2354
100
AcDbEntity
  8
1
 62
     7
100
AcDbCircle
 10
275.3970562306276
 20
217.66427478253
 30
0.0
 40
1.699999999999969
  0
CIRCLE
  5
2594
330
2354
100
AcDbEntity
  8
1
 62
     7
100
AcDbCircle
 10
261.8970562306275
 20
241.04696068471
 30
0.0
 40
1.700000000000017
  0
CIRCLE
  5
2595
330
2354
100
AcDbEntity
  8
1
 62
     7
100
AcDbCircle
 10
275.3970562306276
 20
264.4296465868898
 30
0.0
 40
1.700000000000025
  0
CIRCLE
  5
2596
330
2354
100
AcDbEntity
  8
1
 62
     7
100
AcDbCircle
 10
89.47699659819193
 20
241.04696068471
 30
0.0
 40
29.99999999999994
  0
CIRCLE
  5
2597
330
2354
100
AcDbEntity
  8
1
  6
CENTER
 62
     3
100
AcDbCircle
 10
89.47699659819193
 20
241.04696068471
 30
0.0
 40
27.00000000000001
  0
CIRCLE
  5
2598
330
2354
100
AcDbEntity
  8
1
 62
     7
100
AcDbCircle
 10
89.47699659819193
 20
241.04696068471
 30
0.0
 40
23.99999999999994
  0
CIRCLE
  5
2599
330
2354
100
AcDbEntity
  8
1
 62
     3
100
AcDbCircle
 10
82.48888238042393
 20
267.1269579945148
 30
0.0
 40
1.499999999999988
  0
CIRCLE
  5
259A
330
2354
100
AcDbEntity
  8
1
 62
     7
100
AcDbCircle
 10
62.47699659819192
 20
241.04696068471
 30
0.0
 40
1.700000000000003
  0
CIRCLE
  5
259B
330
2354
100
AcDbEntity
  8
1
 62
     7
100
AcDbCircle
 10
75.9769965981919
 20
217.66427478253
 30
0.0
 40
1.700000000000006
  0
CIRCLE
  5
259C
330
2354
100
AcDbEntity
  8
1
 62
     7
100
AcDbCircle
 10
102.9769965981919
 20
217.66427478253
 30
0.0
 40
1.700000000000006
  0
CIRCLE
  5
259D
330
2354
100
AcDbEntity
  8
1
 62
     7
100
AcDbCircle
 10
116.4769965981919
 20
241.04696068471
 30
0.0
 40
1.699999999999995
  0
CIRCLE
  5
259E
330
2354
100
AcDbEntity
  8
1
 62
     7
100
AcDbCircle
 10
102.9769965981919
 20
264.4296465868898
 30
0.0
 40
1.699999999999965
  0
CIRCLE
  5
259F
330
2354
100
AcDbEntity
  8
1
 62
     7
100
AcDbCircle
 10
75.97699659819202
 20
264.4296465868898
 30
0.0
 40
1.700000000000004
  0
CIRCLE
  5
25A0
330
2354
100
AcDbEntity
  8
1
 62
     3
100
AcDbCircle
 10
96.46511081596004
 20
214.9669633749048
 30
0.0
 40
1.500000000000013
  0
CIRCLE
  5
25A1
330
2354
100
AcDbEntity
  8
1
 62
     7
100
AcDbCircle
 10
97.70423793414416
 20
245.7969606847099
 30
0.0
 40
2.750000000000003
  0
CIRCLE
  5
25A2
330
2354
100
AcDbEntity
  8
1
 62
     7
100
AcDbCircle
 10
97.70423793414416
 20
236.29696068471
 30
0.0
 40
2.749999999999979
  0
CIRCLE
  5
25A3
330
2354
100
AcDbEntity
  8
1
 62
     7
100
AcDbCircle
 10
89.47699659819193
 20
231.5469606847099
 30
0.0
 40
2.75
  0
CIRCLE
  5
25A4
330
2354
100
AcDbEntity
  8
1
 62
     7
100
AcDbCircle
 10
81.24975526223973
 20
236.29696068471
 30
0.0
 40
2.749999999999979
  0
CIRCLE
  5
25A5
330
2354
100
AcDbEntity
  8
1
 62
     7
100
AcDbCircle
 10
81.24975526223982
 20
245.7969606847099
 30
0.0
 40
2.750000000000003
  0
CIRCLE
  5
25A6
330
2354
100
AcDbEntity
  8
1
 62
     7
100
AcDbCircle
 10
89.47699659819193
 20
250.5469606847098
 30
0.0
 40
2.75
  0
CIRCLE
  5
25A7
330
2354
100
AcDbEntity
  8
1
 62
     7
100
AcDbCircle
 10
89.47699659819193
 20
241.04696068471
 30
0.0
 40
13.45000000000001
  0
CIRCLE
  5
25A8
330
2354
100
AcDbEntity
  8
1
 62
     7
100
AcDbCircle
 10
89.47699659819193
 20
241.04696068471
 30
0.0
 40
5.0
  0
CIRCLE
  5
25A9
330
2354
100
AcDbEntity
  8
1
  6
CENTER
 62
     3
100
AcDbCircle
 10
89.47699659819193
 20
241.04696068471
 30
0.0
 40
9.5
  0
CIRCLE
  5
25AA
330
2354
100
AcDbEntity
  8
1
 62
     7
100
AcDbCircle
 10
288.8970562306276
 20
241.04696068471
 30
0.0
 40
15.1475
  0
CIRCLE
  5
25AB
330
2354
100
AcDbEntity
  8
1
 62
     7
100
AcDbCircle
 10
288.8970562306276
 20
241.04696068471
 30
0.0
 40
16.23150000000001
  0
CIRCLE
  5
25AC
330
2354
100
AcDbEntity
  8
1
 62
     7
100
AcDbCircle
 10
288.8970562306276
 20
241.04696068471
 30
0.0
 40
19.82649999999998
  0
CIRCLE
  5
25AD
330
2354
100
AcDbEntity
  8
1
 62
     7
100
AcDbCircle
 10
288.8970562306276
 20
241.04696068471
 30
0.0
 40
20.843
  0
CIRCLE
  5
25AE
330
2354
100
AcDbEntity
  8
1
 62
     7
100
AcDbCircle
 10
288.8970562306276
 20
241.04696068471
 30
0.0
 40
30.0
  0
CIRCLE
  5
25AF
330
2354
100
AcDbEntity
  8
1
  6
CENTER
 62
     3
100
AcDbCircle
 10
288.8970562306276
 20
241.04696068471
 30
0.0
 40
27.0
  0
CIRCLE
  5
25B0
330
2354
100
AcDbEntity
  8
1
 62
     7
100
AcDbCircle
 10
288.8970562306276
 20
241.04696068471
 30
0.0
 40
21.951
  0
CIRCLE
  5
25B1
330
2354
100
AcDbEntity
  8
1
  6
CENTER
 62
     3
100
AcDbCircle
 10
288.8970562306276
 20
241.04696068471
 30
0.0
 40
21.49150000000001
  0
CIRCLE
  5
25B2
330
2354
100
AcDbEntity
  8
1
 62
     7
100
AcDbCircle
 10
288.8970562306276
 20
241.04696068471
 30
0.0
 40
21.245
  0
CIRCLE
  5
25B3
330
2354
100
AcDbEntity
  8
1
 62
     7
100
AcDbCircle
 10
89.47699659819203
 20
268.04696068471
 30
0.0
 40
1.700000000000008
  0
CIRCLE
  5
25B4
330
2354
100
AcDbEntity
  8
1
 62
     7
100
AcDbCircle
 10
112.8596825003718
 20
254.5469606847098
 30
0.0
 40
1.700000000000049
  0
CIRCLE
  5
25B5
330
2354
100
AcDbEntity
  8
1
 62
     7
100
AcDbCircle
 10
112.8596825003717
 20
227.5469606847098
 30
0.0
 40
1.699999999999952
  0
CIRCLE
  5
25B6
330
2354
100
AcDbEntity
  8
1
 62
     7
100
AcDbCircle
 10
89.47699659819193
 20
214.04696068471
 30
0.0
 40
1.699999999999979
  0
CIRCLE
  5
25B7
330
2354
100
AcDbEntity
  8
1
 62
     7
100
AcDbCircle
 10
66.0943106960121
 20
227.5469606847098
 30
0.0
 40
1.699999999999974
  0
CIRCLE
  5
25B8
330
2354
100
AcDbEntity
  8
1
 62
     7
100
AcDbCircle
 10
66.0943106960121
 20
254.5469606847098
 30
0.0
 40
1.699999999999973
  0
CIRCLE
  5
25B9
330
2354
100
AcDbEntity
  8
1
  6
CENTER
 62
     3
100
AcDbCircle
 10
89.47699659819193
 20
241.04696068471
 30
0.0
 40
10.74999999999998
  0
CIRCLE
  5
25BA
330
2354
100
AcDbEntity
  8
1
 62
     3
100
AcDbCircle
 10
94.85199659819192
 20
250.3567337753926
 30
0.0
 40
1.5
  0
CIRCLE
  5
25BB
330
2354
100
AcDbEntity
  8
1
 62
     7
100
AcDbCircle
 10
94.85199659819192
 20
250.3567337753926
 30
0.0
 40
1.200000000000017
  0
CIRCLE
  5
25BC
330
2354
100
AcDbEntity
  8
1
 62
     3
100
AcDbCircle
 10
84.10199659819193
 20
231.7371875940271
 30
0.0
 40
1.5
  0
CIRCLE
  5
25BD
330
2354
100
AcDbEntity
  8
1
 62
     7
100
AcDbCircle
 10
84.10199659819193
 20
231.7371875940271
 30
0.0
 40
1.199999999999989
  0
CIRCLE
  5
25BE
330
2354
100
AcDbEntity
  8
1
 62
     7
100
AcDbCircle
 10
288.8970562306276
 20
268.04696068471
 30
0.0
 40
1.699999999999873
  0
CIRCLE
  5
25BF
330
2354
100
AcDbEntity
  8
1
 62
     7
100
AcDbCircle
 10
265.5143703284478
 20
254.5469606847098
 30
0.0
 40
1.699999999999938
  0
CIRCLE
  5
25C0
330
2354
100
AcDbEntity
  8
1
 62
     7
100
AcDbCircle
 10
265.5143703284478
 20
227.5469606847098
 30
0.0
 40
1.700000000000106
  0
CIRCLE
  5
25C1
330
2354
100
AcDbEntity
  8
1
 62
     7
100
AcDbCircle
 10
288.8970562306276
 20
214.04696068471
 30
0.0
 40
1.700000000000017
  0
CIRCLE
  5
25C2
330
2354
100
AcDbEntity
  8
1
 62
     7
100
AcDbCircle
 10
312.2797421328073
 20
227.5469606847098
 30
0.0
 40
1.700000000000045
  0
CIRCLE
  5
25C3
330
2354
100
AcDbEntity
  8
1
 62
     7
100
AcDbCircle
 10
312.2797421328073
 20
254.5469606847098
 30
0.0
 40
1.699999999999968
  0
ARC
  5
25C4
330
2354
100
AcDbEntity
  8
1
 62
     7
100
AcDbCircle
 10
184.2536350428929
 20
221.16096068471
 30
0.0
 40
0.9753204601565562
100
AcDbArc
 50
178.5311992856134
 51
268.5311992856135
  0
ARC
  5
25C5
330
2354
100
AcDbEntity
  8
1
 62
     7
100
AcDbCircle
 10
184.2536350428929
 20
260.9329606847099
 30
0.0
 40
0.9753204601565489
100
AcDbArc
 50
91.4688007143865
 51
181.4688007143864
  0
ARC
  5
25C6
330
2354
100
AcDbEntity
  8
1
 62
     7
100
AcDbCircle
 10
206.5786350428929
 20
219.9699638817254
 30
0.0
 40
0.2000000000000028
100
AcDbArc
 50
0.0
 51
86.99999999999766
  0
ARC
  5
25C7
330
2354
100
AcDbEntity
  8
1
 62
     7
100
AcDbCircle
 10
206.5786350428929
 20
219.8848033971846
 30
0.0
 40
0.1999999999999977
100
AcDbArc
 50
315.0000000000033
 51
0.0
  0
ARC
  5
25C8
330
2354
100
AcDbEntity
  8
1
 62
     7
100
AcDbCircle
 10
206.5786350428929
 20
262.1239574876943
 30
0.0
 40
0.1999999999999847
100
AcDbArc
 50
273.0000000000021
 51
0.0
  0
ARC
  5
25C9
330
2354
100
AcDbEntity
  8
1
 62
     7
100
AcDbCircle
 10
206.5786350428929
 20
262.2091179722354
 30
0.0
 40
0.2000000000000028
100
AcDbArc
 50
0.0
 51
44.99999999999654
  0
ARC
  5
25CA
330
2354
100
AcDbEntity
  8
1
 62
     7
100
AcDbCircle
 10
184.2666350428928
 20
221.2039606847099
 30
0.0
 40
1.330037593453657
100
AcDbArc
 50
179.5692127829916
 51
269.5692127829916
  0
ARC
  5
25CB
330
2354
100
AcDbEntity
  8
1
 62
     7
100
AcDbCircle
 10
184.2566350428929
 20
260.8799606847099
 30
0.0
 40
1.32
100
AcDbArc
 50
90.0
 51
180.0
  0
ARC
  5
25CC
330
2354
100
AcDbEntity
  8
1
 62
     7
100
AcDbCircle
 10
182.6366350428926
 20
227.1469606847098
 30
0.0
 40
0.3000000000000007
100
AcDbArc
 50
0.0
 51
90.0
  0
ARC
  5
25CD
330
2354
100
AcDbEntity
  8
1
 62
     7
100
AcDbCircle
 10
182.6366350428926
 20
254.94696068471
 30
0.0
 40
0.3000000000000096
100
AcDbArc
 50
270.0
 51
0.0
  0
ARC
  5
25CE
330
2354
100
AcDbEntity
  8
1
 62
     7
100
AcDbCircle
 10
200.078635042893
 20
265.24696068471
 30
0.0
 40
0.2000000000000099
100
AcDbArc
 50
270.0
 51
0.0
  0
ARC
  5
25CF
330
2354
100
AcDbEntity
  8
1
 62
     7
100
AcDbCircle
 10
200.078635042893
 20
216.84696068471
 30
0.0
 40
0.2000000000000028
100
AcDbArc
 50
0.0
 51
90.0
  0
ARC
  5
25D0
330
2354
100
AcDbEntity
  8
1
 62
     7
100
AcDbCircle
 10
285.3970562306276
 20
230.74696068471
 30
0.0
 40
2.0
100
AcDbArc
 50
180.0
 51
200.8077444686843
  0
ARC
  5
25D1
330
2354
100
AcDbEntity
  8
1
 62
     7
100
AcDbCircle
 10
292.3970562306276
 20
230.74696068471
 30
0.0
 40
2.000000000000011
100
AcDbArc
 50
270.0
 51
339.1922555313121
  0
ARC
  5
25D2
330
2354
100
AcDbEntity
  8
1
 62
     7
100
AcDbCircle
 10
280.3970562306277
 20
231.1229254830044
 30
0.0
 40
2.999999999999991
100
AcDbArc
 50
0.0
 51
51.75987079812292
  0
ARC
  5
25D3
330
2354
100
AcDbEntity
  8
1
 62
     7
100
AcDbCircle
 10
297.3970562306276
 20
231.1229254830044
 30
0.0
 40
3.000000000000015
100
AcDbArc
 50
128.2401292018805
 51
180.0
  0
ARC
  5
25D4
330
2354
100
AcDbEntity
  8
1
 62
     7
100
AcDbCircle
 10
285.3970562306276
 20
230.74696068471
 30
0.0
 40
2.000000000000141
100
AcDbArc
 50
200.8077444686843
 51
270.0
  0
ARC
  5
25D5
330
2354
100
AcDbEntity
  8
1
 62
     7
100
AcDbCircle
 10
292.3970562306276
 20
230.74696068471
 30
0.0
 40
1.99999999999993
100
AcDbArc
 50
339.1922555313121
 51
0.0
  0
ARC
  5
25DA
330
2354
100
AcDbEntity
  8
1
 62
     7
100
AcDbCircle
 10
200.2807850885744
 20
224.27696068471
 30
0.0
 40
0.1699999999999591
100
AcDbArc
 50
90.0
 51
186.9999999999974
  0
ARC
  5
25DB
330
2354
100
AcDbEntity
  8
1
 62
     7
100
AcDbCircle
 10
200.4286350428928
 20
221.8269606847099
 30
0.0
 40
0.1700000000000159
100
AcDbArc
 50
180.0
 51
270.0
  0
ARC
  5
25DC
330
2354
100
AcDbEntity
  8
1
 62
     7
100
AcDbCircle
 10
200.2807850885744
 20
257.81696068471
 30
0.0
 40
0.1700000000000084
100
AcDbArc
 50
172.9999999999984
 51
270.0
  0
ARC
  5
25DD
330
2354
100
AcDbEntity
  8
1
 62
     7
100
AcDbCircle
 10
200.4286350428928
 20
260.26696068471
 30
0.0
 40
0.1700000000000017
100
AcDbArc
 50
90.0
 51
180.0
  0
TEXT
  5
25DE
330
2354
100
AcDbEntity
  8
1
 62
     0
100
AcDbText
 10
298.700313624865
 20
172.3564692579576
 30
0.0
 40
4.16
  1
2002/3
 41
0.9
 72
     1
 11
306.5927173958673
 21
174.4364692579577
 31
0.0
100
AcDbText
 73
     2
  0
TEXT
  5
25E3
330
2354
100
AcDbEntity
  8
1
 62
     3
100
AcDbText
 10
88.8183151921623
 20
138.9788187259034
 30
0.0
 40
1.8
  1
 
 41
0.9
100
AcDbText
  0
TEXT
  5
25E9
330
2354
100
AcDbEntity
  8
1
 62
     0
100
AcDbText
 10
159.0254031190735
 20
181.1765329756419
 30
0.0
 40
3.0
  1
REMARKS:  M.H.C = MINIMUM HOUSING CLEARANCE
 41
0.9
 72
     1
 11
198.1821531190736
 21
182.676532975642
 31
0.0
100
AcDbText
 73
     2
  0
TEXT
  5
25EA
330
2354
100
AcDbEntity
  8
1
 62
     0
100
AcDbText
 10
269.060764389527
 20
181.9154134707514
 30
0.0
 40
4.16
  1
CSF-17-XXX-2A-R.dxf
 41
0.9
100
AcDbText
  0
INSERT
  5
265F
330
2354
100
AcDbEntity
  8
AM_0
100
AcDbBlockReference
  2
HD Logo
 10
225.2857622418064
 20
133.9470664884
 30
0.0
 41
0.9
 42
0.9
 43
0.9
  0
INSERT
  5
2676
330
2354
100
AcDbEntity
  8
AM_0
100
AcDbBlockReference
  2
Harmonic Drive LLC
 10
296.4722592972643
 20
140.4505844410364
 30
0.0
  0
INSERT
  5
268B
330
2354
100
AcDbEntity
  8
AM_0
100
AcDbBlockReference
  2
NTC
 10
11.48604278029698
 20
163.8922863349923
 30
0.0
 41
0.5065740000000001
 42
0.5065740000000001
 43
0.5065740000000001
  0
ENDSEC
  0
SECTION
  2
OBJECTS
  0
DICTIONARY
  5
2342
330
0
100
AcDbDictionary
281
     1
  3
ACAD_GROUP
350
2343
  3
ACAD_LAYOUT
350
234F
  3
ACAD_MLINESTYLE
350
234C
  3
ACAD_PLOTSETTINGS
350
234E
  3
ACAD_PLOTSTYLENAME
350
2344
  3
AcDbVariableDictionary
350
2677
  0
DICTIONARY
  5
2343
102
{ACAD_REACTORS
330
2342
102
}
330
2342
100
AcDbDictionary
281
     1
  0
DICTIONARY
  5
234F
102
{ACAD_REACTORS
330
2342
102
}
330
2342
100
AcDbDictionary
281
     1
  3
Layout1
350
2353
  3
Model
350
2357
  0
DICTIONARY
  5
234C
102
{ACAD_REACTORS
330
2342
102
}
330
2342
100
AcDbDictionary
281
     1
  3
Standard
350
234D
  0
DICTIONARY
  5
234E
102
{ACAD_REACTORS
330
2342
102
}
330
2342
100
AcDbDictionary
281
     1
  0
ACDBDICTIONARYWDFLT
  5
2344
102
{ACAD_REACTORS
330
2342
102
}
330
2342
100
AcDbDictionary
281
     1
  3
Normal
350
2345
100
AcDbDictionaryWithDefault
340
2345
  0
DICTIONARY
  5
2677
102
{ACAD_REACTORS
330
2342
102
}
330
2342
100
AcDbDictionary
281
     1
  3
DIMASSOC
350
2678
  0
LAYOUT
  5
2353
102
{ACAD_REACTORS
330
234F
102
}
330
234F
100
AcDbPlotSettings
  1

  2
\\SERVER9\HP LaserJet 5100 PCL 5e
  4

  6

 40
0.0
 41
0.0
 42
0.0
 43
0.0
 44
0.0
 45
0.0
 46
0.0
 47
0.0
 48
0.0
 49
0.0
140
0.0
141
0.0
142
1.0
143
1.0
 70
   688
 72
     0
 73
     0
 74
     5
  7

 75
    16
147
1.0
148
0.0
149
0.0
100
AcDbLayout
  1
Layout1
 70
     1
 71
     1
 10
0.0
 20
0.0
 11
420.0
 21
297.0
 12
0.0
 22
0.0
 32
0.0
 14
1.000000000000000E+20
 24
1.000000000000000E+20
 34
1.000000000000000E+20
 15
-1.000000000000000E+20
 25
-1.000000000000000E+20
 35
-1.000000000000000E+20
146
0.0
 13
0.0
 23
0.0
 33
0.0
 16
1.0
 26
0.0
 36
0.0
 17
0.0
 27
1.0
 37
0.0
 76
     0
330
2350
  0
LAYOUT
  5
2357
102
{ACAD_REACTORS
330
234F
102
}
330
234F
100
AcDbPlotSettings
  1

  2
\\SERVER9\HP LaserJet 5100 PCL 5e
  4

  6

 40
0.0
 41
0.0
 42
0.0
 43
0.0
 44
0.0
 45
0.0
 46
0.0
 47
0.0
 48
0.0
 49
0.0
140
0.0
141
0.0
142
1.0
143
1.0
 70
  1712
 72
     0
 73
     0
 74
     0
  7

 75
     0
147
1.0
148
0.0
149
0.0
100
AcDbLayout
  1
Model
 70
     1
 71
     0
 10
0.0
 20
0.0
 11
12.0
 21
9.0
 12
0.0
 22
0.0
 32
0.0
 14
0.0
 24
0.0
 34
0.0
 15
0.0
 25
0.0
 35
0.0
146
0.0
 13
0.0
 23
0.0
 33
0.0
 16
1.0
 26
0.0
 36
0.0
 17
0.0
 27
1.0
 37
0.0
 76
     0
330
2354
  0
MLINESTYLE
  5
234D
102
{ACAD_REACTORS
330
234C
102
}
330
234C
100
AcDbMlineStyle
  2
STANDARD
 70
     0
  3

 62
   256
 51
90.0
 52
90.0
 71
     2
 49
0.5
 62
   256
  6
BYLAYER
 49
-0.5
 62
   256
  6
BYLAYER
  0
ACDBPLACEHOLDER
  5
2345
102
{ACAD_REACTORS
330
2344
102
}
330
2344
  0
DICTIONARYVAR
  5
2678
102
{ACAD_REACTORS
330
2677
102
}
330
2677
100
DictionaryVariables
280
     0
  1
1
  0
ENDSEC
  0
EOF
