  0
SECTION
  2
HEADER
  9
$ACADVER
  1
AC1015
  9
$ACADMAINTVER
 70
    13
  9
$DWGCODEPAGE
  3
ANSI_1252
  9
$INSBASE
 10
0.0
 20
0.0
 30
0.0
  9
$EXTMIN
 10
25.24985734988168
 20
-26.21875158446117
 30
0.0
  9
$EXTMAX
 10
360.5067932191082
 20
220.0573501516201
 30
0.0
  9
$LIMMIN
 10
0.0
 20
0.0
  9
$LIMMAX
 10
420.0
 20
297.0
  9
$ORTHOMODE
 70
     1
  9
$REGENMODE
 70
     1
  9
$FILLMODE
 70
     1
  9
$QTEXTMODE
 70
     0
  9
$MIRRTEXT
 70
     1
  9
$LTSCALE
 40
1.0
  9
$ATTMODE
 70
     1
  9
$TEXTSIZE
 40
2.5
  9
$TRACEWID
 40
1.0
  9
$TEXTSTYLE
  7
STANDARD
  9
$CLAYER
  8
AM_0
  9
$CELTYPE
  6
ByLayer
  9
$CECOLOR
 62
   256
  9
$CELTSCALE
 40
1.0
  9
$DISPSILH
 70
     0
  9
$DIMSCALE
 40
1.0
  9
$DIMASZ
 40
2.5
  9
$DIMEXO
 40
0.625
  9
$DIMDLI
 40
3.75
  9
$DIMRND
 40
0.0
  9
$DIMDLE
 40
0.0
  9
$DIMEXE
 40
1.25
  9
$DIMTP
 40
0.0
  9
$DIMTM
 40
0.0
  9
$DIMTXT
 40
2.5
  9
$DIMCEN
 40
2.5
  9
$DIMTSZ
 40
0.0
  9
$DIMTOL
 70
     0
  9
$DIMLIM
 70
     0
  9
$DIMTIH
 70
     0
  9
$DIMTOH
 70
     0
  9
$DIMSE1
 70
     0
  9
$DIMSE2
 70
     0
  9
$DIMTAD
 70
     1
  9
$DIMZIN
 70
     8
  9
$DIMBLK
  1

  9
$DIMASO
 70
     1
  9
$DIMSHO
 70
     1
  9
$DIMPOST
  1

  9
$DIMAPOST
  1

  9
$DIMALT
 70
     0
  9
$DIMALTD
 70
     3
  9
$DIMALTF
 40
0.03937007874016
  9
$DIMLFAC
 40
1.0
  9
$DIMTOFL
 70
     1
  9
$DIMTVP
 40
0.0
  9
$DIMTIX
 70
     0
  9
$DIMSOXD
 70
     0
  9
$DIMSAH
 70
     0
  9
$DIMBLK1
  1

  9
$DIMBLK2
  1

  9
$DIMSTYLE
  2
ISO-25
  9
$DIMCLRD
 70
     0
  9
$DIMCLRE
 70
     0
  9
$DIMCLRT
 70
     0
  9
$DIMTFAC
 40
1.0
  9
$DIMGAP
 40
0.625
  9
$DIMJUST
 70
     0
  9
$DIMSD1
 70
     0
  9
$DIMSD2
 70
     0
  9
$DIMTOLJ
 70
     1
  9
$DIMTZIN
 70
     0
  9
$DIMALTZ
 70
     0
  9
$DIMALTTZ
 70
     0
  9
$DIMUPT
 70
     0
  9
$DIMDEC
 70
     4
  9
$DIMTDEC
 70
     4
  9
$DIMALTU
 70
     2
  9
$DIMALTTD
 70
     2
  9
$DIMTXSTY
  7
STANDARD
  9
$DIMAUNIT
 70
     0
  9
$DIMADEC
 70
     0
  9
$DIMALTRND
 40
0.0
  9
$DIMAZIN
 70
     0
  9
$DIMDSEP
 70
    46
  9
$DIMATFIT
 70
     3
  9
$DIMFRAC
 70
     0
  9
$DIMLDRBLK
  1

  9
$DIMLUNIT
 70
     2
  9
$DIMLWD
 70
    -2
  9
$DIMLWE
 70
    -2
  9
$DIMTMOVE
 70
     0
  9
$LUNITS
 70
     2
  9
$LUPREC
 70
     2
  9
$SKETCHINC
 40
1.0
  9
$FILLETRAD
 40
2.5
  9
$AUNITS
 70
     0
  9
$AUPREC
 70
     0
  9
$MENU
  1
.
  9
$ELEVATION
 40
0.0
  9
$PELEVATION
 40
0.0
  9
$THICKNESS
 40
0.0
  9
$LIMCHECK
 70
     0
  9
$CHAMFERA
 40
2.5
  9
$CHAMFERB
 40
2.5
  9
$CHAMFERC
 40
0.0
  9
$CHAMFERD
 40
0.0
  9
$SKPOLY
 70
     0
  9
$TDCREATE
 40
2452802.604539201
  9
$TDUCREATE
 40
2452802.771205868
  9
$TDUPDATE
 40
2453865.482528020
  9
$TDUUPDATE
 40
2453865.649194687
  9
$TDINDWG
 40
0.1351332870
  9
$TDUSRTIMER
 40
0.1351316667
  9
$USRTIMER
 70
     1
  9
$ANGBASE
 50
0.0
  9
$ANGDIR
 70
     0
  9
$PDMODE
 70
     0
  9
$PDSIZE
 40
0.0
  9
$PLINEWID
 40
0.0
  9
$SPLFRAME
 70
     0
  9
$SPLINETYPE
 70
     6
  9
$SPLINESEGS
 70
     8
  9
$HANDSEED
  5
2AC8
  9
$SURFTAB1
 70
     6
  9
$SURFTAB2
 70
     6
  9
$SURFTYPE
 70
     6
  9
$SURFU
 70
     6
  9
$SURFV
 70
     6
  9
$UCSBASE
  2

  9
$UCSNAME
  2

  9
$UCSORG
 10
0.0
 20
0.0
 30
0.0
  9
$UCSXDIR
 10
1.0
 20
0.0
 30
0.0
  9
$UCSYDIR
 10
0.0
 20
1.0
 30
0.0
  9
$UCSORTHOREF
  2

  9
$UCSORTHOVIEW
 70
     0
  9
$UCSORGTOP
 10
0.0
 20
0.0
 30
0.0
  9
$UCSORGBOTTOM
 10
0.0
 20
0.0
 30
0.0
  9
$UCSORGLEFT
 10
0.0
 20
0.0
 30
0.0
  9
$UCSORGRIGHT
 10
0.0
 20
0.0
 30
0.0
  9
$UCSORGFRONT
 10
0.0
 20
0.0
 30
0.0
  9
$UCSORGBACK
 10
0.0
 20
0.0
 30
0.0
  9
$PUCSBASE
  2

  9
$PUCSNAME
  2

  9
$PUCSORG
 10
0.0
 20
0.0
 30
0.0
  9
$PUCSXDIR
 10
1.0
 20
0.0
 30
0.0
  9
$PUCSYDIR
 10
0.0
 20
1.0
 30
0.0
  9
$PUCSORTHOREF
  2

  9
$PUCSORTHOVIEW
 70
     0
  9
$PUCSORGTOP
 10
0.0
 20
0.0
 30
0.0
  9
$PUCSORGBOTTOM
 10
0.0
 20
0.0
 30
0.0
  9
$PUCSORGLEFT
 10
0.0
 20
0.0
 30
0.0
  9
$PUCSORGRIGHT
 10
0.0
 20
0.0
 30
0.0
  9
$PUCSORGFRONT
 10
0.0
 20
0.0
 30
0.0
  9
$PUCSORGBACK
 10
0.0
 20
0.0
 30
0.0
  9
$USERI1
 70
     0
  9
$USERI2
 70
     0
  9
$USERI3
 70
     0
  9
$USERI4
 70
     0
  9
$USERI5
 70
     0
  9
$USERR1
 40
0.0
  9
$USERR2
 40
0.0
  9
$USERR3
 40
0.0
  9
$USERR4
 40
0.0
  9
$USERR5
 40
0.0
  9
$WORLDVIEW
 70
     1
  9
$SHADEDGE
 70
     3
  9
$SHADEDIF
 70
    70
  9
$TILEMODE
 70
     1
  9
$MAXACTVP
 70
    64
  9
$PINSBASE
 10
0.0
 20
0.0
 30
0.0
  9
$PLIMCHECK
 70
     0
  9
$PEXTMIN
 10
1.000000000000000E+20
 20
1.000000000000000E+20
 30
1.000000000000000E+20
  9
$PEXTMAX
 10
-1.000000000000000E+20
 20
-1.000000000000000E+20
 30
-1.000000000000000E+20
  9
$PLIMMIN
 10
0.0
 20
0.0
  9
$PLIMMAX
 10
420.0
 20
297.0
  9
$UNITMODE
 70
     0
  9
$VISRETAIN
 70
     1
  9
$PLINEGEN
 70
     0
  9
$PSLTSCALE
 70
     1
  9
$TREEDEPTH
 70
  3020
  9
$CMLSTYLE
  2
Standard
  9
$CMLJUST
 70
     0
  9
$CMLSCALE
 40
1.0
  9
$PROXYGRAPHICS
 70
     1
  9
$MEASUREMENT
 70
     0
  9
$CELWEIGHT
370
    -1
  9
$ENDCAPS
280
     0
  9
$JOINSTYLE
280
     0
  9
$LWDISPLAY
290
     0
  9
$INSUNITS
 70
     0
  9
$HYPERLINKBASE
  1

  9
$STYLESHEET
  1

  9
$XEDIT
290
     1
  9
$CEPSNTYPE
380
     0
  9
$PSTYLEMODE
290
     1
  9
$FINGERPRINTGUID
  2
{0FD8DF52-5F82-40DF-94C0-51D3FAC49B43}
  9
$VERSIONGUID
  2
{13AD87A6-9FBE-49F5-B9AF-D2ECD97E75BA}
  9
$EXTNAMES
290
     1
  9
$PSVPSCALE
 40
0.0
  9
$OLESTARTUP
290
     0
  0
ENDSEC
  0
SECTION
  2
CLASSES
  0
CLASS
  1
ACDBDICTIONARYWDFLT
  2
AcDbDictionaryWithDefault
  3
AutoCAD 2000
 90
        0
280
     0
281
     0
  0
CLASS
  1
ACDBPLACEHOLDER
  2
AcDbPlaceHolder
  3
AutoCAD 2000
 90
        0
280
     0
281
     0
  0
CLASS
  1
LAYOUT
  2
AcDbLayout
  3
AutoCAD 2000
 90
        0
280
     0
281
     0
  0
CLASS
  1
DICTIONARYVAR
  2
AcDbDictionaryVar
  3
AutoCAD 2000
 90
        0
280
     0
281
     0
  0
ENDSEC
  0
SECTION
  2
TABLES
  0
TABLE
  2
VPORT
  5
27A9
330
0
100
AcDbSymbolTable
 70
     2
  0
VPORT
  5
2AC7
330
27A9
100
AcDbSymbolTableRecord
100
AcDbViewportTableRecord
  2
*Active
 70
     0
 10
0.0
 20
0.0
 11
1.0
 21
1.0
 12
193.335024317398
 22
116.621732325053
 13
0.0
 23
0.0
 14
2.5
 24
2.5
 15
10.0
 25
10.0
 16
0.0
 26
0.0
 36
1.0
 17
0.0
 27
0.0
 37
0.0
 40
296.4102736566154
 41
1.182835820895522
 42
50.0
 43
0.0
 44
0.0
 50
0.0
 51
0.0
 71
     0
 72
   100
 73
     1
 74
     3
 75
     0
 76
     0
 77
     0
 78
     0
281
     0
 65
     1
110
0.0
120
0.0
130
0.0
111
1.0
121
0.0
131
0.0
112
0.0
122
1.0
132
0.0
 79
     0
146
0.0
  0
ENDTAB
  0
TABLE
  2
LTYPE
  5
27A6
330
0
100
AcDbSymbolTable
 70
     5
  0
LTYPE
  5
27B4
330
27A6
100
AcDbSymbolTableRecord
100
AcDbLinetypeTableRecord
  2
ByBlock
 70
     0
  3

 72
    65
 73
     0
 40
0.0
  0
LTYPE
  5
27B5
330
27A6
100
AcDbSymbolTableRecord
100
AcDbLinetypeTableRecord
  2
ByLayer
 70
     0
  3

 72
    65
 73
     0
 40
0.0
  0
LTYPE
  5
27B6
330
27A6
100
AcDbSymbolTableRecord
100
AcDbLinetypeTableRecord
  2
CONTINUOUS
 70
     0
  3
Solid line
 72
    65
 73
     0
 40
0.0
  0
LTYPE
  5
27C5
330
27A6
100
AcDbSymbolTableRecord
100
AcDbLinetypeTableRecord
  2
CENTER
 70
     0
  3
Center ____ _ ____ _ ____ _ ____ _ ____ _ ____
 72
    65
 73
     4
 40
50.8
 49
31.75
 74
     0
 49
-6.349999999999997
 74
     0
 49
6.349999999999997
 74
     0
 49
-6.349999999999997
 74
     0
  0
LTYPE
  5
27C6
330
27A6
100
AcDbSymbolTableRecord
100
AcDbLinetypeTableRecord
  2
DASHDOT
 70
     0
  3
__ . __ . __ .
 72
    65
 73
     4
 40
7.328947368421047
 49
3.664473684210522
 74
     0
 49
-1.832236842105259
 74
     0
 49
0.0
 74
     0
 49
-1.832236842105259
 74
     0
  0
LTYPE
  5
27C7
330
27A6
100
AcDbSymbolTableRecord
100
AcDbLinetypeTableRecord
  2
DIVIDE
 70
     0
  3
__ . . __ . . 
 72
    65
 73
     6
 40
9.161184210526313
 49
3.664473684210522
 74
     0
 49
-1.832236842105259
 74
     0
 49
0.0
 74
     0
 49
-1.832236842105259
 74
     0
 49
0.0
 74
     0
 49
-1.832236842105259
 74
     0
  0
LTYPE
  5
27C8
330
27A6
100
AcDbSymbolTableRecord
100
AcDbLinetypeTableRecord
  2
PHANTOM
 70
     0
  3
_____ _ _ _____ _ _ 
 72
    65
 73
     6
 40
18.32236842105261
 49
9.161184210526313
 74
     0
 49
-1.832236842105259
 74
     0
 49
1.832236842105259
 74
     0
 49
-1.832236842105259
 74
     0
 49
1.832236842105259
 74
     0
 49
-1.832236842105259
 74
     0
  0
ENDTAB
  0
TABLE
  2
LAYER
  5
27A3
330
0
100
AcDbSymbolTable
 70
     5
  0
LAYER
  5
27B1
330
27A3
100
AcDbSymbolTableRecord
100
AcDbLayerTableRecord
  2
0
 70
     0
 62
     7
  6
CONTINUOUS
370
    -3
390
27B0
  0
LAYER
  5
27C3
330
27A3
100
AcDbSymbolTableRecord
100
AcDbLayerTableRecord
  2
AM_0
 70
     0
 62
     7
  6
CONTINUOUS
370
    -3
390
27B0
  0
LAYER
  5
27C9
330
27A3
100
AcDbSymbolTableRecord
100
AcDbLayerTableRecord
  2
1
 70
     0
 62
     7
  6
CONTINUOUS
370
    -3
390
27B0
  0
LAYER
  5
27CA
330
27A3
100
AcDbSymbolTableRecord
100
AcDbLayerTableRecord
  2
2
 70
     0
 62
     7
  6
CONTINUOUS
370
    -3
390
27B0
  0
LAYER
  5
2A89
330
27A3
100
AcDbSymbolTableRecord
100
AcDbLayerTableRecord
  2
LAYER_1
 70
     0
 62
     5
  6
CONTINUOUS
370
    -3
390
27B0
  0
ENDTAB
  0
TABLE
  2
STYLE
  5
27A4
330
0
100
AcDbSymbolTable
 70
     1
  0
STYLE
  5
27B2
330
27A4
100
AcDbSymbolTableRecord
100
AcDbTextStyleTableRecord
  2
STANDARD
 70
     0
 40
0.0
 41
1.0
 50
0.0
 71
     0
 42
2.5
  3
ISOCP.SHX
  4

  0
ENDTAB
  0
TABLE
  2
VIEW
  5
27A7
330
0
100
AcDbSymbolTable
 70
     0
  0
ENDTAB
  0
TABLE
  2
UCS
  5
27A8
330
0
100
AcDbSymbolTable
 70
     0
  0
ENDTAB
  0
TABLE
  2
APPID
  5
27AA
330
0
100
AcDbSymbolTable
 70
    13
  0
APPID
  5
27B3
330
27AA
100
AcDbSymbolTableRecord
100
AcDbRegAppTableRecord
  2
ACAD
 70
     0
  0
APPID
  5
27CB
330
27AA
100
AcDbSymbolTableRecord
100
AcDbRegAppTableRecord
  2
MCAD_NO_VIS
 70
     0
  0
APPID
  5
27CC
330
27AA
100
AcDbSymbolTableRecord
100
AcDbRegAppTableRecord
  2
ACAD_TEMP_GRAPHIC
 70
     0
  0
APPID
  5
27CD
330
27AA
100
AcDbSymbolTableRecord
100
AcDbRegAppTableRecord
  2
AD_DRAW
 70
     0
  0
APPID
  5
27CE
330
27AA
100
AcDbSymbolTableRecord
100
AcDbRegAppTableRecord
  2
ACATTRIBSERVICES
 70
     0
  0
APPID
  5
27CF
330
27AA
100
AcDbSymbolTableRecord
100
AcDbRegAppTableRecord
  2
ASURF_PCURVE_APPNAME
 70
     0
  0
APPID
  5
27D0
330
27AA
100
AcDbSymbolTableRecord
100
AcDbRegAppTableRecord
  2
GENIUS_GENDIM_13
 70
     0
  0
APPID
  5
27D1
330
27AA
100
AcDbSymbolTableRecord
100
AcDbRegAppTableRecord
  2
GENIUS_GENDTOL_13
 70
     0
  0
APPID
  5
27D2
330
27AA
100
AcDbSymbolTableRecord
100
AcDbRegAppTableRecord
  2
GENIUS_GE3DTOL_13
 70
     0
  0
APPID
  5
27D3
330
27AA
100
AcDbSymbolTableRecord
100
AcDbRegAppTableRecord
  2
DESIGNERASSEMBLIES
 70
     0
  0
APPID
  5
27D4
330
27AA
100
AcDbSymbolTableRecord
100
AcDbRegAppTableRecord
  2
ACADM_DIM_EDIT
 70
     0
  0
APPID
  5
27D5
330
27AA
100
AcDbSymbolTableRecord
100
AcDbRegAppTableRecord
  2
G3V_ENTHND
 70
     0
  0
APPID
  5
27D6
330
27AA
100
AcDbSymbolTableRecord
100
AcDbRegAppTableRecord
  2
GENIUS_GENDIMSH_14
 70
     0
  0
ENDTAB
  0
TABLE
  2
DIMSTYLE
  5
27AB
330
0
100
AcDbSymbolTable
 70
     2
100
AcDbDimStyleTable
 71
     0
  0
DIMSTYLE
105
27D7
330
27AB
100
AcDbSymbolTableRecord
100
AcDbDimStyleTableRecord
  2
ISO-25
 70
     0
 41
2.5
 42
0.625
 43
3.75
 44
1.25
 73
     0
 74
     0
 77
     1
 78
     8
140
2.5
141
2.5
143
0.03937007874016
147
0.625
171
     3
172
     1
271
     2
272
     2
274
     3
279
     2
284
     8
285
     8
286
     8
340
27B2
  0
DIMSTYLE
105
2A8A
330
27AB
100
AcDbSymbolTableRecord
100
AcDbDimStyleTableRecord
  2
Standard
 70
     0
340
27B2
  0
ENDTAB
  0
TABLE
  2
BLOCK_RECORD
  5
27A2
330
0
100
AcDbSymbolTable
 70
    23
  0
BLOCK_RECORD
  5
27BF
330
27A2
100
AcDbSymbolTableRecord
100
AcDbBlockTableRecord
  2
*Model_Space
340
27C2
  0
BLOCK_RECORD
  5
27BB
330
27A2
100
AcDbSymbolTableRecord
100
AcDbBlockTableRecord
  2
*Paper_Space
340
27BE
  0
BLOCK_RECORD
  5
27D9
330
27A2
100
AcDbSymbolTableRecord
100
AcDbBlockTableRecord
  2
$MODEL_SPACE
340
0
  0
BLOCK_RECORD
  5
27DC
330
27A2
100
AcDbSymbolTableRecord
100
AcDbBlockTableRecord
  2
$PAPER_SPACE
340
0
  0
BLOCK_RECORD
  5
2A1D
330
27A2
100
AcDbSymbolTableRecord
100
AcDbBlockTableRecord
  2
AI9-BLK14
340
0
310
2800000020000000200000000100080000000000000400000000000000000000000000000000000000000000000080000080000000808000800000008000800080800000C0C0C000C0DCC000F0CAA6000020400000206000002080000020A0000020C0000020E00000400000004020000040400000406000004080000040A0
310
000040C0000040E00000600000006020000060400000606000006080000060A0000060C0000060E00000800000008020000080400000806000008080000080A0000080C0000080E00000A0000000A0200000A0400000A0600000A0800000A0A00000A0C00000A0E00000C0000000C0200000C0400000C0600000C0800000C0
310
A00000C0C00000C0E00000E0000000E0200000E0400000E0600000E0800000E0A00000E0C00000E0E00040000000400020004000400040006000400080004000A0004000C0004000E00040200000402020004020400040206000402080004020A0004020C0004020E000404000004040200040404000404060004040800040
310
40A0004040C0004040E00040600000406020004060400040606000406080004060A0004060C0004060E00040800000408020004080400040806000408080004080A0004080C0004080E00040A0000040A0200040A0400040A0600040A0800040A0A00040A0C00040A0E00040C0000040C0200040C0400040C0600040C08000
310
40C0A00040C0C00040C0E00040E0000040E0200040E0400040E0600040E0800040E0A00040E0C00040E0E00080000000800020008000400080006000800080008000A0008000C0008000E00080200000802020008020400080206000802080008020A0008020C0008020E00080400000804020008040400080406000804080
310
008040A0008040C0008040E00080600000806020008060400080606000806080008060A0008060C0008060E00080800000808020008080400080806000808080008080A0008080C0008080E00080A0000080A0200080A0400080A0600080A0800080A0A00080A0C00080A0E00080C0000080C0200080C0400080C0600080C0
310
800080C0A00080C0C00080C0E00080E0000080E0200080E0400080E0600080E0800080E0A00080E0C00080E0E000C0000000C0002000C0004000C0006000C0008000C000A000C000C000C000E000C0200000C0202000C0204000C0206000C0208000C020A000C020C000C020E000C0400000C0402000C0404000C0406000C0
310
408000C040A000C040C000C040E000C0600000C0602000C0604000C0606000C0608000C060A000C060C000C060E000C0800000C0802000C0804000C0806000C0808000C080A000C080C000C080E000C0A00000C0A02000C0A04000C0A06000C0A08000C0A0A000C0A0C000C0A0E000C0C00000C0C02000C0C04000C0C06000
310
C0C08000C0C0A000F0FBFF00A4A0A000808080000000FF0000FF000000FFFF00FF000000FF00FF00FFFF0000FFFFFF00FF00FFFFFFFF00FFFFFFFFFFFFFFFFFFFFFFFFFFFFFFFFFFFFFFFFFFFFFFFFFFFF00FFFFFFFF00FFFFFFFFFFFFFFFFFFFFFFFFFFFFFFFFFFFFFFFFFFFFFFFFFFFF00FFFFFFFF00FFFFFFFFFFFFFFFF
310
FFFFFFFFFFFFFFFFFFFFFFFFFFFFFFFFFFFF00FFFFFFFF00FFFFFFFFFFFFFFFFFFFFFFFFFFFFFFFFFFFFFFFFFFFFFFFFFFFF00FFFFFFFF00FFFFFFFFFFFFFFFFFFFFFFFFFFFFFFFFFFFFFFFFFFFFFFFFFFFF00FFFFFFFF00FFFFFFFFFFFFFFFFFFFFFFFFFFFFFFFFFFFFFFFFFFFFFFFFFFFF00FFFFFFFF00FFFFFFFFFFFFFF
310
FFFFFFFFFFFFFFFFFFFFFFFFFFFFFFFFFFFFFF00FFFFFFFF00FFFFFFFFFFFFFFFFFFFFFFFFFFFFFFFFFFFFFFFFFFFFFFFFFFFF00FFFFFFFF00FFFFFFFFFFFFFFFFFFFFFFFFFFFFFFFFFFFFFFFFFFFFFFFFFFFF00FFFFFFFF00FFFFFFFFFFFFFFFFFFFFFFFFFFFFFFFFFFFFFFFFFFFFFFFFFFFF00FFFFFFFF00FFFFFFFFFFFF
310
FFFFFFFFFFFFFFFFFFFFFFFFFFFFFFFFFFFFFFFF00FFFFFFFF00FFFFFFFFFFFFFFFFFFFFFFFFFFFFFFFFFFFFFFFFFFFFFFFFFFFF00FFFFFFFF00FFFFFFFFFFFFFFFFFFFFFFFFFFFFFFFFFFFFFFFFFFFFFFFFFFFF00FFFFFFFF0000000000000000000000000000000000000000000000000000FF00FFFFFFFFFFFFFFFFFFFF
310
FFFFFFFFFFFFFFFFFFFFFFFFFFFFFFFFFFFFFFFFFF00FFFFFFFFFFFFFFFFFFFFFFFFFFFFFFFFFFFFFFFFFFFFFFFFFFFFFFFFFFFFFF00FFFFFFFFFFFFFFFFFFFFFFFFFFFFFFFFFFFFFFFFFFFFFFFFFFFFFFFFFFFFFF00FFFFFFFFFFFFFFFFFFFFFFFFFFFFFFFFFFFFFFFFFFFFFFFFFFFFFFFFFF00FF00000000000000000000
310
0000000000000000000000000000000000000000FFFFFFFFFFFFFFFFFFFFFFFFFFFFFFFFFFFFFFFFFFFFFFFFFFFFFFFFFFFFFFFFFFFFFFFFFFFFFFFFFFFFFFFFFFFFFFFFFFFFFFFFFFFFFFFFFFFFFFFFFFFFFFFFFFFFFFFFFFFFFFFFFFFFFFFFFFFFFFFFFFFFFFFFFFFFFFFFFFFFFFFFFFFFFFFFFFFFFFFFFFFFFFFFFFFFFF
310
FFFFFFFFFFFFFFFFFFFFFFFFFFFFFFFFFFFFFFFFFFFFFFFFFFFFFFFFFFFFFFFFFFFFFFFFFFFFFFFFFFFFFFFFFFFFFFFFFFFFFFFFFFFFFFFFFFFFFFFFFFFFFFFFFFFFFFFFFFFFFFFFFFFFFFFFFFFFFFFFFFFFFFFFFFFFFFFFFFFFFFFFFFFFFFFFFFFFFFFFFFFFFFFFFFFFFFFFFFFFFFFFFFFFFFFFFFFFFFFFFFFFFFFFFFFFFF
310
FFFFFFFFFFFFFFFFFFFFFFFFFFFFFFFFFFFFFFFFFFFFFFFFFFFFFFFFFFFFFFFFFFFFFFFFFFFFFFFFFFFFFFFFFFFFFFFFFFFFFFFFFFFFFFFFFFFFFFFFFFFFFFFFFFFFFFFFFFFFFFFFFFFFFFFFFFFFFFFFFFFFFFFFFFFFFFFFFFFFFFFFFFFFFFFFFFFFFFFFFFFFFFFFFFFFFFFFFFFFFFFFFFFFFFFFFFFFFFFFFFFFFFFFFFFFFF
310
FFFFFFFFFFFFFFFFFFFFFFFFFFFFFFFFFFFFFFFFFFFFFFFFFFFFFFFFFFFFFFFFFFFFFFFFFFFFFFFFFFFFFFFFFFFFFFFFFFFFFFFFFFFFFFFF
102
{BLKREFS
331
2A5E
102
}
  0
BLOCK_RECORD
  5
2A22
330
27A2
100
AcDbSymbolTableRecord
100
AcDbBlockTableRecord
  2
AI9-BLK13
340
0
310
2800000020000000200000000100080000000000000400000000000000000000000000000000000000000000000080000080000000808000800000008000800080800000C0C0C000C0DCC000F0CAA6000020400000206000002080000020A0000020C0000020E00000400000004020000040400000406000004080000040A0
310
000040C0000040E00000600000006020000060400000606000006080000060A0000060C0000060E00000800000008020000080400000806000008080000080A0000080C0000080E00000A0000000A0200000A0400000A0600000A0800000A0A00000A0C00000A0E00000C0000000C0200000C0400000C0600000C0800000C0
310
A00000C0C00000C0E00000E0000000E0200000E0400000E0600000E0800000E0A00000E0C00000E0E00040000000400020004000400040006000400080004000A0004000C0004000E00040200000402020004020400040206000402080004020A0004020C0004020E000404000004040200040404000404060004040800040
310
40A0004040C0004040E00040600000406020004060400040606000406080004060A0004060C0004060E00040800000408020004080400040806000408080004080A0004080C0004080E00040A0000040A0200040A0400040A0600040A0800040A0A00040A0C00040A0E00040C0000040C0200040C0400040C0600040C08000
310
40C0A00040C0C00040C0E00040E0000040E0200040E0400040E0600040E0800040E0A00040E0C00040E0E00080000000800020008000400080006000800080008000A0008000C0008000E00080200000802020008020400080206000802080008020A0008020C0008020E00080400000804020008040400080406000804080
310
008040A0008040C0008040E00080600000806020008060400080606000806080008060A0008060C0008060E00080800000808020008080400080806000808080008080A0008080C0008080E00080A0000080A0200080A0400080A0600080A0800080A0A00080A0C00080A0E00080C0000080C0200080C0400080C0600080C0
310
800080C0A00080C0C00080C0E00080E0000080E0200080E0400080E0600080E0800080E0A00080E0C00080E0E000C0000000C0002000C0004000C0006000C0008000C000A000C000C000C000E000C0200000C0202000C0204000C0206000C0208000C020A000C020C000C020E000C0400000C0402000C0404000C0406000C0
310
408000C040A000C040C000C040E000C0600000C0602000C0604000C0606000C0608000C060A000C060C000C060E000C0800000C0802000C0804000C0806000C0808000C080A000C080C000C080E000C0A00000C0A02000C0A04000C0A06000C0A08000C0A0A000C0A0C000C0A0E000C0C00000C0C02000C0C04000C0C06000
310
C0C08000C0C0A000F0FBFF00A4A0A000808080000000FF0000FF000000FFFF00FF000000FF00FF00FFFF0000FFFFFF00FFFFFFFFFFFFFFFFFFFFFFFFFFFFFFFFFFFFFFFFFFFFFFFFFFFFFFFFFFFFFFFFFFFFFFFFFFFFFFFFFFFFFF0000FFFFFFFFFFFF0000FFFFFFFFFFFFFFFFFFFFFFFFFFFFFFFFFFFFFFFFFFFF0000FFFF
310
FFFFFFFF0000FFFFFFFFFFFFFFFFFFFFFFFFFFFFFFFFFFFFFFFFFFFF0000FFFFFFFFFFFF0000FFFFFFFFFFFFFFFFFFFFFFFFFFFFFFFFFFFFFFFFFFFF0000FFFFFFFFFFFF0000FFFFFFFFFFFFFFFFFFFFFFFFFFFFFFFFFFFFFFFFFFFF0000FFFFFFFFFFFF0000FFFFFFFFFFFFFFFFFFFFFFFFFFFFFFFFFFFFFFFFFFFF0000FF
310
FFFFFFFFFF0000FFFFFFFFFFFFFFFFFFFFFFFFFFFFFFFFFFFFFFFFFFFF0000FFFFFFFFFFFF0000FFFFFFFFFFFFFFFFFFFFFFFFFFFFFFFFFFFFFFFFFFFF0000FFFFFFFFFFFF0000FFFFFFFFFFFFFFFFFFFFFFFFFFFFFFFFFFFFFFFFFFFF0000FFFFFFFFFFFF0000FFFFFFFFFFFFFFFFFFFFFFFFFFFFFFFFFFFFFFFFFFFF0000
310
FFFFFFFFFFFF0000FFFFFFFFFFFFFFFFFFFFFFFFFFFFFFFFFFFFFFFFFFFF0000FFFFFFFFFFFF0000FFFFFFFFFFFFFFFFFFFFFFFFFFFFFFFFFFFFFFFFFFFF0000FFFFFFFFFFFF0000FFFFFFFFFFFFFFFFFFFFFFFFFFFFFFFFFFFFFFFFFFFF0000FFFFFFFFFFFF0000FFFFFFFFFFFFFFFFFFFFFFFFFFFFFFFFFFFFFFFFFFFF00
310
00FFFFFFFFFFFF0000FFFFFFFFFFFFFFFFFFFFFFFFFFFFFFFFFFFFFFFFFFFF00000000000000000000FFFFFFFFFFFFFFFFFFFFFFFFFFFFFFFFFFFFFFFFFFFF00FFFFFFFFFFFFFFFF00FFFFFFFFFFFFFFFFFFFFFFFFFFFFFFFFFFFFFFFFFFFF00FFFFFFFFFFFFFFFF00FFFFFFFFFFFFFFFFFFFFFFFFFFFFFFFFFFFFFFFFFFFF
310
00000000000000000000FFFFFFFFFFFFFFFFFFFFFFFFFFFFFFFFFFFFFFFFFFFF0000FFFFFFFFFFFF0000FFFFFFFFFFFFFFFFFFFFFFFFFFFFFFFFFFFFFFFFFFFF0000FFFFFFFFFFFF0000FFFFFFFFFFFFFFFFFFFFFFFFFFFFFFFFFFFFFFFFFFFF0000FFFFFFFFFFFF0000FFFFFFFFFFFFFFFFFFFFFFFFFFFFFFFFFFFFFFFFFF
310
FF0000FFFFFFFFFFFF0000FFFFFFFFFFFFFFFFFFFFFFFFFFFFFFFFFFFFFFFFFFFF0000FFFFFFFFFFFF0000FFFFFFFFFFFFFFFFFFFFFFFFFFFFFFFFFFFFFFFFFFFF0000FFFFFFFFFFFF0000FFFFFFFFFFFFFFFFFFFFFFFFFFFFFFFFFFFFFFFFFFFF0000FFFFFFFFFFFF0000FFFFFFFFFFFFFFFFFFFFFFFFFFFFFFFFFFFFFFFF
310
FFFF0000FFFFFFFFFFFF0000FFFFFFFFFFFFFFFFFFFFFFFFFFFFFFFFFFFFFFFFFFFF0000FFFFFFFFFFFF0000FFFFFFFFFFFFFFFFFFFFFFFFFFFFFFFFFFFFFFFFFFFF0000FFFFFFFFFFFF0000FFFFFFFFFFFFFFFFFFFFFFFFFFFFFFFFFFFFFFFFFFFF0000FFFFFFFFFFFF0000FFFFFFFFFFFFFFFFFFFFFFFFFFFFFFFFFFFFFF
310
FFFFFF0000FFFFFFFFFFFF0000FFFFFFFFFFFFFFFFFFFFFFFFFFFFFFFFFFFFFFFFFFFFFFFFFFFFFFFFFFFFFFFFFFFFFFFFFFFFFFFFFFFFFF
102
{BLKREFS
331
2A5F
102
}
  0
BLOCK_RECORD
  5
2A27
330
27A2
100
AcDbSymbolTableRecord
100
AcDbBlockTableRecord
  2
AI9-BLK11
340
0
310
2800000020000000200000000100080000000000000400000000000000000000000000000000000000000000000080000080000000808000800000008000800080800000C0C0C000C0DCC000F0CAA6000020400000206000002080000020A0000020C0000020E00000400000004020000040400000406000004080000040A0
310
000040C0000040E00000600000006020000060400000606000006080000060A0000060C0000060E00000800000008020000080400000806000008080000080A0000080C0000080E00000A0000000A0200000A0400000A0600000A0800000A0A00000A0C00000A0E00000C0000000C0200000C0400000C0600000C0800000C0
310
A00000C0C00000C0E00000E0000000E0200000E0400000E0600000E0800000E0A00000E0C00000E0E00040000000400020004000400040006000400080004000A0004000C0004000E00040200000402020004020400040206000402080004020A0004020C0004020E000404000004040200040404000404060004040800040
310
40A0004040C0004040E00040600000406020004060400040606000406080004060A0004060C0004060E00040800000408020004080400040806000408080004080A0004080C0004080E00040A0000040A0200040A0400040A0600040A0800040A0A00040A0C00040A0E00040C0000040C0200040C0400040C0600040C08000
310
40C0A00040C0C00040C0E00040E0000040E0200040E0400040E0600040E0800040E0A00040E0C00040E0E00080000000800020008000400080006000800080008000A0008000C0008000E00080200000802020008020400080206000802080008020A0008020C0008020E00080400000804020008040400080406000804080
310
008040A0008040C0008040E00080600000806020008060400080606000806080008060A0008060C0008060E00080800000808020008080400080806000808080008080A0008080C0008080E00080A0000080A0200080A0400080A0600080A0800080A0A00080A0C00080A0E00080C0000080C0200080C0400080C0600080C0
310
800080C0A00080C0C00080C0E00080E0000080E0200080E0400080E0600080E0800080E0A00080E0C00080E0E000C0000000C0002000C0004000C0006000C0008000C000A000C000C000C000E000C0200000C0202000C0204000C0206000C0208000C020A000C020C000C020E000C0400000C0402000C0404000C0406000C0
310
408000C040A000C040C000C040E000C0600000C0602000C0604000C0606000C0608000C060A000C060C000C060E000C0800000C0802000C0804000C0806000C0808000C080A000C080C000C080E000C0A00000C0A02000C0A04000C0A06000C0A08000C0A0A000C0A0C000C0A0E000C0C00000C0C02000C0C04000C0C06000
310
C0C08000C0C0A000F0FBFF00A4A0A000808080000000FF0000FF000000FFFF00FF000000FF00FF00FFFF0000FFFFFF00FFFFFFFFFFFFFFFFFFFFFFFFFFFFFFFFFFFFFFFFFFFFFFFFFFFFFFFFFFFFFFFFFFFFFFFFFFFFFFFFFFFFFFFFFFFF00000000FFFFFFFFFFFFFFFFFFFFFF000000FFFFFFFFFFFFFFFFFFFFFFFFFFFF00
310
FFFF00FFFFFFFFFFFFFFFFFFFFFF00FFFFFFFFFFFFFFFFFFFFFFFFFFFFFFFF00FFFF00FFFFFFFFFFFFFFFFFFFFFF00FFFFFFFFFFFFFFFFFFFFFFFFFFFFFFFF00FFFF00FFFFFFFFFFFFFFFFFFFFFF00FFFFFFFFFFFFFFFFFFFFFFFFFFFFFFFF00FFFF00FFFFFFFFFFFFFFFFFFFFFF00FFFFFFFFFFFFFFFFFFFFFFFFFFFFFFFF
310
00FFFF00FFFFFFFFFFFFFFFFFFFFFF00FFFFFFFFFFFFFFFFFFFFFFFFFFFFFFFF00FFFF00FFFFFFFFFFFFFFFFFFFFFF00FFFFFFFFFFFFFFFFFFFFFFFFFFFFFFFF00FFFF00FFFFFFFFFFFFFFFFFFFFFF00FFFFFFFFFFFFFFFFFFFFFFFFFFFFFFFF00FFFF00FFFFFFFFFFFFFFFFFFFFFF00FFFFFFFFFFFFFFFFFFFFFFFFFFFFFF
310
FF00FFFF00FFFFFFFFFFFFFFFFFFFFFF00FFFFFFFFFFFFFFFFFFFFFFFFFFFFFFFF00FFFF00FFFFFFFFFFFFFFFFFFFFFF00FFFFFFFFFFFFFFFFFFFFFFFFFFFFFFFF00FFFF00FFFFFFFFFFFFFFFFFFFFFF00FFFFFFFFFFFFFFFFFFFFFFFFFFFFFFFF00FFFF00FFFFFFFFFFFFFFFFFFFFFF00FFFFFFFFFFFFFFFFFFFFFFFFFFFF
310
FFFF00FFFF00FFFFFFFFFFFFFFFFFFFFFF00FFFFFFFFFFFFFFFFFFFFFFFFFFFFFFFF00FFFF00FFFFFFFFFFFFFFFFFFFFFF00FFFFFFFFFFFFFFFFFFFFFFFFFFFFFFFF00FFFF00FFFFFFFFFFFFFFFFFFFFFF00FFFFFFFFFFFFFFFFFFFFFFFFFFFFFFFF00FFFF00FFFFFFFFFFFFFFFFFFFF00FFFFFFFFFFFFFFFFFFFFFFFFFFFF
310
FFFFFF00FFFF00FFFFFFFFFFFFFFFFFFFF00FFFFFFFFFFFFFFFFFFFFFFFFFFFFFFFFFF00FFFF00FFFFFFFFFFFFFFFFFFFF00FFFFFFFFFFFFFFFFFFFFFFFFFFFFFFFFFF00FFFF00FFFFFFFFFFFFFFFFFFFF00FFFFFFFFFFFFFFFFFFFFFFFFFFFFFFFFFF00FFFF00FFFFFFFFFFFFFFFFFFFF00FFFFFFFFFFFFFFFFFFFFFFFFFF
310
FFFFFFFF00FFFF00FFFFFFFFFFFFFFFFFF0000FFFF00FFFFFFFFFFFFFFFFFFFFFFFFFFFF00FFFF00FFFFFFFFFFFFFFFF0000FFFFFF00FFFFFFFFFFFFFFFFFFFFFFFFFFFF00FFFF00000000000000000000FFFFFFFF00FFFFFFFFFFFFFFFFFFFFFFFFFFFF00FFFFFFFFFFFFFFFFFFFFFFFFFFFFFF00FFFFFFFFFFFFFFFFFFFF
310
FFFFFFFFFF00FFFFFFFFFFFFFFFFFFFFFFFFFFFF00FFFFFFFFFFFFFFFFFFFFFFFFFFFFFFFF00FFFFFFFFFFFFFFFFFFFFFFFFFFFF00FFFFFFFFFFFFFFFFFFFFFFFFFFFFFFFF00FFFFFFFFFFFFFFFFFFFFFFFFFFFFFF00FFFFFFFFFFFFFFFFFFFFFFFFFFFFFF00FFFFFFFFFFFFFFFFFFFFFFFFFFFFFF00FFFFFFFFFFFFFFFFFF
310
FFFFFFFFFFFF00FFFF00000000000000000000FFFFFFFF00FFFFFFFFFFFFFFFFFFFFFFFFFFFF00FFFF00FFFFFFFFFFFFFFFFFF0000FFFF00
102
{BLKREFS
331
2A60
102
}
  0
BLOCK_RECORD
  5
2A2C
330
27A2
100
AcDbSymbolTableRecord
100
AcDbBlockTableRecord
  2
AI9-BLK10
340
0
310
2800000020000000200000000100080000000000000400000000000000000000000000000000000000000000000080000080000000808000800000008000800080800000C0C0C000C0DCC000F0CAA6000020400000206000002080000020A0000020C0000020E00000400000004020000040400000406000004080000040A0
310
000040C0000040E00000600000006020000060400000606000006080000060A0000060C0000060E00000800000008020000080400000806000008080000080A0000080C0000080E00000A0000000A0200000A0400000A0600000A0800000A0A00000A0C00000A0E00000C0000000C0200000C0400000C0600000C0800000C0
310
A00000C0C00000C0E00000E0000000E0200000E0400000E0600000E0800000E0A00000E0C00000E0E00040000000400020004000400040006000400080004000A0004000C0004000E00040200000402020004020400040206000402080004020A0004020C0004020E000404000004040200040404000404060004040800040
310
40A0004040C0004040E00040600000406020004060400040606000406080004060A0004060C0004060E00040800000408020004080400040806000408080004080A0004080C0004080E00040A0000040A0200040A0400040A0600040A0800040A0A00040A0C00040A0E00040C0000040C0200040C0400040C0600040C08000
310
40C0A00040C0C00040C0E00040E0000040E0200040E0400040E0600040E0800040E0A00040E0C00040E0E00080000000800020008000400080006000800080008000A0008000C0008000E00080200000802020008020400080206000802080008020A0008020C0008020E00080400000804020008040400080406000804080
310
008040A0008040C0008040E00080600000806020008060400080606000806080008060A0008060C0008060E00080800000808020008080400080806000808080008080A0008080C0008080E00080A0000080A0200080A0400080A0600080A0800080A0A00080A0C00080A0E00080C0000080C0200080C0400080C0600080C0
310
800080C0A00080C0C00080C0E00080E0000080E0200080E0400080E0600080E0800080E0A00080E0C00080E0E000C0000000C0002000C0004000C0006000C0008000C000A000C000C000C000E000C0200000C0202000C0204000C0206000C0208000C020A000C020C000C020E000C0400000C0402000C0404000C0406000C0
310
408000C040A000C040C000C040E000C0600000C0602000C0604000C0606000C0608000C060A000C060C000C060E000C0800000C0802000C0804000C0806000C0808000C080A000C080C000C080E000C0A00000C0A02000C0A04000C0A06000C0A08000C0A0A000C0A0C000C0A0E000C0C00000C0C02000C0C04000C0C06000
310
C0C08000C0C0A000F0FBFF00A4A0A000808080000000FF0000FF000000FFFF00FF000000FF00FF00FFFF0000FFFFFF00FFFFFFFFFFFFFFFFFFFFFFFFFFFFFFFF00FFFFFFFFFFFFFFFFFFFFFFFF00FFFFFFFFFFFFFFFFFFFFFFFFFFFFFFFFFFFF00FFFFFFFFFFFFFFFFFFFFFF00FFFFFFFFFFFFFFFFFFFFFFFFFFFFFFFFFFFF
310
FF00FFFFFFFFFFFFFFFFFFFFFF00FFFFFFFFFFFFFFFFFFFFFFFFFFFFFFFFFFFFFF00FFFFFFFFFFFFFFFFFFFFFF00FFFFFFFFFFFFFFFFFFFFFFFFFFFFFFFFFFFFFF00FFFFFFFFFFFFFFFFFFFFFF00FFFFFFFFFFFFFFFFFFFFFFFFFFFFFFFFFFFFFF00FFFFFFFFFFFFFFFFFFFFFF00FFFFFFFFFFFFFFFFFFFFFFFFFFFFFFFFFF
310
FFFF00FFFFFFFFFFFFFFFFFFFFFF00FFFFFFFFFFFFFFFFFFFFFFFFFFFFFFFFFFFFFF00FFFFFFFFFFFFFFFFFFFF00FFFFFFFFFFFFFFFFFFFFFFFFFFFFFFFFFFFFFFFF00FFFFFFFFFFFFFFFFFFFF00FFFFFFFFFFFFFFFFFFFFFFFFFFFFFFFFFFFFFFFF00FFFFFFFFFFFFFFFFFFFF00FFFFFFFFFFFFFFFFFFFFFFFFFFFFFFFFFF
310
FFFFFF00FFFFFFFFFFFFFFFFFFFF00FFFFFFFFFFFFFFFFFFFFFFFFFFFFFFFFFFFFFFFF00FFFFFFFFFFFFFFFFFFFF00FFFFFFFFFFFFFFFFFFFFFFFFFFFFFFFFFFFFFFFF00FFFFFFFFFFFFFFFFFFFF00FFFFFFFFFFFFFFFFFFFFFFFFFFFFFFFFFFFFFFFF00FFFFFFFFFFFFFFFFFF00FFFFFFFFFFFFFFFFFFFFFFFFFFFFFFFFFF
310
FFFFFFFF00FFFFFFFFFFFFFFFFFF00FFFFFFFFFFFFFFFFFFFFFFFFFFFFFFFFFFFFFFFFFF00FFFFFFFFFFFFFFFFFF00FFFFFFFFFFFFFFFFFFFFFFFFFFFFFFFFFFFFFFFFFF0000000000000000000000FFFFFFFFFFFFFFFFFFFFFFFFFFFFFFFFFFFFFFFFFFFFFFFFFFFFFFFFFFFFFFFFFFFFFFFFFFFFFFFFFFFFFFFFFFFFFFFF
310
FFFFFFFFFFFFFFFFFFFFFFFFFFFFFFFFFFFFFFFFFFFFFFFFFFFFFFFFFFFFFFFFFFFFFFFFFFFFFFFFFFFFFFFFFFFFFFFFFFFFFFFFFFFFFFFFFFFFFFFFFFFFFFFFFFFFFFFFFFFFFFFFFFFFFFFFFFFFFFFFFFFFFFFFFFFFFFFFFFFFFFFFFFFFFFFFFFFFFFFFFFFFFFFFFFFFFFFFFFFFFFFFFFFFFFFFFFFFFFFFFFFFFFFFFFFFFF
310
FFFFFFFFFFFFFFFFFFFFFFFFFFFFFFFFFFFFFFFFFFFFFFFFFFFFFFFFFFFFFFFFFFFFFFFFFFFFFFFFFFFFFFFFFFFFFFFFFFFFFFFFFFFFFFFFFFFFFFFFFFFFFFFFFFFFFFFFFFFFFFFFFFFFFFFFFFFFFFFFFFFFFFFFFFFFFFFFFFFFFFFFFFFFFFFFFFFFFFFFFFFFFFFFFFFFFFFFFFFFFFFFFFFFFFFFFFFFFFFFFFFFFFFFFFFFFF
310
FFFFFFFFFFFFFFFFFFFFFFFFFFFFFFFFFFFFFFFFFFFFFFFFFFFFFFFFFFFFFFFFFFFFFFFFFFFFFFFFFFFFFFFFFFFFFFFFFFFFFFFFFFFFFFFFFFFFFFFFFFFFFFFFFFFFFFFFFFFFFFFFFFFFFFFFFFFFFFFFFFFFFFFFFFFFFFFFFFFFFFFFFFFFFFFFFFFFFFFFFFFFFFFFFFFFFFFFFFFFFFFFFFFFFFFFFFFFFFFFFFFFFFFFFFFFFF
310
FFFFFFFFFFFFFFFFFFFFFFFFFFFFFFFFFFFFFFFFFFFFFFFFFFFFFFFFFFFFFFFFFFFFFFFFFFFFFFFFFFFFFFFFFFFFFFFFFFFFFFFFFFFFFFFF
102
{BLKREFS
331
2A61
102
}
  0
BLOCK_RECORD
  5
2A30
330
27A2
100
AcDbSymbolTableRecord
100
AcDbBlockTableRecord
  2
AI9-BLK9
340
0
310
2800000020000000200000000100080000000000000400000000000000000000000000000000000000000000000080000080000000808000800000008000800080800000C0C0C000C0DCC000F0CAA6000020400000206000002080000020A0000020C0000020E00000400000004020000040400000406000004080000040A0
310
000040C0000040E00000600000006020000060400000606000006080000060A0000060C0000060E00000800000008020000080400000806000008080000080A0000080C0000080E00000A0000000A0200000A0400000A0600000A0800000A0A00000A0C00000A0E00000C0000000C0200000C0400000C0600000C0800000C0
310
A00000C0C00000C0E00000E0000000E0200000E0400000E0600000E0800000E0A00000E0C00000E0E00040000000400020004000400040006000400080004000A0004000C0004000E00040200000402020004020400040206000402080004020A0004020C0004020E000404000004040200040404000404060004040800040
310
40A0004040C0004040E00040600000406020004060400040606000406080004060A0004060C0004060E00040800000408020004080400040806000408080004080A0004080C0004080E00040A0000040A0200040A0400040A0600040A0800040A0A00040A0C00040A0E00040C0000040C0200040C0400040C0600040C08000
310
40C0A00040C0C00040C0E00040E0000040E0200040E0400040E0600040E0800040E0A00040E0C00040E0E00080000000800020008000400080006000800080008000A0008000C0008000E00080200000802020008020400080206000802080008020A0008020C0008020E00080400000804020008040400080406000804080
310
008040A0008040C0008040E00080600000806020008060400080606000806080008060A0008060C0008060E00080800000808020008080400080806000808080008080A0008080C0008080E00080A0000080A0200080A0400080A0600080A0800080A0A00080A0C00080A0E00080C0000080C0200080C0400080C0600080C0
310
800080C0A00080C0C00080C0E00080E0000080E0200080E0400080E0600080E0800080E0A00080E0C00080E0E000C0000000C0002000C0004000C0006000C0008000C000A000C000C000C000E000C0200000C0202000C0204000C0206000C0208000C020A000C020C000C020E000C0400000C0402000C0404000C0406000C0
310
408000C040A000C040C000C040E000C0600000C0602000C0604000C0606000C0608000C060A000C060C000C060E000C0800000C0802000C0804000C0806000C0808000C080A000C080C000C080E000C0A00000C0A02000C0A04000C0A06000C0A08000C0A0A000C0A0C000C0A0E000C0C00000C0C02000C0C04000C0C06000
310
C0C08000C0C0A000F0FBFF00A4A0A000808080000000FF0000FF000000FFFF00FF000000FF00FF00FFFF0000FFFFFF00FFFFFFFFFFFFFFFFFFFFFFFFFFFFFFFFFFFFFFFFFFFFFFFFFFFFFFFFFFFFFFFFFFFFFFFFFFFFFFFFFFFFFFFFFFFFFF0000FFFFFFFFFFFFFFFFFFFFFFFFFFFFFFFFFFFFFFFFFFFFFFFFFFFFFFFF0000
310
FF0000FFFFFFFFFFFFFFFFFFFFFFFFFFFFFFFFFFFFFFFFFFFFFFFFFFFFFF00FFFFFF0000FFFFFFFFFFFFFFFFFFFFFFFFFFFFFFFFFFFFFFFFFFFFFFFFFFFF00FFFFFFFF0000FFFFFFFFFFFFFFFFFFFFFFFFFFFFFFFFFFFFFFFFFFFFFFFF00FF00000000FF00FFFFFFFFFFFFFFFFFFFFFFFFFFFFFFFFFFFFFFFFFFFFFFFF0000
310
00FFFF00FF00FFFFFFFFFFFFFFFFFFFFFFFFFFFFFFFFFFFFFFFFFFFFFFFF0000FFFFFFFF0000FFFFFFFFFFFFFFFFFFFFFFFFFFFFFFFFFFFFFFFFFFFFFFFF0000FFFFFFFF0000FFFFFFFFFFFFFFFFFFFFFFFFFFFFFFFFFFFFFFFFFFFFFF00FF00FFFFFFFF00FF00FFFFFFFFFFFFFFFFFFFFFFFFFFFFFFFFFFFFFFFFFFFF0000
310
FFFFFFFFFF00FF00FFFFFFFFFFFFFFFFFFFFFFFFFFFFFFFFFFFFFFFFFFFF0000FFFFFFFFFFFF0000FFFFFFFFFFFFFFFFFFFFFFFFFFFFFFFFFFFFFFFFFFFF0000FFFFFFFFFFFF0000FFFFFFFFFFFFFFFFFFFFFFFFFFFFFFFFFFFFFFFFFFFF0000FFFFFFFFFFFF0000FFFFFFFFFFFFFFFFFFFFFFFFFFFFFFFFFFFFFFFFFFFF00
310
00FFFFFFFFFFFF0000FFFFFFFFFFFFFFFFFFFFFFFFFFFFFFFFFFFFFFFFFFFF0000FFFFFFFFFFFF0000FFFFFFFFFFFFFFFFFFFFFFFFFFFFFFFFFFFFFFFFFFFF0000FFFFFFFFFFFF0000FFFFFFFFFFFFFFFFFFFFFFFFFFFFFFFFFFFFFFFFFFFF0000FFFFFFFFFFFF0000FFFFFFFFFFFFFFFFFFFFFFFFFFFFFFFFFFFFFFFFFFFF
310
0000FFFFFFFFFFFF0000FFFFFFFFFFFFFFFFFFFFFFFFFFFFFFFFFFFFFFFFFFFF0000FFFFFFFFFFFF0000FFFFFFFFFFFFFFFFFFFFFFFFFFFFFFFFFFFFFFFFFFFF0000FFFFFFFFFFFF0000FFFFFFFFFFFFFFFFFFFFFFFFFFFFFFFFFFFFFFFFFFFF00FF00FFFFFFFF00FF00FFFFFFFFFFFFFFFFFFFFFFFFFFFFFFFFFFFFFFFFFF
310
FF00FF00FFFFFFFF00FF00FFFFFFFFFFFFFFFFFFFFFFFFFFFFFFFFFFFFFFFFFFFF00FF00FFFFFFFF00FF00FFFFFFFFFFFFFFFFFFFFFFFFFFFFFFFFFFFFFFFFFFFFFF0000FFFFFFFF0000FFFFFFFFFFFFFFFFFFFFFFFFFFFFFFFFFFFFFFFFFFFFFFFF00FF00FFFF00FF00FFFFFFFFFFFFFFFFFFFFFFFFFFFFFFFFFFFFFFFFFF
310
FFFFFF00FF00000000FF00FFFFFFFFFFFFFFFFFFFFFFFFFFFFFFFFFFFFFFFFFFFFFFFFFF00FFFFFFFF0000FFFFFFFFFFFFFFFFFFFFFFFFFFFFFFFFFFFFFFFFFFFFFFFFFF00FFFFFFFF00FFFFFFFFFFFFFFFFFFFFFFFFFFFFFFFFFFFFFFFFFFFFFFFFFFFFFF00000000FFFFFFFFFFFFFFFFFFFFFFFFFFFFFFFFFFFFFFFFFFFF
310
FFFFFFFFFFFFFF0000FFFFFFFFFFFFFFFFFFFFFFFFFFFFFFFFFFFFFFFFFFFFFFFFFFFFFFFFFFFFFFFFFFFFFFFFFFFFFFFFFFFFFFFFFFFFFF
102
{BLKREFS
331
2A62
102
}
  0
BLOCK_RECORD
  5
2A35
330
27A2
100
AcDbSymbolTableRecord
100
AcDbBlockTableRecord
  2
AI9-BLK8
340
0
310
2800000020000000200000000100080000000000000400000000000000000000000000000000000000000000000080000080000000808000800000008000800080800000C0C0C000C0DCC000F0CAA6000020400000206000002080000020A0000020C0000020E00000400000004020000040400000406000004080000040A0
310
000040C0000040E00000600000006020000060400000606000006080000060A0000060C0000060E00000800000008020000080400000806000008080000080A0000080C0000080E00000A0000000A0200000A0400000A0600000A0800000A0A00000A0C00000A0E00000C0000000C0200000C0400000C0600000C0800000C0
310
A00000C0C00000C0E00000E0000000E0200000E0400000E0600000E0800000E0A00000E0C00000E0E00040000000400020004000400040006000400080004000A0004000C0004000E00040200000402020004020400040206000402080004020A0004020C0004020E000404000004040200040404000404060004040800040
310
40A0004040C0004040E00040600000406020004060400040606000406080004060A0004060C0004060E00040800000408020004080400040806000408080004080A0004080C0004080E00040A0000040A0200040A0400040A0600040A0800040A0A00040A0C00040A0E00040C0000040C0200040C0400040C0600040C08000
310
40C0A00040C0C00040C0E00040E0000040E0200040E0400040E0600040E0800040E0A00040E0C00040E0E00080000000800020008000400080006000800080008000A0008000C0008000E00080200000802020008020400080206000802080008020A0008020C0008020E00080400000804020008040400080406000804080
310
008040A0008040C0008040E00080600000806020008060400080606000806080008060A0008060C0008060E00080800000808020008080400080806000808080008080A0008080C0008080E00080A0000080A0200080A0400080A0600080A0800080A0A00080A0C00080A0E00080C0000080C0200080C0400080C0600080C0
310
800080C0A00080C0C00080C0E00080E0000080E0200080E0400080E0600080E0800080E0A00080E0C00080E0E000C0000000C0002000C0004000C0006000C0008000C000A000C000C000C000E000C0200000C0202000C0204000C0206000C0208000C020A000C020C000C020E000C0400000C0402000C0404000C0406000C0
310
408000C040A000C040C000C040E000C0600000C0602000C0604000C0606000C0608000C060A000C060C000C060E000C0800000C0802000C0804000C0806000C0808000C080A000C080C000C080E000C0A00000C0A02000C0A04000C0A06000C0A08000C0A0A000C0A0C000C0A0E000C0C00000C0C02000C0C04000C0C06000
310
C0C08000C0C0A000F0FBFF00A4A0A000808080000000FF0000FF000000FFFF00FF000000FF00FF00FFFF0000FFFFFF00FFFFFFFFFFFFFFFFFFFFFFFFFFFFFFFFFFFFFFFFFFFFFFFFFFFFFFFFFFFFFFFFFFFFFFFFFFFFFFFFFFFFFF0000FFFFFFFFFFFF0000FFFFFFFFFFFFFFFFFFFFFFFFFFFFFFFFFFFFFFFFFFFF0000FFFF
310
FFFFFFFF0000FFFFFFFFFFFFFFFFFFFFFFFFFFFFFFFFFFFFFFFFFFFF0000FFFFFFFFFF00FF00FFFFFFFFFFFFFFFFFFFFFFFFFFFFFFFFFFFFFFFFFFFF0000FFFFFFFFFF00FF00FFFFFFFFFFFFFFFFFFFFFFFFFFFFFFFFFFFFFFFFFFFF0000FFFFFFFFFF00FF00FFFFFFFFFFFFFFFFFFFFFFFFFFFFFFFFFFFFFFFFFFFF0000FF
310
FFFFFF00FFFF00FFFFFFFFFFFFFFFFFFFFFFFFFFFFFFFFFFFFFFFFFFFF0000FFFFFFFF00FF0000FFFFFFFFFFFFFFFFFFFFFFFFFFFFFFFFFFFFFFFFFFFF0000FFFFFFFF00FF0000FFFFFFFFFFFFFFFFFFFFFFFFFFFFFFFFFFFFFFFFFFFF0000FFFFFFFF00000000FFFFFFFFFFFFFFFFFFFFFFFFFFFFFFFFFFFFFFFFFFFF0000
310
FFFFFF00FF000000FFFFFFFFFFFFFFFFFFFFFFFFFFFFFFFFFFFFFFFFFFFF0000FFFFFF00FF000000FFFFFFFFFFFFFFFFFFFFFFFFFFFFFFFFFFFFFFFFFFFF0000FFFFFF00FF000000FFFFFFFFFFFFFFFFFFFFFFFFFFFFFFFFFFFFFFFFFFFF0000FFFF00FF00FF0000FFFFFFFFFFFFFFFFFFFFFFFFFFFFFFFFFFFFFFFFFFFF00
310
00FFFF00FF00FF0000FFFFFFFFFFFFFFFFFFFFFFFFFFFFFFFFFFFFFFFFFFFF0000FFFF00FF00FF0000FFFFFFFFFFFFFFFFFFFFFFFFFFFFFFFFFFFFFFFFFFFF0000FF00FFFF00FF0000FFFFFFFFFFFFFFFFFFFFFFFFFFFFFFFFFFFFFFFFFFFF0000FF00FF00FFFF0000FFFFFFFFFFFFFFFFFFFFFFFFFFFFFFFFFFFFFFFFFFFF
310
0000FF00FF00FFFF0000FFFFFFFFFFFFFFFFFFFFFFFFFFFFFFFFFFFFFFFFFFFF0000FF00FF00FFFF0000FFFFFFFFFFFFFFFFFFFFFFFFFFFFFFFFFFFFFFFFFFFF000000FFFF00FFFF0000FFFFFFFFFFFFFFFFFFFFFFFFFFFFFFFFFFFFFFFFFFFF000000FF00FFFFFF0000FFFFFFFFFFFFFFFFFFFFFFFFFFFFFFFFFFFFFFFFFF
310
FF000000FF00FFFFFF0000FFFFFFFFFFFFFFFFFFFFFFFFFFFFFFFFFFFFFFFFFFFF0000FFFF00FFFFFF0000FFFFFFFFFFFFFFFFFFFFFFFFFFFFFFFFFFFFFFFFFFFF0000FFFF00FFFFFF0000FFFFFFFFFFFFFFFFFFFFFFFFFFFFFFFFFFFFFFFFFFFF00FFFF00FFFFFFFF0000FFFFFFFFFFFFFFFFFFFFFFFFFFFFFFFFFFFFFFFF
310
FFFF00FFFF00FFFFFFFF0000FFFFFFFFFFFFFFFFFFFFFFFFFFFFFFFFFFFFFFFFFFFF00FFFF00FFFFFFFF0000FFFFFFFFFFFFFFFFFFFFFFFFFFFFFFFFFFFFFFFFFFFF00FFFF00FFFFFFFF0000FFFFFFFFFFFFFFFFFFFFFFFFFFFFFFFFFFFFFFFFFFFF00FF00FFFFFFFFFF0000FFFFFFFFFFFFFFFFFFFFFFFFFFFFFFFFFFFFFF
310
FFFFFF000000FFFFFFFFFF0000FFFFFFFFFFFFFFFFFFFFFFFFFFFFFFFFFFFFFFFFFFFFFFFFFFFFFFFFFFFFFFFFFFFFFFFFFFFFFFFFFFFFFF
102
{BLKREFS
331
2A63
102
}
  0
BLOCK_RECORD
  5
2A3A
330
27A2
100
AcDbSymbolTableRecord
100
AcDbBlockTableRecord
  2
AI9-BLK7
340
0
310
2800000020000000200000000100080000000000000400000000000000000000000000000000000000000000000080000080000000808000800000008000800080800000C0C0C000C0DCC000F0CAA6000020400000206000002080000020A0000020C0000020E00000400000004020000040400000406000004080000040A0
310
000040C0000040E00000600000006020000060400000606000006080000060A0000060C0000060E00000800000008020000080400000806000008080000080A0000080C0000080E00000A0000000A0200000A0400000A0600000A0800000A0A00000A0C00000A0E00000C0000000C0200000C0400000C0600000C0800000C0
310
A00000C0C00000C0E00000E0000000E0200000E0400000E0600000E0800000E0A00000E0C00000E0E00040000000400020004000400040006000400080004000A0004000C0004000E00040200000402020004020400040206000402080004020A0004020C0004020E000404000004040200040404000404060004040800040
310
40A0004040C0004040E00040600000406020004060400040606000406080004060A0004060C0004060E00040800000408020004080400040806000408080004080A0004080C0004080E00040A0000040A0200040A0400040A0600040A0800040A0A00040A0C00040A0E00040C0000040C0200040C0400040C0600040C08000
310
40C0A00040C0C00040C0E00040E0000040E0200040E0400040E0600040E0800040E0A00040E0C00040E0E00080000000800020008000400080006000800080008000A0008000C0008000E00080200000802020008020400080206000802080008020A0008020C0008020E00080400000804020008040400080406000804080
310
008040A0008040C0008040E00080600000806020008060400080606000806080008060A0008060C0008060E00080800000808020008080400080806000808080008080A0008080C0008080E00080A0000080A0200080A0400080A0600080A0800080A0A00080A0C00080A0E00080C0000080C0200080C0400080C0600080C0
310
800080C0A00080C0C00080C0E00080E0000080E0200080E0400080E0600080E0800080E0A00080E0C00080E0E000C0000000C0002000C0004000C0006000C0008000C000A000C000C000C000E000C0200000C0202000C0204000C0206000C0208000C020A000C020C000C020E000C0400000C0402000C0404000C0406000C0
310
408000C040A000C040C000C040E000C0600000C0602000C0604000C0606000C0608000C060A000C060C000C060E000C0800000C0802000C0804000C0806000C0808000C080A000C080C000C080E000C0A00000C0A02000C0A04000C0A06000C0A08000C0A0A000C0A0C000C0A0E000C0C00000C0C02000C0C04000C0C06000
310
C0C08000C0C0A000F0FBFF00A4A0A000808080000000FF0000FF000000FFFF00FF000000FF00FF00FFFF0000FFFFFF00FFFFFFFFFFFFFFFFFFFFFFFFFFFFFFFFFFFFFFFFFFFFFFFFFFFFFFFFFFFFFFFFFFFFFFFFFFFFFFFFFFFFFFFFFFFFFF0000FFFFFFFFFFFFFFFFFFFFFFFFFFFFFFFFFFFFFFFFFFFFFFFFFFFFFFFFFFFF
310
0000FFFFFFFFFFFFFFFFFFFFFFFFFFFFFFFFFFFFFFFFFFFFFFFFFFFFFFFFFFFF0000FFFFFFFFFFFFFFFFFFFFFFFFFFFFFFFFFFFFFFFFFFFFFFFFFFFFFFFFFFFF0000FFFFFFFFFFFFFFFFFFFFFFFFFFFFFFFFFFFFFFFFFFFFFFFFFFFFFFFFFFFF0000FFFFFFFFFFFFFFFFFFFFFFFFFFFFFFFFFFFFFFFFFFFFFFFFFFFFFFFFFF
310
FF0000FFFFFFFFFFFFFFFFFFFFFFFFFFFFFFFFFFFFFFFFFFFFFFFFFFFFFFFFFFFF0000FFFFFFFFFFFFFFFFFFFFFFFFFFFFFFFFFFFFFFFFFFFFFFFFFFFFFFFFFFFF0000FFFFFFFFFFFFFFFFFFFFFFFFFFFFFFFFFFFFFFFFFFFFFFFFFFFFFFFFFFFF0000FFFFFFFFFFFFFFFFFFFFFFFFFFFFFFFFFFFFFFFFFFFFFFFFFFFFFFFF
310
FFFF0000FFFFFFFFFFFFFFFFFFFFFFFFFFFFFFFFFFFFFFFFFFFFFFFFFFFFFFFFFFFF0000FFFFFFFFFFFFFFFFFFFFFFFFFFFFFFFFFFFFFFFFFFFFFFFFFFFFFFFFFFFF0000FFFFFFFFFFFFFFFFFFFFFFFFFFFFFFFFFFFFFFFFFFFFFFFFFFFFFFFFFFFF0000FFFFFFFFFFFFFFFFFFFFFFFFFFFFFFFFFFFFFFFFFFFFFFFFFFFFFF
310
FFFFFF0000FFFFFFFFFFFFFFFFFFFFFFFFFFFFFFFFFFFFFFFFFFFFFFFFFFFFFFFFFFFF0000FFFFFFFFFFFFFFFFFFFFFFFFFFFFFFFFFFFFFFFFFFFFFFFFFFFFFFFFFFFF0000FFFFFFFFFFFFFFFFFFFFFFFFFFFFFFFFFFFFFFFFFFFFFFFFFFFFFFFFFFFF0000FFFFFFFFFFFFFFFFFFFFFFFFFFFFFFFFFFFFFFFFFFFFFFFFFFFF
310
FFFFFFFF0000FFFFFFFFFFFFFFFFFFFFFFFFFFFFFFFFFFFFFFFFFFFFFFFFFFFFFFFFFFFF0000FFFFFFFFFFFFFFFFFFFFFFFFFFFFFFFFFFFFFFFFFFFFFFFFFFFFFFFFFFFF0000FFFFFFFFFFFFFFFFFFFFFFFFFFFFFFFFFFFFFFFFFFFFFFFFFFFFFFFFFFFF0000FFFFFFFFFFFFFFFFFFFFFFFFFFFFFFFFFFFFFFFFFFFFFFFFFF
310
FFFFFFFFFF0000FFFFFFFFFFFFFFFFFFFFFFFFFFFFFFFFFFFFFFFFFFFFFFFFFFFFFFFFFFFF0000FFFFFFFFFFFFFFFFFFFFFFFFFFFFFFFFFFFFFFFFFFFFFFFFFFFFFFFFFFFF0000FFFFFFFFFFFFFFFFFFFFFFFFFFFFFFFFFFFFFFFFFFFFFFFFFFFFFFFFFFFF0000FFFFFFFFFFFFFFFFFFFFFFFFFFFFFFFFFFFFFFFFFFFFFFFF
310
FFFFFFFFFFFF0000FFFFFFFFFFFFFFFFFFFFFFFFFFFFFFFFFFFFFFFFFFFFFFFFFFFFFFFFFFFF0000FFFFFFFFFFFFFFFFFFFFFFFFFFFFFFFFFFFFFFFFFFFFFFFFFFFFFFFFFFFF0000FFFFFFFFFFFFFFFFFFFFFFFFFFFFFFFFFFFFFFFFFFFFFFFFFFFFFFFFFFFF0000FFFFFFFFFFFFFFFFFFFFFFFFFFFFFFFFFFFFFFFFFFFFFF
310
FFFFFFFFFFFFFF0000FFFFFFFFFFFFFFFFFFFFFFFFFFFFFFFFFFFFFFFFFFFFFFFFFFFFFFFFFFFFFFFFFFFFFFFFFFFFFFFFFFFFFFFFFFFFFF
102
{BLKREFS
331
2A64
102
}
  0
BLOCK_RECORD
  5
2A3F
330
27A2
100
AcDbSymbolTableRecord
100
AcDbBlockTableRecord
  2
AI9-BLK6
340
0
310
2800000020000000200000000100080000000000000400000000000000000000000000000000000000000000000080000080000000808000800000008000800080800000C0C0C000C0DCC000F0CAA6000020400000206000002080000020A0000020C0000020E00000400000004020000040400000406000004080000040A0
310
000040C0000040E00000600000006020000060400000606000006080000060A0000060C0000060E00000800000008020000080400000806000008080000080A0000080C0000080E00000A0000000A0200000A0400000A0600000A0800000A0A00000A0C00000A0E00000C0000000C0200000C0400000C0600000C0800000C0
310
A00000C0C00000C0E00000E0000000E0200000E0400000E0600000E0800000E0A00000E0C00000E0E00040000000400020004000400040006000400080004000A0004000C0004000E00040200000402020004020400040206000402080004020A0004020C0004020E000404000004040200040404000404060004040800040
310
40A0004040C0004040E00040600000406020004060400040606000406080004060A0004060C0004060E00040800000408020004080400040806000408080004080A0004080C0004080E00040A0000040A0200040A0400040A0600040A0800040A0A00040A0C00040A0E00040C0000040C0200040C0400040C0600040C08000
310
40C0A00040C0C00040C0E00040E0000040E0200040E0400040E0600040E0800040E0A00040E0C00040E0E00080000000800020008000400080006000800080008000A0008000C0008000E00080200000802020008020400080206000802080008020A0008020C0008020E00080400000804020008040400080406000804080
310
008040A0008040C0008040E00080600000806020008060400080606000806080008060A0008060C0008060E00080800000808020008080400080806000808080008080A0008080C0008080E00080A0000080A0200080A0400080A0600080A0800080A0A00080A0C00080A0E00080C0000080C0200080C0400080C0600080C0
310
800080C0A00080C0C00080C0E00080E0000080E0200080E0400080E0600080E0800080E0A00080E0C00080E0E000C0000000C0002000C0004000C0006000C0008000C000A000C000C000C000E000C0200000C0202000C0204000C0206000C0208000C020A000C020C000C020E000C0400000C0402000C0404000C0406000C0
310
408000C040A000C040C000C040E000C0600000C0602000C0604000C0606000C0608000C060A000C060C000C060E000C0800000C0802000C0804000C0806000C0808000C080A000C080C000C080E000C0A00000C0A02000C0A04000C0A06000C0A08000C0A0A000C0A0C000C0A0E000C0C00000C0C02000C0C04000C0C06000
310
C0C08000C0C0A000F0FBFF00A4A0A000808080000000FF0000FF000000FFFF00FF000000FF00FF00FFFF0000FFFFFF00FFFFFFFFFFFFFFFFFFFFFFFF00FFFFFFFFFFFFFF00FFFFFFFFFFFFFFFFFFFFFFFFFFFFFFFFFFFFFFFFFFFFFF00FFFFFFFFFFFFFF00FFFFFFFFFFFFFFFFFFFFFFFFFFFFFFFFFFFFFFFFFFFFFF00FFFF
310
FFFFFFFFFF00FFFFFFFFFFFFFFFFFFFFFFFFFFFFFFFFFFFFFFFFFFFF00FFFFFFFFFFFFFFFF00FFFFFFFFFFFFFFFFFFFFFFFFFFFFFFFFFFFFFFFFFFFF00FFFFFFFFFFFFFF00FFFFFFFFFFFFFFFFFFFFFFFFFFFFFFFFFFFFFFFFFFFFFF00FFFFFFFFFFFFFF00FFFFFFFFFFFFFFFFFFFFFFFFFFFFFFFFFFFFFFFFFFFF00FFFFFF
310
FFFFFFFFFF00FFFFFFFFFFFFFFFFFFFFFFFFFFFFFFFFFFFFFFFFFFFF00FFFFFFFFFFFFFF00FFFFFFFFFFFFFFFFFFFFFFFFFFFFFFFFFFFFFFFFFFFF00FFFFFFFFFFFFFFFF00FFFFFFFFFFFFFFFFFFFFFFFFFFFFFFFFFFFFFFFFFF00FFFFFFFFFFFFFFFFFF00FFFFFFFFFFFFFFFFFFFFFFFFFFFFFFFFFFFFFFFF00FFFFFFFFFF
310
FFFFFFFFFF00FFFFFFFFFFFFFFFFFFFFFFFFFFFFFFFFFFFFFF00FFFFFFFFFFFFFFFFFFFF00FFFFFFFFFFFFFFFFFFFFFFFFFFFFFFFFFFFF0000FFFFFFFFFFFFFFFFFFFFFF00FFFFFFFFFFFFFFFFFFFFFFFFFFFF00000000FFFFFFFFFFFFFFFFFFFFFFFFFF00FFFFFFFFFFFFFFFFFFFFFFFFFFFFFFFFFFFFFFFFFFFFFFFFFFFF
310
FFFFFFFF00FFFFFFFFFFFFFFFFFFFFFFFFFFFFFFFFFFFFFFFFFFFFFFFFFFFFFFFFFFFFFF00FFFFFFFFFFFFFFFFFFFFFFFFFFFFFFFFFFFFFFFFFFFFFFFFFFFFFFFFFFFFFF00FFFFFFFFFFFFFFFFFFFFFFFFFFFFFFFFFFFFFFFFFFFFFFFFFFFFFFFFFFFF00FFFFFFFFFFFFFFFFFFFFFFFFFFFFFFFFFFFFFFFFFFFFFFFFFFFFFF
310
FFFFFFFF00FFFFFFFFFFFFFFFFFFFFFFFFFFFFFFFFFFFFFFFFFFFFFFFFFFFFFFFFFFFF00FFFFFFFFFFFFFFFFFFFFFFFFFFFFFFFFFFFFFFFFFFFFFFFFFFFFFFFFFFFF00FFFFFFFFFFFFFFFFFFFFFFFFFFFFFFFFFFFFFFFFFFFFFFFFFFFFFFFFFFFF00FFFFFFFFFFFFFFFFFFFFFFFFFFFFFFFFFFFFFFFFFFFFFFFFFFFFFFFFFF
310
FF00FFFFFFFFFFFFFFFFFFFFFFFFFFFFFFFFFFFFFFFFFFFFFFFFFFFFFFFFFFFFFF00FFFFFFFFFFFFFFFFFFFFFFFFFFFFFFFFFFFFFFFFFFFFFFFFFFFFFFFFFFFF00FFFFFFFFFFFFFFFFFFFFFFFFFFFFFFFFFFFFFFFFFFFFFFFFFFFFFFFFFF0000FFFFFFFFFFFFFFFFFFFFFFFFFFFFFFFFFFFFFFFFFFFFFFFFFFFFFFFF0000FF
310
FFFFFFFFFFFFFFFFFFFFFFFFFFFFFFFFFFFFFFFFFFFFFFFFFF00000000FFFFFFFFFFFFFFFFFFFFFFFFFFFFFFFFFFFFFFFFFFFFFFFFFFFF0000FFFFFFFFFFFFFFFFFFFFFFFFFFFFFFFFFFFFFFFFFFFFFFFFFFFFFFFFFFFFFFFFFFFFFFFFFFFFFFFFFFFFFFFFFFFFFFFFFFFFFFFFFFFFFFFFFFFFFFFFFFFFFFFFFFFFFFFFFFFF
310
FFFFFFFFFFFFFFFFFFFFFFFFFFFFFFFFFFFFFFFFFFFFFFFFFFFFFFFFFFFFFFFFFFFFFFFFFFFFFFFFFFFFFFFFFFFFFFFFFFFFFFFFFFFFFFFF
102
{BLKREFS
331
2A65
102
}
  0
BLOCK_RECORD
  5
2A43
330
27A2
100
AcDbSymbolTableRecord
100
AcDbBlockTableRecord
  2
AI9-BLK5
340
0
310
2800000020000000200000000100080000000000000400000000000000000000000000000000000000000000000080000080000000808000800000008000800080800000C0C0C000C0DCC000F0CAA6000020400000206000002080000020A0000020C0000020E00000400000004020000040400000406000004080000040A0
310
000040C0000040E00000600000006020000060400000606000006080000060A0000060C0000060E00000800000008020000080400000806000008080000080A0000080C0000080E00000A0000000A0200000A0400000A0600000A0800000A0A00000A0C00000A0E00000C0000000C0200000C0400000C0600000C0800000C0
310
A00000C0C00000C0E00000E0000000E0200000E0400000E0600000E0800000E0A00000E0C00000E0E00040000000400020004000400040006000400080004000A0004000C0004000E00040200000402020004020400040206000402080004020A0004020C0004020E000404000004040200040404000404060004040800040
310
40A0004040C0004040E00040600000406020004060400040606000406080004060A0004060C0004060E00040800000408020004080400040806000408080004080A0004080C0004080E00040A0000040A0200040A0400040A0600040A0800040A0A00040A0C00040A0E00040C0000040C0200040C0400040C0600040C08000
310
40C0A00040C0C00040C0E00040E0000040E0200040E0400040E0600040E0800040E0A00040E0C00040E0E00080000000800020008000400080006000800080008000A0008000C0008000E00080200000802020008020400080206000802080008020A0008020C0008020E00080400000804020008040400080406000804080
310
008040A0008040C0008040E00080600000806020008060400080606000806080008060A0008060C0008060E00080800000808020008080400080806000808080008080A0008080C0008080E00080A0000080A0200080A0400080A0600080A0800080A0A00080A0C00080A0E00080C0000080C0200080C0400080C0600080C0
310
800080C0A00080C0C00080C0E00080E0000080E0200080E0400080E0600080E0800080E0A00080E0C00080E0E000C0000000C0002000C0004000C0006000C0008000C000A000C000C000C000E000C0200000C0202000C0204000C0206000C0208000C020A000C020C000C020E000C0400000C0402000C0404000C0406000C0
310
408000C040A000C040C000C040E000C0600000C0602000C0604000C0606000C0608000C060A000C060C000C060E000C0800000C0802000C0804000C0806000C0808000C080A000C080C000C080E000C0A00000C0A02000C0A04000C0A06000C0A08000C0A0A000C0A0C000C0A0E000C0C00000C0C02000C0C04000C0C06000
310
C0C08000C0C0A000F0FBFF00A4A0A000808080000000FF0000FF000000FFFF00FF000000FF00FF00FFFF0000FFFFFF00FFFFFFFFFFFFFFFFFFFFFFFFFFFFFFFFFFFFFFFFFFFFFFFFFFFFFFFFFFFFFFFFFFFFFFFFFFFFFFFF000000000000000000000000000000000000000000000000FFFFFFFFFFFFFFFF00FFFFFFFFFFFF
310
FFFFFFFFFFFFFFFFFFFFFFFFFFFFFFFFFFFFFFFFFFFFFFFFFF00FFFFFFFFFFFFFFFFFFFFFFFFFFFFFFFFFFFFFFFFFFFFFFFFFFFFFFFFFFFFFF00FFFFFFFFFFFFFFFFFFFFFFFFFFFFFFFFFFFFFFFFFFFFFFFFFFFFFFFFFFFFFF00FFFFFFFFFFFFFFFFFFFFFFFFFFFFFFFFFFFFFFFFFFFFFFFFFFFFFFFFFFFFFF00FFFFFFFFFF
310
FFFFFFFFFFFFFFFFFFFFFFFFFFFFFFFFFFFFFFFFFFFFFFFFFFFF00FFFFFFFFFFFFFFFFFFFFFFFFFFFFFFFFFFFFFFFFFFFFFFFFFFFFFFFFFFFFFF00FFFFFFFFFFFFFFFFFFFFFFFFFFFFFFFFFFFFFFFFFFFFFFFFFFFFFFFFFFFFFF00FFFFFFFFFFFFFFFFFFFFFFFFFFFFFFFFFFFFFFFFFFFFFFFFFFFFFFFFFFFFFF00FFFFFFFF
310
FFFFFFFFFFFFFFFFFFFFFFFFFFFFFFFFFFFFFFFFFFFFFFFFFFFFFF00FFFFFFFFFFFFFFFFFFFFFFFFFFFFFFFFFFFFFFFFFFFFFFFFFFFFFFFFFFFFFF00FFFFFFFFFFFFFFFFFFFFFFFFFFFFFFFFFFFFFFFFFFFFFFFFFFFFFFFFFFFFFF00FFFFFFFFFFFFFFFFFFFFFFFFFFFFFFFFFFFFFFFFFFFFFFFFFFFFFFFFFFFFFF00FFFFFF
310
FFFFFFFFFFFFFFFFFFFFFFFFFFFFFFFFFFFFFFFFFFFFFFFFFFFFFFFF00FFFFFFFFFFFFFFFFFFFFFFFFFFFFFFFFFFFFFFFFFFFFFFFFFFFFFFFFFFFFFF00FFFFFFFFFFFFFFFFFFFFFFFFFFFFFFFFFFFFFFFFFFFFFFFFFFFFFFFFFFFFFF00FFFFFFFFFFFFFFFFFFFFFFFFFFFFFFFFFFFFFFFFFFFFFFFFFFFFFFFFFFFFFF00FFFF
310
FFFFFFFFFFFFFFFFFFFFFFFFFFFFFFFFFFFFFFFFFFFFFFFFFFFFFFFFFF00FFFFFFFFFFFFFFFFFFFFFFFFFFFFFFFFFFFFFFFFFFFFFFFFFFFFFFFFFFFFFF00FFFFFFFFFFFFFFFFFFFFFFFFFFFFFFFFFFFFFFFFFFFFFFFFFFFFFFFFFFFFFF00FFFFFFFFFFFFFFFFFFFFFFFFFFFFFFFFFFFFFFFFFFFFFFFFFFFFFFFFFFFFFF00FF
310
FFFFFFFFFFFFFFFFFFFFFFFFFFFFFFFFFFFFFFFFFFFFFFFFFFFFFFFFFFFF00FFFFFFFFFFFFFFFFFFFFFFFFFFFFFFFFFFFFFFFFFFFFFFFFFFFFFFFFFFFFFF00FFFFFFFFFFFFFFFFFFFFFFFFFFFFFFFFFFFFFFFFFFFFFFFFFFFFFFFFFFFFFF00FFFFFFFFFFFFFFFFFFFFFFFFFFFFFFFFFFFFFFFFFFFFFFFFFFFFFFFFFFFFFF00
310
FFFFFFFFFFFFFFFFFFFFFFFFFFFFFFFFFFFFFFFFFFFFFFFFFFFFFFFFFFFFFF00FFFFFFFFFFFFFFFFFFFFFFFFFFFFFFFFFFFFFFFFFFFFFFFFFFFFFFFFFFFFFF00FFFFFFFFFFFFFFFFFFFFFFFFFFFFFFFFFFFFFFFFFFFFFFFFFFFFFFFFFFFFFF00FFFFFFFFFFFFFFFFFFFFFFFFFFFFFFFFFFFFFFFFFFFFFFFFFFFFFFFFFFFFFF
310
00FFFFFFFFFFFFFFFFFFFFFFFFFFFF000000000000000000FFFFFFFFFFFFFFFF00FFFFFFFFFFFFFFFFFFFFFFFFFFFF00FFFFFFFFFFFFFFFF
102
{BLKREFS
331
2A66
102
}
  0
BLOCK_RECORD
  5
2A48
330
27A2
100
AcDbSymbolTableRecord
100
AcDbBlockTableRecord
  2
AI9-BLK4
340
0
310
2800000020000000200000000100080000000000000400000000000000000000000000000000000000000000000080000080000000808000800000008000800080800000C0C0C000C0DCC000F0CAA6000020400000206000002080000020A0000020C0000020E00000400000004020000040400000406000004080000040A0
310
000040C0000040E00000600000006020000060400000606000006080000060A0000060C0000060E00000800000008020000080400000806000008080000080A0000080C0000080E00000A0000000A0200000A0400000A0600000A0800000A0A00000A0C00000A0E00000C0000000C0200000C0400000C0600000C0800000C0
310
A00000C0C00000C0E00000E0000000E0200000E0400000E0600000E0800000E0A00000E0C00000E0E00040000000400020004000400040006000400080004000A0004000C0004000E00040200000402020004020400040206000402080004020A0004020C0004020E000404000004040200040404000404060004040800040
310
40A0004040C0004040E00040600000406020004060400040606000406080004060A0004060C0004060E00040800000408020004080400040806000408080004080A0004080C0004080E00040A0000040A0200040A0400040A0600040A0800040A0A00040A0C00040A0E00040C0000040C0200040C0400040C0600040C08000
310
40C0A00040C0C00040C0E00040E0000040E0200040E0400040E0600040E0800040E0A00040E0C00040E0E00080000000800020008000400080006000800080008000A0008000C0008000E00080200000802020008020400080206000802080008020A0008020C0008020E00080400000804020008040400080406000804080
310
008040A0008040C0008040E00080600000806020008060400080606000806080008060A0008060C0008060E00080800000808020008080400080806000808080008080A0008080C0008080E00080A0000080A0200080A0400080A0600080A0800080A0A00080A0C00080A0E00080C0000080C0200080C0400080C0600080C0
310
800080C0A00080C0C00080C0E00080E0000080E0200080E0400080E0600080E0800080E0A00080E0C00080E0E000C0000000C0002000C0004000C0006000C0008000C000A000C000C000C000E000C0200000C0202000C0204000C0206000C0208000C020A000C020C000C020E000C0400000C0402000C0404000C0406000C0
310
408000C040A000C040C000C040E000C0600000C0602000C0604000C0606000C0608000C060A000C060C000C060E000C0800000C0802000C0804000C0806000C0808000C080A000C080C000C080E000C0A00000C0A02000C0A04000C0A06000C0A08000C0A0A000C0A0C000C0A0E000C0C00000C0C02000C0C04000C0C06000
310
C0C08000C0C0A000F0FBFF00A4A0A000808080000000FF0000FF000000FFFF00FF000000FF00FF00FFFF0000FFFFFF00FFFFFFFFFFFFFFFFFFFFFFFFFFFFFFFFFFFFFFFFFFFFFFFFFFFFFFFFFFFFFFFFFFFFFFFFFFFFFFFFFFFFFFFFFFFF00000000FFFFFFFFFFFFFFFFFFFFFF000000FFFFFFFFFFFFFFFFFFFFFFFFFFFF00
310
FFFF00FFFFFFFFFFFFFFFFFFFFFF00FFFFFFFFFFFFFFFFFFFFFFFFFFFFFFFF00FFFF00FFFFFFFFFFFFFFFFFFFFFF00FFFFFFFFFFFFFFFFFFFFFFFFFFFFFFFF00FFFF00FFFFFFFFFFFFFFFFFFFFFF00FFFFFFFFFFFFFFFFFFFFFFFFFFFFFFFF00FFFF00FFFFFFFFFFFFFFFFFFFFFF00FFFFFFFFFFFFFFFFFFFFFFFFFFFFFFFF
310
00FFFF00FFFFFFFFFFFFFFFFFFFFFF00FFFFFFFFFFFFFFFFFFFFFFFFFFFFFFFF00FFFF00FFFFFFFFFFFFFFFFFFFFFF00FFFFFFFFFFFFFFFFFFFFFFFFFFFFFFFF00FFFF00FFFFFFFFFFFFFFFFFFFFFF00FFFFFFFFFFFFFFFFFFFFFFFFFFFFFFFF00FFFF00FFFFFFFFFFFFFFFFFFFFFF00FFFFFFFFFFFFFFFFFFFFFFFFFFFFFF
310
FF00FFFF00FFFFFFFFFFFFFFFFFFFFFF00FFFFFFFFFFFFFFFFFFFFFFFFFFFFFFFF00FFFF00FFFFFFFFFFFFFFFFFFFFFF00FFFFFFFFFFFFFFFFFFFFFFFFFFFFFFFF00FFFF00FFFFFFFFFFFFFFFFFFFFFF00FFFFFFFFFFFFFFFFFFFFFFFFFFFFFFFF00FFFF00FFFFFFFFFFFFFFFFFFFFFF00FFFFFFFFFFFFFFFFFFFFFFFFFFFF
310
FFFF00FFFF00FFFFFFFFFFFFFFFFFFFFFF00FFFFFFFFFFFFFFFFFFFFFFFFFFFFFFFF00FFFF00FFFFFFFFFFFFFFFFFFFFFF00FFFFFFFFFFFFFFFFFFFFFFFFFFFFFFFF00FFFF00FFFFFFFFFFFFFFFFFFFFFF00FFFFFFFFFFFFFFFFFFFFFFFFFFFFFFFF00FFFF00FFFFFFFFFFFFFFFFFFFF00FFFFFFFFFFFFFFFFFFFFFFFFFFFF
310
FFFFFF00FFFF00FFFFFFFFFFFFFFFFFFFF00FFFFFFFFFFFFFFFFFFFFFFFFFFFFFFFFFF00FFFF00FFFFFFFFFFFFFFFFFFFF00FFFFFFFFFFFFFFFFFFFFFFFFFFFFFFFFFF00FFFF00FFFFFFFFFFFFFFFFFFFF00FFFFFFFFFFFFFFFFFFFFFFFFFFFFFFFFFF00FFFF00FFFFFFFFFFFFFFFFFFFF00FFFFFFFFFFFFFFFFFFFFFFFFFF
310
FFFFFFFF00FFFF00FFFFFFFFFFFFFFFFFF0000FFFF00FFFFFFFFFFFFFFFFFFFFFFFFFFFF00FFFF00FFFFFFFFFFFFFFFF0000FFFFFF00FFFFFFFFFFFFFFFFFFFFFFFFFFFF00FFFF00000000000000000000FFFFFFFF00FFFFFFFFFFFFFFFFFFFFFFFFFFFF00FFFFFFFFFFFFFFFFFFFFFFFFFFFFFF00FFFFFFFFFFFFFFFFFFFF
310
FFFFFFFFFF00FFFFFFFFFFFFFFFFFFFFFFFFFFFF00FFFFFFFFFFFFFFFFFFFFFFFFFFFFFFFF00FFFFFFFFFFFFFFFFFFFFFFFFFFFF00FFFFFFFFFFFFFFFFFFFFFFFFFFFFFFFF00FFFFFFFFFFFFFFFFFFFFFFFFFFFFFF00FFFFFFFFFFFFFFFFFFFFFFFFFFFFFF00FFFFFFFFFFFFFFFFFFFFFFFFFFFFFF00FFFFFFFFFFFFFFFFFF
310
FFFFFFFFFFFF00FFFF00000000000000000000FFFFFFFF00FFFFFFFFFFFFFFFFFFFFFFFFFFFF00FFFF00FFFFFFFFFFFFFFFFFF0000FFFF00
102
{BLKREFS
331
2A67
102
}
  0
BLOCK_RECORD
  5
2A4D
330
27A2
100
AcDbSymbolTableRecord
100
AcDbBlockTableRecord
  2
AI9-BLK3
340
0
310
2800000020000000200000000100080000000000000400000000000000000000000000000000000000000000000080000080000000808000800000008000800080800000C0C0C000C0DCC000F0CAA6000020400000206000002080000020A0000020C0000020E00000400000004020000040400000406000004080000040A0
310
000040C0000040E00000600000006020000060400000606000006080000060A0000060C0000060E00000800000008020000080400000806000008080000080A0000080C0000080E00000A0000000A0200000A0400000A0600000A0800000A0A00000A0C00000A0E00000C0000000C0200000C0400000C0600000C0800000C0
310
A00000C0C00000C0E00000E0000000E0200000E0400000E0600000E0800000E0A00000E0C00000E0E00040000000400020004000400040006000400080004000A0004000C0004000E00040200000402020004020400040206000402080004020A0004020C0004020E000404000004040200040404000404060004040800040
310
40A0004040C0004040E00040600000406020004060400040606000406080004060A0004060C0004060E00040800000408020004080400040806000408080004080A0004080C0004080E00040A0000040A0200040A0400040A0600040A0800040A0A00040A0C00040A0E00040C0000040C0200040C0400040C0600040C08000
310
40C0A00040C0C00040C0E00040E0000040E0200040E0400040E0600040E0800040E0A00040E0C00040E0E00080000000800020008000400080006000800080008000A0008000C0008000E00080200000802020008020400080206000802080008020A0008020C0008020E00080400000804020008040400080406000804080
310
008040A0008040C0008040E00080600000806020008060400080606000806080008060A0008060C0008060E00080800000808020008080400080806000808080008080A0008080C0008080E00080A0000080A0200080A0400080A0600080A0800080A0A00080A0C00080A0E00080C0000080C0200080C0400080C0600080C0
310
800080C0A00080C0C00080C0E00080E0000080E0200080E0400080E0600080E0800080E0A00080E0C00080E0E000C0000000C0002000C0004000C0006000C0008000C000A000C000C000C000E000C0200000C0202000C0204000C0206000C0208000C020A000C020C000C020E000C0400000C0402000C0404000C0406000C0
310
408000C040A000C040C000C040E000C0600000C0602000C0604000C0606000C0608000C060A000C060C000C060E000C0800000C0802000C0804000C0806000C0808000C080A000C080C000C080E000C0A00000C0A02000C0A04000C0A06000C0A08000C0A0A000C0A0C000C0A0E000C0C00000C0C02000C0C04000C0C06000
310
C0C08000C0C0A000F0FBFF00A4A0A000808080000000FF0000FF000000FFFF00FF000000FF00FF00FFFF0000FFFFFF00FFFFFFFFFFFFFFFFFFFFFFFFFFFFFFFFFFFFFFFFFFFFFFFFFFFFFFFFFFFFFFFFFFFFFFFFFFFFFFFFFFFFFFFFFFFFFF0000FFFFFFFFFFFFFFFFFFFFFFFFFFFFFFFFFFFFFFFFFFFFFFFFFFFFFFFFFFFF
310
0000FFFFFFFFFFFFFFFFFFFFFFFFFFFFFFFFFFFFFFFFFFFFFFFFFFFFFFFFFFFF0000FFFFFFFFFFFFFFFFFFFFFFFFFFFFFFFFFFFFFFFFFFFFFFFFFFFFFFFFFFFF0000FFFFFFFFFFFFFFFFFFFFFFFFFFFFFFFFFFFFFFFFFFFFFFFFFFFFFFFFFFFF0000FFFFFFFFFFFFFFFFFFFFFFFFFFFFFFFFFFFFFFFFFFFFFFFFFFFFFFFFFF
310
FF0000FFFFFFFFFFFFFFFFFFFFFFFFFFFFFFFFFFFFFFFFFFFFFFFFFFFFFFFFFFFF0000FFFFFFFFFFFFFFFFFFFFFFFFFFFFFFFFFFFFFFFFFFFFFFFFFFFFFFFFFFFF0000FFFFFFFFFFFFFFFFFFFFFFFFFFFFFFFFFFFFFFFFFFFFFFFFFFFFFFFFFFFF0000FFFFFFFFFFFFFFFFFFFFFFFFFFFFFFFFFFFFFFFFFFFFFFFFFFFFFFFF
310
FFFF0000FFFFFFFFFFFFFFFFFFFFFFFFFFFFFFFFFFFFFFFFFFFFFFFFFFFFFFFFFFFF0000FFFFFFFFFFFFFFFFFFFFFFFFFFFFFFFFFFFFFFFFFFFFFFFFFFFFFFFFFFFF0000FFFFFFFFFFFFFFFFFFFFFFFFFFFFFFFFFFFFFFFFFFFFFFFFFFFFFFFFFFFF0000FFFFFFFFFFFFFFFFFFFFFFFFFFFFFFFFFFFFFFFFFFFFFFFFFFFFFF
310
FFFFFF0000FFFFFFFFFFFFFFFFFFFFFFFFFFFFFFFFFFFFFFFFFFFFFFFFFFFFFFFFFFFF0000FFFFFFFFFFFFFFFFFFFFFFFFFFFFFFFFFFFFFFFFFFFFFFFFFFFFFFFFFFFF0000FFFFFFFFFFFFFFFFFFFFFFFFFFFFFFFFFFFFFFFFFFFFFFFFFFFFFFFFFFFF0000FFFFFFFFFFFFFFFFFFFFFFFFFFFFFFFFFFFFFFFFFFFFFFFFFFFF
310
FFFFFFFF0000FFFFFFFFFFFFFFFFFFFFFFFFFFFFFFFFFFFFFFFFFFFFFFFFFFFFFFFFFFFF0000FFFFFFFFFFFFFFFFFFFFFFFFFFFFFFFFFFFFFFFFFFFFFFFFFFFFFFFFFFFF0000FFFFFFFFFFFFFFFFFFFFFFFFFFFFFFFFFFFFFFFFFFFFFFFFFFFFFFFFFFFF0000FFFFFFFFFFFFFFFFFFFFFFFFFFFFFFFFFFFFFFFFFFFFFFFFFF
310
FFFFFFFFFF0000FFFFFFFFFFFFFFFFFFFFFFFFFFFFFFFFFFFFFFFFFFFFFFFFFFFFFFFFFFFF0000FFFFFFFFFFFFFFFFFFFFFFFFFFFFFFFFFFFFFFFFFFFFFFFFFFFFFFFFFFFF0000FFFFFFFFFFFFFFFFFFFFFFFFFFFFFFFFFFFFFFFFFFFFFFFFFFFFFFFFFFFF0000FFFFFFFFFFFFFFFFFFFFFFFFFFFFFFFFFFFFFFFFFFFFFFFF
310
FFFFFFFFFFFF0000FFFFFFFFFFFFFFFFFFFFFFFFFFFFFFFFFFFFFFFFFFFFFFFFFFFFFFFFFFFF0000FFFFFFFFFFFFFFFFFFFFFFFFFFFFFFFFFFFFFFFFFFFFFFFFFFFFFFFFFFFF0000FFFFFFFFFFFFFFFFFFFFFFFFFFFFFFFFFFFFFFFFFFFFFFFFFFFFFFFFFFFF0000FFFFFFFFFFFFFFFFFFFFFFFFFFFFFFFFFFFFFFFFFFFFFF
310
FFFFFFFFFFFFFF0000FFFFFFFFFFFFFFFFFFFFFFFFFFFFFFFFFFFFFFFFFFFFFFFFFFFFFFFFFFFFFFFFFFFFFFFFFFFFFFFFFFFFFFFFFFFFFF
102
{BLKREFS
331
2A68
102
}
  0
BLOCK_RECORD
  5
2A52
330
27A2
100
AcDbSymbolTableRecord
100
AcDbBlockTableRecord
  2
AI9-BLK2
340
0
310
2800000020000000200000000100080000000000000400000000000000000000000000000000000000000000000080000080000000808000800000008000800080800000C0C0C000C0DCC000F0CAA6000020400000206000002080000020A0000020C0000020E00000400000004020000040400000406000004080000040A0
310
000040C0000040E00000600000006020000060400000606000006080000060A0000060C0000060E00000800000008020000080400000806000008080000080A0000080C0000080E00000A0000000A0200000A0400000A0600000A0800000A0A00000A0C00000A0E00000C0000000C0200000C0400000C0600000C0800000C0
310
A00000C0C00000C0E00000E0000000E0200000E0400000E0600000E0800000E0A00000E0C00000E0E00040000000400020004000400040006000400080004000A0004000C0004000E00040200000402020004020400040206000402080004020A0004020C0004020E000404000004040200040404000404060004040800040
310
40A0004040C0004040E00040600000406020004060400040606000406080004060A0004060C0004060E00040800000408020004080400040806000408080004080A0004080C0004080E00040A0000040A0200040A0400040A0600040A0800040A0A00040A0C00040A0E00040C0000040C0200040C0400040C0600040C08000
310
40C0A00040C0C00040C0E00040E0000040E0200040E0400040E0600040E0800040E0A00040E0C00040E0E00080000000800020008000400080006000800080008000A0008000C0008000E00080200000802020008020400080206000802080008020A0008020C0008020E00080400000804020008040400080406000804080
310
008040A0008040C0008040E00080600000806020008060400080606000806080008060A0008060C0008060E00080800000808020008080400080806000808080008080A0008080C0008080E00080A0000080A0200080A0400080A0600080A0800080A0A00080A0C00080A0E00080C0000080C0200080C0400080C0600080C0
310
800080C0A00080C0C00080C0E00080E0000080E0200080E0400080E0600080E0800080E0A00080E0C00080E0E000C0000000C0002000C0004000C0006000C0008000C000A000C000C000C000E000C0200000C0202000C0204000C0206000C0208000C020A000C020C000C020E000C0400000C0402000C0404000C0406000C0
310
408000C040A000C040C000C040E000C0600000C0602000C0604000C0606000C0608000C060A000C060C000C060E000C0800000C0802000C0804000C0806000C0808000C080A000C080C000C080E000C0A00000C0A02000C0A04000C0A06000C0A08000C0A0A000C0A0C000C0A0E000C0C00000C0C02000C0C04000C0C06000
310
C0C08000C0C0A000F0FBFF00A4A0A000808080000000FF0000FF000000FFFF00FF000000FF00FF00FFFF0000FFFFFF00FFFFFFFFFFFFFFFFFFFFFFFFFFFFFFFFFFFFFFFFFFFFFFFFFFFFFFFFFFFFFFFFFFFFFFFFFFFFFFFFFFFFFFFFFFFFFF0000FFFFFFFFFFFFFFFFFFFFFFFFFFFFFFFFFFFFFFFFFFFFFFFFFFFFFFFFFFFF
310
0000FFFFFFFFFFFFFFFFFFFFFFFFFFFFFFFFFFFFFFFFFFFFFFFFFFFFFFFFFFFF0000FFFFFFFFFFFFFFFFFFFFFFFFFFFFFFFFFFFFFFFFFFFFFFFFFFFFFFFFFF00FFFF00FFFFFFFFFFFFFFFFFFFFFFFFFFFFFFFFFFFFFFFFFFFFFFFFFFFFFFFF00FFFF00FFFFFFFFFFFFFFFFFFFFFFFFFFFFFFFFFFFFFFFFFFFFFFFFFFFFFFFF
310
00FF0000FFFFFFFFFFFFFFFFFFFFFFFFFFFFFFFFFFFFFFFFFFFFFFFFFFFFFFFF00FF0000FFFFFFFFFFFFFFFFFFFFFFFFFFFFFFFFFFFFFFFFFFFFFFFFFFFFFFFF00FF0000FFFFFFFFFFFFFFFFFFFFFFFFFFFFFFFFFFFFFFFFFFFFFFFFFFFFFFFF00000000FFFFFFFFFFFFFFFFFFFFFFFFFFFFFFFFFFFFFFFFFFFFFFFFFFFFFF
310
00FF00FF0000FFFFFFFFFFFFFFFFFFFFFFFFFFFFFFFFFFFFFFFFFFFFFFFFFFFF00FF00FF0000FFFFFFFFFFFFFFFFFFFFFFFFFFFFFFFFFFFFFFFFFFFFFFFFFFFF00FF00FF0000FFFFFFFFFFFFFFFFFFFFFFFFFFFFFFFFFFFFFFFFFFFFFFFFFFFF00FF00FF0000FFFFFFFFFFFFFFFFFFFFFFFFFFFFFFFFFFFFFFFFFFFFFFFFFF
310
FF00FF00FF0000FFFFFFFFFFFFFFFFFFFFFFFFFFFFFFFFFFFFFFFFFFFFFFFFFFFF0000FFFF0000FFFFFFFFFFFFFFFFFFFFFFFFFFFFFFFFFFFFFFFFFFFFFFFFFF00FF00FFFF00FF00FFFFFFFFFFFFFFFFFFFFFFFFFFFFFFFFFFFFFFFFFFFFFFFF00FF00FFFF00FF00FFFFFFFFFFFFFFFFFFFFFFFFFFFFFFFFFFFFFFFFFFFFFF
310
FF00FF00FFFFFF0000FFFFFFFFFFFFFFFFFFFFFFFFFFFFFFFFFFFFFFFFFFFFFFFF00FF00FFFFFF0000FFFFFFFFFFFFFFFFFFFFFFFFFFFFFFFFFFFFFFFFFFFFFFFF00FF00FFFFFF0000FFFFFFFFFFFFFFFFFFFFFFFFFFFFFFFFFFFFFFFFFFFFFFFF0000FFFFFFFF0000FFFFFFFFFFFFFFFFFFFFFFFFFFFFFFFFFFFFFFFFFFFF
310
FF00FF00FFFFFFFF00FF00FFFFFFFFFFFFFFFFFFFFFFFFFFFFFFFFFFFFFFFFFFFF00FF00FFFFFFFF00FF00FFFFFFFFFFFFFFFFFFFFFFFFFFFFFFFFFFFFFFFFFFFF00FF00FFFFFFFF00FF00FFFFFFFFFFFFFFFFFFFFFFFFFFFFFFFFFFFFFFFFFFFF00FF00FFFFFFFF00FF00FFFFFFFFFFFFFFFFFFFFFFFFFFFFFFFFFFFFFFFF
310
FFFF00FF00FFFFFFFFFF0000FFFFFFFFFFFFFFFFFFFFFFFFFFFFFFFFFFFFFFFFFFFF0000FFFFFFFFFFFF0000FFFFFFFFFFFFFFFFFFFFFFFFFFFFFFFFFFFFFFFFFF00FF00FFFFFFFFFFFF00FF00FFFFFFFFFFFFFFFFFFFFFFFFFFFFFFFFFFFFFFFF00FF00FFFFFFFFFFFF00FF00FFFFFFFFFFFFFFFFFFFFFFFFFFFFFFFFFFFF
310
FFFF000000FFFFFFFFFFFF000000FFFFFFFFFFFFFFFFFFFFFFFFFFFFFFFFFFFFFFFFFFFFFFFFFFFFFFFFFFFFFFFFFFFFFFFFFFFFFFFFFFFF
102
{BLKREFS
331
2A69
102
}
  0
BLOCK_RECORD
  5
2A57
330
27A2
100
AcDbSymbolTableRecord
100
AcDbBlockTableRecord
  2
AI9-BLK1
340
0
310
2800000020000000200000000100080000000000000400000000000000000000000000000000000000000000000080000080000000808000800000008000800080800000C0C0C000C0DCC000F0CAA6000020400000206000002080000020A0000020C0000020E00000400000004020000040400000406000004080000040A0
310
000040C0000040E00000600000006020000060400000606000006080000060A0000060C0000060E00000800000008020000080400000806000008080000080A0000080C0000080E00000A0000000A0200000A0400000A0600000A0800000A0A00000A0C00000A0E00000C0000000C0200000C0400000C0600000C0800000C0
310
A00000C0C00000C0E00000E0000000E0200000E0400000E0600000E0800000E0A00000E0C00000E0E00040000000400020004000400040006000400080004000A0004000C0004000E00040200000402020004020400040206000402080004020A0004020C0004020E000404000004040200040404000404060004040800040
310
40A0004040C0004040E00040600000406020004060400040606000406080004060A0004060C0004060E00040800000408020004080400040806000408080004080A0004080C0004080E00040A0000040A0200040A0400040A0600040A0800040A0A00040A0C00040A0E00040C0000040C0200040C0400040C0600040C08000
310
40C0A00040C0C00040C0E00040E0000040E0200040E0400040E0600040E0800040E0A00040E0C00040E0E00080000000800020008000400080006000800080008000A0008000C0008000E00080200000802020008020400080206000802080008020A0008020C0008020E00080400000804020008040400080406000804080
310
008040A0008040C0008040E00080600000806020008060400080606000806080008060A0008060C0008060E00080800000808020008080400080806000808080008080A0008080C0008080E00080A0000080A0200080A0400080A0600080A0800080A0A00080A0C00080A0E00080C0000080C0200080C0400080C0600080C0
310
800080C0A00080C0C00080C0E00080E0000080E0200080E0400080E0600080E0800080E0A00080E0C00080E0E000C0000000C0002000C0004000C0006000C0008000C000A000C000C000C000E000C0200000C0202000C0204000C0206000C0208000C020A000C020C000C020E000C0400000C0402000C0404000C0406000C0
310
408000C040A000C040C000C040E000C0600000C0602000C0604000C0606000C0608000C060A000C060C000C060E000C0800000C0802000C0804000C0806000C0808000C080A000C080C000C080E000C0A00000C0A02000C0A04000C0A06000C0A08000C0A0A000C0A0C000C0A0E000C0C00000C0C02000C0C04000C0C06000
310
C0C08000C0C0A000F0FBFF00A4A0A000808080000000FF0000FF000000FFFF00FF000000FF00FF00FFFF0000FFFFFF00FFFFFFFFFFFFFFFFFFFFFFFFFFFFFFFFFFFFFFFFFFFFFFFFFFFFFFFFFFFFFFFFFFFFFFFFFFFFFFFFFFFFFF00000000000000000000FFFFFFFFFFFFFFFFFFFFFFFFFFFFFFFFFFFFFFFFFFFF00FFFFFF
310
FFFFFFFFFF00FFFFFFFFFFFFFFFFFFFFFFFFFFFFFFFFFFFFFFFFFFFF00FFFFFFFFFFFFFFFF00FFFFFFFFFFFFFFFFFFFFFFFFFFFFFFFFFFFFFFFFFFFF00FFFFFFFFFFFFFFFF00FFFFFFFFFFFFFFFFFFFFFFFFFFFFFFFFFFFFFFFFFFFF00FF0000000000000000FFFFFFFFFFFFFFFFFFFFFFFFFFFFFFFFFFFFFFFFFFFF00FF00
310
FFFFFFFFFFFFFFFFFFFFFFFFFFFFFFFFFFFFFFFFFFFFFFFFFFFFFFFFFF00FF00FFFFFFFFFFFFFFFFFFFFFFFFFFFFFFFFFFFFFFFFFFFFFFFFFFFFFFFFFF00FF00FFFFFFFFFFFFFFFFFFFFFFFFFFFFFFFFFFFFFFFFFFFFFFFFFFFFFFFFFF00FF00FFFFFFFFFFFFFFFFFFFFFFFFFFFFFFFFFFFFFFFFFFFFFFFFFFFFFFFFFF00FF
310
00FFFFFFFFFFFFFFFFFFFFFFFFFFFFFFFFFFFFFFFFFFFFFFFFFFFFFFFFFF00FF00FFFFFFFFFFFFFFFFFFFFFFFFFFFFFFFFFFFFFFFFFFFFFFFFFFFFFFFFFF00FF00FFFFFFFFFFFFFFFFFFFFFFFFFFFFFFFFFFFFFFFFFFFFFFFFFFFFFFFFFF00FF00FFFFFFFFFFFFFFFFFFFFFFFFFFFFFFFFFFFFFFFFFFFFFFFFFFFFFFFFFF00
310
FF00000000000000FFFFFFFFFFFFFFFFFFFFFFFFFFFFFFFFFFFFFFFFFFFFFF00FFFFFFFFFFFFFF00FFFFFFFFFFFFFFFFFFFFFFFFFFFFFFFFFFFFFFFFFFFFFF00FFFFFFFFFFFFFF00FFFFFFFFFFFFFFFFFFFFFFFFFFFFFFFFFFFFFFFFFFFFFF00FFFFFFFFFFFFFF00FFFFFFFFFFFFFFFFFFFFFFFFFFFFFFFFFFFFFFFFFFFFFF
310
00FF00000000000000FFFFFFFFFFFFFFFFFFFFFFFFFFFFFFFFFFFFFFFFFFFFFF00FF00FFFFFFFFFFFFFFFFFFFFFFFFFFFFFFFFFFFFFFFFFFFFFFFFFFFFFFFFFF00FF00FFFFFFFFFFFFFFFFFFFFFFFFFFFFFFFFFFFFFFFFFFFFFFFFFFFFFFFFFF00FF00FFFFFFFFFFFFFFFFFFFFFFFFFFFFFFFFFFFFFFFFFFFFFFFFFFFFFFFF
310
FF00FF00FFFFFFFFFFFFFFFFFFFFFFFFFFFFFFFFFFFFFFFFFFFFFFFFFFFFFFFFFF00FF00FFFFFFFFFFFFFFFFFFFFFFFFFFFFFFFFFFFFFFFFFFFFFFFFFFFFFFFFFF00FF00FFFFFFFFFFFFFFFFFFFFFFFFFFFFFFFFFFFFFFFFFFFFFFFFFFFFFFFFFF00FF00FFFFFFFFFFFFFFFFFFFFFFFFFFFFFFFFFFFFFFFFFFFFFFFFFFFFFF
310
FFFF00FF0000000000000000FFFFFFFFFFFFFFFFFFFFFFFFFFFFFFFFFFFFFFFFFFFF00FFFFFFFFFFFFFFFF00FFFFFFFFFFFFFFFFFFFFFFFFFFFFFFFFFFFFFFFFFFFF00FFFFFFFFFFFFFFFF00FFFFFFFFFFFFFFFFFFFFFFFFFFFFFFFFFFFFFFFFFFFF00FFFFFFFFFFFFFFFF00FFFFFFFFFFFFFFFFFFFFFFFFFFFFFFFFFFFFFF
310
FFFFFF00000000000000000000FFFFFFFFFFFFFFFFFFFFFFFFFFFFFFFFFFFFFFFFFFFFFFFFFFFFFFFFFFFFFFFFFFFFFFFFFFFFFFFFFFFFFF
102
{BLKREFS
331
2A6A
102
}
  0
BLOCK_RECORD
  5
2A5C
330
27A2
100
AcDbSymbolTableRecord
100
AcDbBlockTableRecord
  2
HD_LLC_logo_OT5
340
0
310
2800000020000000200000000100080000000000000400000000000000000000000000000000000000000000000080000080000000808000800000008000800080800000C0C0C000C0DCC000F0CAA6000020400000206000002080000020A0000020C0000020E00000400000004020000040400000406000004080000040A0
310
000040C0000040E00000600000006020000060400000606000006080000060A0000060C0000060E00000800000008020000080400000806000008080000080A0000080C0000080E00000A0000000A0200000A0400000A0600000A0800000A0A00000A0C00000A0E00000C0000000C0200000C0400000C0600000C0800000C0
310
A00000C0C00000C0E00000E0000000E0200000E0400000E0600000E0800000E0A00000E0C00000E0E00040000000400020004000400040006000400080004000A0004000C0004000E00040200000402020004020400040206000402080004020A0004020C0004020E000404000004040200040404000404060004040800040
310
40A0004040C0004040E00040600000406020004060400040606000406080004060A0004060C0004060E00040800000408020004080400040806000408080004080A0004080C0004080E00040A0000040A0200040A0400040A0600040A0800040A0A00040A0C00040A0E00040C0000040C0200040C0400040C0600040C08000
310
40C0A00040C0C00040C0E00040E0000040E0200040E0400040E0600040E0800040E0A00040E0C00040E0E00080000000800020008000400080006000800080008000A0008000C0008000E00080200000802020008020400080206000802080008020A0008020C0008020E00080400000804020008040400080406000804080
310
008040A0008040C0008040E00080600000806020008060400080606000806080008060A0008060C0008060E00080800000808020008080400080806000808080008080A0008080C0008080E00080A0000080A0200080A0400080A0600080A0800080A0A00080A0C00080A0E00080C0000080C0200080C0400080C0600080C0
310
800080C0A00080C0C00080C0E00080E0000080E0200080E0400080E0600080E0800080E0A00080E0C00080E0E000C0000000C0002000C0004000C0006000C0008000C000A000C000C000C000E000C0200000C0202000C0204000C0206000C0208000C020A000C020C000C020E000C0400000C0402000C0404000C0406000C0
310
408000C040A000C040C000C040E000C0600000C0602000C0604000C0606000C0608000C060A000C060C000C060E000C0800000C0802000C0804000C0806000C0808000C080A000C080C000C080E000C0A00000C0A02000C0A04000C0A06000C0A08000C0A0A000C0A0C000C0A0E000C0C00000C0C02000C0C04000C0C06000
310
C0C08000C0C0A000F0FBFF00A4A0A000808080000000FF0000FF000000FFFF00FF000000FF00FF00FFFF0000FFFFFF00FFFFFFFFFFFFFFFFFFFFFFFFFFFFFFFFFFFFFFFFFFFFFFFFFFFFFFFFFFFFFFFFFFFFFFFFFFFFFFFFFFFFFFFFFFFFFFFFFFFFFFFFFFFFFFFFFFFFFFFFFFFFFFFFFFFFFFFFFFFFFFFFFFFFFFFFFFFFFF
310
FFFFFFFFFFFFFFFFFFFFFFFFFFFFFFFFFFFFFFFFFFFFFFFFFFFFFFFFFFFFFFFFFFFFFFFFFFFFFFFFFFFFFFFFFFFFFFFFFFFFFFFFFFFFFFFFFFFFFFFFFFFFFFFFFFFFFFFFFFFFFFFFFFFFFFFFFFFFFFFFFFFFFFFFFFFFFFFFFFFFFFFFFFFFFFFFFFFFFFFFFFFFFFFFFFFFFFFFFFFFFFFFFFFFFFFFFFFFFFFFFFFFFFFFFFFFFF
310
FFFFFFFFFFFFFFFFFFFFFFFFFFFFFFFFFFFFFFFFFFFFFFFFFFFFFFFFFFFFFFFFFFFFFFFFFFFFFFFFFFFFFFFFFFFFFFFFFFFFFFFFFFFFFFFFFFFFFFFFFFFFFFFFFFFFFFFFFFFFFFFFFFFFFFFFFFFFFFFFFFFFFFFFFFFFFFFFFFFFFFFFFFFFFFFFFFFFFFFFFFFFFFFFFFFFFFFFFFFFFFFFFFFFFFFFFFFFFFFFFFFFFFFFFFFFFF
310
FFFFFFFFFFFFFFFFFFFFFFFFFFFFFFFFFFFFFFFFFFFFFFFFFFFFFFFFFFFFFFFFFFFFFFFFFFFFFFFFFFFFFFFFFFFFFFFFFFFFFFFF0000000000000000000000000000000000000000000000000000000000FFFFFF0000000000000000000000000000000000FFFFFFFFFFFFFFFFFFFF0000FFFFFF0000000000000000000000
310
00000000000000FFFFFFFFFFFFFFFFFFFF0000FFFF000000000000000000000000000000000000FFFFFF00000000FFFFFF0000FFFF00FFFFFFFFFFFF00FFFFFF00FFFFFFFFFF00FFFFFF0000000000FFFF0000FFFF00FFFFFFFFFFFF00FFFFFF00FFFFFFFFFF00FFFFFF00FFFF0000FFFF0000FFFF00FFFFFFFFFFFF00FFFF
310
00FFFFFFFFFFFF00FFFFFF00FFFF0000FFFF0000FFFF0000000000FFFF00000000FFFFFF00000000FFFFFF00000000FFFFFF0000FFFFFFFFFFFF00FFFFFFFFFFFFFFFFFF00FFFFFFFFFFFFFFFFFFFFFFFFFF0000FFFFFFFFFFFF00FFFFFFFFFFFFFFFFFF00FFFFFFFFFFFFFFFFFFFFFFFFFF0000FFFFFFFFFFFF00FFFFFFFF
310
FFFFFFFFFF00FFFFFFFFFFFFFFFFFFFFFFFF0000FFFFFF0000000000FFFF00000000FFFFFF0000000000000000000000000000FFFFFFFF00FFFFFFFFFFFF00FFFF00FFFFFFFFFFFF00FFFFFFFFFFFFFFFFFFFFFFFFFFFF00FFFFFFFFFFFF00FFFFFF00FFFFFFFFFF00FFFFFFFFFFFFFFFFFFFFFFFFFFFF0000000000000000
310
FFFFFF00000000000000FFFFFFFFFFFFFFFFFFFFFFFFFFFFFFFFFFFFFFFFFFFFFFFFFFFFFFFFFFFFFFFFFFFFFFFFFFFFFFFFFFFFFFFFFFFFFFFFFFFFFFFFFFFFFFFFFFFFFFFFFFFFFFFFFFFFFFFFFFFFFFFFFFFFFFFFFFFFFFFFFFFFFFFFFFFFFFFFFFFFFFFFFFFFFFFFFFFFFFFFFFFFFFFFFFFFFFFFFFFFFFFFFFFFFFFFFF
310
FFFFFFFFFFFFFFFFFFFFFFFFFFFFFFFFFFFFFFFFFFFFFFFFFFFFFFFFFFFFFFFFFFFFFFFFFFFFFFFFFFFFFFFFFFFFFFFFFFFFFFFFFFFFFFFF
102
{BLKREFS
331
2A82
102
}
  0
BLOCK_RECORD
  5
2A81
330
27A2
100
AcDbSymbolTableRecord
100
AcDbBlockTableRecord
  2
HD logo-new
340
0
310
2800000020000000200000000100080000000000000400000000000000000000000000000000000000000000000080000080000000808000800000008000800080800000C0C0C000C0DCC000F0CAA6000020400000206000002080000020A0000020C0000020E00000400000004020000040400000406000004080000040A0
310
000040C0000040E00000600000006020000060400000606000006080000060A0000060C0000060E00000800000008020000080400000806000008080000080A0000080C0000080E00000A0000000A0200000A0400000A0600000A0800000A0A00000A0C00000A0E00000C0000000C0200000C0400000C0600000C0800000C0
310
A00000C0C00000C0E00000E0000000E0200000E0400000E0600000E0800000E0A00000E0C00000E0E00040000000400020004000400040006000400080004000A0004000C0004000E00040200000402020004020400040206000402080004020A0004020C0004020E000404000004040200040404000404060004040800040
310
40A0004040C0004040E00040600000406020004060400040606000406080004060A0004060C0004060E00040800000408020004080400040806000408080004080A0004080C0004080E00040A0000040A0200040A0400040A0600040A0800040A0A00040A0C00040A0E00040C0000040C0200040C0400040C0600040C08000
310
40C0A00040C0C00040C0E00040E0000040E0200040E0400040E0600040E0800040E0A00040E0C00040E0E00080000000800020008000400080006000800080008000A0008000C0008000E00080200000802020008020400080206000802080008020A0008020C0008020E00080400000804020008040400080406000804080
310
008040A0008040C0008040E00080600000806020008060400080606000806080008060A0008060C0008060E00080800000808020008080400080806000808080008080A0008080C0008080E00080A0000080A0200080A0400080A0600080A0800080A0A00080A0C00080A0E00080C0000080C0200080C0400080C0600080C0
310
800080C0A00080C0C00080C0E00080E0000080E0200080E0400080E0600080E0800080E0A00080E0C00080E0E000C0000000C0002000C0004000C0006000C0008000C000A000C000C000C000E000C0200000C0202000C0204000C0206000C0208000C020A000C020C000C020E000C0400000C0402000C0404000C0406000C0
310
408000C040A000C040C000C040E000C0600000C0602000C0604000C0606000C0608000C060A000C060C000C060E000C0800000C0802000C0804000C0806000C0808000C080A000C080C000C080E000C0A00000C0A02000C0A04000C0A06000C0A08000C0A0A000C0A0C000C0A0E000C0C00000C0C02000C0C04000C0C06000
310
C0C08000C0C0A000F0FBFF00A4A0A000808080000000FF0000FF000000FFFF00FF000000FF00FF00FFFF0000FFFFFF00FFFFFFFFFFFFFFFFFFFFFFFFFFFFFFFFFFFFFFFFFFFFFFFFFFFFFFFFFFFFFFFFFFFFFFFFFFFFFFFFFFFFFFFFFFFFFFFFFFFFFFFFFFFFFFFFFFFFFFFFFFFFFFFFFFFFFFFFFFFFFFFFFFFFFFFFFFFFFF
310
FFFFFFFFFFFFFFFFFFFFFFFFFFFFFFFFFFFFFFFFFFFFFFFFFFFFFFFFFFFFFFFFFFFFFFFFFFFFFFFFFFFFFFFFFFFFFFFFFFFFFFFFFFFFFFFFFFFFFFFFFFFFFFFFFFFFFFFFFFFFFFFFFFFFFFFFFFFFFFFFFFFFFFFFFFFFFFFFFFFFFFFFFFFFFFFFFFFFFFFFFFFFFFFFFFFFFFFFFFFFFFFFFFFFFFFFFFFFFFFFFFFFFFFFFFFFFF
310
FFFFFFFFFFFFFFFFFFFFFFFFFFFFFFFFFFFFFFFFFFFFFFFFFFFFFFFFFFFFFFFFFFFFFFFFFFFFFFFFFFFFFFFFFFFFFFFFFFFFFFFFFFFFFFFFFFFFFFFFFFFFFFFFFFFFFFFFFFFFFFFFFFFFFFFFFFFFFFFFFFFFFFFFFFFFFFFFFFFFFFFFFFFFFFFFFFFFFFFFFFFFFFFFFFFFFFFFFFFFFFFFFFFFFFFFFFFFFFFFFFFFFFFFFFFFFF
310
FFFFFFFFFFFFFFFFFFFFFFFFFFFFFFFFFFFFFFFFFFFFFFFFFFFFFFFFFFFFFFFFFFFFFFFFFFFFFFFFFFFFFFFFFFFFFFFFFFFFFFFF0000000000000000000000000000000000000000000000000000000000FFFFFF0000000000000000000000000000000000FFFFFFFFFFFFFFFFFFFF0000FFFFFF0000000000000000000000
310
00000000000000FFFFFFFFFFFFFFFFFFFF0000FFFF000000000000000000000000000000000000FFFFFF00000000FFFFFF0000FFFF00FFFFFFFFFFFF00FFFFFF00FFFFFFFFFF00FFFFFF0000000000FFFF0000FFFF00FFFFFFFFFFFF00FFFFFF00FFFFFFFFFF00FFFFFF00FFFF0000FFFF0000FFFF00FFFFFFFFFFFF00FFFF
310
00FFFFFFFFFFFF00FFFFFF00FFFF0000FFFF0000FFFF0000000000FFFF00000000FFFFFF00000000FFFFFF00000000FFFFFF0000FFFFFFFFFFFF00FFFFFFFFFFFFFFFFFF00FFFFFFFFFFFFFFFFFFFFFFFFFF0000FFFFFFFFFFFF00FFFFFFFFFFFFFFFFFF00FFFFFFFFFFFFFFFFFFFFFFFFFF0000FFFFFFFFFFFF00FFFFFFFF
310
FFFFFFFFFF00FFFFFFFFFFFFFFFFFFFFFFFF0000FFFFFF0000000000FFFF00000000FFFFFF0000000000000000000000000000FFFFFFFF00FFFFFFFFFFFF00FFFF00FFFFFFFFFFFF00FFFFFFFFFFFFFFFFFFFFFFFFFFFF00FFFFFFFFFFFF00FFFFFF00FFFFFFFFFF00FFFFFFFFFFFFFFFFFFFFFFFFFFFF0000000000000000
310
FFFFFF00000000000000FFFFFFFFFFFFFFFFFFFFFFFFFFFFFFFFFFFFFFFFFFFFFFFFFFFFFFFFFFFFFFFFFFFFFFFFFFFFFFFFFFFFFFFFFFFFFFFFFFFFFFFFFFFFFFFFFFFFFFFFFFFFFFFFFFFFFFFFFFFFFFFFFFFFFFFFFFFFFFFFFFFFFFFFFFFFFFFFFFFFFFFFFFFFFFFFFFFFFFFFFFFFFFFFFFFFFFFFFFFFFFFFFFFFFFFFFF
310
FFFFFFFFFFFFFFFFFFFFFFFFFFFFFFFFFFFFFFFFFFFFFFFFFFFFFFFFFFFFFFFFFFFFFFFFFFFFFFFFFFFFFFFFFFFFFFFFFFFFFFFFFFFFFFFF
102
{BLKREFS
331
2A86
102
}
  0
BLOCK_RECORD
  5
2A85
330
27A2
100
AcDbSymbolTableRecord
100
AcDbBlockTableRecord
  2
HD Logo
340
0
310
2800000020000000200000000100080000000000000400000000000000000000000000000000000000000000000080000080000000808000800000008000800080800000C0C0C000C0DCC000F0CAA6000020400000206000002080000020A0000020C0000020E00000400000004020000040400000406000004080000040A0
310
000040C0000040E00000600000006020000060400000606000006080000060A0000060C0000060E00000800000008020000080400000806000008080000080A0000080C0000080E00000A0000000A0200000A0400000A0600000A0800000A0A00000A0C00000A0E00000C0000000C0200000C0400000C0600000C0800000C0
310
A00000C0C00000C0E00000E0000000E0200000E0400000E0600000E0800000E0A00000E0C00000E0E00040000000400020004000400040006000400080004000A0004000C0004000E00040200000402020004020400040206000402080004020A0004020C0004020E000404000004040200040404000404060004040800040
310
40A0004040C0004040E00040600000406020004060400040606000406080004060A0004060C0004060E00040800000408020004080400040806000408080004080A0004080C0004080E00040A0000040A0200040A0400040A0600040A0800040A0A00040A0C00040A0E00040C0000040C0200040C0400040C0600040C08000
310
40C0A00040C0C00040C0E00040E0000040E0200040E0400040E0600040E0800040E0A00040E0C00040E0E00080000000800020008000400080006000800080008000A0008000C0008000E00080200000802020008020400080206000802080008020A0008020C0008020E00080400000804020008040400080406000804080
310
008040A0008040C0008040E00080600000806020008060400080606000806080008060A0008060C0008060E00080800000808020008080400080806000808080008080A0008080C0008080E00080A0000080A0200080A0400080A0600080A0800080A0A00080A0C00080A0E00080C0000080C0200080C0400080C0600080C0
310
800080C0A00080C0C00080C0E00080E0000080E0200080E0400080E0600080E0800080E0A00080E0C00080E0E000C0000000C0002000C0004000C0006000C0008000C000A000C000C000C000E000C0200000C0202000C0204000C0206000C0208000C020A000C020C000C020E000C0400000C0402000C0404000C0406000C0
310
408000C040A000C040C000C040E000C0600000C0602000C0604000C0606000C0608000C060A000C060C000C060E000C0800000C0802000C0804000C0806000C0808000C080A000C080C000C080E000C0A00000C0A02000C0A04000C0A06000C0A08000C0A0A000C0A0C000C0A0E000C0C00000C0C02000C0C04000C0C06000
310
C0C08000C0C0A000F0FBFF00A4A0A000808080000000FF0000FF000000FFFF00FF000000FF00FF00FFFF0000FFFFFF00FFFFFFFFFFFFFFFFFFFFFFFFFFFFFFFFFFFFFFFFFFFFFFFFFFFFFFFFFFFFFFFFFFFFFFFFFFFFFFFFFFFFFFFFFFFFFFFFFFFFFFFFFFFFFFFFFFFFFFFFFFFFFFFFFFFFFFFFFFFFFFFFFFFFFFFFFFFFFF
310
FFFFFFFFFFFFFFFFFFFFFFFFFFFFFFFFFFFFFFFFFFFFFFFFFFFFFFFFFFFFFFFFFFFFFFFFFFFFFFFFFFFFFFFFFFFFFFFFFFFFFFFFFFFFFFFFFFFFFFFFFFFFFFFFFFFFFFFFFFFFFFFFFFFFFFFFFFFFFFFFFFFFFFFFFFFFFFFFFFFFFFFFFFFFFFFFFFFFFFFFFFFFFFFFFFFFFFFFFFFFFFFFFFFFFFFFFFFFFFFFFFFFFFFFFFFFFF
310
FFFFFFFFFFFFFFFFFFFFFFFFFFFFFFFFFFFFFFFFFFFFFFFFFFFFFFFFFFFFFFFFFFFFFFFFFFFFFFFFFFFFFFFFFFFFFFFFFFFFFFFFFFFFFFFFFFFFFFFFFFFFFFFFFFFFFFFFFFFFFFFFFFFFFFFFFFFFFFFFFFFFFFFFFFFFFFFFFFFFFFFFFFFFFFFFFFFFFFFFFFFFFFFFFFFFFFFFFFFFFFFFFFFFFFFFFFFFFFFFFFFFFFFFFFFFFF
310
FFFFFFFFFFFFFFFFFFFFFFFFFFFFFFFFFFFFFFFFFFFFFFFFFFFFFFFFFFFFFFFFFFFFFFFFFFFFFFFFFFFFFFFFFFFFFFFFFFFFFFFF0000000000000000000000000000000000000000000000000000000000FFFFFF0000000000000000000000000000000000FFFFFFFFFFFFFFFFFFFF0000FFFFFF0000000000000000000000
310
00000000000000FFFFFFFFFFFFFFFFFFFF0000FFFF000000000000000000000000000000000000FFFFFF00000000FFFFFF0000FFFF00FFFFFFFFFFFF00FFFFFF00FFFFFFFFFF00FFFFFF0000000000FFFF0000FFFF00FFFFFFFFFFFF00FFFFFF00FFFFFFFFFF00FFFFFF00FFFF0000FFFF0000FFFF00FFFFFFFFFFFF00FFFF
310
00FFFFFFFFFFFF00FFFFFF00FFFF0000FFFF0000FFFF0000000000FFFF00000000FFFFFF00000000FFFFFF00000000FFFFFF0000FFFFFFFFFFFF00FFFFFFFFFFFFFFFFFF00FFFFFFFFFFFFFFFFFFFFFFFFFF0000FFFFFFFFFFFF00FFFFFFFFFFFFFFFFFF00FFFFFFFFFFFFFFFFFFFFFFFFFF0000FFFFFFFFFFFF00FFFFFFFF
310
FFFFFFFFFF00FFFFFFFFFFFFFFFFFFFFFFFF0000FFFFFF0000000000FFFF00000000FFFFFF0000000000000000000000000000FFFFFFFF00FFFFFFFFFFFF00FFFF00FFFFFFFFFFFF00FFFFFFFFFFFFFFFFFFFFFFFFFFFF00FFFFFFFFFFFF00FFFFFF00FFFFFFFFFF00FFFFFFFFFFFFFFFFFFFFFFFFFFFF0000000000000000
310
FFFFFF00000000000000FFFFFFFFFFFFFFFFFFFFFFFFFFFFFFFFFFFFFFFFFFFFFFFFFFFFFFFFFFFFFFFFFFFFFFFFFFFFFFFFFFFFFFFFFFFFFFFFFFFFFFFFFFFFFFFFFFFFFFFFFFFFFFFFFFFFFFFFFFFFFFFFFFFFFFFFFFFFFFFFFFFFFFFFFFFFFFFFFFFFFFFFFFFFFFFFFFFFFFFFFFFFFFFFFFFFFFFFFFFFFFFFFFFFFFFFFF
310
FFFFFFFFFFFFFFFFFFFFFFFFFFFFFFFFFFFFFFFFFFFFFFFFFFFFFFFFFFFFFFFFFFFFFFFFFFFFFFFFFFFFFFFFFFFFFFFFFFFFFFFFFFFFFFFF
102
{BLKREFS
331
2A8C
331
2A90
102
}
  0
BLOCK_RECORD
  5
2A9D
330
27A2
100
AcDbSymbolTableRecord
100
AcDbBlockTableRecord
  2
Harmonic Drive LLC
340
0
310
2800000020000000200000000100080000000000000400000000000000000000000000000000000000000000000080000080000000808000800000008000800080800000C0C0C000C0DCC000F0CAA6000020400000206000002080000020A0000020C0000020E00000400000004020000040400000406000004080000040A0
310
000040C0000040E00000600000006020000060400000606000006080000060A0000060C0000060E00000800000008020000080400000806000008080000080A0000080C0000080E00000A0000000A0200000A0400000A0600000A0800000A0A00000A0C00000A0E00000C0000000C0200000C0400000C0600000C0800000C0
310
A00000C0C00000C0E00000E0000000E0200000E0400000E0600000E0800000E0A00000E0C00000E0E00040000000400020004000400040006000400080004000A0004000C0004000E00040200000402020004020400040206000402080004020A0004020C0004020E000404000004040200040404000404060004040800040
310
40A0004040C0004040E00040600000406020004060400040606000406080004060A0004060C0004060E00040800000408020004080400040806000408080004080A0004080C0004080E00040A0000040A0200040A0400040A0600040A0800040A0A00040A0C00040A0E00040C0000040C0200040C0400040C0600040C08000
310
40C0A00040C0C00040C0E00040E0000040E0200040E0400040E0600040E0800040E0A00040E0C00040E0E00080000000800020008000400080006000800080008000A0008000C0008000E00080200000802020008020400080206000802080008020A0008020C0008020E00080400000804020008040400080406000804080
310
008040A0008040C0008040E00080600000806020008060400080606000806080008060A0008060C0008060E00080800000808020008080400080806000808080008080A0008080C0008080E00080A0000080A0200080A0400080A0600080A0800080A0A00080A0C00080A0E00080C0000080C0200080C0400080C0600080C0
310
800080C0A00080C0C00080C0E00080E0000080E0200080E0400080E0600080E0800080E0A00080E0C00080E0E000C0000000C0002000C0004000C0006000C0008000C000A000C000C000C000E000C0200000C0202000C0204000C0206000C0208000C020A000C020C000C020E000C0400000C0402000C0404000C0406000C0
310
408000C040A000C040C000C040E000C0600000C0602000C0604000C0606000C0608000C060A000C060C000C060E000C0800000C0802000C0804000C0806000C0808000C080A000C080C000C080E000C0A00000C0A02000C0A04000C0A06000C0A08000C0A0A000C0A0C000C0A0E000C0C00000C0C02000C0C04000C0C06000
310
C0C08000C0C0A000F0FBFF00A4A0A000808080000000FF0000FF000000FFFF00FF000000FF00FF00FFFF0000FFFFFF00FFFFFFFFFFFFFFFFFFFFFFFFFFFFFFFFFFFFFFFFFFFFFFFFFFFFFFFFFFFFFFFFFFFFFFFFFFFFFFFFFFFFFFFFFFFFFFFFFFFFFFFFFFFFFFFFFFFFFFFFFFFFFFFFFFFFFFFFFFFFFFFFFFFFFFFFFFFFFF
310
FFFFFFFFFFFFFFFFFFFFFFFFFFFFFFFFFFFFFFFFFFFFFFFFFFFFFFFFFFFFFFFFFFFFFFFFFFFFFFFFFFFFFFFFFFFFFFFFFFFFFFFFFFFFFFFFFFFFFFFFFFFFFFFFFFFFFFFFFFFFFFFFFFFFFFFFFFFFFFFFFFFFFFFFFFFFFFFFFFFFFFFFFFFFFFFFFFFFFFFFFFFFFFFFFFFFFFFFFFFFFFFFFFFFFFFFFFFFFFFFFFFFFFFFFFFFFF
310
FFFFFFFFFFFFFFFFFFFFFFFFFFFFFFFFFFFFFFFFFFFFFFFFFFFFFFFFFFFFFFFFFFFFFFFFFFFFFFFFFFFFFFFFFFFFFFFFFFFFFFFFFFFFFFFFFFFFFFFFFFFFFFFFFFFFFFFFFFFFFFFFFFFFFFFFFFFFFFFFFFFFFFFFFFFFFFFFFFFFFFFFFFFFFFFFFFFFFFFFFFFFFFFFFFFFFFFFFFFFFFFFFFFFFFFFFFFFFFFFFFFFFFFFFFFFFF
310
FFFFFFFFFFFFFFFFFFFFFFFFFFFFFFFFFFFFFFFFFFFFFFFFFFFFFFFFFFFFFFFFFFFFFFFFFFFFFFFFFFFFFFFFFFFFFFFFFFFFFFFFFFFFFFFFFFFFFFFFFFFFFFFFFFFFFFFFFFFFFFFFFFFFFFFFFFFFFFFFFFFFFFFFFFFFFFFFFFFFFFFF0000000000000000000000000000FFFFFFFFFFFFFFFFFFFFFFFFFFFFFFFFFFFF000000
310
0000000000000000000000FFFFFFFFFFFFFFFFFFFFFFFFFFFFFFFFFFFFFFFFFF000000000000000000FFFFFFFFFFFFFFFFFFFFFFFFFFFFFFFFFFFFFFFFFFFFFF000000000000000000FFFFFFFFFFFFFFFFFFFFFFFFFFFFFFFFFFFFFFFFFF000000000000000000000000FFFFFFFFFFFFFFFFFFFFFFFFFFFFFFFFFFFFFFFF00
310
FFFFFF00FF0000FF000000FFFFFFFFFFFFFFFFFFFFFFFFFFFFFFFFFFFFFFFFFFFFFFFFFFFFFFFFFFFFFFFFFFFFFFFFFFFFFFFFFFFFFFFFFFFFFFFFFFFFFFFFFFFFFFFFFFFFFFFFFFFFFFFFFFFFFFFFFFFFFFFFFFFFFFFFFFFFFFFFFFFFFFFFFFFFFFFFFFFFFFFFFFFFFFFFFFFFFFFFFFFFFFFFFFFFFFFFFFFFFFFFFFFFFFFF
310
FFFFFFFFFFFFFFFFFFFFFFFFFFFFFFFFFFFFFFFFFFFFFFFFFFFFFFFFFFFFFFFFFFFFFFFFFFFFFFFFFFFFFFFFFFFFFFFFFFFFFFFFFFFFFFFFFFFFFFFFFFFFFFFFFFFFFFFFFFFFFFFFFFFFFFFFFFFFFFFFFFFFFFFFFFFFFFFFFFFFFFFFFFFFFFFFFFFFFFFFFFFFFFFFFFFFFFFFFFFFFFFFFFFFFFFFFFFFFFFFFFFFFFFFFFFFFF
310
FFFFFFFFFFFFFFFFFFFFFFFFFFFFFFFFFFFFFFFFFFFFFFFFFFFFFFFFFFFFFFFFFFFFFFFFFFFFFFFFFFFFFFFFFFFFFFFFFFFFFFFFFFFFFFFFFFFFFFFFFFFFFFFFFFFFFFFFFFFFFFFFFFFFFFFFFFFFFFFFFFFFFFFFFFFFFFFFFFFFFFFFFFFFFFFFFFFFFFFFFFFFFFFFFFFFFFFFFFFFFFFFFFFFFFFFFFFFFFFFFFFFFFFFFFFFFF
310
FFFFFFFFFFFFFFFFFFFFFFFFFFFFFFFFFFFFFFFFFFFFFFFFFFFFFFFFFFFFFFFFFFFFFFFFFFFFFFFFFFFFFFFFFFFFFFFFFFFFFFFFFFFFFFFF
102
{BLKREFS
331
2AA2
331
2AA7
102
}
  0
BLOCK_RECORD
  5
2AB0
330
27A2
100
AcDbSymbolTableRecord
100
AcDbBlockTableRecord
  2
HD LLC
340
0
310
2800000020000000200000000100080000000000000400000000000000000000000000000000000000000000000080000080000000808000800000008000800080800000C0C0C000C0DCC000F0CAA6000020400000206000002080000020A0000020C0000020E00000400000004020000040400000406000004080000040A0
310
000040C0000040E00000600000006020000060400000606000006080000060A0000060C0000060E00000800000008020000080400000806000008080000080A0000080C0000080E00000A0000000A0200000A0400000A0600000A0800000A0A00000A0C00000A0E00000C0000000C0200000C0400000C0600000C0800000C0
310
A00000C0C00000C0E00000E0000000E0200000E0400000E0600000E0800000E0A00000E0C00000E0E00040000000400020004000400040006000400080004000A0004000C0004000E00040200000402020004020400040206000402080004020A0004020C0004020E000404000004040200040404000404060004040800040
310
40A0004040C0004040E00040600000406020004060400040606000406080004060A0004060C0004060E00040800000408020004080400040806000408080004080A0004080C0004080E00040A0000040A0200040A0400040A0600040A0800040A0A00040A0C00040A0E00040C0000040C0200040C0400040C0600040C08000
310
40C0A00040C0C00040C0E00040E0000040E0200040E0400040E0600040E0800040E0A00040E0C00040E0E00080000000800020008000400080006000800080008000A0008000C0008000E00080200000802020008020400080206000802080008020A0008020C0008020E00080400000804020008040400080406000804080
310
008040A0008040C0008040E00080600000806020008060400080606000806080008060A0008060C0008060E00080800000808020008080400080806000808080008080A0008080C0008080E00080A0000080A0200080A0400080A0600080A0800080A0A00080A0C00080A0E00080C0000080C0200080C0400080C0600080C0
310
800080C0A00080C0C00080C0E00080E0000080E0200080E0400080E0600080E0800080E0A00080E0C00080E0E000C0000000C0002000C0004000C0006000C0008000C000A000C000C000C000E000C0200000C0202000C0204000C0206000C0208000C020A000C020C000C020E000C0400000C0402000C0404000C0406000C0
310
408000C040A000C040C000C040E000C0600000C0602000C0604000C0606000C0608000C060A000C060C000C060E000C0800000C0802000C0804000C0806000C0808000C080A000C080C000C080E000C0A00000C0A02000C0A04000C0A06000C0A08000C0A0A000C0A0C000C0A0E000C0C00000C0C02000C0C04000C0C06000
310
C0C08000C0C0A000F0FBFF00A4A0A000808080000000FF0000FF000000FFFF00FF000000FF00FF00FFFF0000FFFFFF00FFFFFFFFFFFFFFFFFFFFFFFFFFFFFFFFFFFFFFFFFFFFFFFFFFFFFFFFFFFFFFFFFFFFFFFFFFFFFFFFFFFFFFFFFFFFFFFFFFFFFFFFFFFFFFFFFFFFFFFFFFFFFFFFFFFFFFFFFFFFFFFFFFFFFFFFFFFFFF
310
FFFFFFFFFFFFFFFFFFFFFFFFFFFFFFFFFFFFFFFFFFFFFFFFFFFFFFFFFFFFFFFFFFFFFFFFFFFFFFFFFFFFFFFFFFFFFFFFFFFFFFFFFFFFFFFFFFFFFFFFFFFFFFFFFFFFFFFFFFFFFFFFFFFFFFFFFFFFFFFFFFFFFFFFFFFFFFFFFFFFFFFFFFFFFFFFFFFFFFFFFFFFFFFFFFFFFFFFFFFFFFFFFFFFFFFFFFFFFFFFFFFFFFFFFFFFFF
310
FFFFFFFFFFFFFFFFFFFFFFFFFFFFFFFFFFFFFFFFFFFFFFFFFFFFFFFFFFFFFFFFFFFFFFFFFFFFFFFFFFFFFFFFFFFFFFFFFFFFFFFFFFFFFFFFFFFFFFFFFFFFFFFFFFFFFFFFFFFFFFFFFFFFFFFFFFFFFFFFFFFFFFFFFFFFFFFFFFFFFFFFFFFFFFFFFFFFFFFFFFFFFFFFFFFFFFFFFFFFFFFFFFFFFFFFFFFFFFFFFFFFFFFFFFFFFF
310
FFFFFFFFFFFFFFFFFFFFFFFFFFFFFFFFFFFFFFFFFFFFFFFFFFFFFFFFFFFFFFFFFFFFFFFFFFFFFFFFFFFFFFFFFFFFFFFFFFFFFFFFFFFFFFFFFFFFFFFFFFFFFFFFFFFFFFFFFFFFFFFFFFFFFFFFFFFFFFFFFFFFFFFFFFFFFFFFFFFFFFFFFFFFFFFFFFFFFFFFFFFFFFFFFFFFFFFFFFFFFFFFFFFFFFFFFFFFFFFFFFFFFFFFFFFF00
310
000000000000000000FFFFFFFFFFFFFFFFFFFFFFFFFFFFFFFFFFFFFFFFFFFF00000000000000000000FFFFFFFFFFFFFFFFFFFFFFFFFFFFFFFFFFFFFFFFFFFF00000000000000000000FFFFFFFFFFFFFFFFFFFFFFFFFFFFFFFFFFFFFFFFFFFF00000000000000000000FFFFFFFFFFFFFFFFFFFFFFFFFFFFFFFFFFFFFFFFFFFF
310
FFFFFFFFFFFFFFFFFFFFFFFFFFFFFFFFFFFFFFFFFFFFFFFFFFFFFFFFFFFFFFFFFFFFFFFFFFFFFFFFFFFFFFFFFFFFFFFFFFFFFFFFFFFFFFFFFFFFFFFFFFFFFFFFFFFFFFFFFFFFFFFFFFFFFFFFFFFFFFFFFFFFFFFFFFFFFFFFFFFFFFFFFFFFFFFFFFFFFFFFFFFFFFFFFFFFFFFFFFFFFFFFFFFFFFFFFFFFFFFFFFFFFFFFFFFFFF
310
FFFFFFFFFFFFFFFFFFFFFFFFFFFFFFFFFFFFFFFFFFFFFFFFFFFFFFFFFFFFFFFFFFFFFFFFFFFFFFFFFFFFFFFFFFFFFFFFFFFFFFFFFFFFFFFFFFFFFFFFFFFFFFFFFFFFFFFFFFFFFFFFFFFFFFFFFFFFFFFFFFFFFFFFFFFFFFFFFFFFFFFFFFFFFFFFFFFFFFFFFFFFFFFFFFFFFFFFFFFFFFFFFFFFFFFFFFFFFFFFFFFFFFFFFFFFFF
310
FFFFFFFFFFFFFFFFFFFFFFFFFFFFFFFFFFFFFFFFFFFFFFFFFFFFFFFFFFFFFFFFFFFFFFFFFFFFFFFFFFFFFFFFFFFFFFFFFFFFFFFFFFFFFFFFFFFFFFFFFFFFFFFFFFFFFFFFFFFFFFFFFFFFFFFFFFFFFFFFFFFFFFFFFFFFFFFFFFFFFFFFFFFFFFFFFFFFFFFFFFFFFFFFFFFFFFFFFFFFFFFFFFFFFFFFFFFFFFFFFFFFFFFFFFFFFF
310
FFFFFFFFFFFFFFFFFFFFFFFFFFFFFFFFFFFFFFFFFFFFFFFFFFFFFFFFFFFFFFFFFFFFFFFFFFFFFFFFFFFFFFFFFFFFFFFFFFFFFFFFFFFFFFFF
102
{BLKREFS
331
2AB5
331
2AB9
102
}
  0
BLOCK_RECORD
  5
2ABA
330
27A2
100
AcDbSymbolTableRecord
100
AcDbBlockTableRecord
  2
NTC
340
0
310
2800000020000000200000000100080000000000000400000000000000000000000000000000000000000000000080000080000000808000800000008000800080800000C0C0C000C0DCC000F0CAA6000020400000206000002080000020A0000020C0000020E00000400000004020000040400000406000004080000040A0
310
000040C0000040E00000600000006020000060400000606000006080000060A0000060C0000060E00000800000008020000080400000806000008080000080A0000080C0000080E00000A0000000A0200000A0400000A0600000A0800000A0A00000A0C00000A0E00000C0000000C0200000C0400000C0600000C0800000C0
310
A00000C0C00000C0E00000E0000000E0200000E0400000E0600000E0800000E0A00000E0C00000E0E00040000000400020004000400040006000400080004000A0004000C0004000E00040200000402020004020400040206000402080004020A0004020C0004020E000404000004040200040404000404060004040800040
310
40A0004040C0004040E00040600000406020004060400040606000406080004060A0004060C0004060E00040800000408020004080400040806000408080004080A0004080C0004080E00040A0000040A0200040A0400040A0600040A0800040A0A00040A0C00040A0E00040C0000040C0200040C0400040C0600040C08000
310
40C0A00040C0C00040C0E00040E0000040E0200040E0400040E0600040E0800040E0A00040E0C00040E0E00080000000800020008000400080006000800080008000A0008000C0008000E00080200000802020008020400080206000802080008020A0008020C0008020E00080400000804020008040400080406000804080
310
008040A0008040C0008040E00080600000806020008060400080606000806080008060A0008060C0008060E00080800000808020008080400080806000808080008080A0008080C0008080E00080A0000080A0200080A0400080A0600080A0800080A0A00080A0C00080A0E00080C0000080C0200080C0400080C0600080C0
310
800080C0A00080C0C00080C0E00080E0000080E0200080E0400080E0600080E0800080E0A00080E0C00080E0E000C0000000C0002000C0004000C0006000C0008000C000A000C000C000C000E000C0200000C0202000C0204000C0206000C0208000C020A000C020C000C020E000C0400000C0402000C0404000C0406000C0
310
408000C040A000C040C000C040E000C0600000C0602000C0604000C0606000C0608000C060A000C060C000C060E000C0800000C0802000C0804000C0806000C0808000C080A000C080C000C080E000C0A00000C0A02000C0A04000C0A06000C0A08000C0A0A000C0A0C000C0A0E000C0C00000C0C02000C0C04000C0C06000
310
C0C08000C0C0A000F0FBFF00A4A0A000808080000000FF0000FF000000FFFF00FF000000FF00FF00FFFF0000FFFFFF00FFFFFFFFFFFFFFFFFFFFFFFFFFFFFFFFFFFFFFFFFFFFFFFFFFFFFFFFFFFFFFFFFFFFFFFFFFFFFFFFFFFFFFFFFFFFFFFFFFFFFFFFFFFFFFFFFFFFFFFFFFFFFFFFFFFFFFFFFFFFFFFFFFFFFFFFFFFFFF
310
FFFFFFFFFFFFFFFFFFFFFFFFFFFFFFFFFFFFFFFFFFFFFFFFFFFFFFFFFFFFFFFFFFFFFFFFFFFFFFFFFFFFFFFFFFFFFFFFFFFFFFFFFFFFFFFFFFFFFFFFFFFFFFFFFFFFFFFFFFFFFFFFFFFFFFFFFFFFFFFFFFFFFFFFFFFFFFFFFFFFFFFFFFFFFFFFFFFFFFFFFFFFFFFFFFFFFFFFFFFFFFFFFFFFFFFFFFFFFFFFFFFFFFFFFFFFFF
310
FFFFFFFFFFFFFFFFFFFFFFFFFFFFFFFFFFFFFFFFFFFFFFFFFFFFFFFFFFFFFFFFFFFFFFFFFFFFFFFFFFFFFFFFFFFFFFFFFFFFFFFFFFFFFFFFFFFFFFFFFFFFFFFFFFFFFFFFFFFFFFFFFFFFFFFFFFFFFFFFFFFFFFFFFFFFFFFFFFFFFFFFFFFFFFFFFFFFFFFFFFFFFFFFFFFFFFFFFFFFFFFFFFFFFFFFFFFFFFFFFFFFFFFFFFFFFF
310
FFFFFFFFFFFFFFFFFFFFFFFFFFFFFFFFFFFFFFFF000000000000000000000000000000000000000000000000000000000000FFFF00FF0000000000000000FFFFFFFFFFFFFFFFFFFFFFFFFFFFFFFFFFFFFF00FFFF00FF0000000000000000FFFFFFFFFFFFFFFFFFFFFFFFFFFFFFFFFFFFFF00FFFF00FF000000000000000000
310
00000000000000000000000000FFFFFFFFFF00FFFF00FF0000000000000000000000000000000000000000000000000000FF00FFFF00FF0000000000000000000000000000000000000000000000000000FF00FFFF00FF0000000000000000000000000000000000000000000000000000FF00FFFF00FF0000000000000000
310
00000000000000000000000000000000FFFFFF00FFFF00FF0000000000FFFFFFFFFFFFFFFFFFFFFFFFFFFFFFFFFFFFFFFFFFFF00FFFF000000000000000000000000000000000000000000000000000000000000FFFFFFFFFFFFFFFFFFFFFFFFFFFFFFFFFFFFFFFFFFFFFFFFFFFFFFFFFFFFFFFFFFFFFFFFFFFFFFFFFFFFFF
310
FFFFFFFFFFFFFFFFFFFFFFFFFFFFFFFFFFFFFFFFFFFFFFFFFFFFFFFFFFFFFFFFFFFFFFFFFFFFFFFFFFFFFFFFFFFFFFFFFFFFFFFFFFFFFFFFFFFFFFFFFFFFFFFFFFFFFFFFFFFFFFFFFFFFFFFFFFFFFFFFFFFFFFFFFFFFFFFFFFFFFFFFFFFFFFFFFFFFFFFFFFFFFFFFFFFFFFFFFFFFFFFFFFFFFFFFFFFFFFFFFFFFFFFFFFFFFF
310
FFFFFFFFFFFFFFFFFFFFFFFFFFFFFFFFFFFFFFFFFFFFFFFFFFFFFFFFFFFFFFFFFFFFFFFFFFFFFFFFFFFFFFFFFFFFFFFFFFFFFFFFFFFFFFFFFFFFFFFFFFFFFFFFFFFFFFFFFFFFFFFFFFFFFFFFFFFFFFFFFFFFFFFFFFFFFFFFFFFFFFFFFFFFFFFFFFFFFFFFFFFFFFFFFFFFFFFFFFFFFFFFFFFFFFFFFFFFFFFFFFFFFFFFFFFFFF
310
FFFFFFFFFFFFFFFFFFFFFFFFFFFFFFFFFFFFFFFFFFFFFFFFFFFFFFFFFFFFFFFFFFFFFFFFFFFFFFFFFFFFFFFFFFFFFFFFFFFFFFFFFFFFFFFF
102
{BLKREFS
331
2AC0
331
2AC6
102
}
  0
ENDTAB
  0
ENDSEC
  0
SECTION
  2
BLOCKS
  0
BLOCK
  5
27C0
330
27BF
100
AcDbEntity
  8
0
100
AcDbBlockBegin
  2
*Model_Space
 70
     0
 10
0.0
 20
0.0
 30
0.0
  3
*Model_Space
  1

  0
ENDBLK
  5
27C1
330
27BF
100
AcDbEntity
  8
0
100
AcDbBlockEnd
  0
BLOCK
  5
27BC
330
27BB
100
AcDbEntity
 67
     1
  8
0
100
AcDbBlockBegin
  2
*Paper_Space
 70
     0
 10
0.0
 20
0.0
 30
0.0
  3
*Paper_Space
  1

  0
ENDBLK
  5
27BD
330
27BB
100
AcDbEntity
 67
     1
  8
0
100
AcDbBlockEnd
  0
BLOCK
  5
27DA
330
27D9
100
AcDbEntity
  8
0
100
AcDbBlockBegin
  2
$MODEL_SPACE
 70
     0
 10
0.0
 20
0.0
 30
0.0
  3
$MODEL_SPACE
  1

  0
ENDBLK
  5
27DB
330
27D9
100
AcDbEntity
  8
0
100
AcDbBlockEnd
  0
BLOCK
  5
27DD
330
27DC
100
AcDbEntity
  8
0
100
AcDbBlockBegin
  2
$PAPER_SPACE
 70
     0
 10
0.0
 20
0.0
 30
0.0
  3
$PAPER_SPACE
  1

  0
ENDBLK
  5
27DE
330
27DC
100
AcDbEntity
  8
0
100
AcDbBlockEnd
  0
BLOCK
  5
2A20
330
2A1D
100
AcDbEntity
  8
0
 62
     7
100
AcDbBlockBegin
  2
AI9-BLK14
 70
     0
 10
0.0
 20
0.0
 30
0.0
  3
AI9-BLK14
  1

  0
SPLINE
  5
2A1E
330
2A1D
100
AcDbEntity
  8
LAYER_1
 62
     7
100
AcDbSpline
210
0.0
220
0.0
230
1.0
 70
    11
 71
     3
 72
    23
 73
    19
 74
     0
 42
0.0000000001
 43
0.0000000001
 40
0.0
 40
0.0
 40
0.0
 40
0.0
 40
1.0
 40
1.0
 40
1.0
 40
2.0
 40
2.0
 40
2.0
 40
3.0
 40
3.0
 40
3.0
 40
4.0
 40
4.0
 40
4.0
 40
5.0
 40
5.0
 40
5.0
 40
6.0
 40
6.0
 40
6.0
 40
6.0
 10
-10.90321044921874
 20
10.88107571072048
 30
0.0
 10
-10.90321044921874
 20
10.88107571072048
 30
0.0
 10
-10.90321044921874
 20
-10.88107571072048
 30
0.0
 10
-10.90321044921874
 20
-10.88107571072048
 30
0.0
 10
-10.90321044921874
 20
-10.88107571072048
 30
0.0
 10
1.752692328559025
 20
-10.88107571072048
 30
0.0
 10
1.752692328559025
 20
-10.88107571072048
 30
0.0
 10
3.280592176649305
 20
-10.88107571072048
 30
0.0
 10
10.90321044921874
 20
-10.32383151584201
 30
0.0
 10
10.90321044921874
 20
0.6792867024739583
 30
0.0
 10
10.90321044921874
 20
10.61700914171006
 30
0.0
 10
2.773129611545138
 20
10.87952541775172
 30
0.0
 10
2.691136338975693
 20
10.88090345594618
 30
0.0
 10
2.691136338975693
 20
10.88090345594618
 30
0.0
 10
-9.903099229600693
 20
10.88107571072048
 30
0.0
 10
-9.903099229600693
 20
10.88107571072048
 30
0.0
 10
-9.903099229600693
 20
10.88107571072048
 30
0.0
 10
-10.90321044921874
 20
10.88107571072048
 30
0.0
 10
-10.90321044921874
 20
10.88107571072048
 30
0.0
  0
SPLINE
  5
2A1F
330
2A1D
100
AcDbEntity
  8
LAYER_1
 62
     7
100
AcDbSpline
210
0.0
220
0.0
230
1.0
 70
    11
 71
     3
 72
    20
 73
    16
 74
     0
 42
0.0000000001
 43
0.0000000001
 40
0.0
 40
0.0
 40
0.0
 40
0.0
 40
1.0
 40
1.0
 40
1.0
 40
2.0
 40
2.0
 40
2.0
 40
3.0
 40
3.0
 40
3.0
 40
4.0
 40
4.0
 40
4.0
 40
5.0
 40
5.0
 40
5.0
 40
5.0
 10
2.672877332899305
 20
8.881197781032986
 30
0.0
 10
2.905421278211805
 20
8.874307590060762
 30
0.0
 10
8.902988009982637
 20
8.616442192925347
 30
0.0
 10
8.902988009982637
 20
0.6792867024739583
 30
0.0
 10
8.902988009982637
 20
-8.191661919487842
 30
0.0
 10
3.430109320746526
 20
-8.881197781032986
 30
0.0
 10
1.752692328559025
 20
-8.881197781032986
 30
0.0
 10
1.752692328559025
 20
-8.881197781032986
 30
0.0
 10
-7.231427680121528
 20
-8.881197781032986
 30
0.0
 10
-8.902988009982637
 20
-8.881197781032986
 30
0.0
 10
-8.902988009982637
 20
-7.174497477213541
 30
0.0
 10
-8.902988009982637
 20
7.174497477213541
 30
0.0
 10
-8.902988009982637
 20
8.881197781032986
 30
0.0
 10
-7.208690049913191
 20
8.881197781032986
 30
0.0
 10
2.672877332899305
 20
8.881197781032986
 30
0.0
 10
2.672877332899305
 20
8.881197781032986
 30
0.0
  0
ENDBLK
  5
2A21
330
2A1D
100
AcDbEntity
  8
0
100
AcDbBlockEnd
  0
BLOCK
  5
2A25
330
2A22
100
AcDbEntity
  8
0
 62
     7
100
AcDbBlockBegin
  2
AI9-BLK13
 70
     0
 10
0.0
 20
0.0
 30
0.0
  3
AI9-BLK13
  1

  0
LWPOLYLINE
  5
2A23
330
2A22
100
AcDbEntity
  8
LAYER_1
 62
     7
100
AcDbPolyline
 90
       12
 70
     1
 43
0.0
 10
-3.792361111111107
 20
10.7376736111111
 10
-2.469444444444443
 20
10.7376736111111
 10
-2.469444444444443
 20
1.874131944444444
 10
2.469444444444443
 20
1.874131944444444
 10
2.469444444444443
 20
10.7376736111111
 10
3.792361111111107
 20
10.7376736111111
 10
3.792361111111107
 20
-10.7376736111111
 10
2.469444444444443
 20
-10.7376736111111
 10
2.469444444444443
 20
-0.6835069444444444
 10
-2.469444444444443
 20
-0.6835069444444444
 10
-2.469444444444443
 20
-10.7376736111111
 10
-3.792361111111107
 20
-10.7376736111111
  0
HATCH
  5
2A24
330
2A22
100
AcDbEntity
  8
LAYER_1
 62
     7
100
AcDbHatch
 10
0.0
 20
0.0
 30
0.0
210
0.0
220
0.0
230
1.0
  2
SOLID
 70
     1
 71
     0
 91
        1
 92
        3
 72
     0
 73
     1
 93
       12
 10
-3.792361111111107
 20
10.7376736111111
 10
-2.469444444444443
 20
10.7376736111111
 10
-2.469444444444443
 20
1.874131944444444
 10
2.469444444444443
 20
1.874131944444444
 10
2.469444444444443
 20
10.7376736111111
 10
3.792361111111107
 20
10.7376736111111
 10
3.792361111111107
 20
-10.7376736111111
 10
2.469444444444443
 20
-10.7376736111111
 10
2.469444444444443
 20
-0.6835069444444444
 10
-2.469444444444443
 20
-0.6835069444444444
 10
-2.469444444444443
 20
-10.7376736111111
 10
-3.792361111111107
 20
-10.7376736111111
 97
        0
 75
     2
 76
     1
 98
        1
 10
0.0
 20
0.0
  0
ENDBLK
  5
2A26
330
2A22
100
AcDbEntity
  8
0
100
AcDbBlockEnd
  0
BLOCK
  5
2A2A
330
2A27
100
AcDbEntity
  8
0
 62
     7
100
AcDbBlockBegin
  2
AI9-BLK11
 70
     0
 10
0.0
 20
0.0
 30
0.0
  3
AI9-BLK11
  1

  0
SPLINE
  5
2A28
330
2A27
100
AcDbEntity
  8
LAYER_1
 62
     7
100
AcDbSpline
210
0.0
220
0.0
230
1.0
 70
    11
 71
     3
 72
    26
 73
    22
 74
     0
 42
0.0000000001
 43
0.0000000001
 40
0.0
 40
0.0
 40
0.0
 40
0.0
 40
1.0
 40
1.0
 40
1.0
 40
2.0
 40
2.0
 40
2.0
 40
3.0
 40
3.0
 40
3.0
 40
4.0
 40
4.0
 40
4.0
 40
5.0
 40
5.0
 40
5.0
 40
6.0
 40
6.0
 40
6.0
 40
7.0
 40
7.0
 40
7.0
 40
7.0
 10
-2.645833333333333
 20
0.9039930555555551
 30
0.0
 10
-2.645833333333333
 20
0.9039930555555551
 30
0.0
 10
-2.645833333333333
 20
8.180034722222217
 30
0.0
 10
-2.645833333333333
 20
8.180034722222217
 30
0.0
 10
-2.645833333333333
 20
8.180034722222217
 30
0.0
 10
0.465087890625
 20
8.180034722222217
 30
0.0
 10
0.465087890625
 20
8.180034722222217
 30
0.0
 10
0.9026150173611108
 20
8.180034722222217
 30
0.0
 10
1.24988064236111
 20
8.034651692708331
 30
0.0
 10
1.506884765625
 20
7.745263671874997
 30
0.0
 10
2.001600477430554
 20
7.194048394097221
 30
0.0
 10
2.248958333333332
 20
6.160519748263887
 30
0.0
 10
2.248958333333332
 20
4.643299696180553
 30
0.0
 10
2.248958333333332
 20
3.232188585069443
 30
0.0
 10
2.072569444444444
 20
2.256537543402775
 30
0.0
 10
1.720480685763888
 20
1.715657552083333
 30
0.0
 10
1.368391927083333
 20
1.174088541666665
 30
0.0
 10
0.8929687499999998
 20
0.9039930555555551
 30
0.0
 10
0.2942111545138888
 20
0.9039930555555551
 30
0.0
 10
0.2942111545138888
 20
0.9039930555555551
 30
0.0
 10
-2.645833333333333
 20
0.9039930555555551
 30
0.0
 10
-2.645833333333333
 20
0.9039930555555551
 30
0.0
  0
SPLINE
  5
2A29
330
2A27
100
AcDbEntity
  8
LAYER_1
 62
     7
100
AcDbSpline
210
0.0
220
0.0
230
1.0
 70
    11
 71
     3
 72
    68
 73
    64
 74
     0
 42
0.0000000001
 43
0.0000000001
 40
0.0
 40
0.0
 40
0.0
 40
0.0
 40
1.0
 40
1.0
 40
1.0
 40
2.0
 40
2.0
 40
2.0
 40
3.0
 40
3.0
 40
3.0
 40
4.0
 40
4.0
 40
4.0
 40
5.0
 40
5.0
 40
5.0
 40
6.0
 40
6.0
 40
6.0
 40
7.0
 40
7.0
 40
7.0
 40
8.0
 40
8.0
 40
8.0
 40
9.0
 40
9.0
 40
9.0
 40
10.0
 40
10.0
 40
10.0
 40
11.0
 40
11.0
 40
11.0
 40
12.0
 40
12.0
 40
12.0
 40
13.0
 40
13.0
 40
13.0
 40
14.0
 40
14.0
 40
14.0
 40
15.0
 40
15.0
 40
15.0
 40
16.0
 40
16.0
 40
16.0
 40
17.0
 40
17.0
 40
17.0
 40
18.0
 40
18.0
 40
18.0
 40
19.0
 40
19.0
 40
19.0
 40
20.0
 40
20.0
 40
20.0
 40
21.0
 40
21.0
 40
21.0
 40
21.0
 10
-3.968749999999998
 20
-10.7376736111111
 30
0.0
 10
-3.968749999999998
 20
-10.7376736111111
 30
0.0
 10
-2.645833333333333
 20
-10.7376736111111
 30
0.0
 10
-2.645833333333333
 20
-10.7376736111111
 30
0.0
 10
-2.645833333333333
 20
-10.7376736111111
 30
0.0
 10
-2.645833333333333
 20
-1.521354166666665
 30
0.0
 10
-2.645833333333333
 20
-1.521354166666665
 30
0.0
 10
-2.645833333333333
 20
-1.521354166666665
 30
0.0
 10
0.2390896267361111
 20
-1.521354166666665
 30
0.0
 10
0.2390896267361111
 20
-1.521354166666665
 30
0.0
 10
0.7599880642361111
 20
-1.521354166666665
 30
0.0
 10
1.143771701388887
 20
-1.65295681423611
 30
0.0
 10
1.390440538194444
 20
-1.916162109374999
 30
0.0
 10
1.816254340277774
 20
-2.39434136284722
 30
0.0
 10
2.04363064236111
 20
-3.335541449652775
 30
0.0
 10
2.072569444444444
 20
-4.739762369791666
 30
0.0
 10
2.072569444444444
 20
-4.739762369791666
 30
0.0
 10
2.160763888888888
 20
-8.324039713541665
 30
0.0
 10
2.160763888888888
 20
-8.324039713541665
 30
0.0
 10
2.18005642361111
 20
-9.163264973958332
 30
0.0
 10
2.202794053819443
 20
-9.728949652777775
 30
0.0
 10
2.227598741319444
 20
-10.02109374999998
 30
0.0
 10
2.252403428819443
 20
-10.31392686631944
 30
0.0
 10
2.28892144097222
 20
-10.55301649305555
 30
0.0
 10
2.33853081597222
 20
-10.7376736111111
 30
0.0
 10
2.33853081597222
 20
-10.7376736111111
 30
0.0
 10
3.968749999999998
 20
-10.7376736111111
 30
0.0
 10
3.968749999999998
 20
-10.7376736111111
 30
0.0
 10
3.968749999999998
 20
-10.7376736111111
 30
0.0
 10
3.968749999999998
 20
-10.25260416666666
 30
0.0
 10
3.968749999999998
 20
-10.25260416666666
 30
0.0
 10
3.766867404513888
 20
-10.05830078125
 30
0.0
 10
3.625618489583333
 20
-9.621462673611112
 30
0.0
 10
3.545692274305555
 20
-8.942089843749997
 30
0.0
 10
3.49470486111111
 20
-8.543836805555555
 30
0.0
 10
3.459564887152775
 20
-7.937499999999999
 30
0.0
 10
3.439583333333333
 20
-7.121701388888887
 30
0.0
 10
3.439583333333333
 20
-7.121701388888887
 30
0.0
 10
3.395486111111107
 20
-4.232644314236107
 30
0.0
 10
3.395486111111107
 20
-4.232644314236107
 30
0.0
 10
3.375504557291666
 20
-2.981385633680555
 30
0.0
 10
3.26870659722222
 20
-2.077392578125
 30
0.0
 10
3.075781249999999
 20
-1.522043185763888
 30
0.0
 10
2.882166883680555
 20
-0.9666937934027776
 30
0.0
 10
2.592089843749999
 20
-0.5188313802083333
 30
0.0
 10
2.204861111111107
 20
-0.1770779079861111
 30
0.0
 10
2.63618706597222
 20
0.3197048611111111
 30
0.0
 10
2.971739366319443
 20
0.9770290798611107
 30
0.0
 10
3.211518012152775
 20
1.79558376736111
 30
0.0
 10
3.451296657986107
 20
2.613449435763888
 30
0.0
 10
3.571874999999999
 20
3.66558159722222
 30
0.0
 10
3.571874999999999
 20
4.951291232638888
 30
0.0
 10
3.571874999999999
 20
7.415912543402777
 30
0.0
 10
3.124701605902775
 20
9.106076388888887
 30
0.0
 10
2.231043836805555
 20
10.02178276909722
 30
0.0
 10
1.759754774305553
 20
10.498583984375
 30
0.0
 10
1.163753255208332
 20
10.7376736111111
 30
0.0
 10
0.443039279513889
 20
10.7376736111111
 30
0.0
 10
0.443039279513889
 20
10.7376736111111
 30
0.0
 10
-3.968749999999998
 20
10.7376736111111
 30
0.0
 10
-3.968749999999998
 20
10.7376736111111
 30
0.0
 10
-3.968749999999998
 20
10.7376736111111
 30
0.0
 10
-3.968749999999998
 20
-10.7376736111111
 30
0.0
 10
-3.968749999999998
 20
-10.7376736111111
 30
0.0
  0
ENDBLK
  5
2A2B
330
2A27
100
AcDbEntity
  8
0
100
AcDbBlockEnd
  0
BLOCK
  5
2A2E
330
2A2C
100
AcDbEntity
  8
0
 62
     7
100
AcDbBlockBegin
  2
AI9-BLK10
 70
     0
 10
0.0
 20
0.0
 30
0.0
  3
AI9-BLK10
  1

  0
SPLINE
  5
2A2D
330
2A2C
100
AcDbEntity
  8
LAYER_1
 62
     7
100
AcDbSpline
210
0.0
220
0.0
230
1.0
 70
    11
 71
     3
 72
    59
 73
    55
 74
     0
 42
0.0000000001
 43
0.0000000001
 40
0.0
 40
0.0
 40
0.0
 40
0.0
 40
1.0
 40
1.0
 40
1.0
 40
2.0
 40
2.0
 40
2.0
 40
3.0
 40
3.0
 40
3.0
 40
4.0
 40
4.0
 40
4.0
 40
5.0
 40
5.0
 40
5.0
 40
6.0
 40
6.0
 40
6.0
 40
7.0
 40
7.0
 40
7.0
 40
8.0
 40
8.0
 40
8.0
 40
9.0
 40
9.0
 40
9.0
 40
10.0
 40
10.0
 40
10.0
 40
11.0
 40
11.0
 40
11.0
 40
12.0
 40
12.0
 40
12.0
 40
13.0
 40
13.0
 40
13.0
 40
14.0
 40
14.0
 40
14.0
 40
15.0
 40
15.0
 40
15.0
 40
16.0
 40
16.0
 40
16.0
 40
17.0
 40
17.0
 40
17.0
 40
18.0
 40
18.0
 40
18.0
 40
18.0
 10
-4.652256944444443
 20
10.7376736111111
 30
0.0
 10
-4.652256944444443
 20
10.7376736111111
 30
0.0
 10
-2.798795572916666
 20
10.7376736111111
 30
0.0
 10
-2.798795572916666
 20
10.7376736111111
 30
0.0
 10
-2.798795572916666
 20
10.7376736111111
 30
0.0
 10
0.0
 20
-7.419357638888887
 30
0.0
 10
0.0
 20
-7.419357638888887
 30
0.0
 10
0.0
 20
-7.419357638888887
 30
0.0
 10
2.793283420138888
 20
10.7376736111111
 30
0.0
 10
2.793283420138888
 20
10.7376736111111
 30
0.0
 10
2.793283420138888
 20
10.7376736111111
 30
0.0
 10
4.652256944444443
 20
10.7376736111111
 30
0.0
 10
4.652256944444443
 20
10.7376736111111
 30
0.0
 10
4.652256944444443
 20
10.7376736111111
 30
0.0
 10
4.652256944444443
 20
-10.7376736111111
 30
0.0
 10
4.652256944444443
 20
-10.7376736111111
 30
0.0
 10
4.652256944444443
 20
-10.7376736111111
 30
0.0
 10
3.41753472222222
 20
-10.7376736111111
 30
0.0
 10
3.41753472222222
 20
-10.7376736111111
 30
0.0
 10
3.41753472222222
 20
-10.7376736111111
 30
0.0
 10
3.41753472222222
 20
1.936832682291665
 30
0.0
 10
3.41753472222222
 20
1.936832682291665
 30
0.0
 10
3.41753472222222
 20
2.375048828124999
 30
0.0
 10
3.424424913194443
 20
3.101274956597221
 30
0.0
 10
3.439583333333333
 20
4.11482204861111
 30
0.0
 10
3.454052734374998
 20
5.128369140624998
 30
0.0
 10
3.461631944444443
 20
6.214952256944441
 30
0.0
 10
3.461631944444443
 20
7.375260416666666
 30
0.0
 10
3.461631944444443
 20
7.375260416666666
 30
0.0
 10
0.6538791232638889
 20
-10.7376736111111
 30
0.0
 10
0.6538791232638889
 20
-10.7376736111111
 30
0.0
 10
0.6538791232638889
 20
-10.7376736111111
 30
0.0
 10
-0.6628363715277778
 20
-10.7376736111111
 30
0.0
 10
-0.6628363715277778
 20
-10.7376736111111
 30
0.0
 10
-0.6628363715277778
 20
-10.7376736111111
 30
0.0
 10
-3.461631944444443
 20
7.375260416666666
 30
0.0
 10
-3.461631944444443
 20
7.375260416666666
 30
0.0
 10
-3.461631944444443
 20
7.375260416666666
 30
0.0
 10
-3.461631944444443
 20
6.717247178819441
 30
0.0
 10
-3.461631944444443
 20
6.717247178819441
 30
0.0
 10
-3.461631944444443
 20
6.190836588541666
 30
0.0
 10
-3.45474175347222
 20
5.389507378472222
 30
0.0
 10
-3.439583333333333
 20
4.312570529513888
 30
0.0
 10
-3.425113932291666
 20
3.235633680555555
 30
0.0
 10
-3.41753472222222
 20
2.44395073784722
 30
0.0
 10
-3.41753472222222
 20
1.936832682291665
 30
0.0
 10
-3.41753472222222
 20
1.936832682291665
 30
0.0
 10
-3.41753472222222
 20
-10.7376736111111
 30
0.0
 10
-3.41753472222222
 20
-10.7376736111111
 30
0.0
 10
-3.41753472222222
 20
-10.7376736111111
 30
0.0
 10
-4.652256944444443
 20
-10.7376736111111
 30
0.0
 10
-4.652256944444443
 20
-10.7376736111111
 30
0.0
 10
-4.652256944444443
 20
-10.7376736111111
 30
0.0
 10
-4.652256944444443
 20
10.7376736111111
 30
0.0
 10
-4.652256944444443
 20
10.7376736111111
 30
0.0
  0
ENDBLK
  5
2A2F
330
2A2C
100
AcDbEntity
  8
0
100
AcDbBlockEnd
  0
BLOCK
  5
2A33
330
2A30
100
AcDbEntity
  8
0
 62
     7
100
AcDbBlockBegin
  2
AI9-BLK9
 70
     0
 10
0.0
 20
0.0
 30
0.0
  3
AI9-BLK9
  1

  0
SPLINE
  5
2A31
330
2A30
100
AcDbEntity
  8
LAYER_1
 62
     7
100
AcDbSpline
210
0.0
220
0.0
230
1.0
 70
    11
 71
     3
 72
    29
 73
    25
 74
     0
 42
0.0000000001
 43
0.0000000001
 40
0.0
 40
0.0
 40
0.0
 40
0.0
 40
1.0
 40
1.0
 40
1.0
 40
2.0
 40
2.0
 40
2.0
 40
3.0
 40
3.0
 40
3.0
 40
4.0
 40
4.0
 40
4.0
 40
5.0
 40
5.0
 40
5.0
 40
6.0
 40
6.0
 40
6.0
 40
7.0
 40
7.0
 40
7.0
 40
8.0
 40
8.0
 40
8.0
 40
8.0
 10
0.0668348524305556
 20
-8.753298611111111
 30
0.0
 10
-0.9067491319444444
 20
-8.753298611111111
 30
0.0
 10
-1.60954861111111
 20
-7.936810980902778
 30
0.0
 10
-2.041563585069444
 20
-6.30383572048611
 30
0.0
 10
-2.474267578124999
 20
-4.670860460069443
 30
0.0
 10
-2.689930555555555
 20
-2.664436848958333
 30
0.0
 10
-2.689930555555555
 20
-0.28525390625
 30
0.0
 10
-2.689930555555555
 20
2.68855251736111
 30
0.0
 10
-2.439127604166666
 20
4.938199869791666
 30
0.0
 10
-1.937521701388888
 20
6.464377170138886
 30
0.0
 10
-1.43591579861111
 20
7.989865451388887
 30
0.0
 10
-0.7827256944444444
 20
8.753298611111111
 30
0.0
 10
0.0220486111111111
 20
8.753298611111111
 30
0.0
 10
0.8468044704861108
 20
8.753298611111111
 30
0.0
 10
1.49792751736111
 20
7.982975260416663
 30
0.0
 10
1.974728732638888
 20
6.442328559027776
 30
0.0
 10
2.451529947916665
 20
4.901681857638886
 30
0.0
 10
2.689930555555555
 20
2.868386501736111
 30
0.0
 10
2.689930555555555
 20
0.3438205295138888
 30
0.0
 10
2.689930555555555
 20
-2.045697699652774
 30
0.0
 10
2.483224826388885
 20
-4.15891927083333
 30
0.0
 10
2.071191406249999
 20
-5.996533203124998
 30
0.0
 10
1.65915798611111
 20
-7.834836154513887
 30
0.0
 10
0.9908094618055557
 20
-8.753298611111111
 30
0.0
 10
0.0668348524305556
 20
-8.753298611111111
 30
0.0
  0
SPLINE
  5
2A32
330
2A30
100
AcDbEntity
  8
LAYER_1
 62
     7
100
AcDbSpline
210
0.0
220
0.0
230
1.0
 70
    11
 71
     3
 72
    29
 73
    25
 74
     0
 42
0.0000000001
 43
0.0000000001
 40
0.0
 40
0.0
 40
0.0
 40
0.0
 40
1.0
 40
1.0
 40
1.0
 40
2.0
 40
2.0
 40
2.0
 40
3.0
 40
3.0
 40
3.0
 40
4.0
 40
4.0
 40
4.0
 40
5.0
 40
5.0
 40
5.0
 40
6.0
 40
6.0
 40
6.0
 40
7.0
 40
7.0
 40
7.0
 40
8.0
 40
8.0
 40
8.0
 40
8.0
 10
-0.0289388020833333
 20
11.35503472222222
 30
0.0
 10
-1.317404513888887
 20
11.35503472222222
 30
0.0
 10
-2.28892144097222
 20
10.02798394097222
 30
0.0
 10
-2.94280056423611
 20
7.374571397569441
 30
0.0
 10
-3.450607638888888
 20
5.30613606770833
 30
0.0
 10
-3.704166666666666
 20
2.81877712673611
 30
0.0
 10
-3.704166666666666
 20
-0.0881944444444445
 30
0.0
 10
-3.704166666666666
 20
-3.307291666666666
 30
0.0
 10
-3.406510416666666
 20
-5.970350477430551
 30
0.0
 10
-2.811197916666666
 20
-8.077370876736106
 30
0.0
 10
-2.147672526041664
 20
-10.26293945312499
 30
0.0
 10
-1.229899088541666
 20
-11.35503472222222
 30
0.0
 10
-0.0585666232638889
 20
-11.35503472222222
 30
0.0
 10
1.20027126736111
 20
-11.35503472222222
 30
0.0
 10
2.166276041666665
 20
-10.10653211805555
 30
0.0
 10
2.840136718749998
 20
-7.609526909722221
 30
0.0
 10
3.416156684027776
 20
-5.483213975694441
 30
0.0
 10
3.704166666666666
 20
-2.814643012152775
 30
0.0
 10
3.704166666666666
 20
0.3948079427083333
 30
0.0
 10
3.704166666666666
 20
3.360346137152776
 30
0.0
 10
3.449918619791666
 20
5.793961588541666
 30
0.0
 10
2.94280056423611
 20
7.696343315972222
 30
0.0
 10
2.298567708333333
 20
10.13547092013888
 30
0.0
 10
1.307758246527777
 20
11.35503472222222
 30
0.0
 10
-0.0289388020833333
 20
11.35503472222222
 30
0.0
  0
ENDBLK
  5
2A34
330
2A30
100
AcDbEntity
  8
0
100
AcDbBlockEnd
  0
BLOCK
  5
2A38
330
2A35
100
AcDbEntity
  8
0
 62
     7
100
AcDbBlockBegin
  2
AI9-BLK8
 70
     0
 10
0.0
 20
0.0
 30
0.0
  3
AI9-BLK8
  1

  0
LWPOLYLINE
  5
2A36
330
2A35
100
AcDbEntity
  8
LAYER_1
 62
     7
100
AcDbPolyline
 90
       10
 70
     1
 43
0.0
 10
-3.792361111111107
 20
10.7376736111111
 10
-2.268939887152774
 20
10.7376736111111
 10
2.557638888888888
 20
-6.505718315972222
 10
2.557638888888888
 20
10.7376736111111
 10
3.792361111111107
 20
10.7376736111111
 10
3.792361111111107
 20
-10.7376736111111
 10
2.32612847222222
 20
-10.7376736111111
 10
-2.557638888888888
 20
6.549815538194441
 10
-2.557638888888888
 20
-10.7376736111111
 10
-3.792361111111107
 20
-10.7376736111111
  0
HATCH
  5
2A37
330
2A35
100
AcDbEntity
  8
LAYER_1
 62
     7
100
AcDbHatch
 10
0.0
 20
0.0
 30
0.0
210
0.0
220
0.0
230
1.0
  2
SOLID
 70
     1
 71
     0
 91
        1
 92
        3
 72
     0
 73
     1
 93
       10
 10
-3.792361111111107
 20
10.7376736111111
 10
-2.268939887152774
 20
10.7376736111111
 10
2.557638888888888
 20
-6.505718315972222
 10
2.557638888888888
 20
10.7376736111111
 10
3.792361111111107
 20
10.7376736111111
 10
3.792361111111107
 20
-10.7376736111111
 10
2.32612847222222
 20
-10.7376736111111
 10
-2.557638888888888
 20
6.549815538194441
 10
-2.557638888888888
 20
-10.7376736111111
 10
-3.792361111111107
 20
-10.7376736111111
 97
        0
 75
     2
 76
     1
 98
        1
 10
0.0
 20
0.0
  0
ENDBLK
  5
2A39
330
2A35
100
AcDbEntity
  8
0
100
AcDbBlockEnd
  0
BLOCK
  5
2A3D
330
2A3A
100
AcDbEntity
  8
0
 62
     7
100
AcDbBlockBegin
  2
AI9-BLK7
 70
     0
 10
0.0
 20
0.0
 30
0.0
  3
AI9-BLK7
  1

  0
LWPOLYLINE
  5
2A3B
330
2A3A
100
AcDbEntity
  8
LAYER_1
 62
     7
100
AcDbPolyline
 90
        4
 70
     1
 43
0.0
 10
-0.6614583333333333
 20
10.7376736111111
 10
0.6614583333333333
 20
10.7376736111111
 10
0.6614583333333333
 20
-10.7376736111111
 10
-0.6614583333333333
 20
-10.7376736111111
  0
HATCH
  5
2A3C
330
2A3A
100
AcDbEntity
  8
LAYER_1
 62
     7
100
AcDbHatch
 10
0.0
 20
0.0
 30
0.0
210
0.0
220
0.0
230
1.0
  2
SOLID
 70
     1
 71
     0
 91
        1
 92
        3
 72
     0
 73
     1
 93
        4
 10
-0.6614583333333333
 20
10.7376736111111
 10
0.6614583333333333
 20
10.7376736111111
 10
0.6614583333333333
 20
-10.7376736111111
 10
-0.6614583333333333
 20
-10.7376736111111
 97
        0
 75
     2
 76
     1
 98
        1
 10
0.0
 20
0.0
  0
ENDBLK
  5
2A3E
330
2A3A
100
AcDbEntity
  8
0
100
AcDbBlockEnd
  0
BLOCK
  5
2A41
330
2A3F
100
AcDbEntity
  8
0
 62
     7
100
AcDbBlockBegin
  2
AI9-BLK6
 70
     0
 10
0.0
 20
0.0
 30
0.0
  3
AI9-BLK6
  1

  0
SPLINE
  5
2A40
330
2A3F
100
AcDbEntity
  8
LAYER_1
 62
     7
100
AcDbSpline
210
0.0
220
0.0
230
1.0
 70
    11
 71
     3
 72
    59
 73
    55
 74
     0
 42
0.0000000001
 43
0.0000000001
 40
0.0
 40
0.0
 40
0.0
 40
0.0
 40
1.0
 40
1.0
 40
1.0
 40
2.0
 40
2.0
 40
2.0
 40
3.0
 40
3.0
 40
3.0
 40
4.0
 40
4.0
 40
4.0
 40
5.0
 40
5.0
 40
5.0
 40
6.0
 40
6.0
 40
6.0
 40
7.0
 40
7.0
 40
7.0
 40
8.0
 40
8.0
 40
8.0
 40
9.0
 40
9.0
 40
9.0
 40
10.0
 40
10.0
 40
10.0
 40
11.0
 40
11.0
 40
11.0
 40
12.0
 40
12.0
 40
12.0
 40
13.0
 40
13.0
 40
13.0
 40
14.0
 40
14.0
 40
14.0
 40
15.0
 40
15.0
 40
15.0
 40
16.0
 40
16.0
 40
16.0
 40
17.0
 40
17.0
 40
17.0
 40
18.0
 40
18.0
 40
18.0
 40
18.0
 10
3.062689887152775
 20
9.168088107638887
 30
0.0
 10
3.735172526041666
 20
7.739062499999997
 30
0.0
 10
4.110687934027776
 20
6.116422526041666
 30
0.0
 10
4.189236111111108
 20
4.299479166666666
 30
0.0
 10
4.189236111111108
 20
4.299479166666666
 30
0.0
 10
2.866319444444443
 20
4.299479166666666
 30
0.0
 10
2.866319444444443
 20
4.299479166666666
 30
0.0
 10
2.720936414930555
 20
5.667871093749997
 30
0.0
 10
2.435682508680555
 20
6.752387152777776
 30
0.0
 10
2.009868706597219
 20
7.553027343749997
 30
0.0
 10
1.584054904513888
 20
8.352978515624997
 30
0.0
 10
0.9839192708333332
 20
8.753298611111111
 30
0.0
 10
0.2101508246527778
 20
8.753298611111111
 30
0.0
 10
-0.7386284722222222
 20
8.753298611111111
 30
0.0
 10
-1.503439670138888
 20
8.010536024305555
 30
0.0
 10
-2.083593749999999
 20
6.526388888888886
 30
0.0
 10
-2.664436848958333
 20
5.042241753472221
 30
0.0
 10
-2.954513888888888
 20
2.767100694444443
 30
0.0
 10
-2.954513888888888
 20
-0.2990342881944444
 30
0.0
 10
-2.954513888888888
 20
-2.811197916666666
 30
0.0
 10
-2.693375651041666
 20
-4.847938368055555
 30
0.0
 10
-2.17041015625
 20
-6.409944661458332
 30
0.0
 10
-1.648133680555553
 20
-7.972639973958332
 30
0.0
 10
-0.8640299479166666
 20
-8.753298611111111
 30
0.0
 10
0.1812120225694444
 20
-8.753298611111111
 30
0.0
 10
1.138948567708333
 20
-8.753298611111111
 30
0.0
 10
1.865174696180553
 20
-7.927853732638887
 30
0.0
 10
2.359201388888885
 20
-6.275585937499998
 30
0.0
 10
2.62998589409722
 20
-5.406043836805555
 30
0.0
 10
2.828423394097221
 20
-4.262272135416666
 30
0.0
 10
2.954513888888888
 20
-2.844270833333331
 30
0.0
 10
2.954513888888888
 20
-2.844270833333331
 30
0.0
 10
4.277430555555555
 20
-2.844270833333331
 30
0.0
 10
4.277430555555555
 20
-2.844270833333331
 30
0.0
 10
4.169943576388888
 20
-5.109765624999996
 30
0.0
 10
3.795117187499998
 20
-7.009391276041665
 30
0.0
 10
3.151573350694443
 20
-8.542458767361106
 30
0.0
 10
2.381249999999999
 20
-10.38834092881943
 30
0.0
 10
1.347721354166665
 20
-11.3109375
 30
0.0
 10
0.0509874131944445
 20
-11.3109375
 30
0.0
 10
-1.07004665798611
 20
-11.3109375
 30
0.0
 10
-2.010557725694444
 20
-10.55577256944443
 30
0.0
 10
-2.771234809027776
 20
-9.04475368923611
 30
0.0
 10
-3.775824652777775
 20
-7.046598307291666
 30
0.0
 10
-4.277430555555555
 20
-3.961170789930555
 30
0.0
 10
-4.277430555555555
 20
0.2115288628472222
 30
0.0
 10
-4.277430555555555
 20
3.379638671874998
 30
0.0
 10
-3.902604166666666
 20
5.977929687499997
 30
0.0
 10
-3.151573350694443
 20
8.005712890624996
 30
0.0
 10
-2.333018663194443
 20
10.20919596354165
 30
0.0
 10
-1.20647243923611
 20
11.3109375
 30
0.0
 10
0.2266872829861111
 20
11.3109375
 30
0.0
 10
1.444873046875
 20
11.3109375
 30
0.0
 10
2.390207248263885
 20
10.59642469618055
 30
0.0
 10
3.062689887152775
 20
9.168088107638887
 30
0.0
  0
ENDBLK
  5
2A42
330
2A3F
100
AcDbEntity
  8
0
100
AcDbBlockEnd
  0
BLOCK
  5
2A46
330
2A43
100
AcDbEntity
  8
0
 62
     7
100
AcDbBlockBegin
  2
AI9-BLK5
 70
     0
 10
0.0
 20
0.0
 30
0.0
  3
AI9-BLK5
  1

  0
SPLINE
  5
2A44
330
2A43
100
AcDbEntity
  8
LAYER_1
 62
     7
100
AcDbSpline
210
0.0
220
0.0
230
1.0
 70
    11
 71
     3
 72
    32
 73
    28
 74
     0
 42
0.0000000001
 43
0.0000000001
 40
0.0
 40
0.0
 40
0.0
 40
0.0
 40
1.0
 40
1.0
 40
1.0
 40
2.0
 40
2.0
 40
2.0
 40
3.0
 40
3.0
 40
3.0
 40
4.0
 40
4.0
 40
4.0
 40
5.0
 40
5.0
 40
5.0
 40
6.0
 40
6.0
 40
6.0
 40
7.0
 40
7.0
 40
7.0
 40
8.0
 40
8.0
 40
8.0
 40
9.0
 40
9.0
 40
9.0
 40
9.0
 10
-2.62378472222222
 20
-8.268229166666666
 30
0.0
 10
-2.62378472222222
 20
-8.268229166666666
 30
0.0
 10
-2.62378472222222
 20
8.180034722222217
 30
0.0
 10
-2.62378472222222
 20
8.180034722222217
 30
0.0
 10
-2.62378472222222
 20
8.180034722222217
 30
0.0
 10
-0.3376193576388888
 20
8.180034722222217
 30
0.0
 10
-0.3376193576388888
 20
8.180034722222217
 30
0.0
 10
0.6972873263888888
 20
8.180034722222217
 30
0.0
 10
1.449007161458333
 20
7.445540364583332
 30
0.0
 10
1.918918185763885
 20
5.977929687499997
 30
0.0
 10
2.388829210069443
 20
4.510319010416666
 30
0.0
 10
2.62378472222222
 20
2.449462890624999
 30
0.0
 10
2.62378472222222
 20
-0.204638671875
 30
0.0
 10
2.62378472222222
 20
-0.8950358072916666
 30
0.0
 10
2.590022786458332
 20
-1.643310546874999
 30
0.0
 10
2.523187934027774
 20
-2.45015190972222
 30
0.0
 10
2.408121744791666
 20
-3.80200737847222
 30
0.0
 10
2.226220703124999
 20
-4.909950086805555
 30
0.0
 10
1.976795789930553
 20
-5.774669053819441
 30
0.0
 10
1.659847005208333
 20
-6.853672960069442
 30
0.0
 10
1.252636718749998
 20
-7.583344184027778
 30
0.0
 10
0.7544759114583333
 20
-7.962304687499997
 30
0.0
 10
0.4664659288194444
 20
-8.166254340277777
 30
0.0
 10
0.1074869791666666
 20
-8.268229166666666
 30
0.0
 10
-0.3231499565972222
 20
-8.268229166666666
 30
0.0
 10
-0.3231499565972222
 20
-8.268229166666666
 30
0.0
 10
-2.62378472222222
 20
-8.268229166666666
 30
0.0
 10
-2.62378472222222
 20
-8.268229166666666
 30
0.0
  0
SPLINE
  5
2A45
330
2A43
100
AcDbEntity
  8
LAYER_1
 62
     7
100
AcDbSpline
210
0.0
220
0.0
230
1.0
 70
    11
 71
     3
 72
    26
 73
    22
 74
     0
 42
0.0000000001
 43
0.0000000001
 40
0.0
 40
0.0
 40
0.0
 40
0.0
 40
1.0
 40
1.0
 40
1.0
 40
2.0
 40
2.0
 40
2.0
 40
3.0
 40
3.0
 40
3.0
 40
4.0
 40
4.0
 40
4.0
 40
5.0
 40
5.0
 40
5.0
 40
6.0
 40
6.0
 40
6.0
 40
7.0
 40
7.0
 40
7.0
 40
7.0
 10
-3.946701388888888
 20
-10.7376736111111
 30
0.0
 10
-3.946701388888888
 20
-10.7376736111111
 30
0.0
 10
-0.0943956163194444
 20
-10.7376736111111
 30
0.0
 10
-0.0943956163194444
 20
-10.7376736111111
 30
0.0
 10
1.546847873263885
 20
-10.7376736111111
 30
0.0
 10
2.705777994791666
 20
-9.11021050347222
 30
0.0
 10
3.381705729166666
 20
-5.854595269097222
 30
0.0
 10
3.757910156249999
 20
-4.01284722222222
 30
0.0
 10
3.946701388888888
 20
-1.951991102430555
 30
0.0
 10
3.946701388888888
 20
0.328662109375
 30
0.0
 10
3.946701388888888
 20
3.281797960069443
 30
0.0
 10
3.622862413194443
 20
5.703700086805552
 30
0.0
 10
2.976562499999998
 20
7.594368489583332
 30
0.0
 10
2.25171440972222
 20
9.689675564236106
 30
0.0
 10
1.233344184027777
 20
10.7376736111111
 30
0.0
 10
-0.0799262152777778
 20
10.7376736111111
 30
0.0
 10
-0.0799262152777778
 20
10.7376736111111
 30
0.0
 10
-3.946701388888888
 20
10.7376736111111
 30
0.0
 10
-3.946701388888888
 20
10.7376736111111
 30
0.0
 10
-3.946701388888888
 20
10.7376736111111
 30
0.0
 10
-3.946701388888888
 20
-10.7376736111111
 30
0.0
 10
-3.946701388888888
 20
-10.7376736111111
 30
0.0
  0
ENDBLK
  5
2A47
330
2A43
100
AcDbEntity
  8
0
100
AcDbBlockEnd
  0
BLOCK
  5
2A4B
330
2A48
100
AcDbEntity
  8
0
 62
     7
100
AcDbBlockBegin
  2
AI9-BLK4
 70
     0
 10
0.0
 20
0.0
 30
0.0
  3
AI9-BLK4
  1

  0
SPLINE
  5
2A49
330
2A48
100
AcDbEntity
  8
LAYER_1
 62
     7
100
AcDbSpline
210
0.0
220
0.0
230
1.0
 70
    11
 71
     3
 72
    26
 73
    22
 74
     0
 42
0.0000000001
 43
0.0000000001
 40
0.0
 40
0.0
 40
0.0
 40
0.0
 40
1.0
 40
1.0
 40
1.0
 40
2.0
 40
2.0
 40
2.0
 40
3.0
 40
3.0
 40
3.0
 40
4.0
 40
4.0
 40
4.0
 40
5.0
 40
5.0
 40
5.0
 40
6.0
 40
6.0
 40
6.0
 40
7.0
 40
7.0
 40
7.0
 40
7.0
 10
-2.645833333333333
 20
0.9039930555555551
 30
0.0
 10
-2.645833333333333
 20
0.9039930555555551
 30
0.0
 10
-2.645833333333333
 20
8.180034722222217
 30
0.0
 10
-2.645833333333333
 20
8.180034722222217
 30
0.0
 10
-2.645833333333333
 20
8.180034722222217
 30
0.0
 10
0.465087890625
 20
8.180034722222217
 30
0.0
 10
0.465087890625
 20
8.180034722222217
 30
0.0
 10
0.9026150173611108
 20
8.180034722222217
 30
0.0
 10
1.24988064236111
 20
8.034651692708331
 30
0.0
 10
1.506884765625
 20
7.745263671874997
 30
0.0
 10
2.001600477430554
 20
7.194048394097221
 30
0.0
 10
2.248958333333332
 20
6.160519748263887
 30
0.0
 10
2.248958333333332
 20
4.643299696180553
 30
0.0
 10
2.248958333333332
 20
3.232188585069443
 30
0.0
 10
2.072569444444444
 20
2.256537543402775
 30
0.0
 10
1.720480685763888
 20
1.715657552083333
 30
0.0
 10
1.368391927083333
 20
1.174088541666665
 30
0.0
 10
0.8929687499999998
 20
0.9039930555555551
 30
0.0
 10
0.2942111545138888
 20
0.9039930555555551
 30
0.0
 10
0.2942111545138888
 20
0.9039930555555551
 30
0.0
 10
-2.645833333333333
 20
0.9039930555555551
 30
0.0
 10
-2.645833333333333
 20
0.9039930555555551
 30
0.0
  0
SPLINE
  5
2A4A
330
2A48
100
AcDbEntity
  8
LAYER_1
 62
     7
100
AcDbSpline
210
0.0
220
0.0
230
1.0
 70
    11
 71
     3
 72
    68
 73
    64
 74
     0
 42
0.0000000001
 43
0.0000000001
 40
0.0
 40
0.0
 40
0.0
 40
0.0
 40
1.0
 40
1.0
 40
1.0
 40
2.0
 40
2.0
 40
2.0
 40
3.0
 40
3.0
 40
3.0
 40
4.0
 40
4.0
 40
4.0
 40
5.0
 40
5.0
 40
5.0
 40
6.0
 40
6.0
 40
6.0
 40
7.0
 40
7.0
 40
7.0
 40
8.0
 40
8.0
 40
8.0
 40
9.0
 40
9.0
 40
9.0
 40
10.0
 40
10.0
 40
10.0
 40
11.0
 40
11.0
 40
11.0
 40
12.0
 40
12.0
 40
12.0
 40
13.0
 40
13.0
 40
13.0
 40
14.0
 40
14.0
 40
14.0
 40
15.0
 40
15.0
 40
15.0
 40
16.0
 40
16.0
 40
16.0
 40
17.0
 40
17.0
 40
17.0
 40
18.0
 40
18.0
 40
18.0
 40
19.0
 40
19.0
 40
19.0
 40
20.0
 40
20.0
 40
20.0
 40
21.0
 40
21.0
 40
21.0
 40
21.0
 10
-3.968749999999998
 20
-10.7376736111111
 30
0.0
 10
-3.968749999999998
 20
-10.7376736111111
 30
0.0
 10
-2.645833333333333
 20
-10.7376736111111
 30
0.0
 10
-2.645833333333333
 20
-10.7376736111111
 30
0.0
 10
-2.645833333333333
 20
-10.7376736111111
 30
0.0
 10
-2.645833333333333
 20
-1.521354166666665
 30
0.0
 10
-2.645833333333333
 20
-1.521354166666665
 30
0.0
 10
-2.645833333333333
 20
-1.521354166666665
 30
0.0
 10
0.2390896267361111
 20
-1.521354166666665
 30
0.0
 10
0.2390896267361111
 20
-1.521354166666665
 30
0.0
 10
0.7599880642361111
 20
-1.521354166666665
 30
0.0
 10
1.143771701388887
 20
-1.65295681423611
 30
0.0
 10
1.390440538194444
 20
-1.916162109374999
 30
0.0
 10
1.816254340277774
 20
-2.39434136284722
 30
0.0
 10
2.04363064236111
 20
-3.335541449652775
 30
0.0
 10
2.072569444444444
 20
-4.739762369791666
 30
0.0
 10
2.072569444444444
 20
-4.739762369791666
 30
0.0
 10
2.160763888888888
 20
-8.324039713541665
 30
0.0
 10
2.160763888888888
 20
-8.324039713541665
 30
0.0
 10
2.18005642361111
 20
-9.163264973958332
 30
0.0
 10
2.202794053819443
 20
-9.728949652777775
 30
0.0
 10
2.227598741319444
 20
-10.02109374999998
 30
0.0
 10
2.252403428819443
 20
-10.31392686631944
 30
0.0
 10
2.28892144097222
 20
-10.55301649305555
 30
0.0
 10
2.33853081597222
 20
-10.7376736111111
 30
0.0
 10
2.33853081597222
 20
-10.7376736111111
 30
0.0
 10
3.968749999999998
 20
-10.7376736111111
 30
0.0
 10
3.968749999999998
 20
-10.7376736111111
 30
0.0
 10
3.968749999999998
 20
-10.7376736111111
 30
0.0
 10
3.968749999999998
 20
-10.25260416666666
 30
0.0
 10
3.968749999999998
 20
-10.25260416666666
 30
0.0
 10
3.766867404513888
 20
-10.05830078125
 30
0.0
 10
3.625618489583333
 20
-9.621462673611112
 30
0.0
 10
3.545692274305555
 20
-8.942089843749997
 30
0.0
 10
3.49470486111111
 20
-8.543836805555555
 30
0.0
 10
3.459564887152775
 20
-7.937499999999999
 30
0.0
 10
3.439583333333333
 20
-7.121701388888887
 30
0.0
 10
3.439583333333333
 20
-7.121701388888887
 30
0.0
 10
3.395486111111107
 20
-4.232644314236107
 30
0.0
 10
3.395486111111107
 20
-4.232644314236107
 30
0.0
 10
3.375504557291666
 20
-2.981385633680555
 30
0.0
 10
3.26870659722222
 20
-2.077392578125
 30
0.0
 10
3.075781249999999
 20
-1.522043185763888
 30
0.0
 10
2.882166883680555
 20
-0.9666937934027776
 30
0.0
 10
2.592089843749999
 20
-0.5188313802083333
 30
0.0
 10
2.204861111111107
 20
-0.1770779079861111
 30
0.0
 10
2.63618706597222
 20
0.3197048611111111
 30
0.0
 10
2.971739366319443
 20
0.9770290798611107
 30
0.0
 10
3.211518012152775
 20
1.79558376736111
 30
0.0
 10
3.451296657986107
 20
2.613449435763888
 30
0.0
 10
3.571874999999999
 20
3.66558159722222
 30
0.0
 10
3.571874999999999
 20
4.951291232638888
 30
0.0
 10
3.571874999999999
 20
7.415912543402777
 30
0.0
 10
3.124701605902775
 20
9.106076388888887
 30
0.0
 10
2.231043836805555
 20
10.02178276909722
 30
0.0
 10
1.759754774305553
 20
10.498583984375
 30
0.0
 10
1.163753255208332
 20
10.7376736111111
 30
0.0
 10
0.443039279513889
 20
10.7376736111111
 30
0.0
 10
0.443039279513889
 20
10.7376736111111
 30
0.0
 10
-3.968749999999998
 20
10.7376736111111
 30
0.0
 10
-3.968749999999998
 20
10.7376736111111
 30
0.0
 10
-3.968749999999998
 20
10.7376736111111
 30
0.0
 10
-3.968749999999998
 20
-10.7376736111111
 30
0.0
 10
-3.968749999999998
 20
-10.7376736111111
 30
0.0
  0
ENDBLK
  5
2A4C
330
2A48
100
AcDbEntity
  8
0
100
AcDbBlockEnd
  0
BLOCK
  5
2A50
330
2A4D
100
AcDbEntity
  8
0
 62
     7
100
AcDbBlockBegin
  2
AI9-BLK3
 70
     0
 10
0.0
 20
0.0
 30
0.0
  3
AI9-BLK3
  1

  0
LWPOLYLINE
  5
2A4E
330
2A4D
100
AcDbEntity
  8
LAYER_1
 62
     7
100
AcDbPolyline
 90
        4
 70
     1
 43
0.0
 10
-0.6613722059461809
 20
10.7376736111111
 10
0.6613722059461809
 20
10.7376736111111
 10
0.6613722059461809
 20
-10.7376736111111
 10
-0.6613722059461809
 20
-10.7376736111111
  0
HATCH
  5
2A4F
330
2A4D
100
AcDbEntity
  8
LAYER_1
 62
     7
100
AcDbHatch
 10
0.0
 20
0.0
 30
0.0
210
0.0
220
0.0
230
1.0
  2
SOLID
 70
     1
 71
     0
 91
        1
 92
        3
 72
     0
 73
     1
 93
        4
 10
-0.6613722059461809
 20
10.7376736111111
 10
0.6613722059461809
 20
10.7376736111111
 10
0.6613722059461809
 20
-10.7376736111111
 10
-0.6613722059461809
 20
-10.7376736111111
 97
        0
 75
     2
 76
     1
 98
        1
 10
0.0
 20
0.0
  0
ENDBLK
  5
2A51
330
2A4D
100
AcDbEntity
  8
0
100
AcDbBlockEnd
  0
BLOCK
  5
2A55
330
2A52
100
AcDbEntity
  8
0
 62
     7
100
AcDbBlockBegin
  2
AI9-BLK2
 70
     0
 10
0.0
 20
0.0
 30
0.0
  3
AI9-BLK2
  1

  0
LWPOLYLINE
  5
2A53
330
2A52
100
AcDbEntity
  8
LAYER_1
 62
     7
100
AcDbPolyline
 90
        7
 70
     1
 43
0.0
 10
-2.785704210069443
 20
10.7376736111111
 10
0.0
 20
-7.550960286458332
 10
2.771234809027776
 20
10.7376736111111
 10
4.233333333333331
 20
10.7376736111111
 10
0.6910861545138888
 20
-10.7376736111111
 10
-0.7055555555555558
 20
-10.7376736111111
 10
-4.233333333333331
 20
10.7376736111111
  0
HATCH
  5
2A54
330
2A52
100
AcDbEntity
  8
LAYER_1
 62
     7
100
AcDbHatch
 10
0.0
 20
0.0
 30
0.0
210
0.0
220
0.0
230
1.0
  2
SOLID
 70
     1
 71
     0
 91
        1
 92
        3
 72
     0
 73
     1
 93
        7
 10
-2.785704210069443
 20
10.7376736111111
 10
0.0
 20
-7.550960286458332
 10
2.771234809027776
 20
10.7376736111111
 10
4.233333333333331
 20
10.7376736111111
 10
0.6910861545138888
 20
-10.7376736111111
 10
-0.7055555555555558
 20
-10.7376736111111
 10
-4.233333333333331
 20
10.7376736111111
 97
        0
 75
     2
 76
     1
 98
        1
 10
0.0
 20
0.0
  0
ENDBLK
  5
2A56
330
2A52
100
AcDbEntity
  8
0
100
AcDbBlockEnd
  0
BLOCK
  5
2A5A
330
2A57
100
AcDbEntity
  8
0
 62
     7
100
AcDbBlockBegin
  2
AI9-BLK1
 70
     0
 10
0.0
 20
0.0
 30
0.0
  3
AI9-BLK1
  1

  0
LWPOLYLINE
  5
2A58
330
2A57
100
AcDbEntity
  8
LAYER_1
 62
     7
100
AcDbPolyline
 90
       12
 70
     1
 43
0.0
 10
-3.571874999999999
 20
10.7376736111111
 10
3.483680555555555
 20
10.7376736111111
 10
3.483680555555555
 20
8.091840277777777
 10
-2.248958333333332
 20
8.091840277777777
 10
-2.248958333333332
 20
1.565451388888888
 10
3.042708333333333
 20
1.565451388888888
 10
3.042708333333333
 20
-0.9039930555555551
 10
-2.248958333333332
 20
-0.9039930555555551
 10
-2.248958333333332
 20
-8.180034722222217
 10
3.571874999999999
 20
-8.180034722222217
 10
3.571874999999999
 20
-10.7376736111111
 10
-3.571874999999999
 20
-10.7376736111111
  0
HATCH
  5
2A59
330
2A57
100
AcDbEntity
  8
LAYER_1
 62
     7
100
AcDbHatch
 10
0.0
 20
0.0
 30
0.0
210
0.0
220
0.0
230
1.0
  2
SOLID
 70
     1
 71
     0
 91
        1
 92
        3
 72
     0
 73
     1
 93
       12
 10
-3.571874999999999
 20
10.7376736111111
 10
3.483680555555555
 20
10.7376736111111
 10
3.483680555555555
 20
8.091840277777777
 10
-2.248958333333332
 20
8.091840277777777
 10
-2.248958333333332
 20
1.565451388888888
 10
3.042708333333333
 20
1.565451388888888
 10
3.042708333333333
 20
-0.9039930555555551
 10
-2.248958333333332
 20
-0.9039930555555551
 10
-2.248958333333332
 20
-8.180034722222217
 10
3.571874999999999
 20
-8.180034722222217
 10
3.571874999999999
 20
-10.7376736111111
 10
-3.571874999999999
 20
-10.7376736111111
 97
        0
 75
     2
 76
     1
 98
        1
 10
0.0
 20
0.0
  0
ENDBLK
  5
2A5B
330
2A57
100
AcDbEntity
  8
0
100
AcDbBlockEnd
  0
BLOCK
  5
2A7F
330
2A5C
100
AcDbEntity
  8
0
100
AcDbBlockBegin
  2
HD_LLC_logo_OT5
 70
     0
 10
0.0
 20
0.0
 30
0.0
  3
HD_LLC_logo_OT5
  1

  0
SPLINE
  5
2A5D
102
{ACAD_REACTORS
330
2A7D
102
}
330
2A5C
100
AcDbEntity
  8
LAYER_1
 62
     7
100
AcDbSpline
210
0.0
220
0.0
230
1.0
 70
    11
 71
     3
 72
   113
 73
   109
 74
     0
 42
0.0000000001
 43
0.0000000001
 40
0.0
 40
0.0
 40
0.0
 40
0.0
 40
1.0
 40
1.0
 40
1.0
 40
2.0
 40
2.0
 40
2.0
 40
3.0
 40
3.0
 40
3.0
 40
4.0
 40
4.0
 40
4.0
 40
5.0
 40
5.0
 40
5.0
 40
6.0
 40
6.0
 40
6.0
 40
7.0
 40
7.0
 40
7.0
 40
8.0
 40
8.0
 40
8.0
 40
9.0
 40
9.0
 40
9.0
 40
10.0
 40
10.0
 40
10.0
 40
11.0
 40
11.0
 40
11.0
 40
12.0
 40
12.0
 40
12.0
 40
13.0
 40
13.0
 40
13.0
 40
14.0
 40
14.0
 40
14.0
 40
15.0
 40
15.0
 40
15.0
 40
16.0
 40
16.0
 40
16.0
 40
17.0
 40
17.0
 40
17.0
 40
18.0
 40
18.0
 40
18.0
 40
19.0
 40
19.0
 40
19.0
 40
20.0
 40
20.0
 40
20.0
 40
21.0
 40
21.0
 40
21.0
 40
22.0
 40
22.0
 40
22.0
 40
23.0
 40
23.0
 40
23.0
 40
24.0
 40
24.0
 40
24.0
 40
25.0
 40
25.0
 40
25.0
 40
26.0
 40
26.0
 40
26.0
 40
27.0
 40
27.0
 40
27.0
 40
28.0
 40
28.0
 40
28.0
 40
29.0
 40
29.0
 40
29.0
 40
30.0
 40
30.0
 40
30.0
 40
31.0
 40
31.0
 40
31.0
 40
32.0
 40
32.0
 40
32.0
 40
33.0
 40
33.0
 40
33.0
 40
34.0
 40
34.0
 40
34.0
 40
35.0
 40
35.0
 40
35.0
 40
36.0
 40
36.0
 40
36.0
 40
36.0
 10
193.3039632161458
 20
186.1548733181423
 30
0.0
 10
193.3039632161458
 20
186.1860514322916
 30
0.0
 10
193.3039632161458
 20
219.6932223849826
 30
0.0
 10
193.3039632161458
 20
219.6932223849826
 30
0.0
 10
193.3039632161458
 20
219.6932223849826
 30
0.0
 10
193.2974175347219
 20
219.7488606770833
 30
0.0
 10
193.2974175347219
 20
219.7488606770833
 30
0.0
 10
191.5293945312499
 20
235.455740017361
 30
0.0
 10
175.1458984374999
 20
235.2467949761284
 30
0.0
 10
174.9808783637151
 20
235.2428331163193
 30
0.0
 10
174.9808783637151
 20
235.2428331163193
 30
0.0
 10
125.8827555338541
 20
235.2430053710937
 30
0.0
 10
125.8827555338541
 20
235.2430053710937
 30
0.0
 10
125.8827555338541
 20
235.2430053710937
 30
0.0
 10
125.8827555338541
 20
255.5278998480901
 30
0.0
 10
125.8827555338541
 20
255.5278998480901
 30
0.0
 10
125.8827555338541
 20
255.5278998480901
 30
0.0
 10
84.5626247829861
 20
255.5278998480901
 30
0.0
 10
84.5626247829861
 20
255.5278998480901
 30
0.0
 10
84.5626247829861
 20
255.5278998480901
 30
0.0
 10
84.55711263020829
 20
233.7919311523436
 30
0.0
 10
84.55711263020829
 20
233.7919311523436
 30
0.0
 10
84.55711263020829
 20
233.7919311523436
 30
0.0
 10
64.42052951388888
 20
233.7919311523436
 30
0.0
 10
64.42052951388888
 20
233.7919311523436
 30
0.0
 10
64.42052951388888
 20
233.7919311523436
 30
0.0
 10
64.41501736111111
 20
255.5278998480901
 30
0.0
 10
64.41501736111111
 20
255.5278998480901
 30
0.0
 10
64.41501736111111
 20
255.5278998480901
 30
0.0
 10
23.91757541232637
 20
255.5278998480901
 30
0.0
 10
23.91757541232637
 20
255.5278998480901
 30
0.0
 10
23.91757541232637
 20
255.5278998480901
 30
0.0
 10
23.91757541232637
 20
233.2393378363715
 30
0.0
 10
23.91757541232637
 20
233.2393378363715
 30
0.0
 10
23.91757541232637
 20
233.2393378363715
 30
0.0
 10
43.65624999999999
 20
233.2393378363715
 30
0.0
 10
43.65624999999999
 20
233.2393378363715
 30
0.0
 10
43.65624999999999
 20
233.2393378363715
 30
0.0
 10
43.65624999999999
 20
211.5188720703125
 30
0.0
 10
43.65624999999999
 20
211.5188720703125
 30
0.0
 10
43.65624999999999
 20
211.5188720703125
 30
0.0
 10
23.91757541232637
 20
211.5188720703125
 30
0.0
 10
23.91757541232637
 20
211.5188720703125
 30
0.0
 10
23.91757541232637
 20
211.5188720703125
 30
0.0
 10
23.91757541232637
 20
189.2303100585936
 30
0.0
 10
23.91757541232637
 20
189.2303100585936
 30
0.0
 10
23.91757541232637
 20
189.2303100585936
 30
0.0
 10
64.41501736111111
 20
189.2303100585936
 30
0.0
 10
64.41501736111111
 20
189.2303100585936
 30
0.0
 10
64.41501736111111
 20
189.2303100585936
 30
0.0
 10
64.42052951388888
 20
211.069976128472
 30
0.0
 10
64.42052951388888
 20
211.069976128472
 30
0.0
 10
64.42052951388888
 20
211.069976128472
 30
0.0
 10
84.55711263020829
 20
211.069976128472
 30
0.0
 10
84.55711263020829
 20
211.069976128472
 30
0.0
 10
84.55711263020829
 20
211.069976128472
 30
0.0
 10
84.5626247829861
 20
189.2303100585936
 30
0.0
 10
84.5626247829861
 20
189.2303100585936
 30
0.0
 10
84.5626247829861
 20
189.2303100585936
 30
0.0
 10
125.8827555338541
 20
189.2303100585936
 30
0.0
 10
125.8827555338541
 20
189.2303100585936
 30
0.0
 10
125.8827555338541
 20
189.2303100585936
 30
0.0
 10
125.8827555338541
 20
211.5188720703125
 30
0.0
 10
125.8827555338541
 20
211.5188720703125
 30
0.0
 10
125.8827555338541
 20
211.5188720703125
 30
0.0
 10
105.3213921440971
 20
211.5188720703125
 30
0.0
 10
105.3213921440971
 20
211.5188720703125
 30
0.0
 10
105.3213921440971
 20
211.5188720703125
 30
0.0
 10
105.3213921440971
 20
233.2393378363715
 30
0.0
 10
105.3213921440971
 20
233.2393378363715
 30
0.0
 10
105.3213921440971
 20
233.2393378363715
 30
0.0
 10
175.0046495225693
 20
233.243127441406
 30
0.0
 10
175.0046495225693
 20
233.243127441406
 30
0.0
 10
175.6268337673611
 20
233.2560465494791
 30
0.0
 10
189.7165852864583
 20
233.3962619357638
 30
0.0
 10
191.3037407769094
 20
219.5690266927083
 30
0.0
 10
191.3037407769094
 20
219.4332899305555
 30
0.0
 10
191.3037407769094
 20
186.1142211914062
 30
0.0
 10
191.3037407769094
 20
186.1142211914062
 30
0.0
 10
191.3037407769094
 20
186.1142211914062
 30
0.0
 10
191.3051188151039
 20
186.0880384657115
 30
0.0
 10
191.3051188151039
 20
186.0880384657115
 30
0.0
 10
191.3054633246526
 20
186.0787367078991
 30
0.0
 10
191.3109754774304
 20
185.9566080729166
 30
0.0
 10
191.3109754774304
 20
185.7399115668401
 30
0.0
 10
191.3109754774304
 20
184.2090833875865
 30
0.0
 10
191.0488037109374
 20
177.9643310546874
 30
0.0
 10
186.9866916232638
 20
173.5652886284722
 30
0.0
 10
184.2540418836804
 20
170.6064683702255
 30
0.0
 10
180.3224989149304
 20
169.0308539496526
 30
0.0
 10
175.300927734375
 20
168.8825425889756
 30
0.0
 10
175.300927734375
 20
168.8825425889756
 30
0.0
 10
107.0094889322916
 20
168.8828870985243
 30
0.0
 10
107.0094889322916
 20
168.8828870985243
 30
0.0
 10
107.0094889322916
 20
168.8828870985243
 30
0.0
 10
107.0094889322916
 20
166.8830091688368
 30
0.0
 10
107.0094889322916
 20
166.8830091688368
 30
0.0
 10
107.0094889322916
 20
166.8830091688368
 30
0.0
 10
175.3305555555555
 20
166.8830091688368
 30
0.0
 10
175.3305555555555
 20
166.8830091688368
 30
0.0
 10
180.9467502170138
 20
167.0485460069444
 30
0.0
 10
185.3571614583333
 20
168.8448187934026
 30
0.0
 10
188.4687717013888
 20
172.2223904079861
 30
0.0
 10
192.9649658203124
 20
177.1034016927083
 30
0.0
 10
193.3136094835069
 20
183.7202243381076
 30
0.0
 10
193.3136094835069
 20
185.6520616319443
 30
0.0
 10
193.3136094835069
 20
185.9247409396701
 30
0.0
 10
193.3070638020833
 20
186.0868326822916
 30
0.0
 10
193.3039632161458
 20
186.1548733181423
 30
0.0
  0
INSERT
  5
2A5E
102
{ACAD_REACTORS
330
2A7E
102
}
330
2A5C
100
AcDbEntity
  8
LAYER_1
 62
     7
100
AcDbBlockReference
  2
AI9-BLK14
 10
159.5625257703993
 20
200.5118781195744
 30
0.0
  0
INSERT
  5
2A5F
330
2A5C
100
AcDbEntity
  8
LAYER_1
 62
     7
100
AcDbBlockReference
  2
AI9-BLK13
 10
27.69615614149305
 20
179.2145562065971
 30
0.0
 42
0.9200000000000001
  0
INSERT
  5
2A60
102
{ACAD_REACTORS
330
2A6B
102
}
330
2A5C
100
AcDbEntity
  8
LAYER_1
 62
     7
100
AcDbBlockReference
  2
AI9-BLK11
 10
44.76591525607638
 20
179.2145562065971
 30
0.0
 42
0.9200000000000001
  0
INSERT
  5
2A61
102
{ACAD_REACTORS
330
2A79
102
}
330
2A5C
100
AcDbEntity
  8
LAYER_1
 62
     7
100
AcDbBlockReference
  2
AI9-BLK10
 10
54.04665798611111
 20
179.2145562065971
 30
0.0
 42
0.9200000000000001
  0
INSERT
  5
2A62
102
{ACAD_REACTORS
330
2A78
102
}
330
2A5C
100
AcDbEntity
  8
LAYER_1
 62
     7
100
AcDbBlockReference
  2
AI9-BLK9
 10
62.79013807508679
 20
179.2145562065971
 30
0.0
 42
0.9
  0
INSERT
  5
2A63
330
2A5C
100
AcDbEntity
  8
LAYER_1
 62
     7
100
AcDbBlockReference
  2
AI9-BLK8
 10
71.03046196831595
 20
179.2145562065971
 30
0.0
 42
0.9200000000000001
  0
INSERT
  5
2A64
330
2A5C
100
AcDbEntity
  8
LAYER_1
 62
     7
100
AcDbBlockReference
  2
AI9-BLK7
 10
76.93793945312498
 20
179.2145562065971
 30
0.0
 42
0.9200000000000001
  0
INSERT
  5
2A65
102
{ACAD_REACTORS
330
2A6C
102
}
330
2A5C
100
AcDbEntity
  8
LAYER_1
 62
     7
100
AcDbBlockReference
  2
AI9-BLK6
 10
82.55602891710069
 20
179.2145562065971
 30
0.0
 42
0.9
  0
INSERT
  5
2A66
102
{ACAD_REACTORS
330
2A7A
102
}
330
2A5C
100
AcDbEntity
  8
LAYER_1
 62
     7
100
AcDbBlockReference
  2
AI9-BLK5
 10
94.32430284288193
 20
179.2145562065971
 30
0.0
 42
0.9200000000000001
  0
INSERT
  5
2A67
102
{ACAD_REACTORS
330
2A7B
102
}
330
2A5C
100
AcDbEntity
  8
LAYER_1
 62
     7
100
AcDbBlockReference
  2
AI9-BLK4
 10
103.2081705729166
 20
179.2145562065971
 30
0.0
 42
0.9200000000000001
  0
INSERT
  5
2A68
330
2A5C
100
AcDbEntity
  8
LAYER_1
 62
     7
100
AcDbBlockReference
  2
AI9-BLK3
 10
108.850978597005
 20
179.2145562065971
 30
0.0
 42
0.9200000000000001
  0
INSERT
  5
2A69
330
2A5C
100
AcDbEntity
  8
LAYER_1
 62
     7
100
AcDbBlockReference
  2
AI9-BLK2
 10
114.2045708550346
 20
179.2145562065971
 30
0.0
 42
0.9200000000000001
  0
INSERT
  5
2A6A
330
2A5C
100
AcDbEntity
  8
LAYER_1
 62
     7
100
AcDbBlockReference
  2
AI9-BLK1
 10
122.4125108506944
 20
179.2145562065971
 30
0.0
 42
0.9200000000000001
  0
HATCH
  5
2A6B
330
2A5C
100
AcDbEntity
  8
0
  6
Continuous
100
AcDbHatch
 10
0.0
 20
0.0
 30
0.0
210
0.0
220
0.0
230
1.0
  2
SOLID
 70
     1
 71
     1
 91
        2
 92
       16
 93
        1
 72
     4
 94
        3
 73
     0
 74
     0
 95
       26
 96
       22
 40
0.0
 40
0.0
 40
0.0
 40
0.0
 40
1.0
 40
1.0
 40
1.0
 40
2.0
 40
2.0
 40
2.0
 40
3.0
 40
3.0
 40
3.0
 40
4.0
 40
4.0
 40
4.0
 40
5.0
 40
5.0
 40
5.0
 40
6.0
 40
6.0
 40
6.0
 40
7.0
 40
7.0
 40
7.0
 40
7.0
 10
42.12008192274304
 20
180.0462298177081
 10
42.12008192274304
 20
180.0462298177081
 10
42.12008192274304
 20
186.7401881510414
 10
42.12008192274304
 20
186.7401881510414
 10
42.12008192274304
 20
186.7401881510414
 10
45.23100314670138
 20
186.7401881510414
 10
45.23100314670138
 20
186.7401881510414
 10
45.66853027343749
 20
186.7401881510414
 10
46.01579589843749
 20
186.6064357638887
 10
46.27280002170138
 20
186.3401987847219
 10
46.76751573350694
 20
185.8330807291664
 10
47.01487358940972
 20
184.8822343749997
 10
47.01487358940972
 20
183.4863919270832
 10
47.01487358940972
 20
182.188169704861
 10
46.83848470052082
 20
181.2905707465276
 10
46.48639594184028
 20
180.7929611545137
 10
46.13430718315971
 20
180.2947176649304
 10
45.65888400607638
 20
180.0462298177081
 10
45.06012641059028
 20
180.0462298177081
 10
45.06012641059028
 20
180.0462298177081
 10
42.12008192274304
 20
180.0462298177081
 10
42.12008192274304
 20
180.0462298177081
 97
        1
330
2A60
 92
        1
 93
        1
 72
     4
 94
        3
 73
     0
 74
     0
 95
       68
 96
       64
 40
0.0
 40
0.0
 40
0.0
 40
0.0
 40
1.0
 40
1.0
 40
1.0
 40
2.0
 40
2.0
 40
2.0
 40
3.0
 40
3.0
 40
3.0
 40
4.0
 40
4.0
 40
4.0
 40
5.0
 40
5.0
 40
5.0
 40
6.0
 40
6.0
 40
6.0
 40
7.0
 40
7.0
 40
7.0
 40
8.0
 40
8.0
 40
8.0
 40
9.0
 40
9.0
 40
9.0
 40
10.0
 40
10.0
 40
10.0
 40
11.0
 40
11.0
 40
11.0
 40
12.0
 40
12.0
 40
12.0
 40
13.0
 40
13.0
 40
13.0
 40
14.0
 40
14.0
 40
14.0
 40
15.0
 40
15.0
 40
15.0
 40
16.0
 40
16.0
 40
16.0
 40
17.0
 40
17.0
 40
17.0
 40
18.0
 40
18.0
 40
18.0
 40
19.0
 40
19.0
 40
19.0
 40
20.0
 40
20.0
 40
20.0
 40
21.0
 40
21.0
 40
21.0
 40
21.0
 10
40.79716525607638
 20
169.3358964843748
 10
40.79716525607638
 20
169.3358964843748
 10
42.12008192274304
 20
169.3358964843748
 10
42.12008192274304
 20
169.3358964843748
 10
42.12008192274304
 20
169.3358964843748
 10
42.12008192274304
 20
177.8149103732637
 10
42.12008192274304
 20
177.8149103732637
 10
42.12008192274304
 20
177.8149103732637
 10
45.00500488281249
 20
177.8149103732637
 10
45.00500488281249
 20
177.8149103732637
 10
45.52590332031249
 20
177.8149103732637
 10
45.90968695746528
 20
177.6938359374998
 10
46.15635579427083
 20
177.451687065972
 10
46.58216959635415
 20
177.0117621527776
 10
46.80954589843749
 20
176.1458580729164
 10
46.83848470052082
 20
174.8539748263887
 10
46.83848470052082
 20
174.8539748263887
 10
46.92667914496527
 20
171.5564396701386
 10
46.92667914496527
 20
171.5564396701386
 10
46.94597167968749
 20
170.7843524305554
 10
46.96870930989581
 20
170.2639225260415
 10
46.99351399739582
 20
169.9951499565971
 10
47.01831868489581
 20
169.7257434895831
 10
47.0548366970486
 20
169.5057810329859
 10
47.10444607204859
 20
169.3358964843748
 10
47.10444607204859
 20
169.3358964843748
 10
48.73466525607638
 20
169.3358964843748
 10
48.73466525607638
 20
169.3358964843748
 10
48.73466525607638
 20
169.3358964843748
 10
48.73466525607638
 20
169.7821603732636
 10
48.73466525607638
 20
169.7821603732636
 10
48.53278266059028
 20
169.9609194878471
 10
48.39153374565971
 20
170.3628105468748
 10
48.31160753038194
 20
170.9878335503471
 10
48.26062011718749
 20
171.3542263454858
 10
48.22548014322915
 20
171.9120562065971
 10
48.20549858940971
 20
172.6625909288193
 10
48.20549858940971
 20
172.6625909288193
 10
48.16140136718749
 20
175.3205234374999
 10
48.16140136718749
 20
175.3205234374999
 10
48.14141981336803
 20
176.4716814236109
 10
48.03462185329859
 20
177.3033550347219
 10
47.84169650607638
 20
177.8142764756942
 10
47.64808213975693
 20
178.3251979166665
 10
47.35800509982638
 20
178.7372313368054
 10
46.97077636718749
 20
179.0516445312498
 10
47.4021023220486
 20
179.5086846788193
 10
47.73765462239582
 20
180.1134229600693
 10
47.97743326822915
 20
180.8664932725692
 10
48.21721191406249
 20
181.6189296874999
 10
48.33779025607638
 20
182.5868912760414
 10
48.33779025607638
 20
183.7697441406248
 10
48.33779025607638
 20
186.0371957465275
 10
47.89061686197916
 20
187.5921464843749
 10
46.99695909288194
 20
188.4345963541665
 10
46.52567003038194
 20
188.8732534722221
 10
45.92966851128472
 20
189.0932159288193
 10
45.20895453559027
 20
189.0932159288193
 10
45.20895453559027
 20
189.0932159288193
 10
40.79716525607638
 20
189.0932159288193
 10
40.79716525607638
 20
189.0932159288193
 10
40.79716525607638
 20
189.0932159288193
 10
40.79716525607638
 20
169.3358964843748
 10
40.79716525607638
 20
169.3358964843748
 97
        0
 75
     0
 76
     1
 98
        0
  0
HATCH
  5
2A6C
330
2A5C
100
AcDbEntity
  8
0
  6
Continuous
100
AcDbHatch
 10
0.0
 20
0.0
 30
0.0
210
0.0
220
0.0
230
1.0
  2
SOLID
 70
     1
 71
     1
 91
        1
 92
        1
 93
        1
 72
     4
 94
        3
 73
     0
 74
     0
 95
       59
 96
       55
 40
0.0
 40
0.0
 40
0.0
 40
0.0
 40
1.0
 40
1.0
 40
1.0
 40
2.0
 40
2.0
 40
2.0
 40
3.0
 40
3.0
 40
3.0
 40
4.0
 40
4.0
 40
4.0
 40
5.0
 40
5.0
 40
5.0
 40
6.0
 40
6.0
 40
6.0
 40
7.0
 40
7.0
 40
7.0
 40
8.0
 40
8.0
 40
8.0
 40
9.0
 40
9.0
 40
9.0
 40
10.0
 40
10.0
 40
10.0
 40
11.0
 40
11.0
 40
11.0
 40
12.0
 40
12.0
 40
12.0
 40
13.0
 40
13.0
 40
13.0
 40
14.0
 40
14.0
 40
14.0
 40
15.0
 40
15.0
 40
15.0
 40
16.0
 40
16.0
 40
16.0
 40
17.0
 40
17.0
 40
17.0
 40
18.0
 40
18.0
 40
18.0
 40
18.0
 10
85.61871880425345
 20
187.4658355034721
 10
86.29120144314233
 20
186.1797124565971
 10
86.66671685112847
 20
184.7193364800346
 10
86.7452650282118
 20
183.0840874565969
 10
86.7452650282118
 20
183.0840874565969
 10
85.42234836154511
 20
183.0840874565969
 10
85.42234836154511
 20
183.0840874565969
 10
85.27696533203123
 20
184.315640190972
 10
84.99171142578125
 20
185.2917046440971
 10
84.56589762369791
 20
186.0122808159719
 10
84.14008382161458
 20
186.7322368706595
 10
83.53994818793401
 20
187.092524956597
 10
82.76617974175344
 20
187.092524956597
 10
81.81740044487847
 20
187.092524956597
 10
81.05258924696178
 20
186.4240386284721
 10
80.47243516710068
 20
185.0883062065971
 10
79.89159206814234
 20
183.7525737847219
 10
79.6015150282118
 20
181.7049468315971
 10
79.6015150282118
 20
178.9454253472221
 10
79.6015150282118
 20
176.684478081597
 10
79.86265326605901
 20
174.8514116753471
 10
80.38561876085069
 20
173.4456060112846
 10
80.90789523654512
 20
172.0391802300345
 10
81.69199896918403
 20
171.3365874565971
 10
82.73724093967013
 20
171.3365874565971
 10
83.69497748480901
 20
171.3365874565971
 10
84.42120361328125
 20
172.0794878472221
 10
84.91523030598958
 20
173.566528862847
 10
85.18601481119791
 20
174.349116753472
 10
85.38445231119791
 20
175.3785112847221
 10
85.51054280598959
 20
176.6547124565971
 10
85.51054280598959
 20
176.6547124565971
 10
86.83345947265625
 20
176.6547124565971
 10
86.83345947265625
 20
176.6547124565971
 10
86.72597249348957
 20
174.6157671440971
 10
86.35114610460069
 20
172.9061040581596
 10
85.70760226779514
 20
171.526343315972
 10
84.93727891710069
 20
169.8650493706596
 10
83.90375027126735
 20
169.0347124565971
 10
82.60701633029514
 20
169.0347124565971
 10
81.48598225911458
 20
169.0347124565971
 10
80.54547119140625
 20
169.7143608940971
 10
79.78479410807292
 20
171.0742778862845
 10
78.78020426432292
 20
172.8726177300345
 10
78.27859836154512
 20
175.6495024956596
 10
78.27859836154512
 20
179.4049321831595
 10
78.27859836154512
 20
182.2562310112846
 10
78.65342475043402
 20
184.594692925347
 10
79.40445556640622
 20
186.4196978081596
 10
80.22301025390625
 20
188.4028325737846
 10
81.34955647786458
 20
189.3943999565971
 10
82.78271620008679
 20
189.3943999565971
 10
84.00090196397568
 20
189.3943999565971
 10
84.94623616536458
 20
188.7513384331595
 10
85.61871880425345
 20
187.4658355034721
 97
        1
330
2A65
 75
     0
 76
     1
 98
        1
 10
0.0
 20
0.0
  0
LINE
  5
2A6D
102
{ACAD_REACTORS
330
2A7C
102
}
330
2A5C
100
AcDbEntity
  8
LAYER_1
 62
     7
100
AcDbLine
 10
34.65766059027778
 20
177.4497853732638
 30
0.0
 11
36.19830729166666
 21
186.1658769531249
 31
0.0
  0
LINE
  5
2A6E
102
{ACAD_REACTORS
330
2A7C
102
}
330
2A5C
100
AcDbEntity
  8
LAYER_1
 62
     7
100
AcDbLine
 10
36.19830729166666
 20
186.1658769531249
 30
0.0
 11
37.67556423611111
 21
177.4497853732638
 31
0.0
  0
LINE
  5
2A6F
102
{ACAD_REACTORS
330
2A7C
102
}
330
2A5C
100
AcDbEntity
  8
LAYER_1
 62
     7
100
AcDbLine
 10
37.67556423611111
 20
177.4497853732638
 30
0.0
 11
34.65766059027778
 21
177.4497853732638
 31
0.0
  0
LINE
  5
2A70
102
{ACAD_REACTORS
330
2A7C
102
}
330
2A5C
100
AcDbEntity
  8
LAYER_1
 62
     7
100
AcDbLine
 10
31.83957248263888
 20
169.3358964843748
 30
0.0
 11
33.22450086805555
 21
169.3358964843748
 31
0.0
  0
LINE
  5
2A71
102
{ACAD_REACTORS
330
2A7C
102
}
330
2A5C
100
AcDbEntity
  8
LAYER_1
 62
     7
100
AcDbLine
 10
33.22450086805555
 20
169.3358964843748
 30
0.0
 11
34.27043185763887
 21
175.2590353732638
 31
0.0
  0
LINE
  5
2A72
102
{ACAD_REACTORS
330
2A7C
102
}
330
2A5C
100
AcDbEntity
  8
LAYER_1
 62
     7
100
AcDbLine
 10
34.27043185763887
 20
175.2590353732638
 30
0.0
 11
38.04694552951389
 21
175.2590353732638
 31
0.0
  0
LINE
  5
2A73
102
{ACAD_REACTORS
330
2A7C
102
}
330
2A5C
100
AcDbEntity
  8
LAYER_1
 62
     7
100
AcDbLine
 10
38.04694552951389
 20
175.2590353732638
 30
0.0
 11
39.05015733506942
 21
169.3358964843748
 31
0.0
  0
LINE
  5
2A74
102
{ACAD_REACTORS
330
2A7C
102
}
330
2A5C
100
AcDbEntity
  8
LAYER_1
 62
     7
100
AcDbLine
 10
39.05015733506942
 20
169.3358964843748
 30
0.0
 11
40.43508572048611
 21
169.3358964843748
 31
0.0
  0
LINE
  5
2A75
102
{ACAD_REACTORS
330
2A7C
102
}
330
2A5C
100
AcDbEntity
  8
LAYER_1
 62
     7
100
AcDbLine
 10
40.43508572048611
 20
169.3358964843748
 30
0.0
 11
36.952783203125
 21
189.0932159288193
 31
0.0
  0
LINE
  5
2A76
102
{ACAD_REACTORS
330
2A7C
102
}
330
2A5C
100
AcDbEntity
  8
LAYER_1
 62
     7
100
AcDbLine
 10
36.952783203125
 20
189.0932159288193
 30
0.0
 11
35.47828233506943
 21
189.0932159288193
 31
0.0
  0
LINE
  5
2A77
102
{ACAD_REACTORS
330
2A7C
102
}
330
2A5C
100
AcDbEntity
  8
LAYER_1
 62
     7
100
AcDbLine
 10
35.47828233506943
 20
189.0932159288193
 30
0.0
 11
31.83957248263888
 21
169.3358964843748
 31
0.0
  0
HATCH
  5
2A78
330
2A5C
100
AcDbEntity
  8
0
  6
Continuous
100
AcDbHatch
 10
0.0
 20
0.0
 30
0.0
210
0.0
220
0.0
230
1.0
  2
SOLID
 70
     1
 71
     1
 91
        2
 92
       16
 93
        1
 72
     4
 94
        3
 73
     0
 74
     0
 95
       29
 96
       25
 40
0.0
 40
0.0
 40
0.0
 40
0.0
 40
1.0
 40
1.0
 40
1.0
 40
2.0
 40
2.0
 40
2.0
 40
3.0
 40
3.0
 40
3.0
 40
4.0
 40
4.0
 40
4.0
 40
5.0
 40
5.0
 40
5.0
 40
6.0
 40
6.0
 40
6.0
 40
7.0
 40
7.0
 40
7.0
 40
8.0
 40
8.0
 40
8.0
 40
8.0
 10
62.85697292751734
 20
171.3365874565971
 10
61.88338894314235
 20
171.3365874565971
 10
61.18058946397566
 20
172.0714263237844
 10
60.74857449001735
 20
173.5411040581595
 10
60.31587049696178
 20
175.0107817925344
 10
60.10020751953123
 20
176.8165630425344
 10
60.10020751953123
 20
178.9578276909721
 10
60.10020751953123
 20
181.6342534722221
 10
60.35101047092013
 20
183.6589360894095
 10
60.85261637369789
 20
185.032495659722
 10
61.35422227647566
 20
186.4054351128471
 10
62.00741238064235
 20
187.092524956597
 10
62.81218668619789
 20
187.092524956597
 10
63.6369425455729
 20
187.092524956597
 10
64.28806559244789
 20
186.3992339409721
 10
64.76486680772568
 20
185.0126519097221
 10
65.24166802300347
 20
183.6260698784719
 10
65.48006863064235
 20
181.7961040581595
 10
65.48006863064235
 20
179.5239946831596
 10
65.48006863064235
 20
177.3734282769096
 10
65.27336290147568
 20
175.471528862847
 10
64.86132948133678
 20
173.8176763237846
 10
64.4492960611979
 20
172.1632036675345
 10
63.78094753689235
 20
171.3365874565971
 10
62.85697292751734
 20
171.3365874565971
 97
        1
330
2A62
 92
        1
 93
        1
 72
     4
 94
        3
 73
     0
 74
     0
 95
       29
 96
       25
 40
0.0
 40
0.0
 40
0.0
 40
0.0
 40
1.0
 40
1.0
 40
1.0
 40
2.0
 40
2.0
 40
2.0
 40
3.0
 40
3.0
 40
3.0
 40
4.0
 40
4.0
 40
4.0
 40
5.0
 40
5.0
 40
5.0
 40
6.0
 40
6.0
 40
6.0
 40
7.0
 40
7.0
 40
7.0
 40
8.0
 40
8.0
 40
8.0
 40
8.0
 10
62.76119927300346
 20
189.4340874565971
 10
61.47273356119789
 20
189.4340874565971
 10
60.50121663411457
 20
188.239741753472
 10
59.84733751085068
 20
185.8516704644094
 10
59.3395304361979
 20
183.9900786675345
 10
59.08597140842012
 20
181.7514556206596
 10
59.08597140842012
 20
179.1351812065971
 10
59.08597140842012
 20
176.2379937065971
 10
59.38362765842011
 20
173.8412407769095
 10
59.97894015842011
 20
171.9449224175346
 10
60.64246554904511
 20
169.9779106987846
 10
61.56023898654511
 20
168.9950249565971
 10
62.7315714518229
 20
168.9950249565971
 10
63.9904093424479
 20
168.9950249565971
 10
64.95641411675345
 20
170.118677300347
 10
65.63027479383679
 20
172.3659819878471
 10
66.20629475911457
 20
174.279663628472
 10
66.49430474175345
 20
176.6813774956594
 10
66.49430474175345
 20
179.5698833550345
 10
66.49430474175345
 20
182.2388677300344
 10
66.24005669487845
 20
184.4291216362844
 10
65.73293863932289
 20
186.141265190972
 10
65.08870578342011
 20
188.336480034722
 10
64.09789632161457
 20
189.4340874565971
 10
62.76119927300346
 20
189.4340874565971
 97
        0
 75
     0
 76
     1
 98
        0
  0
HATCH
  5
2A79
330
2A5C
100
AcDbEntity
  8
0
  6
Continuous
100
AcDbHatch
 10
0.0
 20
0.0
 30
0.0
210
0.0
220
0.0
230
1.0
  2
SOLID
 70
     1
 71
     1
 91
        1
 92
        1
 93
        1
 72
     4
 94
        3
 73
     0
 74
     0
 95
       59
 96
       55
 40
0.0
 40
0.0
 40
0.0
 40
0.0
 40
1.0
 40
1.0
 40
1.0
 40
2.0
 40
2.0
 40
2.0
 40
3.0
 40
3.0
 40
3.0
 40
4.0
 40
4.0
 40
4.0
 40
5.0
 40
5.0
 40
5.0
 40
6.0
 40
6.0
 40
6.0
 40
7.0
 40
7.0
 40
7.0
 40
8.0
 40
8.0
 40
8.0
 40
9.0
 40
9.0
 40
9.0
 40
10.0
 40
10.0
 40
10.0
 40
11.0
 40
11.0
 40
11.0
 40
12.0
 40
12.0
 40
12.0
 40
13.0
 40
13.0
 40
13.0
 40
14.0
 40
14.0
 40
14.0
 40
15.0
 40
15.0
 40
15.0
 40
16.0
 40
16.0
 40
16.0
 40
17.0
 40
17.0
 40
17.0
 40
18.0
 40
18.0
 40
18.0
 40
18.0
 10
49.39440104166666
 20
189.0932159288193
 10
49.39440104166666
 20
189.0932159288193
 10
51.24786241319444
 20
189.0932159288193
 10
51.24786241319444
 20
189.0932159288193
 10
51.24786241319444
 20
189.0932159288193
 10
54.04665798611111
 20
172.3887471788193
 10
54.04665798611111
 20
172.3887471788193
 10
54.04665798611111
 20
172.3887471788193
 10
56.83994140624999
 20
189.0932159288193
 10
56.83994140624999
 20
189.0932159288193
 10
56.83994140624999
 20
189.0932159288193
 10
58.69891493055554
 20
189.0932159288193
 10
58.69891493055554
 20
189.0932159288193
 10
58.69891493055554
 20
189.0932159288193
 10
58.69891493055554
 20
169.3358964843748
 10
58.69891493055554
 20
169.3358964843748
 10
58.69891493055554
 20
169.3358964843748
 10
57.46419270833333
 20
169.3358964843748
 10
57.46419270833333
 20
169.3358964843748
 10
57.46419270833333
 20
169.3358964843748
 10
57.46419270833333
 20
180.9964422743054
 10
57.46419270833333
 20
180.9964422743054
 10
57.46419270833333
 20
181.3996011284721
 10
57.47108289930555
 20
182.0677291666664
 10
57.48624131944444
 20
183.0001924913193
 10
57.50071072048609
 20
183.9326558159721
 10
57.50828993055554
 20
184.932312282986
 10
57.50828993055554
 20
185.9997957899304
 10
57.50828993055554
 20
185.9997957899304
 10
54.700537109375
 20
169.3358964843748
 10
54.700537109375
 20
169.3358964843748
 10
54.700537109375
 20
169.3358964843748
 10
53.38382161458333
 20
169.3358964843748
 10
53.38382161458333
 20
169.3358964843748
 10
53.38382161458333
 20
169.3358964843748
 10
50.58502604166665
 20
185.9997957899304
 10
50.58502604166665
 20
185.9997957899304
 10
50.58502604166665
 20
185.9997957899304
 10
50.58502604166665
 20
185.3944236111109
 10
50.58502604166665
 20
185.3944236111109
 10
50.58502604166665
 20
184.9101258680554
 10
50.59191623263888
 20
184.1729029947915
 10
50.60707465277777
 20
183.1821210937498
 10
50.62154405381943
 20
182.1913391927082
 10
50.62912326388889
 20
181.4629908854165
 10
50.62912326388889
 20
180.9964422743054
 10
50.62912326388889
 20
180.9964422743054
 10
50.62912326388889
 20
169.3358964843748
 10
50.62912326388889
 20
169.3358964843748
 10
50.62912326388889
 20
169.3358964843748
 10
49.39440104166666
 20
169.3358964843748
 10
49.39440104166666
 20
169.3358964843748
 10
49.39440104166666
 20
169.3358964843748
 10
49.39440104166666
 20
189.0932159288193
 10
49.39440104166666
 20
189.0932159288193
 97
        1
330
2A61
 75
     0
 76
     1
 98
        1
 10
0.0
 20
0.0
  0
HATCH
  5
2A7A
330
2A5C
100
AcDbEntity
  8
0
  6
Continuous
100
AcDbHatch
 10
0.0
 20
0.0
 30
0.0
210
0.0
220
0.0
230
1.0
  2
SOLID
 70
     1
 71
     1
 91
        2
 92
       16
 93
        1
 72
     4
 94
        3
 73
     0
 74
     0
 95
       32
 96
       28
 40
0.0
 40
0.0
 40
0.0
 40
0.0
 40
1.0
 40
1.0
 40
1.0
 40
2.0
 40
2.0
 40
2.0
 40
3.0
 40
3.0
 40
3.0
 40
4.0
 40
4.0
 40
4.0
 40
5.0
 40
5.0
 40
5.0
 40
6.0
 40
6.0
 40
6.0
 40
7.0
 40
7.0
 40
7.0
 40
8.0
 40
8.0
 40
8.0
 40
9.0
 40
9.0
 40
9.0
 40
9.0
 10
91.70051812065969
 20
171.6077853732636
 10
91.70051812065969
 20
171.6077853732636
 10
91.70051812065969
 20
186.7401881510414
 10
91.70051812065969
 20
186.7401881510414
 10
91.70051812065969
 20
186.7401881510414
 10
93.98668348524305
 20
186.7401881510414
 10
93.98668348524305
 20
186.7401881510414
 10
95.02159016927082
 20
186.7401881510414
 10
95.77331000434028
 20
186.0644533420137
 10
96.24322102864582
 20
184.7142515190969
 10
96.71313205295138
 20
183.3640496961804
 10
96.94808756510417
 20
181.4680620659721
 10
96.94808756510417
 20
179.026288628472
 10
96.94808756510417
 20
178.3911232638887
 10
96.91432562934028
 20
177.7027105034721
 10
96.84749077690971
 20
176.9604164496525
 10
96.7324245876736
 20
175.7167094184025
 10
96.55052354600693
 20
174.6974021267359
 10
96.30109863281248
 20
173.9018606770831
 10
95.98414984809028
 20
172.9091770833332
 10
95.57693956163193
 20
172.2378795572914
 10
95.07877875434026
 20
171.8892358940971
 10
94.79076877170138
 20
171.7016022135415
 10
94.43178982204859
 20
171.6077853732636
 10
94.00115288628471
 20
171.6077853732636
 10
94.00115288628471
 20
171.6077853732636
 10
91.70051812065969
 20
171.6077853732636
 10
91.70051812065969
 20
171.6077853732636
 97
        1
330
2A66
 92
        1
 93
        1
 72
     4
 94
        3
 73
     0
 74
     0
 95
       26
 96
       22
 40
0.0
 40
0.0
 40
0.0
 40
0.0
 40
1.0
 40
1.0
 40
1.0
 40
2.0
 40
2.0
 40
2.0
 40
3.0
 40
3.0
 40
3.0
 40
4.0
 40
4.0
 40
4.0
 40
5.0
 40
5.0
 40
5.0
 40
6.0
 40
6.0
 40
6.0
 40
7.0
 40
7.0
 40
7.0
 40
7.0
 10
90.37760145399305
 20
169.3358964843748
 10
90.37760145399305
 20
169.3358964843748
 10
94.22990722656248
 20
169.3358964843748
 10
94.22990722656248
 20
169.3358964843748
 10
95.87115071614581
 20
169.3358964843748
 10
97.03008083767359
 20
170.8331625434026
 10
97.70600857204859
 20
173.8283285590275
 10
98.08221299913194
 20
175.5227367621525
 10
98.27100423177082
 20
177.4187243923609
 10
98.27100423177082
 20
179.5169253472221
 10
98.27100423177082
 20
182.233810329861
 10
97.94716525607638
 20
184.4619602864582
 10
97.30086534288195
 20
186.2013752170136
 10
96.57601725260416
 20
188.1290577256942
 10
95.5576470269097
 20
189.0932159288193
 10
94.24437662760416
 20
189.0932159288193
 10
94.24437662760416
 20
189.0932159288193
 10
90.37760145399305
 20
189.0932159288193
 10
90.37760145399305
 20
189.0932159288193
 10
90.37760145399305
 20
189.0932159288193
 10
90.37760145399305
 20
169.3358964843748
 10
90.37760145399305
 20
169.3358964843748
 97
        0
 75
     0
 76
     1
 98
        0
  0
HATCH
  5
2A7B
330
2A5C
100
AcDbEntity
  8
0
  6
Continuous
100
AcDbHatch
 10
0.0
 20
0.0
 30
0.0
210
0.0
220
0.0
230
1.0
  2
SOLID
 70
     1
 71
     1
 91
        2
 92
       16
 93
        1
 72
     4
 94
        3
 73
     0
 74
     0
 95
       26
 96
       22
 40
0.0
 40
0.0
 40
0.0
 40
0.0
 40
1.0
 40
1.0
 40
1.0
 40
2.0
 40
2.0
 40
2.0
 40
3.0
 40
3.0
 40
3.0
 40
4.0
 40
4.0
 40
4.0
 40
5.0
 40
5.0
 40
5.0
 40
6.0
 40
6.0
 40
6.0
 40
7.0
 40
7.0
 40
7.0
 40
7.0
 10
100.5623372395832
 20
180.0462298177081
 10
100.5623372395832
 20
180.0462298177081
 10
100.5623372395832
 20
186.7401881510414
 10
100.5623372395832
 20
186.7401881510414
 10
100.5623372395832
 20
186.7401881510414
 10
103.6732584635416
 20
186.7401881510414
 10
103.6732584635416
 20
186.7401881510414
 10
104.1107855902777
 20
186.7401881510414
 10
104.4580512152777
 20
186.6064357638887
 10
104.7150553385415
 20
186.3401987847219
 10
105.2097710503471
 20
185.8330807291664
 10
105.4571289062498
 20
184.8822343749997
 10
105.4571289062498
 20
183.4863919270832
 10
105.4571289062498
 20
182.188169704861
 10
105.280740017361
 20
181.2905707465276
 10
104.9286512586804
 20
180.7929611545137
 10
104.5765624999999
 20
180.2947176649304
 10
104.1011393229166
 20
180.0462298177081
 10
103.5023817274304
 20
180.0462298177081
 10
103.5023817274304
 20
180.0462298177081
 10
100.5623372395832
 20
180.0462298177081
 10
100.5623372395832
 20
180.0462298177081
 97
        1
330
2A67
 92
        1
 93
        1
 72
     4
 94
        3
 73
     0
 74
     0
 95
       68
 96
       64
 40
0.0
 40
0.0
 40
0.0
 40
0.0
 40
1.0
 40
1.0
 40
1.0
 40
2.0
 40
2.0
 40
2.0
 40
3.0
 40
3.0
 40
3.0
 40
4.0
 40
4.0
 40
4.0
 40
5.0
 40
5.0
 40
5.0
 40
6.0
 40
6.0
 40
6.0
 40
7.0
 40
7.0
 40
7.0
 40
8.0
 40
8.0
 40
8.0
 40
9.0
 40
9.0
 40
9.0
 40
10.0
 40
10.0
 40
10.0
 40
11.0
 40
11.0
 40
11.0
 40
12.0
 40
12.0
 40
12.0
 40
13.0
 40
13.0
 40
13.0
 40
14.0
 40
14.0
 40
14.0
 40
15.0
 40
15.0
 40
15.0
 40
16.0
 40
16.0
 40
16.0
 40
17.0
 40
17.0
 40
17.0
 40
18.0
 40
18.0
 40
18.0
 40
19.0
 40
19.0
 40
19.0
 40
20.0
 40
20.0
 40
20.0
 40
21.0
 40
21.0
 40
21.0
 40
21.0
 10
99.23942057291661
 20
169.3358964843748
 10
99.23942057291661
 20
169.3358964843748
 10
100.5623372395832
 20
169.3358964843748
 10
100.5623372395832
 20
169.3358964843748
 10
100.5623372395832
 20
169.3358964843748
 10
100.5623372395832
 20
177.8149103732637
 10
100.5623372395832
 20
177.8149103732637
 10
100.5623372395832
 20
177.8149103732637
 10
103.4472601996527
 20
177.8149103732637
 10
103.4472601996527
 20
177.8149103732637
 10
103.9681586371527
 20
177.8149103732637
 10
104.3519422743053
 20
177.6938359374998
 10
104.5986111111109
 20
177.451687065972
 10
105.0244249131943
 20
177.0117621527776
 10
105.2518012152777
 20
176.1458580729164
 10
105.280740017361
 20
174.8539748263887
 10
105.280740017361
 20
174.8539748263887
 10
105.3689344618053
 20
171.5564396701386
 10
105.3689344618053
 20
171.5564396701386
 10
105.3882269965277
 20
170.7843524305554
 10
105.4109646267359
 20
170.2639225260415
 10
105.4357693142359
 20
169.9951499565971
 10
105.4605740017359
 20
169.7257434895831
 10
105.4970920138888
 20
169.5057810329859
 10
105.5467013888887
 20
169.3358964843748
 10
105.5467013888887
 20
169.3358964843748
 10
107.1769205729166
 20
169.3358964843748
 10
107.1769205729166
 20
169.3358964843748
 10
107.1769205729166
 20
169.3358964843748
 10
107.1769205729166
 20
169.7821603732636
 10
107.1769205729166
 20
169.7821603732636
 10
106.9750379774303
 20
169.9609194878471
 10
106.8337890624998
 20
170.3628105468748
 10
106.7538628472221
 20
170.9878335503471
 10
106.7028754340275
 20
171.3542263454858
 10
106.6677354600692
 20
171.9120562065971
 10
106.6477539062498
 20
172.6625909288193
 10
106.6477539062498
 20
172.6625909288193
 10
106.6036566840277
 20
175.3205234374999
 10
106.6036566840277
 20
175.3205234374999
 10
106.5836751302082
 20
176.4716814236109
 10
106.4768771701387
 20
177.3033550347219
 10
106.2839518229166
 20
177.8142764756942
 10
106.0903374565971
 20
178.3251979166665
 10
105.8002604166666
 20
178.7372313368054
 10
105.4130316840277
 20
179.0516445312498
 10
105.8443576388887
 20
179.5086846788193
 10
106.179909939236
 20
180.1134229600693
 10
106.4196885850692
 20
180.8664932725692
 10
106.6594672309027
 20
181.6189296874999
 10
106.7800455729166
 20
182.5868912760414
 10
106.7800455729166
 20
183.7697441406248
 10
106.7800455729166
 20
186.0371957465275
 10
106.3328721788193
 20
187.5921464843749
 10
105.4392144097221
 20
188.4345963541665
 10
104.9679253472221
 20
188.8732534722221
 10
104.3719238281249
 20
189.0932159288193
 10
103.6512098524303
 20
189.0932159288193
 10
103.6512098524303
 20
189.0932159288193
 10
99.23942057291661
 20
189.0932159288193
 10
99.23942057291661
 20
189.0932159288193
 10
99.23942057291661
 20
189.0932159288193
 10
99.23942057291661
 20
169.3358964843748
 10
99.23942057291661
 20
169.3358964843748
 97
        0
 75
     0
 76
     1
 98
        0
  0
HATCH
  5
2A7C
330
2A5C
100
AcDbEntity
  8
0
  6
Continuous
100
AcDbHatch
 10
0.0
 20
0.0
 30
0.0
210
0.0
220
0.0
230
1.0
  2
SOLID
 70
     1
 71
     1
 91
        2
 92
        1
 93
        8
 72
     1
 10
35.47828233506943
 20
189.0932159288193
 11
31.83957248263888
 21
169.3358964843748
 72
     1
 10
31.83957248263888
 20
169.3358964843748
 11
33.22450086805555
 21
169.3358964843748
 72
     1
 10
33.22450086805555
 20
169.3358964843748
 11
34.27043185763887
 21
175.2590353732638
 72
     1
 10
34.27043185763887
 20
175.2590353732638
 11
38.04694552951389
 21
175.2590353732638
 72
     1
 10
38.04694552951389
 20
175.2590353732638
 11
39.05015733506942
 21
169.3358964843748
 72
     1
 10
39.05015733506942
 20
169.3358964843748
 11
40.43508572048611
 21
169.3358964843748
 72
     1
 10
40.43508572048611
 20
169.3358964843748
 11
36.952783203125
 21
189.0932159288193
 72
     1
 10
36.952783203125
 20
189.0932159288193
 11
35.47828233506943
 21
189.0932159288193
 97
        8
330
2A77
330
2A70
330
2A71
330
2A72
330
2A73
330
2A74
330
2A75
330
2A76
 92
       16
 93
        3
 72
     1
 10
37.67556423611111
 20
177.4497853732638
 11
34.65766059027778
 21
177.4497853732638
 72
     1
 10
34.65766059027778
 20
177.4497853732638
 11
36.19830729166666
 21
186.1658769531249
 72
     1
 10
36.19830729166666
 20
186.1658769531249
 11
37.67556423611111
 21
177.4497853732638
 97
        3
330
2A6F
330
2A6D
330
2A6E
 75
     0
 76
     1
 98
        1
 10
0.0
 20
0.0
  0
HATCH
  5
2A7D
330
2A5C
100
AcDbEntity
  8
0
  6
Continuous
100
AcDbHatch
 10
0.0
 20
0.0
 30
0.0
210
0.0
220
0.0
230
1.0
  2
SOLID
 70
     1
 71
     1
 91
        1
 92
        1
 93
        1
 72
     4
 94
        3
 73
     0
 74
     0
 95
      113
 96
      109
 40
0.0
 40
0.0
 40
0.0
 40
0.0
 40
1.0
 40
1.0
 40
1.0
 40
2.0
 40
2.0
 40
2.0
 40
3.0
 40
3.0
 40
3.0
 40
4.0
 40
4.0
 40
4.0
 40
5.0
 40
5.0
 40
5.0
 40
6.0
 40
6.0
 40
6.0
 40
7.0
 40
7.0
 40
7.0
 40
8.0
 40
8.0
 40
8.0
 40
9.0
 40
9.0
 40
9.0
 40
10.0
 40
10.0
 40
10.0
 40
11.0
 40
11.0
 40
11.0
 40
12.0
 40
12.0
 40
12.0
 40
13.0
 40
13.0
 40
13.0
 40
14.0
 40
14.0
 40
14.0
 40
15.0
 40
15.0
 40
15.0
 40
16.0
 40
16.0
 40
16.0
 40
17.0
 40
17.0
 40
17.0
 40
18.0
 40
18.0
 40
18.0
 40
19.0
 40
19.0
 40
19.0
 40
20.0
 40
20.0
 40
20.0
 40
21.0
 40
21.0
 40
21.0
 40
22.0
 40
22.0
 40
22.0
 40
23.0
 40
23.0
 40
23.0
 40
24.0
 40
24.0
 40
24.0
 40
25.0
 40
25.0
 40
25.0
 40
26.0
 40
26.0
 40
26.0
 40
27.0
 40
27.0
 40
27.0
 40
28.0
 40
28.0
 40
28.0
 40
29.0
 40
29.0
 40
29.0
 40
30.0
 40
30.0
 40
30.0
 40
31.0
 40
31.0
 40
31.0
 40
32.0
 40
32.0
 40
32.0
 40
33.0
 40
33.0
 40
33.0
 40
34.0
 40
34.0
 40
34.0
 40
35.0
 40
35.0
 40
35.0
 40
36.0
 40
36.0
 40
36.0
 40
36.0
 10
193.3039632161458
 20
186.1548733181423
 10
193.3039632161458
 20
186.1860514322916
 10
193.3039632161458
 20
219.6932223849826
 10
193.3039632161458
 20
219.6932223849826
 10
193.3039632161458
 20
219.6932223849826
 10
193.2974175347219
 20
219.7488606770833
 10
193.2974175347219
 20
219.7488606770833
 10
191.5293945312499
 20
235.455740017361
 10
175.1458984374999
 20
235.2467949761284
 10
174.9808783637151
 20
235.2428331163193
 10
174.9808783637151
 20
235.2428331163193
 10
125.8827555338541
 20
235.2430053710937
 10
125.8827555338541
 20
235.2430053710937
 10
125.8827555338541
 20
235.2430053710937
 10
125.8827555338541
 20
255.5278998480901
 10
125.8827555338541
 20
255.5278998480901
 10
125.8827555338541
 20
255.5278998480901
 10
84.5626247829861
 20
255.5278998480901
 10
84.5626247829861
 20
255.5278998480901
 10
84.5626247829861
 20
255.5278998480901
 10
84.55711263020829
 20
233.7919311523436
 10
84.55711263020829
 20
233.7919311523436
 10
84.55711263020829
 20
233.7919311523436
 10
64.42052951388888
 20
233.7919311523436
 10
64.42052951388888
 20
233.7919311523436
 10
64.42052951388888
 20
233.7919311523436
 10
64.41501736111111
 20
255.5278998480901
 10
64.41501736111111
 20
255.5278998480901
 10
64.41501736111111
 20
255.5278998480901
 10
23.91757541232637
 20
255.5278998480901
 10
23.91757541232637
 20
255.5278998480901
 10
23.91757541232637
 20
255.5278998480901
 10
23.91757541232637
 20
233.2393378363715
 10
23.91757541232637
 20
233.2393378363715
 10
23.91757541232637
 20
233.2393378363715
 10
43.65624999999999
 20
233.2393378363715
 10
43.65624999999999
 20
233.2393378363715
 10
43.65624999999999
 20
233.2393378363715
 10
43.65624999999999
 20
211.5188720703125
 10
43.65624999999999
 20
211.5188720703125
 10
43.65624999999999
 20
211.5188720703125
 10
23.91757541232637
 20
211.5188720703125
 10
23.91757541232637
 20
211.5188720703125
 10
23.91757541232637
 20
211.5188720703125
 10
23.91757541232637
 20
189.2303100585936
 10
23.91757541232637
 20
189.2303100585936
 10
23.91757541232637
 20
189.2303100585936
 10
64.41501736111111
 20
189.2303100585936
 10
64.41501736111111
 20
189.2303100585936
 10
64.41501736111111
 20
189.2303100585936
 10
64.42052951388888
 20
211.069976128472
 10
64.42052951388888
 20
211.069976128472
 10
64.42052951388888
 20
211.069976128472
 10
84.55711263020829
 20
211.069976128472
 10
84.55711263020829
 20
211.069976128472
 10
84.55711263020829
 20
211.069976128472
 10
84.5626247829861
 20
189.2303100585936
 10
84.5626247829861
 20
189.2303100585936
 10
84.5626247829861
 20
189.2303100585936
 10
125.8827555338541
 20
189.2303100585936
 10
125.8827555338541
 20
189.2303100585936
 10
125.8827555338541
 20
189.2303100585936
 10
125.8827555338541
 20
211.5188720703125
 10
125.8827555338541
 20
211.5188720703125
 10
125.8827555338541
 20
211.5188720703125
 10
105.3213921440971
 20
211.5188720703125
 10
105.3213921440971
 20
211.5188720703125
 10
105.3213921440971
 20
211.5188720703125
 10
105.3213921440971
 20
233.2393378363715
 10
105.3213921440971
 20
233.2393378363715
 10
105.3213921440971
 20
233.2393378363715
 10
175.0046495225693
 20
233.243127441406
 10
175.0046495225693
 20
233.243127441406
 10
175.6268337673611
 20
233.2560465494791
 10
189.7165852864583
 20
233.3962619357638
 10
191.3037407769094
 20
219.5690266927083
 10
191.3037407769094
 20
219.4332899305555
 10
191.3037407769094
 20
186.1142211914062
 10
191.3037407769094
 20
186.1142211914062
 10
191.3037407769094
 20
186.1142211914062
 10
191.3051188151039
 20
186.0880384657115
 10
191.3051188151039
 20
186.0880384657115
 10
191.3054633246526
 20
186.0787367078991
 10
191.3109754774304
 20
185.9566080729166
 10
191.3109754774304
 20
185.7399115668401
 10
191.3109754774304
 20
184.2090833875865
 10
191.0488037109374
 20
177.9643310546874
 10
186.9866916232638
 20
173.5652886284722
 10
184.2540418836804
 20
170.6064683702255
 10
180.3224989149304
 20
169.0308539496526
 10
175.300927734375
 20
168.8825425889756
 10
175.300927734375
 20
168.8825425889756
 10
107.0094889322916
 20
168.8828870985243
 10
107.0094889322916
 20
168.8828870985243
 10
107.0094889322916
 20
168.8828870985243
 10
107.0094889322916
 20
166.8830091688368
 10
107.0094889322916
 20
166.8830091688368
 10
107.0094889322916
 20
166.8830091688368
 10
175.3305555555555
 20
166.8830091688368
 10
175.3305555555555
 20
166.8830091688368
 10
180.9467502170138
 20
167.0485460069444
 10
185.3571614583333
 20
168.8448187934026
 10
188.4687717013888
 20
172.2223904079861
 10
192.9649658203124
 20
177.1034016927083
 10
193.3136094835069
 20
183.7202243381076
 10
193.3136094835069
 20
185.6520616319443
 10
193.3136094835069
 20
185.9247409396701
 10
193.3070638020833
 20
186.0868326822916
 10
193.3039632161458
 20
186.1548733181423
 97
        1
330
2A5D
 75
     0
 76
     1
 98
        1
 10
0.0
 20
0.0
  0
HATCH
  5
2A7E
330
2A5C
100
AcDbEntity
  8
0
  6
Continuous
100
AcDbHatch
 10
0.0
 20
0.0
 30
0.0
210
0.0
220
0.0
230
1.0
  2
SOLID
 70
     1
 71
     1
 91
        2
 92
        1
 93
        1
 72
     4
 94
        3
 73
     0
 74
     0
 95
       23
 96
       19
 40
0.0
 40
0.0
 40
0.0
 40
0.0
 40
1.0
 40
1.0
 40
1.0
 40
2.0
 40
2.0
 40
2.0
 40
3.0
 40
3.0
 40
3.0
 40
4.0
 40
4.0
 40
4.0
 40
5.0
 40
5.0
 40
5.0
 40
6.0
 40
6.0
 40
6.0
 40
6.0
 10
148.6593153211804
 20
211.3929538302949
 10
148.6593153211804
 20
211.3929538302949
 10
148.6593153211804
 20
189.630802408854
 10
148.6593153211804
 20
189.630802408854
 10
148.6593153211804
 20
189.630802408854
 10
161.3152180989583
 20
189.630802408854
 10
161.3152180989583
 20
189.630802408854
 10
162.8431179470484
 20
189.630802408854
 10
170.4657362196179
 20
190.1880466037324
 10
170.4657362196179
 20
201.1911648220484
 10
170.4657362196179
 20
211.1288872612845
 10
162.3356553819444
 20
211.3914035373261
 10
162.2536621093749
 20
211.3927815755205
 10
162.2536621093749
 20
211.3927815755205
 10
149.6594265407986
 20
211.3929538302949
 10
149.6594265407986
 20
211.3929538302949
 10
149.6594265407986
 20
211.3929538302949
 10
148.6593153211804
 20
211.3929538302949
 10
148.6593153211804
 20
211.3929538302949
 97
        1
330
2A5E
 92
       16
 93
        1
 72
     4
 94
        3
 73
     0
 74
     0
 95
       20
 96
       16
 40
0.0
 40
0.0
 40
0.0
 40
0.0
 40
1.0
 40
1.0
 40
1.0
 40
2.0
 40
2.0
 40
2.0
 40
3.0
 40
3.0
 40
3.0
 40
4.0
 40
4.0
 40
4.0
 40
5.0
 40
5.0
 40
5.0
 40
5.0
 10
162.2354031032985
 20
209.3930759006075
 10
162.467947048611
 20
209.3861857096352
 10
168.4655137803819
 20
209.1283203124997
 10
168.4655137803819
 20
201.1911648220484
 10
168.4655137803819
 20
192.3202162000866
 10
162.9926350911458
 20
191.6306803385414
 10
161.3152180989583
 20
191.6306803385414
 10
161.3152180989583
 20
191.6306803385414
 10
152.3310980902776
 20
191.6306803385414
 10
150.6595377604166
 20
191.6306803385414
 10
150.6595377604166
 20
193.3373806423609
 10
150.6595377604166
 20
207.686375596788
 10
150.6595377604166
 20
209.3930759006075
 10
152.353835720486
 20
209.3930759006075
 10
162.2354031032985
 20
209.3930759006075
 10
162.2354031032985
 20
209.3930759006075
 97
        0
 75
     0
 76
     1
 98
        0
  0
ENDBLK
  5
2A80
330
2A5C
100
AcDbEntity
  8
0
100
AcDbBlockEnd
  0
BLOCK
  5
2A83
330
2A81
100
AcDbEntity
  8
0
100
AcDbBlockBegin
  2
HD logo-new
 70
     0
 10
0.0
 20
0.0
 30
0.0
  3
HD logo-new
  1

  0
INSERT
  5
2A82
330
2A81
100
AcDbEntity
  8
0
 62
     3
100
AcDbBlockReference
  2
HD_LLC_logo_OT5
 10
-27.1607188578505
 20
-68.37367811463031
 30
0.0
 41
0.2999999999999971
 42
0.3000000000000007
 43
0.3
  0
ENDBLK
  5
2A84
330
2A81
100
AcDbEntity
  8
0
100
AcDbBlockEnd
  0
BLOCK
  5
2A87
330
2A85
100
AcDbEntity
  8
0
100
AcDbBlockBegin
  2
HD Logo
 70
     0
 10
0.0
 20
0.0
 30
0.0
  3
HD Logo
  1

  0
INSERT
  5
2A86
330
2A85
100
AcDbEntity
  8
0
100
AcDbBlockReference
  2
HD logo-new
 10
0.9700256734946606
 20
7.273795608420527
 30
0.0
  0
ENDBLK
  5
2A88
330
2A85
100
AcDbEntity
  8
0
100
AcDbBlockEnd
  0
BLOCK
  5
2A9F
330
2A9D
100
AcDbEntity
  8
0
100
AcDbBlockBegin
  2
Harmonic Drive LLC
 70
     0
 10
0.0
 20
0.0
 30
0.0
  3
Harmonic Drive LLC
  1

  0
MTEXT
  5
2A9E
330
2A9D
100
AcDbEntity
  8
0
100
AcDbMText
 10
8.730232253264317
 20
-1.454758693481394
 30
0.0
 40
5.25
 41
158.5992
 71
     5
 72
     5
  1
{\fArial|b0|i0|c0|p34;Harmonic Drive LLC\P800-921-3332\Pwww.harmonicdrive.net}
 73
     1
 44
1.0
  0
ENDBLK
  5
2AA0
330
2A9D
100
AcDbEntity
  8
0
100
AcDbBlockEnd
  0
BLOCK
  5
2AB2
330
2AB0
100
AcDbEntity
  8
0
100
AcDbBlockBegin
  2
HD LLC
 70
     0
 10
0.0
 20
0.0
 30
0.0
  3
HD LLC
  1

  0
MTEXT
  5
2AB1
330
2AB0
100
AcDbEntity
  8
0
100
AcDbMText
 10
-2.314970886968865
 20
1.247205085865914
 30
0.0
 40
5.675387507387601
 41
236.1828726592229
 71
     5
 72
     5
  1
Harmonic Drive LLC\P800-921-3332\Pwww.harmonicdrive.net
 73
     1
 44
1.0
  0
ENDBLK
  5
2AB3
330
2AB0
100
AcDbEntity
  8
0
100
AcDbBlockEnd
  0
BLOCK
  5
2ABD
330
2ABA
100
AcDbEntity
  8
0
100
AcDbBlockBegin
  2
NTC
 70
     0
 10
0.0
 20
0.0
 30
0.0
  3
NTC
  1

  0
LWPOLYLINE
  5
2ABB
330
2ABA
100
AcDbEntity
  8
0
100
AcDbPolyline
 90
        8
 70
     1
 43
0.0
 10
4.581008201925953
 20
-10.78862239032818
 10
319.3921777697513
 20
-10.78862239032818
 42
-0.4142135623730951
 10
324.9046777697513
 20
-16.30112239032816
 10
324.9046777697513
 20
-117.4075202476924
 42
-0.4142135623730951
 10
319.3921777697513
 20
-122.9200202476925
 10
4.581008201925838
 20
-122.9200202476925
 42
-0.4142135623730951
 10
-0.9314917980741483
 20
-117.4075202476924
 10
-0.9314917980740915
 20
-16.30112239032816
 42
-0.4142135623730951
  0
MTEXT
  5
2ABC
330
2ABA
100
AcDbEntity
  8
0
  6
Continuous
370
    30
100
AcDbMText
 10
21.65307678143926
 20
-17.4535155144544
 30
0.0
 40
8.75
 41
294.5432999999998
 71
     1
 72
     5
  3
{\fTxt|b1|i0|c0|p2;Notice:\P\Ftxt.shx;\H0.5714x;All specifications and dimensions shown in the drawing are subject to change without notice. This drawing is the property of Harmonic Drive LLC.   This data is believed to be accurate, however, Harmonic
  1
 Drive LLC assumes no liability for any errors or omissions in the specifications, models, or drawings.\P\PHarmonic Drive LLC\PTel: 800-921-3332\Pwww.harmonicdrive.net}
 73
     1
 44
1.0
  0
ENDBLK
  5
2ABE
330
2ABA
100
AcDbEntity
  8
0
100
AcDbBlockEnd
  0
ENDSEC
  0
SECTION
  2
ENTITIES
  0
LINE
  5
27DF
330
27BF
100
AcDbEntity
  8
1
 62
     7
100
AcDbLine
 10
187.2491835226584
 20
167.7367031868425
 30
0.0
 11
187.2491835226584
 21
165.3367031868425
 31
0.0
  0
LINE
  5
27E0
330
27BF
100
AcDbEntity
  8
1
 62
     7
100
AcDbLine
 10
184.2491835226584
 20
167.7367031868425
 30
0.0
 11
184.2491835226584
 21
165.3367031868425
 31
0.0
  0
LINE
  5
27E1
330
27BF
100
AcDbEntity
  8
1
 62
     7
100
AcDbLine
 10
184.2491835226584
 20
167.7367031868425
 30
0.0
 11
187.2491835226584
 21
167.7367031868425
 31
0.0
  0
LINE
  5
27E2
330
27BF
100
AcDbEntity
  8
1
 62
     7
100
AcDbLine
 10
187.2491835226584
 20
165.3367031868425
 30
0.0
 11
187.2491835226584
 21
165.0367031868424
 31
0.0
  0
LINE
  5
27E3
330
27BF
100
AcDbEntity
  8
1
 62
     7
100
AcDbLine
 10
184.2491835226584
 20
165.3367031868425
 30
0.0
 11
184.2491835226584
 21
165.0367031868424
 31
0.0
  0
LINE
  5
27E4
330
27BF
100
AcDbEntity
  8
1
 62
     7
100
AcDbLine
 10
184.2491835226584
 20
165.3367031868425
 30
0.0
 11
187.2491835226584
 21
165.3367031868425
 31
0.0
  0
LINE
  5
27E5
330
27BF
100
AcDbEntity
  8
1
  6
CENTER
 62
     3
100
AcDbLine
 10
183.6491835226584
 20
166.5367031868424
 30
0.0
 11
187.8491835226584
 21
166.5367031868424
 31
0.0
  0
LINE
  5
27E6
330
27BF
100
AcDbEntity
  8
1
 62
     7
100
AcDbLine
 10
187.2491835226584
 20
168.0367031868424
 30
0.0
 11
187.2491835226584
 21
167.7367031868425
 31
0.0
  0
LINE
  5
27E7
330
27BF
100
AcDbEntity
  8
1
 62
     7
100
AcDbLine
 10
184.2491835226584
 20
168.0367031868424
 30
0.0
 11
184.2491835226584
 21
167.7367031868425
 31
0.0
  0
LINE
  5
27E8
330
27BF
100
AcDbEntity
  8
1
 62
     3
100
AcDbLine
 10
184.2491835226584
 20
168.0367031868424
 30
0.0
 11
187.2491835226584
 21
168.0367031868424
 31
0.0
  0
LINE
  5
27E9
330
27BF
100
AcDbEntity
  8
1
 62
     7
100
AcDbLine
 10
187.2491835226584
 20
165.0367031868424
 30
0.0
 11
187.2491835226584
 21
156.7527031868424
 31
0.0
  0
LINE
  5
27EA
330
27BF
100
AcDbEntity
  8
1
 62
     7
100
AcDbLine
 10
184.2491835226584
 20
165.0367031868424
 30
0.0
 11
184.2491835226584
 21
164.5367031868424
 31
0.0
  0
LINE
  5
27EB
330
27BF
100
AcDbEntity
  8
1
 62
     3
100
AcDbLine
 10
184.2491835226584
 20
165.0367031868424
 30
0.0
 11
187.2491835226584
 21
165.0367031868424
 31
0.0
  0
LINE
  5
27EC
330
27BF
100
AcDbEntity
  8
1
  6
CENTER
 62
     3
100
AcDbLine
 10
183.3961416480962
 20
192.0367031868424
 30
0.0
 11
188.0470835685241
 21
192.0367031868424
 31
0.0
  0
LINE
  5
27ED
330
27BF
100
AcDbEntity
  8
1
 62
     7
100
AcDbLine
 10
187.2491835226584
 20
189.2867031868424
 30
0.0
 11
187.2491835226584
 21
188.5367031868424
 31
0.0
  0
LINE
  5
27EE
330
27BF
100
AcDbEntity
  8
1
 62
     7
100
AcDbLine
 10
184.2491835226584
 20
189.2867031868424
 30
0.0
 11
184.2491835226584
 21
188.5367031868424
 31
0.0
  0
LINE
  5
27EF
330
27BF
100
AcDbEntity
  8
1
 62
     7
100
AcDbLine
 10
184.2491835226584
 20
189.2867031868424
 30
0.0
 11
187.2491835226584
 21
189.2867031868424
 31
0.0
  0
LINE
  5
27F0
330
27BF
100
AcDbEntity
  8
1
 62
     7
100
AcDbLine
 10
187.2491835226584
 20
194.7867031868424
 30
0.0
 11
187.2491835226584
 21
189.2867031868424
 31
0.0
  0
LINE
  5
27F1
330
27BF
100
AcDbEntity
  8
1
 62
     7
100
AcDbLine
 10
184.2491835226584
 20
194.7867031868424
 30
0.0
 11
184.2491835226584
 21
189.2867031868424
 31
0.0
  0
LINE
  5
27F2
330
27BF
100
AcDbEntity
  8
1
 62
     7
100
AcDbLine
 10
184.2491835226584
 20
194.7867031868424
 30
0.0
 11
187.2491835226584
 21
194.7867031868424
 31
0.0
  0
LINE
  5
27F3
330
27BF
100
AcDbEntity
  8
1
 62
     7
100
AcDbLine
 10
187.2491835226584
 20
171.5367031868422
 30
0.0
 11
187.2491835226584
 21
188.5367031868424
 31
0.0
  0
LINE
  5
27F4
330
27BF
100
AcDbEntity
  8
1
 62
     7
100
AcDbLine
 10
186.7491835226584
 20
172.0367031868424
 30
0.0
 11
187.2491835226584
 21
171.5367031868422
 31
0.0
  0
LINE
  5
27F5
330
27BF
100
AcDbEntity
  8
1
 62
     7
100
AcDbLine
 10
184.2491835226584
 20
171.5367031868422
 30
0.0
 11
184.2491835226584
 21
188.5367031868424
 31
0.0
  0
LINE
  5
27F6
330
27BF
100
AcDbEntity
  8
1
 62
     7
100
AcDbLine
 10
184.7491835226584
 20
172.0367031868424
 30
0.0
 11
184.2491835226584
 21
171.5367031868422
 31
0.0
  0
LINE
  5
27F7
330
27BF
100
AcDbEntity
  8
1
 62
     7
100
AcDbLine
 10
187.2491835226584
 20
171.5367031868422
 30
0.0
 11
187.2491835226584
 21
168.0367031868424
 31
0.0
  0
LINE
  5
27F8
330
27BF
100
AcDbEntity
  8
1
 62
     7
100
AcDbLine
 10
186.7491835226584
 20
188.0367031868424
 30
0.0
 11
187.2491835226584
 21
188.5367031868424
 31
0.0
  0
LINE
  5
27F9
330
27BF
100
AcDbEntity
  8
1
 62
     7
100
AcDbLine
 10
184.2491835226584
 20
171.5367031868422
 30
0.0
 11
184.2491835226584
 21
168.0367031868424
 31
0.0
  0
LINE
  5
27FA
330
27BF
100
AcDbEntity
  8
1
 62
     7
100
AcDbLine
 10
184.7491835226584
 20
188.0367031868424
 30
0.0
 11
184.2491835226584
 21
188.5367031868424
 31
0.0
  0
LINE
  5
27FB
330
27BF
100
AcDbEntity
  8
1
  6
DIVIDE
 62
     7
100
AcDbLine
 10
185.2491834775875
 20
153.5367031868424
 30
0.0
 11
185.2491834775875
 21
159.9590075345743
 31
0.0
  0
LINE
  5
27FC
330
27BF
100
AcDbEntity
  8
1
  6
DIVIDE
 62
     7
100
AcDbLine
 10
190.4436337079042
 20
153.5367031868424
 30
0.0
 11
185.2491834775875
 21
153.5367031868424
 31
0.0
  0
LINE
  5
27FD
330
27BF
100
AcDbEntity
  8
1
  6
DIVIDE
 62
     7
100
AcDbLine
 10
214.7491835225292
 20
153.0367031868424
 30
0.0
 11
214.7491835225292
 21
160.4195659754043
 31
0.0
  0
LINE
  5
27FE
330
27BF
100
AcDbEntity
  8
1
 62
     7
100
AcDbLine
 10
213.2491835225293
 20
153.0367031868424
 30
0.0
 11
213.2491835225293
 21
150.7867031868419
 31
0.0
  0
LINE
  5
27FF
330
27BF
100
AcDbEntity
  8
1
  6
DIVIDE
 62
     7
100
AcDbLine
 10
213.2491835225293
 20
153.0367031868424
 30
0.0
 11
214.7491835225292
 21
153.0367031868424
 31
0.0
  0
LINE
  5
2800
330
27BF
100
AcDbEntity
  8
1
  6
DASHDOT
 62
     3
100
AcDbLine
 10
90.5463931310861
 20
147.5750805208232
 30
0.0
 11
91.90519311787442
 21
152.6461911088411
 31
0.0
  0
LINE
  5
2801
330
27BF
100
AcDbEntity
  8
1
  6
DASHDOT
 62
     3
100
AcDbLine
 10
107.9519739142305
 20
212.5335923387628
 30
0.0
 11
106.5931739274422
 21
207.4624817507451
 31
0.0
  0
LINE
  5
2802
330
27BF
100
AcDbEntity
  8
1
  6
DASHDOT
 62
     3
100
AcDbLine
 10
116.0616835226579
 20
209.1744406320448
 30
0.0
 11
113.436683522658
 21
204.6278072621765
 31
0.0
  0
LINE
  5
2803
330
27BF
100
AcDbEntity
  8
1
  6
DASHDOT
 62
     3
100
AcDbLine
 10
128.3692877249094
 20
196.8668364297934
 30
0.0
 11
123.8226543550414
 21
194.2418364297934
 31
0.0
  0
LINE
  5
2804
330
27BF
100
AcDbEntity
  8
1
  6
DASHDOT
 62
     3
100
AcDbLine
 10
132.874183522658
 20
180.0543364297934
 30
0.0
 11
127.624183522658
 21
180.0543364297934
 31
0.0
  0
LINE
  5
2805
330
27BF
100
AcDbEntity
  8
1
  6
DASHDOT
 62
     3
100
AcDbLine
 10
128.3692877249098
 20
163.2418364297938
 30
0.0
 11
123.8226543550416
 21
165.8668364297938
 31
0.0
  0
LINE
  5
2806
330
27BF
100
AcDbEntity
  8
1
  6
DASHDOT
 62
     3
100
AcDbLine
 10
116.0616835226581
 20
150.934232227542
 30
0.0
 11
113.4366835226584
 21
155.4808655974104
 31
0.0
  0
LINE
  5
2807
330
27BF
100
AcDbEntity
  8
1
  6
DASHDOT
 62
     3
100
AcDbLine
 10
99.24918352265882
 20
146.4293364297938
 30
0.0
 11
99.24918352265869
 21
151.6793364297938
 31
0.0
  0
LINE
  5
2808
330
27BF
100
AcDbEntity
  8
1
  6
DASHDOT
 62
     3
100
AcDbLine
 10
82.4366835226589
 20
150.9342322275418
 30
0.0
 11
85.06168352265891
 21
155.4808655974101
 31
0.0
  0
LINE
  5
2809
330
27BF
100
AcDbEntity
  8
1
  6
DASHDOT
 62
     3
100
AcDbLine
 10
70.12907932040722
 20
163.2418364297934
 30
0.0
 11
74.67571269027539
 21
165.8668364297934
 31
0.0
  0
LINE
  5
280A
330
27BF
100
AcDbEntity
  8
1
  6
DASHDOT
 62
     3
100
AcDbLine
 10
65.62418352265891
 20
180.054336429793
 30
0.0
 11
70.87418352265891
 21
180.054336429793
 31
0.0
  0
LINE
  5
280B
330
27BF
100
AcDbEntity
  8
1
  6
DASHDOT
 62
     3
100
AcDbLine
 10
70.12907932040703
 20
196.8668364297928
 30
0.0
 11
74.67571269027533
 21
194.241836429793
 31
0.0
  0
LINE
  5
280C
330
27BF
100
AcDbEntity
  8
1
  6
DASHDOT
 62
     3
100
AcDbLine
 10
82.43668352265853
 20
209.1744406320444
 30
0.0
 11
85.06168352265852
 21
204.6278072621761
 31
0.0
  0
LINE
  5
280D
330
27BF
100
AcDbEntity
  8
1
  6
CENTER
 62
     3
100
AcDbLine
 10
99.24918352265827
 20
208.4293364297925
 30
0.0
 11
99.24918352265848
 21
140.0543364297925
 31
0.0
  0
LINE
  5
280E
330
27BF
100
AcDbEntity
  8
1
  6
CENTER
 62
     3
100
AcDbLine
 10
99.24918352265827
 20
213.6793364297929
 30
0.0
 11
99.24918352265827
 21
208.4293364297925
 31
0.0
  0
LINE
  5
280F
330
27BF
100
AcDbEntity
  8
1
  6
DASHDOT
 62
     3
100
AcDbLine
 10
99.24918352265827
 20
213.6793364297929
 30
0.0
 11
99.24918352265827
 21
208.4293364297925
 31
0.0
  0
LINE
  5
2810
330
27BF
100
AcDbEntity
  8
1
  6
CENTER
 62
     3
100
AcDbLine
 10
130.2491835226575
 20
180.0543364297934
 30
0.0
 11
139.2491835226582
 21
180.0543364297928
 31
0.0
  0
LINE
  5
2811
330
27BF
100
AcDbEntity
  8
1
  6
DASHDOT
 62
     3
100
AcDbLine
 10
289.0471731396917
 20
212.5336950288441
 30
0.0
 11
290.4059731264798
 21
207.4625844408265
 31
0.0
  0
LINE
  5
2812
330
27BF
100
AcDbEntity
  8
1
  6
DASHDOT
 62
     3
100
AcDbLine
 10
306.451193905625
 20
147.5810052743968
 30
0.0
 11
305.0923939188368
 21
152.6521158624144
 31
0.0
  0
LINE
  5
2813
330
27BF
100
AcDbEntity
  8
1
  6
DASHDOT
 62
     3
100
AcDbLine
 10
314.5601766617445
 20
209.1748443942095
 30
0.0
 11
311.9351766617443
 21
204.6282110243411
 31
0.0
  0
LINE
  5
2814
330
27BF
100
AcDbEntity
  8
1
  6
DASHDOT
 62
     3
100
AcDbLine
 10
326.8666777652474
 20
196.8683432907068
 30
0.0
 11
322.3200443953791
 21
194.2433432907068
 31
0.0
  0
LINE
  5
2815
330
27BF
100
AcDbEntity
  8
1
  6
DASHDOT
 62
     3
100
AcDbLine
 10
326.8666777652476
 20
163.2463570125345
 30
0.0
 11
322.3200443953793
 21
165.8713570125344
 31
0.0
  0
LINE
  5
2816
330
27BF
100
AcDbEntity
  8
1
  6
DASHDOT
 62
     3
100
AcDbLine
 10
314.5601766617446
 20
150.9398559090316
 30
0.0
 11
311.9351766617446
 21
155.4864892788999
 31
0.0
  0
LINE
  5
2817
330
27BF
100
AcDbEntity
  8
1
  6
DASHDOT
 62
     3
100
AcDbLine
 10
280.9381903835723
 20
150.9398559090314
 30
0.0
 11
283.5631903835722
 21
155.4864892788996
 31
0.0
  0
LINE
  5
2818
330
27BF
100
AcDbEntity
  8
1
  6
DASHDOT
 62
     3
100
AcDbLine
 10
268.6316892800695
 20
163.2463570125343
 30
0.0
 11
273.1783226499377
 21
165.8713570125343
 31
0.0
  0
LINE
  5
2819
330
27BF
100
AcDbEntity
  8
1
  6
DASHDOT
 62
     3
100
AcDbLine
 10
268.6316892800693
 20
196.8683432907066
 30
0.0
 11
273.1783226499375
 21
194.2433432907066
 31
0.0
  0
LINE
  5
281A
330
27BF
100
AcDbEntity
  8
1
  6
DASHDOT
 62
     3
100
AcDbLine
 10
280.938190383572
 20
209.1748443942095
 30
0.0
 11
283.5631903835722
 21
204.6282110243411
 31
0.0
  0
LINE
  5
281B
330
27BF
100
AcDbEntity
  8
1
  6
CENTER
 62
     3
100
AcDbLine
 10
297.7491835226583
 20
140.0573501516201
 30
0.0
 11
297.7491835226583
 21
220.0573501516201
 31
0.0
  0
LINE
  5
281C
330
27BF
100
AcDbEntity
  8
1
  6
CENTER
 62
     3
100
AcDbLine
 10
337.7491835226582
 20
180.0573501516204
 30
0.0
 11
257.749183522658
 21
180.0573501516204
 31
0.0
  0
LINE
  5
281D
330
27BF
100
AcDbEntity
  8
1
  6
CENTER
 62
     3
100
AcDbLine
 10
181.3701738844893
 20
180.0367031868424
 30
0.0
 11
187.2491835226584
 21
180.0367031868424
 31
0.0
  0
LINE
  5
281E
330
27BF
100
AcDbEntity
  8
1
 62
     7
100
AcDbLine
 10
210.6491835226584
 20
205.6367031868424
 30
0.0
 11
208.2491835226584
 21
205.6367031868424
 31
0.0
  0
LINE
  5
281F
330
27BF
100
AcDbEntity
  8
1
 62
     7
100
AcDbLine
 10
208.2491835226584
 20
205.6367031868424
 30
0.0
 11
204.2407761318393
 21
205.5877226476527
 31
0.0
  0
LINE
  5
2820
330
27BF
100
AcDbEntity
  8
1
 62
     7
100
AcDbLine
 10
204.2407761318393
 20
205.5877226476527
 30
0.0
 11
204.2391835226584
 21
205.5877031868424
 31
0.0
  0
LINE
  5
2821
330
27BF
100
AcDbEntity
  8
1
 62
     7
100
AcDbLine
 10
188.1981835226584
 20
204.9217031868424
 30
0.0
 11
198.9371835226585
 21
204.9217031868424
 31
0.0
  0
LINE
  5
2822
330
27BF
100
AcDbEntity
  8
1
 62
     7
100
AcDbLine
 10
184.7491835226584
 20
196.0367031868424
 30
0.0
 11
186.4981835226584
 21
196.0367031868424
 31
0.0
  0
LINE
  5
2823
330
27BF
100
AcDbEntity
  8
1
 62
     7
100
AcDbLine
 10
184.2491835226584
 20
195.5367031868424
 30
0.0
 11
184.2491835226584
 21
194.7867031868424
 31
0.0
  0
LINE
  5
2824
330
27BF
100
AcDbEntity
  8
1
 62
     7
100
AcDbLine
 10
184.2491835226584
 20
195.5367031868424
 30
0.0
 11
184.7491835226584
 21
196.0367031868424
 31
0.0
  0
LINE
  5
2825
330
27BF
100
AcDbEntity
  8
1
  6
CENTER
 62
     3
100
AcDbLine
 10
187.2491835226584
 20
180.0367031868424
 30
0.0
 11
221.485758033571
 21
180.0367031868424
 31
0.0
  0
LINE
  5
2826
330
27BF
100
AcDbEntity
  8
1
 62
     7
100
AcDbLine
 10
184.7491835226584
 20
188.0367031868424
 30
0.0
 11
186.7491835226584
 21
188.0367031868424
 31
0.0
  0
LINE
  5
2827
330
27BF
100
AcDbEntity
  8
1
 62
     7
100
AcDbLine
 10
187.2491835226584
 20
203.3207031868424
 30
0.0
 11
187.2491835226584
 21
194.7867031868424
 31
0.0
  0
LINE
  5
2828
330
27BF
100
AcDbEntity
  8
1
 62
     7
100
AcDbLine
 10
212.2491835226584
 20
204.5707031868424
 30
0.0
 11
213.2491835226584
 21
204.6231109661256
 31
0.0
  0
LINE
  5
2829
330
27BF
100
AcDbEntity
  8
1
 62
     7
100
AcDbLine
 10
212.2491835226584
 20
204.5707031868424
 30
0.0
 11
188.2991835226584
 21
204.5707031868424
 31
0.0
  0
LINE
  5
282A
330
27BF
100
AcDbEntity
  8
1
 62
     7
100
AcDbLine
 10
213.2491835226584
 20
204.6231109661256
 30
0.0
 11
213.2491835226584
 21
201.2384329479488
 31
0.0
  0
LINE
  5
282B
330
27BF
100
AcDbEntity
  8
1
 62
     7
100
AcDbLine
 10
212.6243934386919
 20
205.5614932708088
 30
0.0
 11
210.6491835226584
 21
205.6367031868424
 31
0.0
  0
LINE
  5
282C
330
27BF
100
AcDbEntity
  8
1
 62
     7
100
AcDbLine
 10
213.2491835226584
 20
204.6231109661256
 30
0.0
 11
213.2491835226584
 21
204.9367031868424
 31
0.0
  0
LINE
  5
282D
330
27BF
100
AcDbEntity
  8
1
 62
     7
100
AcDbLine
 10
186.5281835226584
 20
164.0367031868422
 30
0.0
 11
184.7491835226584
 21
164.0367031868422
 31
0.0
  0
LINE
  5
282E
330
27BF
100
AcDbEntity
  8
1
 62
     7
100
AcDbLine
 10
184.7491835226584
 20
164.0367031868422
 30
0.0
 11
184.2491835226584
 21
164.5367031868424
 31
0.0
  0
LINE
  5
282F
330
27BF
100
AcDbEntity
  8
1
 62
     7
100
AcDbLine
 10
186.7491835226584
 20
172.0367031868424
 30
0.0
 11
184.7491835226584
 21
172.0367031868424
 31
0.0
  0
LINE
  5
2830
330
27BF
100
AcDbEntity
  8
1
 62
     7
100
AcDbLine
 10
208.2491835226584
 20
154.4367031868424
 30
0.0
 11
210.6491835226584
 21
154.4367031868424
 31
0.0
  0
LINE
  5
2831
330
27BF
100
AcDbEntity
  8
1
 62
     7
100
AcDbLine
 10
204.2407761318393
 20
154.4856837260319
 30
0.0
 11
208.2491835226584
 21
154.4367031868424
 31
0.0
  0
LINE
  5
2832
330
27BF
100
AcDbEntity
  8
1
 62
     7
100
AcDbLine
 10
204.2391835226584
 20
154.4857031868424
 30
0.0
 11
204.2407761318393
 21
154.4856837260319
 31
0.0
  0
LINE
  5
2833
330
27BF
100
AcDbEntity
  8
1
 62
     7
100
AcDbLine
 10
213.2491835226584
 20
155.4502954075593
 30
0.0
 11
212.2491835226584
 21
155.5027031868424
 31
0.0
  0
LINE
  5
2834
330
27BF
100
AcDbEntity
  8
1
 62
     7
100
AcDbLine
 10
213.2491835226584
 20
155.4502954075593
 30
0.0
 11
213.2491835226584
 21
155.1367031868425
 31
0.0
  0
LINE
  5
2835
330
27BF
100
AcDbEntity
  8
1
 62
     7
100
AcDbLine
 10
188.2991835226584
 20
155.5027031868424
 30
0.0
 11
212.2491835226584
 21
155.5027031868424
 31
0.0
  0
LINE
  5
2836
330
27BF
100
AcDbEntity
  8
1
 62
     7
100
AcDbLine
 10
198.9371835226585
 20
155.1517031868423
 30
0.0
 11
188.1981835226584
 21
155.1517031868425
 31
0.0
  0
LINE
  5
2837
330
27BF
100
AcDbEntity
  8
1
 62
     7
100
AcDbLine
 10
213.2491835226584
 20
204.9367031868424
 30
0.0
 11
212.6243934386919
 21
205.5614932708088
 31
0.0
  0
LINE
  5
2838
330
27BF
100
AcDbEntity
  8
1
 62
     7
100
AcDbLine
 10
210.6491835226584
 20
154.4367031868424
 30
0.0
 11
212.6243934386919
 21
154.511913102876
 31
0.0
  0
LINE
  5
2839
330
27BF
100
AcDbEntity
  8
1
 62
     7
100
AcDbLine
 10
212.6243934386919
 20
154.511913102876
 30
0.0
 11
213.2491835226584
 21
155.1367031868425
 31
0.0
  0
LINE
  5
283A
330
27BF
100
AcDbEntity
  8
1
 62
     7
100
AcDbLine
 10
213.2491835226584
 20
158.9065398261743
 30
0.0
 11
213.2491835226584
 21
155.4502954075593
 31
0.0
  0
LINE
  5
283B
330
27BF
100
AcDbEntity
  8
1
 62
     7
100
AcDbLine
 10
202.7491835226514
 20
205.5697031868425
 30
0.0
 11
203.1491835226514
 21
205.1697031868425
 31
0.0
  0
LINE
  5
283C
330
27BF
100
AcDbEntity
  8
1
 62
     7
100
AcDbLine
 10
213.2491835226604
 20
205.5697031868425
 30
0.0
 11
212.8491835226602
 21
205.1697031868425
 31
0.0
  0
LINE
  5
283D
330
27BF
100
AcDbEntity
  8
1
 62
     7
100
AcDbLine
 10
213.2491835226604
 20
205.6367031868424
 30
0.0
 11
213.2491835226604
 21
205.5697031868425
 31
0.0
  0
LINE
  5
283E
330
27BF
100
AcDbEntity
  8
1
 62
     7
100
AcDbLine
 10
202.7491835226514
 20
205.6367031868424
 30
0.0
 11
202.7491835226514
 21
205.5697031868425
 31
0.0
  0
LINE
  5
283F
330
27BF
100
AcDbEntity
  8
1
 62
     7
100
AcDbLine
 10
202.7491835226514
 20
205.6367031868424
 30
0.0
 11
213.2491835226604
 21
205.6367031868424
 31
0.0
  0
LINE
  5
2840
330
27BF
100
AcDbEntity
  8
1
 62
     7
100
AcDbLine
 10
213.2491835225293
 20
154.4367031868424
 30
0.0
 11
213.2491835225293
 21
153.0367031868424
 31
0.0
  0
LINE
  5
2841
330
27BF
100
AcDbEntity
  8
1
 62
     7
100
AcDbLine
 10
202.7491835226584
 20
154.4367031868424
 30
0.0
 11
202.7491835226584
 21
152.9365776561064
 31
0.0
  0
LINE
  5
2842
330
27BF
100
AcDbEntity
  8
1
 62
     7
100
AcDbLine
 10
202.7491835226584
 20
154.4367031868424
 30
0.0
 11
213.2491835225293
 21
154.4367031868424
 31
0.0
  0
LINE
  5
2843
330
27BF
100
AcDbEntity
  8
1
 62
     7
100
AcDbLine
 10
203.1491835226584
 20
154.9037031868421
 30
0.0
 11
202.7491835226584
 21
154.5037031868423
 31
0.0
  0
LINE
  5
2844
330
27BF
100
AcDbEntity
  8
1
 62
     7
100
AcDbLine
 10
203.1491835226584
 20
154.9037031868421
 30
0.0
 11
212.8491835225295
 21
154.9037031868421
 31
0.0
  0
LINE
  5
2845
330
27BF
100
AcDbEntity
  8
1
 62
     7
100
AcDbLine
 10
202.7491835226584
 20
154.5037031868423
 30
0.0
 11
202.7491835226584
 21
154.4367031868424
 31
0.0
  0
LINE
  5
2846
330
27BF
100
AcDbEntity
  8
1
 62
     7
100
AcDbLine
 10
213.2491835225293
 20
154.5037031868423
 30
0.0
 11
212.8491835225295
 21
154.9037031868421
 31
0.0
  0
LINE
  5
2847
330
27BF
100
AcDbEntity
  8
1
 62
     7
100
AcDbLine
 10
213.2491835225293
 20
154.5037031868423
 30
0.0
 11
213.2491835225293
 21
154.4367031868424
 31
0.0
  0
LINE
  5
2848
330
27BF
100
AcDbEntity
  8
0
 62
     7
100
AcDbLine
 10
213.2491835225293
 20
150.7867031868419
 30
0.0
 11
213.2491835226661
 21
150.7867031868419
 31
0.0
  0
LINE
  5
2849
330
27BF
100
AcDbEntity
  8
1
 62
     7
100
AcDbLine
 10
213.2491835225293
 20
150.7867031868419
 30
0.0
 11
205.7491834775875
 21
150.7867031868419
 31
0.0
  0
LINE
  5
284A
330
27BF
100
AcDbEntity
  8
1
  6
CENTER
 62
     3
100
AcDbLine
 10
99.24918352265848
 20
220.0543364297925
 30
0.0
 11
99.24918352265827
 21
213.6793364297929
 31
0.0
  0
LINE
  5
284B
330
27BF
100
AcDbEntity
  8
1
 62
     7
100
AcDbLine
 10
201.0491835226228
 20
162.0367034571966
 30
0.0
 11
201.0491835226228
 21
168.2867033633314
 31
0.0
  0
LINE
  5
284C
330
27BF
100
AcDbEntity
  8
1
 62
     7
100
AcDbLine
 10
201.0491835226228
 20
169.5367033445533
 30
0.0
 11
201.0491835226228
 21
168.5367033595758
 31
0.0
  0
LINE
  5
284D
330
27BF
100
AcDbEntity
  8
1
 62
     7
100
AcDbLine
 10
201.0491835226228
 20
198.0367029164934
 30
0.0
 11
201.0491835226228
 21
190.5367030291419
 31
0.0
  0
LINE
  5
284E
330
27BF
100
AcDbEntity
  8
0
 62
     7
100
AcDbLine
 10
201.0491835226228
 20
163.1367034406972
 30
0.0
 11
201.3491837043673
 21
163.1367034406972
 31
0.0
  0
LINE
  5
284F
330
27BF
100
AcDbEntity
  8
1
 62
     7
100
AcDbLine
 10
212.8491835226602
 20
205.1697031868425
 30
0.0
 11
203.1491835226514
 21
205.1697031868425
 31
0.0
  0
LINE
  5
2850
330
27BF
100
AcDbEntity
  8
1
 62
     7
100
AcDbLine
 10
213.2491835226604
 20
206.7682031868424
 30
0.0
 11
213.2491835226604
 21
205.6367031868424
 31
0.0
  0
LINE
  5
2851
330
27BF
100
AcDbEntity
  8
1
 62
     7
100
AcDbLine
 10
202.7491835226514
 20
206.7682031868424
 30
0.0
 11
202.7491835226514
 21
205.6367031868424
 31
0.0
  0
LINE
  5
2852
330
27BF
100
AcDbEntity
  8
1
  6
DASHDOT
 62
     3
100
AcDbLine
 10
214.7835828499338
 20
149.0367031868424
 30
0.0
 11
204.4925124123011
 21
149.0367031868424
 31
0.0
  0
LINE
  5
2853
330
27BF
100
AcDbEntity
  8
0
 62
     7
100
AcDbLine
 10
212.8491835286652
 20
145.036703712604
 30
0.0
 11
213.2491835226857
 21
145.4367037064931
 31
0.0
  0
LINE
  5
2854
330
27BF
100
AcDbEntity
  8
0
 62
     7
100
AcDbLine
 10
206.1491834716548
 20
145.0367037123249
 30
0.0
 11
212.8491835286652
 21
145.036703712604
 31
0.0
  0
LINE
  5
2855
330
27BF
100
AcDbEntity
  8
0
 62
     7
100
AcDbLine
 10
205.7491834775875
 20
145.4367037063921
 30
0.0
 11
206.1491834716548
 21
145.0367037123249
 31
0.0
  0
LINE
  5
2856
330
27BF
100
AcDbEntity
  8
0
 62
     7
100
AcDbLine
 10
203.1491835226804
 20
152.5367035923119
 30
0.0
 11
205.449183482145
 21
152.5367035923989
 31
0.0
  0
LINE
  5
2857
330
27BF
100
AcDbEntity
  8
0
 62
     7
100
AcDbLine
 10
205.7491834775875
 20
145.4367037063921
 30
0.0
 11
205.7491834775875
 21
152.2367035969057
 31
0.0
  0
LINE
  5
2858
330
27BF
100
AcDbEntity
  8
0
 62
     7
100
AcDbLine
 10
213.2491835226661
 20
147.2867031868424
 30
0.0
 11
213.2491835225293
 21
150.7867031868419
 31
0.0
  0
LINE
  5
2859
330
27BF
100
AcDbEntity
  8
0
 62
     7
100
AcDbLine
 10
213.2491835226857
 20
145.4367037064931
 30
0.0
 11
213.2491835226661
 21
147.2867031868424
 31
0.0
  0
LINE
  5
285A
330
27BF
100
AcDbEntity
  8
1
 62
     7
100
AcDbLine
 10
213.2491835226661
 20
147.2867031868424
 30
0.0
 11
205.7491834775875
 21
147.2867031868424
 31
0.0
  0
LINE
  5
285B
330
27BF
100
AcDbEntity
  8
1
 62
     7
100
AcDbLine
 10
213.2491835226661
 20
150.7867031868419
 30
0.0
 11
213.2491835225293
 21
150.7867031868419
 31
0.0
  0
LINE
  5
285C
330
27BF
100
AcDbEntity
  8
1
 62
     7
100
AcDbLine
 10
202.7491835226669
 20
152.9367035922973
 30
0.0
 11
203.1491835226804
 21
152.5367035923119
 31
0.0
  0
LINE
  5
285D
330
27BF
100
AcDbEntity
  8
1
  6
CENTER
 62
     3
100
AcDbLine
 10
59.24918352265831
 20
180.0543364297928
 30
0.0
 11
130.2491835226575
 21
180.0543364297934
 31
0.0
  0
LINE
  5
285E
330
27BF
100
AcDbEntity
  8
0
 62
     7
100
AcDbLine
 10
298.0991841726837
 20
169.5956110041533
 30
0.0
 11
298.0991841726837
 21
166.9293366270013
 31
0.0
  0
LINE
  5
285F
330
27BF
100
AcDbEntity
  8
0
 62
     7
100
AcDbLine
 10
298.0991841726837
 20
166.9293366270013
 30
0.0
 11
300.4091841379918
 21
166.9293366270013
 31
0.0
  0
LINE
  5
2860
330
27BF
100
AcDbEntity
  8
0
 62
     7
100
AcDbLine
 10
301.109184127464
 20
167.6293366165004
 30
0.0
 11
301.109184127464
 21
169.053572357559
 31
0.0
  0
LINE
  5
2861
330
27BF
100
AcDbEntity
  8
0
 62
     7
100
AcDbLine
 10
297.3991841832011
 20
169.5956110041533
 30
0.0
 11
297.3991841832011
 21
166.9293366270013
 31
0.0
  0
LINE
  5
2862
330
27BF
100
AcDbEntity
  8
0
 62
     7
100
AcDbLine
 10
297.3991841832011
 20
166.9293366270013
 30
0.0
 11
295.089184217895
 21
166.9293366270013
 31
0.0
  0
LINE
  5
2863
330
27BF
100
AcDbEntity
  8
0
 62
     7
100
AcDbLine
 10
294.3891842284318
 20
167.6293366165004
 30
0.0
 11
294.3891842284318
 21
169.053572357559
 31
0.0
  0
LINE
  5
2864
330
27BF
100
AcDbEntity
  8
0
 62
     7
100
AcDbLine
 10
197.6491835226226
 20
180.0367031868424
 30
0.0
 11
197.6491835226226
 21
198.0367029164934
 31
0.0
  0
LINE
  5
2865
330
27BF
100
AcDbEntity
  8
0
 62
     7
100
AcDbLine
 10
197.6491835226226
 20
198.0367029164934
 30
0.0
 11
201.0491835226228
 21
198.0367029164934
 31
0.0
  0
LINE
  5
2866
330
27BF
100
AcDbEntity
  8
0
 62
     7
100
AcDbLine
 10
201.0491835226228
 20
190.5367030291419
 30
0.0
 11
214.2391834445873
 21
190.5367030291419
 31
0.0
  0
LINE
  5
2867
330
27BF
100
AcDbEntity
  8
0
 62
     7
100
AcDbLine
 10
214.2391834445873
 20
190.5367030291419
 30
0.0
 11
214.2391834445873
 21
190.0367030366658
 31
0.0
  0
LINE
  5
2868
330
27BF
100
AcDbEntity
  8
0
 62
     7
100
AcDbLine
 10
214.2391834445873
 20
190.0367030366658
 30
0.0
 11
215.5491835225058
 21
190.0367030366658
 31
0.0
  0
LINE
  5
2869
330
27BF
100
AcDbEntity
  8
0
 62
     7
100
AcDbLine
 10
215.5491835225058
 20
190.0367030366658
 30
0.0
 11
215.5491835225058
 21
190.5367030291419
 31
0.0
  0
LINE
  5
286A
330
27BF
100
AcDbEntity
  8
0
 62
     7
100
AcDbLine
 10
215.5491835225058
 20
190.5367030291419
 30
0.0
 11
217.2491835301698
 21
190.5367030291419
 31
0.0
  0
LINE
  5
286B
330
27BF
100
AcDbEntity
  8
0
 62
     7
100
AcDbLine
 10
217.2491835301698
 20
190.5367030291419
 30
0.0
 11
217.7491835226584
 21
190.0367030366201
 31
0.0
  0
LINE
  5
286C
330
27BF
100
AcDbEntity
  8
0
 62
     7
100
AcDbLine
 10
217.7491835226584
 20
190.0367030366201
 30
0.0
 11
217.7491835226584
 21
180.0367031868424
 31
0.0
  0
LINE
  5
286D
330
27BF
100
AcDbEntity
  8
0
 62
     7
100
AcDbLine
 10
197.6491835226226
 20
180.0367031868424
 30
0.0
 11
197.6491835226226
 21
162.0367034571966
 31
0.0
  0
LINE
  5
286E
330
27BF
100
AcDbEntity
  8
0
 62
     7
100
AcDbLine
 10
197.6491835226226
 20
162.0367034571966
 30
0.0
 11
201.0491835226228
 21
162.0367034571966
 31
0.0
  0
LINE
  5
286F
330
27BF
100
AcDbEntity
  8
0
 62
     7
100
AcDbLine
 10
201.0491835226228
 20
169.5367033445533
 30
0.0
 11
214.2391834445873
 21
169.5367033445533
 31
0.0
  0
LINE
  5
2870
330
27BF
100
AcDbEntity
  8
0
 62
     7
100
AcDbLine
 10
214.2391834445873
 20
169.5367033445533
 30
0.0
 11
214.2391834445873
 21
170.036703337042
 31
0.0
  0
LINE
  5
2871
330
27BF
100
AcDbEntity
  8
0
 62
     7
100
AcDbLine
 10
214.2391834445873
 20
170.036703337042
 30
0.0
 11
215.5491835225058
 21
170.036703337042
 31
0.0
  0
LINE
  5
2872
330
27BF
100
AcDbEntity
  8
0
 62
     7
100
AcDbLine
 10
215.5491835225058
 20
170.036703337042
 30
0.0
 11
215.5491835225058
 21
169.5367033445533
 31
0.0
  0
LINE
  5
2873
330
27BF
100
AcDbEntity
  8
0
 62
     7
100
AcDbLine
 10
215.5491835225058
 20
169.5367033445533
 30
0.0
 11
217.2491835301698
 21
169.5367033445533
 31
0.0
  0
LINE
  5
2874
330
27BF
100
AcDbEntity
  8
0
 62
     7
100
AcDbLine
 10
217.2491835301698
 20
169.5367033445533
 30
0.0
 11
217.7491835226584
 21
170.0367033370674
 31
0.0
  0
LINE
  5
2875
330
27BF
100
AcDbEntity
  8
0
 62
     7
100
AcDbLine
 10
217.7491835226584
 20
170.0367033370674
 30
0.0
 11
217.7491835226584
 21
180.0367031868424
 31
0.0
  0
LINE
  5
2876
330
27BF
100
AcDbEntity
  8
0
 62
     7
100
AcDbLine
 10
201.5491835151248
 20
191.0367030216407
 30
0.0
 11
201.0491835226228
 21
191.5367030141168
 31
0.0
  0
LINE
  5
2877
330
27BF
100
AcDbEntity
  8
0
 62
     7
100
AcDbLine
 10
201.0491835226228
 20
196.9367029330461
 30
0.0
 11
201.3491837043673
 21
196.9367029330461
 31
0.0
  0
LINE
  5
2878
330
27BF
100
AcDbEntity
  8
0
 62
     7
100
AcDbLine
 10
201.3491837043673
 20
196.9367029330461
 30
0.0
 11
201.3491837043673
 21
203.0367028413937
 31
0.0
  0
LINE
  5
2879
330
27BF
100
AcDbEntity
  8
0
 62
     7
100
AcDbLine
 10
201.3491837043673
 20
203.0367028413937
 30
0.0
 11
204.7491836503036
 21
203.0367028413937
 31
0.0
  0
LINE
  5
287A
330
27BF
100
AcDbEntity
  8
0
 62
     7
100
AcDbLine
 10
204.7491836503036
 20
203.0367028413937
 30
0.0
 11
204.7491836503036
 21
196.9367029330461
 31
0.0
  0
LINE
  5
287B
330
27BF
100
AcDbEntity
  8
0
 62
     7
100
AcDbLine
 10
204.7491836503036
 20
196.9367029330461
 30
0.0
 11
207.9891835399648
 21
196.9367029330461
 31
0.0
  0
LINE
  5
287C
330
27BF
100
AcDbEntity
  8
0
 62
     7
100
AcDbLine
 10
207.9891835399648
 20
196.9367029330461
 30
0.0
 11
207.9891835399648
 21
191.7867030103558
 31
0.0
  0
LINE
  5
287D
330
27BF
100
AcDbEntity
  8
0
 62
     7
100
AcDbLine
 10
207.9891835399648
 20
191.7867030103558
 30
0.0
 11
204.8491835226228
 21
191.7867030103558
 31
0.0
  0
LINE
  5
287E
330
27BF
100
AcDbEntity
  8
0
 62
     7
100
AcDbLine
 10
204.8491835226228
 20
191.7867030103558
 30
0.0
 11
204.8491835226228
 21
191.0367030216407
 31
0.0
  0
LINE
  5
287F
330
27BF
100
AcDbEntity
  8
0
 62
     7
100
AcDbLine
 10
204.8491835226228
 20
191.0367030216407
 30
0.0
 11
201.5491835151248
 21
191.0367030216407
 31
0.0
  0
LINE
  5
2880
330
27BF
100
AcDbEntity
  8
0
 62
     7
100
AcDbLine
 10
204.8491835226228
 20
196.9367029330461
 30
0.0
 11
204.8491835226228
 21
191.7867030103558
 31
0.0
  0
LINE
  5
2881
330
27BF
100
AcDbEntity
  8
0
 62
     7
100
AcDbLine
 10
201.549183515155
 20
169.0367033520898
 30
0.0
 11
201.0491835226228
 21
168.5367033595758
 31
0.0
  0
LINE
  5
2882
330
27BF
100
AcDbEntity
  8
0
 62
     7
100
AcDbLine
 10
201.0491835226228
 20
168.5367033595758
 30
0.0
 11
201.0491835226228
 21
168.2867033633314
 31
0.0
  0
LINE
  5
2883
330
27BF
100
AcDbEntity
  8
0
 62
     7
100
AcDbLine
 10
201.0491835226228
 20
168.2867033633314
 30
0.0
 11
197.9891836901592
 21
168.2867033633314
 31
0.0
  0
LINE
  5
2884
330
27BF
100
AcDbEntity
  8
0
 62
     7
100
AcDbLine
 10
197.9891836901592
 20
168.2867033633314
 30
0.0
 11
197.9891836901592
 21
163.1367034406972
 31
0.0
  0
LINE
  5
2885
330
27BF
100
AcDbEntity
  8
0
 62
     7
100
AcDbLine
 10
197.9891836901592
 20
163.1367034406972
 30
0.0
 11
201.0491835226228
 21
163.1367034406972
 31
0.0
  0
LINE
  5
2886
330
27BF
100
AcDbEntity
  8
0
 62
     7
100
AcDbLine
 10
201.3491837043673
 20
163.1367034406972
 30
0.0
 11
201.3491837043673
 21
157.0367035323089
 31
0.0
  0
LINE
  5
2887
330
27BF
100
AcDbEntity
  8
0
 62
     7
100
AcDbLine
 10
201.3491837043673
 20
157.0367035323089
 30
0.0
 11
204.7491836503036
 21
157.0367035323089
 31
0.0
  0
LINE
  5
2888
330
27BF
100
AcDbEntity
  8
0
 62
     7
100
AcDbLine
 10
204.7491836503036
 20
157.0367035323089
 30
0.0
 11
204.7491836503036
 21
163.1367034406972
 31
0.0
  0
LINE
  5
2889
330
27BF
100
AcDbEntity
  8
0
 62
     7
100
AcDbLine
 10
204.7491836503036
 20
163.1367034406972
 30
0.0
 11
204.8491835226228
 21
163.1367034406972
 31
0.0
  0
LINE
  5
288A
330
27BF
100
AcDbEntity
  8
0
 62
     7
100
AcDbLine
 10
204.8491835226228
 20
163.1367034406972
 30
0.0
 11
204.8491835226228
 21
169.0367033520898
 31
0.0
  0
LINE
  5
288B
330
27BF
100
AcDbEntity
  8
0
 62
     7
100
AcDbLine
 10
204.8491835226228
 20
169.0367033520898
 30
0.0
 11
201.549183515155
 21
169.0367033520898
 31
0.0
  0
LINE
  5
288C
330
27BF
100
AcDbEntity
  8
0
 62
     7
100
AcDbLine
 10
204.84918352261
 20
191.0367030216407
 30
0.0
 11
204.84918352261
 21
197.8167029198315
 31
0.0
  0
LINE
  5
288D
330
27BF
100
AcDbEntity
  8
0
 62
     7
100
AcDbLine
 10
204.84918352261
 20
197.8167029198315
 30
0.0
 11
213.1491835226098
 21
197.8167029198315
 31
0.0
  0
LINE
  5
288E
330
27BF
100
AcDbEntity
  8
0
 62
     7
100
AcDbLine
 10
213.1491835226098
 20
197.8167029198315
 30
0.0
 11
213.1491835226098
 21
191.0367030216407
 31
0.0
  0
LINE
  5
288F
330
27BF
100
AcDbEntity
  8
0
 62
     7
100
AcDbLine
 10
213.1491835226098
 20
191.0367030216407
 30
0.0
 11
204.84918352261
 21
191.0367030216407
 31
0.0
  0
LINE
  5
2890
330
27BF
100
AcDbEntity
  8
0
 62
     7
100
AcDbLine
 10
208.18918353694
 20
191.0367030216407
 30
0.0
 11
208.18918353694
 21
197.8167029198315
 31
0.0
  0
LINE
  5
2891
330
27BF
100
AcDbEntity
  8
0
 62
     7
100
AcDbLine
 10
204.84918352261
 20
169.0367033520898
 30
0.0
 11
204.84918352261
 21
162.2567034538713
 31
0.0
  0
LINE
  5
2892
330
27BF
100
AcDbEntity
  8
0
 62
     7
100
AcDbLine
 10
204.84918352261
 20
162.2567034538713
 30
0.0
 11
213.1491835226098
 21
162.2567034538713
 31
0.0
  0
LINE
  5
2893
330
27BF
100
AcDbEntity
  8
0
 62
     7
100
AcDbLine
 10
213.1491835226098
 20
162.2567034538713
 30
0.0
 11
213.1491835226098
 21
169.0367033520898
 31
0.0
  0
LINE
  5
2894
330
27BF
100
AcDbEntity
  8
0
 62
     7
100
AcDbLine
 10
213.1491835226098
 20
169.0367033520898
 30
0.0
 11
204.84918352261
 21
169.0367033520898
 31
0.0
  0
LINE
  5
2895
330
27BF
100
AcDbEntity
  8
0
 62
     7
100
AcDbLine
 10
204.84918352261
 20
191.0367030216407
 30
0.0
 11
204.84918352261
 21
190.5367030291419
 31
0.0
  0
LINE
  5
2896
330
27BF
100
AcDbEntity
  8
0
 62
     7
100
AcDbLine
 10
213.1491835226098
 20
191.0367030216407
 30
0.0
 11
213.1491835226098
 21
190.5367030291419
 31
0.0
  0
LINE
  5
2897
330
27BF
100
AcDbEntity
  8
0
 62
     7
100
AcDbLine
 10
204.84918352261
 20
169.5367033445533
 30
0.0
 11
204.84918352261
 21
169.0367033520898
 31
0.0
  0
LINE
  5
2898
330
27BF
100
AcDbEntity
  8
0
 62
     7
100
AcDbLine
 10
213.1491835226098
 20
169.5367033445533
 30
0.0
 11
213.1491835226098
 21
169.0367033520898
 31
0.0
  0
LINE
  5
2899
330
27BF
100
AcDbEntity
  8
0
 62
     7
100
AcDbLine
 10
205.3741835792207
 20
197.8167029197855
 30
0.0
 11
212.8641835283883
 21
197.8167029198315
 31
0.0
  0
LINE
  5
289A
330
27BF
100
AcDbEntity
  8
0
 62
     7
100
AcDbLine
 10
197.6491835226226
 20
169.2867033483086
 30
0.0
 11
201.0491835226228
 21
169.2867033483086
 31
0.0
  0
LINE
  5
289B
330
27BF
100
AcDbEntity
  8
0
 62
     7
100
AcDbLine
 10
197.6491835226226
 20
185.9367030982223
 30
0.0
 11
217.7491835226584
 21
185.9367030982223
 31
0.0
  0
LINE
  5
289C
330
27BF
100
AcDbEntity
  8
0
 62
     7
100
AcDbLine
 10
217.7491835226584
 20
184.5367031192539
 30
0.0
 11
197.6491835226226
 21
184.5367031192539
 31
0.0
  0
LINE
  5
289D
330
27BF
100
AcDbEntity
  8
0
 62
     7
100
AcDbLine
 10
197.6491835226226
 20
175.5367032544437
 30
0.0
 11
217.7491835226584
 21
175.5367032544437
 31
0.0
  0
LINE
  5
289E
330
27BF
100
AcDbEntity
  8
0
 62
     7
100
AcDbLine
 10
213.149183522615
 20
191.0367030216407
 30
0.0
 11
213.149183522615
 21
194.0367029765909
 31
0.0
  0
LINE
  5
289F
330
27BF
100
AcDbEntity
  8
0
 62
     7
100
AcDbLine
 10
213.149183522615
 20
194.0367029765909
 30
0.0
 11
214.2391834445873
 21
194.0367029765909
 31
0.0
  0
LINE
  5
28A0
330
27BF
100
AcDbEntity
  8
0
 62
     7
100
AcDbLine
 10
214.2391834445873
 20
194.0367029765909
 30
0.0
 11
214.2391834445873
 21
190.5367030291419
 31
0.0
  0
LINE
  5
28A1
330
27BF
100
AcDbEntity
  8
0
 62
     7
100
AcDbLine
 10
215.5491835225058
 20
190.5367030291419
 30
0.0
 11
215.5491835225058
 21
192.5367029991146
 31
0.0
  0
LINE
  5
28A2
330
27BF
100
AcDbEntity
  8
0
 62
     7
100
AcDbLine
 10
215.5491835225058
 20
192.5367029991146
 30
0.0
 11
214.2391834445873
 21
192.5367029991146
 31
0.0
  0
LINE
  5
28A3
330
27BF
100
AcDbEntity
  8
0
 62
     7
100
AcDbLine
 10
213.149183522615
 20
191.0367030216407
 30
0.0
 11
214.2391834445873
 21
191.0367030216407
 31
0.0
  0
LINE
  5
28A4
330
27BF
100
AcDbEntity
  8
0
 62
     7
100
AcDbLine
 10
213.149183522615
 20
169.0367033520898
 30
0.0
 11
213.149183522615
 21
166.0367033971064
 31
0.0
  0
LINE
  5
28A5
330
27BF
100
AcDbEntity
  8
0
 62
     7
100
AcDbLine
 10
213.149183522615
 20
166.0367033971064
 30
0.0
 11
214.2391834445873
 21
166.0367033971064
 31
0.0
  0
LINE
  5
28A6
330
27BF
100
AcDbEntity
  8
0
 62
     7
100
AcDbLine
 10
214.2391834445873
 20
166.0367033971064
 30
0.0
 11
214.2391834445873
 21
169.5367033445533
 31
0.0
  0
LINE
  5
28A7
330
27BF
100
AcDbEntity
  8
0
 62
     7
100
AcDbLine
 10
214.2391834445873
 20
169.0367033520898
 30
0.0
 11
213.149183522615
 21
169.0367033520898
 31
0.0
  0
LINE
  5
28A8
330
27BF
100
AcDbEntity
  8
0
 62
     7
100
AcDbLine
 10
214.2391834445873
 20
169.5367033445533
 30
0.0
 11
214.2391834445873
 21
167.536703374598
 31
0.0
  0
LINE
  5
28A9
330
27BF
100
AcDbEntity
  8
0
 62
     7
100
AcDbLine
 10
214.2391834445873
 20
167.536703374598
 30
0.0
 11
215.5491835225058
 21
167.536703374598
 31
0.0
  0
LINE
  5
28AA
330
27BF
100
AcDbEntity
  8
0
 62
     7
100
AcDbLine
 10
215.5491835225058
 20
167.536703374598
 30
0.0
 11
215.5491835225058
 21
169.5367033445533
 31
0.0
  0
LINE
  5
28AB
330
27BF
100
AcDbEntity
  8
0
 62
     7
100
AcDbLine
 10
213.2491835226857
 20
214.6367026671911
 30
0.0
 11
212.8491835286652
 21
215.0367026610807
 31
0.0
  0
LINE
  5
28AC
330
27BF
100
AcDbEntity
  8
0
 62
     7
100
AcDbLine
 10
212.8491835286652
 20
215.0367026610807
 30
0.0
 11
206.1491834716548
 21
215.03670266136
 31
0.0
  0
LINE
  5
28AD
330
27BF
100
AcDbEntity
  8
0
 62
     7
100
AcDbLine
 10
206.1491834716548
 20
215.03670266136
 30
0.0
 11
205.7491834775875
 21
214.6367026672928
 31
0.0
  0
LINE
  5
28AE
330
27BF
100
AcDbEntity
  8
0
 62
     7
100
AcDbLine
 10
205.449183482145
 20
207.5367027812859
 30
0.0
 11
203.1491835226804
 21
207.5367027813725
 31
0.0
  0
LINE
  5
28AF
330
27BF
100
AcDbEntity
  8
1
 62
     7
100
AcDbLine
 10
299.249184154392
 20
185.9543363399149
 30
0.0
 11
299.249184154392
 21
184.296977053014
 31
0.0
  0
LINE
  5
28B0
330
27BF
100
AcDbEntity
  8
1
 62
     7
100
AcDbLine
 10
296.2491842002211
 20
185.9543363399149
 30
0.0
 11
299.249184154392
 21
185.9543363399149
 31
0.0
  0
LINE
  5
28B1
330
27BF
100
AcDbEntity
  8
1
 62
     7
100
AcDbLine
 10
296.2491842002211
 20
184.296977052252
 30
0.0
 11
296.2491842002211
 21
185.9543363399149
 31
0.0
  0
LINE
  5
28B2
330
27BF
100
AcDbEntity
  8
1
  6
CENTER
 62
     3
100
AcDbLine
 10
87.8470868038403
 20
191.4564331489914
 30
0.0
 11
93.68071774862931
 21
185.6228022042024
 31
0.0
  0
LINE
  5
28B3
330
27BF
100
AcDbEntity
  8
1
  6
CENTER
 62
     3
100
AcDbLine
 10
87.8470868038403
 20
168.6522397105934
 30
0.0
 11
93.68071774862942
 21
174.4858706553825
 31
0.0
  0
LINE
  5
28B4
330
27BF
100
AcDbEntity
  8
1
  6
CENTER
 62
     3
100
AcDbLine
 10
110.6512802422382
 20
168.6522397105934
 30
0.0
 11
104.8176492974489
 21
174.4858706553825
 31
0.0
  0
LINE
  5
28B5
330
27BF
100
AcDbEntity
  8
1
  6
CENTER
 62
     3
100
AcDbLine
 10
110.6512802422382
 20
191.4564331489914
 30
0.0
 11
104.8176492974489
 21
185.6228022042024
 31
0.0
  0
LINE
  5
28B6
330
27BF
100
AcDbEntity
  8
1
  6
CENTER
 62
     3
100
AcDbLine
 10
93.22191946302073
 20
194.6054390665103
 30
0.0
 11
94.94399490870831
 21
190.4479811702277
 31
0.0
  0
LINE
  5
28B7
330
27BF
100
AcDbEntity
  8
1
  6
CENTER
 62
     3
100
AcDbLine
 10
105.276447582833
 20
165.5032337925343
 30
0.0
 11
103.5543721371455
 21
169.6606916888166
 31
0.0
  0
LINE
  5
28B8
330
27BF
100
AcDbEntity
  8
2
  6
DASHDOT
 62
     3
100
AcDbLine
 10
328.0116841787037
 20
180.0543364297925
 30
0.0
 11
327.7491841787036
 21
180.0543364297925
 31
0.0
  0
LINE
  5
28B9
330
27BF
100
AcDbEntity
  8
1
 62
     3
100
AcDbLine
 10
205.7491834775875
 20
212.5543364297929
 30
0.0
 11
209.6043885583444
 21
212.5543364297929
 31
0.0
  0
LINE
  5
28BA
330
27BF
100
AcDbEntity
  8
0
 62
     7
100
AcDbLine
 10
205.7491834775875
 20
212.5543364297929
 30
0.0
 11
205.7491834775875
 21
212.254336429793
 31
0.0
  0
LINE
  5
28BB
330
27BF
100
AcDbEntity
  8
1
 62
     3
100
AcDbLine
 10
209.5970787151808
 20
209.554336429793
 30
0.0
 11
205.7491834775875
 21
209.554336429793
 31
0.0
  0
LINE
  5
28BC
330
27BF
100
AcDbEntity
  8
0
 62
     7
100
AcDbLine
 10
205.7491834775875
 20
212.254336429793
 30
0.0
 11
205.7491834775875
 21
209.8543364297928
 31
0.0
  0
LINE
  5
28BD
330
27BF
100
AcDbEntity
  8
1
 62
     7
100
AcDbLine
 10
205.7491834775875
 20
209.8543364297928
 30
0.0
 11
209.4311834775874
 21
209.8543364297928
 31
0.0
  0
LINE
  5
28BE
330
27BF
100
AcDbEntity
  8
0
 62
     7
100
AcDbLine
 10
205.7491834775875
 20
209.8543364297928
 30
0.0
 11
205.7491834775875
 21
209.554336429793
 31
0.0
  0
LINE
  5
28BF
330
27BF
100
AcDbEntity
  8
1
  6
DASHDOT
 62
     3
100
AcDbLine
 10
204.4925124123011
 20
211.0543364297928
 30
0.0
 11
214.7562855808681
 21
211.0543364297928
 31
0.0
  0
LINE
  5
28C0
330
27BF
100
AcDbEntity
  8
0
 62
     7
100
AcDbLine
 10
205.7491834775875
 20
207.8367027767793
 30
0.0
 11
205.7491834775875
 21
209.554336429793
 31
0.0
  0
LINE
  5
28C1
330
27BF
100
AcDbEntity
  8
0
 62
     7
100
AcDbLine
 10
213.2491835226661
 20
209.304336429793
 30
0.0
 11
213.2491835226661
 21
212.8043364297929
 31
0.0
  0
LINE
  5
28C2
330
27BF
100
AcDbEntity
  8
0
 62
     7
100
AcDbLine
 10
205.7491834775875
 20
212.5543364297929
 30
0.0
 11
205.7491834775875
 21
214.6367026672928
 31
0.0
  0
LINE
  5
28C3
330
27BF
100
AcDbEntity
  8
0
 62
     7
100
AcDbLine
 10
213.2491835226661
 20
212.8043364297929
 30
0.0
 11
213.2491835226857
 21
214.6367026671911
 31
0.0
  0
LINE
  5
28C4
330
27BF
100
AcDbEntity
  8
1
 62
     7
100
AcDbLine
 10
209.7487261256415
 20
212.8043364297929
 30
0.0
 11
209.4311834775874
 21
212.254336429793
 31
0.0
  0
LINE
  5
28C5
330
27BF
100
AcDbEntity
  8
1
 62
     7
100
AcDbLine
 10
209.7487261256415
 20
212.8043364297929
 30
0.0
 11
213.2491835226661
 21
212.8043364297929
 31
0.0
  0
LINE
  5
28C6
330
27BF
100
AcDbEntity
  8
1
 62
     7
100
AcDbLine
 10
209.4311834775874
 20
212.254336429793
 30
0.0
 11
205.7491834775875
 21
212.254336429793
 31
0.0
  0
LINE
  5
28C7
330
27BF
100
AcDbEntity
  8
1
 62
     7
100
AcDbLine
 10
209.4311834775874
 20
212.254336429793
 30
0.0
 11
209.4311834775874
 21
209.8543364297928
 31
0.0
  0
LINE
  5
28C8
330
27BF
100
AcDbEntity
  8
1
 62
     7
100
AcDbLine
 10
209.4311834775874
 20
209.8543364297928
 30
0.0
 11
209.7487261256415
 21
209.304336429793
 31
0.0
  0
LINE
  5
28C9
330
27BF
100
AcDbEntity
  8
1
 62
     7
100
AcDbLine
 10
209.7487261256415
 20
209.304336429793
 30
0.0
 11
213.2491835226661
 21
209.304336429793
 31
0.0
  0
LINE
  5
28CA
330
27BF
100
AcDbEntity
  8
1
 62
     7
100
AcDbLine
 10
209.7487261256415
 20
209.304336429793
 30
0.0
 11
209.7487261256415
 21
212.8043364297929
 31
0.0
  0
LINE
  5
28CB
330
27BF
100
AcDbEntity
  8
1
 62
     7
100
AcDbLine
 10
203.1491835226804
 20
207.5367027813725
 30
0.0
 11
202.7491835226669
 21
207.1367027813876
 31
0.0
  0
LINE
  5
28CC
330
27BF
100
AcDbEntity
  8
1
 62
     7
100
AcDbLine
 10
202.7491835226584
 20
207.1368287175783
 30
0.0
 11
202.7491835226514
 21
206.7682031868424
 31
0.0
  0
LINE
  5
28CD
330
27BF
100
AcDbEntity
  8
1
 62
     7
100
AcDbLine
 10
213.2491835226661
 20
209.304336429793
 30
0.0
 11
213.2491835226604
 21
206.7682031868424
 31
0.0
  0
LINE
  5
28CE
330
27BF
100
AcDbEntity
  8
1
 62
     7
100
AcDbLine
 10
186.6981835226584
 20
203.4217031868424
 30
0.0
 11
186.6981835226584
 21
196.2367031868424
 31
0.0
  0
LINE
  5
28CF
330
27BF
100
AcDbEntity
  8
1
 62
     7
100
AcDbLine
 10
186.6981835226584
 20
163.8367031868424
 30
0.0
 11
186.6981835226584
 21
156.6517031868424
 31
0.0
  0
LINE
  5
28D0
330
27BF
100
AcDbEntity
  8
1
  6
DIVIDE
 62
     7
100
AcDbLine
 10
185.2491834775875
 20
206.5367031868424
 30
0.0
 11
190.4436337079042
 21
206.5367031868424
 31
0.0
  0
LINE
  5
28D1
330
27BF
100
AcDbEntity
  8
1
  6
DIVIDE
 62
     7
100
AcDbLine
 10
185.2491834775875
 20
200.1143988391107
 30
0.0
 11
185.2491834775875
 21
206.5367031868424
 31
0.0
  0
LINE
  5
28D2
330
27BF
100
AcDbEntity
  8
1
  6
DIVIDE
 62
     7
100
AcDbLine
 10
214.7491835225292
 20
199.6538403982802
 30
0.0
 11
214.7491835225292
 21
207.0367031868424
 31
0.0
  0
LINE
  5
28D3
330
27BF
100
AcDbEntity
  8
1
  6
DIVIDE
 62
     7
100
AcDbLine
 10
214.7491835225292
 20
207.0367031868424
 30
0.0
 11
213.2491835225293
 21
207.0367031868424
 31
0.0
  0
LINE
  5
28D4
330
27BF
100
AcDbEntity
  8
1
  6
DIVIDE
 62
     7
100
AcDbLine
 10
214.7491835225292
 20
199.6538403982802
 30
0.0
 11
214.7491835225292
 21
207.0367031868424
 31
0.0
  0
LINE
  5
28D9
330
27BF
100
AcDbEntity
  8
1
 62
     7
100
AcDbLine
 10
212.5591835226584
 20
156.7167031868424
 30
0.0
 11
210.1988038850996
 21
156.7167031868424
 31
0.0
  0
LINE
  5
28DA
330
27BF
100
AcDbEntity
  8
1
 62
     7
100
AcDbLine
 10
212.7591835226585
 20
160.9592031868425
 30
0.0
 11
210.2429278601297
 21
160.9592031868425
 31
0.0
  0
LINE
  5
28DB
330
27BF
100
AcDbEntity
  8
1
 62
     7
100
AcDbLine
 10
213.2041835226583
 20
161.9542031868425
 30
0.0
 11
213.2041835226583
 21
161.2592031868425
 31
0.0
  0
LINE
  5
28DC
330
27BF
100
AcDbEntity
  8
1
 62
     7
100
AcDbLine
 10
212.9041835226584
 20
162.2542031868424
 30
0.0
 11
209.1391835226585
 21
162.2542031868424
 31
0.0
  0
LINE
  5
28DD
330
27BF
100
AcDbEntity
  8
1
 62
     7
100
AcDbLine
 10
212.7591835226585
 20
156.5167031868423
 30
0.0
 11
212.5591835226584
 21
156.7167031868424
 31
0.0
  0
LINE
  5
28DE
330
27BF
100
AcDbEntity
  8
1
 62
     7
100
AcDbLine
 10
212.9041835226584
 20
160.9592031868425
 30
0.0
 11
213.2041835226583
 21
161.2592031868425
 31
0.0
  0
LINE
  5
28DF
330
27BF
100
AcDbEntity
  8
1
 62
     7
100
AcDbLine
 10
213.2041835226583
 20
161.9542031868425
 30
0.0
 11
212.9041835226584
 21
162.2542031868424
 31
0.0
  0
LINE
  5
28E0
330
27BF
100
AcDbEntity
  8
1
 62
     7
100
AcDbLine
 10
212.2591835226585
 20
155.4977031868425
 30
0.0
 11
209.1391835226585
 21
155.4977031868425
 31
0.0
  0
LINE
  5
28E1
330
27BF
100
AcDbEntity
  8
1
 62
     7
100
AcDbLine
 10
212.7591835226585
 20
156.4899738281519
 30
0.0
 11
212.7591835226585
 21
156.5167031868423
 31
0.0
  0
LINE
  5
28E2
330
27BF
100
AcDbEntity
  8
1
 62
     7
100
AcDbLine
 10
212.7591835226585
 20
155.7863783214369
 30
0.0
 11
212.2591835226585
 21
155.4977031868425
 31
0.0
  0
LINE
  5
28E3
330
27BF
100
AcDbEntity
  8
1
 62
     7
100
AcDbLine
 10
212.7591835226585
 20
160.9592031868425
 30
0.0
 11
212.7591835226585
 21
156.4899738281519
 31
0.0
  0
LINE
  5
28E4
330
27BF
100
AcDbEntity
  8
1
 62
     7
100
AcDbLine
 10
212.7591835226585
 20
155.7863783214369
 30
0.0
 11
212.7591835226585
 21
156.4899738281519
 31
0.0
  0
LINE
  5
28E5
330
27BF
100
AcDbEntity
  8
1
 62
     7
100
AcDbLine
 10
212.9041835226584
 20
160.9592031868425
 30
0.0
 11
212.7591835226585
 21
160.9592031868425
 31
0.0
  0
LINE
  5
28E6
330
27BF
100
AcDbEntity
  8
1
 62
     7
100
AcDbLine
 10
205.5191835226584
 20
160.9592031868425
 30
0.0
 11
205.3741835226584
 21
160.9592031868425
 31
0.0
  0
LINE
  5
28E7
330
27BF
100
AcDbEntity
  8
1
 62
     7
100
AcDbLine
 10
205.5191835226584
 20
156.4899738281519
 30
0.0
 11
205.5191835226584
 21
155.7863783214369
 31
0.0
  0
LINE
  5
28E8
330
27BF
100
AcDbEntity
  8
1
 62
     7
100
AcDbLine
 10
205.5191835226584
 20
156.4899738281519
 30
0.0
 11
205.5191835226584
 21
160.9592031868425
 31
0.0
  0
LINE
  5
28E9
330
27BF
100
AcDbEntity
  8
1
 62
     7
100
AcDbLine
 10
206.0191835226584
 20
155.4977031868425
 30
0.0
 11
205.5191835226584
 21
155.7863783214369
 31
0.0
  0
LINE
  5
28EA
330
27BF
100
AcDbEntity
  8
1
 62
     7
100
AcDbLine
 10
205.5191835226584
 20
156.5167031868423
 30
0.0
 11
205.5191835226584
 21
156.4899738281519
 31
0.0
  0
LINE
  5
28EB
330
27BF
100
AcDbEntity
  8
1
 62
     7
100
AcDbLine
 10
209.1391835226585
 20
155.4977031868425
 30
0.0
 11
206.0191835226584
 21
155.4977031868425
 31
0.0
  0
LINE
  5
28EC
330
27BF
100
AcDbEntity
  8
1
 62
     7
100
AcDbLine
 10
205.3741835226584
 20
162.2542031868424
 30
0.0
 11
205.0741835226584
 21
161.9542031868425
 31
0.0
  0
LINE
  5
28ED
330
27BF
100
AcDbEntity
  8
1
 62
     7
100
AcDbLine
 10
205.0741835226584
 20
161.2592031868425
 30
0.0
 11
205.3741835226584
 21
160.9592031868425
 31
0.0
  0
LINE
  5
28EE
330
27BF
100
AcDbEntity
  8
1
 62
     7
100
AcDbLine
 10
205.7191835226584
 20
156.7167031868424
 30
0.0
 11
205.5191835226584
 21
156.5167031868423
 31
0.0
  0
LINE
  5
28EF
330
27BF
100
AcDbEntity
  8
1
 62
     7
100
AcDbLine
 10
209.1391835226585
 20
162.2542031868424
 30
0.0
 11
205.3741835226584
 21
162.2542031868424
 31
0.0
  0
LINE
  5
28F0
330
27BF
100
AcDbEntity
  8
1
 62
     7
100
AcDbLine
 10
205.0741835226584
 20
161.2592031868425
 30
0.0
 11
205.0741835226584
 21
161.9542031868425
 31
0.0
  0
LINE
  5
28F1
330
27BF
100
AcDbEntity
  8
1
 62
     7
100
AcDbLine
 10
208.0354391851872
 20
160.9592031868425
 30
0.0
 11
205.5191835226584
 21
160.9592031868425
 31
0.0
  0
LINE
  5
28F2
330
27BF
100
AcDbEntity
  8
1
 62
     7
100
AcDbLine
 10
208.0795631602173
 20
156.7167031868424
 30
0.0
 11
205.7191835226584
 21
156.7167031868424
 31
0.0
  0
LINE
  5
28F3
330
27BF
100
AcDbEntity
  8
1
 62
     7
100
AcDbLine
 10
205.7191835226584
 20
203.3517031868424
 30
0.0
 11
208.0795631602173
 21
203.3517031868424
 31
0.0
  0
LINE
  5
28F4
330
27BF
100
AcDbEntity
  8
1
 62
     7
100
AcDbLine
 10
205.5191835226584
 20
199.1092031868424
 30
0.0
 11
208.0354391851872
 21
199.1092031868424
 31
0.0
  0
LINE
  5
28F5
330
27BF
100
AcDbEntity
  8
1
 62
     7
100
AcDbLine
 10
205.0741835226584
 20
198.1142031868424
 30
0.0
 11
205.0741835226584
 21
198.8092031868425
 31
0.0
  0
LINE
  5
28F6
330
27BF
100
AcDbEntity
  8
1
 62
     7
100
AcDbLine
 10
205.3741835226584
 20
197.8142031868424
 30
0.0
 11
209.1391835226585
 21
197.8142031868424
 31
0.0
  0
LINE
  5
28F7
330
27BF
100
AcDbEntity
  8
1
 62
     7
100
AcDbLine
 10
205.5191835226584
 20
203.5517031868425
 30
0.0
 11
205.7191835226584
 21
203.3517031868424
 31
0.0
  0
LINE
  5
28F8
330
27BF
100
AcDbEntity
  8
1
 62
     7
100
AcDbLine
 10
205.3741835226584
 20
199.1092031868424
 30
0.0
 11
205.0741835226584
 21
198.8092031868425
 31
0.0
  0
LINE
  5
28F9
330
27BF
100
AcDbEntity
  8
1
 62
     7
100
AcDbLine
 10
205.0741835226584
 20
198.1142031868424
 30
0.0
 11
205.3741835226584
 21
197.8142031868424
 31
0.0
  0
LINE
  5
28FA
330
27BF
100
AcDbEntity
  8
1
 62
     7
100
AcDbLine
 10
206.0191835226584
 20
204.5707031868424
 30
0.0
 11
209.1391835226585
 21
204.5707031868424
 31
0.0
  0
LINE
  5
28FB
330
27BF
100
AcDbEntity
  8
1
 62
     7
100
AcDbLine
 10
205.5191835226584
 20
203.5784325455331
 30
0.0
 11
205.5191835226584
 21
203.5517031868425
 31
0.0
  0
LINE
  5
28FC
330
27BF
100
AcDbEntity
  8
1
 62
     7
100
AcDbLine
 10
205.5191835226584
 20
204.2820280522475
 30
0.0
 11
206.0191835226584
 21
204.5707031868424
 31
0.0
  0
LINE
  5
28FD
330
27BF
100
AcDbEntity
  8
1
 62
     7
100
AcDbLine
 10
205.5191835226584
 20
199.1092031868424
 30
0.0
 11
205.5191835226584
 21
203.5784325455331
 31
0.0
  0
LINE
  5
28FE
330
27BF
100
AcDbEntity
  8
1
 62
     7
100
AcDbLine
 10
205.5191835226584
 20
204.2820280522475
 30
0.0
 11
205.5191835226584
 21
203.5784325455331
 31
0.0
  0
LINE
  5
28FF
330
27BF
100
AcDbEntity
  8
1
 62
     7
100
AcDbLine
 10
205.3741835226584
 20
199.1092031868424
 30
0.0
 11
205.5191835226584
 21
199.1092031868424
 31
0.0
  0
LINE
  5
2900
330
27BF
100
AcDbEntity
  8
1
 62
     7
100
AcDbLine
 10
212.7591835226585
 20
199.1092031868424
 30
0.0
 11
212.9041835226584
 21
199.1092031868424
 31
0.0
  0
LINE
  5
2901
330
27BF
100
AcDbEntity
  8
1
 62
     7
100
AcDbLine
 10
212.7591835226585
 20
203.5784325455331
 30
0.0
 11
212.7591835226585
 21
204.2820280522475
 31
0.0
  0
LINE
  5
2902
330
27BF
100
AcDbEntity
  8
1
 62
     7
100
AcDbLine
 10
212.7591835226585
 20
203.5784325455331
 30
0.0
 11
212.7591835226585
 21
199.1092031868424
 31
0.0
  0
LINE
  5
2903
330
27BF
100
AcDbEntity
  8
1
 62
     7
100
AcDbLine
 10
212.2591835226585
 20
204.5707031868424
 30
0.0
 11
212.7591835226585
 21
204.2820280522475
 31
0.0
  0
LINE
  5
2904
330
27BF
100
AcDbEntity
  8
1
 62
     7
100
AcDbLine
 10
212.7591835226585
 20
203.5517031868425
 30
0.0
 11
212.7591835226585
 21
203.5784325455331
 31
0.0
  0
LINE
  5
2905
330
27BF
100
AcDbEntity
  8
1
 62
     7
100
AcDbLine
 10
209.1391835226585
 20
204.5707031868424
 30
0.0
 11
212.2591835226585
 21
204.5707031868424
 31
0.0
  0
LINE
  5
2906
330
27BF
100
AcDbEntity
  8
1
 62
     7
100
AcDbLine
 10
212.9041835226584
 20
197.8142031868424
 30
0.0
 11
213.2041835226583
 21
198.1142031868424
 31
0.0
  0
LINE
  5
2907
330
27BF
100
AcDbEntity
  8
1
 62
     7
100
AcDbLine
 10
213.2041835226583
 20
198.8092031868425
 30
0.0
 11
212.9041835226584
 21
199.1092031868424
 31
0.0
  0
LINE
  5
2908
330
27BF
100
AcDbEntity
  8
1
 62
     7
100
AcDbLine
 10
212.5591835226584
 20
203.3517031868424
 30
0.0
 11
212.7591835226585
 21
203.5517031868425
 31
0.0
  0
LINE
  5
2909
330
27BF
100
AcDbEntity
  8
1
 62
     7
100
AcDbLine
 10
209.1391835226585
 20
197.8142031868424
 30
0.0
 11
212.9041835226584
 21
197.8142031868424
 31
0.0
  0
LINE
  5
290A
330
27BF
100
AcDbEntity
  8
1
 62
     7
100
AcDbLine
 10
213.2041835226583
 20
198.8092031868425
 30
0.0
 11
213.2041835226583
 21
198.1142031868424
 31
0.0
  0
LINE
  5
290B
330
27BF
100
AcDbEntity
  8
1
 62
     7
100
AcDbLine
 10
210.2429278601297
 20
199.1092031868424
 30
0.0
 11
212.7591835226585
 21
199.1092031868424
 31
0.0
  0
LINE
  5
290C
330
27BF
100
AcDbEntity
  8
1
 62
     7
100
AcDbLine
 10
210.1988038850996
 20
203.3517031868424
 30
0.0
 11
212.5591835226584
 21
203.3517031868424
 31
0.0
  0
LINE
  5
290D
330
27BF
100
AcDbEntity
  8
1
 62
     7
100
AcDbLine
 10
206.6579335226584
 20
157.2392031868425
 30
0.0
 11
205.8479335226584
 21
157.2392031868425
 31
0.0
  0
LINE
  5
290E
330
27BF
100
AcDbEntity
  8
1
 62
     7
100
AcDbLine
 10
205.6479335226584
 20
158.9617468293271
 30
0.0
 11
205.6479335226584
 21
157.4392031868424
 31
0.0
  0
LINE
  5
290F
330
27BF
100
AcDbEntity
  8
1
 62
     7
100
AcDbLine
 10
205.6479335226584
 20
158.9617468293271
 30
0.0
 11
205.476581009537
 21
160.3089685724976
 31
0.0
  0
LINE
  5
2910
330
27BF
100
AcDbEntity
  8
1
 62
     7
100
AcDbLine
 10
206.6579335226584
 20
160.5342031868424
 30
0.0
 11
205.6749826583176
 21
160.5342031868424
 31
0.0
  0
LINE
  5
2911
330
27BF
100
AcDbEntity
  8
1
 62
     7
100
AcDbLine
 10
206.6579335226584
 20
160.5342031868424
 30
0.0
 11
206.6579335226584
 21
157.2392031868425
 31
0.0
  0
LINE
  5
2912
330
27BF
100
AcDbEntity
  8
1
 62
     7
100
AcDbLine
 10
206.6579335226584
 20
160.5342031868424
 30
0.0
 11
207.4565883359004
 21
160.5342031868424
 31
0.0
  0
LINE
  5
2913
330
27BF
100
AcDbEntity
  8
1
 62
     7
100
AcDbLine
 10
206.6579335226584
 20
157.2392031868425
 30
0.0
 11
207.3678106337429
 21
157.2577919731971
 31
0.0
  0
LINE
  5
2914
330
27BF
100
AcDbEntity
  8
1
 62
     7
100
AcDbLine
 10
207.3678106337429
 20
202.8106144004879
 30
0.0
 11
206.6579335226584
 21
202.8292031868424
 31
0.0
  0
LINE
  5
2915
330
27BF
100
AcDbEntity
  8
1
 62
     7
100
AcDbLine
 10
207.4565883359004
 20
199.5342031868424
 30
0.0
 11
206.6579335226584
 21
199.5342031868424
 31
0.0
  0
LINE
  5
2916
330
27BF
100
AcDbEntity
  8
1
 62
     7
100
AcDbLine
 10
206.6579335226584
 20
202.8292031868424
 30
0.0
 11
206.6579335226584
 21
199.5342031868424
 31
0.0
  0
LINE
  5
2917
330
27BF
100
AcDbEntity
  8
1
 62
     7
100
AcDbLine
 10
205.6749826583176
 20
199.5342031868424
 30
0.0
 11
206.6579335226584
 21
199.5342031868424
 31
0.0
  0
LINE
  5
2918
330
27BF
100
AcDbEntity
  8
1
 62
     7
100
AcDbLine
 10
205.476581009537
 20
199.7594378011874
 30
0.0
 11
205.6479335226584
 21
201.1066595443579
 31
0.0
  0
LINE
  5
2919
330
27BF
100
AcDbEntity
  8
1
 62
     7
100
AcDbLine
 10
205.6479335226584
 20
202.6292031868424
 30
0.0
 11
205.6479335226584
 21
201.1066595443579
 31
0.0
  0
LINE
  5
291A
330
27BF
100
AcDbEntity
  8
1
 62
     7
100
AcDbLine
 10
205.8479335226584
 20
202.8292031868424
 30
0.0
 11
206.6579335226584
 21
202.8292031868424
 31
0.0
  0
ARC
  5
291B
330
27BF
100
AcDbEntity
  8
1
 62
     7
100
AcDbCircle
 10
199.1223597957718
 20
224.8967031868425
 30
0.0
 40
19.97585831077413
100
AcDbArc
 50
269.4688603257134
 51
284.8464870645456
  0
ARC
  5
291C
330
27BF
100
AcDbEntity
  8
1
 62
     7
100
AcDbCircle
 10
199.1223597957718
 20
135.1767031868424
 30
0.0
 40
19.97585831077404
100
AcDbArc
 50
75.1535129354525
 51
90.53113967428636
  0
ARC
  5
291D
330
27BF
100
AcDbEntity
  8
0
 62
     7
100
AcDbCircle
 10
205.4491834820943
 20
152.2367035969057
 30
0.0
 40
0.2999999954931809
100
AcDbArc
 50
0.0
 51
89.99999999030588
  0
ARC
  5
291E
330
27BF
100
AcDbEntity
  8
0
 62
     7
100
AcDbCircle
 10
300.4091841379818
 20
167.6293366164995
 30
0.0
 40
0.6999999894981901
100
AcDbArc
 50
270.0000000008011
 51
0.0000000000749084
  0
ARC
  5
291F
330
27BF
100
AcDbEntity
  8
0
 62
     7
100
AcDbCircle
 10
301.8091841169507
 20
169.053572357559
 30
0.0
 40
0.6999999894872823
100
AcDbArc
 50
109.269638877511
 51
180.0
  0
ARC
  5
2920
330
27BF
100
AcDbEntity
  8
0
 62
     7
100
AcDbCircle
 10
297.7491841779406
 20
180.6668364206126
 30
0.0
 40
11.60249982567574
100
AcDbArc
 50
289.2696388779717
 51
89.99999999999348
  0
ARC
  5
2921
330
27BF
100
AcDbEntity
  8
0
 62
     7
100
AcDbCircle
 10
295.0891842179128
 20
167.6293366165004
 30
0.0
 40
0.6999999894989628
100
AcDbArc
 50
180.0
 51
269.9999999985442
  0
ARC
  5
2922
330
27BF
100
AcDbEntity
  8
0
 62
     7
100
AcDbCircle
 10
293.6891842389373
 20
169.0535723575524
 30
0.0
 40
0.6999999894944155
100
AcDbArc
 50
0.000000000539015
 51
70.73036112249055
  0
ARC
  5
2923
330
27BF
100
AcDbEntity
  8
0
 62
     7
100
AcDbCircle
 10
297.7491841779428
 20
180.6668364206126
 30
0.0
 40
11.60249982567589
100
AcDbArc
 50
90.00000000000651
 51
250.730361122028
  0
ARC
  5
2924
330
27BF
100
AcDbEntity
  8
0
 62
     7
100
AcDbCircle
 10
205.4491834820943
 20
207.8367027767793
 30
0.0
 40
0.2999999954933017
100
AcDbArc
 50
270.0000000096939
 51
0.0
  0
ARC
  5
2925
330
27BF
100
AcDbEntity
  8
1
 62
     7
100
AcDbCircle
 10
297.7491841780968
 20
180.054336429056
 30
0.0
 40
4.4999999325492
100
AcDbArc
 50
270.000000008818
 51
70.5287793820039
  0
ARC
  5
2926
330
27BF
100
AcDbEntity
  8
1
 62
     7
100
AcDbCircle
 10
297.7491841780968
 20
180.054336429056
 30
0.0
 40
4.499999932549274
100
AcDbArc
 50
109.4712206393395
 51
270.000000008818
  0
ARC
  5
2927
330
27BF
100
AcDbEntity
  8
1
  6
DIVIDE
 62
     3
100
AcDbCircle
 10
99.24918352292689
 20
180.0543364295224
 30
0.0
 40
13.49999999999984
100
AcDbArc
 50
95.24471217416081
 51
131.567321615441
  0
ARC
  5
2928
330
27BF
100
AcDbEntity
  8
1
  6
DIVIDE
 62
     3
100
AcDbCircle
 10
99.24918352292689
 20
180.0543364295224
 30
0.0
 40
13.49999999999998
100
AcDbArc
 50
276.026071622122
 51
308.884515226029
  0
ARC
  5
2929
330
27BF
100
AcDbEntity
  8
1
 62
     7
100
AcDbCircle
 10
303.4648281196199
 20
200.4567528840835
 30
0.0
 40
2.381249999999996
100
AcDbArc
 50
280.4300713763208
 51
46.52677313405907
  0
ARC
  5
292A
330
27BF
100
AcDbEntity
  8
1
 62
     7
100
AcDbCircle
 10
308.756569504159
 20
198.1582252369379
 30
0.0
 40
2.38125000000008
100
AcDbArc
 50
264.7778974632764
 51
30.87459922101821
  0
ARC
  5
292B
330
27BF
100
AcDbEntity
  8
1
 62
     7
100
AcDbCircle
 10
313.2319434258905
 20
194.5172384907077
 30
0.0
 40
2.381250000000022
100
AcDbArc
 50
249.1257235502334
 51
15.22242530797401
  0
ARC
  5
292C
330
27BF
100
AcDbEntity
  8
1
 62
     7
100
AcDbCircle
 10
316.5590318745127
 20
189.8038279759548
 30
0.0
 40
2.381250000000016
100
AcDbArc
 50
233.473549637189
 51
359.5702513949305
  0
ARC
  5
292D
330
27BF
100
AcDbEntity
  8
1
 62
     7
100
AcDbCircle
 10
318.4910799202082
 20
184.3675657881406
 30
0.0
 40
2.381249999999989
100
AcDbArc
 50
217.8213757241488
 51
343.9180774818865
  0
ARC
  5
292E
330
27BF
100
AcDbEntity
  8
1
 62
     7
100
AcDbCircle
 10
318.88479639796
 20
178.6116346244899
 30
0.0
 40
2.381249999999949
100
AcDbArc
 50
202.1692018111031
 51
328.2659035688436
  0
ARC
  5
292F
330
27BF
100
AcDbEntity
  8
1
 62
     7
100
AcDbCircle
 10
317.7109811577457
 20
172.9629255677782
 30
0.0
 40
2.381250000000023
100
AcDbArc
 50
186.5170278980589
 51
312.6137296557996
  0
ARC
  5
2930
330
27BF
100
AcDbEntity
  8
1
 62
     7
100
AcDbCircle
 10
315.0566907060846
 20
167.8403775276169
 30
0.0
 40
2.381250000000099
100
AcDbArc
 50
170.8648539850164
 51
296.9615557427565
  0
ARC
  5
2931
330
27BF
100
AcDbEntity
  8
1
 62
     7
100
AcDbCircle
 10
311.1187816232056
 20
163.6239064580474
 30
0.0
 40
2.381250000000052
100
AcDbArc
 50
155.2126800719734
 51
281.3093818297147
  0
ARC
  5
2932
330
27BF
100
AcDbEntity
  8
1
 62
     7
100
AcDbCircle
 10
306.1893106110511
 20
160.6262287292275
 30
0.0
 40
2.381250000000004
100
AcDbArc
 50
139.5605061589297
 51
265.6572079166687
  0
ARC
  5
2933
330
27BF
100
AcDbEntity
  8
1
 62
     7
100
AcDbCircle
 10
300.6338739837624
 20
159.0696683848408
 30
0.0
 40
2.381250000000004
100
AcDbArc
 50
123.9083322458846
 51
250.0050340036275
  0
ARC
  5
2934
330
27BF
100
AcDbEntity
  8
1
 62
     7
100
AcDbCircle
 10
294.8644930615543
 20
159.0696683848408
 30
0.0
 40
2.381250000000009
100
AcDbArc
 50
108.2561583328421
 51
234.3528600905818
  0
ARC
  5
2935
330
27BF
100
AcDbEntity
  8
1
 62
     7
100
AcDbCircle
 10
289.3090564342658
 20
160.6262287292275
 30
0.0
 40
2.381250000000083
100
AcDbArc
 50
92.6039844197991
 51
218.7006861775384
  0
ARC
  5
2936
330
27BF
100
AcDbEntity
  8
1
 62
     7
100
AcDbCircle
 10
284.3795854221111
 20
163.6239064580474
 30
0.0
 40
2.381250000000011
100
AcDbArc
 50
76.95181050675593
 51
203.0485122644955
  0
ARC
  5
2937
330
27BF
100
AcDbEntity
  8
1
 62
     7
100
AcDbCircle
 10
280.4416763392323
 20
167.8403775276169
 30
0.0
 40
2.381249999999971
100
AcDbArc
 50
61.29963659371163
 51
187.3963383514531
  0
ARC
  5
2938
330
27BF
100
AcDbEntity
  8
1
 62
     7
100
AcDbCircle
 10
277.7873858875713
 20
172.9629255677782
 30
0.0
 40
2.381249999999976
100
AcDbArc
 50
45.64746268066866
 51
171.7441644384098
  0
ARC
  5
2939
330
27BF
100
AcDbEntity
  8
1
 62
     7
100
AcDbCircle
 10
276.6135706473568
 20
178.6116346244899
 30
0.0
 40
2.381249999999991
100
AcDbArc
 50
29.99528876762346
 51
156.0919905253664
  0
ARC
  5
293A
330
27BF
100
AcDbEntity
  8
1
 62
     7
100
AcDbCircle
 10
277.0072871251084
 20
184.3675657881406
 30
0.0
 40
2.381249999999904
100
AcDbArc
 50
14.34311485458152
 51
140.4398166123218
  0
ARC
  5
293B
330
27BF
100
AcDbEntity
  8
1
 62
     7
100
AcDbCircle
 10
278.939335170804
 20
189.8038279759548
 30
0.0
 40
2.38125000000003
100
AcDbArc
 50
358.6909409415391
 51
124.7876426992766
  0
ARC
  5
293C
330
27BF
100
AcDbEntity
  8
1
 62
     7
100
AcDbCircle
 10
282.2664236194264
 20
194.5172384907077
 30
0.0
 40
2.381250000000064
100
AcDbArc
 50
343.0387670284963
 51
109.1354687862318
  0
ARC
  5
293D
330
27BF
100
AcDbEntity
  8
1
 62
     7
100
AcDbCircle
 10
286.7417975411576
 20
198.1582252369379
 30
0.0
 40
2.381249999999949
100
AcDbArc
 50
327.3865931154507
 51
93.4832948731899
  0
ARC
  5
293E
330
27BF
100
AcDbEntity
  8
1
 62
     7
100
AcDbCircle
 10
292.0335389256968
 20
200.4567528840835
 30
0.0
 40
2.38125000000004
100
AcDbArc
 50
311.7344192024066
 51
77.83112096014813
  0
ARC
  5
293F
330
27BF
100
AcDbEntity
  8
1
 62
     7
100
AcDbCircle
 10
303.4648281196199
 20
200.4567528840835
 30
0.0
 40
2.381250000000043
100
AcDbArc
 50
102.1688790398518
 51
228.265580797591
  0
ARC
  5
2940
330
27BF
100
AcDbEntity
  8
1
 62
     7
100
AcDbCircle
 10
308.756569504159
 20
198.1582252369379
 30
0.0
 40
2.381249999999964
100
AcDbArc
 50
86.51670512681009
 51
212.6134068845512
  0
ARC
  5
2941
330
27BF
100
AcDbEntity
  8
1
 62
     7
100
AcDbCircle
 10
313.2319434258905
 20
194.5172384907077
 30
0.0
 40
2.381250000000029
100
AcDbArc
 50
70.86453121376455
 51
196.9612329715053
  0
ARC
  5
2942
330
27BF
100
AcDbEntity
  8
1
 62
     7
100
AcDbCircle
 10
316.5590318745127
 20
189.8038279759548
 30
0.0
 40
2.381249999999941
100
AcDbArc
 50
55.21235730072106
 51
181.3090590584603
  0
ARC
  5
2943
330
27BF
100
AcDbEntity
  8
1
 62
     7
100
AcDbCircle
 10
318.4910799202082
 20
184.3675657881406
 30
0.0
 40
2.381250000000023
100
AcDbArc
 50
39.56018338767589
 51
165.6568851454184
  0
ARC
  5
2944
330
27BF
100
AcDbEntity
  8
1
 62
     7
100
AcDbCircle
 10
318.88479639796
 20
178.6116346244899
 30
0.0
 40
2.381250000000023
100
AcDbArc
 50
23.90800947463361
 51
150.0047112323773
  0
ARC
  5
2945
330
27BF
100
AcDbEntity
  8
1
 62
     7
100
AcDbCircle
 10
317.7109811577457
 20
172.9629255677782
 30
0.0
 40
2.381249999999929
100
AcDbArc
 50
8.255835561593338
 51
134.3525373193312
  0
ARC
  5
2946
330
27BF
100
AcDbEntity
  8
1
 62
     7
100
AcDbCircle
 10
315.0566907060846
 20
167.8403775276169
 30
0.0
 40
2.381249999999929
100
AcDbArc
 50
352.6036616485469
 51
118.7003634062902
  0
ARC
  5
2947
330
27BF
100
AcDbEntity
  8
1
 62
     7
100
AcDbCircle
 10
311.1187816232056
 20
163.6239064580474
 30
0.0
 40
2.381249999999996
100
AcDbArc
 50
336.9514877355042
 51
103.0481894932439
  0
ARC
  5
2948
330
27BF
100
AcDbEntity
  8
1
 62
     7
100
AcDbCircle
 10
306.1893106110511
 20
160.6262287292275
 30
0.0
 40
2.381249999999976
100
AcDbArc
 50
321.2993138224603
 51
87.39601558020416
  0
ARC
  5
2949
330
27BF
100
AcDbEntity
  8
1
 62
     7
100
AcDbCircle
 10
300.6338739837624
 20
159.0696683848408
 30
0.0
 40
2.381250000000004
100
AcDbArc
 50
305.6471399094192
 51
71.74384166715634
  0
ARC
  5
294A
330
27BF
100
AcDbEntity
  8
1
 62
     7
100
AcDbCircle
 10
294.8644930615543
 20
159.0696683848408
 30
0.0
 40
2.381249999999989
100
AcDbArc
 50
289.9949659963738
 51
56.09166775411676
  0
ARC
  5
294B
330
27BF
100
AcDbEntity
  8
1
 62
     7
100
AcDbCircle
 10
289.3090564342658
 20
160.6262287292275
 30
0.0
 40
2.381249999999925
100
AcDbArc
 50
274.3427920833295
 51
40.4394938410726
  0
ARC
  5
294C
330
27BF
100
AcDbEntity
  8
1
 62
     7
100
AcDbCircle
 10
284.3795854221111
 20
163.6239064580474
 30
0.0
 40
2.381249999999957
100
AcDbArc
 50
258.6906181702851
 51
24.78731992802858
  0
ARC
  5
294D
330
27BF
100
AcDbEntity
  8
1
 62
     7
100
AcDbCircle
 10
280.4416763392323
 20
167.8403775276169
 30
0.0
 40
2.381249999999968
100
AcDbArc
 50
243.0384442572413
 51
9.135146014983579
  0
ARC
  5
294E
330
27BF
100
AcDbEntity
  8
1
 62
     7
100
AcDbCircle
 10
277.7873858875713
 20
172.9629255677782
 30
0.0
 40
2.381250000000004
100
AcDbArc
 50
227.3862703442003
 51
353.482972101941
  0
ARC
  5
294F
330
27BF
100
AcDbEntity
  8
1
 62
     7
100
AcDbCircle
 10
276.6135706473568
 20
178.6116346244899
 30
0.0
 40
2.381250000000004
100
AcDbArc
 50
211.7340964311559
 51
337.8307981888968
  0
ARC
  5
2950
330
27BF
100
AcDbEntity
  8
1
 62
     7
100
AcDbCircle
 10
277.0072871251084
 20
184.3675657881406
 30
0.0
 40
2.381250000000022
100
AcDbArc
 50
196.0819225181148
 51
322.1786242758511
  0
ARC
  5
2951
330
27BF
100
AcDbEntity
  8
1
 62
     7
100
AcDbCircle
 10
278.939335170804
 20
189.8038279759548
 30
0.0
 40
2.381249999999965
100
AcDbArc
 50
180.4297486050695
 51
306.5264503628128
  0
ARC
  5
2952
330
27BF
100
AcDbEntity
  8
1
 62
     7
100
AcDbCircle
 10
282.2664236194264
 20
194.5172384907077
 30
0.0
 40
2.381249999999912
100
AcDbArc
 50
164.7775746920244
 51
290.8742764497665
  0
ARC
  5
2953
330
27BF
100
AcDbEntity
  8
1
 62
     7
100
AcDbCircle
 10
286.7417975411576
 20
198.1582252369379
 30
0.0
 40
2.381249999999976
100
AcDbArc
 50
149.1254007789813
 51
275.2221025367215
  0
ARC
  5
2954
330
27BF
100
AcDbEntity
  8
1
 62
     7
100
AcDbCircle
 10
292.0335389256968
 20
200.4567528840835
 30
0.0
 40
2.381249999999969
100
AcDbArc
 50
133.4732268659384
 51
259.5699286236807
  0
ARC
  5
2955
330
27BF
100
AcDbEntity
  8
1
 62
     7
100
AcDbCircle
 10
297.7491835226583
 20
201.2423501516205
 30
0.0
 40
2.381249999999961
100
AcDbArc
 50
296.0822452893643
 51
62.17894704710404
  0
ARC
  5
2956
330
27BF
100
AcDbEntity
  8
1
 62
     7
100
AcDbCircle
 10
297.7491835226583
 20
201.2423501516205
 30
0.0
 40
2.381250000000035
100
AcDbArc
 50
117.8210529528959
 51
243.9177547106354
  0
ARC
  5
2957
330
27BF
100
AcDbEntity
  8
1
 62
     7
100
AcDbCircle
 10
209.1391835226585
 20
158.8492031868424
 30
0.0
 40
2.381249999999989
100
AcDbArc
 50
270.0
 51
296.4223745388114
  0
ARC
  5
2958
330
27BF
100
AcDbEntity
  8
1
 62
     7
100
AcDbCircle
 10
209.1391835226585
 20
158.8492031868424
 30
0.0
 40
2.381249999999941
100
AcDbArc
 50
296.4223745388114
 51
62.3858628706122
  0
ARC
  5
2959
330
27BF
100
AcDbEntity
  8
1
 62
     7
100
AcDbCircle
 10
209.1391835226585
 20
158.8492031868424
 30
0.0
 40
2.381249999999976
100
AcDbArc
 50
62.3858628706122
 51
90.0
  0
ARC
  5
295A
330
27BF
100
AcDbEntity
  8
1
 62
     7
100
AcDbCircle
 10
209.1391835226585
 20
158.8492031868424
 30
0.0
 40
2.381250000000019
100
AcDbArc
 50
90.0
 51
117.614137129389
  0
ARC
  5
295B
330
27BF
100
AcDbEntity
  8
1
 62
     7
100
AcDbCircle
 10
209.1391835226585
 20
158.8492031868424
 30
0.0
 40
2.381250000000004
100
AcDbArc
 50
117.614137129389
 51
243.5776254611865
  0
ARC
  5
295C
330
27BF
100
AcDbEntity
  8
1
 62
     7
100
AcDbCircle
 10
209.1391835226585
 20
158.8492031868424
 30
0.0
 40
2.381249999999995
100
AcDbArc
 50
243.5776254611865
 51
270.0
  0
ARC
  5
295D
330
27BF
100
AcDbEntity
  8
1
 62
     7
100
AcDbCircle
 10
209.1391835226585
 20
201.2192031868424
 30
0.0
 40
2.381250000000019
100
AcDbArc
 50
90.0
 51
116.4223745388135
  0
ARC
  5
295E
330
27BF
100
AcDbEntity
  8
1
 62
     7
100
AcDbCircle
 10
209.1391835226585
 20
201.2192031868424
 30
0.0
 40
2.38125000000002
100
AcDbArc
 50
116.4223745388135
 51
242.3858628706107
  0
ARC
  5
295F
330
27BF
100
AcDbEntity
  8
1
 62
     7
100
AcDbCircle
 10
209.1391835226585
 20
201.2192031868424
 30
0.0
 40
2.381249999999989
100
AcDbArc
 50
242.3858628706107
 51
270.0
  0
ARC
  5
2960
330
27BF
100
AcDbEntity
  8
1
 62
     7
100
AcDbCircle
 10
209.1391835226585
 20
201.2192031868424
 30
0.0
 40
2.38125
100
AcDbArc
 50
270.0
 51
297.6141371293877
  0
ARC
  5
2961
330
27BF
100
AcDbEntity
  8
1
 62
     7
100
AcDbCircle
 10
209.1391835226585
 20
201.2192031868424
 30
0.0
 40
2.381249999999961
100
AcDbArc
 50
297.6141371293877
 51
63.57762546118863
  0
ARC
  5
2962
330
27BF
100
AcDbEntity
  8
1
 62
     7
100
AcDbCircle
 10
209.1391835226585
 20
201.2192031868424
 30
0.0
 40
2.381249999999965
100
AcDbArc
 50
63.57762546118863
 51
90.0
  0
ARC
  5
2963
330
27BF
100
AcDbEntity
  8
1
 62
     7
100
AcDbCircle
 10
297.7491835226583
 20
180.0573501516204
 30
0.0
 40
22.79500000000007
100
AcDbArc
 50
95.39112859826991
 51
100.2610453147736
  0
ARC
  5
2964
330
27BF
100
AcDbEntity
  8
1
 62
     7
100
AcDbCircle
 10
292.0335389256968
 20
200.4567528840835
 30
0.0
 40
2.620000000000003
100
AcDbArc
 50
332.8562161104128
 51
50.82312054650817
  0
ARC
  5
2965
330
27BF
100
AcDbEntity
  8
1
 62
     7
100
AcDbCircle
 10
297.7491835226583
 20
180.0573501516204
 30
0.0
 40
19.5
100
AcDbArc
 50
95.65796101628121
 51
99.9942128967633
  0
ARC
  5
2966
330
27BF
100
AcDbEntity
  8
1
 62
     7
100
AcDbCircle
 10
297.7491835226583
 20
201.2423501516205
 30
0.0
 40
2.620000000000076
100
AcDbArc
 50
144.8290533665343
 51
222.7959578026291
  0
ARC
  5
2967
330
27BF
100
AcDbEntity
  8
1
 62
     7
100
AcDbCircle
 10
292.0335389256968
 20
200.4567528840835
 30
0.0
 40
2.62000000000006
100
AcDbArc
 50
160.4812272795796
 51
238.448131715674
  0
ARC
  5
2968
330
27BF
100
AcDbEntity
  8
1
 62
     7
100
AcDbCircle
 10
297.7491835226583
 20
180.0573501516204
 30
0.0
 40
19.50000000000006
100
AcDbArc
 50
111.3101349293249
 51
115.6463868098055
  0
ARC
  5
2969
330
27BF
100
AcDbEntity
  8
1
 62
     7
100
AcDbCircle
 10
286.7417975411576
 20
198.1582252369379
 30
0.0
 40
2.620000000000064
100
AcDbArc
 50
348.5083900234556
 51
66.4752944595528
  0
ARC
  5
296A
330
27BF
100
AcDbEntity
  8
1
 62
     7
100
AcDbCircle
 10
297.7491835226583
 20
180.0573501516204
 30
0.0
 40
22.79500000000007
100
AcDbArc
 50
111.0433025113125
 51
115.9132192278169
  0
ARC
  5
296B
330
27BF
100
AcDbEntity
  8
1
 62
     7
100
AcDbCircle
 10
286.7417975411576
 20
198.1582252369379
 30
0.0
 40
2.62000000000004
100
AcDbArc
 50
176.1334011926232
 51
254.1003056287164
  0
ARC
  5
296C
330
27BF
100
AcDbEntity
  8
1
 62
     7
100
AcDbCircle
 10
297.7491835226583
 20
180.0573501516204
 30
0.0
 40
19.5
100
AcDbArc
 50
126.9623088423676
 51
131.2985607228492
  0
ARC
  5
296D
330
27BF
100
AcDbEntity
  8
1
 62
     7
100
AcDbCircle
 10
282.2664236194264
 20
194.5172384907077
 30
0.0
 40
2.620000000000055
100
AcDbArc
 50
4.16056393650135
 51
82.12746837259619
  0
ARC
  5
296E
330
27BF
100
AcDbEntity
  8
1
 62
     7
100
AcDbCircle
 10
297.7491835226583
 20
180.0573501516204
 30
0.0
 40
22.79500000000005
100
AcDbArc
 50
126.6954764243561
 51
131.5653931408606
  0
ARC
  5
296F
330
27BF
100
AcDbEntity
  8
1
 62
     7
100
AcDbCircle
 10
282.2664236194264
 20
194.5172384907077
 30
0.0
 40
2.620000000000095
100
AcDbArc
 50
191.7855751056664
 51
269.7524795417601
  0
ARC
  5
2970
330
27BF
100
AcDbEntity
  8
1
 62
     7
100
AcDbCircle
 10
297.7491835226583
 20
180.0573501516204
 30
0.0
 40
19.50000000000006
100
AcDbArc
 50
142.6144827554115
 51
146.9507346358918
  0
ARC
  5
2971
330
27BF
100
AcDbEntity
  8
1
 62
     7
100
AcDbCircle
 10
278.939335170804
 20
189.8038279759548
 30
0.0
 40
2.620000000000139
100
AcDbArc
 50
19.8127378495436
 51
97.77964228563609
  0
ARC
  5
2972
330
27BF
100
AcDbEntity
  8
1
 62
     7
100
AcDbCircle
 10
297.7491835226583
 20
180.0573501516204
 30
0.0
 40
22.79500000000007
100
AcDbArc
 50
142.3476503373999
 51
147.2175670539041
  0
ARC
  5
2973
330
27BF
100
AcDbEntity
  8
1
 62
     7
100
AcDbCircle
 10
278.939335170804
 20
189.8038279759548
 30
0.0
 40
2.619999999999957
100
AcDbArc
 50
207.4377490187095
 51
285.4046534548043
  0
ARC
  5
2974
330
27BF
100
AcDbEntity
  8
1
 62
     7
100
AcDbCircle
 10
297.7491835226583
 20
180.0573501516204
 30
0.0
 40
19.5
100
AcDbArc
 50
158.266656668455
 51
162.6029085489354
  0
ARC
  5
2975
330
27BF
100
AcDbEntity
  8
1
 62
     7
100
AcDbCircle
 10
277.0072871251084
 20
184.3675657881406
 30
0.0
 40
2.619999999999899
100
AcDbArc
 50
35.46491176258827
 51
113.4318161986847
  0
ARC
  5
2976
330
27BF
100
AcDbEntity
  8
1
 62
     7
100
AcDbCircle
 10
297.7491835226583
 20
180.0573501516204
 30
0.0
 40
22.79500000000007
100
AcDbArc
 50
157.9998242504426
 51
162.8697409669471
  0
ARC
  5
2977
330
27BF
100
AcDbEntity
  8
1
 62
     7
100
AcDbCircle
 10
277.0072871251084
 20
184.3675657881406
 30
0.0
 40
2.620000000000108
100
AcDbArc
 50
223.0899229317516
 51
301.0568273678444
  0
ARC
  5
2978
330
27BF
100
AcDbEntity
  8
1
 62
     7
100
AcDbCircle
 10
297.7491835226583
 20
180.0573501516204
 30
0.0
 40
19.50000000000006
100
AcDbArc
 50
173.9188305814991
 51
178.2550824619794
  0
ARC
  5
2979
330
27BF
100
AcDbEntity
  8
1
 62
     7
100
AcDbCircle
 10
276.6135706473568
 20
178.6116346244899
 30
0.0
 40
2.62000000000008
100
AcDbArc
 50
51.11708567563154
 51
129.0839901117277
  0
ARC
  5
297A
330
27BF
100
AcDbEntity
  8
1
 62
     7
100
AcDbCircle
 10
297.7491835226583
 20
180.0573501516204
 30
0.0
 40
22.7950000000001
100
AcDbArc
 50
173.6519981634872
 51
178.5219148799919
  0
ARC
  5
297B
330
27BF
100
AcDbEntity
  8
1
 62
     7
100
AcDbCircle
 10
276.6135706473568
 20
178.6116346244899
 30
0.0
 40
2.619999999999945
100
AcDbArc
 50
238.7420968447956
 51
316.70900128089
  0
ARC
  5
297C
330
27BF
100
AcDbEntity
  8
1
 62
     7
100
AcDbCircle
 10
297.7491835226583
 20
180.0573501516204
 30
0.0
 40
19.5
100
AcDbArc
 50
189.5710044945426
 51
193.9072563750235
  0
ARC
  5
297D
330
27BF
100
AcDbEntity
  8
1
 62
     7
100
AcDbCircle
 10
277.7873858875713
 20
172.9629255677782
 30
0.0
 40
2.620000000000009
100
AcDbArc
 50
66.76925958867503
 51
144.7361640247721
  0
ARC
  5
297E
330
27BF
100
AcDbEntity
  8
1
 62
     7
100
AcDbCircle
 10
297.7491835226583
 20
180.0573501516204
 30
0.0
 40
22.79499999999996
100
AcDbArc
 50
189.30417207653
 51
194.1740887930354
  0
ARC
  5
297F
330
27BF
100
AcDbEntity
  8
1
 62
     7
100
AcDbCircle
 10
277.7873858875713
 20
172.9629255677782
 30
0.0
 40
2.62000000000004
100
AcDbArc
 50
254.3942707578378
 51
332.3611751939322
  0
ARC
  5
2980
330
27BF
100
AcDbEntity
  8
1
 62
     7
100
AcDbCircle
 10
297.7491835226583
 20
180.0573501516204
 30
0.0
 40
19.5
100
AcDbArc
 50
205.2231784075845
 51
209.5594302880656
  0
ARC
  5
2981
330
27BF
100
AcDbEntity
  8
1
 62
     7
100
AcDbCircle
 10
280.4416763392323
 20
167.8403775276169
 30
0.0
 40
2.619999999999919
100
AcDbArc
 50
82.42143350171785
 51
160.3883379378123
  0
ARC
  5
2982
330
27BF
100
AcDbEntity
  8
1
 62
     7
100
AcDbCircle
 10
297.7491835226583
 20
180.0573501516204
 30
0.0
 40
22.79500000000007
100
AcDbArc
 50
204.9563459895741
 51
209.8262627060786
  0
ARC
  5
2983
330
27BF
100
AcDbEntity
  8
1
 62
     7
100
AcDbCircle
 10
280.4416763392323
 20
167.8403775276169
 30
0.0
 40
2.620000000000056
100
AcDbArc
 50
270.0464446708831
 51
348.013349106976
  0
ARC
  5
2984
330
27BF
100
AcDbEntity
  8
1
 62
     7
100
AcDbCircle
 10
297.7491835226583
 20
180.0573501516204
 30
0.0
 40
19.5
100
AcDbArc
 50
220.8753523206288
 51
225.2116042011097
  0
ARC
  5
2985
330
27BF
100
AcDbEntity
  8
1
 62
     7
100
AcDbCircle
 10
284.3795854221111
 20
163.6239064580474
 30
0.0
 40
2.620000000000035
100
AcDbArc
 50
98.07360741476212
 51
176.040511850857
  0
ARC
  5
2986
330
27BF
100
AcDbEntity
  8
1
 62
     7
100
AcDbCircle
 10
297.7491835226583
 20
180.0573501516204
 30
0.0
 40
22.795
100
AcDbArc
 50
220.6085199026168
 51
225.4784366191214
  0
ARC
  5
2987
330
27BF
100
AcDbEntity
  8
1
 62
     7
100
AcDbCircle
 10
284.3795854221111
 20
163.6239064580474
 30
0.0
 40
2.620000000000019
100
AcDbArc
 50
285.6986185839255
 51
3.66552302002095
  0
ARC
  5
2988
330
27BF
100
AcDbEntity
  8
1
 62
     7
100
AcDbCircle
 10
297.7491835226583
 20
180.0573501516204
 30
0.0
 40
19.5
100
AcDbArc
 50
236.5275262336718
 51
240.8637781141532
  0
ARC
  5
2989
330
27BF
100
AcDbEntity
  8
1
 62
     7
100
AcDbCircle
 10
289.3090564342658
 20
160.6262287292275
 30
0.0
 40
2.62000000000004
100
AcDbArc
 50
113.7257813278077
 51
191.6926857638983
  0
ARC
  5
298A
330
27BF
100
AcDbEntity
  8
1
 62
     7
100
AcDbCircle
 10
297.7491835226583
 20
180.0573501516204
 30
0.0
 40
22.795
100
AcDbArc
 50
236.2606938156602
 51
241.1306105321661
  0
ARC
  5
298B
330
27BF
100
AcDbEntity
  8
1
 62
     7
100
AcDbCircle
 10
289.3090564342658
 20
160.6262287292275
 30
0.0
 40
2.620000000000016
100
AcDbArc
 50
301.3507924969685
 51
19.31769693306596
  0
ARC
  5
298C
330
27BF
100
AcDbEntity
  8
1
 62
     7
100
AcDbCircle
 10
297.7491835226583
 20
180.0573501516204
 30
0.0
 40
19.5
100
AcDbArc
 50
252.1797001467164
 51
256.5159520271973
  0
ARC
  5
298D
330
27BF
100
AcDbEntity
  8
1
 62
     7
100
AcDbCircle
 10
294.8644930615543
 20
159.0696683848408
 30
0.0
 40
2.620000000000009
100
AcDbArc
 50
129.3779552408504
 51
207.3448596769438
  0
ARC
  5
298E
330
27BF
100
AcDbEntity
  8
1
 62
     7
100
AcDbCircle
 10
297.7491835226583
 20
180.0573501516204
 30
0.0
 40
22.79500000000003
100
AcDbArc
 50
251.9128677287037
 51
256.7827844452088
  0
ARC
  5
298F
330
27BF
100
AcDbEntity
  8
1
 62
     7
100
AcDbCircle
 10
294.8644930615543
 20
159.0696683848408
 30
0.0
 40
2.619999999999973
100
AcDbArc
 50
317.002966410013
 51
34.96987084610935
  0
ARC
  5
2990
330
27BF
100
AcDbEntity
  8
1
 62
     7
100
AcDbCircle
 10
297.7491835226583
 20
180.0573501516204
 30
0.0
 40
19.49999999999995
100
AcDbArc
 50
267.8318740597589
 51
272.168125940241
  0
ARC
  5
2991
330
27BF
100
AcDbEntity
  8
1
 62
     7
100
AcDbCircle
 10
300.6338739837624
 20
159.0696683848408
 30
0.0
 40
2.619999999999949
100
AcDbArc
 50
145.0301291538905
 51
222.9970335899881
  0
ARC
  5
2992
330
27BF
100
AcDbEntity
  8
1
 62
     7
100
AcDbCircle
 10
297.7491835226583
 20
180.0573501516204
 30
0.0
 40
22.79499999999996
100
AcDbArc
 50
267.5650416417468
 51
272.4349583582528
  0
ARC
  5
2993
330
27BF
100
AcDbEntity
  8
1
 62
     7
100
AcDbCircle
 10
300.6338739837624
 20
159.0696683848408
 30
0.0
 40
2.62000000000004
100
AcDbArc
 50
332.6551403230582
 51
50.62204475914946
  0
ARC
  5
2994
330
27BF
100
AcDbEntity
  8
1
 62
     7
100
AcDbCircle
 10
297.7491835226583
 20
180.0573501516204
 30
0.0
 40
19.49999999999999
100
AcDbArc
 50
283.4840479728025
 51
287.8202998532833
  0
ARC
  5
2995
330
27BF
100
AcDbEntity
  8
1
 62
     7
100
AcDbCircle
 10
306.1893106110511
 20
160.6262287292275
 30
0.0
 40
2.620000000000029
100
AcDbArc
 50
160.6823030669358
 51
238.6492075030291
  0
ARC
  5
2996
330
27BF
100
AcDbEntity
  8
1
 62
     7
100
AcDbCircle
 10
297.7491835226583
 20
180.0573501516204
 30
0.0
 40
22.79499999999992
100
AcDbArc
 50
283.2172155547912
 51
288.0871322712962
  0
ARC
  5
2997
330
27BF
100
AcDbEntity
  8
1
 62
     7
100
AcDbCircle
 10
306.1893106110511
 20
160.6262287292275
 30
0.0
 40
2.620000000000043
100
AcDbArc
 50
348.3073142361014
 51
66.2742186721957
  0
ARC
  5
2998
330
27BF
100
AcDbEntity
  8
1
 62
     7
100
AcDbCircle
 10
297.7491835226583
 20
180.0573501516204
 30
0.0
 40
19.49999999999996
100
AcDbArc
 50
299.1362218858459
 51
303.4724737663278
  0
ARC
  5
2999
330
27BF
100
AcDbEntity
  8
1
 62
     7
100
AcDbCircle
 10
311.1187816232056
 20
163.6239064580474
 30
0.0
 40
2.619999999999989
100
AcDbArc
 50
176.3344769799805
 51
254.301381416074
  0
ARC
  5
299A
330
27BF
100
AcDbEntity
  8
1
 62
     7
100
AcDbCircle
 10
297.7491835226583
 20
180.0573501516204
 30
0.0
 40
22.795
100
AcDbArc
 50
298.8693894678338
 51
303.7393061843396
  0
ARC
  5
299B
330
27BF
100
AcDbEntity
  8
1
 62
     7
100
AcDbCircle
 10
311.1187816232056
 20
163.6239064580474
 30
0.0
 40
2.620000000000048
100
AcDbArc
 50
3.959488149146208
 51
81.92639258523948
  0
ARC
  5
299C
330
27BF
100
AcDbEntity
  8
1
 62
     7
100
AcDbCircle
 10
297.7491835226583
 20
180.0573501516204
 30
0.0
 40
19.49999999999985
100
AcDbArc
 50
314.7883957988888
 51
319.1246476793711
  0
ARC
  5
299D
330
27BF
100
AcDbEntity
  8
1
 62
     7
100
AcDbCircle
 10
315.0566907060846
 20
167.8403775276169
 30
0.0
 40
2.620000000000023
100
AcDbArc
 50
191.9866508930238
 51
269.9535553291168
  0
ARC
  5
299E
330
27BF
100
AcDbEntity
  8
1
 62
     7
100
AcDbCircle
 10
297.7491835226583
 20
180.0573501516204
 30
0.0
 40
22.79499999999992
100
AcDbArc
 50
314.5215633808783
 51
319.3914800973828
  0
ARC
  5
299F
330
27BF
100
AcDbEntity
  8
1
 62
     7
100
AcDbCircle
 10
315.0566907060846
 20
167.8403775276169
 30
0.0
 40
2.619999999999928
100
AcDbArc
 50
19.61166206218766
 51
97.57856649828381
  0
ARC
  5
29A0
330
27BF
100
AcDbEntity
  8
1
 62
     7
100
AcDbCircle
 10
297.7491835226583
 20
180.0573501516204
 30
0.0
 40
19.49999999999992
100
AcDbArc
 50
330.440569711934
 51
334.7768215924152
  0
ARC
  5
29A1
330
27BF
100
AcDbEntity
  8
1
 62
     7
100
AcDbCircle
 10
317.7109811577457
 20
172.9629255677782
 30
0.0
 40
2.620000000000068
100
AcDbArc
 50
207.6388248060661
 51
285.6057292421599
  0
ARC
  5
29A2
330
27BF
100
AcDbEntity
  8
1
 62
     7
100
AcDbCircle
 10
297.7491835226583
 20
180.0573501516204
 30
0.0
 40
22.79499999999992
100
AcDbArc
 50
330.1737372939212
 51
335.0436540104256
  0
ARC
  5
29A3
330
27BF
100
AcDbEntity
  8
1
 62
     7
100
AcDbCircle
 10
317.7109811577457
 20
172.9629255677782
 30
0.0
 40
2.619999999999989
100
AcDbArc
 50
35.2638359752315
 51
113.2307404113249
  0
ARC
  5
29A4
330
27BF
100
AcDbEntity
  8
1
 62
     7
100
AcDbCircle
 10
297.7491835226583
 20
180.0573501516204
 30
0.0
 40
19.49999999999992
100
AcDbArc
 50
346.0927436249763
 51
350.4289955054571
  0
ARC
  5
29A5
330
27BF
100
AcDbEntity
  8
1
 62
     7
100
AcDbCircle
 10
318.88479639796
 20
178.6116346244899
 30
0.0
 40
2.619999999999941
100
AcDbArc
 50
223.2909987191109
 51
301.2579031552056
  0
ARC
  5
29A6
330
27BF
100
AcDbEntity
  8
1
 62
     7
100
AcDbCircle
 10
297.7491835226583
 20
180.0573501516204
 30
0.0
 40
22.79499999999994
100
AcDbArc
 50
345.8259112069645
 51
350.6958279234698
  0
ARC
  5
29A7
330
27BF
100
AcDbEntity
  8
1
 62
     7
100
AcDbCircle
 10
318.88479639796
 20
178.6116346244899
 30
0.0
 40
2.620000000000029
100
AcDbArc
 50
50.91600988827444
 51
128.8829143243684
  0
ARC
  5
29A8
330
27BF
100
AcDbEntity
  8
1
 62
     7
100
AcDbCircle
 10
297.7491835226583
 20
180.0573501516204
 30
0.0
 40
19.49999999999996
100
AcDbArc
 50
1.744917538020549
 51
6.081169418500807
  0
ARC
  5
29A9
330
27BF
100
AcDbEntity
  8
1
 62
     7
100
AcDbCircle
 10
318.4910799202082
 20
184.3675657881406
 30
0.0
 40
2.620000000000088
100
AcDbArc
 50
238.9431726321531
 51
316.9100770682483
  0
ARC
  5
29AA
330
27BF
100
AcDbEntity
  8
1
 62
     7
100
AcDbCircle
 10
297.7491835226583
 20
180.0573501516204
 30
0.0
 40
22.79499999999994
100
AcDbArc
 50
1.478085120008061
 51
6.348001836512684
  0
ARC
  5
29AB
330
27BF
100
AcDbEntity
  8
1
 62
     7
100
AcDbCircle
 10
318.4910799202082
 20
184.3675657881406
 30
0.0
 40
2.619999999999981
100
AcDbArc
 50
66.56818380131821
 51
144.5350882374116
  0
ARC
  5
29AC
330
27BF
100
AcDbEntity
  8
1
 62
     7
100
AcDbCircle
 10
297.7491835226583
 20
180.0573501516204
 30
0.0
 40
19.49999999999996
100
AcDbArc
 50
17.39709145106427
 51
21.7333433315449
  0
ARC
  5
29AD
330
27BF
100
AcDbEntity
  8
1
 62
     7
100
AcDbCircle
 10
316.5590318745127
 20
189.8038279759548
 30
0.0
 40
2.620000000000039
100
AcDbArc
 50
254.5953465451953
 51
332.5622509812902
  0
ARC
  5
29AE
330
27BF
100
AcDbEntity
  8
1
 62
     7
100
AcDbCircle
 10
297.7491835226583
 20
180.0573501516204
 30
0.0
 40
22.79499999999989
100
AcDbArc
 50
17.13025903305279
 51
22.00017574955734
  0
ARC
  5
29AF
330
27BF
100
AcDbEntity
  8
1
 62
     7
100
AcDbCircle
 10
316.5590318745127
 20
189.8038279759548
 30
0.0
 40
2.619999999999984
100
AcDbArc
 50
82.22035771436392
 51
160.187262150456
  0
ARC
  5
29B0
330
27BF
100
AcDbEntity
  8
1
 62
     7
100
AcDbCircle
 10
297.7491835226583
 20
180.0573501516204
 30
0.0
 40
19.49999999999996
100
AcDbArc
 50
33.04926536410778
 51
37.38551724458821
  0
ARC
  5
29B1
330
27BF
100
AcDbEntity
  8
1
 62
     7
100
AcDbCircle
 10
313.2319434258905
 20
194.5172384907077
 30
0.0
 40
2.620000000000019
100
AcDbArc
 50
270.2475204582414
 51
348.214424894335
  0
ARC
  5
29B2
330
27BF
100
AcDbEntity
  8
1
 62
     7
100
AcDbCircle
 10
297.7491835226583
 20
180.0573501516204
 30
0.0
 40
22.79499999999992
100
AcDbArc
 50
32.78243294609544
 51
37.65234966260008
  0
ARC
  5
29B3
330
27BF
100
AcDbEntity
  8
1
 62
     7
100
AcDbCircle
 10
313.2319434258905
 20
194.5172384907077
 30
0.0
 40
2.619999999999999
100
AcDbArc
 50
97.87253162740565
 51
175.8394360634986
  0
ARC
  5
29B4
330
27BF
100
AcDbEntity
  8
1
 62
     7
100
AcDbCircle
 10
297.7491835226583
 20
180.0573501516204
 30
0.0
 40
19.5
100
AcDbArc
 50
48.70143927715062
 51
53.03769115763241
  0
ARC
  5
29B5
330
27BF
100
AcDbEntity
  8
1
 62
     7
100
AcDbCircle
 10
308.756569504159
 20
198.1582252369379
 30
0.0
 40
2.620000000000009
100
AcDbArc
 50
285.8996943712817
 51
3.866598807376727
  0
ARC
  5
29B6
330
27BF
100
AcDbEntity
  8
1
 62
     7
100
AcDbCircle
 10
297.7491835226583
 20
180.0573501516204
 30
0.0
 40
22.79499999999994
100
AcDbArc
 50
48.43460685913888
 51
53.30452357564381
  0
ARC
  5
29B7
330
27BF
100
AcDbEntity
  8
1
 62
     7
100
AcDbCircle
 10
308.756569504159
 20
198.1582252369379
 30
0.0
 40
2.619999999999961
100
AcDbArc
 50
113.5247055404501
 51
191.4916099765441
  0
ARC
  5
29B8
330
27BF
100
AcDbEntity
  8
1
 62
     7
100
AcDbCircle
 10
297.7491835226583
 20
180.0573501516204
 30
0.0
 40
19.49999999999996
100
AcDbArc
 50
64.35361319019445
 51
68.68986507067503
  0
ARC
  5
29B9
330
27BF
100
AcDbEntity
  8
1
 62
     7
100
AcDbCircle
 10
303.4648281196199
 20
200.4567528840835
 30
0.0
 40
2.620000000000039
100
AcDbArc
 50
301.5518682843272
 51
19.51877272042192
  0
ARC
  5
29BA
330
27BF
100
AcDbEntity
  8
1
 62
     7
100
AcDbCircle
 10
297.7491835226583
 20
180.0573501516204
 30
0.0
 40
22.79499999999994
100
AcDbArc
 50
64.08678077218282
 51
68.95669748868745
  0
ARC
  5
29BB
330
27BF
100
AcDbEntity
  8
1
 62
     7
100
AcDbCircle
 10
303.4648281196199
 20
200.4567528840835
 30
0.0
 40
2.619999999999993
100
AcDbArc
 50
129.1768794534918
 51
207.1437838895856
  0
ARC
  5
29BC
330
27BF
100
AcDbEntity
  8
1
 62
     7
100
AcDbCircle
 10
297.7491835226583
 20
180.0573501516204
 30
0.0
 40
19.5
100
AcDbArc
 50
80.00578710323829
 51
84.34203898371881
  0
ARC
  5
29BD
330
27BF
100
AcDbEntity
  8
1
 62
     7
100
AcDbCircle
 10
297.7491835226583
 20
201.2423501516205
 30
0.0
 40
2.619999999999985
100
AcDbArc
 50
317.2040421973706
 51
35.17094663346417
  0
ARC
  5
29BE
330
27BF
100
AcDbEntity
  8
1
 62
     7
100
AcDbCircle
 10
297.7491835226583
 20
180.0573501516204
 30
0.0
 40
22.79499999999998
100
AcDbArc
 50
79.73895468522622
 51
84.60887140173012
  0
CIRCLE
  5
29BF
330
27BF
100
AcDbEntity
  8
1
 62
     7
100
AcDbCircle
 10
91.2257931244803
 20
150.1106358148323
 30
0.0
 40
1.200000000000003
  0
CIRCLE
  5
29C0
330
27BF
100
AcDbEntity
  8
1
 62
     3
100
AcDbCircle
 10
91.2257931244803
 20
150.1106358148323
 30
0.0
 40
1.5
  0
CIRCLE
  5
29C1
330
27BF
100
AcDbEntity
  8
1
 62
     7
100
AcDbCircle
 10
107.2725739208365
 20
209.9980370447541
 30
0.0
 40
1.199999999999989
  0
CIRCLE
  5
29C2
330
27BF
100
AcDbEntity
  8
1
 62
     3
100
AcDbCircle
 10
107.2725739208365
 20
209.9980370447541
 30
0.0
 40
1.5
  0
CIRCLE
  5
29C3
330
27BF
100
AcDbEntity
  8
1
 62
     7
100
AcDbCircle
 10
114.7491835226579
 20
206.9011239471103
 30
0.0
 40
1.749999999999944
  0
CIRCLE
  5
29C4
330
27BF
100
AcDbEntity
  8
1
 62
     7
100
AcDbCircle
 10
126.0959710399754
 20
195.5543364297934
 30
0.0
 40
1.750000000000045
  0
CIRCLE
  5
29C5
330
27BF
100
AcDbEntity
  8
1
 62
     7
100
AcDbCircle
 10
130.2491835226575
 20
180.0543364297934
 30
0.0
 40
1.749999999999799
  0
CIRCLE
  5
29C6
330
27BF
100
AcDbEntity
  8
1
 62
     7
100
AcDbCircle
 10
126.0959710399758
 20
164.5543364297938
 30
0.0
 40
1.750000000000045
  0
CIRCLE
  5
29C7
330
27BF
100
AcDbEntity
  8
1
 62
     7
100
AcDbCircle
 10
114.7491835226581
 20
153.2075489124763
 30
0.0
 40
1.750000000000019
  0
CIRCLE
  5
29C8
330
27BF
100
AcDbEntity
  8
1
 62
     7
100
AcDbCircle
 10
99.24918352265882
 20
149.0543364297938
 30
0.0
 40
1.749999999999972
  0
CIRCLE
  5
29C9
330
27BF
100
AcDbEntity
  8
1
 62
     7
100
AcDbCircle
 10
83.74918352265892
 20
153.207548912476
 30
0.0
 40
1.750000000000033
  0
CIRCLE
  5
29CA
330
27BF
100
AcDbEntity
  8
1
 62
     7
100
AcDbCircle
 10
72.40239600534143
 20
164.5543364297934
 30
0.0
 40
1.749999999999924
  0
CIRCLE
  5
29CB
330
27BF
100
AcDbEntity
  8
1
 62
     7
100
AcDbCircle
 10
68.24918352265891
 20
180.054336429793
 30
0.0
 40
1.75
  0
CIRCLE
  5
29CC
330
27BF
100
AcDbEntity
  8
1
 62
     7
100
AcDbCircle
 10
72.40239600534123
 20
195.554336429793
 30
0.0
 40
1.749999999999924
  0
CIRCLE
  5
29CD
330
27BF
100
AcDbEntity
  8
1
 62
     7
100
AcDbCircle
 10
83.74918352265853
 20
206.9011239471103
 30
0.0
 40
1.749999999999934
  0
CIRCLE
  5
29CE
330
27BF
100
AcDbEntity
  8
1
 62
     7
100
AcDbCircle
 10
99.24918352265827
 20
211.0543364297928
 30
0.0
 40
1.75
  0
CIRCLE
  5
29CF
330
27BF
100
AcDbEntity
  8
1
  6
CENTER
 62
     3
100
AcDbCircle
 10
99.24918352265827
 20
180.0543364297925
 30
0.0
 40
30.9999999999998
  0
CIRCLE
  5
29D0
330
27BF
100
AcDbEntity
  8
1
 62
     7
100
AcDbCircle
 10
289.7265731330858
 20
209.9981397348352
 30
0.0
 40
1.200000000000041
  0
CIRCLE
  5
29D1
330
27BF
100
AcDbEntity
  8
1
 62
     7
100
AcDbCircle
 10
289.7265731330858
 20
209.9981397348352
 30
0.0
 40
1.75
  0
CIRCLE
  5
29D2
330
27BF
100
AcDbEntity
  8
1
 62
     3
100
AcDbCircle
 10
289.7265731330858
 20
209.9981397348352
 30
0.0
 40
1.5
  0
CIRCLE
  5
29D3
330
27BF
100
AcDbEntity
  8
1
 62
     7
100
AcDbCircle
 10
305.7717939122308
 20
150.1165605684058
 30
0.0
 40
1.200000000000003
  0
CIRCLE
  5
29D4
330
27BF
100
AcDbEntity
  8
1
 62
     7
100
AcDbCircle
 10
305.7717939122308
 20
150.1165605684058
 30
0.0
 40
1.75
  0
CIRCLE
  5
29D5
330
27BF
100
AcDbEntity
  8
1
 62
     3
100
AcDbCircle
 10
305.7717939122308
 20
150.1165605684058
 30
0.0
 40
1.5
  0
CIRCLE
  5
29D6
330
27BF
100
AcDbEntity
  8
1
 62
     7
100
AcDbCircle
 10
313.2476766617443
 20
206.9015277092755
 30
0.0
 40
1.750000000000033
  0
CIRCLE
  5
29D7
330
27BF
100
AcDbEntity
  8
1
 62
     7
100
AcDbCircle
 10
324.5933610803131
 20
195.5558432907068
 30
0.0
 40
1.74999999999995
  0
CIRCLE
  5
29D8
330
27BF
100
AcDbEntity
  8
1
 62
     7
100
AcDbCircle
 10
328.7461698008308
 20
180.0573501516204
 30
0.0
 40
1.749999999999799
  0
CIRCLE
  5
29D9
330
27BF
100
AcDbEntity
  8
1
 62
     7
100
AcDbCircle
 10
324.5933610803134
 20
164.5588570125345
 30
0.0
 40
1.750000000000019
  0
CIRCLE
  5
29DA
330
27BF
100
AcDbEntity
  8
1
 62
     7
100
AcDbCircle
 10
313.2476766617446
 20
153.2131725939656
 30
0.0
 40
1.750000000000033
  0
CIRCLE
  5
29DB
330
27BF
100
AcDbEntity
  8
1
 62
     7
100
AcDbCircle
 10
297.7491835226586
 20
149.060363873448
 30
0.0
 40
1.750000000000025
  0
CIRCLE
  5
29DC
330
27BF
100
AcDbEntity
  8
1
 62
     7
100
AcDbCircle
 10
282.250690383572
 20
153.2131725939656
 30
0.0
 40
1.750000000000045
  0
CIRCLE
  5
29DD
330
27BF
100
AcDbEntity
  8
1
 62
     7
100
AcDbCircle
 10
270.9050059650035
 20
164.558857012534
 30
0.0
 40
1.749999999999938
  0
CIRCLE
  5
29DE
330
27BF
100
AcDbEntity
  8
1
 62
     7
100
AcDbCircle
 10
266.752197244486
 20
180.0573501516204
 30
0.0
 40
1.75
  0
CIRCLE
  5
29DF
330
27BF
100
AcDbEntity
  8
1
 62
     7
100
AcDbCircle
 10
270.9050059650035
 20
195.5558432907066
 30
0.0
 40
1.750000000000019
  0
CIRCLE
  5
29E0
330
27BF
100
AcDbEntity
  8
1
 62
     7
100
AcDbCircle
 10
282.250690383572
 20
206.9015277092755
 30
0.0
 40
1.750000000000045
  0
CIRCLE
  5
29E1
330
27BF
100
AcDbEntity
  8
1
 62
     7
100
AcDbCircle
 10
297.7491835226583
 20
211.0543364297928
 30
0.0
 40
1.75
  0
CIRCLE
  5
29E2
330
27BF
100
AcDbEntity
  8
1
  6
CENTER
 62
     3
100
AcDbCircle
 10
297.7491835226583
 20
180.0573501516204
 30
0.0
 40
30.9969862781724
  0
CIRCLE
  5
29E3
330
27BF
100
AcDbEntity
  8
1
 62
     7
100
AcDbCircle
 10
99.24918352265827
 20
180.0543364297925
 30
0.0
 40
24.81736675704989
  0
CIRCLE
  5
29E4
330
27BF
100
AcDbEntity
  8
1
 62
     7
100
AcDbCircle
 10
99.24918352265827
 20
180.0543364297925
 30
0.0
 40
15.98236675704987
  0
CIRCLE
  5
29E5
330
27BF
100
AcDbEntity
  8
0
 62
     7
100
AcDbCircle
 10
299.604184150072
 20
168.6093366017385
 30
0.0
 40
0.6999999894830893
  0
CIRCLE
  5
29E6
330
27BF
100
AcDbEntity
  8
0
 62
     7
100
AcDbCircle
 10
295.8941842058163
 20
168.6093366017385
 30
0.0
 40
0.6999999894794087
  0
CIRCLE
  5
29E7
330
27BF
100
AcDbEntity
  8
1
 62
     7
100
AcDbCircle
 10
297.7491841779416
 20
180.0543364297925
 30
0.0
 40
13.99999978993911
  0
CIRCLE
  5
29E8
330
27BF
100
AcDbEntity
  8
1
 62
     7
100
AcDbCircle
 10
99.24918352265827
 20
180.0543364297925
 30
0.0
 40
34.99999947436521
  0
CIRCLE
  5
29E9
330
27BF
100
AcDbEntity
  8
1
 62
     7
100
AcDbCircle
 10
297.7491841779416
 20
180.0543364297925
 30
0.0
 40
10.49999984251771
  0
CIRCLE
  5
29EA
330
27BF
100
AcDbEntity
  8
1
 62
     7
100
AcDbCircle
 10
297.7491841779416
 20
180.0543364297925
 30
0.0
 40
24.8509996267334
  0
CIRCLE
  5
29EB
330
27BF
100
AcDbEntity
  8
1
 62
     7
100
AcDbCircle
 10
297.7491841779416
 20
180.0543364297925
 30
0.0
 40
25.79999961262281
  0
CIRCLE
  5
29EC
330
27BF
100
AcDbEntity
  8
1
 62
     7
100
AcDbCircle
 10
297.7491841779416
 20
180.0543364297925
 30
0.0
 40
34.99999947446672
  0
CIRCLE
  5
29ED
330
27BF
100
AcDbEntity
  8
1
 62
     7
100
AcDbCircle
 10
99.24918352265827
 20
180.0543364297925
 30
0.0
 40
7.999999879870897
  0
CIRCLE
  5
29EE
330
27BF
100
AcDbEntity
  8
1
 62
     7
100
AcDbCircle
 10
99.24918352265827
 20
180.0543364297925
 30
0.0
 40
25.7999996125213
  0
CIRCLE
  5
29EF
330
27BF
100
AcDbEntity
  8
1
  6
CENTER
 62
     3
100
AcDbCircle
 10
99.24918352303926
 20
180.0543364297925
 30
0.0
 40
11.99999981978088
  0
CIRCLE
  5
29F0
330
27BF
100
AcDbEntity
  8
1
 62
     7
100
AcDbCircle
 10
99.24918352303921
 20
192.0543362495735
 30
0.0
 40
2.75
  0
CIRCLE
  5
29F1
330
27BF
100
AcDbEntity
  8
1
 62
     7
100
AcDbCircle
 10
90.76390227623472
 20
188.5396176765968
 30
0.0
 40
2.750000000000079
  0
CIRCLE
  5
29F2
330
27BF
100
AcDbEntity
  8
1
 62
     7
100
AcDbCircle
 10
87.24918370325831
 20
180.0543364297925
 30
0.0
 40
2.75
  0
CIRCLE
  5
29F3
330
27BF
100
AcDbEntity
  8
1
 62
     7
100
AcDbCircle
 10
90.76390227623472
 20
171.5690551829879
 30
0.0
 40
2.749999999999841
  0
CIRCLE
  5
29F4
330
27BF
100
AcDbEntity
  8
1
 62
     7
100
AcDbCircle
 10
99.24918352303926
 20
168.0543366100117
 30
0.0
 40
2.749999999999956
  0
CIRCLE
  5
29F5
330
27BF
100
AcDbEntity
  8
1
 62
     7
100
AcDbCircle
 10
107.7344647698436
 20
171.5690551829883
 30
0.0
 40
2.750000000000063
  0
CIRCLE
  5
29F6
330
27BF
100
AcDbEntity
  8
1
 62
     7
100
AcDbCircle
 10
111.2491833428201
 20
180.0543364297925
 30
0.0
 40
2.749999999999912
  0
CIRCLE
  5
29F7
330
27BF
100
AcDbEntity
  8
1
 62
     7
100
AcDbCircle
 10
107.7344647698436
 20
188.5396176765968
 30
0.0
 40
2.75
  0
CIRCLE
  5
29F8
330
27BF
100
AcDbEntity
  8
1
 62
     3
100
AcDbCircle
 10
94.08295718586442
 20
192.5267101183694
 30
0.0
 40
1.5
  0
CIRCLE
  5
29F9
330
27BF
100
AcDbEntity
  8
1
 62
     7
100
AcDbCircle
 10
94.08295718586442
 20
192.5267101183694
 30
0.0
 40
1.200000000000003
  0
CIRCLE
  5
29FA
330
27BF
100
AcDbEntity
  8
1
 62
     7
100
AcDbCircle
 10
104.4154098599892
 20
167.5819627406754
 30
0.0
 40
1.200000000000102
  0
CIRCLE
  5
29FB
330
27BF
100
AcDbEntity
  8
1
 62
     3
100
AcDbCircle
 10
104.4154098599892
 20
167.5819627406754
 30
0.0
 40
1.5
  0
CIRCLE
  5
29FC
330
27BF
100
AcDbEntity
  8
1
 62
     7
100
AcDbCircle
 10
297.7491835226583
 20
180.0573501516204
 30
0.0
 40
19.07499999999998
  0
CIRCLE
  5
29FD
330
27BF
100
AcDbEntity
  8
1
 62
     7
100
AcDbCircle
 10
297.7491835226583
 20
180.0573501516204
 30
0.0
 40
17.77999999999996
  0
CIRCLE
  5
29FE
330
27BF
100
AcDbEntity
  8
1
 62
     7
100
AcDbCircle
 10
297.7491835226583
 20
180.0573501516204
 30
0.0
 40
23.31749999999999
  0
CIRCLE
  5
29FF
330
27BF
100
AcDbEntity
  8
1
 62
     7
100
AcDbCircle
 10
297.7491835226583
 20
180.0573501516204
 30
0.0
 40
24.53649999999999
  0
CIRCLE
  5
2A00
330
27BF
100
AcDbEntity
  8
1
 62
     7
100
AcDbCircle
 10
99.24918352292689
 20
180.0543364295224
 30
0.0
 40
27.4823663518504
  0
ARC
  5
2A01
330
27BF
100
AcDbEntity
  8
1
 62
     7
100
AcDbCircle
 10
188.1981835226584
 20
156.6517031868424
 30
0.0
 40
1.499999999999984
100
AcDbArc
 50
180.0
 51
270.0
  0
ARC
  5
2A02
330
27BF
100
AcDbEntity
  8
1
 62
     7
100
AcDbCircle
 10
188.1981835226584
 20
203.4217031868424
 30
0.0
 40
1.499999999999988
100
AcDbArc
 50
90.0
 51
180.0
  0
ARC
  5
2A03
330
27BF
100
AcDbEntity
  8
1
 62
     7
100
AcDbCircle
 10
188.3991835226584
 20
203.4207031868425
 30
0.0
 40
1.154339638061518
100
AcDbArc
 50
94.96974072810965
 51
184.9697407281096
  0
ARC
  5
2A04
330
27BF
100
AcDbEntity
  8
1
 62
     7
100
AcDbCircle
 10
188.3991835226584
 20
156.6527031868424
 30
0.0
 40
1.15433963806152
100
AcDbArc
 50
175.0302592718901
 51
265.0302592718903
  0
ARC
  5
2A05
330
27BF
100
AcDbEntity
  8
1
 62
     7
100
AcDbCircle
 10
186.4981835226584
 20
196.2367031868424
 30
0.0
 40
0.2000000000000206
100
AcDbArc
 50
270.0
 51
0.0
  0
ARC
  5
2A06
330
27BF
100
AcDbEntity
  8
1
 62
     7
100
AcDbCircle
 10
186.4981835226584
 20
163.8367031868424
 30
0.0
 40
0.1999999999999904
100
AcDbArc
 50
0.0
 51
90.0
  0
ARC
  5
2A0B
330
27BF
100
AcDbEntity
  8
1
 62
     7
100
AcDbCircle
 10
205.6749826583176
 20
160.3342031868425
 30
0.0
 40
0.1999999999999886
100
AcDbArc
 50
90.0
 51
187.2485042313456
  0
ARC
  5
2A0C
330
27BF
100
AcDbEntity
  8
1
 62
     7
100
AcDbCircle
 10
205.8479335226584
 20
157.4392031868424
 30
0.0
 40
0.2000000000001014
100
AcDbArc
 50
180.0
 51
270.0
  0
ARC
  5
2A0D
330
27BF
100
AcDbEntity
  8
1
 62
     7
100
AcDbCircle
 10
205.8479335226584
 20
202.6292031868424
 30
0.0
 40
0.2000000000000206
100
AcDbArc
 50
90.0
 51
180.0
  0
ARC
  5
2A0E
330
27BF
100
AcDbEntity
  8
1
 62
     7
100
AcDbCircle
 10
205.6749826583176
 20
199.7342031868424
 30
0.0
 40
0.1999999999999799
100
AcDbArc
 50
172.7514957686508
 51
270.0
  0
TEXT
  5
2A0F
330
27BF
100
AcDbEntity
  8
1
 62
     0
100
AcDbText
 10
292.3346449323978
 20
89.9472049634677
 30
0.0
 40
4.724999999999999
  1
2002/3
 41
0.9
 72
     1
 11
301.2989737347982
 21
92.30970496346769
 31
0.0
100
AcDbText
 73
     2
  0
TEXT
  5
2A14
330
27BF
100
AcDbEntity
  8
1
 62
     3
100
AcDbText
 10
72.51797569673691
 20
48.12069642359219
 30
0.0
 40
2.1
  1
 
 41
0.9
100
AcDbText
  0
TEXT
  5
2A1A
330
27BF
100
AcDbEntity
  8
1
 62
     0
100
AcDbText
 10
146.4660256453713
 20
99.19838723460131
 30
0.0
 40
3.639999999999997
  1
REMARKS:  M.H.C = MINIMUM HOUSING CLEARANCE
 41
0.9
 72
     1
 11
193.9762156453713
 21
101.0183872346013
 31
0.0
100
AcDbText
 73
     2
  0
TEXT
  5
2A1B
330
27BF
100
AcDbEntity
  8
1
 62
     0
100
AcDbText
 10
273.6860070918329
 20
100.0763008767534
 30
0.0
 40
4.724999999999999
  1
CSF-20-30-2A-GR.dxf
 41
0.9
100
AcDbText
  0
INSERT
  5
2A90
330
27BF
100
AcDbEntity
  8
AM_0
100
AcDbBlockReference
  2
HD Logo
 10
231.0876581836233
 20
44.08931134985764
 30
0.0
 41
0.8100000000000001
 42
0.8100000000000001
 43
0.8100000000000001
  0
INSERT
  5
2AB9
330
27BF
100
AcDbEntity
  8
AM_0
100
AcDbBlockReference
  2
HD LLC
 10
309.8963520638463
 20
47.76617804643956
 30
0.0
  0
INSERT
  5
2AC6
330
27BF
100
AcDbEntity
  8
AM_0
100
AcDbBlockReference
  2
NTC
 10
31.42010765286687
 20
78.61088877637854
 30
0.0
 41
0.5265
 42
0.5265
 43
0.5265
  0
ENDSEC
  0
SECTION
  2
OBJECTS
  0
DICTIONARY
  5
27AD
330
0
100
AcDbDictionary
281
     1
  3
ACAD_GROUP
350
27AE
  3
ACAD_LAYOUT
350
27BA
  3
ACAD_MLINESTYLE
350
27B7
  3
ACAD_PLOTSETTINGS
350
27B9
  3
ACAD_PLOTSTYLENAME
350
27AF
  3
AcDbVariableDictionary
350
2AA8
  0
DICTIONARY
  5
27AE
102
{ACAD_REACTORS
330
27AD
102
}
330
27AD
100
AcDbDictionary
281
     1
  0
DICTIONARY
  5
27BA
102
{ACAD_REACTORS
330
27AD
102
}
330
27AD
100
AcDbDictionary
281
     1
  3
Layout1
350
27BE
  3
Model
350
27C2
  0
DICTIONARY
  5
27B7
102
{ACAD_REACTORS
330
27AD
102
}
330
27AD
100
AcDbDictionary
281
     1
  3
Standard
350
27B8
  0
DICTIONARY
  5
27B9
102
{ACAD_REACTORS
330
27AD
102
}
330
27AD
100
AcDbDictionary
281
     1
  0
ACDBDICTIONARYWDFLT
  5
27AF
102
{ACAD_REACTORS
330
27AD
102
}
330
27AD
100
AcDbDictionary
281
     1
  3
Normal
350
27B0
100
AcDbDictionaryWithDefault
340
27B0
  0
DICTIONARY
  5
2AA8
102
{ACAD_REACTORS
330
27AD
102
}
330
27AD
100
AcDbDictionary
281
     1
  3
DIMASSOC
350
2AA9
  0
LAYOUT
  5
27BE
102
{ACAD_REACTORS
330
27BA
102
}
330
27BA
100
AcDbPlotSettings
  1

  2
\\SERVER9\HP LaserJet 5100 PCL 5e
  4

  6

 40
0.0
 41
0.0
 42
0.0
 43
0.0
 44
0.0
 45
0.0
 46
0.0
 47
0.0
 48
0.0
 49
0.0
140
0.0
141
0.0
142
1.0
143
1.0
 70
   688
 72
     0
 73
     0
 74
     5
  7

 75
    16
147
1.0
148
0.0
149
0.0
100
AcDbLayout
  1
Layout1
 70
     1
 71
     1
 10
0.0
 20
0.0
 11
420.0
 21
297.0
 12
0.0
 22
0.0
 32
0.0
 14
1.000000000000000E+20
 24
1.000000000000000E+20
 34
1.000000000000000E+20
 15
-1.000000000000000E+20
 25
-1.000000000000000E+20
 35
-1.000000000000000E+20
146
0.0
 13
0.0
 23
0.0
 33
0.0
 16
1.0
 26
0.0
 36
0.0
 17
0.0
 27
1.0
 37
0.0
 76
     0
330
27BB
  0
LAYOUT
  5
27C2
102
{ACAD_REACTORS
330
27BA
102
}
330
27BA
100
AcDbPlotSettings
  1

  2
\\SERVER9\HP LaserJet 5100 PCL 5e
  4

  6

 40
0.0
 41
0.0
 42
0.0
 43
0.0
 44
0.0
 45
0.0
 46
0.0
 47
0.0
 48
0.0
 49
0.0
140
0.0
141
0.0
142
1.0
143
1.0
 70
  1712
 72
     0
 73
     0
 74
     0
  7

 75
     0
147
1.0
148
0.0
149
0.0
100
AcDbLayout
  1
Model
 70
     1
 71
     0
 10
0.0
 20
0.0
 11
12.0
 21
9.0
 12
0.0
 22
0.0
 32
0.0
 14
0.0
 24
0.0
 34
0.0
 15
0.0
 25
0.0
 35
0.0
146
0.0
 13
0.0
 23
0.0
 33
0.0
 16
1.0
 26
0.0
 36
0.0
 17
0.0
 27
1.0
 37
0.0
 76
     0
330
27BF
  0
MLINESTYLE
  5
27B8
102
{ACAD_REACTORS
330
27B7
102
}
330
27B7
100
AcDbMlineStyle
  2
STANDARD
 70
     0
  3

 62
   256
 51
90.0
 52
90.0
 71
     2
 49
0.5
 62
   256
  6
BYLAYER
 49
-0.5
 62
   256
  6
BYLAYER
  0
ACDBPLACEHOLDER
  5
27B0
102
{ACAD_REACTORS
330
27AF
102
}
330
27AF
  0
DICTIONARYVAR
  5
2AA9
102
{ACAD_REACTORS
330
2AA8
102
}
330
2AA8
100
DictionaryVariables
280
     0
  1
1
  0
ENDSEC
  0
EOF
