  0
SECTION
  2
HEADER
  9
$ACADVER
  1
AC1015
  9
$ACADMAINTVER
 70
    13
  9
$DWGCODEPAGE
  3
ANSI_1252
  9
$INSBASE
 10
0.0
 20
0.0
 30
0.0
  9
$EXTMIN
 10
-30.67512306055425
 20
-13.06503065045162
 30
0.0
  9
$EXTMAX
 10
398.9308238049661
 20
306.9678493059851
 30
0.0
  9
$LIMMIN
 10
0.0
 20
0.0
  9
$LIMMAX
 10
420.0
 20
297.0
  9
$ORTHOMODE
 70
     1
  9
$REGENMODE
 70
     1
  9
$FILLMODE
 70
     1
  9
$QTEXTMODE
 70
     0
  9
$MIRRTEXT
 70
     1
  9
$LTSCALE
 40
1.0
  9
$ATTMODE
 70
     1
  9
$TEXTSIZE
 40
2.5
  9
$TRACEWID
 40
1.0
  9
$TEXTSTYLE
  7
STANDARD
  9
$CLAYER
  8
AM_0
  9
$CELTYPE
  6
ByLayer
  9
$CECOLOR
 62
   256
  9
$CELTSCALE
 40
1.0
  9
$DISPSILH
 70
     0
  9
$DIMSCALE
 40
1.0
  9
$DIMASZ
 40
2.5
  9
$DIMEXO
 40
0.625
  9
$DIMDLI
 40
3.75
  9
$DIMRND
 40
0.0
  9
$DIMDLE
 40
0.0
  9
$DIMEXE
 40
1.25
  9
$DIMTP
 40
0.0
  9
$DIMTM
 40
0.0
  9
$DIMTXT
 40
2.5
  9
$DIMCEN
 40
2.5
  9
$DIMTSZ
 40
0.0
  9
$DIMTOL
 70
     0
  9
$DIMLIM
 70
     0
  9
$DIMTIH
 70
     0
  9
$DIMTOH
 70
     0
  9
$DIMSE1
 70
     0
  9
$DIMSE2
 70
     0
  9
$DIMTAD
 70
     1
  9
$DIMZIN
 70
     8
  9
$DIMBLK
  1

  9
$DIMASO
 70
     1
  9
$DIMSHO
 70
     1
  9
$DIMPOST
  1

  9
$DIMAPOST
  1

  9
$DIMALT
 70
     0
  9
$DIMALTD
 70
     3
  9
$DIMALTF
 40
0.03937007874016
  9
$DIMLFAC
 40
1.0
  9
$DIMTOFL
 70
     1
  9
$DIMTVP
 40
0.0
  9
$DIMTIX
 70
     0
  9
$DIMSOXD
 70
     0
  9
$DIMSAH
 70
     0
  9
$DIMBLK1
  1

  9
$DIMBLK2
  1

  9
$DIMSTYLE
  2
ISO-25
  9
$DIMCLRD
 70
     0
  9
$DIMCLRE
 70
     0
  9
$DIMCLRT
 70
     0
  9
$DIMTFAC
 40
1.0
  9
$DIMGAP
 40
0.625
  9
$DIMJUST
 70
     0
  9
$DIMSD1
 70
     0
  9
$DIMSD2
 70
     0
  9
$DIMTOLJ
 70
     1
  9
$DIMTZIN
 70
     0
  9
$DIMALTZ
 70
     0
  9
$DIMALTTZ
 70
     0
  9
$DIMUPT
 70
     0
  9
$DIMDEC
 70
     4
  9
$DIMTDEC
 70
     4
  9
$DIMALTU
 70
     2
  9
$DIMALTTD
 70
     2
  9
$DIMTXSTY
  7
STANDARD
  9
$DIMAUNIT
 70
     0
  9
$DIMADEC
 70
     0
  9
$DIMALTRND
 40
0.0
  9
$DIMAZIN
 70
     0
  9
$DIMDSEP
 70
    46
  9
$DIMATFIT
 70
     3
  9
$DIMFRAC
 70
     0
  9
$DIMLDRBLK
  1

  9
$DIMLUNIT
 70
     2
  9
$DIMLWD
 70
    -2
  9
$DIMLWE
 70
    -2
  9
$DIMTMOVE
 70
     0
  9
$LUNITS
 70
     2
  9
$LUPREC
 70
     2
  9
$SKETCHINC
 40
1.0
  9
$FILLETRAD
 40
2.5
  9
$AUNITS
 70
     0
  9
$AUPREC
 70
     0
  9
$MENU
  1
.
  9
$ELEVATION
 40
0.0
  9
$PELEVATION
 40
0.0
  9
$THICKNESS
 40
0.0
  9
$LIMCHECK
 70
     0
  9
$CHAMFERA
 40
2.5
  9
$CHAMFERB
 40
2.5
  9
$CHAMFERC
 40
0.0
  9
$CHAMFERD
 40
0.0
  9
$SKPOLY
 70
     0
  9
$TDCREATE
 40
2452802.677107014
  9
$TDUCREATE
 40
2452802.843773680
  9
$TDUPDATE
 40
2453865.497914132
  9
$TDUUPDATE
 40
2453865.664580798
  9
$TDINDWG
 40
0.1684295486
  9
$TDUSRTIMER
 40
0.1684295486
  9
$USRTIMER
 70
     1
  9
$ANGBASE
 50
0.0
  9
$ANGDIR
 70
     0
  9
$PDMODE
 70
     0
  9
$PDSIZE
 40
0.0
  9
$PLINEWID
 40
0.0
  9
$SPLFRAME
 70
     0
  9
$SPLINETYPE
 70
     6
  9
$SPLINESEGS
 70
     8
  9
$HANDSEED
  5
25EE
  9
$SURFTAB1
 70
     6
  9
$SURFTAB2
 70
     6
  9
$SURFTYPE
 70
     6
  9
$SURFU
 70
     6
  9
$SURFV
 70
     6
  9
$UCSBASE
  2

  9
$UCSNAME
  2

  9
$UCSORG
 10
0.0
 20
0.0
 30
0.0
  9
$UCSXDIR
 10
1.0
 20
0.0
 30
0.0
  9
$UCSYDIR
 10
0.0
 20
1.0
 30
0.0
  9
$UCSORTHOREF
  2

  9
$UCSORTHOVIEW
 70
     0
  9
$UCSORGTOP
 10
0.0
 20
0.0
 30
0.0
  9
$UCSORGBOTTOM
 10
0.0
 20
0.0
 30
0.0
  9
$UCSORGLEFT
 10
0.0
 20
0.0
 30
0.0
  9
$UCSORGRIGHT
 10
0.0
 20
0.0
 30
0.0
  9
$UCSORGFRONT
 10
0.0
 20
0.0
 30
0.0
  9
$UCSORGBACK
 10
0.0
 20
0.0
 30
0.0
  9
$PUCSBASE
  2

  9
$PUCSNAME
  2

  9
$PUCSORG
 10
0.0
 20
0.0
 30
0.0
  9
$PUCSXDIR
 10
1.0
 20
0.0
 30
0.0
  9
$PUCSYDIR
 10
0.0
 20
1.0
 30
0.0
  9
$PUCSORTHOREF
  2

  9
$PUCSORTHOVIEW
 70
     0
  9
$PUCSORGTOP
 10
0.0
 20
0.0
 30
0.0
  9
$PUCSORGBOTTOM
 10
0.0
 20
0.0
 30
0.0
  9
$PUCSORGLEFT
 10
0.0
 20
0.0
 30
0.0
  9
$PUCSORGRIGHT
 10
0.0
 20
0.0
 30
0.0
  9
$PUCSORGFRONT
 10
0.0
 20
0.0
 30
0.0
  9
$PUCSORGBACK
 10
0.0
 20
0.0
 30
0.0
  9
$USERI1
 70
     0
  9
$USERI2
 70
     0
  9
$USERI3
 70
     0
  9
$USERI4
 70
     0
  9
$USERI5
 70
     0
  9
$USERR1
 40
0.0
  9
$USERR2
 40
0.0
  9
$USERR3
 40
0.0
  9
$USERR4
 40
0.0
  9
$USERR5
 40
0.0
  9
$WORLDVIEW
 70
     1
  9
$SHADEDGE
 70
     3
  9
$SHADEDIF
 70
    70
  9
$TILEMODE
 70
     1
  9
$MAXACTVP
 70
    64
  9
$PINSBASE
 10
0.0
 20
0.0
 30
0.0
  9
$PLIMCHECK
 70
     0
  9
$PEXTMIN
 10
1.000000000000000E+20
 20
1.000000000000000E+20
 30
1.000000000000000E+20
  9
$PEXTMAX
 10
-1.000000000000000E+20
 20
-1.000000000000000E+20
 30
-1.000000000000000E+20
  9
$PLIMMIN
 10
0.0
 20
0.0
  9
$PLIMMAX
 10
420.0
 20
297.0
  9
$UNITMODE
 70
     0
  9
$VISRETAIN
 70
     1
  9
$PLINEGEN
 70
     0
  9
$PSLTSCALE
 70
     1
  9
$TREEDEPTH
 70
  3020
  9
$CMLSTYLE
  2
Standard
  9
$CMLJUST
 70
     0
  9
$CMLSCALE
 40
1.0
  9
$PROXYGRAPHICS
 70
     1
  9
$MEASUREMENT
 70
     0
  9
$CELWEIGHT
370
    -1
  9
$ENDCAPS
280
     0
  9
$JOINSTYLE
280
     0
  9
$LWDISPLAY
290
     0
  9
$INSUNITS
 70
     0
  9
$HYPERLINKBASE
  1

  9
$STYLESHEET
  1

  9
$XEDIT
290
     1
  9
$CEPSNTYPE
380
     0
  9
$PSTYLEMODE
290
     1
  9
$FINGERPRINTGUID
  2
{7FD800E3-5140-427F-99B5-74DBCE006433}
  9
$VERSIONGUID
  2
{649B151C-FE9A-4D35-B1C5-13921C13EAF5}
  9
$EXTNAMES
290
     1
  9
$PSVPSCALE
 40
0.0
  9
$OLESTARTUP
290
     0
  0
ENDSEC
  0
SECTION
  2
CLASSES
  0
CLASS
  1
ACDBDICTIONARYWDFLT
  2
AcDbDictionaryWithDefault
  3
AutoCAD 2000
 90
        0
280
     0
281
     0
  0
CLASS
  1
ACDBPLACEHOLDER
  2
AcDbPlaceHolder
  3
AutoCAD 2000
 90
        0
280
     0
281
     0
  0
CLASS
  1
LAYOUT
  2
AcDbLayout
  3
AutoCAD 2000
 90
        0
280
     0
281
     0
  0
CLASS
  1
DICTIONARYVAR
  2
AcDbDictionaryVar
  3
AutoCAD 2000
 90
        0
280
     0
281
     0
  0
ENDSEC
  0
SECTION
  2
TABLES
  0
TABLE
  2
VPORT
  5
2285
330
0
100
AcDbSymbolTable
 70
     2
  0
VPORT
  5
25ED
330
2285
100
AcDbSymbolTableRecord
100
AcDbViewportTableRecord
  2
*Active
 70
     0
 10
0.0
 20
0.0
 11
1.0
 21
1.0
 12
185.6670762744569
 22
161.4106514166844
 13
0.0
 23
0.0
 14
2.5
 24
2.5
 15
10.0
 25
10.0
 16
0.0
 26
0.0
 36
1.0
 17
0.0
 27
0.0
 37
0.0
 40
418.0689677898296
 41
1.182835820895522
 42
50.0
 43
0.0
 44
0.0
 50
0.0
 51
0.0
 71
     0
 72
   100
 73
     1
 74
     3
 75
     0
 76
     0
 77
     0
 78
     0
281
     0
 65
     1
110
0.0
120
0.0
130
0.0
111
1.0
121
0.0
131
0.0
112
0.0
122
1.0
132
0.0
 79
     0
146
0.0
  0
ENDTAB
  0
TABLE
  2
LTYPE
  5
2282
330
0
100
AcDbSymbolTable
 70
     5
  0
LTYPE
  5
2290
330
2282
100
AcDbSymbolTableRecord
100
AcDbLinetypeTableRecord
  2
ByBlock
 70
     0
  3

 72
    65
 73
     0
 40
0.0
  0
LTYPE
  5
2291
330
2282
100
AcDbSymbolTableRecord
100
AcDbLinetypeTableRecord
  2
ByLayer
 70
     0
  3

 72
    65
 73
     0
 40
0.0
  0
LTYPE
  5
2292
330
2282
100
AcDbSymbolTableRecord
100
AcDbLinetypeTableRecord
  2
CONTINUOUS
 70
     0
  3
Solid line
 72
    65
 73
     0
 40
0.0
  0
LTYPE
  5
22A1
330
2282
100
AcDbSymbolTableRecord
100
AcDbLinetypeTableRecord
  2
CENTER
 70
     0
  3
Center ____ _ ____ _ ____ _ ____ _ ____ _ ____
 72
    65
 73
     4
 40
50.8
 49
31.75
 74
     0
 49
-6.349999999999997
 74
     0
 49
6.349999999999997
 74
     0
 49
-6.349999999999997
 74
     0
  0
LTYPE
  5
22A2
330
2282
100
AcDbSymbolTableRecord
100
AcDbLinetypeTableRecord
  2
DASHDOT
 70
     0
  3
__ . __ . __ .
 72
    65
 73
     4
 40
10.06578933535858
 49
5.032894667679292
 74
     0
 49
-2.516447333839646
 74
     0
 49
0.0
 74
     0
 49
-2.516447333839646
 74
     0
  0
LTYPE
  5
22A3
330
2282
100
AcDbSymbolTableRecord
100
AcDbLinetypeTableRecord
  2
DIVIDE
 70
     0
  3
__ . . __ . . 
 72
    65
 73
     6
 40
12.58223666919822
 49
5.032894667679292
 74
     0
 49
-2.516447333839646
 74
     0
 49
0.0
 74
     0
 49
-2.516447333839646
 74
     0
 49
0.0
 74
     0
 49
-2.516447333839646
 74
     0
  0
LTYPE
  5
22A4
330
2282
100
AcDbSymbolTableRecord
100
AcDbLinetypeTableRecord
  2
PHANTOM
 70
     0
  3
_____ _ _ _____ _ _ 
 72
    65
 73
     6
 40
25.16447333839645
 49
12.58223666919822
 74
     0
 49
-2.516447333839646
 74
     0
 49
2.516447333839646
 74
     0
 49
-2.516447333839646
 74
     0
 49
2.516447333839646
 74
     0
 49
-2.516447333839646
 74
     0
  0
ENDTAB
  0
TABLE
  2
LAYER
  5
227F
330
0
100
AcDbSymbolTable
 70
     5
  0
LAYER
  5
228D
330
227F
100
AcDbSymbolTableRecord
100
AcDbLayerTableRecord
  2
0
 70
     0
 62
     7
  6
CONTINUOUS
370
    -3
390
228C
  0
LAYER
  5
229F
330
227F
100
AcDbSymbolTableRecord
100
AcDbLayerTableRecord
  2
AM_0
 70
     0
 62
     7
  6
CONTINUOUS
370
    -3
390
228C
  0
LAYER
  5
22A5
330
227F
100
AcDbSymbolTableRecord
100
AcDbLayerTableRecord
  2
1
 70
     0
 62
     7
  6
CONTINUOUS
370
    -3
390
228C
  0
LAYER
  5
22A6
330
227F
100
AcDbSymbolTableRecord
100
AcDbLayerTableRecord
  2
2
 70
     0
 62
     7
  6
CONTINUOUS
370
    -3
390
228C
  0
LAYER
  5
25BB
330
227F
100
AcDbSymbolTableRecord
100
AcDbLayerTableRecord
  2
LAYER_1
 70
     0
 62
     5
  6
CONTINUOUS
370
    -3
390
228C
  0
ENDTAB
  0
TABLE
  2
STYLE
  5
2280
330
0
100
AcDbSymbolTable
 70
     1
  0
STYLE
  5
228E
330
2280
100
AcDbSymbolTableRecord
100
AcDbTextStyleTableRecord
  2
STANDARD
 70
     0
 40
0.0
 41
1.0
 50
0.0
 71
     0
 42
2.5
  3
ISOCP.SHX
  4

  0
ENDTAB
  0
TABLE
  2
VIEW
  5
2283
330
0
100
AcDbSymbolTable
 70
     0
  0
ENDTAB
  0
TABLE
  2
UCS
  5
2284
330
0
100
AcDbSymbolTable
 70
     0
  0
ENDTAB
  0
TABLE
  2
APPID
  5
2286
330
0
100
AcDbSymbolTable
 70
    13
  0
APPID
  5
228F
330
2286
100
AcDbSymbolTableRecord
100
AcDbRegAppTableRecord
  2
ACAD
 70
     0
  0
APPID
  5
22A7
330
2286
100
AcDbSymbolTableRecord
100
AcDbRegAppTableRecord
  2
GENIUS_GENDIM_13
 70
     0
  0
APPID
  5
22A8
330
2286
100
AcDbSymbolTableRecord
100
AcDbRegAppTableRecord
  2
GENIUS_GENDTOL_13
 70
     0
  0
APPID
  5
22A9
330
2286
100
AcDbSymbolTableRecord
100
AcDbRegAppTableRecord
  2
GENIUS_GE3DTOL_13
 70
     0
  0
APPID
  5
22AA
330
2286
100
AcDbSymbolTableRecord
100
AcDbRegAppTableRecord
  2
MCAD_NO_VIS
 70
     0
  0
APPID
  5
22AB
330
2286
100
AcDbSymbolTableRecord
100
AcDbRegAppTableRecord
  2
ACAD_TEMP_GRAPHIC
 70
     0
  0
APPID
  5
22AC
330
2286
100
AcDbSymbolTableRecord
100
AcDbRegAppTableRecord
  2
AD_DRAW
 70
     0
  0
APPID
  5
22AD
330
2286
100
AcDbSymbolTableRecord
100
AcDbRegAppTableRecord
  2
ACATTRIBSERVICES
 70
     0
  0
APPID
  5
22AE
330
2286
100
AcDbSymbolTableRecord
100
AcDbRegAppTableRecord
  2
ASURF_PCURVE_APPNAME
 70
     0
  0
APPID
  5
22AF
330
2286
100
AcDbSymbolTableRecord
100
AcDbRegAppTableRecord
  2
DESIGNERASSEMBLIES
 70
     0
  0
APPID
  5
22B0
330
2286
100
AcDbSymbolTableRecord
100
AcDbRegAppTableRecord
  2
ACADM_DIM_EDIT
 70
     0
  0
APPID
  5
22B1
330
2286
100
AcDbSymbolTableRecord
100
AcDbRegAppTableRecord
  2
G3V_ENTHND
 70
     0
  0
APPID
  5
22B2
330
2286
100
AcDbSymbolTableRecord
100
AcDbRegAppTableRecord
  2
GENIUS_GENDIMSH_14
 70
     0
  0
ENDTAB
  0
TABLE
  2
DIMSTYLE
  5
2287
330
0
100
AcDbSymbolTable
 70
     2
100
AcDbDimStyleTable
 71
     0
  0
DIMSTYLE
105
22B3
330
2287
100
AcDbSymbolTableRecord
100
AcDbDimStyleTableRecord
  2
ISO-25
 70
     0
 41
2.5
 42
0.625
 43
3.75
 44
1.25
 73
     0
 74
     0
 77
     1
 78
     8
140
2.5
141
2.5
143
0.03937007874016
147
0.625
171
     3
172
     1
271
     2
272
     2
274
     3
279
     2
284
     8
285
     8
286
     8
340
228E
  0
DIMSTYLE
105
25BC
330
2287
100
AcDbSymbolTableRecord
100
AcDbDimStyleTableRecord
  2
Standard
 70
     0
340
228E
  0
ENDTAB
  0
TABLE
  2
BLOCK_RECORD
  5
227E
330
0
100
AcDbSymbolTable
 70
    23
  0
BLOCK_RECORD
  5
229B
330
227E
100
AcDbSymbolTableRecord
100
AcDbBlockTableRecord
  2
*Model_Space
340
229E
  0
BLOCK_RECORD
  5
2297
330
227E
100
AcDbSymbolTableRecord
100
AcDbBlockTableRecord
  2
*Paper_Space
340
229A
  0
BLOCK_RECORD
  5
22B5
330
227E
100
AcDbSymbolTableRecord
100
AcDbBlockTableRecord
  2
$MODEL_SPACE
340
0
  0
BLOCK_RECORD
  5
22B8
330
227E
100
AcDbSymbolTableRecord
100
AcDbBlockTableRecord
  2
$PAPER_SPACE
340
0
  0
BLOCK_RECORD
  5
254F
330
227E
100
AcDbSymbolTableRecord
100
AcDbBlockTableRecord
  2
AI9-BLK14
340
0
310
2800000020000000200000000100080000000000000400000000000000000000000000000000000000000000000080000080000000808000800000008000800080800000C0C0C000C0DCC000F0CAA6000020400000206000002080000020A0000020C0000020E00000400000004020000040400000406000004080000040A0
310
000040C0000040E00000600000006020000060400000606000006080000060A0000060C0000060E00000800000008020000080400000806000008080000080A0000080C0000080E00000A0000000A0200000A0400000A0600000A0800000A0A00000A0C00000A0E00000C0000000C0200000C0400000C0600000C0800000C0
310
A00000C0C00000C0E00000E0000000E0200000E0400000E0600000E0800000E0A00000E0C00000E0E00040000000400020004000400040006000400080004000A0004000C0004000E00040200000402020004020400040206000402080004020A0004020C0004020E000404000004040200040404000404060004040800040
310
40A0004040C0004040E00040600000406020004060400040606000406080004060A0004060C0004060E00040800000408020004080400040806000408080004080A0004080C0004080E00040A0000040A0200040A0400040A0600040A0800040A0A00040A0C00040A0E00040C0000040C0200040C0400040C0600040C08000
310
40C0A00040C0C00040C0E00040E0000040E0200040E0400040E0600040E0800040E0A00040E0C00040E0E00080000000800020008000400080006000800080008000A0008000C0008000E00080200000802020008020400080206000802080008020A0008020C0008020E00080400000804020008040400080406000804080
310
008040A0008040C0008040E00080600000806020008060400080606000806080008060A0008060C0008060E00080800000808020008080400080806000808080008080A0008080C0008080E00080A0000080A0200080A0400080A0600080A0800080A0A00080A0C00080A0E00080C0000080C0200080C0400080C0600080C0
310
800080C0A00080C0C00080C0E00080E0000080E0200080E0400080E0600080E0800080E0A00080E0C00080E0E000C0000000C0002000C0004000C0006000C0008000C000A000C000C000C000E000C0200000C0202000C0204000C0206000C0208000C020A000C020C000C020E000C0400000C0402000C0404000C0406000C0
310
408000C040A000C040C000C040E000C0600000C0602000C0604000C0606000C0608000C060A000C060C000C060E000C0800000C0802000C0804000C0806000C0808000C080A000C080C000C080E000C0A00000C0A02000C0A04000C0A06000C0A08000C0A0A000C0A0C000C0A0E000C0C00000C0C02000C0C04000C0C06000
310
C0C08000C0C0A000F0FBFF00A4A0A000808080000000FF0000FF000000FFFF00FF000000FF00FF00FFFF0000FFFFFF00FF00FFFFFFFF00FFFFFFFFFFFFFFFFFFFFFFFFFFFFFFFFFFFFFFFFFFFFFFFFFFFF00FFFFFFFF00FFFFFFFFFFFFFFFFFFFFFFFFFFFFFFFFFFFFFFFFFFFFFFFFFFFF00FFFFFFFF00FFFFFFFFFFFFFFFF
310
FFFFFFFFFFFFFFFFFFFFFFFFFFFFFFFFFFFF00FFFFFFFF00FFFFFFFFFFFFFFFFFFFFFFFFFFFFFFFFFFFFFFFFFFFFFFFFFFFF00FFFFFFFF00FFFFFFFFFFFFFFFFFFFFFFFFFFFFFFFFFFFFFFFFFFFFFFFFFFFF00FFFFFFFF00FFFFFFFFFFFFFFFFFFFFFFFFFFFFFFFFFFFFFFFFFFFFFFFFFFFF00FFFFFFFF00FFFFFFFFFFFFFF
310
FFFFFFFFFFFFFFFFFFFFFFFFFFFFFFFFFFFFFF00FFFFFFFF00FFFFFFFFFFFFFFFFFFFFFFFFFFFFFFFFFFFFFFFFFFFFFFFFFFFF00FFFFFFFF00FFFFFFFFFFFFFFFFFFFFFFFFFFFFFFFFFFFFFFFFFFFFFFFFFFFF00FFFFFFFF00FFFFFFFFFFFFFFFFFFFFFFFFFFFFFFFFFFFFFFFFFFFFFFFFFFFF00FFFFFFFF00FFFFFFFFFFFF
310
FFFFFFFFFFFFFFFFFFFFFFFFFFFFFFFFFFFFFFFF00FFFFFFFF00FFFFFFFFFFFFFFFFFFFFFFFFFFFFFFFFFFFFFFFFFFFFFFFFFFFF00FFFFFFFF00FFFFFFFFFFFFFFFFFFFFFFFFFFFFFFFFFFFFFFFFFFFFFFFFFFFF00FFFFFFFF0000000000000000000000000000000000000000000000000000FF00FFFFFFFFFFFFFFFFFFFF
310
FFFFFFFFFFFFFFFFFFFFFFFFFFFFFFFFFFFFFFFFFF00FFFFFFFFFFFFFFFFFFFFFFFFFFFFFFFFFFFFFFFFFFFFFFFFFFFFFFFFFFFFFF00FFFFFFFFFFFFFFFFFFFFFFFFFFFFFFFFFFFFFFFFFFFFFFFFFFFFFFFFFFFFFF00FFFFFFFFFFFFFFFFFFFFFFFFFFFFFFFFFFFFFFFFFFFFFFFFFFFFFFFFFF00FF00000000000000000000
310
0000000000000000000000000000000000000000FFFFFFFFFFFFFFFFFFFFFFFFFFFFFFFFFFFFFFFFFFFFFFFFFFFFFFFFFFFFFFFFFFFFFFFFFFFFFFFFFFFFFFFFFFFFFFFFFFFFFFFFFFFFFFFFFFFFFFFFFFFFFFFFFFFFFFFFFFFFFFFFFFFFFFFFFFFFFFFFFFFFFFFFFFFFFFFFFFFFFFFFFFFFFFFFFFFFFFFFFFFFFFFFFFFFFF
310
FFFFFFFFFFFFFFFFFFFFFFFFFFFFFFFFFFFFFFFFFFFFFFFFFFFFFFFFFFFFFFFFFFFFFFFFFFFFFFFFFFFFFFFFFFFFFFFFFFFFFFFFFFFFFFFFFFFFFFFFFFFFFFFFFFFFFFFFFFFFFFFFFFFFFFFFFFFFFFFFFFFFFFFFFFFFFFFFFFFFFFFFFFFFFFFFFFFFFFFFFFFFFFFFFFFFFFFFFFFFFFFFFFFFFFFFFFFFFFFFFFFFFFFFFFFFFF
310
FFFFFFFFFFFFFFFFFFFFFFFFFFFFFFFFFFFFFFFFFFFFFFFFFFFFFFFFFFFFFFFFFFFFFFFFFFFFFFFFFFFFFFFFFFFFFFFFFFFFFFFFFFFFFFFFFFFFFFFFFFFFFFFFFFFFFFFFFFFFFFFFFFFFFFFFFFFFFFFFFFFFFFFFFFFFFFFFFFFFFFFFFFFFFFFFFFFFFFFFFFFFFFFFFFFFFFFFFFFFFFFFFFFFFFFFFFFFFFFFFFFFFFFFFFFFFF
310
FFFFFFFFFFFFFFFFFFFFFFFFFFFFFFFFFFFFFFFFFFFFFFFFFFFFFFFFFFFFFFFFFFFFFFFFFFFFFFFFFFFFFFFFFFFFFFFFFFFFFFFFFFFFFFFF
102
{BLKREFS
331
2590
102
}
  0
BLOCK_RECORD
  5
2554
330
227E
100
AcDbSymbolTableRecord
100
AcDbBlockTableRecord
  2
AI9-BLK13
340
0
310
2800000020000000200000000100080000000000000400000000000000000000000000000000000000000000000080000080000000808000800000008000800080800000C0C0C000C0DCC000F0CAA6000020400000206000002080000020A0000020C0000020E00000400000004020000040400000406000004080000040A0
310
000040C0000040E00000600000006020000060400000606000006080000060A0000060C0000060E00000800000008020000080400000806000008080000080A0000080C0000080E00000A0000000A0200000A0400000A0600000A0800000A0A00000A0C00000A0E00000C0000000C0200000C0400000C0600000C0800000C0
310
A00000C0C00000C0E00000E0000000E0200000E0400000E0600000E0800000E0A00000E0C00000E0E00040000000400020004000400040006000400080004000A0004000C0004000E00040200000402020004020400040206000402080004020A0004020C0004020E000404000004040200040404000404060004040800040
310
40A0004040C0004040E00040600000406020004060400040606000406080004060A0004060C0004060E00040800000408020004080400040806000408080004080A0004080C0004080E00040A0000040A0200040A0400040A0600040A0800040A0A00040A0C00040A0E00040C0000040C0200040C0400040C0600040C08000
310
40C0A00040C0C00040C0E00040E0000040E0200040E0400040E0600040E0800040E0A00040E0C00040E0E00080000000800020008000400080006000800080008000A0008000C0008000E00080200000802020008020400080206000802080008020A0008020C0008020E00080400000804020008040400080406000804080
310
008040A0008040C0008040E00080600000806020008060400080606000806080008060A0008060C0008060E00080800000808020008080400080806000808080008080A0008080C0008080E00080A0000080A0200080A0400080A0600080A0800080A0A00080A0C00080A0E00080C0000080C0200080C0400080C0600080C0
310
800080C0A00080C0C00080C0E00080E0000080E0200080E0400080E0600080E0800080E0A00080E0C00080E0E000C0000000C0002000C0004000C0006000C0008000C000A000C000C000C000E000C0200000C0202000C0204000C0206000C0208000C020A000C020C000C020E000C0400000C0402000C0404000C0406000C0
310
408000C040A000C040C000C040E000C0600000C0602000C0604000C0606000C0608000C060A000C060C000C060E000C0800000C0802000C0804000C0806000C0808000C080A000C080C000C080E000C0A00000C0A02000C0A04000C0A06000C0A08000C0A0A000C0A0C000C0A0E000C0C00000C0C02000C0C04000C0C06000
310
C0C08000C0C0A000F0FBFF00A4A0A000808080000000FF0000FF000000FFFF00FF000000FF00FF00FFFF0000FFFFFF00FFFFFFFFFFFFFFFFFFFFFFFFFFFFFFFFFFFFFFFFFFFFFFFFFFFFFFFFFFFFFFFFFFFFFFFFFFFFFFFFFFFFFF0000FFFFFFFFFFFF0000FFFFFFFFFFFFFFFFFFFFFFFFFFFFFFFFFFFFFFFFFFFF0000FFFF
310
FFFFFFFF0000FFFFFFFFFFFFFFFFFFFFFFFFFFFFFFFFFFFFFFFFFFFF0000FFFFFFFFFFFF0000FFFFFFFFFFFFFFFFFFFFFFFFFFFFFFFFFFFFFFFFFFFF0000FFFFFFFFFFFF0000FFFFFFFFFFFFFFFFFFFFFFFFFFFFFFFFFFFFFFFFFFFF0000FFFFFFFFFFFF0000FFFFFFFFFFFFFFFFFFFFFFFFFFFFFFFFFFFFFFFFFFFF0000FF
310
FFFFFFFFFF0000FFFFFFFFFFFFFFFFFFFFFFFFFFFFFFFFFFFFFFFFFFFF0000FFFFFFFFFFFF0000FFFFFFFFFFFFFFFFFFFFFFFFFFFFFFFFFFFFFFFFFFFF0000FFFFFFFFFFFF0000FFFFFFFFFFFFFFFFFFFFFFFFFFFFFFFFFFFFFFFFFFFF0000FFFFFFFFFFFF0000FFFFFFFFFFFFFFFFFFFFFFFFFFFFFFFFFFFFFFFFFFFF0000
310
FFFFFFFFFFFF0000FFFFFFFFFFFFFFFFFFFFFFFFFFFFFFFFFFFFFFFFFFFF0000FFFFFFFFFFFF0000FFFFFFFFFFFFFFFFFFFFFFFFFFFFFFFFFFFFFFFFFFFF0000FFFFFFFFFFFF0000FFFFFFFFFFFFFFFFFFFFFFFFFFFFFFFFFFFFFFFFFFFF0000FFFFFFFFFFFF0000FFFFFFFFFFFFFFFFFFFFFFFFFFFFFFFFFFFFFFFFFFFF00
310
00FFFFFFFFFFFF0000FFFFFFFFFFFFFFFFFFFFFFFFFFFFFFFFFFFFFFFFFFFF00000000000000000000FFFFFFFFFFFFFFFFFFFFFFFFFFFFFFFFFFFFFFFFFFFF00FFFFFFFFFFFFFFFF00FFFFFFFFFFFFFFFFFFFFFFFFFFFFFFFFFFFFFFFFFFFF00FFFFFFFFFFFFFFFF00FFFFFFFFFFFFFFFFFFFFFFFFFFFFFFFFFFFFFFFFFFFF
310
00000000000000000000FFFFFFFFFFFFFFFFFFFFFFFFFFFFFFFFFFFFFFFFFFFF0000FFFFFFFFFFFF0000FFFFFFFFFFFFFFFFFFFFFFFFFFFFFFFFFFFFFFFFFFFF0000FFFFFFFFFFFF0000FFFFFFFFFFFFFFFFFFFFFFFFFFFFFFFFFFFFFFFFFFFF0000FFFFFFFFFFFF0000FFFFFFFFFFFFFFFFFFFFFFFFFFFFFFFFFFFFFFFFFF
310
FF0000FFFFFFFFFFFF0000FFFFFFFFFFFFFFFFFFFFFFFFFFFFFFFFFFFFFFFFFFFF0000FFFFFFFFFFFF0000FFFFFFFFFFFFFFFFFFFFFFFFFFFFFFFFFFFFFFFFFFFF0000FFFFFFFFFFFF0000FFFFFFFFFFFFFFFFFFFFFFFFFFFFFFFFFFFFFFFFFFFF0000FFFFFFFFFFFF0000FFFFFFFFFFFFFFFFFFFFFFFFFFFFFFFFFFFFFFFF
310
FFFF0000FFFFFFFFFFFF0000FFFFFFFFFFFFFFFFFFFFFFFFFFFFFFFFFFFFFFFFFFFF0000FFFFFFFFFFFF0000FFFFFFFFFFFFFFFFFFFFFFFFFFFFFFFFFFFFFFFFFFFF0000FFFFFFFFFFFF0000FFFFFFFFFFFFFFFFFFFFFFFFFFFFFFFFFFFFFFFFFFFF0000FFFFFFFFFFFF0000FFFFFFFFFFFFFFFFFFFFFFFFFFFFFFFFFFFFFF
310
FFFFFF0000FFFFFFFFFFFF0000FFFFFFFFFFFFFFFFFFFFFFFFFFFFFFFFFFFFFFFFFFFFFFFFFFFFFFFFFFFFFFFFFFFFFFFFFFFFFFFFFFFFFF
102
{BLKREFS
331
2591
102
}
  0
BLOCK_RECORD
  5
2559
330
227E
100
AcDbSymbolTableRecord
100
AcDbBlockTableRecord
  2
AI9-BLK11
340
0
310
2800000020000000200000000100080000000000000400000000000000000000000000000000000000000000000080000080000000808000800000008000800080800000C0C0C000C0DCC000F0CAA6000020400000206000002080000020A0000020C0000020E00000400000004020000040400000406000004080000040A0
310
000040C0000040E00000600000006020000060400000606000006080000060A0000060C0000060E00000800000008020000080400000806000008080000080A0000080C0000080E00000A0000000A0200000A0400000A0600000A0800000A0A00000A0C00000A0E00000C0000000C0200000C0400000C0600000C0800000C0
310
A00000C0C00000C0E00000E0000000E0200000E0400000E0600000E0800000E0A00000E0C00000E0E00040000000400020004000400040006000400080004000A0004000C0004000E00040200000402020004020400040206000402080004020A0004020C0004020E000404000004040200040404000404060004040800040
310
40A0004040C0004040E00040600000406020004060400040606000406080004060A0004060C0004060E00040800000408020004080400040806000408080004080A0004080C0004080E00040A0000040A0200040A0400040A0600040A0800040A0A00040A0C00040A0E00040C0000040C0200040C0400040C0600040C08000
310
40C0A00040C0C00040C0E00040E0000040E0200040E0400040E0600040E0800040E0A00040E0C00040E0E00080000000800020008000400080006000800080008000A0008000C0008000E00080200000802020008020400080206000802080008020A0008020C0008020E00080400000804020008040400080406000804080
310
008040A0008040C0008040E00080600000806020008060400080606000806080008060A0008060C0008060E00080800000808020008080400080806000808080008080A0008080C0008080E00080A0000080A0200080A0400080A0600080A0800080A0A00080A0C00080A0E00080C0000080C0200080C0400080C0600080C0
310
800080C0A00080C0C00080C0E00080E0000080E0200080E0400080E0600080E0800080E0A00080E0C00080E0E000C0000000C0002000C0004000C0006000C0008000C000A000C000C000C000E000C0200000C0202000C0204000C0206000C0208000C020A000C020C000C020E000C0400000C0402000C0404000C0406000C0
310
408000C040A000C040C000C040E000C0600000C0602000C0604000C0606000C0608000C060A000C060C000C060E000C0800000C0802000C0804000C0806000C0808000C080A000C080C000C080E000C0A00000C0A02000C0A04000C0A06000C0A08000C0A0A000C0A0C000C0A0E000C0C00000C0C02000C0C04000C0C06000
310
C0C08000C0C0A000F0FBFF00A4A0A000808080000000FF0000FF000000FFFF00FF000000FF00FF00FFFF0000FFFFFF00FFFFFFFFFFFFFFFFFFFFFFFFFFFFFFFFFFFFFFFFFFFFFFFFFFFFFFFFFFFFFFFFFFFFFFFFFFFFFFFFFFFFFFFFFFFF00000000FFFFFFFFFFFFFFFFFFFFFF000000FFFFFFFFFFFFFFFFFFFFFFFFFFFF00
310
FFFF00FFFFFFFFFFFFFFFFFFFFFF00FFFFFFFFFFFFFFFFFFFFFFFFFFFFFFFF00FFFF00FFFFFFFFFFFFFFFFFFFFFF00FFFFFFFFFFFFFFFFFFFFFFFFFFFFFFFF00FFFF00FFFFFFFFFFFFFFFFFFFFFF00FFFFFFFFFFFFFFFFFFFFFFFFFFFFFFFF00FFFF00FFFFFFFFFFFFFFFFFFFFFF00FFFFFFFFFFFFFFFFFFFFFFFFFFFFFFFF
310
00FFFF00FFFFFFFFFFFFFFFFFFFFFF00FFFFFFFFFFFFFFFFFFFFFFFFFFFFFFFF00FFFF00FFFFFFFFFFFFFFFFFFFFFF00FFFFFFFFFFFFFFFFFFFFFFFFFFFFFFFF00FFFF00FFFFFFFFFFFFFFFFFFFFFF00FFFFFFFFFFFFFFFFFFFFFFFFFFFFFFFF00FFFF00FFFFFFFFFFFFFFFFFFFFFF00FFFFFFFFFFFFFFFFFFFFFFFFFFFFFF
310
FF00FFFF00FFFFFFFFFFFFFFFFFFFFFF00FFFFFFFFFFFFFFFFFFFFFFFFFFFFFFFF00FFFF00FFFFFFFFFFFFFFFFFFFFFF00FFFFFFFFFFFFFFFFFFFFFFFFFFFFFFFF00FFFF00FFFFFFFFFFFFFFFFFFFFFF00FFFFFFFFFFFFFFFFFFFFFFFFFFFFFFFF00FFFF00FFFFFFFFFFFFFFFFFFFFFF00FFFFFFFFFFFFFFFFFFFFFFFFFFFF
310
FFFF00FFFF00FFFFFFFFFFFFFFFFFFFFFF00FFFFFFFFFFFFFFFFFFFFFFFFFFFFFFFF00FFFF00FFFFFFFFFFFFFFFFFFFFFF00FFFFFFFFFFFFFFFFFFFFFFFFFFFFFFFF00FFFF00FFFFFFFFFFFFFFFFFFFFFF00FFFFFFFFFFFFFFFFFFFFFFFFFFFFFFFF00FFFF00FFFFFFFFFFFFFFFFFFFF00FFFFFFFFFFFFFFFFFFFFFFFFFFFF
310
FFFFFF00FFFF00FFFFFFFFFFFFFFFFFFFF00FFFFFFFFFFFFFFFFFFFFFFFFFFFFFFFFFF00FFFF00FFFFFFFFFFFFFFFFFFFF00FFFFFFFFFFFFFFFFFFFFFFFFFFFFFFFFFF00FFFF00FFFFFFFFFFFFFFFFFFFF00FFFFFFFFFFFFFFFFFFFFFFFFFFFFFFFFFF00FFFF00FFFFFFFFFFFFFFFFFFFF00FFFFFFFFFFFFFFFFFFFFFFFFFF
310
FFFFFFFF00FFFF00FFFFFFFFFFFFFFFFFF0000FFFF00FFFFFFFFFFFFFFFFFFFFFFFFFFFF00FFFF00FFFFFFFFFFFFFFFF0000FFFFFF00FFFFFFFFFFFFFFFFFFFFFFFFFFFF00FFFF00000000000000000000FFFFFFFF00FFFFFFFFFFFFFFFFFFFFFFFFFFFF00FFFFFFFFFFFFFFFFFFFFFFFFFFFFFF00FFFFFFFFFFFFFFFFFFFF
310
FFFFFFFFFF00FFFFFFFFFFFFFFFFFFFFFFFFFFFF00FFFFFFFFFFFFFFFFFFFFFFFFFFFFFFFF00FFFFFFFFFFFFFFFFFFFFFFFFFFFF00FFFFFFFFFFFFFFFFFFFFFFFFFFFFFFFF00FFFFFFFFFFFFFFFFFFFFFFFFFFFFFF00FFFFFFFFFFFFFFFFFFFFFFFFFFFFFF00FFFFFFFFFFFFFFFFFFFFFFFFFFFFFF00FFFFFFFFFFFFFFFFFF
310
FFFFFFFFFFFF00FFFF00000000000000000000FFFFFFFF00FFFFFFFFFFFFFFFFFFFFFFFFFFFF00FFFF00FFFFFFFFFFFFFFFFFF0000FFFF00
102
{BLKREFS
331
2592
102
}
  0
BLOCK_RECORD
  5
255E
330
227E
100
AcDbSymbolTableRecord
100
AcDbBlockTableRecord
  2
AI9-BLK10
340
0
310
2800000020000000200000000100080000000000000400000000000000000000000000000000000000000000000080000080000000808000800000008000800080800000C0C0C000C0DCC000F0CAA6000020400000206000002080000020A0000020C0000020E00000400000004020000040400000406000004080000040A0
310
000040C0000040E00000600000006020000060400000606000006080000060A0000060C0000060E00000800000008020000080400000806000008080000080A0000080C0000080E00000A0000000A0200000A0400000A0600000A0800000A0A00000A0C00000A0E00000C0000000C0200000C0400000C0600000C0800000C0
310
A00000C0C00000C0E00000E0000000E0200000E0400000E0600000E0800000E0A00000E0C00000E0E00040000000400020004000400040006000400080004000A0004000C0004000E00040200000402020004020400040206000402080004020A0004020C0004020E000404000004040200040404000404060004040800040
310
40A0004040C0004040E00040600000406020004060400040606000406080004060A0004060C0004060E00040800000408020004080400040806000408080004080A0004080C0004080E00040A0000040A0200040A0400040A0600040A0800040A0A00040A0C00040A0E00040C0000040C0200040C0400040C0600040C08000
310
40C0A00040C0C00040C0E00040E0000040E0200040E0400040E0600040E0800040E0A00040E0C00040E0E00080000000800020008000400080006000800080008000A0008000C0008000E00080200000802020008020400080206000802080008020A0008020C0008020E00080400000804020008040400080406000804080
310
008040A0008040C0008040E00080600000806020008060400080606000806080008060A0008060C0008060E00080800000808020008080400080806000808080008080A0008080C0008080E00080A0000080A0200080A0400080A0600080A0800080A0A00080A0C00080A0E00080C0000080C0200080C0400080C0600080C0
310
800080C0A00080C0C00080C0E00080E0000080E0200080E0400080E0600080E0800080E0A00080E0C00080E0E000C0000000C0002000C0004000C0006000C0008000C000A000C000C000C000E000C0200000C0202000C0204000C0206000C0208000C020A000C020C000C020E000C0400000C0402000C0404000C0406000C0
310
408000C040A000C040C000C040E000C0600000C0602000C0604000C0606000C0608000C060A000C060C000C060E000C0800000C0802000C0804000C0806000C0808000C080A000C080C000C080E000C0A00000C0A02000C0A04000C0A06000C0A08000C0A0A000C0A0C000C0A0E000C0C00000C0C02000C0C04000C0C06000
310
C0C08000C0C0A000F0FBFF00A4A0A000808080000000FF0000FF000000FFFF00FF000000FF00FF00FFFF0000FFFFFF00FFFFFFFFFFFFFFFFFFFFFFFFFFFFFFFF00FFFFFFFFFFFFFFFFFFFFFFFF00FFFFFFFFFFFFFFFFFFFFFFFFFFFFFFFFFFFF00FFFFFFFFFFFFFFFFFFFFFF00FFFFFFFFFFFFFFFFFFFFFFFFFFFFFFFFFFFF
310
FF00FFFFFFFFFFFFFFFFFFFFFF00FFFFFFFFFFFFFFFFFFFFFFFFFFFFFFFFFFFFFF00FFFFFFFFFFFFFFFFFFFFFF00FFFFFFFFFFFFFFFFFFFFFFFFFFFFFFFFFFFFFF00FFFFFFFFFFFFFFFFFFFFFF00FFFFFFFFFFFFFFFFFFFFFFFFFFFFFFFFFFFFFF00FFFFFFFFFFFFFFFFFFFFFF00FFFFFFFFFFFFFFFFFFFFFFFFFFFFFFFFFF
310
FFFF00FFFFFFFFFFFFFFFFFFFFFF00FFFFFFFFFFFFFFFFFFFFFFFFFFFFFFFFFFFFFF00FFFFFFFFFFFFFFFFFFFF00FFFFFFFFFFFFFFFFFFFFFFFFFFFFFFFFFFFFFFFF00FFFFFFFFFFFFFFFFFFFF00FFFFFFFFFFFFFFFFFFFFFFFFFFFFFFFFFFFFFFFF00FFFFFFFFFFFFFFFFFFFF00FFFFFFFFFFFFFFFFFFFFFFFFFFFFFFFFFF
310
FFFFFF00FFFFFFFFFFFFFFFFFFFF00FFFFFFFFFFFFFFFFFFFFFFFFFFFFFFFFFFFFFFFF00FFFFFFFFFFFFFFFFFFFF00FFFFFFFFFFFFFFFFFFFFFFFFFFFFFFFFFFFFFFFF00FFFFFFFFFFFFFFFFFFFF00FFFFFFFFFFFFFFFFFFFFFFFFFFFFFFFFFFFFFFFF00FFFFFFFFFFFFFFFFFF00FFFFFFFFFFFFFFFFFFFFFFFFFFFFFFFFFF
310
FFFFFFFF00FFFFFFFFFFFFFFFFFF00FFFFFFFFFFFFFFFFFFFFFFFFFFFFFFFFFFFFFFFFFF00FFFFFFFFFFFFFFFFFF00FFFFFFFFFFFFFFFFFFFFFFFFFFFFFFFFFFFFFFFFFF0000000000000000000000FFFFFFFFFFFFFFFFFFFFFFFFFFFFFFFFFFFFFFFFFFFFFFFFFFFFFFFFFFFFFFFFFFFFFFFFFFFFFFFFFFFFFFFFFFFFFFFF
310
FFFFFFFFFFFFFFFFFFFFFFFFFFFFFFFFFFFFFFFFFFFFFFFFFFFFFFFFFFFFFFFFFFFFFFFFFFFFFFFFFFFFFFFFFFFFFFFFFFFFFFFFFFFFFFFFFFFFFFFFFFFFFFFFFFFFFFFFFFFFFFFFFFFFFFFFFFFFFFFFFFFFFFFFFFFFFFFFFFFFFFFFFFFFFFFFFFFFFFFFFFFFFFFFFFFFFFFFFFFFFFFFFFFFFFFFFFFFFFFFFFFFFFFFFFFFFF
310
FFFFFFFFFFFFFFFFFFFFFFFFFFFFFFFFFFFFFFFFFFFFFFFFFFFFFFFFFFFFFFFFFFFFFFFFFFFFFFFFFFFFFFFFFFFFFFFFFFFFFFFFFFFFFFFFFFFFFFFFFFFFFFFFFFFFFFFFFFFFFFFFFFFFFFFFFFFFFFFFFFFFFFFFFFFFFFFFFFFFFFFFFFFFFFFFFFFFFFFFFFFFFFFFFFFFFFFFFFFFFFFFFFFFFFFFFFFFFFFFFFFFFFFFFFFFFF
310
FFFFFFFFFFFFFFFFFFFFFFFFFFFFFFFFFFFFFFFFFFFFFFFFFFFFFFFFFFFFFFFFFFFFFFFFFFFFFFFFFFFFFFFFFFFFFFFFFFFFFFFFFFFFFFFFFFFFFFFFFFFFFFFFFFFFFFFFFFFFFFFFFFFFFFFFFFFFFFFFFFFFFFFFFFFFFFFFFFFFFFFFFFFFFFFFFFFFFFFFFFFFFFFFFFFFFFFFFFFFFFFFFFFFFFFFFFFFFFFFFFFFFFFFFFFFFF
310
FFFFFFFFFFFFFFFFFFFFFFFFFFFFFFFFFFFFFFFFFFFFFFFFFFFFFFFFFFFFFFFFFFFFFFFFFFFFFFFFFFFFFFFFFFFFFFFFFFFFFFFFFFFFFFFF
102
{BLKREFS
331
2593
102
}
  0
BLOCK_RECORD
  5
2562
330
227E
100
AcDbSymbolTableRecord
100
AcDbBlockTableRecord
  2
AI9-BLK9
340
0
310
2800000020000000200000000100080000000000000400000000000000000000000000000000000000000000000080000080000000808000800000008000800080800000C0C0C000C0DCC000F0CAA6000020400000206000002080000020A0000020C0000020E00000400000004020000040400000406000004080000040A0
310
000040C0000040E00000600000006020000060400000606000006080000060A0000060C0000060E00000800000008020000080400000806000008080000080A0000080C0000080E00000A0000000A0200000A0400000A0600000A0800000A0A00000A0C00000A0E00000C0000000C0200000C0400000C0600000C0800000C0
310
A00000C0C00000C0E00000E0000000E0200000E0400000E0600000E0800000E0A00000E0C00000E0E00040000000400020004000400040006000400080004000A0004000C0004000E00040200000402020004020400040206000402080004020A0004020C0004020E000404000004040200040404000404060004040800040
310
40A0004040C0004040E00040600000406020004060400040606000406080004060A0004060C0004060E00040800000408020004080400040806000408080004080A0004080C0004080E00040A0000040A0200040A0400040A0600040A0800040A0A00040A0C00040A0E00040C0000040C0200040C0400040C0600040C08000
310
40C0A00040C0C00040C0E00040E0000040E0200040E0400040E0600040E0800040E0A00040E0C00040E0E00080000000800020008000400080006000800080008000A0008000C0008000E00080200000802020008020400080206000802080008020A0008020C0008020E00080400000804020008040400080406000804080
310
008040A0008040C0008040E00080600000806020008060400080606000806080008060A0008060C0008060E00080800000808020008080400080806000808080008080A0008080C0008080E00080A0000080A0200080A0400080A0600080A0800080A0A00080A0C00080A0E00080C0000080C0200080C0400080C0600080C0
310
800080C0A00080C0C00080C0E00080E0000080E0200080E0400080E0600080E0800080E0A00080E0C00080E0E000C0000000C0002000C0004000C0006000C0008000C000A000C000C000C000E000C0200000C0202000C0204000C0206000C0208000C020A000C020C000C020E000C0400000C0402000C0404000C0406000C0
310
408000C040A000C040C000C040E000C0600000C0602000C0604000C0606000C0608000C060A000C060C000C060E000C0800000C0802000C0804000C0806000C0808000C080A000C080C000C080E000C0A00000C0A02000C0A04000C0A06000C0A08000C0A0A000C0A0C000C0A0E000C0C00000C0C02000C0C04000C0C06000
310
C0C08000C0C0A000F0FBFF00A4A0A000808080000000FF0000FF000000FFFF00FF000000FF00FF00FFFF0000FFFFFF00FFFFFFFFFFFFFFFFFFFFFFFFFFFFFFFFFFFFFFFFFFFFFFFFFFFFFFFFFFFFFFFFFFFFFFFFFFFFFFFFFFFFFFFFFFFFFF0000FFFFFFFFFFFFFFFFFFFFFFFFFFFFFFFFFFFFFFFFFFFFFFFFFFFFFFFF0000
310
FF0000FFFFFFFFFFFFFFFFFFFFFFFFFFFFFFFFFFFFFFFFFFFFFFFFFFFFFF00FFFFFF0000FFFFFFFFFFFFFFFFFFFFFFFFFFFFFFFFFFFFFFFFFFFFFFFFFFFF00FFFFFFFF0000FFFFFFFFFFFFFFFFFFFFFFFFFFFFFFFFFFFFFFFFFFFFFFFF00FF00000000FF00FFFFFFFFFFFFFFFFFFFFFFFFFFFFFFFFFFFFFFFFFFFFFFFF0000
310
00FFFF00FF00FFFFFFFFFFFFFFFFFFFFFFFFFFFFFFFFFFFFFFFFFFFFFFFF0000FFFFFFFF0000FFFFFFFFFFFFFFFFFFFFFFFFFFFFFFFFFFFFFFFFFFFFFFFF0000FFFFFFFF0000FFFFFFFFFFFFFFFFFFFFFFFFFFFFFFFFFFFFFFFFFFFFFF00FF00FFFFFFFF00FF00FFFFFFFFFFFFFFFFFFFFFFFFFFFFFFFFFFFFFFFFFFFF0000
310
FFFFFFFFFF00FF00FFFFFFFFFFFFFFFFFFFFFFFFFFFFFFFFFFFFFFFFFFFF0000FFFFFFFFFFFF0000FFFFFFFFFFFFFFFFFFFFFFFFFFFFFFFFFFFFFFFFFFFF0000FFFFFFFFFFFF0000FFFFFFFFFFFFFFFFFFFFFFFFFFFFFFFFFFFFFFFFFFFF0000FFFFFFFFFFFF0000FFFFFFFFFFFFFFFFFFFFFFFFFFFFFFFFFFFFFFFFFFFF00
310
00FFFFFFFFFFFF0000FFFFFFFFFFFFFFFFFFFFFFFFFFFFFFFFFFFFFFFFFFFF0000FFFFFFFFFFFF0000FFFFFFFFFFFFFFFFFFFFFFFFFFFFFFFFFFFFFFFFFFFF0000FFFFFFFFFFFF0000FFFFFFFFFFFFFFFFFFFFFFFFFFFFFFFFFFFFFFFFFFFF0000FFFFFFFFFFFF0000FFFFFFFFFFFFFFFFFFFFFFFFFFFFFFFFFFFFFFFFFFFF
310
0000FFFFFFFFFFFF0000FFFFFFFFFFFFFFFFFFFFFFFFFFFFFFFFFFFFFFFFFFFF0000FFFFFFFFFFFF0000FFFFFFFFFFFFFFFFFFFFFFFFFFFFFFFFFFFFFFFFFFFF0000FFFFFFFFFFFF0000FFFFFFFFFFFFFFFFFFFFFFFFFFFFFFFFFFFFFFFFFFFF00FF00FFFFFFFF00FF00FFFFFFFFFFFFFFFFFFFFFFFFFFFFFFFFFFFFFFFFFF
310
FF00FF00FFFFFFFF00FF00FFFFFFFFFFFFFFFFFFFFFFFFFFFFFFFFFFFFFFFFFFFF00FF00FFFFFFFF00FF00FFFFFFFFFFFFFFFFFFFFFFFFFFFFFFFFFFFFFFFFFFFFFF0000FFFFFFFF0000FFFFFFFFFFFFFFFFFFFFFFFFFFFFFFFFFFFFFFFFFFFFFFFF00FF00FFFF00FF00FFFFFFFFFFFFFFFFFFFFFFFFFFFFFFFFFFFFFFFFFF
310
FFFFFF00FF00000000FF00FFFFFFFFFFFFFFFFFFFFFFFFFFFFFFFFFFFFFFFFFFFFFFFFFF00FFFFFFFF0000FFFFFFFFFFFFFFFFFFFFFFFFFFFFFFFFFFFFFFFFFFFFFFFFFF00FFFFFFFF00FFFFFFFFFFFFFFFFFFFFFFFFFFFFFFFFFFFFFFFFFFFFFFFFFFFFFF00000000FFFFFFFFFFFFFFFFFFFFFFFFFFFFFFFFFFFFFFFFFFFF
310
FFFFFFFFFFFFFF0000FFFFFFFFFFFFFFFFFFFFFFFFFFFFFFFFFFFFFFFFFFFFFFFFFFFFFFFFFFFFFFFFFFFFFFFFFFFFFFFFFFFFFFFFFFFFFF
102
{BLKREFS
331
2594
102
}
  0
BLOCK_RECORD
  5
2567
330
227E
100
AcDbSymbolTableRecord
100
AcDbBlockTableRecord
  2
AI9-BLK8
340
0
310
2800000020000000200000000100080000000000000400000000000000000000000000000000000000000000000080000080000000808000800000008000800080800000C0C0C000C0DCC000F0CAA6000020400000206000002080000020A0000020C0000020E00000400000004020000040400000406000004080000040A0
310
000040C0000040E00000600000006020000060400000606000006080000060A0000060C0000060E00000800000008020000080400000806000008080000080A0000080C0000080E00000A0000000A0200000A0400000A0600000A0800000A0A00000A0C00000A0E00000C0000000C0200000C0400000C0600000C0800000C0
310
A00000C0C00000C0E00000E0000000E0200000E0400000E0600000E0800000E0A00000E0C00000E0E00040000000400020004000400040006000400080004000A0004000C0004000E00040200000402020004020400040206000402080004020A0004020C0004020E000404000004040200040404000404060004040800040
310
40A0004040C0004040E00040600000406020004060400040606000406080004060A0004060C0004060E00040800000408020004080400040806000408080004080A0004080C0004080E00040A0000040A0200040A0400040A0600040A0800040A0A00040A0C00040A0E00040C0000040C0200040C0400040C0600040C08000
310
40C0A00040C0C00040C0E00040E0000040E0200040E0400040E0600040E0800040E0A00040E0C00040E0E00080000000800020008000400080006000800080008000A0008000C0008000E00080200000802020008020400080206000802080008020A0008020C0008020E00080400000804020008040400080406000804080
310
008040A0008040C0008040E00080600000806020008060400080606000806080008060A0008060C0008060E00080800000808020008080400080806000808080008080A0008080C0008080E00080A0000080A0200080A0400080A0600080A0800080A0A00080A0C00080A0E00080C0000080C0200080C0400080C0600080C0
310
800080C0A00080C0C00080C0E00080E0000080E0200080E0400080E0600080E0800080E0A00080E0C00080E0E000C0000000C0002000C0004000C0006000C0008000C000A000C000C000C000E000C0200000C0202000C0204000C0206000C0208000C020A000C020C000C020E000C0400000C0402000C0404000C0406000C0
310
408000C040A000C040C000C040E000C0600000C0602000C0604000C0606000C0608000C060A000C060C000C060E000C0800000C0802000C0804000C0806000C0808000C080A000C080C000C080E000C0A00000C0A02000C0A04000C0A06000C0A08000C0A0A000C0A0C000C0A0E000C0C00000C0C02000C0C04000C0C06000
310
C0C08000C0C0A000F0FBFF00A4A0A000808080000000FF0000FF000000FFFF00FF000000FF00FF00FFFF0000FFFFFF00FFFFFFFFFFFFFFFFFFFFFFFFFFFFFFFFFFFFFFFFFFFFFFFFFFFFFFFFFFFFFFFFFFFFFFFFFFFFFFFFFFFFFF0000FFFFFFFFFFFF0000FFFFFFFFFFFFFFFFFFFFFFFFFFFFFFFFFFFFFFFFFFFF0000FFFF
310
FFFFFFFF0000FFFFFFFFFFFFFFFFFFFFFFFFFFFFFFFFFFFFFFFFFFFF0000FFFFFFFFFF00FF00FFFFFFFFFFFFFFFFFFFFFFFFFFFFFFFFFFFFFFFFFFFF0000FFFFFFFFFF00FF00FFFFFFFFFFFFFFFFFFFFFFFFFFFFFFFFFFFFFFFFFFFF0000FFFFFFFFFF00FF00FFFFFFFFFFFFFFFFFFFFFFFFFFFFFFFFFFFFFFFFFFFF0000FF
310
FFFFFF00FFFF00FFFFFFFFFFFFFFFFFFFFFFFFFFFFFFFFFFFFFFFFFFFF0000FFFFFFFF00FF0000FFFFFFFFFFFFFFFFFFFFFFFFFFFFFFFFFFFFFFFFFFFF0000FFFFFFFF00FF0000FFFFFFFFFFFFFFFFFFFFFFFFFFFFFFFFFFFFFFFFFFFF0000FFFFFFFF00000000FFFFFFFFFFFFFFFFFFFFFFFFFFFFFFFFFFFFFFFFFFFF0000
310
FFFFFF00FF000000FFFFFFFFFFFFFFFFFFFFFFFFFFFFFFFFFFFFFFFFFFFF0000FFFFFF00FF000000FFFFFFFFFFFFFFFFFFFFFFFFFFFFFFFFFFFFFFFFFFFF0000FFFFFF00FF000000FFFFFFFFFFFFFFFFFFFFFFFFFFFFFFFFFFFFFFFFFFFF0000FFFF00FF00FF0000FFFFFFFFFFFFFFFFFFFFFFFFFFFFFFFFFFFFFFFFFFFF00
310
00FFFF00FF00FF0000FFFFFFFFFFFFFFFFFFFFFFFFFFFFFFFFFFFFFFFFFFFF0000FFFF00FF00FF0000FFFFFFFFFFFFFFFFFFFFFFFFFFFFFFFFFFFFFFFFFFFF0000FF00FFFF00FF0000FFFFFFFFFFFFFFFFFFFFFFFFFFFFFFFFFFFFFFFFFFFF0000FF00FF00FFFF0000FFFFFFFFFFFFFFFFFFFFFFFFFFFFFFFFFFFFFFFFFFFF
310
0000FF00FF00FFFF0000FFFFFFFFFFFFFFFFFFFFFFFFFFFFFFFFFFFFFFFFFFFF0000FF00FF00FFFF0000FFFFFFFFFFFFFFFFFFFFFFFFFFFFFFFFFFFFFFFFFFFF000000FFFF00FFFF0000FFFFFFFFFFFFFFFFFFFFFFFFFFFFFFFFFFFFFFFFFFFF000000FF00FFFFFF0000FFFFFFFFFFFFFFFFFFFFFFFFFFFFFFFFFFFFFFFFFF
310
FF000000FF00FFFFFF0000FFFFFFFFFFFFFFFFFFFFFFFFFFFFFFFFFFFFFFFFFFFF0000FFFF00FFFFFF0000FFFFFFFFFFFFFFFFFFFFFFFFFFFFFFFFFFFFFFFFFFFF0000FFFF00FFFFFF0000FFFFFFFFFFFFFFFFFFFFFFFFFFFFFFFFFFFFFFFFFFFF00FFFF00FFFFFFFF0000FFFFFFFFFFFFFFFFFFFFFFFFFFFFFFFFFFFFFFFF
310
FFFF00FFFF00FFFFFFFF0000FFFFFFFFFFFFFFFFFFFFFFFFFFFFFFFFFFFFFFFFFFFF00FFFF00FFFFFFFF0000FFFFFFFFFFFFFFFFFFFFFFFFFFFFFFFFFFFFFFFFFFFF00FFFF00FFFFFFFF0000FFFFFFFFFFFFFFFFFFFFFFFFFFFFFFFFFFFFFFFFFFFF00FF00FFFFFFFFFF0000FFFFFFFFFFFFFFFFFFFFFFFFFFFFFFFFFFFFFF
310
FFFFFF000000FFFFFFFFFF0000FFFFFFFFFFFFFFFFFFFFFFFFFFFFFFFFFFFFFFFFFFFFFFFFFFFFFFFFFFFFFFFFFFFFFFFFFFFFFFFFFFFFFF
102
{BLKREFS
331
2595
102
}
  0
BLOCK_RECORD
  5
256C
330
227E
100
AcDbSymbolTableRecord
100
AcDbBlockTableRecord
  2
AI9-BLK7
340
0
310
2800000020000000200000000100080000000000000400000000000000000000000000000000000000000000000080000080000000808000800000008000800080800000C0C0C000C0DCC000F0CAA6000020400000206000002080000020A0000020C0000020E00000400000004020000040400000406000004080000040A0
310
000040C0000040E00000600000006020000060400000606000006080000060A0000060C0000060E00000800000008020000080400000806000008080000080A0000080C0000080E00000A0000000A0200000A0400000A0600000A0800000A0A00000A0C00000A0E00000C0000000C0200000C0400000C0600000C0800000C0
310
A00000C0C00000C0E00000E0000000E0200000E0400000E0600000E0800000E0A00000E0C00000E0E00040000000400020004000400040006000400080004000A0004000C0004000E00040200000402020004020400040206000402080004020A0004020C0004020E000404000004040200040404000404060004040800040
310
40A0004040C0004040E00040600000406020004060400040606000406080004060A0004060C0004060E00040800000408020004080400040806000408080004080A0004080C0004080E00040A0000040A0200040A0400040A0600040A0800040A0A00040A0C00040A0E00040C0000040C0200040C0400040C0600040C08000
310
40C0A00040C0C00040C0E00040E0000040E0200040E0400040E0600040E0800040E0A00040E0C00040E0E00080000000800020008000400080006000800080008000A0008000C0008000E00080200000802020008020400080206000802080008020A0008020C0008020E00080400000804020008040400080406000804080
310
008040A0008040C0008040E00080600000806020008060400080606000806080008060A0008060C0008060E00080800000808020008080400080806000808080008080A0008080C0008080E00080A0000080A0200080A0400080A0600080A0800080A0A00080A0C00080A0E00080C0000080C0200080C0400080C0600080C0
310
800080C0A00080C0C00080C0E00080E0000080E0200080E0400080E0600080E0800080E0A00080E0C00080E0E000C0000000C0002000C0004000C0006000C0008000C000A000C000C000C000E000C0200000C0202000C0204000C0206000C0208000C020A000C020C000C020E000C0400000C0402000C0404000C0406000C0
310
408000C040A000C040C000C040E000C0600000C0602000C0604000C0606000C0608000C060A000C060C000C060E000C0800000C0802000C0804000C0806000C0808000C080A000C080C000C080E000C0A00000C0A02000C0A04000C0A06000C0A08000C0A0A000C0A0C000C0A0E000C0C00000C0C02000C0C04000C0C06000
310
C0C08000C0C0A000F0FBFF00A4A0A000808080000000FF0000FF000000FFFF00FF000000FF00FF00FFFF0000FFFFFF00FFFFFFFFFFFFFFFFFFFFFFFFFFFFFFFFFFFFFFFFFFFFFFFFFFFFFFFFFFFFFFFFFFFFFFFFFFFFFFFFFFFFFFFFFFFFFF0000FFFFFFFFFFFFFFFFFFFFFFFFFFFFFFFFFFFFFFFFFFFFFFFFFFFFFFFFFFFF
310
0000FFFFFFFFFFFFFFFFFFFFFFFFFFFFFFFFFFFFFFFFFFFFFFFFFFFFFFFFFFFF0000FFFFFFFFFFFFFFFFFFFFFFFFFFFFFFFFFFFFFFFFFFFFFFFFFFFFFFFFFFFF0000FFFFFFFFFFFFFFFFFFFFFFFFFFFFFFFFFFFFFFFFFFFFFFFFFFFFFFFFFFFF0000FFFFFFFFFFFFFFFFFFFFFFFFFFFFFFFFFFFFFFFFFFFFFFFFFFFFFFFFFF
310
FF0000FFFFFFFFFFFFFFFFFFFFFFFFFFFFFFFFFFFFFFFFFFFFFFFFFFFFFFFFFFFF0000FFFFFFFFFFFFFFFFFFFFFFFFFFFFFFFFFFFFFFFFFFFFFFFFFFFFFFFFFFFF0000FFFFFFFFFFFFFFFFFFFFFFFFFFFFFFFFFFFFFFFFFFFFFFFFFFFFFFFFFFFF0000FFFFFFFFFFFFFFFFFFFFFFFFFFFFFFFFFFFFFFFFFFFFFFFFFFFFFFFF
310
FFFF0000FFFFFFFFFFFFFFFFFFFFFFFFFFFFFFFFFFFFFFFFFFFFFFFFFFFFFFFFFFFF0000FFFFFFFFFFFFFFFFFFFFFFFFFFFFFFFFFFFFFFFFFFFFFFFFFFFFFFFFFFFF0000FFFFFFFFFFFFFFFFFFFFFFFFFFFFFFFFFFFFFFFFFFFFFFFFFFFFFFFFFFFF0000FFFFFFFFFFFFFFFFFFFFFFFFFFFFFFFFFFFFFFFFFFFFFFFFFFFFFF
310
FFFFFF0000FFFFFFFFFFFFFFFFFFFFFFFFFFFFFFFFFFFFFFFFFFFFFFFFFFFFFFFFFFFF0000FFFFFFFFFFFFFFFFFFFFFFFFFFFFFFFFFFFFFFFFFFFFFFFFFFFFFFFFFFFF0000FFFFFFFFFFFFFFFFFFFFFFFFFFFFFFFFFFFFFFFFFFFFFFFFFFFFFFFFFFFF0000FFFFFFFFFFFFFFFFFFFFFFFFFFFFFFFFFFFFFFFFFFFFFFFFFFFF
310
FFFFFFFF0000FFFFFFFFFFFFFFFFFFFFFFFFFFFFFFFFFFFFFFFFFFFFFFFFFFFFFFFFFFFF0000FFFFFFFFFFFFFFFFFFFFFFFFFFFFFFFFFFFFFFFFFFFFFFFFFFFFFFFFFFFF0000FFFFFFFFFFFFFFFFFFFFFFFFFFFFFFFFFFFFFFFFFFFFFFFFFFFFFFFFFFFF0000FFFFFFFFFFFFFFFFFFFFFFFFFFFFFFFFFFFFFFFFFFFFFFFFFF
310
FFFFFFFFFF0000FFFFFFFFFFFFFFFFFFFFFFFFFFFFFFFFFFFFFFFFFFFFFFFFFFFFFFFFFFFF0000FFFFFFFFFFFFFFFFFFFFFFFFFFFFFFFFFFFFFFFFFFFFFFFFFFFFFFFFFFFF0000FFFFFFFFFFFFFFFFFFFFFFFFFFFFFFFFFFFFFFFFFFFFFFFFFFFFFFFFFFFF0000FFFFFFFFFFFFFFFFFFFFFFFFFFFFFFFFFFFFFFFFFFFFFFFF
310
FFFFFFFFFFFF0000FFFFFFFFFFFFFFFFFFFFFFFFFFFFFFFFFFFFFFFFFFFFFFFFFFFFFFFFFFFF0000FFFFFFFFFFFFFFFFFFFFFFFFFFFFFFFFFFFFFFFFFFFFFFFFFFFFFFFFFFFF0000FFFFFFFFFFFFFFFFFFFFFFFFFFFFFFFFFFFFFFFFFFFFFFFFFFFFFFFFFFFF0000FFFFFFFFFFFFFFFFFFFFFFFFFFFFFFFFFFFFFFFFFFFFFF
310
FFFFFFFFFFFFFF0000FFFFFFFFFFFFFFFFFFFFFFFFFFFFFFFFFFFFFFFFFFFFFFFFFFFFFFFFFFFFFFFFFFFFFFFFFFFFFFFFFFFFFFFFFFFFFF
102
{BLKREFS
331
2596
102
}
  0
BLOCK_RECORD
  5
2571
330
227E
100
AcDbSymbolTableRecord
100
AcDbBlockTableRecord
  2
AI9-BLK6
340
0
310
2800000020000000200000000100080000000000000400000000000000000000000000000000000000000000000080000080000000808000800000008000800080800000C0C0C000C0DCC000F0CAA6000020400000206000002080000020A0000020C0000020E00000400000004020000040400000406000004080000040A0
310
000040C0000040E00000600000006020000060400000606000006080000060A0000060C0000060E00000800000008020000080400000806000008080000080A0000080C0000080E00000A0000000A0200000A0400000A0600000A0800000A0A00000A0C00000A0E00000C0000000C0200000C0400000C0600000C0800000C0
310
A00000C0C00000C0E00000E0000000E0200000E0400000E0600000E0800000E0A00000E0C00000E0E00040000000400020004000400040006000400080004000A0004000C0004000E00040200000402020004020400040206000402080004020A0004020C0004020E000404000004040200040404000404060004040800040
310
40A0004040C0004040E00040600000406020004060400040606000406080004060A0004060C0004060E00040800000408020004080400040806000408080004080A0004080C0004080E00040A0000040A0200040A0400040A0600040A0800040A0A00040A0C00040A0E00040C0000040C0200040C0400040C0600040C08000
310
40C0A00040C0C00040C0E00040E0000040E0200040E0400040E0600040E0800040E0A00040E0C00040E0E00080000000800020008000400080006000800080008000A0008000C0008000E00080200000802020008020400080206000802080008020A0008020C0008020E00080400000804020008040400080406000804080
310
008040A0008040C0008040E00080600000806020008060400080606000806080008060A0008060C0008060E00080800000808020008080400080806000808080008080A0008080C0008080E00080A0000080A0200080A0400080A0600080A0800080A0A00080A0C00080A0E00080C0000080C0200080C0400080C0600080C0
310
800080C0A00080C0C00080C0E00080E0000080E0200080E0400080E0600080E0800080E0A00080E0C00080E0E000C0000000C0002000C0004000C0006000C0008000C000A000C000C000C000E000C0200000C0202000C0204000C0206000C0208000C020A000C020C000C020E000C0400000C0402000C0404000C0406000C0
310
408000C040A000C040C000C040E000C0600000C0602000C0604000C0606000C0608000C060A000C060C000C060E000C0800000C0802000C0804000C0806000C0808000C080A000C080C000C080E000C0A00000C0A02000C0A04000C0A06000C0A08000C0A0A000C0A0C000C0A0E000C0C00000C0C02000C0C04000C0C06000
310
C0C08000C0C0A000F0FBFF00A4A0A000808080000000FF0000FF000000FFFF00FF000000FF00FF00FFFF0000FFFFFF00FFFFFFFFFFFFFFFFFFFFFFFF00FFFFFFFFFFFFFF00FFFFFFFFFFFFFFFFFFFFFFFFFFFFFFFFFFFFFFFFFFFFFF00FFFFFFFFFFFFFF00FFFFFFFFFFFFFFFFFFFFFFFFFFFFFFFFFFFFFFFFFFFFFF00FFFF
310
FFFFFFFFFF00FFFFFFFFFFFFFFFFFFFFFFFFFFFFFFFFFFFFFFFFFFFF00FFFFFFFFFFFFFFFF00FFFFFFFFFFFFFFFFFFFFFFFFFFFFFFFFFFFFFFFFFFFF00FFFFFFFFFFFFFF00FFFFFFFFFFFFFFFFFFFFFFFFFFFFFFFFFFFFFFFFFFFFFF00FFFFFFFFFFFFFF00FFFFFFFFFFFFFFFFFFFFFFFFFFFFFFFFFFFFFFFFFFFF00FFFFFF
310
FFFFFFFFFF00FFFFFFFFFFFFFFFFFFFFFFFFFFFFFFFFFFFFFFFFFFFF00FFFFFFFFFFFFFF00FFFFFFFFFFFFFFFFFFFFFFFFFFFFFFFFFFFFFFFFFFFF00FFFFFFFFFFFFFFFF00FFFFFFFFFFFFFFFFFFFFFFFFFFFFFFFFFFFFFFFFFF00FFFFFFFFFFFFFFFFFF00FFFFFFFFFFFFFFFFFFFFFFFFFFFFFFFFFFFFFFFF00FFFFFFFFFF
310
FFFFFFFFFF00FFFFFFFFFFFFFFFFFFFFFFFFFFFFFFFFFFFFFF00FFFFFFFFFFFFFFFFFFFF00FFFFFFFFFFFFFFFFFFFFFFFFFFFFFFFFFFFF0000FFFFFFFFFFFFFFFFFFFFFF00FFFFFFFFFFFFFFFFFFFFFFFFFFFF00000000FFFFFFFFFFFFFFFFFFFFFFFFFF00FFFFFFFFFFFFFFFFFFFFFFFFFFFFFFFFFFFFFFFFFFFFFFFFFFFF
310
FFFFFFFF00FFFFFFFFFFFFFFFFFFFFFFFFFFFFFFFFFFFFFFFFFFFFFFFFFFFFFFFFFFFFFF00FFFFFFFFFFFFFFFFFFFFFFFFFFFFFFFFFFFFFFFFFFFFFFFFFFFFFFFFFFFFFF00FFFFFFFFFFFFFFFFFFFFFFFFFFFFFFFFFFFFFFFFFFFFFFFFFFFFFFFFFFFF00FFFFFFFFFFFFFFFFFFFFFFFFFFFFFFFFFFFFFFFFFFFFFFFFFFFFFF
310
FFFFFFFF00FFFFFFFFFFFFFFFFFFFFFFFFFFFFFFFFFFFFFFFFFFFFFFFFFFFFFFFFFFFF00FFFFFFFFFFFFFFFFFFFFFFFFFFFFFFFFFFFFFFFFFFFFFFFFFFFFFFFFFFFF00FFFFFFFFFFFFFFFFFFFFFFFFFFFFFFFFFFFFFFFFFFFFFFFFFFFFFFFFFFFF00FFFFFFFFFFFFFFFFFFFFFFFFFFFFFFFFFFFFFFFFFFFFFFFFFFFFFFFFFF
310
FF00FFFFFFFFFFFFFFFFFFFFFFFFFFFFFFFFFFFFFFFFFFFFFFFFFFFFFFFFFFFFFF00FFFFFFFFFFFFFFFFFFFFFFFFFFFFFFFFFFFFFFFFFFFFFFFFFFFFFFFFFFFF00FFFFFFFFFFFFFFFFFFFFFFFFFFFFFFFFFFFFFFFFFFFFFFFFFFFFFFFFFF0000FFFFFFFFFFFFFFFFFFFFFFFFFFFFFFFFFFFFFFFFFFFFFFFFFFFFFFFF0000FF
310
FFFFFFFFFFFFFFFFFFFFFFFFFFFFFFFFFFFFFFFFFFFFFFFFFF00000000FFFFFFFFFFFFFFFFFFFFFFFFFFFFFFFFFFFFFFFFFFFFFFFFFFFF0000FFFFFFFFFFFFFFFFFFFFFFFFFFFFFFFFFFFFFFFFFFFFFFFFFFFFFFFFFFFFFFFFFFFFFFFFFFFFFFFFFFFFFFFFFFFFFFFFFFFFFFFFFFFFFFFFFFFFFFFFFFFFFFFFFFFFFFFFFFFF
310
FFFFFFFFFFFFFFFFFFFFFFFFFFFFFFFFFFFFFFFFFFFFFFFFFFFFFFFFFFFFFFFFFFFFFFFFFFFFFFFFFFFFFFFFFFFFFFFFFFFFFFFFFFFFFFFF
102
{BLKREFS
331
2597
102
}
  0
BLOCK_RECORD
  5
2575
330
227E
100
AcDbSymbolTableRecord
100
AcDbBlockTableRecord
  2
AI9-BLK5
340
0
310
2800000020000000200000000100080000000000000400000000000000000000000000000000000000000000000080000080000000808000800000008000800080800000C0C0C000C0DCC000F0CAA6000020400000206000002080000020A0000020C0000020E00000400000004020000040400000406000004080000040A0
310
000040C0000040E00000600000006020000060400000606000006080000060A0000060C0000060E00000800000008020000080400000806000008080000080A0000080C0000080E00000A0000000A0200000A0400000A0600000A0800000A0A00000A0C00000A0E00000C0000000C0200000C0400000C0600000C0800000C0
310
A00000C0C00000C0E00000E0000000E0200000E0400000E0600000E0800000E0A00000E0C00000E0E00040000000400020004000400040006000400080004000A0004000C0004000E00040200000402020004020400040206000402080004020A0004020C0004020E000404000004040200040404000404060004040800040
310
40A0004040C0004040E00040600000406020004060400040606000406080004060A0004060C0004060E00040800000408020004080400040806000408080004080A0004080C0004080E00040A0000040A0200040A0400040A0600040A0800040A0A00040A0C00040A0E00040C0000040C0200040C0400040C0600040C08000
310
40C0A00040C0C00040C0E00040E0000040E0200040E0400040E0600040E0800040E0A00040E0C00040E0E00080000000800020008000400080006000800080008000A0008000C0008000E00080200000802020008020400080206000802080008020A0008020C0008020E00080400000804020008040400080406000804080
310
008040A0008040C0008040E00080600000806020008060400080606000806080008060A0008060C0008060E00080800000808020008080400080806000808080008080A0008080C0008080E00080A0000080A0200080A0400080A0600080A0800080A0A00080A0C00080A0E00080C0000080C0200080C0400080C0600080C0
310
800080C0A00080C0C00080C0E00080E0000080E0200080E0400080E0600080E0800080E0A00080E0C00080E0E000C0000000C0002000C0004000C0006000C0008000C000A000C000C000C000E000C0200000C0202000C0204000C0206000C0208000C020A000C020C000C020E000C0400000C0402000C0404000C0406000C0
310
408000C040A000C040C000C040E000C0600000C0602000C0604000C0606000C0608000C060A000C060C000C060E000C0800000C0802000C0804000C0806000C0808000C080A000C080C000C080E000C0A00000C0A02000C0A04000C0A06000C0A08000C0A0A000C0A0C000C0A0E000C0C00000C0C02000C0C04000C0C06000
310
C0C08000C0C0A000F0FBFF00A4A0A000808080000000FF0000FF000000FFFF00FF000000FF00FF00FFFF0000FFFFFF00FFFFFFFFFFFFFFFFFFFFFFFFFFFFFFFFFFFFFFFFFFFFFFFFFFFFFFFFFFFFFFFFFFFFFFFFFFFFFFFF000000000000000000000000000000000000000000000000FFFFFFFFFFFFFFFF00FFFFFFFFFFFF
310
FFFFFFFFFFFFFFFFFFFFFFFFFFFFFFFFFFFFFFFFFFFFFFFFFF00FFFFFFFFFFFFFFFFFFFFFFFFFFFFFFFFFFFFFFFFFFFFFFFFFFFFFFFFFFFFFF00FFFFFFFFFFFFFFFFFFFFFFFFFFFFFFFFFFFFFFFFFFFFFFFFFFFFFFFFFFFFFF00FFFFFFFFFFFFFFFFFFFFFFFFFFFFFFFFFFFFFFFFFFFFFFFFFFFFFFFFFFFFFF00FFFFFFFFFF
310
FFFFFFFFFFFFFFFFFFFFFFFFFFFFFFFFFFFFFFFFFFFFFFFFFFFF00FFFFFFFFFFFFFFFFFFFFFFFFFFFFFFFFFFFFFFFFFFFFFFFFFFFFFFFFFFFFFF00FFFFFFFFFFFFFFFFFFFFFFFFFFFFFFFFFFFFFFFFFFFFFFFFFFFFFFFFFFFFFF00FFFFFFFFFFFFFFFFFFFFFFFFFFFFFFFFFFFFFFFFFFFFFFFFFFFFFFFFFFFFFF00FFFFFFFF
310
FFFFFFFFFFFFFFFFFFFFFFFFFFFFFFFFFFFFFFFFFFFFFFFFFFFFFF00FFFFFFFFFFFFFFFFFFFFFFFFFFFFFFFFFFFFFFFFFFFFFFFFFFFFFFFFFFFFFF00FFFFFFFFFFFFFFFFFFFFFFFFFFFFFFFFFFFFFFFFFFFFFFFFFFFFFFFFFFFFFF00FFFFFFFFFFFFFFFFFFFFFFFFFFFFFFFFFFFFFFFFFFFFFFFFFFFFFFFFFFFFFF00FFFFFF
310
FFFFFFFFFFFFFFFFFFFFFFFFFFFFFFFFFFFFFFFFFFFFFFFFFFFFFFFF00FFFFFFFFFFFFFFFFFFFFFFFFFFFFFFFFFFFFFFFFFFFFFFFFFFFFFFFFFFFFFF00FFFFFFFFFFFFFFFFFFFFFFFFFFFFFFFFFFFFFFFFFFFFFFFFFFFFFFFFFFFFFF00FFFFFFFFFFFFFFFFFFFFFFFFFFFFFFFFFFFFFFFFFFFFFFFFFFFFFFFFFFFFFF00FFFF
310
FFFFFFFFFFFFFFFFFFFFFFFFFFFFFFFFFFFFFFFFFFFFFFFFFFFFFFFFFF00FFFFFFFFFFFFFFFFFFFFFFFFFFFFFFFFFFFFFFFFFFFFFFFFFFFFFFFFFFFFFF00FFFFFFFFFFFFFFFFFFFFFFFFFFFFFFFFFFFFFFFFFFFFFFFFFFFFFFFFFFFFFF00FFFFFFFFFFFFFFFFFFFFFFFFFFFFFFFFFFFFFFFFFFFFFFFFFFFFFFFFFFFFFF00FF
310
FFFFFFFFFFFFFFFFFFFFFFFFFFFFFFFFFFFFFFFFFFFFFFFFFFFFFFFFFFFF00FFFFFFFFFFFFFFFFFFFFFFFFFFFFFFFFFFFFFFFFFFFFFFFFFFFFFFFFFFFFFF00FFFFFFFFFFFFFFFFFFFFFFFFFFFFFFFFFFFFFFFFFFFFFFFFFFFFFFFFFFFFFF00FFFFFFFFFFFFFFFFFFFFFFFFFFFFFFFFFFFFFFFFFFFFFFFFFFFFFFFFFFFFFF00
310
FFFFFFFFFFFFFFFFFFFFFFFFFFFFFFFFFFFFFFFFFFFFFFFFFFFFFFFFFFFFFF00FFFFFFFFFFFFFFFFFFFFFFFFFFFFFFFFFFFFFFFFFFFFFFFFFFFFFFFFFFFFFF00FFFFFFFFFFFFFFFFFFFFFFFFFFFFFFFFFFFFFFFFFFFFFFFFFFFFFFFFFFFFFF00FFFFFFFFFFFFFFFFFFFFFFFFFFFFFFFFFFFFFFFFFFFFFFFFFFFFFFFFFFFFFF
310
00FFFFFFFFFFFFFFFFFFFFFFFFFFFF000000000000000000FFFFFFFFFFFFFFFF00FFFFFFFFFFFFFFFFFFFFFFFFFFFF00FFFFFFFFFFFFFFFF
102
{BLKREFS
331
2598
102
}
  0
BLOCK_RECORD
  5
257A
330
227E
100
AcDbSymbolTableRecord
100
AcDbBlockTableRecord
  2
AI9-BLK4
340
0
310
2800000020000000200000000100080000000000000400000000000000000000000000000000000000000000000080000080000000808000800000008000800080800000C0C0C000C0DCC000F0CAA6000020400000206000002080000020A0000020C0000020E00000400000004020000040400000406000004080000040A0
310
000040C0000040E00000600000006020000060400000606000006080000060A0000060C0000060E00000800000008020000080400000806000008080000080A0000080C0000080E00000A0000000A0200000A0400000A0600000A0800000A0A00000A0C00000A0E00000C0000000C0200000C0400000C0600000C0800000C0
310
A00000C0C00000C0E00000E0000000E0200000E0400000E0600000E0800000E0A00000E0C00000E0E00040000000400020004000400040006000400080004000A0004000C0004000E00040200000402020004020400040206000402080004020A0004020C0004020E000404000004040200040404000404060004040800040
310
40A0004040C0004040E00040600000406020004060400040606000406080004060A0004060C0004060E00040800000408020004080400040806000408080004080A0004080C0004080E00040A0000040A0200040A0400040A0600040A0800040A0A00040A0C00040A0E00040C0000040C0200040C0400040C0600040C08000
310
40C0A00040C0C00040C0E00040E0000040E0200040E0400040E0600040E0800040E0A00040E0C00040E0E00080000000800020008000400080006000800080008000A0008000C0008000E00080200000802020008020400080206000802080008020A0008020C0008020E00080400000804020008040400080406000804080
310
008040A0008040C0008040E00080600000806020008060400080606000806080008060A0008060C0008060E00080800000808020008080400080806000808080008080A0008080C0008080E00080A0000080A0200080A0400080A0600080A0800080A0A00080A0C00080A0E00080C0000080C0200080C0400080C0600080C0
310
800080C0A00080C0C00080C0E00080E0000080E0200080E0400080E0600080E0800080E0A00080E0C00080E0E000C0000000C0002000C0004000C0006000C0008000C000A000C000C000C000E000C0200000C0202000C0204000C0206000C0208000C020A000C020C000C020E000C0400000C0402000C0404000C0406000C0
310
408000C040A000C040C000C040E000C0600000C0602000C0604000C0606000C0608000C060A000C060C000C060E000C0800000C0802000C0804000C0806000C0808000C080A000C080C000C080E000C0A00000C0A02000C0A04000C0A06000C0A08000C0A0A000C0A0C000C0A0E000C0C00000C0C02000C0C04000C0C06000
310
C0C08000C0C0A000F0FBFF00A4A0A000808080000000FF0000FF000000FFFF00FF000000FF00FF00FFFF0000FFFFFF00FFFFFFFFFFFFFFFFFFFFFFFFFFFFFFFFFFFFFFFFFFFFFFFFFFFFFFFFFFFFFFFFFFFFFFFFFFFFFFFFFFFFFFFFFFFF00000000FFFFFFFFFFFFFFFFFFFFFF000000FFFFFFFFFFFFFFFFFFFFFFFFFFFF00
310
FFFF00FFFFFFFFFFFFFFFFFFFFFF00FFFFFFFFFFFFFFFFFFFFFFFFFFFFFFFF00FFFF00FFFFFFFFFFFFFFFFFFFFFF00FFFFFFFFFFFFFFFFFFFFFFFFFFFFFFFF00FFFF00FFFFFFFFFFFFFFFFFFFFFF00FFFFFFFFFFFFFFFFFFFFFFFFFFFFFFFF00FFFF00FFFFFFFFFFFFFFFFFFFFFF00FFFFFFFFFFFFFFFFFFFFFFFFFFFFFFFF
310
00FFFF00FFFFFFFFFFFFFFFFFFFFFF00FFFFFFFFFFFFFFFFFFFFFFFFFFFFFFFF00FFFF00FFFFFFFFFFFFFFFFFFFFFF00FFFFFFFFFFFFFFFFFFFFFFFFFFFFFFFF00FFFF00FFFFFFFFFFFFFFFFFFFFFF00FFFFFFFFFFFFFFFFFFFFFFFFFFFFFFFF00FFFF00FFFFFFFFFFFFFFFFFFFFFF00FFFFFFFFFFFFFFFFFFFFFFFFFFFFFF
310
FF00FFFF00FFFFFFFFFFFFFFFFFFFFFF00FFFFFFFFFFFFFFFFFFFFFFFFFFFFFFFF00FFFF00FFFFFFFFFFFFFFFFFFFFFF00FFFFFFFFFFFFFFFFFFFFFFFFFFFFFFFF00FFFF00FFFFFFFFFFFFFFFFFFFFFF00FFFFFFFFFFFFFFFFFFFFFFFFFFFFFFFF00FFFF00FFFFFFFFFFFFFFFFFFFFFF00FFFFFFFFFFFFFFFFFFFFFFFFFFFF
310
FFFF00FFFF00FFFFFFFFFFFFFFFFFFFFFF00FFFFFFFFFFFFFFFFFFFFFFFFFFFFFFFF00FFFF00FFFFFFFFFFFFFFFFFFFFFF00FFFFFFFFFFFFFFFFFFFFFFFFFFFFFFFF00FFFF00FFFFFFFFFFFFFFFFFFFFFF00FFFFFFFFFFFFFFFFFFFFFFFFFFFFFFFF00FFFF00FFFFFFFFFFFFFFFFFFFF00FFFFFFFFFFFFFFFFFFFFFFFFFFFF
310
FFFFFF00FFFF00FFFFFFFFFFFFFFFFFFFF00FFFFFFFFFFFFFFFFFFFFFFFFFFFFFFFFFF00FFFF00FFFFFFFFFFFFFFFFFFFF00FFFFFFFFFFFFFFFFFFFFFFFFFFFFFFFFFF00FFFF00FFFFFFFFFFFFFFFFFFFF00FFFFFFFFFFFFFFFFFFFFFFFFFFFFFFFFFF00FFFF00FFFFFFFFFFFFFFFFFFFF00FFFFFFFFFFFFFFFFFFFFFFFFFF
310
FFFFFFFF00FFFF00FFFFFFFFFFFFFFFFFF0000FFFF00FFFFFFFFFFFFFFFFFFFFFFFFFFFF00FFFF00FFFFFFFFFFFFFFFF0000FFFFFF00FFFFFFFFFFFFFFFFFFFFFFFFFFFF00FFFF00000000000000000000FFFFFFFF00FFFFFFFFFFFFFFFFFFFFFFFFFFFF00FFFFFFFFFFFFFFFFFFFFFFFFFFFFFF00FFFFFFFFFFFFFFFFFFFF
310
FFFFFFFFFF00FFFFFFFFFFFFFFFFFFFFFFFFFFFF00FFFFFFFFFFFFFFFFFFFFFFFFFFFFFFFF00FFFFFFFFFFFFFFFFFFFFFFFFFFFF00FFFFFFFFFFFFFFFFFFFFFFFFFFFFFFFF00FFFFFFFFFFFFFFFFFFFFFFFFFFFFFF00FFFFFFFFFFFFFFFFFFFFFFFFFFFFFF00FFFFFFFFFFFFFFFFFFFFFFFFFFFFFF00FFFFFFFFFFFFFFFFFF
310
FFFFFFFFFFFF00FFFF00000000000000000000FFFFFFFF00FFFFFFFFFFFFFFFFFFFFFFFFFFFF00FFFF00FFFFFFFFFFFFFFFFFF0000FFFF00
102
{BLKREFS
331
2599
102
}
  0
BLOCK_RECORD
  5
257F
330
227E
100
AcDbSymbolTableRecord
100
AcDbBlockTableRecord
  2
AI9-BLK3
340
0
310
2800000020000000200000000100080000000000000400000000000000000000000000000000000000000000000080000080000000808000800000008000800080800000C0C0C000C0DCC000F0CAA6000020400000206000002080000020A0000020C0000020E00000400000004020000040400000406000004080000040A0
310
000040C0000040E00000600000006020000060400000606000006080000060A0000060C0000060E00000800000008020000080400000806000008080000080A0000080C0000080E00000A0000000A0200000A0400000A0600000A0800000A0A00000A0C00000A0E00000C0000000C0200000C0400000C0600000C0800000C0
310
A00000C0C00000C0E00000E0000000E0200000E0400000E0600000E0800000E0A00000E0C00000E0E00040000000400020004000400040006000400080004000A0004000C0004000E00040200000402020004020400040206000402080004020A0004020C0004020E000404000004040200040404000404060004040800040
310
40A0004040C0004040E00040600000406020004060400040606000406080004060A0004060C0004060E00040800000408020004080400040806000408080004080A0004080C0004080E00040A0000040A0200040A0400040A0600040A0800040A0A00040A0C00040A0E00040C0000040C0200040C0400040C0600040C08000
310
40C0A00040C0C00040C0E00040E0000040E0200040E0400040E0600040E0800040E0A00040E0C00040E0E00080000000800020008000400080006000800080008000A0008000C0008000E00080200000802020008020400080206000802080008020A0008020C0008020E00080400000804020008040400080406000804080
310
008040A0008040C0008040E00080600000806020008060400080606000806080008060A0008060C0008060E00080800000808020008080400080806000808080008080A0008080C0008080E00080A0000080A0200080A0400080A0600080A0800080A0A00080A0C00080A0E00080C0000080C0200080C0400080C0600080C0
310
800080C0A00080C0C00080C0E00080E0000080E0200080E0400080E0600080E0800080E0A00080E0C00080E0E000C0000000C0002000C0004000C0006000C0008000C000A000C000C000C000E000C0200000C0202000C0204000C0206000C0208000C020A000C020C000C020E000C0400000C0402000C0404000C0406000C0
310
408000C040A000C040C000C040E000C0600000C0602000C0604000C0606000C0608000C060A000C060C000C060E000C0800000C0802000C0804000C0806000C0808000C080A000C080C000C080E000C0A00000C0A02000C0A04000C0A06000C0A08000C0A0A000C0A0C000C0A0E000C0C00000C0C02000C0C04000C0C06000
310
C0C08000C0C0A000F0FBFF00A4A0A000808080000000FF0000FF000000FFFF00FF000000FF00FF00FFFF0000FFFFFF00FFFFFFFFFFFFFFFFFFFFFFFFFFFFFFFFFFFFFFFFFFFFFFFFFFFFFFFFFFFFFFFFFFFFFFFFFFFFFFFFFFFFFFFFFFFFFF0000FFFFFFFFFFFFFFFFFFFFFFFFFFFFFFFFFFFFFFFFFFFFFFFFFFFFFFFFFFFF
310
0000FFFFFFFFFFFFFFFFFFFFFFFFFFFFFFFFFFFFFFFFFFFFFFFFFFFFFFFFFFFF0000FFFFFFFFFFFFFFFFFFFFFFFFFFFFFFFFFFFFFFFFFFFFFFFFFFFFFFFFFFFF0000FFFFFFFFFFFFFFFFFFFFFFFFFFFFFFFFFFFFFFFFFFFFFFFFFFFFFFFFFFFF0000FFFFFFFFFFFFFFFFFFFFFFFFFFFFFFFFFFFFFFFFFFFFFFFFFFFFFFFFFF
310
FF0000FFFFFFFFFFFFFFFFFFFFFFFFFFFFFFFFFFFFFFFFFFFFFFFFFFFFFFFFFFFF0000FFFFFFFFFFFFFFFFFFFFFFFFFFFFFFFFFFFFFFFFFFFFFFFFFFFFFFFFFFFF0000FFFFFFFFFFFFFFFFFFFFFFFFFFFFFFFFFFFFFFFFFFFFFFFFFFFFFFFFFFFF0000FFFFFFFFFFFFFFFFFFFFFFFFFFFFFFFFFFFFFFFFFFFFFFFFFFFFFFFF
310
FFFF0000FFFFFFFFFFFFFFFFFFFFFFFFFFFFFFFFFFFFFFFFFFFFFFFFFFFFFFFFFFFF0000FFFFFFFFFFFFFFFFFFFFFFFFFFFFFFFFFFFFFFFFFFFFFFFFFFFFFFFFFFFF0000FFFFFFFFFFFFFFFFFFFFFFFFFFFFFFFFFFFFFFFFFFFFFFFFFFFFFFFFFFFF0000FFFFFFFFFFFFFFFFFFFFFFFFFFFFFFFFFFFFFFFFFFFFFFFFFFFFFF
310
FFFFFF0000FFFFFFFFFFFFFFFFFFFFFFFFFFFFFFFFFFFFFFFFFFFFFFFFFFFFFFFFFFFF0000FFFFFFFFFFFFFFFFFFFFFFFFFFFFFFFFFFFFFFFFFFFFFFFFFFFFFFFFFFFF0000FFFFFFFFFFFFFFFFFFFFFFFFFFFFFFFFFFFFFFFFFFFFFFFFFFFFFFFFFFFF0000FFFFFFFFFFFFFFFFFFFFFFFFFFFFFFFFFFFFFFFFFFFFFFFFFFFF
310
FFFFFFFF0000FFFFFFFFFFFFFFFFFFFFFFFFFFFFFFFFFFFFFFFFFFFFFFFFFFFFFFFFFFFF0000FFFFFFFFFFFFFFFFFFFFFFFFFFFFFFFFFFFFFFFFFFFFFFFFFFFFFFFFFFFF0000FFFFFFFFFFFFFFFFFFFFFFFFFFFFFFFFFFFFFFFFFFFFFFFFFFFFFFFFFFFF0000FFFFFFFFFFFFFFFFFFFFFFFFFFFFFFFFFFFFFFFFFFFFFFFFFF
310
FFFFFFFFFF0000FFFFFFFFFFFFFFFFFFFFFFFFFFFFFFFFFFFFFFFFFFFFFFFFFFFFFFFFFFFF0000FFFFFFFFFFFFFFFFFFFFFFFFFFFFFFFFFFFFFFFFFFFFFFFFFFFFFFFFFFFF0000FFFFFFFFFFFFFFFFFFFFFFFFFFFFFFFFFFFFFFFFFFFFFFFFFFFFFFFFFFFF0000FFFFFFFFFFFFFFFFFFFFFFFFFFFFFFFFFFFFFFFFFFFFFFFF
310
FFFFFFFFFFFF0000FFFFFFFFFFFFFFFFFFFFFFFFFFFFFFFFFFFFFFFFFFFFFFFFFFFFFFFFFFFF0000FFFFFFFFFFFFFFFFFFFFFFFFFFFFFFFFFFFFFFFFFFFFFFFFFFFFFFFFFFFF0000FFFFFFFFFFFFFFFFFFFFFFFFFFFFFFFFFFFFFFFFFFFFFFFFFFFFFFFFFFFF0000FFFFFFFFFFFFFFFFFFFFFFFFFFFFFFFFFFFFFFFFFFFFFF
310
FFFFFFFFFFFFFF0000FFFFFFFFFFFFFFFFFFFFFFFFFFFFFFFFFFFFFFFFFFFFFFFFFFFFFFFFFFFFFFFFFFFFFFFFFFFFFFFFFFFFFFFFFFFFFF
102
{BLKREFS
331
259A
102
}
  0
BLOCK_RECORD
  5
2584
330
227E
100
AcDbSymbolTableRecord
100
AcDbBlockTableRecord
  2
AI9-BLK2
340
0
310
2800000020000000200000000100080000000000000400000000000000000000000000000000000000000000000080000080000000808000800000008000800080800000C0C0C000C0DCC000F0CAA6000020400000206000002080000020A0000020C0000020E00000400000004020000040400000406000004080000040A0
310
000040C0000040E00000600000006020000060400000606000006080000060A0000060C0000060E00000800000008020000080400000806000008080000080A0000080C0000080E00000A0000000A0200000A0400000A0600000A0800000A0A00000A0C00000A0E00000C0000000C0200000C0400000C0600000C0800000C0
310
A00000C0C00000C0E00000E0000000E0200000E0400000E0600000E0800000E0A00000E0C00000E0E00040000000400020004000400040006000400080004000A0004000C0004000E00040200000402020004020400040206000402080004020A0004020C0004020E000404000004040200040404000404060004040800040
310
40A0004040C0004040E00040600000406020004060400040606000406080004060A0004060C0004060E00040800000408020004080400040806000408080004080A0004080C0004080E00040A0000040A0200040A0400040A0600040A0800040A0A00040A0C00040A0E00040C0000040C0200040C0400040C0600040C08000
310
40C0A00040C0C00040C0E00040E0000040E0200040E0400040E0600040E0800040E0A00040E0C00040E0E00080000000800020008000400080006000800080008000A0008000C0008000E00080200000802020008020400080206000802080008020A0008020C0008020E00080400000804020008040400080406000804080
310
008040A0008040C0008040E00080600000806020008060400080606000806080008060A0008060C0008060E00080800000808020008080400080806000808080008080A0008080C0008080E00080A0000080A0200080A0400080A0600080A0800080A0A00080A0C00080A0E00080C0000080C0200080C0400080C0600080C0
310
800080C0A00080C0C00080C0E00080E0000080E0200080E0400080E0600080E0800080E0A00080E0C00080E0E000C0000000C0002000C0004000C0006000C0008000C000A000C000C000C000E000C0200000C0202000C0204000C0206000C0208000C020A000C020C000C020E000C0400000C0402000C0404000C0406000C0
310
408000C040A000C040C000C040E000C0600000C0602000C0604000C0606000C0608000C060A000C060C000C060E000C0800000C0802000C0804000C0806000C0808000C080A000C080C000C080E000C0A00000C0A02000C0A04000C0A06000C0A08000C0A0A000C0A0C000C0A0E000C0C00000C0C02000C0C04000C0C06000
310
C0C08000C0C0A000F0FBFF00A4A0A000808080000000FF0000FF000000FFFF00FF000000FF00FF00FFFF0000FFFFFF00FFFFFFFFFFFFFFFFFFFFFFFFFFFFFFFFFFFFFFFFFFFFFFFFFFFFFFFFFFFFFFFFFFFFFFFFFFFFFFFFFFFFFFFFFFFFFF0000FFFFFFFFFFFFFFFFFFFFFFFFFFFFFFFFFFFFFFFFFFFFFFFFFFFFFFFFFFFF
310
0000FFFFFFFFFFFFFFFFFFFFFFFFFFFFFFFFFFFFFFFFFFFFFFFFFFFFFFFFFFFF0000FFFFFFFFFFFFFFFFFFFFFFFFFFFFFFFFFFFFFFFFFFFFFFFFFFFFFFFFFF00FFFF00FFFFFFFFFFFFFFFFFFFFFFFFFFFFFFFFFFFFFFFFFFFFFFFFFFFFFFFF00FFFF00FFFFFFFFFFFFFFFFFFFFFFFFFFFFFFFFFFFFFFFFFFFFFFFFFFFFFFFF
310
00FF0000FFFFFFFFFFFFFFFFFFFFFFFFFFFFFFFFFFFFFFFFFFFFFFFFFFFFFFFF00FF0000FFFFFFFFFFFFFFFFFFFFFFFFFFFFFFFFFFFFFFFFFFFFFFFFFFFFFFFF00FF0000FFFFFFFFFFFFFFFFFFFFFFFFFFFFFFFFFFFFFFFFFFFFFFFFFFFFFFFF00000000FFFFFFFFFFFFFFFFFFFFFFFFFFFFFFFFFFFFFFFFFFFFFFFFFFFFFF
310
00FF00FF0000FFFFFFFFFFFFFFFFFFFFFFFFFFFFFFFFFFFFFFFFFFFFFFFFFFFF00FF00FF0000FFFFFFFFFFFFFFFFFFFFFFFFFFFFFFFFFFFFFFFFFFFFFFFFFFFF00FF00FF0000FFFFFFFFFFFFFFFFFFFFFFFFFFFFFFFFFFFFFFFFFFFFFFFFFFFF00FF00FF0000FFFFFFFFFFFFFFFFFFFFFFFFFFFFFFFFFFFFFFFFFFFFFFFFFF
310
FF00FF00FF0000FFFFFFFFFFFFFFFFFFFFFFFFFFFFFFFFFFFFFFFFFFFFFFFFFFFF0000FFFF0000FFFFFFFFFFFFFFFFFFFFFFFFFFFFFFFFFFFFFFFFFFFFFFFFFF00FF00FFFF00FF00FFFFFFFFFFFFFFFFFFFFFFFFFFFFFFFFFFFFFFFFFFFFFFFF00FF00FFFF00FF00FFFFFFFFFFFFFFFFFFFFFFFFFFFFFFFFFFFFFFFFFFFFFF
310
FF00FF00FFFFFF0000FFFFFFFFFFFFFFFFFFFFFFFFFFFFFFFFFFFFFFFFFFFFFFFF00FF00FFFFFF0000FFFFFFFFFFFFFFFFFFFFFFFFFFFFFFFFFFFFFFFFFFFFFFFF00FF00FFFFFF0000FFFFFFFFFFFFFFFFFFFFFFFFFFFFFFFFFFFFFFFFFFFFFFFF0000FFFFFFFF0000FFFFFFFFFFFFFFFFFFFFFFFFFFFFFFFFFFFFFFFFFFFF
310
FF00FF00FFFFFFFF00FF00FFFFFFFFFFFFFFFFFFFFFFFFFFFFFFFFFFFFFFFFFFFF00FF00FFFFFFFF00FF00FFFFFFFFFFFFFFFFFFFFFFFFFFFFFFFFFFFFFFFFFFFF00FF00FFFFFFFF00FF00FFFFFFFFFFFFFFFFFFFFFFFFFFFFFFFFFFFFFFFFFFFF00FF00FFFFFFFF00FF00FFFFFFFFFFFFFFFFFFFFFFFFFFFFFFFFFFFFFFFF
310
FFFF00FF00FFFFFFFFFF0000FFFFFFFFFFFFFFFFFFFFFFFFFFFFFFFFFFFFFFFFFFFF0000FFFFFFFFFFFF0000FFFFFFFFFFFFFFFFFFFFFFFFFFFFFFFFFFFFFFFFFF00FF00FFFFFFFFFFFF00FF00FFFFFFFFFFFFFFFFFFFFFFFFFFFFFFFFFFFFFFFF00FF00FFFFFFFFFFFF00FF00FFFFFFFFFFFFFFFFFFFFFFFFFFFFFFFFFFFF
310
FFFF000000FFFFFFFFFFFF000000FFFFFFFFFFFFFFFFFFFFFFFFFFFFFFFFFFFFFFFFFFFFFFFFFFFFFFFFFFFFFFFFFFFFFFFFFFFFFFFFFFFF
102
{BLKREFS
331
259B
102
}
  0
BLOCK_RECORD
  5
2589
330
227E
100
AcDbSymbolTableRecord
100
AcDbBlockTableRecord
  2
AI9-BLK1
340
0
310
2800000020000000200000000100080000000000000400000000000000000000000000000000000000000000000080000080000000808000800000008000800080800000C0C0C000C0DCC000F0CAA6000020400000206000002080000020A0000020C0000020E00000400000004020000040400000406000004080000040A0
310
000040C0000040E00000600000006020000060400000606000006080000060A0000060C0000060E00000800000008020000080400000806000008080000080A0000080C0000080E00000A0000000A0200000A0400000A0600000A0800000A0A00000A0C00000A0E00000C0000000C0200000C0400000C0600000C0800000C0
310
A00000C0C00000C0E00000E0000000E0200000E0400000E0600000E0800000E0A00000E0C00000E0E00040000000400020004000400040006000400080004000A0004000C0004000E00040200000402020004020400040206000402080004020A0004020C0004020E000404000004040200040404000404060004040800040
310
40A0004040C0004040E00040600000406020004060400040606000406080004060A0004060C0004060E00040800000408020004080400040806000408080004080A0004080C0004080E00040A0000040A0200040A0400040A0600040A0800040A0A00040A0C00040A0E00040C0000040C0200040C0400040C0600040C08000
310
40C0A00040C0C00040C0E00040E0000040E0200040E0400040E0600040E0800040E0A00040E0C00040E0E00080000000800020008000400080006000800080008000A0008000C0008000E00080200000802020008020400080206000802080008020A0008020C0008020E00080400000804020008040400080406000804080
310
008040A0008040C0008040E00080600000806020008060400080606000806080008060A0008060C0008060E00080800000808020008080400080806000808080008080A0008080C0008080E00080A0000080A0200080A0400080A0600080A0800080A0A00080A0C00080A0E00080C0000080C0200080C0400080C0600080C0
310
800080C0A00080C0C00080C0E00080E0000080E0200080E0400080E0600080E0800080E0A00080E0C00080E0E000C0000000C0002000C0004000C0006000C0008000C000A000C000C000C000E000C0200000C0202000C0204000C0206000C0208000C020A000C020C000C020E000C0400000C0402000C0404000C0406000C0
310
408000C040A000C040C000C040E000C0600000C0602000C0604000C0606000C0608000C060A000C060C000C060E000C0800000C0802000C0804000C0806000C0808000C080A000C080C000C080E000C0A00000C0A02000C0A04000C0A06000C0A08000C0A0A000C0A0C000C0A0E000C0C00000C0C02000C0C04000C0C06000
310
C0C08000C0C0A000F0FBFF00A4A0A000808080000000FF0000FF000000FFFF00FF000000FF00FF00FFFF0000FFFFFF00FFFFFFFFFFFFFFFFFFFFFFFFFFFFFFFFFFFFFFFFFFFFFFFFFFFFFFFFFFFFFFFFFFFFFFFFFFFFFFFFFFFFFF00000000000000000000FFFFFFFFFFFFFFFFFFFFFFFFFFFFFFFFFFFFFFFFFFFF00FFFFFF
310
FFFFFFFFFF00FFFFFFFFFFFFFFFFFFFFFFFFFFFFFFFFFFFFFFFFFFFF00FFFFFFFFFFFFFFFF00FFFFFFFFFFFFFFFFFFFFFFFFFFFFFFFFFFFFFFFFFFFF00FFFFFFFFFFFFFFFF00FFFFFFFFFFFFFFFFFFFFFFFFFFFFFFFFFFFFFFFFFFFF00FF0000000000000000FFFFFFFFFFFFFFFFFFFFFFFFFFFFFFFFFFFFFFFFFFFF00FF00
310
FFFFFFFFFFFFFFFFFFFFFFFFFFFFFFFFFFFFFFFFFFFFFFFFFFFFFFFFFF00FF00FFFFFFFFFFFFFFFFFFFFFFFFFFFFFFFFFFFFFFFFFFFFFFFFFFFFFFFFFF00FF00FFFFFFFFFFFFFFFFFFFFFFFFFFFFFFFFFFFFFFFFFFFFFFFFFFFFFFFFFF00FF00FFFFFFFFFFFFFFFFFFFFFFFFFFFFFFFFFFFFFFFFFFFFFFFFFFFFFFFFFF00FF
310
00FFFFFFFFFFFFFFFFFFFFFFFFFFFFFFFFFFFFFFFFFFFFFFFFFFFFFFFFFF00FF00FFFFFFFFFFFFFFFFFFFFFFFFFFFFFFFFFFFFFFFFFFFFFFFFFFFFFFFFFF00FF00FFFFFFFFFFFFFFFFFFFFFFFFFFFFFFFFFFFFFFFFFFFFFFFFFFFFFFFFFF00FF00FFFFFFFFFFFFFFFFFFFFFFFFFFFFFFFFFFFFFFFFFFFFFFFFFFFFFFFFFF00
310
FF00000000000000FFFFFFFFFFFFFFFFFFFFFFFFFFFFFFFFFFFFFFFFFFFFFF00FFFFFFFFFFFFFF00FFFFFFFFFFFFFFFFFFFFFFFFFFFFFFFFFFFFFFFFFFFFFF00FFFFFFFFFFFFFF00FFFFFFFFFFFFFFFFFFFFFFFFFFFFFFFFFFFFFFFFFFFFFF00FFFFFFFFFFFFFF00FFFFFFFFFFFFFFFFFFFFFFFFFFFFFFFFFFFFFFFFFFFFFF
310
00FF00000000000000FFFFFFFFFFFFFFFFFFFFFFFFFFFFFFFFFFFFFFFFFFFFFF00FF00FFFFFFFFFFFFFFFFFFFFFFFFFFFFFFFFFFFFFFFFFFFFFFFFFFFFFFFFFF00FF00FFFFFFFFFFFFFFFFFFFFFFFFFFFFFFFFFFFFFFFFFFFFFFFFFFFFFFFFFF00FF00FFFFFFFFFFFFFFFFFFFFFFFFFFFFFFFFFFFFFFFFFFFFFFFFFFFFFFFF
310
FF00FF00FFFFFFFFFFFFFFFFFFFFFFFFFFFFFFFFFFFFFFFFFFFFFFFFFFFFFFFFFF00FF00FFFFFFFFFFFFFFFFFFFFFFFFFFFFFFFFFFFFFFFFFFFFFFFFFFFFFFFFFF00FF00FFFFFFFFFFFFFFFFFFFFFFFFFFFFFFFFFFFFFFFFFFFFFFFFFFFFFFFFFF00FF00FFFFFFFFFFFFFFFFFFFFFFFFFFFFFFFFFFFFFFFFFFFFFFFFFFFFFF
310
FFFF00FF0000000000000000FFFFFFFFFFFFFFFFFFFFFFFFFFFFFFFFFFFFFFFFFFFF00FFFFFFFFFFFFFFFF00FFFFFFFFFFFFFFFFFFFFFFFFFFFFFFFFFFFFFFFFFFFF00FFFFFFFFFFFFFFFF00FFFFFFFFFFFFFFFFFFFFFFFFFFFFFFFFFFFFFFFFFFFF00FFFFFFFFFFFFFFFF00FFFFFFFFFFFFFFFFFFFFFFFFFFFFFFFFFFFFFF
310
FFFFFF00000000000000000000FFFFFFFFFFFFFFFFFFFFFFFFFFFFFFFFFFFFFFFFFFFFFFFFFFFFFFFFFFFFFFFFFFFFFFFFFFFFFFFFFFFFFF
102
{BLKREFS
331
259C
102
}
  0
BLOCK_RECORD
  5
258E
330
227E
100
AcDbSymbolTableRecord
100
AcDbBlockTableRecord
  2
HD_LLC_logo_OT5
340
0
310
2800000020000000200000000100080000000000000400000000000000000000000000000000000000000000000080000080000000808000800000008000800080800000C0C0C000C0DCC000F0CAA6000020400000206000002080000020A0000020C0000020E00000400000004020000040400000406000004080000040A0
310
000040C0000040E00000600000006020000060400000606000006080000060A0000060C0000060E00000800000008020000080400000806000008080000080A0000080C0000080E00000A0000000A0200000A0400000A0600000A0800000A0A00000A0C00000A0E00000C0000000C0200000C0400000C0600000C0800000C0
310
A00000C0C00000C0E00000E0000000E0200000E0400000E0600000E0800000E0A00000E0C00000E0E00040000000400020004000400040006000400080004000A0004000C0004000E00040200000402020004020400040206000402080004020A0004020C0004020E000404000004040200040404000404060004040800040
310
40A0004040C0004040E00040600000406020004060400040606000406080004060A0004060C0004060E00040800000408020004080400040806000408080004080A0004080C0004080E00040A0000040A0200040A0400040A0600040A0800040A0A00040A0C00040A0E00040C0000040C0200040C0400040C0600040C08000
310
40C0A00040C0C00040C0E00040E0000040E0200040E0400040E0600040E0800040E0A00040E0C00040E0E00080000000800020008000400080006000800080008000A0008000C0008000E00080200000802020008020400080206000802080008020A0008020C0008020E00080400000804020008040400080406000804080
310
008040A0008040C0008040E00080600000806020008060400080606000806080008060A0008060C0008060E00080800000808020008080400080806000808080008080A0008080C0008080E00080A0000080A0200080A0400080A0600080A0800080A0A00080A0C00080A0E00080C0000080C0200080C0400080C0600080C0
310
800080C0A00080C0C00080C0E00080E0000080E0200080E0400080E0600080E0800080E0A00080E0C00080E0E000C0000000C0002000C0004000C0006000C0008000C000A000C000C000C000E000C0200000C0202000C0204000C0206000C0208000C020A000C020C000C020E000C0400000C0402000C0404000C0406000C0
310
408000C040A000C040C000C040E000C0600000C0602000C0604000C0606000C0608000C060A000C060C000C060E000C0800000C0802000C0804000C0806000C0808000C080A000C080C000C080E000C0A00000C0A02000C0A04000C0A06000C0A08000C0A0A000C0A0C000C0A0E000C0C00000C0C02000C0C04000C0C06000
310
C0C08000C0C0A000F0FBFF00A4A0A000808080000000FF0000FF000000FFFF00FF000000FF00FF00FFFF0000FFFFFF00FFFFFFFFFFFFFFFFFFFFFFFFFFFFFFFFFFFFFFFFFFFFFFFFFFFFFFFFFFFFFFFFFFFFFFFFFFFFFFFFFFFFFFFFFFFFFFFFFFFFFFFFFFFFFFFFFFFFFFFFFFFFFFFFFFFFFFFFFFFFFFFFFFFFFFFFFFFFFF
310
FFFFFFFFFFFFFFFFFFFFFFFFFFFFFFFFFFFFFFFFFFFFFFFFFFFFFFFFFFFFFFFFFFFFFFFFFFFFFFFFFFFFFFFFFFFFFFFFFFFFFFFFFFFFFFFFFFFFFFFFFFFFFFFFFFFFFFFFFFFFFFFFFFFFFFFFFFFFFFFFFFFFFFFFFFFFFFFFFFFFFFFFFFFFFFFFFFFFFFFFFFFFFFFFFFFFFFFFFFFFFFFFFFFFFFFFFFFFFFFFFFFFFFFFFFFFFF
310
FFFFFFFFFFFFFFFFFFFFFFFFFFFFFFFFFFFFFFFFFFFFFFFFFFFFFFFFFFFFFFFFFFFFFFFFFFFFFFFFFFFFFFFFFFFFFFFFFFFFFFFFFFFFFFFFFFFFFFFFFFFFFFFFFFFFFFFFFFFFFFFFFFFFFFFFFFFFFFFFFFFFFFFFFFFFFFFFFFFFFFFFFFFFFFFFFFFFFFFFFFFFFFFFFFFFFFFFFFFFFFFFFFFFFFFFFFFFFFFFFFFFFFFFFFFFFF
310
FFFFFFFFFFFFFFFFFFFFFFFFFFFFFFFFFFFFFFFFFFFFFFFFFFFFFFFFFFFFFFFFFFFFFFFFFFFFFFFFFFFFFFFFFFFFFFFFFFFFFFFF0000000000000000000000000000000000000000000000000000000000FFFFFF0000000000000000000000000000000000FFFFFFFFFFFFFFFFFFFF0000FFFFFF0000000000000000000000
310
00000000000000FFFFFFFFFFFFFFFFFFFF0000FFFF000000000000000000000000000000000000FFFFFF00000000FFFFFF0000FFFF00FFFFFFFFFFFF00FFFFFF00FFFFFFFFFF00FFFFFF0000000000FFFF0000FFFF00FFFFFFFFFFFF00FFFFFF00FFFFFFFFFF00FFFFFF00FFFF0000FFFF0000FFFF00FFFFFFFFFFFF00FFFF
310
00FFFFFFFFFFFF00FFFFFF00FFFF0000FFFF0000FFFF0000000000FFFF00000000FFFFFF00000000FFFFFF00000000FFFFFF0000FFFFFFFFFFFF00FFFFFFFFFFFFFFFFFF00FFFFFFFFFFFFFFFFFFFFFFFFFF0000FFFFFFFFFFFF00FFFFFFFFFFFFFFFFFF00FFFFFFFFFFFFFFFFFFFFFFFFFF0000FFFFFFFFFFFF00FFFFFFFF
310
FFFFFFFFFF00FFFFFFFFFFFFFFFFFFFFFFFF0000FFFFFF0000000000FFFF00000000FFFFFF0000000000000000000000000000FFFFFFFF00FFFFFFFFFFFF00FFFF00FFFFFFFFFFFF00FFFFFFFFFFFFFFFFFFFFFFFFFFFF00FFFFFFFFFFFF00FFFFFF00FFFFFFFFFF00FFFFFFFFFFFFFFFFFFFFFFFFFFFF0000000000000000
310
FFFFFF00000000000000FFFFFFFFFFFFFFFFFFFFFFFFFFFFFFFFFFFFFFFFFFFFFFFFFFFFFFFFFFFFFFFFFFFFFFFFFFFFFFFFFFFFFFFFFFFFFFFFFFFFFFFFFFFFFFFFFFFFFFFFFFFFFFFFFFFFFFFFFFFFFFFFFFFFFFFFFFFFFFFFFFFFFFFFFFFFFFFFFFFFFFFFFFFFFFFFFFFFFFFFFFFFFFFFFFFFFFFFFFFFFFFFFFFFFFFFFF
310
FFFFFFFFFFFFFFFFFFFFFFFFFFFFFFFFFFFFFFFFFFFFFFFFFFFFFFFFFFFFFFFFFFFFFFFFFFFFFFFFFFFFFFFFFFFFFFFFFFFFFFFFFFFFFFFF
102
{BLKREFS
331
25B4
102
}
  0
BLOCK_RECORD
  5
25B3
330
227E
100
AcDbSymbolTableRecord
100
AcDbBlockTableRecord
  2
HD logo-new
340
0
310
2800000020000000200000000100080000000000000400000000000000000000000000000000000000000000000080000080000000808000800000008000800080800000C0C0C000C0DCC000F0CAA6000020400000206000002080000020A0000020C0000020E00000400000004020000040400000406000004080000040A0
310
000040C0000040E00000600000006020000060400000606000006080000060A0000060C0000060E00000800000008020000080400000806000008080000080A0000080C0000080E00000A0000000A0200000A0400000A0600000A0800000A0A00000A0C00000A0E00000C0000000C0200000C0400000C0600000C0800000C0
310
A00000C0C00000C0E00000E0000000E0200000E0400000E0600000E0800000E0A00000E0C00000E0E00040000000400020004000400040006000400080004000A0004000C0004000E00040200000402020004020400040206000402080004020A0004020C0004020E000404000004040200040404000404060004040800040
310
40A0004040C0004040E00040600000406020004060400040606000406080004060A0004060C0004060E00040800000408020004080400040806000408080004080A0004080C0004080E00040A0000040A0200040A0400040A0600040A0800040A0A00040A0C00040A0E00040C0000040C0200040C0400040C0600040C08000
310
40C0A00040C0C00040C0E00040E0000040E0200040E0400040E0600040E0800040E0A00040E0C00040E0E00080000000800020008000400080006000800080008000A0008000C0008000E00080200000802020008020400080206000802080008020A0008020C0008020E00080400000804020008040400080406000804080
310
008040A0008040C0008040E00080600000806020008060400080606000806080008060A0008060C0008060E00080800000808020008080400080806000808080008080A0008080C0008080E00080A0000080A0200080A0400080A0600080A0800080A0A00080A0C00080A0E00080C0000080C0200080C0400080C0600080C0
310
800080C0A00080C0C00080C0E00080E0000080E0200080E0400080E0600080E0800080E0A00080E0C00080E0E000C0000000C0002000C0004000C0006000C0008000C000A000C000C000C000E000C0200000C0202000C0204000C0206000C0208000C020A000C020C000C020E000C0400000C0402000C0404000C0406000C0
310
408000C040A000C040C000C040E000C0600000C0602000C0604000C0606000C0608000C060A000C060C000C060E000C0800000C0802000C0804000C0806000C0808000C080A000C080C000C080E000C0A00000C0A02000C0A04000C0A06000C0A08000C0A0A000C0A0C000C0A0E000C0C00000C0C02000C0C04000C0C06000
310
C0C08000C0C0A000F0FBFF00A4A0A000808080000000FF0000FF000000FFFF00FF000000FF00FF00FFFF0000FFFFFF00FFFFFFFFFFFFFFFFFFFFFFFFFFFFFFFFFFFFFFFFFFFFFFFFFFFFFFFFFFFFFFFFFFFFFFFFFFFFFFFFFFFFFFFFFFFFFFFFFFFFFFFFFFFFFFFFFFFFFFFFFFFFFFFFFFFFFFFFFFFFFFFFFFFFFFFFFFFFFF
310
FFFFFFFFFFFFFFFFFFFFFFFFFFFFFFFFFFFFFFFFFFFFFFFFFFFFFFFFFFFFFFFFFFFFFFFFFFFFFFFFFFFFFFFFFFFFFFFFFFFFFFFFFFFFFFFFFFFFFFFFFFFFFFFFFFFFFFFFFFFFFFFFFFFFFFFFFFFFFFFFFFFFFFFFFFFFFFFFFFFFFFFFFFFFFFFFFFFFFFFFFFFFFFFFFFFFFFFFFFFFFFFFFFFFFFFFFFFFFFFFFFFFFFFFFFFFFF
310
FFFFFFFFFFFFFFFFFFFFFFFFFFFFFFFFFFFFFFFFFFFFFFFFFFFFFFFFFFFFFFFFFFFFFFFFFFFFFFFFFFFFFFFFFFFFFFFFFFFFFFFFFFFFFFFFFFFFFFFFFFFFFFFFFFFFFFFFFFFFFFFFFFFFFFFFFFFFFFFFFFFFFFFFFFFFFFFFFFFFFFFFFFFFFFFFFFFFFFFFFFFFFFFFFFFFFFFFFFFFFFFFFFFFFFFFFFFFFFFFFFFFFFFFFFFFFF
310
FFFFFFFFFFFFFFFFFFFFFFFFFFFFFFFFFFFFFFFFFFFFFFFFFFFFFFFFFFFFFFFFFFFFFFFFFFFFFFFFFFFFFFFFFFFFFFFFFFFFFFFF0000000000000000000000000000000000000000000000000000000000FFFFFF0000000000000000000000000000000000FFFFFFFFFFFFFFFFFFFF0000FFFFFF0000000000000000000000
310
00000000000000FFFFFFFFFFFFFFFFFFFF0000FFFF000000000000000000000000000000000000FFFFFF00000000FFFFFF0000FFFF00FFFFFFFFFFFF00FFFFFF00FFFFFFFFFF00FFFFFF0000000000FFFF0000FFFF00FFFFFFFFFFFF00FFFFFF00FFFFFFFFFF00FFFFFF00FFFF0000FFFF0000FFFF00FFFFFFFFFFFF00FFFF
310
00FFFFFFFFFFFF00FFFFFF00FFFF0000FFFF0000FFFF0000000000FFFF00000000FFFFFF00000000FFFFFF00000000FFFFFF0000FFFFFFFFFFFF00FFFFFFFFFFFFFFFFFF00FFFFFFFFFFFFFFFFFFFFFFFFFF0000FFFFFFFFFFFF00FFFFFFFFFFFFFFFFFF00FFFFFFFFFFFFFFFFFFFFFFFFFF0000FFFFFFFFFFFF00FFFFFFFF
310
FFFFFFFFFF00FFFFFFFFFFFFFFFFFFFFFFFF0000FFFFFF0000000000FFFF00000000FFFFFF0000000000000000000000000000FFFFFFFF00FFFFFFFFFFFF00FFFF00FFFFFFFFFFFF00FFFFFFFFFFFFFFFFFFFFFFFFFFFF00FFFFFFFFFFFF00FFFFFF00FFFFFFFFFF00FFFFFFFFFFFFFFFFFFFFFFFFFFFF0000000000000000
310
FFFFFF00000000000000FFFFFFFFFFFFFFFFFFFFFFFFFFFFFFFFFFFFFFFFFFFFFFFFFFFFFFFFFFFFFFFFFFFFFFFFFFFFFFFFFFFFFFFFFFFFFFFFFFFFFFFFFFFFFFFFFFFFFFFFFFFFFFFFFFFFFFFFFFFFFFFFFFFFFFFFFFFFFFFFFFFFFFFFFFFFFFFFFFFFFFFFFFFFFFFFFFFFFFFFFFFFFFFFFFFFFFFFFFFFFFFFFFFFFFFFFF
310
FFFFFFFFFFFFFFFFFFFFFFFFFFFFFFFFFFFFFFFFFFFFFFFFFFFFFFFFFFFFFFFFFFFFFFFFFFFFFFFFFFFFFFFFFFFFFFFFFFFFFFFFFFFFFFFF
102
{BLKREFS
331
25B8
102
}
  0
BLOCK_RECORD
  5
25B7
330
227E
100
AcDbSymbolTableRecord
100
AcDbBlockTableRecord
  2
HD Logo
340
0
310
2800000020000000200000000100080000000000000400000000000000000000000000000000000000000000000080000080000000808000800000008000800080800000C0C0C000C0DCC000F0CAA6000020400000206000002080000020A0000020C0000020E00000400000004020000040400000406000004080000040A0
310
000040C0000040E00000600000006020000060400000606000006080000060A0000060C0000060E00000800000008020000080400000806000008080000080A0000080C0000080E00000A0000000A0200000A0400000A0600000A0800000A0A00000A0C00000A0E00000C0000000C0200000C0400000C0600000C0800000C0
310
A00000C0C00000C0E00000E0000000E0200000E0400000E0600000E0800000E0A00000E0C00000E0E00040000000400020004000400040006000400080004000A0004000C0004000E00040200000402020004020400040206000402080004020A0004020C0004020E000404000004040200040404000404060004040800040
310
40A0004040C0004040E00040600000406020004060400040606000406080004060A0004060C0004060E00040800000408020004080400040806000408080004080A0004080C0004080E00040A0000040A0200040A0400040A0600040A0800040A0A00040A0C00040A0E00040C0000040C0200040C0400040C0600040C08000
310
40C0A00040C0C00040C0E00040E0000040E0200040E0400040E0600040E0800040E0A00040E0C00040E0E00080000000800020008000400080006000800080008000A0008000C0008000E00080200000802020008020400080206000802080008020A0008020C0008020E00080400000804020008040400080406000804080
310
008040A0008040C0008040E00080600000806020008060400080606000806080008060A0008060C0008060E00080800000808020008080400080806000808080008080A0008080C0008080E00080A0000080A0200080A0400080A0600080A0800080A0A00080A0C00080A0E00080C0000080C0200080C0400080C0600080C0
310
800080C0A00080C0C00080C0E00080E0000080E0200080E0400080E0600080E0800080E0A00080E0C00080E0E000C0000000C0002000C0004000C0006000C0008000C000A000C000C000C000E000C0200000C0202000C0204000C0206000C0208000C020A000C020C000C020E000C0400000C0402000C0404000C0406000C0
310
408000C040A000C040C000C040E000C0600000C0602000C0604000C0606000C0608000C060A000C060C000C060E000C0800000C0802000C0804000C0806000C0808000C080A000C080C000C080E000C0A00000C0A02000C0A04000C0A06000C0A08000C0A0A000C0A0C000C0A0E000C0C00000C0C02000C0C04000C0C06000
310
C0C08000C0C0A000F0FBFF00A4A0A000808080000000FF0000FF000000FFFF00FF000000FF00FF00FFFF0000FFFFFF00FFFFFFFFFFFFFFFFFFFFFFFFFFFFFFFFFFFFFFFFFFFFFFFFFFFFFFFFFFFFFFFFFFFFFFFFFFFFFFFFFFFFFFFFFFFFFFFFFFFFFFFFFFFFFFFFFFFFFFFFFFFFFFFFFFFFFFFFFFFFFFFFFFFFFFFFFFFFFF
310
FFFFFFFFFFFFFFFFFFFFFFFFFFFFFFFFFFFFFFFFFFFFFFFFFFFFFFFFFFFFFFFFFFFFFFFFFFFFFFFFFFFFFFFFFFFFFFFFFFFFFFFFFFFFFFFFFFFFFFFFFFFFFFFFFFFFFFFFFFFFFFFFFFFFFFFFFFFFFFFFFFFFFFFFFFFFFFFFFFFFFFFFFFFFFFFFFFFFFFFFFFFFFFFFFFFFFFFFFFFFFFFFFFFFFFFFFFFFFFFFFFFFFFFFFFFFFF
310
FFFFFFFFFFFFFFFFFFFFFFFFFFFFFFFFFFFFFFFFFFFFFFFFFFFFFFFFFFFFFFFFFFFFFFFFFFFFFFFFFFFFFFFFFFFFFFFFFFFFFFFFFFFFFFFFFFFFFFFFFFFFFFFFFFFFFFFFFFFFFFFFFFFFFFFFFFFFFFFFFFFFFFFFFFFFFFFFFFFFFFFFFFFFFFFFFFFFFFFFFFFFFFFFFFFFFFFFFFFFFFFFFFFFFFFFFFFFFFFFFFFFFFFFFFFFFF
310
FFFFFFFFFFFFFFFFFFFFFFFFFFFFFFFFFFFFFFFFFFFFFFFFFFFFFFFFFFFFFFFFFFFFFFFFFFFFFFFFFFFFFFFFFFFFFFFFFFFFFFFF0000000000000000000000000000000000000000000000000000000000FFFFFF0000000000000000000000000000000000FFFFFFFFFFFFFFFFFFFF0000FFFFFF0000000000000000000000
310
00000000000000FFFFFFFFFFFFFFFFFFFF0000FFFF000000000000000000000000000000000000FFFFFF00000000FFFFFF0000FFFF00FFFFFFFFFFFF00FFFFFF00FFFFFFFFFF00FFFFFF0000000000FFFF0000FFFF00FFFFFFFFFFFF00FFFFFF00FFFFFFFFFF00FFFFFF00FFFF0000FFFF0000FFFF00FFFFFFFFFFFF00FFFF
310
00FFFFFFFFFFFF00FFFFFF00FFFF0000FFFF0000FFFF0000000000FFFF00000000FFFFFF00000000FFFFFF00000000FFFFFF0000FFFFFFFFFFFF00FFFFFFFFFFFFFFFFFF00FFFFFFFFFFFFFFFFFFFFFFFFFF0000FFFFFFFFFFFF00FFFFFFFFFFFFFFFFFF00FFFFFFFFFFFFFFFFFFFFFFFFFF0000FFFFFFFFFFFF00FFFFFFFF
310
FFFFFFFFFF00FFFFFFFFFFFFFFFFFFFFFFFF0000FFFFFF0000000000FFFF00000000FFFFFF0000000000000000000000000000FFFFFFFF00FFFFFFFFFFFF00FFFF00FFFFFFFFFFFF00FFFFFFFFFFFFFFFFFFFFFFFFFFFF00FFFFFFFFFFFF00FFFFFF00FFFFFFFFFF00FFFFFFFFFFFFFFFFFFFFFFFFFFFF0000000000000000
310
FFFFFF00000000000000FFFFFFFFFFFFFFFFFFFFFFFFFFFFFFFFFFFFFFFFFFFFFFFFFFFFFFFFFFFFFFFFFFFFFFFFFFFFFFFFFFFFFFFFFFFFFFFFFFFFFFFFFFFFFFFFFFFFFFFFFFFFFFFFFFFFFFFFFFFFFFFFFFFFFFFFFFFFFFFFFFFFFFFFFFFFFFFFFFFFFFFFFFFFFFFFFFFFFFFFFFFFFFFFFFFFFFFFFFFFFFFFFFFFFFFFFF
310
FFFFFFFFFFFFFFFFFFFFFFFFFFFFFFFFFFFFFFFFFFFFFFFFFFFFFFFFFFFFFFFFFFFFFFFFFFFFFFFFFFFFFFFFFFFFFFFFFFFFFFFFFFFFFFFF
102
{BLKREFS
331
25BE
331
25C2
102
}
  0
BLOCK_RECORD
  5
25C3
330
227E
100
AcDbSymbolTableRecord
100
AcDbBlockTableRecord
  2
Harmonic Drive LLC
340
0
310
2800000020000000200000000100080000000000000400000000000000000000000000000000000000000000000080000080000000808000800000008000800080800000C0C0C000C0DCC000F0CAA6000020400000206000002080000020A0000020C0000020E00000400000004020000040400000406000004080000040A0
310
000040C0000040E00000600000006020000060400000606000006080000060A0000060C0000060E00000800000008020000080400000806000008080000080A0000080C0000080E00000A0000000A0200000A0400000A0600000A0800000A0A00000A0C00000A0E00000C0000000C0200000C0400000C0600000C0800000C0
310
A00000C0C00000C0E00000E0000000E0200000E0400000E0600000E0800000E0A00000E0C00000E0E00040000000400020004000400040006000400080004000A0004000C0004000E00040200000402020004020400040206000402080004020A0004020C0004020E000404000004040200040404000404060004040800040
310
40A0004040C0004040E00040600000406020004060400040606000406080004060A0004060C0004060E00040800000408020004080400040806000408080004080A0004080C0004080E00040A0000040A0200040A0400040A0600040A0800040A0A00040A0C00040A0E00040C0000040C0200040C0400040C0600040C08000
310
40C0A00040C0C00040C0E00040E0000040E0200040E0400040E0600040E0800040E0A00040E0C00040E0E00080000000800020008000400080006000800080008000A0008000C0008000E00080200000802020008020400080206000802080008020A0008020C0008020E00080400000804020008040400080406000804080
310
008040A0008040C0008040E00080600000806020008060400080606000806080008060A0008060C0008060E00080800000808020008080400080806000808080008080A0008080C0008080E00080A0000080A0200080A0400080A0600080A0800080A0A00080A0C00080A0E00080C0000080C0200080C0400080C0600080C0
310
800080C0A00080C0C00080C0E00080E0000080E0200080E0400080E0600080E0800080E0A00080E0C00080E0E000C0000000C0002000C0004000C0006000C0008000C000A000C000C000C000E000C0200000C0202000C0204000C0206000C0208000C020A000C020C000C020E000C0400000C0402000C0404000C0406000C0
310
408000C040A000C040C000C040E000C0600000C0602000C0604000C0606000C0608000C060A000C060C000C060E000C0800000C0802000C0804000C0806000C0808000C080A000C080C000C080E000C0A00000C0A02000C0A04000C0A06000C0A08000C0A0A000C0A0C000C0A0E000C0C00000C0C02000C0C04000C0C06000
310
C0C08000C0C0A000F0FBFF00A4A0A000808080000000FF0000FF000000FFFF00FF000000FF00FF00FFFF0000FFFFFF00FFFFFFFFFFFFFFFFFFFFFFFFFFFFFFFFFFFFFFFFFFFFFFFFFFFFFFFFFFFFFFFFFFFFFFFFFFFFFFFFFFFFFFFFFFFFFFFFFFFFFFFFFFFFFFFFFFFFFFFFFFFFFFFFFFFFFFFFFFFFFFFFFFFFFFFFFFFFFF
310
FFFFFFFFFFFFFFFFFFFFFFFFFFFFFFFFFFFFFFFFFFFFFFFFFFFFFFFFFFFFFFFFFFFFFFFFFFFFFFFFFFFFFFFFFFFFFFFFFFFFFFFFFFFFFFFFFFFFFFFFFFFFFFFFFFFFFFFFFFFFFFFFFFFFFFFFFFFFFFFFFFFFFFFFFFFFFFFFFFFFFFFFFFFFFFFFFFFFFFFFFFFFFFFFFFFFFFFFFFFFFFFFFFFFFFFFFFFFFFFFFFFFFFFFFFFFFF
310
FFFFFFFFFFFFFFFFFFFFFFFFFFFFFFFFFFFFFFFFFFFFFFFFFFFFFFFFFFFFFFFFFFFFFFFFFFFFFFFFFFFFFFFFFFFFFFFFFFFFFFFFFFFFFFFFFFFFFFFFFFFFFFFFFFFFFFFFFFFFFFFFFFFFFFFFFFFFFFFFFFFFFFFFFFFFFFFFFFFFFFFFFFFFFFFFFFFFFFFFFFFFFFFFFFFFFFFFFFFFFFFFFFFFFFFFFFFFFFFFFFFFFFFFFFFFFF
310
FFFFFFFFFFFFFFFFFFFFFFFFFFFFFFFFFFFFFFFFFFFFFFFFFFFFFFFFFFFFFFFFFFFFFFFFFFFFFFFFFFFFFFFFFFFFFFFFFFFFFFFFFFFFFFFFFFFFFFFFFFFFFFFFFFFFFFFFFFFFFFFFFFFFFFFFFFFFFFFFFFFFFFFFFFFFFFFFFFFFFFFF0000000000000000000000000000FFFFFFFFFFFFFFFFFFFFFFFFFFFFFFFFFFFF000000
310
0000000000000000000000FFFFFFFFFFFFFFFFFFFFFFFFFFFFFFFFFFFFFFFFFF000000000000000000FFFFFFFFFFFFFFFFFFFFFFFFFFFFFFFFFFFFFFFFFFFFFF000000000000000000FFFFFFFFFFFFFFFFFFFFFFFFFFFFFFFFFFFFFFFFFF000000000000000000000000FFFFFFFFFFFFFFFFFFFFFFFFFFFFFFFFFFFFFFFF00
310
FFFFFF00FF0000FF000000FFFFFFFFFFFFFFFFFFFFFFFFFFFFFFFFFFFFFFFFFFFFFFFFFFFFFFFFFFFFFFFFFFFFFFFFFFFFFFFFFFFFFFFFFFFFFFFFFFFFFFFFFFFFFFFFFFFFFFFFFFFFFFFFFFFFFFFFFFFFFFFFFFFFFFFFFFFFFFFFFFFFFFFFFFFFFFFFFFFFFFFFFFFFFFFFFFFFFFFFFFFFFFFFFFFFFFFFFFFFFFFFFFFFFFFF
310
FFFFFFFFFFFFFFFFFFFFFFFFFFFFFFFFFFFFFFFFFFFFFFFFFFFFFFFFFFFFFFFFFFFFFFFFFFFFFFFFFFFFFFFFFFFFFFFFFFFFFFFFFFFFFFFFFFFFFFFFFFFFFFFFFFFFFFFFFFFFFFFFFFFFFFFFFFFFFFFFFFFFFFFFFFFFFFFFFFFFFFFFFFFFFFFFFFFFFFFFFFFFFFFFFFFFFFFFFFFFFFFFFFFFFFFFFFFFFFFFFFFFFFFFFFFFFF
310
FFFFFFFFFFFFFFFFFFFFFFFFFFFFFFFFFFFFFFFFFFFFFFFFFFFFFFFFFFFFFFFFFFFFFFFFFFFFFFFFFFFFFFFFFFFFFFFFFFFFFFFFFFFFFFFFFFFFFFFFFFFFFFFFFFFFFFFFFFFFFFFFFFFFFFFFFFFFFFFFFFFFFFFFFFFFFFFFFFFFFFFFFFFFFFFFFFFFFFFFFFFFFFFFFFFFFFFFFFFFFFFFFFFFFFFFFFFFFFFFFFFFFFFFFFFFFF
310
FFFFFFFFFFFFFFFFFFFFFFFFFFFFFFFFFFFFFFFFFFFFFFFFFFFFFFFFFFFFFFFFFFFFFFFFFFFFFFFFFFFFFFFFFFFFFFFFFFFFFFFFFFFFFFFF
102
{BLKREFS
331
25C8
331
25CD
102
}
  0
BLOCK_RECORD
  5
25D6
330
227E
100
AcDbSymbolTableRecord
100
AcDbBlockTableRecord
  2
HD LLC
340
0
310
2800000020000000200000000100080000000000000400000000000000000000000000000000000000000000000080000080000000808000800000008000800080800000C0C0C000C0DCC000F0CAA6000020400000206000002080000020A0000020C0000020E00000400000004020000040400000406000004080000040A0
310
000040C0000040E00000600000006020000060400000606000006080000060A0000060C0000060E00000800000008020000080400000806000008080000080A0000080C0000080E00000A0000000A0200000A0400000A0600000A0800000A0A00000A0C00000A0E00000C0000000C0200000C0400000C0600000C0800000C0
310
A00000C0C00000C0E00000E0000000E0200000E0400000E0600000E0800000E0A00000E0C00000E0E00040000000400020004000400040006000400080004000A0004000C0004000E00040200000402020004020400040206000402080004020A0004020C0004020E000404000004040200040404000404060004040800040
310
40A0004040C0004040E00040600000406020004060400040606000406080004060A0004060C0004060E00040800000408020004080400040806000408080004080A0004080C0004080E00040A0000040A0200040A0400040A0600040A0800040A0A00040A0C00040A0E00040C0000040C0200040C0400040C0600040C08000
310
40C0A00040C0C00040C0E00040E0000040E0200040E0400040E0600040E0800040E0A00040E0C00040E0E00080000000800020008000400080006000800080008000A0008000C0008000E00080200000802020008020400080206000802080008020A0008020C0008020E00080400000804020008040400080406000804080
310
008040A0008040C0008040E00080600000806020008060400080606000806080008060A0008060C0008060E00080800000808020008080400080806000808080008080A0008080C0008080E00080A0000080A0200080A0400080A0600080A0800080A0A00080A0C00080A0E00080C0000080C0200080C0400080C0600080C0
310
800080C0A00080C0C00080C0E00080E0000080E0200080E0400080E0600080E0800080E0A00080E0C00080E0E000C0000000C0002000C0004000C0006000C0008000C000A000C000C000C000E000C0200000C0202000C0204000C0206000C0208000C020A000C020C000C020E000C0400000C0402000C0404000C0406000C0
310
408000C040A000C040C000C040E000C0600000C0602000C0604000C0606000C0608000C060A000C060C000C060E000C0800000C0802000C0804000C0806000C0808000C080A000C080C000C080E000C0A00000C0A02000C0A04000C0A06000C0A08000C0A0A000C0A0C000C0A0E000C0C00000C0C02000C0C04000C0C06000
310
C0C08000C0C0A000F0FBFF00A4A0A000808080000000FF0000FF000000FFFF00FF000000FF00FF00FFFF0000FFFFFF00FFFFFFFFFFFFFFFFFFFFFFFFFFFFFFFFFFFFFFFFFFFFFFFFFFFFFFFFFFFFFFFFFFFFFFFFFFFFFFFFFFFFFFFFFFFFFFFFFFFFFFFFFFFFFFFFFFFFFFFFFFFFFFFFFFFFFFFFFFFFFFFFFFFFFFFFFFFFFF
310
FFFFFFFFFFFFFFFFFFFFFFFFFFFFFFFFFFFFFFFFFFFFFFFFFFFFFFFFFFFFFFFFFFFFFFFFFFFFFFFFFFFFFFFFFFFFFFFFFFFFFFFFFFFFFFFFFFFFFFFFFFFFFFFFFFFFFFFFFFFFFFFFFFFFFFFFFFFFFFFFFFFFFFFFFFFFFFFFFFFFFFFFFFFFFFFFFFFFFFFFFFFFFFFFFFFFFFFFFFFFFFFFFFFFFFFFFFFFFFFFFFFFFFFFFFFFFF
310
FFFFFFFFFFFFFFFFFFFFFFFFFFFFFFFFFFFFFFFFFFFFFFFFFFFFFFFFFFFFFFFFFFFFFFFFFFFFFFFFFFFFFFFFFFFFFFFFFFFFFFFFFFFFFFFFFFFFFFFFFFFFFFFFFFFFFFFFFFFFFFFFFFFFFFFFFFFFFFFFFFFFFFFFFFFFFFFFFFFFFFFFFFFFFFFFFFFFFFFFFFFFFFFFFFFFFFFFFFFFFFFFFFFFFFFFFFFFFFFFFFFFFFFFFFFFFF
310
FFFFFFFFFFFFFFFFFFFFFFFFFFFFFFFFFFFFFFFFFFFFFFFFFFFFFFFFFFFFFFFFFFFFFFFFFFFFFFFFFFFFFFFFFFFFFFFFFFFFFFFFFFFFFFFFFFFFFFFFFFFFFFFFFFFFFFFFFFFFFFFFFFFFFFFFFFFFFFFFFFFFFFFFFFFFFFFFFFFFFFFFFFFFFFFFFFFFFFFFFFFFFFFFFFFFFFFFFFFFFFFFFFFFFFFFFFFFFFFFFFFFFFFFFFFF00
310
000000000000000000FFFFFFFFFFFFFFFFFFFFFFFFFFFFFFFFFFFFFFFFFFFF00000000000000000000FFFFFFFFFFFFFFFFFFFFFFFFFFFFFFFFFFFFFFFFFFFF00000000000000000000FFFFFFFFFFFFFFFFFFFFFFFFFFFFFFFFFFFFFFFFFFFF00000000000000000000FFFFFFFFFFFFFFFFFFFFFFFFFFFFFFFFFFFFFFFFFFFF
310
FFFFFFFFFFFFFFFFFFFFFFFFFFFFFFFFFFFFFFFFFFFFFFFFFFFFFFFFFFFFFFFFFFFFFFFFFFFFFFFFFFFFFFFFFFFFFFFFFFFFFFFFFFFFFFFFFFFFFFFFFFFFFFFFFFFFFFFFFFFFFFFFFFFFFFFFFFFFFFFFFFFFFFFFFFFFFFFFFFFFFFFFFFFFFFFFFFFFFFFFFFFFFFFFFFFFFFFFFFFFFFFFFFFFFFFFFFFFFFFFFFFFFFFFFFFFFF
310
FFFFFFFFFFFFFFFFFFFFFFFFFFFFFFFFFFFFFFFFFFFFFFFFFFFFFFFFFFFFFFFFFFFFFFFFFFFFFFFFFFFFFFFFFFFFFFFFFFFFFFFFFFFFFFFFFFFFFFFFFFFFFFFFFFFFFFFFFFFFFFFFFFFFFFFFFFFFFFFFFFFFFFFFFFFFFFFFFFFFFFFFFFFFFFFFFFFFFFFFFFFFFFFFFFFFFFFFFFFFFFFFFFFFFFFFFFFFFFFFFFFFFFFFFFFFFF
310
FFFFFFFFFFFFFFFFFFFFFFFFFFFFFFFFFFFFFFFFFFFFFFFFFFFFFFFFFFFFFFFFFFFFFFFFFFFFFFFFFFFFFFFFFFFFFFFFFFFFFFFFFFFFFFFFFFFFFFFFFFFFFFFFFFFFFFFFFFFFFFFFFFFFFFFFFFFFFFFFFFFFFFFFFFFFFFFFFFFFFFFFFFFFFFFFFFFFFFFFFFFFFFFFFFFFFFFFFFFFFFFFFFFFFFFFFFFFFFFFFFFFFFFFFFFFFF
310
FFFFFFFFFFFFFFFFFFFFFFFFFFFFFFFFFFFFFFFFFFFFFFFFFFFFFFFFFFFFFFFFFFFFFFFFFFFFFFFFFFFFFFFFFFFFFFFFFFFFFFFFFFFFFFFF
102
{BLKREFS
331
25DB
331
25DF
102
}
  0
BLOCK_RECORD
  5
25E0
330
227E
100
AcDbSymbolTableRecord
100
AcDbBlockTableRecord
  2
NTC
340
0
310
2800000020000000200000000100080000000000000400000000000000000000000000000000000000000000000080000080000000808000800000008000800080800000C0C0C000C0DCC000F0CAA6000020400000206000002080000020A0000020C0000020E00000400000004020000040400000406000004080000040A0
310
000040C0000040E00000600000006020000060400000606000006080000060A0000060C0000060E00000800000008020000080400000806000008080000080A0000080C0000080E00000A0000000A0200000A0400000A0600000A0800000A0A00000A0C00000A0E00000C0000000C0200000C0400000C0600000C0800000C0
310
A00000C0C00000C0E00000E0000000E0200000E0400000E0600000E0800000E0A00000E0C00000E0E00040000000400020004000400040006000400080004000A0004000C0004000E00040200000402020004020400040206000402080004020A0004020C0004020E000404000004040200040404000404060004040800040
310
40A0004040C0004040E00040600000406020004060400040606000406080004060A0004060C0004060E00040800000408020004080400040806000408080004080A0004080C0004080E00040A0000040A0200040A0400040A0600040A0800040A0A00040A0C00040A0E00040C0000040C0200040C0400040C0600040C08000
310
40C0A00040C0C00040C0E00040E0000040E0200040E0400040E0600040E0800040E0A00040E0C00040E0E00080000000800020008000400080006000800080008000A0008000C0008000E00080200000802020008020400080206000802080008020A0008020C0008020E00080400000804020008040400080406000804080
310
008040A0008040C0008040E00080600000806020008060400080606000806080008060A0008060C0008060E00080800000808020008080400080806000808080008080A0008080C0008080E00080A0000080A0200080A0400080A0600080A0800080A0A00080A0C00080A0E00080C0000080C0200080C0400080C0600080C0
310
800080C0A00080C0C00080C0E00080E0000080E0200080E0400080E0600080E0800080E0A00080E0C00080E0E000C0000000C0002000C0004000C0006000C0008000C000A000C000C000C000E000C0200000C0202000C0204000C0206000C0208000C020A000C020C000C020E000C0400000C0402000C0404000C0406000C0
310
408000C040A000C040C000C040E000C0600000C0602000C0604000C0606000C0608000C060A000C060C000C060E000C0800000C0802000C0804000C0806000C0808000C080A000C080C000C080E000C0A00000C0A02000C0A04000C0A06000C0A08000C0A0A000C0A0C000C0A0E000C0C00000C0C02000C0C04000C0C06000
310
C0C08000C0C0A000F0FBFF00A4A0A000808080000000FF0000FF000000FFFF00FF000000FF00FF00FFFF0000FFFFFF00FFFFFFFFFFFFFFFFFFFFFFFFFFFFFFFFFFFFFFFFFFFFFFFFFFFFFFFFFFFFFFFFFFFFFFFFFFFFFFFFFFFFFFFFFFFFFFFFFFFFFFFFFFFFFFFFFFFFFFFFFFFFFFFFFFFFFFFFFFFFFFFFFFFFFFFFFFFFFF
310
FFFFFFFFFFFFFFFFFFFFFFFFFFFFFFFFFFFFFFFFFFFFFFFFFFFFFFFFFFFFFFFFFFFFFFFFFFFFFFFFFFFFFFFFFFFFFFFFFFFFFFFFFFFFFFFFFFFFFFFFFFFFFFFFFFFFFFFFFFFFFFFFFFFFFFFFFFFFFFFFFFFFFFFFFFFFFFFFFFFFFFFFFFFFFFFFFFFFFFFFFFFFFFFFFFFFFFFFFFFFFFFFFFFFFFFFFFFFFFFFFFFFFFFFFFFFFF
310
FFFFFFFFFFFFFFFFFFFFFFFFFFFFFFFFFFFFFFFFFFFFFFFFFFFFFFFFFFFFFFFFFFFFFFFFFFFFFFFFFFFFFFFFFFFFFFFFFFFFFFFFFFFFFFFFFFFFFFFFFFFFFFFFFFFFFFFFFFFFFFFFFFFFFFFFFFFFFFFFFFFFFFFFFFFFFFFFFFFFFFFFFFFFFFFFFFFFFFFFFFFFFFFFFFFFFFFFFFFFFFFFFFFFFFFFFFFFFFFFFFFFFFFFFFFFFF
310
FFFFFFFFFFFFFFFFFFFFFFFFFFFFFFFFFFFFFFFF000000000000000000000000000000000000000000000000000000000000FFFF00FF0000000000000000FFFFFFFFFFFFFFFFFFFFFFFFFFFFFFFFFFFFFF00FFFF00FF0000000000000000FFFFFFFFFFFFFFFFFFFFFFFFFFFFFFFFFFFFFF00FFFF00FF000000000000000000
310
00000000000000000000000000FFFFFFFFFF00FFFF00FF0000000000000000000000000000000000000000000000000000FF00FFFF00FF0000000000000000000000000000000000000000000000000000FF00FFFF00FF0000000000000000000000000000000000000000000000000000FF00FFFF00FF0000000000000000
310
00000000000000000000000000000000FFFFFF00FFFF00FF0000000000FFFFFFFFFFFFFFFFFFFFFFFFFFFFFFFFFFFFFFFFFFFF00FFFF000000000000000000000000000000000000000000000000000000000000FFFFFFFFFFFFFFFFFFFFFFFFFFFFFFFFFFFFFFFFFFFFFFFFFFFFFFFFFFFFFFFFFFFFFFFFFFFFFFFFFFFFFF
310
FFFFFFFFFFFFFFFFFFFFFFFFFFFFFFFFFFFFFFFFFFFFFFFFFFFFFFFFFFFFFFFFFFFFFFFFFFFFFFFFFFFFFFFFFFFFFFFFFFFFFFFFFFFFFFFFFFFFFFFFFFFFFFFFFFFFFFFFFFFFFFFFFFFFFFFFFFFFFFFFFFFFFFFFFFFFFFFFFFFFFFFFFFFFFFFFFFFFFFFFFFFFFFFFFFFFFFFFFFFFFFFFFFFFFFFFFFFFFFFFFFFFFFFFFFFFFF
310
FFFFFFFFFFFFFFFFFFFFFFFFFFFFFFFFFFFFFFFFFFFFFFFFFFFFFFFFFFFFFFFFFFFFFFFFFFFFFFFFFFFFFFFFFFFFFFFFFFFFFFFFFFFFFFFFFFFFFFFFFFFFFFFFFFFFFFFFFFFFFFFFFFFFFFFFFFFFFFFFFFFFFFFFFFFFFFFFFFFFFFFFFFFFFFFFFFFFFFFFFFFFFFFFFFFFFFFFFFFFFFFFFFFFFFFFFFFFFFFFFFFFFFFFFFFFFF
310
FFFFFFFFFFFFFFFFFFFFFFFFFFFFFFFFFFFFFFFFFFFFFFFFFFFFFFFFFFFFFFFFFFFFFFFFFFFFFFFFFFFFFFFFFFFFFFFFFFFFFFFFFFFFFFFF
102
{BLKREFS
331
25E6
331
25EC
102
}
  0
ENDTAB
  0
ENDSEC
  0
SECTION
  2
BLOCKS
  0
BLOCK
  5
229C
330
229B
100
AcDbEntity
  8
0
100
AcDbBlockBegin
  2
*Model_Space
 70
     0
 10
0.0
 20
0.0
 30
0.0
  3
*Model_Space
  1

  0
ENDBLK
  5
229D
330
229B
100
AcDbEntity
  8
0
100
AcDbBlockEnd
  0
BLOCK
  5
2298
330
2297
100
AcDbEntity
 67
     1
  8
0
100
AcDbBlockBegin
  2
*Paper_Space
 70
     0
 10
0.0
 20
0.0
 30
0.0
  3
*Paper_Space
  1

  0
ENDBLK
  5
2299
330
2297
100
AcDbEntity
 67
     1
  8
0
100
AcDbBlockEnd
  0
BLOCK
  5
22B6
330
22B5
100
AcDbEntity
  8
0
100
AcDbBlockBegin
  2
$MODEL_SPACE
 70
     0
 10
0.0
 20
0.0
 30
0.0
  3
$MODEL_SPACE
  1

  0
ENDBLK
  5
22B7
330
22B5
100
AcDbEntity
  8
0
100
AcDbBlockEnd
  0
BLOCK
  5
22B9
330
22B8
100
AcDbEntity
  8
0
100
AcDbBlockBegin
  2
$PAPER_SPACE
 70
     0
 10
0.0
 20
0.0
 30
0.0
  3
$PAPER_SPACE
  1

  0
ENDBLK
  5
22BA
330
22B8
100
AcDbEntity
  8
0
100
AcDbBlockEnd
  0
BLOCK
  5
2552
330
254F
100
AcDbEntity
  8
0
 62
     7
100
AcDbBlockBegin
  2
AI9-BLK14
 70
     0
 10
0.0
 20
0.0
 30
0.0
  3
AI9-BLK14
  1

  0
SPLINE
  5
2550
330
254F
100
AcDbEntity
  8
LAYER_1
 62
     7
100
AcDbSpline
210
0.0
220
0.0
230
1.0
 70
    11
 71
     3
 72
    23
 73
    19
 74
     0
 42
0.0000000001
 43
0.0000000001
 40
0.0
 40
0.0
 40
0.0
 40
0.0
 40
1.0
 40
1.0
 40
1.0
 40
2.0
 40
2.0
 40
2.0
 40
3.0
 40
3.0
 40
3.0
 40
4.0
 40
4.0
 40
4.0
 40
5.0
 40
5.0
 40
5.0
 40
6.0
 40
6.0
 40
6.0
 40
6.0
 10
-10.90321044921874
 20
10.88107571072048
 30
0.0
 10
-10.90321044921874
 20
10.88107571072048
 30
0.0
 10
-10.90321044921874
 20
-10.88107571072048
 30
0.0
 10
-10.90321044921874
 20
-10.88107571072048
 30
0.0
 10
-10.90321044921874
 20
-10.88107571072048
 30
0.0
 10
1.752692328559025
 20
-10.88107571072048
 30
0.0
 10
1.752692328559025
 20
-10.88107571072048
 30
0.0
 10
3.280592176649305
 20
-10.88107571072048
 30
0.0
 10
10.90321044921874
 20
-10.32383151584201
 30
0.0
 10
10.90321044921874
 20
0.6792867024739583
 30
0.0
 10
10.90321044921874
 20
10.61700914171006
 30
0.0
 10
2.773129611545138
 20
10.87952541775172
 30
0.0
 10
2.691136338975693
 20
10.88090345594618
 30
0.0
 10
2.691136338975693
 20
10.88090345594618
 30
0.0
 10
-9.903099229600693
 20
10.88107571072048
 30
0.0
 10
-9.903099229600693
 20
10.88107571072048
 30
0.0
 10
-9.903099229600693
 20
10.88107571072048
 30
0.0
 10
-10.90321044921874
 20
10.88107571072048
 30
0.0
 10
-10.90321044921874
 20
10.88107571072048
 30
0.0
  0
SPLINE
  5
2551
330
254F
100
AcDbEntity
  8
LAYER_1
 62
     7
100
AcDbSpline
210
0.0
220
0.0
230
1.0
 70
    11
 71
     3
 72
    20
 73
    16
 74
     0
 42
0.0000000001
 43
0.0000000001
 40
0.0
 40
0.0
 40
0.0
 40
0.0
 40
1.0
 40
1.0
 40
1.0
 40
2.0
 40
2.0
 40
2.0
 40
3.0
 40
3.0
 40
3.0
 40
4.0
 40
4.0
 40
4.0
 40
5.0
 40
5.0
 40
5.0
 40
5.0
 10
2.672877332899305
 20
8.881197781032986
 30
0.0
 10
2.905421278211805
 20
8.874307590060762
 30
0.0
 10
8.902988009982637
 20
8.616442192925347
 30
0.0
 10
8.902988009982637
 20
0.6792867024739583
 30
0.0
 10
8.902988009982637
 20
-8.191661919487842
 30
0.0
 10
3.430109320746526
 20
-8.881197781032986
 30
0.0
 10
1.752692328559025
 20
-8.881197781032986
 30
0.0
 10
1.752692328559025
 20
-8.881197781032986
 30
0.0
 10
-7.231427680121528
 20
-8.881197781032986
 30
0.0
 10
-8.902988009982637
 20
-8.881197781032986
 30
0.0
 10
-8.902988009982637
 20
-7.174497477213541
 30
0.0
 10
-8.902988009982637
 20
7.174497477213541
 30
0.0
 10
-8.902988009982637
 20
8.881197781032986
 30
0.0
 10
-7.208690049913191
 20
8.881197781032986
 30
0.0
 10
2.672877332899305
 20
8.881197781032986
 30
0.0
 10
2.672877332899305
 20
8.881197781032986
 30
0.0
  0
ENDBLK
  5
2553
330
254F
100
AcDbEntity
  8
0
100
AcDbBlockEnd
  0
BLOCK
  5
2557
330
2554
100
AcDbEntity
  8
0
 62
     7
100
AcDbBlockBegin
  2
AI9-BLK13
 70
     0
 10
0.0
 20
0.0
 30
0.0
  3
AI9-BLK13
  1

  0
LWPOLYLINE
  5
2555
330
2554
100
AcDbEntity
  8
LAYER_1
 62
     7
100
AcDbPolyline
 90
       12
 70
     1
 43
0.0
 10
-3.792361111111107
 20
10.7376736111111
 10
-2.469444444444443
 20
10.7376736111111
 10
-2.469444444444443
 20
1.874131944444444
 10
2.469444444444443
 20
1.874131944444444
 10
2.469444444444443
 20
10.7376736111111
 10
3.792361111111107
 20
10.7376736111111
 10
3.792361111111107
 20
-10.7376736111111
 10
2.469444444444443
 20
-10.7376736111111
 10
2.469444444444443
 20
-0.6835069444444444
 10
-2.469444444444443
 20
-0.6835069444444444
 10
-2.469444444444443
 20
-10.7376736111111
 10
-3.792361111111107
 20
-10.7376736111111
  0
HATCH
  5
2556
330
2554
100
AcDbEntity
  8
LAYER_1
 62
     7
100
AcDbHatch
 10
0.0
 20
0.0
 30
0.0
210
0.0
220
0.0
230
1.0
  2
SOLID
 70
     1
 71
     0
 91
        1
 92
        3
 72
     0
 73
     1
 93
       12
 10
-3.792361111111107
 20
10.7376736111111
 10
-2.469444444444443
 20
10.7376736111111
 10
-2.469444444444443
 20
1.874131944444444
 10
2.469444444444443
 20
1.874131944444444
 10
2.469444444444443
 20
10.7376736111111
 10
3.792361111111107
 20
10.7376736111111
 10
3.792361111111107
 20
-10.7376736111111
 10
2.469444444444443
 20
-10.7376736111111
 10
2.469444444444443
 20
-0.6835069444444444
 10
-2.469444444444443
 20
-0.6835069444444444
 10
-2.469444444444443
 20
-10.7376736111111
 10
-3.792361111111107
 20
-10.7376736111111
 97
        0
 75
     2
 76
     1
 98
        1
 10
0.0
 20
0.0
  0
ENDBLK
  5
2558
330
2554
100
AcDbEntity
  8
0
100
AcDbBlockEnd
  0
BLOCK
  5
255C
330
2559
100
AcDbEntity
  8
0
 62
     7
100
AcDbBlockBegin
  2
AI9-BLK11
 70
     0
 10
0.0
 20
0.0
 30
0.0
  3
AI9-BLK11
  1

  0
SPLINE
  5
255A
330
2559
100
AcDbEntity
  8
LAYER_1
 62
     7
100
AcDbSpline
210
0.0
220
0.0
230
1.0
 70
    11
 71
     3
 72
    26
 73
    22
 74
     0
 42
0.0000000001
 43
0.0000000001
 40
0.0
 40
0.0
 40
0.0
 40
0.0
 40
1.0
 40
1.0
 40
1.0
 40
2.0
 40
2.0
 40
2.0
 40
3.0
 40
3.0
 40
3.0
 40
4.0
 40
4.0
 40
4.0
 40
5.0
 40
5.0
 40
5.0
 40
6.0
 40
6.0
 40
6.0
 40
7.0
 40
7.0
 40
7.0
 40
7.0
 10
-2.645833333333333
 20
0.9039930555555551
 30
0.0
 10
-2.645833333333333
 20
0.9039930555555551
 30
0.0
 10
-2.645833333333333
 20
8.180034722222217
 30
0.0
 10
-2.645833333333333
 20
8.180034722222217
 30
0.0
 10
-2.645833333333333
 20
8.180034722222217
 30
0.0
 10
0.465087890625
 20
8.180034722222217
 30
0.0
 10
0.465087890625
 20
8.180034722222217
 30
0.0
 10
0.9026150173611108
 20
8.180034722222217
 30
0.0
 10
1.24988064236111
 20
8.034651692708331
 30
0.0
 10
1.506884765625
 20
7.745263671874997
 30
0.0
 10
2.001600477430554
 20
7.194048394097221
 30
0.0
 10
2.248958333333332
 20
6.160519748263887
 30
0.0
 10
2.248958333333332
 20
4.643299696180553
 30
0.0
 10
2.248958333333332
 20
3.232188585069443
 30
0.0
 10
2.072569444444444
 20
2.256537543402775
 30
0.0
 10
1.720480685763888
 20
1.715657552083333
 30
0.0
 10
1.368391927083333
 20
1.174088541666665
 30
0.0
 10
0.8929687499999998
 20
0.9039930555555551
 30
0.0
 10
0.2942111545138888
 20
0.9039930555555551
 30
0.0
 10
0.2942111545138888
 20
0.9039930555555551
 30
0.0
 10
-2.645833333333333
 20
0.9039930555555551
 30
0.0
 10
-2.645833333333333
 20
0.9039930555555551
 30
0.0
  0
SPLINE
  5
255B
330
2559
100
AcDbEntity
  8
LAYER_1
 62
     7
100
AcDbSpline
210
0.0
220
0.0
230
1.0
 70
    11
 71
     3
 72
    68
 73
    64
 74
     0
 42
0.0000000001
 43
0.0000000001
 40
0.0
 40
0.0
 40
0.0
 40
0.0
 40
1.0
 40
1.0
 40
1.0
 40
2.0
 40
2.0
 40
2.0
 40
3.0
 40
3.0
 40
3.0
 40
4.0
 40
4.0
 40
4.0
 40
5.0
 40
5.0
 40
5.0
 40
6.0
 40
6.0
 40
6.0
 40
7.0
 40
7.0
 40
7.0
 40
8.0
 40
8.0
 40
8.0
 40
9.0
 40
9.0
 40
9.0
 40
10.0
 40
10.0
 40
10.0
 40
11.0
 40
11.0
 40
11.0
 40
12.0
 40
12.0
 40
12.0
 40
13.0
 40
13.0
 40
13.0
 40
14.0
 40
14.0
 40
14.0
 40
15.0
 40
15.0
 40
15.0
 40
16.0
 40
16.0
 40
16.0
 40
17.0
 40
17.0
 40
17.0
 40
18.0
 40
18.0
 40
18.0
 40
19.0
 40
19.0
 40
19.0
 40
20.0
 40
20.0
 40
20.0
 40
21.0
 40
21.0
 40
21.0
 40
21.0
 10
-3.968749999999998
 20
-10.7376736111111
 30
0.0
 10
-3.968749999999998
 20
-10.7376736111111
 30
0.0
 10
-2.645833333333333
 20
-10.7376736111111
 30
0.0
 10
-2.645833333333333
 20
-10.7376736111111
 30
0.0
 10
-2.645833333333333
 20
-10.7376736111111
 30
0.0
 10
-2.645833333333333
 20
-1.521354166666665
 30
0.0
 10
-2.645833333333333
 20
-1.521354166666665
 30
0.0
 10
-2.645833333333333
 20
-1.521354166666665
 30
0.0
 10
0.2390896267361111
 20
-1.521354166666665
 30
0.0
 10
0.2390896267361111
 20
-1.521354166666665
 30
0.0
 10
0.7599880642361111
 20
-1.521354166666665
 30
0.0
 10
1.143771701388887
 20
-1.65295681423611
 30
0.0
 10
1.390440538194444
 20
-1.916162109374999
 30
0.0
 10
1.816254340277773
 20
-2.39434136284722
 30
0.0
 10
2.04363064236111
 20
-3.335541449652775
 30
0.0
 10
2.072569444444444
 20
-4.739762369791666
 30
0.0
 10
2.072569444444444
 20
-4.739762369791666
 30
0.0
 10
2.160763888888888
 20
-8.324039713541665
 30
0.0
 10
2.160763888888888
 20
-8.324039713541665
 30
0.0
 10
2.18005642361111
 20
-9.163264973958332
 30
0.0
 10
2.202794053819443
 20
-9.728949652777775
 30
0.0
 10
2.227598741319444
 20
-10.02109374999998
 30
0.0
 10
2.252403428819443
 20
-10.31392686631944
 30
0.0
 10
2.28892144097222
 20
-10.55301649305555
 30
0.0
 10
2.33853081597222
 20
-10.7376736111111
 30
0.0
 10
2.33853081597222
 20
-10.7376736111111
 30
0.0
 10
3.968749999999998
 20
-10.7376736111111
 30
0.0
 10
3.968749999999998
 20
-10.7376736111111
 30
0.0
 10
3.968749999999998
 20
-10.7376736111111
 30
0.0
 10
3.968749999999998
 20
-10.25260416666666
 30
0.0
 10
3.968749999999998
 20
-10.25260416666666
 30
0.0
 10
3.766867404513888
 20
-10.05830078125
 30
0.0
 10
3.625618489583333
 20
-9.621462673611112
 30
0.0
 10
3.545692274305555
 20
-8.942089843749997
 30
0.0
 10
3.49470486111111
 20
-8.543836805555555
 30
0.0
 10
3.459564887152775
 20
-7.937499999999999
 30
0.0
 10
3.439583333333333
 20
-7.121701388888887
 30
0.0
 10
3.439583333333333
 20
-7.121701388888887
 30
0.0
 10
3.395486111111106
 20
-4.232644314236106
 30
0.0
 10
3.395486111111106
 20
-4.232644314236106
 30
0.0
 10
3.375504557291666
 20
-2.981385633680555
 30
0.0
 10
3.26870659722222
 20
-2.077392578125
 30
0.0
 10
3.075781249999999
 20
-1.522043185763888
 30
0.0
 10
2.882166883680555
 20
-0.9666937934027776
 30
0.0
 10
2.592089843749999
 20
-0.5188313802083333
 30
0.0
 10
2.204861111111106
 20
-0.1770779079861111
 30
0.0
 10
2.63618706597222
 20
0.3197048611111111
 30
0.0
 10
2.971739366319443
 20
0.9770290798611107
 30
0.0
 10
3.211518012152775
 20
1.79558376736111
 30
0.0
 10
3.451296657986107
 20
2.613449435763888
 30
0.0
 10
3.571874999999999
 20
3.66558159722222
 30
0.0
 10
3.571874999999999
 20
4.951291232638888
 30
0.0
 10
3.571874999999999
 20
7.415912543402777
 30
0.0
 10
3.124701605902775
 20
9.106076388888887
 30
0.0
 10
2.231043836805555
 20
10.02178276909722
 30
0.0
 10
1.759754774305553
 20
10.498583984375
 30
0.0
 10
1.163753255208332
 20
10.7376736111111
 30
0.0
 10
0.443039279513889
 20
10.7376736111111
 30
0.0
 10
0.443039279513889
 20
10.7376736111111
 30
0.0
 10
-3.968749999999998
 20
10.7376736111111
 30
0.0
 10
-3.968749999999998
 20
10.7376736111111
 30
0.0
 10
-3.968749999999998
 20
10.7376736111111
 30
0.0
 10
-3.968749999999998
 20
-10.7376736111111
 30
0.0
 10
-3.968749999999998
 20
-10.7376736111111
 30
0.0
  0
ENDBLK
  5
255D
330
2559
100
AcDbEntity
  8
0
100
AcDbBlockEnd
  0
BLOCK
  5
2560
330
255E
100
AcDbEntity
  8
0
 62
     7
100
AcDbBlockBegin
  2
AI9-BLK10
 70
     0
 10
0.0
 20
0.0
 30
0.0
  3
AI9-BLK10
  1

  0
SPLINE
  5
255F
330
255E
100
AcDbEntity
  8
LAYER_1
 62
     7
100
AcDbSpline
210
0.0
220
0.0
230
1.0
 70
    11
 71
     3
 72
    59
 73
    55
 74
     0
 42
0.0000000001
 43
0.0000000001
 40
0.0
 40
0.0
 40
0.0
 40
0.0
 40
1.0
 40
1.0
 40
1.0
 40
2.0
 40
2.0
 40
2.0
 40
3.0
 40
3.0
 40
3.0
 40
4.0
 40
4.0
 40
4.0
 40
5.0
 40
5.0
 40
5.0
 40
6.0
 40
6.0
 40
6.0
 40
7.0
 40
7.0
 40
7.0
 40
8.0
 40
8.0
 40
8.0
 40
9.0
 40
9.0
 40
9.0
 40
10.0
 40
10.0
 40
10.0
 40
11.0
 40
11.0
 40
11.0
 40
12.0
 40
12.0
 40
12.0
 40
13.0
 40
13.0
 40
13.0
 40
14.0
 40
14.0
 40
14.0
 40
15.0
 40
15.0
 40
15.0
 40
16.0
 40
16.0
 40
16.0
 40
17.0
 40
17.0
 40
17.0
 40
18.0
 40
18.0
 40
18.0
 40
18.0
 10
-4.652256944444443
 20
10.7376736111111
 30
0.0
 10
-4.652256944444443
 20
10.7376736111111
 30
0.0
 10
-2.798795572916666
 20
10.7376736111111
 30
0.0
 10
-2.798795572916666
 20
10.7376736111111
 30
0.0
 10
-2.798795572916666
 20
10.7376736111111
 30
0.0
 10
0.0
 20
-7.419357638888887
 30
0.0
 10
0.0
 20
-7.419357638888887
 30
0.0
 10
0.0
 20
-7.419357638888887
 30
0.0
 10
2.793283420138888
 20
10.7376736111111
 30
0.0
 10
2.793283420138888
 20
10.7376736111111
 30
0.0
 10
2.793283420138888
 20
10.7376736111111
 30
0.0
 10
4.652256944444443
 20
10.7376736111111
 30
0.0
 10
4.652256944444443
 20
10.7376736111111
 30
0.0
 10
4.652256944444443
 20
10.7376736111111
 30
0.0
 10
4.652256944444443
 20
-10.7376736111111
 30
0.0
 10
4.652256944444443
 20
-10.7376736111111
 30
0.0
 10
4.652256944444443
 20
-10.7376736111111
 30
0.0
 10
3.41753472222222
 20
-10.7376736111111
 30
0.0
 10
3.41753472222222
 20
-10.7376736111111
 30
0.0
 10
3.41753472222222
 20
-10.7376736111111
 30
0.0
 10
3.41753472222222
 20
1.936832682291665
 30
0.0
 10
3.41753472222222
 20
1.936832682291665
 30
0.0
 10
3.41753472222222
 20
2.375048828124999
 30
0.0
 10
3.424424913194443
 20
3.101274956597221
 30
0.0
 10
3.439583333333333
 20
4.11482204861111
 30
0.0
 10
3.454052734374998
 20
5.128369140624998
 30
0.0
 10
3.461631944444443
 20
6.214952256944441
 30
0.0
 10
3.461631944444443
 20
7.375260416666666
 30
0.0
 10
3.461631944444443
 20
7.375260416666666
 30
0.0
 10
0.6538791232638889
 20
-10.7376736111111
 30
0.0
 10
0.6538791232638889
 20
-10.7376736111111
 30
0.0
 10
0.6538791232638889
 20
-10.7376736111111
 30
0.0
 10
-0.6628363715277778
 20
-10.7376736111111
 30
0.0
 10
-0.6628363715277778
 20
-10.7376736111111
 30
0.0
 10
-0.6628363715277778
 20
-10.7376736111111
 30
0.0
 10
-3.461631944444443
 20
7.375260416666666
 30
0.0
 10
-3.461631944444443
 20
7.375260416666666
 30
0.0
 10
-3.461631944444443
 20
7.375260416666666
 30
0.0
 10
-3.461631944444443
 20
6.717247178819441
 30
0.0
 10
-3.461631944444443
 20
6.717247178819441
 30
0.0
 10
-3.461631944444443
 20
6.190836588541666
 30
0.0
 10
-3.45474175347222
 20
5.389507378472222
 30
0.0
 10
-3.439583333333333
 20
4.312570529513888
 30
0.0
 10
-3.425113932291666
 20
3.235633680555555
 30
0.0
 10
-3.41753472222222
 20
2.44395073784722
 30
0.0
 10
-3.41753472222222
 20
1.936832682291665
 30
0.0
 10
-3.41753472222222
 20
1.936832682291665
 30
0.0
 10
-3.41753472222222
 20
-10.7376736111111
 30
0.0
 10
-3.41753472222222
 20
-10.7376736111111
 30
0.0
 10
-3.41753472222222
 20
-10.7376736111111
 30
0.0
 10
-4.652256944444443
 20
-10.7376736111111
 30
0.0
 10
-4.652256944444443
 20
-10.7376736111111
 30
0.0
 10
-4.652256944444443
 20
-10.7376736111111
 30
0.0
 10
-4.652256944444443
 20
10.7376736111111
 30
0.0
 10
-4.652256944444443
 20
10.7376736111111
 30
0.0
  0
ENDBLK
  5
2561
330
255E
100
AcDbEntity
  8
0
100
AcDbBlockEnd
  0
BLOCK
  5
2565
330
2562
100
AcDbEntity
  8
0
 62
     7
100
AcDbBlockBegin
  2
AI9-BLK9
 70
     0
 10
0.0
 20
0.0
 30
0.0
  3
AI9-BLK9
  1

  0
SPLINE
  5
2563
330
2562
100
AcDbEntity
  8
LAYER_1
 62
     7
100
AcDbSpline
210
0.0
220
0.0
230
1.0
 70
    11
 71
     3
 72
    29
 73
    25
 74
     0
 42
0.0000000001
 43
0.0000000001
 40
0.0
 40
0.0
 40
0.0
 40
0.0
 40
1.0
 40
1.0
 40
1.0
 40
2.0
 40
2.0
 40
2.0
 40
3.0
 40
3.0
 40
3.0
 40
4.0
 40
4.0
 40
4.0
 40
5.0
 40
5.0
 40
5.0
 40
6.0
 40
6.0
 40
6.0
 40
7.0
 40
7.0
 40
7.0
 40
8.0
 40
8.0
 40
8.0
 40
8.0
 10
0.0668348524305556
 20
-8.753298611111111
 30
0.0
 10
-0.9067491319444444
 20
-8.753298611111111
 30
0.0
 10
-1.60954861111111
 20
-7.936810980902778
 30
0.0
 10
-2.041563585069444
 20
-6.30383572048611
 30
0.0
 10
-2.474267578124999
 20
-4.670860460069443
 30
0.0
 10
-2.689930555555555
 20
-2.664436848958333
 30
0.0
 10
-2.689930555555555
 20
-0.28525390625
 30
0.0
 10
-2.689930555555555
 20
2.68855251736111
 30
0.0
 10
-2.439127604166666
 20
4.938199869791666
 30
0.0
 10
-1.937521701388888
 20
6.464377170138886
 30
0.0
 10
-1.43591579861111
 20
7.989865451388887
 30
0.0
 10
-0.7827256944444444
 20
8.753298611111111
 30
0.0
 10
0.0220486111111111
 20
8.753298611111111
 30
0.0
 10
0.8468044704861108
 20
8.753298611111111
 30
0.0
 10
1.49792751736111
 20
7.982975260416663
 30
0.0
 10
1.974728732638888
 20
6.442328559027776
 30
0.0
 10
2.451529947916665
 20
4.901681857638886
 30
0.0
 10
2.689930555555555
 20
2.868386501736111
 30
0.0
 10
2.689930555555555
 20
0.3438205295138888
 30
0.0
 10
2.689930555555555
 20
-2.045697699652774
 30
0.0
 10
2.483224826388884
 20
-4.15891927083333
 30
0.0
 10
2.071191406249999
 20
-5.996533203124998
 30
0.0
 10
1.65915798611111
 20
-7.834836154513887
 30
0.0
 10
0.9908094618055557
 20
-8.753298611111111
 30
0.0
 10
0.0668348524305556
 20
-8.753298611111111
 30
0.0
  0
SPLINE
  5
2564
330
2562
100
AcDbEntity
  8
LAYER_1
 62
     7
100
AcDbSpline
210
0.0
220
0.0
230
1.0
 70
    11
 71
     3
 72
    29
 73
    25
 74
     0
 42
0.0000000001
 43
0.0000000001
 40
0.0
 40
0.0
 40
0.0
 40
0.0
 40
1.0
 40
1.0
 40
1.0
 40
2.0
 40
2.0
 40
2.0
 40
3.0
 40
3.0
 40
3.0
 40
4.0
 40
4.0
 40
4.0
 40
5.0
 40
5.0
 40
5.0
 40
6.0
 40
6.0
 40
6.0
 40
7.0
 40
7.0
 40
7.0
 40
8.0
 40
8.0
 40
8.0
 40
8.0
 10
-0.0289388020833333
 20
11.35503472222222
 30
0.0
 10
-1.317404513888887
 20
11.35503472222222
 30
0.0
 10
-2.28892144097222
 20
10.02798394097222
 30
0.0
 10
-2.94280056423611
 20
7.374571397569441
 30
0.0
 10
-3.450607638888888
 20
5.30613606770833
 30
0.0
 10
-3.704166666666666
 20
2.81877712673611
 30
0.0
 10
-3.704166666666666
 20
-0.0881944444444445
 30
0.0
 10
-3.704166666666666
 20
-3.307291666666666
 30
0.0
 10
-3.406510416666666
 20
-5.97035047743055
 30
0.0
 10
-2.811197916666666
 20
-8.077370876736106
 30
0.0
 10
-2.147672526041664
 20
-10.26293945312499
 30
0.0
 10
-1.229899088541666
 20
-11.35503472222222
 30
0.0
 10
-0.0585666232638889
 20
-11.35503472222222
 30
0.0
 10
1.20027126736111
 20
-11.35503472222222
 30
0.0
 10
2.166276041666665
 20
-10.10653211805555
 30
0.0
 10
2.840136718749998
 20
-7.609526909722221
 30
0.0
 10
3.416156684027776
 20
-5.483213975694441
 30
0.0
 10
3.704166666666666
 20
-2.814643012152775
 30
0.0
 10
3.704166666666666
 20
0.3948079427083333
 30
0.0
 10
3.704166666666666
 20
3.360346137152776
 30
0.0
 10
3.449918619791666
 20
5.793961588541666
 30
0.0
 10
2.94280056423611
 20
7.696343315972222
 30
0.0
 10
2.298567708333333
 20
10.13547092013888
 30
0.0
 10
1.307758246527777
 20
11.35503472222222
 30
0.0
 10
-0.0289388020833333
 20
11.35503472222222
 30
0.0
  0
ENDBLK
  5
2566
330
2562
100
AcDbEntity
  8
0
100
AcDbBlockEnd
  0
BLOCK
  5
256A
330
2567
100
AcDbEntity
  8
0
 62
     7
100
AcDbBlockBegin
  2
AI9-BLK8
 70
     0
 10
0.0
 20
0.0
 30
0.0
  3
AI9-BLK8
  1

  0
LWPOLYLINE
  5
2568
330
2567
100
AcDbEntity
  8
LAYER_1
 62
     7
100
AcDbPolyline
 90
       10
 70
     1
 43
0.0
 10
-3.792361111111107
 20
10.7376736111111
 10
-2.268939887152773
 20
10.7376736111111
 10
2.557638888888888
 20
-6.505718315972222
 10
2.557638888888888
 20
10.7376736111111
 10
3.792361111111107
 20
10.7376736111111
 10
3.792361111111107
 20
-10.7376736111111
 10
2.32612847222222
 20
-10.7376736111111
 10
-2.557638888888888
 20
6.549815538194441
 10
-2.557638888888888
 20
-10.7376736111111
 10
-3.792361111111107
 20
-10.7376736111111
  0
HATCH
  5
2569
330
2567
100
AcDbEntity
  8
LAYER_1
 62
     7
100
AcDbHatch
 10
0.0
 20
0.0
 30
0.0
210
0.0
220
0.0
230
1.0
  2
SOLID
 70
     1
 71
     0
 91
        1
 92
        3
 72
     0
 73
     1
 93
       10
 10
-3.792361111111107
 20
10.7376736111111
 10
-2.268939887152773
 20
10.7376736111111
 10
2.557638888888888
 20
-6.505718315972222
 10
2.557638888888888
 20
10.7376736111111
 10
3.792361111111107
 20
10.7376736111111
 10
3.792361111111107
 20
-10.7376736111111
 10
2.32612847222222
 20
-10.7376736111111
 10
-2.557638888888888
 20
6.549815538194441
 10
-2.557638888888888
 20
-10.7376736111111
 10
-3.792361111111107
 20
-10.7376736111111
 97
        0
 75
     2
 76
     1
 98
        1
 10
0.0
 20
0.0
  0
ENDBLK
  5
256B
330
2567
100
AcDbEntity
  8
0
100
AcDbBlockEnd
  0
BLOCK
  5
256F
330
256C
100
AcDbEntity
  8
0
 62
     7
100
AcDbBlockBegin
  2
AI9-BLK7
 70
     0
 10
0.0
 20
0.0
 30
0.0
  3
AI9-BLK7
  1

  0
LWPOLYLINE
  5
256D
330
256C
100
AcDbEntity
  8
LAYER_1
 62
     7
100
AcDbPolyline
 90
        4
 70
     1
 43
0.0
 10
-0.6614583333333333
 20
10.7376736111111
 10
0.6614583333333333
 20
10.7376736111111
 10
0.6614583333333333
 20
-10.7376736111111
 10
-0.6614583333333333
 20
-10.7376736111111
  0
HATCH
  5
256E
330
256C
100
AcDbEntity
  8
LAYER_1
 62
     7
100
AcDbHatch
 10
0.0
 20
0.0
 30
0.0
210
0.0
220
0.0
230
1.0
  2
SOLID
 70
     1
 71
     0
 91
        1
 92
        3
 72
     0
 73
     1
 93
        4
 10
-0.6614583333333333
 20
10.7376736111111
 10
0.6614583333333333
 20
10.7376736111111
 10
0.6614583333333333
 20
-10.7376736111111
 10
-0.6614583333333333
 20
-10.7376736111111
 97
        0
 75
     2
 76
     1
 98
        1
 10
0.0
 20
0.0
  0
ENDBLK
  5
2570
330
256C
100
AcDbEntity
  8
0
100
AcDbBlockEnd
  0
BLOCK
  5
2573
330
2571
100
AcDbEntity
  8
0
 62
     7
100
AcDbBlockBegin
  2
AI9-BLK6
 70
     0
 10
0.0
 20
0.0
 30
0.0
  3
AI9-BLK6
  1

  0
SPLINE
  5
2572
330
2571
100
AcDbEntity
  8
LAYER_1
 62
     7
100
AcDbSpline
210
0.0
220
0.0
230
1.0
 70
    11
 71
     3
 72
    59
 73
    55
 74
     0
 42
0.0000000001
 43
0.0000000001
 40
0.0
 40
0.0
 40
0.0
 40
0.0
 40
1.0
 40
1.0
 40
1.0
 40
2.0
 40
2.0
 40
2.0
 40
3.0
 40
3.0
 40
3.0
 40
4.0
 40
4.0
 40
4.0
 40
5.0
 40
5.0
 40
5.0
 40
6.0
 40
6.0
 40
6.0
 40
7.0
 40
7.0
 40
7.0
 40
8.0
 40
8.0
 40
8.0
 40
9.0
 40
9.0
 40
9.0
 40
10.0
 40
10.0
 40
10.0
 40
11.0
 40
11.0
 40
11.0
 40
12.0
 40
12.0
 40
12.0
 40
13.0
 40
13.0
 40
13.0
 40
14.0
 40
14.0
 40
14.0
 40
15.0
 40
15.0
 40
15.0
 40
16.0
 40
16.0
 40
16.0
 40
17.0
 40
17.0
 40
17.0
 40
18.0
 40
18.0
 40
18.0
 40
18.0
 10
3.062689887152775
 20
9.168088107638887
 30
0.0
 10
3.735172526041666
 20
7.739062499999997
 30
0.0
 10
4.110687934027776
 20
6.116422526041666
 30
0.0
 10
4.189236111111108
 20
4.299479166666666
 30
0.0
 10
4.189236111111108
 20
4.299479166666666
 30
0.0
 10
2.866319444444443
 20
4.299479166666666
 30
0.0
 10
2.866319444444443
 20
4.299479166666666
 30
0.0
 10
2.720936414930555
 20
5.667871093749997
 30
0.0
 10
2.435682508680555
 20
6.752387152777776
 30
0.0
 10
2.009868706597218
 20
7.553027343749997
 30
0.0
 10
1.584054904513888
 20
8.352978515624997
 30
0.0
 10
0.9839192708333332
 20
8.753298611111111
 30
0.0
 10
0.2101508246527778
 20
8.753298611111111
 30
0.0
 10
-0.7386284722222222
 20
8.753298611111111
 30
0.0
 10
-1.503439670138888
 20
8.010536024305555
 30
0.0
 10
-2.083593749999999
 20
6.526388888888886
 30
0.0
 10
-2.664436848958333
 20
5.042241753472221
 30
0.0
 10
-2.954513888888888
 20
2.767100694444443
 30
0.0
 10
-2.954513888888888
 20
-0.2990342881944444
 30
0.0
 10
-2.954513888888888
 20
-2.811197916666666
 30
0.0
 10
-2.693375651041666
 20
-4.847938368055555
 30
0.0
 10
-2.17041015625
 20
-6.409944661458332
 30
0.0
 10
-1.648133680555553
 20
-7.972639973958332
 30
0.0
 10
-0.8640299479166666
 20
-8.753298611111111
 30
0.0
 10
0.1812120225694444
 20
-8.753298611111111
 30
0.0
 10
1.138948567708333
 20
-8.753298611111111
 30
0.0
 10
1.865174696180553
 20
-7.927853732638887
 30
0.0
 10
2.359201388888884
 20
-6.275585937499998
 30
0.0
 10
2.62998589409722
 20
-5.406043836805555
 30
0.0
 10
2.828423394097221
 20
-4.262272135416666
 30
0.0
 10
2.954513888888888
 20
-2.844270833333331
 30
0.0
 10
2.954513888888888
 20
-2.844270833333331
 30
0.0
 10
4.277430555555555
 20
-2.844270833333331
 30
0.0
 10
4.277430555555555
 20
-2.844270833333331
 30
0.0
 10
4.169943576388888
 20
-5.109765624999996
 30
0.0
 10
3.795117187499998
 20
-7.009391276041665
 30
0.0
 10
3.151573350694443
 20
-8.542458767361106
 30
0.0
 10
2.381249999999999
 20
-10.38834092881943
 30
0.0
 10
1.347721354166665
 20
-11.3109375
 30
0.0
 10
0.0509874131944445
 20
-11.3109375
 30
0.0
 10
-1.07004665798611
 20
-11.3109375
 30
0.0
 10
-2.010557725694444
 20
-10.55577256944443
 30
0.0
 10
-2.771234809027776
 20
-9.04475368923611
 30
0.0
 10
-3.775824652777775
 20
-7.046598307291666
 30
0.0
 10
-4.277430555555555
 20
-3.961170789930555
 30
0.0
 10
-4.277430555555555
 20
0.2115288628472222
 30
0.0
 10
-4.277430555555555
 20
3.379638671874998
 30
0.0
 10
-3.902604166666666
 20
5.977929687499997
 30
0.0
 10
-3.151573350694443
 20
8.005712890624996
 30
0.0
 10
-2.333018663194443
 20
10.20919596354165
 30
0.0
 10
-1.20647243923611
 20
11.3109375
 30
0.0
 10
0.2266872829861111
 20
11.3109375
 30
0.0
 10
1.444873046875
 20
11.3109375
 30
0.0
 10
2.390207248263884
 20
10.59642469618055
 30
0.0
 10
3.062689887152775
 20
9.168088107638887
 30
0.0
  0
ENDBLK
  5
2574
330
2571
100
AcDbEntity
  8
0
100
AcDbBlockEnd
  0
BLOCK
  5
2578
330
2575
100
AcDbEntity
  8
0
 62
     7
100
AcDbBlockBegin
  2
AI9-BLK5
 70
     0
 10
0.0
 20
0.0
 30
0.0
  3
AI9-BLK5
  1

  0
SPLINE
  5
2576
330
2575
100
AcDbEntity
  8
LAYER_1
 62
     7
100
AcDbSpline
210
0.0
220
0.0
230
1.0
 70
    11
 71
     3
 72
    32
 73
    28
 74
     0
 42
0.0000000001
 43
0.0000000001
 40
0.0
 40
0.0
 40
0.0
 40
0.0
 40
1.0
 40
1.0
 40
1.0
 40
2.0
 40
2.0
 40
2.0
 40
3.0
 40
3.0
 40
3.0
 40
4.0
 40
4.0
 40
4.0
 40
5.0
 40
5.0
 40
5.0
 40
6.0
 40
6.0
 40
6.0
 40
7.0
 40
7.0
 40
7.0
 40
8.0
 40
8.0
 40
8.0
 40
9.0
 40
9.0
 40
9.0
 40
9.0
 10
-2.62378472222222
 20
-8.268229166666666
 30
0.0
 10
-2.62378472222222
 20
-8.268229166666666
 30
0.0
 10
-2.62378472222222
 20
8.180034722222217
 30
0.0
 10
-2.62378472222222
 20
8.180034722222217
 30
0.0
 10
-2.62378472222222
 20
8.180034722222217
 30
0.0
 10
-0.3376193576388888
 20
8.180034722222217
 30
0.0
 10
-0.3376193576388888
 20
8.180034722222217
 30
0.0
 10
0.6972873263888888
 20
8.180034722222217
 30
0.0
 10
1.449007161458333
 20
7.445540364583332
 30
0.0
 10
1.918918185763885
 20
5.977929687499997
 30
0.0
 10
2.388829210069443
 20
4.510319010416666
 30
0.0
 10
2.62378472222222
 20
2.449462890624999
 30
0.0
 10
2.62378472222222
 20
-0.204638671875
 30
0.0
 10
2.62378472222222
 20
-0.8950358072916666
 30
0.0
 10
2.590022786458332
 20
-1.643310546874999
 30
0.0
 10
2.523187934027773
 20
-2.45015190972222
 30
0.0
 10
2.408121744791666
 20
-3.80200737847222
 30
0.0
 10
2.226220703124999
 20
-4.909950086805555
 30
0.0
 10
1.976795789930553
 20
-5.774669053819441
 30
0.0
 10
1.659847005208333
 20
-6.853672960069442
 30
0.0
 10
1.252636718749998
 20
-7.583344184027778
 30
0.0
 10
0.7544759114583333
 20
-7.962304687499997
 30
0.0
 10
0.4664659288194444
 20
-8.166254340277777
 30
0.0
 10
0.1074869791666666
 20
-8.268229166666666
 30
0.0
 10
-0.3231499565972222
 20
-8.268229166666666
 30
0.0
 10
-0.3231499565972222
 20
-8.268229166666666
 30
0.0
 10
-2.62378472222222
 20
-8.268229166666666
 30
0.0
 10
-2.62378472222222
 20
-8.268229166666666
 30
0.0
  0
SPLINE
  5
2577
330
2575
100
AcDbEntity
  8
LAYER_1
 62
     7
100
AcDbSpline
210
0.0
220
0.0
230
1.0
 70
    11
 71
     3
 72
    26
 73
    22
 74
     0
 42
0.0000000001
 43
0.0000000001
 40
0.0
 40
0.0
 40
0.0
 40
0.0
 40
1.0
 40
1.0
 40
1.0
 40
2.0
 40
2.0
 40
2.0
 40
3.0
 40
3.0
 40
3.0
 40
4.0
 40
4.0
 40
4.0
 40
5.0
 40
5.0
 40
5.0
 40
6.0
 40
6.0
 40
6.0
 40
7.0
 40
7.0
 40
7.0
 40
7.0
 10
-3.946701388888888
 20
-10.7376736111111
 30
0.0
 10
-3.946701388888888
 20
-10.7376736111111
 30
0.0
 10
-0.0943956163194444
 20
-10.7376736111111
 30
0.0
 10
-0.0943956163194444
 20
-10.7376736111111
 30
0.0
 10
1.546847873263885
 20
-10.7376736111111
 30
0.0
 10
2.705777994791666
 20
-9.11021050347222
 30
0.0
 10
3.381705729166666
 20
-5.854595269097222
 30
0.0
 10
3.757910156249999
 20
-4.01284722222222
 30
0.0
 10
3.946701388888888
 20
-1.951991102430555
 30
0.0
 10
3.946701388888888
 20
0.328662109375
 30
0.0
 10
3.946701388888888
 20
3.281797960069443
 30
0.0
 10
3.622862413194443
 20
5.703700086805552
 30
0.0
 10
2.976562499999998
 20
7.594368489583332
 30
0.0
 10
2.25171440972222
 20
9.689675564236106
 30
0.0
 10
1.233344184027777
 20
10.7376736111111
 30
0.0
 10
-0.0799262152777778
 20
10.7376736111111
 30
0.0
 10
-0.0799262152777778
 20
10.7376736111111
 30
0.0
 10
-3.946701388888888
 20
10.7376736111111
 30
0.0
 10
-3.946701388888888
 20
10.7376736111111
 30
0.0
 10
-3.946701388888888
 20
10.7376736111111
 30
0.0
 10
-3.946701388888888
 20
-10.7376736111111
 30
0.0
 10
-3.946701388888888
 20
-10.7376736111111
 30
0.0
  0
ENDBLK
  5
2579
330
2575
100
AcDbEntity
  8
0
100
AcDbBlockEnd
  0
BLOCK
  5
257D
330
257A
100
AcDbEntity
  8
0
 62
     7
100
AcDbBlockBegin
  2
AI9-BLK4
 70
     0
 10
0.0
 20
0.0
 30
0.0
  3
AI9-BLK4
  1

  0
SPLINE
  5
257B
330
257A
100
AcDbEntity
  8
LAYER_1
 62
     7
100
AcDbSpline
210
0.0
220
0.0
230
1.0
 70
    11
 71
     3
 72
    26
 73
    22
 74
     0
 42
0.0000000001
 43
0.0000000001
 40
0.0
 40
0.0
 40
0.0
 40
0.0
 40
1.0
 40
1.0
 40
1.0
 40
2.0
 40
2.0
 40
2.0
 40
3.0
 40
3.0
 40
3.0
 40
4.0
 40
4.0
 40
4.0
 40
5.0
 40
5.0
 40
5.0
 40
6.0
 40
6.0
 40
6.0
 40
7.0
 40
7.0
 40
7.0
 40
7.0
 10
-2.645833333333333
 20
0.9039930555555551
 30
0.0
 10
-2.645833333333333
 20
0.9039930555555551
 30
0.0
 10
-2.645833333333333
 20
8.180034722222217
 30
0.0
 10
-2.645833333333333
 20
8.180034722222217
 30
0.0
 10
-2.645833333333333
 20
8.180034722222217
 30
0.0
 10
0.465087890625
 20
8.180034722222217
 30
0.0
 10
0.465087890625
 20
8.180034722222217
 30
0.0
 10
0.9026150173611108
 20
8.180034722222217
 30
0.0
 10
1.24988064236111
 20
8.034651692708331
 30
0.0
 10
1.506884765625
 20
7.745263671874997
 30
0.0
 10
2.001600477430554
 20
7.194048394097221
 30
0.0
 10
2.248958333333332
 20
6.160519748263887
 30
0.0
 10
2.248958333333332
 20
4.643299696180553
 30
0.0
 10
2.248958333333332
 20
3.232188585069443
 30
0.0
 10
2.072569444444444
 20
2.256537543402775
 30
0.0
 10
1.720480685763888
 20
1.715657552083333
 30
0.0
 10
1.368391927083333
 20
1.174088541666665
 30
0.0
 10
0.8929687499999998
 20
0.9039930555555551
 30
0.0
 10
0.2942111545138888
 20
0.9039930555555551
 30
0.0
 10
0.2942111545138888
 20
0.9039930555555551
 30
0.0
 10
-2.645833333333333
 20
0.9039930555555551
 30
0.0
 10
-2.645833333333333
 20
0.9039930555555551
 30
0.0
  0
SPLINE
  5
257C
330
257A
100
AcDbEntity
  8
LAYER_1
 62
     7
100
AcDbSpline
210
0.0
220
0.0
230
1.0
 70
    11
 71
     3
 72
    68
 73
    64
 74
     0
 42
0.0000000001
 43
0.0000000001
 40
0.0
 40
0.0
 40
0.0
 40
0.0
 40
1.0
 40
1.0
 40
1.0
 40
2.0
 40
2.0
 40
2.0
 40
3.0
 40
3.0
 40
3.0
 40
4.0
 40
4.0
 40
4.0
 40
5.0
 40
5.0
 40
5.0
 40
6.0
 40
6.0
 40
6.0
 40
7.0
 40
7.0
 40
7.0
 40
8.0
 40
8.0
 40
8.0
 40
9.0
 40
9.0
 40
9.0
 40
10.0
 40
10.0
 40
10.0
 40
11.0
 40
11.0
 40
11.0
 40
12.0
 40
12.0
 40
12.0
 40
13.0
 40
13.0
 40
13.0
 40
14.0
 40
14.0
 40
14.0
 40
15.0
 40
15.0
 40
15.0
 40
16.0
 40
16.0
 40
16.0
 40
17.0
 40
17.0
 40
17.0
 40
18.0
 40
18.0
 40
18.0
 40
19.0
 40
19.0
 40
19.0
 40
20.0
 40
20.0
 40
20.0
 40
21.0
 40
21.0
 40
21.0
 40
21.0
 10
-3.968749999999998
 20
-10.7376736111111
 30
0.0
 10
-3.968749999999998
 20
-10.7376736111111
 30
0.0
 10
-2.645833333333333
 20
-10.7376736111111
 30
0.0
 10
-2.645833333333333
 20
-10.7376736111111
 30
0.0
 10
-2.645833333333333
 20
-10.7376736111111
 30
0.0
 10
-2.645833333333333
 20
-1.521354166666665
 30
0.0
 10
-2.645833333333333
 20
-1.521354166666665
 30
0.0
 10
-2.645833333333333
 20
-1.521354166666665
 30
0.0
 10
0.2390896267361111
 20
-1.521354166666665
 30
0.0
 10
0.2390896267361111
 20
-1.521354166666665
 30
0.0
 10
0.7599880642361111
 20
-1.521354166666665
 30
0.0
 10
1.143771701388887
 20
-1.65295681423611
 30
0.0
 10
1.390440538194444
 20
-1.916162109374999
 30
0.0
 10
1.816254340277773
 20
-2.39434136284722
 30
0.0
 10
2.04363064236111
 20
-3.335541449652775
 30
0.0
 10
2.072569444444444
 20
-4.739762369791666
 30
0.0
 10
2.072569444444444
 20
-4.739762369791666
 30
0.0
 10
2.160763888888888
 20
-8.324039713541665
 30
0.0
 10
2.160763888888888
 20
-8.324039713541665
 30
0.0
 10
2.18005642361111
 20
-9.163264973958332
 30
0.0
 10
2.202794053819443
 20
-9.728949652777775
 30
0.0
 10
2.227598741319444
 20
-10.02109374999998
 30
0.0
 10
2.252403428819443
 20
-10.31392686631944
 30
0.0
 10
2.28892144097222
 20
-10.55301649305555
 30
0.0
 10
2.33853081597222
 20
-10.7376736111111
 30
0.0
 10
2.33853081597222
 20
-10.7376736111111
 30
0.0
 10
3.968749999999998
 20
-10.7376736111111
 30
0.0
 10
3.968749999999998
 20
-10.7376736111111
 30
0.0
 10
3.968749999999998
 20
-10.7376736111111
 30
0.0
 10
3.968749999999998
 20
-10.25260416666666
 30
0.0
 10
3.968749999999998
 20
-10.25260416666666
 30
0.0
 10
3.766867404513888
 20
-10.05830078125
 30
0.0
 10
3.625618489583333
 20
-9.621462673611112
 30
0.0
 10
3.545692274305555
 20
-8.942089843749997
 30
0.0
 10
3.49470486111111
 20
-8.543836805555555
 30
0.0
 10
3.459564887152775
 20
-7.937499999999999
 30
0.0
 10
3.439583333333333
 20
-7.121701388888887
 30
0.0
 10
3.439583333333333
 20
-7.121701388888887
 30
0.0
 10
3.395486111111106
 20
-4.232644314236106
 30
0.0
 10
3.395486111111106
 20
-4.232644314236106
 30
0.0
 10
3.375504557291666
 20
-2.981385633680555
 30
0.0
 10
3.26870659722222
 20
-2.077392578125
 30
0.0
 10
3.075781249999999
 20
-1.522043185763888
 30
0.0
 10
2.882166883680555
 20
-0.9666937934027776
 30
0.0
 10
2.592089843749999
 20
-0.5188313802083333
 30
0.0
 10
2.204861111111106
 20
-0.1770779079861111
 30
0.0
 10
2.63618706597222
 20
0.3197048611111111
 30
0.0
 10
2.971739366319443
 20
0.9770290798611107
 30
0.0
 10
3.211518012152775
 20
1.79558376736111
 30
0.0
 10
3.451296657986107
 20
2.613449435763888
 30
0.0
 10
3.571874999999999
 20
3.66558159722222
 30
0.0
 10
3.571874999999999
 20
4.951291232638888
 30
0.0
 10
3.571874999999999
 20
7.415912543402777
 30
0.0
 10
3.124701605902775
 20
9.106076388888887
 30
0.0
 10
2.231043836805555
 20
10.02178276909722
 30
0.0
 10
1.759754774305553
 20
10.498583984375
 30
0.0
 10
1.163753255208332
 20
10.7376736111111
 30
0.0
 10
0.443039279513889
 20
10.7376736111111
 30
0.0
 10
0.443039279513889
 20
10.7376736111111
 30
0.0
 10
-3.968749999999998
 20
10.7376736111111
 30
0.0
 10
-3.968749999999998
 20
10.7376736111111
 30
0.0
 10
-3.968749999999998
 20
10.7376736111111
 30
0.0
 10
-3.968749999999998
 20
-10.7376736111111
 30
0.0
 10
-3.968749999999998
 20
-10.7376736111111
 30
0.0
  0
ENDBLK
  5
257E
330
257A
100
AcDbEntity
  8
0
100
AcDbBlockEnd
  0
BLOCK
  5
2582
330
257F
100
AcDbEntity
  8
0
 62
     7
100
AcDbBlockBegin
  2
AI9-BLK3
 70
     0
 10
0.0
 20
0.0
 30
0.0
  3
AI9-BLK3
  1

  0
LWPOLYLINE
  5
2580
330
257F
100
AcDbEntity
  8
LAYER_1
 62
     7
100
AcDbPolyline
 90
        4
 70
     1
 43
0.0
 10
-0.6613722059461809
 20
10.7376736111111
 10
0.6613722059461809
 20
10.7376736111111
 10
0.6613722059461809
 20
-10.7376736111111
 10
-0.6613722059461809
 20
-10.7376736111111
  0
HATCH
  5
2581
330
257F
100
AcDbEntity
  8
LAYER_1
 62
     7
100
AcDbHatch
 10
0.0
 20
0.0
 30
0.0
210
0.0
220
0.0
230
1.0
  2
SOLID
 70
     1
 71
     0
 91
        1
 92
        3
 72
     0
 73
     1
 93
        4
 10
-0.6613722059461809
 20
10.7376736111111
 10
0.6613722059461809
 20
10.7376736111111
 10
0.6613722059461809
 20
-10.7376736111111
 10
-0.6613722059461809
 20
-10.7376736111111
 97
        0
 75
     2
 76
     1
 98
        1
 10
0.0
 20
0.0
  0
ENDBLK
  5
2583
330
257F
100
AcDbEntity
  8
0
100
AcDbBlockEnd
  0
BLOCK
  5
2587
330
2584
100
AcDbEntity
  8
0
 62
     7
100
AcDbBlockBegin
  2
AI9-BLK2
 70
     0
 10
0.0
 20
0.0
 30
0.0
  3
AI9-BLK2
  1

  0
LWPOLYLINE
  5
2585
330
2584
100
AcDbEntity
  8
LAYER_1
 62
     7
100
AcDbPolyline
 90
        7
 70
     1
 43
0.0
 10
-2.785704210069443
 20
10.7376736111111
 10
0.0
 20
-7.550960286458332
 10
2.771234809027776
 20
10.7376736111111
 10
4.233333333333331
 20
10.7376736111111
 10
0.6910861545138888
 20
-10.7376736111111
 10
-0.7055555555555558
 20
-10.7376736111111
 10
-4.233333333333331
 20
10.7376736111111
  0
HATCH
  5
2586
330
2584
100
AcDbEntity
  8
LAYER_1
 62
     7
100
AcDbHatch
 10
0.0
 20
0.0
 30
0.0
210
0.0
220
0.0
230
1.0
  2
SOLID
 70
     1
 71
     0
 91
        1
 92
        3
 72
     0
 73
     1
 93
        7
 10
-2.785704210069443
 20
10.7376736111111
 10
0.0
 20
-7.550960286458332
 10
2.771234809027776
 20
10.7376736111111
 10
4.233333333333331
 20
10.7376736111111
 10
0.6910861545138888
 20
-10.7376736111111
 10
-0.7055555555555558
 20
-10.7376736111111
 10
-4.233333333333331
 20
10.7376736111111
 97
        0
 75
     2
 76
     1
 98
        1
 10
0.0
 20
0.0
  0
ENDBLK
  5
2588
330
2584
100
AcDbEntity
  8
0
100
AcDbBlockEnd
  0
BLOCK
  5
258C
330
2589
100
AcDbEntity
  8
0
 62
     7
100
AcDbBlockBegin
  2
AI9-BLK1
 70
     0
 10
0.0
 20
0.0
 30
0.0
  3
AI9-BLK1
  1

  0
LWPOLYLINE
  5
258A
330
2589
100
AcDbEntity
  8
LAYER_1
 62
     7
100
AcDbPolyline
 90
       12
 70
     1
 43
0.0
 10
-3.571874999999999
 20
10.7376736111111
 10
3.483680555555555
 20
10.7376736111111
 10
3.483680555555555
 20
8.091840277777777
 10
-2.248958333333332
 20
8.091840277777777
 10
-2.248958333333332
 20
1.565451388888888
 10
3.042708333333333
 20
1.565451388888888
 10
3.042708333333333
 20
-0.9039930555555551
 10
-2.248958333333332
 20
-0.9039930555555551
 10
-2.248958333333332
 20
-8.180034722222217
 10
3.571874999999999
 20
-8.180034722222217
 10
3.571874999999999
 20
-10.7376736111111
 10
-3.571874999999999
 20
-10.7376736111111
  0
HATCH
  5
258B
330
2589
100
AcDbEntity
  8
LAYER_1
 62
     7
100
AcDbHatch
 10
0.0
 20
0.0
 30
0.0
210
0.0
220
0.0
230
1.0
  2
SOLID
 70
     1
 71
     0
 91
        1
 92
        3
 72
     0
 73
     1
 93
       12
 10
-3.571874999999999
 20
10.7376736111111
 10
3.483680555555555
 20
10.7376736111111
 10
3.483680555555555
 20
8.091840277777777
 10
-2.248958333333332
 20
8.091840277777777
 10
-2.248958333333332
 20
1.565451388888888
 10
3.042708333333333
 20
1.565451388888888
 10
3.042708333333333
 20
-0.9039930555555551
 10
-2.248958333333332
 20
-0.9039930555555551
 10
-2.248958333333332
 20
-8.180034722222217
 10
3.571874999999999
 20
-8.180034722222217
 10
3.571874999999999
 20
-10.7376736111111
 10
-3.571874999999999
 20
-10.7376736111111
 97
        0
 75
     2
 76
     1
 98
        1
 10
0.0
 20
0.0
  0
ENDBLK
  5
258D
330
2589
100
AcDbEntity
  8
0
100
AcDbBlockEnd
  0
BLOCK
  5
25B1
330
258E
100
AcDbEntity
  8
0
100
AcDbBlockBegin
  2
HD_LLC_logo_OT5
 70
     0
 10
0.0
 20
0.0
 30
0.0
  3
HD_LLC_logo_OT5
  1

  0
SPLINE
  5
258F
102
{ACAD_REACTORS
330
25AF
102
}
330
258E
100
AcDbEntity
  8
LAYER_1
 62
     7
100
AcDbSpline
210
0.0
220
0.0
230
1.0
 70
    11
 71
     3
 72
   113
 73
   109
 74
     0
 42
0.0000000001
 43
0.0000000001
 40
0.0
 40
0.0
 40
0.0
 40
0.0
 40
1.0
 40
1.0
 40
1.0
 40
2.0
 40
2.0
 40
2.0
 40
3.0
 40
3.0
 40
3.0
 40
4.0
 40
4.0
 40
4.0
 40
5.0
 40
5.0
 40
5.0
 40
6.0
 40
6.0
 40
6.0
 40
7.0
 40
7.0
 40
7.0
 40
8.0
 40
8.0
 40
8.0
 40
9.0
 40
9.0
 40
9.0
 40
10.0
 40
10.0
 40
10.0
 40
11.0
 40
11.0
 40
11.0
 40
12.0
 40
12.0
 40
12.0
 40
13.0
 40
13.0
 40
13.0
 40
14.0
 40
14.0
 40
14.0
 40
15.0
 40
15.0
 40
15.0
 40
16.0
 40
16.0
 40
16.0
 40
17.0
 40
17.0
 40
17.0
 40
18.0
 40
18.0
 40
18.0
 40
19.0
 40
19.0
 40
19.0
 40
20.0
 40
20.0
 40
20.0
 40
21.0
 40
21.0
 40
21.0
 40
22.0
 40
22.0
 40
22.0
 40
23.0
 40
23.0
 40
23.0
 40
24.0
 40
24.0
 40
24.0
 40
25.0
 40
25.0
 40
25.0
 40
26.0
 40
26.0
 40
26.0
 40
27.0
 40
27.0
 40
27.0
 40
28.0
 40
28.0
 40
28.0
 40
29.0
 40
29.0
 40
29.0
 40
30.0
 40
30.0
 40
30.0
 40
31.0
 40
31.0
 40
31.0
 40
32.0
 40
32.0
 40
32.0
 40
33.0
 40
33.0
 40
33.0
 40
34.0
 40
34.0
 40
34.0
 40
35.0
 40
35.0
 40
35.0
 40
36.0
 40
36.0
 40
36.0
 40
36.0
 10
193.3039632161458
 20
186.1548733181423
 30
0.0
 10
193.3039632161458
 20
186.1860514322916
 30
0.0
 10
193.3039632161458
 20
219.6932223849826
 30
0.0
 10
193.3039632161458
 20
219.6932223849826
 30
0.0
 10
193.3039632161458
 20
219.6932223849826
 30
0.0
 10
193.2974175347219
 20
219.7488606770833
 30
0.0
 10
193.2974175347219
 20
219.7488606770833
 30
0.0
 10
191.5293945312499
 20
235.455740017361
 30
0.0
 10
175.1458984374999
 20
235.2467949761284
 30
0.0
 10
174.9808783637151
 20
235.2428331163193
 30
0.0
 10
174.9808783637151
 20
235.2428331163193
 30
0.0
 10
125.8827555338541
 20
235.2430053710937
 30
0.0
 10
125.8827555338541
 20
235.2430053710937
 30
0.0
 10
125.8827555338541
 20
235.2430053710937
 30
0.0
 10
125.8827555338541
 20
255.5278998480901
 30
0.0
 10
125.8827555338541
 20
255.5278998480901
 30
0.0
 10
125.8827555338541
 20
255.5278998480901
 30
0.0
 10
84.5626247829861
 20
255.5278998480901
 30
0.0
 10
84.5626247829861
 20
255.5278998480901
 30
0.0
 10
84.5626247829861
 20
255.5278998480901
 30
0.0
 10
84.55711263020829
 20
233.7919311523436
 30
0.0
 10
84.55711263020829
 20
233.7919311523436
 30
0.0
 10
84.55711263020829
 20
233.7919311523436
 30
0.0
 10
64.42052951388888
 20
233.7919311523436
 30
0.0
 10
64.42052951388888
 20
233.7919311523436
 30
0.0
 10
64.42052951388888
 20
233.7919311523436
 30
0.0
 10
64.41501736111111
 20
255.5278998480901
 30
0.0
 10
64.41501736111111
 20
255.5278998480901
 30
0.0
 10
64.41501736111111
 20
255.5278998480901
 30
0.0
 10
23.91757541232637
 20
255.5278998480901
 30
0.0
 10
23.91757541232637
 20
255.5278998480901
 30
0.0
 10
23.91757541232637
 20
255.5278998480901
 30
0.0
 10
23.91757541232637
 20
233.2393378363715
 30
0.0
 10
23.91757541232637
 20
233.2393378363715
 30
0.0
 10
23.91757541232637
 20
233.2393378363715
 30
0.0
 10
43.65624999999999
 20
233.2393378363715
 30
0.0
 10
43.65624999999999
 20
233.2393378363715
 30
0.0
 10
43.65624999999999
 20
233.2393378363715
 30
0.0
 10
43.65624999999999
 20
211.5188720703125
 30
0.0
 10
43.65624999999999
 20
211.5188720703125
 30
0.0
 10
43.65624999999999
 20
211.5188720703125
 30
0.0
 10
23.91757541232637
 20
211.5188720703125
 30
0.0
 10
23.91757541232637
 20
211.5188720703125
 30
0.0
 10
23.91757541232637
 20
211.5188720703125
 30
0.0
 10
23.91757541232637
 20
189.2303100585936
 30
0.0
 10
23.91757541232637
 20
189.2303100585936
 30
0.0
 10
23.91757541232637
 20
189.2303100585936
 30
0.0
 10
64.41501736111111
 20
189.2303100585936
 30
0.0
 10
64.41501736111111
 20
189.2303100585936
 30
0.0
 10
64.41501736111111
 20
189.2303100585936
 30
0.0
 10
64.42052951388888
 20
211.069976128472
 30
0.0
 10
64.42052951388888
 20
211.069976128472
 30
0.0
 10
64.42052951388888
 20
211.069976128472
 30
0.0
 10
84.55711263020829
 20
211.069976128472
 30
0.0
 10
84.55711263020829
 20
211.069976128472
 30
0.0
 10
84.55711263020829
 20
211.069976128472
 30
0.0
 10
84.5626247829861
 20
189.2303100585936
 30
0.0
 10
84.5626247829861
 20
189.2303100585936
 30
0.0
 10
84.5626247829861
 20
189.2303100585936
 30
0.0
 10
125.8827555338541
 20
189.2303100585936
 30
0.0
 10
125.8827555338541
 20
189.2303100585936
 30
0.0
 10
125.8827555338541
 20
189.2303100585936
 30
0.0
 10
125.8827555338541
 20
211.5188720703125
 30
0.0
 10
125.8827555338541
 20
211.5188720703125
 30
0.0
 10
125.8827555338541
 20
211.5188720703125
 30
0.0
 10
105.3213921440971
 20
211.5188720703125
 30
0.0
 10
105.3213921440971
 20
211.5188720703125
 30
0.0
 10
105.3213921440971
 20
211.5188720703125
 30
0.0
 10
105.3213921440971
 20
233.2393378363715
 30
0.0
 10
105.3213921440971
 20
233.2393378363715
 30
0.0
 10
105.3213921440971
 20
233.2393378363715
 30
0.0
 10
175.0046495225693
 20
233.243127441406
 30
0.0
 10
175.0046495225693
 20
233.243127441406
 30
0.0
 10
175.6268337673611
 20
233.2560465494791
 30
0.0
 10
189.7165852864583
 20
233.3962619357638
 30
0.0
 10
191.3037407769094
 20
219.5690266927083
 30
0.0
 10
191.3037407769094
 20
219.4332899305555
 30
0.0
 10
191.3037407769094
 20
186.1142211914062
 30
0.0
 10
191.3037407769094
 20
186.1142211914062
 30
0.0
 10
191.3037407769094
 20
186.1142211914062
 30
0.0
 10
191.3051188151039
 20
186.0880384657115
 30
0.0
 10
191.3051188151039
 20
186.0880384657115
 30
0.0
 10
191.3054633246526
 20
186.0787367078991
 30
0.0
 10
191.3109754774304
 20
185.9566080729166
 30
0.0
 10
191.3109754774304
 20
185.7399115668401
 30
0.0
 10
191.3109754774304
 20
184.2090833875865
 30
0.0
 10
191.0488037109374
 20
177.9643310546874
 30
0.0
 10
186.9866916232638
 20
173.5652886284722
 30
0.0
 10
184.2540418836804
 20
170.6064683702255
 30
0.0
 10
180.3224989149304
 20
169.0308539496526
 30
0.0
 10
175.300927734375
 20
168.8825425889756
 30
0.0
 10
175.300927734375
 20
168.8825425889756
 30
0.0
 10
107.0094889322916
 20
168.8828870985243
 30
0.0
 10
107.0094889322916
 20
168.8828870985243
 30
0.0
 10
107.0094889322916
 20
168.8828870985243
 30
0.0
 10
107.0094889322916
 20
166.8830091688368
 30
0.0
 10
107.0094889322916
 20
166.8830091688368
 30
0.0
 10
107.0094889322916
 20
166.8830091688368
 30
0.0
 10
175.3305555555555
 20
166.8830091688368
 30
0.0
 10
175.3305555555555
 20
166.8830091688368
 30
0.0
 10
180.9467502170138
 20
167.0485460069444
 30
0.0
 10
185.3571614583333
 20
168.8448187934026
 30
0.0
 10
188.4687717013888
 20
172.2223904079861
 30
0.0
 10
192.9649658203124
 20
177.1034016927083
 30
0.0
 10
193.3136094835069
 20
183.7202243381076
 30
0.0
 10
193.3136094835069
 20
185.6520616319443
 30
0.0
 10
193.3136094835069
 20
185.9247409396701
 30
0.0
 10
193.3070638020833
 20
186.0868326822916
 30
0.0
 10
193.3039632161458
 20
186.1548733181423
 30
0.0
  0
INSERT
  5
2590
102
{ACAD_REACTORS
330
25B0
102
}
330
258E
100
AcDbEntity
  8
LAYER_1
 62
     7
100
AcDbBlockReference
  2
AI9-BLK14
 10
159.5625257703993
 20
200.5118781195744
 30
0.0
  0
INSERT
  5
2591
330
258E
100
AcDbEntity
  8
LAYER_1
 62
     7
100
AcDbBlockReference
  2
AI9-BLK13
 10
27.69615614149305
 20
179.2145562065971
 30
0.0
 42
0.9200000000000001
  0
INSERT
  5
2592
102
{ACAD_REACTORS
330
259D
102
}
330
258E
100
AcDbEntity
  8
LAYER_1
 62
     7
100
AcDbBlockReference
  2
AI9-BLK11
 10
44.76591525607638
 20
179.2145562065971
 30
0.0
 42
0.9200000000000001
  0
INSERT
  5
2593
102
{ACAD_REACTORS
330
25AB
102
}
330
258E
100
AcDbEntity
  8
LAYER_1
 62
     7
100
AcDbBlockReference
  2
AI9-BLK10
 10
54.04665798611111
 20
179.2145562065971
 30
0.0
 42
0.9200000000000001
  0
INSERT
  5
2594
102
{ACAD_REACTORS
330
25AA
102
}
330
258E
100
AcDbEntity
  8
LAYER_1
 62
     7
100
AcDbBlockReference
  2
AI9-BLK9
 10
62.79013807508679
 20
179.2145562065971
 30
0.0
 42
0.9
  0
INSERT
  5
2595
330
258E
100
AcDbEntity
  8
LAYER_1
 62
     7
100
AcDbBlockReference
  2
AI9-BLK8
 10
71.03046196831595
 20
179.2145562065971
 30
0.0
 42
0.9200000000000001
  0
INSERT
  5
2596
330
258E
100
AcDbEntity
  8
LAYER_1
 62
     7
100
AcDbBlockReference
  2
AI9-BLK7
 10
76.93793945312498
 20
179.2145562065971
 30
0.0
 42
0.9200000000000001
  0
INSERT
  5
2597
102
{ACAD_REACTORS
330
259E
102
}
330
258E
100
AcDbEntity
  8
LAYER_1
 62
     7
100
AcDbBlockReference
  2
AI9-BLK6
 10
82.55602891710069
 20
179.2145562065971
 30
0.0
 42
0.9
  0
INSERT
  5
2598
102
{ACAD_REACTORS
330
25AC
102
}
330
258E
100
AcDbEntity
  8
LAYER_1
 62
     7
100
AcDbBlockReference
  2
AI9-BLK5
 10
94.32430284288193
 20
179.2145562065971
 30
0.0
 42
0.9200000000000001
  0
INSERT
  5
2599
102
{ACAD_REACTORS
330
25AD
102
}
330
258E
100
AcDbEntity
  8
LAYER_1
 62
     7
100
AcDbBlockReference
  2
AI9-BLK4
 10
103.2081705729166
 20
179.2145562065971
 30
0.0
 42
0.9200000000000001
  0
INSERT
  5
259A
330
258E
100
AcDbEntity
  8
LAYER_1
 62
     7
100
AcDbBlockReference
  2
AI9-BLK3
 10
108.850978597005
 20
179.2145562065971
 30
0.0
 42
0.9200000000000001
  0
INSERT
  5
259B
330
258E
100
AcDbEntity
  8
LAYER_1
 62
     7
100
AcDbBlockReference
  2
AI9-BLK2
 10
114.2045708550346
 20
179.2145562065971
 30
0.0
 42
0.9200000000000001
  0
INSERT
  5
259C
330
258E
100
AcDbEntity
  8
LAYER_1
 62
     7
100
AcDbBlockReference
  2
AI9-BLK1
 10
122.4125108506944
 20
179.2145562065971
 30
0.0
 42
0.9200000000000001
  0
HATCH
  5
259D
330
258E
100
AcDbEntity
  8
0
  6
Continuous
100
AcDbHatch
 10
0.0
 20
0.0
 30
0.0
210
0.0
220
0.0
230
1.0
  2
SOLID
 70
     1
 71
     1
 91
        2
 92
       16
 93
        1
 72
     4
 94
        3
 73
     0
 74
     0
 95
       26
 96
       22
 40
0.0
 40
0.0
 40
0.0
 40
0.0
 40
1.0
 40
1.0
 40
1.0
 40
2.0
 40
2.0
 40
2.0
 40
3.0
 40
3.0
 40
3.0
 40
4.0
 40
4.0
 40
4.0
 40
5.0
 40
5.0
 40
5.0
 40
6.0
 40
6.0
 40
6.0
 40
7.0
 40
7.0
 40
7.0
 40
7.0
 10
42.12008192274304
 20
180.046229817708
 10
42.12008192274304
 20
180.046229817708
 10
42.12008192274304
 20
186.7401881510414
 10
42.12008192274304
 20
186.7401881510414
 10
42.12008192274304
 20
186.7401881510414
 10
45.23100314670138
 20
186.7401881510414
 10
45.23100314670138
 20
186.7401881510414
 10
45.66853027343749
 20
186.7401881510414
 10
46.01579589843749
 20
186.6064357638887
 10
46.27280002170138
 20
186.3401987847218
 10
46.76751573350694
 20
185.8330807291664
 10
47.01487358940972
 20
184.8822343749996
 10
47.01487358940972
 20
183.4863919270832
 10
47.01487358940972
 20
182.188169704861
 10
46.83848470052082
 20
181.2905707465276
 10
46.48639594184028
 20
180.7929611545137
 10
46.13430718315971
 20
180.2947176649304
 10
45.65888400607638
 20
180.046229817708
 10
45.06012641059028
 20
180.046229817708
 10
45.06012641059028
 20
180.046229817708
 10
42.12008192274304
 20
180.046229817708
 10
42.12008192274304
 20
180.046229817708
 97
        1
330
2592
 92
        1
 93
        1
 72
     4
 94
        3
 73
     0
 74
     0
 95
       68
 96
       64
 40
0.0
 40
0.0
 40
0.0
 40
0.0
 40
1.0
 40
1.0
 40
1.0
 40
2.0
 40
2.0
 40
2.0
 40
3.0
 40
3.0
 40
3.0
 40
4.0
 40
4.0
 40
4.0
 40
5.0
 40
5.0
 40
5.0
 40
6.0
 40
6.0
 40
6.0
 40
7.0
 40
7.0
 40
7.0
 40
8.0
 40
8.0
 40
8.0
 40
9.0
 40
9.0
 40
9.0
 40
10.0
 40
10.0
 40
10.0
 40
11.0
 40
11.0
 40
11.0
 40
12.0
 40
12.0
 40
12.0
 40
13.0
 40
13.0
 40
13.0
 40
14.0
 40
14.0
 40
14.0
 40
15.0
 40
15.0
 40
15.0
 40
16.0
 40
16.0
 40
16.0
 40
17.0
 40
17.0
 40
17.0
 40
18.0
 40
18.0
 40
18.0
 40
19.0
 40
19.0
 40
19.0
 40
20.0
 40
20.0
 40
20.0
 40
21.0
 40
21.0
 40
21.0
 40
21.0
 10
40.79716525607638
 20
169.3358964843748
 10
40.79716525607638
 20
169.3358964843748
 10
42.12008192274304
 20
169.3358964843748
 10
42.12008192274304
 20
169.3358964843748
 10
42.12008192274304
 20
169.3358964843748
 10
42.12008192274304
 20
177.8149103732637
 10
42.12008192274304
 20
177.8149103732637
 10
42.12008192274304
 20
177.8149103732637
 10
45.00500488281249
 20
177.8149103732637
 10
45.00500488281249
 20
177.8149103732637
 10
45.52590332031249
 20
177.8149103732637
 10
45.90968695746528
 20
177.6938359374998
 10
46.15635579427083
 20
177.4516870659719
 10
46.58216959635415
 20
177.0117621527776
 10
46.80954589843749
 20
176.1458580729164
 10
46.83848470052082
 20
174.8539748263887
 10
46.83848470052082
 20
174.8539748263887
 10
46.92667914496527
 20
171.5564396701385
 10
46.92667914496527
 20
171.5564396701385
 10
46.94597167968749
 20
170.7843524305554
 10
46.96870930989581
 20
170.2639225260415
 10
46.99351399739582
 20
169.9951499565971
 10
47.01831868489581
 20
169.725743489583
 10
47.0548366970486
 20
169.5057810329859
 10
47.10444607204859
 20
169.3358964843748
 10
47.10444607204859
 20
169.3358964843748
 10
48.73466525607638
 20
169.3358964843748
 10
48.73466525607638
 20
169.3358964843748
 10
48.73466525607638
 20
169.3358964843748
 10
48.73466525607638
 20
169.7821603732635
 10
48.73466525607638
 20
169.7821603732635
 10
48.53278266059028
 20
169.9609194878471
 10
48.39153374565971
 20
170.3628105468748
 10
48.31160753038194
 20
170.9878335503471
 10
48.26062011718749
 20
171.3542263454858
 10
48.22548014322915
 20
171.9120562065971
 10
48.20549858940971
 20
172.6625909288193
 10
48.20549858940971
 20
172.6625909288193
 10
48.16140136718749
 20
175.3205234374999
 10
48.16140136718749
 20
175.3205234374999
 10
48.14141981336803
 20
176.4716814236109
 10
48.03462185329859
 20
177.3033550347219
 10
47.84169650607638
 20
177.8142764756941
 10
47.64808213975693
 20
178.3251979166665
 10
47.35800509982638
 20
178.7372313368054
 10
46.97077636718749
 20
179.0516445312498
 10
47.4021023220486
 20
179.5086846788193
 10
47.73765462239582
 20
180.1134229600693
 10
47.97743326822915
 20
180.8664932725691
 10
48.21721191406249
 20
181.6189296874999
 10
48.33779025607638
 20
182.5868912760413
 10
48.33779025607638
 20
183.7697441406248
 10
48.33779025607638
 20
186.0371957465274
 10
47.89061686197916
 20
187.5921464843749
 10
46.99695909288194
 20
188.4345963541665
 10
46.52567003038194
 20
188.8732534722221
 10
45.92966851128472
 20
189.0932159288193
 10
45.20895453559027
 20
189.0932159288193
 10
45.20895453559027
 20
189.0932159288193
 10
40.79716525607638
 20
189.0932159288193
 10
40.79716525607638
 20
189.0932159288193
 10
40.79716525607638
 20
189.0932159288193
 10
40.79716525607638
 20
169.3358964843748
 10
40.79716525607638
 20
169.3358964843748
 97
        0
 75
     0
 76
     1
 98
        0
  0
HATCH
  5
259E
330
258E
100
AcDbEntity
  8
0
  6
Continuous
100
AcDbHatch
 10
0.0
 20
0.0
 30
0.0
210
0.0
220
0.0
230
1.0
  2
SOLID
 70
     1
 71
     1
 91
        1
 92
        1
 93
        1
 72
     4
 94
        3
 73
     0
 74
     0
 95
       59
 96
       55
 40
0.0
 40
0.0
 40
0.0
 40
0.0
 40
1.0
 40
1.0
 40
1.0
 40
2.0
 40
2.0
 40
2.0
 40
3.0
 40
3.0
 40
3.0
 40
4.0
 40
4.0
 40
4.0
 40
5.0
 40
5.0
 40
5.0
 40
6.0
 40
6.0
 40
6.0
 40
7.0
 40
7.0
 40
7.0
 40
8.0
 40
8.0
 40
8.0
 40
9.0
 40
9.0
 40
9.0
 40
10.0
 40
10.0
 40
10.0
 40
11.0
 40
11.0
 40
11.0
 40
12.0
 40
12.0
 40
12.0
 40
13.0
 40
13.0
 40
13.0
 40
14.0
 40
14.0
 40
14.0
 40
15.0
 40
15.0
 40
15.0
 40
16.0
 40
16.0
 40
16.0
 40
17.0
 40
17.0
 40
17.0
 40
18.0
 40
18.0
 40
18.0
 40
18.0
 10
85.61871880425345
 20
187.4658355034721
 10
86.29120144314232
 20
186.1797124565971
 10
86.66671685112847
 20
184.7193364800346
 10
86.7452650282118
 20
183.0840874565969
 10
86.7452650282118
 20
183.0840874565969
 10
85.42234836154511
 20
183.0840874565969
 10
85.42234836154511
 20
183.0840874565969
 10
85.27696533203123
 20
184.3156401909719
 10
84.99171142578125
 20
185.2917046440971
 10
84.56589762369791
 20
186.0122808159719
 10
84.14008382161458
 20
186.7322368706594
 10
83.53994818793401
 20
187.0925249565969
 10
82.76617974175342
 20
187.0925249565969
 10
81.81740044487847
 20
187.0925249565969
 10
81.05258924696178
 20
186.4240386284721
 10
80.47243516710068
 20
185.0883062065971
 10
79.89159206814234
 20
183.7525737847219
 10
79.6015150282118
 20
181.7049468315971
 10
79.6015150282118
 20
178.9454253472221
 10
79.6015150282118
 20
176.6844780815969
 10
79.86265326605901
 20
174.8514116753471
 10
80.38561876085069
 20
173.4456060112846
 10
80.90789523654512
 20
172.0391802300344
 10
81.69199896918403
 20
171.3365874565971
 10
82.73724093967013
 20
171.3365874565971
 10
83.69497748480901
 20
171.3365874565971
 10
84.42120361328125
 20
172.0794878472221
 10
84.91523030598958
 20
173.5665288628469
 10
85.18601481119791
 20
174.3491167534719
 10
85.38445231119791
 20
175.3785112847221
 10
85.51054280598959
 20
176.6547124565971
 10
85.51054280598959
 20
176.6547124565971
 10
86.83345947265625
 20
176.6547124565971
 10
86.83345947265625
 20
176.6547124565971
 10
86.72597249348957
 20
174.6157671440971
 10
86.35114610460069
 20
172.9061040581596
 10
85.70760226779514
 20
171.526343315972
 10
84.93727891710069
 20
169.8650493706596
 10
83.90375027126735
 20
169.0347124565971
 10
82.60701633029514
 20
169.0347124565971
 10
81.48598225911458
 20
169.0347124565971
 10
80.54547119140625
 20
169.7143608940971
 10
79.78479410807292
 20
171.0742778862845
 10
78.78020426432292
 20
172.8726177300344
 10
78.27859836154512
 20
175.6495024956596
 10
78.27859836154512
 20
179.4049321831594
 10
78.27859836154512
 20
182.2562310112846
 10
78.65342475043402
 20
184.5946929253469
 10
79.40445556640622
 20
186.4196978081596
 10
80.22301025390625
 20
188.4028325737846
 10
81.34955647786458
 20
189.3943999565971
 10
82.78271620008679
 20
189.3943999565971
 10
84.00090196397568
 20
189.3943999565971
 10
84.94623616536458
 20
188.7513384331594
 10
85.61871880425345
 20
187.4658355034721
 97
        1
330
2597
 75
     0
 76
     1
 98
        1
 10
0.0
 20
0.0
  0
LINE
  5
259F
102
{ACAD_REACTORS
330
25AE
102
}
330
258E
100
AcDbEntity
  8
LAYER_1
 62
     7
100
AcDbLine
 10
34.65766059027778
 20
177.4497853732638
 30
0.0
 11
36.19830729166666
 21
186.1658769531249
 31
0.0
  0
LINE
  5
25A0
102
{ACAD_REACTORS
330
25AE
102
}
330
258E
100
AcDbEntity
  8
LAYER_1
 62
     7
100
AcDbLine
 10
36.19830729166666
 20
186.1658769531249
 30
0.0
 11
37.67556423611111
 21
177.4497853732638
 31
0.0
  0
LINE
  5
25A1
102
{ACAD_REACTORS
330
25AE
102
}
330
258E
100
AcDbEntity
  8
LAYER_1
 62
     7
100
AcDbLine
 10
37.67556423611111
 20
177.4497853732638
 30
0.0
 11
34.65766059027778
 21
177.4497853732638
 31
0.0
  0
LINE
  5
25A2
102
{ACAD_REACTORS
330
25AE
102
}
330
258E
100
AcDbEntity
  8
LAYER_1
 62
     7
100
AcDbLine
 10
31.83957248263888
 20
169.3358964843748
 30
0.0
 11
33.22450086805555
 21
169.3358964843748
 31
0.0
  0
LINE
  5
25A3
102
{ACAD_REACTORS
330
25AE
102
}
330
258E
100
AcDbEntity
  8
LAYER_1
 62
     7
100
AcDbLine
 10
33.22450086805555
 20
169.3358964843748
 30
0.0
 11
34.27043185763887
 21
175.2590353732638
 31
0.0
  0
LINE
  5
25A4
102
{ACAD_REACTORS
330
25AE
102
}
330
258E
100
AcDbEntity
  8
LAYER_1
 62
     7
100
AcDbLine
 10
34.27043185763887
 20
175.2590353732638
 30
0.0
 11
38.04694552951389
 21
175.2590353732638
 31
0.0
  0
LINE
  5
25A5
102
{ACAD_REACTORS
330
25AE
102
}
330
258E
100
AcDbEntity
  8
LAYER_1
 62
     7
100
AcDbLine
 10
38.04694552951389
 20
175.2590353732638
 30
0.0
 11
39.05015733506942
 21
169.3358964843748
 31
0.0
  0
LINE
  5
25A6
102
{ACAD_REACTORS
330
25AE
102
}
330
258E
100
AcDbEntity
  8
LAYER_1
 62
     7
100
AcDbLine
 10
39.05015733506942
 20
169.3358964843748
 30
0.0
 11
40.43508572048611
 21
169.3358964843748
 31
0.0
  0
LINE
  5
25A7
102
{ACAD_REACTORS
330
25AE
102
}
330
258E
100
AcDbEntity
  8
LAYER_1
 62
     7
100
AcDbLine
 10
40.43508572048611
 20
169.3358964843748
 30
0.0
 11
36.952783203125
 21
189.0932159288193
 31
0.0
  0
LINE
  5
25A8
102
{ACAD_REACTORS
330
25AE
102
}
330
258E
100
AcDbEntity
  8
LAYER_1
 62
     7
100
AcDbLine
 10
36.952783203125
 20
189.0932159288193
 30
0.0
 11
35.47828233506943
 21
189.0932159288193
 31
0.0
  0
LINE
  5
25A9
102
{ACAD_REACTORS
330
25AE
102
}
330
258E
100
AcDbEntity
  8
LAYER_1
 62
     7
100
AcDbLine
 10
35.47828233506943
 20
189.0932159288193
 30
0.0
 11
31.83957248263888
 21
169.3358964843748
 31
0.0
  0
HATCH
  5
25AA
330
258E
100
AcDbEntity
  8
0
  6
Continuous
100
AcDbHatch
 10
0.0
 20
0.0
 30
0.0
210
0.0
220
0.0
230
1.0
  2
SOLID
 70
     1
 71
     1
 91
        2
 92
       16
 93
        1
 72
     4
 94
        3
 73
     0
 74
     0
 95
       29
 96
       25
 40
0.0
 40
0.0
 40
0.0
 40
0.0
 40
1.0
 40
1.0
 40
1.0
 40
2.0
 40
2.0
 40
2.0
 40
3.0
 40
3.0
 40
3.0
 40
4.0
 40
4.0
 40
4.0
 40
5.0
 40
5.0
 40
5.0
 40
6.0
 40
6.0
 40
6.0
 40
7.0
 40
7.0
 40
7.0
 40
8.0
 40
8.0
 40
8.0
 40
8.0
 10
62.85697292751734
 20
171.3365874565971
 10
61.88338894314235
 20
171.3365874565971
 10
61.18058946397566
 20
172.0714263237844
 10
60.74857449001735
 20
173.5411040581594
 10
60.31587049696178
 20
175.0107817925344
 10
60.10020751953123
 20
176.8165630425343
 10
60.10020751953123
 20
178.9578276909721
 10
60.10020751953123
 20
181.6342534722221
 10
60.35101047092013
 20
183.6589360894094
 10
60.85261637369789
 20
185.0324956597219
 10
61.35422227647566
 20
186.4054351128471
 10
62.00741238064235
 20
187.0925249565969
 10
62.81218668619789
 20
187.0925249565969
 10
63.6369425455729
 20
187.0925249565969
 10
64.28806559244789
 20
186.3992339409721
 10
64.76486680772568
 20
185.0126519097221
 10
65.24166802300347
 20
183.6260698784719
 10
65.48006863064235
 20
181.7961040581594
 10
65.48006863064235
 20
179.5239946831596
 10
65.48006863064235
 20
177.3734282769096
 10
65.27336290147568
 20
175.4715288628469
 10
64.86132948133678
 20
173.8176763237846
 10
64.4492960611979
 20
172.1632036675344
 10
63.78094753689235
 20
171.3365874565971
 10
62.85697292751734
 20
171.3365874565971
 97
        1
330
2594
 92
        1
 93
        1
 72
     4
 94
        3
 73
     0
 74
     0
 95
       29
 96
       25
 40
0.0
 40
0.0
 40
0.0
 40
0.0
 40
1.0
 40
1.0
 40
1.0
 40
2.0
 40
2.0
 40
2.0
 40
3.0
 40
3.0
 40
3.0
 40
4.0
 40
4.0
 40
4.0
 40
5.0
 40
5.0
 40
5.0
 40
6.0
 40
6.0
 40
6.0
 40
7.0
 40
7.0
 40
7.0
 40
8.0
 40
8.0
 40
8.0
 40
8.0
 10
62.76119927300346
 20
189.4340874565971
 10
61.47273356119789
 20
189.4340874565971
 10
60.50121663411457
 20
188.2397417534719
 10
59.84733751085068
 20
185.8516704644094
 10
59.3395304361979
 20
183.9900786675344
 10
59.08597140842012
 20
181.7514556206596
 10
59.08597140842012
 20
179.1351812065971
 10
59.08597140842012
 20
176.2379937065971
 10
59.3836276584201
 20
173.8412407769094
 10
59.9789401584201
 20
171.9449224175346
 10
60.6424655490451
 20
169.9779106987846
 10
61.5602389865451
 20
168.9950249565971
 10
62.7315714518229
 20
168.9950249565971
 10
63.9904093424479
 20
168.9950249565971
 10
64.95641411675345
 20
170.1186773003469
 10
65.63027479383679
 20
172.3659819878471
 10
66.20629475911457
 20
174.2796636284719
 10
66.49430474175345
 20
176.6813774956593
 10
66.49430474175345
 20
179.5698833550344
 10
66.49430474175345
 20
182.2388677300343
 10
66.24005669487845
 20
184.4291216362844
 10
65.73293863932289
 20
186.1412651909719
 10
65.08870578342011
 20
188.3364800347219
 10
64.09789632161457
 20
189.4340874565971
 10
62.76119927300346
 20
189.4340874565971
 97
        0
 75
     0
 76
     1
 98
        0
  0
HATCH
  5
25AB
330
258E
100
AcDbEntity
  8
0
  6
Continuous
100
AcDbHatch
 10
0.0
 20
0.0
 30
0.0
210
0.0
220
0.0
230
1.0
  2
SOLID
 70
     1
 71
     1
 91
        1
 92
        1
 93
        1
 72
     4
 94
        3
 73
     0
 74
     0
 95
       59
 96
       55
 40
0.0
 40
0.0
 40
0.0
 40
0.0
 40
1.0
 40
1.0
 40
1.0
 40
2.0
 40
2.0
 40
2.0
 40
3.0
 40
3.0
 40
3.0
 40
4.0
 40
4.0
 40
4.0
 40
5.0
 40
5.0
 40
5.0
 40
6.0
 40
6.0
 40
6.0
 40
7.0
 40
7.0
 40
7.0
 40
8.0
 40
8.0
 40
8.0
 40
9.0
 40
9.0
 40
9.0
 40
10.0
 40
10.0
 40
10.0
 40
11.0
 40
11.0
 40
11.0
 40
12.0
 40
12.0
 40
12.0
 40
13.0
 40
13.0
 40
13.0
 40
14.0
 40
14.0
 40
14.0
 40
15.0
 40
15.0
 40
15.0
 40
16.0
 40
16.0
 40
16.0
 40
17.0
 40
17.0
 40
17.0
 40
18.0
 40
18.0
 40
18.0
 40
18.0
 10
49.39440104166666
 20
189.0932159288193
 10
49.39440104166666
 20
189.0932159288193
 10
51.24786241319444
 20
189.0932159288193
 10
51.24786241319444
 20
189.0932159288193
 10
51.24786241319444
 20
189.0932159288193
 10
54.04665798611111
 20
172.3887471788193
 10
54.04665798611111
 20
172.3887471788193
 10
54.04665798611111
 20
172.3887471788193
 10
56.83994140624999
 20
189.0932159288193
 10
56.83994140624999
 20
189.0932159288193
 10
56.83994140624999
 20
189.0932159288193
 10
58.69891493055553
 20
189.0932159288193
 10
58.69891493055553
 20
189.0932159288193
 10
58.69891493055553
 20
189.0932159288193
 10
58.69891493055553
 20
169.3358964843748
 10
58.69891493055553
 20
169.3358964843748
 10
58.69891493055553
 20
169.3358964843748
 10
57.46419270833333
 20
169.3358964843748
 10
57.46419270833333
 20
169.3358964843748
 10
57.46419270833333
 20
169.3358964843748
 10
57.46419270833333
 20
180.9964422743054
 10
57.46419270833333
 20
180.9964422743054
 10
57.46419270833333
 20
181.3996011284721
 10
57.47108289930555
 20
182.0677291666664
 10
57.48624131944444
 20
183.0001924913193
 10
57.50071072048609
 20
183.9326558159721
 10
57.50828993055553
 20
184.932312282986
 10
57.50828993055553
 20
185.9997957899304
 10
57.50828993055553
 20
185.9997957899304
 10
54.700537109375
 20
169.3358964843748
 10
54.700537109375
 20
169.3358964843748
 10
54.700537109375
 20
169.3358964843748
 10
53.38382161458333
 20
169.3358964843748
 10
53.38382161458333
 20
169.3358964843748
 10
53.38382161458333
 20
169.3358964843748
 10
50.58502604166665
 20
185.9997957899304
 10
50.58502604166665
 20
185.9997957899304
 10
50.58502604166665
 20
185.9997957899304
 10
50.58502604166665
 20
185.3944236111109
 10
50.58502604166665
 20
185.3944236111109
 10
50.58502604166665
 20
184.9101258680554
 10
50.59191623263888
 20
184.1729029947915
 10
50.60707465277777
 20
183.1821210937498
 10
50.62154405381942
 20
182.1913391927082
 10
50.62912326388889
 20
181.4629908854165
 10
50.62912326388889
 20
180.9964422743054
 10
50.62912326388889
 20
180.9964422743054
 10
50.62912326388889
 20
169.3358964843748
 10
50.62912326388889
 20
169.3358964843748
 10
50.62912326388889
 20
169.3358964843748
 10
49.39440104166666
 20
169.3358964843748
 10
49.39440104166666
 20
169.3358964843748
 10
49.39440104166666
 20
169.3358964843748
 10
49.39440104166666
 20
189.0932159288193
 10
49.39440104166666
 20
189.0932159288193
 97
        1
330
2593
 75
     0
 76
     1
 98
        1
 10
0.0
 20
0.0
  0
HATCH
  5
25AC
330
258E
100
AcDbEntity
  8
0
  6
Continuous
100
AcDbHatch
 10
0.0
 20
0.0
 30
0.0
210
0.0
220
0.0
230
1.0
  2
SOLID
 70
     1
 71
     1
 91
        2
 92
       16
 93
        1
 72
     4
 94
        3
 73
     0
 74
     0
 95
       32
 96
       28
 40
0.0
 40
0.0
 40
0.0
 40
0.0
 40
1.0
 40
1.0
 40
1.0
 40
2.0
 40
2.0
 40
2.0
 40
3.0
 40
3.0
 40
3.0
 40
4.0
 40
4.0
 40
4.0
 40
5.0
 40
5.0
 40
5.0
 40
6.0
 40
6.0
 40
6.0
 40
7.0
 40
7.0
 40
7.0
 40
8.0
 40
8.0
 40
8.0
 40
9.0
 40
9.0
 40
9.0
 40
9.0
 10
91.70051812065969
 20
171.6077853732635
 10
91.70051812065969
 20
171.6077853732635
 10
91.70051812065969
 20
186.7401881510414
 10
91.70051812065969
 20
186.7401881510414
 10
91.70051812065969
 20
186.7401881510414
 10
93.98668348524305
 20
186.7401881510414
 10
93.98668348524305
 20
186.7401881510414
 10
95.02159016927082
 20
186.7401881510414
 10
95.77331000434028
 20
186.0644533420137
 10
96.24322102864582
 20
184.7142515190969
 10
96.71313205295138
 20
183.3640496961804
 10
96.94808756510417
 20
181.4680620659721
 10
96.94808756510417
 20
179.0262886284719
 10
96.94808756510417
 20
178.3911232638887
 10
96.91432562934028
 20
177.7027105034721
 10
96.84749077690971
 20
176.9604164496524
 10
96.7324245876736
 20
175.7167094184024
 10
96.55052354600693
 20
174.6974021267359
 10
96.30109863281248
 20
173.901860677083
 10
95.98414984809028
 20
172.9091770833332
 10
95.57693956163193
 20
172.2378795572914
 10
95.07877875434026
 20
171.8892358940971
 10
94.79076877170138
 20
171.7016022135415
 10
94.43178982204859
 20
171.6077853732635
 10
94.00115288628471
 20
171.6077853732635
 10
94.00115288628471
 20
171.6077853732635
 10
91.70051812065969
 20
171.6077853732635
 10
91.70051812065969
 20
171.6077853732635
 97
        1
330
2598
 92
        1
 93
        1
 72
     4
 94
        3
 73
     0
 74
     0
 95
       26
 96
       22
 40
0.0
 40
0.0
 40
0.0
 40
0.0
 40
1.0
 40
1.0
 40
1.0
 40
2.0
 40
2.0
 40
2.0
 40
3.0
 40
3.0
 40
3.0
 40
4.0
 40
4.0
 40
4.0
 40
5.0
 40
5.0
 40
5.0
 40
6.0
 40
6.0
 40
6.0
 40
7.0
 40
7.0
 40
7.0
 40
7.0
 10
90.37760145399305
 20
169.3358964843748
 10
90.37760145399305
 20
169.3358964843748
 10
94.22990722656248
 20
169.3358964843748
 10
94.22990722656248
 20
169.3358964843748
 10
95.87115071614581
 20
169.3358964843748
 10
97.03008083767359
 20
170.8331625434026
 10
97.70600857204859
 20
173.8283285590274
 10
98.08221299913194
 20
175.5227367621524
 10
98.27100423177082
 20
177.4187243923609
 10
98.27100423177082
 20
179.5169253472221
 10
98.27100423177082
 20
182.233810329861
 10
97.94716525607638
 20
184.4619602864582
 10
97.30086534288195
 20
186.2013752170135
 10
96.57601725260416
 20
188.1290577256941
 10
95.5576470269097
 20
189.0932159288193
 10
94.24437662760416
 20
189.0932159288193
 10
94.24437662760416
 20
189.0932159288193
 10
90.37760145399305
 20
189.0932159288193
 10
90.37760145399305
 20
189.0932159288193
 10
90.37760145399305
 20
189.0932159288193
 10
90.37760145399305
 20
169.3358964843748
 10
90.37760145399305
 20
169.3358964843748
 97
        0
 75
     0
 76
     1
 98
        0
  0
HATCH
  5
25AD
330
258E
100
AcDbEntity
  8
0
  6
Continuous
100
AcDbHatch
 10
0.0
 20
0.0
 30
0.0
210
0.0
220
0.0
230
1.0
  2
SOLID
 70
     1
 71
     1
 91
        2
 92
       16
 93
        1
 72
     4
 94
        3
 73
     0
 74
     0
 95
       26
 96
       22
 40
0.0
 40
0.0
 40
0.0
 40
0.0
 40
1.0
 40
1.0
 40
1.0
 40
2.0
 40
2.0
 40
2.0
 40
3.0
 40
3.0
 40
3.0
 40
4.0
 40
4.0
 40
4.0
 40
5.0
 40
5.0
 40
5.0
 40
6.0
 40
6.0
 40
6.0
 40
7.0
 40
7.0
 40
7.0
 40
7.0
 10
100.5623372395832
 20
180.046229817708
 10
100.5623372395832
 20
180.046229817708
 10
100.5623372395832
 20
186.7401881510414
 10
100.5623372395832
 20
186.7401881510414
 10
100.5623372395832
 20
186.7401881510414
 10
103.6732584635416
 20
186.7401881510414
 10
103.6732584635416
 20
186.7401881510414
 10
104.1107855902777
 20
186.7401881510414
 10
104.4580512152777
 20
186.6064357638887
 10
104.7150553385415
 20
186.3401987847218
 10
105.2097710503471
 20
185.8330807291664
 10
105.4571289062497
 20
184.8822343749996
 10
105.4571289062497
 20
183.4863919270832
 10
105.4571289062497
 20
182.188169704861
 10
105.280740017361
 20
181.2905707465276
 10
104.9286512586804
 20
180.7929611545137
 10
104.5765624999999
 20
180.2947176649304
 10
104.1011393229166
 20
180.046229817708
 10
103.5023817274304
 20
180.046229817708
 10
103.5023817274304
 20
180.046229817708
 10
100.5623372395832
 20
180.046229817708
 10
100.5623372395832
 20
180.046229817708
 97
        1
330
2599
 92
        1
 93
        1
 72
     4
 94
        3
 73
     0
 74
     0
 95
       68
 96
       64
 40
0.0
 40
0.0
 40
0.0
 40
0.0
 40
1.0
 40
1.0
 40
1.0
 40
2.0
 40
2.0
 40
2.0
 40
3.0
 40
3.0
 40
3.0
 40
4.0
 40
4.0
 40
4.0
 40
5.0
 40
5.0
 40
5.0
 40
6.0
 40
6.0
 40
6.0
 40
7.0
 40
7.0
 40
7.0
 40
8.0
 40
8.0
 40
8.0
 40
9.0
 40
9.0
 40
9.0
 40
10.0
 40
10.0
 40
10.0
 40
11.0
 40
11.0
 40
11.0
 40
12.0
 40
12.0
 40
12.0
 40
13.0
 40
13.0
 40
13.0
 40
14.0
 40
14.0
 40
14.0
 40
15.0
 40
15.0
 40
15.0
 40
16.0
 40
16.0
 40
16.0
 40
17.0
 40
17.0
 40
17.0
 40
18.0
 40
18.0
 40
18.0
 40
19.0
 40
19.0
 40
19.0
 40
20.0
 40
20.0
 40
20.0
 40
21.0
 40
21.0
 40
21.0
 40
21.0
 10
99.23942057291661
 20
169.3358964843748
 10
99.23942057291661
 20
169.3358964843748
 10
100.5623372395832
 20
169.3358964843748
 10
100.5623372395832
 20
169.3358964843748
 10
100.5623372395832
 20
169.3358964843748
 10
100.5623372395832
 20
177.8149103732637
 10
100.5623372395832
 20
177.8149103732637
 10
100.5623372395832
 20
177.8149103732637
 10
103.4472601996527
 20
177.8149103732637
 10
103.4472601996527
 20
177.8149103732637
 10
103.9681586371527
 20
177.8149103732637
 10
104.3519422743053
 20
177.6938359374998
 10
104.5986111111109
 20
177.4516870659719
 10
105.0244249131943
 20
177.0117621527776
 10
105.2518012152777
 20
176.1458580729164
 10
105.280740017361
 20
174.8539748263887
 10
105.280740017361
 20
174.8539748263887
 10
105.3689344618053
 20
171.5564396701385
 10
105.3689344618053
 20
171.5564396701385
 10
105.3882269965277
 20
170.7843524305554
 10
105.4109646267359
 20
170.2639225260415
 10
105.4357693142359
 20
169.9951499565971
 10
105.4605740017358
 20
169.725743489583
 10
105.4970920138888
 20
169.5057810329859
 10
105.5467013888887
 20
169.3358964843748
 10
105.5467013888887
 20
169.3358964843748
 10
107.1769205729166
 20
169.3358964843748
 10
107.1769205729166
 20
169.3358964843748
 10
107.1769205729166
 20
169.3358964843748
 10
107.1769205729166
 20
169.7821603732635
 10
107.1769205729166
 20
169.7821603732635
 10
106.9750379774303
 20
169.9609194878471
 10
106.8337890624997
 20
170.3628105468748
 10
106.7538628472221
 20
170.9878335503471
 10
106.7028754340274
 20
171.3542263454858
 10
106.6677354600692
 20
171.9120562065971
 10
106.6477539062497
 20
172.6625909288193
 10
106.6477539062497
 20
172.6625909288193
 10
106.6036566840277
 20
175.3205234374999
 10
106.6036566840277
 20
175.3205234374999
 10
106.5836751302082
 20
176.4716814236109
 10
106.4768771701387
 20
177.3033550347219
 10
106.2839518229166
 20
177.8142764756941
 10
106.0903374565971
 20
178.3251979166665
 10
105.8002604166666
 20
178.7372313368054
 10
105.4130316840277
 20
179.0516445312498
 10
105.8443576388886
 20
179.5086846788193
 10
106.179909939236
 20
180.1134229600693
 10
106.4196885850692
 20
180.8664932725691
 10
106.6594672309027
 20
181.6189296874999
 10
106.7800455729166
 20
182.5868912760413
 10
106.7800455729166
 20
183.7697441406248
 10
106.7800455729166
 20
186.0371957465274
 10
106.3328721788193
 20
187.5921464843749
 10
105.4392144097221
 20
188.4345963541665
 10
104.9679253472221
 20
188.8732534722221
 10
104.3719238281249
 20
189.0932159288193
 10
103.6512098524303
 20
189.0932159288193
 10
103.6512098524303
 20
189.0932159288193
 10
99.23942057291661
 20
189.0932159288193
 10
99.23942057291661
 20
189.0932159288193
 10
99.23942057291661
 20
189.0932159288193
 10
99.23942057291661
 20
169.3358964843748
 10
99.23942057291661
 20
169.3358964843748
 97
        0
 75
     0
 76
     1
 98
        0
  0
HATCH
  5
25AE
330
258E
100
AcDbEntity
  8
0
  6
Continuous
100
AcDbHatch
 10
0.0
 20
0.0
 30
0.0
210
0.0
220
0.0
230
1.0
  2
SOLID
 70
     1
 71
     1
 91
        2
 92
        1
 93
        8
 72
     1
 10
35.47828233506943
 20
189.0932159288193
 11
31.83957248263888
 21
169.3358964843748
 72
     1
 10
31.83957248263888
 20
169.3358964843748
 11
33.22450086805555
 21
169.3358964843748
 72
     1
 10
33.22450086805555
 20
169.3358964843748
 11
34.27043185763887
 21
175.2590353732638
 72
     1
 10
34.27043185763887
 20
175.2590353732638
 11
38.04694552951389
 21
175.2590353732638
 72
     1
 10
38.04694552951389
 20
175.2590353732638
 11
39.05015733506942
 21
169.3358964843748
 72
     1
 10
39.05015733506942
 20
169.3358964843748
 11
40.43508572048611
 21
169.3358964843748
 72
     1
 10
40.43508572048611
 20
169.3358964843748
 11
36.952783203125
 21
189.0932159288193
 72
     1
 10
36.952783203125
 20
189.0932159288193
 11
35.47828233506943
 21
189.0932159288193
 97
        8
330
25A9
330
25A2
330
25A3
330
25A4
330
25A5
330
25A6
330
25A7
330
25A8
 92
       16
 93
        3
 72
     1
 10
37.67556423611111
 20
177.4497853732638
 11
34.65766059027778
 21
177.4497853732638
 72
     1
 10
34.65766059027778
 20
177.4497853732638
 11
36.19830729166666
 21
186.1658769531249
 72
     1
 10
36.19830729166666
 20
186.1658769531249
 11
37.67556423611111
 21
177.4497853732638
 97
        3
330
25A1
330
259F
330
25A0
 75
     0
 76
     1
 98
        1
 10
0.0
 20
0.0
  0
HATCH
  5
25AF
330
258E
100
AcDbEntity
  8
0
  6
Continuous
100
AcDbHatch
 10
0.0
 20
0.0
 30
0.0
210
0.0
220
0.0
230
1.0
  2
SOLID
 70
     1
 71
     1
 91
        1
 92
        1
 93
        1
 72
     4
 94
        3
 73
     0
 74
     0
 95
      113
 96
      109
 40
0.0
 40
0.0
 40
0.0
 40
0.0
 40
1.0
 40
1.0
 40
1.0
 40
2.0
 40
2.0
 40
2.0
 40
3.0
 40
3.0
 40
3.0
 40
4.0
 40
4.0
 40
4.0
 40
5.0
 40
5.0
 40
5.0
 40
6.0
 40
6.0
 40
6.0
 40
7.0
 40
7.0
 40
7.0
 40
8.0
 40
8.0
 40
8.0
 40
9.0
 40
9.0
 40
9.0
 40
10.0
 40
10.0
 40
10.0
 40
11.0
 40
11.0
 40
11.0
 40
12.0
 40
12.0
 40
12.0
 40
13.0
 40
13.0
 40
13.0
 40
14.0
 40
14.0
 40
14.0
 40
15.0
 40
15.0
 40
15.0
 40
16.0
 40
16.0
 40
16.0
 40
17.0
 40
17.0
 40
17.0
 40
18.0
 40
18.0
 40
18.0
 40
19.0
 40
19.0
 40
19.0
 40
20.0
 40
20.0
 40
20.0
 40
21.0
 40
21.0
 40
21.0
 40
22.0
 40
22.0
 40
22.0
 40
23.0
 40
23.0
 40
23.0
 40
24.0
 40
24.0
 40
24.0
 40
25.0
 40
25.0
 40
25.0
 40
26.0
 40
26.0
 40
26.0
 40
27.0
 40
27.0
 40
27.0
 40
28.0
 40
28.0
 40
28.0
 40
29.0
 40
29.0
 40
29.0
 40
30.0
 40
30.0
 40
30.0
 40
31.0
 40
31.0
 40
31.0
 40
32.0
 40
32.0
 40
32.0
 40
33.0
 40
33.0
 40
33.0
 40
34.0
 40
34.0
 40
34.0
 40
35.0
 40
35.0
 40
35.0
 40
36.0
 40
36.0
 40
36.0
 40
36.0
 10
193.3039632161458
 20
186.1548733181423
 10
193.3039632161458
 20
186.1860514322916
 10
193.3039632161458
 20
219.6932223849826
 10
193.3039632161458
 20
219.6932223849826
 10
193.3039632161458
 20
219.6932223849826
 10
193.2974175347219
 20
219.7488606770833
 10
193.2974175347219
 20
219.7488606770833
 10
191.5293945312499
 20
235.455740017361
 10
175.1458984374999
 20
235.2467949761284
 10
174.9808783637151
 20
235.2428331163193
 10
174.9808783637151
 20
235.2428331163193
 10
125.8827555338541
 20
235.2430053710937
 10
125.8827555338541
 20
235.2430053710937
 10
125.8827555338541
 20
235.2430053710937
 10
125.8827555338541
 20
255.5278998480901
 10
125.8827555338541
 20
255.5278998480901
 10
125.8827555338541
 20
255.5278998480901
 10
84.5626247829861
 20
255.5278998480901
 10
84.5626247829861
 20
255.5278998480901
 10
84.5626247829861
 20
255.5278998480901
 10
84.55711263020829
 20
233.7919311523436
 10
84.55711263020829
 20
233.7919311523436
 10
84.55711263020829
 20
233.7919311523436
 10
64.42052951388888
 20
233.7919311523436
 10
64.42052951388888
 20
233.7919311523436
 10
64.42052951388888
 20
233.7919311523436
 10
64.41501736111111
 20
255.5278998480901
 10
64.41501736111111
 20
255.5278998480901
 10
64.41501736111111
 20
255.5278998480901
 10
23.91757541232637
 20
255.5278998480901
 10
23.91757541232637
 20
255.5278998480901
 10
23.91757541232637
 20
255.5278998480901
 10
23.91757541232637
 20
233.2393378363715
 10
23.91757541232637
 20
233.2393378363715
 10
23.91757541232637
 20
233.2393378363715
 10
43.65624999999999
 20
233.2393378363715
 10
43.65624999999999
 20
233.2393378363715
 10
43.65624999999999
 20
233.2393378363715
 10
43.65624999999999
 20
211.5188720703125
 10
43.65624999999999
 20
211.5188720703125
 10
43.65624999999999
 20
211.5188720703125
 10
23.91757541232637
 20
211.5188720703125
 10
23.91757541232637
 20
211.5188720703125
 10
23.91757541232637
 20
211.5188720703125
 10
23.91757541232637
 20
189.2303100585936
 10
23.91757541232637
 20
189.2303100585936
 10
23.91757541232637
 20
189.2303100585936
 10
64.41501736111111
 20
189.2303100585936
 10
64.41501736111111
 20
189.2303100585936
 10
64.41501736111111
 20
189.2303100585936
 10
64.42052951388888
 20
211.069976128472
 10
64.42052951388888
 20
211.069976128472
 10
64.42052951388888
 20
211.069976128472
 10
84.55711263020829
 20
211.069976128472
 10
84.55711263020829
 20
211.069976128472
 10
84.55711263020829
 20
211.069976128472
 10
84.5626247829861
 20
189.2303100585936
 10
84.5626247829861
 20
189.2303100585936
 10
84.5626247829861
 20
189.2303100585936
 10
125.8827555338541
 20
189.2303100585936
 10
125.8827555338541
 20
189.2303100585936
 10
125.8827555338541
 20
189.2303100585936
 10
125.8827555338541
 20
211.5188720703125
 10
125.8827555338541
 20
211.5188720703125
 10
125.8827555338541
 20
211.5188720703125
 10
105.3213921440971
 20
211.5188720703125
 10
105.3213921440971
 20
211.5188720703125
 10
105.3213921440971
 20
211.5188720703125
 10
105.3213921440971
 20
233.2393378363715
 10
105.3213921440971
 20
233.2393378363715
 10
105.3213921440971
 20
233.2393378363715
 10
175.0046495225693
 20
233.243127441406
 10
175.0046495225693
 20
233.243127441406
 10
175.6268337673611
 20
233.2560465494791
 10
189.7165852864583
 20
233.3962619357638
 10
191.3037407769094
 20
219.5690266927083
 10
191.3037407769094
 20
219.4332899305555
 10
191.3037407769094
 20
186.1142211914062
 10
191.3037407769094
 20
186.1142211914062
 10
191.3037407769094
 20
186.1142211914062
 10
191.3051188151039
 20
186.0880384657115
 10
191.3051188151039
 20
186.0880384657115
 10
191.3054633246526
 20
186.0787367078991
 10
191.3109754774304
 20
185.9566080729166
 10
191.3109754774304
 20
185.7399115668401
 10
191.3109754774304
 20
184.2090833875865
 10
191.0488037109374
 20
177.9643310546874
 10
186.9866916232638
 20
173.5652886284722
 10
184.2540418836804
 20
170.6064683702255
 10
180.3224989149304
 20
169.0308539496526
 10
175.300927734375
 20
168.8825425889756
 10
175.300927734375
 20
168.8825425889756
 10
107.0094889322916
 20
168.8828870985243
 10
107.0094889322916
 20
168.8828870985243
 10
107.0094889322916
 20
168.8828870985243
 10
107.0094889322916
 20
166.8830091688368
 10
107.0094889322916
 20
166.8830091688368
 10
107.0094889322916
 20
166.8830091688368
 10
175.3305555555555
 20
166.8830091688368
 10
175.3305555555555
 20
166.8830091688368
 10
180.9467502170138
 20
167.0485460069444
 10
185.3571614583333
 20
168.8448187934026
 10
188.4687717013888
 20
172.2223904079861
 10
192.9649658203124
 20
177.1034016927083
 10
193.3136094835069
 20
183.7202243381076
 10
193.3136094835069
 20
185.6520616319443
 10
193.3136094835069
 20
185.9247409396701
 10
193.3070638020833
 20
186.0868326822916
 10
193.3039632161458
 20
186.1548733181423
 97
        1
330
258F
 75
     0
 76
     1
 98
        1
 10
0.0
 20
0.0
  0
HATCH
  5
25B0
330
258E
100
AcDbEntity
  8
0
  6
Continuous
100
AcDbHatch
 10
0.0
 20
0.0
 30
0.0
210
0.0
220
0.0
230
1.0
  2
SOLID
 70
     1
 71
     1
 91
        2
 92
        1
 93
        1
 72
     4
 94
        3
 73
     0
 74
     0
 95
       23
 96
       19
 40
0.0
 40
0.0
 40
0.0
 40
0.0
 40
1.0
 40
1.0
 40
1.0
 40
2.0
 40
2.0
 40
2.0
 40
3.0
 40
3.0
 40
3.0
 40
4.0
 40
4.0
 40
4.0
 40
5.0
 40
5.0
 40
5.0
 40
6.0
 40
6.0
 40
6.0
 40
6.0
 10
148.6593153211804
 20
211.3929538302949
 10
148.6593153211804
 20
211.3929538302949
 10
148.6593153211804
 20
189.630802408854
 10
148.6593153211804
 20
189.630802408854
 10
148.6593153211804
 20
189.630802408854
 10
161.3152180989583
 20
189.630802408854
 10
161.3152180989583
 20
189.630802408854
 10
162.8431179470483
 20
189.630802408854
 10
170.4657362196178
 20
190.1880466037324
 10
170.4657362196178
 20
201.1911648220484
 10
170.4657362196178
 20
211.1288872612845
 10
162.3356553819444
 20
211.3914035373261
 10
162.2536621093749
 20
211.3927815755205
 10
162.2536621093749
 20
211.3927815755205
 10
149.6594265407986
 20
211.3929538302949
 10
149.6594265407986
 20
211.3929538302949
 10
149.6594265407986
 20
211.3929538302949
 10
148.6593153211804
 20
211.3929538302949
 10
148.6593153211804
 20
211.3929538302949
 97
        1
330
2590
 92
       16
 93
        1
 72
     4
 94
        3
 73
     0
 74
     0
 95
       20
 96
       16
 40
0.0
 40
0.0
 40
0.0
 40
0.0
 40
1.0
 40
1.0
 40
1.0
 40
2.0
 40
2.0
 40
2.0
 40
3.0
 40
3.0
 40
3.0
 40
4.0
 40
4.0
 40
4.0
 40
5.0
 40
5.0
 40
5.0
 40
5.0
 10
162.2354031032984
 20
209.3930759006075
 10
162.467947048611
 20
209.3861857096352
 10
168.4655137803819
 20
209.1283203124997
 10
168.4655137803819
 20
201.1911648220484
 10
168.4655137803819
 20
192.3202162000866
 10
162.9926350911458
 20
191.6306803385414
 10
161.3152180989583
 20
191.6306803385414
 10
161.3152180989583
 20
191.6306803385414
 10
152.3310980902776
 20
191.6306803385414
 10
150.6595377604166
 20
191.6306803385414
 10
150.6595377604166
 20
193.3373806423609
 10
150.6595377604166
 20
207.686375596788
 10
150.6595377604166
 20
209.3930759006075
 10
152.3538357204859
 20
209.3930759006075
 10
162.2354031032984
 20
209.3930759006075
 10
162.2354031032984
 20
209.3930759006075
 97
        0
 75
     0
 76
     1
 98
        0
  0
ENDBLK
  5
25B2
330
258E
100
AcDbEntity
  8
0
100
AcDbBlockEnd
  0
BLOCK
  5
25B5
330
25B3
100
AcDbEntity
  8
0
100
AcDbBlockBegin
  2
HD logo-new
 70
     0
 10
0.0
 20
0.0
 30
0.0
  3
HD logo-new
  1

  0
INSERT
  5
25B4
330
25B3
100
AcDbEntity
  8
0
 62
     3
100
AcDbBlockReference
  2
HD_LLC_logo_OT5
 10
-27.1607188578505
 20
-68.37367811463031
 30
0.0
 41
0.2999999999999971
 42
0.3000000000000007
 43
0.3
  0
ENDBLK
  5
25B6
330
25B3
100
AcDbEntity
  8
0
100
AcDbBlockEnd
  0
BLOCK
  5
25B9
330
25B7
100
AcDbEntity
  8
0
100
AcDbBlockBegin
  2
HD Logo
 70
     0
 10
0.0
 20
0.0
 30
0.0
  3
HD Logo
  1

  0
INSERT
  5
25B8
330
25B7
100
AcDbEntity
  8
0
100
AcDbBlockReference
  2
HD logo-new
 10
0.9700256734946606
 20
7.273795608420527
 30
0.0
  0
ENDBLK
  5
25BA
330
25B7
100
AcDbEntity
  8
0
100
AcDbBlockEnd
  0
BLOCK
  5
25C5
330
25C3
100
AcDbEntity
  8
0
100
AcDbBlockBegin
  2
Harmonic Drive LLC
 70
     0
 10
0.0
 20
0.0
 30
0.0
  3
Harmonic Drive LLC
  1

  0
MTEXT
  5
25C4
330
25C3
100
AcDbEntity
  8
0
100
AcDbMText
 10
8.730232253264317
 20
-1.454758693481394
 30
0.0
 40
5.25
 41
158.5992
 71
     5
 72
     5
  1
{\fArial|b0|i0|c0|p34;Harmonic Drive LLC\P800-921-3332\Pwww.harmonicdrive.net}
 73
     1
 44
1.0
  0
ENDBLK
  5
25C6
330
25C3
100
AcDbEntity
  8
0
100
AcDbBlockEnd
  0
BLOCK
  5
25D8
330
25D6
100
AcDbEntity
  8
0
100
AcDbBlockBegin
  2
HD LLC
 70
     0
 10
0.0
 20
0.0
 30
0.0
  3
HD LLC
  1

  0
MTEXT
  5
25D7
330
25D6
100
AcDbEntity
  8
0
100
AcDbMText
 10
-2.314970886968865
 20
1.247205085865914
 30
0.0
 40
5.675387507387601
 41
236.1828726592229
 71
     5
 72
     5
  1
Harmonic Drive LLC\P800-921-3332\Pwww.harmonicdrive.net
 73
     1
 44
1.0
  0
ENDBLK
  5
25D9
330
25D6
100
AcDbEntity
  8
0
100
AcDbBlockEnd
  0
BLOCK
  5
25E3
330
25E0
100
AcDbEntity
  8
0
100
AcDbBlockBegin
  2
NTC
 70
     0
 10
0.0
 20
0.0
 30
0.0
  3
NTC
  1

  0
LWPOLYLINE
  5
25E1
330
25E0
100
AcDbEntity
  8
0
100
AcDbPolyline
 90
        8
 70
     1
 43
0.0
 10
4.581008201925953
 20
-10.78862239032818
 10
319.3921777697513
 20
-10.78862239032818
 42
-0.4142135623730951
 10
324.9046777697513
 20
-16.30112239032816
 10
324.9046777697513
 20
-117.4075202476924
 42
-0.4142135623730951
 10
319.3921777697513
 20
-122.9200202476925
 10
4.581008201925838
 20
-122.9200202476925
 42
-0.4142135623730951
 10
-0.9314917980741483
 20
-117.4075202476924
 10
-0.9314917980740915
 20
-16.30112239032816
 42
-0.4142135623730951
  0
MTEXT
  5
25E2
330
25E0
100
AcDbEntity
  8
0
  6
Continuous
370
    30
100
AcDbMText
 10
21.65307678143926
 20
-17.4535155144544
 30
0.0
 40
8.75
 41
294.5432999999998
 71
     1
 72
     5
  3
{\fTxt|b1|i0|c0|p2;Notice:\P\Ftxt.shx;\H0.5714x;All specifications and dimensions shown in the drawing are subject to change without notice. This drawing is the property of Harmonic Drive LLC.   This data is believed to be accurate, however, Harmonic
  1
 Drive LLC assumes no liability for any errors or omissions in the specifications, models, or drawings.\P\PHarmonic Drive LLC\PTel: 800-921-3332\Pwww.harmonicdrive.net}
 73
     1
 44
1.0
  0
ENDBLK
  5
25E4
330
25E0
100
AcDbEntity
  8
0
100
AcDbBlockEnd
  0
ENDSEC
  0
SECTION
  2
ENTITIES
  0
LINE
  5
22BB
330
229B
100
AcDbEntity
  8
1
 62
     7
100
AcDbLine
 10
158.8649473604224
 20
215.8799242586034
 30
0.0
 11
158.8649473604224
 21
204.1979242586035
 31
0.0
  0
LINE
  5
22BC
330
229B
100
AcDbEntity
  8
1
 62
     7
100
AcDbLine
 10
174.9969473604225
 20
201.7419242586034
 30
0.0
 11
161.3209473604223
 21
201.7419242586034
 31
0.0
  0
LINE
  5
22BD
330
229B
100
AcDbEntity
  8
1
 62
     7
100
AcDbLine
 10
158.864947360422
 20
280.2119242586034
 30
0.0
 11
158.8649473604224
 21
268.5299242586034
 31
0.0
  0
LINE
  5
22BE
330
229B
100
AcDbEntity
  8
2
  6
CENTER
 62
     3
100
AcDbLine
 10
44.35395036173346
 20
283.8139242586036
 30
0.0
 11
44.35395035098466
 21
282.4246738912074
 31
0.0
  0
LINE
  5
22BF
330
229B
100
AcDbEntity
  8
2
  6
CENTER
 62
     3
100
AcDbLine
 10
44.35395035098466
 20
282.4246738912074
 30
0.0
 11
44.35394957556818
 21
182.2049242586036
 31
0.0
  0
LINE
  5
22C0
330
229B
100
AcDbEntity
  8
2
  6
CENTER
 62
     3
100
AcDbLine
 10
306.8539495755682
 20
302.2049242586035
 30
0.0
 11
306.8539495755682
 21
182.2049242586036
 31
0.0
  0
LINE
  5
22C1
330
229B
100
AcDbEntity
  8
1
  6
CENTER
 62
     3
100
AcDbLine
 10
160.7489013322568
 20
262.2049242586036
 30
0.0
 11
154.46998753853
 21
262.2049242586031
 31
0.0
  0
LINE
  5
22C2
330
229B
100
AcDbEntity
  8
1
 62
     7
100
AcDbLine
 10
156.2539473604225
 20
257.7049242586034
 30
0.0
 11
156.2539473604225
 21
266.7049242586035
 31
0.0
  0
LINE
  5
22C3
330
229B
100
AcDbEntity
  8
1
 62
     7
100
AcDbLine
 10
159.4539473604219
 20
257.7049242586034
 30
0.0
 11
159.4539473604219
 21
266.7049242586035
 31
0.0
  0
LINE
  5
22C4
330
229B
100
AcDbEntity
  8
1
 62
     7
100
AcDbLine
 10
159.4539473604219
 20
257.7049242586034
 30
0.0
 11
156.2539473604225
 21
257.7049242586034
 31
0.0
  0
LINE
  5
22C5
330
229B
100
AcDbEntity
  8
1
 62
     7
100
AcDbLine
 10
156.2539473604225
 20
266.7049242586035
 30
0.0
 11
156.2539473604225
 21
267.7049242586036
 31
0.0
  0
LINE
  5
22C6
330
229B
100
AcDbEntity
  8
1
 62
     7
100
AcDbLine
 10
159.4539473604219
 20
266.7049242586035
 30
0.0
 11
159.4539473604219
 21
280.0789242586033
 31
0.0
  0
LINE
  5
22C7
330
229B
100
AcDbEntity
  8
1
 62
     7
100
AcDbLine
 10
159.4539473604219
 20
266.7049242586035
 30
0.0
 11
156.2539473604225
 21
266.7049242586035
 31
0.0
  0
LINE
  5
22C8
330
229B
100
AcDbEntity
  8
1
 62
     7
100
AcDbLine
 10
159.4539473604219
 20
204.2309242586034
 30
0.0
 11
159.4539473604219
 21
217.2049242586033
 31
0.0
  0
LINE
  5
22C9
330
229B
100
AcDbEntity
  8
1
 62
     7
100
AcDbLine
 10
156.2539473604225
 20
229.2049242586035
 30
0.0
 11
159.4539473604219
 21
229.2049242586035
 31
0.0
  0
LINE
  5
22CA
330
229B
100
AcDbEntity
  8
1
 62
     7
100
AcDbLine
 10
156.2539473604225
 20
216.7049242586035
 30
0.0
 11
156.7539473604225
 21
216.2049242586033
 31
0.0
  0
LINE
  5
22CB
330
229B
100
AcDbEntity
  8
1
 62
     7
100
AcDbLine
 10
156.7539473604225
 20
216.2049242586033
 30
0.0
 11
158.5885708057005
 21
216.2049242586033
 31
0.0
  0
LINE
  5
22CC
330
229B
100
AcDbEntity
  8
1
 62
     7
100
AcDbLine
 10
156.2539473604225
 20
216.7049242586035
 30
0.0
 11
156.2539473604225
 21
217.2049242586033
 31
0.0
  0
LINE
  5
22CD
330
229B
100
AcDbEntity
  8
1
 62
     7
100
AcDbLine
 10
161.4539473604224
 20
202.3309242586033
 30
0.0
 11
197.3239473604223
 21
202.3309242586033
 31
0.0
  0
LINE
  5
22CE
330
229B
100
AcDbEntity
  8
1
 62
     7
100
AcDbLine
 10
198.2539473604225
 20
201.7399242586034
 30
0.0
 11
198.2539473604225
 21
202.2821850238702
 31
0.0
  0
LINE
  5
22CF
330
229B
100
AcDbEntity
  8
1
 62
     7
100
AcDbLine
 10
198.2539473604225
 20
202.2821850238702
 30
0.0
 11
197.3239473604223
 21
202.3309242586033
 31
0.0
  0
LINE
  5
22D0
330
229B
100
AcDbEntity
  8
1
 62
     7
100
AcDbLine
 10
197.1453526752413
 20
200.6313295734228
 30
0.0
 11
198.2539473604225
 21
201.7399242586034
 31
0.0
  0
LINE
  5
22D1
330
229B
100
AcDbEntity
  8
1
 62
     7
100
AcDbLine
 10
183.6259473604224
 20
200.6753773446459
 30
0.0
 11
190.1289473604224
 21
200.5959242586033
 31
0.0
  0
LINE
  5
22D2
330
229B
100
AcDbEntity
  8
1
 62
     7
100
AcDbLine
 10
190.1289473604224
 20
200.5959242586033
 30
0.0
 11
194.0289473604224
 21
200.5959242586033
 31
0.0
  0
LINE
  5
22D3
330
229B
100
AcDbEntity
  8
1
 62
     7
100
AcDbLine
 10
197.1453526752413
 20
200.6313295734228
 30
0.0
 11
194.0289473604224
 21
200.5959242586033
 31
0.0
  0
LINE
  5
22D4
330
229B
100
AcDbEntity
  8
1
 62
     7
100
AcDbLine
 10
198.2539473604225
 20
282.1276634933364
 30
0.0
 11
198.2539473604225
 21
282.6699242586034
 31
0.0
  0
LINE
  5
22D5
330
229B
100
AcDbEntity
  8
1
 62
     7
100
AcDbLine
 10
197.3239473604223
 20
282.0789242586032
 30
0.0
 11
161.4539473604224
 21
282.0789242586032
 31
0.0
  0
LINE
  5
22D6
330
229B
100
AcDbEntity
  8
1
 62
     7
100
AcDbLine
 10
197.3239473604223
 20
282.0789242586032
 30
0.0
 11
198.2539473604225
 21
282.1276634933364
 31
0.0
  0
LINE
  5
22D7
330
229B
100
AcDbEntity
  8
1
 62
     7
100
AcDbLine
 10
198.2539473604225
 20
282.6699242586034
 30
0.0
 11
197.1453526752413
 21
283.7785189437841
 31
0.0
  0
LINE
  5
22D8
330
229B
100
AcDbEntity
  8
1
 62
     7
100
AcDbLine
 10
159.4539473604219
 20
255.2049242586035
 30
0.0
 11
156.2539473604225
 21
255.2049242586036
 31
0.0
  0
LINE
  5
22D9
330
229B
100
AcDbEntity
  8
1
 62
     7
100
AcDbLine
 10
159.4539473604219
 20
242.2049242586035
 30
0.0
 11
159.4539473604219
 21
257.7049242586034
 31
0.0
  0
LINE
  5
22DA
330
229B
100
AcDbEntity
  8
1
 62
     7
100
AcDbLine
 10
198.2539473604225
 20
282.1276634933364
 30
0.0
 11
198.2539473604225
 21
271.6689238160731
 31
0.0
  0
LINE
  5
22DB
330
229B
100
AcDbEntity
  8
1
 62
     7
100
AcDbLine
 10
156.7539473604225
 20
268.2049242586035
 30
0.0
 11
156.2539473604225
 21
267.7049242586036
 31
0.0
  0
LINE
  5
22DC
330
229B
100
AcDbEntity
  8
1
 62
     7
100
AcDbLine
 10
158.5399473604223
 20
268.2049242586035
 30
0.0
 11
156.7539473604225
 21
268.2049242586035
 31
0.0
  0
LINE
  5
22DD
330
229B
100
AcDbEntity
  8
1
 62
     7
100
AcDbLine
 10
161.4209473604223
 20
282.5679242586031
 30
0.0
 11
175.0969473604224
 21
282.5679242586031
 31
0.0
  0
LINE
  5
22DE
330
229B
100
AcDbEntity
  8
1
 62
     7
100
AcDbLine
 10
190.1289473604224
 20
283.8139242586036
 30
0.0
 11
183.6259473604224
 21
283.7344711725612
 31
0.0
  0
LINE
  5
22DF
330
229B
100
AcDbEntity
  8
1
 62
     7
100
AcDbLine
 10
194.0289473604224
 20
283.8139242586036
 30
0.0
 11
190.1289473604224
 21
283.8139242586036
 31
0.0
  0
LINE
  5
22E0
330
229B
100
AcDbEntity
  8
1
 62
     7
100
AcDbLine
 10
194.0289473604224
 20
283.8139242586036
 30
0.0
 11
197.1453526752413
 21
283.7785189437841
 31
0.0
  0
LINE
  5
22E1
330
229B
100
AcDbEntity
  8
1
  6
CENTER
 62
     3
100
AcDbLine
 10
202.2084885938991
 20
242.2049242586031
 30
0.0
 11
152.2863627766779
 21
242.2049242586031
 31
0.0
  0
LINE
  5
22E2
330
229B
100
AcDbEntity
  8
1
 62
     7
100
AcDbLine
 10
156.2539473604225
 20
242.2049242586031
 30
0.0
 11
156.2539473604225
 21
257.7049242586034
 31
0.0
  0
LINE
  5
22E3
330
229B
100
AcDbEntity
  8
1
 62
     7
100
AcDbLine
 10
198.2539473604225
 20
212.7369242586034
 30
0.0
 11
198.2539473604225
 21
202.2821850238702
 31
0.0
  0
LINE
  5
22E4
330
229B
100
AcDbEntity
  8
1
  6
DIVIDE
 62
     7
100
AcDbLine
 10
199.7539473604225
 20
199.2049242586035
 30
0.0
 11
199.7539473604225
 21
206.8421745163921
 31
0.0
  0
LINE
  5
22E5
330
229B
100
AcDbEntity
  8
0
 62
     7
100
AcDbLine
 10
198.2539473604225
 20
199.2049242586035
 30
0.0
 11
198.2539473604225
 21
194.9549242586035
 31
0.0
  0
LINE
  5
22E6
330
229B
100
AcDbEntity
  8
1
  6
DIVIDE
 62
     7
100
AcDbLine
 10
198.2539473604225
 20
199.2049242586035
 30
0.0
 11
199.7539473604225
 21
199.2049242586035
 31
0.0
  0
LINE
  5
22E7
330
229B
100
AcDbEntity
  8
1
  6
DIVIDE
 62
     7
100
AcDbLine
 10
157.4539473154219
 20
199.2049242586035
 30
0.0
 11
157.4539473154219
 21
205.4001642670002
 31
0.0
  0
LINE
  5
22E8
330
229B
100
AcDbEntity
  8
1
  6
DIVIDE
 62
     7
100
AcDbLine
 10
167.2514912720211
 20
199.2049242586035
 30
0.0
 11
157.4539473154219
 21
199.2049242586035
 31
0.0
  0
LINE
  5
22E9
330
229B
100
AcDbEntity
  8
0
 62
     7
100
AcDbLine
 10
198.2539473604225
 20
200.5959242586033
 30
0.0
 11
198.2539473604225
 21
199.2049242586035
 31
0.0
  0
LINE
  5
22EA
330
229B
100
AcDbEntity
  8
0
 62
     7
100
AcDbLine
 10
181.2539473603475
 20
200.5959242586033
 30
0.0
 11
181.2539473603397
 21
200.7549242583494
 31
0.0
  0
LINE
  5
22EB
330
229B
100
AcDbEntity
  8
1
 62
     7
100
AcDbLine
 10
181.2539473603475
 20
200.5959242586033
 30
0.0
 11
198.2539473604225
 21
200.5959242586033
 31
0.0
  0
LINE
  5
22EC
330
229B
100
AcDbEntity
  8
1
 62
     7
100
AcDbLine
 10
181.8539473603115
 20
201.3549242583496
 30
0.0
 11
181.2539473603397
 21
200.7549242583494
 31
0.0
  0
LINE
  5
22ED
330
229B
100
AcDbEntity
  8
1
 62
     7
100
AcDbLine
 10
197.6539473604223
 20
201.3549242583496
 30
0.0
 11
198.2539473604225
 21
200.7549242583494
 31
0.0
  0
LINE
  5
22EE
330
229B
100
AcDbEntity
  8
0
 62
     7
100
AcDbLine
 10
198.2539473604225
 20
200.7549242583494
 30
0.0
 11
198.2539473604225
 21
200.5959242586033
 31
0.0
  0
LINE
  5
22EF
330
229B
100
AcDbEntity
  8
1
 62
     7
100
AcDbLine
 10
181.8539473603115
 20
201.3549242583496
 30
0.0
 11
197.6539473604223
 21
201.3549242583496
 31
0.0
  0
LINE
  5
22F0
330
229B
100
AcDbEntity
  8
0
 62
     7
100
AcDbLine
 10
181.2539473604191
 20
283.8139242586036
 30
0.0
 11
181.2539473604191
 21
286.8049235886763
 31
0.0
  0
LINE
  5
22F1
330
229B
100
AcDbEntity
  8
1
 62
     7
100
AcDbLine
 10
198.1335349482606
 20
283.8139242586036
 30
0.0
 11
181.2539473604191
 21
283.8139242586036
 31
0.0
  0
LINE
  5
22F2
330
229B
100
AcDbEntity
  8
1
 62
     7
100
AcDbLine
 10
181.2539473604191
 20
283.6549242583241
 30
0.0
 11
181.8539473604195
 21
283.0549242583241
 31
0.0
  0
LINE
  5
22F3
330
229B
100
AcDbEntity
  8
1
 62
     7
100
AcDbLine
 10
198.2539473605491
 20
283.6549242583241
 30
0.0
 11
197.6539473605716
 21
283.0549242583241
 31
0.0
  0
LINE
  5
22F4
330
229B
100
AcDbEntity
  8
1
 62
     7
100
AcDbLine
 10
197.8539473605716
 20
283.0549242583241
 30
0.0
 11
198.2539473605568
 21
283.0549242583241
 31
0.0
  0
LINE
  5
22F5
330
229B
100
AcDbEntity
  8
1
 62
     3
100
AcDbLine
 10
198.2539473605568
 20
283.0549242583241
 30
0.0
 11
198.2539473605568
 21
283.4549242583241
 31
0.0
  0
LINE
  5
22F6
330
229B
100
AcDbEntity
  8
1
 62
     7
100
AcDbLine
 10
198.2539473605568
 20
283.4549242583241
 30
0.0
 11
198.2539473605568
 21
283.0549242583241
 31
0.0
  0
LINE
  5
22F7
330
229B
100
AcDbEntity
  8
1
 62
     3
100
AcDbLine
 10
197.8539473605716
 20
283.0549242583241
 30
0.0
 11
198.2539473605568
 21
283.0549242583241
 31
0.0
  0
LINE
  5
22F8
330
229B
100
AcDbEntity
  8
0
 62
     7
100
AcDbLine
 10
198.2539473605491
 20
283.6549242583241
 30
0.0
 11
198.2539473603368
 21
289.4549242586031
 31
0.0
  0
LINE
  5
22F9
330
229B
100
AcDbEntity
  8
1
 62
     7
100
AcDbLine
 10
181.8539473604195
 20
283.0549242583241
 30
0.0
 11
197.6539473605716
 21
283.0549242583241
 31
0.0
  0
LINE
  5
22FA
330
229B
100
AcDbEntity
  8
0
 62
     7
100
AcDbLine
 10
178.2539474951603
 20
268.9549242586036
 30
0.0
 11
178.2539474951603
 21
215.4549242586035
 31
0.0
  0
LINE
  5
22FB
330
229B
100
AcDbEntity
  8
0
 62
     7
100
AcDbLine
 10
178.2539474951603
 20
268.9549242586036
 30
0.0
 11
182.6539474951017
 21
268.9549242586036
 31
0.0
  0
LINE
  5
22FC
330
229B
100
AcDbEntity
  8
0
 62
     7
100
AcDbLine
 10
182.6539474951017
 20
268.9549242586036
 30
0.0
 11
182.6539474951017
 21
255.6049240573353
 31
0.0
  0
LINE
  5
22FD
330
229B
100
AcDbEntity
  8
0
 62
     7
100
AcDbLine
 10
183.0539474890928
 20
255.2049240633543
 30
0.0
 11
196.8039472796052
 21
255.2049240633543
 31
0.0
  0
LINE
  5
22FE
330
229B
100
AcDbEntity
  8
0
 62
     7
100
AcDbLine
 10
198.1539472593246
 20
255.2049240633543
 30
0.0
 11
199.7539473678905
 21
255.2049240634
 31
0.0
  0
LINE
  5
22FF
330
229B
100
AcDbEntity
  8
0
 62
     7
100
AcDbLine
 10
199.7539473679337
 20
255.2049240633059
 30
0.0
 11
200.2539473604225
 21
254.70492407083
 31
0.0
  0
LINE
  5
2300
330
229B
100
AcDbEntity
  8
0
 62
     7
100
AcDbLine
 10
200.2539473604225
 20
254.6549240716294
 30
0.0
 11
200.2539473604225
 21
242.2049242586031
 31
0.0
  0
LINE
  5
2301
330
229B
100
AcDbEntity
  8
0
 62
     7
100
AcDbLine
 10
196.8039472796052
 20
255.2049240633543
 30
0.0
 11
196.8039472796052
 21
254.6549240716294
 31
0.0
  0
LINE
  5
2302
330
229B
100
AcDbEntity
  8
0
 62
     7
100
AcDbLine
 10
196.8039472796052
 20
254.6549240716294
 30
0.0
 11
198.1539472593246
 21
254.6549240716294
 31
0.0
  0
LINE
  5
2303
330
229B
100
AcDbEntity
  8
0
 62
     7
100
AcDbLine
 10
198.1539472593246
 20
254.6549240716294
 30
0.0
 11
198.1539472593246
 21
255.2049240633543
 31
0.0
  0
LINE
  5
2304
330
229B
100
AcDbEntity
  8
0
 62
     7
100
AcDbLine
 10
178.2539474951603
 20
215.4549242586035
 30
0.0
 11
182.6539474951017
 21
215.4549242586035
 31
0.0
  0
LINE
  5
2305
330
229B
100
AcDbEntity
  8
0
 62
     7
100
AcDbLine
 10
182.6539474951017
 20
215.4549242586035
 30
0.0
 11
182.6539474951017
 21
228.8049244598794
 31
0.0
  0
LINE
  5
2306
330
229B
100
AcDbEntity
  8
0
 62
     7
100
AcDbLine
 10
183.0539474890928
 20
229.2049244538703
 30
0.0
 11
196.8039472796052
 21
229.2049244538703
 31
0.0
  0
LINE
  5
2307
330
229B
100
AcDbEntity
  8
0
 62
     7
100
AcDbLine
 10
198.1539472593246
 20
229.2049244538703
 30
0.0
 11
199.7539473678905
 21
229.2049244538195
 31
0.0
  0
LINE
  5
2308
330
229B
100
AcDbEntity
  8
0
 62
     7
100
AcDbLine
 10
199.7539473679337
 20
229.2049244539211
 30
0.0
 11
200.2539473604225
 21
229.7049244463845
 31
0.0
  0
LINE
  5
2309
330
229B
100
AcDbEntity
  8
0
 62
     7
100
AcDbLine
 10
200.2539473604225
 20
229.7549244455828
 30
0.0
 11
200.2539473604225
 21
242.2049242586031
 31
0.0
  0
LINE
  5
230A
330
229B
100
AcDbEntity
  8
0
 62
     7
100
AcDbLine
 10
196.8039472796052
 20
229.2049244538703
 30
0.0
 11
196.8039472796052
 21
229.7549244455828
 31
0.0
  0
LINE
  5
230B
330
229B
100
AcDbEntity
  8
0
 62
     7
100
AcDbLine
 10
196.8039472796052
 20
229.7549244455828
 30
0.0
 11
198.1539472593246
 21
229.7549244455828
 31
0.0
  0
LINE
  5
230C
330
229B
100
AcDbEntity
  8
0
 62
     7
100
AcDbLine
 10
198.1539472593246
 20
229.7549244455828
 30
0.0
 11
198.1539472593246
 21
229.2049244538703
 31
0.0
  0
LINE
  5
230D
330
229B
100
AcDbEntity
  8
0
 62
     7
100
AcDbLine
 10
186.4539474350498
 20
255.2049240633543
 30
0.0
 11
186.4539474350828
 21
268.7049238605581
 31
0.0
  0
LINE
  5
230E
330
229B
100
AcDbEntity
  8
0
 62
     7
100
AcDbLine
 10
185.9539474425611
 20
255.2049240633543
 30
0.0
 11
185.9539474425714
 21
259.4549239995389
 31
0.0
  0
LINE
  5
230F
330
229B
100
AcDbEntity
  8
0
 62
     7
100
AcDbLine
 10
185.9539474425714
 20
259.4549239995389
 30
0.0
 11
190.453947374998
 21
259.4549239994933
 31
0.0
  0
LINE
  5
2310
330
229B
100
AcDbEntity
  8
0
 62
     7
100
AcDbLine
 10
190.453947374998
 20
259.4549239994933
 30
0.0
 11
190.4539473750208
 21
268.7049238604819
 31
0.0
  0
LINE
  5
2311
330
229B
100
AcDbEntity
  8
0
 62
     7
100
AcDbLine
 10
182.6539474951594
 20
268.7049238605581
 30
0.0
 11
182.6539474951248
 21
257.20492403335
 31
0.0
  0
LINE
  5
2312
330
229B
100
AcDbEntity
  8
0
 62
     7
100
AcDbLine
 10
182.6539474950552
 20
227.2049244779464
 30
0.0
 11
182.6539474950552
 21
215.7049246566995
 31
0.0
  0
LINE
  5
2313
330
229B
100
AcDbEntity
  8
0
 62
     7
100
AcDbLine
 10
182.6539474951364
 20
257.20492403335
 30
0.0
 11
183.153947487624
 21
257.20492403335
 31
0.0
  0
LINE
  5
2314
330
229B
100
AcDbEntity
  8
0
 62
     7
100
AcDbLine
 10
183.153947487624
 20
257.20492403335
 30
0.0
 11
183.1539474876127
 21
255.2049240633543
 31
0.0
  0
LINE
  5
2315
330
229B
100
AcDbEntity
  8
0
 62
     7
100
AcDbLine
 10
183.1539474875664
 20
229.2049244539467
 30
0.0
 11
183.1539474875544
 21
227.2049244839154
 31
0.0
  0
LINE
  5
2316
330
229B
100
AcDbEntity
  8
0
 62
     7
100
AcDbLine
 10
183.1539474875544
 20
227.2049244839154
 30
0.0
 11
178.4539475551663
 21
227.2049244839154
 31
0.0
  0
LINE
  5
2317
330
229B
100
AcDbEntity
  8
0
 62
     7
100
AcDbLine
 10
178.4539475551663
 20
227.2049244839154
 30
0.0
 11
178.4539475551409
 21
215.7049246566995
 31
0.0
  0
LINE
  5
2318
330
229B
100
AcDbEntity
  8
0
 62
     7
100
AcDbLine
 10
178.4539475551409
 20
215.7049246566995
 30
0.0
 11
183.5539474815183
 21
215.7049246566995
 31
0.0
  0
LINE
  5
2319
330
229B
100
AcDbEntity
  8
0
 62
     7
100
AcDbLine
 10
183.5539474815183
 20
215.7049246566995
 30
0.0
 11
183.553947481501
 21
207.7049247768794
 31
0.0
  0
LINE
  5
231A
330
229B
100
AcDbEntity
  8
0
 62
     7
100
AcDbLine
 10
183.553947481501
 20
207.7049247768794
 30
0.0
 11
184.853947458976
 21
207.7049247768794
 31
0.0
  0
LINE
  5
231B
330
229B
100
AcDbEntity
  8
0
 62
     7
100
AcDbLine
 10
184.853947458976
 20
207.7049247768794
 30
0.0
 11
184.8539474589926
 21
215.7049246566995
 31
0.0
  0
LINE
  5
231C
330
229B
100
AcDbEntity
  8
0
 62
     7
100
AcDbLine
 10
184.8539474589926
 20
215.7049246566995
 30
0.0
 11
186.4539474349788
 21
215.7049246566995
 31
0.0
  0
LINE
  5
231D
330
229B
100
AcDbEntity
  8
0
 62
     7
100
AcDbLine
 10
186.4539474349788
 20
215.7049246566995
 30
0.0
 11
186.4539474350014
 21
229.2049244539467
 31
0.0
  0
LINE
  5
231E
330
229B
100
AcDbEntity
  8
0
 62
     7
100
AcDbLine
 10
185.9539474425026
 20
229.2049244539467
 30
0.0
 11
185.9539474425026
 21
224.9549245177158
 31
0.0
  0
LINE
  5
231F
330
229B
100
AcDbEntity
  8
0
 62
     7
100
AcDbLine
 10
185.9539474425026
 20
224.9549245177158
 30
0.0
 11
186.4539474349911
 21
224.9549245177158
 31
0.0
  0
LINE
  5
2320
330
229B
100
AcDbEntity
  8
0
 62
     7
100
AcDbLine
 10
185.9539474425611
 20
255.7049240558304
 30
0.0
 11
183.1539474876127
 21
255.7049240558304
 31
0.0
  0
LINE
  5
2321
330
229B
100
AcDbEntity
  8
0
 62
     7
100
AcDbLine
 10
185.9539474425026
 20
228.7049244613818
 30
0.0
 11
183.1539474875664
 21
228.7049244613818
 31
0.0
  0
LINE
  5
2322
330
229B
100
AcDbEntity
  8
0
 62
     7
100
AcDbLine
 10
190.4539473750208
 20
268.7049238604819
 30
0.0
 11
186.4539474350828
 21
268.7049238605581
 31
0.0
  0
LINE
  5
2323
330
229B
100
AcDbEntity
  8
0
 62
     7
100
AcDbLine
 10
186.4539474350828
 20
268.7049238605581
 30
0.0
 11
184.8539474591087
 21
268.7049238605581
 31
0.0
  0
LINE
  5
2324
330
229B
100
AcDbEntity
  8
0
 62
     7
100
AcDbLine
 10
184.8539474591087
 20
268.7049238605581
 30
0.0
 11
184.853947459126
 21
276.7049237404546
 31
0.0
  0
LINE
  5
2325
330
229B
100
AcDbEntity
  8
0
 62
     7
100
AcDbLine
 10
184.853947459126
 20
276.7049237404546
 30
0.0
 11
183.5539474816508
 21
276.7049237404546
 31
0.0
  0
LINE
  5
2326
330
229B
100
AcDbEntity
  8
0
 62
     7
100
AcDbLine
 10
183.5539474816508
 20
276.7049237404546
 30
0.0
 11
183.5539474816338
 21
268.7049238605581
 31
0.0
  0
LINE
  5
2327
330
229B
100
AcDbEntity
  8
0
 62
     7
100
AcDbLine
 10
183.5539474816338
 20
268.7049238605581
 30
0.0
 11
182.6539474951594
 21
268.7049238605581
 31
0.0
  0
LINE
  5
2328
330
229B
100
AcDbEntity
  8
0
 62
     7
100
AcDbLine
 10
186.4539474350118
 20
255.454924059591
 30
0.0
 11
186.4539474350118
 21
271.6689238160731
 31
0.0
  0
LINE
  5
2329
330
229B
100
AcDbEntity
  8
0
 62
     7
100
AcDbLine
 10
186.4539474350118
 20
271.6689238160731
 30
0.0
 11
195.7539472953228
 21
271.6689238160731
 31
0.0
  0
LINE
  5
232A
330
229B
100
AcDbEntity
  8
0
 62
     7
100
AcDbLine
 10
195.7539472953228
 20
271.6689238160731
 30
0.0
 11
195.7539472953228
 21
255.454924059591
 31
0.0
  0
LINE
  5
232B
330
229B
100
AcDbEntity
  8
0
 62
     7
100
AcDbLine
 10
195.7539472953228
 20
255.454924059591
 30
0.0
 11
186.4539474350118
 21
255.454924059591
 31
0.0
  0
LINE
  5
232C
330
229B
100
AcDbEntity
  8
0
 62
     7
100
AcDbLine
 10
190.6539473719248
 20
255.454924059591
 30
0.0
 11
190.6539473719248
 21
271.6689238160731
 31
0.0
  0
LINE
  5
232D
330
229B
100
AcDbEntity
  8
0
 62
     7
100
AcDbLine
 10
186.4539474350118
 20
259.2049240032543
 30
0.0
 11
190.6539473719248
 21
259.2049240032543
 31
0.0
  0
LINE
  5
232E
330
229B
100
AcDbEntity
  8
0
 62
     7
100
AcDbLine
 10
186.4539474350118
 20
228.9549244576262
 30
0.0
 11
186.4539474350118
 21
212.7409247013624
 31
0.0
  0
LINE
  5
232F
330
229B
100
AcDbEntity
  8
0
 62
     7
100
AcDbLine
 10
186.4539474350118
 20
212.7409247013624
 30
0.0
 11
195.7539472953228
 21
212.7409247013624
 31
0.0
  0
LINE
  5
2330
330
229B
100
AcDbEntity
  8
0
 62
     7
100
AcDbLine
 10
195.7539472953228
 20
212.7409247013624
 30
0.0
 11
195.7539472953228
 21
228.9549244576262
 31
0.0
  0
LINE
  5
2331
330
229B
100
AcDbEntity
  8
0
 62
     7
100
AcDbLine
 10
195.7539472953228
 20
228.9549244576262
 30
0.0
 11
186.4539474350118
 21
228.9549244576262
 31
0.0
  0
LINE
  5
2332
330
229B
100
AcDbEntity
  8
0
 62
     7
100
AcDbLine
 10
186.4539474350118
 20
225.2049245139601
 30
0.0
 11
190.6539473719248
 21
225.2049245139601
 31
0.0
  0
LINE
  5
2333
330
229B
100
AcDbEntity
  8
0
 62
     7
100
AcDbLine
 10
190.6539473719248
 20
225.2049245139601
 30
0.0
 11
190.6539473719248
 21
228.9549244576262
 31
0.0
  0
LINE
  5
2334
330
229B
100
AcDbEntity
  8
0
 62
     7
100
AcDbLine
 10
186.1139474401088
 20
202.326924857765
 30
0.0
 11
196.7239472806797
 21
202.326924857765
 31
0.0
  0
LINE
  5
2335
330
229B
100
AcDbEntity
  8
0
 62
     7
100
AcDbLine
 10
178.2539474951603
 20
228.7049244613818
 30
0.0
 11
182.6539474951017
 21
228.7049244613818
 31
0.0
  0
LINE
  5
2336
330
229B
100
AcDbEntity
  8
0
 62
     7
100
AcDbLine
 10
195.7539472953278
 20
259.7049239957784
 30
0.0
 11
196.8039472796052
 21
259.7049239957784
 31
0.0
  0
LINE
  5
2337
330
229B
100
AcDbEntity
  8
0
 62
     7
100
AcDbLine
 10
196.8039472796052
 20
259.7049239957784
 30
0.0
 11
196.8039472796052
 21
255.2049240633543
 31
0.0
  0
LINE
  5
2338
330
229B
100
AcDbEntity
  8
0
 62
     7
100
AcDbLine
 10
196.8039472796052
 20
258.2049240183021
 30
0.0
 11
198.1539472593246
 21
258.2049240183021
 31
0.0
  0
LINE
  5
2339
330
229B
100
AcDbEntity
  8
0
 62
     7
100
AcDbLine
 10
198.1539472593246
 20
258.2049240183021
 30
0.0
 11
198.1539472593246
 21
255.2049240633543
 31
0.0
  0
LINE
  5
233A
330
229B
100
AcDbEntity
  8
0
 62
     7
100
AcDbLine
 10
195.7539472953278
 20
224.7049245215225
 30
0.0
 11
196.8039472796052
 21
224.7049245215225
 31
0.0
  0
LINE
  5
233B
330
229B
100
AcDbEntity
  8
0
 62
     7
100
AcDbLine
 10
196.8039472796052
 20
224.7049245215225
 30
0.0
 11
196.8039472796052
 21
229.2049244539467
 31
0.0
  0
LINE
  5
233C
330
229B
100
AcDbEntity
  8
0
 62
     7
100
AcDbLine
 10
196.8039472796052
 20
226.2049244989124
 30
0.0
 11
198.1539472593246
 21
226.2049244989124
 31
0.0
  0
LINE
  5
233D
330
229B
100
AcDbEntity
  8
0
 62
     7
100
AcDbLine
 10
198.1539472593246
 20
226.2049244989124
 30
0.0
 11
198.1539472593246
 21
229.2049244539467
 31
0.0
  0
LINE
  5
233E
330
229B
100
AcDbEntity
  8
0
 62
     7
100
AcDbLine
 10
195.7539472953278
 20
255.454924059591
 30
0.0
 11
195.7539472953278
 21
255.2049240633543
 31
0.0
  0
LINE
  5
233F
330
229B
100
AcDbEntity
  8
0
 62
     7
100
AcDbLine
 10
195.7539472953278
 20
229.2049244539467
 30
0.0
 11
195.7539472953278
 21
228.9549244576262
 31
0.0
  0
LINE
  5
2340
330
229B
100
AcDbEntity
  8
0
 62
     7
100
AcDbLine
 10
178.2539474951603
 20
251.5049241189375
 30
0.0
 11
200.2539473604225
 21
251.5049241189375
 31
0.0
  0
LINE
  5
2341
330
229B
100
AcDbEntity
  8
0
 62
     7
100
AcDbLine
 10
178.2539474951603
 20
249.2049241534764
 30
0.0
 11
200.2539473604225
 21
249.2049241534764
 31
0.0
  0
LINE
  5
2342
330
229B
100
AcDbEntity
  8
0
 62
     7
100
AcDbLine
 10
178.2539474951603
 20
235.2049243638118
 30
0.0
 11
200.2539473604225
 21
235.2049243638118
 31
0.0
  0
LINE
  5
2343
330
229B
100
AcDbEntity
  8
0
 62
     7
100
AcDbLine
 10
307.2872784720008
 20
229.2560261125716
 30
0.0
 11
307.2872784720008
 21
225.9549245027639
 31
0.0
  0
LINE
  5
2344
330
229B
100
AcDbEntity
  8
0
 62
     7
100
AcDbLine
 10
307.2872784720008
 20
225.9549245027639
 30
0.0
 11
310.1472784290496
 21
225.9549245027639
 31
0.0
  0
LINE
  5
2345
330
229B
100
AcDbEntity
  8
0
 62
     7
100
AcDbLine
 10
311.0139450826823
 20
226.8215911564294
 30
0.0
 11
311.0139450826823
 21
228.5849306453598
 31
0.0
  0
LINE
  5
2346
330
229B
100
AcDbEntity
  8
0
 62
     7
100
AcDbLine
 10
306.4206118183556
 20
229.2560261125716
 30
0.0
 11
306.4206118183556
 21
225.9549245027639
 31
0.0
  0
LINE
  5
2347
330
229B
100
AcDbEntity
  8
0
 62
     7
100
AcDbLine
 10
306.4206118183556
 20
225.9549245027639
 30
0.0
 11
303.5606118613097
 21
225.9549245027639
 31
0.0
  0
LINE
  5
2348
330
229B
100
AcDbEntity
  8
0
 62
     7
100
AcDbLine
 10
302.6939452076881
 20
226.8215911564294
 30
0.0
 11
302.6939452076881
 21
228.5849306453598
 31
0.0
  0
LINE
  5
2349
330
229B
100
AcDbEntity
  8
0
 62
     7
100
AcDbLine
 10
198.2539473603368
 20
296.8049234380956
 30
0.0
 11
197.8539473663439
 21
297.2049234320871
 31
0.0
  0
LINE
  5
234A
330
229B
100
AcDbEntity
  8
0
 62
     7
100
AcDbLine
 10
197.8539473663439
 20
297.2049234320871
 30
0.0
 11
184.653947309216
 21
297.2049234322648
 31
0.0
  0
LINE
  5
234B
330
229B
100
AcDbEntity
  8
0
 62
     7
100
AcDbLine
 10
184.653947309216
 20
297.2049234322648
 30
0.0
 11
184.2539473152758
 21
296.804923438477
 31
0.0
  0
LINE
  5
234C
330
229B
100
AcDbEntity
  8
0
 62
     7
100
AcDbLine
 10
184.2539473152758
 20
296.804923438477
 30
0.0
 11
184.2539473153011
 21
294.7049242586034
 31
0.0
  0
LINE
  5
234D
330
229B
100
AcDbEntity
  8
0
 62
     7
100
AcDbLine
 10
183.9539473198333
 20
287.2049235826421
 30
0.0
 11
181.6539473543597
 21
287.2049235826421
 31
0.0
  0
LINE
  5
234E
330
229B
100
AcDbEntity
  8
0
 62
     7
100
AcDbLine
 10
181.6539473543597
 20
287.2049235826421
 30
0.0
 11
181.2539473604191
 21
286.8049235886763
 31
0.0
  0
LINE
  5
234F
330
229B
100
AcDbEntity
  8
0
 62
     7
100
AcDbLine
 10
198.2539473604225
 20
187.6049250789332
 30
0.0
 11
197.8539473664334
 21
187.2049250848405
 31
0.0
  0
LINE
  5
2350
330
229B
100
AcDbEntity
  8
0
 62
     7
100
AcDbLine
 10
197.8539473664334
 20
187.2049250848405
 30
0.0
 11
184.6539473093874
 21
187.2049250848405
 31
0.0
  0
LINE
  5
2351
330
229B
100
AcDbEntity
  8
0
 62
     7
100
AcDbLine
 10
184.6539473093874
 20
187.2049250848405
 30
0.0
 11
184.2539473154472
 21
187.6049250789332
 31
0.0
  0
LINE
  5
2352
330
229B
100
AcDbEntity
  8
0
 62
     7
100
AcDbLine
 10
184.2539473154472
 20
187.6049250789332
 30
0.0
 11
184.2539473154219
 21
189.4549242586036
 31
0.0
  0
LINE
  5
2353
330
229B
100
AcDbEntity
  8
0
 62
     7
100
AcDbLine
 10
183.9539473199539
 20
197.2049249346154
 30
0.0
 11
181.6539473545816
 21
197.2049249343614
 31
0.0
  0
LINE
  5
2354
330
229B
100
AcDbEntity
  8
0
 62
     7
100
AcDbLine
 10
181.6539473545816
 20
197.2049249343614
 30
0.0
 11
181.2539473604892
 21
197.6049249282003
 31
0.0
  0
LINE
  5
2355
330
229B
100
AcDbEntity
  8
0
 62
     7
100
AcDbLine
 10
181.2539473604892
 20
197.6049249282003
 30
0.0
 11
181.2539473603475
 21
200.5959242586033
 31
0.0
  0
LINE
  5
2356
330
229B
100
AcDbEntity
  8
0
 62
     7
100
AcDbLine
 10
181.2539473604191
 20
283.6549242583241
 30
0.0
 11
181.2539473604191
 21
283.8139242586036
 31
0.0
  0
LINE
  5
2357
330
229B
100
AcDbEntity
  8
0
 62
     7
100
AcDbLine
 10
184.2539473153011
 20
290.0549242586036
 30
0.0
 11
184.2539473153011
 21
289.7049242586035
 31
0.0
  0
LINE
  5
2358
330
229B
100
AcDbEntity
  8
1
  6
CENTER
 62
     3
100
AcDbLine
 10
180.253947375357
 20
292.2049242586035
 30
0.0
 11
191.9402765380575
 21
292.2049242586035
 31
0.0
  0
LINE
  5
2359
330
229B
100
AcDbEntity
  8
0
 62
     7
100
AcDbLine
 10
184.2539473153011
 20
290.0549242586036
 30
0.0
 11
184.2539473153011
 21
290.2049242586035
 31
0.0
  0
LINE
  5
235A
330
229B
100
AcDbEntity
  8
0
 62
     7
100
AcDbLine
 10
198.2539473604192
 20
290.0549242586036
 30
0.0
 11
198.2539473604192
 21
294.3549242586036
 31
0.0
  0
LINE
  5
235B
330
229B
100
AcDbEntity
  8
0
 62
     7
100
AcDbLine
 10
198.2539473604192
 20
294.3549242586036
 30
0.0
 11
198.2539473603368
 21
294.9549242586035
 31
0.0
  0
LINE
  5
235C
330
229B
100
AcDbEntity
  8
1
 62
     7
100
AcDbLine
 10
191.2539473153008
 20
294.9549242586035
 30
0.0
 11
190.6592765380534
 21
294.2049242586035
 31
0.0
  0
LINE
  5
235D
330
229B
100
AcDbEntity
  8
1
 62
     7
100
AcDbLine
 10
190.6592765380534
 20
294.2049242586035
 30
0.0
 11
190.6592765380723
 21
290.2093120593764
 31
0.0
  0
LINE
  5
235E
330
229B
100
AcDbEntity
  8
1
 62
     7
100
AcDbLine
 10
190.6592765380723
 20
290.2093120593764
 30
0.0
 11
191.2539473153008
 21
289.4549242586031
 31
0.0
  0
LINE
  5
235F
330
229B
100
AcDbEntity
  8
1
 62
     7
100
AcDbLine
 10
191.2539473153364
 20
289.4549242586031
 30
0.0
 11
191.2539473153008
 21
289.4549242586031
 31
0.0
  0
LINE
  5
2360
330
229B
100
AcDbEntity
  8
1
 62
     7
100
AcDbLine
 10
191.2539473153008
 20
294.9549242586035
 30
0.0
 11
191.2539473153008
 21
289.4549242586031
 31
0.0
  0
LINE
  5
2361
330
229B
100
AcDbEntity
  8
1
 62
     7
100
AcDbLine
 10
191.2539473153008
 20
289.4549242586031
 30
0.0
 11
191.2539473153364
 21
289.4549242586031
 31
0.0
  0
LINE
  5
2362
330
229B
100
AcDbEntity
  8
1
  6
DASHDOT
 62
     3
100
AcDbLine
 10
180.2539473754935
 20
192.2049242586033
 30
0.0
 11
202.2539473003507
 21
192.2049242586033
 31
0.0
  0
LINE
  5
2363
330
229B
100
AcDbEntity
  8
1
 62
     7
100
AcDbLine
 10
184.2539473154219
 20
189.4549242586036
 30
0.0
 11
198.2539473604225
 21
189.4549242586036
 31
0.0
  0
LINE
  5
2364
330
229B
100
AcDbEntity
  8
0
 62
     7
100
AcDbLine
 10
184.2539473154219
 20
189.4549242586036
 30
0.0
 11
184.2539473154219
 21
194.9549242586035
 31
0.0
  0
LINE
  5
2365
330
229B
100
AcDbEntity
  8
0
 62
     7
100
AcDbLine
 10
198.2539473604225
 20
189.4549242586036
 30
0.0
 11
198.2539473604225
 21
187.6049250789332
 31
0.0
  0
LINE
  5
2366
330
229B
100
AcDbEntity
  8
1
 62
     7
100
AcDbLine
 10
184.2539473154219
 20
194.9549242586035
 30
0.0
 11
198.2539473604225
 21
194.9549242586035
 31
0.0
  0
LINE
  5
2367
330
229B
100
AcDbEntity
  8
0
 62
     7
100
AcDbLine
 10
184.2539473154219
 20
194.9549242586035
 30
0.0
 11
184.2539473153964
 21
196.904924939173
 31
0.0
  0
LINE
  5
2368
330
229B
100
AcDbEntity
  8
0
 62
     7
100
AcDbLine
 10
198.2539473604225
 20
194.9549242586035
 30
0.0
 11
198.2539473604225
 21
189.4549242586036
 31
0.0
  0
LINE
  5
2369
330
229B
100
AcDbEntity
  8
1
  6
CENTER
 62
     3
100
AcDbLine
 10
44.35395040170369
 20
188.9799250094995
 30
0.0
 11
44.35395040170369
 21
195.4299250094996
 31
0.0
  0
LINE
  5
236A
330
229B
100
AcDbEntity
  8
1
  6
CENTER
 62
     3
100
AcDbLine
 10
44.35395040170369
 20
288.9799235077076
 30
0.0
 11
44.35395040170369
 21
288.0799235077077
 31
0.0
  0
LINE
  5
236B
330
229B
100
AcDbEntity
  8
1
  6
CENTER
 62
     3
100
AcDbLine
 10
44.35395040170369
 20
288.9799235077076
 30
0.0
 11
44.35395040170369
 21
288.0799235077077
 31
0.0
  0
LINE
  5
236C
330
229B
100
AcDbEntity
  8
1
  6
CENTER
 62
     3
100
AcDbLine
 10
44.35395040170369
 20
295.4299235077076
 30
0.0
 11
44.35395040170369
 21
288.9799235077076
 31
0.0
  0
LINE
  5
236D
330
229B
100
AcDbEntity
  8
1
  6
CENTER
 62
     3
100
AcDbLine
 10
44.35395040170369
 20
295.4299235077076
 30
0.0
 11
44.35395040170369
 21
288.9799235077076
 31
0.0
  0
LINE
  5
236E
330
229B
100
AcDbEntity
  8
2
  6
DASHDOT
 62
     3
100
AcDbLine
 10
44.35395040170369
 20
295.4299235077076
 30
0.0
 11
44.35395040170369
 21
288.9799235077076
 31
0.0
  0
LINE
  5
236F
330
229B
100
AcDbEntity
  8
2
  6
CENTER
 62
     3
100
AcDbLine
 10
-15.64605042443177
 20
242.2049242586031
 30
0.0
 11
106.3539512278388
 21
242.2049242586031
 31
0.0
  0
LINE
  5
2370
330
229B
100
AcDbEntity
  8
1
  6
CENTER
 62
     3
100
AcDbLine
 10
44.35395040170377
 20
302.2049242586035
 30
0.0
 11
44.35395040170369
 21
295.4299235077076
 31
0.0
  0
LINE
  5
2371
330
229B
100
AcDbEntity
  8
1
  6
CENTER
 62
     3
100
AcDbLine
 10
44.35395040170377
 20
302.2049242586035
 30
0.0
 11
44.35395040170369
 21
295.4299235077076
 31
0.0
  0
LINE
  5
2372
330
229B
100
AcDbEntity
  8
2
  6
CENTER
 62
     3
100
AcDbLine
 10
266.388949575596
 20
242.2049242586031
 30
0.0
 11
347.3189495755401
 21
242.204924258631
 31
0.0
  0
LINE
  5
2373
330
229B
100
AcDbEntity
  8
1
 62
     7
100
AcDbLine
 10
309.3539451073671
 20
251.5049241190213
 30
0.0
 11
309.3539451073671
 21
248.7432725757088
 31
0.0
  0
LINE
  5
2374
330
229B
100
AcDbEntity
  8
1
  6
CENTER
 62
     3
100
AcDbLine
 10
17.29145037907456
 20
289.0785494343177
 30
0.0
 11
21.41645032736035
 21
281.9338398232389
 31
0.0
  0
LINE
  5
2375
330
229B
100
AcDbEntity
  8
1
  6
CENTER
 62
     3
100
AcDbLine
 10
-2.51967474415332
 20
269.2674245978801
 30
0.0
 11
4.625034807210965
 21
265.1424245461658
 31
0.0
  0
LINE
  5
2376
330
229B
100
AcDbEntity
  8
1
  6
CENTER
 62
     3
100
AcDbLine
 10
-2.519675135916315
 20
215.1424245978803
 30
0.0
 11
4.625034475162465
 21
219.267424546166
 31
0.0
  0
LINE
  5
2377
330
229B
100
AcDbEntity
  8
1
  6
CENTER
 62
     3
100
AcDbLine
 10
17.29144970052127
 20
195.331299474652
 30
0.0
 11
21.41644975223548
 21
202.4760090260166
 31
0.0
  0
LINE
  5
2378
330
229B
100
AcDbEntity
  8
1
  6
CENTER
 62
     3
100
AcDbLine
 10
44.3539496480349
 20
188.0799242586033
 30
0.0
 11
44.35394970774935
 21
196.3299242586035
 31
0.0
  0
LINE
  5
2379
330
229B
100
AcDbEntity
  8
1
  6
CENTER
 62
     3
100
AcDbLine
 10
58.26547371405768
 20
294.1234374216411
 30
0.0
 11
56.32433087578888
 21
286.8789937244731
 31
0.0
  0
LINE
  5
237A
330
229B
100
AcDbEntity
  8
1
  6
CENTER
 62
     3
100
AcDbLine
 10
30.44242636553798
 20
190.2864110955658
 30
0.0
 11
32.38356920380677
 21
197.5308547927338
 31
0.0
  0
LINE
  5
237B
330
229B
100
AcDbEntity
  8
2
  6
CENTER
 62
     3
100
AcDbLine
 10
44.35395040170369
 20
288.9799235077076
 30
0.0
 11
44.35395036173346
 21
283.8139242586036
 31
0.0
  0
LINE
  5
237C
330
229B
100
AcDbEntity
  8
1
  6
CENTER
 62
     3
100
AcDbLine
 10
25.43884378940695
 20
261.1200308016929
 30
0.0
 11
34.98478526156687
 21
251.574089181816
 31
0.0
  0
LINE
  5
237D
330
229B
100
AcDbEntity
  8
1
  6
CENTER
 62
     3
100
AcDbLine
 10
25.43884349670847
 20
223.2898180082126
 30
0.0
 11
34.98478511658527
 21
232.8357594803724
 31
0.0
  0
LINE
  5
237E
330
229B
100
AcDbEntity
  8
1
  6
CENTER
 62
     3
100
AcDbLine
 10
63.26905629018877
 20
223.2898177155139
 30
0.0
 11
53.72311481802888
 21
232.8357593353908
 31
0.0
  0
LINE
  5
237F
330
229B
100
AcDbEntity
  8
1
  6
CENTER
 62
     3
100
AcDbLine
 10
63.26905658288728
 20
261.1200305089944
 30
0.0
 11
53.72311496301048
 21
251.5740890368342
 31
0.0
  0
LINE
  5
2380
330
229B
100
AcDbEntity
  8
1
  6
CENTER
 62
     3
100
AcDbLine
 10
34.30850994021429
 20
266.4567619870247
 30
0.0
 11
37.17863568295246
 21
259.52766549319
 31
0.0
  0
LINE
  5
2381
330
229B
100
AcDbEntity
  8
1
  6
CENTER
 62
     3
100
AcDbLine
 10
54.39939013938146
 20
217.9530865301823
 30
0.0
 11
51.52926439664328
 21
224.8821830240169
 31
0.0
  0
LINE
  5
2382
330
229B
100
AcDbEntity
  8
1
 62
     3
100
AcDbLine
 10
184.2539473153011
 20
289.7049242586035
 30
0.0
 11
191.0382029141183
 21
289.7049242586035
 31
0.0
  0
LINE
  5
2383
330
229B
100
AcDbEntity
  8
0
 62
     7
100
AcDbLine
 10
184.2539473153011
 20
289.7049242586035
 30
0.0
 11
184.2539473153268
 21
287.5049235781355
 31
0.0
  0
LINE
  5
2384
330
229B
100
AcDbEntity
  8
1
 62
     3
100
AcDbLine
 10
184.2539473153011
 20
294.7049242586034
 30
0.0
 11
191.0542520061099
 21
294.7049242586034
 31
0.0
  0
LINE
  5
2385
330
229B
100
AcDbEntity
  8
0
 62
     7
100
AcDbLine
 10
184.2539473153011
 20
294.7049242586034
 30
0.0
 11
184.2539473153011
 21
294.3549242586036
 31
0.0
  0
LINE
  5
2386
330
229B
100
AcDbEntity
  8
1
  6
DASHDOT
 62
     3
100
AcDbLine
 10
202.2539473003635
 20
292.2049242586035
 30
0.0
 11
182.9729473152964
 21
292.2049242586035
 31
0.0
  0
LINE
  5
2387
330
229B
100
AcDbEntity
  8
1
 62
     7
100
AcDbLine
 10
184.2539473153011
 20
290.2049242586035
 30
0.0
 11
190.6592765380534
 21
290.2049242586035
 31
0.0
  0
LINE
  5
2388
330
229B
100
AcDbEntity
  8
0
 62
     7
100
AcDbLine
 10
184.2539473153011
 20
290.2049242586035
 30
0.0
 11
184.2539473153011
 21
294.2049242586035
 31
0.0
  0
LINE
  5
2389
330
229B
100
AcDbEntity
  8
1
 62
     7
100
AcDbLine
 10
184.2539473153011
 20
294.2049242586035
 30
0.0
 11
190.6592765380534
 21
294.2049242586035
 31
0.0
  0
LINE
  5
238A
330
229B
100
AcDbEntity
  8
0
 62
     7
100
AcDbLine
 10
184.2539473153011
 20
294.2049242586035
 30
0.0
 11
184.2539473153011
 21
294.3549242586036
 31
0.0
  0
LINE
  5
238B
330
229B
100
AcDbEntity
  8
1
 62
     7
100
AcDbLine
 10
191.2539473153008
 20
294.9549242586035
 30
0.0
 11
198.2539473603368
 21
294.9549242586035
 31
0.0
  0
LINE
  5
238C
330
229B
100
AcDbEntity
  8
0
 62
     7
100
AcDbLine
 10
198.2539473603368
 20
294.9549242586035
 30
0.0
 11
198.2539473603368
 21
296.8049234380956
 31
0.0
  0
LINE
  5
238D
330
229B
100
AcDbEntity
  8
1
 62
     7
100
AcDbLine
 10
191.2539473153008
 20
289.4549242586031
 30
0.0
 11
198.2539473603368
 21
289.4549242586031
 31
0.0
  0
LINE
  5
238E
330
229B
100
AcDbEntity
  8
0
 62
     7
100
AcDbLine
 10
198.2539473603368
 20
289.4549242586031
 30
0.0
 11
198.2539473604192
 21
290.0549242586036
 31
0.0
  0
LINE
  5
238F
330
229B
100
AcDbEntity
  8
1
  6
CENTER
 62
     3
100
AcDbLine
 10
333.9164495755683
 20
195.3312992787986
 30
0.0
 11
329.7914495755683
 21
202.47600886002
 31
0.0
  0
LINE
  5
2390
330
229B
100
AcDbEntity
  8
1
  6
CENTER
 62
     3
100
AcDbLine
 10
353.7275745554008
 20
215.1424242586313
 30
0.0
 11
346.582864974179
 21
219.2674242586313
 31
0.0
  0
LINE
  5
2391
330
229B
100
AcDbEntity
  8
1
  6
CENTER
 62
     3
100
AcDbLine
 10
353.7275745554008
 20
269.2674242586314
 30
0.0
 11
346.582864974179
 21
265.1424242586311
 31
0.0
  0
LINE
  5
2392
330
229B
100
AcDbEntity
  8
1
  6
CENTER
 62
     3
100
AcDbLine
 10
333.9164495755682
 20
289.0785492384641
 30
0.0
 11
329.7914495755682
 21
281.9338396572423
 31
0.0
  0
LINE
  5
2393
330
229B
100
AcDbEntity
  8
1
  6
CENTER
 62
     3
100
AcDbLine
 10
292.9424259013068
 20
294.1234374216684
 30
0.0
 11
294.883568739576
 21
286.8789937245005
 31
0.0
  0
LINE
  5
2394
330
229B
100
AcDbEntity
  8
1
  6
CENTER
 62
     3
100
AcDbLine
 10
320.7654732498292
 20
190.286411095594
 30
0.0
 11
318.8243304115601
 21
197.5308547927619
 31
0.0
  0
LINE
  5
2395
330
229B
100
AcDbEntity
  8
1
 62
     3
100
AcDbLine
 10
156.2539473604225
 20
217.2049242586033
 30
0.0
 11
159.4539473604219
 21
217.2049242586033
 31
0.0
  0
LINE
  5
2396
330
229B
100
AcDbEntity
  8
1
 62
     7
100
AcDbLine
 10
156.2539473604225
 20
217.2049242586033
 30
0.0
 11
156.2539473604225
 21
217.7049242586035
 31
0.0
  0
LINE
  5
2397
330
229B
100
AcDbEntity
  8
1
 62
     7
100
AcDbLine
 10
159.4539473604219
 20
217.2049242586033
 30
0.0
 11
159.4539473604219
 21
217.7049242586035
 31
0.0
  0
LINE
  5
2398
330
229B
100
AcDbEntity
  8
1
 62
     3
100
AcDbLine
 10
156.2539473604225
 20
222.2049242586034
 30
0.0
 11
159.4539473604219
 21
222.2049242586034
 31
0.0
  0
LINE
  5
2399
330
229B
100
AcDbEntity
  8
1
 62
     7
100
AcDbLine
 10
156.2539473604225
 20
222.2049242586034
 30
0.0
 11
156.2539473604225
 21
242.2049242586031
 31
0.0
  0
LINE
  5
239A
330
229B
100
AcDbEntity
  8
1
 62
     7
100
AcDbLine
 10
159.4539473604219
 20
222.2049242586034
 30
0.0
 11
159.4539473604219
 21
242.2049242586035
 31
0.0
  0
LINE
  5
239B
330
229B
100
AcDbEntity
  8
1
  6
CENTER
 62
     3
100
AcDbLine
 10
155.6139473604224
 20
219.7049242586035
 30
0.0
 11
160.0939473604223
 21
219.7049242586035
 31
0.0
  0
LINE
  5
239C
330
229B
100
AcDbEntity
  8
1
 62
     7
100
AcDbLine
 10
156.2539473604225
 20
217.7049242586035
 30
0.0
 11
159.4539473604219
 21
217.7049242586035
 31
0.0
  0
LINE
  5
239D
330
229B
100
AcDbEntity
  8
1
 62
     7
100
AcDbLine
 10
156.2539473604225
 20
217.7049242586035
 30
0.0
 11
156.2539473604225
 21
221.7049242586036
 31
0.0
  0
LINE
  5
239E
330
229B
100
AcDbEntity
  8
1
 62
     7
100
AcDbLine
 10
159.4539473604219
 20
217.7049242586035
 30
0.0
 11
159.4539473604219
 21
221.7049242586035
 31
0.0
  0
LINE
  5
239F
330
229B
100
AcDbEntity
  8
1
 62
     7
100
AcDbLine
 10
156.2539473604225
 20
221.7049242586036
 30
0.0
 11
159.4539473604219
 21
221.7049242586035
 31
0.0
  0
LINE
  5
23A0
330
229B
100
AcDbEntity
  8
1
 62
     7
100
AcDbLine
 10
156.2539473604225
 20
221.7049242586036
 30
0.0
 11
156.2539473604225
 21
222.2049242586034
 31
0.0
  0
LINE
  5
23A1
330
229B
100
AcDbEntity
  8
1
 62
     7
100
AcDbLine
 10
159.4539473604219
 20
221.7049242586035
 30
0.0
 11
159.4539473604219
 21
222.2049242586034
 31
0.0
  0
LINE
  5
23A2
330
229B
100
AcDbEntity
  8
1
 62
     7
100
AcDbLine
 10
304.3539451832417
 20
251.5049241190213
 30
0.0
 11
309.3539451073671
 21
251.5049241190213
 31
0.0
  0
LINE
  5
23A3
330
229B
100
AcDbEntity
  8
1
 62
     7
100
AcDbLine
 10
304.3539451832417
 20
248.7432725757088
 30
0.0
 11
304.3539451832417
 21
251.5049241190213
 31
0.0
  0
LINE
  5
23A4
330
229B
100
AcDbEntity
  8
1
  6
DIVIDE
 62
     7
100
AcDbLine
 10
157.4539473154219
 20
285.2049242586036
 30
0.0
 11
167.2514912720211
 21
285.2049242586036
 31
0.0
  0
LINE
  5
23A5
330
229B
100
AcDbEntity
  8
1
  6
DIVIDE
 62
     7
100
AcDbLine
 10
157.4539473154219
 20
279.009684250207
 30
0.0
 11
157.4539473154219
 21
285.2049242586036
 31
0.0
  0
LINE
  5
23A6
330
229B
100
AcDbEntity
  8
1
  6
DIVIDE
 62
     7
100
AcDbLine
 10
199.7539473604225
 20
277.5676740008147
 30
0.0
 11
199.7539473604225
 21
285.2049242586036
 31
0.0
  0
LINE
  5
23A7
330
229B
100
AcDbEntity
  8
1
  6
DIVIDE
 62
     7
100
AcDbLine
 10
199.7539473604225
 20
285.2049242586036
 30
0.0
 11
198.2539473604225
 21
285.2049242586036
 31
0.0
  0
LINE
  5
23A8
330
229B
100
AcDbEntity
  8
1
  6
DIVIDE
 62
     7
100
AcDbLine
 10
199.7539473604225
 20
285.2049242586036
 30
0.0
 11
198.2539473604225
 21
285.2049242586036
 31
0.0
  0
LINE
  5
23A9
330
229B
100
AcDbEntity
  8
2
  6
CENTER
 62
     3
100
AcDbLine
 10
347.3189495755401
 20
242.204924258631
 30
0.0
 11
366.8539443191944
 21
242.2049242586623
 31
0.0
  0
LINE
  5
23AA
330
229B
100
AcDbEntity
  8
2
  6
CENTER
 62
     3
100
AcDbLine
 10
246.8539548319419
 20
242.2049242586623
 30
0.0
 11
266.388949575596
 21
242.204924258631
 31
0.0
  0
LINE
  5
23AB
330
229B
100
AcDbEntity
  8
1
  6
CENTER
 62
     3
100
AcDbLine
 10
283.9164495755682
 20
281.9338396572423
 30
0.0
 11
279.7914495755682
 21
289.0785492384641
 31
0.0
  0
LINE
  5
23AC
330
229B
100
AcDbEntity
  8
1
  6
CENTER
 62
     3
100
AcDbLine
 10
267.125034176957
 20
265.1424242586311
 30
0.0
 11
259.9803245957354
 21
269.2674242586314
 31
0.0
  0
LINE
  5
23AD
330
229B
100
AcDbEntity
  8
1
  6
CENTER
 62
     3
100
AcDbLine
 10
267.125034176957
 20
219.2674242586313
 30
0.0
 11
259.9803245957354
 21
215.1424242586313
 31
0.0
  0
LINE
  5
23AE
330
229B
100
AcDbEntity
  8
1
  6
CENTER
 62
     3
100
AcDbLine
 10
283.9164495755678
 20
202.47600886002
 30
0.0
 11
279.791449575568
 21
195.3312992787986
 31
0.0
  0
LINE
  5
23AF
330
229B
100
AcDbEntity
  8
1
  6
CENTER
 62
     3
100
AcDbLine
 10
67.29145020663446
 20
281.9338398232389
 30
0.0
 11
71.4164501549203
 21
289.0785494343177
 31
0.0
  0
LINE
  5
23B0
330
229B
100
AcDbEntity
  8
1
  6
CENTER
 62
     3
100
AcDbLine
 10
84.08286605883239
 20
219.267424546166
 30
0.0
 11
91.2275756699111
 21
215.1424245978803
 31
0.0
  0
LINE
  5
23B1
330
229B
100
AcDbEntity
  8
1
  6
CENTER
 62
     3
100
AcDbLine
 10
84.08286572678385
 20
265.1424245461658
 30
0.0
 11
91.22757527814806
 21
269.2674245978801
 31
0.0
  0
LINE
  5
23B2
330
229B
100
AcDbEntity
  8
1
  6
CENTER
 62
     3
100
AcDbLine
 10
67.29145078175929
 20
202.4760090260166
 30
0.0
 11
71.41645083347356
 21
195.331299474652
 31
0.0
  0
LINE
  5
23B3
330
229B
100
AcDbEntity
  8
1
  6
DIVIDE
 62
     7
100
AcDbLine
 10
199.7539473604225
 20
277.5676740008147
 30
0.0
 11
199.7539473604225
 21
285.2049242586036
 31
0.0
  0
LINE
  5
23B4
330
229B
100
AcDbEntity
  8
1
  6
DIVIDE
 62
     7
100
AcDbLine
 10
199.7539473604225
 20
285.2049242586036
 30
0.0
 11
198.2539473604225
 21
285.2049242586036
 31
0.0
  0
LINE
  5
23B5
330
229B
100
AcDbEntity
  8
1
  6
DIVIDE
 62
     7
100
AcDbLine
 10
199.7539473604225
 20
277.5676740008147
 30
0.0
 11
199.7539473604225
 21
285.2049242586036
 31
0.0
  0
LINE
  5
23BA
330
229B
100
AcDbEntity
  8
1
 62
     7
100
AcDbLine
 10
186.1139473604221
 20
282.0789242586032
 30
0.0
 11
191.4189473604224
 21
282.0789242586032
 31
0.0
  0
LINE
  5
23BB
330
229B
100
AcDbEntity
  8
1
 62
     7
100
AcDbLine
 10
185.5139473604226
 20
281.7325140970897
 30
0.0
 11
185.5139473604226
 21
280.3109242586034
 31
0.0
  0
LINE
  5
23BC
330
229B
100
AcDbEntity
  8
1
 62
     7
100
AcDbLine
 10
185.7139473604224
 20
280.1109242586034
 30
0.0
 11
189.88347804597
 21
280.1109242586034
 31
0.0
  0
LINE
  5
23BD
330
229B
100
AcDbEntity
  8
1
 62
     7
100
AcDbLine
 10
185.5139473604226
 20
280.3109242586034
 30
0.0
 11
185.7139473604224
 21
280.1109242586034
 31
0.0
  0
LINE
  5
23BE
330
229B
100
AcDbEntity
  8
1
 62
     7
100
AcDbLine
 10
185.5139473604226
 20
281.7325140970897
 30
0.0
 11
186.1139473604221
 21
282.0789242586032
 31
0.0
  0
LINE
  5
23BF
330
229B
100
AcDbEntity
  8
1
 62
     7
100
AcDbLine
 10
196.7239473604224
 20
282.0789242586032
 30
0.0
 11
197.3239473604223
 21
281.7325140970897
 31
0.0
  0
LINE
  5
23C0
330
229B
100
AcDbEntity
  8
1
 62
     7
100
AcDbLine
 10
195.2389473604224
 20
271.6649242586034
 30
0.0
 11
195.7389473604225
 21
272.1649242586034
 31
0.0
  0
LINE
  5
23C1
330
229B
100
AcDbEntity
  8
1
 62
     7
100
AcDbLine
 10
195.7389473604225
 20
273.2209242586034
 30
0.0
 11
195.2389473604224
 21
273.7209242586033
 31
0.0
  0
LINE
  5
23C2
330
229B
100
AcDbEntity
  8
1
 62
     7
100
AcDbLine
 10
197.1239473604224
 20
280.1109242586034
 30
0.0
 11
197.3239473604223
 21
280.3109242586034
 31
0.0
  0
LINE
  5
23C3
330
229B
100
AcDbEntity
  8
1
 62
     7
100
AcDbLine
 10
191.4189473604224
 20
271.6649242586034
 30
0.0
 11
195.2389473604224
 21
271.6649242586034
 31
0.0
  0
LINE
  5
23C4
330
229B
100
AcDbEntity
  8
1
 62
     7
100
AcDbLine
 10
195.7389473604225
 20
273.2209242586034
 30
0.0
 11
195.7389473604225
 21
272.1649242586034
 31
0.0
  0
LINE
  5
23C5
330
229B
100
AcDbEntity
  8
1
 62
     7
100
AcDbLine
 10
193.0745638666294
 20
273.7209242586033
 30
0.0
 11
195.2389473604224
 21
273.7209242586033
 31
0.0
  0
LINE
  5
23C6
330
229B
100
AcDbEntity
  8
1
 62
     7
100
AcDbLine
 10
192.954416674875
 20
280.1109242586034
 30
0.0
 11
197.1239473604224
 21
280.1109242586034
 31
0.0
  0
LINE
  5
23C7
330
229B
100
AcDbEntity
  8
1
 62
     7
100
AcDbLine
 10
197.3239473604223
 20
280.3109242586034
 30
0.0
 11
197.3239473604223
 21
281.7325140970897
 31
0.0
  0
LINE
  5
23C8
330
229B
100
AcDbEntity
  8
1
 62
     7
100
AcDbLine
 10
191.4189473604224
 20
282.0789242586032
 30
0.0
 11
196.7239473604224
 21
282.0789242586032
 31
0.0
  0
LINE
  5
23C9
330
229B
100
AcDbEntity
  8
1
 62
     7
100
AcDbLine
 10
197.3239473604223
 20
280.3109242586034
 30
0.0
 11
197.3239473604223
 21
274.4093379571264
 31
0.0
  0
LINE
  5
23CA
330
229B
100
AcDbEntity
  8
1
 62
     7
100
AcDbLine
 10
185.5139473604226
 20
274.4093379571264
 30
0.0
 11
185.5139473604226
 21
280.3109242586034
 31
0.0
  0
LINE
  5
23CB
330
229B
100
AcDbEntity
  8
1
 62
     7
100
AcDbLine
 10
187.0989473604224
 20
272.1649242586034
 30
0.0
 11
187.0989473604224
 21
273.2209242586034
 31
0.0
  0
LINE
  5
23CC
330
229B
100
AcDbEntity
  8
1
 62
     7
100
AcDbLine
 10
187.5989473604224
 20
273.7209242586033
 30
0.0
 11
187.0989473604224
 21
273.2209242586034
 31
0.0
  0
LINE
  5
23CD
330
229B
100
AcDbEntity
  8
1
 62
     7
100
AcDbLine
 10
187.0989473604224
 20
272.1649242586034
 30
0.0
 11
187.5989473604224
 21
271.6649242586034
 31
0.0
  0
LINE
  5
23CE
330
229B
100
AcDbEntity
  8
1
 62
     7
100
AcDbLine
 10
187.5989473604224
 20
273.7209242586033
 30
0.0
 11
189.7633308542155
 21
273.7209242586033
 31
0.0
  0
LINE
  5
23CF
330
229B
100
AcDbEntity
  8
1
 62
     7
100
AcDbLine
 10
187.5989473604224
 20
271.6649242586034
 30
0.0
 11
191.4189473604224
 21
271.6649242586034
 31
0.0
  0
LINE
  5
23D0
330
229B
100
AcDbEntity
  8
1
 62
     7
100
AcDbLine
 10
191.4189473604224
 20
212.7369242586034
 30
0.0
 11
187.5989473604224
 21
212.7369242586034
 31
0.0
  0
LINE
  5
23D1
330
229B
100
AcDbEntity
  8
1
 62
     7
100
AcDbLine
 10
189.7633308542155
 20
210.6809242586034
 30
0.0
 11
187.5989473604224
 21
210.6809242586034
 31
0.0
  0
LINE
  5
23D2
330
229B
100
AcDbEntity
  8
1
 62
     7
100
AcDbLine
 10
187.5989473604224
 20
212.7369242586034
 30
0.0
 11
187.0989473604224
 21
212.2369242586034
 31
0.0
  0
LINE
  5
23D3
330
229B
100
AcDbEntity
  8
1
 62
     7
100
AcDbLine
 10
187.0989473604224
 20
211.1809242586036
 30
0.0
 11
187.5989473604224
 21
210.6809242586034
 31
0.0
  0
LINE
  5
23D4
330
229B
100
AcDbEntity
  8
1
 62
     7
100
AcDbLine
 10
187.0989473604224
 20
211.1809242586036
 30
0.0
 11
187.0989473604224
 21
212.2369242586034
 31
0.0
  0
LINE
  5
23D5
330
229B
100
AcDbEntity
  8
1
 62
     7
100
AcDbLine
 10
185.5139473604226
 20
204.0909242586033
 30
0.0
 11
185.5139473604226
 21
209.9925105600805
 31
0.0
  0
LINE
  5
23D6
330
229B
100
AcDbEntity
  8
1
 62
     7
100
AcDbLine
 10
197.3239473604223
 20
209.9925105600805
 30
0.0
 11
197.3239473604223
 21
204.0909242586033
 31
0.0
  0
LINE
  5
23D7
330
229B
100
AcDbEntity
  8
1
 62
     7
100
AcDbLine
 10
196.7239473604224
 20
202.3229242586034
 30
0.0
 11
191.4189473604224
 21
202.3229242586034
 31
0.0
  0
LINE
  5
23D8
330
229B
100
AcDbEntity
  8
1
 62
     7
100
AcDbLine
 10
197.3239473604223
 20
202.6693344201169
 30
0.0
 11
197.3239473604223
 21
204.0909242586033
 31
0.0
  0
LINE
  5
23D9
330
229B
100
AcDbEntity
  8
1
 62
     7
100
AcDbLine
 10
197.1239473604224
 20
204.2909242586034
 30
0.0
 11
192.954416674875
 21
204.2909242586034
 31
0.0
  0
LINE
  5
23DA
330
229B
100
AcDbEntity
  8
1
 62
     7
100
AcDbLine
 10
195.2389473604224
 20
210.6809242586034
 30
0.0
 11
193.0745638666294
 21
210.6809242586034
 31
0.0
  0
LINE
  5
23DB
330
229B
100
AcDbEntity
  8
1
 62
     7
100
AcDbLine
 10
195.7389473604225
 20
212.2369242586034
 30
0.0
 11
195.7389473604225
 21
211.1809242586036
 31
0.0
  0
LINE
  5
23DC
330
229B
100
AcDbEntity
  8
1
 62
     7
100
AcDbLine
 10
195.2389473604224
 20
212.7369242586034
 30
0.0
 11
191.4189473604224
 21
212.7369242586034
 31
0.0
  0
LINE
  5
23DD
330
229B
100
AcDbEntity
  8
1
 62
     7
100
AcDbLine
 10
197.3239473604223
 20
204.0909242586033
 30
0.0
 11
197.1239473604224
 21
204.2909242586034
 31
0.0
  0
LINE
  5
23DE
330
229B
100
AcDbEntity
  8
1
 62
     7
100
AcDbLine
 10
195.2389473604224
 20
210.6809242586034
 30
0.0
 11
195.7389473604225
 21
211.1809242586036
 31
0.0
  0
LINE
  5
23DF
330
229B
100
AcDbEntity
  8
1
 62
     7
100
AcDbLine
 10
195.7389473604225
 20
212.2369242586034
 30
0.0
 11
195.2389473604224
 21
212.7369242586034
 31
0.0
  0
LINE
  5
23E0
330
229B
100
AcDbEntity
  8
1
 62
     7
100
AcDbLine
 10
197.3239473604223
 20
202.6693344201169
 30
0.0
 11
196.7239473604224
 21
202.3229242586034
 31
0.0
  0
LINE
  5
23E1
330
229B
100
AcDbEntity
  8
1
 62
     7
100
AcDbLine
 10
186.1139473604221
 20
202.3229242586034
 30
0.0
 11
185.5139473604226
 21
202.6693344201169
 31
0.0
  0
LINE
  5
23E2
330
229B
100
AcDbEntity
  8
1
 62
     7
100
AcDbLine
 10
185.7139473604224
 20
204.2909242586034
 30
0.0
 11
185.5139473604226
 21
204.0909242586033
 31
0.0
  0
LINE
  5
23E3
330
229B
100
AcDbEntity
  8
1
 62
     7
100
AcDbLine
 10
189.88347804597
 20
204.2909242586034
 30
0.0
 11
185.7139473604224
 21
204.2909242586034
 31
0.0
  0
LINE
  5
23E4
330
229B
100
AcDbEntity
  8
1
 62
     7
100
AcDbLine
 10
185.5139473604226
 20
204.0909242586033
 30
0.0
 11
185.5139473604226
 21
202.6693344201169
 31
0.0
  0
LINE
  5
23E5
330
229B
100
AcDbEntity
  8
1
 62
     7
100
AcDbLine
 10
191.4189473604224
 20
202.3229242586034
 30
0.0
 11
186.1139473604221
 21
202.3229242586034
 31
0.0
  0
LINE
  5
23E6
330
229B
100
AcDbEntity
  8
1
 62
     7
100
AcDbLine
 10
187.6470723604225
 20
279.2159242586036
 30
0.0
 11
188.688430808941
 21
279.188655327945
 31
0.0
  0
LINE
  5
23E7
330
229B
100
AcDbEntity
  8
1
 62
     7
100
AcDbLine
 10
186.3670723604225
 20
279.2159242586036
 30
0.0
 11
187.6470723604225
 21
279.2159242586036
 31
0.0
  0
LINE
  5
23E8
330
229B
100
AcDbEntity
  8
1
 62
     7
100
AcDbLine
 10
186.0670723604224
 20
278.9159242586034
 30
0.0
 11
186.0670723604224
 21
277.0721151155555
 31
0.0
  0
LINE
  5
23E9
330
229B
100
AcDbEntity
  8
1
 62
     7
100
AcDbLine
 10
185.7883968308387
 20
274.8024850616249
 30
0.0
 11
186.0670723604224
 21
277.0721151155555
 31
0.0
  0
LINE
  5
23EA
330
229B
100
AcDbEntity
  8
1
 62
     7
100
AcDbLine
 10
186.0861606763306
 20
274.4659242586035
 30
0.0
 11
187.6470723604225
 21
274.4659242586035
 31
0.0
  0
LINE
  5
23EB
330
229B
100
AcDbEntity
  8
1
 62
     7
100
AcDbLine
 10
187.6470723604225
 20
279.2159242586036
 30
0.0
 11
187.6470723604225
 21
274.4659242586035
 31
0.0
  0
LINE
  5
23EC
330
229B
100
AcDbEntity
  8
1
 62
     7
100
AcDbLine
 10
188.7918023290956
 20
274.4659242586035
 30
0.0
 11
187.6470723604225
 21
274.4659242586035
 31
0.0
  0
LINE
  5
23ED
330
229B
100
AcDbEntity
  8
1
 62
     7
100
AcDbLine
 10
187.6470723604225
 20
209.9359242586035
 30
0.0
 11
188.7918023290956
 21
209.9359242586035
 31
0.0
  0
LINE
  5
23EE
330
229B
100
AcDbEntity
  8
1
 62
     7
100
AcDbLine
 10
187.6470723604225
 20
209.9359242586035
 30
0.0
 11
187.6470723604225
 21
205.1859242586033
 31
0.0
  0
LINE
  5
23EF
330
229B
100
AcDbEntity
  8
1
 62
     7
100
AcDbLine
 10
187.6470723604225
 20
209.9359242586035
 30
0.0
 11
186.0861606763306
 21
209.9359242586035
 31
0.0
  0
LINE
  5
23F0
330
229B
100
AcDbEntity
  8
1
 62
     7
100
AcDbLine
 10
186.0670723604224
 20
207.3297334016515
 30
0.0
 11
185.7883968308387
 21
209.5993634555818
 31
0.0
  0
LINE
  5
23F1
330
229B
100
AcDbEntity
  8
1
 62
     7
100
AcDbLine
 10
186.0670723604224
 20
207.3297334016515
 30
0.0
 11
186.0670723604224
 21
205.4859242586033
 31
0.0
  0
LINE
  5
23F2
330
229B
100
AcDbEntity
  8
1
 62
     7
100
AcDbLine
 10
187.6470723604225
 20
205.1859242586033
 30
0.0
 11
186.3670723604225
 21
205.1859242586033
 31
0.0
  0
LINE
  5
23F3
330
229B
100
AcDbEntity
  8
1
 62
     7
100
AcDbLine
 10
188.688430808941
 20
205.2131931892618
 30
0.0
 11
187.6470723604225
 21
205.1859242586033
 31
0.0
  0
ARC
  5
23F4
330
229B
100
AcDbEntity
  8
1
 62
     7
100
AcDbCircle
 10
175.3668252958544
 20
169.2919242586033
 30
0.0
 40
32.45210793904028
100
AcDbArc
 50
75.25592954456358
 51
90.65305167668688
  0
ARC
  5
23F5
330
229B
100
AcDbEntity
  8
1
 62
     7
100
AcDbCircle
 10
175.0469473604225
 20
314.6980463231709
 30
0.0
 40
32.13016096884715
100
AcDbArc
 50
270.0891620223959
 51
285.48628415452
  0
ARC
  5
23F6
330
229B
100
AcDbEntity
  8
0
 62
     7
100
AcDbCircle
 10
183.0539474890874
 20
255.60492405734
 30
0.0
 40
0.3999999939858299
100
AcDbArc
 50
180.0000000007165
 51
270.0000000007408
  0
ARC
  5
23F7
330
229B
100
AcDbEntity
  8
0
 62
     7
100
AcDbCircle
 10
183.0539474890928
 20
228.8049244598794
 30
0.0
 40
0.3999999939910097
100
AcDbArc
 50
90.0
 51
180.0
  0
ARC
  5
23F8
330
229B
100
AcDbEntity
  8
0
 62
     7
100
AcDbCircle
 10
310.1472784290375
 20
226.821591156428
 30
0.0
 40
0.8666666536645093
100
AcDbArc
 50
270.0000000008011
 51
0.0000000000716515
  0
ARC
  5
23F9
330
229B
100
AcDbEntity
  8
0
 62
     7
100
AcDbCircle
 10
311.8806117363323
 20
228.5849306453598
 30
0.0
 40
0.8666666536509483
100
AcDbArc
 50
109.269638877499
 51
180.0
  0
ARC
  5
23FA
330
229B
100
AcDbEntity
  8
0
 62
     7
100
AcDbCircle
 10
306.8539451451758
 20
242.963257580571
 30
0.0
 40
14.36499978417257
100
AcDbArc
 50
289.2696388779717
 51
89.99999999999348
  0
ARC
  5
23FB
330
229B
100
AcDbEntity
  8
0
 62
     7
100
AcDbCircle
 10
303.5606118613316
 20
226.8215911564294
 30
0.0
 40
0.8666666536656038
100
AcDbArc
 50
180.0
 51
269.9999999985456
  0
ARC
  5
23FC
330
229B
100
AcDbEntity
  8
0
 62
     7
100
AcDbCircle
 10
301.8272785540282
 20
228.5849306453517
 30
0.0
 40
0.8666666536597913
100
AcDbArc
 50
0.0000000005487856
 51
70.73036112248844
  0
ARC
  5
23FD
330
229B
100
AcDbEntity
  8
0
 62
     7
100
AcDbCircle
 10
306.853945145179
 20
242.963257580571
 30
0.0
 40
14.36499978417248
100
AcDbArc
 50
90.00000000000653
 51
250.730361122028
  0
ARC
  5
23FE
330
229B
100
AcDbEntity
  8
0
 62
     7
100
AcDbCircle
 10
183.9539473198333
 20
287.5049235781355
 30
0.0
 40
0.2999999954932449
100
AcDbArc
 50
270.0
 51
0.0
  0
ARC
  5
23FF
330
229B
100
AcDbEntity
  8
0
 62
     7
100
AcDbCircle
 10
183.9539473199406
 20
196.9049249391603
 30
0.0
 40
0.2999999954553232
100
AcDbArc
 50
0.0000000024263816
 51
89.99999999755734
  0
ARC
  5
2400
330
229B
100
AcDbEntity
  8
1
 62
     7
100
AcDbCircle
 10
306.8539451451786
 20
242.2049242585975
 30
0.0
 40
6.999999894658786
100
AcDbArc
 50
110.9248324237714
 51
269.9999999999918
  0
ARC
  5
2401
330
229B
100
AcDbEntity
  8
1
 62
     7
100
AcDbCircle
 10
306.8539451451846
 20
242.2049242586421
 30
0.0
 40
6.999999894728714
100
AcDbArc
 50
269.9999999999411
 51
69.075167574293
  0
ARC
  5
2402
330
229B
100
AcDbEntity
  8
1
  6
DASHDOT
 62
     3
100
AcDbCircle
 10
44.35395003979785
 20
242.2049242586031
 30
0.0
 40
22.49999999999992
100
AcDbArc
 50
94.99999999999976
 51
130.0
  0
ARC
  5
2403
330
229B
100
AcDbEntity
  8
1
  6
DASHDOT
 62
     3
100
AcDbCircle
 10
44.35395003979785
 20
242.2049242586031
 30
0.0
 40
22.50000000000003
100
AcDbArc
 50
274.9999999999997
 51
310.0
  0
ARC
  5
2404
330
229B
100
AcDbEntity
  8
1
 62
     7
100
AcDbCircle
 10
306.8539451451773
 20
242.2049242586031
 30
0.0
 40
54.99999917401698
100
AcDbArc
 50
68.6763084461111
 51
111.3236816448857
  0
ARC
  5
2405
330
229B
100
AcDbEntity
  8
1
  6
CENTER
 62
     3
100
AcDbCircle
 10
306.8539495755682
 20
242.204924258631
 30
0.0
 40
50.0
100
AcDbArc
 50
66.42182152179798
 51
113.578178478202
  0
ARC
  5
2406
330
229B
100
AcDbEntity
  8
0
 62
     7
100
AcDbCircle
 10
306.8539451451773
 20
242.2049242586031
 30
0.0
 40
37.90999943061417
100
AcDbArc
 50
0.0
 51
0.0000000000651378
  0
ARC
  5
2407
330
229B
100
AcDbEntity
  8
1
 62
     7
100
AcDbCircle
 10
306.8539451451773
 20
242.2049242586031
 30
0.0
 40
54.99999917401694
100
AcDbArc
 50
291.3236915538888
 51
68.6763084461111
  0
ARC
  5
2408
330
229B
100
AcDbEntity
  8
1
 62
     7
100
AcDbCircle
 10
306.8539451451773
 20
242.2049242586031
 30
0.0
 40
54.99999917401686
100
AcDbArc
 50
248.6763183551138
 51
291.3236915538888
  0
ARC
  5
2409
330
229B
100
AcDbEntity
  8
1
  6
CENTER
 62
     3
100
AcDbCircle
 10
306.8539495755682
 20
242.204924258631
 30
0.0
 40
49.99999999999992
100
AcDbArc
 50
246.4218215217979
 51
293.578178478202
  0
ARC
  5
240A
330
229B
100
AcDbEntity
  8
1
  6
CENTER
 62
     3
100
AcDbCircle
 10
306.8539495755682
 20
242.204924258631
 30
0.0
 40
50.0
100
AcDbArc
 50
293.578178478202
 51
66.42182152179798
  0
ARC
  5
240B
330
229B
100
AcDbEntity
  8
1
 62
     7
100
AcDbCircle
 10
306.8539495755682
 20
242.2049242586208
 30
0.0
 40
41.6089999999827
100
AcDbArc
 50
270.0
 51
90.0
  0
ARC
  5
240C
330
229B
100
AcDbEntity
  8
1
 62
     7
100
AcDbCircle
 10
306.8539495755682
 20
242.2049242586208
 30
0.0
 40
41.60899999998272
100
AcDbArc
 50
90.0
 51
270.0
  0
ARC
  5
240D
330
229B
100
AcDbEntity
  8
1
 62
     7
100
AcDbCircle
 10
306.8539540059586
 20
242.2049242586031
 30
0.0
 40
54.99999917401689
100
AcDbArc
 50
248.6763084461109
 51
291.323681644886
  0
ARC
  5
240E
330
229B
100
AcDbEntity
  8
1
 62
     7
100
AcDbCircle
 10
306.8539540059586
 20
242.2049242586031
 30
0.0
 40
54.99999917401689
100
AcDbArc
 50
111.3236915538889
 51
248.6763084461109
  0
ARC
  5
240F
330
229B
100
AcDbEntity
  8
1
  6
CENTER
 62
     3
100
AcDbCircle
 10
306.8539495755682
 20
242.204924258631
 30
0.0
 40
50.00000000000002
100
AcDbArc
 50
113.578178478202
 51
246.4218215217979
  0
ARC
  5
2410
330
229B
100
AcDbEntity
  8
1
  6
CENTER
 62
     3
100
AcDbCircle
 10
306.8539495755682
 20
242.204924258631
 30
0.0
 40
50.00000000000002
100
AcDbArc
 50
113.578178478202
 51
246.4218215217979
  0
ARC
  5
2411
330
229B
100
AcDbEntity
  8
1
 62
     7
100
AcDbCircle
 10
306.8539540059586
 20
242.2049242586031
 30
0.0
 40
54.99999917401689
100
AcDbArc
 50
111.3236915538889
 51
248.6763084461109
  0
ARC
  5
2412
330
229B
100
AcDbEntity
  8
1
 62
     7
100
AcDbCircle
 10
44.35395040170369
 20
242.2049242586031
 30
0.0
 40
44.99999932416559
100
AcDbArc
 50
90.0000000174862
 51
305.2943946766187
  0
ARC
  5
2413
330
229B
100
AcDbEntity
  8
1
 62
     7
100
AcDbCircle
 10
44.35395003979785
 20
242.2049242586031
 30
0.0
 40
40.21974963260388
100
AcDbArc
 50
89.99999955669355
 51
269.9999995566936
  0
ARC
  5
2414
330
229B
100
AcDbEntity
  8
1
 62
     7
100
AcDbCircle
 10
44.35395003979785
 20
242.2049242586031
 30
0.0
 40
41.60899999999997
100
AcDbArc
 50
89.99999955669355
 51
269.9999995566936
  0
ARC
  5
2415
330
229B
100
AcDbEntity
  8
1
  6
CENTER
 62
     3
100
AcDbCircle
 10
44.35395003979785
 20
242.2049242586031
 30
0.0
 40
50.00000000000009
100
AcDbArc
 50
89.99999958528746
 51
269.9999995852873
  0
ARC
  5
2416
330
229B
100
AcDbEntity
  8
1
  6
CENTER
 62
     3
100
AcDbCircle
 10
44.35395016963869
 20
242.2049242586031
 30
0.0
 40
49.99999999999992
100
AcDbArc
 50
270.0000004147124
 51
90.00000041471258
  0
ARC
  5
2417
330
229B
100
AcDbEntity
  8
1
 62
     7
100
AcDbCircle
 10
44.35394980773279
 20
242.2049242586031
 30
0.0
 40
44.99999932416561
100
AcDbArc
 50
234.7056053233812
 51
89.99999998251379
  0
ARC
  5
2418
330
229B
100
AcDbEntity
  8
1
 62
     7
100
AcDbCircle
 10
44.35395016963869
 20
242.2049242586031
 30
0.0
 40
41.60899999999997
100
AcDbArc
 50
270.000000443306
 51
90.00000044330645
  0
ARC
  5
2419
330
229B
100
AcDbEntity
  8
1
 62
     7
100
AcDbCircle
 10
44.35395016963869
 20
242.2049242586031
 30
0.0
 40
40.21974963260388
100
AcDbArc
 50
270.000000443306
 51
90.00000044330645
  0
ARC
  5
241A
330
229B
100
AcDbEntity
  8
1
 62
     7
100
AcDbCircle
 10
44.35394980773279
 20
242.2049242586031
 30
0.0
 40
54.9999991738644
100
AcDbArc
 50
243.3168111502908
 51
90.0
  0
ARC
  5
241B
330
229B
100
AcDbEntity
  8
1
 62
     7
100
AcDbCircle
 10
44.35395329123458
 20
242.204923432468
 30
0.0
 40
55.0000000000001
100
AcDbArc
 50
90.00000362890764
 51
243.3168075213826
  0
ARC
  5
241C
330
229B
100
AcDbEntity
  8
1
 62
     7
100
AcDbCircle
 10
44.35394980773279
 20
242.2049242586031
 30
0.0
 40
54.99999917386446
100
AcDbArc
 50
241.7885241587542
 51
243.3168111502908
  0
ARC
  5
241D
330
229B
100
AcDbEntity
  8
1
 62
     7
100
AcDbCircle
 10
306.8539495755682
 20
276.8899242586207
 30
0.0
 40
3.571875000000015
100
AcDbArc
 50
116.6999197522442
 51
243.7861598007291
  0
ARC
  5
241E
330
229B
100
AcDbEntity
  8
1
 62
     7
100
AcDbCircle
 10
306.8539495755682
 20
276.8899242586207
 30
0.0
 40
3.571875000000038
100
AcDbArc
 50
296.2138401992719
 51
63.3000802477558
  0
ARC
  5
241F
330
229B
100
AcDbEntity
  8
1
 62
     7
100
AcDbCircle
 10
316.2118505831496
 20
275.6037103702791
 30
0.0
 40
3.571874999999975
100
AcDbArc
 50
280.5616662862279
 51
47.64790633471203
  0
ARC
  5
2420
330
229B
100
AcDbEntity
  8
1
 62
     7
100
AcDbCircle
 10
324.8757188825472
 20
271.8404613053158
 30
0.0
 40
3.571875000000062
100
AcDbArc
 50
264.9094923731849
 51
303.63053500255
  0
ARC
  5
2421
330
229B
100
AcDbEntity
  8
1
 62
     7
100
AcDbCircle
 10
328.7432349245172
 20
215.299378140538
 30
0.0
 40
3.571874999999947
100
AcDbArc
 50
155.3442749818802
 51
238.0665570249484
  0
ARC
  5
2422
330
229B
100
AcDbEntity
  8
1
 62
     7
100
AcDbCircle
 10
320.6724913768851
 20
210.3914502659042
 30
0.0
 40
3.571874999999991
100
AcDbArc
 50
139.6921010688369
 51
266.7783411173203
  0
ARC
  5
2423
330
229B
100
AcDbEntity
  8
1
 62
     7
100
AcDbCircle
 10
311.5768897994716
 20
207.8429822203504
 30
0.0
 40
3.571874999999975
100
AcDbArc
 50
124.0399271557945
 51
251.1261672042762
  0
ARC
  5
2424
330
229B
100
AcDbEntity
  8
1
 62
     7
100
AcDbCircle
 10
302.1310093516648
 20
207.8429822203504
 30
0.0
 40
3.571874999999975
100
AcDbArc
 50
108.3877532427484
 51
235.4739932912348
  0
ARC
  5
2425
330
229B
100
AcDbEntity
  8
1
 62
     7
100
AcDbCircle
 10
293.0354077742511
 20
210.3914502659042
 30
0.0
 40
3.571874999999966
100
AcDbArc
 50
92.73557932970554
 51
219.8218193781914
  0
ARC
  5
2426
330
229B
100
AcDbEntity
  8
1
 62
     7
100
AcDbCircle
 10
284.9646642266191
 20
215.299378140538
 30
0.0
 40
3.571875000000062
100
AcDbArc
 50
77.08340541666307
 51
204.1696454651459
  0
ARC
  5
2427
330
229B
100
AcDbEntity
  8
1
 62
     7
100
AcDbCircle
 10
278.5173488365009
 20
222.2027672860666
 30
0.0
 40
3.571874999999995
100
AcDbArc
 50
61.4312315036188
 51
188.5174715521035
  0
ARC
  5
2428
330
229B
100
AcDbEntity
  8
1
 62
     7
100
AcDbCircle
 10
274.1716294918769
 20
230.5896249104697
 30
0.0
 40
3.571874999999903
100
AcDbArc
 50
45.77905759057672
 51
172.8652976390615
  0
ARC
  5
2429
330
229B
100
AcDbEntity
  8
1
 62
     7
100
AcDbCircle
 10
272.2498083161942
 20
239.837936151067
 30
0.0
 40
3.571874999999768
100
AcDbArc
 50
30.12688367753504
 51
157.2131237260155
  0
ARC
  5
242A
330
229B
100
AcDbEntity
  8
1
 62
     7
100
AcDbCircle
 10
272.8944179943064
 20
249.2617960713513
 30
0.0
 40
3.57187500000013
100
AcDbArc
 50
14.47470976448868
 51
141.5609498129713
  0
ARC
  5
242B
330
229B
100
AcDbEntity
  8
1
 62
     7
100
AcDbCircle
 10
276.0576507752816
 20
258.1622800923256
 30
0.0
 40
3.571874999999871
100
AcDbArc
 50
358.8225358514461
 51
125.908775899929
  0
ARC
  5
242C
330
229B
100
AcDbEntity
  8
1
 62
     7
100
AcDbCircle
 10
281.5049041545809
 20
265.8792800311596
 30
0.0
 40
3.571875000000146
100
AcDbArc
 50
343.1703619384034
 51
110.2566019868842
  0
ARC
  5
242D
330
229B
100
AcDbEntity
  8
1
 62
     7
100
AcDbCircle
 10
288.8321802685891
 20
271.8404613053158
 30
0.0
 40
3.571875000000034
100
AcDbArc
 50
327.518188025358
 51
94.60442807384259
  0
ARC
  5
242E
330
229B
100
AcDbEntity
  8
1
 62
     7
100
AcDbCircle
 10
297.4960485679868
 20
275.6037103702791
 30
0.0
 40
3.571874999999959
100
AcDbArc
 50
311.8660141123165
 51
78.9522541607988
  0
ARC
  5
242F
330
229B
100
AcDbEntity
  8
1
 62
     7
100
AcDbCircle
 10
316.2118505831496
 20
275.6037103702791
 30
0.0
 40
3.571875000000114
100
AcDbArc
 50
101.0477458392009
 51
228.1339858876822
  0
ARC
  5
2430
330
229B
100
AcDbEntity
  8
1
 62
     7
100
AcDbCircle
 10
324.8757188825472
 20
271.8404613053158
 30
0.0
 40
3.571874999999898
100
AcDbArc
 50
85.39557192615744
 51
212.4818119746416
  0
ARC
  5
2431
330
229B
100
AcDbEntity
  8
1
 62
     7
100
AcDbCircle
 10
320.6724913768851
 20
210.3914502659042
 30
0.0
 40
3.571874999999908
100
AcDbArc
 50
320.1781806218082
 51
87.26442067029283
  0
ARC
  5
2432
330
229B
100
AcDbEntity
  8
1
 62
     7
100
AcDbCircle
 10
311.5768897994716
 20
207.8429822203504
 30
0.0
 40
3.571874999999908
100
AcDbArc
 50
304.5260067087649
 51
71.61224675725119
  0
ARC
  5
2433
330
229B
100
AcDbEntity
  8
1
 62
     7
100
AcDbCircle
 10
302.1310093516648
 20
207.8429822203504
 30
0.0
 40
3.571874999999912
100
AcDbArc
 50
288.87383279572
 51
55.96007284420904
  0
ARC
  5
2434
330
229B
100
AcDbEntity
  8
1
 62
     7
100
AcDbCircle
 10
293.0354077742511
 20
210.3914502659042
 30
0.0
 40
3.571874999999971
100
AcDbArc
 50
273.2216588826797
 51
40.30789893116279
  0
ARC
  5
2435
330
229B
100
AcDbEntity
  8
1
 62
     7
100
AcDbCircle
 10
284.9646642266191
 20
215.299378140538
 30
0.0
 40
3.571874999999912
100
AcDbArc
 50
257.5694849696345
 51
24.65572501811973
  0
ARC
  5
2436
330
229B
100
AcDbEntity
  8
1
 62
     7
100
AcDbCircle
 10
278.5173488365009
 20
222.2027672860666
 30
0.0
 40
3.571874999999883
100
AcDbArc
 50
241.917311056594
 51
9.003551105074796
  0
ARC
  5
2437
330
229B
100
AcDbEntity
  8
1
 62
     7
100
AcDbCircle
 10
274.1716294918769
 20
230.5896249104697
 30
0.0
 40
3.57187500000013
100
AcDbArc
 50
226.2651371435468
 51
353.3513771920323
  0
ARC
  5
2438
330
229B
100
AcDbEntity
  8
1
 62
     7
100
AcDbCircle
 10
272.2498083161942
 20
239.837936151067
 30
0.0
 40
3.571874999999999
100
AcDbArc
 50
210.6129632305048
 51
337.6992032789881
  0
ARC
  5
2439
330
229B
100
AcDbEntity
  8
1
 62
     7
100
AcDbCircle
 10
272.8944179943064
 20
249.2617960713513
 30
0.0
 40
3.571874999999998
100
AcDbArc
 50
194.9607893174611
 51
322.0470293659452
  0
ARC
  5
243A
330
229B
100
AcDbEntity
  8
1
 62
     7
100
AcDbCircle
 10
276.0576507752816
 20
258.1622800923256
 30
0.0
 40
3.571874999999978
100
AcDbArc
 50
179.3086154044178
 51
306.3948554529027
  0
ARC
  5
243B
330
229B
100
AcDbEntity
  8
1
 62
     7
100
AcDbCircle
 10
281.5049041545809
 20
265.8792800311596
 30
0.0
 40
3.571874999999839
100
AcDbArc
 50
163.6564414913725
 51
290.7426815398595
  0
ARC
  5
243C
330
229B
100
AcDbEntity
  8
1
 62
     7
100
AcDbCircle
 10
288.8321802685891
 20
271.8404613053158
 30
0.0
 40
3.571874999999931
100
AcDbArc
 50
148.0042675783318
 51
275.0905076268151
  0
ARC
  5
243D
330
229B
100
AcDbEntity
  8
1
 62
     7
100
AcDbCircle
 10
297.4960485679868
 20
275.6037103702791
 30
0.0
 40
3.571875000000038
100
AcDbArc
 50
132.3520936652879
 51
259.438333713772
  0
ARC
  5
243E
330
229B
100
AcDbEntity
  8
1
 62
     7
100
AcDbCircle
 10
306.8539495755682
 20
242.2049242586208
 30
0.0
 40
39.87799999999996
100
AcDbArc
 50
59.89874643939059
 51
180.0
  0
ARC
  5
243F
330
229B
100
AcDbEntity
  8
1
 62
     7
100
AcDbCircle
 10
306.8539495755682
 20
242.2049242586208
 30
0.0
 40
39.87800000000013
100
AcDbArc
 50
180.0
 51
300.1012535606093
  0
ARC
  5
2440
330
229B
100
AcDbEntity
  8
1
 62
     7
100
AcDbCircle
 10
306.8539495755682
 20
242.2049242586208
 30
0.0
 40
37.90999999999992
100
AcDbArc
 50
58.15890185231172
 51
180.0
  0
ARC
  5
2441
330
229B
100
AcDbEntity
  8
1
 62
     7
100
AcDbCircle
 10
306.8539495755682
 20
242.2049242586208
 30
0.0
 40
37.91000000000021
100
AcDbArc
 50
180.0
 51
301.841098147688
  0
ARC
  5
2442
330
229B
100
AcDbEntity
  8
1
 62
     7
100
AcDbCircle
 10
306.8539495755682
 20
242.2049242586208
 30
0.0
 40
31.51999999999993
100
AcDbArc
 50
50.61577272019711
 51
180.0
  0
ARC
  5
2443
330
229B
100
AcDbEntity
  8
1
 62
     7
100
AcDbCircle
 10
306.8539495755682
 20
242.2049242586208
 30
0.0
 40
31.52000000000012
100
AcDbArc
 50
180.0
 51
309.3842272798029
  0
ARC
  5
2444
330
229B
100
AcDbEntity
  8
1
 62
     7
100
AcDbCircle
 10
306.8539495755682
 20
242.2049242586208
 30
0.0
 40
29.464
100
AcDbArc
 50
47.2504903481146
 51
180.0
  0
ARC
  5
2445
330
229B
100
AcDbEntity
  8
1
 62
     7
100
AcDbCircle
 10
306.8539495755682
 20
242.2049242586208
 30
0.0
 40
29.46400000000007
100
AcDbArc
 50
180.0
 51
312.7495096518852
  0
ARC
  5
2446
330
229B
100
AcDbEntity
  8
1
 62
     7
100
AcDbCircle
 10
191.4189473604224
 20
276.8859242586036
 30
0.0
 40
3.571874999999975
100
AcDbArc
 50
90.0
 51
115.4597972369348
  0
ARC
  5
2447
330
229B
100
AcDbEntity
  8
1
 62
     7
100
AcDbCircle
 10
191.4189473604224
 20
276.8859242586036
 30
0.0
 40
3.571874999999971
100
AcDbArc
 50
115.4597972369348
 51
270.0
  0
ARC
  5
2448
330
229B
100
AcDbEntity
  8
1
 62
     7
100
AcDbCircle
 10
191.4189473604224
 20
276.8859242586036
 30
0.0
 40
3.571875000000027
100
AcDbArc
 50
270.0
 51
297.6141371293898
  0
ARC
  5
2449
330
229B
100
AcDbEntity
  8
1
 62
     7
100
AcDbCircle
 10
191.4189473604224
 20
276.8859242586036
 30
0.0
 40
3.571875000000038
100
AcDbArc
 50
297.6141371293898
 51
64.54020276306512
  0
ARC
  5
244A
330
229B
100
AcDbEntity
  8
1
 62
     7
100
AcDbCircle
 10
191.4189473604224
 20
276.8859242586036
 30
0.0
 40
3.571874999999971
100
AcDbArc
 50
64.54020276306512
 51
90.0
  0
ARC
  5
244B
330
229B
100
AcDbEntity
  8
1
 62
     7
100
AcDbCircle
 10
191.4189473604224
 20
207.5159242586031
 30
0.0
 40
3.571874999999975
100
AcDbArc
 50
270.0
 51
295.4597972369333
  0
ARC
  5
244C
330
229B
100
AcDbEntity
  8
1
 62
     7
100
AcDbCircle
 10
191.4189473604224
 20
207.5159242586031
 30
0.0
 40
3.571875000000003
100
AcDbArc
 50
295.4597972369333
 51
62.38586287061
  0
ARC
  5
244D
330
229B
100
AcDbEntity
  8
1
 62
     7
100
AcDbCircle
 10
191.4189473604224
 20
207.5159242586031
 30
0.0
 40
3.571875000000038
100
AcDbArc
 50
62.38586287061
 51
90.0
  0
ARC
  5
244E
330
229B
100
AcDbEntity
  8
1
 62
     7
100
AcDbCircle
 10
191.4189473604224
 20
207.5159242586031
 30
0.0
 40
3.571874999999999
100
AcDbArc
 50
90.0
 51
244.5402027630664
  0
ARC
  5
244F
330
229B
100
AcDbEntity
  8
1
 62
     7
100
AcDbCircle
 10
191.4189473604224
 20
207.5159242586031
 30
0.0
 40
3.571875000000003
100
AcDbArc
 50
244.5402027630664
 51
270.0
  0
ARC
  5
2450
330
229B
100
AcDbEntity
  8
1
 62
     7
100
AcDbCircle
 10
306.8539495755682
 20
242.2049242586208
 30
0.0
 40
29.46399999999998
100
AcDbArc
 50
227.2504903481133
 51
0.0
  0
ARC
  5
2451
330
229B
100
AcDbEntity
  8
1
 62
     7
100
AcDbCircle
 10
306.8539495755682
 20
242.2049242586208
 30
0.0
 40
29.464
100
AcDbArc
 50
0.0
 51
132.7495096518853
  0
ARC
  5
2452
330
229B
100
AcDbEntity
  8
1
 62
     7
100
AcDbCircle
 10
306.8539495755682
 20
242.2049242586208
 30
0.0
 40
31.51999999999993
100
AcDbArc
 50
230.6157727201959
 51
0.0
  0
ARC
  5
2453
330
229B
100
AcDbEntity
  8
1
 62
     7
100
AcDbCircle
 10
306.8539495755682
 20
242.2049242586208
 30
0.0
 40
31.52000000000001
100
AcDbArc
 50
0.0
 51
129.3842272798029
  0
ARC
  5
2454
330
229B
100
AcDbEntity
  8
1
 62
     7
100
AcDbCircle
 10
306.8539495755682
 20
242.2049242586208
 30
0.0
 40
37.90999999999999
100
AcDbArc
 50
238.1589018523117
 51
0.0
  0
ARC
  5
2455
330
229B
100
AcDbEntity
  8
1
 62
     7
100
AcDbCircle
 10
306.8539495755682
 20
242.2049242586208
 30
0.0
 40
37.91000000000011
100
AcDbArc
 50
0.0
 51
121.8410981476882
  0
ARC
  5
2456
330
229B
100
AcDbEntity
  8
1
 62
     7
100
AcDbCircle
 10
306.8539495755682
 20
242.2049242586208
 30
0.0
 40
39.878
100
AcDbArc
 50
239.8987464393905
 51
0.0
  0
ARC
  5
2457
330
229B
100
AcDbEntity
  8
1
 62
     7
100
AcDbCircle
 10
306.8539495755682
 20
242.2049242586208
 30
0.0
 40
39.87799999999999
100
AcDbArc
 50
0.0
 51
120.1012535606094
  0
ARC
  5
2458
330
229B
100
AcDbEntity
  8
1
 62
     7
100
AcDbCircle
 10
316.2118505831496
 20
275.6037103702791
 30
0.0
 40
3.571874999999975
100
AcDbArc
 50
280.5616662862279
 51
47.64790633471203
  0
ARC
  5
2459
330
229B
100
AcDbEntity
  8
1
 62
     7
100
AcDbCircle
 10
324.8757188825472
 20
271.8404613053158
 30
0.0
 40
3.571875000000062
100
AcDbArc
 50
264.9094923731849
 51
31.99573242166819
  0
ARC
  5
245A
330
229B
100
AcDbEntity
  8
1
 62
     7
100
AcDbCircle
 10
332.2029949965549
 20
265.8792800311596
 30
0.0
 40
3.571875000000034
100
AcDbArc
 50
249.2573184601388
 51
16.34355850862564
  0
ARC
  5
245B
330
229B
100
AcDbEntity
  8
1
 62
     7
100
AcDbCircle
 10
337.6502483758545
 20
258.1622800923256
 30
0.0
 40
3.571874999999978
100
AcDbArc
 50
233.6051445470971
 51
0.6913845955821837
  0
ARC
  5
245C
330
229B
100
AcDbEntity
  8
1
 62
     7
100
AcDbCircle
 10
340.8134811568293
 20
249.2617960713513
 30
0.0
 40
3.571874999999943
100
AcDbArc
 50
217.9529706340535
 51
345.0392106825389
  0
ARC
  5
245D
330
229B
100
AcDbEntity
  8
1
 62
     7
100
AcDbCircle
 10
341.4580908349416
 20
239.837936151067
 30
0.0
 40
3.571874999999959
100
AcDbArc
 50
202.3007967210117
 51
329.387036769495
  0
ARC
  5
245E
330
229B
100
AcDbEntity
  8
1
 62
     7
100
AcDbCircle
 10
339.5362696592594
 20
230.5896249104697
 30
0.0
 40
3.571875000000062
100
AcDbArc
 50
186.6486228079676
 51
313.7348628564508
  0
ARC
  5
245F
330
229B
100
AcDbEntity
  8
1
 62
     7
100
AcDbCircle
 10
335.1905503146354
 20
222.2027672860666
 30
0.0
 40
3.571874999999986
100
AcDbArc
 50
170.9964488949236
 51
298.082688943408
  0
ARC
  5
2460
330
229B
100
AcDbEntity
  8
1
 62
     7
100
AcDbCircle
 10
328.7432349245172
 20
215.299378140538
 30
0.0
 40
3.571874999999947
100
AcDbArc
 50
155.3442749818802
 51
282.4305150303647
  0
ARC
  5
2461
330
229B
100
AcDbEntity
  8
1
 62
     7
100
AcDbCircle
 10
320.6724913768851
 20
210.3914502659042
 30
0.0
 40
3.571874999999991
100
AcDbArc
 50
139.6921010688369
 51
266.7783411173203
  0
ARC
  5
2462
330
229B
100
AcDbEntity
  8
1
 62
     7
100
AcDbCircle
 10
311.5768897994716
 20
207.8429822203504
 30
0.0
 40
3.571874999999975
100
AcDbArc
 50
124.0399271557945
 51
251.1261672042762
  0
ARC
  5
2463
330
229B
100
AcDbEntity
  8
1
 62
     7
100
AcDbCircle
 10
302.1310093516648
 20
207.8429822203504
 30
0.0
 40
3.571874999999975
100
AcDbArc
 50
108.3877532427484
 51
235.4739932912348
  0
ARC
  5
2464
330
229B
100
AcDbEntity
  8
1
 62
     7
100
AcDbCircle
 10
293.0354077742511
 20
210.3914502659042
 30
0.0
 40
3.571874999999966
100
AcDbArc
 50
92.73557932970554
 51
219.8218193781914
  0
ARC
  5
2465
330
229B
100
AcDbEntity
  8
1
 62
     7
100
AcDbCircle
 10
288.8321802685891
 20
271.8404613053158
 30
0.0
 40
3.571875000000034
100
AcDbArc
 50
327.518188025358
 51
94.60442807384259
  0
ARC
  5
2466
330
229B
100
AcDbEntity
  8
1
 62
     7
100
AcDbCircle
 10
297.4960485679868
 20
275.6037103702791
 30
0.0
 40
3.571874999999959
100
AcDbArc
 50
311.8660141123165
 51
78.9522541607988
  0
ARC
  5
2467
330
229B
100
AcDbEntity
  8
1
 62
     7
100
AcDbCircle
 10
316.2118505831496
 20
275.6037103702791
 30
0.0
 40
3.571875000000114
100
AcDbArc
 50
101.0477458392009
 51
228.1339858876822
  0
ARC
  5
2468
330
229B
100
AcDbEntity
  8
1
 62
     7
100
AcDbCircle
 10
324.8757188825472
 20
271.8404613053158
 30
0.0
 40
3.571874999999898
100
AcDbArc
 50
85.39557192615744
 51
212.4818119746416
  0
ARC
  5
2469
330
229B
100
AcDbEntity
  8
1
 62
     7
100
AcDbCircle
 10
332.2029949965549
 20
265.8792800311596
 30
0.0
 40
3.571874999999963
100
AcDbArc
 50
69.74339801311575
 51
196.8296380615981
  0
ARC
  5
246A
330
229B
100
AcDbEntity
  8
1
 62
     7
100
AcDbCircle
 10
337.6502483758545
 20
258.1622800923256
 30
0.0
 40
3.571875000000034
100
AcDbArc
 50
54.09122410007078
 51
181.1774641485532
  0
ARC
  5
246B
330
229B
100
AcDbEntity
  8
1
 62
     7
100
AcDbCircle
 10
340.8134811568293
 20
249.2617960713513
 30
0.0
 40
3.571874999999955
100
AcDbArc
 50
38.4390501870283
 51
165.5252902355113
  0
ARC
  5
246C
330
229B
100
AcDbEntity
  8
1
 62
     7
100
AcDbCircle
 10
341.4580908349416
 20
239.837936151067
 30
0.0
 40
3.571875000000038
100
AcDbArc
 50
22.78687627398445
 51
149.8731163224663
  0
ARC
  5
246D
330
229B
100
AcDbEntity
  8
1
 62
     7
100
AcDbCircle
 10
339.5362696592594
 20
230.5896249104697
 30
0.0
 40
3.571874999999987
100
AcDbArc
 50
7.134702360938484
 51
134.2209424094243
  0
ARC
  5
246E
330
229B
100
AcDbEntity
  8
1
 62
     7
100
AcDbCircle
 10
335.1905503146354
 20
222.2027672860666
 30
0.0
 40
3.571874999999966
100
AcDbArc
 50
351.4825284478964
 51
118.5687684963795
  0
ARC
  5
246F
330
229B
100
AcDbEntity
  8
1
 62
     7
100
AcDbCircle
 10
328.7432349245172
 20
215.299378140538
 30
0.0
 40
3.571875000000038
100
AcDbArc
 50
335.8303545348539
 51
102.9165945833369
  0
ARC
  5
2470
330
229B
100
AcDbEntity
  8
1
 62
     7
100
AcDbCircle
 10
320.6724913768851
 20
210.3914502659042
 30
0.0
 40
3.571874999999908
100
AcDbArc
 50
320.1781806218082
 51
87.26442067029283
  0
ARC
  5
2471
330
229B
100
AcDbEntity
  8
1
 62
     7
100
AcDbCircle
 10
311.5768897994716
 20
207.8429822203504
 30
0.0
 40
3.571874999999908
100
AcDbArc
 50
304.5260067087649
 51
71.61224675725119
  0
ARC
  5
2472
330
229B
100
AcDbEntity
  8
1
 62
     7
100
AcDbCircle
 10
302.1310093516648
 20
207.8429822203504
 30
0.0
 40
3.571874999999912
100
AcDbArc
 50
288.87383279572
 51
55.96007284420904
  0
ARC
  5
2473
330
229B
100
AcDbEntity
  8
1
 62
     7
100
AcDbCircle
 10
293.0354077742511
 20
210.3914502659042
 30
0.0
 40
3.571874999999971
100
AcDbArc
 50
273.2216588826797
 51
40.30789893116279
  0
ARC
  5
2474
330
229B
100
AcDbEntity
  8
1
 62
     7
100
AcDbCircle
 10
284.9646642266191
 20
215.299378140538
 30
0.0
 40
3.571874999999987
100
AcDbArc
 50
301.9334429750501
 51
24.65572501811973
  0
ARC
  5
2475
330
229B
100
AcDbEntity
  8
1
 62
     7
100
AcDbCircle
 10
288.8321802685891
 20
271.8404613053158
 30
0.0
 40
3.571875000000038
100
AcDbArc
 50
236.3694649974497
 51
275.0905076268151
  0
ARC
  5
2476
330
229B
100
AcDbEntity
  8
1
 62
     7
100
AcDbCircle
 10
297.4960485679868
 20
275.6037103702791
 30
0.0
 40
3.571875000000038
100
AcDbArc
 50
132.3520936652879
 51
259.438333713772
  0
ARC
  5
2477
330
229B
100
AcDbEntity
  8
1
 62
     7
100
AcDbCircle
 10
306.8539495755682
 20
276.8899242586207
 30
0.0
 40
3.571875000000015
100
AcDbArc
 50
116.6999197522442
 51
243.7861598007291
  0
ARC
  5
2478
330
229B
100
AcDbEntity
  8
1
 62
     7
100
AcDbCircle
 10
306.8539495755682
 20
276.8899242586207
 30
0.0
 40
3.571875000000038
100
AcDbArc
 50
296.2138401992719
 51
63.3000802477558
  0
ARC
  5
2479
330
229B
100
AcDbEntity
  8
1
 62
     7
100
AcDbCircle
 10
306.8539495755682
 20
242.2049242586208
 30
0.0
 40
37.01500000000008
100
AcDbArc
 50
95.0722749852871
 51
100.5798989277565
  0
ARC
  5
247A
330
229B
100
AcDbEntity
  8
1
 62
     7
100
AcDbCircle
 10
306.8539495755682
 20
276.8899242586207
 30
0.0
 40
3.935000000000016
100
AcDbArc
 50
146.2696273860464
 51
220.5615212266486
  0
ARC
  5
247B
330
229B
100
AcDbEntity
  8
1
 62
     7
100
AcDbCircle
 10
306.8539495755682
 20
242.2049242586208
 30
0.0
 40
32.26499999999996
100
AcDbArc
 50
95.31625547863308
 51
100.3359184344104
  0
ARC
  5
247C
330
229B
100
AcDbEntity
  8
1
 62
     7
100
AcDbCircle
 10
297.4960485679868
 20
275.6037103702791
 30
0.0
 40
3.935000000000031
100
AcDbArc
 50
335.0906526863971
 51
49.38254652699503
  0
ARC
  5
247D
330
229B
100
AcDbEntity
  8
1
 62
     7
100
AcDbCircle
 10
306.8539495755682
 20
242.2049242586208
 30
0.0
 40
37.015
100
AcDbArc
 50
110.7244488983297
 51
116.2320728408003
  0
ARC
  5
247E
330
229B
100
AcDbEntity
  8
1
 62
     7
100
AcDbCircle
 10
297.4960485679868
 20
275.6037103702791
 30
0.0
 40
3.934999999999936
100
AcDbArc
 50
161.9218012990895
 51
236.2136951396907
  0
ARC
  5
247F
330
229B
100
AcDbEntity
  8
1
 62
     7
100
AcDbCircle
 10
306.8539495755682
 20
242.2049242586208
 30
0.0
 40
32.26499999999996
100
AcDbArc
 50
110.968429391676
 51
115.9880923474545
  0
ARC
  5
2480
330
229B
100
AcDbEntity
  8
1
 62
     7
100
AcDbCircle
 10
288.8321802685891
 20
271.8404613053158
 30
0.0
 40
3.935000000000071
100
AcDbArc
 50
350.7428265994386
 51
65.0347204400384
  0
ARC
  5
2481
330
229B
100
AcDbEntity
  8
1
 62
     7
100
AcDbCircle
 10
306.8539495755682
 20
242.2049242586208
 30
0.0
 40
37.01500000000013
100
AcDbArc
 50
126.376622811373
 51
131.8842467538437
  0
ARC
  5
2482
330
229B
100
AcDbEntity
  8
1
 62
     7
100
AcDbCircle
 10
288.8321802685891
 20
271.8404613053158
 30
0.0
 40
3.935000000000163
100
AcDbArc
 50
177.5739752121338
 51
251.8658690527358
  0
ARC
  5
2483
330
229B
100
AcDbEntity
  8
1
 62
     7
100
AcDbCircle
 10
306.8539495755682
 20
242.2049242586208
 30
0.0
 40
32.26499999999996
100
AcDbArc
 50
126.6206033047194
 51
131.640266260498
  0
ARC
  5
2484
330
229B
100
AcDbEntity
  8
1
 62
     7
100
AcDbCircle
 10
281.5049041545809
 20
265.8792800311596
 30
0.0
 40
3.935000000000214
100
AcDbArc
 50
6.395000512482892
 51
80.68689435308083
  0
ARC
  5
2485
330
229B
100
AcDbEntity
  8
1
 62
     7
100
AcDbCircle
 10
306.8539495755682
 20
242.2049242586208
 30
0.0
 40
37.01499999999999
100
AcDbArc
 50
142.0287967244165
 51
147.5364206668874
  0
ARC
  5
2486
330
229B
100
AcDbEntity
  8
1
 62
     7
100
AcDbCircle
 10
281.5049041545809
 20
265.8792800311596
 30
0.0
 40
3.934999999999812
100
AcDbArc
 50
193.2261491251786
 51
267.5180429657792
  0
ARC
  5
2487
330
229B
100
AcDbEntity
  8
1
 62
     7
100
AcDbCircle
 10
306.8539495755682
 20
242.2049242586208
 30
0.0
 40
32.26500000000005
100
AcDbArc
 50
142.272777217764
 51
147.2924401735409
  0
ARC
  5
2488
330
229B
100
AcDbEntity
  8
1
 62
     7
100
AcDbCircle
 10
276.0576507752816
 20
258.1622800923256
 30
0.0
 40
3.934999999999944
100
AcDbArc
 50
22.04717442552714
 51
96.33906826612573
  0
ARC
  5
2489
330
229B
100
AcDbEntity
  8
1
 62
     7
100
AcDbCircle
 10
306.8539495755682
 20
242.2049242586208
 30
0.0
 40
37.01499999999993
100
AcDbArc
 50
157.6809706374604
 51
163.1885945799308
  0
ARC
  5
248A
330
229B
100
AcDbEntity
  8
1
 62
     7
100
AcDbCircle
 10
276.0576507752816
 20
258.1622800923256
 30
0.0
 40
3.934999999999917
100
AcDbArc
 50
208.8783230382225
 51
283.1702168788195
  0
ARC
  5
248B
330
229B
100
AcDbEntity
  8
1
 62
     7
100
AcDbCircle
 10
306.8539495755682
 20
242.2049242586208
 30
0.0
 40
32.2650000000001
100
AcDbArc
 50
157.9249511308056
 51
162.9446140865848
  0
ARC
  5
248C
330
229B
100
AcDbEntity
  8
1
 62
     7
100
AcDbCircle
 10
272.8944179943064
 20
249.2617960713513
 30
0.0
 40
3.935000000000187
100
AcDbArc
 50
37.69934833856896
 51
111.9912421791691
  0
ARC
  5
248D
330
229B
100
AcDbEntity
  8
1
 62
     7
100
AcDbCircle
 10
306.8539495755682
 20
242.2049242586208
 30
0.0
 40
37.01499999999996
100
AcDbArc
 50
173.3331445505039
 51
178.8407684929748
  0
ARC
  5
248E
330
229B
100
AcDbEntity
  8
1
 62
     7
100
AcDbCircle
 10
272.8944179943064
 20
249.2617960713513
 30
0.0
 40
3.934999999999881
100
AcDbArc
 50
224.5304969512655
 51
298.8223907918665
  0
ARC
  5
248F
330
229B
100
AcDbEntity
  8
1
 62
     7
100
AcDbCircle
 10
306.8539495755682
 20
242.2049242586208
 30
0.0
 40
32.26500000000002
100
AcDbArc
 50
173.5771250438498
 51
178.5967879996276
  0
ARC
  5
2490
330
229B
100
AcDbEntity
  8
1
 62
     7
100
AcDbCircle
 10
272.2498083161942
 20
239.837936151067
 30
0.0
 40
3.934999999999941
100
AcDbArc
 50
53.35152225161372
 51
127.6434160922131
  0
ARC
  5
2491
330
229B
100
AcDbEntity
  8
1
 62
     7
100
AcDbCircle
 10
306.8539495755682
 20
242.2049242586208
 30
0.0
 40
37.01500000000012
100
AcDbArc
 50
188.9853184635476
 51
194.4929424060176
  0
ARC
  5
2492
330
229B
100
AcDbEntity
  8
1
 62
     7
100
AcDbCircle
 10
272.2498083161942
 20
239.837936151067
 30
0.0
 40
3.935000000000068
100
AcDbArc
 50
240.1826708643052
 51
314.4745647049059
  0
ARC
  5
2493
330
229B
100
AcDbEntity
  8
1
 62
     7
100
AcDbCircle
 10
306.8539495755682
 20
242.2049242586208
 30
0.0
 40
32.26500000000019
100
AcDbArc
 50
189.2292989568929
 51
194.2489619126718
  0
ARC
  5
2494
330
229B
100
AcDbEntity
  8
1
 62
     7
100
AcDbCircle
 10
274.1716294918769
 20
230.5896249104697
 30
0.0
 40
3.934999999999933
100
AcDbArc
 50
69.00369616465955
 51
143.2955900052576
  0
ARC
  5
2495
330
229B
100
AcDbEntity
  8
1
 62
     7
100
AcDbCircle
 10
306.8539495755682
 20
242.2049242586208
 30
0.0
 40
37.01499999999993
100
AcDbArc
 50
204.6374923765915
 51
210.1451163190612
  0
ARC
  5
2496
330
229B
100
AcDbEntity
  8
1
 62
     7
100
AcDbCircle
 10
274.1716294918769
 20
230.5896249104697
 30
0.0
 40
3.934999999999991
100
AcDbArc
 50
255.8348447773518
 51
330.1267386179516
  0
ARC
  5
2497
330
229B
100
AcDbEntity
  8
1
 62
     7
100
AcDbCircle
 10
306.8539495755682
 20
242.2049242586208
 30
0.0
 40
32.26499999999999
100
AcDbArc
 50
204.8814728699368
 51
209.9011358257149
  0
ARC
  5
2498
330
229B
100
AcDbEntity
  8
1
 62
     7
100
AcDbCircle
 10
278.5173488365009
 20
222.2027672860666
 30
0.0
 40
3.935000000000016
100
AcDbArc
 50
84.65587007769798
 51
158.9477639183001
  0
ARC
  5
2499
330
229B
100
AcDbEntity
  8
1
 62
     7
100
AcDbCircle
 10
306.8539495755682
 20
242.2049242586208
 30
0.0
 40
37.01499999999999
100
AcDbArc
 50
220.2896662896348
 51
225.7972902321041
  0
ARC
  5
249A
330
229B
100
AcDbEntity
  8
1
 62
     7
100
AcDbCircle
 10
278.5173488365009
 20
222.2027672860666
 30
0.0
 40
3.934999999999963
100
AcDbArc
 50
271.4870186903954
 51
345.7789125309951
  0
ARC
  5
249B
330
229B
100
AcDbEntity
  8
1
 62
     7
100
AcDbCircle
 10
306.8539495755682
 20
242.2049242586208
 30
0.0
 40
32.26499999999996
100
AcDbArc
 50
220.5336467829799
 51
225.5533097387587
  0
ARC
  5
249C
330
229B
100
AcDbEntity
  8
1
 62
     7
100
AcDbCircle
 10
284.9646642266191
 20
215.299378140538
 30
0.0
 40
3.935000000000044
100
AcDbArc
 50
100.3080439907455
 51
174.5999378313436
  0
ARC
  5
249D
330
229B
100
AcDbEntity
  8
1
 62
     7
100
AcDbCircle
 10
306.8539495755682
 20
242.2049242586208
 30
0.0
 40
37.01499999999994
100
AcDbArc
 50
235.9418402026768
 51
241.4494641451488
  0
ARC
  5
249E
330
229B
100
AcDbEntity
  8
1
 62
     7
100
AcDbCircle
 10
284.9646642266191
 20
215.299378140538
 30
0.0
 40
3.934999999999909
100
AcDbArc
 50
287.1391926034376
 51
1.431086444038172
  0
ARC
  5
249F
330
229B
100
AcDbEntity
  8
1
 62
     7
100
AcDbCircle
 10
306.8539495755682
 20
242.2049242586208
 30
0.0
 40
32.26499999999996
100
AcDbArc
 50
236.1858206960234
 51
241.2054836518028
  0
ARC
  5
24A0
330
229B
100
AcDbEntity
  8
1
 62
     7
100
AcDbCircle
 10
293.0354077742511
 20
210.3914502659042
 30
0.0
 40
3.934999999999971
100
AcDbArc
 50
115.9602179037869
 51
190.2521117443878
  0
ARC
  5
24A1
330
229B
100
AcDbEntity
  8
1
 62
     7
100
AcDbCircle
 10
306.8539495755682
 20
242.2049242586208
 30
0.0
 40
37.01499999999992
100
AcDbArc
 50
251.594014115721
 51
257.1016380581915
  0
ARC
  5
24A2
330
229B
100
AcDbEntity
  8
1
 62
     7
100
AcDbCircle
 10
293.0354077742511
 20
210.3914502659042
 30
0.0
 40
3.934999999999956
100
AcDbArc
 50
302.7913665164815
 51
17.08326035708146
  0
ARC
  5
24A3
330
229B
100
AcDbEntity
  8
1
 62
     7
100
AcDbCircle
 10
306.8539495755682
 20
242.2049242586208
 30
0.0
 40
32.26499999999996
100
AcDbArc
 50
251.8379946090675
 51
256.8576575648455
  0
ARC
  5
24A4
330
229B
100
AcDbEntity
  8
1
 62
     7
100
AcDbCircle
 10
302.1310093516648
 20
207.8429822203504
 30
0.0
 40
3.934999999999971
100
AcDbArc
 50
131.612391816831
 51
205.9042856574299
  0
ARC
  5
24A5
330
229B
100
AcDbEntity
  8
1
 62
     7
100
AcDbCircle
 10
306.8539495755682
 20
242.2049242586208
 30
0.0
 40
37.01499999999994
100
AcDbArc
 50
267.2461880287654
 51
272.753811971236
  0
ARC
  5
24A6
330
229B
100
AcDbEntity
  8
1
 62
     7
100
AcDbCircle
 10
302.1310093516648
 20
207.8429822203504
 30
0.0
 40
3.934999999999995
100
AcDbArc
 50
318.4435404295251
 51
32.73543427012571
  0
ARC
  5
24A7
330
229B
100
AcDbEntity
  8
1
 62
     7
100
AcDbCircle
 10
306.8539495755682
 20
242.2049242586208
 30
0.0
 40
32.26499999999989
100
AcDbArc
 50
267.4901685221111
 51
272.5098314778889
  0
ARC
  5
24A8
330
229B
100
AcDbEntity
  8
1
 62
     7
100
AcDbCircle
 10
311.5768897994716
 20
207.8429822203504
 30
0.0
 40
3.935000000000071
100
AcDbArc
 50
147.2645657298742
 51
221.5564595704724
  0
ARC
  5
24A9
330
229B
100
AcDbEntity
  8
1
 62
     7
100
AcDbCircle
 10
306.8539495755682
 20
242.2049242586208
 30
0.0
 40
37.01499999999992
100
AcDbArc
 50
282.8983619418082
 51
288.4059858842789
  0
ARC
  5
24AA
330
229B
100
AcDbEntity
  8
1
 62
     7
100
AcDbCircle
 10
311.5768897994716
 20
207.8429822203504
 30
0.0
 40
3.934999999999901
100
AcDbArc
 50
334.0957143425697
 51
48.38760818317074
  0
ARC
  5
24AB
330
229B
100
AcDbEntity
  8
1
 62
     7
100
AcDbCircle
 10
306.8539495755682
 20
242.2049242586208
 30
0.0
 40
32.26499999999996
100
AcDbArc
 50
283.1423424351545
 51
288.1620053909322
  0
ARC
  5
24AC
330
229B
100
AcDbEntity
  8
1
 62
     7
100
AcDbCircle
 10
320.6724913768851
 20
210.3914502659042
 30
0.0
 40
3.935000000000038
100
AcDbArc
 50
162.916739642918
 51
237.2086334835162
  0
ARC
  5
24AD
330
229B
100
AcDbEntity
  8
1
 62
     7
100
AcDbCircle
 10
306.8539495755682
 20
242.2049242586208
 30
0.0
 40
37.01499999999992
100
AcDbArc
 50
298.5505358548508
 51
302.7055268321323
  0
ARC
  5
24AE
330
229B
100
AcDbEntity
  8
1
 62
     7
100
AcDbCircle
 10
320.6724913768851
 20
210.3914502659042
 30
0.0
 40
3.934999999999903
100
AcDbArc
 50
349.747888255612
 51
64.03978209621309
  0
ARC
  5
24AF
330
229B
100
AcDbEntity
  8
1
 62
     7
100
AcDbCircle
 10
306.8539495755682
 20
242.2049242586208
 30
0.0
 40
32.26499999999996
100
AcDbArc
 50
298.7945163481969
 51
303.814179303976
  0
ARC
  5
24B0
330
229B
100
AcDbEntity
  8
1
 62
     7
100
AcDbCircle
 10
328.7432349245172
 20
215.299378140538
 30
0.0
 40
3.93500000000012
100
AcDbArc
 50
178.5689135559618
 51
241.3065420469262
  0
ARC
  5
24B1
330
229B
100
AcDbEntity
  8
1
 62
     7
100
AcDbCircle
 10
324.8757188825472
 20
271.8404613053158
 30
0.0
 40
3.935000000000009
100
AcDbArc
 50
288.1341309472625
 51
300.1805805893575
  0
ARC
  5
24B2
330
229B
100
AcDbEntity
  8
1
 62
     7
100
AcDbCircle
 10
306.8539495755682
 20
242.2049242586208
 30
0.0
 40
37.01500000000001
100
AcDbArc
 50
63.76792715919935
 51
69.27555110167012
  0
ARC
  5
24B3
330
229B
100
AcDbEntity
  8
1
 62
     7
100
AcDbCircle
 10
324.8757188825472
 20
271.8404613053158
 30
0.0
 40
3.934999999999991
100
AcDbArc
 50
114.9652795599614
 51
189.2571734005611
  0
ARC
  5
24B4
330
229B
100
AcDbEntity
  8
1
 62
     7
100
AcDbCircle
 10
306.8539495755682
 20
242.2049242586208
 30
0.0
 40
32.26499999999996
100
AcDbArc
 50
64.0119076525453
 51
69.03157060832396
  0
ARC
  5
24B5
330
229B
100
AcDbEntity
  8
1
 62
     7
100
AcDbCircle
 10
316.2118505831496
 20
275.6037103702791
 30
0.0
 40
3.934999999999921
100
AcDbArc
 50
303.7863048603079
 51
18.07819870091039
  0
ARC
  5
24B6
330
229B
100
AcDbEntity
  8
1
 62
     7
100
AcDbCircle
 10
306.8539495755682
 20
276.8899242586207
 30
0.0
 40
3.935
100
AcDbArc
 50
319.4384787733511
 51
33.7303726139536
  0
ARC
  5
24B7
330
229B
100
AcDbEntity
  8
1
 62
     7
100
AcDbCircle
 10
306.8539495755682
 20
242.2049242586208
 30
0.0
 40
32.26499999999993
100
AcDbArc
 50
79.66408156558945
 51
84.68374452136693
  0
ARC
  5
24B8
330
229B
100
AcDbEntity
  8
1
 62
     7
100
AcDbCircle
 10
316.2118505831496
 20
275.6037103702791
 30
0.0
 40
3.935000000000031
100
AcDbArc
 50
130.6174534730049
 51
204.9093473136028
  0
ARC
  5
24B9
330
229B
100
AcDbEntity
  8
1
 62
     7
100
AcDbCircle
 10
306.8539495755682
 20
242.2049242586208
 30
0.0
 40
37.01499999999994
100
AcDbArc
 50
79.42010107224342
 51
84.92772501471291
  0
ARC
  5
24BA
330
229B
100
AcDbEntity
  8
1
 62
     7
100
AcDbCircle
 10
306.8539495755682
 20
242.2049242586208
 30
0.0
 40
32.26499999999993
100
AcDbArc
 50
51.69359705287838
 51
53.37939669528047
  0
ARC
  5
24BB
330
229B
100
AcDbEntity
  8
1
 62
     7
100
AcDbCircle
 10
306.8539495755682
 20
242.2049242586208
 30
0.0
 40
32.26499999999996
100
AcDbArc
 50
126.6206033047194
 51
128.3064029471215
  0
ARC
  5
24BC
330
229B
100
AcDbEntity
  8
1
 62
     7
100
AcDbCircle
 10
306.8539495755682
 20
242.2049242586208
 30
0.0
 40
37.01500000000008
100
AcDbArc
 50
95.0722749852871
 51
100.5798989277565
  0
ARC
  5
24BD
330
229B
100
AcDbEntity
  8
1
 62
     7
100
AcDbCircle
 10
297.4960485679868
 20
275.6037103702791
 30
0.0
 40
3.935000000000031
100
AcDbArc
 50
335.0906526863971
 51
49.38254652699503
  0
ARC
  5
24BE
330
229B
100
AcDbEntity
  8
1
 62
     7
100
AcDbCircle
 10
306.8539495755682
 20
242.2049242586208
 30
0.0
 40
32.26499999999996
100
AcDbArc
 50
95.31625547863308
 51
100.3359184344104
  0
ARC
  5
24BF
330
229B
100
AcDbEntity
  8
1
 62
     7
100
AcDbCircle
 10
306.8539495755682
 20
276.8899242586207
 30
0.0
 40
3.935000000000016
100
AcDbArc
 50
146.2696273860464
 51
220.5615212266486
  0
ARC
  5
24C0
330
229B
100
AcDbEntity
  8
1
 62
     7
100
AcDbCircle
 10
297.4960485679868
 20
275.6037103702791
 30
0.0
 40
3.934999999999936
100
AcDbArc
 50
161.9218012990895
 51
236.2136951396907
  0
ARC
  5
24C1
330
229B
100
AcDbEntity
  8
1
 62
     7
100
AcDbCircle
 10
306.8539495755682
 20
242.2049242586208
 30
0.0
 40
32.26499999999996
100
AcDbArc
 50
110.968429391676
 51
115.9880923474545
  0
ARC
  5
24C2
330
229B
100
AcDbEntity
  8
1
 62
     7
100
AcDbCircle
 10
288.8321802685891
 20
271.8404613053158
 30
0.0
 40
3.935000000000071
100
AcDbArc
 50
350.7428265994386
 51
65.0347204400384
  0
ARC
  5
24C3
330
229B
100
AcDbEntity
  8
1
 62
     7
100
AcDbCircle
 10
306.8539495755682
 20
242.2049242586208
 30
0.0
 40
37.015
100
AcDbArc
 50
110.7244488983297
 51
116.2320728408003
  0
ARC
  5
24C4
330
229B
100
AcDbEntity
  8
1
 62
     7
100
AcDbCircle
 10
288.8321802685891
 20
271.8404613053158
 30
0.0
 40
3.935000000000031
100
AcDbArc
 50
239.8194194106411
 51
251.8658690527358
  0
ARC
  5
24C5
330
229B
100
AcDbEntity
  8
1
 62
     7
100
AcDbCircle
 10
284.9646642266191
 20
215.299378140538
 30
0.0
 40
3.934999999999963
100
AcDbArc
 50
298.6934579530715
 51
1.431086444038172
  0
ARC
  5
24C6
330
229B
100
AcDbEntity
  8
1
 62
     7
100
AcDbCircle
 10
306.8539495755682
 20
242.2049242586208
 30
0.0
 40
32.26499999999996
100
AcDbArc
 50
236.1858206960234
 51
241.2054836518028
  0
ARC
  5
24C7
330
229B
100
AcDbEntity
  8
1
 62
     7
100
AcDbCircle
 10
293.0354077742511
 20
210.3914502659042
 30
0.0
 40
3.934999999999971
100
AcDbArc
 50
115.9602179037869
 51
190.2521117443878
  0
ARC
  5
24C8
330
229B
100
AcDbEntity
  8
1
 62
     7
100
AcDbCircle
 10
306.8539495755682
 20
242.2049242586208
 30
0.0
 40
37.01499999999996
100
AcDbArc
 50
237.2944731678674
 51
241.4494641451488
  0
ARC
  5
24C9
330
229B
100
AcDbEntity
  8
1
 62
     7
100
AcDbCircle
 10
293.0354077742511
 20
210.3914502659042
 30
0.0
 40
3.934999999999956
100
AcDbArc
 50
302.7913665164815
 51
17.08326035708146
  0
ARC
  5
24CA
330
229B
100
AcDbEntity
  8
1
 62
     7
100
AcDbCircle
 10
306.8539495755682
 20
242.2049242586208
 30
0.0
 40
32.26499999999996
100
AcDbArc
 50
251.8379946090675
 51
256.8576575648455
  0
ARC
  5
24CB
330
229B
100
AcDbEntity
  8
1
 62
     7
100
AcDbCircle
 10
302.1310093516648
 20
207.8429822203504
 30
0.0
 40
3.934999999999971
100
AcDbArc
 50
131.612391816831
 51
205.9042856574299
  0
ARC
  5
24CC
330
229B
100
AcDbEntity
  8
1
 62
     7
100
AcDbCircle
 10
306.8539495755682
 20
242.2049242586208
 30
0.0
 40
37.01499999999992
100
AcDbArc
 50
251.594014115721
 51
257.1016380581915
  0
ARC
  5
24CD
330
229B
100
AcDbEntity
  8
1
 62
     7
100
AcDbCircle
 10
302.1310093516648
 20
207.8429822203504
 30
0.0
 40
3.934999999999995
100
AcDbArc
 50
318.4435404295251
 51
32.73543427012571
  0
ARC
  5
24CE
330
229B
100
AcDbEntity
  8
1
 62
     7
100
AcDbCircle
 10
306.8539495755682
 20
242.2049242586208
 30
0.0
 40
32.26499999999989
100
AcDbArc
 50
267.4901685221111
 51
272.5098314778889
  0
ARC
  5
24CF
330
229B
100
AcDbEntity
  8
1
 62
     7
100
AcDbCircle
 10
311.5768897994716
 20
207.8429822203504
 30
0.0
 40
3.935000000000071
100
AcDbArc
 50
147.2645657298742
 51
221.5564595704724
  0
ARC
  5
24D0
330
229B
100
AcDbEntity
  8
1
 62
     7
100
AcDbCircle
 10
306.8539495755682
 20
242.2049242586208
 30
0.0
 40
37.01499999999994
100
AcDbArc
 50
267.2461880287654
 51
272.753811971236
  0
ARC
  5
24D1
330
229B
100
AcDbEntity
  8
1
 62
     7
100
AcDbCircle
 10
311.5768897994716
 20
207.8429822203504
 30
0.0
 40
3.934999999999901
100
AcDbArc
 50
334.0957143425697
 51
48.38760818317074
  0
ARC
  5
24D2
330
229B
100
AcDbEntity
  8
1
 62
     7
100
AcDbCircle
 10
306.8539495755682
 20
242.2049242586208
 30
0.0
 40
32.26499999999996
100
AcDbArc
 50
283.1423424351545
 51
288.1620053909322
  0
ARC
  5
24D3
330
229B
100
AcDbEntity
  8
1
 62
     7
100
AcDbCircle
 10
320.6724913768851
 20
210.3914502659042
 30
0.0
 40
3.935000000000038
100
AcDbArc
 50
162.916739642918
 51
237.2086334835162
  0
ARC
  5
24D4
330
229B
100
AcDbEntity
  8
1
 62
     7
100
AcDbCircle
 10
306.8539495755682
 20
242.2049242586208
 30
0.0
 40
37.01499999999992
100
AcDbArc
 50
282.8983619418082
 51
288.4059858842789
  0
ARC
  5
24D5
330
229B
100
AcDbEntity
  8
1
 62
     7
100
AcDbCircle
 10
320.6724913768851
 20
210.3914502659042
 30
0.0
 40
3.934999999999903
100
AcDbArc
 50
349.747888255612
 51
64.03978209621309
  0
ARC
  5
24D6
330
229B
100
AcDbEntity
  8
1
 62
     7
100
AcDbCircle
 10
306.8539495755682
 20
242.2049242586208
 30
0.0
 40
32.26499999999996
100
AcDbArc
 50
298.7945163481969
 51
303.814179303976
  0
ARC
  5
24D7
330
229B
100
AcDbEntity
  8
1
 62
     7
100
AcDbCircle
 10
328.7432349245172
 20
215.299378140538
 30
0.0
 40
3.93500000000012
100
AcDbArc
 50
178.5689135559618
 51
252.860807396562
  0
ARC
  5
24D8
330
229B
100
AcDbEntity
  8
1
 62
     7
100
AcDbCircle
 10
306.8539495755682
 20
242.2049242586208
 30
0.0
 40
37.01499999999992
100
AcDbArc
 50
298.5505358548508
 51
304.058159797323
  0
ARC
  5
24D9
330
229B
100
AcDbEntity
  8
1
 62
     7
100
AcDbCircle
 10
328.7432349245172
 20
215.299378140538
 30
0.0
 40
3.935000000000048
100
AcDbArc
 50
5.400062168656329
 51
79.69195600925438
  0
ARC
  5
24DA
330
229B
100
AcDbEntity
  8
1
 62
     7
100
AcDbCircle
 10
306.8539495755682
 20
242.2049242586208
 30
0.0
 40
32.26499999999999
100
AcDbArc
 50
314.4466902612411
 51
319.4663532170196
  0
ARC
  5
24DB
330
229B
100
AcDbEntity
  8
1
 62
     7
100
AcDbCircle
 10
335.1905503146354
 20
222.2027672860666
 30
0.0
 40
3.935000000000016
100
AcDbArc
 50
194.2210874690044
 51
268.5129813096044
  0
ARC
  5
24DC
330
229B
100
AcDbEntity
  8
1
 62
     7
100
AcDbCircle
 10
306.8539495755682
 20
242.2049242586208
 30
0.0
 40
37.01499999999999
100
AcDbArc
 50
314.2027097678957
 51
319.7103337103648
  0
ARC
  5
24DD
330
229B
100
AcDbEntity
  8
1
 62
     7
100
AcDbCircle
 10
335.1905503146354
 20
222.2027672860666
 30
0.0
 40
3.934999999999928
100
AcDbArc
 50
21.05223608169961
 51
95.34412992230041
  0
ARC
  5
24DE
330
229B
100
AcDbEntity
  8
1
 62
     7
100
AcDbCircle
 10
306.8539495755682
 20
242.2049242586208
 30
0.0
 40
32.26499999999993
100
AcDbArc
 50
330.0988641742848
 51
335.118527130063
  0
ARC
  5
24DF
330
229B
100
AcDbEntity
  8
1
 62
     7
100
AcDbCircle
 10
339.5362696592594
 20
230.5896249104697
 30
0.0
 40
3.935000000000028
100
AcDbArc
 50
209.8732613820482
 51
284.1651552226482
  0
ARC
  5
24E0
330
229B
100
AcDbEntity
  8
1
 62
     7
100
AcDbCircle
 10
306.8539495755682
 20
242.2049242586208
 30
0.0
 40
37.01499999999992
100
AcDbArc
 50
329.8548836809383
 51
335.3625076234084
  0
ARC
  5
24E1
330
229B
100
AcDbEntity
  8
1
 62
     7
100
AcDbCircle
 10
339.5362696592594
 20
230.5896249104697
 30
0.0
 40
3.934999999999928
100
AcDbArc
 50
36.70440999474235
 51
110.9963038353434
  0
ARC
  5
24E2
330
229B
100
AcDbEntity
  8
1
 62
     7
100
AcDbCircle
 10
306.8539495755682
 20
242.2049242586208
 30
0.0
 40
32.26499999999999
100
AcDbArc
 50
345.751038087328
 51
350.7707010431068
  0
ARC
  5
24E3
330
229B
100
AcDbEntity
  8
1
 62
     7
100
AcDbCircle
 10
341.4580908349416
 20
239.837936151067
 30
0.0
 40
3.934999999999885
100
AcDbArc
 50
225.5254352950928
 51
299.8173291356931
  0
ARC
  5
24E4
330
229B
100
AcDbEntity
  8
1
 62
     7
100
AcDbCircle
 10
306.8539495755682
 20
242.2049242586208
 30
0.0
 40
37.01499999999998
100
AcDbArc
 50
345.5070575939821
 51
351.0146815364523
  0
ARC
  5
24E5
330
229B
100
AcDbEntity
  8
1
 62
     7
100
AcDbCircle
 10
341.4580908349416
 20
239.837936151067
 30
0.0
 40
3.935000000000009
100
AcDbArc
 50
52.35658390778684
 51
126.6484777483862
  0
ARC
  5
24E6
330
229B
100
AcDbEntity
  8
1
 62
     7
100
AcDbCircle
 10
306.8539495755682
 20
242.2049242586208
 30
0.0
 40
32.26500000000001
100
AcDbArc
 50
1.403212000372001
 51
6.422874956149751
  0
ARC
  5
24E7
330
229B
100
AcDbEntity
  8
1
 62
     7
100
AcDbCircle
 10
340.8134811568293
 20
249.2617960713513
 30
0.0
 40
3.934999999999968
100
AcDbArc
 50
241.1776092081349
 51
315.4695030487352
  0
ARC
  5
24E8
330
229B
100
AcDbEntity
  8
1
 62
     7
100
AcDbCircle
 10
306.8539495755682
 20
242.2049242586208
 30
0.0
 40
37.01499999999996
100
AcDbArc
 50
1.159231507025173
 51
6.666855449496035
  0
ARC
  5
24E9
330
229B
100
AcDbEntity
  8
1
 62
     7
100
AcDbCircle
 10
340.8134811568293
 20
249.2617960713513
 30
0.0
 40
3.935000000000031
100
AcDbArc
 50
68.00875782083062
 51
142.3006516614305
  0
ARC
  5
24EA
330
229B
100
AcDbEntity
  8
1
 62
     7
100
AcDbCircle
 10
306.8539495755682
 20
242.2049242586208
 30
0.0
 40
32.26499999999996
100
AcDbArc
 50
17.0553859134151
 51
22.07504886919428
  0
ARC
  5
24EB
330
229B
100
AcDbEntity
  8
1
 62
     7
100
AcDbCircle
 10
337.6502483758545
 20
258.1622800923256
 30
0.0
 40
3.934999999999988
100
AcDbArc
 50
256.8297831211788
 51
331.1216769617775
  0
ARC
  5
24EC
330
229B
100
AcDbEntity
  8
1
 62
     7
100
AcDbCircle
 10
306.8539495755682
 20
242.2049242586208
 30
0.0
 40
37.01500000000001
100
AcDbArc
 50
16.81140542006913
 51
22.31902936253955
  0
ARC
  5
24ED
330
229B
100
AcDbEntity
  8
1
 62
     7
100
AcDbCircle
 10
337.6502483758545
 20
258.1622800923256
 30
0.0
 40
3.935000000000025
100
AcDbArc
 50
83.66093173387426
 51
157.9528255744728
  0
ARC
  5
24EE
330
229B
100
AcDbEntity
  8
1
 62
     7
100
AcDbCircle
 10
306.8539495755682
 20
242.2049242586208
 30
0.0
 40
32.265
100
AcDbArc
 50
32.70755982645896
 51
37.72722278223809
  0
ARC
  5
24EF
330
229B
100
AcDbEntity
  8
1
 62
     7
100
AcDbCircle
 10
332.2029949965549
 20
265.8792800311596
 30
0.0
 40
3.934999999999977
100
AcDbArc
 50
272.4819570342205
 51
346.7738508748228
  0
ARC
  5
24F0
330
229B
100
AcDbEntity
  8
1
 62
     7
100
AcDbCircle
 10
306.8539495755682
 20
242.2049242586208
 30
0.0
 40
37.01499999999999
100
AcDbArc
 50
32.46357933311251
 51
37.97120327558335
  0
ARC
  5
24F1
330
229B
100
AcDbEntity
  8
1
 62
     7
100
AcDbCircle
 10
332.2029949965549
 20
265.8792800311596
 30
0.0
 40
3.935
100
AcDbArc
 50
99.31310564691758
 51
173.604999487517
  0
ARC
  5
24F2
330
229B
100
AcDbEntity
  8
1
 62
     7
100
AcDbCircle
 10
306.8539495755682
 20
242.2049242586208
 30
0.0
 40
32.26499999999993
100
AcDbArc
 50
48.35973373950192
 51
53.37939669528047
  0
ARC
  5
24F3
330
229B
100
AcDbEntity
  8
1
 62
     7
100
AcDbCircle
 10
324.8757188825472
 20
271.8404613053158
 30
0.0
 40
3.935000000000009
100
AcDbArc
 50
288.1341309472625
 51
2.42602478786615
  0
ARC
  5
24F4
330
229B
100
AcDbEntity
  8
1
 62
     7
100
AcDbCircle
 10
306.8539495755682
 20
242.2049242586208
 30
0.0
 40
37.015
100
AcDbArc
 50
48.1157532461563
 51
53.62337718862696
  0
ARC
  5
24F5
330
229B
100
AcDbEntity
  8
1
 62
     7
100
AcDbCircle
 10
324.8757188825472
 20
271.8404613053158
 30
0.0
 40
3.934999999999991
100
AcDbArc
 50
114.9652795599614
 51
189.2571734005611
  0
ARC
  5
24F6
330
229B
100
AcDbEntity
  8
1
 62
     7
100
AcDbCircle
 10
306.8539495755682
 20
242.2049242586208
 30
0.0
 40
32.26499999999996
100
AcDbArc
 50
64.0119076525453
 51
69.03157060832396
  0
ARC
  5
24F7
330
229B
100
AcDbEntity
  8
1
 62
     7
100
AcDbCircle
 10
316.2118505831496
 20
275.6037103702791
 30
0.0
 40
3.934999999999921
100
AcDbArc
 50
303.7863048603079
 51
18.07819870091039
  0
ARC
  5
24F8
330
229B
100
AcDbEntity
  8
1
 62
     7
100
AcDbCircle
 10
306.8539495755682
 20
242.2049242586208
 30
0.0
 40
37.01500000000001
100
AcDbArc
 50
63.76792715919935
 51
69.27555110167012
  0
ARC
  5
24F9
330
229B
100
AcDbEntity
  8
1
 62
     7
100
AcDbCircle
 10
316.2118505831496
 20
275.6037103702791
 30
0.0
 40
3.935000000000031
100
AcDbArc
 50
130.6174534730049
 51
204.9093473136028
  0
ARC
  5
24FA
330
229B
100
AcDbEntity
  8
1
 62
     7
100
AcDbCircle
 10
306.8539495755682
 20
242.2049242586208
 30
0.0
 40
32.26499999999993
100
AcDbArc
 50
79.66408156558945
 51
84.68374452136693
  0
ARC
  5
24FB
330
229B
100
AcDbEntity
  8
1
 62
     7
100
AcDbCircle
 10
306.8539495755682
 20
276.8899242586207
 30
0.0
 40
3.935
100
AcDbArc
 50
319.4384787733511
 51
33.7303726139536
  0
ARC
  5
24FC
330
229B
100
AcDbEntity
  8
1
 62
     7
100
AcDbCircle
 10
306.8539495755682
 20
242.2049242586208
 30
0.0
 40
37.01499999999994
100
AcDbArc
 50
79.42010107224342
 51
84.92772501471291
  0
CIRCLE
  5
24FD
330
229B
100
AcDbEntity
  8
0
 62
     7
100
AcDbCircle
 10
309.1506117773398
 20
228.0349244714864
 30
0.0
 40
0.8666666536458079
  0
CIRCLE
  5
24FE
330
229B
100
AcDbEntity
  8
0
 62
     7
100
AcDbCircle
 10
304.5572785130219
 20
228.0349244714864
 30
0.0
 40
0.8666666536414878
  0
CIRCLE
  5
24FF
330
229B
100
AcDbEntity
  8
1
 62
     7
100
AcDbCircle
 10
306.8539451451773
 20
242.2049242586031
 30
0.0
 40
17.49999973736038
  0
CIRCLE
  5
2500
330
229B
100
AcDbEntity
  8
1
 62
     7
100
AcDbCircle
 10
306.8539451451773
 20
242.2049242586031
 30
0.0
 40
12.99999980496159
  0
CIRCLE
  5
2501
330
229B
100
AcDbEntity
  8
1
 62
     7
100
AcDbCircle
 10
44.35395040170369
 20
242.2049242586031
 30
0.0
 40
12.99999980475839
  0
CIRCLE
  5
2502
330
229B
100
AcDbEntity
  8
1
 62
     7
100
AcDbCircle
 10
44.35395040170369
 20
242.2049242586031
 30
0.0
 40
25.9999996094914
  0
CIRCLE
  5
2503
330
229B
100
AcDbEntity
  8
1
 62
     7
100
AcDbCircle
 10
44.35395040170353
 20
292.2049242586036
 30
0.0
 40
2.75
  0
CIRCLE
  5
2504
330
229B
100
AcDbEntity
  8
1
 62
     7
100
AcDbCircle
 10
19.35395035321745
 20
285.5061946287782
 30
0.0
 40
2.750000000000003
  0
CIRCLE
  5
2505
330
229B
100
AcDbEntity
  8
1
 62
     7
100
AcDbCircle
 10
1.052680031528865
 20
267.2049245720231
 30
0.0
 40
2.750000000000003
  0
CIRCLE
  5
2506
330
229B
100
AcDbEntity
  8
1
 62
     7
100
AcDbCircle
 10
-5.646049960202134
 20
242.2049246205093
 30
0.0
 40
2.75
  0
CIRCLE
  5
2507
330
229B
100
AcDbEntity
  8
1
 62
     7
100
AcDbCircle
 10
1.052679669623074
 20
217.2049245720231
 30
0.0
 40
2.750000000000003
  0
CIRCLE
  5
2508
330
229B
100
AcDbEntity
  8
1
 62
     7
100
AcDbCircle
 10
19.35394972637836
 20
198.9036542503345
 30
0.0
 40
2.749999999999979
  0
CIRCLE
  5
2509
330
229B
100
AcDbEntity
  8
1
 62
     7
100
AcDbCircle
 10
44.35394967789219
 20
192.2049242586035
 30
0.0
 40
2.75
  0
CIRCLE
  5
250A
330
229B
100
AcDbEntity
  8
1
 62
     3
100
AcDbCircle
 10
57.29490229492327
 20
290.5012155730572
 30
0.0
 40
2.500000000000035
  0
CIRCLE
  5
250B
330
229B
100
AcDbEntity
  8
1
 62
     7
100
AcDbCircle
 10
57.29490229492327
 20
290.5012155730572
 30
0.0
 40
2.000000000000043
  0
CIRCLE
  5
250C
330
229B
100
AcDbEntity
  8
1
 62
     7
100
AcDbCircle
 10
31.41299778467237
 20
193.9086329441498
 30
0.0
 40
1.999999999999918
  0
CIRCLE
  5
250D
330
229B
100
AcDbEntity
  8
1
 62
     3
100
AcDbCircle
 10
31.41299778467237
 20
193.9086329441498
 30
0.0
 40
2.500000000000008
  0
CIRCLE
  5
250E
330
229B
100
AcDbEntity
  8
1
  6
CENTER
 62
     3
100
AcDbCircle
 10
44.35395003979785
 20
242.2049242586031
 30
0.0
 40
20.0
  0
CIRCLE
  5
250F
330
229B
100
AcDbEntity
  8
1
 62
     7
100
AcDbCircle
 10
44.35395019454117
 20
262.2049242586031
 30
0.0
 40
4.5
  0
CIRCLE
  5
2510
330
229B
100
AcDbEntity
  8
1
 62
     7
100
AcDbCircle
 10
30.21181452548697
 20
256.3470599917542
 30
0.0
 40
4.499999999999999
  0
CIRCLE
  5
2511
330
229B
100
AcDbEntity
  8
1
 62
     7
100
AcDbCircle
 10
24.35395003979789
 20
242.2049244133468
 30
0.0
 40
4.5
  0
CIRCLE
  5
2512
330
229B
100
AcDbEntity
  8
1
 62
     7
100
AcDbCircle
 10
30.21181430664686
 20
228.062788744292
 30
0.0
 40
4.500000000000056
  0
CIRCLE
  5
2513
330
229B
100
AcDbEntity
  8
1
 62
     7
100
AcDbCircle
 10
44.3539498850546
 20
222.2049242586034
 30
0.0
 40
4.5
  0
CIRCLE
  5
2514
330
229B
100
AcDbEntity
  8
1
 62
     7
100
AcDbCircle
 10
58.49608555410886
 20
228.0627885254525
 30
0.0
 40
4.500000000000056
  0
CIRCLE
  5
2515
330
229B
100
AcDbEntity
  8
1
 62
     7
100
AcDbCircle
 10
64.35395003979796
 20
242.2049241038601
 30
0.0
 40
4.5
  0
CIRCLE
  5
2516
330
229B
100
AcDbEntity
  8
1
 62
     7
100
AcDbCircle
 10
58.4960857729489
 20
256.3470597729144
 30
0.0
 40
4.499999999999978
  0
CIRCLE
  5
2517
330
229B
100
AcDbEntity
  8
1
 62
     3
100
AcDbCircle
 10
35.74357281158337
 20
262.9922137401074
 30
0.0
 40
2.500000000000023
  0
CIRCLE
  5
2518
330
229B
100
AcDbEntity
  8
1
 62
     7
100
AcDbCircle
 10
35.74357281158337
 20
262.9922137401074
 30
0.0
 40
1.999999999999974
  0
CIRCLE
  5
2519
330
229B
100
AcDbEntity
  8
1
 62
     7
100
AcDbCircle
 10
52.96432726801238
 20
221.4176347770992
 30
0.0
 40
2.000000000000003
  0
CIRCLE
  5
251A
330
229B
100
AcDbEntity
  8
1
 62
     3
100
AcDbCircle
 10
52.96432726801238
 20
221.4176347770992
 30
0.0
 40
2.499999999999988
  0
CIRCLE
  5
251B
330
229B
100
AcDbEntity
  8
1
 62
     7
100
AcDbCircle
 10
306.8539495755682
 20
292.2049242586313
 30
0.0
 40
2.75
  0
CIRCLE
  5
251C
330
229B
100
AcDbEntity
  8
1
 62
     7
100
AcDbCircle
 10
306.8539495755683
 20
192.2049242586313
 30
0.0
 40
2.749999999999984
  0
CIRCLE
  5
251D
330
229B
100
AcDbEntity
  8
1
 62
     7
100
AcDbCircle
 10
331.8539495755683
 20
198.9036540694094
 30
0.0
 40
2.750000000000031
  0
CIRCLE
  5
251E
330
229B
100
AcDbEntity
  8
1
 62
     7
100
AcDbCircle
 10
350.1552197647902
 20
217.2049242586313
 30
0.0
 40
2.749999999999979
  0
CIRCLE
  5
251F
330
229B
100
AcDbEntity
  8
1
 62
     7
100
AcDbCircle
 10
356.8539495755678
 20
242.204924258631
 30
0.0
 40
2.749999999999912
  0
CIRCLE
  5
2520
330
229B
100
AcDbEntity
  8
1
 62
     7
100
AcDbCircle
 10
350.15521976479
 20
267.2049242586314
 30
0.0
 40
2.749999999999979
  0
CIRCLE
  5
2521
330
229B
100
AcDbEntity
  8
1
 62
     7
100
AcDbCircle
 10
331.8539495755682
 20
285.5061944478531
 30
0.0
 40
2.750000000000003
  0
CIRCLE
  5
2522
330
229B
100
AcDbEntity
  8
1
 62
     3
100
AcDbCircle
 10
293.9129973204416
 20
290.5012155730842
 30
0.0
 40
2.5
  0
CIRCLE
  5
2523
330
229B
100
AcDbEntity
  8
1
 62
     7
100
AcDbCircle
 10
293.9129973204416
 20
290.5012155730842
 30
0.0
 40
2.0
  0
CIRCLE
  5
2524
330
229B
100
AcDbEntity
  8
1
 62
     7
100
AcDbCircle
 10
319.7949018306948
 20
193.9086329441778
 30
0.0
 40
2.0
  0
CIRCLE
  5
2525
330
229B
100
AcDbEntity
  8
1
 62
     3
100
AcDbCircle
 10
319.7949018306948
 20
193.9086329441778
 30
0.0
 40
2.5
  0
CIRCLE
  5
2526
330
229B
100
AcDbEntity
  8
1
 62
     7
100
AcDbCircle
 10
293.9129973204416
 20
290.5012155730842
 30
0.0
 40
2.75
  0
CIRCLE
  5
2527
330
229B
100
AcDbEntity
  8
1
 62
     7
100
AcDbCircle
 10
319.7949018306948
 20
193.9086329441778
 30
0.0
 40
2.750000000000083
  0
CIRCLE
  5
2528
330
229B
100
AcDbEntity
  8
1
 62
     7
100
AcDbCircle
 10
306.8539495755682
 20
242.204924258631
 30
0.0
 40
40.4649999999722
  0
CIRCLE
  5
2529
330
229B
100
AcDbEntity
  8
1
 62
     7
100
AcDbCircle
 10
281.8539495755682
 20
285.5061944478531
 30
0.0
 40
2.749999999999988
  0
CIRCLE
  5
252A
330
229B
100
AcDbEntity
  8
1
 62
     7
100
AcDbCircle
 10
263.552679386346
 20
267.2049242586314
 30
0.0
 40
2.749999999999979
  0
CIRCLE
  5
252B
330
229B
100
AcDbEntity
  8
1
 62
     7
100
AcDbCircle
 10
256.8539495755682
 20
242.204924258631
 30
0.0
 40
2.749999999999912
  0
CIRCLE
  5
252C
330
229B
100
AcDbEntity
  8
1
 62
     7
100
AcDbCircle
 10
263.552679386346
 20
217.2049242586313
 30
0.0
 40
2.749999999999979
  0
CIRCLE
  5
252D
330
229B
100
AcDbEntity
  8
1
 62
     7
100
AcDbCircle
 10
281.8539495755678
 20
198.9036540694094
 30
0.0
 40
2.750000000000031
  0
CIRCLE
  5
252E
330
229B
100
AcDbEntity
  8
1
 62
     7
100
AcDbCircle
 10
69.35395018077738
 20
285.5061946287782
 30
0.0
 40
2.750000000000078
  0
CIRCLE
  5
252F
330
229B
100
AcDbEntity
  8
1
 62
     7
100
AcDbCircle
 10
87.65522086437178
 20
217.2049245720231
 30
0.0
 40
2.750000000000003
  0
CIRCLE
  5
2530
330
229B
100
AcDbEntity
  8
1
 62
     7
100
AcDbCircle
 10
94.35395049419684
 20
242.2049246205093
 30
0.0
 40
2.75
  0
CIRCLE
  5
2531
330
229B
100
AcDbEntity
  8
1
 62
     7
100
AcDbCircle
 10
87.65522050246588
 20
267.2049245720231
 30
0.0
 40
2.750000000000003
  0
CIRCLE
  5
2532
330
229B
100
AcDbEntity
  8
1
 62
     7
100
AcDbCircle
 10
69.35395080761647
 20
198.9036542503345
 30
0.0
 40
2.749999999999904
  0
ARC
  5
2533
330
229B
100
AcDbEntity
  8
1
 62
     7
100
AcDbCircle
 10
161.3209473604223
 20
204.1979242586035
 30
0.0
 40
2.455999999999957
100
AcDbArc
 50
180.0
 51
270.0
  0
ARC
  5
2534
330
229B
100
AcDbEntity
  8
1
 62
     7
100
AcDbCircle
 10
161.3209473604223
 20
280.1119242586031
 30
0.0
 40
2.458034987545956
100
AcDbArc
 50
87.66839786193893
 51
177.6683978619371
  0
ARC
  5
2535
330
229B
100
AcDbEntity
  8
1
 62
     7
100
AcDbCircle
 10
158.5399473604223
 20
215.8799242586034
 30
0.0
 40
0.3249999999999886
100
AcDbArc
 50
0.0
 51
90.0
  0
ARC
  5
2536
330
229B
100
AcDbEntity
  8
1
 62
     7
100
AcDbCircle
 10
158.5399473604223
 20
268.5299242586034
 30
0.0
 40
0.3249999999999886
100
AcDbArc
 50
270.0
 51
0.0
  0
ARC
  5
2537
330
229B
100
AcDbEntity
  8
1
 62
     7
100
AcDbCircle
 10
161.4039473604224
 20
204.2809242586033
 30
0.0
 40
1.950640920313104
100
AcDbArc
 50
181.4688007143864
 51
271.4688007143864
  0
ARC
  5
2538
330
229B
100
AcDbEntity
  8
1
 62
     7
100
AcDbCircle
 10
161.4539473604224
 20
280.0789242586033
 30
0.0
 40
2.0
100
AcDbArc
 50
90.0
 51
180.0
  0
ARC
  5
253D
330
229B
100
AcDbEntity
  8
1
 62
     7
100
AcDbCircle
 10
186.0861606763306
 20
274.7659242586034
 30
0.0
 40
0.2999999999998795
100
AcDbArc
 50
173.0000000000103
 51
270.0
  0
ARC
  5
253E
330
229B
100
AcDbEntity
  8
1
 62
     7
100
AcDbCircle
 10
186.3670723604225
 20
278.9159242586034
 30
0.0
 40
0.3000000000000256
100
AcDbArc
 50
90.0
 51
180.0
  0
ARC
  5
253F
330
229B
100
AcDbEntity
  8
1
 62
     7
100
AcDbCircle
 10
186.3670723604225
 20
205.4859242586033
 30
0.0
 40
0.3000000000000105
100
AcDbArc
 50
180.0
 51
270.0
  0
ARC
  5
2540
330
229B
100
AcDbEntity
  8
1
 62
     7
100
AcDbCircle
 10
186.0861606763306
 20
209.6359242586034
 30
0.0
 40
0.3000000000000043
100
AcDbArc
 50
90.0
 51
187.0000000000104
  0
TEXT
  5
2541
330
229B
100
AcDbEntity
  8
1
 62
     0
100
AcDbText
 10
298.1444832970493
 20
120.5141092237789
 30
0.0
 40
5.0
  1
2002/3
 41
0.9
 72
     1
 11
307.6305455218116
 21
123.0141092237789
 31
0.0
100
AcDbText
 73
     2
  0
TEXT
  5
2546
330
229B
100
AcDbEntity
  8
1
 62
     3
100
AcDbText
 10
4.280572957092855
 20
14.11757690182318
 30
0.0
 40
2.799999999999998
  1
 
 41
0.9
100
AcDbText
  0
TEXT
  5
254C
330
229B
100
AcDbEntity
  8
1
 62
     0
100
AcDbText
 10
137.760702060534
 20
143.8986361591312
 30
0.0
 40
4.0
  1
REMARKS:  M.H.C = MINIMUM HOUSING CLEARANCE
 41
0.9
 72
     1
 11
189.9697020605341
 21
145.8986361591312
 31
0.0
100
AcDbText
 73
     2
  0
TEXT
  5
254D
330
229B
100
AcDbEntity
  8
1
 62
     0
100
AcDbText
 10
277.8624549639976
 20
131.7671432336202
 30
0.0
 40
5.0
  1
CSF-32-XXX-2A-GR.dxf
 41
0.9
100
AcDbText
  0
INSERT
  5
25C2
330
229B
100
AcDbEntity
  8
AM_0
100
AcDbBlockReference
  2
HD Logo
 10
261.7929806958176
 20
58.75322785974017
 30
0.0
  0
INSERT
  5
25DF
330
229B
100
AcDbEntity
  8
AM_0
100
AcDbBlockReference
  2
HD LLC
 10
355.8502822439444
 20
60.11545982630899
 30
0.0
 41
1.225878503925368
 42
1.225878503925368
 43
1.225878503925368
  0
INSERT
  5
25EC
330
229B
100
AcDbEntity
  8
AM_0
100
AcDbBlockReference
  2
NTC
 10
2.43022624837269
 20
94.4558153424205
 30
0.0
 41
0.69615
 42
0.69615
 43
0.69615
  0
ENDSEC
  0
SECTION
  2
OBJECTS
  0
DICTIONARY
  5
2289
330
0
100
AcDbDictionary
281
     1
  3
ACAD_GROUP
350
228A
  3
ACAD_LAYOUT
350
2296
  3
ACAD_MLINESTYLE
350
2293
  3
ACAD_PLOTSETTINGS
350
2295
  3
ACAD_PLOTSTYLENAME
350
228B
  3
AcDbVariableDictionary
350
25CE
  0
DICTIONARY
  5
228A
102
{ACAD_REACTORS
330
2289
102
}
330
2289
100
AcDbDictionary
281
     1
  0
DICTIONARY
  5
2296
102
{ACAD_REACTORS
330
2289
102
}
330
2289
100
AcDbDictionary
281
     1
  3
Layout1
350
229A
  3
Model
350
229E
  0
DICTIONARY
  5
2293
102
{ACAD_REACTORS
330
2289
102
}
330
2289
100
AcDbDictionary
281
     1
  3
Standard
350
2294
  0
DICTIONARY
  5
2295
102
{ACAD_REACTORS
330
2289
102
}
330
2289
100
AcDbDictionary
281
     1
  0
ACDBDICTIONARYWDFLT
  5
228B
102
{ACAD_REACTORS
330
2289
102
}
330
2289
100
AcDbDictionary
281
     1
  3
Normal
350
228C
100
AcDbDictionaryWithDefault
340
228C
  0
DICTIONARY
  5
25CE
102
{ACAD_REACTORS
330
2289
102
}
330
2289
100
AcDbDictionary
281
     1
  3
DIMASSOC
350
25CF
  0
LAYOUT
  5
229A
102
{ACAD_REACTORS
330
2296
102
}
330
2296
100
AcDbPlotSettings
  1

  2
\\SERVER9\HP LaserJet 5100 PCL 5e
  4

  6

 40
0.0
 41
0.0
 42
0.0
 43
0.0
 44
0.0
 45
0.0
 46
0.0
 47
0.0
 48
0.0
 49
0.0
140
0.0
141
0.0
142
1.0
143
1.0
 70
   688
 72
     0
 73
     0
 74
     5
  7

 75
    16
147
1.0
148
0.0
149
0.0
100
AcDbLayout
  1
Layout1
 70
     1
 71
     1
 10
0.0
 20
0.0
 11
420.0
 21
297.0
 12
0.0
 22
0.0
 32
0.0
 14
1.000000000000000E+20
 24
1.000000000000000E+20
 34
1.000000000000000E+20
 15
-1.000000000000000E+20
 25
-1.000000000000000E+20
 35
-1.000000000000000E+20
146
0.0
 13
0.0
 23
0.0
 33
0.0
 16
1.0
 26
0.0
 36
0.0
 17
0.0
 27
1.0
 37
0.0
 76
     0
330
2297
  0
LAYOUT
  5
229E
102
{ACAD_REACTORS
330
2296
102
}
330
2296
100
AcDbPlotSettings
  1

  2
\\SERVER9\HP LaserJet 5100 PCL 5e
  4

  6

 40
0.0
 41
0.0
 42
0.0
 43
0.0
 44
0.0
 45
0.0
 46
0.0
 47
0.0
 48
0.0
 49
0.0
140
0.0
141
0.0
142
1.0
143
1.0
 70
  1712
 72
     0
 73
     0
 74
     0
  7

 75
     0
147
1.0
148
0.0
149
0.0
100
AcDbLayout
  1
Model
 70
     1
 71
     0
 10
0.0
 20
0.0
 11
12.0
 21
9.0
 12
0.0
 22
0.0
 32
0.0
 14
0.0
 24
0.0
 34
0.0
 15
0.0
 25
0.0
 35
0.0
146
0.0
 13
0.0
 23
0.0
 33
0.0
 16
1.0
 26
0.0
 36
0.0
 17
0.0
 27
1.0
 37
0.0
 76
     0
330
229B
  0
MLINESTYLE
  5
2294
102
{ACAD_REACTORS
330
2293
102
}
330
2293
100
AcDbMlineStyle
  2
STANDARD
 70
     0
  3

 62
   256
 51
90.0
 52
90.0
 71
     2
 49
0.5
 62
   256
  6
BYLAYER
 49
-0.5
 62
   256
  6
BYLAYER
  0
ACDBPLACEHOLDER
  5
228C
102
{ACAD_REACTORS
330
228B
102
}
330
228B
  0
DICTIONARYVAR
  5
25CF
102
{ACAD_REACTORS
330
25CE
102
}
330
25CE
100
DictionaryVariables
280
     0
  1
1
  0
ENDSEC
  0
EOF
