  0
SECTION
  2
HEADER
  9
$ACADVER
  1
AC1015
  9
$ACADMAINTVER
 70
    13
  9
$DWGCODEPAGE
  3
ANSI_1252
  9
$INSBASE
 10
0.0
 20
0.0
 30
0.0
  9
$EXTMIN
 10
-7904.699674696946
 20
-2606.502105827781
 30
0.0
  9
$EXTMAX
 10
10522.22352247258
 20
3304.092012957803
 30
0.0
  9
$LIMMIN
 10
0.0
 20
0.0
  9
$LIMMAX
 10
420.0
 20
297.0
  9
$ORTHOMODE
 70
     1
  9
$REGENMODE
 70
     1
  9
$FILLMODE
 70
     1
  9
$QTEXTMODE
 70
     0
  9
$MIRRTEXT
 70
     1
  9
$LTSCALE
 40
1.0
  9
$ATTMODE
 70
     1
  9
$TEXTSIZE
 40
2.5
  9
$TRACEWID
 40
1.0
  9
$TEXTSTYLE
  7
STANDARD
  9
$CLAYER
  8
AM_0
  9
$CELTYPE
  6
ByLayer
  9
$CECOLOR
 62
   256
  9
$CELTSCALE
 40
1.0
  9
$DISPSILH
 70
     0
  9
$DIMSCALE
 40
1.0
  9
$DIMASZ
 40
2.5
  9
$DIMEXO
 40
0.625
  9
$DIMDLI
 40
3.75
  9
$DIMRND
 40
0.0
  9
$DIMDLE
 40
0.0
  9
$DIMEXE
 40
1.25
  9
$DIMTP
 40
0.0
  9
$DIMTM
 40
0.0
  9
$DIMTXT
 40
2.5
  9
$DIMCEN
 40
2.5
  9
$DIMTSZ
 40
0.0
  9
$DIMTOL
 70
     0
  9
$DIMLIM
 70
     0
  9
$DIMTIH
 70
     0
  9
$DIMTOH
 70
     0
  9
$DIMSE1
 70
     0
  9
$DIMSE2
 70
     0
  9
$DIMTAD
 70
     1
  9
$DIMZIN
 70
     8
  9
$DIMBLK
  1

  9
$DIMASO
 70
     1
  9
$DIMSHO
 70
     1
  9
$DIMPOST
  1

  9
$DIMAPOST
  1

  9
$DIMALT
 70
     0
  9
$DIMALTD
 70
     3
  9
$DIMALTF
 40
0.03937007874016
  9
$DIMLFAC
 40
1.0
  9
$DIMTOFL
 70
     1
  9
$DIMTVP
 40
0.0
  9
$DIMTIX
 70
     0
  9
$DIMSOXD
 70
     0
  9
$DIMSAH
 70
     0
  9
$DIMBLK1
  1

  9
$DIMBLK2
  1

  9
$DIMSTYLE
  2
ISO-25
  9
$DIMCLRD
 70
     0
  9
$DIMCLRE
 70
     0
  9
$DIMCLRT
 70
     0
  9
$DIMTFAC
 40
1.0
  9
$DIMGAP
 40
0.625
  9
$DIMJUST
 70
     0
  9
$DIMSD1
 70
     0
  9
$DIMSD2
 70
     0
  9
$DIMTOLJ
 70
     1
  9
$DIMTZIN
 70
     0
  9
$DIMALTZ
 70
     0
  9
$DIMALTTZ
 70
     0
  9
$DIMUPT
 70
     0
  9
$DIMDEC
 70
     4
  9
$DIMTDEC
 70
     4
  9
$DIMALTU
 70
     2
  9
$DIMALTTD
 70
     2
  9
$DIMTXSTY
  7
STANDARD
  9
$DIMAUNIT
 70
     0
  9
$DIMADEC
 70
     0
  9
$DIMALTRND
 40
0.0
  9
$DIMAZIN
 70
     0
  9
$DIMDSEP
 70
    46
  9
$DIMATFIT
 70
     3
  9
$DIMFRAC
 70
     0
  9
$DIMLDRBLK
  1

  9
$DIMLUNIT
 70
     2
  9
$DIMLWD
 70
    -2
  9
$DIMLWE
 70
    -2
  9
$DIMTMOVE
 70
     0
  9
$LUNITS
 70
     2
  9
$LUPREC
 70
     2
  9
$SKETCHINC
 40
1.0
  9
$FILLETRAD
 40
2.5
  9
$AUNITS
 70
     0
  9
$AUPREC
 70
     0
  9
$MENU
  1
.
  9
$ELEVATION
 40
0.0
  9
$PELEVATION
 40
0.0
  9
$THICKNESS
 40
0.0
  9
$LIMCHECK
 70
     0
  9
$CHAMFERA
 40
2.5
  9
$CHAMFERB
 40
2.5
  9
$CHAMFERC
 40
0.0
  9
$CHAMFERD
 40
0.0
  9
$SKPOLY
 70
     0
  9
$TDCREATE
 40
2452802.738282326
  9
$TDUCREATE
 40
2452802.904948993
  9
$TDUPDATE
 40
2453865.523416701
  9
$TDUUPDATE
 40
2453865.690083368
  9
$TDINDWG
 40
0.1083139815
  9
$TDUSRTIMER
 40
0.1083132755
  9
$USRTIMER
 70
     1
  9
$ANGBASE
 50
0.0
  9
$ANGDIR
 70
     0
  9
$PDMODE
 70
     0
  9
$PDSIZE
 40
0.0
  9
$PLINEWID
 40
0.0
  9
$SPLFRAME
 70
     0
  9
$SPLINETYPE
 70
     6
  9
$SPLINESEGS
 70
     8
  9
$HANDSEED
  5
290D
  9
$SURFTAB1
 70
     6
  9
$SURFTAB2
 70
     6
  9
$SURFTYPE
 70
     6
  9
$SURFU
 70
     6
  9
$SURFV
 70
     6
  9
$UCSBASE
  2

  9
$UCSNAME
  2

  9
$UCSORG
 10
0.0
 20
0.0
 30
0.0
  9
$UCSXDIR
 10
1.0
 20
0.0
 30
0.0
  9
$UCSYDIR
 10
0.0
 20
1.0
 30
0.0
  9
$UCSORTHOREF
  2

  9
$UCSORTHOVIEW
 70
     0
  9
$UCSORGTOP
 10
0.0
 20
0.0
 30
0.0
  9
$UCSORGBOTTOM
 10
0.0
 20
0.0
 30
0.0
  9
$UCSORGLEFT
 10
0.0
 20
0.0
 30
0.0
  9
$UCSORGRIGHT
 10
0.0
 20
0.0
 30
0.0
  9
$UCSORGFRONT
 10
0.0
 20
0.0
 30
0.0
  9
$UCSORGBACK
 10
0.0
 20
0.0
 30
0.0
  9
$PUCSBASE
  2

  9
$PUCSNAME
  2

  9
$PUCSORG
 10
0.0
 20
0.0
 30
0.0
  9
$PUCSXDIR
 10
1.0
 20
0.0
 30
0.0
  9
$PUCSYDIR
 10
0.0
 20
1.0
 30
0.0
  9
$PUCSORTHOREF
  2

  9
$PUCSORTHOVIEW
 70
     0
  9
$PUCSORGTOP
 10
0.0
 20
0.0
 30
0.0
  9
$PUCSORGBOTTOM
 10
0.0
 20
0.0
 30
0.0
  9
$PUCSORGLEFT
 10
0.0
 20
0.0
 30
0.0
  9
$PUCSORGRIGHT
 10
0.0
 20
0.0
 30
0.0
  9
$PUCSORGFRONT
 10
0.0
 20
0.0
 30
0.0
  9
$PUCSORGBACK
 10
0.0
 20
0.0
 30
0.0
  9
$USERI1
 70
     0
  9
$USERI2
 70
     0
  9
$USERI3
 70
     0
  9
$USERI4
 70
     0
  9
$USERI5
 70
     0
  9
$USERR1
 40
0.0
  9
$USERR2
 40
0.0
  9
$USERR3
 40
0.0
  9
$USERR4
 40
0.0
  9
$USERR5
 40
0.0
  9
$WORLDVIEW
 70
     1
  9
$SHADEDGE
 70
     3
  9
$SHADEDIF
 70
    70
  9
$TILEMODE
 70
     1
  9
$MAXACTVP
 70
    64
  9
$PINSBASE
 10
0.0
 20
0.0
 30
0.0
  9
$PLIMCHECK
 70
     0
  9
$PEXTMIN
 10
1.000000000000000E+20
 20
1.000000000000000E+20
 30
1.000000000000000E+20
  9
$PEXTMAX
 10
-1.000000000000000E+20
 20
-1.000000000000000E+20
 30
-1.000000000000000E+20
  9
$PLIMMIN
 10
0.0
 20
0.0
  9
$PLIMMAX
 10
420.0
 20
297.0
  9
$UNITMODE
 70
     0
  9
$VISRETAIN
 70
     1
  9
$PLINEGEN
 70
     0
  9
$PSLTSCALE
 70
     1
  9
$TREEDEPTH
 70
  3020
  9
$CMLSTYLE
  2
Standard
  9
$CMLJUST
 70
     0
  9
$CMLSCALE
 40
1.0
  9
$PROXYGRAPHICS
 70
     1
  9
$MEASUREMENT
 70
     0
  9
$CELWEIGHT
370
    -1
  9
$ENDCAPS
280
     0
  9
$JOINSTYLE
280
     0
  9
$LWDISPLAY
290
     0
  9
$INSUNITS
 70
     0
  9
$HYPERLINKBASE
  1

  9
$STYLESHEET
  1

  9
$XEDIT
290
     1
  9
$CEPSNTYPE
380
     0
  9
$PSTYLEMODE
290
     1
  9
$FINGERPRINTGUID
  2
{F0283F96-9C73-4560-9537-0C1385EDC490}
  9
$VERSIONGUID
  2
{56B64B60-EAC1-4223-B250-682BB32A40A3}
  9
$EXTNAMES
290
     1
  9
$PSVPSCALE
 40
0.0
  9
$OLESTARTUP
290
     0
  0
ENDSEC
  0
SECTION
  2
CLASSES
  0
CLASS
  1
ACDBDICTIONARYWDFLT
  2
AcDbDictionaryWithDefault
  3
AutoCAD 2000
 90
        0
280
     0
281
     0
  0
CLASS
  1
ACDBPLACEHOLDER
  2
AcDbPlaceHolder
  3
AutoCAD 2000
 90
        0
280
     0
281
     0
  0
CLASS
  1
LAYOUT
  2
AcDbLayout
  3
AutoCAD 2000
 90
        0
280
     0
281
     0
  0
CLASS
  1
DICTIONARYVAR
  2
AcDbDictionaryVar
  3
AutoCAD 2000
 90
        0
280
     0
281
     0
  0
ENDSEC
  0
SECTION
  2
TABLES
  0
TABLE
  2
VPORT
  5
210E
330
0
100
AcDbSymbolTable
 70
     3
  0
VPORT
  5
290C
330
210E
100
AcDbSymbolTableRecord
100
AcDbViewportTableRecord
  2
*Active
 70
     0
 10
0.0
 20
0.0
 11
1.0
 21
1.0
 12
356.8506465195055
 22
391.6266838508205
 13
0.0
 23
0.0
 14
2.5
 24
2.5
 15
10.0
 25
10.0
 16
0.0
 26
0.0
 36
1.0
 17
0.0
 27
0.0
 37
0.0
 40
684.5650681388795
 41
1.182835820895522
 42
50.0
 43
0.0
 44
0.0
 50
0.0
 51
0.0
 71
     0
 72
   100
 73
     1
 74
     3
 75
     0
 76
     0
 77
     0
 78
     0
281
     0
 65
     1
110
0.0
120
0.0
130
0.0
111
1.0
121
0.0
131
0.0
112
0.0
122
1.0
132
0.0
 79
     0
146
0.0
  0
ENDTAB
  0
TABLE
  2
LTYPE
  5
210B
330
0
100
AcDbSymbolTable
 70
     5
  0
LTYPE
  5
2119
330
210B
100
AcDbSymbolTableRecord
100
AcDbLinetypeTableRecord
  2
ByBlock
 70
     0
  3

 72
    65
 73
     0
 40
0.0
  0
LTYPE
  5
211A
330
210B
100
AcDbSymbolTableRecord
100
AcDbLinetypeTableRecord
  2
ByLayer
 70
     0
  3

 72
    65
 73
     0
 40
0.0
  0
LTYPE
  5
211B
330
210B
100
AcDbSymbolTableRecord
100
AcDbLinetypeTableRecord
  2
CONTINUOUS
 70
     0
  3
Solid line
 72
    65
 73
     0
 40
0.0
  0
LTYPE
  5
212A
330
210B
100
AcDbSymbolTableRecord
100
AcDbLinetypeTableRecord
  2
CENTER
 70
     0
  3
Center ____ _ ____ _ ____ _ ____ _ ____ _ ____
 72
    65
 73
     4
 40
50.8
 49
31.75
 74
     0
 49
-6.349999999999997
 74
     0
 49
6.349999999999997
 74
     0
 49
-6.349999999999997
 74
     0
  0
LTYPE
  5
212B
330
210B
100
AcDbSymbolTableRecord
100
AcDbLinetypeTableRecord
  2
DASHDOT
 70
     0
  3
__ . __ . __ .
 72
    65
 73
     4
 40
16.5745138469145
 49
8.287256923457244
 74
     0
 49
-4.143628461728622
 74
     0
 49
0.0
 74
     0
 49
-4.143628461728622
 74
     0
  0
LTYPE
  5
212C
330
210B
100
AcDbSymbolTableRecord
100
AcDbLinetypeTableRecord
  2
DIVIDE
 70
     0
  3
__ . . __ . . 
 72
    65
 73
     6
 40
20.71814230864311
 49
8.287256923457244
 74
     0
 49
-4.143628461728622
 74
     0
 49
0.0
 74
     0
 49
-4.143628461728622
 74
     0
 49
0.0
 74
     0
 49
-4.143628461728622
 74
     0
  0
LTYPE
  5
212D
330
210B
100
AcDbSymbolTableRecord
100
AcDbLinetypeTableRecord
  2
PHANTOM
 70
     0
  3
_____ _ _ _____ _ _ 
 72
    65
 73
     6
 40
41.43628461728622
 49
20.71814230864311
 74
     0
 49
-4.143628461728622
 74
     0
 49
4.143628461728622
 74
     0
 49
-4.143628461728622
 74
     0
 49
4.143628461728622
 74
     0
 49
-4.143628461728622
 74
     0
  0
ENDTAB
  0
TABLE
  2
LAYER
  5
2108
330
0
100
AcDbSymbolTable
 70
     4
  0
LAYER
  5
2116
330
2108
100
AcDbSymbolTableRecord
100
AcDbLayerTableRecord
  2
0
 70
     0
 62
     7
  6
CONTINUOUS
370
    -3
390
2115
  0
LAYER
  5
2128
330
2108
100
AcDbSymbolTableRecord
100
AcDbLayerTableRecord
  2
AM_0
 70
     0
 62
     7
  6
CONTINUOUS
370
    -3
390
2115
  0
LAYER
  5
212E
330
2108
100
AcDbSymbolTableRecord
100
AcDbLayerTableRecord
  2
1
 70
     0
 62
     7
  6
CONTINUOUS
370
    -3
390
2115
  0
LAYER
  5
241C
330
2108
100
AcDbSymbolTableRecord
100
AcDbLayerTableRecord
  2
LAYER_1
 70
     0
 62
     5
  6
CONTINUOUS
370
    -3
390
2115
  0
ENDTAB
  0
TABLE
  2
STYLE
  5
2109
330
0
100
AcDbSymbolTable
 70
     1
  0
STYLE
  5
2117
330
2109
100
AcDbSymbolTableRecord
100
AcDbTextStyleTableRecord
  2
STANDARD
 70
     0
 40
0.0
 41
1.0
 50
0.0
 71
     0
 42
2.5
  3
ISOCP.SHX
  4

  0
ENDTAB
  0
TABLE
  2
VIEW
  5
210C
330
0
100
AcDbSymbolTable
 70
     0
  0
ENDTAB
  0
TABLE
  2
UCS
  5
210D
330
0
100
AcDbSymbolTable
 70
     0
  0
ENDTAB
  0
TABLE
  2
APPID
  5
210F
330
0
100
AcDbSymbolTable
 70
    13
  0
APPID
  5
2118
330
210F
100
AcDbSymbolTableRecord
100
AcDbRegAppTableRecord
  2
ACAD
 70
     0
  0
APPID
  5
212F
330
210F
100
AcDbSymbolTableRecord
100
AcDbRegAppTableRecord
  2
GENIUS_GENDIM_13
 70
     0
  0
APPID
  5
2130
330
210F
100
AcDbSymbolTableRecord
100
AcDbRegAppTableRecord
  2
GENIUS_GENDTOL_13
 70
     0
  0
APPID
  5
2131
330
210F
100
AcDbSymbolTableRecord
100
AcDbRegAppTableRecord
  2
GENIUS_GE3DTOL_13
 70
     0
  0
APPID
  5
2132
330
210F
100
AcDbSymbolTableRecord
100
AcDbRegAppTableRecord
  2
MCAD_NO_VIS
 70
     0
  0
APPID
  5
2133
330
210F
100
AcDbSymbolTableRecord
100
AcDbRegAppTableRecord
  2
ACAD_TEMP_GRAPHIC
 70
     0
  0
APPID
  5
2134
330
210F
100
AcDbSymbolTableRecord
100
AcDbRegAppTableRecord
  2
AD_DRAW
 70
     0
  0
APPID
  5
2135
330
210F
100
AcDbSymbolTableRecord
100
AcDbRegAppTableRecord
  2
ACATTRIBSERVICES
 70
     0
  0
APPID
  5
2136
330
210F
100
AcDbSymbolTableRecord
100
AcDbRegAppTableRecord
  2
ASURF_PCURVE_APPNAME
 70
     0
  0
APPID
  5
2137
330
210F
100
AcDbSymbolTableRecord
100
AcDbRegAppTableRecord
  2
DESIGNERASSEMBLIES
 70
     0
  0
APPID
  5
2138
330
210F
100
AcDbSymbolTableRecord
100
AcDbRegAppTableRecord
  2
ACADM_DIM_EDIT
 70
     0
  0
APPID
  5
2139
330
210F
100
AcDbSymbolTableRecord
100
AcDbRegAppTableRecord
  2
G3V_ENTHND
 70
     0
  0
APPID
  5
213A
330
210F
100
AcDbSymbolTableRecord
100
AcDbRegAppTableRecord
  2
GENIUS_GENDIMSH_14
 70
     0
  0
ENDTAB
  0
TABLE
  2
DIMSTYLE
  5
2110
330
0
100
AcDbSymbolTable
 70
     2
100
AcDbDimStyleTable
 71
     0
  0
DIMSTYLE
105
213B
330
2110
100
AcDbSymbolTableRecord
100
AcDbDimStyleTableRecord
  2
ISO-25
 70
     0
 41
2.5
 42
0.625
 43
3.75
 44
1.25
 73
     0
 74
     0
 77
     1
 78
     8
140
2.5
141
2.5
143
0.03937007874016
147
0.625
171
     3
172
     1
271
     2
272
     2
274
     3
279
     2
284
     8
285
     8
286
     8
340
2117
  0
DIMSTYLE
105
241D
330
2110
100
AcDbSymbolTableRecord
100
AcDbDimStyleTableRecord
  2
Standard
 70
     0
340
2117
  0
ENDTAB
  0
TABLE
  2
BLOCK_RECORD
  5
2107
330
0
100
AcDbSymbolTable
 70
    25
  0
BLOCK_RECORD
  5
2124
330
2107
100
AcDbSymbolTableRecord
100
AcDbBlockTableRecord
  2
*Model_Space
340
2127
  0
BLOCK_RECORD
  5
2120
330
2107
100
AcDbSymbolTableRecord
100
AcDbBlockTableRecord
  2
*Paper_Space
340
2123
  0
BLOCK_RECORD
  5
213D
330
2107
100
AcDbSymbolTableRecord
100
AcDbBlockTableRecord
  2
$MODEL_SPACE
340
0
  0
BLOCK_RECORD
  5
2140
330
2107
100
AcDbSymbolTableRecord
100
AcDbBlockTableRecord
  2
$PAPER_SPACE
340
0
  0
BLOCK_RECORD
  5
23B0
330
2107
100
AcDbSymbolTableRecord
100
AcDbBlockTableRecord
  2
AI9-BLK14
340
0
310
2800000020000000200000000100080000000000000400000000000000000000000000000000000000000000000080000080000000808000800000008000800080800000C0C0C000C0DCC000F0CAA6000020400000206000002080000020A0000020C0000020E00000400000004020000040400000406000004080000040A0
310
000040C0000040E00000600000006020000060400000606000006080000060A0000060C0000060E00000800000008020000080400000806000008080000080A0000080C0000080E00000A0000000A0200000A0400000A0600000A0800000A0A00000A0C00000A0E00000C0000000C0200000C0400000C0600000C0800000C0
310
A00000C0C00000C0E00000E0000000E0200000E0400000E0600000E0800000E0A00000E0C00000E0E00040000000400020004000400040006000400080004000A0004000C0004000E00040200000402020004020400040206000402080004020A0004020C0004020E000404000004040200040404000404060004040800040
310
40A0004040C0004040E00040600000406020004060400040606000406080004060A0004060C0004060E00040800000408020004080400040806000408080004080A0004080C0004080E00040A0000040A0200040A0400040A0600040A0800040A0A00040A0C00040A0E00040C0000040C0200040C0400040C0600040C08000
310
40C0A00040C0C00040C0E00040E0000040E0200040E0400040E0600040E0800040E0A00040E0C00040E0E00080000000800020008000400080006000800080008000A0008000C0008000E00080200000802020008020400080206000802080008020A0008020C0008020E00080400000804020008040400080406000804080
310
008040A0008040C0008040E00080600000806020008060400080606000806080008060A0008060C0008060E00080800000808020008080400080806000808080008080A0008080C0008080E00080A0000080A0200080A0400080A0600080A0800080A0A00080A0C00080A0E00080C0000080C0200080C0400080C0600080C0
310
800080C0A00080C0C00080C0E00080E0000080E0200080E0400080E0600080E0800080E0A00080E0C00080E0E000C0000000C0002000C0004000C0006000C0008000C000A000C000C000C000E000C0200000C0202000C0204000C0206000C0208000C020A000C020C000C020E000C0400000C0402000C0404000C0406000C0
310
408000C040A000C040C000C040E000C0600000C0602000C0604000C0606000C0608000C060A000C060C000C060E000C0800000C0802000C0804000C0806000C0808000C080A000C080C000C080E000C0A00000C0A02000C0A04000C0A06000C0A08000C0A0A000C0A0C000C0A0E000C0C00000C0C02000C0C04000C0C06000
310
C0C08000C0C0A000F0FBFF00A4A0A000808080000000FF0000FF000000FFFF00FF000000FF00FF00FFFF0000FFFFFF00FF00FFFFFFFF00FFFFFFFFFFFFFFFFFFFFFFFFFFFFFFFFFFFFFFFFFFFFFFFFFFFF00FFFFFFFF00FFFFFFFFFFFFFFFFFFFFFFFFFFFFFFFFFFFFFFFFFFFFFFFFFFFF00FFFFFFFF00FFFFFFFFFFFFFFFF
310
FFFFFFFFFFFFFFFFFFFFFFFFFFFFFFFFFFFF00FFFFFFFF00FFFFFFFFFFFFFFFFFFFFFFFFFFFFFFFFFFFFFFFFFFFFFFFFFFFF00FFFFFFFF00FFFFFFFFFFFFFFFFFFFFFFFFFFFFFFFFFFFFFFFFFFFFFFFFFFFF00FFFFFFFF00FFFFFFFFFFFFFFFFFFFFFFFFFFFFFFFFFFFFFFFFFFFFFFFFFFFF00FFFFFFFF00FFFFFFFFFFFFFF
310
FFFFFFFFFFFFFFFFFFFFFFFFFFFFFFFFFFFFFF00FFFFFFFF00FFFFFFFFFFFFFFFFFFFFFFFFFFFFFFFFFFFFFFFFFFFFFFFFFFFF00FFFFFFFF00FFFFFFFFFFFFFFFFFFFFFFFFFFFFFFFFFFFFFFFFFFFFFFFFFFFF00FFFFFFFF00FFFFFFFFFFFFFFFFFFFFFFFFFFFFFFFFFFFFFFFFFFFFFFFFFFFF00FFFFFFFF00FFFFFFFFFFFF
310
FFFFFFFFFFFFFFFFFFFFFFFFFFFFFFFFFFFFFFFF00FFFFFFFF00FFFFFFFFFFFFFFFFFFFFFFFFFFFFFFFFFFFFFFFFFFFFFFFFFFFF00FFFFFFFF00FFFFFFFFFFFFFFFFFFFFFFFFFFFFFFFFFFFFFFFFFFFFFFFFFFFF00FFFFFFFF0000000000000000000000000000000000000000000000000000FF00FFFFFFFFFFFFFFFFFFFF
310
FFFFFFFFFFFFFFFFFFFFFFFFFFFFFFFFFFFFFFFFFF00FFFFFFFFFFFFFFFFFFFFFFFFFFFFFFFFFFFFFFFFFFFFFFFFFFFFFFFFFFFFFF00FFFFFFFFFFFFFFFFFFFFFFFFFFFFFFFFFFFFFFFFFFFFFFFFFFFFFFFFFFFFFF00FFFFFFFFFFFFFFFFFFFFFFFFFFFFFFFFFFFFFFFFFFFFFFFFFFFFFFFFFF00FF00000000000000000000
310
0000000000000000000000000000000000000000FFFFFFFFFFFFFFFFFFFFFFFFFFFFFFFFFFFFFFFFFFFFFFFFFFFFFFFFFFFFFFFFFFFFFFFFFFFFFFFFFFFFFFFFFFFFFFFFFFFFFFFFFFFFFFFFFFFFFFFFFFFFFFFFFFFFFFFFFFFFFFFFFFFFFFFFFFFFFFFFFFFFFFFFFFFFFFFFFFFFFFFFFFFFFFFFFFFFFFFFFFFFFFFFFFFFFF
310
FFFFFFFFFFFFFFFFFFFFFFFFFFFFFFFFFFFFFFFFFFFFFFFFFFFFFFFFFFFFFFFFFFFFFFFFFFFFFFFFFFFFFFFFFFFFFFFFFFFFFFFFFFFFFFFFFFFFFFFFFFFFFFFFFFFFFFFFFFFFFFFFFFFFFFFFFFFFFFFFFFFFFFFFFFFFFFFFFFFFFFFFFFFFFFFFFFFFFFFFFFFFFFFFFFFFFFFFFFFFFFFFFFFFFFFFFFFFFFFFFFFFFFFFFFFFFF
310
FFFFFFFFFFFFFFFFFFFFFFFFFFFFFFFFFFFFFFFFFFFFFFFFFFFFFFFFFFFFFFFFFFFFFFFFFFFFFFFFFFFFFFFFFFFFFFFFFFFFFFFFFFFFFFFFFFFFFFFFFFFFFFFFFFFFFFFFFFFFFFFFFFFFFFFFFFFFFFFFFFFFFFFFFFFFFFFFFFFFFFFFFFFFFFFFFFFFFFFFFFFFFFFFFFFFFFFFFFFFFFFFFFFFFFFFFFFFFFFFFFFFFFFFFFFFFF
310
FFFFFFFFFFFFFFFFFFFFFFFFFFFFFFFFFFFFFFFFFFFFFFFFFFFFFFFFFFFFFFFFFFFFFFFFFFFFFFFFFFFFFFFFFFFFFFFFFFFFFFFFFFFFFFFF
102
{BLKREFS
331
23F1
102
}
  0
BLOCK_RECORD
  5
23B5
330
2107
100
AcDbSymbolTableRecord
100
AcDbBlockTableRecord
  2
AI9-BLK13
340
0
310
2800000020000000200000000100080000000000000400000000000000000000000000000000000000000000000080000080000000808000800000008000800080800000C0C0C000C0DCC000F0CAA6000020400000206000002080000020A0000020C0000020E00000400000004020000040400000406000004080000040A0
310
000040C0000040E00000600000006020000060400000606000006080000060A0000060C0000060E00000800000008020000080400000806000008080000080A0000080C0000080E00000A0000000A0200000A0400000A0600000A0800000A0A00000A0C00000A0E00000C0000000C0200000C0400000C0600000C0800000C0
310
A00000C0C00000C0E00000E0000000E0200000E0400000E0600000E0800000E0A00000E0C00000E0E00040000000400020004000400040006000400080004000A0004000C0004000E00040200000402020004020400040206000402080004020A0004020C0004020E000404000004040200040404000404060004040800040
310
40A0004040C0004040E00040600000406020004060400040606000406080004060A0004060C0004060E00040800000408020004080400040806000408080004080A0004080C0004080E00040A0000040A0200040A0400040A0600040A0800040A0A00040A0C00040A0E00040C0000040C0200040C0400040C0600040C08000
310
40C0A00040C0C00040C0E00040E0000040E0200040E0400040E0600040E0800040E0A00040E0C00040E0E00080000000800020008000400080006000800080008000A0008000C0008000E00080200000802020008020400080206000802080008020A0008020C0008020E00080400000804020008040400080406000804080
310
008040A0008040C0008040E00080600000806020008060400080606000806080008060A0008060C0008060E00080800000808020008080400080806000808080008080A0008080C0008080E00080A0000080A0200080A0400080A0600080A0800080A0A00080A0C00080A0E00080C0000080C0200080C0400080C0600080C0
310
800080C0A00080C0C00080C0E00080E0000080E0200080E0400080E0600080E0800080E0A00080E0C00080E0E000C0000000C0002000C0004000C0006000C0008000C000A000C000C000C000E000C0200000C0202000C0204000C0206000C0208000C020A000C020C000C020E000C0400000C0402000C0404000C0406000C0
310
408000C040A000C040C000C040E000C0600000C0602000C0604000C0606000C0608000C060A000C060C000C060E000C0800000C0802000C0804000C0806000C0808000C080A000C080C000C080E000C0A00000C0A02000C0A04000C0A06000C0A08000C0A0A000C0A0C000C0A0E000C0C00000C0C02000C0C04000C0C06000
310
C0C08000C0C0A000F0FBFF00A4A0A000808080000000FF0000FF000000FFFF00FF000000FF00FF00FFFF0000FFFFFF00FFFFFFFFFFFFFFFFFFFFFFFFFFFFFFFFFFFFFFFFFFFFFFFFFFFFFFFFFFFFFFFFFFFFFFFFFFFFFFFFFFFFFF0000FFFFFFFFFFFF0000FFFFFFFFFFFFFFFFFFFFFFFFFFFFFFFFFFFFFFFFFFFF0000FFFF
310
FFFFFFFF0000FFFFFFFFFFFFFFFFFFFFFFFFFFFFFFFFFFFFFFFFFFFF0000FFFFFFFFFFFF0000FFFFFFFFFFFFFFFFFFFFFFFFFFFFFFFFFFFFFFFFFFFF0000FFFFFFFFFFFF0000FFFFFFFFFFFFFFFFFFFFFFFFFFFFFFFFFFFFFFFFFFFF0000FFFFFFFFFFFF0000FFFFFFFFFFFFFFFFFFFFFFFFFFFFFFFFFFFFFFFFFFFF0000FF
310
FFFFFFFFFF0000FFFFFFFFFFFFFFFFFFFFFFFFFFFFFFFFFFFFFFFFFFFF0000FFFFFFFFFFFF0000FFFFFFFFFFFFFFFFFFFFFFFFFFFFFFFFFFFFFFFFFFFF0000FFFFFFFFFFFF0000FFFFFFFFFFFFFFFFFFFFFFFFFFFFFFFFFFFFFFFFFFFF0000FFFFFFFFFFFF0000FFFFFFFFFFFFFFFFFFFFFFFFFFFFFFFFFFFFFFFFFFFF0000
310
FFFFFFFFFFFF0000FFFFFFFFFFFFFFFFFFFFFFFFFFFFFFFFFFFFFFFFFFFF0000FFFFFFFFFFFF0000FFFFFFFFFFFFFFFFFFFFFFFFFFFFFFFFFFFFFFFFFFFF0000FFFFFFFFFFFF0000FFFFFFFFFFFFFFFFFFFFFFFFFFFFFFFFFFFFFFFFFFFF0000FFFFFFFFFFFF0000FFFFFFFFFFFFFFFFFFFFFFFFFFFFFFFFFFFFFFFFFFFF00
310
00FFFFFFFFFFFF0000FFFFFFFFFFFFFFFFFFFFFFFFFFFFFFFFFFFFFFFFFFFF00000000000000000000FFFFFFFFFFFFFFFFFFFFFFFFFFFFFFFFFFFFFFFFFFFF00FFFFFFFFFFFFFFFF00FFFFFFFFFFFFFFFFFFFFFFFFFFFFFFFFFFFFFFFFFFFF00FFFFFFFFFFFFFFFF00FFFFFFFFFFFFFFFFFFFFFFFFFFFFFFFFFFFFFFFFFFFF
310
00000000000000000000FFFFFFFFFFFFFFFFFFFFFFFFFFFFFFFFFFFFFFFFFFFF0000FFFFFFFFFFFF0000FFFFFFFFFFFFFFFFFFFFFFFFFFFFFFFFFFFFFFFFFFFF0000FFFFFFFFFFFF0000FFFFFFFFFFFFFFFFFFFFFFFFFFFFFFFFFFFFFFFFFFFF0000FFFFFFFFFFFF0000FFFFFFFFFFFFFFFFFFFFFFFFFFFFFFFFFFFFFFFFFF
310
FF0000FFFFFFFFFFFF0000FFFFFFFFFFFFFFFFFFFFFFFFFFFFFFFFFFFFFFFFFFFF0000FFFFFFFFFFFF0000FFFFFFFFFFFFFFFFFFFFFFFFFFFFFFFFFFFFFFFFFFFF0000FFFFFFFFFFFF0000FFFFFFFFFFFFFFFFFFFFFFFFFFFFFFFFFFFFFFFFFFFF0000FFFFFFFFFFFF0000FFFFFFFFFFFFFFFFFFFFFFFFFFFFFFFFFFFFFFFF
310
FFFF0000FFFFFFFFFFFF0000FFFFFFFFFFFFFFFFFFFFFFFFFFFFFFFFFFFFFFFFFFFF0000FFFFFFFFFFFF0000FFFFFFFFFFFFFFFFFFFFFFFFFFFFFFFFFFFFFFFFFFFF0000FFFFFFFFFFFF0000FFFFFFFFFFFFFFFFFFFFFFFFFFFFFFFFFFFFFFFFFFFF0000FFFFFFFFFFFF0000FFFFFFFFFFFFFFFFFFFFFFFFFFFFFFFFFFFFFF
310
FFFFFF0000FFFFFFFFFFFF0000FFFFFFFFFFFFFFFFFFFFFFFFFFFFFFFFFFFFFFFFFFFFFFFFFFFFFFFFFFFFFFFFFFFFFFFFFFFFFFFFFFFFFF
102
{BLKREFS
331
23F2
102
}
  0
BLOCK_RECORD
  5
23BA
330
2107
100
AcDbSymbolTableRecord
100
AcDbBlockTableRecord
  2
AI9-BLK11
340
0
310
2800000020000000200000000100080000000000000400000000000000000000000000000000000000000000000080000080000000808000800000008000800080800000C0C0C000C0DCC000F0CAA6000020400000206000002080000020A0000020C0000020E00000400000004020000040400000406000004080000040A0
310
000040C0000040E00000600000006020000060400000606000006080000060A0000060C0000060E00000800000008020000080400000806000008080000080A0000080C0000080E00000A0000000A0200000A0400000A0600000A0800000A0A00000A0C00000A0E00000C0000000C0200000C0400000C0600000C0800000C0
310
A00000C0C00000C0E00000E0000000E0200000E0400000E0600000E0800000E0A00000E0C00000E0E00040000000400020004000400040006000400080004000A0004000C0004000E00040200000402020004020400040206000402080004020A0004020C0004020E000404000004040200040404000404060004040800040
310
40A0004040C0004040E00040600000406020004060400040606000406080004060A0004060C0004060E00040800000408020004080400040806000408080004080A0004080C0004080E00040A0000040A0200040A0400040A0600040A0800040A0A00040A0C00040A0E00040C0000040C0200040C0400040C0600040C08000
310
40C0A00040C0C00040C0E00040E0000040E0200040E0400040E0600040E0800040E0A00040E0C00040E0E00080000000800020008000400080006000800080008000A0008000C0008000E00080200000802020008020400080206000802080008020A0008020C0008020E00080400000804020008040400080406000804080
310
008040A0008040C0008040E00080600000806020008060400080606000806080008060A0008060C0008060E00080800000808020008080400080806000808080008080A0008080C0008080E00080A0000080A0200080A0400080A0600080A0800080A0A00080A0C00080A0E00080C0000080C0200080C0400080C0600080C0
310
800080C0A00080C0C00080C0E00080E0000080E0200080E0400080E0600080E0800080E0A00080E0C00080E0E000C0000000C0002000C0004000C0006000C0008000C000A000C000C000C000E000C0200000C0202000C0204000C0206000C0208000C020A000C020C000C020E000C0400000C0402000C0404000C0406000C0
310
408000C040A000C040C000C040E000C0600000C0602000C0604000C0606000C0608000C060A000C060C000C060E000C0800000C0802000C0804000C0806000C0808000C080A000C080C000C080E000C0A00000C0A02000C0A04000C0A06000C0A08000C0A0A000C0A0C000C0A0E000C0C00000C0C02000C0C04000C0C06000
310
C0C08000C0C0A000F0FBFF00A4A0A000808080000000FF0000FF000000FFFF00FF000000FF00FF00FFFF0000FFFFFF00FFFFFFFFFFFFFFFFFFFFFFFFFFFFFFFFFFFFFFFFFFFFFFFFFFFFFFFFFFFFFFFFFFFFFFFFFFFFFFFFFFFFFFFFFFFF00000000FFFFFFFFFFFFFFFFFFFFFF000000FFFFFFFFFFFFFFFFFFFFFFFFFFFF00
310
FFFF00FFFFFFFFFFFFFFFFFFFFFF00FFFFFFFFFFFFFFFFFFFFFFFFFFFFFFFF00FFFF00FFFFFFFFFFFFFFFFFFFFFF00FFFFFFFFFFFFFFFFFFFFFFFFFFFFFFFF00FFFF00FFFFFFFFFFFFFFFFFFFFFF00FFFFFFFFFFFFFFFFFFFFFFFFFFFFFFFF00FFFF00FFFFFFFFFFFFFFFFFFFFFF00FFFFFFFFFFFFFFFFFFFFFFFFFFFFFFFF
310
00FFFF00FFFFFFFFFFFFFFFFFFFFFF00FFFFFFFFFFFFFFFFFFFFFFFFFFFFFFFF00FFFF00FFFFFFFFFFFFFFFFFFFFFF00FFFFFFFFFFFFFFFFFFFFFFFFFFFFFFFF00FFFF00FFFFFFFFFFFFFFFFFFFFFF00FFFFFFFFFFFFFFFFFFFFFFFFFFFFFFFF00FFFF00FFFFFFFFFFFFFFFFFFFFFF00FFFFFFFFFFFFFFFFFFFFFFFFFFFFFF
310
FF00FFFF00FFFFFFFFFFFFFFFFFFFFFF00FFFFFFFFFFFFFFFFFFFFFFFFFFFFFFFF00FFFF00FFFFFFFFFFFFFFFFFFFFFF00FFFFFFFFFFFFFFFFFFFFFFFFFFFFFFFF00FFFF00FFFFFFFFFFFFFFFFFFFFFF00FFFFFFFFFFFFFFFFFFFFFFFFFFFFFFFF00FFFF00FFFFFFFFFFFFFFFFFFFFFF00FFFFFFFFFFFFFFFFFFFFFFFFFFFF
310
FFFF00FFFF00FFFFFFFFFFFFFFFFFFFFFF00FFFFFFFFFFFFFFFFFFFFFFFFFFFFFFFF00FFFF00FFFFFFFFFFFFFFFFFFFFFF00FFFFFFFFFFFFFFFFFFFFFFFFFFFFFFFF00FFFF00FFFFFFFFFFFFFFFFFFFFFF00FFFFFFFFFFFFFFFFFFFFFFFFFFFFFFFF00FFFF00FFFFFFFFFFFFFFFFFFFF00FFFFFFFFFFFFFFFFFFFFFFFFFFFF
310
FFFFFF00FFFF00FFFFFFFFFFFFFFFFFFFF00FFFFFFFFFFFFFFFFFFFFFFFFFFFFFFFFFF00FFFF00FFFFFFFFFFFFFFFFFFFF00FFFFFFFFFFFFFFFFFFFFFFFFFFFFFFFFFF00FFFF00FFFFFFFFFFFFFFFFFFFF00FFFFFFFFFFFFFFFFFFFFFFFFFFFFFFFFFF00FFFF00FFFFFFFFFFFFFFFFFFFF00FFFFFFFFFFFFFFFFFFFFFFFFFF
310
FFFFFFFF00FFFF00FFFFFFFFFFFFFFFFFF0000FFFF00FFFFFFFFFFFFFFFFFFFFFFFFFFFF00FFFF00FFFFFFFFFFFFFFFF0000FFFFFF00FFFFFFFFFFFFFFFFFFFFFFFFFFFF00FFFF00000000000000000000FFFFFFFF00FFFFFFFFFFFFFFFFFFFFFFFFFFFF00FFFFFFFFFFFFFFFFFFFFFFFFFFFFFF00FFFFFFFFFFFFFFFFFFFF
310
FFFFFFFFFF00FFFFFFFFFFFFFFFFFFFFFFFFFFFF00FFFFFFFFFFFFFFFFFFFFFFFFFFFFFFFF00FFFFFFFFFFFFFFFFFFFFFFFFFFFF00FFFFFFFFFFFFFFFFFFFFFFFFFFFFFFFF00FFFFFFFFFFFFFFFFFFFFFFFFFFFFFF00FFFFFFFFFFFFFFFFFFFFFFFFFFFFFF00FFFFFFFFFFFFFFFFFFFFFFFFFFFFFF00FFFFFFFFFFFFFFFFFF
310
FFFFFFFFFFFF00FFFF00000000000000000000FFFFFFFF00FFFFFFFFFFFFFFFFFFFFFFFFFFFF00FFFF00FFFFFFFFFFFFFFFFFF0000FFFF00
102
{BLKREFS
331
23F3
102
}
  0
BLOCK_RECORD
  5
23BF
330
2107
100
AcDbSymbolTableRecord
100
AcDbBlockTableRecord
  2
AI9-BLK10
340
0
310
2800000020000000200000000100080000000000000400000000000000000000000000000000000000000000000080000080000000808000800000008000800080800000C0C0C000C0DCC000F0CAA6000020400000206000002080000020A0000020C0000020E00000400000004020000040400000406000004080000040A0
310
000040C0000040E00000600000006020000060400000606000006080000060A0000060C0000060E00000800000008020000080400000806000008080000080A0000080C0000080E00000A0000000A0200000A0400000A0600000A0800000A0A00000A0C00000A0E00000C0000000C0200000C0400000C0600000C0800000C0
310
A00000C0C00000C0E00000E0000000E0200000E0400000E0600000E0800000E0A00000E0C00000E0E00040000000400020004000400040006000400080004000A0004000C0004000E00040200000402020004020400040206000402080004020A0004020C0004020E000404000004040200040404000404060004040800040
310
40A0004040C0004040E00040600000406020004060400040606000406080004060A0004060C0004060E00040800000408020004080400040806000408080004080A0004080C0004080E00040A0000040A0200040A0400040A0600040A0800040A0A00040A0C00040A0E00040C0000040C0200040C0400040C0600040C08000
310
40C0A00040C0C00040C0E00040E0000040E0200040E0400040E0600040E0800040E0A00040E0C00040E0E00080000000800020008000400080006000800080008000A0008000C0008000E00080200000802020008020400080206000802080008020A0008020C0008020E00080400000804020008040400080406000804080
310
008040A0008040C0008040E00080600000806020008060400080606000806080008060A0008060C0008060E00080800000808020008080400080806000808080008080A0008080C0008080E00080A0000080A0200080A0400080A0600080A0800080A0A00080A0C00080A0E00080C0000080C0200080C0400080C0600080C0
310
800080C0A00080C0C00080C0E00080E0000080E0200080E0400080E0600080E0800080E0A00080E0C00080E0E000C0000000C0002000C0004000C0006000C0008000C000A000C000C000C000E000C0200000C0202000C0204000C0206000C0208000C020A000C020C000C020E000C0400000C0402000C0404000C0406000C0
310
408000C040A000C040C000C040E000C0600000C0602000C0604000C0606000C0608000C060A000C060C000C060E000C0800000C0802000C0804000C0806000C0808000C080A000C080C000C080E000C0A00000C0A02000C0A04000C0A06000C0A08000C0A0A000C0A0C000C0A0E000C0C00000C0C02000C0C04000C0C06000
310
C0C08000C0C0A000F0FBFF00A4A0A000808080000000FF0000FF000000FFFF00FF000000FF00FF00FFFF0000FFFFFF00FFFFFFFFFFFFFFFFFFFFFFFFFFFFFFFF00FFFFFFFFFFFFFFFFFFFFFFFF00FFFFFFFFFFFFFFFFFFFFFFFFFFFFFFFFFFFF00FFFFFFFFFFFFFFFFFFFFFF00FFFFFFFFFFFFFFFFFFFFFFFFFFFFFFFFFFFF
310
FF00FFFFFFFFFFFFFFFFFFFFFF00FFFFFFFFFFFFFFFFFFFFFFFFFFFFFFFFFFFFFF00FFFFFFFFFFFFFFFFFFFFFF00FFFFFFFFFFFFFFFFFFFFFFFFFFFFFFFFFFFFFF00FFFFFFFFFFFFFFFFFFFFFF00FFFFFFFFFFFFFFFFFFFFFFFFFFFFFFFFFFFFFF00FFFFFFFFFFFFFFFFFFFFFF00FFFFFFFFFFFFFFFFFFFFFFFFFFFFFFFFFF
310
FFFF00FFFFFFFFFFFFFFFFFFFFFF00FFFFFFFFFFFFFFFFFFFFFFFFFFFFFFFFFFFFFF00FFFFFFFFFFFFFFFFFFFF00FFFFFFFFFFFFFFFFFFFFFFFFFFFFFFFFFFFFFFFF00FFFFFFFFFFFFFFFFFFFF00FFFFFFFFFFFFFFFFFFFFFFFFFFFFFFFFFFFFFFFF00FFFFFFFFFFFFFFFFFFFF00FFFFFFFFFFFFFFFFFFFFFFFFFFFFFFFFFF
310
FFFFFF00FFFFFFFFFFFFFFFFFFFF00FFFFFFFFFFFFFFFFFFFFFFFFFFFFFFFFFFFFFFFF00FFFFFFFFFFFFFFFFFFFF00FFFFFFFFFFFFFFFFFFFFFFFFFFFFFFFFFFFFFFFF00FFFFFFFFFFFFFFFFFFFF00FFFFFFFFFFFFFFFFFFFFFFFFFFFFFFFFFFFFFFFF00FFFFFFFFFFFFFFFFFF00FFFFFFFFFFFFFFFFFFFFFFFFFFFFFFFFFF
310
FFFFFFFF00FFFFFFFFFFFFFFFFFF00FFFFFFFFFFFFFFFFFFFFFFFFFFFFFFFFFFFFFFFFFF00FFFFFFFFFFFFFFFFFF00FFFFFFFFFFFFFFFFFFFFFFFFFFFFFFFFFFFFFFFFFF0000000000000000000000FFFFFFFFFFFFFFFFFFFFFFFFFFFFFFFFFFFFFFFFFFFFFFFFFFFFFFFFFFFFFFFFFFFFFFFFFFFFFFFFFFFFFFFFFFFFFFFF
310
FFFFFFFFFFFFFFFFFFFFFFFFFFFFFFFFFFFFFFFFFFFFFFFFFFFFFFFFFFFFFFFFFFFFFFFFFFFFFFFFFFFFFFFFFFFFFFFFFFFFFFFFFFFFFFFFFFFFFFFFFFFFFFFFFFFFFFFFFFFFFFFFFFFFFFFFFFFFFFFFFFFFFFFFFFFFFFFFFFFFFFFFFFFFFFFFFFFFFFFFFFFFFFFFFFFFFFFFFFFFFFFFFFFFFFFFFFFFFFFFFFFFFFFFFFFFFF
310
FFFFFFFFFFFFFFFFFFFFFFFFFFFFFFFFFFFFFFFFFFFFFFFFFFFFFFFFFFFFFFFFFFFFFFFFFFFFFFFFFFFFFFFFFFFFFFFFFFFFFFFFFFFFFFFFFFFFFFFFFFFFFFFFFFFFFFFFFFFFFFFFFFFFFFFFFFFFFFFFFFFFFFFFFFFFFFFFFFFFFFFFFFFFFFFFFFFFFFFFFFFFFFFFFFFFFFFFFFFFFFFFFFFFFFFFFFFFFFFFFFFFFFFFFFFFFF
310
FFFFFFFFFFFFFFFFFFFFFFFFFFFFFFFFFFFFFFFFFFFFFFFFFFFFFFFFFFFFFFFFFFFFFFFFFFFFFFFFFFFFFFFFFFFFFFFFFFFFFFFFFFFFFFFFFFFFFFFFFFFFFFFFFFFFFFFFFFFFFFFFFFFFFFFFFFFFFFFFFFFFFFFFFFFFFFFFFFFFFFFFFFFFFFFFFFFFFFFFFFFFFFFFFFFFFFFFFFFFFFFFFFFFFFFFFFFFFFFFFFFFFFFFFFFFFF
310
FFFFFFFFFFFFFFFFFFFFFFFFFFFFFFFFFFFFFFFFFFFFFFFFFFFFFFFFFFFFFFFFFFFFFFFFFFFFFFFFFFFFFFFFFFFFFFFFFFFFFFFFFFFFFFFF
102
{BLKREFS
331
23F4
102
}
  0
BLOCK_RECORD
  5
23C3
330
2107
100
AcDbSymbolTableRecord
100
AcDbBlockTableRecord
  2
AI9-BLK9
340
0
310
2800000020000000200000000100080000000000000400000000000000000000000000000000000000000000000080000080000000808000800000008000800080800000C0C0C000C0DCC000F0CAA6000020400000206000002080000020A0000020C0000020E00000400000004020000040400000406000004080000040A0
310
000040C0000040E00000600000006020000060400000606000006080000060A0000060C0000060E00000800000008020000080400000806000008080000080A0000080C0000080E00000A0000000A0200000A0400000A0600000A0800000A0A00000A0C00000A0E00000C0000000C0200000C0400000C0600000C0800000C0
310
A00000C0C00000C0E00000E0000000E0200000E0400000E0600000E0800000E0A00000E0C00000E0E00040000000400020004000400040006000400080004000A0004000C0004000E00040200000402020004020400040206000402080004020A0004020C0004020E000404000004040200040404000404060004040800040
310
40A0004040C0004040E00040600000406020004060400040606000406080004060A0004060C0004060E00040800000408020004080400040806000408080004080A0004080C0004080E00040A0000040A0200040A0400040A0600040A0800040A0A00040A0C00040A0E00040C0000040C0200040C0400040C0600040C08000
310
40C0A00040C0C00040C0E00040E0000040E0200040E0400040E0600040E0800040E0A00040E0C00040E0E00080000000800020008000400080006000800080008000A0008000C0008000E00080200000802020008020400080206000802080008020A0008020C0008020E00080400000804020008040400080406000804080
310
008040A0008040C0008040E00080600000806020008060400080606000806080008060A0008060C0008060E00080800000808020008080400080806000808080008080A0008080C0008080E00080A0000080A0200080A0400080A0600080A0800080A0A00080A0C00080A0E00080C0000080C0200080C0400080C0600080C0
310
800080C0A00080C0C00080C0E00080E0000080E0200080E0400080E0600080E0800080E0A00080E0C00080E0E000C0000000C0002000C0004000C0006000C0008000C000A000C000C000C000E000C0200000C0202000C0204000C0206000C0208000C020A000C020C000C020E000C0400000C0402000C0404000C0406000C0
310
408000C040A000C040C000C040E000C0600000C0602000C0604000C0606000C0608000C060A000C060C000C060E000C0800000C0802000C0804000C0806000C0808000C080A000C080C000C080E000C0A00000C0A02000C0A04000C0A06000C0A08000C0A0A000C0A0C000C0A0E000C0C00000C0C02000C0C04000C0C06000
310
C0C08000C0C0A000F0FBFF00A4A0A000808080000000FF0000FF000000FFFF00FF000000FF00FF00FFFF0000FFFFFF00FFFFFFFFFFFFFFFFFFFFFFFFFFFFFFFFFFFFFFFFFFFFFFFFFFFFFFFFFFFFFFFFFFFFFFFFFFFFFFFFFFFFFFFFFFFFFF0000FFFFFFFFFFFFFFFFFFFFFFFFFFFFFFFFFFFFFFFFFFFFFFFFFFFFFFFF0000
310
FF0000FFFFFFFFFFFFFFFFFFFFFFFFFFFFFFFFFFFFFFFFFFFFFFFFFFFFFF00FFFFFF0000FFFFFFFFFFFFFFFFFFFFFFFFFFFFFFFFFFFFFFFFFFFFFFFFFFFF00FFFFFFFF0000FFFFFFFFFFFFFFFFFFFFFFFFFFFFFFFFFFFFFFFFFFFFFFFF00FF00000000FF00FFFFFFFFFFFFFFFFFFFFFFFFFFFFFFFFFFFFFFFFFFFFFFFF0000
310
00FFFF00FF00FFFFFFFFFFFFFFFFFFFFFFFFFFFFFFFFFFFFFFFFFFFFFFFF0000FFFFFFFF0000FFFFFFFFFFFFFFFFFFFFFFFFFFFFFFFFFFFFFFFFFFFFFFFF0000FFFFFFFF0000FFFFFFFFFFFFFFFFFFFFFFFFFFFFFFFFFFFFFFFFFFFFFF00FF00FFFFFFFF00FF00FFFFFFFFFFFFFFFFFFFFFFFFFFFFFFFFFFFFFFFFFFFF0000
310
FFFFFFFFFF00FF00FFFFFFFFFFFFFFFFFFFFFFFFFFFFFFFFFFFFFFFFFFFF0000FFFFFFFFFFFF0000FFFFFFFFFFFFFFFFFFFFFFFFFFFFFFFFFFFFFFFFFFFF0000FFFFFFFFFFFF0000FFFFFFFFFFFFFFFFFFFFFFFFFFFFFFFFFFFFFFFFFFFF0000FFFFFFFFFFFF0000FFFFFFFFFFFFFFFFFFFFFFFFFFFFFFFFFFFFFFFFFFFF00
310
00FFFFFFFFFFFF0000FFFFFFFFFFFFFFFFFFFFFFFFFFFFFFFFFFFFFFFFFFFF0000FFFFFFFFFFFF0000FFFFFFFFFFFFFFFFFFFFFFFFFFFFFFFFFFFFFFFFFFFF0000FFFFFFFFFFFF0000FFFFFFFFFFFFFFFFFFFFFFFFFFFFFFFFFFFFFFFFFFFF0000FFFFFFFFFFFF0000FFFFFFFFFFFFFFFFFFFFFFFFFFFFFFFFFFFFFFFFFFFF
310
0000FFFFFFFFFFFF0000FFFFFFFFFFFFFFFFFFFFFFFFFFFFFFFFFFFFFFFFFFFF0000FFFFFFFFFFFF0000FFFFFFFFFFFFFFFFFFFFFFFFFFFFFFFFFFFFFFFFFFFF0000FFFFFFFFFFFF0000FFFFFFFFFFFFFFFFFFFFFFFFFFFFFFFFFFFFFFFFFFFF00FF00FFFFFFFF00FF00FFFFFFFFFFFFFFFFFFFFFFFFFFFFFFFFFFFFFFFFFF
310
FF00FF00FFFFFFFF00FF00FFFFFFFFFFFFFFFFFFFFFFFFFFFFFFFFFFFFFFFFFFFF00FF00FFFFFFFF00FF00FFFFFFFFFFFFFFFFFFFFFFFFFFFFFFFFFFFFFFFFFFFFFF0000FFFFFFFF0000FFFFFFFFFFFFFFFFFFFFFFFFFFFFFFFFFFFFFFFFFFFFFFFF00FF00FFFF00FF00FFFFFFFFFFFFFFFFFFFFFFFFFFFFFFFFFFFFFFFFFF
310
FFFFFF00FF00000000FF00FFFFFFFFFFFFFFFFFFFFFFFFFFFFFFFFFFFFFFFFFFFFFFFFFF00FFFFFFFF0000FFFFFFFFFFFFFFFFFFFFFFFFFFFFFFFFFFFFFFFFFFFFFFFFFF00FFFFFFFF00FFFFFFFFFFFFFFFFFFFFFFFFFFFFFFFFFFFFFFFFFFFFFFFFFFFFFF00000000FFFFFFFFFFFFFFFFFFFFFFFFFFFFFFFFFFFFFFFFFFFF
310
FFFFFFFFFFFFFF0000FFFFFFFFFFFFFFFFFFFFFFFFFFFFFFFFFFFFFFFFFFFFFFFFFFFFFFFFFFFFFFFFFFFFFFFFFFFFFFFFFFFFFFFFFFFFFF
102
{BLKREFS
331
23F5
102
}
  0
BLOCK_RECORD
  5
23C8
330
2107
100
AcDbSymbolTableRecord
100
AcDbBlockTableRecord
  2
AI9-BLK8
340
0
310
2800000020000000200000000100080000000000000400000000000000000000000000000000000000000000000080000080000000808000800000008000800080800000C0C0C000C0DCC000F0CAA6000020400000206000002080000020A0000020C0000020E00000400000004020000040400000406000004080000040A0
310
000040C0000040E00000600000006020000060400000606000006080000060A0000060C0000060E00000800000008020000080400000806000008080000080A0000080C0000080E00000A0000000A0200000A0400000A0600000A0800000A0A00000A0C00000A0E00000C0000000C0200000C0400000C0600000C0800000C0
310
A00000C0C00000C0E00000E0000000E0200000E0400000E0600000E0800000E0A00000E0C00000E0E00040000000400020004000400040006000400080004000A0004000C0004000E00040200000402020004020400040206000402080004020A0004020C0004020E000404000004040200040404000404060004040800040
310
40A0004040C0004040E00040600000406020004060400040606000406080004060A0004060C0004060E00040800000408020004080400040806000408080004080A0004080C0004080E00040A0000040A0200040A0400040A0600040A0800040A0A00040A0C00040A0E00040C0000040C0200040C0400040C0600040C08000
310
40C0A00040C0C00040C0E00040E0000040E0200040E0400040E0600040E0800040E0A00040E0C00040E0E00080000000800020008000400080006000800080008000A0008000C0008000E00080200000802020008020400080206000802080008020A0008020C0008020E00080400000804020008040400080406000804080
310
008040A0008040C0008040E00080600000806020008060400080606000806080008060A0008060C0008060E00080800000808020008080400080806000808080008080A0008080C0008080E00080A0000080A0200080A0400080A0600080A0800080A0A00080A0C00080A0E00080C0000080C0200080C0400080C0600080C0
310
800080C0A00080C0C00080C0E00080E0000080E0200080E0400080E0600080E0800080E0A00080E0C00080E0E000C0000000C0002000C0004000C0006000C0008000C000A000C000C000C000E000C0200000C0202000C0204000C0206000C0208000C020A000C020C000C020E000C0400000C0402000C0404000C0406000C0
310
408000C040A000C040C000C040E000C0600000C0602000C0604000C0606000C0608000C060A000C060C000C060E000C0800000C0802000C0804000C0806000C0808000C080A000C080C000C080E000C0A00000C0A02000C0A04000C0A06000C0A08000C0A0A000C0A0C000C0A0E000C0C00000C0C02000C0C04000C0C06000
310
C0C08000C0C0A000F0FBFF00A4A0A000808080000000FF0000FF000000FFFF00FF000000FF00FF00FFFF0000FFFFFF00FFFFFFFFFFFFFFFFFFFFFFFFFFFFFFFFFFFFFFFFFFFFFFFFFFFFFFFFFFFFFFFFFFFFFFFFFFFFFFFFFFFFFF0000FFFFFFFFFFFF0000FFFFFFFFFFFFFFFFFFFFFFFFFFFFFFFFFFFFFFFFFFFF0000FFFF
310
FFFFFFFF0000FFFFFFFFFFFFFFFFFFFFFFFFFFFFFFFFFFFFFFFFFFFF0000FFFFFFFFFF00FF00FFFFFFFFFFFFFFFFFFFFFFFFFFFFFFFFFFFFFFFFFFFF0000FFFFFFFFFF00FF00FFFFFFFFFFFFFFFFFFFFFFFFFFFFFFFFFFFFFFFFFFFF0000FFFFFFFFFF00FF00FFFFFFFFFFFFFFFFFFFFFFFFFFFFFFFFFFFFFFFFFFFF0000FF
310
FFFFFF00FFFF00FFFFFFFFFFFFFFFFFFFFFFFFFFFFFFFFFFFFFFFFFFFF0000FFFFFFFF00FF0000FFFFFFFFFFFFFFFFFFFFFFFFFFFFFFFFFFFFFFFFFFFF0000FFFFFFFF00FF0000FFFFFFFFFFFFFFFFFFFFFFFFFFFFFFFFFFFFFFFFFFFF0000FFFFFFFF00000000FFFFFFFFFFFFFFFFFFFFFFFFFFFFFFFFFFFFFFFFFFFF0000
310
FFFFFF00FF000000FFFFFFFFFFFFFFFFFFFFFFFFFFFFFFFFFFFFFFFFFFFF0000FFFFFF00FF000000FFFFFFFFFFFFFFFFFFFFFFFFFFFFFFFFFFFFFFFFFFFF0000FFFFFF00FF000000FFFFFFFFFFFFFFFFFFFFFFFFFFFFFFFFFFFFFFFFFFFF0000FFFF00FF00FF0000FFFFFFFFFFFFFFFFFFFFFFFFFFFFFFFFFFFFFFFFFFFF00
310
00FFFF00FF00FF0000FFFFFFFFFFFFFFFFFFFFFFFFFFFFFFFFFFFFFFFFFFFF0000FFFF00FF00FF0000FFFFFFFFFFFFFFFFFFFFFFFFFFFFFFFFFFFFFFFFFFFF0000FF00FFFF00FF0000FFFFFFFFFFFFFFFFFFFFFFFFFFFFFFFFFFFFFFFFFFFF0000FF00FF00FFFF0000FFFFFFFFFFFFFFFFFFFFFFFFFFFFFFFFFFFFFFFFFFFF
310
0000FF00FF00FFFF0000FFFFFFFFFFFFFFFFFFFFFFFFFFFFFFFFFFFFFFFFFFFF0000FF00FF00FFFF0000FFFFFFFFFFFFFFFFFFFFFFFFFFFFFFFFFFFFFFFFFFFF000000FFFF00FFFF0000FFFFFFFFFFFFFFFFFFFFFFFFFFFFFFFFFFFFFFFFFFFF000000FF00FFFFFF0000FFFFFFFFFFFFFFFFFFFFFFFFFFFFFFFFFFFFFFFFFF
310
FF000000FF00FFFFFF0000FFFFFFFFFFFFFFFFFFFFFFFFFFFFFFFFFFFFFFFFFFFF0000FFFF00FFFFFF0000FFFFFFFFFFFFFFFFFFFFFFFFFFFFFFFFFFFFFFFFFFFF0000FFFF00FFFFFF0000FFFFFFFFFFFFFFFFFFFFFFFFFFFFFFFFFFFFFFFFFFFF00FFFF00FFFFFFFF0000FFFFFFFFFFFFFFFFFFFFFFFFFFFFFFFFFFFFFFFF
310
FFFF00FFFF00FFFFFFFF0000FFFFFFFFFFFFFFFFFFFFFFFFFFFFFFFFFFFFFFFFFFFF00FFFF00FFFFFFFF0000FFFFFFFFFFFFFFFFFFFFFFFFFFFFFFFFFFFFFFFFFFFF00FFFF00FFFFFFFF0000FFFFFFFFFFFFFFFFFFFFFFFFFFFFFFFFFFFFFFFFFFFF00FF00FFFFFFFFFF0000FFFFFFFFFFFFFFFFFFFFFFFFFFFFFFFFFFFFFF
310
FFFFFF000000FFFFFFFFFF0000FFFFFFFFFFFFFFFFFFFFFFFFFFFFFFFFFFFFFFFFFFFFFFFFFFFFFFFFFFFFFFFFFFFFFFFFFFFFFFFFFFFFFF
102
{BLKREFS
331
23F6
102
}
  0
BLOCK_RECORD
  5
23CD
330
2107
100
AcDbSymbolTableRecord
100
AcDbBlockTableRecord
  2
AI9-BLK7
340
0
310
2800000020000000200000000100080000000000000400000000000000000000000000000000000000000000000080000080000000808000800000008000800080800000C0C0C000C0DCC000F0CAA6000020400000206000002080000020A0000020C0000020E00000400000004020000040400000406000004080000040A0
310
000040C0000040E00000600000006020000060400000606000006080000060A0000060C0000060E00000800000008020000080400000806000008080000080A0000080C0000080E00000A0000000A0200000A0400000A0600000A0800000A0A00000A0C00000A0E00000C0000000C0200000C0400000C0600000C0800000C0
310
A00000C0C00000C0E00000E0000000E0200000E0400000E0600000E0800000E0A00000E0C00000E0E00040000000400020004000400040006000400080004000A0004000C0004000E00040200000402020004020400040206000402080004020A0004020C0004020E000404000004040200040404000404060004040800040
310
40A0004040C0004040E00040600000406020004060400040606000406080004060A0004060C0004060E00040800000408020004080400040806000408080004080A0004080C0004080E00040A0000040A0200040A0400040A0600040A0800040A0A00040A0C00040A0E00040C0000040C0200040C0400040C0600040C08000
310
40C0A00040C0C00040C0E00040E0000040E0200040E0400040E0600040E0800040E0A00040E0C00040E0E00080000000800020008000400080006000800080008000A0008000C0008000E00080200000802020008020400080206000802080008020A0008020C0008020E00080400000804020008040400080406000804080
310
008040A0008040C0008040E00080600000806020008060400080606000806080008060A0008060C0008060E00080800000808020008080400080806000808080008080A0008080C0008080E00080A0000080A0200080A0400080A0600080A0800080A0A00080A0C00080A0E00080C0000080C0200080C0400080C0600080C0
310
800080C0A00080C0C00080C0E00080E0000080E0200080E0400080E0600080E0800080E0A00080E0C00080E0E000C0000000C0002000C0004000C0006000C0008000C000A000C000C000C000E000C0200000C0202000C0204000C0206000C0208000C020A000C020C000C020E000C0400000C0402000C0404000C0406000C0
310
408000C040A000C040C000C040E000C0600000C0602000C0604000C0606000C0608000C060A000C060C000C060E000C0800000C0802000C0804000C0806000C0808000C080A000C080C000C080E000C0A00000C0A02000C0A04000C0A06000C0A08000C0A0A000C0A0C000C0A0E000C0C00000C0C02000C0C04000C0C06000
310
C0C08000C0C0A000F0FBFF00A4A0A000808080000000FF0000FF000000FFFF00FF000000FF00FF00FFFF0000FFFFFF00FFFFFFFFFFFFFFFFFFFFFFFFFFFFFFFFFFFFFFFFFFFFFFFFFFFFFFFFFFFFFFFFFFFFFFFFFFFFFFFFFFFFFFFFFFFFFF0000FFFFFFFFFFFFFFFFFFFFFFFFFFFFFFFFFFFFFFFFFFFFFFFFFFFFFFFFFFFF
310
0000FFFFFFFFFFFFFFFFFFFFFFFFFFFFFFFFFFFFFFFFFFFFFFFFFFFFFFFFFFFF0000FFFFFFFFFFFFFFFFFFFFFFFFFFFFFFFFFFFFFFFFFFFFFFFFFFFFFFFFFFFF0000FFFFFFFFFFFFFFFFFFFFFFFFFFFFFFFFFFFFFFFFFFFFFFFFFFFFFFFFFFFF0000FFFFFFFFFFFFFFFFFFFFFFFFFFFFFFFFFFFFFFFFFFFFFFFFFFFFFFFFFF
310
FF0000FFFFFFFFFFFFFFFFFFFFFFFFFFFFFFFFFFFFFFFFFFFFFFFFFFFFFFFFFFFF0000FFFFFFFFFFFFFFFFFFFFFFFFFFFFFFFFFFFFFFFFFFFFFFFFFFFFFFFFFFFF0000FFFFFFFFFFFFFFFFFFFFFFFFFFFFFFFFFFFFFFFFFFFFFFFFFFFFFFFFFFFF0000FFFFFFFFFFFFFFFFFFFFFFFFFFFFFFFFFFFFFFFFFFFFFFFFFFFFFFFF
310
FFFF0000FFFFFFFFFFFFFFFFFFFFFFFFFFFFFFFFFFFFFFFFFFFFFFFFFFFFFFFFFFFF0000FFFFFFFFFFFFFFFFFFFFFFFFFFFFFFFFFFFFFFFFFFFFFFFFFFFFFFFFFFFF0000FFFFFFFFFFFFFFFFFFFFFFFFFFFFFFFFFFFFFFFFFFFFFFFFFFFFFFFFFFFF0000FFFFFFFFFFFFFFFFFFFFFFFFFFFFFFFFFFFFFFFFFFFFFFFFFFFFFF
310
FFFFFF0000FFFFFFFFFFFFFFFFFFFFFFFFFFFFFFFFFFFFFFFFFFFFFFFFFFFFFFFFFFFF0000FFFFFFFFFFFFFFFFFFFFFFFFFFFFFFFFFFFFFFFFFFFFFFFFFFFFFFFFFFFF0000FFFFFFFFFFFFFFFFFFFFFFFFFFFFFFFFFFFFFFFFFFFFFFFFFFFFFFFFFFFF0000FFFFFFFFFFFFFFFFFFFFFFFFFFFFFFFFFFFFFFFFFFFFFFFFFFFF
310
FFFFFFFF0000FFFFFFFFFFFFFFFFFFFFFFFFFFFFFFFFFFFFFFFFFFFFFFFFFFFFFFFFFFFF0000FFFFFFFFFFFFFFFFFFFFFFFFFFFFFFFFFFFFFFFFFFFFFFFFFFFFFFFFFFFF0000FFFFFFFFFFFFFFFFFFFFFFFFFFFFFFFFFFFFFFFFFFFFFFFFFFFFFFFFFFFF0000FFFFFFFFFFFFFFFFFFFFFFFFFFFFFFFFFFFFFFFFFFFFFFFFFF
310
FFFFFFFFFF0000FFFFFFFFFFFFFFFFFFFFFFFFFFFFFFFFFFFFFFFFFFFFFFFFFFFFFFFFFFFF0000FFFFFFFFFFFFFFFFFFFFFFFFFFFFFFFFFFFFFFFFFFFFFFFFFFFFFFFFFFFF0000FFFFFFFFFFFFFFFFFFFFFFFFFFFFFFFFFFFFFFFFFFFFFFFFFFFFFFFFFFFF0000FFFFFFFFFFFFFFFFFFFFFFFFFFFFFFFFFFFFFFFFFFFFFFFF
310
FFFFFFFFFFFF0000FFFFFFFFFFFFFFFFFFFFFFFFFFFFFFFFFFFFFFFFFFFFFFFFFFFFFFFFFFFF0000FFFFFFFFFFFFFFFFFFFFFFFFFFFFFFFFFFFFFFFFFFFFFFFFFFFFFFFFFFFF0000FFFFFFFFFFFFFFFFFFFFFFFFFFFFFFFFFFFFFFFFFFFFFFFFFFFFFFFFFFFF0000FFFFFFFFFFFFFFFFFFFFFFFFFFFFFFFFFFFFFFFFFFFFFF
310
FFFFFFFFFFFFFF0000FFFFFFFFFFFFFFFFFFFFFFFFFFFFFFFFFFFFFFFFFFFFFFFFFFFFFFFFFFFFFFFFFFFFFFFFFFFFFFFFFFFFFFFFFFFFFF
102
{BLKREFS
331
23F7
102
}
  0
BLOCK_RECORD
  5
23D2
330
2107
100
AcDbSymbolTableRecord
100
AcDbBlockTableRecord
  2
AI9-BLK6
340
0
310
2800000020000000200000000100080000000000000400000000000000000000000000000000000000000000000080000080000000808000800000008000800080800000C0C0C000C0DCC000F0CAA6000020400000206000002080000020A0000020C0000020E00000400000004020000040400000406000004080000040A0
310
000040C0000040E00000600000006020000060400000606000006080000060A0000060C0000060E00000800000008020000080400000806000008080000080A0000080C0000080E00000A0000000A0200000A0400000A0600000A0800000A0A00000A0C00000A0E00000C0000000C0200000C0400000C0600000C0800000C0
310
A00000C0C00000C0E00000E0000000E0200000E0400000E0600000E0800000E0A00000E0C00000E0E00040000000400020004000400040006000400080004000A0004000C0004000E00040200000402020004020400040206000402080004020A0004020C0004020E000404000004040200040404000404060004040800040
310
40A0004040C0004040E00040600000406020004060400040606000406080004060A0004060C0004060E00040800000408020004080400040806000408080004080A0004080C0004080E00040A0000040A0200040A0400040A0600040A0800040A0A00040A0C00040A0E00040C0000040C0200040C0400040C0600040C08000
310
40C0A00040C0C00040C0E00040E0000040E0200040E0400040E0600040E0800040E0A00040E0C00040E0E00080000000800020008000400080006000800080008000A0008000C0008000E00080200000802020008020400080206000802080008020A0008020C0008020E00080400000804020008040400080406000804080
310
008040A0008040C0008040E00080600000806020008060400080606000806080008060A0008060C0008060E00080800000808020008080400080806000808080008080A0008080C0008080E00080A0000080A0200080A0400080A0600080A0800080A0A00080A0C00080A0E00080C0000080C0200080C0400080C0600080C0
310
800080C0A00080C0C00080C0E00080E0000080E0200080E0400080E0600080E0800080E0A00080E0C00080E0E000C0000000C0002000C0004000C0006000C0008000C000A000C000C000C000E000C0200000C0202000C0204000C0206000C0208000C020A000C020C000C020E000C0400000C0402000C0404000C0406000C0
310
408000C040A000C040C000C040E000C0600000C0602000C0604000C0606000C0608000C060A000C060C000C060E000C0800000C0802000C0804000C0806000C0808000C080A000C080C000C080E000C0A00000C0A02000C0A04000C0A06000C0A08000C0A0A000C0A0C000C0A0E000C0C00000C0C02000C0C04000C0C06000
310
C0C08000C0C0A000F0FBFF00A4A0A000808080000000FF0000FF000000FFFF00FF000000FF00FF00FFFF0000FFFFFF00FFFFFFFFFFFFFFFFFFFFFFFF00FFFFFFFFFFFFFF00FFFFFFFFFFFFFFFFFFFFFFFFFFFFFFFFFFFFFFFFFFFFFF00FFFFFFFFFFFFFF00FFFFFFFFFFFFFFFFFFFFFFFFFFFFFFFFFFFFFFFFFFFFFF00FFFF
310
FFFFFFFFFF00FFFFFFFFFFFFFFFFFFFFFFFFFFFFFFFFFFFFFFFFFFFF00FFFFFFFFFFFFFFFF00FFFFFFFFFFFFFFFFFFFFFFFFFFFFFFFFFFFFFFFFFFFF00FFFFFFFFFFFFFF00FFFFFFFFFFFFFFFFFFFFFFFFFFFFFFFFFFFFFFFFFFFFFF00FFFFFFFFFFFFFF00FFFFFFFFFFFFFFFFFFFFFFFFFFFFFFFFFFFFFFFFFFFF00FFFFFF
310
FFFFFFFFFF00FFFFFFFFFFFFFFFFFFFFFFFFFFFFFFFFFFFFFFFFFFFF00FFFFFFFFFFFFFF00FFFFFFFFFFFFFFFFFFFFFFFFFFFFFFFFFFFFFFFFFFFF00FFFFFFFFFFFFFFFF00FFFFFFFFFFFFFFFFFFFFFFFFFFFFFFFFFFFFFFFFFF00FFFFFFFFFFFFFFFFFF00FFFFFFFFFFFFFFFFFFFFFFFFFFFFFFFFFFFFFFFF00FFFFFFFFFF
310
FFFFFFFFFF00FFFFFFFFFFFFFFFFFFFFFFFFFFFFFFFFFFFFFF00FFFFFFFFFFFFFFFFFFFF00FFFFFFFFFFFFFFFFFFFFFFFFFFFFFFFFFFFF0000FFFFFFFFFFFFFFFFFFFFFF00FFFFFFFFFFFFFFFFFFFFFFFFFFFF00000000FFFFFFFFFFFFFFFFFFFFFFFFFF00FFFFFFFFFFFFFFFFFFFFFFFFFFFFFFFFFFFFFFFFFFFFFFFFFFFF
310
FFFFFFFF00FFFFFFFFFFFFFFFFFFFFFFFFFFFFFFFFFFFFFFFFFFFFFFFFFFFFFFFFFFFFFF00FFFFFFFFFFFFFFFFFFFFFFFFFFFFFFFFFFFFFFFFFFFFFFFFFFFFFFFFFFFFFF00FFFFFFFFFFFFFFFFFFFFFFFFFFFFFFFFFFFFFFFFFFFFFFFFFFFFFFFFFFFF00FFFFFFFFFFFFFFFFFFFFFFFFFFFFFFFFFFFFFFFFFFFFFFFFFFFFFF
310
FFFFFFFF00FFFFFFFFFFFFFFFFFFFFFFFFFFFFFFFFFFFFFFFFFFFFFFFFFFFFFFFFFFFF00FFFFFFFFFFFFFFFFFFFFFFFFFFFFFFFFFFFFFFFFFFFFFFFFFFFFFFFFFFFF00FFFFFFFFFFFFFFFFFFFFFFFFFFFFFFFFFFFFFFFFFFFFFFFFFFFFFFFFFFFF00FFFFFFFFFFFFFFFFFFFFFFFFFFFFFFFFFFFFFFFFFFFFFFFFFFFFFFFFFF
310
FF00FFFFFFFFFFFFFFFFFFFFFFFFFFFFFFFFFFFFFFFFFFFFFFFFFFFFFFFFFFFFFF00FFFFFFFFFFFFFFFFFFFFFFFFFFFFFFFFFFFFFFFFFFFFFFFFFFFFFFFFFFFF00FFFFFFFFFFFFFFFFFFFFFFFFFFFFFFFFFFFFFFFFFFFFFFFFFFFFFFFFFF0000FFFFFFFFFFFFFFFFFFFFFFFFFFFFFFFFFFFFFFFFFFFFFFFFFFFFFFFF0000FF
310
FFFFFFFFFFFFFFFFFFFFFFFFFFFFFFFFFFFFFFFFFFFFFFFFFF00000000FFFFFFFFFFFFFFFFFFFFFFFFFFFFFFFFFFFFFFFFFFFFFFFFFFFF0000FFFFFFFFFFFFFFFFFFFFFFFFFFFFFFFFFFFFFFFFFFFFFFFFFFFFFFFFFFFFFFFFFFFFFFFFFFFFFFFFFFFFFFFFFFFFFFFFFFFFFFFFFFFFFFFFFFFFFFFFFFFFFFFFFFFFFFFFFFFF
310
FFFFFFFFFFFFFFFFFFFFFFFFFFFFFFFFFFFFFFFFFFFFFFFFFFFFFFFFFFFFFFFFFFFFFFFFFFFFFFFFFFFFFFFFFFFFFFFFFFFFFFFFFFFFFFFF
102
{BLKREFS
331
23F8
102
}
  0
BLOCK_RECORD
  5
23D6
330
2107
100
AcDbSymbolTableRecord
100
AcDbBlockTableRecord
  2
AI9-BLK5
340
0
310
2800000020000000200000000100080000000000000400000000000000000000000000000000000000000000000080000080000000808000800000008000800080800000C0C0C000C0DCC000F0CAA6000020400000206000002080000020A0000020C0000020E00000400000004020000040400000406000004080000040A0
310
000040C0000040E00000600000006020000060400000606000006080000060A0000060C0000060E00000800000008020000080400000806000008080000080A0000080C0000080E00000A0000000A0200000A0400000A0600000A0800000A0A00000A0C00000A0E00000C0000000C0200000C0400000C0600000C0800000C0
310
A00000C0C00000C0E00000E0000000E0200000E0400000E0600000E0800000E0A00000E0C00000E0E00040000000400020004000400040006000400080004000A0004000C0004000E00040200000402020004020400040206000402080004020A0004020C0004020E000404000004040200040404000404060004040800040
310
40A0004040C0004040E00040600000406020004060400040606000406080004060A0004060C0004060E00040800000408020004080400040806000408080004080A0004080C0004080E00040A0000040A0200040A0400040A0600040A0800040A0A00040A0C00040A0E00040C0000040C0200040C0400040C0600040C08000
310
40C0A00040C0C00040C0E00040E0000040E0200040E0400040E0600040E0800040E0A00040E0C00040E0E00080000000800020008000400080006000800080008000A0008000C0008000E00080200000802020008020400080206000802080008020A0008020C0008020E00080400000804020008040400080406000804080
310
008040A0008040C0008040E00080600000806020008060400080606000806080008060A0008060C0008060E00080800000808020008080400080806000808080008080A0008080C0008080E00080A0000080A0200080A0400080A0600080A0800080A0A00080A0C00080A0E00080C0000080C0200080C0400080C0600080C0
310
800080C0A00080C0C00080C0E00080E0000080E0200080E0400080E0600080E0800080E0A00080E0C00080E0E000C0000000C0002000C0004000C0006000C0008000C000A000C000C000C000E000C0200000C0202000C0204000C0206000C0208000C020A000C020C000C020E000C0400000C0402000C0404000C0406000C0
310
408000C040A000C040C000C040E000C0600000C0602000C0604000C0606000C0608000C060A000C060C000C060E000C0800000C0802000C0804000C0806000C0808000C080A000C080C000C080E000C0A00000C0A02000C0A04000C0A06000C0A08000C0A0A000C0A0C000C0A0E000C0C00000C0C02000C0C04000C0C06000
310
C0C08000C0C0A000F0FBFF00A4A0A000808080000000FF0000FF000000FFFF00FF000000FF00FF00FFFF0000FFFFFF00FFFFFFFFFFFFFFFFFFFFFFFFFFFFFFFFFFFFFFFFFFFFFFFFFFFFFFFFFFFFFFFFFFFFFFFFFFFFFFFF000000000000000000000000000000000000000000000000FFFFFFFFFFFFFFFF00FFFFFFFFFFFF
310
FFFFFFFFFFFFFFFFFFFFFFFFFFFFFFFFFFFFFFFFFFFFFFFFFF00FFFFFFFFFFFFFFFFFFFFFFFFFFFFFFFFFFFFFFFFFFFFFFFFFFFFFFFFFFFFFF00FFFFFFFFFFFFFFFFFFFFFFFFFFFFFFFFFFFFFFFFFFFFFFFFFFFFFFFFFFFFFF00FFFFFFFFFFFFFFFFFFFFFFFFFFFFFFFFFFFFFFFFFFFFFFFFFFFFFFFFFFFFFF00FFFFFFFFFF
310
FFFFFFFFFFFFFFFFFFFFFFFFFFFFFFFFFFFFFFFFFFFFFFFFFFFF00FFFFFFFFFFFFFFFFFFFFFFFFFFFFFFFFFFFFFFFFFFFFFFFFFFFFFFFFFFFFFF00FFFFFFFFFFFFFFFFFFFFFFFFFFFFFFFFFFFFFFFFFFFFFFFFFFFFFFFFFFFFFF00FFFFFFFFFFFFFFFFFFFFFFFFFFFFFFFFFFFFFFFFFFFFFFFFFFFFFFFFFFFFFF00FFFFFFFF
310
FFFFFFFFFFFFFFFFFFFFFFFFFFFFFFFFFFFFFFFFFFFFFFFFFFFFFF00FFFFFFFFFFFFFFFFFFFFFFFFFFFFFFFFFFFFFFFFFFFFFFFFFFFFFFFFFFFFFF00FFFFFFFFFFFFFFFFFFFFFFFFFFFFFFFFFFFFFFFFFFFFFFFFFFFFFFFFFFFFFF00FFFFFFFFFFFFFFFFFFFFFFFFFFFFFFFFFFFFFFFFFFFFFFFFFFFFFFFFFFFFFF00FFFFFF
310
FFFFFFFFFFFFFFFFFFFFFFFFFFFFFFFFFFFFFFFFFFFFFFFFFFFFFFFF00FFFFFFFFFFFFFFFFFFFFFFFFFFFFFFFFFFFFFFFFFFFFFFFFFFFFFFFFFFFFFF00FFFFFFFFFFFFFFFFFFFFFFFFFFFFFFFFFFFFFFFFFFFFFFFFFFFFFFFFFFFFFF00FFFFFFFFFFFFFFFFFFFFFFFFFFFFFFFFFFFFFFFFFFFFFFFFFFFFFFFFFFFFFF00FFFF
310
FFFFFFFFFFFFFFFFFFFFFFFFFFFFFFFFFFFFFFFFFFFFFFFFFFFFFFFFFF00FFFFFFFFFFFFFFFFFFFFFFFFFFFFFFFFFFFFFFFFFFFFFFFFFFFFFFFFFFFFFF00FFFFFFFFFFFFFFFFFFFFFFFFFFFFFFFFFFFFFFFFFFFFFFFFFFFFFFFFFFFFFF00FFFFFFFFFFFFFFFFFFFFFFFFFFFFFFFFFFFFFFFFFFFFFFFFFFFFFFFFFFFFFF00FF
310
FFFFFFFFFFFFFFFFFFFFFFFFFFFFFFFFFFFFFFFFFFFFFFFFFFFFFFFFFFFF00FFFFFFFFFFFFFFFFFFFFFFFFFFFFFFFFFFFFFFFFFFFFFFFFFFFFFFFFFFFFFF00FFFFFFFFFFFFFFFFFFFFFFFFFFFFFFFFFFFFFFFFFFFFFFFFFFFFFFFFFFFFFF00FFFFFFFFFFFFFFFFFFFFFFFFFFFFFFFFFFFFFFFFFFFFFFFFFFFFFFFFFFFFFF00
310
FFFFFFFFFFFFFFFFFFFFFFFFFFFFFFFFFFFFFFFFFFFFFFFFFFFFFFFFFFFFFF00FFFFFFFFFFFFFFFFFFFFFFFFFFFFFFFFFFFFFFFFFFFFFFFFFFFFFFFFFFFFFF00FFFFFFFFFFFFFFFFFFFFFFFFFFFFFFFFFFFFFFFFFFFFFFFFFFFFFFFFFFFFFF00FFFFFFFFFFFFFFFFFFFFFFFFFFFFFFFFFFFFFFFFFFFFFFFFFFFFFFFFFFFFFF
310
00FFFFFFFFFFFFFFFFFFFFFFFFFFFF000000000000000000FFFFFFFFFFFFFFFF00FFFFFFFFFFFFFFFFFFFFFFFFFFFF00FFFFFFFFFFFFFFFF
102
{BLKREFS
331
23F9
102
}
  0
BLOCK_RECORD
  5
23DB
330
2107
100
AcDbSymbolTableRecord
100
AcDbBlockTableRecord
  2
AI9-BLK4
340
0
310
2800000020000000200000000100080000000000000400000000000000000000000000000000000000000000000080000080000000808000800000008000800080800000C0C0C000C0DCC000F0CAA6000020400000206000002080000020A0000020C0000020E00000400000004020000040400000406000004080000040A0
310
000040C0000040E00000600000006020000060400000606000006080000060A0000060C0000060E00000800000008020000080400000806000008080000080A0000080C0000080E00000A0000000A0200000A0400000A0600000A0800000A0A00000A0C00000A0E00000C0000000C0200000C0400000C0600000C0800000C0
310
A00000C0C00000C0E00000E0000000E0200000E0400000E0600000E0800000E0A00000E0C00000E0E00040000000400020004000400040006000400080004000A0004000C0004000E00040200000402020004020400040206000402080004020A0004020C0004020E000404000004040200040404000404060004040800040
310
40A0004040C0004040E00040600000406020004060400040606000406080004060A0004060C0004060E00040800000408020004080400040806000408080004080A0004080C0004080E00040A0000040A0200040A0400040A0600040A0800040A0A00040A0C00040A0E00040C0000040C0200040C0400040C0600040C08000
310
40C0A00040C0C00040C0E00040E0000040E0200040E0400040E0600040E0800040E0A00040E0C00040E0E00080000000800020008000400080006000800080008000A0008000C0008000E00080200000802020008020400080206000802080008020A0008020C0008020E00080400000804020008040400080406000804080
310
008040A0008040C0008040E00080600000806020008060400080606000806080008060A0008060C0008060E00080800000808020008080400080806000808080008080A0008080C0008080E00080A0000080A0200080A0400080A0600080A0800080A0A00080A0C00080A0E00080C0000080C0200080C0400080C0600080C0
310
800080C0A00080C0C00080C0E00080E0000080E0200080E0400080E0600080E0800080E0A00080E0C00080E0E000C0000000C0002000C0004000C0006000C0008000C000A000C000C000C000E000C0200000C0202000C0204000C0206000C0208000C020A000C020C000C020E000C0400000C0402000C0404000C0406000C0
310
408000C040A000C040C000C040E000C0600000C0602000C0604000C0606000C0608000C060A000C060C000C060E000C0800000C0802000C0804000C0806000C0808000C080A000C080C000C080E000C0A00000C0A02000C0A04000C0A06000C0A08000C0A0A000C0A0C000C0A0E000C0C00000C0C02000C0C04000C0C06000
310
C0C08000C0C0A000F0FBFF00A4A0A000808080000000FF0000FF000000FFFF00FF000000FF00FF00FFFF0000FFFFFF00FFFFFFFFFFFFFFFFFFFFFFFFFFFFFFFFFFFFFFFFFFFFFFFFFFFFFFFFFFFFFFFFFFFFFFFFFFFFFFFFFFFFFFFFFFFF00000000FFFFFFFFFFFFFFFFFFFFFF000000FFFFFFFFFFFFFFFFFFFFFFFFFFFF00
310
FFFF00FFFFFFFFFFFFFFFFFFFFFF00FFFFFFFFFFFFFFFFFFFFFFFFFFFFFFFF00FFFF00FFFFFFFFFFFFFFFFFFFFFF00FFFFFFFFFFFFFFFFFFFFFFFFFFFFFFFF00FFFF00FFFFFFFFFFFFFFFFFFFFFF00FFFFFFFFFFFFFFFFFFFFFFFFFFFFFFFF00FFFF00FFFFFFFFFFFFFFFFFFFFFF00FFFFFFFFFFFFFFFFFFFFFFFFFFFFFFFF
310
00FFFF00FFFFFFFFFFFFFFFFFFFFFF00FFFFFFFFFFFFFFFFFFFFFFFFFFFFFFFF00FFFF00FFFFFFFFFFFFFFFFFFFFFF00FFFFFFFFFFFFFFFFFFFFFFFFFFFFFFFF00FFFF00FFFFFFFFFFFFFFFFFFFFFF00FFFFFFFFFFFFFFFFFFFFFFFFFFFFFFFF00FFFF00FFFFFFFFFFFFFFFFFFFFFF00FFFFFFFFFFFFFFFFFFFFFFFFFFFFFF
310
FF00FFFF00FFFFFFFFFFFFFFFFFFFFFF00FFFFFFFFFFFFFFFFFFFFFFFFFFFFFFFF00FFFF00FFFFFFFFFFFFFFFFFFFFFF00FFFFFFFFFFFFFFFFFFFFFFFFFFFFFFFF00FFFF00FFFFFFFFFFFFFFFFFFFFFF00FFFFFFFFFFFFFFFFFFFFFFFFFFFFFFFF00FFFF00FFFFFFFFFFFFFFFFFFFFFF00FFFFFFFFFFFFFFFFFFFFFFFFFFFF
310
FFFF00FFFF00FFFFFFFFFFFFFFFFFFFFFF00FFFFFFFFFFFFFFFFFFFFFFFFFFFFFFFF00FFFF00FFFFFFFFFFFFFFFFFFFFFF00FFFFFFFFFFFFFFFFFFFFFFFFFFFFFFFF00FFFF00FFFFFFFFFFFFFFFFFFFFFF00FFFFFFFFFFFFFFFFFFFFFFFFFFFFFFFF00FFFF00FFFFFFFFFFFFFFFFFFFF00FFFFFFFFFFFFFFFFFFFFFFFFFFFF
310
FFFFFF00FFFF00FFFFFFFFFFFFFFFFFFFF00FFFFFFFFFFFFFFFFFFFFFFFFFFFFFFFFFF00FFFF00FFFFFFFFFFFFFFFFFFFF00FFFFFFFFFFFFFFFFFFFFFFFFFFFFFFFFFF00FFFF00FFFFFFFFFFFFFFFFFFFF00FFFFFFFFFFFFFFFFFFFFFFFFFFFFFFFFFF00FFFF00FFFFFFFFFFFFFFFFFFFF00FFFFFFFFFFFFFFFFFFFFFFFFFF
310
FFFFFFFF00FFFF00FFFFFFFFFFFFFFFFFF0000FFFF00FFFFFFFFFFFFFFFFFFFFFFFFFFFF00FFFF00FFFFFFFFFFFFFFFF0000FFFFFF00FFFFFFFFFFFFFFFFFFFFFFFFFFFF00FFFF00000000000000000000FFFFFFFF00FFFFFFFFFFFFFFFFFFFFFFFFFFFF00FFFFFFFFFFFFFFFFFFFFFFFFFFFFFF00FFFFFFFFFFFFFFFFFFFF
310
FFFFFFFFFF00FFFFFFFFFFFFFFFFFFFFFFFFFFFF00FFFFFFFFFFFFFFFFFFFFFFFFFFFFFFFF00FFFFFFFFFFFFFFFFFFFFFFFFFFFF00FFFFFFFFFFFFFFFFFFFFFFFFFFFFFFFF00FFFFFFFFFFFFFFFFFFFFFFFFFFFFFF00FFFFFFFFFFFFFFFFFFFFFFFFFFFFFF00FFFFFFFFFFFFFFFFFFFFFFFFFFFFFF00FFFFFFFFFFFFFFFFFF
310
FFFFFFFFFFFF00FFFF00000000000000000000FFFFFFFF00FFFFFFFFFFFFFFFFFFFFFFFFFFFF00FFFF00FFFFFFFFFFFFFFFFFF0000FFFF00
102
{BLKREFS
331
23FA
102
}
  0
BLOCK_RECORD
  5
23E0
330
2107
100
AcDbSymbolTableRecord
100
AcDbBlockTableRecord
  2
AI9-BLK3
340
0
310
2800000020000000200000000100080000000000000400000000000000000000000000000000000000000000000080000080000000808000800000008000800080800000C0C0C000C0DCC000F0CAA6000020400000206000002080000020A0000020C0000020E00000400000004020000040400000406000004080000040A0
310
000040C0000040E00000600000006020000060400000606000006080000060A0000060C0000060E00000800000008020000080400000806000008080000080A0000080C0000080E00000A0000000A0200000A0400000A0600000A0800000A0A00000A0C00000A0E00000C0000000C0200000C0400000C0600000C0800000C0
310
A00000C0C00000C0E00000E0000000E0200000E0400000E0600000E0800000E0A00000E0C00000E0E00040000000400020004000400040006000400080004000A0004000C0004000E00040200000402020004020400040206000402080004020A0004020C0004020E000404000004040200040404000404060004040800040
310
40A0004040C0004040E00040600000406020004060400040606000406080004060A0004060C0004060E00040800000408020004080400040806000408080004080A0004080C0004080E00040A0000040A0200040A0400040A0600040A0800040A0A00040A0C00040A0E00040C0000040C0200040C0400040C0600040C08000
310
40C0A00040C0C00040C0E00040E0000040E0200040E0400040E0600040E0800040E0A00040E0C00040E0E00080000000800020008000400080006000800080008000A0008000C0008000E00080200000802020008020400080206000802080008020A0008020C0008020E00080400000804020008040400080406000804080
310
008040A0008040C0008040E00080600000806020008060400080606000806080008060A0008060C0008060E00080800000808020008080400080806000808080008080A0008080C0008080E00080A0000080A0200080A0400080A0600080A0800080A0A00080A0C00080A0E00080C0000080C0200080C0400080C0600080C0
310
800080C0A00080C0C00080C0E00080E0000080E0200080E0400080E0600080E0800080E0A00080E0C00080E0E000C0000000C0002000C0004000C0006000C0008000C000A000C000C000C000E000C0200000C0202000C0204000C0206000C0208000C020A000C020C000C020E000C0400000C0402000C0404000C0406000C0
310
408000C040A000C040C000C040E000C0600000C0602000C0604000C0606000C0608000C060A000C060C000C060E000C0800000C0802000C0804000C0806000C0808000C080A000C080C000C080E000C0A00000C0A02000C0A04000C0A06000C0A08000C0A0A000C0A0C000C0A0E000C0C00000C0C02000C0C04000C0C06000
310
C0C08000C0C0A000F0FBFF00A4A0A000808080000000FF0000FF000000FFFF00FF000000FF00FF00FFFF0000FFFFFF00FFFFFFFFFFFFFFFFFFFFFFFFFFFFFFFFFFFFFFFFFFFFFFFFFFFFFFFFFFFFFFFFFFFFFFFFFFFFFFFFFFFFFFFFFFFFFF0000FFFFFFFFFFFFFFFFFFFFFFFFFFFFFFFFFFFFFFFFFFFFFFFFFFFFFFFFFFFF
310
0000FFFFFFFFFFFFFFFFFFFFFFFFFFFFFFFFFFFFFFFFFFFFFFFFFFFFFFFFFFFF0000FFFFFFFFFFFFFFFFFFFFFFFFFFFFFFFFFFFFFFFFFFFFFFFFFFFFFFFFFFFF0000FFFFFFFFFFFFFFFFFFFFFFFFFFFFFFFFFFFFFFFFFFFFFFFFFFFFFFFFFFFF0000FFFFFFFFFFFFFFFFFFFFFFFFFFFFFFFFFFFFFFFFFFFFFFFFFFFFFFFFFF
310
FF0000FFFFFFFFFFFFFFFFFFFFFFFFFFFFFFFFFFFFFFFFFFFFFFFFFFFFFFFFFFFF0000FFFFFFFFFFFFFFFFFFFFFFFFFFFFFFFFFFFFFFFFFFFFFFFFFFFFFFFFFFFF0000FFFFFFFFFFFFFFFFFFFFFFFFFFFFFFFFFFFFFFFFFFFFFFFFFFFFFFFFFFFF0000FFFFFFFFFFFFFFFFFFFFFFFFFFFFFFFFFFFFFFFFFFFFFFFFFFFFFFFF
310
FFFF0000FFFFFFFFFFFFFFFFFFFFFFFFFFFFFFFFFFFFFFFFFFFFFFFFFFFFFFFFFFFF0000FFFFFFFFFFFFFFFFFFFFFFFFFFFFFFFFFFFFFFFFFFFFFFFFFFFFFFFFFFFF0000FFFFFFFFFFFFFFFFFFFFFFFFFFFFFFFFFFFFFFFFFFFFFFFFFFFFFFFFFFFF0000FFFFFFFFFFFFFFFFFFFFFFFFFFFFFFFFFFFFFFFFFFFFFFFFFFFFFF
310
FFFFFF0000FFFFFFFFFFFFFFFFFFFFFFFFFFFFFFFFFFFFFFFFFFFFFFFFFFFFFFFFFFFF0000FFFFFFFFFFFFFFFFFFFFFFFFFFFFFFFFFFFFFFFFFFFFFFFFFFFFFFFFFFFF0000FFFFFFFFFFFFFFFFFFFFFFFFFFFFFFFFFFFFFFFFFFFFFFFFFFFFFFFFFFFF0000FFFFFFFFFFFFFFFFFFFFFFFFFFFFFFFFFFFFFFFFFFFFFFFFFFFF
310
FFFFFFFF0000FFFFFFFFFFFFFFFFFFFFFFFFFFFFFFFFFFFFFFFFFFFFFFFFFFFFFFFFFFFF0000FFFFFFFFFFFFFFFFFFFFFFFFFFFFFFFFFFFFFFFFFFFFFFFFFFFFFFFFFFFF0000FFFFFFFFFFFFFFFFFFFFFFFFFFFFFFFFFFFFFFFFFFFFFFFFFFFFFFFFFFFF0000FFFFFFFFFFFFFFFFFFFFFFFFFFFFFFFFFFFFFFFFFFFFFFFFFF
310
FFFFFFFFFF0000FFFFFFFFFFFFFFFFFFFFFFFFFFFFFFFFFFFFFFFFFFFFFFFFFFFFFFFFFFFF0000FFFFFFFFFFFFFFFFFFFFFFFFFFFFFFFFFFFFFFFFFFFFFFFFFFFFFFFFFFFF0000FFFFFFFFFFFFFFFFFFFFFFFFFFFFFFFFFFFFFFFFFFFFFFFFFFFFFFFFFFFF0000FFFFFFFFFFFFFFFFFFFFFFFFFFFFFFFFFFFFFFFFFFFFFFFF
310
FFFFFFFFFFFF0000FFFFFFFFFFFFFFFFFFFFFFFFFFFFFFFFFFFFFFFFFFFFFFFFFFFFFFFFFFFF0000FFFFFFFFFFFFFFFFFFFFFFFFFFFFFFFFFFFFFFFFFFFFFFFFFFFFFFFFFFFF0000FFFFFFFFFFFFFFFFFFFFFFFFFFFFFFFFFFFFFFFFFFFFFFFFFFFFFFFFFFFF0000FFFFFFFFFFFFFFFFFFFFFFFFFFFFFFFFFFFFFFFFFFFFFF
310
FFFFFFFFFFFFFF0000FFFFFFFFFFFFFFFFFFFFFFFFFFFFFFFFFFFFFFFFFFFFFFFFFFFFFFFFFFFFFFFFFFFFFFFFFFFFFFFFFFFFFFFFFFFFFF
102
{BLKREFS
331
23FB
102
}
  0
BLOCK_RECORD
  5
23E5
330
2107
100
AcDbSymbolTableRecord
100
AcDbBlockTableRecord
  2
AI9-BLK2
340
0
310
2800000020000000200000000100080000000000000400000000000000000000000000000000000000000000000080000080000000808000800000008000800080800000C0C0C000C0DCC000F0CAA6000020400000206000002080000020A0000020C0000020E00000400000004020000040400000406000004080000040A0
310
000040C0000040E00000600000006020000060400000606000006080000060A0000060C0000060E00000800000008020000080400000806000008080000080A0000080C0000080E00000A0000000A0200000A0400000A0600000A0800000A0A00000A0C00000A0E00000C0000000C0200000C0400000C0600000C0800000C0
310
A00000C0C00000C0E00000E0000000E0200000E0400000E0600000E0800000E0A00000E0C00000E0E00040000000400020004000400040006000400080004000A0004000C0004000E00040200000402020004020400040206000402080004020A0004020C0004020E000404000004040200040404000404060004040800040
310
40A0004040C0004040E00040600000406020004060400040606000406080004060A0004060C0004060E00040800000408020004080400040806000408080004080A0004080C0004080E00040A0000040A0200040A0400040A0600040A0800040A0A00040A0C00040A0E00040C0000040C0200040C0400040C0600040C08000
310
40C0A00040C0C00040C0E00040E0000040E0200040E0400040E0600040E0800040E0A00040E0C00040E0E00080000000800020008000400080006000800080008000A0008000C0008000E00080200000802020008020400080206000802080008020A0008020C0008020E00080400000804020008040400080406000804080
310
008040A0008040C0008040E00080600000806020008060400080606000806080008060A0008060C0008060E00080800000808020008080400080806000808080008080A0008080C0008080E00080A0000080A0200080A0400080A0600080A0800080A0A00080A0C00080A0E00080C0000080C0200080C0400080C0600080C0
310
800080C0A00080C0C00080C0E00080E0000080E0200080E0400080E0600080E0800080E0A00080E0C00080E0E000C0000000C0002000C0004000C0006000C0008000C000A000C000C000C000E000C0200000C0202000C0204000C0206000C0208000C020A000C020C000C020E000C0400000C0402000C0404000C0406000C0
310
408000C040A000C040C000C040E000C0600000C0602000C0604000C0606000C0608000C060A000C060C000C060E000C0800000C0802000C0804000C0806000C0808000C080A000C080C000C080E000C0A00000C0A02000C0A04000C0A06000C0A08000C0A0A000C0A0C000C0A0E000C0C00000C0C02000C0C04000C0C06000
310
C0C08000C0C0A000F0FBFF00A4A0A000808080000000FF0000FF000000FFFF00FF000000FF00FF00FFFF0000FFFFFF00FFFFFFFFFFFFFFFFFFFFFFFFFFFFFFFFFFFFFFFFFFFFFFFFFFFFFFFFFFFFFFFFFFFFFFFFFFFFFFFFFFFFFFFFFFFFFF0000FFFFFFFFFFFFFFFFFFFFFFFFFFFFFFFFFFFFFFFFFFFFFFFFFFFFFFFFFFFF
310
0000FFFFFFFFFFFFFFFFFFFFFFFFFFFFFFFFFFFFFFFFFFFFFFFFFFFFFFFFFFFF0000FFFFFFFFFFFFFFFFFFFFFFFFFFFFFFFFFFFFFFFFFFFFFFFFFFFFFFFFFF00FFFF00FFFFFFFFFFFFFFFFFFFFFFFFFFFFFFFFFFFFFFFFFFFFFFFFFFFFFFFF00FFFF00FFFFFFFFFFFFFFFFFFFFFFFFFFFFFFFFFFFFFFFFFFFFFFFFFFFFFFFF
310
00FF0000FFFFFFFFFFFFFFFFFFFFFFFFFFFFFFFFFFFFFFFFFFFFFFFFFFFFFFFF00FF0000FFFFFFFFFFFFFFFFFFFFFFFFFFFFFFFFFFFFFFFFFFFFFFFFFFFFFFFF00FF0000FFFFFFFFFFFFFFFFFFFFFFFFFFFFFFFFFFFFFFFFFFFFFFFFFFFFFFFF00000000FFFFFFFFFFFFFFFFFFFFFFFFFFFFFFFFFFFFFFFFFFFFFFFFFFFFFF
310
00FF00FF0000FFFFFFFFFFFFFFFFFFFFFFFFFFFFFFFFFFFFFFFFFFFFFFFFFFFF00FF00FF0000FFFFFFFFFFFFFFFFFFFFFFFFFFFFFFFFFFFFFFFFFFFFFFFFFFFF00FF00FF0000FFFFFFFFFFFFFFFFFFFFFFFFFFFFFFFFFFFFFFFFFFFFFFFFFFFF00FF00FF0000FFFFFFFFFFFFFFFFFFFFFFFFFFFFFFFFFFFFFFFFFFFFFFFFFF
310
FF00FF00FF0000FFFFFFFFFFFFFFFFFFFFFFFFFFFFFFFFFFFFFFFFFFFFFFFFFFFF0000FFFF0000FFFFFFFFFFFFFFFFFFFFFFFFFFFFFFFFFFFFFFFFFFFFFFFFFF00FF00FFFF00FF00FFFFFFFFFFFFFFFFFFFFFFFFFFFFFFFFFFFFFFFFFFFFFFFF00FF00FFFF00FF00FFFFFFFFFFFFFFFFFFFFFFFFFFFFFFFFFFFFFFFFFFFFFF
310
FF00FF00FFFFFF0000FFFFFFFFFFFFFFFFFFFFFFFFFFFFFFFFFFFFFFFFFFFFFFFF00FF00FFFFFF0000FFFFFFFFFFFFFFFFFFFFFFFFFFFFFFFFFFFFFFFFFFFFFFFF00FF00FFFFFF0000FFFFFFFFFFFFFFFFFFFFFFFFFFFFFFFFFFFFFFFFFFFFFFFF0000FFFFFFFF0000FFFFFFFFFFFFFFFFFFFFFFFFFFFFFFFFFFFFFFFFFFFF
310
FF00FF00FFFFFFFF00FF00FFFFFFFFFFFFFFFFFFFFFFFFFFFFFFFFFFFFFFFFFFFF00FF00FFFFFFFF00FF00FFFFFFFFFFFFFFFFFFFFFFFFFFFFFFFFFFFFFFFFFFFF00FF00FFFFFFFF00FF00FFFFFFFFFFFFFFFFFFFFFFFFFFFFFFFFFFFFFFFFFFFF00FF00FFFFFFFF00FF00FFFFFFFFFFFFFFFFFFFFFFFFFFFFFFFFFFFFFFFF
310
FFFF00FF00FFFFFFFFFF0000FFFFFFFFFFFFFFFFFFFFFFFFFFFFFFFFFFFFFFFFFFFF0000FFFFFFFFFFFF0000FFFFFFFFFFFFFFFFFFFFFFFFFFFFFFFFFFFFFFFFFF00FF00FFFFFFFFFFFF00FF00FFFFFFFFFFFFFFFFFFFFFFFFFFFFFFFFFFFFFFFF00FF00FFFFFFFFFFFF00FF00FFFFFFFFFFFFFFFFFFFFFFFFFFFFFFFFFFFF
310
FFFF000000FFFFFFFFFFFF000000FFFFFFFFFFFFFFFFFFFFFFFFFFFFFFFFFFFFFFFFFFFFFFFFFFFFFFFFFFFFFFFFFFFFFFFFFFFFFFFFFFFF
102
{BLKREFS
331
23FC
102
}
  0
BLOCK_RECORD
  5
23EA
330
2107
100
AcDbSymbolTableRecord
100
AcDbBlockTableRecord
  2
AI9-BLK1
340
0
310
2800000020000000200000000100080000000000000400000000000000000000000000000000000000000000000080000080000000808000800000008000800080800000C0C0C000C0DCC000F0CAA6000020400000206000002080000020A0000020C0000020E00000400000004020000040400000406000004080000040A0
310
000040C0000040E00000600000006020000060400000606000006080000060A0000060C0000060E00000800000008020000080400000806000008080000080A0000080C0000080E00000A0000000A0200000A0400000A0600000A0800000A0A00000A0C00000A0E00000C0000000C0200000C0400000C0600000C0800000C0
310
A00000C0C00000C0E00000E0000000E0200000E0400000E0600000E0800000E0A00000E0C00000E0E00040000000400020004000400040006000400080004000A0004000C0004000E00040200000402020004020400040206000402080004020A0004020C0004020E000404000004040200040404000404060004040800040
310
40A0004040C0004040E00040600000406020004060400040606000406080004060A0004060C0004060E00040800000408020004080400040806000408080004080A0004080C0004080E00040A0000040A0200040A0400040A0600040A0800040A0A00040A0C00040A0E00040C0000040C0200040C0400040C0600040C08000
310
40C0A00040C0C00040C0E00040E0000040E0200040E0400040E0600040E0800040E0A00040E0C00040E0E00080000000800020008000400080006000800080008000A0008000C0008000E00080200000802020008020400080206000802080008020A0008020C0008020E00080400000804020008040400080406000804080
310
008040A0008040C0008040E00080600000806020008060400080606000806080008060A0008060C0008060E00080800000808020008080400080806000808080008080A0008080C0008080E00080A0000080A0200080A0400080A0600080A0800080A0A00080A0C00080A0E00080C0000080C0200080C0400080C0600080C0
310
800080C0A00080C0C00080C0E00080E0000080E0200080E0400080E0600080E0800080E0A00080E0C00080E0E000C0000000C0002000C0004000C0006000C0008000C000A000C000C000C000E000C0200000C0202000C0204000C0206000C0208000C020A000C020C000C020E000C0400000C0402000C0404000C0406000C0
310
408000C040A000C040C000C040E000C0600000C0602000C0604000C0606000C0608000C060A000C060C000C060E000C0800000C0802000C0804000C0806000C0808000C080A000C080C000C080E000C0A00000C0A02000C0A04000C0A06000C0A08000C0A0A000C0A0C000C0A0E000C0C00000C0C02000C0C04000C0C06000
310
C0C08000C0C0A000F0FBFF00A4A0A000808080000000FF0000FF000000FFFF00FF000000FF00FF00FFFF0000FFFFFF00FFFFFFFFFFFFFFFFFFFFFFFFFFFFFFFFFFFFFFFFFFFFFFFFFFFFFFFFFFFFFFFFFFFFFFFFFFFFFFFFFFFFFF00000000000000000000FFFFFFFFFFFFFFFFFFFFFFFFFFFFFFFFFFFFFFFFFFFF00FFFFFF
310
FFFFFFFFFF00FFFFFFFFFFFFFFFFFFFFFFFFFFFFFFFFFFFFFFFFFFFF00FFFFFFFFFFFFFFFF00FFFFFFFFFFFFFFFFFFFFFFFFFFFFFFFFFFFFFFFFFFFF00FFFFFFFFFFFFFFFF00FFFFFFFFFFFFFFFFFFFFFFFFFFFFFFFFFFFFFFFFFFFF00FF0000000000000000FFFFFFFFFFFFFFFFFFFFFFFFFFFFFFFFFFFFFFFFFFFF00FF00
310
FFFFFFFFFFFFFFFFFFFFFFFFFFFFFFFFFFFFFFFFFFFFFFFFFFFFFFFFFF00FF00FFFFFFFFFFFFFFFFFFFFFFFFFFFFFFFFFFFFFFFFFFFFFFFFFFFFFFFFFF00FF00FFFFFFFFFFFFFFFFFFFFFFFFFFFFFFFFFFFFFFFFFFFFFFFFFFFFFFFFFF00FF00FFFFFFFFFFFFFFFFFFFFFFFFFFFFFFFFFFFFFFFFFFFFFFFFFFFFFFFFFF00FF
310
00FFFFFFFFFFFFFFFFFFFFFFFFFFFFFFFFFFFFFFFFFFFFFFFFFFFFFFFFFF00FF00FFFFFFFFFFFFFFFFFFFFFFFFFFFFFFFFFFFFFFFFFFFFFFFFFFFFFFFFFF00FF00FFFFFFFFFFFFFFFFFFFFFFFFFFFFFFFFFFFFFFFFFFFFFFFFFFFFFFFFFF00FF00FFFFFFFFFFFFFFFFFFFFFFFFFFFFFFFFFFFFFFFFFFFFFFFFFFFFFFFFFF00
310
FF00000000000000FFFFFFFFFFFFFFFFFFFFFFFFFFFFFFFFFFFFFFFFFFFFFF00FFFFFFFFFFFFFF00FFFFFFFFFFFFFFFFFFFFFFFFFFFFFFFFFFFFFFFFFFFFFF00FFFFFFFFFFFFFF00FFFFFFFFFFFFFFFFFFFFFFFFFFFFFFFFFFFFFFFFFFFFFF00FFFFFFFFFFFFFF00FFFFFFFFFFFFFFFFFFFFFFFFFFFFFFFFFFFFFFFFFFFFFF
310
00FF00000000000000FFFFFFFFFFFFFFFFFFFFFFFFFFFFFFFFFFFFFFFFFFFFFF00FF00FFFFFFFFFFFFFFFFFFFFFFFFFFFFFFFFFFFFFFFFFFFFFFFFFFFFFFFFFF00FF00FFFFFFFFFFFFFFFFFFFFFFFFFFFFFFFFFFFFFFFFFFFFFFFFFFFFFFFFFF00FF00FFFFFFFFFFFFFFFFFFFFFFFFFFFFFFFFFFFFFFFFFFFFFFFFFFFFFFFF
310
FF00FF00FFFFFFFFFFFFFFFFFFFFFFFFFFFFFFFFFFFFFFFFFFFFFFFFFFFFFFFFFF00FF00FFFFFFFFFFFFFFFFFFFFFFFFFFFFFFFFFFFFFFFFFFFFFFFFFFFFFFFFFF00FF00FFFFFFFFFFFFFFFFFFFFFFFFFFFFFFFFFFFFFFFFFFFFFFFFFFFFFFFFFF00FF00FFFFFFFFFFFFFFFFFFFFFFFFFFFFFFFFFFFFFFFFFFFFFFFFFFFFFF
310
FFFF00FF0000000000000000FFFFFFFFFFFFFFFFFFFFFFFFFFFFFFFFFFFFFFFFFFFF00FFFFFFFFFFFFFFFF00FFFFFFFFFFFFFFFFFFFFFFFFFFFFFFFFFFFFFFFFFFFF00FFFFFFFFFFFFFFFF00FFFFFFFFFFFFFFFFFFFFFFFFFFFFFFFFFFFFFFFFFFFF00FFFFFFFFFFFFFFFF00FFFFFFFFFFFFFFFFFFFFFFFFFFFFFFFFFFFFFF
310
FFFFFF00000000000000000000FFFFFFFFFFFFFFFFFFFFFFFFFFFFFFFFFFFFFFFFFFFFFFFFFFFFFFFFFFFFFFFFFFFFFFFFFFFFFFFFFFFFFF
102
{BLKREFS
331
23FD
102
}
  0
BLOCK_RECORD
  5
23EF
330
2107
100
AcDbSymbolTableRecord
100
AcDbBlockTableRecord
  2
HD_LLC_logo_OT5
340
0
310
2800000020000000200000000100080000000000000400000000000000000000000000000000000000000000000080000080000000808000800000008000800080800000C0C0C000C0DCC000F0CAA6000020400000206000002080000020A0000020C0000020E00000400000004020000040400000406000004080000040A0
310
000040C0000040E00000600000006020000060400000606000006080000060A0000060C0000060E00000800000008020000080400000806000008080000080A0000080C0000080E00000A0000000A0200000A0400000A0600000A0800000A0A00000A0C00000A0E00000C0000000C0200000C0400000C0600000C0800000C0
310
A00000C0C00000C0E00000E0000000E0200000E0400000E0600000E0800000E0A00000E0C00000E0E00040000000400020004000400040006000400080004000A0004000C0004000E00040200000402020004020400040206000402080004020A0004020C0004020E000404000004040200040404000404060004040800040
310
40A0004040C0004040E00040600000406020004060400040606000406080004060A0004060C0004060E00040800000408020004080400040806000408080004080A0004080C0004080E00040A0000040A0200040A0400040A0600040A0800040A0A00040A0C00040A0E00040C0000040C0200040C0400040C0600040C08000
310
40C0A00040C0C00040C0E00040E0000040E0200040E0400040E0600040E0800040E0A00040E0C00040E0E00080000000800020008000400080006000800080008000A0008000C0008000E00080200000802020008020400080206000802080008020A0008020C0008020E00080400000804020008040400080406000804080
310
008040A0008040C0008040E00080600000806020008060400080606000806080008060A0008060C0008060E00080800000808020008080400080806000808080008080A0008080C0008080E00080A0000080A0200080A0400080A0600080A0800080A0A00080A0C00080A0E00080C0000080C0200080C0400080C0600080C0
310
800080C0A00080C0C00080C0E00080E0000080E0200080E0400080E0600080E0800080E0A00080E0C00080E0E000C0000000C0002000C0004000C0006000C0008000C000A000C000C000C000E000C0200000C0202000C0204000C0206000C0208000C020A000C020C000C020E000C0400000C0402000C0404000C0406000C0
310
408000C040A000C040C000C040E000C0600000C0602000C0604000C0606000C0608000C060A000C060C000C060E000C0800000C0802000C0804000C0806000C0808000C080A000C080C000C080E000C0A00000C0A02000C0A04000C0A06000C0A08000C0A0A000C0A0C000C0A0E000C0C00000C0C02000C0C04000C0C06000
310
C0C08000C0C0A000F0FBFF00A4A0A000808080000000FF0000FF000000FFFF00FF000000FF00FF00FFFF0000FFFFFF00FFFFFFFFFFFFFFFFFFFFFFFFFFFFFFFFFFFFFFFFFFFFFFFFFFFFFFFFFFFFFFFFFFFFFFFFFFFFFFFFFFFFFFFFFFFFFFFFFFFFFFFFFFFFFFFFFFFFFFFFFFFFFFFFFFFFFFFFFFFFFFFFFFFFFFFFFFFFFF
310
FFFFFFFFFFFFFFFFFFFFFFFFFFFFFFFFFFFFFFFFFFFFFFFFFFFFFFFFFFFFFFFFFFFFFFFFFFFFFFFFFFFFFFFFFFFFFFFFFFFFFFFFFFFFFFFFFFFFFFFFFFFFFFFFFFFFFFFFFFFFFFFFFFFFFFFFFFFFFFFFFFFFFFFFFFFFFFFFFFFFFFFFFFFFFFFFFFFFFFFFFFFFFFFFFFFFFFFFFFFFFFFFFFFFFFFFFFFFFFFFFFFFFFFFFFFFFF
310
FFFFFFFFFFFFFFFFFFFFFFFFFFFFFFFFFFFFFFFFFFFFFFFFFFFFFFFFFFFFFFFFFFFFFFFFFFFFFFFFFFFFFFFFFFFFFFFFFFFFFFFFFFFFFFFFFFFFFFFFFFFFFFFFFFFFFFFFFFFFFFFFFFFFFFFFFFFFFFFFFFFFFFFFFFFFFFFFFFFFFFFFFFFFFFFFFFFFFFFFFFFFFFFFFFFFFFFFFFFFFFFFFFFFFFFFFFFFFFFFFFFFFFFFFFFFFF
310
FFFFFFFFFFFFFFFFFFFFFFFFFFFFFFFFFFFFFFFFFFFFFFFFFFFFFFFFFFFFFFFFFFFFFFFFFFFFFFFFFFFFFFFFFFFFFFFFFFFFFFFF0000000000000000000000000000000000000000000000000000000000FFFFFF0000000000000000000000000000000000FFFFFFFFFFFFFFFFFFFF0000FFFFFF0000000000000000000000
310
00000000000000FFFFFFFFFFFFFFFFFFFF0000FFFF000000000000000000000000000000000000FFFFFF00000000FFFFFF0000FFFF00FFFFFFFFFFFF00FFFFFF00FFFFFFFFFF00FFFFFF0000000000FFFF0000FFFF00FFFFFFFFFFFF00FFFFFF00FFFFFFFFFF00FFFFFF00FFFF0000FFFF0000FFFF00FFFFFFFFFFFF00FFFF
310
00FFFFFFFFFFFF00FFFFFF00FFFF0000FFFF0000FFFF0000000000FFFF00000000FFFFFF00000000FFFFFF00000000FFFFFF0000FFFFFFFFFFFF00FFFFFFFFFFFFFFFFFF00FFFFFFFFFFFFFFFFFFFFFFFFFF0000FFFFFFFFFFFF00FFFFFFFFFFFFFFFFFF00FFFFFFFFFFFFFFFFFFFFFFFFFF0000FFFFFFFFFFFF00FFFFFFFF
310
FFFFFFFFFF00FFFFFFFFFFFFFFFFFFFFFFFF0000FFFFFF0000000000FFFF00000000FFFFFF0000000000000000000000000000FFFFFFFF00FFFFFFFFFFFF00FFFF00FFFFFFFFFFFF00FFFFFFFFFFFFFFFFFFFFFFFFFFFF00FFFFFFFFFFFF00FFFFFF00FFFFFFFFFF00FFFFFFFFFFFFFFFFFFFFFFFFFFFF0000000000000000
310
FFFFFF00000000000000FFFFFFFFFFFFFFFFFFFFFFFFFFFFFFFFFFFFFFFFFFFFFFFFFFFFFFFFFFFFFFFFFFFFFFFFFFFFFFFFFFFFFFFFFFFFFFFFFFFFFFFFFFFFFFFFFFFFFFFFFFFFFFFFFFFFFFFFFFFFFFFFFFFFFFFFFFFFFFFFFFFFFFFFFFFFFFFFFFFFFFFFFFFFFFFFFFFFFFFFFFFFFFFFFFFFFFFFFFFFFFFFFFFFFFFFFF
310
FFFFFFFFFFFFFFFFFFFFFFFFFFFFFFFFFFFFFFFFFFFFFFFFFFFFFFFFFFFFFFFFFFFFFFFFFFFFFFFFFFFFFFFFFFFFFFFFFFFFFFFFFFFFFFFF
102
{BLKREFS
331
2415
102
}
  0
BLOCK_RECORD
  5
2414
330
2107
100
AcDbSymbolTableRecord
100
AcDbBlockTableRecord
  2
HD logo-new
340
0
310
2800000020000000200000000100080000000000000400000000000000000000000000000000000000000000000080000080000000808000800000008000800080800000C0C0C000C0DCC000F0CAA6000020400000206000002080000020A0000020C0000020E00000400000004020000040400000406000004080000040A0
310
000040C0000040E00000600000006020000060400000606000006080000060A0000060C0000060E00000800000008020000080400000806000008080000080A0000080C0000080E00000A0000000A0200000A0400000A0600000A0800000A0A00000A0C00000A0E00000C0000000C0200000C0400000C0600000C0800000C0
310
A00000C0C00000C0E00000E0000000E0200000E0400000E0600000E0800000E0A00000E0C00000E0E00040000000400020004000400040006000400080004000A0004000C0004000E00040200000402020004020400040206000402080004020A0004020C0004020E000404000004040200040404000404060004040800040
310
40A0004040C0004040E00040600000406020004060400040606000406080004060A0004060C0004060E00040800000408020004080400040806000408080004080A0004080C0004080E00040A0000040A0200040A0400040A0600040A0800040A0A00040A0C00040A0E00040C0000040C0200040C0400040C0600040C08000
310
40C0A00040C0C00040C0E00040E0000040E0200040E0400040E0600040E0800040E0A00040E0C00040E0E00080000000800020008000400080006000800080008000A0008000C0008000E00080200000802020008020400080206000802080008020A0008020C0008020E00080400000804020008040400080406000804080
310
008040A0008040C0008040E00080600000806020008060400080606000806080008060A0008060C0008060E00080800000808020008080400080806000808080008080A0008080C0008080E00080A0000080A0200080A0400080A0600080A0800080A0A00080A0C00080A0E00080C0000080C0200080C0400080C0600080C0
310
800080C0A00080C0C00080C0E00080E0000080E0200080E0400080E0600080E0800080E0A00080E0C00080E0E000C0000000C0002000C0004000C0006000C0008000C000A000C000C000C000E000C0200000C0202000C0204000C0206000C0208000C020A000C020C000C020E000C0400000C0402000C0404000C0406000C0
310
408000C040A000C040C000C040E000C0600000C0602000C0604000C0606000C0608000C060A000C060C000C060E000C0800000C0802000C0804000C0806000C0808000C080A000C080C000C080E000C0A00000C0A02000C0A04000C0A06000C0A08000C0A0A000C0A0C000C0A0E000C0C00000C0C02000C0C04000C0C06000
310
C0C08000C0C0A000F0FBFF00A4A0A000808080000000FF0000FF000000FFFF00FF000000FF00FF00FFFF0000FFFFFF00FFFFFFFFFFFFFFFFFFFFFFFFFFFFFFFFFFFFFFFFFFFFFFFFFFFFFFFFFFFFFFFFFFFFFFFFFFFFFFFFFFFFFFFFFFFFFFFFFFFFFFFFFFFFFFFFFFFFFFFFFFFFFFFFFFFFFFFFFFFFFFFFFFFFFFFFFFFFFF
310
FFFFFFFFFFFFFFFFFFFFFFFFFFFFFFFFFFFFFFFFFFFFFFFFFFFFFFFFFFFFFFFFFFFFFFFFFFFFFFFFFFFFFFFFFFFFFFFFFFFFFFFFFFFFFFFFFFFFFFFFFFFFFFFFFFFFFFFFFFFFFFFFFFFFFFFFFFFFFFFFFFFFFFFFFFFFFFFFFFFFFFFFFFFFFFFFFFFFFFFFFFFFFFFFFFFFFFFFFFFFFFFFFFFFFFFFFFFFFFFFFFFFFFFFFFFFFF
310
FFFFFFFFFFFFFFFFFFFFFFFFFFFFFFFFFFFFFFFFFFFFFFFFFFFFFFFFFFFFFFFFFFFFFFFFFFFFFFFFFFFFFFFFFFFFFFFFFFFFFFFFFFFFFFFFFFFFFFFFFFFFFFFFFFFFFFFFFFFFFFFFFFFFFFFFFFFFFFFFFFFFFFFFFFFFFFFFFFFFFFFFFFFFFFFFFFFFFFFFFFFFFFFFFFFFFFFFFFFFFFFFFFFFFFFFFFFFFFFFFFFFFFFFFFFFFF
310
FFFFFFFFFFFFFFFFFFFFFFFFFFFFFFFFFFFFFFFFFFFFFFFFFFFFFFFFFFFFFFFFFFFFFFFFFFFFFFFFFFFFFFFFFFFFFFFFFFFFFFFF0000000000000000000000000000000000000000000000000000000000FFFFFF0000000000000000000000000000000000FFFFFFFFFFFFFFFFFFFF0000FFFFFF0000000000000000000000
310
00000000000000FFFFFFFFFFFFFFFFFFFF0000FFFF000000000000000000000000000000000000FFFFFF00000000FFFFFF0000FFFF00FFFFFFFFFFFF00FFFFFF00FFFFFFFFFF00FFFFFF0000000000FFFF0000FFFF00FFFFFFFFFFFF00FFFFFF00FFFFFFFFFF00FFFFFF00FFFF0000FFFF0000FFFF00FFFFFFFFFFFF00FFFF
310
00FFFFFFFFFFFF00FFFFFF00FFFF0000FFFF0000FFFF0000000000FFFF00000000FFFFFF00000000FFFFFF00000000FFFFFF0000FFFFFFFFFFFF00FFFFFFFFFFFFFFFFFF00FFFFFFFFFFFFFFFFFFFFFFFFFF0000FFFFFFFFFFFF00FFFFFFFFFFFFFFFFFF00FFFFFFFFFFFFFFFFFFFFFFFFFF0000FFFFFFFFFFFF00FFFFFFFF
310
FFFFFFFFFF00FFFFFFFFFFFFFFFFFFFFFFFF0000FFFFFF0000000000FFFF00000000FFFFFF0000000000000000000000000000FFFFFFFF00FFFFFFFFFFFF00FFFF00FFFFFFFFFFFF00FFFFFFFFFFFFFFFFFFFFFFFFFFFF00FFFFFFFFFFFF00FFFFFF00FFFFFFFFFF00FFFFFFFFFFFFFFFFFFFFFFFFFFFF0000000000000000
310
FFFFFF00000000000000FFFFFFFFFFFFFFFFFFFFFFFFFFFFFFFFFFFFFFFFFFFFFFFFFFFFFFFFFFFFFFFFFFFFFFFFFFFFFFFFFFFFFFFFFFFFFFFFFFFFFFFFFFFFFFFFFFFFFFFFFFFFFFFFFFFFFFFFFFFFFFFFFFFFFFFFFFFFFFFFFFFFFFFFFFFFFFFFFFFFFFFFFFFFFFFFFFFFFFFFFFFFFFFFFFFFFFFFFFFFFFFFFFFFFFFFFF
310
FFFFFFFFFFFFFFFFFFFFFFFFFFFFFFFFFFFFFFFFFFFFFFFFFFFFFFFFFFFFFFFFFFFFFFFFFFFFFFFFFFFFFFFFFFFFFFFFFFFFFFFFFFFFFFFF
102
{BLKREFS
331
2419
331
28FA
331
28FE
102
}
  0
BLOCK_RECORD
  5
2418
330
2107
100
AcDbSymbolTableRecord
100
AcDbBlockTableRecord
  2
HD Logo
340
0
310
2800000020000000200000000100080000000000000400000000000000000000000000000000000000000000000080000080000000808000800000008000800080800000C0C0C000C0DCC000F0CAA6000020400000206000002080000020A0000020C0000020E00000400000004020000040400000406000004080000040A0
310
000040C0000040E00000600000006020000060400000606000006080000060A0000060C0000060E00000800000008020000080400000806000008080000080A0000080C0000080E00000A0000000A0200000A0400000A0600000A0800000A0A00000A0C00000A0E00000C0000000C0200000C0400000C0600000C0800000C0
310
A00000C0C00000C0E00000E0000000E0200000E0400000E0600000E0800000E0A00000E0C00000E0E00040000000400020004000400040006000400080004000A0004000C0004000E00040200000402020004020400040206000402080004020A0004020C0004020E000404000004040200040404000404060004040800040
310
40A0004040C0004040E00040600000406020004060400040606000406080004060A0004060C0004060E00040800000408020004080400040806000408080004080A0004080C0004080E00040A0000040A0200040A0400040A0600040A0800040A0A00040A0C00040A0E00040C0000040C0200040C0400040C0600040C08000
310
40C0A00040C0C00040C0E00040E0000040E0200040E0400040E0600040E0800040E0A00040E0C00040E0E00080000000800020008000400080006000800080008000A0008000C0008000E00080200000802020008020400080206000802080008020A0008020C0008020E00080400000804020008040400080406000804080
310
008040A0008040C0008040E00080600000806020008060400080606000806080008060A0008060C0008060E00080800000808020008080400080806000808080008080A0008080C0008080E00080A0000080A0200080A0400080A0600080A0800080A0A00080A0C00080A0E00080C0000080C0200080C0400080C0600080C0
310
800080C0A00080C0C00080C0E00080E0000080E0200080E0400080E0600080E0800080E0A00080E0C00080E0E000C0000000C0002000C0004000C0006000C0008000C000A000C000C000C000E000C0200000C0202000C0204000C0206000C0208000C020A000C020C000C020E000C0400000C0402000C0404000C0406000C0
310
408000C040A000C040C000C040E000C0600000C0602000C0604000C0606000C0608000C060A000C060C000C060E000C0800000C0802000C0804000C0806000C0808000C080A000C080C000C080E000C0A00000C0A02000C0A04000C0A06000C0A08000C0A0A000C0A0C000C0A0E000C0C00000C0C02000C0C04000C0C06000
310
C0C08000C0C0A000F0FBFF00A4A0A000808080000000FF0000FF000000FFFF00FF000000FF00FF00FFFF0000FFFFFF00FFFFFFFFFFFFFFFFFFFFFFFFFFFFFFFFFFFFFFFFFFFFFFFFFFFFFFFFFFFFFFFFFFFFFFFFFFFFFFFFFFFFFFFFFFFFFFFFFFFFFFFFFFFFFFFFFFFFFFFFFFFFFFFFFFFFFFFFFFFFFFFFFFFFFFFFFFFFFF
310
FFFFFFFFFFFFFFFFFFFFFFFFFFFFFFFFFFFFFFFFFFFFFFFFFFFFFFFFFFFFFFFFFFFFFFFFFFFFFFFFFFFFFFFFFFFFFFFFFFFFFFFFFFFFFFFFFFFFFFFFFFFFFFFFFFFFFFFFFFFFFFFFFFFFFFFFFFFFFFFFFFFFFFFFFFFFFFFFFFFFFFFFFFFFFFFFFFFFFFFFFFFFFFFFFFFFFFFFFFFFFFFFFFFFFFFFFFFFFFFFFFFFFFFFFFFFFF
310
FFFFFFFFFFFFFFFFFFFFFFFFFFFFFFFFFFFFFFFFFFFFFFFFFFFFFFFFFFFFFFFFFFFFFFFFFFFFFFFFFFFFFFFFFFFFFFFFFFFFFFFFFFFFFFFFFFFFFFFFFFFFFFFFFFFFFFFFFFFFFFFFFFFFFFFFFFFFFFFFFFFFFFFFFFFFFFFFFFFFFFFFFFFFFFFFFFFFFFFFFFFFFFFFFFFFFFFFFFFFFFFFFFFFFFFFFFFFFFFFFFFFFFFFFFFFFF
310
FFFFFFFFFFFFFFFFFFFFFFFFFFFFFFFFFFFFFFFFFFFFFFFFFFFFFFFFFFFFFFFFFFFFFFFFFFFFFFFFFFFFFFFFFFFFFFFFFFFFFFFF0000000000000000000000000000000000000000000000000000000000FFFFFF0000000000000000000000000000000000FFFFFFFFFFFFFFFFFFFF0000FFFFFF0000000000000000000000
310
00000000000000FFFFFFFFFFFFFFFFFFFF0000FFFF000000000000000000000000000000000000FFFFFF00000000FFFFFF0000FFFF00FFFFFFFFFFFF00FFFFFF00FFFFFFFFFF00FFFFFF0000000000FFFF0000FFFF00FFFFFFFFFFFF00FFFFFF00FFFFFFFFFF00FFFFFF00FFFF0000FFFF0000FFFF00FFFFFFFFFFFF00FFFF
310
00FFFFFFFFFFFF00FFFFFF00FFFF0000FFFF0000FFFF0000000000FFFF00000000FFFFFF00000000FFFFFF00000000FFFFFF0000FFFFFFFFFFFF00FFFFFFFFFFFFFFFFFF00FFFFFFFFFFFFFFFFFFFFFFFFFF0000FFFFFFFFFFFF00FFFFFFFFFFFFFFFFFF00FFFFFFFFFFFFFFFFFFFFFFFFFF0000FFFFFFFFFFFF00FFFFFFFF
310
FFFFFFFFFF00FFFFFFFFFFFFFFFFFFFFFFFF0000FFFFFF0000000000FFFF00000000FFFFFF0000000000000000000000000000FFFFFFFF00FFFFFFFFFFFF00FFFF00FFFFFFFFFFFF00FFFFFFFFFFFFFFFFFFFFFFFFFFFF00FFFFFFFFFFFF00FFFFFF00FFFFFFFFFF00FFFFFFFFFFFFFFFFFFFFFFFFFFFF0000000000000000
310
FFFFFF00000000000000FFFFFFFFFFFFFFFFFFFFFFFFFFFFFFFFFFFFFFFFFFFFFFFFFFFFFFFFFFFFFFFFFFFFFFFFFFFFFFFFFFFFFFFFFFFFFFFFFFFFFFFFFFFFFFFFFFFFFFFFFFFFFFFFFFFFFFFFFFFFFFFFFFFFFFFFFFFFFFFFFFFFFFFFFFFFFFFFFFFFFFFFFFFFFFFFFFFFFFFFFFFFFFFFFFFFFFFFFFFFFFFFFFFFFFFFFF
310
FFFFFFFFFFFFFFFFFFFFFFFFFFFFFFFFFFFFFFFFFFFFFFFFFFFFFFFFFFFFFFFFFFFFFFFFFFFFFFFFFFFFFFFFFFFFFFFFFFFFFFFFFFFFFFFF
102
{BLKREFS
331
241F
331
2423
102
}
  0
BLOCK_RECORD
  5
2424
330
2107
100
AcDbSymbolTableRecord
100
AcDbBlockTableRecord
  2
Harmonic Drive LLC
340
0
310
2800000020000000200000000100080000000000000400000000000000000000000000000000000000000000000080000080000000808000800000008000800080800000C0C0C000C0DCC000F0CAA6000020400000206000002080000020A0000020C0000020E00000400000004020000040400000406000004080000040A0
310
000040C0000040E00000600000006020000060400000606000006080000060A0000060C0000060E00000800000008020000080400000806000008080000080A0000080C0000080E00000A0000000A0200000A0400000A0600000A0800000A0A00000A0C00000A0E00000C0000000C0200000C0400000C0600000C0800000C0
310
A00000C0C00000C0E00000E0000000E0200000E0400000E0600000E0800000E0A00000E0C00000E0E00040000000400020004000400040006000400080004000A0004000C0004000E00040200000402020004020400040206000402080004020A0004020C0004020E000404000004040200040404000404060004040800040
310
40A0004040C0004040E00040600000406020004060400040606000406080004060A0004060C0004060E00040800000408020004080400040806000408080004080A0004080C0004080E00040A0000040A0200040A0400040A0600040A0800040A0A00040A0C00040A0E00040C0000040C0200040C0400040C0600040C08000
310
40C0A00040C0C00040C0E00040E0000040E0200040E0400040E0600040E0800040E0A00040E0C00040E0E00080000000800020008000400080006000800080008000A0008000C0008000E00080200000802020008020400080206000802080008020A0008020C0008020E00080400000804020008040400080406000804080
310
008040A0008040C0008040E00080600000806020008060400080606000806080008060A0008060C0008060E00080800000808020008080400080806000808080008080A0008080C0008080E00080A0000080A0200080A0400080A0600080A0800080A0A00080A0C00080A0E00080C0000080C0200080C0400080C0600080C0
310
800080C0A00080C0C00080C0E00080E0000080E0200080E0400080E0600080E0800080E0A00080E0C00080E0E000C0000000C0002000C0004000C0006000C0008000C000A000C000C000C000E000C0200000C0202000C0204000C0206000C0208000C020A000C020C000C020E000C0400000C0402000C0404000C0406000C0
310
408000C040A000C040C000C040E000C0600000C0602000C0604000C0606000C0608000C060A000C060C000C060E000C0800000C0802000C0804000C0806000C0808000C080A000C080C000C080E000C0A00000C0A02000C0A04000C0A06000C0A08000C0A0A000C0A0C000C0A0E000C0C00000C0C02000C0C04000C0C06000
310
C0C08000C0C0A000F0FBFF00A4A0A000808080000000FF0000FF000000FFFF00FF000000FF00FF00FFFF0000FFFFFF00FFFFFFFFFFFFFFFFFFFFFFFFFFFFFFFFFFFFFFFFFFFFFFFFFFFFFFFFFFFFFFFFFFFFFFFFFFFFFFFFFFFFFFFFFFFFFFFFFFFFFFFFFFFFFFFFFFFFFFFFFFFFFFFFFFFFFFFFFFFFFFFFFFFFFFFFFFFFFF
310
FFFFFFFFFFFFFFFFFFFFFFFFFFFFFFFFFFFFFFFFFFFFFFFFFFFFFFFFFFFFFFFFFFFFFFFFFFFFFFFFFFFFFFFFFFFFFFFFFFFFFFFFFFFFFFFFFFFFFFFFFFFFFFFFFFFFFFFFFFFFFFFFFFFFFFFFFFFFFFFFFFFFFFFFFFFFFFFFFFFFFFFFFFFFFFFFFFFFFFFFFFFFFFFFFFFFFFFFFFFFFFFFFFFFFFFFFFFFFFFFFFFFFFFFFFFFFF
310
FFFFFFFFFFFFFFFFFFFFFFFFFFFFFFFFFFFFFFFFFFFFFFFFFFFFFFFFFFFFFFFFFFFFFFFFFFFFFFFFFFFFFFFFFFFFFFFFFFFFFFFFFFFFFFFFFFFFFFFFFFFFFFFFFFFFFFFFFFFFFFFFFFFFFFFFFFFFFFFFFFFFFFFFFFFFFFFFFFFFFFFFFFFFFFFFFFFFFFFFFFFFFFFFFFFFFFFFFFFFFFFFFFFFFFFFFFFFFFFFFFFFFFFFFFFFFF
310
FFFFFFFFFFFFFFFFFFFFFFFFFFFFFFFFFFFFFFFFFFFFFFFFFFFFFFFFFFFFFFFFFFFFFFFFFFFFFFFFFFFFFFFFFFFFFFFFFFFFFFFFFFFFFFFFFFFFFFFFFFFFFFFFFFFFFFFFFFFFFFFFFFFFFFFFFFFFFFFFFFFFFFFFFFFFFFFFFFFFFFFF0000000000000000000000000000FFFFFFFFFFFFFFFFFFFFFFFFFFFFFFFFFFFF000000
310
0000000000000000000000FFFFFFFFFFFFFFFFFFFFFFFFFFFFFFFFFFFFFFFFFF000000000000000000FFFFFFFFFFFFFFFFFFFFFFFFFFFFFFFFFFFFFFFFFFFFFF000000000000000000FFFFFFFFFFFFFFFFFFFFFFFFFFFFFFFFFFFFFFFFFF000000000000000000000000FFFFFFFFFFFFFFFFFFFFFFFFFFFFFFFFFFFFFFFF00
310
FFFFFF00FF0000FF000000FFFFFFFFFFFFFFFFFFFFFFFFFFFFFFFFFFFFFFFFFFFFFFFFFFFFFFFFFFFFFFFFFFFFFFFFFFFFFFFFFFFFFFFFFFFFFFFFFFFFFFFFFFFFFFFFFFFFFFFFFFFFFFFFFFFFFFFFFFFFFFFFFFFFFFFFFFFFFFFFFFFFFFFFFFFFFFFFFFFFFFFFFFFFFFFFFFFFFFFFFFFFFFFFFFFFFFFFFFFFFFFFFFFFFFFF
310
FFFFFFFFFFFFFFFFFFFFFFFFFFFFFFFFFFFFFFFFFFFFFFFFFFFFFFFFFFFFFFFFFFFFFFFFFFFFFFFFFFFFFFFFFFFFFFFFFFFFFFFFFFFFFFFFFFFFFFFFFFFFFFFFFFFFFFFFFFFFFFFFFFFFFFFFFFFFFFFFFFFFFFFFFFFFFFFFFFFFFFFFFFFFFFFFFFFFFFFFFFFFFFFFFFFFFFFFFFFFFFFFFFFFFFFFFFFFFFFFFFFFFFFFFFFFFF
310
FFFFFFFFFFFFFFFFFFFFFFFFFFFFFFFFFFFFFFFFFFFFFFFFFFFFFFFFFFFFFFFFFFFFFFFFFFFFFFFFFFFFFFFFFFFFFFFFFFFFFFFFFFFFFFFFFFFFFFFFFFFFFFFFFFFFFFFFFFFFFFFFFFFFFFFFFFFFFFFFFFFFFFFFFFFFFFFFFFFFFFFFFFFFFFFFFFFFFFFFFFFFFFFFFFFFFFFFFFFFFFFFFFFFFFFFFFFFFFFFFFFFFFFFFFFFFF
310
FFFFFFFFFFFFFFFFFFFFFFFFFFFFFFFFFFFFFFFFFFFFFFFFFFFFFFFFFFFFFFFFFFFFFFFFFFFFFFFFFFFFFFFFFFFFFFFFFFFFFFFFFFFFFFFF
102
{BLKREFS
331
2429
331
242E
102
}
  0
BLOCK_RECORD
  5
28EF
330
2107
100
AcDbSymbolTableRecord
100
AcDbBlockTableRecord
  2
HD LLC
340
0
310
2800000020000000200000000100080000000000000400000000000000000000000000000000000000000000000080000080000000808000800000008000800080800000C0C0C000C0DCC000F0CAA6000020400000206000002080000020A0000020C0000020E00000400000004020000040400000406000004080000040A0
310
000040C0000040E00000600000006020000060400000606000006080000060A0000060C0000060E00000800000008020000080400000806000008080000080A0000080C0000080E00000A0000000A0200000A0400000A0600000A0800000A0A00000A0C00000A0E00000C0000000C0200000C0400000C0600000C0800000C0
310
A00000C0C00000C0E00000E0000000E0200000E0400000E0600000E0800000E0A00000E0C00000E0E00040000000400020004000400040006000400080004000A0004000C0004000E00040200000402020004020400040206000402080004020A0004020C0004020E000404000004040200040404000404060004040800040
310
40A0004040C0004040E00040600000406020004060400040606000406080004060A0004060C0004060E00040800000408020004080400040806000408080004080A0004080C0004080E00040A0000040A0200040A0400040A0600040A0800040A0A00040A0C00040A0E00040C0000040C0200040C0400040C0600040C08000
310
40C0A00040C0C00040C0E00040E0000040E0200040E0400040E0600040E0800040E0A00040E0C00040E0E00080000000800020008000400080006000800080008000A0008000C0008000E00080200000802020008020400080206000802080008020A0008020C0008020E00080400000804020008040400080406000804080
310
008040A0008040C0008040E00080600000806020008060400080606000806080008060A0008060C0008060E00080800000808020008080400080806000808080008080A0008080C0008080E00080A0000080A0200080A0400080A0600080A0800080A0A00080A0C00080A0E00080C0000080C0200080C0400080C0600080C0
310
800080C0A00080C0C00080C0E00080E0000080E0200080E0400080E0600080E0800080E0A00080E0C00080E0E000C0000000C0002000C0004000C0006000C0008000C000A000C000C000C000E000C0200000C0202000C0204000C0206000C0208000C020A000C020C000C020E000C0400000C0402000C0404000C0406000C0
310
408000C040A000C040C000C040E000C0600000C0602000C0604000C0606000C0608000C060A000C060C000C060E000C0800000C0802000C0804000C0806000C0808000C080A000C080C000C080E000C0A00000C0A02000C0A04000C0A06000C0A08000C0A0A000C0A0C000C0A0E000C0C00000C0C02000C0C04000C0C06000
310
C0C08000C0C0A000F0FBFF00A4A0A000808080000000FF0000FF000000FFFF00FF000000FF00FF00FFFF0000FFFFFF00FFFFFFFFFFFFFFFFFFFFFFFFFFFFFFFFFFFFFFFFFFFFFFFFFFFFFFFFFFFFFFFFFFFFFFFFFFFFFFFFFFFFFFFFFFFFFFFFFFFFFFFFFFFFFFFFFFFFFFFFFFFFFFFFFFFFFFFFFFFFFFFFFFFFFFFFFFFFFF
310
FFFFFFFFFFFFFFFFFFFFFFFFFFFFFFFFFFFFFFFFFFFFFFFFFFFFFFFFFFFFFFFFFFFFFFFFFFFFFFFFFFFFFFFFFFFFFFFFFFFFFFFFFFFFFFFFFFFFFFFFFFFFFFFFFFFFFFFFFFFFFFFFFFFFFFFFFFFFFFFFFFFFFFFFFFFFFFFFFFFFFFFFFFFFFFFFFFFFFFFFFFFFFFFFFFFFFFFFFFFFFFFFFFFFFFFFFFFFFFFFFFFFFFFFFFFFFF
310
FFFFFFFFFFFFFFFFFFFFFFFFFFFFFFFFFFFFFFFFFFFFFFFFFFFFFFFFFFFFFFFFFFFFFFFFFFFFFFFFFFFFFFFFFFFFFFFFFFFFFFFFFFFFFFFFFFFFFFFFFFFFFFFFFFFFFFFFFFFFFFFFFFFFFFFFFFFFFFFFFFFFFFFFFFFFFFFFFFFFFFFFFFFFFFFFFFFFFFFFFFFFFFFFFFFFFFFFFFFFFFFFFFFFFFFFFFFFFFFFFFFFFFFFFFFFFF
310
FFFFFFFFFFFFFFFFFFFFFFFFFFFFFFFFFFFFFFFFFFFFFFFFFFFFFFFFFFFFFFFFFFFFFFFFFFFFFFFFFFFFFFFFFFFFFFFFFFFFFFFFFFFFFFFFFFFFFFFFFFFFFFFFFFFFFFFFFFFFFFFFFFFFFFFFFFFFFFFFFFFFFFFFFFFFFFFFFFFFFFFFFFFFFFFFFFFFFFFFFFFFFFFFFFFFFFFFFFFFFFFFFFFFFFFFFFFFFFFFFFFFFFFFFFFF00
310
000000000000000000FFFFFFFFFFFFFFFFFFFFFFFFFFFFFFFFFFFFFFFFFFFF00000000000000000000FFFFFFFFFFFFFFFFFFFFFFFFFFFFFFFFFFFFFFFFFFFF00000000000000000000FFFFFFFFFFFFFFFFFFFFFFFFFFFFFFFFFFFFFFFFFFFF00000000000000000000FFFFFFFFFFFFFFFFFFFFFFFFFFFFFFFFFFFFFFFFFFFF
310
FFFFFFFFFFFFFFFFFFFFFFFFFFFFFFFFFFFFFFFFFFFFFFFFFFFFFFFFFFFFFFFFFFFFFFFFFFFFFFFFFFFFFFFFFFFFFFFFFFFFFFFFFFFFFFFFFFFFFFFFFFFFFFFFFFFFFFFFFFFFFFFFFFFFFFFFFFFFFFFFFFFFFFFFFFFFFFFFFFFFFFFFFFFFFFFFFFFFFFFFFFFFFFFFFFFFFFFFFFFFFFFFFFFFFFFFFFFFFFFFFFFFFFFFFFFFFF
310
FFFFFFFFFFFFFFFFFFFFFFFFFFFFFFFFFFFFFFFFFFFFFFFFFFFFFFFFFFFFFFFFFFFFFFFFFFFFFFFFFFFFFFFFFFFFFFFFFFFFFFFFFFFFFFFFFFFFFFFFFFFFFFFFFFFFFFFFFFFFFFFFFFFFFFFFFFFFFFFFFFFFFFFFFFFFFFFFFFFFFFFFFFFFFFFFFFFFFFFFFFFFFFFFFFFFFFFFFFFFFFFFFFFFFFFFFFFFFFFFFFFFFFFFFFFFFF
310
FFFFFFFFFFFFFFFFFFFFFFFFFFFFFFFFFFFFFFFFFFFFFFFFFFFFFFFFFFFFFFFFFFFFFFFFFFFFFFFFFFFFFFFFFFFFFFFFFFFFFFFFFFFFFFFFFFFFFFFFFFFFFFFFFFFFFFFFFFFFFFFFFFFFFFFFFFFFFFFFFFFFFFFFFFFFFFFFFFFFFFFFFFFFFFFFFFFFFFFFFFFFFFFFFFFFFFFFFFFFFFFFFFFFFFFFFFFFFFFFFFFFFFFFFFFFFF
310
FFFFFFFFFFFFFFFFFFFFFFFFFFFFFFFFFFFFFFFFFFFFFFFFFFFFFFFFFFFFFFFFFFFFFFFFFFFFFFFFFFFFFFFFFFFFFFFFFFFFFFFFFFFFFFFF
102
{BLKREFS
331
28F4
331
28F8
102
}
  0
BLOCK_RECORD
  5
28FF
330
2107
100
AcDbSymbolTableRecord
100
AcDbBlockTableRecord
  2
NTC
340
0
310
2800000020000000200000000100080000000000000400000000000000000000000000000000000000000000000080000080000000808000800000008000800080800000C0C0C000C0DCC000F0CAA6000020400000206000002080000020A0000020C0000020E00000400000004020000040400000406000004080000040A0
310
000040C0000040E00000600000006020000060400000606000006080000060A0000060C0000060E00000800000008020000080400000806000008080000080A0000080C0000080E00000A0000000A0200000A0400000A0600000A0800000A0A00000A0C00000A0E00000C0000000C0200000C0400000C0600000C0800000C0
310
A00000C0C00000C0E00000E0000000E0200000E0400000E0600000E0800000E0A00000E0C00000E0E00040000000400020004000400040006000400080004000A0004000C0004000E00040200000402020004020400040206000402080004020A0004020C0004020E000404000004040200040404000404060004040800040
310
40A0004040C0004040E00040600000406020004060400040606000406080004060A0004060C0004060E00040800000408020004080400040806000408080004080A0004080C0004080E00040A0000040A0200040A0400040A0600040A0800040A0A00040A0C00040A0E00040C0000040C0200040C0400040C0600040C08000
310
40C0A00040C0C00040C0E00040E0000040E0200040E0400040E0600040E0800040E0A00040E0C00040E0E00080000000800020008000400080006000800080008000A0008000C0008000E00080200000802020008020400080206000802080008020A0008020C0008020E00080400000804020008040400080406000804080
310
008040A0008040C0008040E00080600000806020008060400080606000806080008060A0008060C0008060E00080800000808020008080400080806000808080008080A0008080C0008080E00080A0000080A0200080A0400080A0600080A0800080A0A00080A0C00080A0E00080C0000080C0200080C0400080C0600080C0
310
800080C0A00080C0C00080C0E00080E0000080E0200080E0400080E0600080E0800080E0A00080E0C00080E0E000C0000000C0002000C0004000C0006000C0008000C000A000C000C000C000E000C0200000C0202000C0204000C0206000C0208000C020A000C020C000C020E000C0400000C0402000C0404000C0406000C0
310
408000C040A000C040C000C040E000C0600000C0602000C0604000C0606000C0608000C060A000C060C000C060E000C0800000C0802000C0804000C0806000C0808000C080A000C080C000C080E000C0A00000C0A02000C0A04000C0A06000C0A08000C0A0A000C0A0C000C0A0E000C0C00000C0C02000C0C04000C0C06000
310
C0C08000C0C0A000F0FBFF00A4A0A000808080000000FF0000FF000000FFFF00FF000000FF00FF00FFFF0000FFFFFF00FFFFFFFFFFFFFFFFFFFFFFFFFFFFFFFFFFFFFFFFFFFFFFFFFFFFFFFFFFFFFFFFFFFFFFFFFFFFFFFFFFFFFFFFFFFFFFFFFFFFFFFFFFFFFFFFFFFFFFFFFFFFFFFFFFFFFFFFFFFFFFFFFFFFFFFFFFFFFF
310
FFFFFFFFFFFFFFFFFFFFFFFFFFFFFFFFFFFFFFFFFFFFFFFFFFFFFFFFFFFFFFFFFFFFFFFFFFFFFFFFFFFFFFFFFFFFFFFFFFFFFFFFFFFFFFFFFFFFFFFFFFFFFFFFFFFFFFFFFFFFFFFFFFFFFFFFFFFFFFFFFFFFFFFFFFFFFFFFFFFFFFFFFFFFFFFFFFFFFFFFFFFFFFFFFFFFFFFFFFFFFFFFFFFFFFFFFFFFFFFFFFFFFFFFFFFFFF
310
FFFFFFFFFFFFFFFFFFFFFFFFFFFFFFFFFFFFFFFFFFFFFFFFFFFFFFFFFFFFFFFFFFFFFFFFFFFFFFFFFFFFFFFFFFFFFFFFFFFFFFFFFFFFFFFFFFFFFFFFFFFFFFFFFFFFFFFFFFFFFFFFFFFFFFFFFFFFFFFFFFFFFFFFFFFFFFFFFFFFFFFFFFFFFFFFFFFFFFFFFFFFFFFFFFFFFFFFFFFFFFFFFFFFFFFFFFFFFFFFFFFFFFFFFFFFFF
310
FFFFFFFFFFFFFFFFFFFFFFFFFFFFFFFFFFFFFFFF000000000000000000000000000000000000000000000000000000000000FFFF00FF0000000000000000FFFFFFFFFFFFFFFFFFFFFFFFFFFFFFFFFFFFFF00FFFF00FF0000000000000000FFFFFFFFFFFFFFFFFFFFFFFFFFFFFFFFFFFFFF00FFFF00FF000000000000000000
310
00000000000000000000000000FFFFFFFFFF00FFFF00FF0000000000000000000000000000000000000000000000000000FF00FFFF00FF0000000000000000000000000000000000000000000000000000FF00FFFF00FF0000000000000000000000000000000000000000000000000000FF00FFFF00FF0000000000000000
310
00000000000000000000000000000000FFFFFF00FFFF00FF0000000000FFFFFFFFFFFFFFFFFFFFFFFFFFFFFFFFFFFFFFFFFFFF00FFFF000000000000000000000000000000000000000000000000000000000000FFFFFFFFFFFFFFFFFFFFFFFFFFFFFFFFFFFFFFFFFFFFFFFFFFFFFFFFFFFFFFFFFFFFFFFFFFFFFFFFFFFFFF
310
FFFFFFFFFFFFFFFFFFFFFFFFFFFFFFFFFFFFFFFFFFFFFFFFFFFFFFFFFFFFFFFFFFFFFFFFFFFFFFFFFFFFFFFFFFFFFFFFFFFFFFFFFFFFFFFFFFFFFFFFFFFFFFFFFFFFFFFFFFFFFFFFFFFFFFFFFFFFFFFFFFFFFFFFFFFFFFFFFFFFFFFFFFFFFFFFFFFFFFFFFFFFFFFFFFFFFFFFFFFFFFFFFFFFFFFFFFFFFFFFFFFFFFFFFFFFFF
310
FFFFFFFFFFFFFFFFFFFFFFFFFFFFFFFFFFFFFFFFFFFFFFFFFFFFFFFFFFFFFFFFFFFFFFFFFFFFFFFFFFFFFFFFFFFFFFFFFFFFFFFFFFFFFFFFFFFFFFFFFFFFFFFFFFFFFFFFFFFFFFFFFFFFFFFFFFFFFFFFFFFFFFFFFFFFFFFFFFFFFFFFFFFFFFFFFFFFFFFFFFFFFFFFFFFFFFFFFFFFFFFFFFFFFFFFFFFFFFFFFFFFFFFFFFFFFF
310
FFFFFFFFFFFFFFFFFFFFFFFFFFFFFFFFFFFFFFFFFFFFFFFFFFFFFFFFFFFFFFFFFFFFFFFFFFFFFFFFFFFFFFFFFFFFFFFFFFFFFFFFFFFFFFFF
102
{BLKREFS
331
2905
331
290B
102
}
  0
ENDTAB
  0
ENDSEC
  0
SECTION
  2
BLOCKS
  0
BLOCK
  5
2125
330
2124
100
AcDbEntity
  8
0
100
AcDbBlockBegin
  2
*Model_Space
 70
     0
 10
0.0
 20
0.0
 30
0.0
  3
*Model_Space
  1

  0
ENDBLK
  5
2126
330
2124
100
AcDbEntity
  8
0
100
AcDbBlockEnd
  0
BLOCK
  5
2121
330
2120
100
AcDbEntity
 67
     1
  8
0
100
AcDbBlockBegin
  2
*Paper_Space
 70
     0
 10
0.0
 20
0.0
 30
0.0
  3
*Paper_Space
  1

  0
ENDBLK
  5
2122
330
2120
100
AcDbEntity
 67
     1
  8
0
100
AcDbBlockEnd
  0
BLOCK
  5
213E
330
213D
100
AcDbEntity
  8
0
100
AcDbBlockBegin
  2
$MODEL_SPACE
 70
     0
 10
0.0
 20
0.0
 30
0.0
  3
$MODEL_SPACE
  1

  0
ENDBLK
  5
213F
330
213D
100
AcDbEntity
  8
0
100
AcDbBlockEnd
  0
BLOCK
  5
2141
330
2140
100
AcDbEntity
  8
0
100
AcDbBlockBegin
  2
$PAPER_SPACE
 70
     0
 10
0.0
 20
0.0
 30
0.0
  3
$PAPER_SPACE
  1

  0
ENDBLK
  5
2142
330
2140
100
AcDbEntity
  8
0
100
AcDbBlockEnd
  0
BLOCK
  5
23B3
330
23B0
100
AcDbEntity
  8
0
 62
     7
100
AcDbBlockBegin
  2
AI9-BLK14
 70
     0
 10
0.0
 20
0.0
 30
0.0
  3
AI9-BLK14
  1

  0
SPLINE
  5
23B1
330
23B0
100
AcDbEntity
  8
LAYER_1
 62
     7
100
AcDbSpline
210
0.0
220
0.0
230
1.0
 70
    11
 71
     3
 72
    23
 73
    19
 74
     0
 42
0.0000000001
 43
0.0000000001
 40
0.0
 40
0.0
 40
0.0
 40
0.0
 40
1.0
 40
1.0
 40
1.0
 40
2.0
 40
2.0
 40
2.0
 40
3.0
 40
3.0
 40
3.0
 40
4.0
 40
4.0
 40
4.0
 40
5.0
 40
5.0
 40
5.0
 40
6.0
 40
6.0
 40
6.0
 40
6.0
 10
-10.90321044921874
 20
10.88107571072048
 30
0.0
 10
-10.90321044921874
 20
10.88107571072048
 30
0.0
 10
-10.90321044921874
 20
-10.88107571072048
 30
0.0
 10
-10.90321044921874
 20
-10.88107571072048
 30
0.0
 10
-10.90321044921874
 20
-10.88107571072048
 30
0.0
 10
1.752692328559025
 20
-10.88107571072048
 30
0.0
 10
1.752692328559025
 20
-10.88107571072048
 30
0.0
 10
3.280592176649305
 20
-10.88107571072048
 30
0.0
 10
10.90321044921874
 20
-10.32383151584201
 30
0.0
 10
10.90321044921874
 20
0.6792867024739583
 30
0.0
 10
10.90321044921874
 20
10.61700914171006
 30
0.0
 10
2.773129611545138
 20
10.87952541775172
 30
0.0
 10
2.691136338975693
 20
10.88090345594618
 30
0.0
 10
2.691136338975693
 20
10.88090345594618
 30
0.0
 10
-9.903099229600693
 20
10.88107571072048
 30
0.0
 10
-9.903099229600693
 20
10.88107571072048
 30
0.0
 10
-9.903099229600693
 20
10.88107571072048
 30
0.0
 10
-10.90321044921874
 20
10.88107571072048
 30
0.0
 10
-10.90321044921874
 20
10.88107571072048
 30
0.0
  0
SPLINE
  5
23B2
330
23B0
100
AcDbEntity
  8
LAYER_1
 62
     7
100
AcDbSpline
210
0.0
220
0.0
230
1.0
 70
    11
 71
     3
 72
    20
 73
    16
 74
     0
 42
0.0000000001
 43
0.0000000001
 40
0.0
 40
0.0
 40
0.0
 40
0.0
 40
1.0
 40
1.0
 40
1.0
 40
2.0
 40
2.0
 40
2.0
 40
3.0
 40
3.0
 40
3.0
 40
4.0
 40
4.0
 40
4.0
 40
5.0
 40
5.0
 40
5.0
 40
5.0
 10
2.672877332899305
 20
8.881197781032986
 30
0.0
 10
2.905421278211805
 20
8.874307590060762
 30
0.0
 10
8.902988009982637
 20
8.616442192925347
 30
0.0
 10
8.902988009982637
 20
0.6792867024739583
 30
0.0
 10
8.902988009982637
 20
-8.191661919487842
 30
0.0
 10
3.430109320746526
 20
-8.881197781032986
 30
0.0
 10
1.752692328559025
 20
-8.881197781032986
 30
0.0
 10
1.752692328559025
 20
-8.881197781032986
 30
0.0
 10
-7.231427680121528
 20
-8.881197781032986
 30
0.0
 10
-8.902988009982637
 20
-8.881197781032986
 30
0.0
 10
-8.902988009982637
 20
-7.174497477213541
 30
0.0
 10
-8.902988009982637
 20
7.174497477213541
 30
0.0
 10
-8.902988009982637
 20
8.881197781032986
 30
0.0
 10
-7.208690049913191
 20
8.881197781032986
 30
0.0
 10
2.672877332899305
 20
8.881197781032986
 30
0.0
 10
2.672877332899305
 20
8.881197781032986
 30
0.0
  0
ENDBLK
  5
23B4
330
23B0
100
AcDbEntity
  8
0
100
AcDbBlockEnd
  0
BLOCK
  5
23B8
330
23B5
100
AcDbEntity
  8
0
 62
     7
100
AcDbBlockBegin
  2
AI9-BLK13
 70
     0
 10
0.0
 20
0.0
 30
0.0
  3
AI9-BLK13
  1

  0
LWPOLYLINE
  5
23B6
330
23B5
100
AcDbEntity
  8
LAYER_1
 62
     7
100
AcDbPolyline
 90
       12
 70
     1
 43
0.0
 10
-3.792361111111107
 20
10.7376736111111
 10
-2.469444444444443
 20
10.7376736111111
 10
-2.469444444444443
 20
1.874131944444444
 10
2.469444444444443
 20
1.874131944444444
 10
2.469444444444443
 20
10.7376736111111
 10
3.792361111111107
 20
10.7376736111111
 10
3.792361111111107
 20
-10.7376736111111
 10
2.469444444444443
 20
-10.7376736111111
 10
2.469444444444443
 20
-0.6835069444444444
 10
-2.469444444444443
 20
-0.6835069444444444
 10
-2.469444444444443
 20
-10.7376736111111
 10
-3.792361111111107
 20
-10.7376736111111
  0
HATCH
  5
23B7
330
23B5
100
AcDbEntity
  8
LAYER_1
 62
     7
100
AcDbHatch
 10
0.0
 20
0.0
 30
0.0
210
0.0
220
0.0
230
1.0
  2
SOLID
 70
     1
 71
     0
 91
        1
 92
        3
 72
     0
 73
     1
 93
       12
 10
-3.792361111111107
 20
10.7376736111111
 10
-2.469444444444443
 20
10.7376736111111
 10
-2.469444444444443
 20
1.874131944444444
 10
2.469444444444443
 20
1.874131944444444
 10
2.469444444444443
 20
10.7376736111111
 10
3.792361111111107
 20
10.7376736111111
 10
3.792361111111107
 20
-10.7376736111111
 10
2.469444444444443
 20
-10.7376736111111
 10
2.469444444444443
 20
-0.6835069444444444
 10
-2.469444444444443
 20
-0.6835069444444444
 10
-2.469444444444443
 20
-10.7376736111111
 10
-3.792361111111107
 20
-10.7376736111111
 97
        0
 75
     2
 76
     1
 98
        1
 10
0.0
 20
0.0
  0
ENDBLK
  5
23B9
330
23B5
100
AcDbEntity
  8
0
100
AcDbBlockEnd
  0
BLOCK
  5
23BD
330
23BA
100
AcDbEntity
  8
0
 62
     7
100
AcDbBlockBegin
  2
AI9-BLK11
 70
     0
 10
0.0
 20
0.0
 30
0.0
  3
AI9-BLK11
  1

  0
SPLINE
  5
23BB
330
23BA
100
AcDbEntity
  8
LAYER_1
 62
     7
100
AcDbSpline
210
0.0
220
0.0
230
1.0
 70
    11
 71
     3
 72
    26
 73
    22
 74
     0
 42
0.0000000001
 43
0.0000000001
 40
0.0
 40
0.0
 40
0.0
 40
0.0
 40
1.0
 40
1.0
 40
1.0
 40
2.0
 40
2.0
 40
2.0
 40
3.0
 40
3.0
 40
3.0
 40
4.0
 40
4.0
 40
4.0
 40
5.0
 40
5.0
 40
5.0
 40
6.0
 40
6.0
 40
6.0
 40
7.0
 40
7.0
 40
7.0
 40
7.0
 10
-2.645833333333333
 20
0.9039930555555551
 30
0.0
 10
-2.645833333333333
 20
0.9039930555555551
 30
0.0
 10
-2.645833333333333
 20
8.180034722222217
 30
0.0
 10
-2.645833333333333
 20
8.180034722222217
 30
0.0
 10
-2.645833333333333
 20
8.180034722222217
 30
0.0
 10
0.465087890625
 20
8.180034722222217
 30
0.0
 10
0.465087890625
 20
8.180034722222217
 30
0.0
 10
0.9026150173611108
 20
8.180034722222217
 30
0.0
 10
1.24988064236111
 20
8.034651692708331
 30
0.0
 10
1.506884765625
 20
7.745263671874997
 30
0.0
 10
2.001600477430554
 20
7.194048394097221
 30
0.0
 10
2.248958333333332
 20
6.160519748263887
 30
0.0
 10
2.248958333333332
 20
4.643299696180553
 30
0.0
 10
2.248958333333332
 20
3.232188585069443
 30
0.0
 10
2.072569444444444
 20
2.256537543402775
 30
0.0
 10
1.720480685763888
 20
1.715657552083333
 30
0.0
 10
1.368391927083333
 20
1.174088541666665
 30
0.0
 10
0.8929687499999998
 20
0.9039930555555551
 30
0.0
 10
0.2942111545138888
 20
0.9039930555555551
 30
0.0
 10
0.2942111545138888
 20
0.9039930555555551
 30
0.0
 10
-2.645833333333333
 20
0.9039930555555551
 30
0.0
 10
-2.645833333333333
 20
0.9039930555555551
 30
0.0
  0
SPLINE
  5
23BC
330
23BA
100
AcDbEntity
  8
LAYER_1
 62
     7
100
AcDbSpline
210
0.0
220
0.0
230
1.0
 70
    11
 71
     3
 72
    68
 73
    64
 74
     0
 42
0.0000000001
 43
0.0000000001
 40
0.0
 40
0.0
 40
0.0
 40
0.0
 40
1.0
 40
1.0
 40
1.0
 40
2.0
 40
2.0
 40
2.0
 40
3.0
 40
3.0
 40
3.0
 40
4.0
 40
4.0
 40
4.0
 40
5.0
 40
5.0
 40
5.0
 40
6.0
 40
6.0
 40
6.0
 40
7.0
 40
7.0
 40
7.0
 40
8.0
 40
8.0
 40
8.0
 40
9.0
 40
9.0
 40
9.0
 40
10.0
 40
10.0
 40
10.0
 40
11.0
 40
11.0
 40
11.0
 40
12.0
 40
12.0
 40
12.0
 40
13.0
 40
13.0
 40
13.0
 40
14.0
 40
14.0
 40
14.0
 40
15.0
 40
15.0
 40
15.0
 40
16.0
 40
16.0
 40
16.0
 40
17.0
 40
17.0
 40
17.0
 40
18.0
 40
18.0
 40
18.0
 40
19.0
 40
19.0
 40
19.0
 40
20.0
 40
20.0
 40
20.0
 40
21.0
 40
21.0
 40
21.0
 40
21.0
 10
-3.968749999999998
 20
-10.7376736111111
 30
0.0
 10
-3.968749999999998
 20
-10.7376736111111
 30
0.0
 10
-2.645833333333333
 20
-10.7376736111111
 30
0.0
 10
-2.645833333333333
 20
-10.7376736111111
 30
0.0
 10
-2.645833333333333
 20
-10.7376736111111
 30
0.0
 10
-2.645833333333333
 20
-1.521354166666665
 30
0.0
 10
-2.645833333333333
 20
-1.521354166666665
 30
0.0
 10
-2.645833333333333
 20
-1.521354166666665
 30
0.0
 10
0.2390896267361111
 20
-1.521354166666665
 30
0.0
 10
0.2390896267361111
 20
-1.521354166666665
 30
0.0
 10
0.7599880642361111
 20
-1.521354166666665
 30
0.0
 10
1.143771701388887
 20
-1.65295681423611
 30
0.0
 10
1.390440538194444
 20
-1.916162109374999
 30
0.0
 10
1.816254340277773
 20
-2.39434136284722
 30
0.0
 10
2.04363064236111
 20
-3.335541449652775
 30
0.0
 10
2.072569444444444
 20
-4.739762369791666
 30
0.0
 10
2.072569444444444
 20
-4.739762369791666
 30
0.0
 10
2.160763888888888
 20
-8.324039713541665
 30
0.0
 10
2.160763888888888
 20
-8.324039713541665
 30
0.0
 10
2.18005642361111
 20
-9.163264973958332
 30
0.0
 10
2.202794053819443
 20
-9.728949652777775
 30
0.0
 10
2.227598741319444
 20
-10.02109374999998
 30
0.0
 10
2.252403428819443
 20
-10.31392686631944
 30
0.0
 10
2.28892144097222
 20
-10.55301649305555
 30
0.0
 10
2.33853081597222
 20
-10.7376736111111
 30
0.0
 10
2.33853081597222
 20
-10.7376736111111
 30
0.0
 10
3.968749999999998
 20
-10.7376736111111
 30
0.0
 10
3.968749999999998
 20
-10.7376736111111
 30
0.0
 10
3.968749999999998
 20
-10.7376736111111
 30
0.0
 10
3.968749999999998
 20
-10.25260416666666
 30
0.0
 10
3.968749999999998
 20
-10.25260416666666
 30
0.0
 10
3.766867404513888
 20
-10.05830078125
 30
0.0
 10
3.625618489583333
 20
-9.621462673611112
 30
0.0
 10
3.545692274305555
 20
-8.942089843749997
 30
0.0
 10
3.49470486111111
 20
-8.543836805555555
 30
0.0
 10
3.459564887152775
 20
-7.937499999999999
 30
0.0
 10
3.439583333333333
 20
-7.121701388888887
 30
0.0
 10
3.439583333333333
 20
-7.121701388888887
 30
0.0
 10
3.395486111111106
 20
-4.232644314236106
 30
0.0
 10
3.395486111111106
 20
-4.232644314236106
 30
0.0
 10
3.375504557291666
 20
-2.981385633680555
 30
0.0
 10
3.26870659722222
 20
-2.077392578125
 30
0.0
 10
3.075781249999999
 20
-1.522043185763888
 30
0.0
 10
2.882166883680555
 20
-0.9666937934027776
 30
0.0
 10
2.592089843749999
 20
-0.5188313802083333
 30
0.0
 10
2.204861111111106
 20
-0.1770779079861111
 30
0.0
 10
2.63618706597222
 20
0.3197048611111111
 30
0.0
 10
2.971739366319443
 20
0.9770290798611107
 30
0.0
 10
3.211518012152775
 20
1.79558376736111
 30
0.0
 10
3.451296657986107
 20
2.613449435763888
 30
0.0
 10
3.571874999999999
 20
3.66558159722222
 30
0.0
 10
3.571874999999999
 20
4.951291232638888
 30
0.0
 10
3.571874999999999
 20
7.415912543402777
 30
0.0
 10
3.124701605902775
 20
9.106076388888887
 30
0.0
 10
2.231043836805555
 20
10.02178276909722
 30
0.0
 10
1.759754774305553
 20
10.498583984375
 30
0.0
 10
1.163753255208332
 20
10.7376736111111
 30
0.0
 10
0.443039279513889
 20
10.7376736111111
 30
0.0
 10
0.443039279513889
 20
10.7376736111111
 30
0.0
 10
-3.968749999999998
 20
10.7376736111111
 30
0.0
 10
-3.968749999999998
 20
10.7376736111111
 30
0.0
 10
-3.968749999999998
 20
10.7376736111111
 30
0.0
 10
-3.968749999999998
 20
-10.7376736111111
 30
0.0
 10
-3.968749999999998
 20
-10.7376736111111
 30
0.0
  0
ENDBLK
  5
23BE
330
23BA
100
AcDbEntity
  8
0
100
AcDbBlockEnd
  0
BLOCK
  5
23C1
330
23BF
100
AcDbEntity
  8
0
 62
     7
100
AcDbBlockBegin
  2
AI9-BLK10
 70
     0
 10
0.0
 20
0.0
 30
0.0
  3
AI9-BLK10
  1

  0
SPLINE
  5
23C0
330
23BF
100
AcDbEntity
  8
LAYER_1
 62
     7
100
AcDbSpline
210
0.0
220
0.0
230
1.0
 70
    11
 71
     3
 72
    59
 73
    55
 74
     0
 42
0.0000000001
 43
0.0000000001
 40
0.0
 40
0.0
 40
0.0
 40
0.0
 40
1.0
 40
1.0
 40
1.0
 40
2.0
 40
2.0
 40
2.0
 40
3.0
 40
3.0
 40
3.0
 40
4.0
 40
4.0
 40
4.0
 40
5.0
 40
5.0
 40
5.0
 40
6.0
 40
6.0
 40
6.0
 40
7.0
 40
7.0
 40
7.0
 40
8.0
 40
8.0
 40
8.0
 40
9.0
 40
9.0
 40
9.0
 40
10.0
 40
10.0
 40
10.0
 40
11.0
 40
11.0
 40
11.0
 40
12.0
 40
12.0
 40
12.0
 40
13.0
 40
13.0
 40
13.0
 40
14.0
 40
14.0
 40
14.0
 40
15.0
 40
15.0
 40
15.0
 40
16.0
 40
16.0
 40
16.0
 40
17.0
 40
17.0
 40
17.0
 40
18.0
 40
18.0
 40
18.0
 40
18.0
 10
-4.652256944444443
 20
10.7376736111111
 30
0.0
 10
-4.652256944444443
 20
10.7376736111111
 30
0.0
 10
-2.798795572916666
 20
10.7376736111111
 30
0.0
 10
-2.798795572916666
 20
10.7376736111111
 30
0.0
 10
-2.798795572916666
 20
10.7376736111111
 30
0.0
 10
0.0
 20
-7.419357638888887
 30
0.0
 10
0.0
 20
-7.419357638888887
 30
0.0
 10
0.0
 20
-7.419357638888887
 30
0.0
 10
2.793283420138888
 20
10.7376736111111
 30
0.0
 10
2.793283420138888
 20
10.7376736111111
 30
0.0
 10
2.793283420138888
 20
10.7376736111111
 30
0.0
 10
4.652256944444443
 20
10.7376736111111
 30
0.0
 10
4.652256944444443
 20
10.7376736111111
 30
0.0
 10
4.652256944444443
 20
10.7376736111111
 30
0.0
 10
4.652256944444443
 20
-10.7376736111111
 30
0.0
 10
4.652256944444443
 20
-10.7376736111111
 30
0.0
 10
4.652256944444443
 20
-10.7376736111111
 30
0.0
 10
3.41753472222222
 20
-10.7376736111111
 30
0.0
 10
3.41753472222222
 20
-10.7376736111111
 30
0.0
 10
3.41753472222222
 20
-10.7376736111111
 30
0.0
 10
3.41753472222222
 20
1.936832682291665
 30
0.0
 10
3.41753472222222
 20
1.936832682291665
 30
0.0
 10
3.41753472222222
 20
2.375048828124999
 30
0.0
 10
3.424424913194443
 20
3.101274956597221
 30
0.0
 10
3.439583333333333
 20
4.11482204861111
 30
0.0
 10
3.454052734374998
 20
5.128369140624998
 30
0.0
 10
3.461631944444443
 20
6.214952256944441
 30
0.0
 10
3.461631944444443
 20
7.375260416666666
 30
0.0
 10
3.461631944444443
 20
7.375260416666666
 30
0.0
 10
0.6538791232638889
 20
-10.7376736111111
 30
0.0
 10
0.6538791232638889
 20
-10.7376736111111
 30
0.0
 10
0.6538791232638889
 20
-10.7376736111111
 30
0.0
 10
-0.6628363715277778
 20
-10.7376736111111
 30
0.0
 10
-0.6628363715277778
 20
-10.7376736111111
 30
0.0
 10
-0.6628363715277778
 20
-10.7376736111111
 30
0.0
 10
-3.461631944444443
 20
7.375260416666666
 30
0.0
 10
-3.461631944444443
 20
7.375260416666666
 30
0.0
 10
-3.461631944444443
 20
7.375260416666666
 30
0.0
 10
-3.461631944444443
 20
6.717247178819441
 30
0.0
 10
-3.461631944444443
 20
6.717247178819441
 30
0.0
 10
-3.461631944444443
 20
6.190836588541666
 30
0.0
 10
-3.45474175347222
 20
5.389507378472222
 30
0.0
 10
-3.439583333333333
 20
4.312570529513888
 30
0.0
 10
-3.425113932291666
 20
3.235633680555555
 30
0.0
 10
-3.41753472222222
 20
2.44395073784722
 30
0.0
 10
-3.41753472222222
 20
1.936832682291665
 30
0.0
 10
-3.41753472222222
 20
1.936832682291665
 30
0.0
 10
-3.41753472222222
 20
-10.7376736111111
 30
0.0
 10
-3.41753472222222
 20
-10.7376736111111
 30
0.0
 10
-3.41753472222222
 20
-10.7376736111111
 30
0.0
 10
-4.652256944444443
 20
-10.7376736111111
 30
0.0
 10
-4.652256944444443
 20
-10.7376736111111
 30
0.0
 10
-4.652256944444443
 20
-10.7376736111111
 30
0.0
 10
-4.652256944444443
 20
10.7376736111111
 30
0.0
 10
-4.652256944444443
 20
10.7376736111111
 30
0.0
  0
ENDBLK
  5
23C2
330
23BF
100
AcDbEntity
  8
0
100
AcDbBlockEnd
  0
BLOCK
  5
23C6
330
23C3
100
AcDbEntity
  8
0
 62
     7
100
AcDbBlockBegin
  2
AI9-BLK9
 70
     0
 10
0.0
 20
0.0
 30
0.0
  3
AI9-BLK9
  1

  0
SPLINE
  5
23C4
330
23C3
100
AcDbEntity
  8
LAYER_1
 62
     7
100
AcDbSpline
210
0.0
220
0.0
230
1.0
 70
    11
 71
     3
 72
    29
 73
    25
 74
     0
 42
0.0000000001
 43
0.0000000001
 40
0.0
 40
0.0
 40
0.0
 40
0.0
 40
1.0
 40
1.0
 40
1.0
 40
2.0
 40
2.0
 40
2.0
 40
3.0
 40
3.0
 40
3.0
 40
4.0
 40
4.0
 40
4.0
 40
5.0
 40
5.0
 40
5.0
 40
6.0
 40
6.0
 40
6.0
 40
7.0
 40
7.0
 40
7.0
 40
8.0
 40
8.0
 40
8.0
 40
8.0
 10
0.0668348524305556
 20
-8.753298611111111
 30
0.0
 10
-0.9067491319444444
 20
-8.753298611111111
 30
0.0
 10
-1.60954861111111
 20
-7.936810980902778
 30
0.0
 10
-2.041563585069444
 20
-6.30383572048611
 30
0.0
 10
-2.474267578124999
 20
-4.670860460069443
 30
0.0
 10
-2.689930555555555
 20
-2.664436848958333
 30
0.0
 10
-2.689930555555555
 20
-0.28525390625
 30
0.0
 10
-2.689930555555555
 20
2.68855251736111
 30
0.0
 10
-2.439127604166666
 20
4.938199869791666
 30
0.0
 10
-1.937521701388888
 20
6.464377170138886
 30
0.0
 10
-1.43591579861111
 20
7.989865451388887
 30
0.0
 10
-0.7827256944444444
 20
8.753298611111111
 30
0.0
 10
0.0220486111111111
 20
8.753298611111111
 30
0.0
 10
0.8468044704861108
 20
8.753298611111111
 30
0.0
 10
1.49792751736111
 20
7.982975260416663
 30
0.0
 10
1.974728732638888
 20
6.442328559027776
 30
0.0
 10
2.451529947916665
 20
4.901681857638886
 30
0.0
 10
2.689930555555555
 20
2.868386501736111
 30
0.0
 10
2.689930555555555
 20
0.3438205295138888
 30
0.0
 10
2.689930555555555
 20
-2.045697699652774
 30
0.0
 10
2.483224826388884
 20
-4.15891927083333
 30
0.0
 10
2.071191406249999
 20
-5.996533203124998
 30
0.0
 10
1.65915798611111
 20
-7.834836154513887
 30
0.0
 10
0.9908094618055557
 20
-8.753298611111111
 30
0.0
 10
0.0668348524305556
 20
-8.753298611111111
 30
0.0
  0
SPLINE
  5
23C5
330
23C3
100
AcDbEntity
  8
LAYER_1
 62
     7
100
AcDbSpline
210
0.0
220
0.0
230
1.0
 70
    11
 71
     3
 72
    29
 73
    25
 74
     0
 42
0.0000000001
 43
0.0000000001
 40
0.0
 40
0.0
 40
0.0
 40
0.0
 40
1.0
 40
1.0
 40
1.0
 40
2.0
 40
2.0
 40
2.0
 40
3.0
 40
3.0
 40
3.0
 40
4.0
 40
4.0
 40
4.0
 40
5.0
 40
5.0
 40
5.0
 40
6.0
 40
6.0
 40
6.0
 40
7.0
 40
7.0
 40
7.0
 40
8.0
 40
8.0
 40
8.0
 40
8.0
 10
-0.0289388020833333
 20
11.35503472222222
 30
0.0
 10
-1.317404513888887
 20
11.35503472222222
 30
0.0
 10
-2.28892144097222
 20
10.02798394097222
 30
0.0
 10
-2.94280056423611
 20
7.374571397569441
 30
0.0
 10
-3.450607638888888
 20
5.30613606770833
 30
0.0
 10
-3.704166666666666
 20
2.81877712673611
 30
0.0
 10
-3.704166666666666
 20
-0.0881944444444445
 30
0.0
 10
-3.704166666666666
 20
-3.307291666666666
 30
0.0
 10
-3.406510416666666
 20
-5.97035047743055
 30
0.0
 10
-2.811197916666666
 20
-8.077370876736106
 30
0.0
 10
-2.147672526041664
 20
-10.26293945312499
 30
0.0
 10
-1.229899088541666
 20
-11.35503472222222
 30
0.0
 10
-0.0585666232638889
 20
-11.35503472222222
 30
0.0
 10
1.20027126736111
 20
-11.35503472222222
 30
0.0
 10
2.166276041666665
 20
-10.10653211805555
 30
0.0
 10
2.840136718749998
 20
-7.609526909722221
 30
0.0
 10
3.416156684027776
 20
-5.483213975694441
 30
0.0
 10
3.704166666666666
 20
-2.814643012152775
 30
0.0
 10
3.704166666666666
 20
0.3948079427083333
 30
0.0
 10
3.704166666666666
 20
3.360346137152776
 30
0.0
 10
3.449918619791666
 20
5.793961588541666
 30
0.0
 10
2.94280056423611
 20
7.696343315972222
 30
0.0
 10
2.298567708333333
 20
10.13547092013888
 30
0.0
 10
1.307758246527777
 20
11.35503472222222
 30
0.0
 10
-0.0289388020833333
 20
11.35503472222222
 30
0.0
  0
ENDBLK
  5
23C7
330
23C3
100
AcDbEntity
  8
0
100
AcDbBlockEnd
  0
BLOCK
  5
23CB
330
23C8
100
AcDbEntity
  8
0
 62
     7
100
AcDbBlockBegin
  2
AI9-BLK8
 70
     0
 10
0.0
 20
0.0
 30
0.0
  3
AI9-BLK8
  1

  0
LWPOLYLINE
  5
23C9
330
23C8
100
AcDbEntity
  8
LAYER_1
 62
     7
100
AcDbPolyline
 90
       10
 70
     1
 43
0.0
 10
-3.792361111111107
 20
10.7376736111111
 10
-2.268939887152773
 20
10.7376736111111
 10
2.557638888888888
 20
-6.505718315972222
 10
2.557638888888888
 20
10.7376736111111
 10
3.792361111111107
 20
10.7376736111111
 10
3.792361111111107
 20
-10.7376736111111
 10
2.32612847222222
 20
-10.7376736111111
 10
-2.557638888888888
 20
6.549815538194441
 10
-2.557638888888888
 20
-10.7376736111111
 10
-3.792361111111107
 20
-10.7376736111111
  0
HATCH
  5
23CA
330
23C8
100
AcDbEntity
  8
LAYER_1
 62
     7
100
AcDbHatch
 10
0.0
 20
0.0
 30
0.0
210
0.0
220
0.0
230
1.0
  2
SOLID
 70
     1
 71
     0
 91
        1
 92
        3
 72
     0
 73
     1
 93
       10
 10
-3.792361111111107
 20
10.7376736111111
 10
-2.268939887152773
 20
10.7376736111111
 10
2.557638888888888
 20
-6.505718315972222
 10
2.557638888888888
 20
10.7376736111111
 10
3.792361111111107
 20
10.7376736111111
 10
3.792361111111107
 20
-10.7376736111111
 10
2.32612847222222
 20
-10.7376736111111
 10
-2.557638888888888
 20
6.549815538194441
 10
-2.557638888888888
 20
-10.7376736111111
 10
-3.792361111111107
 20
-10.7376736111111
 97
        0
 75
     2
 76
     1
 98
        1
 10
0.0
 20
0.0
  0
ENDBLK
  5
23CC
330
23C8
100
AcDbEntity
  8
0
100
AcDbBlockEnd
  0
BLOCK
  5
23D0
330
23CD
100
AcDbEntity
  8
0
 62
     7
100
AcDbBlockBegin
  2
AI9-BLK7
 70
     0
 10
0.0
 20
0.0
 30
0.0
  3
AI9-BLK7
  1

  0
LWPOLYLINE
  5
23CE
330
23CD
100
AcDbEntity
  8
LAYER_1
 62
     7
100
AcDbPolyline
 90
        4
 70
     1
 43
0.0
 10
-0.6614583333333333
 20
10.7376736111111
 10
0.6614583333333333
 20
10.7376736111111
 10
0.6614583333333333
 20
-10.7376736111111
 10
-0.6614583333333333
 20
-10.7376736111111
  0
HATCH
  5
23CF
330
23CD
100
AcDbEntity
  8
LAYER_1
 62
     7
100
AcDbHatch
 10
0.0
 20
0.0
 30
0.0
210
0.0
220
0.0
230
1.0
  2
SOLID
 70
     1
 71
     0
 91
        1
 92
        3
 72
     0
 73
     1
 93
        4
 10
-0.6614583333333333
 20
10.7376736111111
 10
0.6614583333333333
 20
10.7376736111111
 10
0.6614583333333333
 20
-10.7376736111111
 10
-0.6614583333333333
 20
-10.7376736111111
 97
        0
 75
     2
 76
     1
 98
        1
 10
0.0
 20
0.0
  0
ENDBLK
  5
23D1
330
23CD
100
AcDbEntity
  8
0
100
AcDbBlockEnd
  0
BLOCK
  5
23D4
330
23D2
100
AcDbEntity
  8
0
 62
     7
100
AcDbBlockBegin
  2
AI9-BLK6
 70
     0
 10
0.0
 20
0.0
 30
0.0
  3
AI9-BLK6
  1

  0
SPLINE
  5
23D3
330
23D2
100
AcDbEntity
  8
LAYER_1
 62
     7
100
AcDbSpline
210
0.0
220
0.0
230
1.0
 70
    11
 71
     3
 72
    59
 73
    55
 74
     0
 42
0.0000000001
 43
0.0000000001
 40
0.0
 40
0.0
 40
0.0
 40
0.0
 40
1.0
 40
1.0
 40
1.0
 40
2.0
 40
2.0
 40
2.0
 40
3.0
 40
3.0
 40
3.0
 40
4.0
 40
4.0
 40
4.0
 40
5.0
 40
5.0
 40
5.0
 40
6.0
 40
6.0
 40
6.0
 40
7.0
 40
7.0
 40
7.0
 40
8.0
 40
8.0
 40
8.0
 40
9.0
 40
9.0
 40
9.0
 40
10.0
 40
10.0
 40
10.0
 40
11.0
 40
11.0
 40
11.0
 40
12.0
 40
12.0
 40
12.0
 40
13.0
 40
13.0
 40
13.0
 40
14.0
 40
14.0
 40
14.0
 40
15.0
 40
15.0
 40
15.0
 40
16.0
 40
16.0
 40
16.0
 40
17.0
 40
17.0
 40
17.0
 40
18.0
 40
18.0
 40
18.0
 40
18.0
 10
3.062689887152775
 20
9.168088107638887
 30
0.0
 10
3.735172526041666
 20
7.739062499999997
 30
0.0
 10
4.110687934027776
 20
6.116422526041666
 30
0.0
 10
4.189236111111108
 20
4.299479166666666
 30
0.0
 10
4.189236111111108
 20
4.299479166666666
 30
0.0
 10
2.866319444444443
 20
4.299479166666666
 30
0.0
 10
2.866319444444443
 20
4.299479166666666
 30
0.0
 10
2.720936414930555
 20
5.667871093749997
 30
0.0
 10
2.435682508680555
 20
6.752387152777776
 30
0.0
 10
2.009868706597218
 20
7.553027343749997
 30
0.0
 10
1.584054904513888
 20
8.352978515624997
 30
0.0
 10
0.9839192708333332
 20
8.753298611111111
 30
0.0
 10
0.2101508246527778
 20
8.753298611111111
 30
0.0
 10
-0.7386284722222222
 20
8.753298611111111
 30
0.0
 10
-1.503439670138888
 20
8.010536024305555
 30
0.0
 10
-2.083593749999999
 20
6.526388888888886
 30
0.0
 10
-2.664436848958333
 20
5.042241753472221
 30
0.0
 10
-2.954513888888888
 20
2.767100694444443
 30
0.0
 10
-2.954513888888888
 20
-0.2990342881944444
 30
0.0
 10
-2.954513888888888
 20
-2.811197916666666
 30
0.0
 10
-2.693375651041666
 20
-4.847938368055555
 30
0.0
 10
-2.17041015625
 20
-6.409944661458332
 30
0.0
 10
-1.648133680555553
 20
-7.972639973958332
 30
0.0
 10
-0.8640299479166666
 20
-8.753298611111111
 30
0.0
 10
0.1812120225694444
 20
-8.753298611111111
 30
0.0
 10
1.138948567708333
 20
-8.753298611111111
 30
0.0
 10
1.865174696180553
 20
-7.927853732638887
 30
0.0
 10
2.359201388888884
 20
-6.275585937499998
 30
0.0
 10
2.62998589409722
 20
-5.406043836805555
 30
0.0
 10
2.828423394097221
 20
-4.262272135416666
 30
0.0
 10
2.954513888888888
 20
-2.844270833333331
 30
0.0
 10
2.954513888888888
 20
-2.844270833333331
 30
0.0
 10
4.277430555555555
 20
-2.844270833333331
 30
0.0
 10
4.277430555555555
 20
-2.844270833333331
 30
0.0
 10
4.169943576388888
 20
-5.109765624999996
 30
0.0
 10
3.795117187499998
 20
-7.009391276041665
 30
0.0
 10
3.151573350694443
 20
-8.542458767361106
 30
0.0
 10
2.381249999999999
 20
-10.38834092881943
 30
0.0
 10
1.347721354166665
 20
-11.3109375
 30
0.0
 10
0.0509874131944445
 20
-11.3109375
 30
0.0
 10
-1.07004665798611
 20
-11.3109375
 30
0.0
 10
-2.010557725694444
 20
-10.55577256944443
 30
0.0
 10
-2.771234809027776
 20
-9.04475368923611
 30
0.0
 10
-3.775824652777775
 20
-7.046598307291666
 30
0.0
 10
-4.277430555555555
 20
-3.961170789930555
 30
0.0
 10
-4.277430555555555
 20
0.2115288628472222
 30
0.0
 10
-4.277430555555555
 20
3.379638671874998
 30
0.0
 10
-3.902604166666666
 20
5.977929687499997
 30
0.0
 10
-3.151573350694443
 20
8.005712890624996
 30
0.0
 10
-2.333018663194443
 20
10.20919596354165
 30
0.0
 10
-1.20647243923611
 20
11.3109375
 30
0.0
 10
0.2266872829861111
 20
11.3109375
 30
0.0
 10
1.444873046875
 20
11.3109375
 30
0.0
 10
2.390207248263884
 20
10.59642469618055
 30
0.0
 10
3.062689887152775
 20
9.168088107638887
 30
0.0
  0
ENDBLK
  5
23D5
330
23D2
100
AcDbEntity
  8
0
100
AcDbBlockEnd
  0
BLOCK
  5
23D9
330
23D6
100
AcDbEntity
  8
0
 62
     7
100
AcDbBlockBegin
  2
AI9-BLK5
 70
     0
 10
0.0
 20
0.0
 30
0.0
  3
AI9-BLK5
  1

  0
SPLINE
  5
23D7
330
23D6
100
AcDbEntity
  8
LAYER_1
 62
     7
100
AcDbSpline
210
0.0
220
0.0
230
1.0
 70
    11
 71
     3
 72
    32
 73
    28
 74
     0
 42
0.0000000001
 43
0.0000000001
 40
0.0
 40
0.0
 40
0.0
 40
0.0
 40
1.0
 40
1.0
 40
1.0
 40
2.0
 40
2.0
 40
2.0
 40
3.0
 40
3.0
 40
3.0
 40
4.0
 40
4.0
 40
4.0
 40
5.0
 40
5.0
 40
5.0
 40
6.0
 40
6.0
 40
6.0
 40
7.0
 40
7.0
 40
7.0
 40
8.0
 40
8.0
 40
8.0
 40
9.0
 40
9.0
 40
9.0
 40
9.0
 10
-2.62378472222222
 20
-8.268229166666666
 30
0.0
 10
-2.62378472222222
 20
-8.268229166666666
 30
0.0
 10
-2.62378472222222
 20
8.180034722222217
 30
0.0
 10
-2.62378472222222
 20
8.180034722222217
 30
0.0
 10
-2.62378472222222
 20
8.180034722222217
 30
0.0
 10
-0.3376193576388888
 20
8.180034722222217
 30
0.0
 10
-0.3376193576388888
 20
8.180034722222217
 30
0.0
 10
0.6972873263888888
 20
8.180034722222217
 30
0.0
 10
1.449007161458333
 20
7.445540364583332
 30
0.0
 10
1.918918185763885
 20
5.977929687499997
 30
0.0
 10
2.388829210069443
 20
4.510319010416666
 30
0.0
 10
2.62378472222222
 20
2.449462890624999
 30
0.0
 10
2.62378472222222
 20
-0.204638671875
 30
0.0
 10
2.62378472222222
 20
-0.8950358072916666
 30
0.0
 10
2.590022786458332
 20
-1.643310546874999
 30
0.0
 10
2.523187934027773
 20
-2.45015190972222
 30
0.0
 10
2.408121744791666
 20
-3.80200737847222
 30
0.0
 10
2.226220703124999
 20
-4.909950086805555
 30
0.0
 10
1.976795789930553
 20
-5.774669053819441
 30
0.0
 10
1.659847005208333
 20
-6.853672960069442
 30
0.0
 10
1.252636718749998
 20
-7.583344184027778
 30
0.0
 10
0.7544759114583333
 20
-7.962304687499997
 30
0.0
 10
0.4664659288194444
 20
-8.166254340277777
 30
0.0
 10
0.1074869791666666
 20
-8.268229166666666
 30
0.0
 10
-0.3231499565972222
 20
-8.268229166666666
 30
0.0
 10
-0.3231499565972222
 20
-8.268229166666666
 30
0.0
 10
-2.62378472222222
 20
-8.268229166666666
 30
0.0
 10
-2.62378472222222
 20
-8.268229166666666
 30
0.0
  0
SPLINE
  5
23D8
330
23D6
100
AcDbEntity
  8
LAYER_1
 62
     7
100
AcDbSpline
210
0.0
220
0.0
230
1.0
 70
    11
 71
     3
 72
    26
 73
    22
 74
     0
 42
0.0000000001
 43
0.0000000001
 40
0.0
 40
0.0
 40
0.0
 40
0.0
 40
1.0
 40
1.0
 40
1.0
 40
2.0
 40
2.0
 40
2.0
 40
3.0
 40
3.0
 40
3.0
 40
4.0
 40
4.0
 40
4.0
 40
5.0
 40
5.0
 40
5.0
 40
6.0
 40
6.0
 40
6.0
 40
7.0
 40
7.0
 40
7.0
 40
7.0
 10
-3.946701388888888
 20
-10.7376736111111
 30
0.0
 10
-3.946701388888888
 20
-10.7376736111111
 30
0.0
 10
-0.0943956163194444
 20
-10.7376736111111
 30
0.0
 10
-0.0943956163194444
 20
-10.7376736111111
 30
0.0
 10
1.546847873263885
 20
-10.7376736111111
 30
0.0
 10
2.705777994791666
 20
-9.11021050347222
 30
0.0
 10
3.381705729166666
 20
-5.854595269097222
 30
0.0
 10
3.757910156249999
 20
-4.01284722222222
 30
0.0
 10
3.946701388888888
 20
-1.951991102430555
 30
0.0
 10
3.946701388888888
 20
0.328662109375
 30
0.0
 10
3.946701388888888
 20
3.281797960069443
 30
0.0
 10
3.622862413194443
 20
5.703700086805552
 30
0.0
 10
2.976562499999998
 20
7.594368489583332
 30
0.0
 10
2.25171440972222
 20
9.689675564236106
 30
0.0
 10
1.233344184027777
 20
10.7376736111111
 30
0.0
 10
-0.0799262152777778
 20
10.7376736111111
 30
0.0
 10
-0.0799262152777778
 20
10.7376736111111
 30
0.0
 10
-3.946701388888888
 20
10.7376736111111
 30
0.0
 10
-3.946701388888888
 20
10.7376736111111
 30
0.0
 10
-3.946701388888888
 20
10.7376736111111
 30
0.0
 10
-3.946701388888888
 20
-10.7376736111111
 30
0.0
 10
-3.946701388888888
 20
-10.7376736111111
 30
0.0
  0
ENDBLK
  5
23DA
330
23D6
100
AcDbEntity
  8
0
100
AcDbBlockEnd
  0
BLOCK
  5
23DE
330
23DB
100
AcDbEntity
  8
0
 62
     7
100
AcDbBlockBegin
  2
AI9-BLK4
 70
     0
 10
0.0
 20
0.0
 30
0.0
  3
AI9-BLK4
  1

  0
SPLINE
  5
23DC
330
23DB
100
AcDbEntity
  8
LAYER_1
 62
     7
100
AcDbSpline
210
0.0
220
0.0
230
1.0
 70
    11
 71
     3
 72
    26
 73
    22
 74
     0
 42
0.0000000001
 43
0.0000000001
 40
0.0
 40
0.0
 40
0.0
 40
0.0
 40
1.0
 40
1.0
 40
1.0
 40
2.0
 40
2.0
 40
2.0
 40
3.0
 40
3.0
 40
3.0
 40
4.0
 40
4.0
 40
4.0
 40
5.0
 40
5.0
 40
5.0
 40
6.0
 40
6.0
 40
6.0
 40
7.0
 40
7.0
 40
7.0
 40
7.0
 10
-2.645833333333333
 20
0.9039930555555551
 30
0.0
 10
-2.645833333333333
 20
0.9039930555555551
 30
0.0
 10
-2.645833333333333
 20
8.180034722222217
 30
0.0
 10
-2.645833333333333
 20
8.180034722222217
 30
0.0
 10
-2.645833333333333
 20
8.180034722222217
 30
0.0
 10
0.465087890625
 20
8.180034722222217
 30
0.0
 10
0.465087890625
 20
8.180034722222217
 30
0.0
 10
0.9026150173611108
 20
8.180034722222217
 30
0.0
 10
1.24988064236111
 20
8.034651692708331
 30
0.0
 10
1.506884765625
 20
7.745263671874997
 30
0.0
 10
2.001600477430554
 20
7.194048394097221
 30
0.0
 10
2.248958333333332
 20
6.160519748263887
 30
0.0
 10
2.248958333333332
 20
4.643299696180553
 30
0.0
 10
2.248958333333332
 20
3.232188585069443
 30
0.0
 10
2.072569444444444
 20
2.256537543402775
 30
0.0
 10
1.720480685763888
 20
1.715657552083333
 30
0.0
 10
1.368391927083333
 20
1.174088541666665
 30
0.0
 10
0.8929687499999998
 20
0.9039930555555551
 30
0.0
 10
0.2942111545138888
 20
0.9039930555555551
 30
0.0
 10
0.2942111545138888
 20
0.9039930555555551
 30
0.0
 10
-2.645833333333333
 20
0.9039930555555551
 30
0.0
 10
-2.645833333333333
 20
0.9039930555555551
 30
0.0
  0
SPLINE
  5
23DD
330
23DB
100
AcDbEntity
  8
LAYER_1
 62
     7
100
AcDbSpline
210
0.0
220
0.0
230
1.0
 70
    11
 71
     3
 72
    68
 73
    64
 74
     0
 42
0.0000000001
 43
0.0000000001
 40
0.0
 40
0.0
 40
0.0
 40
0.0
 40
1.0
 40
1.0
 40
1.0
 40
2.0
 40
2.0
 40
2.0
 40
3.0
 40
3.0
 40
3.0
 40
4.0
 40
4.0
 40
4.0
 40
5.0
 40
5.0
 40
5.0
 40
6.0
 40
6.0
 40
6.0
 40
7.0
 40
7.0
 40
7.0
 40
8.0
 40
8.0
 40
8.0
 40
9.0
 40
9.0
 40
9.0
 40
10.0
 40
10.0
 40
10.0
 40
11.0
 40
11.0
 40
11.0
 40
12.0
 40
12.0
 40
12.0
 40
13.0
 40
13.0
 40
13.0
 40
14.0
 40
14.0
 40
14.0
 40
15.0
 40
15.0
 40
15.0
 40
16.0
 40
16.0
 40
16.0
 40
17.0
 40
17.0
 40
17.0
 40
18.0
 40
18.0
 40
18.0
 40
19.0
 40
19.0
 40
19.0
 40
20.0
 40
20.0
 40
20.0
 40
21.0
 40
21.0
 40
21.0
 40
21.0
 10
-3.968749999999998
 20
-10.7376736111111
 30
0.0
 10
-3.968749999999998
 20
-10.7376736111111
 30
0.0
 10
-2.645833333333333
 20
-10.7376736111111
 30
0.0
 10
-2.645833333333333
 20
-10.7376736111111
 30
0.0
 10
-2.645833333333333
 20
-10.7376736111111
 30
0.0
 10
-2.645833333333333
 20
-1.521354166666665
 30
0.0
 10
-2.645833333333333
 20
-1.521354166666665
 30
0.0
 10
-2.645833333333333
 20
-1.521354166666665
 30
0.0
 10
0.2390896267361111
 20
-1.521354166666665
 30
0.0
 10
0.2390896267361111
 20
-1.521354166666665
 30
0.0
 10
0.7599880642361111
 20
-1.521354166666665
 30
0.0
 10
1.143771701388887
 20
-1.65295681423611
 30
0.0
 10
1.390440538194444
 20
-1.916162109374999
 30
0.0
 10
1.816254340277773
 20
-2.39434136284722
 30
0.0
 10
2.04363064236111
 20
-3.335541449652775
 30
0.0
 10
2.072569444444444
 20
-4.739762369791666
 30
0.0
 10
2.072569444444444
 20
-4.739762369791666
 30
0.0
 10
2.160763888888888
 20
-8.324039713541665
 30
0.0
 10
2.160763888888888
 20
-8.324039713541665
 30
0.0
 10
2.18005642361111
 20
-9.163264973958332
 30
0.0
 10
2.202794053819443
 20
-9.728949652777775
 30
0.0
 10
2.227598741319444
 20
-10.02109374999998
 30
0.0
 10
2.252403428819443
 20
-10.31392686631944
 30
0.0
 10
2.28892144097222
 20
-10.55301649305555
 30
0.0
 10
2.33853081597222
 20
-10.7376736111111
 30
0.0
 10
2.33853081597222
 20
-10.7376736111111
 30
0.0
 10
3.968749999999998
 20
-10.7376736111111
 30
0.0
 10
3.968749999999998
 20
-10.7376736111111
 30
0.0
 10
3.968749999999998
 20
-10.7376736111111
 30
0.0
 10
3.968749999999998
 20
-10.25260416666666
 30
0.0
 10
3.968749999999998
 20
-10.25260416666666
 30
0.0
 10
3.766867404513888
 20
-10.05830078125
 30
0.0
 10
3.625618489583333
 20
-9.621462673611112
 30
0.0
 10
3.545692274305555
 20
-8.942089843749997
 30
0.0
 10
3.49470486111111
 20
-8.543836805555555
 30
0.0
 10
3.459564887152775
 20
-7.937499999999999
 30
0.0
 10
3.439583333333333
 20
-7.121701388888887
 30
0.0
 10
3.439583333333333
 20
-7.121701388888887
 30
0.0
 10
3.395486111111106
 20
-4.232644314236106
 30
0.0
 10
3.395486111111106
 20
-4.232644314236106
 30
0.0
 10
3.375504557291666
 20
-2.981385633680555
 30
0.0
 10
3.26870659722222
 20
-2.077392578125
 30
0.0
 10
3.075781249999999
 20
-1.522043185763888
 30
0.0
 10
2.882166883680555
 20
-0.9666937934027776
 30
0.0
 10
2.592089843749999
 20
-0.5188313802083333
 30
0.0
 10
2.204861111111106
 20
-0.1770779079861111
 30
0.0
 10
2.63618706597222
 20
0.3197048611111111
 30
0.0
 10
2.971739366319443
 20
0.9770290798611107
 30
0.0
 10
3.211518012152775
 20
1.79558376736111
 30
0.0
 10
3.451296657986107
 20
2.613449435763888
 30
0.0
 10
3.571874999999999
 20
3.66558159722222
 30
0.0
 10
3.571874999999999
 20
4.951291232638888
 30
0.0
 10
3.571874999999999
 20
7.415912543402777
 30
0.0
 10
3.124701605902775
 20
9.106076388888887
 30
0.0
 10
2.231043836805555
 20
10.02178276909722
 30
0.0
 10
1.759754774305553
 20
10.498583984375
 30
0.0
 10
1.163753255208332
 20
10.7376736111111
 30
0.0
 10
0.443039279513889
 20
10.7376736111111
 30
0.0
 10
0.443039279513889
 20
10.7376736111111
 30
0.0
 10
-3.968749999999998
 20
10.7376736111111
 30
0.0
 10
-3.968749999999998
 20
10.7376736111111
 30
0.0
 10
-3.968749999999998
 20
10.7376736111111
 30
0.0
 10
-3.968749999999998
 20
-10.7376736111111
 30
0.0
 10
-3.968749999999998
 20
-10.7376736111111
 30
0.0
  0
ENDBLK
  5
23DF
330
23DB
100
AcDbEntity
  8
0
100
AcDbBlockEnd
  0
BLOCK
  5
23E3
330
23E0
100
AcDbEntity
  8
0
 62
     7
100
AcDbBlockBegin
  2
AI9-BLK3
 70
     0
 10
0.0
 20
0.0
 30
0.0
  3
AI9-BLK3
  1

  0
LWPOLYLINE
  5
23E1
330
23E0
100
AcDbEntity
  8
LAYER_1
 62
     7
100
AcDbPolyline
 90
        4
 70
     1
 43
0.0
 10
-0.6613722059461809
 20
10.7376736111111
 10
0.6613722059461809
 20
10.7376736111111
 10
0.6613722059461809
 20
-10.7376736111111
 10
-0.6613722059461809
 20
-10.7376736111111
  0
HATCH
  5
23E2
330
23E0
100
AcDbEntity
  8
LAYER_1
 62
     7
100
AcDbHatch
 10
0.0
 20
0.0
 30
0.0
210
0.0
220
0.0
230
1.0
  2
SOLID
 70
     1
 71
     0
 91
        1
 92
        3
 72
     0
 73
     1
 93
        4
 10
-0.6613722059461809
 20
10.7376736111111
 10
0.6613722059461809
 20
10.7376736111111
 10
0.6613722059461809
 20
-10.7376736111111
 10
-0.6613722059461809
 20
-10.7376736111111
 97
        0
 75
     2
 76
     1
 98
        1
 10
0.0
 20
0.0
  0
ENDBLK
  5
23E4
330
23E0
100
AcDbEntity
  8
0
100
AcDbBlockEnd
  0
BLOCK
  5
23E8
330
23E5
100
AcDbEntity
  8
0
 62
     7
100
AcDbBlockBegin
  2
AI9-BLK2
 70
     0
 10
0.0
 20
0.0
 30
0.0
  3
AI9-BLK2
  1

  0
LWPOLYLINE
  5
23E6
330
23E5
100
AcDbEntity
  8
LAYER_1
 62
     7
100
AcDbPolyline
 90
        7
 70
     1
 43
0.0
 10
-2.785704210069443
 20
10.7376736111111
 10
0.0
 20
-7.550960286458332
 10
2.771234809027776
 20
10.7376736111111
 10
4.233333333333331
 20
10.7376736111111
 10
0.6910861545138888
 20
-10.7376736111111
 10
-0.7055555555555558
 20
-10.7376736111111
 10
-4.233333333333331
 20
10.7376736111111
  0
HATCH
  5
23E7
330
23E5
100
AcDbEntity
  8
LAYER_1
 62
     7
100
AcDbHatch
 10
0.0
 20
0.0
 30
0.0
210
0.0
220
0.0
230
1.0
  2
SOLID
 70
     1
 71
     0
 91
        1
 92
        3
 72
     0
 73
     1
 93
        7
 10
-2.785704210069443
 20
10.7376736111111
 10
0.0
 20
-7.550960286458332
 10
2.771234809027776
 20
10.7376736111111
 10
4.233333333333331
 20
10.7376736111111
 10
0.6910861545138888
 20
-10.7376736111111
 10
-0.7055555555555558
 20
-10.7376736111111
 10
-4.233333333333331
 20
10.7376736111111
 97
        0
 75
     2
 76
     1
 98
        1
 10
0.0
 20
0.0
  0
ENDBLK
  5
23E9
330
23E5
100
AcDbEntity
  8
0
100
AcDbBlockEnd
  0
BLOCK
  5
23ED
330
23EA
100
AcDbEntity
  8
0
 62
     7
100
AcDbBlockBegin
  2
AI9-BLK1
 70
     0
 10
0.0
 20
0.0
 30
0.0
  3
AI9-BLK1
  1

  0
LWPOLYLINE
  5
23EB
330
23EA
100
AcDbEntity
  8
LAYER_1
 62
     7
100
AcDbPolyline
 90
       12
 70
     1
 43
0.0
 10
-3.571874999999999
 20
10.7376736111111
 10
3.483680555555555
 20
10.7376736111111
 10
3.483680555555555
 20
8.091840277777777
 10
-2.248958333333332
 20
8.091840277777777
 10
-2.248958333333332
 20
1.565451388888888
 10
3.042708333333333
 20
1.565451388888888
 10
3.042708333333333
 20
-0.9039930555555551
 10
-2.248958333333332
 20
-0.9039930555555551
 10
-2.248958333333332
 20
-8.180034722222217
 10
3.571874999999999
 20
-8.180034722222217
 10
3.571874999999999
 20
-10.7376736111111
 10
-3.571874999999999
 20
-10.7376736111111
  0
HATCH
  5
23EC
330
23EA
100
AcDbEntity
  8
LAYER_1
 62
     7
100
AcDbHatch
 10
0.0
 20
0.0
 30
0.0
210
0.0
220
0.0
230
1.0
  2
SOLID
 70
     1
 71
     0
 91
        1
 92
        3
 72
     0
 73
     1
 93
       12
 10
-3.571874999999999
 20
10.7376736111111
 10
3.483680555555555
 20
10.7376736111111
 10
3.483680555555555
 20
8.091840277777777
 10
-2.248958333333332
 20
8.091840277777777
 10
-2.248958333333332
 20
1.565451388888888
 10
3.042708333333333
 20
1.565451388888888
 10
3.042708333333333
 20
-0.9039930555555551
 10
-2.248958333333332
 20
-0.9039930555555551
 10
-2.248958333333332
 20
-8.180034722222217
 10
3.571874999999999
 20
-8.180034722222217
 10
3.571874999999999
 20
-10.7376736111111
 10
-3.571874999999999
 20
-10.7376736111111
 97
        0
 75
     2
 76
     1
 98
        1
 10
0.0
 20
0.0
  0
ENDBLK
  5
23EE
330
23EA
100
AcDbEntity
  8
0
100
AcDbBlockEnd
  0
BLOCK
  5
2412
330
23EF
100
AcDbEntity
  8
0
100
AcDbBlockBegin
  2
HD_LLC_logo_OT5
 70
     0
 10
0.0
 20
0.0
 30
0.0
  3
HD_LLC_logo_OT5
  1

  0
SPLINE
  5
23F0
102
{ACAD_REACTORS
330
2410
102
}
330
23EF
100
AcDbEntity
  8
LAYER_1
 62
     7
100
AcDbSpline
210
0.0
220
0.0
230
1.0
 70
    11
 71
     3
 72
   113
 73
   109
 74
     0
 42
0.0000000001
 43
0.0000000001
 40
0.0
 40
0.0
 40
0.0
 40
0.0
 40
1.0
 40
1.0
 40
1.0
 40
2.0
 40
2.0
 40
2.0
 40
3.0
 40
3.0
 40
3.0
 40
4.0
 40
4.0
 40
4.0
 40
5.0
 40
5.0
 40
5.0
 40
6.0
 40
6.0
 40
6.0
 40
7.0
 40
7.0
 40
7.0
 40
8.0
 40
8.0
 40
8.0
 40
9.0
 40
9.0
 40
9.0
 40
10.0
 40
10.0
 40
10.0
 40
11.0
 40
11.0
 40
11.0
 40
12.0
 40
12.0
 40
12.0
 40
13.0
 40
13.0
 40
13.0
 40
14.0
 40
14.0
 40
14.0
 40
15.0
 40
15.0
 40
15.0
 40
16.0
 40
16.0
 40
16.0
 40
17.0
 40
17.0
 40
17.0
 40
18.0
 40
18.0
 40
18.0
 40
19.0
 40
19.0
 40
19.0
 40
20.0
 40
20.0
 40
20.0
 40
21.0
 40
21.0
 40
21.0
 40
22.0
 40
22.0
 40
22.0
 40
23.0
 40
23.0
 40
23.0
 40
24.0
 40
24.0
 40
24.0
 40
25.0
 40
25.0
 40
25.0
 40
26.0
 40
26.0
 40
26.0
 40
27.0
 40
27.0
 40
27.0
 40
28.0
 40
28.0
 40
28.0
 40
29.0
 40
29.0
 40
29.0
 40
30.0
 40
30.0
 40
30.0
 40
31.0
 40
31.0
 40
31.0
 40
32.0
 40
32.0
 40
32.0
 40
33.0
 40
33.0
 40
33.0
 40
34.0
 40
34.0
 40
34.0
 40
35.0
 40
35.0
 40
35.0
 40
36.0
 40
36.0
 40
36.0
 40
36.0
 10
193.3039632161458
 20
186.1548733181423
 30
0.0
 10
193.3039632161458
 20
186.1860514322916
 30
0.0
 10
193.3039632161458
 20
219.6932223849826
 30
0.0
 10
193.3039632161458
 20
219.6932223849826
 30
0.0
 10
193.3039632161458
 20
219.6932223849826
 30
0.0
 10
193.2974175347219
 20
219.7488606770833
 30
0.0
 10
193.2974175347219
 20
219.7488606770833
 30
0.0
 10
191.5293945312499
 20
235.455740017361
 30
0.0
 10
175.1458984374999
 20
235.2467949761284
 30
0.0
 10
174.9808783637151
 20
235.2428331163193
 30
0.0
 10
174.9808783637151
 20
235.2428331163193
 30
0.0
 10
125.8827555338541
 20
235.2430053710937
 30
0.0
 10
125.8827555338541
 20
235.2430053710937
 30
0.0
 10
125.8827555338541
 20
235.2430053710937
 30
0.0
 10
125.8827555338541
 20
255.5278998480901
 30
0.0
 10
125.8827555338541
 20
255.5278998480901
 30
0.0
 10
125.8827555338541
 20
255.5278998480901
 30
0.0
 10
84.5626247829861
 20
255.5278998480901
 30
0.0
 10
84.5626247829861
 20
255.5278998480901
 30
0.0
 10
84.5626247829861
 20
255.5278998480901
 30
0.0
 10
84.55711263020829
 20
233.7919311523436
 30
0.0
 10
84.55711263020829
 20
233.7919311523436
 30
0.0
 10
84.55711263020829
 20
233.7919311523436
 30
0.0
 10
64.42052951388888
 20
233.7919311523436
 30
0.0
 10
64.42052951388888
 20
233.7919311523436
 30
0.0
 10
64.42052951388888
 20
233.7919311523436
 30
0.0
 10
64.41501736111111
 20
255.5278998480901
 30
0.0
 10
64.41501736111111
 20
255.5278998480901
 30
0.0
 10
64.41501736111111
 20
255.5278998480901
 30
0.0
 10
23.91757541232637
 20
255.5278998480901
 30
0.0
 10
23.91757541232637
 20
255.5278998480901
 30
0.0
 10
23.91757541232637
 20
255.5278998480901
 30
0.0
 10
23.91757541232637
 20
233.2393378363715
 30
0.0
 10
23.91757541232637
 20
233.2393378363715
 30
0.0
 10
23.91757541232637
 20
233.2393378363715
 30
0.0
 10
43.65624999999999
 20
233.2393378363715
 30
0.0
 10
43.65624999999999
 20
233.2393378363715
 30
0.0
 10
43.65624999999999
 20
233.2393378363715
 30
0.0
 10
43.65624999999999
 20
211.5188720703125
 30
0.0
 10
43.65624999999999
 20
211.5188720703125
 30
0.0
 10
43.65624999999999
 20
211.5188720703125
 30
0.0
 10
23.91757541232637
 20
211.5188720703125
 30
0.0
 10
23.91757541232637
 20
211.5188720703125
 30
0.0
 10
23.91757541232637
 20
211.5188720703125
 30
0.0
 10
23.91757541232637
 20
189.2303100585936
 30
0.0
 10
23.91757541232637
 20
189.2303100585936
 30
0.0
 10
23.91757541232637
 20
189.2303100585936
 30
0.0
 10
64.41501736111111
 20
189.2303100585936
 30
0.0
 10
64.41501736111111
 20
189.2303100585936
 30
0.0
 10
64.41501736111111
 20
189.2303100585936
 30
0.0
 10
64.42052951388888
 20
211.069976128472
 30
0.0
 10
64.42052951388888
 20
211.069976128472
 30
0.0
 10
64.42052951388888
 20
211.069976128472
 30
0.0
 10
84.55711263020829
 20
211.069976128472
 30
0.0
 10
84.55711263020829
 20
211.069976128472
 30
0.0
 10
84.55711263020829
 20
211.069976128472
 30
0.0
 10
84.5626247829861
 20
189.2303100585936
 30
0.0
 10
84.5626247829861
 20
189.2303100585936
 30
0.0
 10
84.5626247829861
 20
189.2303100585936
 30
0.0
 10
125.8827555338541
 20
189.2303100585936
 30
0.0
 10
125.8827555338541
 20
189.2303100585936
 30
0.0
 10
125.8827555338541
 20
189.2303100585936
 30
0.0
 10
125.8827555338541
 20
211.5188720703125
 30
0.0
 10
125.8827555338541
 20
211.5188720703125
 30
0.0
 10
125.8827555338541
 20
211.5188720703125
 30
0.0
 10
105.3213921440971
 20
211.5188720703125
 30
0.0
 10
105.3213921440971
 20
211.5188720703125
 30
0.0
 10
105.3213921440971
 20
211.5188720703125
 30
0.0
 10
105.3213921440971
 20
233.2393378363715
 30
0.0
 10
105.3213921440971
 20
233.2393378363715
 30
0.0
 10
105.3213921440971
 20
233.2393378363715
 30
0.0
 10
175.0046495225693
 20
233.243127441406
 30
0.0
 10
175.0046495225693
 20
233.243127441406
 30
0.0
 10
175.6268337673611
 20
233.2560465494791
 30
0.0
 10
189.7165852864583
 20
233.3962619357638
 30
0.0
 10
191.3037407769094
 20
219.5690266927083
 30
0.0
 10
191.3037407769094
 20
219.4332899305555
 30
0.0
 10
191.3037407769094
 20
186.1142211914062
 30
0.0
 10
191.3037407769094
 20
186.1142211914062
 30
0.0
 10
191.3037407769094
 20
186.1142211914062
 30
0.0
 10
191.3051188151039
 20
186.0880384657115
 30
0.0
 10
191.3051188151039
 20
186.0880384657115
 30
0.0
 10
191.3054633246526
 20
186.0787367078991
 30
0.0
 10
191.3109754774304
 20
185.9566080729166
 30
0.0
 10
191.3109754774304
 20
185.7399115668401
 30
0.0
 10
191.3109754774304
 20
184.2090833875865
 30
0.0
 10
191.0488037109374
 20
177.9643310546874
 30
0.0
 10
186.9866916232638
 20
173.5652886284722
 30
0.0
 10
184.2540418836804
 20
170.6064683702255
 30
0.0
 10
180.3224989149304
 20
169.0308539496526
 30
0.0
 10
175.300927734375
 20
168.8825425889756
 30
0.0
 10
175.300927734375
 20
168.8825425889756
 30
0.0
 10
107.0094889322916
 20
168.8828870985243
 30
0.0
 10
107.0094889322916
 20
168.8828870985243
 30
0.0
 10
107.0094889322916
 20
168.8828870985243
 30
0.0
 10
107.0094889322916
 20
166.8830091688368
 30
0.0
 10
107.0094889322916
 20
166.8830091688368
 30
0.0
 10
107.0094889322916
 20
166.8830091688368
 30
0.0
 10
175.3305555555555
 20
166.8830091688368
 30
0.0
 10
175.3305555555555
 20
166.8830091688368
 30
0.0
 10
180.9467502170138
 20
167.0485460069444
 30
0.0
 10
185.3571614583333
 20
168.8448187934026
 30
0.0
 10
188.4687717013888
 20
172.2223904079861
 30
0.0
 10
192.9649658203124
 20
177.1034016927083
 30
0.0
 10
193.3136094835069
 20
183.7202243381076
 30
0.0
 10
193.3136094835069
 20
185.6520616319443
 30
0.0
 10
193.3136094835069
 20
185.9247409396701
 30
0.0
 10
193.3070638020833
 20
186.0868326822916
 30
0.0
 10
193.3039632161458
 20
186.1548733181423
 30
0.0
  0
INSERT
  5
23F1
102
{ACAD_REACTORS
330
2411
102
}
330
23EF
100
AcDbEntity
  8
LAYER_1
 62
     7
100
AcDbBlockReference
  2
AI9-BLK14
 10
159.5625257703993
 20
200.5118781195744
 30
0.0
  0
INSERT
  5
23F2
330
23EF
100
AcDbEntity
  8
LAYER_1
 62
     7
100
AcDbBlockReference
  2
AI9-BLK13
 10
27.69615614149305
 20
179.2145562065971
 30
0.0
 42
0.9200000000000001
  0
INSERT
  5
23F3
102
{ACAD_REACTORS
330
23FE
102
}
330
23EF
100
AcDbEntity
  8
LAYER_1
 62
     7
100
AcDbBlockReference
  2
AI9-BLK11
 10
44.76591525607638
 20
179.2145562065971
 30
0.0
 42
0.9200000000000001
  0
INSERT
  5
23F4
102
{ACAD_REACTORS
330
240C
102
}
330
23EF
100
AcDbEntity
  8
LAYER_1
 62
     7
100
AcDbBlockReference
  2
AI9-BLK10
 10
54.04665798611111
 20
179.2145562065971
 30
0.0
 42
0.9200000000000001
  0
INSERT
  5
23F5
102
{ACAD_REACTORS
330
240B
102
}
330
23EF
100
AcDbEntity
  8
LAYER_1
 62
     7
100
AcDbBlockReference
  2
AI9-BLK9
 10
62.79013807508679
 20
179.2145562065971
 30
0.0
 42
0.9
  0
INSERT
  5
23F6
330
23EF
100
AcDbEntity
  8
LAYER_1
 62
     7
100
AcDbBlockReference
  2
AI9-BLK8
 10
71.03046196831595
 20
179.2145562065971
 30
0.0
 42
0.9200000000000001
  0
INSERT
  5
23F7
330
23EF
100
AcDbEntity
  8
LAYER_1
 62
     7
100
AcDbBlockReference
  2
AI9-BLK7
 10
76.93793945312498
 20
179.2145562065971
 30
0.0
 42
0.9200000000000001
  0
INSERT
  5
23F8
102
{ACAD_REACTORS
330
23FF
102
}
330
23EF
100
AcDbEntity
  8
LAYER_1
 62
     7
100
AcDbBlockReference
  2
AI9-BLK6
 10
82.55602891710069
 20
179.2145562065971
 30
0.0
 42
0.9
  0
INSERT
  5
23F9
102
{ACAD_REACTORS
330
240D
102
}
330
23EF
100
AcDbEntity
  8
LAYER_1
 62
     7
100
AcDbBlockReference
  2
AI9-BLK5
 10
94.32430284288193
 20
179.2145562065971
 30
0.0
 42
0.9200000000000001
  0
INSERT
  5
23FA
102
{ACAD_REACTORS
330
240E
102
}
330
23EF
100
AcDbEntity
  8
LAYER_1
 62
     7
100
AcDbBlockReference
  2
AI9-BLK4
 10
103.2081705729166
 20
179.2145562065971
 30
0.0
 42
0.9200000000000001
  0
INSERT
  5
23FB
330
23EF
100
AcDbEntity
  8
LAYER_1
 62
     7
100
AcDbBlockReference
  2
AI9-BLK3
 10
108.850978597005
 20
179.2145562065971
 30
0.0
 42
0.9200000000000001
  0
INSERT
  5
23FC
330
23EF
100
AcDbEntity
  8
LAYER_1
 62
     7
100
AcDbBlockReference
  2
AI9-BLK2
 10
114.2045708550346
 20
179.2145562065971
 30
0.0
 42
0.9200000000000001
  0
INSERT
  5
23FD
330
23EF
100
AcDbEntity
  8
LAYER_1
 62
     7
100
AcDbBlockReference
  2
AI9-BLK1
 10
122.4125108506944
 20
179.2145562065971
 30
0.0
 42
0.9200000000000001
  0
HATCH
  5
23FE
330
23EF
100
AcDbEntity
  8
0
  6
Continuous
100
AcDbHatch
 10
0.0
 20
0.0
 30
0.0
210
0.0
220
0.0
230
1.0
  2
SOLID
 70
     1
 71
     1
 91
        2
 92
       16
 93
        1
 72
     4
 94
        3
 73
     0
 74
     0
 95
       26
 96
       22
 40
0.0
 40
0.0
 40
0.0
 40
0.0
 40
1.0
 40
1.0
 40
1.0
 40
2.0
 40
2.0
 40
2.0
 40
3.0
 40
3.0
 40
3.0
 40
4.0
 40
4.0
 40
4.0
 40
5.0
 40
5.0
 40
5.0
 40
6.0
 40
6.0
 40
6.0
 40
7.0
 40
7.0
 40
7.0
 40
7.0
 10
42.12008192274304
 20
180.046229817708
 10
42.12008192274304
 20
180.046229817708
 10
42.12008192274304
 20
186.7401881510414
 10
42.12008192274304
 20
186.7401881510414
 10
42.12008192274304
 20
186.7401881510414
 10
45.23100314670138
 20
186.7401881510414
 10
45.23100314670138
 20
186.7401881510414
 10
45.66853027343749
 20
186.7401881510414
 10
46.01579589843749
 20
186.6064357638887
 10
46.27280002170138
 20
186.3401987847218
 10
46.76751573350694
 20
185.8330807291664
 10
47.01487358940972
 20
184.8822343749996
 10
47.01487358940972
 20
183.4863919270832
 10
47.01487358940972
 20
182.188169704861
 10
46.83848470052082
 20
181.2905707465276
 10
46.48639594184028
 20
180.7929611545137
 10
46.13430718315971
 20
180.2947176649304
 10
45.65888400607638
 20
180.046229817708
 10
45.06012641059028
 20
180.046229817708
 10
45.06012641059028
 20
180.046229817708
 10
42.12008192274304
 20
180.046229817708
 10
42.12008192274304
 20
180.046229817708
 97
        1
330
23F3
 92
        1
 93
        1
 72
     4
 94
        3
 73
     0
 74
     0
 95
       68
 96
       64
 40
0.0
 40
0.0
 40
0.0
 40
0.0
 40
1.0
 40
1.0
 40
1.0
 40
2.0
 40
2.0
 40
2.0
 40
3.0
 40
3.0
 40
3.0
 40
4.0
 40
4.0
 40
4.0
 40
5.0
 40
5.0
 40
5.0
 40
6.0
 40
6.0
 40
6.0
 40
7.0
 40
7.0
 40
7.0
 40
8.0
 40
8.0
 40
8.0
 40
9.0
 40
9.0
 40
9.0
 40
10.0
 40
10.0
 40
10.0
 40
11.0
 40
11.0
 40
11.0
 40
12.0
 40
12.0
 40
12.0
 40
13.0
 40
13.0
 40
13.0
 40
14.0
 40
14.0
 40
14.0
 40
15.0
 40
15.0
 40
15.0
 40
16.0
 40
16.0
 40
16.0
 40
17.0
 40
17.0
 40
17.0
 40
18.0
 40
18.0
 40
18.0
 40
19.0
 40
19.0
 40
19.0
 40
20.0
 40
20.0
 40
20.0
 40
21.0
 40
21.0
 40
21.0
 40
21.0
 10
40.79716525607638
 20
169.3358964843748
 10
40.79716525607638
 20
169.3358964843748
 10
42.12008192274304
 20
169.3358964843748
 10
42.12008192274304
 20
169.3358964843748
 10
42.12008192274304
 20
169.3358964843748
 10
42.12008192274304
 20
177.8149103732637
 10
42.12008192274304
 20
177.8149103732637
 10
42.12008192274304
 20
177.8149103732637
 10
45.00500488281249
 20
177.8149103732637
 10
45.00500488281249
 20
177.8149103732637
 10
45.52590332031249
 20
177.8149103732637
 10
45.90968695746528
 20
177.6938359374998
 10
46.15635579427083
 20
177.4516870659719
 10
46.58216959635415
 20
177.0117621527776
 10
46.80954589843749
 20
176.1458580729164
 10
46.83848470052082
 20
174.8539748263887
 10
46.83848470052082
 20
174.8539748263887
 10
46.92667914496527
 20
171.5564396701385
 10
46.92667914496527
 20
171.5564396701385
 10
46.94597167968749
 20
170.7843524305554
 10
46.96870930989581
 20
170.2639225260415
 10
46.99351399739582
 20
169.9951499565971
 10
47.01831868489581
 20
169.725743489583
 10
47.0548366970486
 20
169.5057810329859
 10
47.10444607204859
 20
169.3358964843748
 10
47.10444607204859
 20
169.3358964843748
 10
48.73466525607638
 20
169.3358964843748
 10
48.73466525607638
 20
169.3358964843748
 10
48.73466525607638
 20
169.3358964843748
 10
48.73466525607638
 20
169.7821603732635
 10
48.73466525607638
 20
169.7821603732635
 10
48.53278266059028
 20
169.9609194878471
 10
48.39153374565971
 20
170.3628105468748
 10
48.31160753038194
 20
170.9878335503471
 10
48.26062011718749
 20
171.3542263454858
 10
48.22548014322915
 20
171.9120562065971
 10
48.20549858940971
 20
172.6625909288193
 10
48.20549858940971
 20
172.6625909288193
 10
48.16140136718749
 20
175.3205234374999
 10
48.16140136718749
 20
175.3205234374999
 10
48.14141981336803
 20
176.4716814236109
 10
48.03462185329859
 20
177.3033550347219
 10
47.84169650607638
 20
177.8142764756941
 10
47.64808213975693
 20
178.3251979166665
 10
47.35800509982638
 20
178.7372313368054
 10
46.97077636718749
 20
179.0516445312498
 10
47.4021023220486
 20
179.5086846788193
 10
47.73765462239582
 20
180.1134229600693
 10
47.97743326822915
 20
180.8664932725691
 10
48.21721191406249
 20
181.6189296874999
 10
48.33779025607638
 20
182.5868912760413
 10
48.33779025607638
 20
183.7697441406248
 10
48.33779025607638
 20
186.0371957465274
 10
47.89061686197916
 20
187.5921464843749
 10
46.99695909288194
 20
188.4345963541665
 10
46.52567003038194
 20
188.8732534722221
 10
45.92966851128472
 20
189.0932159288193
 10
45.20895453559027
 20
189.0932159288193
 10
45.20895453559027
 20
189.0932159288193
 10
40.79716525607638
 20
189.0932159288193
 10
40.79716525607638
 20
189.0932159288193
 10
40.79716525607638
 20
189.0932159288193
 10
40.79716525607638
 20
169.3358964843748
 10
40.79716525607638
 20
169.3358964843748
 97
        0
 75
     0
 76
     1
 98
        0
  0
HATCH
  5
23FF
330
23EF
100
AcDbEntity
  8
0
  6
Continuous
100
AcDbHatch
 10
0.0
 20
0.0
 30
0.0
210
0.0
220
0.0
230
1.0
  2
SOLID
 70
     1
 71
     1
 91
        1
 92
        1
 93
        1
 72
     4
 94
        3
 73
     0
 74
     0
 95
       59
 96
       55
 40
0.0
 40
0.0
 40
0.0
 40
0.0
 40
1.0
 40
1.0
 40
1.0
 40
2.0
 40
2.0
 40
2.0
 40
3.0
 40
3.0
 40
3.0
 40
4.0
 40
4.0
 40
4.0
 40
5.0
 40
5.0
 40
5.0
 40
6.0
 40
6.0
 40
6.0
 40
7.0
 40
7.0
 40
7.0
 40
8.0
 40
8.0
 40
8.0
 40
9.0
 40
9.0
 40
9.0
 40
10.0
 40
10.0
 40
10.0
 40
11.0
 40
11.0
 40
11.0
 40
12.0
 40
12.0
 40
12.0
 40
13.0
 40
13.0
 40
13.0
 40
14.0
 40
14.0
 40
14.0
 40
15.0
 40
15.0
 40
15.0
 40
16.0
 40
16.0
 40
16.0
 40
17.0
 40
17.0
 40
17.0
 40
18.0
 40
18.0
 40
18.0
 40
18.0
 10
85.61871880425345
 20
187.4658355034721
 10
86.29120144314232
 20
186.1797124565971
 10
86.66671685112847
 20
184.7193364800346
 10
86.7452650282118
 20
183.0840874565969
 10
86.7452650282118
 20
183.0840874565969
 10
85.42234836154511
 20
183.0840874565969
 10
85.42234836154511
 20
183.0840874565969
 10
85.27696533203123
 20
184.3156401909719
 10
84.99171142578125
 20
185.2917046440971
 10
84.56589762369791
 20
186.0122808159719
 10
84.14008382161458
 20
186.7322368706594
 10
83.53994818793401
 20
187.0925249565969
 10
82.76617974175342
 20
187.0925249565969
 10
81.81740044487847
 20
187.0925249565969
 10
81.05258924696178
 20
186.4240386284721
 10
80.47243516710068
 20
185.0883062065971
 10
79.89159206814234
 20
183.7525737847219
 10
79.6015150282118
 20
181.7049468315971
 10
79.6015150282118
 20
178.9454253472221
 10
79.6015150282118
 20
176.6844780815969
 10
79.86265326605901
 20
174.8514116753471
 10
80.38561876085069
 20
173.4456060112846
 10
80.90789523654512
 20
172.0391802300344
 10
81.69199896918403
 20
171.3365874565971
 10
82.73724093967013
 20
171.3365874565971
 10
83.69497748480901
 20
171.3365874565971
 10
84.42120361328125
 20
172.0794878472221
 10
84.91523030598958
 20
173.5665288628469
 10
85.18601481119791
 20
174.3491167534719
 10
85.38445231119791
 20
175.3785112847221
 10
85.51054280598959
 20
176.6547124565971
 10
85.51054280598959
 20
176.6547124565971
 10
86.83345947265625
 20
176.6547124565971
 10
86.83345947265625
 20
176.6547124565971
 10
86.72597249348957
 20
174.6157671440971
 10
86.35114610460069
 20
172.9061040581596
 10
85.70760226779514
 20
171.526343315972
 10
84.93727891710069
 20
169.8650493706596
 10
83.90375027126735
 20
169.0347124565971
 10
82.60701633029514
 20
169.0347124565971
 10
81.48598225911458
 20
169.0347124565971
 10
80.54547119140625
 20
169.7143608940971
 10
79.78479410807292
 20
171.0742778862845
 10
78.78020426432292
 20
172.8726177300344
 10
78.27859836154512
 20
175.6495024956596
 10
78.27859836154512
 20
179.4049321831594
 10
78.27859836154512
 20
182.2562310112846
 10
78.65342475043402
 20
184.5946929253469
 10
79.40445556640622
 20
186.4196978081596
 10
80.22301025390625
 20
188.4028325737846
 10
81.34955647786458
 20
189.3943999565971
 10
82.78271620008679
 20
189.3943999565971
 10
84.00090196397568
 20
189.3943999565971
 10
84.94623616536458
 20
188.7513384331594
 10
85.61871880425345
 20
187.4658355034721
 97
        1
330
23F8
 75
     0
 76
     1
 98
        1
 10
0.0
 20
0.0
  0
LINE
  5
2400
102
{ACAD_REACTORS
330
240F
102
}
330
23EF
100
AcDbEntity
  8
LAYER_1
 62
     7
100
AcDbLine
 10
34.65766059027778
 20
177.4497853732638
 30
0.0
 11
36.19830729166666
 21
186.1658769531249
 31
0.0
  0
LINE
  5
2401
102
{ACAD_REACTORS
330
240F
102
}
330
23EF
100
AcDbEntity
  8
LAYER_1
 62
     7
100
AcDbLine
 10
36.19830729166666
 20
186.1658769531249
 30
0.0
 11
37.67556423611111
 21
177.4497853732638
 31
0.0
  0
LINE
  5
2402
102
{ACAD_REACTORS
330
240F
102
}
330
23EF
100
AcDbEntity
  8
LAYER_1
 62
     7
100
AcDbLine
 10
37.67556423611111
 20
177.4497853732638
 30
0.0
 11
34.65766059027778
 21
177.4497853732638
 31
0.0
  0
LINE
  5
2403
102
{ACAD_REACTORS
330
240F
102
}
330
23EF
100
AcDbEntity
  8
LAYER_1
 62
     7
100
AcDbLine
 10
31.83957248263888
 20
169.3358964843748
 30
0.0
 11
33.22450086805555
 21
169.3358964843748
 31
0.0
  0
LINE
  5
2404
102
{ACAD_REACTORS
330
240F
102
}
330
23EF
100
AcDbEntity
  8
LAYER_1
 62
     7
100
AcDbLine
 10
33.22450086805555
 20
169.3358964843748
 30
0.0
 11
34.27043185763887
 21
175.2590353732638
 31
0.0
  0
LINE
  5
2405
102
{ACAD_REACTORS
330
240F
102
}
330
23EF
100
AcDbEntity
  8
LAYER_1
 62
     7
100
AcDbLine
 10
34.27043185763887
 20
175.2590353732638
 30
0.0
 11
38.04694552951389
 21
175.2590353732638
 31
0.0
  0
LINE
  5
2406
102
{ACAD_REACTORS
330
240F
102
}
330
23EF
100
AcDbEntity
  8
LAYER_1
 62
     7
100
AcDbLine
 10
38.04694552951389
 20
175.2590353732638
 30
0.0
 11
39.05015733506942
 21
169.3358964843748
 31
0.0
  0
LINE
  5
2407
102
{ACAD_REACTORS
330
240F
102
}
330
23EF
100
AcDbEntity
  8
LAYER_1
 62
     7
100
AcDbLine
 10
39.05015733506942
 20
169.3358964843748
 30
0.0
 11
40.43508572048611
 21
169.3358964843748
 31
0.0
  0
LINE
  5
2408
102
{ACAD_REACTORS
330
240F
102
}
330
23EF
100
AcDbEntity
  8
LAYER_1
 62
     7
100
AcDbLine
 10
40.43508572048611
 20
169.3358964843748
 30
0.0
 11
36.952783203125
 21
189.0932159288193
 31
0.0
  0
LINE
  5
2409
102
{ACAD_REACTORS
330
240F
102
}
330
23EF
100
AcDbEntity
  8
LAYER_1
 62
     7
100
AcDbLine
 10
36.952783203125
 20
189.0932159288193
 30
0.0
 11
35.47828233506943
 21
189.0932159288193
 31
0.0
  0
LINE
  5
240A
102
{ACAD_REACTORS
330
240F
102
}
330
23EF
100
AcDbEntity
  8
LAYER_1
 62
     7
100
AcDbLine
 10
35.47828233506943
 20
189.0932159288193
 30
0.0
 11
31.83957248263888
 21
169.3358964843748
 31
0.0
  0
HATCH
  5
240B
330
23EF
100
AcDbEntity
  8
0
  6
Continuous
100
AcDbHatch
 10
0.0
 20
0.0
 30
0.0
210
0.0
220
0.0
230
1.0
  2
SOLID
 70
     1
 71
     1
 91
        2
 92
       16
 93
        1
 72
     4
 94
        3
 73
     0
 74
     0
 95
       29
 96
       25
 40
0.0
 40
0.0
 40
0.0
 40
0.0
 40
1.0
 40
1.0
 40
1.0
 40
2.0
 40
2.0
 40
2.0
 40
3.0
 40
3.0
 40
3.0
 40
4.0
 40
4.0
 40
4.0
 40
5.0
 40
5.0
 40
5.0
 40
6.0
 40
6.0
 40
6.0
 40
7.0
 40
7.0
 40
7.0
 40
8.0
 40
8.0
 40
8.0
 40
8.0
 10
62.85697292751734
 20
171.3365874565971
 10
61.88338894314235
 20
171.3365874565971
 10
61.18058946397566
 20
172.0714263237844
 10
60.74857449001735
 20
173.5411040581594
 10
60.31587049696178
 20
175.0107817925344
 10
60.10020751953123
 20
176.8165630425343
 10
60.10020751953123
 20
178.9578276909721
 10
60.10020751953123
 20
181.6342534722221
 10
60.35101047092013
 20
183.6589360894094
 10
60.85261637369789
 20
185.0324956597219
 10
61.35422227647566
 20
186.4054351128471
 10
62.00741238064235
 20
187.0925249565969
 10
62.81218668619789
 20
187.0925249565969
 10
63.6369425455729
 20
187.0925249565969
 10
64.28806559244789
 20
186.3992339409721
 10
64.76486680772568
 20
185.0126519097221
 10
65.24166802300347
 20
183.6260698784719
 10
65.48006863064235
 20
181.7961040581594
 10
65.48006863064235
 20
179.5239946831596
 10
65.48006863064235
 20
177.3734282769096
 10
65.27336290147568
 20
175.4715288628469
 10
64.86132948133678
 20
173.8176763237846
 10
64.4492960611979
 20
172.1632036675344
 10
63.78094753689235
 20
171.3365874565971
 10
62.85697292751734
 20
171.3365874565971
 97
        1
330
23F5
 92
        1
 93
        1
 72
     4
 94
        3
 73
     0
 74
     0
 95
       29
 96
       25
 40
0.0
 40
0.0
 40
0.0
 40
0.0
 40
1.0
 40
1.0
 40
1.0
 40
2.0
 40
2.0
 40
2.0
 40
3.0
 40
3.0
 40
3.0
 40
4.0
 40
4.0
 40
4.0
 40
5.0
 40
5.0
 40
5.0
 40
6.0
 40
6.0
 40
6.0
 40
7.0
 40
7.0
 40
7.0
 40
8.0
 40
8.0
 40
8.0
 40
8.0
 10
62.76119927300346
 20
189.4340874565971
 10
61.47273356119789
 20
189.4340874565971
 10
60.50121663411457
 20
188.2397417534719
 10
59.84733751085068
 20
185.8516704644094
 10
59.3395304361979
 20
183.9900786675344
 10
59.08597140842012
 20
181.7514556206596
 10
59.08597140842012
 20
179.1351812065971
 10
59.08597140842012
 20
176.2379937065971
 10
59.3836276584201
 20
173.8412407769094
 10
59.9789401584201
 20
171.9449224175346
 10
60.6424655490451
 20
169.9779106987846
 10
61.5602389865451
 20
168.9950249565971
 10
62.7315714518229
 20
168.9950249565971
 10
63.9904093424479
 20
168.9950249565971
 10
64.95641411675345
 20
170.1186773003469
 10
65.63027479383679
 20
172.3659819878471
 10
66.20629475911457
 20
174.2796636284719
 10
66.49430474175345
 20
176.6813774956593
 10
66.49430474175345
 20
179.5698833550344
 10
66.49430474175345
 20
182.2388677300343
 10
66.24005669487845
 20
184.4291216362844
 10
65.73293863932289
 20
186.1412651909719
 10
65.08870578342011
 20
188.3364800347219
 10
64.09789632161457
 20
189.4340874565971
 10
62.76119927300346
 20
189.4340874565971
 97
        0
 75
     0
 76
     1
 98
        0
  0
HATCH
  5
240C
330
23EF
100
AcDbEntity
  8
0
  6
Continuous
100
AcDbHatch
 10
0.0
 20
0.0
 30
0.0
210
0.0
220
0.0
230
1.0
  2
SOLID
 70
     1
 71
     1
 91
        1
 92
        1
 93
        1
 72
     4
 94
        3
 73
     0
 74
     0
 95
       59
 96
       55
 40
0.0
 40
0.0
 40
0.0
 40
0.0
 40
1.0
 40
1.0
 40
1.0
 40
2.0
 40
2.0
 40
2.0
 40
3.0
 40
3.0
 40
3.0
 40
4.0
 40
4.0
 40
4.0
 40
5.0
 40
5.0
 40
5.0
 40
6.0
 40
6.0
 40
6.0
 40
7.0
 40
7.0
 40
7.0
 40
8.0
 40
8.0
 40
8.0
 40
9.0
 40
9.0
 40
9.0
 40
10.0
 40
10.0
 40
10.0
 40
11.0
 40
11.0
 40
11.0
 40
12.0
 40
12.0
 40
12.0
 40
13.0
 40
13.0
 40
13.0
 40
14.0
 40
14.0
 40
14.0
 40
15.0
 40
15.0
 40
15.0
 40
16.0
 40
16.0
 40
16.0
 40
17.0
 40
17.0
 40
17.0
 40
18.0
 40
18.0
 40
18.0
 40
18.0
 10
49.39440104166666
 20
189.0932159288193
 10
49.39440104166666
 20
189.0932159288193
 10
51.24786241319444
 20
189.0932159288193
 10
51.24786241319444
 20
189.0932159288193
 10
51.24786241319444
 20
189.0932159288193
 10
54.04665798611111
 20
172.3887471788193
 10
54.04665798611111
 20
172.3887471788193
 10
54.04665798611111
 20
172.3887471788193
 10
56.83994140624999
 20
189.0932159288193
 10
56.83994140624999
 20
189.0932159288193
 10
56.83994140624999
 20
189.0932159288193
 10
58.69891493055553
 20
189.0932159288193
 10
58.69891493055553
 20
189.0932159288193
 10
58.69891493055553
 20
189.0932159288193
 10
58.69891493055553
 20
169.3358964843748
 10
58.69891493055553
 20
169.3358964843748
 10
58.69891493055553
 20
169.3358964843748
 10
57.46419270833333
 20
169.3358964843748
 10
57.46419270833333
 20
169.3358964843748
 10
57.46419270833333
 20
169.3358964843748
 10
57.46419270833333
 20
180.9964422743054
 10
57.46419270833333
 20
180.9964422743054
 10
57.46419270833333
 20
181.3996011284721
 10
57.47108289930555
 20
182.0677291666664
 10
57.48624131944444
 20
183.0001924913193
 10
57.50071072048609
 20
183.9326558159721
 10
57.50828993055553
 20
184.932312282986
 10
57.50828993055553
 20
185.9997957899304
 10
57.50828993055553
 20
185.9997957899304
 10
54.700537109375
 20
169.3358964843748
 10
54.700537109375
 20
169.3358964843748
 10
54.700537109375
 20
169.3358964843748
 10
53.38382161458333
 20
169.3358964843748
 10
53.38382161458333
 20
169.3358964843748
 10
53.38382161458333
 20
169.3358964843748
 10
50.58502604166665
 20
185.9997957899304
 10
50.58502604166665
 20
185.9997957899304
 10
50.58502604166665
 20
185.9997957899304
 10
50.58502604166665
 20
185.3944236111109
 10
50.58502604166665
 20
185.3944236111109
 10
50.58502604166665
 20
184.9101258680554
 10
50.59191623263888
 20
184.1729029947915
 10
50.60707465277777
 20
183.1821210937498
 10
50.62154405381942
 20
182.1913391927082
 10
50.62912326388889
 20
181.4629908854165
 10
50.62912326388889
 20
180.9964422743054
 10
50.62912326388889
 20
180.9964422743054
 10
50.62912326388889
 20
169.3358964843748
 10
50.62912326388889
 20
169.3358964843748
 10
50.62912326388889
 20
169.3358964843748
 10
49.39440104166666
 20
169.3358964843748
 10
49.39440104166666
 20
169.3358964843748
 10
49.39440104166666
 20
169.3358964843748
 10
49.39440104166666
 20
189.0932159288193
 10
49.39440104166666
 20
189.0932159288193
 97
        1
330
23F4
 75
     0
 76
     1
 98
        1
 10
0.0
 20
0.0
  0
HATCH
  5
240D
330
23EF
100
AcDbEntity
  8
0
  6
Continuous
100
AcDbHatch
 10
0.0
 20
0.0
 30
0.0
210
0.0
220
0.0
230
1.0
  2
SOLID
 70
     1
 71
     1
 91
        2
 92
       16
 93
        1
 72
     4
 94
        3
 73
     0
 74
     0
 95
       32
 96
       28
 40
0.0
 40
0.0
 40
0.0
 40
0.0
 40
1.0
 40
1.0
 40
1.0
 40
2.0
 40
2.0
 40
2.0
 40
3.0
 40
3.0
 40
3.0
 40
4.0
 40
4.0
 40
4.0
 40
5.0
 40
5.0
 40
5.0
 40
6.0
 40
6.0
 40
6.0
 40
7.0
 40
7.0
 40
7.0
 40
8.0
 40
8.0
 40
8.0
 40
9.0
 40
9.0
 40
9.0
 40
9.0
 10
91.70051812065969
 20
171.6077853732635
 10
91.70051812065969
 20
171.6077853732635
 10
91.70051812065969
 20
186.7401881510414
 10
91.70051812065969
 20
186.7401881510414
 10
91.70051812065969
 20
186.7401881510414
 10
93.98668348524305
 20
186.7401881510414
 10
93.98668348524305
 20
186.7401881510414
 10
95.02159016927082
 20
186.7401881510414
 10
95.77331000434028
 20
186.0644533420137
 10
96.24322102864582
 20
184.7142515190969
 10
96.71313205295138
 20
183.3640496961804
 10
96.94808756510417
 20
181.4680620659721
 10
96.94808756510417
 20
179.0262886284719
 10
96.94808756510417
 20
178.3911232638887
 10
96.91432562934028
 20
177.7027105034721
 10
96.84749077690971
 20
176.9604164496524
 10
96.7324245876736
 20
175.7167094184024
 10
96.55052354600693
 20
174.6974021267359
 10
96.30109863281248
 20
173.901860677083
 10
95.98414984809028
 20
172.9091770833332
 10
95.57693956163193
 20
172.2378795572914
 10
95.07877875434026
 20
171.8892358940971
 10
94.79076877170138
 20
171.7016022135415
 10
94.43178982204859
 20
171.6077853732635
 10
94.00115288628471
 20
171.6077853732635
 10
94.00115288628471
 20
171.6077853732635
 10
91.70051812065969
 20
171.6077853732635
 10
91.70051812065969
 20
171.6077853732635
 97
        1
330
23F9
 92
        1
 93
        1
 72
     4
 94
        3
 73
     0
 74
     0
 95
       26
 96
       22
 40
0.0
 40
0.0
 40
0.0
 40
0.0
 40
1.0
 40
1.0
 40
1.0
 40
2.0
 40
2.0
 40
2.0
 40
3.0
 40
3.0
 40
3.0
 40
4.0
 40
4.0
 40
4.0
 40
5.0
 40
5.0
 40
5.0
 40
6.0
 40
6.0
 40
6.0
 40
7.0
 40
7.0
 40
7.0
 40
7.0
 10
90.37760145399305
 20
169.3358964843748
 10
90.37760145399305
 20
169.3358964843748
 10
94.22990722656248
 20
169.3358964843748
 10
94.22990722656248
 20
169.3358964843748
 10
95.87115071614581
 20
169.3358964843748
 10
97.03008083767359
 20
170.8331625434026
 10
97.70600857204859
 20
173.8283285590274
 10
98.08221299913194
 20
175.5227367621524
 10
98.27100423177082
 20
177.4187243923609
 10
98.27100423177082
 20
179.5169253472221
 10
98.27100423177082
 20
182.233810329861
 10
97.94716525607638
 20
184.4619602864582
 10
97.30086534288195
 20
186.2013752170135
 10
96.57601725260416
 20
188.1290577256941
 10
95.5576470269097
 20
189.0932159288193
 10
94.24437662760416
 20
189.0932159288193
 10
94.24437662760416
 20
189.0932159288193
 10
90.37760145399305
 20
189.0932159288193
 10
90.37760145399305
 20
189.0932159288193
 10
90.37760145399305
 20
189.0932159288193
 10
90.37760145399305
 20
169.3358964843748
 10
90.37760145399305
 20
169.3358964843748
 97
        0
 75
     0
 76
     1
 98
        0
  0
HATCH
  5
240E
330
23EF
100
AcDbEntity
  8
0
  6
Continuous
100
AcDbHatch
 10
0.0
 20
0.0
 30
0.0
210
0.0
220
0.0
230
1.0
  2
SOLID
 70
     1
 71
     1
 91
        2
 92
       16
 93
        1
 72
     4
 94
        3
 73
     0
 74
     0
 95
       26
 96
       22
 40
0.0
 40
0.0
 40
0.0
 40
0.0
 40
1.0
 40
1.0
 40
1.0
 40
2.0
 40
2.0
 40
2.0
 40
3.0
 40
3.0
 40
3.0
 40
4.0
 40
4.0
 40
4.0
 40
5.0
 40
5.0
 40
5.0
 40
6.0
 40
6.0
 40
6.0
 40
7.0
 40
7.0
 40
7.0
 40
7.0
 10
100.5623372395832
 20
180.046229817708
 10
100.5623372395832
 20
180.046229817708
 10
100.5623372395832
 20
186.7401881510414
 10
100.5623372395832
 20
186.7401881510414
 10
100.5623372395832
 20
186.7401881510414
 10
103.6732584635416
 20
186.7401881510414
 10
103.6732584635416
 20
186.7401881510414
 10
104.1107855902777
 20
186.7401881510414
 10
104.4580512152777
 20
186.6064357638887
 10
104.7150553385415
 20
186.3401987847218
 10
105.2097710503471
 20
185.8330807291664
 10
105.4571289062497
 20
184.8822343749996
 10
105.4571289062497
 20
183.4863919270832
 10
105.4571289062497
 20
182.188169704861
 10
105.280740017361
 20
181.2905707465276
 10
104.9286512586804
 20
180.7929611545137
 10
104.5765624999999
 20
180.2947176649304
 10
104.1011393229166
 20
180.046229817708
 10
103.5023817274304
 20
180.046229817708
 10
103.5023817274304
 20
180.046229817708
 10
100.5623372395832
 20
180.046229817708
 10
100.5623372395832
 20
180.046229817708
 97
        1
330
23FA
 92
        1
 93
        1
 72
     4
 94
        3
 73
     0
 74
     0
 95
       68
 96
       64
 40
0.0
 40
0.0
 40
0.0
 40
0.0
 40
1.0
 40
1.0
 40
1.0
 40
2.0
 40
2.0
 40
2.0
 40
3.0
 40
3.0
 40
3.0
 40
4.0
 40
4.0
 40
4.0
 40
5.0
 40
5.0
 40
5.0
 40
6.0
 40
6.0
 40
6.0
 40
7.0
 40
7.0
 40
7.0
 40
8.0
 40
8.0
 40
8.0
 40
9.0
 40
9.0
 40
9.0
 40
10.0
 40
10.0
 40
10.0
 40
11.0
 40
11.0
 40
11.0
 40
12.0
 40
12.0
 40
12.0
 40
13.0
 40
13.0
 40
13.0
 40
14.0
 40
14.0
 40
14.0
 40
15.0
 40
15.0
 40
15.0
 40
16.0
 40
16.0
 40
16.0
 40
17.0
 40
17.0
 40
17.0
 40
18.0
 40
18.0
 40
18.0
 40
19.0
 40
19.0
 40
19.0
 40
20.0
 40
20.0
 40
20.0
 40
21.0
 40
21.0
 40
21.0
 40
21.0
 10
99.23942057291661
 20
169.3358964843748
 10
99.23942057291661
 20
169.3358964843748
 10
100.5623372395832
 20
169.3358964843748
 10
100.5623372395832
 20
169.3358964843748
 10
100.5623372395832
 20
169.3358964843748
 10
100.5623372395832
 20
177.8149103732637
 10
100.5623372395832
 20
177.8149103732637
 10
100.5623372395832
 20
177.8149103732637
 10
103.4472601996527
 20
177.8149103732637
 10
103.4472601996527
 20
177.8149103732637
 10
103.9681586371527
 20
177.8149103732637
 10
104.3519422743053
 20
177.6938359374998
 10
104.5986111111109
 20
177.4516870659719
 10
105.0244249131943
 20
177.0117621527776
 10
105.2518012152777
 20
176.1458580729164
 10
105.280740017361
 20
174.8539748263887
 10
105.280740017361
 20
174.8539748263887
 10
105.3689344618053
 20
171.5564396701385
 10
105.3689344618053
 20
171.5564396701385
 10
105.3882269965277
 20
170.7843524305554
 10
105.4109646267359
 20
170.2639225260415
 10
105.4357693142359
 20
169.9951499565971
 10
105.4605740017358
 20
169.725743489583
 10
105.4970920138888
 20
169.5057810329859
 10
105.5467013888887
 20
169.3358964843748
 10
105.5467013888887
 20
169.3358964843748
 10
107.1769205729166
 20
169.3358964843748
 10
107.1769205729166
 20
169.3358964843748
 10
107.1769205729166
 20
169.3358964843748
 10
107.1769205729166
 20
169.7821603732635
 10
107.1769205729166
 20
169.7821603732635
 10
106.9750379774303
 20
169.9609194878471
 10
106.8337890624997
 20
170.3628105468748
 10
106.7538628472221
 20
170.9878335503471
 10
106.7028754340274
 20
171.3542263454858
 10
106.6677354600692
 20
171.9120562065971
 10
106.6477539062497
 20
172.6625909288193
 10
106.6477539062497
 20
172.6625909288193
 10
106.6036566840277
 20
175.3205234374999
 10
106.6036566840277
 20
175.3205234374999
 10
106.5836751302082
 20
176.4716814236109
 10
106.4768771701387
 20
177.3033550347219
 10
106.2839518229166
 20
177.8142764756941
 10
106.0903374565971
 20
178.3251979166665
 10
105.8002604166666
 20
178.7372313368054
 10
105.4130316840277
 20
179.0516445312498
 10
105.8443576388886
 20
179.5086846788193
 10
106.179909939236
 20
180.1134229600693
 10
106.4196885850692
 20
180.8664932725691
 10
106.6594672309027
 20
181.6189296874999
 10
106.7800455729166
 20
182.5868912760413
 10
106.7800455729166
 20
183.7697441406248
 10
106.7800455729166
 20
186.0371957465274
 10
106.3328721788193
 20
187.5921464843749
 10
105.4392144097221
 20
188.4345963541665
 10
104.9679253472221
 20
188.8732534722221
 10
104.3719238281249
 20
189.0932159288193
 10
103.6512098524303
 20
189.0932159288193
 10
103.6512098524303
 20
189.0932159288193
 10
99.23942057291661
 20
189.0932159288193
 10
99.23942057291661
 20
189.0932159288193
 10
99.23942057291661
 20
189.0932159288193
 10
99.23942057291661
 20
169.3358964843748
 10
99.23942057291661
 20
169.3358964843748
 97
        0
 75
     0
 76
     1
 98
        0
  0
HATCH
  5
240F
330
23EF
100
AcDbEntity
  8
0
  6
Continuous
100
AcDbHatch
 10
0.0
 20
0.0
 30
0.0
210
0.0
220
0.0
230
1.0
  2
SOLID
 70
     1
 71
     1
 91
        2
 92
        1
 93
        8
 72
     1
 10
35.47828233506943
 20
189.0932159288193
 11
31.83957248263888
 21
169.3358964843748
 72
     1
 10
31.83957248263888
 20
169.3358964843748
 11
33.22450086805555
 21
169.3358964843748
 72
     1
 10
33.22450086805555
 20
169.3358964843748
 11
34.27043185763887
 21
175.2590353732638
 72
     1
 10
34.27043185763887
 20
175.2590353732638
 11
38.04694552951389
 21
175.2590353732638
 72
     1
 10
38.04694552951389
 20
175.2590353732638
 11
39.05015733506942
 21
169.3358964843748
 72
     1
 10
39.05015733506942
 20
169.3358964843748
 11
40.43508572048611
 21
169.3358964843748
 72
     1
 10
40.43508572048611
 20
169.3358964843748
 11
36.952783203125
 21
189.0932159288193
 72
     1
 10
36.952783203125
 20
189.0932159288193
 11
35.47828233506943
 21
189.0932159288193
 97
        8
330
240A
330
2403
330
2404
330
2405
330
2406
330
2407
330
2408
330
2409
 92
       16
 93
        3
 72
     1
 10
37.67556423611111
 20
177.4497853732638
 11
34.65766059027778
 21
177.4497853732638
 72
     1
 10
34.65766059027778
 20
177.4497853732638
 11
36.19830729166666
 21
186.1658769531249
 72
     1
 10
36.19830729166666
 20
186.1658769531249
 11
37.67556423611111
 21
177.4497853732638
 97
        3
330
2402
330
2400
330
2401
 75
     0
 76
     1
 98
        1
 10
0.0
 20
0.0
  0
HATCH
  5
2410
330
23EF
100
AcDbEntity
  8
0
  6
Continuous
100
AcDbHatch
 10
0.0
 20
0.0
 30
0.0
210
0.0
220
0.0
230
1.0
  2
SOLID
 70
     1
 71
     1
 91
        1
 92
        1
 93
        1
 72
     4
 94
        3
 73
     0
 74
     0
 95
      113
 96
      109
 40
0.0
 40
0.0
 40
0.0
 40
0.0
 40
1.0
 40
1.0
 40
1.0
 40
2.0
 40
2.0
 40
2.0
 40
3.0
 40
3.0
 40
3.0
 40
4.0
 40
4.0
 40
4.0
 40
5.0
 40
5.0
 40
5.0
 40
6.0
 40
6.0
 40
6.0
 40
7.0
 40
7.0
 40
7.0
 40
8.0
 40
8.0
 40
8.0
 40
9.0
 40
9.0
 40
9.0
 40
10.0
 40
10.0
 40
10.0
 40
11.0
 40
11.0
 40
11.0
 40
12.0
 40
12.0
 40
12.0
 40
13.0
 40
13.0
 40
13.0
 40
14.0
 40
14.0
 40
14.0
 40
15.0
 40
15.0
 40
15.0
 40
16.0
 40
16.0
 40
16.0
 40
17.0
 40
17.0
 40
17.0
 40
18.0
 40
18.0
 40
18.0
 40
19.0
 40
19.0
 40
19.0
 40
20.0
 40
20.0
 40
20.0
 40
21.0
 40
21.0
 40
21.0
 40
22.0
 40
22.0
 40
22.0
 40
23.0
 40
23.0
 40
23.0
 40
24.0
 40
24.0
 40
24.0
 40
25.0
 40
25.0
 40
25.0
 40
26.0
 40
26.0
 40
26.0
 40
27.0
 40
27.0
 40
27.0
 40
28.0
 40
28.0
 40
28.0
 40
29.0
 40
29.0
 40
29.0
 40
30.0
 40
30.0
 40
30.0
 40
31.0
 40
31.0
 40
31.0
 40
32.0
 40
32.0
 40
32.0
 40
33.0
 40
33.0
 40
33.0
 40
34.0
 40
34.0
 40
34.0
 40
35.0
 40
35.0
 40
35.0
 40
36.0
 40
36.0
 40
36.0
 40
36.0
 10
193.3039632161458
 20
186.1548733181423
 10
193.3039632161458
 20
186.1860514322916
 10
193.3039632161458
 20
219.6932223849826
 10
193.3039632161458
 20
219.6932223849826
 10
193.3039632161458
 20
219.6932223849826
 10
193.2974175347219
 20
219.7488606770833
 10
193.2974175347219
 20
219.7488606770833
 10
191.5293945312499
 20
235.455740017361
 10
175.1458984374999
 20
235.2467949761284
 10
174.9808783637151
 20
235.2428331163193
 10
174.9808783637151
 20
235.2428331163193
 10
125.8827555338541
 20
235.2430053710937
 10
125.8827555338541
 20
235.2430053710937
 10
125.8827555338541
 20
235.2430053710937
 10
125.8827555338541
 20
255.5278998480901
 10
125.8827555338541
 20
255.5278998480901
 10
125.8827555338541
 20
255.5278998480901
 10
84.5626247829861
 20
255.5278998480901
 10
84.5626247829861
 20
255.5278998480901
 10
84.5626247829861
 20
255.5278998480901
 10
84.55711263020829
 20
233.7919311523436
 10
84.55711263020829
 20
233.7919311523436
 10
84.55711263020829
 20
233.7919311523436
 10
64.42052951388888
 20
233.7919311523436
 10
64.42052951388888
 20
233.7919311523436
 10
64.42052951388888
 20
233.7919311523436
 10
64.41501736111111
 20
255.5278998480901
 10
64.41501736111111
 20
255.5278998480901
 10
64.41501736111111
 20
255.5278998480901
 10
23.91757541232637
 20
255.5278998480901
 10
23.91757541232637
 20
255.5278998480901
 10
23.91757541232637
 20
255.5278998480901
 10
23.91757541232637
 20
233.2393378363715
 10
23.91757541232637
 20
233.2393378363715
 10
23.91757541232637
 20
233.2393378363715
 10
43.65624999999999
 20
233.2393378363715
 10
43.65624999999999
 20
233.2393378363715
 10
43.65624999999999
 20
233.2393378363715
 10
43.65624999999999
 20
211.5188720703125
 10
43.65624999999999
 20
211.5188720703125
 10
43.65624999999999
 20
211.5188720703125
 10
23.91757541232637
 20
211.5188720703125
 10
23.91757541232637
 20
211.5188720703125
 10
23.91757541232637
 20
211.5188720703125
 10
23.91757541232637
 20
189.2303100585936
 10
23.91757541232637
 20
189.2303100585936
 10
23.91757541232637
 20
189.2303100585936
 10
64.41501736111111
 20
189.2303100585936
 10
64.41501736111111
 20
189.2303100585936
 10
64.41501736111111
 20
189.2303100585936
 10
64.42052951388888
 20
211.069976128472
 10
64.42052951388888
 20
211.069976128472
 10
64.42052951388888
 20
211.069976128472
 10
84.55711263020829
 20
211.069976128472
 10
84.55711263020829
 20
211.069976128472
 10
84.55711263020829
 20
211.069976128472
 10
84.5626247829861
 20
189.2303100585936
 10
84.5626247829861
 20
189.2303100585936
 10
84.5626247829861
 20
189.2303100585936
 10
125.8827555338541
 20
189.2303100585936
 10
125.8827555338541
 20
189.2303100585936
 10
125.8827555338541
 20
189.2303100585936
 10
125.8827555338541
 20
211.5188720703125
 10
125.8827555338541
 20
211.5188720703125
 10
125.8827555338541
 20
211.5188720703125
 10
105.3213921440971
 20
211.5188720703125
 10
105.3213921440971
 20
211.5188720703125
 10
105.3213921440971
 20
211.5188720703125
 10
105.3213921440971
 20
233.2393378363715
 10
105.3213921440971
 20
233.2393378363715
 10
105.3213921440971
 20
233.2393378363715
 10
175.0046495225693
 20
233.243127441406
 10
175.0046495225693
 20
233.243127441406
 10
175.6268337673611
 20
233.2560465494791
 10
189.7165852864583
 20
233.3962619357638
 10
191.3037407769094
 20
219.5690266927083
 10
191.3037407769094
 20
219.4332899305555
 10
191.3037407769094
 20
186.1142211914062
 10
191.3037407769094
 20
186.1142211914062
 10
191.3037407769094
 20
186.1142211914062
 10
191.3051188151039
 20
186.0880384657115
 10
191.3051188151039
 20
186.0880384657115
 10
191.3054633246526
 20
186.0787367078991
 10
191.3109754774304
 20
185.9566080729166
 10
191.3109754774304
 20
185.7399115668401
 10
191.3109754774304
 20
184.2090833875865
 10
191.0488037109374
 20
177.9643310546874
 10
186.9866916232638
 20
173.5652886284722
 10
184.2540418836804
 20
170.6064683702255
 10
180.3224989149304
 20
169.0308539496526
 10
175.300927734375
 20
168.8825425889756
 10
175.300927734375
 20
168.8825425889756
 10
107.0094889322916
 20
168.8828870985243
 10
107.0094889322916
 20
168.8828870985243
 10
107.0094889322916
 20
168.8828870985243
 10
107.0094889322916
 20
166.8830091688368
 10
107.0094889322916
 20
166.8830091688368
 10
107.0094889322916
 20
166.8830091688368
 10
175.3305555555555
 20
166.8830091688368
 10
175.3305555555555
 20
166.8830091688368
 10
180.9467502170138
 20
167.0485460069444
 10
185.3571614583333
 20
168.8448187934026
 10
188.4687717013888
 20
172.2223904079861
 10
192.9649658203124
 20
177.1034016927083
 10
193.3136094835069
 20
183.7202243381076
 10
193.3136094835069
 20
185.6520616319443
 10
193.3136094835069
 20
185.9247409396701
 10
193.3070638020833
 20
186.0868326822916
 10
193.3039632161458
 20
186.1548733181423
 97
        1
330
23F0
 75
     0
 76
     1
 98
        1
 10
0.0
 20
0.0
  0
HATCH
  5
2411
330
23EF
100
AcDbEntity
  8
0
  6
Continuous
100
AcDbHatch
 10
0.0
 20
0.0
 30
0.0
210
0.0
220
0.0
230
1.0
  2
SOLID
 70
     1
 71
     1
 91
        2
 92
        1
 93
        1
 72
     4
 94
        3
 73
     0
 74
     0
 95
       23
 96
       19
 40
0.0
 40
0.0
 40
0.0
 40
0.0
 40
1.0
 40
1.0
 40
1.0
 40
2.0
 40
2.0
 40
2.0
 40
3.0
 40
3.0
 40
3.0
 40
4.0
 40
4.0
 40
4.0
 40
5.0
 40
5.0
 40
5.0
 40
6.0
 40
6.0
 40
6.0
 40
6.0
 10
148.6593153211804
 20
211.3929538302949
 10
148.6593153211804
 20
211.3929538302949
 10
148.6593153211804
 20
189.630802408854
 10
148.6593153211804
 20
189.630802408854
 10
148.6593153211804
 20
189.630802408854
 10
161.3152180989583
 20
189.630802408854
 10
161.3152180989583
 20
189.630802408854
 10
162.8431179470483
 20
189.630802408854
 10
170.4657362196178
 20
190.1880466037324
 10
170.4657362196178
 20
201.1911648220484
 10
170.4657362196178
 20
211.1288872612845
 10
162.3356553819444
 20
211.3914035373261
 10
162.2536621093749
 20
211.3927815755205
 10
162.2536621093749
 20
211.3927815755205
 10
149.6594265407986
 20
211.3929538302949
 10
149.6594265407986
 20
211.3929538302949
 10
149.6594265407986
 20
211.3929538302949
 10
148.6593153211804
 20
211.3929538302949
 10
148.6593153211804
 20
211.3929538302949
 97
        1
330
23F1
 92
       16
 93
        1
 72
     4
 94
        3
 73
     0
 74
     0
 95
       20
 96
       16
 40
0.0
 40
0.0
 40
0.0
 40
0.0
 40
1.0
 40
1.0
 40
1.0
 40
2.0
 40
2.0
 40
2.0
 40
3.0
 40
3.0
 40
3.0
 40
4.0
 40
4.0
 40
4.0
 40
5.0
 40
5.0
 40
5.0
 40
5.0
 10
162.2354031032984
 20
209.3930759006075
 10
162.467947048611
 20
209.3861857096352
 10
168.4655137803819
 20
209.1283203124997
 10
168.4655137803819
 20
201.1911648220484
 10
168.4655137803819
 20
192.3202162000866
 10
162.9926350911458
 20
191.6306803385414
 10
161.3152180989583
 20
191.6306803385414
 10
161.3152180989583
 20
191.6306803385414
 10
152.3310980902776
 20
191.6306803385414
 10
150.6595377604166
 20
191.6306803385414
 10
150.6595377604166
 20
193.3373806423609
 10
150.6595377604166
 20
207.686375596788
 10
150.6595377604166
 20
209.3930759006075
 10
152.3538357204859
 20
209.3930759006075
 10
162.2354031032984
 20
209.3930759006075
 10
162.2354031032984
 20
209.3930759006075
 97
        0
 75
     0
 76
     1
 98
        0
  0
ENDBLK
  5
2413
330
23EF
100
AcDbEntity
  8
0
100
AcDbBlockEnd
  0
BLOCK
  5
2416
330
2414
100
AcDbEntity
  8
0
100
AcDbBlockBegin
  2
HD logo-new
 70
     0
 10
0.0
 20
0.0
 30
0.0
  3
HD logo-new
  1

  0
INSERT
  5
2415
330
2414
100
AcDbEntity
  8
0
 62
     3
100
AcDbBlockReference
  2
HD_LLC_logo_OT5
 10
-27.1607188578505
 20
-68.37367811463031
 30
0.0
 41
0.2999999999999971
 42
0.3000000000000007
 43
0.3
  0
ENDBLK
  5
2417
330
2414
100
AcDbEntity
  8
0
100
AcDbBlockEnd
  0
BLOCK
  5
241A
330
2418
100
AcDbEntity
  8
0
100
AcDbBlockBegin
  2
HD Logo
 70
     0
 10
0.0
 20
0.0
 30
0.0
  3
HD Logo
  1

  0
INSERT
  5
2419
330
2418
100
AcDbEntity
  8
0
100
AcDbBlockReference
  2
HD logo-new
 10
0.9700256734946606
 20
7.273795608420527
 30
0.0
  0
ENDBLK
  5
241B
330
2418
100
AcDbEntity
  8
0
100
AcDbBlockEnd
  0
BLOCK
  5
2426
330
2424
100
AcDbEntity
  8
0
100
AcDbBlockBegin
  2
Harmonic Drive LLC
 70
     0
 10
0.0
 20
0.0
 30
0.0
  3
Harmonic Drive LLC
  1

  0
MTEXT
  5
2425
330
2424
100
AcDbEntity
  8
0
100
AcDbMText
 10
8.730232253264317
 20
-1.454758693481394
 30
0.0
 40
5.25
 41
158.5992
 71
     5
 72
     5
  1
{\fArial|b0|i0|c0|p34;Harmonic Drive LLC\P800-921-3332\Pwww.harmonicdrive.net}
 73
     1
 44
1.0
  0
ENDBLK
  5
2427
330
2424
100
AcDbEntity
  8
0
100
AcDbBlockEnd
  0
BLOCK
  5
28F1
330
28EF
100
AcDbEntity
  8
0
100
AcDbBlockBegin
  2
HD LLC
 70
     0
 10
0.0
 20
0.0
 30
0.0
  3
HD LLC
  1

  0
MTEXT
  5
28F0
330
28EF
100
AcDbEntity
  8
0
100
AcDbMText
 10
-2.314970886968865
 20
1.247205085865914
 30
0.0
 40
5.675387507387601
 41
236.1828726592229
 71
     5
 72
     5
  1
Harmonic Drive LLC\P800-921-3332\Pwww.harmonicdrive.net
 73
     1
 44
1.0
  0
ENDBLK
  5
28F2
330
28EF
100
AcDbEntity
  8
0
100
AcDbBlockEnd
  0
BLOCK
  5
2902
330
28FF
100
AcDbEntity
  8
0
100
AcDbBlockBegin
  2
NTC
 70
     0
 10
0.0
 20
0.0
 30
0.0
  3
NTC
  1

  0
LWPOLYLINE
  5
2900
330
28FF
100
AcDbEntity
  8
0
100
AcDbPolyline
 90
        8
 70
     1
 43
0.0
 10
4.581008201925953
 20
-10.78862239032818
 10
319.3921777697513
 20
-10.78862239032818
 42
-0.4142135623730951
 10
324.9046777697513
 20
-16.30112239032816
 10
324.9046777697513
 20
-117.4075202476924
 42
-0.4142135623730951
 10
319.3921777697513
 20
-122.9200202476925
 10
4.581008201925838
 20
-122.9200202476925
 42
-0.4142135623730951
 10
-0.9314917980741483
 20
-117.4075202476924
 10
-0.9314917980740915
 20
-16.30112239032816
 42
-0.4142135623730951
  0
MTEXT
  5
2901
330
28FF
100
AcDbEntity
  8
0
  6
Continuous
370
    30
100
AcDbMText
 10
21.65307678143926
 20
-17.4535155144544
 30
0.0
 40
8.75
 41
294.5432999999998
 71
     1
 72
     5
  3
{\fTxt|b1|i0|c0|p2;Notice:\P\Ftxt.shx;\H0.5714x;All specifications and dimensions shown in the drawing are subject to change without notice. This drawing is the property of Harmonic Drive LLC.   This data is believed to be accurate, however, Harmonic
  1
 Drive LLC assumes no liability for any errors or omissions in the specifications, models, or drawings.\P\PHarmonic Drive LLC\PTel: 800-921-3332\Pwww.harmonicdrive.net}
 73
     1
 44
1.0
  0
ENDBLK
  5
2903
330
28FF
100
AcDbEntity
  8
0
100
AcDbBlockEnd
  0
ENDSEC
  0
SECTION
  2
ENTITIES
  0
TEXT
  5
23A7
330
2124
100
AcDbEntity
  8
1
 62
     3
100
AcDbText
 10
-142.7074885010268
 20
-135.4086808060743
 30
0.0
 40
4.7
  1
 
 41
0.9
100
AcDbText
  0
TEXT
  5
23AE
330
2124
100
AcDbEntity
  8
1
 62
     0
100
AcDbText
 10
347.338662225455
 20
-51.82594499093764
 30
0.0
 40
9.0
  1
2002/3
 41
0.9
 72
     1
 11
364.4135742300271
 21
-47.32594499093764
 31
0.0
100
AcDbText
 73
     2
  0
TEXT
  5
2696
330
2124
100
AcDbEntity
  8
1
 62
     0
100
AcDbText
 10
262.7403965149802
 20
320.5815070181836
 30
0.0
 40
6.799999999999998
  1
REMARKS:  M.H.C = MINIMUM HOUSING CLEARANCE
 41
0.9
 72
     1
 11
351.4956965149803
 21
323.9815070181836
 31
0.0
100
AcDbText
 73
     2
  0
ARC
  5
2697
330
2124
100
AcDbEntity
  8
1
 62
     7
100
AcDbCircle
 10
350.3782272068387
 20
632.1183010771526
 30
0.0
 40
57.90470024140299
100
AcDbArc
 50
269.2699649007364
 51
284.7079560853555
  0
ARC
  5
2698
330
2124
100
AcDbEntity
  8
1
 62
     7
100
AcDbCircle
 10
349.6404534971298
 20
371.9523010771526
 30
0.0
 40
58.00000000000006
100
AcDbArc
 50
74.56200881537998
 51
90.0
  0
LINE
  5
2699
330
2124
100
AcDbEntity
  8
1
  6
CENTER
 62
     3
100
AcDbLine
 10
309.51777361156
 20
501.9853010771526
 30
0.0
 11
400.9705518225582
 21
501.9853010771526
 31
0.0
  0
LINE
  5
269A
330
2124
100
AcDbEntity
  8
1
 62
     7
100
AcDbLine
 10
389.6454534971302
 20
573.1453010771526
 30
0.0
 11
327.5704534971302
 21
573.1453010771526
 31
0.0
  0
LINE
  5
269B
330
2124
100
AcDbEntity
  8
1
 62
     7
100
AcDbLine
 10
327.5704534971302
 20
430.8253010771527
 30
0.0
 11
389.6454534971302
 21
430.8253010771527
 31
0.0
  0
LINE
  5
269C
330
2124
100
AcDbEntity
  8
1
 62
     7
100
AcDbLine
 10
364.8996794391113
 20
456.7353010771525
 30
0.0
 11
359.0454534971302
 21
456.7353010771525
 31
0.0
  0
LINE
  5
269D
330
2124
100
AcDbEntity
  8
1
 62
     7
100
AcDbLine
 10
359.0454534971302
 20
474.4853010771525
 30
0.0
 11
364.8996794391113
 21
474.4853010771525
 31
0.0
  0
LINE
  5
269E
330
2124
100
AcDbEntity
  8
1
 62
     7
100
AcDbLine
 10
358.7454534971301
 20
480.7353010771524
 30
0.0
 11
364.8996794391113
 21
480.7353010771524
 31
0.0
  0
LINE
  5
269F
330
2124
100
AcDbEntity
  8
1
 62
     7
100
AcDbLine
 10
364.8996794391113
 20
547.4853010771526
 30
0.0
 11
358.7454534971301
 21
547.4853010771526
 31
0.0
  0
LINE
  5
26A0
330
2124
100
AcDbEntity
  8
1
 62
     7
100
AcDbLine
 10
358.7454534971301
 20
490.9853010771525
 30
0.0
 11
393.6454534971302
 21
490.9853010771525
 31
0.0
  0
LINE
  5
26A1
330
2124
100
AcDbEntity
  8
1
 62
     7
100
AcDbLine
 10
358.7454534971301
 20
515.7853010771527
 30
0.0
 11
393.6454534971302
 21
515.7853010771527
 31
0.0
  0
LINE
  5
26A2
330
2124
100
AcDbEntity
  8
1
 62
     7
100
AcDbLine
 10
358.7454534971301
 20
512.5683063214109
 30
0.0
 11
393.6454534971302
 21
512.5683063214109
 31
0.0
  0
CIRCLE
  5
26A3
330
2124
100
AcDbEntity
  8
1
 62
     7
100
AcDbCircle
 10
148.1454534971302
 20
414.4853010771527
 30
0.0
 40
5.499999999999886
  0
CIRCLE
  5
26A4
330
2124
100
AcDbEntity
  8
1
 62
     7
100
AcDbCircle
 10
148.1454534971302
 20
501.9853010771526
 30
0.0
 40
97.5
  0
LINE
  5
26A5
330
2124
100
AcDbEntity
  8
1
  6
DASHDOT
 62
     3
100
AcDbLine
 10
123.3635299285638
 20
409.4979032099744
 30
0.0
 11
127.6340441727554
 21
425.435679343744
 31
0.0
  0
LINE
  5
26A6
330
2124
100
AcDbEntity
  8
1
  6
CENTER
 62
     3
100
AcDbLine
 10
148.1454534971302
 20
576.1853010771526
 30
0.0
 11
148.1454534971302
 21
396.9853010771527
 31
0.0
  0
CIRCLE
  5
26A7
330
2124
100
AcDbEntity
  8
1
 62
     7
100
AcDbCircle
 10
148.1454534971302
 20
501.9853010771526
 30
0.0
 40
74.19999999999998
  0
CIRCLE
  5
26A8
330
2124
100
AcDbEntity
  8
1
  6
CENTER
 62
     3
100
AcDbCircle
 10
148.1454534971302
 20
501.9853010771526
 30
0.0
 40
87.49999999999991
  0
CIRCLE
  5
26A9
330
2124
100
AcDbEntity
  8
1
 62
     7
100
AcDbCircle
 10
148.1454534971302
 20
501.9853010771526
 30
0.0
 40
78.0
  0
CIRCLE
  5
26AA
330
2124
100
AcDbEntity
  8
1
 62
     7
100
AcDbCircle
 10
163.2614490755511
 20
465.4920595429567
 30
0.0
 40
3.199999999999988
  0
CIRCLE
  5
26AB
330
2124
100
AcDbEntity
  8
1
 62
     3
100
AcDbCircle
 10
163.2614490755511
 20
465.4920595429567
 30
0.0
 40
3.999999999999883
  0
CIRCLE
  5
26AC
330
2124
100
AcDbEntity
  8
1
  6
CENTER
 62
     3
100
AcDbCircle
 10
148.1454534971302
 20
501.9853010771526
 30
0.0
 40
34.9999999999998
  0
CIRCLE
  5
26AD
330
2124
100
AcDbEntity
  8
1
 62
     7
100
AcDbCircle
 10
148.1454534971302
 20
501.9853010771526
 30
0.0
 40
72.03899999999999
  0
CIRCLE
  5
26AE
330
2124
100
AcDbEntity
  8
1
 62
     7
100
AcDbCircle
 10
148.1454534971302
 20
501.9853010771526
 30
0.0
 40
46.0
  0
CIRCLE
  5
26AF
330
2124
100
AcDbEntity
  8
1
 62
     7
100
AcDbCircle
 10
148.1454534971302
 20
501.9853010771526
 30
0.0
 40
23.0
  0
ARC
  5
26B0
330
2124
100
AcDbEntity
  8
1
  6
CENTER
 62
     3
100
AcDbCircle
 10
148.1454534971302
 20
501.9853010771526
 30
0.0
 40
39.49999999999977
100
AcDbArc
 50
270.0
 51
315.0
  0
LINE
  5
26B1
330
2124
100
AcDbEntity
  8
1
  6
DASHDOT
 62
     3
100
AcDbLine
 10
165.5575496697414
 20
459.948782347889
 30
0.0
 11
160.9653484813605
 21
471.0353367380244
 31
0.0
  0
LINE
  5
26B2
330
2124
100
AcDbEntity
  8
1
  6
CENTER
 62
     3
100
AcDbLine
 10
253.1454534971302
 20
501.9853010771526
 30
0.0
 11
43.14545349713043
 21
501.9853010771526
 31
0.0
  0
CIRCLE
  5
26B3
330
2124
100
AcDbEntity
  8
1
 62
     7
100
AcDbCircle
 10
60.64545349713043
 20
501.9853010771526
 30
0.0
 40
5.5
  0
LINE
  5
26B4
330
2124
100
AcDbEntity
  8
1
  6
DASHDOT
 62
     3
100
AcDbLine
 10
115.1765998243072
 20
469.01644740433
 30
0.0
 11
131.6168324868946
 21
485.4566800669168
 31
0.0
  0
CIRCLE
  5
26B5
330
2124
100
AcDbEntity
  8
1
 62
     7
100
AcDbCircle
 10
104.3954534971301
 20
426.2080782460144
 30
0.0
 40
5.500000000000079
  0
LINE
  5
26B6
330
2124
100
AcDbEntity
  8
1
  6
DASHDOT
 62
     3
100
AcDbLine
 10
100.2704534971303
 20
419.0633686647928
 30
0.0
 11
108.5204534971301
 21
433.3527878272361
 31
0.0
  0
CIRCLE
  5
26B7
330
2124
100
AcDbEntity
  8
1
 62
     7
100
AcDbCircle
 10
72.36823066599203
 20
458.2353010771527
 30
0.0
 40
5.500000000000007
  0
LINE
  5
26B8
330
2124
100
AcDbEntity
  8
1
  6
DASHDOT
 62
     3
100
AcDbLine
 10
65.22352108477043
 20
454.1103010771527
 30
0.0
 11
79.51294024721374
 21
462.3603010771526
 31
0.0
  0
CIRCLE
  5
26B9
330
2124
100
AcDbEntity
  8
1
 62
     7
100
AcDbCircle
 10
125.4987870506596
 20
417.4667912768592
 30
0.0
 40
4.0
  0
CIRCLE
  5
26BA
330
2124
100
AcDbEntity
  8
1
 62
     3
100
AcDbCircle
 10
125.4987870506596
 20
417.4667912768592
 30
0.0
 40
5.0
  0
CIRCLE
  5
26BB
330
2124
100
AcDbEntity
  8
1
 62
     7
100
AcDbCircle
 10
123.3967161556009
 20
477.2365637356232
 30
0.0
 40
7.749999999999937
  0
CIRCLE
  5
26BC
330
2124
100
AcDbEntity
  8
1
 62
     7
100
AcDbCircle
 10
148.1454534971301
 20
466.9853010771525
 30
0.0
 40
7.75
  0
CIRCLE
  5
26BD
330
2124
100
AcDbEntity
  8
1
 62
     7
100
AcDbCircle
 10
113.1454534971301
 20
501.9853010771527
 30
0.0
 40
7.75
  0
CIRCLE
  5
26BE
330
2124
100
AcDbEntity
  8
1
 62
     7
100
AcDbCircle
 10
72.36823066599203
 20
545.7353010771526
 30
0.0
 40
5.500000000000056
  0
LINE
  5
26BF
330
2124
100
AcDbEntity
  8
1
  6
DASHDOT
 62
     3
100
AcDbLine
 10
65.22352108477043
 20
549.8603010771522
 30
0.0
 11
79.51294024721355
 21
541.6103010771522
 31
0.0
  0
CIRCLE
  5
26C0
330
2124
100
AcDbEntity
  8
1
 62
     7
100
AcDbCircle
 10
123.3967161556009
 20
526.7340384186818
 30
0.0
 40
7.750000000000142
  0
LINE
  5
26C1
330
2124
100
AcDbEntity
  8
1
  6
DASHDOT
 62
     3
100
AcDbLine
 10
115.1765998243074
 20
534.9541547499752
 30
0.0
 11
131.6168324868946
 21
518.5139220873883
 31
0.0
  0
CIRCLE
  5
26C2
330
2124
100
AcDbEntity
  8
1
 62
     3
100
AcDbCircle
 10
133.0294579187092
 20
538.478542611349
 30
0.0
 40
4.0
  0
ARC
  5
26C3
330
2124
100
AcDbEntity
  8
1
  6
CENTER
 62
     3
100
AcDbCircle
 10
148.1454534971302
 20
501.9853010771526
 30
0.0
 40
39.49999999999983
100
AcDbArc
 50
90.0
 51
135.0
  0
CIRCLE
  5
26C4
330
2124
100
AcDbEntity
  8
1
 62
     7
100
AcDbCircle
 10
133.0294579187092
 20
538.478542611349
 30
0.0
 40
3.200000000000016
  0
LINE
  5
26C5
330
2124
100
AcDbEntity
  8
1
  6
DASHDOT
 62
     3
100
AcDbLine
 10
130.7333573245188
 20
544.0218198064163
 30
0.0
 11
135.3255585128998
 21
532.935265416281
 31
0.0
  0
CIRCLE
  5
26C6
330
2124
100
AcDbEntity
  8
1
 62
     7
100
AcDbCircle
 10
148.1454534971302
 20
536.9853010771525
 30
0.0
 40
7.75
  0
CIRCLE
  5
26C7
330
2124
100
AcDbEntity
  8
1
 62
     7
100
AcDbCircle
 10
104.3954534971301
 20
577.7625239082911
 30
0.0
 40
5.500000000000007
  0
LINE
  5
26C8
330
2124
100
AcDbEntity
  8
1
  6
DASHDOT
 62
     3
100
AcDbLine
 10
100.2704534971303
 20
584.9072334895127
 30
0.0
 11
108.5204534971301
 21
570.6178143270692
 31
0.0
  0
LINE
  5
26C9
330
2124
100
AcDbEntity
  8
1
  6
CENTER
 62
     3
100
AcDbLine
 10
148.1454534971302
 20
606.9853010771526
 30
0.0
 11
148.1454534971302
 21
576.1853010771526
 31
0.0
  0
CIRCLE
  5
26CA
330
2124
100
AcDbEntity
  8
1
 62
     7
100
AcDbCircle
 10
148.1454534971302
 20
589.4853010771527
 30
0.0
 40
5.5
  0
LINE
  5
26CB
330
2124
100
AcDbEntity
  8
1
 62
     7
100
AcDbLine
 10
322.8724534971302
 20
569.8133010771526
 30
0.0
 11
322.8724534971302
 21
548.9653010771527
 31
0.0
  0
LINE
  5
26CC
330
2124
100
AcDbEntity
  8
1
 62
     7
100
AcDbLine
 10
323.9454534971302
 20
569.5203010771527
 30
0.0
 11
323.9454534971302
 21
544.7353010771526
 31
0.0
  0
LINE
  5
26CD
330
2124
100
AcDbEntity
  8
1
  6
DIVIDE
 62
     7
100
AcDbLine
 10
319.9454534971301
 20
557.8053806738611
 30
0.0
 11
319.9454534971301
 21
578.9853010771527
 31
0.0
  0
LINE
  5
26CE
330
2124
100
AcDbEntity
  8
1
  6
DASHDOT
 62
     3
100
AcDbLine
 10
181.1143071699527
 20
469.0164474043298
 30
0.0
 11
164.6740745073657
 21
485.4566800669168
 31
0.0
  0
CIRCLE
  5
26CF
330
2124
100
AcDbEntity
  8
1
 62
     7
100
AcDbCircle
 10
191.8954534971301
 20
426.2080782460143
 30
0.0
 40
5.499999999999951
  0
LINE
  5
26D0
330
2124
100
AcDbEntity
  8
1
  6
DASHDOT
 62
     3
100
AcDbLine
 10
196.0204534971301
 20
419.0633686647927
 30
0.0
 11
187.7704534971301
 21
433.3527878272359
 31
0.0
  0
CIRCLE
  5
26D1
330
2124
100
AcDbEntity
  8
1
 62
     7
100
AcDbCircle
 10
172.8941908386593
 20
477.2365637356232
 30
0.0
 40
7.75
  0
CIRCLE
  5
26D2
330
2124
100
AcDbEntity
  8
1
 62
     7
100
AcDbCircle
 10
223.9226763282683
 20
458.2353010771525
 30
0.0
 40
5.500000000000103
  0
LINE
  5
26D3
330
2124
100
AcDbEntity
  8
1
  6
DASHDOT
 62
     3
100
AcDbLine
 10
231.0673859094902
 20
454.1103010771527
 30
0.0
 11
216.7779667470467
 21
462.3603010771526
 31
0.0
  0
CIRCLE
  5
26D4
330
2124
100
AcDbEntity
  8
1
 62
     7
100
AcDbCircle
 10
172.8941908386593
 20
526.7340384186817
 30
0.0
 40
7.749999999999982
  0
LINE
  5
26D5
330
2124
100
AcDbEntity
  8
1
  6
DASHDOT
 62
     3
100
AcDbLine
 10
181.114307169953
 20
534.9541547499752
 30
0.0
 11
164.6740745073657
 21
518.5139220873882
 31
0.0
  0
CIRCLE
  5
26D6
330
2124
100
AcDbEntity
  8
1
 62
     7
100
AcDbCircle
 10
183.14545349713
 20
501.9853010771526
 30
0.0
 40
7.750000000000169
  0
CIRCLE
  5
26D7
330
2124
100
AcDbEntity
  8
1
 62
     7
100
AcDbCircle
 10
235.6454534971301
 20
501.9853010771526
 30
0.0
 40
5.5
  0
CIRCLE
  5
26D8
330
2124
100
AcDbEntity
  8
1
 62
     7
100
AcDbCircle
 10
223.9226763282686
 20
545.7353010771526
 30
0.0
 40
5.49999999999991
  0
LINE
  5
26D9
330
2124
100
AcDbEntity
  8
1
  6
DASHDOT
 62
     3
100
AcDbLine
 10
231.0673859094901
 20
549.8603010771526
 30
0.0
 11
216.7779667470467
 21
541.6103010771528
 31
0.0
  0
LINE
  5
26DA
330
2124
100
AcDbEntity
  8
1
 62
     7
100
AcDbLine
 10
318.1454534971301
 20
478.4853010771525
 30
0.0
 11
318.1454534971301
 21
501.9853010771526
 31
0.0
  0
LINE
  5
26DB
330
2124
100
AcDbEntity
  8
1
 62
     7
100
AcDbLine
 10
323.9454534971302
 20
478.4853010771525
 30
0.0
 11
323.9454534971302
 21
501.9853010771526
 31
0.0
  0
LINE
  5
26DC
330
2124
100
AcDbEntity
  8
1
 62
     7
100
AcDbLine
 10
358.7454534971301
 20
512.5683063214109
 30
0.0
 11
358.7454534971301
 21
480.7353010771524
 31
0.0
  0
LINE
  5
26DD
330
2124
100
AcDbEntity
  8
1
 62
     7
100
AcDbLine
 10
322.8724534971302
 20
455.0053010771525
 30
0.0
 11
322.8724534971302
 21
434.1573010771526
 31
0.0
  0
LINE
  5
26DE
330
2124
100
AcDbEntity
  8
1
 62
     7
100
AcDbLine
 10
323.9454534971302
 20
458.4853010771525
 30
0.0
 11
323.9454534971302
 21
434.4503010771527
 31
0.0
  0
LINE
  5
26DF
330
2124
100
AcDbEntity
  8
1
 62
     7
100
AcDbLine
 10
349.6404534971298
 20
429.9523010771527
 30
0.0
 11
327.2774534971302
 21
429.9523010771526
 31
0.0
  0
LINE
  5
26E0
330
2124
100
AcDbEntity
  8
1
  6
DIVIDE
 62
     7
100
AcDbLine
 10
337.6784230859077
 20
424.9853010771526
 30
0.0
 11
319.9454534971301
 21
424.9853010771526
 31
0.0
  0
ARC
  5
26E1
330
2124
100
AcDbEntity
  8
1
 62
     7
100
AcDbCircle
 10
327.1774534971301
 20
434.2573010771526
 30
0.0
 40
4.306161283556368
100
AcDbArc
 50
181.3306731168477
 51
271.3306731168477
  0
LINE
  5
26E2
330
2124
100
AcDbEntity
  8
1
  6
DIVIDE
 62
     7
100
AcDbLine
 10
319.9454534971301
 20
424.9853010771526
 30
0.0
 11
319.9454534971301
 21
446.1652214804441
 31
0.0
  0
ARC
  5
26E3
330
2124
100
AcDbEntity
  8
1
 62
     7
100
AcDbCircle
 10
327.5704534971302
 20
434.4503010771527
 30
0.0
 40
3.624999999999996
100
AcDbArc
 50
180.0
 51
270.0
  0
LINE
  5
26E4
330
2124
100
AcDbEntity
  8
1
 62
     7
100
AcDbLine
 10
318.1454534971301
 20
466.4853010771525
 30
0.0
 11
318.1454534971301
 21
478.4853010771525
 31
0.0
  0
LINE
  5
26E5
330
2124
100
AcDbEntity
  8
1
 62
     7
100
AcDbLine
 10
323.9454534971302
 20
478.4853010771525
 30
0.0
 11
323.9454534971302
 21
466.4853010771525
 31
0.0
  0
LINE
  5
26E6
330
2124
100
AcDbEntity
  8
1
 62
     7
100
AcDbLine
 10
323.9454534971302
 20
459.2853010771526
 30
0.0
 11
318.1454534971301
 21
459.2853010771526
 31
0.0
  0
LINE
  5
26E7
330
2124
100
AcDbEntity
  8
1
 62
     7
100
AcDbLine
 10
323.9454534971302
 20
465.6853010771525
 30
0.0
 11
318.1454534971301
 21
465.6853010771525
 31
0.0
  0
LINE
  5
26E8
330
2124
100
AcDbEntity
  8
1
  6
CENTER
 62
     3
100
AcDbLine
 10
325.1054534971302
 20
462.4853010771525
 30
0.0
 11
316.9854534971302
 21
462.4853010771525
 31
0.0
  0
LINE
  5
26E9
330
2124
100
AcDbEntity
  8
1
 62
     3
100
AcDbLine
 10
323.9454534971302
 20
458.4853010771525
 30
0.0
 11
318.1454534971301
 21
458.4853010771525
 31
0.0
  0
LINE
  5
26EA
330
2124
100
AcDbEntity
  8
1
 62
     3
100
AcDbLine
 10
323.9454534971302
 20
466.4853010771525
 30
0.0
 11
318.1454534971301
 21
466.4853010771525
 31
0.0
  0
LINE
  5
26EB
330
2124
100
AcDbEntity
  8
1
 62
     7
100
AcDbLine
 10
322.2924534971302
 20
455.5853010771523
 30
0.0
 11
318.64545349713
 21
455.5853010771523
 31
0.0
  0
LINE
  5
26EC
330
2124
100
AcDbEntity
  8
1
 62
     7
100
AcDbLine
 10
318.1454534971301
 20
456.0853010771526
 30
0.0
 11
318.1454534971301
 21
458.4853010771525
 31
0.0
  0
LINE
  5
26ED
330
2124
100
AcDbEntity
  8
1
 62
     7
100
AcDbLine
 10
318.1454534971301
 20
456.0853010771526
 30
0.0
 11
318.64545349713
 21
455.5853010771523
 31
0.0
  0
LINE
  5
26EE
330
2124
100
AcDbEntity
  8
1
 62
     7
100
AcDbLine
 10
318.1454534971301
 20
459.2853010771526
 30
0.0
 11
318.1454534971301
 21
465.6853010771525
 31
0.0
  0
LINE
  5
26EF
330
2124
100
AcDbEntity
  8
1
 62
     7
100
AcDbLine
 10
318.1454534971301
 20
465.6853010771525
 30
0.0
 11
318.1454534971301
 21
466.4853010771525
 31
0.0
  0
LINE
  5
26F0
330
2124
100
AcDbEntity
  8
1
 62
     7
100
AcDbLine
 10
318.1454534971301
 20
458.4853010771525
 30
0.0
 11
318.1454534971301
 21
459.2853010771526
 31
0.0
  0
ARC
  5
26F1
330
2124
100
AcDbEntity
  8
1
 62
     7
100
AcDbCircle
 10
322.2924534971302
 20
455.0053010771525
 30
0.0
 40
0.5799999999999912
100
AcDbArc
 50
0.0
 51
90.0
  0
LINE
  5
26F2
330
2124
100
AcDbEntity
  8
1
 62
     7
100
AcDbLine
 10
323.9454534971302
 20
459.2853010771526
 30
0.0
 11
323.9454534971302
 21
458.4853010771525
 31
0.0
  0
LINE
  5
26F3
330
2124
100
AcDbEntity
  8
1
 62
     7
100
AcDbLine
 10
323.9454534971302
 20
465.6853010771525
 30
0.0
 11
323.9454534971302
 21
459.2853010771526
 31
0.0
  0
LINE
  5
26F4
330
2124
100
AcDbEntity
  8
1
 62
     7
100
AcDbLine
 10
323.9454534971302
 20
466.4853010771525
 30
0.0
 11
323.9454534971302
 21
465.6853010771525
 31
0.0
  0
LINE
  5
26F5
330
2124
100
AcDbEntity
  8
1
 62
     7
100
AcDbLine
 10
318.64545349713
 20
478.9853010771525
 30
0.0
 11
323.4454534971302
 21
478.9853010771525
 31
0.0
  0
LINE
  5
26F6
330
2124
100
AcDbEntity
  8
1
 62
     7
100
AcDbLine
 10
318.64545349713
 20
478.9853010771525
 30
0.0
 11
318.1454534971301
 21
478.4853010771525
 31
0.0
  0
LINE
  5
26F7
330
2124
100
AcDbEntity
  8
1
 62
     7
100
AcDbLine
 10
323.4454534971302
 20
478.9853010771525
 30
0.0
 11
323.9454534971302
 21
478.4853010771525
 31
0.0
  0
LINE
  5
26F8
330
2124
100
AcDbEntity
  8
1
 62
     7
100
AcDbLine
 10
359.0454534971302
 20
474.4853010771525
 30
0.0
 11
359.0454534971302
 21
457.0269870518245
 31
0.0
  0
LINE
  5
26F9
330
2124
100
AcDbEntity
  8
1
 62
     7
100
AcDbLine
 10
358.7454534971301
 20
457.0269870518245
 30
0.0
 11
358.7454534971301
 21
480.7353010771524
 31
0.0
  0
LINE
  5
26FA
330
2124
100
AcDbEntity
  8
1
 62
     7
100
AcDbLine
 10
359.0454534971302
 20
457.0269870518245
 30
0.0
 11
358.7454534971301
 21
457.0269870518245
 31
0.0
  0
LINE
  5
26FB
330
2124
100
AcDbEntity
  8
1
 62
     7
100
AcDbLine
 10
359.0454534971302
 20
457.0269870518245
 30
0.0
 11
359.0454534971302
 21
456.7353010771525
 31
0.0
  0
LINE
  5
26FC
330
2124
100
AcDbEntity
  8
1
 62
     7
100
AcDbLine
 10
318.1454534971301
 20
525.4853010771525
 30
0.0
 11
318.1454534971301
 21
501.9853010771526
 31
0.0
  0
LINE
  5
26FD
330
2124
100
AcDbEntity
  8
1
 62
     7
100
AcDbLine
 10
323.9454534971302
 20
525.4853010771525
 30
0.0
 11
323.9454534971302
 21
501.9853010771526
 31
0.0
  0
LINE
  5
26FE
330
2124
100
AcDbEntity
  8
1
 62
     7
100
AcDbLine
 10
358.7454534971301
 20
547.4853010771526
 30
0.0
 11
358.7454534971301
 21
515.7853010771527
 31
0.0
  0
LINE
  5
26FF
330
2124
100
AcDbEntity
  8
1
 62
     7
100
AcDbLine
 10
358.7454534971301
 20
515.7853010771527
 30
0.0
 11
358.7454534971301
 21
512.5683063214109
 31
0.0
  0
LINE
  5
2700
330
2124
100
AcDbEntity
  8
1
 62
     7
100
AcDbLine
 10
318.1454534971301
 20
529.2353010771526
 30
0.0
 11
318.1454534971301
 21
544.7353010771526
 31
0.0
  0
LINE
  5
2701
330
2124
100
AcDbEntity
  8
1
 62
     7
100
AcDbLine
 10
323.9454534971302
 20
544.7353010771526
 30
0.0
 11
323.9454534971302
 21
529.2353010771526
 31
0.0
  0
LINE
  5
2702
330
2124
100
AcDbEntity
  8
1
 62
     7
100
AcDbLine
 10
323.9454534971302
 20
529.2353010771526
 30
0.0
 11
318.1454534971301
 21
529.2353010771526
 31
0.0
  0
LINE
  5
2703
330
2124
100
AcDbEntity
  8
1
  6
CENTER
 62
     3
100
AcDbLine
 10
324.5254534971301
 20
536.9853010771525
 30
0.0
 11
317.1654534971303
 21
536.9853010771525
 31
0.0
  0
LINE
  5
2704
330
2124
100
AcDbEntity
  8
1
 62
     7
100
AcDbLine
 10
323.4454534971302
 20
524.9853010771525
 30
0.0
 11
318.64545349713
 21
524.9853010771525
 31
0.0
  0
LINE
  5
2705
330
2124
100
AcDbEntity
  8
1
 62
     7
100
AcDbLine
 10
318.1454534971301
 20
525.4853010771525
 30
0.0
 11
318.1454534971301
 21
529.2353010771526
 31
0.0
  0
LINE
  5
2706
330
2124
100
AcDbEntity
  8
1
 62
     7
100
AcDbLine
 10
318.64545349713
 20
524.9853010771525
 30
0.0
 11
318.1454534971301
 21
525.4853010771525
 31
0.0
  0
LINE
  5
2707
330
2124
100
AcDbEntity
  8
1
 62
     7
100
AcDbLine
 10
323.9454534971302
 20
529.2353010771526
 30
0.0
 11
323.9454534971302
 21
525.4853010771525
 31
0.0
  0
LINE
  5
2708
330
2124
100
AcDbEntity
  8
1
 62
     7
100
AcDbLine
 10
323.4454534971302
 20
524.9853010771525
 30
0.0
 11
323.9454534971302
 21
525.4853010771525
 31
0.0
  0
LINE
  5
2709
330
2124
100
AcDbEntity
  8
1
 62
     7
100
AcDbLine
 10
323.9454534971302
 20
544.7353010771526
 30
0.0
 11
318.1454534971301
 21
544.7353010771526
 31
0.0
  0
LINE
  5
270A
330
2124
100
AcDbEntity
  8
1
 62
     7
100
AcDbLine
 10
318.64545349713
 20
548.3853010771526
 30
0.0
 11
322.2924534971302
 21
548.3853010771526
 31
0.0
  0
LINE
  5
270B
330
2124
100
AcDbEntity
  8
1
 62
     7
100
AcDbLine
 10
318.1454534971301
 20
544.7353010771526
 30
0.0
 11
318.1454534971301
 21
547.8853010771522
 31
0.0
  0
LINE
  5
270C
330
2124
100
AcDbEntity
  8
1
 62
     7
100
AcDbLine
 10
318.1454534971301
 20
547.8853010771522
 30
0.0
 11
318.64545349713
 21
548.3853010771526
 31
0.0
  0
ARC
  5
270D
330
2124
100
AcDbEntity
  8
1
 62
     7
100
AcDbCircle
 10
322.2924534971302
 20
548.9653010771527
 30
0.0
 40
0.5800000000000411
100
AcDbArc
 50
270.0
 51
0.0
  0
CIRCLE
  5
270E
330
2124
100
AcDbEntity
  8
1
 62
     7
100
AcDbCircle
 10
170.7921199436008
 20
586.503810877446
 30
0.0
 40
4.0
  0
CIRCLE
  5
270F
330
2124
100
AcDbEntity
  8
1
 62
     3
100
AcDbCircle
 10
170.7921199436008
 20
586.503810877446
 30
0.0
 40
5.0
  0
LINE
  5
2710
330
2124
100
AcDbEntity
  8
1
  6
DASHDOT
 62
     3
100
AcDbLine
 10
172.9273770656966
 20
594.4726989443308
 30
0.0
 11
168.656862821505
 21
578.5349228105612
 31
0.0
  0
CIRCLE
  5
2711
330
2124
100
AcDbEntity
  8
1
 62
     7
100
AcDbCircle
 10
191.8954534971301
 20
577.7625239082911
 30
0.0
 40
5.500000000000007
  0
LINE
  5
2712
330
2124
100
AcDbEntity
  8
1
  6
DASHDOT
 62
     3
100
AcDbLine
 10
196.0204534971301
 20
584.9072334895127
 30
0.0
 11
187.7704534971301
 21
570.6178143270692
 31
0.0
  0
LINE
  5
2713
330
2124
100
AcDbEntity
  8
1
 62
     7
100
AcDbLine
 10
327.2774534971302
 20
574.2183010771526
 30
0.0
 11
349.6404534971298
 21
574.2183010771526
 31
0.0
  0
LINE
  5
2714
330
2124
100
AcDbEntity
  8
1
  6
DIVIDE
 62
     7
100
AcDbLine
 10
319.9454534971301
 20
578.9853010771527
 30
0.0
 11
337.6784230859077
 21
578.9853010771527
 31
0.0
  0
ARC
  5
2715
330
2124
100
AcDbEntity
  8
1
 62
     7
100
AcDbCircle
 10
327.2774534971302
 20
569.8133010771526
 30
0.0
 40
4.405000000000041
100
AcDbArc
 50
90.0
 51
180.0
  0
ARC
  5
2716
330
2124
100
AcDbEntity
  8
1
 62
     7
100
AcDbCircle
 10
327.5704534971302
 20
569.5203010771527
 30
0.0
 40
3.625
100
AcDbArc
 50
90.0
 51
180.0
  0
CIRCLE
  5
2717
330
2124
100
AcDbEntity
  8
1
 62
     7
100
AcDbCircle
 10
565.9922235907175
 20
414.4853010771527
 30
0.0
 40
5.5
  0
ARC
  5
2718
330
2124
100
AcDbEntity
  8
1
  6
CENTER
 62
     3
100
AcDbCircle
 10
565.9922235907179
 20
501.9853010771522
 30
0.0
 40
87.49999999999998
100
AcDbArc
 50
233.7277980871297
 51
0.0
  0
ARC
  5
2719
330
2124
100
AcDbEntity
  8
1
 62
     7
100
AcDbCircle
 10
565.9922235907179
 20
501.9853010771522
 30
0.0
 40
97.5000000000001
100
AcDbArc
 50
237.9308144609969
 51
90.0
  0
LINE
  5
271A
330
2124
100
AcDbEntity
  8
1
 62
     7
100
AcDbLine
 10
391.1454534971301
 20
424.9853010771526
 30
0.0
 11
391.1454534971301
 21
404.8853010771527
 31
0.0
  0
LINE
  5
271B
330
2124
100
AcDbEntity
  8
1
  6
DASHDOT
 62
     3
100
AcDbLine
 10
590.7741471592841
 20
409.4979032099747
 30
0.0
 11
586.5036329150927
 21
425.4356793437443
 31
0.0
  0
LINE
  5
271C
330
2124
100
AcDbEntity
  8
1
  6
CENTER
 62
     3
100
AcDbLine
 10
565.9922235907179
 20
574.8303010771527
 30
0.0
 11
565.9922235907175
 21
393.1677034543481
 31
0.0
  0
LINE
  5
271D
330
2124
100
AcDbEntity
  8
1
 62
     7
100
AcDbLine
 10
366.1454534971301
 20
423.6853010771526
 30
0.0
 11
366.1454534971301
 21
404.8853010771527
 31
0.0
  0
TEXT
  5
271E
330
2124
100
AcDbEntity
  8
1
 62
     0
100
AcDbText
 10
511.2156696063324
 20
321.5350531377034
 30
0.0
 40
9.0
  1
CSF-58-XXX-2A-GR.dxf
 41
0.9
100
AcDbText
  0
LINE
  5
271F
330
2124
100
AcDbEntity
  8
1
 62
     7
100
AcDbLine
 10
366.1454534971301
 20
408.9853010771527
 30
0.0
 11
391.1454534971301
 21
408.9853010771527
 31
0.0
  0
LINE
  5
2720
330
2124
100
AcDbEntity
  8
1
 62
     7
100
AcDbLine
 10
390.7454534971302
 20
404.4853010771527
 30
0.0
 11
366.5454534971302
 21
404.4853010771527
 31
0.0
  0
LINE
  5
2721
330
2124
100
AcDbEntity
  8
1
 62
     7
100
AcDbLine
 10
366.1454534971301
 20
404.8853010771527
 30
0.0
 11
366.5454534971302
 21
404.4853010771527
 31
0.0
  0
LINE
  5
2722
330
2124
100
AcDbEntity
  8
1
 62
     7
100
AcDbLine
 10
390.7454534971302
 20
404.4853010771527
 30
0.0
 11
391.1454534971301
 21
404.8853010771527
 31
0.0
  0
CIRCLE
  5
2723
330
2124
100
AcDbEntity
  8
1
 62
     7
100
AcDbCircle
 10
565.9922235907179
 20
501.9853010771522
 30
0.0
 40
51.85699999999989
  0
CIRCLE
  5
2724
330
2124
100
AcDbEntity
  8
1
 62
     7
100
AcDbCircle
 10
565.9922235907179
 20
501.9853010771522
 30
0.0
 40
20.0052788985042
  0
ARC
  5
2725
330
2124
100
AcDbEntity
  8
1
 62
     7
100
AcDbCircle
 10
565.9922235907179
 20
501.9853010771522
 30
0.0
 40
56.765
100
AcDbArc
 50
95.32400684260958
 51
100.3281670704336
  0
ARC
  5
2726
330
2124
100
AcDbEntity
  8
1
 62
     7
100
AcDbCircle
 10
549.3659975681662
 20
561.3250789099606
 30
0.0
 40
7.334999999999996
100
AcDbArc
 50
331.5481590760496
 51
50.69504220740192
  0
ARC
  5
2727
330
2124
100
AcDbEntity
  8
1
 62
     7
100
AcDbCircle
 10
565.9922235907179
 20
501.9853010771522
 30
0.0
 40
66.11
100
AcDbArc
 50
95.21184506759018
 51
100.4403288454543
  0
ARC
  5
2728
330
2124
100
AcDbEntity
  8
0
 62
     7
100
AcDbCircle
 10
565.6343275995291
 20
502.9430507437428
 30
0.0
 40
22.54809519063905
100
AcDbArc
 50
87.37947092368059
 51
248.1098320457029
  0
ARC
  5
2729
330
2124
100
AcDbEntity
  8
1
 62
     7
100
AcDbCircle
 10
549.3659975681662
 20
561.3250789099606
 30
0.0
 40
6.746874999999969
100
AcDbArc
 50
309.8532283129276
 51
76.93933577607468
  0
ARC
  5
272A
330
2124
100
AcDbEntity
  8
1
 62
     7
100
AcDbCircle
 10
565.9922235907179
 20
501.9853010771522
 30
0.0
 40
71.16799999999985
100
AcDbArc
 50
0.0
 51
136.6680818646609
  0
ARC
  5
272B
330
2124
100
AcDbEntity
  8
1
 62
     7
100
AcDbCircle
 10
565.9922235907179
 20
501.9853010771522
 30
0.0
 40
71.16800000000009
100
AcDbArc
 50
223.331918135339
 51
0.0
  0
ARC
  5
272C
330
2124
100
AcDbEntity
  8
1
 62
     7
100
AcDbCircle
 10
565.9922235907179
 20
501.9853010771522
 30
0.0
 40
67.61999999999986
100
AcDbArc
 50
0.0
 51
139.7040216489796
  0
ARC
  5
272D
330
2124
100
AcDbEntity
  8
1
 62
     7
100
AcDbCircle
 10
565.9922235907179
 20
501.9853010771522
 30
0.0
 40
67.62000000000009
100
AcDbArc
 50
220.0434697887684
 51
0.0
  0
ARC
  5
272E
330
2124
100
AcDbEntity
  8
1
 62
     7
100
AcDbCircle
 10
565.9922235907179
 20
501.9853010771522
 30
0.0
 40
55.53999999999988
100
AcDbArc
 50
0.0
 51
158.7591571987571
  0
ARC
  5
272F
330
2124
100
AcDbEntity
  8
1
 62
     7
100
AcDbCircle
 10
565.9922235907179
 20
501.9853010771522
 30
0.0
 40
55.54000000000007
100
AcDbArc
 50
201.2408428012429
 51
0.0
  0
ARC
  5
2730
330
2124
100
AcDbEntity
  8
1
 62
     7
100
AcDbCircle
 10
565.9922235907179
 20
501.9853010771522
 30
0.0
 40
72.8450000000001
100
AcDbArc
 50
224.7125830224893
 51
90.0
  0
ARC
  5
2731
330
2124
100
AcDbEntity
  8
1
 62
     7
100
AcDbCircle
 10
565.9922235907179
 20
501.9853010771522
 30
0.0
 40
72.84500000000014
100
AcDbArc
 50
90.0
 51
135.2874169775106
  0
ARC
  5
2732
330
2124
100
AcDbEntity
  8
1
 62
     7
100
AcDbCircle
 10
565.9922235907179
 20
501.9853010771522
 30
0.0
 40
74.2000000000001
100
AcDbArc
 50
225.7598290189485
 51
90.0
  0
ARC
  5
2733
330
2124
100
AcDbEntity
  8
1
 62
     7
100
AcDbCircle
 10
565.9922235907179
 20
501.9853010771522
 30
0.0
 40
74.2000000000001
100
AcDbArc
 50
90.0
 51
134.2401709810511
  0
ARC
  5
2734
330
2124
100
AcDbEntity
  8
1
  6
CENTER
 62
     3
100
AcDbCircle
 10
565.9922235907179
 20
501.9853010771522
 30
0.0
 40
87.49999999999991
100
AcDbArc
 50
0.0
 51
126.2722019128702
  0
ARC
  5
2735
330
2124
100
AcDbEntity
  8
1
 62
     7
100
AcDbCircle
 10
565.9922235907179
 20
501.9853010771522
 30
0.0
 40
97.50000000000014
100
AcDbArc
 50
90.0
 51
122.069185539003
  0
ARC
  5
2736
330
2124
100
AcDbEntity
  8
1
 62
     7
100
AcDbCircle
 10
565.9922235907179
 20
501.9853010771522
 30
0.0
 40
25.00000000000022
100
AcDbArc
 50
90.0
 51
252.1048594986513
  0
ARC
  5
2737
330
2124
100
AcDbEntity
  8
1
 62
     7
100
AcDbCircle
 10
565.9922235907179
 20
501.9853010771522
 30
0.0
 40
11.00000000000002
100
AcDbArc
 50
105.8266201318724
 51
270.0
  0
LINE
  5
2738
330
2124
100
AcDbEntity
  8
1
  6
CENTER
 62
     3
100
AcDbLine
 10
457.7172498639414
 20
501.9853010771522
 30
0.0
 11
653.4922235907175
 21
501.9853010771522
 31
0.0
  0
ARC
  5
2739
330
2124
100
AcDbEntity
  8
1
 62
     7
100
AcDbCircle
 10
378.9654534971301
 20
563.6023010771526
 30
0.0
 40
6.746874999999991
100
AcDbArc
 50
313.9179793320092
 51
41.11096871564567
  0
ARC
  5
273A
330
2124
100
AcDbEntity
  8
1
 62
     7
100
AcDbCircle
 10
378.9654534971301
 20
563.6023010771526
 30
0.0
 40
6.746875000000008
100
AcDbArc
 50
117.3072089598429
 51
244.4088196252302
  0
ARC
  5
273B
330
2124
100
AcDbEntity
  8
1
 62
     7
100
AcDbCircle
 10
533.9728626697841
 20
554.6388968823298
 30
0.0
 40
7.335000000000102
100
AcDbArc
 50
347.2003329890905
 51
66.34721612044538
  0
ARC
  5
273C
330
2124
100
AcDbEntity
  8
1
 62
     7
100
AcDbCircle
 10
549.3659975681662
 20
561.3250789099606
 30
0.0
 40
7.334999999999996
100
AcDbArc
 50
160.6093056186854
 51
239.7561887500383
  0
ARC
  5
273D
330
2124
100
AcDbEntity
  8
1
 62
     7
100
AcDbCircle
 10
549.3659975681662
 20
561.3250789099606
 30
0.0
 40
6.746875000000062
100
AcDbArc
 50
134.3650120500125
 51
261.4511195131609
  0
ARC
  5
273E
330
2124
100
AcDbEntity
  8
1
 62
     7
100
AcDbCircle
 10
533.9728626697841
 20
554.6388968823298
 30
0.0
 40
6.746875000000168
100
AcDbArc
 50
325.5054022259727
 51
92.59150968911573
  0
ARC
  5
273F
330
2124
100
AcDbEntity
  8
1
 62
     7
100
AcDbCircle
 10
565.9922235907179
 20
501.9853010771522
 30
0.0
 40
97.5000000000001
100
AcDbArc
 50
122.069185539003
 51
237.9308144609969
  0
ARC
  5
2740
330
2124
100
AcDbEntity
  8
1
  6
CENTER
 62
     3
100
AcDbCircle
 10
565.9922235907179
 20
501.9853010771522
 30
0.0
 40
87.49999999999998
100
AcDbArc
 50
126.2722019128702
 51
233.7277980871297
  0
LINE
  5
2741
330
2124
100
AcDbEntity
  8
1
 62
     7
100
AcDbLine
 10
369.0812274379622
 20
559.4154226831956
 30
0.0
 11
369.5785784971299
 21
563.4660220053778
 31
0.0
  0
LINE
  5
2742
330
2124
100
AcDbEntity
  8
1
 62
     7
100
AcDbLine
 10
372.0185784971299
 20
558.7423010771527
 30
0.0
 11
372.0185784971299
 21
568.0873010771526
 31
0.0
  0
LINE
  5
2743
330
2124
100
AcDbEntity
  8
1
 62
     7
100
AcDbLine
 10
389.45545349713
 20
569.8973010771526
 30
0.0
 11
389.45545349713
 21
559.1326608878037
 31
0.0
  0
LINE
  5
2744
330
2124
100
AcDbEntity
  8
1
 62
     7
100
AcDbLine
 10
368.4754534971298
 20
559.1326608878037
 30
0.0
 11
368.4754534971298
 21
569.8973010771526
 31
0.0
  0
LINE
  5
2745
330
2124
100
AcDbEntity
  8
1
 62
     7
100
AcDbLine
 10
391.1454534971301
 20
573.5086021160915
 30
0.0
 11
391.1454534971301
 21
553.8423010771526
 31
0.0
  0
LINE
  5
2746
330
2124
100
AcDbEntity
  8
1
 62
     7
100
AcDbLine
 10
367.9304534971299
 20
561.9853010771525
 30
0.0
 11
367.9304534971299
 21
547.2353010771525
 31
0.0
  0
LINE
  5
2747
330
2124
100
AcDbEntity
  8
1
 62
     7
100
AcDbLine
 10
365.2996794391112
 20
561.9853010771525
 30
0.0
 11
365.2996794391112
 21
547.2353010771525
 31
0.0
  0
LINE
  5
2748
330
2124
100
AcDbEntity
  8
1
  6
DIVIDE
 62
     7
100
AcDbLine
 10
393.6454534971301
 20
558.2307273577441
 30
0.0
 11
393.6454534971301
 21
578.9853010771527
 31
0.0
  0
LINE
  5
2749
330
2124
100
AcDbEntity
  8
1
 62
     7
100
AcDbLine
 10
393.6454534971302
 20
490.9853010771525
 30
0.0
 11
393.6454534971302
 21
482.3853010771526
 31
0.0
  0
LINE
  5
274A
330
2124
100
AcDbEntity
  8
1
 62
     7
100
AcDbLine
 10
371.6004534971298
 20
447.2373010771527
 30
0.0
 11
371.6004534971298
 21
449.3203010771527
 31
0.0
  0
LINE
  5
274B
330
2124
100
AcDbEntity
  8
1
 62
     7
100
AcDbLine
 10
386.33045349713
 20
449.3203010771527
 30
0.0
 11
386.33045349713
 21
447.2373010771527
 31
0.0
  0
LINE
  5
274C
330
2124
100
AcDbEntity
  8
1
 62
     7
100
AcDbLine
 10
391.1454534971301
 20
450.1283010771525
 30
0.0
 11
391.1454534971301
 21
430.4620000382135
 31
0.0
  0
LINE
  5
274D
330
2124
100
AcDbEntity
  8
1
 62
     7
100
AcDbLine
 10
365.2996794391112
 20
456.7353010771525
 30
0.0
 11
365.2996794391112
 21
441.9853010771527
 31
0.0
  0
LINE
  5
274E
330
2124
100
AcDbEntity
  8
1
 62
     7
100
AcDbLine
 10
367.9304534971299
 20
456.7353010771525
 30
0.0
 11
367.9304534971299
 21
441.9853010771527
 31
0.0
  0
ARC
  5
274F
330
2124
100
AcDbEntity
  8
1
 62
     7
100
AcDbCircle
 10
378.9654534971301
 20
440.3523010771526
 30
0.0
 40
6.746874999999952
100
AcDbArc
 50
297.3072089598415
 51
64.40881962523024
  0
LINE
  5
2750
330
2124
100
AcDbEntity
  8
1
 62
     7
100
AcDbLine
 10
385.5304534971301
 20
446.4373010771526
 30
0.0
 11
381.8797453949374
 21
446.4373010771526
 31
0.0
  0
LINE
  5
2751
330
2124
100
AcDbEntity
  8
1
 62
     7
100
AcDbLine
 10
389.1554534971301
 20
434.3573010771526
 30
0.0
 11
382.0606590259478
 21
434.3573010771526
 31
0.0
  0
LINE
  5
2752
330
2124
100
AcDbEntity
  8
1
 62
     7
100
AcDbLine
 10
388.6554534971301
 20
430.8093010771527
 30
0.0
 11
378.9654534971301
 21
430.8093010771527
 31
0.0
  0
LINE
  5
2753
330
2124
100
AcDbEntity
  8
1
 62
     7
100
AcDbLine
 10
389.1513726534656
 20
427.7812202334884
 30
0.0
 11
383.6054534971299
 21
427.7183010771527
 31
0.0
  0
LINE
  5
2754
330
2124
100
AcDbEntity
  8
1
 62
     7
100
AcDbLine
 10
366.1454534971301
 20
419.9853010771526
 30
0.0
 11
391.1454534971301
 21
419.9853010771526
 31
0.0
  0
LINE
  5
2755
330
2124
100
AcDbEntity
  8
1
  6
CENTER
 62
     3
100
AcDbLine
 10
362.6454534971302
 20
414.4853010771527
 30
0.0
 11
400.2304534971302
 21
414.4853010771527
 31
0.0
  0
LINE
  5
2756
330
2124
100
AcDbEntity
  8
1
 62
     7
100
AcDbLine
 10
362.9204534971298
 20
429.1403010771526
 30
0.0
 11
389.3704534971303
 21
429.1403010771526
 31
0.0
  0
LINE
  5
2757
330
2124
100
AcDbEntity
  8
1
 62
     7
100
AcDbLine
 10
361.5203261732487
 20
427.7853010771527
 30
0.0
 11
390.6164537598177
 21
427.7853010771527
 31
0.0
  0
LINE
  5
2758
330
2124
100
AcDbEntity
  8
1
 62
     7
100
AcDbLine
 10
365.0797822320089
 20
427.8596094385498
 30
0.0
 11
376.6454534971301
 21
427.7183010771527
 31
0.0
  0
LINE
  5
2759
330
2124
100
AcDbEntity
  8
1
 62
     7
100
AcDbLine
 10
365.8454534971301
 20
423.9853010771526
 30
0.0
 11
361.9454534971302
 21
423.9853010771526
 31
0.0
  0
LINE
  5
275A
330
2124
100
AcDbEntity
  8
1
 62
     7
100
AcDbLine
 10
361.9454534971302
 20
423.9853010771526
 30
0.0
 11
361.1454534971301
 21
424.7853010771526
 31
0.0
  0
LINE
  5
275B
330
2124
100
AcDbEntity
  8
1
 62
     7
100
AcDbLine
 10
361.1454534971301
 20
427.3653010771528
 30
0.0
 11
361.1454534971301
 21
424.7853010771526
 31
0.0
  0
LINE
  5
275C
330
2124
100
AcDbEntity
  8
1
 62
     7
100
AcDbLine
 10
361.1454534971301
 20
427.3653010771528
 30
0.0
 11
362.9204534971298
 21
429.1403010771526
 31
0.0
  0
ARC
  5
275D
330
2124
100
AcDbEntity
  8
1
 62
     7
100
AcDbCircle
 10
365.8454534971301
 20
423.6853010771526
 30
0.0
 40
0.3000000000000114
100
AcDbArc
 50
0.0
 51
90.0
  0
LINE
  5
275E
330
2124
100
AcDbEntity
  8
1
 62
     7
100
AcDbLine
 10
376.6454534971301
 20
427.7183010771527
 30
0.0
 11
383.6054534971299
 21
427.7183010771527
 31
0.0
  0
LINE
  5
275F
330
2124
100
AcDbEntity
  8
1
 62
     7
100
AcDbLine
 10
372.0185784971299
 20
435.8673010771527
 30
0.0
 11
370.1785784971301
 21
435.8673010771527
 31
0.0
  0
LINE
  5
2760
330
2124
100
AcDbEntity
  8
1
 62
     7
100
AcDbLine
 10
372.0185784971299
 20
445.2123010771527
 30
0.0
 11
369.6767551289472
 21
445.2123010771527
 31
0.0
  0
LINE
  5
2761
330
2124
100
AcDbEntity
  8
1
 62
     7
100
AcDbLine
 10
378.9654534971301
 20
430.8093010771527
 30
0.0
 11
369.2754534971301
 21
430.8093010771527
 31
0.0
  0
LINE
  5
2762
330
2124
100
AcDbEntity
  8
1
 62
     7
100
AcDbLine
 10
375.8702479683122
 20
434.3573010771526
 30
0.0
 11
368.7754534971301
 21
434.3573010771526
 31
0.0
  0
LINE
  5
2763
330
2124
100
AcDbEntity
  8
1
 62
     7
100
AcDbLine
 10
369.5785784971299
 20
440.4885801489274
 30
0.0
 11
369.5785784971299
 21
436.4673010771526
 31
0.0
  0
LINE
  5
2764
330
2124
100
AcDbEntity
  8
1
 62
     7
100
AcDbLine
 10
368.4754534971298
 20
434.0573010771527
 30
0.0
 11
368.4754534971298
 21
444.8219412665018
 31
0.0
  0
ARC
  5
2765
330
2124
100
AcDbEntity
  8
1
 62
     7
100
AcDbCircle
 10
370.1785784971301
 20
436.4673010771526
 30
0.0
 40
0.6000000000000192
100
AcDbArc
 50
180.0
 51
270.0
  0
LINE
  5
2766
330
2124
100
AcDbEntity
  8
1
 62
     7
100
AcDbLine
 10
368.4754534971298
 20
434.0573010771527
 30
0.0
 11
368.4754534971298
 21
431.2711812925043
 31
0.0
  0
LINE
  5
2767
330
2124
100
AcDbEntity
  8
1
 62
     7
100
AcDbLine
 10
368.7754534971301
 20
434.3573010771526
 30
0.0
 11
368.4754534971298
 21
434.0573010771527
 31
0.0
  0
LINE
  5
2768
330
2124
100
AcDbEntity
  8
1
 62
     7
100
AcDbLine
 10
369.2754534971301
 20
430.8093010771527
 30
0.0
 11
368.4754534971298
 21
431.2711812925043
 31
0.0
  0
LINE
  5
2769
330
2124
100
AcDbEntity
  8
1
 62
     7
100
AcDbLine
 10
367.9304534971299
 20
441.9853010771527
 30
0.0
 11
365.2996794391112
 21
441.9853010771527
 31
0.0
  0
ARC
  5
276A
330
2124
100
AcDbEntity
  8
1
 62
     7
100
AcDbCircle
 10
369.6767551289472
 20
444.6123010771526
 30
0.0
 40
0.5999999999999872
100
AcDbArc
 50
90.0
 51
187.0000000000027
  0
LINE
  5
276B
330
2124
100
AcDbEntity
  8
1
 62
     7
100
AcDbLine
 10
369.5785784971299
 20
440.4885801489274
 30
0.0
 11
369.0812274379622
 21
444.5391794711095
 31
0.0
  0
ARC
  5
276C
330
2124
100
AcDbEntity
  8
1
 62
     7
100
AcDbCircle
 10
378.9654534971301
 20
440.3523010771526
 30
0.0
 40
6.746875000000049
100
AcDbArc
 50
115.5911803747697
 51
242.692791040157
  0
LINE
  5
276D
330
2124
100
AcDbEntity
  8
1
 62
     7
100
AcDbLine
 10
372.0185784971299
 20
435.8673010771527
 30
0.0
 11
372.0185784971299
 21
445.2123010771527
 31
0.0
  0
ARC
  5
276E
330
2124
100
AcDbEntity
  8
1
 62
     7
100
AcDbCircle
 10
378.9654534971301
 20
440.3523010771526
 30
0.0
 40
6.746874999999985
100
AcDbArc
 50
242.692791040157
 51
270.0
  0
LINE
  5
276F
330
2124
100
AcDbEntity
  8
1
 62
     7
100
AcDbLine
 10
373.8821046589207
 20
435.9160992270675
 30
0.0
 11
372.0185784971299
 21
435.8673010771527
 31
0.0
  0
ARC
  5
2770
330
2124
100
AcDbEntity
  8
1
 62
     7
100
AcDbCircle
 10
378.9654534971301
 20
440.3523010771526
 30
0.0
 40
6.746874999999986
100
AcDbArc
 50
270.0
 51
297.3072089598415
  0
ARC
  5
2771
330
2124
100
AcDbEntity
  8
1
 62
     7
100
AcDbCircle
 10
378.9654534971301
 20
440.3523010771526
 30
0.0
 40
6.746875000000017
100
AcDbArc
 50
90.0
 51
115.5911803747697
  0
LINE
  5
2772
330
2124
100
AcDbEntity
  8
1
 62
     7
100
AcDbLine
 10
372.0185784971299
 20
445.2123010771527
 30
0.0
 11
374.2856327456882
 21
445.2123010771527
 31
0.0
  0
LINE
  5
2773
330
2124
100
AcDbEntity
  8
1
 62
     7
100
AcDbLine
 10
376.0511615993227
 20
446.4373010771526
 30
0.0
 11
372.4004534971301
 21
446.4373010771526
 31
0.0
  0
LINE
  5
2774
330
2124
100
AcDbEntity
  8
1
 62
     7
100
AcDbLine
 10
372.4004534971301
 20
446.4373010771526
 30
0.0
 11
371.6004534971298
 21
447.2373010771527
 31
0.0
  0
ARC
  5
2775
330
2124
100
AcDbEntity
  8
1
 62
     7
100
AcDbCircle
 10
378.9654534971301
 20
440.3523010771526
 30
0.0
 40
6.746875000000022
100
AcDbArc
 50
64.40881962523024
 51
90.0
  0
LINE
  5
2776
330
2124
100
AcDbEntity
  8
1
  6
DIVIDE
 62
     7
100
AcDbLine
 10
393.6454534971301
 20
424.9853010771526
 30
0.0
 11
393.6454534971301
 21
445.7398747965611
 31
0.0
  0
LINE
  5
2777
330
2124
100
AcDbEntity
  8
1
 62
     7
100
AcDbLine
 10
391.0575855314862
 20
429.6874331115086
 30
0.0
 11
389.1513726534656
 21
427.7812202334884
 31
0.0
  0
LINE
  5
2778
330
2124
100
AcDbEntity
  8
1
 62
     7
100
AcDbLine
 10
389.3704534971303
 20
429.1403010771526
 30
0.0
 11
391.1454534971301
 21
427.3653010771528
 31
0.0
  0
LINE
  5
2779
330
2124
100
AcDbEntity
  8
1
  6
DIVIDE
 62
     7
100
AcDbLine
 10
391.1454534971301
 20
424.9853010771526
 30
0.0
 11
393.6454534971301
 21
424.9853010771526
 31
0.0
  0
LINE
  5
277A
330
2124
100
AcDbEntity
  8
1
 62
     7
100
AcDbLine
 10
391.1454534971301
 20
427.3653010771528
 30
0.0
 11
391.1454534971301
 21
424.9853010771526
 31
0.0
  0
LINE
  5
277B
330
2124
100
AcDbEntity
  8
1
 62
     7
100
AcDbLine
 10
389.45545349713
 20
444.8219412665018
 30
0.0
 11
389.45545349713
 21
434.0573010771527
 31
0.0
  0
LINE
  5
277C
330
2124
100
AcDbEntity
  8
1
 62
     7
100
AcDbLine
 10
390.8611542840032
 20
430.76158889864
 30
0.0
 11
389.6454534971302
 21
430.8253010771527
 31
0.0
  0
LINE
  5
277D
330
2124
100
AcDbEntity
  8
1
 62
     7
100
AcDbLine
 10
389.45545349713
 20
431.2711812925043
 30
0.0
 11
388.6554534971301
 21
430.8093010771527
 31
0.0
  0
LINE
  5
277E
330
2124
100
AcDbEntity
  8
1
 62
     7
100
AcDbLine
 10
389.45545349713
 20
434.0573010771527
 30
0.0
 11
389.1554534971301
 21
434.3573010771526
 31
0.0
  0
LINE
  5
277F
330
2124
100
AcDbEntity
  8
1
 62
     7
100
AcDbLine
 10
389.45545349713
 20
431.2711812925043
 30
0.0
 11
389.45545349713
 21
434.0573010771527
 31
0.0
  0
ARC
  5
2780
330
2124
100
AcDbEntity
  8
1
 62
     7
100
AcDbCircle
 10
390.8454534971297
 20
429.8995651458646
 30
0.0
 40
0.3000000000000194
100
AcDbArc
 50
315.0000000000216
 51
0.0
  0
ARC
  5
2781
330
2124
100
AcDbEntity
  8
1
 62
     7
100
AcDbCircle
 10
390.8454534971297
 20
430.4620000382135
 30
0.0
 40
0.3000000000000114
100
AcDbArc
 50
0.0
 51
86.99999999999441
  0
LINE
  5
2782
330
2124
100
AcDbEntity
  8
1
 62
     7
100
AcDbLine
 10
391.1454534971301
 20
430.4620000382135
 30
0.0
 11
391.1454534971301
 21
429.8995651458646
 31
0.0
  0
LINE
  5
2783
330
2124
100
AcDbEntity
  8
1
 62
     7
100
AcDbLine
 10
386.33045349713
 20
447.2373010771527
 30
0.0
 11
385.5304534971301
 21
446.4373010771526
 31
0.0
  0
LINE
  5
2784
330
2124
100
AcDbEntity
  8
1
 62
     7
100
AcDbLine
 10
385.5304534971301
 20
450.1203010771527
 30
0.0
 11
378.9654534971301
 21
450.1203010771527
 31
0.0
  0
LINE
  5
2785
330
2124
100
AcDbEntity
  8
1
 62
     7
100
AcDbLine
 10
372.4004534971299
 20
450.1283010771525
 30
0.0
 11
385.5304534971301
 21
450.1283010771525
 31
0.0
  0
LINE
  5
2786
330
2124
100
AcDbEntity
  8
1
 62
     7
100
AcDbLine
 10
386.3454534971299
 20
481.7353010771525
 30
0.0
 11
377.7304534971299
 21
481.7353010771525
 31
0.0
  0
LINE
  5
2787
330
2124
100
AcDbEntity
  8
1
 62
     7
100
AcDbLine
 10
371.0454534971302
 20
450.1283010771525
 30
0.0
 11
386.3454534971299
 21
450.1283010771525
 31
0.0
  0
LINE
  5
2788
330
2124
100
AcDbEntity
  8
1
 62
     7
100
AcDbLine
 10
364.8996794391113
 20
481.9853010771525
 30
0.0
 11
386.3454534971299
 21
481.9853010771525
 31
0.0
  0
LINE
  5
2789
330
2124
100
AcDbEntity
  8
1
 62
     7
100
AcDbLine
 10
364.8996794391113
 20
474.4853010771525
 30
0.0
 11
364.8996794391113
 21
456.7353010771525
 31
0.0
  0
LINE
  5
278A
330
2124
100
AcDbEntity
  8
1
 62
     7
100
AcDbLine
 10
371.0454534971302
 20
474.7353010771525
 30
0.0
 11
371.0454534971302
 21
456.7353010771525
 31
0.0
  0
LINE
  5
278B
330
2124
100
AcDbEntity
  8
1
 62
     7
100
AcDbLine
 10
364.8996794391113
 20
456.7353010771525
 30
0.0
 11
365.2996794391112
 21
456.7353010771525
 31
0.0
  0
LINE
  5
278C
330
2124
100
AcDbEntity
  8
1
 62
     7
100
AcDbLine
 10
367.9304534971299
 20
456.7353010771525
 30
0.0
 11
371.0454534971302
 21
456.7353010771525
 31
0.0
  0
LINE
  5
278D
330
2124
100
AcDbEntity
  8
1
 62
     7
100
AcDbLine
 10
371.0454534971302
 20
456.7353010771525
 30
0.0
 11
371.0454534971302
 21
450.1283010771525
 31
0.0
  0
LINE
  5
278E
330
2124
100
AcDbEntity
  8
1
 62
     7
100
AcDbLine
 10
378.9654534971301
 20
450.1203010771527
 30
0.0
 11
372.4004534971301
 21
450.1203010771527
 31
0.0
  0
LINE
  5
278F
330
2124
100
AcDbEntity
  8
1
 62
     7
100
AcDbLine
 10
371.6004534971298
 20
449.3203010771527
 30
0.0
 11
372.4004534971301
 21
450.1203010771527
 31
0.0
  0
LINE
  5
2790
330
2124
100
AcDbEntity
  8
1
 62
     7
100
AcDbLine
 10
377.7304534971299
 20
474.7353010771525
 30
0.0
 11
371.0454534971302
 21
474.7353010771525
 31
0.0
  0
LINE
  5
2791
330
2124
100
AcDbEntity
  8
1
 62
     7
100
AcDbLine
 10
377.7304534971299
 20
481.7353010771525
 30
0.0
 11
371.0454534971302
 21
481.7353010771525
 31
0.0
  0
LINE
  5
2792
330
2124
100
AcDbEntity
  8
1
 62
     7
100
AcDbLine
 10
370.5304534971301
 20
481.9853010771525
 30
0.0
 11
370.5304534971301
 21
474.4853010771525
 31
0.0
  0
LINE
  5
2793
330
2124
100
AcDbEntity
  8
1
 62
     7
100
AcDbLine
 10
371.0454534971302
 20
481.7353010771525
 30
0.0
 11
371.0454534971302
 21
474.7353010771525
 31
0.0
  0
LINE
  5
2794
330
2124
100
AcDbEntity
  8
1
 62
     7
100
AcDbLine
 10
364.8996794391113
 20
478.4853010771525
 30
0.0
 11
364.8996794391113
 21
474.4853010771525
 31
0.0
  0
LINE
  5
2795
330
2124
100
AcDbEntity
  8
1
 62
     7
100
AcDbLine
 10
370.5304534971301
 20
474.4853010771525
 30
0.0
 11
371.0454534971302
 21
474.4853010771525
 31
0.0
  0
LINE
  5
2796
330
2124
100
AcDbEntity
  8
1
 62
     7
100
AcDbLine
 10
365.3996794391112
 20
478.4853010771525
 30
0.0
 11
364.8996794391113
 21
478.4853010771525
 31
0.0
  0
LINE
  5
2797
330
2124
100
AcDbEntity
  8
1
 62
     7
100
AcDbLine
 10
371.0454534971302
 20
481.7353010771525
 30
0.0
 11
364.8996794391113
 21
481.7353010771525
 31
0.0
  0
LINE
  5
2798
330
2124
100
AcDbEntity
  8
1
 62
     7
100
AcDbLine
 10
364.8996794391113
 20
481.7353010771525
 30
0.0
 11
364.8996794391113
 21
480.7353010771524
 31
0.0
  0
LINE
  5
2799
330
2124
100
AcDbEntity
  8
1
 62
     7
100
AcDbLine
 10
364.8996794391113
 20
481.9853010771525
 30
0.0
 11
364.8996794391113
 21
481.7353010771525
 31
0.0
  0
LINE
  5
279A
330
2124
100
AcDbEntity
  8
1
 62
     7
100
AcDbLine
 10
364.8996794391113
 20
480.7353010771524
 30
0.0
 11
364.8996794391113
 21
478.4853010771525
 31
0.0
  0
LINE
  5
279B
330
2124
100
AcDbEntity
  8
1
 62
     7
100
AcDbLine
 10
371.0454534971302
 20
481.9853010771525
 30
0.0
 11
371.0454534971302
 21
481.7353010771525
 31
0.0
  0
LINE
  5
279C
330
2124
100
AcDbEntity
  8
1
 62
     7
100
AcDbLine
 10
365.3996794391112
 20
481.9853010771525
 30
0.0
 11
365.3996794391112
 21
478.4853010771525
 31
0.0
  0
LINE
  5
279D
330
2124
100
AcDbEntity
  8
1
 62
     7
100
AcDbLine
 10
377.7304534971299
 20
481.7353010771525
 30
0.0
 11
377.7304534971299
 21
474.7353010771525
 31
0.0
  0
LINE
  5
279E
330
2124
100
AcDbEntity
  8
1
 62
     7
100
AcDbLine
 10
377.7304534971299
 20
481.7353010771525
 30
0.0
 11
377.7304534971299
 21
474.7353010771525
 31
0.0
  0
LINE
  5
279F
330
2124
100
AcDbEntity
  8
1
 62
     7
100
AcDbLine
 10
377.7304534971299
 20
481.9853010771525
 30
0.0
 11
377.7304534971299
 21
481.7353010771525
 31
0.0
  0
LINE
  5
27A0
330
2124
100
AcDbEntity
  8
1
 62
     7
100
AcDbLine
 10
386.3454534971299
 20
476.9853010771525
 30
0.0
 11
386.3454534971299
 21
450.1283010771525
 31
0.0
  0
LINE
  5
27A1
330
2124
100
AcDbEntity
  8
1
 62
     7
100
AcDbLine
 10
385.5304534971301
 20
450.1203010771527
 30
0.0
 11
386.33045349713
 21
449.3203010771527
 31
0.0
  0
LINE
  5
27A2
330
2124
100
AcDbEntity
  8
1
 62
     7
100
AcDbLine
 10
390.3454534971301
 20
477.5512659395929
 30
0.0
 11
388.5304534971297
 21
477.5512659395929
 31
0.0
  0
LINE
  5
27A3
330
2124
100
AcDbEntity
  8
1
 62
     7
100
AcDbLine
 10
390.3454534971301
 20
482.9853010771524
 30
0.0
 11
388.5304534971297
 21
482.9853010771524
 31
0.0
  0
LINE
  5
27A4
330
2124
100
AcDbEntity
  8
1
 62
     7
100
AcDbLine
 10
386.3454534971299
 20
481.7353010771525
 30
0.0
 11
386.3454534971299
 21
476.9853010771525
 31
0.0
  0
LINE
  5
27A5
330
2124
100
AcDbEntity
  8
1
 62
     7
100
AcDbLine
 10
388.5304534971297
 20
482.9853010771524
 30
0.0
 11
388.5304534971297
 21
481.8353010771525
 31
0.0
  0
LINE
  5
27A6
330
2124
100
AcDbEntity
  8
1
 62
     7
100
AcDbLine
 10
388.5304534971297
 20
481.8353010771525
 30
0.0
 11
386.3454534971299
 21
481.8353010771525
 31
0.0
  0
LINE
  5
27A7
330
2124
100
AcDbEntity
  8
1
 62
     7
100
AcDbLine
 10
388.5304534971297
 20
481.8353010771525
 30
0.0
 11
388.5304534971297
 21
476.9853010771525
 31
0.0
  0
LINE
  5
27A8
330
2124
100
AcDbEntity
  8
1
 62
     7
100
AcDbLine
 10
386.3454534971299
 20
481.7353010771525
 30
0.0
 11
386.3454534971299
 21
481.9853010771525
 31
0.0
  0
LINE
  5
27A9
330
2124
100
AcDbEntity
  8
1
 62
     7
100
AcDbLine
 10
386.3454534971299
 20
481.9853010771525
 30
0.0
 11
388.5304534971297
 21
481.9853010771525
 31
0.0
  0
LINE
  5
27AA
330
2124
100
AcDbEntity
  8
1
 62
     7
100
AcDbLine
 10
388.5304534971297
 20
476.9853010771525
 30
0.0
 11
386.3454534971299
 21
476.9853010771525
 31
0.0
  0
LINE
  5
27AB
330
2124
100
AcDbEntity
  8
1
 62
     7
100
AcDbLine
 10
390.3454534971301
 20
477.5512659395929
 30
0.0
 11
390.3454534971301
 21
482.9853010771524
 31
0.0
  0
LINE
  5
27AC
330
2124
100
AcDbEntity
  8
1
 62
     7
100
AcDbLine
 10
390.3454534971301
 20
477.5512659395929
 30
0.0
 11
390.3454534971301
 21
481.9853010771525
 31
0.0
  0
LINE
  5
27AD
330
2124
100
AcDbEntity
  8
1
 62
     7
100
AcDbLine
 10
390.3454534971301
 20
481.9853010771525
 30
0.0
 11
393.2454534971302
 21
481.9853010771525
 31
0.0
  0
LINE
  5
27AE
330
2124
100
AcDbEntity
  8
1
 62
     7
100
AcDbLine
 10
393.6454534971302
 20
482.3853010771526
 30
0.0
 11
393.2454534971302
 21
481.9853010771525
 31
0.0
  0
LINE
  5
27AF
330
2124
100
AcDbEntity
  8
1
 62
     7
100
AcDbLine
 10
377.7304534971299
 20
529.2353010771526
 30
0.0
 11
377.7304534971299
 21
522.2353010771525
 31
0.0
  0
LINE
  5
27B0
330
2124
100
AcDbEntity
  8
1
 62
     7
100
AcDbLine
 10
386.3454534971299
 20
522.2353010771525
 30
0.0
 11
386.3454534971299
 21
553.8423010771526
 31
0.0
  0
LINE
  5
27B1
330
2124
100
AcDbEntity
  8
1
 62
     7
100
AcDbLine
 10
364.8996794391113
 20
525.4853010771525
 30
0.0
 11
364.8996794391113
 21
522.2353010771525
 31
0.0
  0
LINE
  5
27B2
330
2124
100
AcDbEntity
  8
1
 62
     7
100
AcDbLine
 10
365.3996794391112
 20
525.4853010771525
 30
0.0
 11
365.3996794391112
 21
521.9853010771527
 31
0.0
  0
LINE
  5
27B3
330
2124
100
AcDbEntity
  8
1
 62
     7
100
AcDbLine
 10
370.5304534971301
 20
529.4853010771525
 30
0.0
 11
370.5304534971301
 21
521.9853010771527
 31
0.0
  0
LINE
  5
27B4
330
2124
100
AcDbEntity
  8
1
 62
     7
100
AcDbLine
 10
371.0454534971302
 20
529.2353010771526
 30
0.0
 11
371.0454534971302
 21
522.2353010771525
 31
0.0
  0
LINE
  5
27B5
330
2124
100
AcDbEntity
  8
1
 62
     7
100
AcDbLine
 10
388.5304534971297
 20
525.4853010771528
 30
0.0
 11
388.5304534971297
 21
522.1353010771527
 31
0.0
  0
LINE
  5
27B6
330
2124
100
AcDbEntity
  8
1
 62
     7
100
AcDbLine
 10
390.3454534971301
 20
521.9853010771527
 30
0.0
 11
390.3454534971301
 21
525.4853010771525
 31
0.0
  0
LINE
  5
27B7
330
2124
100
AcDbEntity
  8
1
 62
     7
100
AcDbLine
 10
377.7304534971299
 20
522.2353010771525
 30
0.0
 11
386.3454534971299
 21
522.2353010771525
 31
0.0
  0
LINE
  5
27B8
330
2124
100
AcDbEntity
  8
1
 62
     7
100
AcDbLine
 10
386.3454534971299
 20
521.9853010771527
 30
0.0
 11
364.8996794391113
 21
521.9853010771527
 31
0.0
  0
LINE
  5
27B9
330
2124
100
AcDbEntity
  8
1
 62
     7
100
AcDbLine
 10
371.0454534971302
 20
522.2353010771525
 30
0.0
 11
377.7304534971299
 21
522.2353010771525
 31
0.0
  0
LINE
  5
27BA
330
2124
100
AcDbEntity
  8
1
 62
     7
100
AcDbLine
 10
364.8996794391113
 20
522.2353010771525
 30
0.0
 11
371.0454534971302
 21
522.2353010771525
 31
0.0
  0
LINE
  5
27BB
330
2124
100
AcDbEntity
  8
1
 62
     7
100
AcDbLine
 10
364.8996794391113
 20
522.2353010771525
 30
0.0
 11
364.8996794391113
 21
521.9853010771527
 31
0.0
  0
LINE
  5
27BC
330
2124
100
AcDbEntity
  8
1
 62
     7
100
AcDbLine
 10
371.0454534971302
 20
522.2353010771525
 30
0.0
 11
371.0454534971302
 21
521.9853010771527
 31
0.0
  0
LINE
  5
27BD
330
2124
100
AcDbEntity
  8
1
 62
     7
100
AcDbLine
 10
377.7304534971299
 20
522.2353010771525
 30
0.0
 11
377.7304534971299
 21
521.9853010771527
 31
0.0
  0
LINE
  5
27BE
330
2124
100
AcDbEntity
  8
1
 62
     7
100
AcDbLine
 10
393.6454534971302
 20
512.5683063214109
 30
0.0
 11
393.6454534971302
 21
490.9853010771525
 31
0.0
  0
LINE
  5
27BF
330
2124
100
AcDbEntity
  8
1
 62
     7
100
AcDbLine
 10
393.6454534971302
 20
515.7853010771527
 30
0.0
 11
393.6454534971302
 21
512.5683063214109
 31
0.0
  0
LINE
  5
27C0
330
2124
100
AcDbEntity
  8
1
 62
     7
100
AcDbLine
 10
388.5304534971297
 20
520.9853010771528
 30
0.0
 11
390.3454534971301
 21
520.9853010771528
 31
0.0
  0
LINE
  5
27C1
330
2124
100
AcDbEntity
  8
1
 62
     7
100
AcDbLine
 10
386.3454534971299
 20
522.2353010771525
 30
0.0
 11
386.3454534971299
 21
521.9853010771527
 31
0.0
  0
LINE
  5
27C2
330
2124
100
AcDbEntity
  8
1
 62
     7
100
AcDbLine
 10
388.5304534971297
 20
522.1353010771527
 30
0.0
 11
388.5304534971297
 21
520.9853010771528
 31
0.0
  0
LINE
  5
27C3
330
2124
100
AcDbEntity
  8
1
 62
     7
100
AcDbLine
 10
386.3454534971299
 20
522.1353010771527
 30
0.0
 11
388.5304534971297
 21
522.1353010771527
 31
0.0
  0
LINE
  5
27C4
330
2124
100
AcDbEntity
  8
1
 62
     7
100
AcDbLine
 10
388.5304534971297
 20
521.9853010771528
 30
0.0
 11
386.3454534971299
 21
521.9853010771527
 31
0.0
  0
LINE
  5
27C5
330
2124
100
AcDbEntity
  8
1
 62
     7
100
AcDbLine
 10
390.3454534971301
 20
520.9853010771528
 30
0.0
 11
390.3454534971301
 21
521.9853010771527
 31
0.0
  0
LINE
  5
27C6
330
2124
100
AcDbEntity
  8
1
 62
     7
100
AcDbLine
 10
390.3454534971301
 20
521.9853010771527
 30
0.0
 11
393.2454534971302
 21
521.9853010771527
 31
0.0
  0
LINE
  5
27C7
330
2124
100
AcDbEntity
  8
1
 62
     7
100
AcDbLine
 10
393.6454534971302
 20
521.5853010771527
 30
0.0
 11
393.6454534971302
 21
515.7853010771527
 31
0.0
  0
LINE
  5
27C8
330
2124
100
AcDbEntity
  8
1
 62
     7
100
AcDbLine
 10
393.6454534971302
 20
521.5853010771527
 30
0.0
 11
393.2454534971302
 21
521.9853010771527
 31
0.0
  0
LINE
  5
27C9
330
2124
100
AcDbEntity
  8
1
 62
     7
100
AcDbLine
 10
378.9654534971301
 20
553.8343010771526
 30
0.0
 11
385.5304534971301
 21
553.8343010771526
 31
0.0
  0
LINE
  5
27CA
330
2124
100
AcDbEntity
  8
1
 62
     7
100
AcDbLine
 10
381.8797453949374
 20
557.5173010771526
 30
0.0
 11
385.5304534971301
 21
557.5173010771526
 31
0.0
  0
LINE
  5
27CB
330
2124
100
AcDbEntity
  8
1
 62
     7
100
AcDbLine
 10
386.3454534971299
 20
553.8423010771526
 30
0.0
 11
377.7304534971299
 21
553.8423010771526
 31
0.0
  0
LINE
  5
27CC
330
2124
100
AcDbEntity
  8
1
 62
     7
100
AcDbLine
 10
371.0454534971302
 20
547.2353010771525
 30
0.0
 11
371.0454534971302
 21
529.2353010771526
 31
0.0
  0
LINE
  5
27CD
330
2124
100
AcDbEntity
  8
1
 62
     7
100
AcDbLine
 10
377.5304534971301
 20
547.2353010771525
 30
0.0
 11
377.5304534971301
 21
529.4853010771525
 31
0.0
  0
LINE
  5
27CE
330
2124
100
AcDbEntity
  8
1
 62
     7
100
AcDbLine
 10
377.7304534971299
 20
529.2353010771526
 30
0.0
 11
377.7304534971299
 21
553.8423010771526
 31
0.0
  0
LINE
  5
27CF
330
2124
100
AcDbEntity
  8
1
 62
     7
100
AcDbLine
 10
364.8996794391113
 20
547.2353010771525
 30
0.0
 11
364.8996794391113
 21
525.4853010771525
 31
0.0
  0
LINE
  5
27D0
330
2124
100
AcDbEntity
  8
1
 62
     7
100
AcDbLine
 10
371.0454534971302
 20
529.2353010771526
 30
0.0
 11
377.7304534971299
 21
529.2353010771526
 31
0.0
  0
LINE
  5
27D1
330
2124
100
AcDbEntity
  8
1
 62
     7
100
AcDbLine
 10
371.0304534971301
 20
529.4853010771525
 30
0.0
 11
377.5304534971301
 21
529.4853010771525
 31
0.0
  0
LINE
  5
27D2
330
2124
100
AcDbEntity
  8
1
 62
     7
100
AcDbLine
 10
364.8996794391113
 20
525.4853010771525
 30
0.0
 11
365.3996794391112
 21
525.4853010771525
 31
0.0
  0
LINE
  5
27D3
330
2124
100
AcDbEntity
  8
1
 62
     7
100
AcDbLine
 10
371.0304534971301
 20
529.4853010771525
 30
0.0
 11
370.5304534971301
 21
529.4853010771525
 31
0.0
  0
LINE
  5
27D4
330
2124
100
AcDbEntity
  8
1
 62
     7
100
AcDbLine
 10
369.6767551289472
 20
558.7423010771527
 30
0.0
 11
372.0185784971299
 21
558.7423010771527
 31
0.0
  0
LINE
  5
27D5
330
2124
100
AcDbEntity
  8
1
 62
     7
100
AcDbLine
 10
377.7304534971299
 20
553.8423010771526
 30
0.0
 11
371.0454534971302
 21
553.8423010771526
 31
0.0
  0
LINE
  5
27D6
330
2124
100
AcDbEntity
  8
1
 62
     7
100
AcDbLine
 10
377.5304534971301
 20
547.2353010771525
 30
0.0
 11
371.0454534971302
 21
547.2353010771525
 31
0.0
  0
LINE
  5
27D7
330
2124
100
AcDbEntity
  8
1
 62
     7
100
AcDbLine
 10
371.0454534971302
 20
553.8423010771526
 30
0.0
 11
371.0454534971302
 21
547.2353010771525
 31
0.0
  0
LINE
  5
27D8
330
2124
100
AcDbEntity
  8
1
 62
     7
100
AcDbLine
 10
365.2996794391112
 20
547.2353010771525
 30
0.0
 11
364.8996794391113
 21
547.2353010771525
 31
0.0
  0
LINE
  5
27D9
330
2124
100
AcDbEntity
  8
1
 62
     7
100
AcDbLine
 10
364.8996794391113
 20
547.2353010771525
 30
0.0
 11
364.8996794391113
 21
547.4853010771526
 31
0.0
  0
LINE
  5
27DA
330
2124
100
AcDbEntity
  8
1
 62
     7
100
AcDbLine
 10
371.0454534971302
 20
547.2353010771525
 30
0.0
 11
367.9304534971299
 21
547.2353010771525
 31
0.0
  0
ARC
  5
27DB
330
2124
100
AcDbEntity
  8
1
 62
     7
100
AcDbCircle
 10
369.6767551289472
 20
559.3423010771527
 30
0.0
 40
0.5999999999999936
100
AcDbArc
 50
173.0000000000006
 51
270.0
  0
ARC
  5
27DC
330
2124
100
AcDbEntity
  8
1
 62
     7
100
AcDbCircle
 10
378.9654534971301
 20
563.6023010771526
 30
0.0
 40
6.746875000000073
100
AcDbArc
 50
244.4088196252302
 51
270.0
  0
LINE
  5
27DD
330
2124
100
AcDbEntity
  8
1
 62
     7
100
AcDbLine
 10
372.4004534971301
 20
553.8343010771526
 30
0.0
 11
378.9654534971301
 21
553.8343010771526
 31
0.0
  0
LINE
  5
27DE
330
2124
100
AcDbEntity
  8
1
 62
     7
100
AcDbLine
 10
374.2856327456882
 20
558.7423010771527
 30
0.0
 11
372.0185784971299
 21
558.7423010771527
 31
0.0
  0
LINE
  5
27DF
330
2124
100
AcDbEntity
  8
1
 62
     7
100
AcDbLine
 10
372.4004534971301
 20
553.8343010771526
 30
0.0
 11
371.6004534971298
 21
554.6343010771526
 31
0.0
  0
LINE
  5
27E0
330
2124
100
AcDbEntity
  8
1
 62
     7
100
AcDbLine
 10
371.6004534971298
 20
556.7173010771527
 30
0.0
 11
372.4004534971301
 21
557.5173010771526
 31
0.0
  0
LINE
  5
27E1
330
2124
100
AcDbEntity
  8
1
 62
     7
100
AcDbLine
 10
372.4004534971301
 20
557.5173010771526
 30
0.0
 11
376.0511615993227
 21
557.5173010771526
 31
0.0
  0
LINE
  5
27E2
330
2124
100
AcDbEntity
  8
1
 62
     7
100
AcDbLine
 10
371.6004534971298
 20
554.6343010771526
 30
0.0
 11
371.6004534971298
 21
556.7173010771527
 31
0.0
  0
ARC
  5
27E3
330
2124
100
AcDbEntity
  8
1
 62
     7
100
AcDbCircle
 10
378.9654534971301
 20
563.6023010771526
 30
0.0
 40
6.746875000000047
100
AcDbArc
 50
295.5911803747697
 51
313.9179793320092
  0
ARC
  5
27E4
330
2124
100
AcDbEntity
  8
1
 62
     7
100
AcDbCircle
 10
378.9654534971301
 20
563.6023010771526
 30
0.0
 40
6.746875000000042
100
AcDbArc
 50
270.0
 51
295.5911803747697
  0
LINE
  5
27E5
330
2124
100
AcDbEntity
  8
1
 62
     7
100
AcDbLine
 10
388.5304534971297
 20
525.4853010771528
 30
0.0
 11
390.3454534971301
 21
525.4853010771525
 31
0.0
  0
LINE
  5
27E6
330
2124
100
AcDbEntity
  8
1
 62
     7
100
AcDbLine
 10
388.5304534971297
 20
526.9853010771526
 30
0.0
 11
388.5304534971297
 21
525.4853010771528
 31
0.0
  0
LINE
  5
27E7
330
2124
100
AcDbEntity
  8
1
 62
     7
100
AcDbLine
 10
386.3454534971299
 20
526.9853010771526
 30
0.0
 11
388.5304534971297
 21
526.9853010771526
 31
0.0
  0
LINE
  5
27E8
330
2124
100
AcDbEntity
  8
1
 62
     7
100
AcDbLine
 10
386.33045349713
 20
556.7173010771527
 30
0.0
 11
386.33045349713
 21
554.6343010771526
 31
0.0
  0
LINE
  5
27E9
330
2124
100
AcDbEntity
  8
1
 62
     7
100
AcDbLine
 10
385.5304534971301
 20
557.5173010771526
 30
0.0
 11
386.33045349713
 21
556.7173010771527
 31
0.0
  0
LINE
  5
27EA
330
2124
100
AcDbEntity
  8
1
 62
     7
100
AcDbLine
 10
386.33045349713
 20
554.6343010771526
 30
0.0
 11
385.5304534971301
 21
553.8343010771526
 31
0.0
  0
ARC
  5
27EB
330
2124
100
AcDbEntity
  8
1
 62
     7
100
AcDbCircle
 10
507.9253942651456
 20
481.3483449771152
 30
0.0
 40
6.746875000000081
100
AcDbArc
 50
43.76627179118645
 51
170.8523792543353
  0
ARC
  5
27EC
330
2124
100
AcDbEntity
  8
1
 62
     7
100
AcDbCircle
 10
568.772958321953
 20
503.0661580696533
 30
0.0
 40
58.52341037802965
100
AcDbArc
 50
158.7591571987571
 51
201.2408428012429
  0
ARC
  5
27ED
330
2124
100
AcDbEntity
  8
1
 62
     7
100
AcDbCircle
 10
565.9922235907179
 20
501.9853010771522
 30
0.0
 40
67.62000000000006
100
AcDbArc
 50
139.7040216489796
 51
220.0434697887684
  0
ARC
  5
27EE
330
2124
100
AcDbEntity
  8
1
 62
     7
100
AcDbCircle
 10
565.9922235907179
 20
501.9853010771522
 30
0.0
 40
71.16800000000004
100
AcDbArc
 50
136.6680818646609
 51
223.331918135339
  0
ARC
  5
27EF
330
2124
100
AcDbEntity
  8
1
 62
     7
100
AcDbCircle
 10
565.9922235907179
 20
501.9853010771522
 30
0.0
 40
74.2000000000001
100
AcDbArc
 50
134.2401709810511
 51
225.7598290189485
  0
ARC
  5
27F0
330
2124
100
AcDbEntity
  8
1
 62
     7
100
AcDbCircle
 10
565.9922235907179
 20
501.9853010771522
 30
0.0
 40
72.84500000000014
100
AcDbArc
 50
135.2874169775106
 51
224.7125830224893
  0
ARC
  5
27F1
330
2124
100
AcDbEntity
  8
1
 62
     7
100
AcDbCircle
 10
507.9253942651456
 20
481.3483449771152
 30
0.0
 40
7.335000000000006
100
AcDbArc
 50
254.5223490969469
 51
333.6692322282983
  0
ARC
  5
27F2
330
2124
100
AcDbEntity
  8
1
 62
     7
100
AcDbCircle
 10
565.9922235907179
 20
501.9853010771522
 30
0.0
 40
66.10999999999998
100
AcDbArc
 50
204.777062458895
 51
210.005546236759
  0
ARC
  5
27F3
330
2124
100
AcDbEntity
  8
1
 62
     7
100
AcDbCircle
 10
515.6464539339494
 20
466.4473762268238
 30
0.0
 40
6.746874999999969
100
AcDbArc
 50
59.41844570423082
 51
186.5045531673763
  0
ARC
  5
27F4
330
2124
100
AcDbEntity
  8
1
 62
     7
100
AcDbCircle
 10
507.9253942651456
 20
481.3483449771152
 30
0.0
 40
6.74687499999993
100
AcDbArc
 50
228.2780555282742
 51
355.3641629914195
  0
CIRCLE
  5
27F5
330
2124
100
AcDbEntity
  8
1
 62
     7
100
AcDbCircle
 10
490.21500075958
 20
458.2353010771523
 30
0.0
 40
5.500000000000087
  0
LINE
  5
27F6
330
2124
100
AcDbEntity
  8
1
  6
DASHDOT
 62
     3
100
AcDbLine
 10
497.3597103408015
 20
462.3603010771524
 30
0.0
 11
483.0702911783584
 21
454.1103010771523
 31
0.0
  0
ARC
  5
27F7
330
2124
100
AcDbEntity
  8
1
 62
     7
100
AcDbCircle
 10
541.4407564289433
 20
445.4621546218791
 30
0.0
 40
7.33499999999999
100
AcDbArc
 50
112.4177242934391
 51
191.5646074247915
  0
ARC
  5
27F8
330
2124
100
AcDbEntity
  8
1
 62
     7
100
AcDbCircle
 10
527.1014290216249
 20
454.1820927874922
 30
0.0
 40
7.334999999999996
100
AcDbArc
 50
285.8266969230342
 51
4.973580054387823
  0
ARC
  5
27F9
330
2124
100
AcDbEntity
  8
1
 62
     7
100
AcDbCircle
 10
565.9922235907179
 20
501.9853010771522
 30
0.0
 40
56.76500000000004
100
AcDbArc
 50
251.8457459730443
 51
256.8499062008672
  0
ARC
  5
27FA
330
2124
100
AcDbEntity
  8
1
 62
     7
100
AcDbCircle
 10
541.4407564289433
 20
445.4621546218791
 30
0.0
 40
7.334999999999977
100
AcDbArc
 50
301.4788708360756
 51
20.62575396742941
  0
ARC
  5
27FB
330
2124
100
AcDbEntity
  8
1
 62
     7
100
AcDbCircle
 10
541.4407564289433
 20
445.4621546218791
 30
0.0
 40
7.33499999999999
100
AcDbArc
 50
112.4177242934391
 51
191.5646074247915
  0
ARC
  5
27FC
330
2124
100
AcDbEntity
  8
1
 62
     7
100
AcDbCircle
 10
527.1014290216249
 20
454.1820927874922
 30
0.0
 40
7.334999999999996
100
AcDbArc
 50
285.8266969230342
 51
4.973580054387823
  0
ARC
  5
27FD
330
2124
100
AcDbEntity
  8
1
 62
     7
100
AcDbCircle
 10
527.1014290216249
 20
454.1820927874922
 30
0.0
 40
6.746874999999961
100
AcDbArc
 50
259.5824033543613
 51
26.66851081750754
  0
ARC
  5
27FE
330
2124
100
AcDbEntity
  8
1
 62
     7
100
AcDbCircle
 10
541.4407564289433
 20
445.4621546218791
 30
0.0
 40
6.746875000000121
100
AcDbArc
 50
275.2345772674041
 51
42.32068473055142
  0
ARC
  5
27FF
330
2124
100
AcDbEntity
  8
1
 62
     7
100
AcDbCircle
 10
541.4407564289433
 20
445.4621546218791
 30
0.0
 40
6.746875000000017
100
AcDbArc
 50
90.72279353031865
 51
217.8089009934665
  0
ARC
  5
2800
330
2124
100
AcDbEntity
  8
1
 62
     7
100
AcDbCircle
 10
557.6009538401615
 20
440.9342796526637
 30
0.0
 40
6.746875000000008
100
AcDbArc
 50
106.3749674433622
 51
233.461074906509
  0
ARC
  5
2801
330
2124
100
AcDbEntity
  8
1
 62
     7
100
AcDbCircle
 10
565.9922235907179
 20
501.9853010771522
 30
0.0
 40
66.11000000000001
100
AcDbArc
 50
236.0814102849808
 51
241.3098940628455
  0
ARC
  5
2802
330
2124
100
AcDbEntity
  8
1
 62
     7
100
AcDbCircle
 10
565.9922235907179
 20
501.9853010771522
 30
0.0
 40
66.11000000000001
100
AcDbArc
 50
236.0814102849808
 51
241.3098940628455
  0
CIRCLE
  5
2803
330
2124
100
AcDbEntity
  8
1
 62
     7
100
AcDbCircle
 10
522.2422235907174
 20
426.2080782460142
 30
0.0
 40
5.500000000000079
  0
LINE
  5
2804
330
2124
100
AcDbEntity
  8
1
  6
DASHDOT
 62
     3
100
AcDbLine
 10
518.1172235907174
 20
419.0633686647927
 30
0.0
 11
526.3672235907174
 21
433.3527878272359
 31
0.0
  0
ARC
  5
2805
330
2124
100
AcDbEntity
  8
1
 62
     7
100
AcDbCircle
 10
565.9922235907179
 20
501.9853010771522
 30
0.0
 40
66.10999999999998
100
AcDbArc
 50
251.7335841980243
 51
256.9620679758894
  0
ARC
  5
2806
330
2124
100
AcDbEntity
  8
1
 62
     7
100
AcDbCircle
 10
557.6009538401615
 20
440.9342796526637
 30
0.0
 40
7.334999999999997
100
AcDbArc
 50
128.0698982064842
 51
207.2167813378356
  0
ARC
  5
2807
330
2124
100
AcDbEntity
  8
1
 62
     7
100
AcDbCircle
 10
515.6464539339494
 20
466.4473762268238
 30
0.0
 40
6.74687499999993
100
AcDbArc
 50
243.9302294413176
 51
11.01633690446392
  0
ARC
  5
2808
330
2124
100
AcDbEntity
  8
1
 62
     7
100
AcDbCircle
 10
515.6464539339494
 20
466.4473762268238
 30
0.0
 40
6.74687499999999
100
AcDbArc
 50
257.8401203478451
 51
11.01633690446392
  0
ARC
  5
2809
330
2124
100
AcDbEntity
  8
1
 62
     7
100
AcDbCircle
 10
527.1014290216249
 20
454.1820927874922
 30
0.0
 40
7.335000000000062
100
AcDbArc
 50
96.76555038039694
 51
175.9124335117489
  0
ARC
  5
280A
330
2124
100
AcDbEntity
  8
1
 62
     7
100
AcDbCircle
 10
515.6464539339494
 20
466.4473762268238
 30
0.0
 40
7.335
100
AcDbArc
 50
270.1745230099898
 51
349.3214061413416
  0
ARC
  5
280B
330
2124
100
AcDbEntity
  8
1
 62
     7
100
AcDbCircle
 10
565.9922235907179
 20
501.9853010771522
 30
0.0
 40
66.11000000000001
100
AcDbArc
 50
220.4292363719368
 51
225.6577201498002
  0
ARC
  5
280C
330
2124
100
AcDbEntity
  8
1
 62
     7
100
AcDbCircle
 10
565.9922235907179
 20
501.9853010771522
 30
0.0
 40
66.11000000000001
100
AcDbArc
 50
220.4292363719368
 51
225.6577201498002
  0
ARC
  5
280D
330
2124
100
AcDbEntity
  8
1
 62
     7
100
AcDbCircle
 10
527.1014290216249
 20
454.1820927874922
 30
0.0
 40
7.335000000000062
100
AcDbArc
 50
96.76555038039694
 51
175.9124335117489
  0
ARC
  5
280E
330
2124
100
AcDbEntity
  8
1
 62
     7
100
AcDbCircle
 10
515.6464539339494
 20
466.4473762268238
 30
0.0
 40
7.335
100
AcDbArc
 50
270.1745230099898
 51
349.3214061413416
  0
ARC
  5
280F
330
2124
100
AcDbEntity
  8
1
 62
     7
100
AcDbCircle
 10
527.1014290216249
 20
454.1820927874922
 30
0.0
 40
6.746875000000104
100
AcDbArc
 50
75.07061961727479
 51
202.1567270804231
  0
ARC
  5
2810
330
2124
100
AcDbEntity
  8
1
 62
     7
100
AcDbCircle
 10
565.9922235907179
 20
501.9853010771522
 30
0.0
 40
56.76500000000006
100
AcDbArc
 50
220.5413981469592
 51
225.5455583747794
  0
ARC
  5
2811
330
2124
100
AcDbEntity
  8
1
 62
     7
100
AcDbCircle
 10
565.9922235907179
 20
501.9853010771522
 30
0.0
 40
56.76500000000006
100
AcDbArc
 50
220.5413981469592
 51
225.5455583747794
  0
ARC
  5
2812
330
2124
100
AcDbEntity
  8
1
 62
     7
100
AcDbCircle
 10
565.9922235907179
 20
501.9853010771522
 30
0.0
 40
56.76500000000009
100
AcDbArc
 50
204.8892242339154
 51
209.8933844617361
  0
ARC
  5
2813
330
2124
100
AcDbEntity
  8
1
 62
     7
100
AcDbCircle
 10
565.9922235907179
 20
501.9853010771522
 30
0.0
 40
56.76500000000009
100
AcDbArc
 50
204.8892242339154
 51
209.8933844617361
  0
ARC
  5
2814
330
2124
100
AcDbEntity
  8
1
 62
     7
100
AcDbCircle
 10
515.6464539339494
 20
466.4473762268238
 30
0.0
 40
7.335000000000039
100
AcDbArc
 50
81.11337646735345
 51
160.2602595987062
  0
ARC
  5
2815
330
2124
100
AcDbEntity
  8
1
 62
     7
100
AcDbCircle
 10
515.6464539339494
 20
466.4473762268238
 30
0.0
 40
7.335000000000039
100
AcDbArc
 50
81.11337646735345
 51
101.1717726606851
  0
ARC
  5
2816
330
2124
100
AcDbEntity
  8
1
 62
     7
100
AcDbCircle
 10
515.6464539339494
 20
466.4473762268238
 30
0.0
 40
6.746874999999969
100
AcDbArc
 50
59.41844570423082
 51
102.1598796521533
  0
ARC
  5
2817
330
2124
100
AcDbEntity
  8
1
 62
     7
100
AcDbCircle
 10
507.9253942651456
 20
481.3483449771152
 30
0.0
 40
7.335000000000006
100
AcDbArc
 50
329.1912274521525
 51
333.6692322282983
  0
ARC
  5
2818
330
2124
100
AcDbEntity
  8
1
 62
     7
100
AcDbCircle
 10
507.9253942651456
 20
481.3483449771152
 30
0.0
 40
6.746875
100
AcDbArc
 50
339.0271561852669
 51
355.3641629914195
  0
ARC
  5
2819
330
2124
100
AcDbEntity
  8
1
 62
     7
100
AcDbCircle
 10
565.9922235907179
 20
501.9853010771522
 30
0.0
 40
56.76499999999997
100
AcDbArc
 50
236.1935720600001
 51
241.1977322878241
  0
ARC
  5
281A
330
2124
100
AcDbEntity
  8
1
 62
     7
100
AcDbCircle
 10
565.9922235907179
 20
501.9853010771522
 30
0.0
 40
56.76499999999997
100
AcDbArc
 50
236.1935720600001
 51
241.1977322878241
  0
ARC
  5
281B
330
2124
100
AcDbEntity
  8
1
 62
     7
100
AcDbCircle
 10
507.9253942651456
 20
481.3483449771152
 30
0.0
 40
7.335000000000093
100
AcDbArc
 50
65.46120255430814
 51
144.6080856856614
  0
ARC
  5
281C
330
2124
100
AcDbEntity
  8
1
 62
     7
100
AcDbCircle
 10
504.5108856893512
 20
497.7798623535547
 30
0.0
 40
7.334999999999996
100
AcDbArc
 50
238.8701751839018
 51
318.0170583152555
  0
ARC
  5
281D
330
2124
100
AcDbEntity
  8
1
 62
     7
100
AcDbCircle
 10
504.5108856893512
 20
497.7798623535547
 30
0.0
 40
7.33499999999999
100
AcDbArc
 50
49.80902864126797
 51
128.9559117726195
  0
ARC
  5
281E
330
2124
100
AcDbEntity
  8
1
 62
     7
100
AcDbCircle
 10
505.656166687295
 20
514.5232778815207
 30
0.0
 40
7.334999999999952
100
AcDbArc
 50
223.2180012708588
 51
302.3648844022124
  0
ARC
  5
281F
330
2124
100
AcDbEntity
  8
1
 62
     7
100
AcDbCircle
 10
505.656166687295
 20
514.5232778815207
 30
0.0
 40
7.335000000000107
100
AcDbArc
 50
34.15685472822267
 51
113.3037378595751
  0
ARC
  5
2820
330
2124
100
AcDbEntity
  8
1
 62
     7
100
AcDbCircle
 10
511.2762970066715
 20
530.3368090273346
 30
0.0
 40
7.334999999999902
100
AcDbArc
 50
207.5658273578175
 51
286.7127104891703
  0
ARC
  5
2821
330
2124
100
AcDbEntity
  8
1
 62
     7
100
AcDbCircle
 10
511.2762970066715
 20
530.3368090273346
 30
0.0
 40
6.746874999999872
100
AcDbArc
 50
181.3215337891405
 51
308.4076412522893
  0
ARC
  5
2822
330
2124
100
AcDbEntity
  8
1
 62
     7
100
AcDbCircle
 10
505.656166687295
 20
514.5232778815207
 30
0.0
 40
6.746874999999961
100
AcDbArc
 50
196.973707702185
 51
324.059815165334
  0
ARC
  5
2823
330
2124
100
AcDbEntity
  8
1
 62
     7
100
AcDbCircle
 10
504.5108856893512
 20
497.7798623535547
 30
0.0
 40
6.746875000000102
100
AcDbArc
 50
212.6258816152321
 51
339.7119890783755
  0
ARC
  5
2824
330
2124
100
AcDbEntity
  8
1
 62
     7
100
AcDbCircle
 10
505.656166687295
 20
514.5232778815207
 30
0.0
 40
6.746875000000073
100
AcDbArc
 50
12.46192396510216
 51
139.5480314282468
  0
ARC
  5
2825
330
2124
100
AcDbEntity
  8
1
 62
     7
100
AcDbCircle
 10
504.5108856893512
 20
497.7798623535547
 30
0.0
 40
6.746875000000008
100
AcDbArc
 50
28.1140978781436
 51
155.2002053412899
  0
ARC
  5
2826
330
2124
100
AcDbEntity
  8
1
 62
     7
100
AcDbCircle
 10
565.9922235907179
 20
501.9853010771522
 30
0.0
 40
66.11000000000001
100
AcDbArc
 50
157.8205407197611
 51
163.0490244976282
  0
CIRCLE
  5
2827
330
2124
100
AcDbEntity
  8
1
 62
     7
100
AcDbCircle
 10
478.4922235907177
 20
501.9853010771522
 30
0.0
 40
5.500000000000166
  0
ARC
  5
2828
330
2124
100
AcDbEntity
  8
1
 62
     7
100
AcDbCircle
 10
565.9922235907179
 20
501.9853010771522
 30
0.0
 40
66.10999999999993
100
AcDbArc
 50
173.4727146328066
 51
178.7011984106707
  0
ARC
  5
2829
330
2124
100
AcDbEntity
  8
1
 62
     7
100
AcDbCircle
 10
565.9922235907179
 20
501.9853010771522
 30
0.0
 40
66.10999999999987
100
AcDbArc
 50
189.1248885458482
 51
194.353372323715
  0
CIRCLE
  5
282A
330
2124
100
AcDbEntity
  8
1
 62
     7
100
AcDbCircle
 10
490.2150007595796
 20
545.7353010771522
 30
0.0
 40
5.500000000000111
  0
LINE
  5
282B
330
2124
100
AcDbEntity
  8
1
  6
DASHDOT
 62
     3
100
AcDbLine
 10
497.3597103408015
 20
541.6103010771522
 30
0.0
 11
483.0702911783581
 21
549.8603010771522
 31
0.0
  0
ARC
  5
282C
330
2124
100
AcDbEntity
  8
1
 62
     7
100
AcDbCircle
 10
565.9922235907179
 20
501.9853010771522
 30
0.0
 40
56.76499999999997
100
AcDbArc
 50
157.9327024947843
 51
162.9368627226063
  0
ARC
  5
282D
330
2124
100
AcDbEntity
  8
1
 62
     7
100
AcDbCircle
 10
565.9922235907179
 20
501.9853010771522
 30
0.0
 40
56.7649999999999
100
AcDbArc
 50
173.5848764078274
 51
178.5890366356489
  0
ARC
  5
282E
330
2124
100
AcDbEntity
  8
1
 62
     7
100
AcDbCircle
 10
565.9922235907179
 20
501.9853010771522
 30
0.0
 40
56.76499999999992
100
AcDbArc
 50
189.2370503208714
 51
194.241210548693
  0
ARC
  5
282F
330
2124
100
AcDbEntity
  8
1
 62
     7
100
AcDbCircle
 10
565.9922235907179
 20
501.9853010771522
 30
0.0
 40
56.76500000000014
100
AcDbArc
 50
126.6283546686979
 51
131.6325148965205
  0
ARC
  5
2830
330
2124
100
AcDbEntity
  8
1
 62
     7
100
AcDbCircle
 10
533.9728626697841
 20
554.6388968823298
 30
0.0
 40
7.334999999999863
100
AcDbArc
 50
176.2614795317264
 51
255.4083626630821
  0
ARC
  5
2831
330
2124
100
AcDbEntity
  8
1
 62
     7
100
AcDbCircle
 10
533.9728626697841
 20
554.6388968823298
 30
0.0
 40
6.746875000000049
100
AcDbArc
 50
150.017185963054
 51
277.103293426203
  0
ARC
  5
2832
330
2124
100
AcDbEntity
  8
1
 62
     7
100
AcDbCircle
 10
520.9544572920785
 20
544.0476385280017
 30
0.0
 40
7.334999999999847
100
AcDbArc
 50
191.9136534447713
 51
271.0605365761242
  0
ARC
  5
2833
330
2124
100
AcDbEntity
  8
1
 62
     7
100
AcDbCircle
 10
565.9922235907179
 20
501.9853010771522
 30
0.0
 40
66.10999999999989
100
AcDbArc
 50
142.1683668067208
 51
147.3968505845836
  0
ARC
  5
2834
330
2124
100
AcDbEntity
  8
1
 62
     7
100
AcDbCircle
 10
520.9544572920785
 20
544.0476385280017
 30
0.0
 40
7.335000000000062
100
AcDbArc
 50
203.4503565123207
 51
271.0605365761242
  0
ARC
  5
2835
330
2124
100
AcDbEntity
  8
1
 62
     7
100
AcDbCircle
 10
520.9544572920785
 20
544.0476385280017
 30
0.0
 40
6.746875000000049
100
AcDbArc
 50
165.6693598760979
 51
292.7554673392456
  0
ARC
  5
2836
330
2124
100
AcDbEntity
  8
1
 62
     7
100
AcDbCircle
 10
565.9922235907179
 20
501.9853010771522
 30
0.0
 40
56.76500000000014
100
AcDbArc
 50
142.2805285817412
 51
147.2846888095628
  0
ARC
  5
2837
330
2124
100
AcDbEntity
  8
1
 62
     7
100
AcDbCircle
 10
565.9922235907179
 20
501.9853010771522
 30
0.0
 40
56.76500000000014
100
AcDbArc
 50
142.2805285817412
 51
147.2846888095628
  0
ARC
  5
2838
330
2124
100
AcDbEntity
  8
1
 62
     7
100
AcDbCircle
 10
511.2762970066715
 20
530.3368090273346
 30
0.0
 40
6.746875000000039
100
AcDbArc
 50
356.8097500520565
 51
123.8958575152035
  0
ARC
  5
2839
330
2124
100
AcDbEntity
  8
1
 62
     7
100
AcDbCircle
 10
511.2762970066715
 20
530.3368090273346
 30
0.0
 40
6.746875000000039
100
AcDbArc
 50
356.8097500520565
 51
64.08162840280851
  0
ARC
  5
283A
330
2124
100
AcDbEntity
  8
1
 62
     7
100
AcDbCircle
 10
511.2762970066715
 20
530.3368090273346
 30
0.0
 40
6.746874999999991
100
AcDbArc
 50
295.9183715971914
 51
308.4076412522893
  0
ARC
  5
283B
330
2124
100
AcDbEntity
  8
1
 62
     7
100
AcDbCircle
 10
511.2762970066715
 20
530.3368090273346
 30
0.0
 40
7.335000000000047
100
AcDbArc
 50
18.50468081517905
 51
97.6515639465305
  0
ARC
  5
283C
330
2124
100
AcDbEntity
  8
1
 62
     7
100
AcDbCircle
 10
511.2762970066715
 20
530.3368090273346
 30
0.0
 40
7.335000000000047
100
AcDbArc
 50
18.50468081517905
 51
66.29397688416592
  0
ARC
  5
283D
330
2124
100
AcDbEntity
  8
1
 62
     7
100
AcDbCircle
 10
520.9544572920785
 20
544.0476385280017
 30
0.0
 40
6.746875000000024
100
AcDbArc
 50
341.1575761390147
 51
108.2436836021613
  0
ARC
  5
283E
330
2124
100
AcDbEntity
  8
1
 62
     7
100
AcDbCircle
 10
520.9544572920785
 20
544.0476385280017
 30
0.0
 40
7.335000000000055
100
AcDbArc
 50
2.852506902136223
 51
81.99939003348939
  0
ARC
  5
283F
330
2124
100
AcDbEntity
  8
1
 62
     7
100
AcDbCircle
 10
565.9922235907179
 20
501.9853010771522
 30
0.0
 40
66.1100000000001
100
AcDbArc
 50
126.5161928936757
 51
131.7446766715428
  0
ARC
  5
2840
330
2124
100
AcDbEntity
  8
1
 62
     7
100
AcDbCircle
 10
565.9922235907179
 20
501.9853010771522
 30
0.0
 40
56.76500000000002
100
AcDbArc
 50
110.9761807556542
 51
115.9803409834755
  0
LINE
  5
2841
330
2124
100
AcDbEntity
  8
1
 62
     7
100
AcDbLine
 10
366.1454534971301
 20
594.4853010771526
 30
0.0
 11
366.1454534971301
 21
599.0853010771526
 31
0.0
  0
LINE
  5
2842
330
2124
100
AcDbEntity
  8
1
 62
     7
100
AcDbLine
 10
391.1454534971301
 20
599.0853010771526
 30
0.0
 11
391.1454534971301
 21
576.6053010771522
 31
0.0
  0
ARC
  5
2843
330
2124
100
AcDbEntity
  8
1
 62
     7
100
AcDbCircle
 10
378.9654534971301
 20
563.6023010771526
 30
0.0
 40
6.746874999999897
100
AcDbArc
 50
41.11096871564567
 51
62.69279104015844
  0
LINE
  5
2844
330
2124
100
AcDbEntity
  8
1
 62
     7
100
AcDbLine
 10
378.9654534971301
 20
573.1453010771526
 30
0.0
 11
388.6554534971301
 21
573.1453010771526
 31
0.0
  0
LINE
  5
2845
330
2124
100
AcDbEntity
  8
1
 62
     7
100
AcDbLine
 10
382.0606590259478
 20
569.5973010771527
 30
0.0
 11
389.1554534971301
 21
569.5973010771527
 31
0.0
  0
LINE
  5
2846
330
2124
100
AcDbEntity
  8
1
 62
     7
100
AcDbLine
 10
383.6054534971299
 20
576.2523010771526
 30
0.0
 11
389.1513726534656
 21
576.1893819208166
 31
0.0
  0
LINE
  5
2847
330
2124
100
AcDbEntity
  8
1
 62
     7
100
AcDbLine
 10
381.1454534971302
 20
583.9853010771526
 30
0.0
 11
391.1454534971301
 21
583.9853010771526
 31
0.0
  0
LINE
  5
2848
330
2124
100
AcDbEntity
  8
1
 62
     7
100
AcDbLine
 10
391.1454534971301
 20
594.9853010771525
 30
0.0
 11
381.1454534971302
 21
594.9853010771525
 31
0.0
  0
LINE
  5
2849
330
2124
100
AcDbEntity
  8
1
  6
CENTER
 62
     3
100
AcDbLine
 10
362.6350920744362
 20
589.4853010771527
 30
0.0
 11
394.608835396066
 21
589.4853010771527
 31
0.0
  0
LINE
  5
284A
330
2124
100
AcDbEntity
  8
1
 62
     7
100
AcDbLine
 10
362.9204534971298
 20
574.8303010771527
 30
0.0
 11
389.3704534971303
 21
574.8303010771527
 31
0.0
  0
LINE
  5
284B
330
2124
100
AcDbEntity
  8
1
 62
     7
100
AcDbLine
 10
361.5857328466846
 20
576.1853010771526
 30
0.0
 11
390.7218646347872
 21
576.1853010771526
 31
0.0
  0
LINE
  5
284C
330
2124
100
AcDbEntity
  8
1
 62
     7
100
AcDbLine
 10
361.1454534971301
 20
579.1853010771526
 30
0.0
 11
361.1454534971301
 21
576.6053010771522
 31
0.0
  0
LINE
  5
284D
330
2124
100
AcDbEntity
  8
1
 62
     7
100
AcDbLine
 10
370.1785784971301
 20
568.0873010771526
 30
0.0
 11
372.0185784971299
 21
568.0873010771526
 31
0.0
  0
LINE
  5
284E
330
2124
100
AcDbEntity
  8
1
 62
     7
100
AcDbLine
 10
368.7754534971301
 20
569.5973010771527
 30
0.0
 11
375.8702479683122
 21
569.5973010771527
 31
0.0
  0
LINE
  5
284F
330
2124
100
AcDbEntity
  8
1
 62
     7
100
AcDbLine
 10
369.2754534971301
 20
573.1453010771526
 30
0.0
 11
378.9654534971301
 21
573.1453010771526
 31
0.0
  0
LINE
  5
2850
330
2124
100
AcDbEntity
  8
1
 62
     7
100
AcDbLine
 10
376.6454534971301
 20
576.2523010771526
 30
0.0
 11
365.0797822320089
 21
576.1109927157554
 31
0.0
  0
LINE
  5
2851
330
2124
100
AcDbEntity
  8
1
 62
     7
100
AcDbLine
 10
365.2996794391112
 20
561.9853010771525
 30
0.0
 11
367.9304534971299
 21
561.9853010771525
 31
0.0
  0
ARC
  5
2852
330
2124
100
AcDbEntity
  8
1
 62
     7
100
AcDbCircle
 10
370.1785784971301
 20
567.4873010771526
 30
0.0
 40
0.5999999999999659
100
AcDbArc
 50
90.0
 51
180.0
  0
LINE
  5
2853
330
2124
100
AcDbEntity
  8
1
 62
     7
100
AcDbLine
 10
369.5785784971299
 20
567.4873010771526
 30
0.0
 11
369.5785784971299
 21
563.4660220053778
 31
0.0
  0
LINE
  5
2854
330
2124
100
AcDbEntity
  8
1
 62
     7
100
AcDbLine
 10
362.9204534971298
 20
574.8303010771527
 30
0.0
 11
361.1454534971301
 21
576.6053010771522
 31
0.0
  0
LINE
  5
2855
330
2124
100
AcDbEntity
  8
1
 62
     7
100
AcDbLine
 10
368.4754534971298
 20
572.683420861801
 30
0.0
 11
369.2754534971301
 21
573.1453010771526
 31
0.0
  0
LINE
  5
2856
330
2124
100
AcDbEntity
  8
1
 62
     7
100
AcDbLine
 10
368.4754534971298
 20
569.8973010771526
 30
0.0
 11
368.7754534971301
 21
569.5973010771527
 31
0.0
  0
LINE
  5
2857
330
2124
100
AcDbEntity
  8
1
 62
     7
100
AcDbLine
 10
368.4754534971298
 20
572.683420861801
 30
0.0
 11
368.4754534971298
 21
569.8973010771526
 31
0.0
  0
LINE
  5
2858
330
2124
100
AcDbEntity
  8
1
 62
     7
100
AcDbLine
 10
372.0185784971299
 20
568.0873010771526
 30
0.0
 11
373.8821046589207
 21
568.0385029272376
 31
0.0
  0
ARC
  5
2859
330
2124
100
AcDbEntity
  8
1
 62
     7
100
AcDbCircle
 10
378.9654534971301
 20
563.6023010771526
 30
0.0
 40
6.746874999999986
100
AcDbArc
 50
90.0
 51
117.3072089598429
  0
LINE
  5
285A
330
2124
100
AcDbEntity
  8
1
 62
     7
100
AcDbLine
 10
383.6054534971299
 20
576.2523010771526
 30
0.0
 11
376.6454534971301
 21
576.2523010771526
 31
0.0
  0
ARC
  5
285B
330
2124
100
AcDbEntity
  8
1
 62
     7
100
AcDbCircle
 10
378.9654534971301
 20
563.6023010771526
 30
0.0
 40
6.746874999999977
100
AcDbArc
 50
62.69279104015844
 51
90.0
  0
LINE
  5
285C
330
2124
100
AcDbEntity
  8
1
 62
     3
100
AcDbLine
 10
366.1454534971301
 20
594.4853010771526
 30
0.0
 11
380.8567783625353
 21
594.4853010771526
 31
0.0
  0
LINE
  5
285D
330
2124
100
AcDbEntity
  8
1
 62
     3
100
AcDbLine
 10
366.1454534971301
 20
584.4853010771526
 30
0.0
 11
380.8567783625353
 21
584.4853010771526
 31
0.0
  0
LINE
  5
285E
330
2124
100
AcDbEntity
  8
1
 62
     7
100
AcDbLine
 10
366.1454534971301
 20
593.4853010771527
 30
0.0
 11
380.2794280933458
 21
593.4853010771527
 31
0.0
  0
LINE
  5
285F
330
2124
100
AcDbEntity
  8
1
 62
     7
100
AcDbLine
 10
366.1454534971301
 20
585.4853010771526
 30
0.0
 11
380.2794280933458
 21
585.4853010771526
 31
0.0
  0
LINE
  5
2860
330
2124
100
AcDbEntity
  8
1
 62
     7
100
AcDbLine
 10
366.1454534971301
 20
585.4853010771526
 30
0.0
 11
366.1454534971301
 21
593.4853010771527
 31
0.0
  0
LINE
  5
2861
330
2124
100
AcDbEntity
  8
1
 62
     7
100
AcDbLine
 10
361.9454534971302
 20
579.9853010771526
 30
0.0
 11
365.8454534971301
 21
579.9853010771526
 31
0.0
  0
LINE
  5
2862
330
2124
100
AcDbEntity
  8
1
 62
     7
100
AcDbLine
 10
361.9454534971302
 20
579.9853010771526
 30
0.0
 11
361.1454534971301
 21
579.1853010771526
 31
0.0
  0
ARC
  5
2863
330
2124
100
AcDbEntity
  8
1
 62
     7
100
AcDbCircle
 10
365.8454534971301
 20
580.2853010771526
 30
0.0
 40
0.3000000000000114
100
AcDbArc
 50
270.0
 51
0.0
  0
LINE
  5
2864
330
2124
100
AcDbEntity
  8
1
 62
     7
100
AcDbLine
 10
366.1454534971301
 20
584.4853010771526
 30
0.0
 11
366.1454534971301
 21
585.4853010771526
 31
0.0
  0
LINE
  5
2865
330
2124
100
AcDbEntity
  8
1
 62
     7
100
AcDbLine
 10
366.1454534971301
 20
580.2853010771526
 30
0.0
 11
366.1454534971301
 21
584.4853010771526
 31
0.0
  0
LINE
  5
2866
330
2124
100
AcDbEntity
  8
1
 62
     7
100
AcDbLine
 10
366.1454534971301
 20
593.4853010771527
 30
0.0
 11
366.1454534971301
 21
594.4853010771526
 31
0.0
  0
LINE
  5
2867
330
2124
100
AcDbEntity
  8
1
 62
     7
100
AcDbLine
 10
380.2794280933458
 20
585.4853010771526
 30
0.0
 11
380.2794280933458
 21
593.4853010771527
 31
0.0
  0
LINE
  5
2868
330
2124
100
AcDbEntity
  8
1
 62
     7
100
AcDbLine
 10
381.1454534971302
 20
594.9853010771525
 30
0.0
 11
381.1454534971302
 21
583.9853010771526
 31
0.0
  0
LINE
  5
2869
330
2124
100
AcDbEntity
  8
1
 62
     7
100
AcDbLine
 10
380.8567783625353
 20
584.4853010771526
 30
0.0
 11
380.2794280933458
 21
585.4853010771526
 31
0.0
  0
LINE
  5
286A
330
2124
100
AcDbEntity
  8
1
 62
     7
100
AcDbLine
 10
381.1454534971302
 20
583.9853010771526
 30
0.0
 11
380.8567783625353
 21
584.4853010771526
 31
0.0
  0
LINE
  5
286B
330
2124
100
AcDbEntity
  8
1
 62
     7
100
AcDbLine
 10
380.8567783625353
 20
594.4853010771526
 30
0.0
 11
381.1454534971302
 21
594.9853010771525
 31
0.0
  0
LINE
  5
286C
330
2124
100
AcDbEntity
  8
1
 62
     7
100
AcDbLine
 10
380.2794280933458
 20
593.4853010771527
 30
0.0
 11
380.8567783625353
 21
594.4853010771526
 31
0.0
  0
LINE
  5
286D
330
2124
100
AcDbEntity
  8
1
 62
     7
100
AcDbLine
 10
389.1513726534656
 20
576.1893819208166
 30
0.0
 11
391.0575855314862
 21
574.2831690427967
 31
0.0
  0
LINE
  5
286E
330
2124
100
AcDbEntity
  8
1
 62
     7
100
AcDbLine
 10
389.6454534971302
 20
573.1453010771526
 30
0.0
 11
390.8611542840032
 21
573.2090132556654
 31
0.0
  0
LINE
  5
286F
330
2124
100
AcDbEntity
  8
1
 62
     7
100
AcDbLine
 10
391.1454534971301
 20
576.6053010771522
 30
0.0
 11
389.3704534971303
 21
574.8303010771527
 31
0.0
  0
LINE
  5
2870
330
2124
100
AcDbEntity
  8
1
 62
     7
100
AcDbLine
 10
389.45545349713
 20
569.8973010771526
 30
0.0
 11
389.45545349713
 21
572.683420861801
 31
0.0
  0
LINE
  5
2871
330
2124
100
AcDbEntity
  8
1
 62
     7
100
AcDbLine
 10
389.1554534971301
 20
569.5973010771527
 30
0.0
 11
389.45545349713
 21
569.8973010771526
 31
0.0
  0
LINE
  5
2872
330
2124
100
AcDbEntity
  8
1
 62
     7
100
AcDbLine
 10
388.6554534971301
 20
573.1453010771526
 30
0.0
 11
389.45545349713
 21
572.683420861801
 31
0.0
  0
ARC
  5
2873
330
2124
100
AcDbEntity
  8
1
 62
     7
100
AcDbCircle
 10
390.8454534971297
 20
574.0710370084406
 30
0.0
 40
0.3000000000000114
100
AcDbArc
 50
0.0
 51
44.99999999999078
  0
ARC
  5
2874
330
2124
100
AcDbEntity
  8
1
 62
     7
100
AcDbCircle
 10
390.8454534971297
 20
573.5086021160915
 30
0.0
 40
0.2999999999999267
100
AcDbArc
 50
273.0000000000056
 51
0.0
  0
LINE
  5
2875
330
2124
100
AcDbEntity
  8
1
 62
     7
100
AcDbLine
 10
391.1454534971301
 20
574.0710370084406
 30
0.0
 11
391.1454534971301
 21
573.5086021160915
 31
0.0
  0
LINE
  5
2876
330
2124
100
AcDbEntity
  8
1
  6
DIVIDE
 62
     7
100
AcDbLine
 10
393.6454534971301
 20
578.9853010771527
 30
0.0
 11
391.1454534971301
 21
578.9853010771527
 31
0.0
  0
LINE
  5
2877
330
2124
100
AcDbEntity
  8
1
 62
     7
100
AcDbLine
 10
366.5454534971302
 20
599.4853010771527
 30
0.0
 11
390.7454534971302
 21
599.4853010771527
 31
0.0
  0
LINE
  5
2878
330
2124
100
AcDbEntity
  8
1
 62
     7
100
AcDbLine
 10
366.5454534971302
 20
599.4853010771527
 30
0.0
 11
366.1454534971301
 21
599.0853010771526
 31
0.0
  0
LINE
  5
2879
330
2124
100
AcDbEntity
  8
1
 62
     7
100
AcDbLine
 10
391.1454534971301
 20
599.0853010771526
 30
0.0
 11
390.7454534971302
 21
599.4853010771527
 31
0.0
  0
CIRCLE
  5
287A
330
2124
100
AcDbEntity
  8
1
 62
     7
100
AcDbCircle
 10
522.2422235907177
 20
577.7625239082911
 30
0.0
 40
5.499999999999983
  0
LINE
  5
287B
330
2124
100
AcDbEntity
  8
1
  6
DASHDOT
 62
     3
100
AcDbLine
 10
518.1172235907176
 20
584.9072334895127
 30
0.0
 11
526.3672235907177
 21
570.6178143270692
 31
0.0
  0
ARC
  5
287C
330
2124
100
AcDbEntity
  8
1
 62
     7
100
AcDbCircle
 10
565.9922235907179
 20
501.9853010771522
 30
0.0
 40
66.11000000000001
100
AcDbArc
 50
110.8640189806325
 51
116.0925027584966
  0
CIRCLE
  5
287D
330
2124
100
AcDbEntity
  8
1
 62
     7
100
AcDbCircle
 10
543.3455571442473
 20
586.503810877446
 30
0.0
 40
4.0
  0
CIRCLE
  5
287E
330
2124
100
AcDbEntity
  8
1
 62
     7
100
AcDbCircle
 10
543.3455571442473
 20
586.503810877446
 30
0.0
 40
5.5
  0
CIRCLE
  5
287F
330
2124
100
AcDbEntity
  8
1
 62
     3
100
AcDbCircle
 10
543.3455571442473
 20
586.503810877446
 30
0.0
 40
5.0
  0
LINE
  5
2880
330
2124
100
AcDbEntity
  8
1
  6
DASHDOT
 62
     3
100
AcDbLine
 10
541.2103000221516
 20
594.4726989443312
 30
0.0
 11
545.480814266343
 21
578.5349228105616
 31
0.0
  0
ARC
  5
2881
330
2124
100
AcDbEntity
  8
1
 62
     7
100
AcDbCircle
 10
565.9922235907179
 20
563.6103010771522
 30
0.0
 40
7.335000000000013
100
AcDbArc
 50
315.8959851630066
 51
35.04286829435836
  0
ARC
  5
2882
330
2124
100
AcDbEntity
  8
1
 62
     7
100
AcDbCircle
 10
582.6184496132691
 20
561.3250789099606
 30
0.0
 40
7.334999999999974
100
AcDbArc
 50
129.3049577925993
 51
208.4518409239501
  0
ARC
  5
2883
330
2124
100
AcDbEntity
  8
1
 62
     7
100
AcDbCircle
 10
582.6184496132691
 20
561.3250789099606
 30
0.0
 40
7.335000000000013
100
AcDbArc
 50
300.2438112499616
 51
19.39069438131456
  0
ARC
  5
2884
330
2124
100
AcDbEntity
  8
1
 62
     7
100
AcDbCircle
 10
598.0115845116513
 20
554.6388968823298
 30
0.0
 40
7.33499999999996
100
AcDbArc
 50
113.6527838795546
 51
192.7996670109095
  0
ARC
  5
2885
330
2124
100
AcDbEntity
  8
1
 62
     7
100
AcDbCircle
 10
565.9922235907179
 20
563.6103010771522
 30
0.0
 40
7.334999999999996
100
AcDbArc
 50
144.9571317056416
 51
224.104014836993
  0
ARC
  5
2886
330
2124
100
AcDbEntity
  8
1
 62
     7
100
AcDbCircle
 10
565.9922235907179
 20
563.6103010771522
 30
0.0
 40
6.746875000000001
100
AcDbArc
 50
294.2010543998838
 51
61.28716186303051
  0
ARC
  5
2887
330
2124
100
AcDbEntity
  8
1
 62
     7
100
AcDbCircle
 10
565.9922235907179
 20
563.6103010771522
 30
0.0
 40
6.746874999999986
100
AcDbArc
 50
118.7128381369694
 51
245.7989456001161
  0
ARC
  5
2888
330
2124
100
AcDbEntity
  8
1
 62
     7
100
AcDbCircle
 10
598.0115845116513
 20
554.6388968823298
 30
0.0
 40
6.746875000000111
100
AcDbArc
 50
87.40849031088265
 51
214.4945977740309
  0
ARC
  5
2889
330
2124
100
AcDbEntity
  8
1
 62
     7
100
AcDbCircle
 10
582.6184496132691
 20
561.3250789099606
 30
0.0
 40
6.746875000000065
100
AcDbArc
 50
103.0606642239269
 51
230.1467716870723
  0
ARC
  5
288A
330
2124
100
AcDbEntity
  8
1
 62
     7
100
AcDbCircle
 10
582.6184496132691
 20
561.3250789099606
 30
0.0
 40
6.746875000000025
100
AcDbArc
 50
278.548880486839
 51
45.63498794998742
  0
CIRCLE
  5
288B
330
2124
100
AcDbEntity
  8
1
 62
     7
100
AcDbCircle
 10
653.4922235907175
 20
501.9853010771522
 30
0.0
 40
5.500000000000166
  0
LINE
  5
288C
330
2124
100
AcDbEntity
  8
1
  6
CENTER
 62
     3
100
AcDbLine
 10
653.4922235907175
 20
501.9853010771522
 30
0.0
 11
672.976979679881
 21
501.9853010771522
 31
0.0
  0
ARC
  5
288D
330
2124
100
AcDbEntity
  8
0
 62
     7
100
AcDbCircle
 10
567.0134467641323
 20
503.0380425585894
 30
0.0
 40
22.43222634367187
100
AcDbArc
 50
290.159036475297
 51
90.88939759731792
  0
ARC
  5
288E
330
2124
100
AcDbEntity
  8
1
 62
     7
100
AcDbCircle
 10
624.0590529162901
 20
481.3483449771152
 30
0.0
 40
6.746875000000032
100
AcDbArc
 50
9.147620745664625
 51
136.2337282088103
  0
ARC
  5
288F
330
2124
100
AcDbEntity
  8
1
 62
     7
100
AcDbCircle
 10
565.9922235907179
 20
501.9853010771522
 30
0.0
 40
25.00000000000027
100
AcDbArc
 50
287.890569968906
 51
90.0
  0
CIRCLE
  5
2890
330
2124
100
AcDbEntity
  8
1
 62
     7
100
AcDbCircle
 10
609.7422235907175
 20
426.2080782460142
 30
0.0
 40
5.499999999999983
  0
ARC
  5
2891
330
2124
100
AcDbEntity
  8
1
 62
     7
100
AcDbCircle
 10
565.9922235907179
 20
501.9853010771522
 30
0.0
 40
56.76499999999986
100
AcDbArc
 50
314.4544416252171
 51
319.4586018530405
  0
ARC
  5
2892
330
2124
100
AcDbEntity
  8
1
 62
     7
100
AcDbCircle
 10
604.8830181598109
 20
454.1820927874922
 30
0.0
 40
7.334999999999968
100
AcDbArc
 50
4.087566488251075
 51
83.23444961960307
  0
ARC
  5
2893
330
2124
100
AcDbEntity
  8
1
 62
     7
100
AcDbCircle
 10
604.8830181598109
 20
454.1820927874922
 30
0.0
 40
6.746875000000049
100
AcDbArc
 50
337.8432729195768
 51
104.9293803827251
  0
ARC
  5
2894
330
2124
100
AcDbEntity
  8
1
 62
     7
100
AcDbCircle
 10
604.8830181598109
 20
454.1820927874922
 30
0.0
 40
6.746875000000112
100
AcDbArc
 50
153.331489182492
 51
280.4175966456386
  0
LINE
  5
2895
330
2124
100
AcDbEntity
  8
1
  6
DASHDOT
 62
     3
100
AcDbLine
 10
613.8672235907176
 20
419.0633686647926
 30
0.0
 11
605.6172235907175
 21
433.3527878272358
 31
0.0
  0
ARC
  5
2896
330
2124
100
AcDbEntity
  8
1
 62
     7
100
AcDbCircle
 10
604.8830181598109
 20
454.1820927874922
 30
0.0
 40
7.335000000000013
100
AcDbArc
 50
175.0264199456121
 51
254.1733030769658
  0
ARC
  5
2897
330
2124
100
AcDbEntity
  8
1
 62
     7
100
AcDbCircle
 10
590.5436907524927
 20
445.4621546218791
 30
0.0
 40
7.334999999999878
100
AcDbArc
 50
348.4353925752084
 51
67.58227570656081
  0
ARC
  5
2898
330
2124
100
AcDbEntity
  8
1
 62
     7
100
AcDbCircle
 10
590.5436907524927
 20
445.4621546218791
 30
0.0
 40
7.335000000000039
100
AcDbArc
 50
159.3742460325706
 51
238.5211291639229
  0
ARC
  5
2899
330
2124
100
AcDbEntity
  8
1
 62
     7
100
AcDbCircle
 10
565.9922235907179
 20
501.9853010771522
 30
0.0
 40
56.76499999999997
100
AcDbArc
 50
283.1500937991311
 51
288.1542540269556
  0
ARC
  5
289A
330
2124
100
AcDbEntity
  8
1
 62
     7
100
AcDbCircle
 10
574.383493341274
 20
440.9342796526637
 30
0.0
 40
6.746875000000073
100
AcDbArc
 50
306.5389250934909
 51
73.62503255663617
  0
ARC
  5
289B
330
2124
100
AcDbEntity
  8
1
 62
     7
100
AcDbCircle
 10
590.5436907524927
 20
445.4621546218791
 30
0.0
 40
6.746875000000065
100
AcDbArc
 50
322.1910990065334
 51
89.27720646968136
  0
ARC
  5
289C
330
2124
100
AcDbEntity
  8
1
 62
     7
100
AcDbCircle
 10
590.5436907524927
 20
445.4621546218791
 30
0.0
 40
6.746875000000022
100
AcDbArc
 50
137.6793152694485
 51
264.7654227325958
  0
ARC
  5
289D
330
2124
100
AcDbEntity
  8
1
 62
     7
100
AcDbCircle
 10
565.9922235907179
 20
501.9853010771522
 30
0.0
 40
66.10999999999993
100
AcDbArc
 50
283.0379320241106
 51
288.2664158019755
  0
ARC
  5
289E
330
2124
100
AcDbEntity
  8
1
 62
     7
100
AcDbCircle
 10
574.383493341274
 20
440.9342796526637
 30
0.0
 40
7.335000000000094
100
AcDbArc
 50
332.7832186621644
 51
51.93010179351573
  0
ARC
  5
289F
330
2124
100
AcDbEntity
  8
1
 62
     7
100
AcDbCircle
 10
565.9922235907179
 20
501.9853010771522
 30
0.0
 40
66.10999999999998
100
AcDbArc
 50
267.3857581110681
 51
272.6142418889318
  0
ARC
  5
28A0
330
2124
100
AcDbEntity
  8
1
 62
     7
100
AcDbCircle
 10
574.383493341274
 20
440.9342796526637
 30
0.0
 40
7.33499999999988
100
AcDbArc
 50
143.7220721195251
 51
222.8689552508796
  0
ARC
  5
28A1
330
2124
100
AcDbEntity
  8
1
 62
     7
100
AcDbCircle
 10
574.383493341274
 20
440.9342796526637
 30
0.0
 40
6.746875000000008
100
AcDbArc
 50
122.0271413564052
 51
249.1132488195524
  0
ARC
  5
28A2
330
2124
100
AcDbEntity
  8
1
 62
     7
100
AcDbCircle
 10
557.6009538401615
 20
440.9342796526637
 30
0.0
 40
7.335000000000013
100
AcDbArc
 50
317.1310447491203
 51
36.2779278804748
  0
ARC
  5
28A3
330
2124
100
AcDbEntity
  8
1
 62
     7
100
AcDbCircle
 10
557.6009538401615
 20
440.9342796526637
 30
0.0
 40
6.746874999999986
100
AcDbArc
 50
290.8867511804476
 51
57.97285864359476
  0
ARC
  5
28A4
330
2124
100
AcDbEntity
  8
1
 62
     7
100
AcDbCircle
 10
565.9922235907179
 20
501.9853010771522
 30
0.0
 40
56.76499999999993
100
AcDbArc
 50
267.497919886089
 51
272.5020801139109
  0
CIRCLE
  5
28A5
330
2124
100
AcDbEntity
  8
1
 62
     7
100
AcDbCircle
 10
588.6388900371884
 20
417.4667912768595
 30
0.0
 40
5.5
  0
CIRCLE
  5
28A6
330
2124
100
AcDbEntity
  8
1
 62
     7
100
AcDbCircle
 10
588.6388900371884
 20
417.4667912768595
 30
0.0
 40
4.0
  0
CIRCLE
  5
28A7
330
2124
100
AcDbEntity
  8
1
 62
     3
100
AcDbCircle
 10
588.6388900371884
 20
417.4667912768595
 30
0.0
 40
5.0
  0
ARC
  5
28A8
330
2124
100
AcDbEntity
  8
1
 62
     7
100
AcDbCircle
 10
565.9922235907179
 20
501.9853010771522
 30
0.0
 40
66.10999999999986
100
AcDbArc
 50
298.6901059371544
 51
303.9185897150191
  0
CIRCLE
  5
28A9
330
2124
100
AcDbEntity
  8
0
 62
     7
100
AcDbCircle
 10
570.2322235270306
 20
479.267308289946
 30
0.0
 40
1.599999975966512
  0
LINE
  5
28AA
330
2124
100
AcDbEntity
  8
0
 62
     7
100
AcDbLine
 10
566.7922235787021
 20
476.1800221786484
 30
0.0
 11
572.0722234994236
 21
476.1800221786484
 31
0.0
  0
ARC
  5
28AB
330
2124
100
AcDbEntity
  8
0
 62
     7
100
AcDbCircle
 10
559.9122236820606
 20
477.7800221546512
 30
0.0
 40
1.599999976003118
100
AcDbArc
 50
180.0
 51
269.9999999985425
  0
CIRCLE
  5
28AC
330
2124
100
AcDbEntity
  8
0
 62
     7
100
AcDbCircle
 10
561.7522236544176
 20
479.2662789900343
 30
0.0
 40
1.599999975958406
  0
LINE
  5
28AD
330
2124
100
AcDbEntity
  8
0
 62
     7
100
AcDbLine
 10
565.1922236027367
 20
476.1800221786484
 30
0.0
 11
559.9122236820201
 21
476.1800221786484
 31
0.0
  0
ARC
  5
28AE
330
2124
100
AcDbEntity
  8
0
 62
     7
100
AcDbCircle
 10
556.6997310113809
 20
480.5103061681232
 30
0.0
 40
1.599999975992205
100
AcDbArc
 50
0.0000000005471572
 51
70.73036112249361
  0
LINE
  5
28AF
330
2124
100
AcDbEntity
  8
0
 62
     7
100
AcDbLine
 10
558.3122237060985
 20
477.7800221546512
 30
0.0
 11
558.299730987373
 21
480.5103061681383
 31
0.0
  0
ARC
  5
28B0
330
2124
100
AcDbEntity
  8
1
 62
     7
100
AcDbCircle
 10
565.9922235907179
 20
501.9853010771522
 30
0.0
 40
25.00000000000017
100
AcDbArc
 50
268.166222027512
 51
271.8337779724945
  0
LINE
  5
28B1
330
2124
100
AcDbEntity
  8
0
 62
     7
100
AcDbLine
 10
565.1922236027367
 20
481.9800221786484
 30
0.0
 11
565.1922236027367
 21
476.1800221786484
 31
0.0
  0
LINE
  5
28B2
330
2124
100
AcDbEntity
  8
0
 62
     7
100
AcDbLine
 10
566.7922235787021
 20
481.9800221786484
 30
0.0
 11
566.7922235787021
 21
476.1800221786484
 31
0.0
  0
ARC
  5
28B3
330
2124
100
AcDbEntity
  8
0
 62
     7
100
AcDbCircle
 10
572.0722234994016
 20
477.7800221546491
 30
0.0
 40
1.599999976001023
100
AcDbArc
 50
270.0000000007995
 51
0.0000000000716515
  0
ARC
  5
28B4
330
2124
100
AcDbEntity
  8
0
 62
     7
100
AcDbCircle
 10
575.2722234513406
 20
480.4696606665935
 30
0.0
 40
1.599999975976063
100
AcDbArc
 50
109.2696388775048
 51
180.0
  0
LINE
  5
28B5
330
2124
100
AcDbEntity
  8
0
 62
     7
100
AcDbLine
 10
573.6722234753658
 20
477.7800221546512
 30
0.0
 11
573.6722234753658
 21
480.4696606665937
 31
0.0
  0
ARC
  5
28B6
330
2124
100
AcDbEntity
  8
1
 62
     7
100
AcDbCircle
 10
565.9922235907179
 20
501.9853010771522
 30
0.0
 40
56.7649999999999
100
AcDbArc
 50
298.8022677121758
 51
303.8064279399998
  0
ARC
  5
28B7
330
2124
100
AcDbEntity
  8
1
 62
     7
100
AcDbCircle
 10
616.3379932474863
 20
466.4473762268238
 30
0.0
 40
6.746875000000032
100
AcDbArc
 50
353.4954468326204
 51
120.5815542957691
  0
ARC
  5
28B8
330
2124
100
AcDbEntity
  8
1
 62
     7
100
AcDbCircle
 10
616.3379932474863
 20
466.4473762268238
 30
0.0
 40
6.746874999999969
100
AcDbArc
 50
168.983663095536
 51
296.0697705586823
  0
ARC
  5
28B9
330
2124
100
AcDbEntity
  8
1
 62
     7
100
AcDbCircle
 10
565.9922235907179
 20
501.9853010771522
 30
0.0
 40
66.10999999999987
100
AcDbArc
 50
314.3422798501997
 51
319.5707636280628
  0
ARC
  5
28BA
330
2124
100
AcDbEntity
  8
1
 62
     7
100
AcDbCircle
 10
616.3379932474863
 20
466.4473762268238
 30
0.0
 40
7.335000000000047
100
AcDbArc
 50
190.678593858655
 51
269.82547699001
  0
ARC
  5
28BB
330
2124
100
AcDbEntity
  8
1
 62
     7
100
AcDbCircle
 10
624.0590529162901
 20
481.3483449771152
 30
0.0
 40
7.33500000000003
100
AcDbArc
 50
206.3307677717015
 51
285.4776509030545
  0
ARC
  5
28BC
330
2124
100
AcDbEntity
  8
1
 62
     7
100
AcDbCircle
 10
616.3379932474863
 20
466.4473762268238
 30
0.0
 40
7.335000000000062
100
AcDbArc
 50
19.7397404012938
 51
98.88662353264656
  0
ARC
  5
28BD
330
2124
100
AcDbEntity
  8
1
 62
     7
100
AcDbCircle
 10
624.0590529162901
 20
481.3483449771152
 30
0.0
 40
6.746875000000062
100
AcDbArc
 50
184.6358370085805
 51
311.7219444717257
  0
ARC
  5
28BE
330
2124
100
AcDbEntity
  8
1
 62
     7
100
AcDbCircle
 10
565.9922235907179
 20
501.9853010771522
 30
0.0
 40
56.7649999999999
100
AcDbArc
 50
330.1066155382636
 51
335.1107757660843
  0
ARC
  5
28BF
330
2124
100
AcDbEntity
  8
1
 62
     7
100
AcDbCircle
 10
565.9922235907179
 20
501.9853010771522
 30
0.0
 40
66.10999999999986
100
AcDbArc
 50
329.9944537632407
 51
335.2229375411049
  0
CIRCLE
  5
28C0
330
2124
100
AcDbEntity
  8
1
 62
     7
100
AcDbCircle
 10
641.7694464218559
 20
458.2353010771523
 30
0.0
 40
5.500000000000087
  0
LINE
  5
28C1
330
2124
100
AcDbEntity
  8
1
  6
DASHDOT
 62
     3
100
AcDbLine
 10
648.9141560030775
 20
454.1103010771523
 30
0.0
 11
634.6247368406343
 21
462.3603010771524
 31
0.0
  0
ARC
  5
28C2
330
2124
100
AcDbEntity
  8
1
 62
     7
100
AcDbCircle
 10
565.9922235907179
 20
501.9853010771522
 30
0.0
 40
66.10999999999974
100
AcDbArc
 50
48.25532332846051
 51
53.48380710632427
  0
ARC
  5
28C3
330
2124
100
AcDbEntity
  8
1
 62
     7
100
AcDbCircle
 10
598.0115845116513
 20
554.6388968823298
 30
0.0
 40
7.335000000000024
100
AcDbArc
 50
284.5916373369194
 51
3.738520468273536
  0
ARC
  5
28C4
330
2124
100
AcDbEntity
  8
1
 62
     7
100
AcDbCircle
 10
611.0299898893572
 20
544.0476385280017
 30
0.0
 40
7.334999999999943
100
AcDbArc
 50
98.00060996651223
 51
177.1474930978637
  0
ARC
  5
28C5
330
2124
100
AcDbEntity
  8
1
 62
     7
100
AcDbCircle
 10
611.0299898893572
 20
544.0476385280017
 30
0.0
 40
6.746875000000073
100
AcDbArc
 50
71.75631639783865
 51
198.8424238609851
  0
ARC
  5
28C6
330
2124
100
AcDbEntity
  8
1
 62
     7
100
AcDbCircle
 10
598.0115845116513
 20
554.6388968823298
 30
0.0
 40
6.746874999999938
100
AcDbArc
 50
262.8967065737985
 51
29.98281403694591
  0
ARC
  5
28C7
330
2124
100
AcDbEntity
  8
1
 62
     7
100
AcDbCircle
 10
565.9922235907179
 20
501.9853010771522
 30
0.0
 40
11.0
100
AcDbArc
 50
0.0
 51
74.17337986812754
  0
ARC
  5
28C8
330
2124
100
AcDbEntity
  8
1
 62
     7
100
AcDbCircle
 10
565.9922235907179
 20
501.9853010771522
 30
0.0
 40
11.0
100
AcDbArc
 50
270.0
 51
0.0
  0
LINE
  5
28C9
330
2124
100
AcDbEntity
  8
1
 62
     7
100
AcDbLine
 10
562.9922235907179
 20
515.7853010771527
 30
0.0
 11
562.9922235907179
 21
512.5683063214109
 31
0.0
  0
LINE
  5
28CA
330
2124
100
AcDbEntity
  8
1
 62
     7
100
AcDbLine
 10
568.9922235907179
 20
515.7853010771527
 30
0.0
 11
568.9922235907179
 21
512.5683063214109
 31
0.0
  0
LINE
  5
28CB
330
2124
100
AcDbEntity
  8
1
 62
     7
100
AcDbLine
 10
562.9922235907179
 20
515.7853010771527
 30
0.0
 11
568.9922235907179
 21
515.7853010771527
 31
0.0
  0
ARC
  5
28CC
330
2124
100
AcDbEntity
  8
1
 62
     7
100
AcDbCircle
 10
565.9922235907179
 20
501.9853010771522
 30
0.0
 40
56.76499999999999
100
AcDbArc
 50
79.67183292956633
 51
84.67599315739041
  0
ARC
  5
28CD
330
2124
100
AcDbEntity
  8
1
 62
     7
100
AcDbCircle
 10
565.9922235907179
 20
501.9853010771522
 30
0.0
 40
56.76499999999984
100
AcDbArc
 50
64.01965901652444
 51
69.02381924434575
  0
ARC
  5
28CE
330
2124
100
AcDbEntity
  8
1
 62
     7
100
AcDbCircle
 10
565.9922235907179
 20
501.9853010771522
 30
0.0
 40
56.76499999999981
100
AcDbArc
 50
48.36748510347948
 51
53.37164533130341
  0
ARC
  5
28CF
330
2124
100
AcDbEntity
  8
1
 62
     7
100
AcDbCircle
 10
565.9922235907179
 20
501.9853010771522
 30
0.0
 40
66.10999999999982
100
AcDbArc
 50
16.9509755023716
 51
22.17945928023885
  0
ARC
  5
28D0
330
2124
100
AcDbEntity
  8
1
 62
     7
100
AcDbCircle
 10
620.7081501747641
 20
530.3368090273346
 30
0.0
 40
7.334999999999977
100
AcDbArc
 50
253.2872895108311
 51
332.4341726421825
  0
ARC
  5
28D1
330
2124
100
AcDbEntity
  8
1
 62
     7
100
AcDbCircle
 10
565.9922235907179
 20
501.9853010771522
 30
0.0
 40
56.76499999999975
100
AcDbArc
 50
17.06313727739365
 51
22.06729750521562
  0
ARC
  5
28D2
330
2124
100
AcDbEntity
  8
1
 62
     7
100
AcDbCircle
 10
626.328280494141
 20
514.5232778815207
 30
0.0
 40
7.33500000000003
100
AcDbArc
 50
66.69626214042482
 51
145.8431452717773
  0
ARC
  5
28D3
330
2124
100
AcDbEntity
  8
1
 62
     7
100
AcDbCircle
 10
626.328280494141
 20
514.5232778815207
 30
0.0
 40
6.746874999999986
100
AcDbArc
 50
40.4519685717531
 51
167.5380760348978
  0
ARC
  5
28D4
330
2124
100
AcDbEntity
  8
1
 62
     7
100
AcDbCircle
 10
620.7081501747641
 20
530.3368090273346
 30
0.0
 40
6.746875000000032
100
AcDbArc
 50
231.5923587477107
 51
358.6784662108561
  0
ARC
  5
28D5
330
2124
100
AcDbEntity
  8
1
 62
     7
100
AcDbCircle
 10
626.328280494141
 20
514.5232778815207
 30
0.0
 40
7.334999999999997
100
AcDbArc
 50
237.6351155977872
 51
316.7819987291411
  0
ARC
  5
28D6
330
2124
100
AcDbEntity
  8
1
 62
     7
100
AcDbCircle
 10
627.4735614920849
 20
497.7798623535547
 30
0.0
 40
7.335000000000017
100
AcDbArc
 50
51.04408822738044
 51
130.190971358732
  0
ARC
  5
28D7
330
2124
100
AcDbEntity
  8
1
 62
     7
100
AcDbCircle
 10
565.9922235907179
 20
501.9853010771522
 30
0.0
 40
66.1099999999998
100
AcDbArc
 50
345.6466276762849
 51
350.8751114541517
  0
ARC
  5
28D8
330
2124
100
AcDbEntity
  8
1
 62
     7
100
AcDbCircle
 10
627.4735614920849
 20
497.7798623535547
 30
0.0
 40
7.335000000000087
100
AcDbArc
 50
221.9829416847444
 51
301.1298248160981
  0
ARC
  5
28D9
330
2124
100
AcDbEntity
  8
1
 62
     7
100
AcDbCircle
 10
627.4735614920849
 20
497.7798623535547
 30
0.0
 40
6.746875000000008
100
AcDbArc
 50
24.79979465871006
 51
151.8859021218564
  0
ARC
  5
28DA
330
2124
100
AcDbEntity
  8
1
 62
     7
100
AcDbCircle
 10
627.4735614920849
 20
497.7798623535547
 30
0.0
 40
6.746875000000008
100
AcDbArc
 50
200.2880109216212
 51
327.3741183847679
  0
ARC
  5
28DB
330
2124
100
AcDbEntity
  8
1
 62
     7
100
AcDbCircle
 10
626.328280494141
 20
514.5232778815207
 30
0.0
 40
6.746874999999938
100
AcDbArc
 50
215.9401848346659
 51
343.0262922978117
  0
ARC
  5
28DC
330
2124
100
AcDbEntity
  8
1
 62
     7
100
AcDbCircle
 10
565.9922235907179
 20
501.9853010771522
 30
0.0
 40
56.7649999999998
100
AcDbArc
 50
1.410963364347824
 51
6.415123592172591
  0
ARC
  5
28DD
330
2124
100
AcDbEntity
  8
1
 62
     7
100
AcDbCircle
 10
624.0590529162901
 20
481.3483449771152
 30
0.0
 40
7.335000000000024
100
AcDbArc
 50
35.39191431433805
 51
114.5387974456918
  0
ARC
  5
28DE
330
2124
100
AcDbEntity
  8
1
 62
     7
100
AcDbCircle
 10
565.9922235907179
 20
501.9853010771522
 30
0.0
 40
56.76499999999982
100
AcDbArc
 50
345.7587894513068
 51
350.7629496791285
  0
ARC
  5
28DF
330
2124
100
AcDbEntity
  8
1
 62
     7
100
AcDbCircle
 10
565.9922235907179
 20
501.9853010771522
 30
0.0
 40
66.10999999999989
100
AcDbArc
 50
1.298801589329226
 51
6.527285367193325
  0
ARC
  5
28E0
330
2124
100
AcDbEntity
  8
1
 62
     7
100
AcDbCircle
 10
565.9922235907179
 20
501.9853010771522
 30
0.0
 40
66.10999999999977
100
AcDbArc
 50
32.60314941541638
 51
37.83163319327947
  0
ARC
  5
28E1
330
2124
100
AcDbEntity
  8
1
 62
     7
100
AcDbCircle
 10
611.0299898893572
 20
544.0476385280017
 30
0.0
 40
7.334999999999981
100
AcDbArc
 50
268.9394634238741
 51
348.0863465552254
  0
ARC
  5
28E2
330
2124
100
AcDbEntity
  8
1
 62
     7
100
AcDbCircle
 10
611.0299898893572
 20
544.0476385280017
 30
0.0
 40
6.746875000000025
100
AcDbArc
 50
247.244532660753
 51
14.33064012389885
  0
ARC
  5
28E3
330
2124
100
AcDbEntity
  8
1
 62
     7
100
AcDbCircle
 10
620.7081501747641
 20
530.3368090273346
 30
0.0
 40
7.335000000000006
100
AcDbArc
 50
82.34843605346791
 51
161.4953191848209
  0
ARC
  5
28E4
330
2124
100
AcDbEntity
  8
1
 62
     7
100
AcDbCircle
 10
620.7081501747641
 20
530.3368090273346
 30
0.0
 40
6.746875000000073
100
AcDbArc
 50
56.10414248479514
 51
183.1902499479401
  0
ARC
  5
28E5
330
2124
100
AcDbEntity
  8
1
 62
     7
100
AcDbCircle
 10
565.9922235907179
 20
501.9853010771522
 30
0.0
 40
56.76499999999993
100
AcDbArc
 50
32.71531119043717
 51
37.71947141825873
  0
CIRCLE
  5
28E6
330
2124
100
AcDbEntity
  8
1
 62
     7
100
AcDbCircle
 10
641.7694464218562
 20
545.7353010771522
 30
0.0
 40
5.500000000000111
  0
LINE
  5
28E7
330
2124
100
AcDbEntity
  8
1
  6
DASHDOT
 62
     3
100
AcDbLine
 10
648.9141560030778
 20
549.8603010771522
 30
0.0
 11
634.6247368406345
 21
541.6103010771522
 31
0.0
  0
CIRCLE
  5
28E8
330
2124
100
AcDbEntity
  8
1
 62
     7
100
AcDbCircle
 10
609.7422235907175
 20
577.7625239082906
 30
0.0
 40
5.500000000000079
  0
LINE
  5
28E9
330
2124
100
AcDbEntity
  8
1
  6
DASHDOT
 62
     3
100
AcDbLine
 10
613.8672235907179
 20
584.9072334895121
 30
0.0
 11
605.6172235907179
 21
570.6178143270689
 31
0.0
  0
LINE
  5
28EA
330
2124
100
AcDbEntity
  8
1
  6
CENTER
 62
     3
100
AcDbLine
 10
565.9922235907179
 20
576.1853010771526
 30
0.0
 11
565.9922235907216
 21
607.9994731932507
 31
0.0
  0
LINE
  5
28EB
330
2124
100
AcDbEntity
  8
1
  6
CENTER
 62
     3
100
AcDbLine
 10
565.9922235907179
 20
576.1853010771526
 30
0.0
 11
565.9922235907179
 21
574.8303010771527
 31
0.0
  0
ARC
  5
28EC
330
2124
100
AcDbEntity
  8
1
 62
     7
100
AcDbCircle
 10
565.9922235907179
 20
501.9853010771522
 30
0.0
 40
66.10999999999987
100
AcDbArc
 50
79.55967115454561
 51
84.78815493241143
  0
CIRCLE
  5
28ED
330
2124
100
AcDbEntity
  8
1
 62
     7
100
AcDbCircle
 10
565.9922235907179
 20
589.4853010771522
 30
0.0
 40
5.5
  0
ARC
  5
28EE
330
2124
100
AcDbEntity
  8
1
 62
     7
100
AcDbCircle
 10
565.9922235907179
 20
501.9853010771522
 30
0.0
 40
66.10999999999987
100
AcDbArc
 50
63.90749724150335
 51
69.13598101936743
  0
INSERT
  5
28F8
330
2124
100
AcDbEntity
  8
AM_0
100
AcDbBlockReference
  2
HD LLC
 10
612.7156060595324
 20
211.1276603245649
 30
0.0
 41
2.459706986124681
 42
2.459706986124681
 43
2.459706986124681
  0
INSERT
  5
28FE
330
2124
100
AcDbEntity
  8
AM_0
100
AcDbBlockReference
  2
HD logo-new
 10
437.7597060109759
 20
215.6082020922463
 30
0.0
 41
2.024999999999999
 42
2.024999999999999
 43
2.024999999999999
  0
INSERT
  5
290B
330
2124
100
AcDbEntity
  8
AM_0
100
AcDbBlockReference
  2
NTC
 10
-20.07267644746141
 20
283.2868207448892
 30
0.0
 41
1.149999999999999
 42
1.149999999999999
 43
1.149999999999999
  0
ENDSEC
  0
SECTION
  2
OBJECTS
  0
DICTIONARY
  5
2112
330
0
100
AcDbDictionary
281
     1
  3
ACAD_GROUP
350
2113
  3
ACAD_LAYOUT
350
211F
  3
ACAD_MLINESTYLE
350
211C
  3
ACAD_PLOTSETTINGS
350
211E
  3
ACAD_PLOTSTYLENAME
350
2114
  3
AcDbVariableDictionary
350
242F
  0
DICTIONARY
  5
2113
102
{ACAD_REACTORS
330
2112
102
}
330
2112
100
AcDbDictionary
281
     1
  0
DICTIONARY
  5
211F
102
{ACAD_REACTORS
330
2112
102
}
330
2112
100
AcDbDictionary
281
     1
  3
Layout1
350
2123
  3
Model
350
2127
  0
DICTIONARY
  5
211C
102
{ACAD_REACTORS
330
2112
102
}
330
2112
100
AcDbDictionary
281
     1
  3
Standard
350
211D
  0
DICTIONARY
  5
211E
102
{ACAD_REACTORS
330
2112
102
}
330
2112
100
AcDbDictionary
281
     1
  0
ACDBDICTIONARYWDFLT
  5
2114
102
{ACAD_REACTORS
330
2112
102
}
330
2112
100
AcDbDictionary
281
     1
  3
Normal
350
2115
100
AcDbDictionaryWithDefault
340
2115
  0
DICTIONARY
  5
242F
102
{ACAD_REACTORS
330
2112
102
}
330
2112
100
AcDbDictionary
281
     1
  3
DIMASSOC
350
2430
  0
LAYOUT
  5
2123
102
{ACAD_REACTORS
330
211F
102
}
330
211F
100
AcDbPlotSettings
  1

  2
\\SERVER9\HP LaserJet 5100 PCL 5e
  4

  6

 40
0.0
 41
0.0
 42
0.0
 43
0.0
 44
0.0
 45
0.0
 46
0.0
 47
0.0
 48
0.0
 49
0.0
140
0.0
141
0.0
142
1.0
143
1.0
 70
   688
 72
     0
 73
     0
 74
     5
  7

 75
    16
147
1.0
148
0.0
149
0.0
100
AcDbLayout
  1
Layout1
 70
     1
 71
     1
 10
0.0
 20
0.0
 11
420.0
 21
297.0
 12
0.0
 22
0.0
 32
0.0
 14
1.000000000000000E+20
 24
1.000000000000000E+20
 34
1.000000000000000E+20
 15
-1.000000000000000E+20
 25
-1.000000000000000E+20
 35
-1.000000000000000E+20
146
0.0
 13
0.0
 23
0.0
 33
0.0
 16
1.0
 26
0.0
 36
0.0
 17
0.0
 27
1.0
 37
0.0
 76
     0
330
2120
  0
LAYOUT
  5
2127
102
{ACAD_REACTORS
330
211F
102
}
330
211F
100
AcDbPlotSettings
  1

  2
\\SERVER9\HP LaserJet 5100 PCL 5e
  4
Letter
  6

 40
6.349999904632567
 41
4.233341693878172
 42
6.349990844726562
 43
4.23333740234375
 44
215.8999938964842
 45
279.3999938964843
 46
0.0
 47
0.0
 48
0.0
 49
0.0
140
0.0
141
0.0
142
1.0
143
1.0
 70
 11952
 72
     0
 73
     1
 74
     0
  7

 75
     0
147
1.0
148
3556.231487512757
149
8036.669274056119
100
AcDbLayout
  1
Model
 70
     1
 71
     0
 10
0.0
 20
0.0
 11
12.0
 21
9.0
 12
0.0
 22
0.0
 32
0.0
 14
0.0
 24
0.0
 34
0.0
 15
0.0
 25
0.0
 35
0.0
146
0.0
 13
0.0
 23
0.0
 33
0.0
 16
1.0
 26
0.0
 36
0.0
 17
0.0
 27
1.0
 37
0.0
 76
     0
330
2124
  0
MLINESTYLE
  5
211D
102
{ACAD_REACTORS
330
211C
102
}
330
211C
100
AcDbMlineStyle
  2
STANDARD
 70
     0
  3

 62
   256
 51
90.0
 52
90.0
 71
     2
 49
0.5
 62
   256
  6
BYLAYER
 49
-0.5
 62
   256
  6
BYLAYER
  0
ACDBPLACEHOLDER
  5
2115
102
{ACAD_REACTORS
330
2114
102
}
330
2114
  0
DICTIONARYVAR
  5
2430
102
{ACAD_REACTORS
330
242F
102
}
330
242F
100
DictionaryVariables
280
     0
  1
1
  0
ENDSEC
  0
EOF
