  0
SECTION
  2
HEADER
  9
$ACADVER
  1
AC1015
  9
$ACADMAINTVER
 70
    13
  9
$DWGCODEPAGE
  3
ANSI_1252
  9
$INSBASE
 10
0.0
 20
0.0
 30
0.0
  9
$EXTMIN
 10
-10488.06410852656
 20
-2346.53592189929
 30
0.0
  9
$EXTMAX
 10
9514.271622510303
 20
4069.385318386831
 30
0.0
  9
$LIMMIN
 10
0.0
 20
0.0
  9
$LIMMAX
 10
420.0
 20
297.0
  9
$ORTHOMODE
 70
     1
  9
$REGENMODE
 70
     1
  9
$FILLMODE
 70
     1
  9
$QTEXTMODE
 70
     0
  9
$MIRRTEXT
 70
     1
  9
$LTSCALE
 40
1.0
  9
$ATTMODE
 70
     1
  9
$TEXTSIZE
 40
2.5
  9
$TRACEWID
 40
1.0
  9
$TEXTSTYLE
  7
STANDARD
  9
$CLAYER
  8
AM_0
  9
$CELTYPE
  6
ByLayer
  9
$CECOLOR
 62
   256
  9
$CELTSCALE
 40
1.0
  9
$DISPSILH
 70
     0
  9
$DIMSCALE
 40
1.0
  9
$DIMASZ
 40
2.5
  9
$DIMEXO
 40
0.625
  9
$DIMDLI
 40
3.75
  9
$DIMRND
 40
0.0
  9
$DIMDLE
 40
0.0
  9
$DIMEXE
 40
1.25
  9
$DIMTP
 40
0.0
  9
$DIMTM
 40
0.0
  9
$DIMTXT
 40
2.5
  9
$DIMCEN
 40
2.5
  9
$DIMTSZ
 40
0.0
  9
$DIMTOL
 70
     0
  9
$DIMLIM
 70
     0
  9
$DIMTIH
 70
     0
  9
$DIMTOH
 70
     0
  9
$DIMSE1
 70
     0
  9
$DIMSE2
 70
     0
  9
$DIMTAD
 70
     1
  9
$DIMZIN
 70
     8
  9
$DIMBLK
  1

  9
$DIMASO
 70
     1
  9
$DIMSHO
 70
     1
  9
$DIMPOST
  1

  9
$DIMAPOST
  1

  9
$DIMALT
 70
     0
  9
$DIMALTD
 70
     3
  9
$DIMALTF
 40
0.03937007874016
  9
$DIMLFAC
 40
1.0
  9
$DIMTOFL
 70
     1
  9
$DIMTVP
 40
0.0
  9
$DIMTIX
 70
     0
  9
$DIMSOXD
 70
     0
  9
$DIMSAH
 70
     0
  9
$DIMBLK1
  1

  9
$DIMBLK2
  1

  9
$DIMSTYLE
  2
ISO-25
  9
$DIMCLRD
 70
     0
  9
$DIMCLRE
 70
     0
  9
$DIMCLRT
 70
     0
  9
$DIMTFAC
 40
1.0
  9
$DIMGAP
 40
0.625
  9
$DIMJUST
 70
     0
  9
$DIMSD1
 70
     0
  9
$DIMSD2
 70
     0
  9
$DIMTOLJ
 70
     1
  9
$DIMTZIN
 70
     0
  9
$DIMALTZ
 70
     0
  9
$DIMALTTZ
 70
     0
  9
$DIMUPT
 70
     0
  9
$DIMDEC
 70
     4
  9
$DIMTDEC
 70
     4
  9
$DIMALTU
 70
     2
  9
$DIMALTTD
 70
     2
  9
$DIMTXSTY
  7
STANDARD
  9
$DIMAUNIT
 70
     0
  9
$DIMADEC
 70
     0
  9
$DIMALTRND
 40
0.0
  9
$DIMAZIN
 70
     0
  9
$DIMDSEP
 70
    46
  9
$DIMATFIT
 70
     3
  9
$DIMFRAC
 70
     0
  9
$DIMLDRBLK
  1

  9
$DIMLUNIT
 70
     2
  9
$DIMLWD
 70
    -2
  9
$DIMLWE
 70
    -2
  9
$DIMTMOVE
 70
     0
  9
$LUNITS
 70
     2
  9
$LUPREC
 70
     2
  9
$SKETCHINC
 40
1.0
  9
$FILLETRAD
 40
2.5
  9
$AUNITS
 70
     0
  9
$AUPREC
 70
     0
  9
$MENU
  1
.
  9
$ELEVATION
 40
0.0
  9
$PELEVATION
 40
0.0
  9
$THICKNESS
 40
0.0
  9
$LIMCHECK
 70
     0
  9
$CHAMFERA
 40
2.5
  9
$CHAMFERB
 40
2.5
  9
$CHAMFERC
 40
0.0
  9
$CHAMFERD
 40
0.0
  9
$SKPOLY
 70
     0
  9
$TDCREATE
 40
2452802.746399548
  9
$TDUCREATE
 40
2452802.913066215
  9
$TDUPDATE
 40
2453865.529000462
  9
$TDUUPDATE
 40
2453865.695667129
  9
$TDINDWG
 40
0.1025421296
  9
$TDUSRTIMER
 40
0.1025419560
  9
$USRTIMER
 70
     1
  9
$ANGBASE
 50
0.0
  9
$ANGDIR
 70
     0
  9
$PDMODE
 70
     0
  9
$PDSIZE
 40
0.0
  9
$PLINEWID
 40
0.0
  9
$SPLFRAME
 70
     0
  9
$SPLINETYPE
 70
     6
  9
$SPLINESEGS
 70
     8
  9
$HANDSEED
  5
2B61
  9
$SURFTAB1
 70
     6
  9
$SURFTAB2
 70
     6
  9
$SURFTYPE
 70
     6
  9
$SURFU
 70
     6
  9
$SURFV
 70
     6
  9
$UCSBASE
  2

  9
$UCSNAME
  2

  9
$UCSORG
 10
0.0
 20
0.0
 30
0.0
  9
$UCSXDIR
 10
1.0
 20
0.0
 30
0.0
  9
$UCSYDIR
 10
0.0
 20
1.0
 30
0.0
  9
$UCSORTHOREF
  2

  9
$UCSORTHOVIEW
 70
     0
  9
$UCSORGTOP
 10
0.0
 20
0.0
 30
0.0
  9
$UCSORGBOTTOM
 10
0.0
 20
0.0
 30
0.0
  9
$UCSORGLEFT
 10
0.0
 20
0.0
 30
0.0
  9
$UCSORGRIGHT
 10
0.0
 20
0.0
 30
0.0
  9
$UCSORGFRONT
 10
0.0
 20
0.0
 30
0.0
  9
$UCSORGBACK
 10
0.0
 20
0.0
 30
0.0
  9
$PUCSBASE
  2

  9
$PUCSNAME
  2

  9
$PUCSORG
 10
0.0
 20
0.0
 30
0.0
  9
$PUCSXDIR
 10
1.0
 20
0.0
 30
0.0
  9
$PUCSYDIR
 10
0.0
 20
1.0
 30
0.0
  9
$PUCSORTHOREF
  2

  9
$PUCSORTHOVIEW
 70
     0
  9
$PUCSORGTOP
 10
0.0
 20
0.0
 30
0.0
  9
$PUCSORGBOTTOM
 10
0.0
 20
0.0
 30
0.0
  9
$PUCSORGLEFT
 10
0.0
 20
0.0
 30
0.0
  9
$PUCSORGRIGHT
 10
0.0
 20
0.0
 30
0.0
  9
$PUCSORGFRONT
 10
0.0
 20
0.0
 30
0.0
  9
$PUCSORGBACK
 10
0.0
 20
0.0
 30
0.0
  9
$USERI1
 70
     0
  9
$USERI2
 70
     0
  9
$USERI3
 70
     0
  9
$USERI4
 70
     0
  9
$USERI5
 70
     0
  9
$USERR1
 40
0.0
  9
$USERR2
 40
0.0
  9
$USERR3
 40
0.0
  9
$USERR4
 40
0.0
  9
$USERR5
 40
0.0
  9
$WORLDVIEW
 70
     1
  9
$SHADEDGE
 70
     3
  9
$SHADEDIF
 70
    70
  9
$TILEMODE
 70
     1
  9
$MAXACTVP
 70
    64
  9
$PINSBASE
 10
0.0
 20
0.0
 30
0.0
  9
$PLIMCHECK
 70
     0
  9
$PEXTMIN
 10
1.000000000000000E+20
 20
1.000000000000000E+20
 30
1.000000000000000E+20
  9
$PEXTMAX
 10
-1.000000000000000E+20
 20
-1.000000000000000E+20
 30
-1.000000000000000E+20
  9
$PLIMMIN
 10
0.0
 20
0.0
  9
$PLIMMAX
 10
420.0
 20
297.0
  9
$UNITMODE
 70
     0
  9
$VISRETAIN
 70
     1
  9
$PLINEGEN
 70
     0
  9
$PSLTSCALE
 70
     1
  9
$TREEDEPTH
 70
  3020
  9
$CMLSTYLE
  2
Standard
  9
$CMLJUST
 70
     0
  9
$CMLSCALE
 40
1.0
  9
$PROXYGRAPHICS
 70
     1
  9
$MEASUREMENT
 70
     0
  9
$CELWEIGHT
370
    -1
  9
$ENDCAPS
280
     0
  9
$JOINSTYLE
280
     0
  9
$LWDISPLAY
290
     0
  9
$INSUNITS
 70
     0
  9
$HYPERLINKBASE
  1

  9
$STYLESHEET
  1

  9
$XEDIT
290
     1
  9
$CEPSNTYPE
380
     0
  9
$PSTYLEMODE
290
     1
  9
$FINGERPRINTGUID
  2
{A509D94C-BE5D-4441-8922-8ED285F1F951}
  9
$VERSIONGUID
  2
{DC69A983-E4DF-48BF-86E3-A85CE40E10F5}
  9
$EXTNAMES
290
     1
  9
$PSVPSCALE
 40
0.0
  9
$OLESTARTUP
290
     0
  0
ENDSEC
  0
SECTION
  2
CLASSES
  0
CLASS
  1
ACDBDICTIONARYWDFLT
  2
AcDbDictionaryWithDefault
  3
AutoCAD 2000
 90
        0
280
     0
281
     0
  0
CLASS
  1
ACDBPLACEHOLDER
  2
AcDbPlaceHolder
  3
AutoCAD 2000
 90
        0
280
     0
281
     0
  0
CLASS
  1
LAYOUT
  2
AcDbLayout
  3
AutoCAD 2000
 90
        0
280
     0
281
     0
  0
CLASS
  1
DICTIONARYVAR
  2
AcDbDictionaryVar
  3
AutoCAD 2000
 90
        0
280
     0
281
     0
  0
ENDSEC
  0
SECTION
  2
TABLES
  0
TABLE
  2
VPORT
  5
23E2
330
0
100
AcDbSymbolTable
 70
     3
  0
VPORT
  5
2B60
330
23E2
100
AcDbSymbolTableRecord
100
AcDbViewportTableRecord
  2
*Active
 70
     0
 10
0.0
 20
0.0
 11
1.0
 21
1.0
 12
369.6987589253303
 22
420.2374733210936
 13
0.0
 23
0.0
 14
2.5
 24
2.5
 15
10.0
 25
10.0
 16
0.0
 26
0.0
 36
1.0
 17
0.0
 27
0.0
 37
0.0
 40
808.2261487951255
 41
1.182835820895522
 42
50.0
 43
0.0
 44
0.0
 50
0.0
 51
0.0
 71
     0
 72
   100
 73
     1
 74
     3
 75
     0
 76
     0
 77
     0
 78
     0
281
     0
 65
     1
110
0.0
120
0.0
130
0.0
111
1.0
121
0.0
131
0.0
112
0.0
122
1.0
132
0.0
 79
     0
146
0.0
  0
ENDTAB
  0
TABLE
  2
LTYPE
  5
23DF
330
0
100
AcDbSymbolTable
 70
     5
  0
LTYPE
  5
23ED
330
23DF
100
AcDbSymbolTableRecord
100
AcDbLinetypeTableRecord
  2
ByBlock
 70
     0
  3

 72
    65
 73
     0
 40
0.0
  0
LTYPE
  5
23EE
330
23DF
100
AcDbSymbolTableRecord
100
AcDbLinetypeTableRecord
  2
ByLayer
 70
     0
  3

 72
    65
 73
     0
 40
0.0
  0
LTYPE
  5
23EF
330
23DF
100
AcDbSymbolTableRecord
100
AcDbLinetypeTableRecord
  2
CONTINUOUS
 70
     0
  3
Solid line
 72
    65
 73
     0
 40
0.0
  0
LTYPE
  5
23FE
330
23DF
100
AcDbSymbolTableRecord
100
AcDbLinetypeTableRecord
  2
CENTER
 70
     0
  3
Center ____ _ ____ _ ____ _ ____ _ ____ _ ____
 72
    65
 73
     4
 40
50.8
 49
31.75
 74
     0
 49
-6.349999999999997
 74
     0
 49
6.349999999999997
 74
     0
 49
-6.349999999999997
 74
     0
  0
LTYPE
  5
23FF
330
23DF
100
AcDbSymbolTableRecord
100
AcDbLinetypeTableRecord
  2
DASHDOT
 70
     0
  3
__ . __ . __ .
 72
    65
 73
     4
 40
19.089849350613
 49
9.544924675306507
 74
     0
 49
-4.772462337653252
 74
     0
 49
0.0
 74
     0
 49
-4.772462337653252
 74
     0
  0
LTYPE
  5
2400
330
23DF
100
AcDbSymbolTableRecord
100
AcDbLinetypeTableRecord
  2
DIVIDE
 70
     0
  3
__ . . __ . . 
 72
    65
 73
     6
 40
23.86231168826626
 49
9.544924675306507
 74
     0
 49
-4.772462337653252
 74
     0
 49
0.0
 74
     0
 49
-4.772462337653252
 74
     0
 49
0.0
 74
     0
 49
-4.772462337653252
 74
     0
  0
LTYPE
  5
2401
330
23DF
100
AcDbSymbolTableRecord
100
AcDbLinetypeTableRecord
  2
PHANTOM
 70
     0
  3
_____ _ _ _____ _ _ 
 72
    65
 73
     6
 40
47.72462337653253
 49
23.86231168826626
 74
     0
 49
-4.772462337653252
 74
     0
 49
4.772462337653252
 74
     0
 49
-4.772462337653252
 74
     0
 49
4.772462337653252
 74
     0
 49
-4.772462337653252
 74
     0
  0
ENDTAB
  0
TABLE
  2
LAYER
  5
23DC
330
0
100
AcDbSymbolTable
 70
     5
  0
LAYER
  5
23EA
330
23DC
100
AcDbSymbolTableRecord
100
AcDbLayerTableRecord
  2
0
 70
     0
 62
     7
  6
CONTINUOUS
370
    -3
390
23E9
  0
LAYER
  5
23FC
330
23DC
100
AcDbSymbolTableRecord
100
AcDbLayerTableRecord
  2
AM_0
 70
     0
 62
     7
  6
CONTINUOUS
370
    -3
390
23E9
  0
LAYER
  5
2402
330
23DC
100
AcDbSymbolTableRecord
100
AcDbLayerTableRecord
  2
1
 70
     0
 62
     7
  6
CONTINUOUS
370
    -3
390
23E9
  0
LAYER
  5
2403
330
23DC
100
AcDbSymbolTableRecord
100
AcDbLayerTableRecord
  2
2
 70
     0
 62
     7
  6
CONTINUOUS
370
    -3
390
23E9
  0
LAYER
  5
26C5
330
23DC
100
AcDbSymbolTableRecord
100
AcDbLayerTableRecord
  2
LAYER_1
 70
     0
 62
     5
  6
CONTINUOUS
370
    -3
390
23E9
  0
ENDTAB
  0
TABLE
  2
STYLE
  5
23DD
330
0
100
AcDbSymbolTable
 70
     1
  0
STYLE
  5
23EB
330
23DD
100
AcDbSymbolTableRecord
100
AcDbTextStyleTableRecord
  2
STANDARD
 70
     0
 40
0.0
 41
1.0
 50
0.0
 71
     0
 42
2.5
  3
ISOCP.SHX
  4

  0
ENDTAB
  0
TABLE
  2
VIEW
  5
23E0
330
0
100
AcDbSymbolTable
 70
     0
  0
ENDTAB
  0
TABLE
  2
UCS
  5
23E1
330
0
100
AcDbSymbolTable
 70
     0
  0
ENDTAB
  0
TABLE
  2
APPID
  5
23E3
330
0
100
AcDbSymbolTable
 70
    13
  0
APPID
  5
23EC
330
23E3
100
AcDbSymbolTableRecord
100
AcDbRegAppTableRecord
  2
ACAD
 70
     0
  0
APPID
  5
2404
330
23E3
100
AcDbSymbolTableRecord
100
AcDbRegAppTableRecord
  2
GENIUS_GENDIM_13
 70
     0
  0
APPID
  5
2405
330
23E3
100
AcDbSymbolTableRecord
100
AcDbRegAppTableRecord
  2
GENIUS_GENDTOL_13
 70
     0
  0
APPID
  5
2406
330
23E3
100
AcDbSymbolTableRecord
100
AcDbRegAppTableRecord
  2
GENIUS_GE3DTOL_13
 70
     0
  0
APPID
  5
2407
330
23E3
100
AcDbSymbolTableRecord
100
AcDbRegAppTableRecord
  2
MCAD_NO_VIS
 70
     0
  0
APPID
  5
2408
330
23E3
100
AcDbSymbolTableRecord
100
AcDbRegAppTableRecord
  2
ACAD_TEMP_GRAPHIC
 70
     0
  0
APPID
  5
2409
330
23E3
100
AcDbSymbolTableRecord
100
AcDbRegAppTableRecord
  2
AD_DRAW
 70
     0
  0
APPID
  5
240A
330
23E3
100
AcDbSymbolTableRecord
100
AcDbRegAppTableRecord
  2
ACATTRIBSERVICES
 70
     0
  0
APPID
  5
240B
330
23E3
100
AcDbSymbolTableRecord
100
AcDbRegAppTableRecord
  2
ASURF_PCURVE_APPNAME
 70
     0
  0
APPID
  5
240C
330
23E3
100
AcDbSymbolTableRecord
100
AcDbRegAppTableRecord
  2
DESIGNERASSEMBLIES
 70
     0
  0
APPID
  5
240D
330
23E3
100
AcDbSymbolTableRecord
100
AcDbRegAppTableRecord
  2
ACADM_DIM_EDIT
 70
     0
  0
APPID
  5
240E
330
23E3
100
AcDbSymbolTableRecord
100
AcDbRegAppTableRecord
  2
G3V_ENTHND
 70
     0
  0
APPID
  5
240F
330
23E3
100
AcDbSymbolTableRecord
100
AcDbRegAppTableRecord
  2
GENIUS_GENDIMSH_14
 70
     0
  0
ENDTAB
  0
TABLE
  2
DIMSTYLE
  5
23E4
330
0
100
AcDbSymbolTable
 70
     2
100
AcDbDimStyleTable
 71
     0
  0
DIMSTYLE
105
2410
330
23E4
100
AcDbSymbolTableRecord
100
AcDbDimStyleTableRecord
  2
ISO-25
 70
     0
 41
2.5
 42
0.625
 43
3.75
 44
1.25
 73
     0
 74
     0
 77
     1
 78
     8
140
2.5
141
2.5
143
0.03937007874016
147
0.625
171
     3
172
     1
271
     2
272
     2
274
     3
279
     2
284
     8
285
     8
286
     8
340
23EB
  0
DIMSTYLE
105
26C6
330
23E4
100
AcDbSymbolTableRecord
100
AcDbDimStyleTableRecord
  2
Standard
 70
     0
340
23EB
  0
ENDTAB
  0
TABLE
  2
BLOCK_RECORD
  5
23DB
330
0
100
AcDbSymbolTable
 70
    25
  0
BLOCK_RECORD
  5
23F8
330
23DB
100
AcDbSymbolTableRecord
100
AcDbBlockTableRecord
  2
*Model_Space
340
23FB
  0
BLOCK_RECORD
  5
23F4
330
23DB
100
AcDbSymbolTableRecord
100
AcDbBlockTableRecord
  2
*Paper_Space
340
23F7
  0
BLOCK_RECORD
  5
2412
330
23DB
100
AcDbSymbolTableRecord
100
AcDbBlockTableRecord
  2
$MODEL_SPACE
340
0
  0
BLOCK_RECORD
  5
2415
330
23DB
100
AcDbSymbolTableRecord
100
AcDbBlockTableRecord
  2
$PAPER_SPACE
340
0
  0
BLOCK_RECORD
  5
2659
330
23DB
100
AcDbSymbolTableRecord
100
AcDbBlockTableRecord
  2
AI9-BLK14
340
0
310
2800000020000000200000000100080000000000000400000000000000000000000000000000000000000000000080000080000000808000800000008000800080800000C0C0C000C0DCC000F0CAA6000020400000206000002080000020A0000020C0000020E00000400000004020000040400000406000004080000040A0
310
000040C0000040E00000600000006020000060400000606000006080000060A0000060C0000060E00000800000008020000080400000806000008080000080A0000080C0000080E00000A0000000A0200000A0400000A0600000A0800000A0A00000A0C00000A0E00000C0000000C0200000C0400000C0600000C0800000C0
310
A00000C0C00000C0E00000E0000000E0200000E0400000E0600000E0800000E0A00000E0C00000E0E00040000000400020004000400040006000400080004000A0004000C0004000E00040200000402020004020400040206000402080004020A0004020C0004020E000404000004040200040404000404060004040800040
310
40A0004040C0004040E00040600000406020004060400040606000406080004060A0004060C0004060E00040800000408020004080400040806000408080004080A0004080C0004080E00040A0000040A0200040A0400040A0600040A0800040A0A00040A0C00040A0E00040C0000040C0200040C0400040C0600040C08000
310
40C0A00040C0C00040C0E00040E0000040E0200040E0400040E0600040E0800040E0A00040E0C00040E0E00080000000800020008000400080006000800080008000A0008000C0008000E00080200000802020008020400080206000802080008020A0008020C0008020E00080400000804020008040400080406000804080
310
008040A0008040C0008040E00080600000806020008060400080606000806080008060A0008060C0008060E00080800000808020008080400080806000808080008080A0008080C0008080E00080A0000080A0200080A0400080A0600080A0800080A0A00080A0C00080A0E00080C0000080C0200080C0400080C0600080C0
310
800080C0A00080C0C00080C0E00080E0000080E0200080E0400080E0600080E0800080E0A00080E0C00080E0E000C0000000C0002000C0004000C0006000C0008000C000A000C000C000C000E000C0200000C0202000C0204000C0206000C0208000C020A000C020C000C020E000C0400000C0402000C0404000C0406000C0
310
408000C040A000C040C000C040E000C0600000C0602000C0604000C0606000C0608000C060A000C060C000C060E000C0800000C0802000C0804000C0806000C0808000C080A000C080C000C080E000C0A00000C0A02000C0A04000C0A06000C0A08000C0A0A000C0A0C000C0A0E000C0C00000C0C02000C0C04000C0C06000
310
C0C08000C0C0A000F0FBFF00A4A0A000808080000000FF0000FF000000FFFF00FF000000FF00FF00FFFF0000FFFFFF00FF00FFFFFFFF00FFFFFFFFFFFFFFFFFFFFFFFFFFFFFFFFFFFFFFFFFFFFFFFFFFFF00FFFFFFFF00FFFFFFFFFFFFFFFFFFFFFFFFFFFFFFFFFFFFFFFFFFFFFFFFFFFF00FFFFFFFF00FFFFFFFFFFFFFFFF
310
FFFFFFFFFFFFFFFFFFFFFFFFFFFFFFFFFFFF00FFFFFFFF00FFFFFFFFFFFFFFFFFFFFFFFFFFFFFFFFFFFFFFFFFFFFFFFFFFFF00FFFFFFFF00FFFFFFFFFFFFFFFFFFFFFFFFFFFFFFFFFFFFFFFFFFFFFFFFFFFF00FFFFFFFF00FFFFFFFFFFFFFFFFFFFFFFFFFFFFFFFFFFFFFFFFFFFFFFFFFFFF00FFFFFFFF00FFFFFFFFFFFFFF
310
FFFFFFFFFFFFFFFFFFFFFFFFFFFFFFFFFFFFFF00FFFFFFFF00FFFFFFFFFFFFFFFFFFFFFFFFFFFFFFFFFFFFFFFFFFFFFFFFFFFF00FFFFFFFF00FFFFFFFFFFFFFFFFFFFFFFFFFFFFFFFFFFFFFFFFFFFFFFFFFFFF00FFFFFFFF00FFFFFFFFFFFFFFFFFFFFFFFFFFFFFFFFFFFFFFFFFFFFFFFFFFFF00FFFFFFFF00FFFFFFFFFFFF
310
FFFFFFFFFFFFFFFFFFFFFFFFFFFFFFFFFFFFFFFF00FFFFFFFF00FFFFFFFFFFFFFFFFFFFFFFFFFFFFFFFFFFFFFFFFFFFFFFFFFFFF00FFFFFFFF00FFFFFFFFFFFFFFFFFFFFFFFFFFFFFFFFFFFFFFFFFFFFFFFFFFFF00FFFFFFFF0000000000000000000000000000000000000000000000000000FF00FFFFFFFFFFFFFFFFFFFF
310
FFFFFFFFFFFFFFFFFFFFFFFFFFFFFFFFFFFFFFFFFF00FFFFFFFFFFFFFFFFFFFFFFFFFFFFFFFFFFFFFFFFFFFFFFFFFFFFFFFFFFFFFF00FFFFFFFFFFFFFFFFFFFFFFFFFFFFFFFFFFFFFFFFFFFFFFFFFFFFFFFFFFFFFF00FFFFFFFFFFFFFFFFFFFFFFFFFFFFFFFFFFFFFFFFFFFFFFFFFFFFFFFFFF00FF00000000000000000000
310
0000000000000000000000000000000000000000FFFFFFFFFFFFFFFFFFFFFFFFFFFFFFFFFFFFFFFFFFFFFFFFFFFFFFFFFFFFFFFFFFFFFFFFFFFFFFFFFFFFFFFFFFFFFFFFFFFFFFFFFFFFFFFFFFFFFFFFFFFFFFFFFFFFFFFFFFFFFFFFFFFFFFFFFFFFFFFFFFFFFFFFFFFFFFFFFFFFFFFFFFFFFFFFFFFFFFFFFFFFFFFFFFFFFF
310
FFFFFFFFFFFFFFFFFFFFFFFFFFFFFFFFFFFFFFFFFFFFFFFFFFFFFFFFFFFFFFFFFFFFFFFFFFFFFFFFFFFFFFFFFFFFFFFFFFFFFFFFFFFFFFFFFFFFFFFFFFFFFFFFFFFFFFFFFFFFFFFFFFFFFFFFFFFFFFFFFFFFFFFFFFFFFFFFFFFFFFFFFFFFFFFFFFFFFFFFFFFFFFFFFFFFFFFFFFFFFFFFFFFFFFFFFFFFFFFFFFFFFFFFFFFFFF
310
FFFFFFFFFFFFFFFFFFFFFFFFFFFFFFFFFFFFFFFFFFFFFFFFFFFFFFFFFFFFFFFFFFFFFFFFFFFFFFFFFFFFFFFFFFFFFFFFFFFFFFFFFFFFFFFFFFFFFFFFFFFFFFFFFFFFFFFFFFFFFFFFFFFFFFFFFFFFFFFFFFFFFFFFFFFFFFFFFFFFFFFFFFFFFFFFFFFFFFFFFFFFFFFFFFFFFFFFFFFFFFFFFFFFFFFFFFFFFFFFFFFFFFFFFFFFFF
310
FFFFFFFFFFFFFFFFFFFFFFFFFFFFFFFFFFFFFFFFFFFFFFFFFFFFFFFFFFFFFFFFFFFFFFFFFFFFFFFFFFFFFFFFFFFFFFFFFFFFFFFFFFFFFFFF
102
{BLKREFS
331
269A
102
}
  0
BLOCK_RECORD
  5
265E
330
23DB
100
AcDbSymbolTableRecord
100
AcDbBlockTableRecord
  2
AI9-BLK13
340
0
310
2800000020000000200000000100080000000000000400000000000000000000000000000000000000000000000080000080000000808000800000008000800080800000C0C0C000C0DCC000F0CAA6000020400000206000002080000020A0000020C0000020E00000400000004020000040400000406000004080000040A0
310
000040C0000040E00000600000006020000060400000606000006080000060A0000060C0000060E00000800000008020000080400000806000008080000080A0000080C0000080E00000A0000000A0200000A0400000A0600000A0800000A0A00000A0C00000A0E00000C0000000C0200000C0400000C0600000C0800000C0
310
A00000C0C00000C0E00000E0000000E0200000E0400000E0600000E0800000E0A00000E0C00000E0E00040000000400020004000400040006000400080004000A0004000C0004000E00040200000402020004020400040206000402080004020A0004020C0004020E000404000004040200040404000404060004040800040
310
40A0004040C0004040E00040600000406020004060400040606000406080004060A0004060C0004060E00040800000408020004080400040806000408080004080A0004080C0004080E00040A0000040A0200040A0400040A0600040A0800040A0A00040A0C00040A0E00040C0000040C0200040C0400040C0600040C08000
310
40C0A00040C0C00040C0E00040E0000040E0200040E0400040E0600040E0800040E0A00040E0C00040E0E00080000000800020008000400080006000800080008000A0008000C0008000E00080200000802020008020400080206000802080008020A0008020C0008020E00080400000804020008040400080406000804080
310
008040A0008040C0008040E00080600000806020008060400080606000806080008060A0008060C0008060E00080800000808020008080400080806000808080008080A0008080C0008080E00080A0000080A0200080A0400080A0600080A0800080A0A00080A0C00080A0E00080C0000080C0200080C0400080C0600080C0
310
800080C0A00080C0C00080C0E00080E0000080E0200080E0400080E0600080E0800080E0A00080E0C00080E0E000C0000000C0002000C0004000C0006000C0008000C000A000C000C000C000E000C0200000C0202000C0204000C0206000C0208000C020A000C020C000C020E000C0400000C0402000C0404000C0406000C0
310
408000C040A000C040C000C040E000C0600000C0602000C0604000C0606000C0608000C060A000C060C000C060E000C0800000C0802000C0804000C0806000C0808000C080A000C080C000C080E000C0A00000C0A02000C0A04000C0A06000C0A08000C0A0A000C0A0C000C0A0E000C0C00000C0C02000C0C04000C0C06000
310
C0C08000C0C0A000F0FBFF00A4A0A000808080000000FF0000FF000000FFFF00FF000000FF00FF00FFFF0000FFFFFF00FFFFFFFFFFFFFFFFFFFFFFFFFFFFFFFFFFFFFFFFFFFFFFFFFFFFFFFFFFFFFFFFFFFFFFFFFFFFFFFFFFFFFF0000FFFFFFFFFFFF0000FFFFFFFFFFFFFFFFFFFFFFFFFFFFFFFFFFFFFFFFFFFF0000FFFF
310
FFFFFFFF0000FFFFFFFFFFFFFFFFFFFFFFFFFFFFFFFFFFFFFFFFFFFF0000FFFFFFFFFFFF0000FFFFFFFFFFFFFFFFFFFFFFFFFFFFFFFFFFFFFFFFFFFF0000FFFFFFFFFFFF0000FFFFFFFFFFFFFFFFFFFFFFFFFFFFFFFFFFFFFFFFFFFF0000FFFFFFFFFFFF0000FFFFFFFFFFFFFFFFFFFFFFFFFFFFFFFFFFFFFFFFFFFF0000FF
310
FFFFFFFFFF0000FFFFFFFFFFFFFFFFFFFFFFFFFFFFFFFFFFFFFFFFFFFF0000FFFFFFFFFFFF0000FFFFFFFFFFFFFFFFFFFFFFFFFFFFFFFFFFFFFFFFFFFF0000FFFFFFFFFFFF0000FFFFFFFFFFFFFFFFFFFFFFFFFFFFFFFFFFFFFFFFFFFF0000FFFFFFFFFFFF0000FFFFFFFFFFFFFFFFFFFFFFFFFFFFFFFFFFFFFFFFFFFF0000
310
FFFFFFFFFFFF0000FFFFFFFFFFFFFFFFFFFFFFFFFFFFFFFFFFFFFFFFFFFF0000FFFFFFFFFFFF0000FFFFFFFFFFFFFFFFFFFFFFFFFFFFFFFFFFFFFFFFFFFF0000FFFFFFFFFFFF0000FFFFFFFFFFFFFFFFFFFFFFFFFFFFFFFFFFFFFFFFFFFF0000FFFFFFFFFFFF0000FFFFFFFFFFFFFFFFFFFFFFFFFFFFFFFFFFFFFFFFFFFF00
310
00FFFFFFFFFFFF0000FFFFFFFFFFFFFFFFFFFFFFFFFFFFFFFFFFFFFFFFFFFF00000000000000000000FFFFFFFFFFFFFFFFFFFFFFFFFFFFFFFFFFFFFFFFFFFF00FFFFFFFFFFFFFFFF00FFFFFFFFFFFFFFFFFFFFFFFFFFFFFFFFFFFFFFFFFFFF00FFFFFFFFFFFFFFFF00FFFFFFFFFFFFFFFFFFFFFFFFFFFFFFFFFFFFFFFFFFFF
310
00000000000000000000FFFFFFFFFFFFFFFFFFFFFFFFFFFFFFFFFFFFFFFFFFFF0000FFFFFFFFFFFF0000FFFFFFFFFFFFFFFFFFFFFFFFFFFFFFFFFFFFFFFFFFFF0000FFFFFFFFFFFF0000FFFFFFFFFFFFFFFFFFFFFFFFFFFFFFFFFFFFFFFFFFFF0000FFFFFFFFFFFF0000FFFFFFFFFFFFFFFFFFFFFFFFFFFFFFFFFFFFFFFFFF
310
FF0000FFFFFFFFFFFF0000FFFFFFFFFFFFFFFFFFFFFFFFFFFFFFFFFFFFFFFFFFFF0000FFFFFFFFFFFF0000FFFFFFFFFFFFFFFFFFFFFFFFFFFFFFFFFFFFFFFFFFFF0000FFFFFFFFFFFF0000FFFFFFFFFFFFFFFFFFFFFFFFFFFFFFFFFFFFFFFFFFFF0000FFFFFFFFFFFF0000FFFFFFFFFFFFFFFFFFFFFFFFFFFFFFFFFFFFFFFF
310
FFFF0000FFFFFFFFFFFF0000FFFFFFFFFFFFFFFFFFFFFFFFFFFFFFFFFFFFFFFFFFFF0000FFFFFFFFFFFF0000FFFFFFFFFFFFFFFFFFFFFFFFFFFFFFFFFFFFFFFFFFFF0000FFFFFFFFFFFF0000FFFFFFFFFFFFFFFFFFFFFFFFFFFFFFFFFFFFFFFFFFFF0000FFFFFFFFFFFF0000FFFFFFFFFFFFFFFFFFFFFFFFFFFFFFFFFFFFFF
310
FFFFFF0000FFFFFFFFFFFF0000FFFFFFFFFFFFFFFFFFFFFFFFFFFFFFFFFFFFFFFFFFFFFFFFFFFFFFFFFFFFFFFFFFFFFFFFFFFFFFFFFFFFFF
102
{BLKREFS
331
269B
102
}
  0
BLOCK_RECORD
  5
2663
330
23DB
100
AcDbSymbolTableRecord
100
AcDbBlockTableRecord
  2
AI9-BLK11
340
0
310
2800000020000000200000000100080000000000000400000000000000000000000000000000000000000000000080000080000000808000800000008000800080800000C0C0C000C0DCC000F0CAA6000020400000206000002080000020A0000020C0000020E00000400000004020000040400000406000004080000040A0
310
000040C0000040E00000600000006020000060400000606000006080000060A0000060C0000060E00000800000008020000080400000806000008080000080A0000080C0000080E00000A0000000A0200000A0400000A0600000A0800000A0A00000A0C00000A0E00000C0000000C0200000C0400000C0600000C0800000C0
310
A00000C0C00000C0E00000E0000000E0200000E0400000E0600000E0800000E0A00000E0C00000E0E00040000000400020004000400040006000400080004000A0004000C0004000E00040200000402020004020400040206000402080004020A0004020C0004020E000404000004040200040404000404060004040800040
310
40A0004040C0004040E00040600000406020004060400040606000406080004060A0004060C0004060E00040800000408020004080400040806000408080004080A0004080C0004080E00040A0000040A0200040A0400040A0600040A0800040A0A00040A0C00040A0E00040C0000040C0200040C0400040C0600040C08000
310
40C0A00040C0C00040C0E00040E0000040E0200040E0400040E0600040E0800040E0A00040E0C00040E0E00080000000800020008000400080006000800080008000A0008000C0008000E00080200000802020008020400080206000802080008020A0008020C0008020E00080400000804020008040400080406000804080
310
008040A0008040C0008040E00080600000806020008060400080606000806080008060A0008060C0008060E00080800000808020008080400080806000808080008080A0008080C0008080E00080A0000080A0200080A0400080A0600080A0800080A0A00080A0C00080A0E00080C0000080C0200080C0400080C0600080C0
310
800080C0A00080C0C00080C0E00080E0000080E0200080E0400080E0600080E0800080E0A00080E0C00080E0E000C0000000C0002000C0004000C0006000C0008000C000A000C000C000C000E000C0200000C0202000C0204000C0206000C0208000C020A000C020C000C020E000C0400000C0402000C0404000C0406000C0
310
408000C040A000C040C000C040E000C0600000C0602000C0604000C0606000C0608000C060A000C060C000C060E000C0800000C0802000C0804000C0806000C0808000C080A000C080C000C080E000C0A00000C0A02000C0A04000C0A06000C0A08000C0A0A000C0A0C000C0A0E000C0C00000C0C02000C0C04000C0C06000
310
C0C08000C0C0A000F0FBFF00A4A0A000808080000000FF0000FF000000FFFF00FF000000FF00FF00FFFF0000FFFFFF00FFFFFFFFFFFFFFFFFFFFFFFFFFFFFFFFFFFFFFFFFFFFFFFFFFFFFFFFFFFFFFFFFFFFFFFFFFFFFFFFFFFFFFFFFFFF00000000FFFFFFFFFFFFFFFFFFFFFF000000FFFFFFFFFFFFFFFFFFFFFFFFFFFF00
310
FFFF00FFFFFFFFFFFFFFFFFFFFFF00FFFFFFFFFFFFFFFFFFFFFFFFFFFFFFFF00FFFF00FFFFFFFFFFFFFFFFFFFFFF00FFFFFFFFFFFFFFFFFFFFFFFFFFFFFFFF00FFFF00FFFFFFFFFFFFFFFFFFFFFF00FFFFFFFFFFFFFFFFFFFFFFFFFFFFFFFF00FFFF00FFFFFFFFFFFFFFFFFFFFFF00FFFFFFFFFFFFFFFFFFFFFFFFFFFFFFFF
310
00FFFF00FFFFFFFFFFFFFFFFFFFFFF00FFFFFFFFFFFFFFFFFFFFFFFFFFFFFFFF00FFFF00FFFFFFFFFFFFFFFFFFFFFF00FFFFFFFFFFFFFFFFFFFFFFFFFFFFFFFF00FFFF00FFFFFFFFFFFFFFFFFFFFFF00FFFFFFFFFFFFFFFFFFFFFFFFFFFFFFFF00FFFF00FFFFFFFFFFFFFFFFFFFFFF00FFFFFFFFFFFFFFFFFFFFFFFFFFFFFF
310
FF00FFFF00FFFFFFFFFFFFFFFFFFFFFF00FFFFFFFFFFFFFFFFFFFFFFFFFFFFFFFF00FFFF00FFFFFFFFFFFFFFFFFFFFFF00FFFFFFFFFFFFFFFFFFFFFFFFFFFFFFFF00FFFF00FFFFFFFFFFFFFFFFFFFFFF00FFFFFFFFFFFFFFFFFFFFFFFFFFFFFFFF00FFFF00FFFFFFFFFFFFFFFFFFFFFF00FFFFFFFFFFFFFFFFFFFFFFFFFFFF
310
FFFF00FFFF00FFFFFFFFFFFFFFFFFFFFFF00FFFFFFFFFFFFFFFFFFFFFFFFFFFFFFFF00FFFF00FFFFFFFFFFFFFFFFFFFFFF00FFFFFFFFFFFFFFFFFFFFFFFFFFFFFFFF00FFFF00FFFFFFFFFFFFFFFFFFFFFF00FFFFFFFFFFFFFFFFFFFFFFFFFFFFFFFF00FFFF00FFFFFFFFFFFFFFFFFFFF00FFFFFFFFFFFFFFFFFFFFFFFFFFFF
310
FFFFFF00FFFF00FFFFFFFFFFFFFFFFFFFF00FFFFFFFFFFFFFFFFFFFFFFFFFFFFFFFFFF00FFFF00FFFFFFFFFFFFFFFFFFFF00FFFFFFFFFFFFFFFFFFFFFFFFFFFFFFFFFF00FFFF00FFFFFFFFFFFFFFFFFFFF00FFFFFFFFFFFFFFFFFFFFFFFFFFFFFFFFFF00FFFF00FFFFFFFFFFFFFFFFFFFF00FFFFFFFFFFFFFFFFFFFFFFFFFF
310
FFFFFFFF00FFFF00FFFFFFFFFFFFFFFFFF0000FFFF00FFFFFFFFFFFFFFFFFFFFFFFFFFFF00FFFF00FFFFFFFFFFFFFFFF0000FFFFFF00FFFFFFFFFFFFFFFFFFFFFFFFFFFF00FFFF00000000000000000000FFFFFFFF00FFFFFFFFFFFFFFFFFFFFFFFFFFFF00FFFFFFFFFFFFFFFFFFFFFFFFFFFFFF00FFFFFFFFFFFFFFFFFFFF
310
FFFFFFFFFF00FFFFFFFFFFFFFFFFFFFFFFFFFFFF00FFFFFFFFFFFFFFFFFFFFFFFFFFFFFFFF00FFFFFFFFFFFFFFFFFFFFFFFFFFFF00FFFFFFFFFFFFFFFFFFFFFFFFFFFFFFFF00FFFFFFFFFFFFFFFFFFFFFFFFFFFFFF00FFFFFFFFFFFFFFFFFFFFFFFFFFFFFF00FFFFFFFFFFFFFFFFFFFFFFFFFFFFFF00FFFFFFFFFFFFFFFFFF
310
FFFFFFFFFFFF00FFFF00000000000000000000FFFFFFFF00FFFFFFFFFFFFFFFFFFFFFFFFFFFF00FFFF00FFFFFFFFFFFFFFFFFF0000FFFF00
102
{BLKREFS
331
269C
102
}
  0
BLOCK_RECORD
  5
2668
330
23DB
100
AcDbSymbolTableRecord
100
AcDbBlockTableRecord
  2
AI9-BLK10
340
0
310
2800000020000000200000000100080000000000000400000000000000000000000000000000000000000000000080000080000000808000800000008000800080800000C0C0C000C0DCC000F0CAA6000020400000206000002080000020A0000020C0000020E00000400000004020000040400000406000004080000040A0
310
000040C0000040E00000600000006020000060400000606000006080000060A0000060C0000060E00000800000008020000080400000806000008080000080A0000080C0000080E00000A0000000A0200000A0400000A0600000A0800000A0A00000A0C00000A0E00000C0000000C0200000C0400000C0600000C0800000C0
310
A00000C0C00000C0E00000E0000000E0200000E0400000E0600000E0800000E0A00000E0C00000E0E00040000000400020004000400040006000400080004000A0004000C0004000E00040200000402020004020400040206000402080004020A0004020C0004020E000404000004040200040404000404060004040800040
310
40A0004040C0004040E00040600000406020004060400040606000406080004060A0004060C0004060E00040800000408020004080400040806000408080004080A0004080C0004080E00040A0000040A0200040A0400040A0600040A0800040A0A00040A0C00040A0E00040C0000040C0200040C0400040C0600040C08000
310
40C0A00040C0C00040C0E00040E0000040E0200040E0400040E0600040E0800040E0A00040E0C00040E0E00080000000800020008000400080006000800080008000A0008000C0008000E00080200000802020008020400080206000802080008020A0008020C0008020E00080400000804020008040400080406000804080
310
008040A0008040C0008040E00080600000806020008060400080606000806080008060A0008060C0008060E00080800000808020008080400080806000808080008080A0008080C0008080E00080A0000080A0200080A0400080A0600080A0800080A0A00080A0C00080A0E00080C0000080C0200080C0400080C0600080C0
310
800080C0A00080C0C00080C0E00080E0000080E0200080E0400080E0600080E0800080E0A00080E0C00080E0E000C0000000C0002000C0004000C0006000C0008000C000A000C000C000C000E000C0200000C0202000C0204000C0206000C0208000C020A000C020C000C020E000C0400000C0402000C0404000C0406000C0
310
408000C040A000C040C000C040E000C0600000C0602000C0604000C0606000C0608000C060A000C060C000C060E000C0800000C0802000C0804000C0806000C0808000C080A000C080C000C080E000C0A00000C0A02000C0A04000C0A06000C0A08000C0A0A000C0A0C000C0A0E000C0C00000C0C02000C0C04000C0C06000
310
C0C08000C0C0A000F0FBFF00A4A0A000808080000000FF0000FF000000FFFF00FF000000FF00FF00FFFF0000FFFFFF00FFFFFFFFFFFFFFFFFFFFFFFFFFFFFFFF00FFFFFFFFFFFFFFFFFFFFFFFF00FFFFFFFFFFFFFFFFFFFFFFFFFFFFFFFFFFFF00FFFFFFFFFFFFFFFFFFFFFF00FFFFFFFFFFFFFFFFFFFFFFFFFFFFFFFFFFFF
310
FF00FFFFFFFFFFFFFFFFFFFFFF00FFFFFFFFFFFFFFFFFFFFFFFFFFFFFFFFFFFFFF00FFFFFFFFFFFFFFFFFFFFFF00FFFFFFFFFFFFFFFFFFFFFFFFFFFFFFFFFFFFFF00FFFFFFFFFFFFFFFFFFFFFF00FFFFFFFFFFFFFFFFFFFFFFFFFFFFFFFFFFFFFF00FFFFFFFFFFFFFFFFFFFFFF00FFFFFFFFFFFFFFFFFFFFFFFFFFFFFFFFFF
310
FFFF00FFFFFFFFFFFFFFFFFFFFFF00FFFFFFFFFFFFFFFFFFFFFFFFFFFFFFFFFFFFFF00FFFFFFFFFFFFFFFFFFFF00FFFFFFFFFFFFFFFFFFFFFFFFFFFFFFFFFFFFFFFF00FFFFFFFFFFFFFFFFFFFF00FFFFFFFFFFFFFFFFFFFFFFFFFFFFFFFFFFFFFFFF00FFFFFFFFFFFFFFFFFFFF00FFFFFFFFFFFFFFFFFFFFFFFFFFFFFFFFFF
310
FFFFFF00FFFFFFFFFFFFFFFFFFFF00FFFFFFFFFFFFFFFFFFFFFFFFFFFFFFFFFFFFFFFF00FFFFFFFFFFFFFFFFFFFF00FFFFFFFFFFFFFFFFFFFFFFFFFFFFFFFFFFFFFFFF00FFFFFFFFFFFFFFFFFFFF00FFFFFFFFFFFFFFFFFFFFFFFFFFFFFFFFFFFFFFFF00FFFFFFFFFFFFFFFFFF00FFFFFFFFFFFFFFFFFFFFFFFFFFFFFFFFFF
310
FFFFFFFF00FFFFFFFFFFFFFFFFFF00FFFFFFFFFFFFFFFFFFFFFFFFFFFFFFFFFFFFFFFFFF00FFFFFFFFFFFFFFFFFF00FFFFFFFFFFFFFFFFFFFFFFFFFFFFFFFFFFFFFFFFFF0000000000000000000000FFFFFFFFFFFFFFFFFFFFFFFFFFFFFFFFFFFFFFFFFFFFFFFFFFFFFFFFFFFFFFFFFFFFFFFFFFFFFFFFFFFFFFFFFFFFFFFF
310
FFFFFFFFFFFFFFFFFFFFFFFFFFFFFFFFFFFFFFFFFFFFFFFFFFFFFFFFFFFFFFFFFFFFFFFFFFFFFFFFFFFFFFFFFFFFFFFFFFFFFFFFFFFFFFFFFFFFFFFFFFFFFFFFFFFFFFFFFFFFFFFFFFFFFFFFFFFFFFFFFFFFFFFFFFFFFFFFFFFFFFFFFFFFFFFFFFFFFFFFFFFFFFFFFFFFFFFFFFFFFFFFFFFFFFFFFFFFFFFFFFFFFFFFFFFFFF
310
FFFFFFFFFFFFFFFFFFFFFFFFFFFFFFFFFFFFFFFFFFFFFFFFFFFFFFFFFFFFFFFFFFFFFFFFFFFFFFFFFFFFFFFFFFFFFFFFFFFFFFFFFFFFFFFFFFFFFFFFFFFFFFFFFFFFFFFFFFFFFFFFFFFFFFFFFFFFFFFFFFFFFFFFFFFFFFFFFFFFFFFFFFFFFFFFFFFFFFFFFFFFFFFFFFFFFFFFFFFFFFFFFFFFFFFFFFFFFFFFFFFFFFFFFFFFFF
310
FFFFFFFFFFFFFFFFFFFFFFFFFFFFFFFFFFFFFFFFFFFFFFFFFFFFFFFFFFFFFFFFFFFFFFFFFFFFFFFFFFFFFFFFFFFFFFFFFFFFFFFFFFFFFFFFFFFFFFFFFFFFFFFFFFFFFFFFFFFFFFFFFFFFFFFFFFFFFFFFFFFFFFFFFFFFFFFFFFFFFFFFFFFFFFFFFFFFFFFFFFFFFFFFFFFFFFFFFFFFFFFFFFFFFFFFFFFFFFFFFFFFFFFFFFFFFF
310
FFFFFFFFFFFFFFFFFFFFFFFFFFFFFFFFFFFFFFFFFFFFFFFFFFFFFFFFFFFFFFFFFFFFFFFFFFFFFFFFFFFFFFFFFFFFFFFFFFFFFFFFFFFFFFFF
102
{BLKREFS
331
269D
102
}
  0
BLOCK_RECORD
  5
266C
330
23DB
100
AcDbSymbolTableRecord
100
AcDbBlockTableRecord
  2
AI9-BLK9
340
0
310
2800000020000000200000000100080000000000000400000000000000000000000000000000000000000000000080000080000000808000800000008000800080800000C0C0C000C0DCC000F0CAA6000020400000206000002080000020A0000020C0000020E00000400000004020000040400000406000004080000040A0
310
000040C0000040E00000600000006020000060400000606000006080000060A0000060C0000060E00000800000008020000080400000806000008080000080A0000080C0000080E00000A0000000A0200000A0400000A0600000A0800000A0A00000A0C00000A0E00000C0000000C0200000C0400000C0600000C0800000C0
310
A00000C0C00000C0E00000E0000000E0200000E0400000E0600000E0800000E0A00000E0C00000E0E00040000000400020004000400040006000400080004000A0004000C0004000E00040200000402020004020400040206000402080004020A0004020C0004020E000404000004040200040404000404060004040800040
310
40A0004040C0004040E00040600000406020004060400040606000406080004060A0004060C0004060E00040800000408020004080400040806000408080004080A0004080C0004080E00040A0000040A0200040A0400040A0600040A0800040A0A00040A0C00040A0E00040C0000040C0200040C0400040C0600040C08000
310
40C0A00040C0C00040C0E00040E0000040E0200040E0400040E0600040E0800040E0A00040E0C00040E0E00080000000800020008000400080006000800080008000A0008000C0008000E00080200000802020008020400080206000802080008020A0008020C0008020E00080400000804020008040400080406000804080
310
008040A0008040C0008040E00080600000806020008060400080606000806080008060A0008060C0008060E00080800000808020008080400080806000808080008080A0008080C0008080E00080A0000080A0200080A0400080A0600080A0800080A0A00080A0C00080A0E00080C0000080C0200080C0400080C0600080C0
310
800080C0A00080C0C00080C0E00080E0000080E0200080E0400080E0600080E0800080E0A00080E0C00080E0E000C0000000C0002000C0004000C0006000C0008000C000A000C000C000C000E000C0200000C0202000C0204000C0206000C0208000C020A000C020C000C020E000C0400000C0402000C0404000C0406000C0
310
408000C040A000C040C000C040E000C0600000C0602000C0604000C0606000C0608000C060A000C060C000C060E000C0800000C0802000C0804000C0806000C0808000C080A000C080C000C080E000C0A00000C0A02000C0A04000C0A06000C0A08000C0A0A000C0A0C000C0A0E000C0C00000C0C02000C0C04000C0C06000
310
C0C08000C0C0A000F0FBFF00A4A0A000808080000000FF0000FF000000FFFF00FF000000FF00FF00FFFF0000FFFFFF00FFFFFFFFFFFFFFFFFFFFFFFFFFFFFFFFFFFFFFFFFFFFFFFFFFFFFFFFFFFFFFFFFFFFFFFFFFFFFFFFFFFFFFFFFFFFFF0000FFFFFFFFFFFFFFFFFFFFFFFFFFFFFFFFFFFFFFFFFFFFFFFFFFFFFFFF0000
310
FF0000FFFFFFFFFFFFFFFFFFFFFFFFFFFFFFFFFFFFFFFFFFFFFFFFFFFFFF00FFFFFF0000FFFFFFFFFFFFFFFFFFFFFFFFFFFFFFFFFFFFFFFFFFFFFFFFFFFF00FFFFFFFF0000FFFFFFFFFFFFFFFFFFFFFFFFFFFFFFFFFFFFFFFFFFFFFFFF00FF00000000FF00FFFFFFFFFFFFFFFFFFFFFFFFFFFFFFFFFFFFFFFFFFFFFFFF0000
310
00FFFF00FF00FFFFFFFFFFFFFFFFFFFFFFFFFFFFFFFFFFFFFFFFFFFFFFFF0000FFFFFFFF0000FFFFFFFFFFFFFFFFFFFFFFFFFFFFFFFFFFFFFFFFFFFFFFFF0000FFFFFFFF0000FFFFFFFFFFFFFFFFFFFFFFFFFFFFFFFFFFFFFFFFFFFFFF00FF00FFFFFFFF00FF00FFFFFFFFFFFFFFFFFFFFFFFFFFFFFFFFFFFFFFFFFFFF0000
310
FFFFFFFFFF00FF00FFFFFFFFFFFFFFFFFFFFFFFFFFFFFFFFFFFFFFFFFFFF0000FFFFFFFFFFFF0000FFFFFFFFFFFFFFFFFFFFFFFFFFFFFFFFFFFFFFFFFFFF0000FFFFFFFFFFFF0000FFFFFFFFFFFFFFFFFFFFFFFFFFFFFFFFFFFFFFFFFFFF0000FFFFFFFFFFFF0000FFFFFFFFFFFFFFFFFFFFFFFFFFFFFFFFFFFFFFFFFFFF00
310
00FFFFFFFFFFFF0000FFFFFFFFFFFFFFFFFFFFFFFFFFFFFFFFFFFFFFFFFFFF0000FFFFFFFFFFFF0000FFFFFFFFFFFFFFFFFFFFFFFFFFFFFFFFFFFFFFFFFFFF0000FFFFFFFFFFFF0000FFFFFFFFFFFFFFFFFFFFFFFFFFFFFFFFFFFFFFFFFFFF0000FFFFFFFFFFFF0000FFFFFFFFFFFFFFFFFFFFFFFFFFFFFFFFFFFFFFFFFFFF
310
0000FFFFFFFFFFFF0000FFFFFFFFFFFFFFFFFFFFFFFFFFFFFFFFFFFFFFFFFFFF0000FFFFFFFFFFFF0000FFFFFFFFFFFFFFFFFFFFFFFFFFFFFFFFFFFFFFFFFFFF0000FFFFFFFFFFFF0000FFFFFFFFFFFFFFFFFFFFFFFFFFFFFFFFFFFFFFFFFFFF00FF00FFFFFFFF00FF00FFFFFFFFFFFFFFFFFFFFFFFFFFFFFFFFFFFFFFFFFF
310
FF00FF00FFFFFFFF00FF00FFFFFFFFFFFFFFFFFFFFFFFFFFFFFFFFFFFFFFFFFFFF00FF00FFFFFFFF00FF00FFFFFFFFFFFFFFFFFFFFFFFFFFFFFFFFFFFFFFFFFFFFFF0000FFFFFFFF0000FFFFFFFFFFFFFFFFFFFFFFFFFFFFFFFFFFFFFFFFFFFFFFFF00FF00FFFF00FF00FFFFFFFFFFFFFFFFFFFFFFFFFFFFFFFFFFFFFFFFFF
310
FFFFFF00FF00000000FF00FFFFFFFFFFFFFFFFFFFFFFFFFFFFFFFFFFFFFFFFFFFFFFFFFF00FFFFFFFF0000FFFFFFFFFFFFFFFFFFFFFFFFFFFFFFFFFFFFFFFFFFFFFFFFFF00FFFFFFFF00FFFFFFFFFFFFFFFFFFFFFFFFFFFFFFFFFFFFFFFFFFFFFFFFFFFFFF00000000FFFFFFFFFFFFFFFFFFFFFFFFFFFFFFFFFFFFFFFFFFFF
310
FFFFFFFFFFFFFF0000FFFFFFFFFFFFFFFFFFFFFFFFFFFFFFFFFFFFFFFFFFFFFFFFFFFFFFFFFFFFFFFFFFFFFFFFFFFFFFFFFFFFFFFFFFFFFF
102
{BLKREFS
331
269E
102
}
  0
BLOCK_RECORD
  5
2671
330
23DB
100
AcDbSymbolTableRecord
100
AcDbBlockTableRecord
  2
AI9-BLK8
340
0
310
2800000020000000200000000100080000000000000400000000000000000000000000000000000000000000000080000080000000808000800000008000800080800000C0C0C000C0DCC000F0CAA6000020400000206000002080000020A0000020C0000020E00000400000004020000040400000406000004080000040A0
310
000040C0000040E00000600000006020000060400000606000006080000060A0000060C0000060E00000800000008020000080400000806000008080000080A0000080C0000080E00000A0000000A0200000A0400000A0600000A0800000A0A00000A0C00000A0E00000C0000000C0200000C0400000C0600000C0800000C0
310
A00000C0C00000C0E00000E0000000E0200000E0400000E0600000E0800000E0A00000E0C00000E0E00040000000400020004000400040006000400080004000A0004000C0004000E00040200000402020004020400040206000402080004020A0004020C0004020E000404000004040200040404000404060004040800040
310
40A0004040C0004040E00040600000406020004060400040606000406080004060A0004060C0004060E00040800000408020004080400040806000408080004080A0004080C0004080E00040A0000040A0200040A0400040A0600040A0800040A0A00040A0C00040A0E00040C0000040C0200040C0400040C0600040C08000
310
40C0A00040C0C00040C0E00040E0000040E0200040E0400040E0600040E0800040E0A00040E0C00040E0E00080000000800020008000400080006000800080008000A0008000C0008000E00080200000802020008020400080206000802080008020A0008020C0008020E00080400000804020008040400080406000804080
310
008040A0008040C0008040E00080600000806020008060400080606000806080008060A0008060C0008060E00080800000808020008080400080806000808080008080A0008080C0008080E00080A0000080A0200080A0400080A0600080A0800080A0A00080A0C00080A0E00080C0000080C0200080C0400080C0600080C0
310
800080C0A00080C0C00080C0E00080E0000080E0200080E0400080E0600080E0800080E0A00080E0C00080E0E000C0000000C0002000C0004000C0006000C0008000C000A000C000C000C000E000C0200000C0202000C0204000C0206000C0208000C020A000C020C000C020E000C0400000C0402000C0404000C0406000C0
310
408000C040A000C040C000C040E000C0600000C0602000C0604000C0606000C0608000C060A000C060C000C060E000C0800000C0802000C0804000C0806000C0808000C080A000C080C000C080E000C0A00000C0A02000C0A04000C0A06000C0A08000C0A0A000C0A0C000C0A0E000C0C00000C0C02000C0C04000C0C06000
310
C0C08000C0C0A000F0FBFF00A4A0A000808080000000FF0000FF000000FFFF00FF000000FF00FF00FFFF0000FFFFFF00FFFFFFFFFFFFFFFFFFFFFFFFFFFFFFFFFFFFFFFFFFFFFFFFFFFFFFFFFFFFFFFFFFFFFFFFFFFFFFFFFFFFFF0000FFFFFFFFFFFF0000FFFFFFFFFFFFFFFFFFFFFFFFFFFFFFFFFFFFFFFFFFFF0000FFFF
310
FFFFFFFF0000FFFFFFFFFFFFFFFFFFFFFFFFFFFFFFFFFFFFFFFFFFFF0000FFFFFFFFFF00FF00FFFFFFFFFFFFFFFFFFFFFFFFFFFFFFFFFFFFFFFFFFFF0000FFFFFFFFFF00FF00FFFFFFFFFFFFFFFFFFFFFFFFFFFFFFFFFFFFFFFFFFFF0000FFFFFFFFFF00FF00FFFFFFFFFFFFFFFFFFFFFFFFFFFFFFFFFFFFFFFFFFFF0000FF
310
FFFFFF00FFFF00FFFFFFFFFFFFFFFFFFFFFFFFFFFFFFFFFFFFFFFFFFFF0000FFFFFFFF00FF0000FFFFFFFFFFFFFFFFFFFFFFFFFFFFFFFFFFFFFFFFFFFF0000FFFFFFFF00FF0000FFFFFFFFFFFFFFFFFFFFFFFFFFFFFFFFFFFFFFFFFFFF0000FFFFFFFF00000000FFFFFFFFFFFFFFFFFFFFFFFFFFFFFFFFFFFFFFFFFFFF0000
310
FFFFFF00FF000000FFFFFFFFFFFFFFFFFFFFFFFFFFFFFFFFFFFFFFFFFFFF0000FFFFFF00FF000000FFFFFFFFFFFFFFFFFFFFFFFFFFFFFFFFFFFFFFFFFFFF0000FFFFFF00FF000000FFFFFFFFFFFFFFFFFFFFFFFFFFFFFFFFFFFFFFFFFFFF0000FFFF00FF00FF0000FFFFFFFFFFFFFFFFFFFFFFFFFFFFFFFFFFFFFFFFFFFF00
310
00FFFF00FF00FF0000FFFFFFFFFFFFFFFFFFFFFFFFFFFFFFFFFFFFFFFFFFFF0000FFFF00FF00FF0000FFFFFFFFFFFFFFFFFFFFFFFFFFFFFFFFFFFFFFFFFFFF0000FF00FFFF00FF0000FFFFFFFFFFFFFFFFFFFFFFFFFFFFFFFFFFFFFFFFFFFF0000FF00FF00FFFF0000FFFFFFFFFFFFFFFFFFFFFFFFFFFFFFFFFFFFFFFFFFFF
310
0000FF00FF00FFFF0000FFFFFFFFFFFFFFFFFFFFFFFFFFFFFFFFFFFFFFFFFFFF0000FF00FF00FFFF0000FFFFFFFFFFFFFFFFFFFFFFFFFFFFFFFFFFFFFFFFFFFF000000FFFF00FFFF0000FFFFFFFFFFFFFFFFFFFFFFFFFFFFFFFFFFFFFFFFFFFF000000FF00FFFFFF0000FFFFFFFFFFFFFFFFFFFFFFFFFFFFFFFFFFFFFFFFFF
310
FF000000FF00FFFFFF0000FFFFFFFFFFFFFFFFFFFFFFFFFFFFFFFFFFFFFFFFFFFF0000FFFF00FFFFFF0000FFFFFFFFFFFFFFFFFFFFFFFFFFFFFFFFFFFFFFFFFFFF0000FFFF00FFFFFF0000FFFFFFFFFFFFFFFFFFFFFFFFFFFFFFFFFFFFFFFFFFFF00FFFF00FFFFFFFF0000FFFFFFFFFFFFFFFFFFFFFFFFFFFFFFFFFFFFFFFF
310
FFFF00FFFF00FFFFFFFF0000FFFFFFFFFFFFFFFFFFFFFFFFFFFFFFFFFFFFFFFFFFFF00FFFF00FFFFFFFF0000FFFFFFFFFFFFFFFFFFFFFFFFFFFFFFFFFFFFFFFFFFFF00FFFF00FFFFFFFF0000FFFFFFFFFFFFFFFFFFFFFFFFFFFFFFFFFFFFFFFFFFFF00FF00FFFFFFFFFF0000FFFFFFFFFFFFFFFFFFFFFFFFFFFFFFFFFFFFFF
310
FFFFFF000000FFFFFFFFFF0000FFFFFFFFFFFFFFFFFFFFFFFFFFFFFFFFFFFFFFFFFFFFFFFFFFFFFFFFFFFFFFFFFFFFFFFFFFFFFFFFFFFFFF
102
{BLKREFS
331
269F
102
}
  0
BLOCK_RECORD
  5
2676
330
23DB
100
AcDbSymbolTableRecord
100
AcDbBlockTableRecord
  2
AI9-BLK7
340
0
310
2800000020000000200000000100080000000000000400000000000000000000000000000000000000000000000080000080000000808000800000008000800080800000C0C0C000C0DCC000F0CAA6000020400000206000002080000020A0000020C0000020E00000400000004020000040400000406000004080000040A0
310
000040C0000040E00000600000006020000060400000606000006080000060A0000060C0000060E00000800000008020000080400000806000008080000080A0000080C0000080E00000A0000000A0200000A0400000A0600000A0800000A0A00000A0C00000A0E00000C0000000C0200000C0400000C0600000C0800000C0
310
A00000C0C00000C0E00000E0000000E0200000E0400000E0600000E0800000E0A00000E0C00000E0E00040000000400020004000400040006000400080004000A0004000C0004000E00040200000402020004020400040206000402080004020A0004020C0004020E000404000004040200040404000404060004040800040
310
40A0004040C0004040E00040600000406020004060400040606000406080004060A0004060C0004060E00040800000408020004080400040806000408080004080A0004080C0004080E00040A0000040A0200040A0400040A0600040A0800040A0A00040A0C00040A0E00040C0000040C0200040C0400040C0600040C08000
310
40C0A00040C0C00040C0E00040E0000040E0200040E0400040E0600040E0800040E0A00040E0C00040E0E00080000000800020008000400080006000800080008000A0008000C0008000E00080200000802020008020400080206000802080008020A0008020C0008020E00080400000804020008040400080406000804080
310
008040A0008040C0008040E00080600000806020008060400080606000806080008060A0008060C0008060E00080800000808020008080400080806000808080008080A0008080C0008080E00080A0000080A0200080A0400080A0600080A0800080A0A00080A0C00080A0E00080C0000080C0200080C0400080C0600080C0
310
800080C0A00080C0C00080C0E00080E0000080E0200080E0400080E0600080E0800080E0A00080E0C00080E0E000C0000000C0002000C0004000C0006000C0008000C000A000C000C000C000E000C0200000C0202000C0204000C0206000C0208000C020A000C020C000C020E000C0400000C0402000C0404000C0406000C0
310
408000C040A000C040C000C040E000C0600000C0602000C0604000C0606000C0608000C060A000C060C000C060E000C0800000C0802000C0804000C0806000C0808000C080A000C080C000C080E000C0A00000C0A02000C0A04000C0A06000C0A08000C0A0A000C0A0C000C0A0E000C0C00000C0C02000C0C04000C0C06000
310
C0C08000C0C0A000F0FBFF00A4A0A000808080000000FF0000FF000000FFFF00FF000000FF00FF00FFFF0000FFFFFF00FFFFFFFFFFFFFFFFFFFFFFFFFFFFFFFFFFFFFFFFFFFFFFFFFFFFFFFFFFFFFFFFFFFFFFFFFFFFFFFFFFFFFFFFFFFFFF0000FFFFFFFFFFFFFFFFFFFFFFFFFFFFFFFFFFFFFFFFFFFFFFFFFFFFFFFFFFFF
310
0000FFFFFFFFFFFFFFFFFFFFFFFFFFFFFFFFFFFFFFFFFFFFFFFFFFFFFFFFFFFF0000FFFFFFFFFFFFFFFFFFFFFFFFFFFFFFFFFFFFFFFFFFFFFFFFFFFFFFFFFFFF0000FFFFFFFFFFFFFFFFFFFFFFFFFFFFFFFFFFFFFFFFFFFFFFFFFFFFFFFFFFFF0000FFFFFFFFFFFFFFFFFFFFFFFFFFFFFFFFFFFFFFFFFFFFFFFFFFFFFFFFFF
310
FF0000FFFFFFFFFFFFFFFFFFFFFFFFFFFFFFFFFFFFFFFFFFFFFFFFFFFFFFFFFFFF0000FFFFFFFFFFFFFFFFFFFFFFFFFFFFFFFFFFFFFFFFFFFFFFFFFFFFFFFFFFFF0000FFFFFFFFFFFFFFFFFFFFFFFFFFFFFFFFFFFFFFFFFFFFFFFFFFFFFFFFFFFF0000FFFFFFFFFFFFFFFFFFFFFFFFFFFFFFFFFFFFFFFFFFFFFFFFFFFFFFFF
310
FFFF0000FFFFFFFFFFFFFFFFFFFFFFFFFFFFFFFFFFFFFFFFFFFFFFFFFFFFFFFFFFFF0000FFFFFFFFFFFFFFFFFFFFFFFFFFFFFFFFFFFFFFFFFFFFFFFFFFFFFFFFFFFF0000FFFFFFFFFFFFFFFFFFFFFFFFFFFFFFFFFFFFFFFFFFFFFFFFFFFFFFFFFFFF0000FFFFFFFFFFFFFFFFFFFFFFFFFFFFFFFFFFFFFFFFFFFFFFFFFFFFFF
310
FFFFFF0000FFFFFFFFFFFFFFFFFFFFFFFFFFFFFFFFFFFFFFFFFFFFFFFFFFFFFFFFFFFF0000FFFFFFFFFFFFFFFFFFFFFFFFFFFFFFFFFFFFFFFFFFFFFFFFFFFFFFFFFFFF0000FFFFFFFFFFFFFFFFFFFFFFFFFFFFFFFFFFFFFFFFFFFFFFFFFFFFFFFFFFFF0000FFFFFFFFFFFFFFFFFFFFFFFFFFFFFFFFFFFFFFFFFFFFFFFFFFFF
310
FFFFFFFF0000FFFFFFFFFFFFFFFFFFFFFFFFFFFFFFFFFFFFFFFFFFFFFFFFFFFFFFFFFFFF0000FFFFFFFFFFFFFFFFFFFFFFFFFFFFFFFFFFFFFFFFFFFFFFFFFFFFFFFFFFFF0000FFFFFFFFFFFFFFFFFFFFFFFFFFFFFFFFFFFFFFFFFFFFFFFFFFFFFFFFFFFF0000FFFFFFFFFFFFFFFFFFFFFFFFFFFFFFFFFFFFFFFFFFFFFFFFFF
310
FFFFFFFFFF0000FFFFFFFFFFFFFFFFFFFFFFFFFFFFFFFFFFFFFFFFFFFFFFFFFFFFFFFFFFFF0000FFFFFFFFFFFFFFFFFFFFFFFFFFFFFFFFFFFFFFFFFFFFFFFFFFFFFFFFFFFF0000FFFFFFFFFFFFFFFFFFFFFFFFFFFFFFFFFFFFFFFFFFFFFFFFFFFFFFFFFFFF0000FFFFFFFFFFFFFFFFFFFFFFFFFFFFFFFFFFFFFFFFFFFFFFFF
310
FFFFFFFFFFFF0000FFFFFFFFFFFFFFFFFFFFFFFFFFFFFFFFFFFFFFFFFFFFFFFFFFFFFFFFFFFF0000FFFFFFFFFFFFFFFFFFFFFFFFFFFFFFFFFFFFFFFFFFFFFFFFFFFFFFFFFFFF0000FFFFFFFFFFFFFFFFFFFFFFFFFFFFFFFFFFFFFFFFFFFFFFFFFFFFFFFFFFFF0000FFFFFFFFFFFFFFFFFFFFFFFFFFFFFFFFFFFFFFFFFFFFFF
310
FFFFFFFFFFFFFF0000FFFFFFFFFFFFFFFFFFFFFFFFFFFFFFFFFFFFFFFFFFFFFFFFFFFFFFFFFFFFFFFFFFFFFFFFFFFFFFFFFFFFFFFFFFFFFF
102
{BLKREFS
331
26A0
102
}
  0
BLOCK_RECORD
  5
267B
330
23DB
100
AcDbSymbolTableRecord
100
AcDbBlockTableRecord
  2
AI9-BLK6
340
0
310
2800000020000000200000000100080000000000000400000000000000000000000000000000000000000000000080000080000000808000800000008000800080800000C0C0C000C0DCC000F0CAA6000020400000206000002080000020A0000020C0000020E00000400000004020000040400000406000004080000040A0
310
000040C0000040E00000600000006020000060400000606000006080000060A0000060C0000060E00000800000008020000080400000806000008080000080A0000080C0000080E00000A0000000A0200000A0400000A0600000A0800000A0A00000A0C00000A0E00000C0000000C0200000C0400000C0600000C0800000C0
310
A00000C0C00000C0E00000E0000000E0200000E0400000E0600000E0800000E0A00000E0C00000E0E00040000000400020004000400040006000400080004000A0004000C0004000E00040200000402020004020400040206000402080004020A0004020C0004020E000404000004040200040404000404060004040800040
310
40A0004040C0004040E00040600000406020004060400040606000406080004060A0004060C0004060E00040800000408020004080400040806000408080004080A0004080C0004080E00040A0000040A0200040A0400040A0600040A0800040A0A00040A0C00040A0E00040C0000040C0200040C0400040C0600040C08000
310
40C0A00040C0C00040C0E00040E0000040E0200040E0400040E0600040E0800040E0A00040E0C00040E0E00080000000800020008000400080006000800080008000A0008000C0008000E00080200000802020008020400080206000802080008020A0008020C0008020E00080400000804020008040400080406000804080
310
008040A0008040C0008040E00080600000806020008060400080606000806080008060A0008060C0008060E00080800000808020008080400080806000808080008080A0008080C0008080E00080A0000080A0200080A0400080A0600080A0800080A0A00080A0C00080A0E00080C0000080C0200080C0400080C0600080C0
310
800080C0A00080C0C00080C0E00080E0000080E0200080E0400080E0600080E0800080E0A00080E0C00080E0E000C0000000C0002000C0004000C0006000C0008000C000A000C000C000C000E000C0200000C0202000C0204000C0206000C0208000C020A000C020C000C020E000C0400000C0402000C0404000C0406000C0
310
408000C040A000C040C000C040E000C0600000C0602000C0604000C0606000C0608000C060A000C060C000C060E000C0800000C0802000C0804000C0806000C0808000C080A000C080C000C080E000C0A00000C0A02000C0A04000C0A06000C0A08000C0A0A000C0A0C000C0A0E000C0C00000C0C02000C0C04000C0C06000
310
C0C08000C0C0A000F0FBFF00A4A0A000808080000000FF0000FF000000FFFF00FF000000FF00FF00FFFF0000FFFFFF00FFFFFFFFFFFFFFFFFFFFFFFF00FFFFFFFFFFFFFF00FFFFFFFFFFFFFFFFFFFFFFFFFFFFFFFFFFFFFFFFFFFFFF00FFFFFFFFFFFFFF00FFFFFFFFFFFFFFFFFFFFFFFFFFFFFFFFFFFFFFFFFFFFFF00FFFF
310
FFFFFFFFFF00FFFFFFFFFFFFFFFFFFFFFFFFFFFFFFFFFFFFFFFFFFFF00FFFFFFFFFFFFFFFF00FFFFFFFFFFFFFFFFFFFFFFFFFFFFFFFFFFFFFFFFFFFF00FFFFFFFFFFFFFF00FFFFFFFFFFFFFFFFFFFFFFFFFFFFFFFFFFFFFFFFFFFFFF00FFFFFFFFFFFFFF00FFFFFFFFFFFFFFFFFFFFFFFFFFFFFFFFFFFFFFFFFFFF00FFFFFF
310
FFFFFFFFFF00FFFFFFFFFFFFFFFFFFFFFFFFFFFFFFFFFFFFFFFFFFFF00FFFFFFFFFFFFFF00FFFFFFFFFFFFFFFFFFFFFFFFFFFFFFFFFFFFFFFFFFFF00FFFFFFFFFFFFFFFF00FFFFFFFFFFFFFFFFFFFFFFFFFFFFFFFFFFFFFFFFFF00FFFFFFFFFFFFFFFFFF00FFFFFFFFFFFFFFFFFFFFFFFFFFFFFFFFFFFFFFFF00FFFFFFFFFF
310
FFFFFFFFFF00FFFFFFFFFFFFFFFFFFFFFFFFFFFFFFFFFFFFFF00FFFFFFFFFFFFFFFFFFFF00FFFFFFFFFFFFFFFFFFFFFFFFFFFFFFFFFFFF0000FFFFFFFFFFFFFFFFFFFFFF00FFFFFFFFFFFFFFFFFFFFFFFFFFFF00000000FFFFFFFFFFFFFFFFFFFFFFFFFF00FFFFFFFFFFFFFFFFFFFFFFFFFFFFFFFFFFFFFFFFFFFFFFFFFFFF
310
FFFFFFFF00FFFFFFFFFFFFFFFFFFFFFFFFFFFFFFFFFFFFFFFFFFFFFFFFFFFFFFFFFFFFFF00FFFFFFFFFFFFFFFFFFFFFFFFFFFFFFFFFFFFFFFFFFFFFFFFFFFFFFFFFFFFFF00FFFFFFFFFFFFFFFFFFFFFFFFFFFFFFFFFFFFFFFFFFFFFFFFFFFFFFFFFFFF00FFFFFFFFFFFFFFFFFFFFFFFFFFFFFFFFFFFFFFFFFFFFFFFFFFFFFF
310
FFFFFFFF00FFFFFFFFFFFFFFFFFFFFFFFFFFFFFFFFFFFFFFFFFFFFFFFFFFFFFFFFFFFF00FFFFFFFFFFFFFFFFFFFFFFFFFFFFFFFFFFFFFFFFFFFFFFFFFFFFFFFFFFFF00FFFFFFFFFFFFFFFFFFFFFFFFFFFFFFFFFFFFFFFFFFFFFFFFFFFFFFFFFFFF00FFFFFFFFFFFFFFFFFFFFFFFFFFFFFFFFFFFFFFFFFFFFFFFFFFFFFFFFFF
310
FF00FFFFFFFFFFFFFFFFFFFFFFFFFFFFFFFFFFFFFFFFFFFFFFFFFFFFFFFFFFFFFF00FFFFFFFFFFFFFFFFFFFFFFFFFFFFFFFFFFFFFFFFFFFFFFFFFFFFFFFFFFFF00FFFFFFFFFFFFFFFFFFFFFFFFFFFFFFFFFFFFFFFFFFFFFFFFFFFFFFFFFF0000FFFFFFFFFFFFFFFFFFFFFFFFFFFFFFFFFFFFFFFFFFFFFFFFFFFFFFFF0000FF
310
FFFFFFFFFFFFFFFFFFFFFFFFFFFFFFFFFFFFFFFFFFFFFFFFFF00000000FFFFFFFFFFFFFFFFFFFFFFFFFFFFFFFFFFFFFFFFFFFFFFFFFFFF0000FFFFFFFFFFFFFFFFFFFFFFFFFFFFFFFFFFFFFFFFFFFFFFFFFFFFFFFFFFFFFFFFFFFFFFFFFFFFFFFFFFFFFFFFFFFFFFFFFFFFFFFFFFFFFFFFFFFFFFFFFFFFFFFFFFFFFFFFFFFF
310
FFFFFFFFFFFFFFFFFFFFFFFFFFFFFFFFFFFFFFFFFFFFFFFFFFFFFFFFFFFFFFFFFFFFFFFFFFFFFFFFFFFFFFFFFFFFFFFFFFFFFFFFFFFFFFFF
102
{BLKREFS
331
26A1
102
}
  0
BLOCK_RECORD
  5
267F
330
23DB
100
AcDbSymbolTableRecord
100
AcDbBlockTableRecord
  2
AI9-BLK5
340
0
310
2800000020000000200000000100080000000000000400000000000000000000000000000000000000000000000080000080000000808000800000008000800080800000C0C0C000C0DCC000F0CAA6000020400000206000002080000020A0000020C0000020E00000400000004020000040400000406000004080000040A0
310
000040C0000040E00000600000006020000060400000606000006080000060A0000060C0000060E00000800000008020000080400000806000008080000080A0000080C0000080E00000A0000000A0200000A0400000A0600000A0800000A0A00000A0C00000A0E00000C0000000C0200000C0400000C0600000C0800000C0
310
A00000C0C00000C0E00000E0000000E0200000E0400000E0600000E0800000E0A00000E0C00000E0E00040000000400020004000400040006000400080004000A0004000C0004000E00040200000402020004020400040206000402080004020A0004020C0004020E000404000004040200040404000404060004040800040
310
40A0004040C0004040E00040600000406020004060400040606000406080004060A0004060C0004060E00040800000408020004080400040806000408080004080A0004080C0004080E00040A0000040A0200040A0400040A0600040A0800040A0A00040A0C00040A0E00040C0000040C0200040C0400040C0600040C08000
310
40C0A00040C0C00040C0E00040E0000040E0200040E0400040E0600040E0800040E0A00040E0C00040E0E00080000000800020008000400080006000800080008000A0008000C0008000E00080200000802020008020400080206000802080008020A0008020C0008020E00080400000804020008040400080406000804080
310
008040A0008040C0008040E00080600000806020008060400080606000806080008060A0008060C0008060E00080800000808020008080400080806000808080008080A0008080C0008080E00080A0000080A0200080A0400080A0600080A0800080A0A00080A0C00080A0E00080C0000080C0200080C0400080C0600080C0
310
800080C0A00080C0C00080C0E00080E0000080E0200080E0400080E0600080E0800080E0A00080E0C00080E0E000C0000000C0002000C0004000C0006000C0008000C000A000C000C000C000E000C0200000C0202000C0204000C0206000C0208000C020A000C020C000C020E000C0400000C0402000C0404000C0406000C0
310
408000C040A000C040C000C040E000C0600000C0602000C0604000C0606000C0608000C060A000C060C000C060E000C0800000C0802000C0804000C0806000C0808000C080A000C080C000C080E000C0A00000C0A02000C0A04000C0A06000C0A08000C0A0A000C0A0C000C0A0E000C0C00000C0C02000C0C04000C0C06000
310
C0C08000C0C0A000F0FBFF00A4A0A000808080000000FF0000FF000000FFFF00FF000000FF00FF00FFFF0000FFFFFF00FFFFFFFFFFFFFFFFFFFFFFFFFFFFFFFFFFFFFFFFFFFFFFFFFFFFFFFFFFFFFFFFFFFFFFFFFFFFFFFF000000000000000000000000000000000000000000000000FFFFFFFFFFFFFFFF00FFFFFFFFFFFF
310
FFFFFFFFFFFFFFFFFFFFFFFFFFFFFFFFFFFFFFFFFFFFFFFFFF00FFFFFFFFFFFFFFFFFFFFFFFFFFFFFFFFFFFFFFFFFFFFFFFFFFFFFFFFFFFFFF00FFFFFFFFFFFFFFFFFFFFFFFFFFFFFFFFFFFFFFFFFFFFFFFFFFFFFFFFFFFFFF00FFFFFFFFFFFFFFFFFFFFFFFFFFFFFFFFFFFFFFFFFFFFFFFFFFFFFFFFFFFFFF00FFFFFFFFFF
310
FFFFFFFFFFFFFFFFFFFFFFFFFFFFFFFFFFFFFFFFFFFFFFFFFFFF00FFFFFFFFFFFFFFFFFFFFFFFFFFFFFFFFFFFFFFFFFFFFFFFFFFFFFFFFFFFFFF00FFFFFFFFFFFFFFFFFFFFFFFFFFFFFFFFFFFFFFFFFFFFFFFFFFFFFFFFFFFFFF00FFFFFFFFFFFFFFFFFFFFFFFFFFFFFFFFFFFFFFFFFFFFFFFFFFFFFFFFFFFFFF00FFFFFFFF
310
FFFFFFFFFFFFFFFFFFFFFFFFFFFFFFFFFFFFFFFFFFFFFFFFFFFFFF00FFFFFFFFFFFFFFFFFFFFFFFFFFFFFFFFFFFFFFFFFFFFFFFFFFFFFFFFFFFFFF00FFFFFFFFFFFFFFFFFFFFFFFFFFFFFFFFFFFFFFFFFFFFFFFFFFFFFFFFFFFFFF00FFFFFFFFFFFFFFFFFFFFFFFFFFFFFFFFFFFFFFFFFFFFFFFFFFFFFFFFFFFFFF00FFFFFF
310
FFFFFFFFFFFFFFFFFFFFFFFFFFFFFFFFFFFFFFFFFFFFFFFFFFFFFFFF00FFFFFFFFFFFFFFFFFFFFFFFFFFFFFFFFFFFFFFFFFFFFFFFFFFFFFFFFFFFFFF00FFFFFFFFFFFFFFFFFFFFFFFFFFFFFFFFFFFFFFFFFFFFFFFFFFFFFFFFFFFFFF00FFFFFFFFFFFFFFFFFFFFFFFFFFFFFFFFFFFFFFFFFFFFFFFFFFFFFFFFFFFFFF00FFFF
310
FFFFFFFFFFFFFFFFFFFFFFFFFFFFFFFFFFFFFFFFFFFFFFFFFFFFFFFFFF00FFFFFFFFFFFFFFFFFFFFFFFFFFFFFFFFFFFFFFFFFFFFFFFFFFFFFFFFFFFFFF00FFFFFFFFFFFFFFFFFFFFFFFFFFFFFFFFFFFFFFFFFFFFFFFFFFFFFFFFFFFFFF00FFFFFFFFFFFFFFFFFFFFFFFFFFFFFFFFFFFFFFFFFFFFFFFFFFFFFFFFFFFFFF00FF
310
FFFFFFFFFFFFFFFFFFFFFFFFFFFFFFFFFFFFFFFFFFFFFFFFFFFFFFFFFFFF00FFFFFFFFFFFFFFFFFFFFFFFFFFFFFFFFFFFFFFFFFFFFFFFFFFFFFFFFFFFFFF00FFFFFFFFFFFFFFFFFFFFFFFFFFFFFFFFFFFFFFFFFFFFFFFFFFFFFFFFFFFFFF00FFFFFFFFFFFFFFFFFFFFFFFFFFFFFFFFFFFFFFFFFFFFFFFFFFFFFFFFFFFFFF00
310
FFFFFFFFFFFFFFFFFFFFFFFFFFFFFFFFFFFFFFFFFFFFFFFFFFFFFFFFFFFFFF00FFFFFFFFFFFFFFFFFFFFFFFFFFFFFFFFFFFFFFFFFFFFFFFFFFFFFFFFFFFFFF00FFFFFFFFFFFFFFFFFFFFFFFFFFFFFFFFFFFFFFFFFFFFFFFFFFFFFFFFFFFFFF00FFFFFFFFFFFFFFFFFFFFFFFFFFFFFFFFFFFFFFFFFFFFFFFFFFFFFFFFFFFFFF
310
00FFFFFFFFFFFFFFFFFFFFFFFFFFFF000000000000000000FFFFFFFFFFFFFFFF00FFFFFFFFFFFFFFFFFFFFFFFFFFFF00FFFFFFFFFFFFFFFF
102
{BLKREFS
331
26A2
102
}
  0
BLOCK_RECORD
  5
2684
330
23DB
100
AcDbSymbolTableRecord
100
AcDbBlockTableRecord
  2
AI9-BLK4
340
0
310
2800000020000000200000000100080000000000000400000000000000000000000000000000000000000000000080000080000000808000800000008000800080800000C0C0C000C0DCC000F0CAA6000020400000206000002080000020A0000020C0000020E00000400000004020000040400000406000004080000040A0
310
000040C0000040E00000600000006020000060400000606000006080000060A0000060C0000060E00000800000008020000080400000806000008080000080A0000080C0000080E00000A0000000A0200000A0400000A0600000A0800000A0A00000A0C00000A0E00000C0000000C0200000C0400000C0600000C0800000C0
310
A00000C0C00000C0E00000E0000000E0200000E0400000E0600000E0800000E0A00000E0C00000E0E00040000000400020004000400040006000400080004000A0004000C0004000E00040200000402020004020400040206000402080004020A0004020C0004020E000404000004040200040404000404060004040800040
310
40A0004040C0004040E00040600000406020004060400040606000406080004060A0004060C0004060E00040800000408020004080400040806000408080004080A0004080C0004080E00040A0000040A0200040A0400040A0600040A0800040A0A00040A0C00040A0E00040C0000040C0200040C0400040C0600040C08000
310
40C0A00040C0C00040C0E00040E0000040E0200040E0400040E0600040E0800040E0A00040E0C00040E0E00080000000800020008000400080006000800080008000A0008000C0008000E00080200000802020008020400080206000802080008020A0008020C0008020E00080400000804020008040400080406000804080
310
008040A0008040C0008040E00080600000806020008060400080606000806080008060A0008060C0008060E00080800000808020008080400080806000808080008080A0008080C0008080E00080A0000080A0200080A0400080A0600080A0800080A0A00080A0C00080A0E00080C0000080C0200080C0400080C0600080C0
310
800080C0A00080C0C00080C0E00080E0000080E0200080E0400080E0600080E0800080E0A00080E0C00080E0E000C0000000C0002000C0004000C0006000C0008000C000A000C000C000C000E000C0200000C0202000C0204000C0206000C0208000C020A000C020C000C020E000C0400000C0402000C0404000C0406000C0
310
408000C040A000C040C000C040E000C0600000C0602000C0604000C0606000C0608000C060A000C060C000C060E000C0800000C0802000C0804000C0806000C0808000C080A000C080C000C080E000C0A00000C0A02000C0A04000C0A06000C0A08000C0A0A000C0A0C000C0A0E000C0C00000C0C02000C0C04000C0C06000
310
C0C08000C0C0A000F0FBFF00A4A0A000808080000000FF0000FF000000FFFF00FF000000FF00FF00FFFF0000FFFFFF00FFFFFFFFFFFFFFFFFFFFFFFFFFFFFFFFFFFFFFFFFFFFFFFFFFFFFFFFFFFFFFFFFFFFFFFFFFFFFFFFFFFFFFFFFFFF00000000FFFFFFFFFFFFFFFFFFFFFF000000FFFFFFFFFFFFFFFFFFFFFFFFFFFF00
310
FFFF00FFFFFFFFFFFFFFFFFFFFFF00FFFFFFFFFFFFFFFFFFFFFFFFFFFFFFFF00FFFF00FFFFFFFFFFFFFFFFFFFFFF00FFFFFFFFFFFFFFFFFFFFFFFFFFFFFFFF00FFFF00FFFFFFFFFFFFFFFFFFFFFF00FFFFFFFFFFFFFFFFFFFFFFFFFFFFFFFF00FFFF00FFFFFFFFFFFFFFFFFFFFFF00FFFFFFFFFFFFFFFFFFFFFFFFFFFFFFFF
310
00FFFF00FFFFFFFFFFFFFFFFFFFFFF00FFFFFFFFFFFFFFFFFFFFFFFFFFFFFFFF00FFFF00FFFFFFFFFFFFFFFFFFFFFF00FFFFFFFFFFFFFFFFFFFFFFFFFFFFFFFF00FFFF00FFFFFFFFFFFFFFFFFFFFFF00FFFFFFFFFFFFFFFFFFFFFFFFFFFFFFFF00FFFF00FFFFFFFFFFFFFFFFFFFFFF00FFFFFFFFFFFFFFFFFFFFFFFFFFFFFF
310
FF00FFFF00FFFFFFFFFFFFFFFFFFFFFF00FFFFFFFFFFFFFFFFFFFFFFFFFFFFFFFF00FFFF00FFFFFFFFFFFFFFFFFFFFFF00FFFFFFFFFFFFFFFFFFFFFFFFFFFFFFFF00FFFF00FFFFFFFFFFFFFFFFFFFFFF00FFFFFFFFFFFFFFFFFFFFFFFFFFFFFFFF00FFFF00FFFFFFFFFFFFFFFFFFFFFF00FFFFFFFFFFFFFFFFFFFFFFFFFFFF
310
FFFF00FFFF00FFFFFFFFFFFFFFFFFFFFFF00FFFFFFFFFFFFFFFFFFFFFFFFFFFFFFFF00FFFF00FFFFFFFFFFFFFFFFFFFFFF00FFFFFFFFFFFFFFFFFFFFFFFFFFFFFFFF00FFFF00FFFFFFFFFFFFFFFFFFFFFF00FFFFFFFFFFFFFFFFFFFFFFFFFFFFFFFF00FFFF00FFFFFFFFFFFFFFFFFFFF00FFFFFFFFFFFFFFFFFFFFFFFFFFFF
310
FFFFFF00FFFF00FFFFFFFFFFFFFFFFFFFF00FFFFFFFFFFFFFFFFFFFFFFFFFFFFFFFFFF00FFFF00FFFFFFFFFFFFFFFFFFFF00FFFFFFFFFFFFFFFFFFFFFFFFFFFFFFFFFF00FFFF00FFFFFFFFFFFFFFFFFFFF00FFFFFFFFFFFFFFFFFFFFFFFFFFFFFFFFFF00FFFF00FFFFFFFFFFFFFFFFFFFF00FFFFFFFFFFFFFFFFFFFFFFFFFF
310
FFFFFFFF00FFFF00FFFFFFFFFFFFFFFFFF0000FFFF00FFFFFFFFFFFFFFFFFFFFFFFFFFFF00FFFF00FFFFFFFFFFFFFFFF0000FFFFFF00FFFFFFFFFFFFFFFFFFFFFFFFFFFF00FFFF00000000000000000000FFFFFFFF00FFFFFFFFFFFFFFFFFFFFFFFFFFFF00FFFFFFFFFFFFFFFFFFFFFFFFFFFFFF00FFFFFFFFFFFFFFFFFFFF
310
FFFFFFFFFF00FFFFFFFFFFFFFFFFFFFFFFFFFFFF00FFFFFFFFFFFFFFFFFFFFFFFFFFFFFFFF00FFFFFFFFFFFFFFFFFFFFFFFFFFFF00FFFFFFFFFFFFFFFFFFFFFFFFFFFFFFFF00FFFFFFFFFFFFFFFFFFFFFFFFFFFFFF00FFFFFFFFFFFFFFFFFFFFFFFFFFFFFF00FFFFFFFFFFFFFFFFFFFFFFFFFFFFFF00FFFFFFFFFFFFFFFFFF
310
FFFFFFFFFFFF00FFFF00000000000000000000FFFFFFFF00FFFFFFFFFFFFFFFFFFFFFFFFFFFF00FFFF00FFFFFFFFFFFFFFFFFF0000FFFF00
102
{BLKREFS
331
26A3
102
}
  0
BLOCK_RECORD
  5
2689
330
23DB
100
AcDbSymbolTableRecord
100
AcDbBlockTableRecord
  2
AI9-BLK3
340
0
310
2800000020000000200000000100080000000000000400000000000000000000000000000000000000000000000080000080000000808000800000008000800080800000C0C0C000C0DCC000F0CAA6000020400000206000002080000020A0000020C0000020E00000400000004020000040400000406000004080000040A0
310
000040C0000040E00000600000006020000060400000606000006080000060A0000060C0000060E00000800000008020000080400000806000008080000080A0000080C0000080E00000A0000000A0200000A0400000A0600000A0800000A0A00000A0C00000A0E00000C0000000C0200000C0400000C0600000C0800000C0
310
A00000C0C00000C0E00000E0000000E0200000E0400000E0600000E0800000E0A00000E0C00000E0E00040000000400020004000400040006000400080004000A0004000C0004000E00040200000402020004020400040206000402080004020A0004020C0004020E000404000004040200040404000404060004040800040
310
40A0004040C0004040E00040600000406020004060400040606000406080004060A0004060C0004060E00040800000408020004080400040806000408080004080A0004080C0004080E00040A0000040A0200040A0400040A0600040A0800040A0A00040A0C00040A0E00040C0000040C0200040C0400040C0600040C08000
310
40C0A00040C0C00040C0E00040E0000040E0200040E0400040E0600040E0800040E0A00040E0C00040E0E00080000000800020008000400080006000800080008000A0008000C0008000E00080200000802020008020400080206000802080008020A0008020C0008020E00080400000804020008040400080406000804080
310
008040A0008040C0008040E00080600000806020008060400080606000806080008060A0008060C0008060E00080800000808020008080400080806000808080008080A0008080C0008080E00080A0000080A0200080A0400080A0600080A0800080A0A00080A0C00080A0E00080C0000080C0200080C0400080C0600080C0
310
800080C0A00080C0C00080C0E00080E0000080E0200080E0400080E0600080E0800080E0A00080E0C00080E0E000C0000000C0002000C0004000C0006000C0008000C000A000C000C000C000E000C0200000C0202000C0204000C0206000C0208000C020A000C020C000C020E000C0400000C0402000C0404000C0406000C0
310
408000C040A000C040C000C040E000C0600000C0602000C0604000C0606000C0608000C060A000C060C000C060E000C0800000C0802000C0804000C0806000C0808000C080A000C080C000C080E000C0A00000C0A02000C0A04000C0A06000C0A08000C0A0A000C0A0C000C0A0E000C0C00000C0C02000C0C04000C0C06000
310
C0C08000C0C0A000F0FBFF00A4A0A000808080000000FF0000FF000000FFFF00FF000000FF00FF00FFFF0000FFFFFF00FFFFFFFFFFFFFFFFFFFFFFFFFFFFFFFFFFFFFFFFFFFFFFFFFFFFFFFFFFFFFFFFFFFFFFFFFFFFFFFFFFFFFFFFFFFFFF0000FFFFFFFFFFFFFFFFFFFFFFFFFFFFFFFFFFFFFFFFFFFFFFFFFFFFFFFFFFFF
310
0000FFFFFFFFFFFFFFFFFFFFFFFFFFFFFFFFFFFFFFFFFFFFFFFFFFFFFFFFFFFF0000FFFFFFFFFFFFFFFFFFFFFFFFFFFFFFFFFFFFFFFFFFFFFFFFFFFFFFFFFFFF0000FFFFFFFFFFFFFFFFFFFFFFFFFFFFFFFFFFFFFFFFFFFFFFFFFFFFFFFFFFFF0000FFFFFFFFFFFFFFFFFFFFFFFFFFFFFFFFFFFFFFFFFFFFFFFFFFFFFFFFFF
310
FF0000FFFFFFFFFFFFFFFFFFFFFFFFFFFFFFFFFFFFFFFFFFFFFFFFFFFFFFFFFFFF0000FFFFFFFFFFFFFFFFFFFFFFFFFFFFFFFFFFFFFFFFFFFFFFFFFFFFFFFFFFFF0000FFFFFFFFFFFFFFFFFFFFFFFFFFFFFFFFFFFFFFFFFFFFFFFFFFFFFFFFFFFF0000FFFFFFFFFFFFFFFFFFFFFFFFFFFFFFFFFFFFFFFFFFFFFFFFFFFFFFFF
310
FFFF0000FFFFFFFFFFFFFFFFFFFFFFFFFFFFFFFFFFFFFFFFFFFFFFFFFFFFFFFFFFFF0000FFFFFFFFFFFFFFFFFFFFFFFFFFFFFFFFFFFFFFFFFFFFFFFFFFFFFFFFFFFF0000FFFFFFFFFFFFFFFFFFFFFFFFFFFFFFFFFFFFFFFFFFFFFFFFFFFFFFFFFFFF0000FFFFFFFFFFFFFFFFFFFFFFFFFFFFFFFFFFFFFFFFFFFFFFFFFFFFFF
310
FFFFFF0000FFFFFFFFFFFFFFFFFFFFFFFFFFFFFFFFFFFFFFFFFFFFFFFFFFFFFFFFFFFF0000FFFFFFFFFFFFFFFFFFFFFFFFFFFFFFFFFFFFFFFFFFFFFFFFFFFFFFFFFFFF0000FFFFFFFFFFFFFFFFFFFFFFFFFFFFFFFFFFFFFFFFFFFFFFFFFFFFFFFFFFFF0000FFFFFFFFFFFFFFFFFFFFFFFFFFFFFFFFFFFFFFFFFFFFFFFFFFFF
310
FFFFFFFF0000FFFFFFFFFFFFFFFFFFFFFFFFFFFFFFFFFFFFFFFFFFFFFFFFFFFFFFFFFFFF0000FFFFFFFFFFFFFFFFFFFFFFFFFFFFFFFFFFFFFFFFFFFFFFFFFFFFFFFFFFFF0000FFFFFFFFFFFFFFFFFFFFFFFFFFFFFFFFFFFFFFFFFFFFFFFFFFFFFFFFFFFF0000FFFFFFFFFFFFFFFFFFFFFFFFFFFFFFFFFFFFFFFFFFFFFFFFFF
310
FFFFFFFFFF0000FFFFFFFFFFFFFFFFFFFFFFFFFFFFFFFFFFFFFFFFFFFFFFFFFFFFFFFFFFFF0000FFFFFFFFFFFFFFFFFFFFFFFFFFFFFFFFFFFFFFFFFFFFFFFFFFFFFFFFFFFF0000FFFFFFFFFFFFFFFFFFFFFFFFFFFFFFFFFFFFFFFFFFFFFFFFFFFFFFFFFFFF0000FFFFFFFFFFFFFFFFFFFFFFFFFFFFFFFFFFFFFFFFFFFFFFFF
310
FFFFFFFFFFFF0000FFFFFFFFFFFFFFFFFFFFFFFFFFFFFFFFFFFFFFFFFFFFFFFFFFFFFFFFFFFF0000FFFFFFFFFFFFFFFFFFFFFFFFFFFFFFFFFFFFFFFFFFFFFFFFFFFFFFFFFFFF0000FFFFFFFFFFFFFFFFFFFFFFFFFFFFFFFFFFFFFFFFFFFFFFFFFFFFFFFFFFFF0000FFFFFFFFFFFFFFFFFFFFFFFFFFFFFFFFFFFFFFFFFFFFFF
310
FFFFFFFFFFFFFF0000FFFFFFFFFFFFFFFFFFFFFFFFFFFFFFFFFFFFFFFFFFFFFFFFFFFFFFFFFFFFFFFFFFFFFFFFFFFFFFFFFFFFFFFFFFFFFF
102
{BLKREFS
331
26A4
102
}
  0
BLOCK_RECORD
  5
268E
330
23DB
100
AcDbSymbolTableRecord
100
AcDbBlockTableRecord
  2
AI9-BLK2
340
0
310
2800000020000000200000000100080000000000000400000000000000000000000000000000000000000000000080000080000000808000800000008000800080800000C0C0C000C0DCC000F0CAA6000020400000206000002080000020A0000020C0000020E00000400000004020000040400000406000004080000040A0
310
000040C0000040E00000600000006020000060400000606000006080000060A0000060C0000060E00000800000008020000080400000806000008080000080A0000080C0000080E00000A0000000A0200000A0400000A0600000A0800000A0A00000A0C00000A0E00000C0000000C0200000C0400000C0600000C0800000C0
310
A00000C0C00000C0E00000E0000000E0200000E0400000E0600000E0800000E0A00000E0C00000E0E00040000000400020004000400040006000400080004000A0004000C0004000E00040200000402020004020400040206000402080004020A0004020C0004020E000404000004040200040404000404060004040800040
310
40A0004040C0004040E00040600000406020004060400040606000406080004060A0004060C0004060E00040800000408020004080400040806000408080004080A0004080C0004080E00040A0000040A0200040A0400040A0600040A0800040A0A00040A0C00040A0E00040C0000040C0200040C0400040C0600040C08000
310
40C0A00040C0C00040C0E00040E0000040E0200040E0400040E0600040E0800040E0A00040E0C00040E0E00080000000800020008000400080006000800080008000A0008000C0008000E00080200000802020008020400080206000802080008020A0008020C0008020E00080400000804020008040400080406000804080
310
008040A0008040C0008040E00080600000806020008060400080606000806080008060A0008060C0008060E00080800000808020008080400080806000808080008080A0008080C0008080E00080A0000080A0200080A0400080A0600080A0800080A0A00080A0C00080A0E00080C0000080C0200080C0400080C0600080C0
310
800080C0A00080C0C00080C0E00080E0000080E0200080E0400080E0600080E0800080E0A00080E0C00080E0E000C0000000C0002000C0004000C0006000C0008000C000A000C000C000C000E000C0200000C0202000C0204000C0206000C0208000C020A000C020C000C020E000C0400000C0402000C0404000C0406000C0
310
408000C040A000C040C000C040E000C0600000C0602000C0604000C0606000C0608000C060A000C060C000C060E000C0800000C0802000C0804000C0806000C0808000C080A000C080C000C080E000C0A00000C0A02000C0A04000C0A06000C0A08000C0A0A000C0A0C000C0A0E000C0C00000C0C02000C0C04000C0C06000
310
C0C08000C0C0A000F0FBFF00A4A0A000808080000000FF0000FF000000FFFF00FF000000FF00FF00FFFF0000FFFFFF00FFFFFFFFFFFFFFFFFFFFFFFFFFFFFFFFFFFFFFFFFFFFFFFFFFFFFFFFFFFFFFFFFFFFFFFFFFFFFFFFFFFFFFFFFFFFFF0000FFFFFFFFFFFFFFFFFFFFFFFFFFFFFFFFFFFFFFFFFFFFFFFFFFFFFFFFFFFF
310
0000FFFFFFFFFFFFFFFFFFFFFFFFFFFFFFFFFFFFFFFFFFFFFFFFFFFFFFFFFFFF0000FFFFFFFFFFFFFFFFFFFFFFFFFFFFFFFFFFFFFFFFFFFFFFFFFFFFFFFFFF00FFFF00FFFFFFFFFFFFFFFFFFFFFFFFFFFFFFFFFFFFFFFFFFFFFFFFFFFFFFFF00FFFF00FFFFFFFFFFFFFFFFFFFFFFFFFFFFFFFFFFFFFFFFFFFFFFFFFFFFFFFF
310
00FF0000FFFFFFFFFFFFFFFFFFFFFFFFFFFFFFFFFFFFFFFFFFFFFFFFFFFFFFFF00FF0000FFFFFFFFFFFFFFFFFFFFFFFFFFFFFFFFFFFFFFFFFFFFFFFFFFFFFFFF00FF0000FFFFFFFFFFFFFFFFFFFFFFFFFFFFFFFFFFFFFFFFFFFFFFFFFFFFFFFF00000000FFFFFFFFFFFFFFFFFFFFFFFFFFFFFFFFFFFFFFFFFFFFFFFFFFFFFF
310
00FF00FF0000FFFFFFFFFFFFFFFFFFFFFFFFFFFFFFFFFFFFFFFFFFFFFFFFFFFF00FF00FF0000FFFFFFFFFFFFFFFFFFFFFFFFFFFFFFFFFFFFFFFFFFFFFFFFFFFF00FF00FF0000FFFFFFFFFFFFFFFFFFFFFFFFFFFFFFFFFFFFFFFFFFFFFFFFFFFF00FF00FF0000FFFFFFFFFFFFFFFFFFFFFFFFFFFFFFFFFFFFFFFFFFFFFFFFFF
310
FF00FF00FF0000FFFFFFFFFFFFFFFFFFFFFFFFFFFFFFFFFFFFFFFFFFFFFFFFFFFF0000FFFF0000FFFFFFFFFFFFFFFFFFFFFFFFFFFFFFFFFFFFFFFFFFFFFFFFFF00FF00FFFF00FF00FFFFFFFFFFFFFFFFFFFFFFFFFFFFFFFFFFFFFFFFFFFFFFFF00FF00FFFF00FF00FFFFFFFFFFFFFFFFFFFFFFFFFFFFFFFFFFFFFFFFFFFFFF
310
FF00FF00FFFFFF0000FFFFFFFFFFFFFFFFFFFFFFFFFFFFFFFFFFFFFFFFFFFFFFFF00FF00FFFFFF0000FFFFFFFFFFFFFFFFFFFFFFFFFFFFFFFFFFFFFFFFFFFFFFFF00FF00FFFFFF0000FFFFFFFFFFFFFFFFFFFFFFFFFFFFFFFFFFFFFFFFFFFFFFFF0000FFFFFFFF0000FFFFFFFFFFFFFFFFFFFFFFFFFFFFFFFFFFFFFFFFFFFF
310
FF00FF00FFFFFFFF00FF00FFFFFFFFFFFFFFFFFFFFFFFFFFFFFFFFFFFFFFFFFFFF00FF00FFFFFFFF00FF00FFFFFFFFFFFFFFFFFFFFFFFFFFFFFFFFFFFFFFFFFFFF00FF00FFFFFFFF00FF00FFFFFFFFFFFFFFFFFFFFFFFFFFFFFFFFFFFFFFFFFFFF00FF00FFFFFFFF00FF00FFFFFFFFFFFFFFFFFFFFFFFFFFFFFFFFFFFFFFFF
310
FFFF00FF00FFFFFFFFFF0000FFFFFFFFFFFFFFFFFFFFFFFFFFFFFFFFFFFFFFFFFFFF0000FFFFFFFFFFFF0000FFFFFFFFFFFFFFFFFFFFFFFFFFFFFFFFFFFFFFFFFF00FF00FFFFFFFFFFFF00FF00FFFFFFFFFFFFFFFFFFFFFFFFFFFFFFFFFFFFFFFF00FF00FFFFFFFFFFFF00FF00FFFFFFFFFFFFFFFFFFFFFFFFFFFFFFFFFFFF
310
FFFF000000FFFFFFFFFFFF000000FFFFFFFFFFFFFFFFFFFFFFFFFFFFFFFFFFFFFFFFFFFFFFFFFFFFFFFFFFFFFFFFFFFFFFFFFFFFFFFFFFFF
102
{BLKREFS
331
26A5
102
}
  0
BLOCK_RECORD
  5
2693
330
23DB
100
AcDbSymbolTableRecord
100
AcDbBlockTableRecord
  2
AI9-BLK1
340
0
310
2800000020000000200000000100080000000000000400000000000000000000000000000000000000000000000080000080000000808000800000008000800080800000C0C0C000C0DCC000F0CAA6000020400000206000002080000020A0000020C0000020E00000400000004020000040400000406000004080000040A0
310
000040C0000040E00000600000006020000060400000606000006080000060A0000060C0000060E00000800000008020000080400000806000008080000080A0000080C0000080E00000A0000000A0200000A0400000A0600000A0800000A0A00000A0C00000A0E00000C0000000C0200000C0400000C0600000C0800000C0
310
A00000C0C00000C0E00000E0000000E0200000E0400000E0600000E0800000E0A00000E0C00000E0E00040000000400020004000400040006000400080004000A0004000C0004000E00040200000402020004020400040206000402080004020A0004020C0004020E000404000004040200040404000404060004040800040
310
40A0004040C0004040E00040600000406020004060400040606000406080004060A0004060C0004060E00040800000408020004080400040806000408080004080A0004080C0004080E00040A0000040A0200040A0400040A0600040A0800040A0A00040A0C00040A0E00040C0000040C0200040C0400040C0600040C08000
310
40C0A00040C0C00040C0E00040E0000040E0200040E0400040E0600040E0800040E0A00040E0C00040E0E00080000000800020008000400080006000800080008000A0008000C0008000E00080200000802020008020400080206000802080008020A0008020C0008020E00080400000804020008040400080406000804080
310
008040A0008040C0008040E00080600000806020008060400080606000806080008060A0008060C0008060E00080800000808020008080400080806000808080008080A0008080C0008080E00080A0000080A0200080A0400080A0600080A0800080A0A00080A0C00080A0E00080C0000080C0200080C0400080C0600080C0
310
800080C0A00080C0C00080C0E00080E0000080E0200080E0400080E0600080E0800080E0A00080E0C00080E0E000C0000000C0002000C0004000C0006000C0008000C000A000C000C000C000E000C0200000C0202000C0204000C0206000C0208000C020A000C020C000C020E000C0400000C0402000C0404000C0406000C0
310
408000C040A000C040C000C040E000C0600000C0602000C0604000C0606000C0608000C060A000C060C000C060E000C0800000C0802000C0804000C0806000C0808000C080A000C080C000C080E000C0A00000C0A02000C0A04000C0A06000C0A08000C0A0A000C0A0C000C0A0E000C0C00000C0C02000C0C04000C0C06000
310
C0C08000C0C0A000F0FBFF00A4A0A000808080000000FF0000FF000000FFFF00FF000000FF00FF00FFFF0000FFFFFF00FFFFFFFFFFFFFFFFFFFFFFFFFFFFFFFFFFFFFFFFFFFFFFFFFFFFFFFFFFFFFFFFFFFFFFFFFFFFFFFFFFFFFF00000000000000000000FFFFFFFFFFFFFFFFFFFFFFFFFFFFFFFFFFFFFFFFFFFF00FFFFFF
310
FFFFFFFFFF00FFFFFFFFFFFFFFFFFFFFFFFFFFFFFFFFFFFFFFFFFFFF00FFFFFFFFFFFFFFFF00FFFFFFFFFFFFFFFFFFFFFFFFFFFFFFFFFFFFFFFFFFFF00FFFFFFFFFFFFFFFF00FFFFFFFFFFFFFFFFFFFFFFFFFFFFFFFFFFFFFFFFFFFF00FF0000000000000000FFFFFFFFFFFFFFFFFFFFFFFFFFFFFFFFFFFFFFFFFFFF00FF00
310
FFFFFFFFFFFFFFFFFFFFFFFFFFFFFFFFFFFFFFFFFFFFFFFFFFFFFFFFFF00FF00FFFFFFFFFFFFFFFFFFFFFFFFFFFFFFFFFFFFFFFFFFFFFFFFFFFFFFFFFF00FF00FFFFFFFFFFFFFFFFFFFFFFFFFFFFFFFFFFFFFFFFFFFFFFFFFFFFFFFFFF00FF00FFFFFFFFFFFFFFFFFFFFFFFFFFFFFFFFFFFFFFFFFFFFFFFFFFFFFFFFFF00FF
310
00FFFFFFFFFFFFFFFFFFFFFFFFFFFFFFFFFFFFFFFFFFFFFFFFFFFFFFFFFF00FF00FFFFFFFFFFFFFFFFFFFFFFFFFFFFFFFFFFFFFFFFFFFFFFFFFFFFFFFFFF00FF00FFFFFFFFFFFFFFFFFFFFFFFFFFFFFFFFFFFFFFFFFFFFFFFFFFFFFFFFFF00FF00FFFFFFFFFFFFFFFFFFFFFFFFFFFFFFFFFFFFFFFFFFFFFFFFFFFFFFFFFF00
310
FF00000000000000FFFFFFFFFFFFFFFFFFFFFFFFFFFFFFFFFFFFFFFFFFFFFF00FFFFFFFFFFFFFF00FFFFFFFFFFFFFFFFFFFFFFFFFFFFFFFFFFFFFFFFFFFFFF00FFFFFFFFFFFFFF00FFFFFFFFFFFFFFFFFFFFFFFFFFFFFFFFFFFFFFFFFFFFFF00FFFFFFFFFFFFFF00FFFFFFFFFFFFFFFFFFFFFFFFFFFFFFFFFFFFFFFFFFFFFF
310
00FF00000000000000FFFFFFFFFFFFFFFFFFFFFFFFFFFFFFFFFFFFFFFFFFFFFF00FF00FFFFFFFFFFFFFFFFFFFFFFFFFFFFFFFFFFFFFFFFFFFFFFFFFFFFFFFFFF00FF00FFFFFFFFFFFFFFFFFFFFFFFFFFFFFFFFFFFFFFFFFFFFFFFFFFFFFFFFFF00FF00FFFFFFFFFFFFFFFFFFFFFFFFFFFFFFFFFFFFFFFFFFFFFFFFFFFFFFFF
310
FF00FF00FFFFFFFFFFFFFFFFFFFFFFFFFFFFFFFFFFFFFFFFFFFFFFFFFFFFFFFFFF00FF00FFFFFFFFFFFFFFFFFFFFFFFFFFFFFFFFFFFFFFFFFFFFFFFFFFFFFFFFFF00FF00FFFFFFFFFFFFFFFFFFFFFFFFFFFFFFFFFFFFFFFFFFFFFFFFFFFFFFFFFF00FF00FFFFFFFFFFFFFFFFFFFFFFFFFFFFFFFFFFFFFFFFFFFFFFFFFFFFFF
310
FFFF00FF0000000000000000FFFFFFFFFFFFFFFFFFFFFFFFFFFFFFFFFFFFFFFFFFFF00FFFFFFFFFFFFFFFF00FFFFFFFFFFFFFFFFFFFFFFFFFFFFFFFFFFFFFFFFFFFF00FFFFFFFFFFFFFFFF00FFFFFFFFFFFFFFFFFFFFFFFFFFFFFFFFFFFFFFFFFFFF00FFFFFFFFFFFFFFFF00FFFFFFFFFFFFFFFFFFFFFFFFFFFFFFFFFFFFFF
310
FFFFFF00000000000000000000FFFFFFFFFFFFFFFFFFFFFFFFFFFFFFFFFFFFFFFFFFFFFFFFFFFFFFFFFFFFFFFFFFFFFFFFFFFFFFFFFFFFFF
102
{BLKREFS
331
26A6
102
}
  0
BLOCK_RECORD
  5
2698
330
23DB
100
AcDbSymbolTableRecord
100
AcDbBlockTableRecord
  2
HD_LLC_logo_OT5
340
0
310
2800000020000000200000000100080000000000000400000000000000000000000000000000000000000000000080000080000000808000800000008000800080800000C0C0C000C0DCC000F0CAA6000020400000206000002080000020A0000020C0000020E00000400000004020000040400000406000004080000040A0
310
000040C0000040E00000600000006020000060400000606000006080000060A0000060C0000060E00000800000008020000080400000806000008080000080A0000080C0000080E00000A0000000A0200000A0400000A0600000A0800000A0A00000A0C00000A0E00000C0000000C0200000C0400000C0600000C0800000C0
310
A00000C0C00000C0E00000E0000000E0200000E0400000E0600000E0800000E0A00000E0C00000E0E00040000000400020004000400040006000400080004000A0004000C0004000E00040200000402020004020400040206000402080004020A0004020C0004020E000404000004040200040404000404060004040800040
310
40A0004040C0004040E00040600000406020004060400040606000406080004060A0004060C0004060E00040800000408020004080400040806000408080004080A0004080C0004080E00040A0000040A0200040A0400040A0600040A0800040A0A00040A0C00040A0E00040C0000040C0200040C0400040C0600040C08000
310
40C0A00040C0C00040C0E00040E0000040E0200040E0400040E0600040E0800040E0A00040E0C00040E0E00080000000800020008000400080006000800080008000A0008000C0008000E00080200000802020008020400080206000802080008020A0008020C0008020E00080400000804020008040400080406000804080
310
008040A0008040C0008040E00080600000806020008060400080606000806080008060A0008060C0008060E00080800000808020008080400080806000808080008080A0008080C0008080E00080A0000080A0200080A0400080A0600080A0800080A0A00080A0C00080A0E00080C0000080C0200080C0400080C0600080C0
310
800080C0A00080C0C00080C0E00080E0000080E0200080E0400080E0600080E0800080E0A00080E0C00080E0E000C0000000C0002000C0004000C0006000C0008000C000A000C000C000C000E000C0200000C0202000C0204000C0206000C0208000C020A000C020C000C020E000C0400000C0402000C0404000C0406000C0
310
408000C040A000C040C000C040E000C0600000C0602000C0604000C0606000C0608000C060A000C060C000C060E000C0800000C0802000C0804000C0806000C0808000C080A000C080C000C080E000C0A00000C0A02000C0A04000C0A06000C0A08000C0A0A000C0A0C000C0A0E000C0C00000C0C02000C0C04000C0C06000
310
C0C08000C0C0A000F0FBFF00A4A0A000808080000000FF0000FF000000FFFF00FF000000FF00FF00FFFF0000FFFFFF00FFFFFFFFFFFFFFFFFFFFFFFFFFFFFFFFFFFFFFFFFFFFFFFFFFFFFFFFFFFFFFFFFFFFFFFFFFFFFFFFFFFFFFFFFFFFFFFFFFFFFFFFFFFFFFFFFFFFFFFFFFFFFFFFFFFFFFFFFFFFFFFFFFFFFFFFFFFFFF
310
FFFFFFFFFFFFFFFFFFFFFFFFFFFFFFFFFFFFFFFFFFFFFFFFFFFFFFFFFFFFFFFFFFFFFFFFFFFFFFFFFFFFFFFFFFFFFFFFFFFFFFFFFFFFFFFFFFFFFFFFFFFFFFFFFFFFFFFFFFFFFFFFFFFFFFFFFFFFFFFFFFFFFFFFFFFFFFFFFFFFFFFFFFFFFFFFFFFFFFFFFFFFFFFFFFFFFFFFFFFFFFFFFFFFFFFFFFFFFFFFFFFFFFFFFFFFFF
310
FFFFFFFFFFFFFFFFFFFFFFFFFFFFFFFFFFFFFFFFFFFFFFFFFFFFFFFFFFFFFFFFFFFFFFFFFFFFFFFFFFFFFFFFFFFFFFFFFFFFFFFFFFFFFFFFFFFFFFFFFFFFFFFFFFFFFFFFFFFFFFFFFFFFFFFFFFFFFFFFFFFFFFFFFFFFFFFFFFFFFFFFFFFFFFFFFFFFFFFFFFFFFFFFFFFFFFFFFFFFFFFFFFFFFFFFFFFFFFFFFFFFFFFFFFFFFF
310
FFFFFFFFFFFFFFFFFFFFFFFFFFFFFFFFFFFFFFFFFFFFFFFFFFFFFFFFFFFFFFFFFFFFFFFFFFFFFFFFFFFFFFFFFFFFFFFFFFFFFFFF0000000000000000000000000000000000000000000000000000000000FFFFFF0000000000000000000000000000000000FFFFFFFFFFFFFFFFFFFF0000FFFFFF0000000000000000000000
310
00000000000000FFFFFFFFFFFFFFFFFFFF0000FFFF000000000000000000000000000000000000FFFFFF00000000FFFFFF0000FFFF00FFFFFFFFFFFF00FFFFFF00FFFFFFFFFF00FFFFFF0000000000FFFF0000FFFF00FFFFFFFFFFFF00FFFFFF00FFFFFFFFFF00FFFFFF00FFFF0000FFFF0000FFFF00FFFFFFFFFFFF00FFFF
310
00FFFFFFFFFFFF00FFFFFF00FFFF0000FFFF0000FFFF0000000000FFFF00000000FFFFFF00000000FFFFFF00000000FFFFFF0000FFFFFFFFFFFF00FFFFFFFFFFFFFFFFFF00FFFFFFFFFFFFFFFFFFFFFFFFFF0000FFFFFFFFFFFF00FFFFFFFFFFFFFFFFFF00FFFFFFFFFFFFFFFFFFFFFFFFFF0000FFFFFFFFFFFF00FFFFFFFF
310
FFFFFFFFFF00FFFFFFFFFFFFFFFFFFFFFFFF0000FFFFFF0000000000FFFF00000000FFFFFF0000000000000000000000000000FFFFFFFF00FFFFFFFFFFFF00FFFF00FFFFFFFFFFFF00FFFFFFFFFFFFFFFFFFFFFFFFFFFF00FFFFFFFFFFFF00FFFFFF00FFFFFFFFFF00FFFFFFFFFFFFFFFFFFFFFFFFFFFF0000000000000000
310
FFFFFF00000000000000FFFFFFFFFFFFFFFFFFFFFFFFFFFFFFFFFFFFFFFFFFFFFFFFFFFFFFFFFFFFFFFFFFFFFFFFFFFFFFFFFFFFFFFFFFFFFFFFFFFFFFFFFFFFFFFFFFFFFFFFFFFFFFFFFFFFFFFFFFFFFFFFFFFFFFFFFFFFFFFFFFFFFFFFFFFFFFFFFFFFFFFFFFFFFFFFFFFFFFFFFFFFFFFFFFFFFFFFFFFFFFFFFFFFFFFFFF
310
FFFFFFFFFFFFFFFFFFFFFFFFFFFFFFFFFFFFFFFFFFFFFFFFFFFFFFFFFFFFFFFFFFFFFFFFFFFFFFFFFFFFFFFFFFFFFFFFFFFFFFFFFFFFFFFF
102
{BLKREFS
331
26BE
102
}
  0
BLOCK_RECORD
  5
26BD
330
23DB
100
AcDbSymbolTableRecord
100
AcDbBlockTableRecord
  2
HD logo-new
340
0
310
2800000020000000200000000100080000000000000400000000000000000000000000000000000000000000000080000080000000808000800000008000800080800000C0C0C000C0DCC000F0CAA6000020400000206000002080000020A0000020C0000020E00000400000004020000040400000406000004080000040A0
310
000040C0000040E00000600000006020000060400000606000006080000060A0000060C0000060E00000800000008020000080400000806000008080000080A0000080C0000080E00000A0000000A0200000A0400000A0600000A0800000A0A00000A0C00000A0E00000C0000000C0200000C0400000C0600000C0800000C0
310
A00000C0C00000C0E00000E0000000E0200000E0400000E0600000E0800000E0A00000E0C00000E0E00040000000400020004000400040006000400080004000A0004000C0004000E00040200000402020004020400040206000402080004020A0004020C0004020E000404000004040200040404000404060004040800040
310
40A0004040C0004040E00040600000406020004060400040606000406080004060A0004060C0004060E00040800000408020004080400040806000408080004080A0004080C0004080E00040A0000040A0200040A0400040A0600040A0800040A0A00040A0C00040A0E00040C0000040C0200040C0400040C0600040C08000
310
40C0A00040C0C00040C0E00040E0000040E0200040E0400040E0600040E0800040E0A00040E0C00040E0E00080000000800020008000400080006000800080008000A0008000C0008000E00080200000802020008020400080206000802080008020A0008020C0008020E00080400000804020008040400080406000804080
310
008040A0008040C0008040E00080600000806020008060400080606000806080008060A0008060C0008060E00080800000808020008080400080806000808080008080A0008080C0008080E00080A0000080A0200080A0400080A0600080A0800080A0A00080A0C00080A0E00080C0000080C0200080C0400080C0600080C0
310
800080C0A00080C0C00080C0E00080E0000080E0200080E0400080E0600080E0800080E0A00080E0C00080E0E000C0000000C0002000C0004000C0006000C0008000C000A000C000C000C000E000C0200000C0202000C0204000C0206000C0208000C020A000C020C000C020E000C0400000C0402000C0404000C0406000C0
310
408000C040A000C040C000C040E000C0600000C0602000C0604000C0606000C0608000C060A000C060C000C060E000C0800000C0802000C0804000C0806000C0808000C080A000C080C000C080E000C0A00000C0A02000C0A04000C0A06000C0A08000C0A0A000C0A0C000C0A0E000C0C00000C0C02000C0C04000C0C06000
310
C0C08000C0C0A000F0FBFF00A4A0A000808080000000FF0000FF000000FFFF00FF000000FF00FF00FFFF0000FFFFFF00FFFFFFFFFFFFFFFFFFFFFFFFFFFFFFFFFFFFFFFFFFFFFFFFFFFFFFFFFFFFFFFFFFFFFFFFFFFFFFFFFFFFFFFFFFFFFFFFFFFFFFFFFFFFFFFFFFFFFFFFFFFFFFFFFFFFFFFFFFFFFFFFFFFFFFFFFFFFFF
310
FFFFFFFFFFFFFFFFFFFFFFFFFFFFFFFFFFFFFFFFFFFFFFFFFFFFFFFFFFFFFFFFFFFFFFFFFFFFFFFFFFFFFFFFFFFFFFFFFFFFFFFFFFFFFFFFFFFFFFFFFFFFFFFFFFFFFFFFFFFFFFFFFFFFFFFFFFFFFFFFFFFFFFFFFFFFFFFFFFFFFFFFFFFFFFFFFFFFFFFFFFFFFFFFFFFFFFFFFFFFFFFFFFFFFFFFFFFFFFFFFFFFFFFFFFFFFF
310
FFFFFFFFFFFFFFFFFFFFFFFFFFFFFFFFFFFFFFFFFFFFFFFFFFFFFFFFFFFFFFFFFFFFFFFFFFFFFFFFFFFFFFFFFFFFFFFFFFFFFFFFFFFFFFFFFFFFFFFFFFFFFFFFFFFFFFFFFFFFFFFFFFFFFFFFFFFFFFFFFFFFFFFFFFFFFFFFFFFFFFFFFFFFFFFFFFFFFFFFFFFFFFFFFFFFFFFFFFFFFFFFFFFFFFFFFFFFFFFFFFFFFFFFFFFFFF
310
FFFFFFFFFFFFFFFFFFFFFFFFFFFFFFFFFFFFFFFFFFFFFFFFFFFFFFFFFFFFFFFFFFFFFFFFFFFFFFFFFFFFFFFFFFFFFFFFFFFFFFFF0000000000000000000000000000000000000000000000000000000000FFFFFF0000000000000000000000000000000000FFFFFFFFFFFFFFFFFFFF0000FFFFFF0000000000000000000000
310
00000000000000FFFFFFFFFFFFFFFFFFFF0000FFFF000000000000000000000000000000000000FFFFFF00000000FFFFFF0000FFFF00FFFFFFFFFFFF00FFFFFF00FFFFFFFFFF00FFFFFF0000000000FFFF0000FFFF00FFFFFFFFFFFF00FFFFFF00FFFFFFFFFF00FFFFFF00FFFF0000FFFF0000FFFF00FFFFFFFFFFFF00FFFF
310
00FFFFFFFFFFFF00FFFFFF00FFFF0000FFFF0000FFFF0000000000FFFF00000000FFFFFF00000000FFFFFF00000000FFFFFF0000FFFFFFFFFFFF00FFFFFFFFFFFFFFFFFF00FFFFFFFFFFFFFFFFFFFFFFFFFF0000FFFFFFFFFFFF00FFFFFFFFFFFFFFFFFF00FFFFFFFFFFFFFFFFFFFFFFFFFF0000FFFFFFFFFFFF00FFFFFFFF
310
FFFFFFFFFF00FFFFFFFFFFFFFFFFFFFFFFFF0000FFFFFF0000000000FFFF00000000FFFFFF0000000000000000000000000000FFFFFFFF00FFFFFFFFFFFF00FFFF00FFFFFFFFFFFF00FFFFFFFFFFFFFFFFFFFFFFFFFFFF00FFFFFFFFFFFF00FFFFFF00FFFFFFFFFF00FFFFFFFFFFFFFFFFFFFFFFFFFFFF0000000000000000
310
FFFFFF00000000000000FFFFFFFFFFFFFFFFFFFFFFFFFFFFFFFFFFFFFFFFFFFFFFFFFFFFFFFFFFFFFFFFFFFFFFFFFFFFFFFFFFFFFFFFFFFFFFFFFFFFFFFFFFFFFFFFFFFFFFFFFFFFFFFFFFFFFFFFFFFFFFFFFFFFFFFFFFFFFFFFFFFFFFFFFFFFFFFFFFFFFFFFFFFFFFFFFFFFFFFFFFFFFFFFFFFFFFFFFFFFFFFFFFFFFFFFFF
310
FFFFFFFFFFFFFFFFFFFFFFFFFFFFFFFFFFFFFFFFFFFFFFFFFFFFFFFFFFFFFFFFFFFFFFFFFFFFFFFFFFFFFFFFFFFFFFFFFFFFFFFFFFFFFFFF
102
{BLKREFS
331
26C2
331
2B4E
331
2B52
102
}
  0
BLOCK_RECORD
  5
26C1
330
23DB
100
AcDbSymbolTableRecord
100
AcDbBlockTableRecord
  2
HD Logo
340
0
310
2800000020000000200000000100080000000000000400000000000000000000000000000000000000000000000080000080000000808000800000008000800080800000C0C0C000C0DCC000F0CAA6000020400000206000002080000020A0000020C0000020E00000400000004020000040400000406000004080000040A0
310
000040C0000040E00000600000006020000060400000606000006080000060A0000060C0000060E00000800000008020000080400000806000008080000080A0000080C0000080E00000A0000000A0200000A0400000A0600000A0800000A0A00000A0C00000A0E00000C0000000C0200000C0400000C0600000C0800000C0
310
A00000C0C00000C0E00000E0000000E0200000E0400000E0600000E0800000E0A00000E0C00000E0E00040000000400020004000400040006000400080004000A0004000C0004000E00040200000402020004020400040206000402080004020A0004020C0004020E000404000004040200040404000404060004040800040
310
40A0004040C0004040E00040600000406020004060400040606000406080004060A0004060C0004060E00040800000408020004080400040806000408080004080A0004080C0004080E00040A0000040A0200040A0400040A0600040A0800040A0A00040A0C00040A0E00040C0000040C0200040C0400040C0600040C08000
310
40C0A00040C0C00040C0E00040E0000040E0200040E0400040E0600040E0800040E0A00040E0C00040E0E00080000000800020008000400080006000800080008000A0008000C0008000E00080200000802020008020400080206000802080008020A0008020C0008020E00080400000804020008040400080406000804080
310
008040A0008040C0008040E00080600000806020008060400080606000806080008060A0008060C0008060E00080800000808020008080400080806000808080008080A0008080C0008080E00080A0000080A0200080A0400080A0600080A0800080A0A00080A0C00080A0E00080C0000080C0200080C0400080C0600080C0
310
800080C0A00080C0C00080C0E00080E0000080E0200080E0400080E0600080E0800080E0A00080E0C00080E0E000C0000000C0002000C0004000C0006000C0008000C000A000C000C000C000E000C0200000C0202000C0204000C0206000C0208000C020A000C020C000C020E000C0400000C0402000C0404000C0406000C0
310
408000C040A000C040C000C040E000C0600000C0602000C0604000C0606000C0608000C060A000C060C000C060E000C0800000C0802000C0804000C0806000C0808000C080A000C080C000C080E000C0A00000C0A02000C0A04000C0A06000C0A08000C0A0A000C0A0C000C0A0E000C0C00000C0C02000C0C04000C0C06000
310
C0C08000C0C0A000F0FBFF00A4A0A000808080000000FF0000FF000000FFFF00FF000000FF00FF00FFFF0000FFFFFF00FFFFFFFFFFFFFFFFFFFFFFFFFFFFFFFFFFFFFFFFFFFFFFFFFFFFFFFFFFFFFFFFFFFFFFFFFFFFFFFFFFFFFFFFFFFFFFFFFFFFFFFFFFFFFFFFFFFFFFFFFFFFFFFFFFFFFFFFFFFFFFFFFFFFFFFFFFFFFF
310
FFFFFFFFFFFFFFFFFFFFFFFFFFFFFFFFFFFFFFFFFFFFFFFFFFFFFFFFFFFFFFFFFFFFFFFFFFFFFFFFFFFFFFFFFFFFFFFFFFFFFFFFFFFFFFFFFFFFFFFFFFFFFFFFFFFFFFFFFFFFFFFFFFFFFFFFFFFFFFFFFFFFFFFFFFFFFFFFFFFFFFFFFFFFFFFFFFFFFFFFFFFFFFFFFFFFFFFFFFFFFFFFFFFFFFFFFFFFFFFFFFFFFFFFFFFFFF
310
FFFFFFFFFFFFFFFFFFFFFFFFFFFFFFFFFFFFFFFFFFFFFFFFFFFFFFFFFFFFFFFFFFFFFFFFFFFFFFFFFFFFFFFFFFFFFFFFFFFFFFFFFFFFFFFFFFFFFFFFFFFFFFFFFFFFFFFFFFFFFFFFFFFFFFFFFFFFFFFFFFFFFFFFFFFFFFFFFFFFFFFFFFFFFFFFFFFFFFFFFFFFFFFFFFFFFFFFFFFFFFFFFFFFFFFFFFFFFFFFFFFFFFFFFFFFFF
310
FFFFFFFFFFFFFFFFFFFFFFFFFFFFFFFFFFFFFFFFFFFFFFFFFFFFFFFFFFFFFFFFFFFFFFFFFFFFFFFFFFFFFFFFFFFFFFFFFFFFFFFF0000000000000000000000000000000000000000000000000000000000FFFFFF0000000000000000000000000000000000FFFFFFFFFFFFFFFFFFFF0000FFFFFF0000000000000000000000
310
00000000000000FFFFFFFFFFFFFFFFFFFF0000FFFF000000000000000000000000000000000000FFFFFF00000000FFFFFF0000FFFF00FFFFFFFFFFFF00FFFFFF00FFFFFFFFFF00FFFFFF0000000000FFFF0000FFFF00FFFFFFFFFFFF00FFFFFF00FFFFFFFFFF00FFFFFF00FFFF0000FFFF0000FFFF00FFFFFFFFFFFF00FFFF
310
00FFFFFFFFFFFF00FFFFFF00FFFF0000FFFF0000FFFF0000000000FFFF00000000FFFFFF00000000FFFFFF00000000FFFFFF0000FFFFFFFFFFFF00FFFFFFFFFFFFFFFFFF00FFFFFFFFFFFFFFFFFFFFFFFFFF0000FFFFFFFFFFFF00FFFFFFFFFFFFFFFFFF00FFFFFFFFFFFFFFFFFFFFFFFFFF0000FFFFFFFFFFFF00FFFFFFFF
310
FFFFFFFFFF00FFFFFFFFFFFFFFFFFFFFFFFF0000FFFFFF0000000000FFFF00000000FFFFFF0000000000000000000000000000FFFFFFFF00FFFFFFFFFFFF00FFFF00FFFFFFFFFFFF00FFFFFFFFFFFFFFFFFFFFFFFFFFFF00FFFFFFFFFFFF00FFFFFF00FFFFFFFFFF00FFFFFFFFFFFFFFFFFFFFFFFFFFFF0000000000000000
310
FFFFFF00000000000000FFFFFFFFFFFFFFFFFFFFFFFFFFFFFFFFFFFFFFFFFFFFFFFFFFFFFFFFFFFFFFFFFFFFFFFFFFFFFFFFFFFFFFFFFFFFFFFFFFFFFFFFFFFFFFFFFFFFFFFFFFFFFFFFFFFFFFFFFFFFFFFFFFFFFFFFFFFFFFFFFFFFFFFFFFFFFFFFFFFFFFFFFFFFFFFFFFFFFFFFFFFFFFFFFFFFFFFFFFFFFFFFFFFFFFFFFF
310
FFFFFFFFFFFFFFFFFFFFFFFFFFFFFFFFFFFFFFFFFFFFFFFFFFFFFFFFFFFFFFFFFFFFFFFFFFFFFFFFFFFFFFFFFFFFFFFFFFFFFFFFFFFFFFFF
102
{BLKREFS
331
26C8
331
26CC
102
}
  0
BLOCK_RECORD
  5
26CD
330
23DB
100
AcDbSymbolTableRecord
100
AcDbBlockTableRecord
  2
Harmonic Drive LLC
340
0
310
2800000020000000200000000100080000000000000400000000000000000000000000000000000000000000000080000080000000808000800000008000800080800000C0C0C000C0DCC000F0CAA6000020400000206000002080000020A0000020C0000020E00000400000004020000040400000406000004080000040A0
310
000040C0000040E00000600000006020000060400000606000006080000060A0000060C0000060E00000800000008020000080400000806000008080000080A0000080C0000080E00000A0000000A0200000A0400000A0600000A0800000A0A00000A0C00000A0E00000C0000000C0200000C0400000C0600000C0800000C0
310
A00000C0C00000C0E00000E0000000E0200000E0400000E0600000E0800000E0A00000E0C00000E0E00040000000400020004000400040006000400080004000A0004000C0004000E00040200000402020004020400040206000402080004020A0004020C0004020E000404000004040200040404000404060004040800040
310
40A0004040C0004040E00040600000406020004060400040606000406080004060A0004060C0004060E00040800000408020004080400040806000408080004080A0004080C0004080E00040A0000040A0200040A0400040A0600040A0800040A0A00040A0C00040A0E00040C0000040C0200040C0400040C0600040C08000
310
40C0A00040C0C00040C0E00040E0000040E0200040E0400040E0600040E0800040E0A00040E0C00040E0E00080000000800020008000400080006000800080008000A0008000C0008000E00080200000802020008020400080206000802080008020A0008020C0008020E00080400000804020008040400080406000804080
310
008040A0008040C0008040E00080600000806020008060400080606000806080008060A0008060C0008060E00080800000808020008080400080806000808080008080A0008080C0008080E00080A0000080A0200080A0400080A0600080A0800080A0A00080A0C00080A0E00080C0000080C0200080C0400080C0600080C0
310
800080C0A00080C0C00080C0E00080E0000080E0200080E0400080E0600080E0800080E0A00080E0C00080E0E000C0000000C0002000C0004000C0006000C0008000C000A000C000C000C000E000C0200000C0202000C0204000C0206000C0208000C020A000C020C000C020E000C0400000C0402000C0404000C0406000C0
310
408000C040A000C040C000C040E000C0600000C0602000C0604000C0606000C0608000C060A000C060C000C060E000C0800000C0802000C0804000C0806000C0808000C080A000C080C000C080E000C0A00000C0A02000C0A04000C0A06000C0A08000C0A0A000C0A0C000C0A0E000C0C00000C0C02000C0C04000C0C06000
310
C0C08000C0C0A000F0FBFF00A4A0A000808080000000FF0000FF000000FFFF00FF000000FF00FF00FFFF0000FFFFFF00FFFFFFFFFFFFFFFFFFFFFFFFFFFFFFFFFFFFFFFFFFFFFFFFFFFFFFFFFFFFFFFFFFFFFFFFFFFFFFFFFFFFFFFFFFFFFFFFFFFFFFFFFFFFFFFFFFFFFFFFFFFFFFFFFFFFFFFFFFFFFFFFFFFFFFFFFFFFFF
310
FFFFFFFFFFFFFFFFFFFFFFFFFFFFFFFFFFFFFFFFFFFFFFFFFFFFFFFFFFFFFFFFFFFFFFFFFFFFFFFFFFFFFFFFFFFFFFFFFFFFFFFFFFFFFFFFFFFFFFFFFFFFFFFFFFFFFFFFFFFFFFFFFFFFFFFFFFFFFFFFFFFFFFFFFFFFFFFFFFFFFFFFFFFFFFFFFFFFFFFFFFFFFFFFFFFFFFFFFFFFFFFFFFFFFFFFFFFFFFFFFFFFFFFFFFFFFF
310
FFFFFFFFFFFFFFFFFFFFFFFFFFFFFFFFFFFFFFFFFFFFFFFFFFFFFFFFFFFFFFFFFFFFFFFFFFFFFFFFFFFFFFFFFFFFFFFFFFFFFFFFFFFFFFFFFFFFFFFFFFFFFFFFFFFFFFFFFFFFFFFFFFFFFFFFFFFFFFFFFFFFFFFFFFFFFFFFFFFFFFFFFFFFFFFFFFFFFFFFFFFFFFFFFFFFFFFFFFFFFFFFFFFFFFFFFFFFFFFFFFFFFFFFFFFFFF
310
FFFFFFFFFFFFFFFFFFFFFFFFFFFFFFFFFFFFFFFFFFFFFFFFFFFFFFFFFFFFFFFFFFFFFFFFFFFFFFFFFFFFFFFFFFFFFFFFFFFFFFFFFFFFFFFFFFFFFFFFFFFFFFFFFFFFFFFFFFFFFFFFFFFFFFFFFFFFFFFFFFFFFFFFFFFFFFFFFFFFFFFF0000000000000000000000000000FFFFFFFFFFFFFFFFFFFFFFFFFFFFFFFFFFFF000000
310
0000000000000000000000FFFFFFFFFFFFFFFFFFFFFFFFFFFFFFFFFFFFFFFFFF000000000000000000FFFFFFFFFFFFFFFFFFFFFFFFFFFFFFFFFFFFFFFFFFFFFF000000000000000000FFFFFFFFFFFFFFFFFFFFFFFFFFFFFFFFFFFFFFFFFF000000000000000000000000FFFFFFFFFFFFFFFFFFFFFFFFFFFFFFFFFFFFFFFF00
310
FFFFFF00FF0000FF000000FFFFFFFFFFFFFFFFFFFFFFFFFFFFFFFFFFFFFFFFFFFFFFFFFFFFFFFFFFFFFFFFFFFFFFFFFFFFFFFFFFFFFFFFFFFFFFFFFFFFFFFFFFFFFFFFFFFFFFFFFFFFFFFFFFFFFFFFFFFFFFFFFFFFFFFFFFFFFFFFFFFFFFFFFFFFFFFFFFFFFFFFFFFFFFFFFFFFFFFFFFFFFFFFFFFFFFFFFFFFFFFFFFFFFFFF
310
FFFFFFFFFFFFFFFFFFFFFFFFFFFFFFFFFFFFFFFFFFFFFFFFFFFFFFFFFFFFFFFFFFFFFFFFFFFFFFFFFFFFFFFFFFFFFFFFFFFFFFFFFFFFFFFFFFFFFFFFFFFFFFFFFFFFFFFFFFFFFFFFFFFFFFFFFFFFFFFFFFFFFFFFFFFFFFFFFFFFFFFFFFFFFFFFFFFFFFFFFFFFFFFFFFFFFFFFFFFFFFFFFFFFFFFFFFFFFFFFFFFFFFFFFFFFFF
310
FFFFFFFFFFFFFFFFFFFFFFFFFFFFFFFFFFFFFFFFFFFFFFFFFFFFFFFFFFFFFFFFFFFFFFFFFFFFFFFFFFFFFFFFFFFFFFFFFFFFFFFFFFFFFFFFFFFFFFFFFFFFFFFFFFFFFFFFFFFFFFFFFFFFFFFFFFFFFFFFFFFFFFFFFFFFFFFFFFFFFFFFFFFFFFFFFFFFFFFFFFFFFFFFFFFFFFFFFFFFFFFFFFFFFFFFFFFFFFFFFFFFFFFFFFFFFF
310
FFFFFFFFFFFFFFFFFFFFFFFFFFFFFFFFFFFFFFFFFFFFFFFFFFFFFFFFFFFFFFFFFFFFFFFFFFFFFFFFFFFFFFFFFFFFFFFFFFFFFFFFFFFFFFFF
102
{BLKREFS
331
26D2
331
26D7
102
}
  0
BLOCK_RECORD
  5
2B43
330
23DB
100
AcDbSymbolTableRecord
100
AcDbBlockTableRecord
  2
HD LLC
340
0
310
2800000020000000200000000100080000000000000400000000000000000000000000000000000000000000000080000080000000808000800000008000800080800000C0C0C000C0DCC000F0CAA6000020400000206000002080000020A0000020C0000020E00000400000004020000040400000406000004080000040A0
310
000040C0000040E00000600000006020000060400000606000006080000060A0000060C0000060E00000800000008020000080400000806000008080000080A0000080C0000080E00000A0000000A0200000A0400000A0600000A0800000A0A00000A0C00000A0E00000C0000000C0200000C0400000C0600000C0800000C0
310
A00000C0C00000C0E00000E0000000E0200000E0400000E0600000E0800000E0A00000E0C00000E0E00040000000400020004000400040006000400080004000A0004000C0004000E00040200000402020004020400040206000402080004020A0004020C0004020E000404000004040200040404000404060004040800040
310
40A0004040C0004040E00040600000406020004060400040606000406080004060A0004060C0004060E00040800000408020004080400040806000408080004080A0004080C0004080E00040A0000040A0200040A0400040A0600040A0800040A0A00040A0C00040A0E00040C0000040C0200040C0400040C0600040C08000
310
40C0A00040C0C00040C0E00040E0000040E0200040E0400040E0600040E0800040E0A00040E0C00040E0E00080000000800020008000400080006000800080008000A0008000C0008000E00080200000802020008020400080206000802080008020A0008020C0008020E00080400000804020008040400080406000804080
310
008040A0008040C0008040E00080600000806020008060400080606000806080008060A0008060C0008060E00080800000808020008080400080806000808080008080A0008080C0008080E00080A0000080A0200080A0400080A0600080A0800080A0A00080A0C00080A0E00080C0000080C0200080C0400080C0600080C0
310
800080C0A00080C0C00080C0E00080E0000080E0200080E0400080E0600080E0800080E0A00080E0C00080E0E000C0000000C0002000C0004000C0006000C0008000C000A000C000C000C000E000C0200000C0202000C0204000C0206000C0208000C020A000C020C000C020E000C0400000C0402000C0404000C0406000C0
310
408000C040A000C040C000C040E000C0600000C0602000C0604000C0606000C0608000C060A000C060C000C060E000C0800000C0802000C0804000C0806000C0808000C080A000C080C000C080E000C0A00000C0A02000C0A04000C0A06000C0A08000C0A0A000C0A0C000C0A0E000C0C00000C0C02000C0C04000C0C06000
310
C0C08000C0C0A000F0FBFF00A4A0A000808080000000FF0000FF000000FFFF00FF000000FF00FF00FFFF0000FFFFFF00FFFFFFFFFFFFFFFFFFFFFFFFFFFFFFFFFFFFFFFFFFFFFFFFFFFFFFFFFFFFFFFFFFFFFFFFFFFFFFFFFFFFFFFFFFFFFFFFFFFFFFFFFFFFFFFFFFFFFFFFFFFFFFFFFFFFFFFFFFFFFFFFFFFFFFFFFFFFFF
310
FFFFFFFFFFFFFFFFFFFFFFFFFFFFFFFFFFFFFFFFFFFFFFFFFFFFFFFFFFFFFFFFFFFFFFFFFFFFFFFFFFFFFFFFFFFFFFFFFFFFFFFFFFFFFFFFFFFFFFFFFFFFFFFFFFFFFFFFFFFFFFFFFFFFFFFFFFFFFFFFFFFFFFFFFFFFFFFFFFFFFFFFFFFFFFFFFFFFFFFFFFFFFFFFFFFFFFFFFFFFFFFFFFFFFFFFFFFFFFFFFFFFFFFFFFFFFF
310
FFFFFFFFFFFFFFFFFFFFFFFFFFFFFFFFFFFFFFFFFFFFFFFFFFFFFFFFFFFFFFFFFFFFFFFFFFFFFFFFFFFFFFFFFFFFFFFFFFFFFFFFFFFFFFFFFFFFFFFFFFFFFFFFFFFFFFFFFFFFFFFFFFFFFFFFFFFFFFFFFFFFFFFFFFFFFFFFFFFFFFFFFFFFFFFFFFFFFFFFFFFFFFFFFFFFFFFFFFFFFFFFFFFFFFFFFFFFFFFFFFFFFFFFFFFFFF
310
FFFFFFFFFFFFFFFFFFFFFFFFFFFFFFFFFFFFFFFFFFFFFFFFFFFFFFFFFFFFFFFFFFFFFFFFFFFFFFFFFFFFFFFFFFFFFFFFFFFFFFFFFFFFFFFFFFFFFFFFFFFFFFFFFFFFFFFFFFFFFFFFFFFFFFFFFFFFFFFFFFFFFFFFFFFFFFFFFFFFFFFFFFFFFFFFFFFFFFFFFFFFFFFFFFFFFFFFFFFFFFFFFFFFFFFFFFFFFFFFFFFFFFFFFFFF00
310
000000000000000000FFFFFFFFFFFFFFFFFFFFFFFFFFFFFFFFFFFFFFFFFFFF00000000000000000000FFFFFFFFFFFFFFFFFFFFFFFFFFFFFFFFFFFFFFFFFFFF00000000000000000000FFFFFFFFFFFFFFFFFFFFFFFFFFFFFFFFFFFFFFFFFFFF00000000000000000000FFFFFFFFFFFFFFFFFFFFFFFFFFFFFFFFFFFFFFFFFFFF
310
FFFFFFFFFFFFFFFFFFFFFFFFFFFFFFFFFFFFFFFFFFFFFFFFFFFFFFFFFFFFFFFFFFFFFFFFFFFFFFFFFFFFFFFFFFFFFFFFFFFFFFFFFFFFFFFFFFFFFFFFFFFFFFFFFFFFFFFFFFFFFFFFFFFFFFFFFFFFFFFFFFFFFFFFFFFFFFFFFFFFFFFFFFFFFFFFFFFFFFFFFFFFFFFFFFFFFFFFFFFFFFFFFFFFFFFFFFFFFFFFFFFFFFFFFFFFFF
310
FFFFFFFFFFFFFFFFFFFFFFFFFFFFFFFFFFFFFFFFFFFFFFFFFFFFFFFFFFFFFFFFFFFFFFFFFFFFFFFFFFFFFFFFFFFFFFFFFFFFFFFFFFFFFFFFFFFFFFFFFFFFFFFFFFFFFFFFFFFFFFFFFFFFFFFFFFFFFFFFFFFFFFFFFFFFFFFFFFFFFFFFFFFFFFFFFFFFFFFFFFFFFFFFFFFFFFFFFFFFFFFFFFFFFFFFFFFFFFFFFFFFFFFFFFFFFF
310
FFFFFFFFFFFFFFFFFFFFFFFFFFFFFFFFFFFFFFFFFFFFFFFFFFFFFFFFFFFFFFFFFFFFFFFFFFFFFFFFFFFFFFFFFFFFFFFFFFFFFFFFFFFFFFFFFFFFFFFFFFFFFFFFFFFFFFFFFFFFFFFFFFFFFFFFFFFFFFFFFFFFFFFFFFFFFFFFFFFFFFFFFFFFFFFFFFFFFFFFFFFFFFFFFFFFFFFFFFFFFFFFFFFFFFFFFFFFFFFFFFFFFFFFFFFFFF
310
FFFFFFFFFFFFFFFFFFFFFFFFFFFFFFFFFFFFFFFFFFFFFFFFFFFFFFFFFFFFFFFFFFFFFFFFFFFFFFFFFFFFFFFFFFFFFFFFFFFFFFFFFFFFFFFF
102
{BLKREFS
331
2B48
331
2B4C
102
}
  0
BLOCK_RECORD
  5
2B53
330
23DB
100
AcDbSymbolTableRecord
100
AcDbBlockTableRecord
  2
NTC
340
0
310
2800000020000000200000000100080000000000000400000000000000000000000000000000000000000000000080000080000000808000800000008000800080800000C0C0C000C0DCC000F0CAA6000020400000206000002080000020A0000020C0000020E00000400000004020000040400000406000004080000040A0
310
000040C0000040E00000600000006020000060400000606000006080000060A0000060C0000060E00000800000008020000080400000806000008080000080A0000080C0000080E00000A0000000A0200000A0400000A0600000A0800000A0A00000A0C00000A0E00000C0000000C0200000C0400000C0600000C0800000C0
310
A00000C0C00000C0E00000E0000000E0200000E0400000E0600000E0800000E0A00000E0C00000E0E00040000000400020004000400040006000400080004000A0004000C0004000E00040200000402020004020400040206000402080004020A0004020C0004020E000404000004040200040404000404060004040800040
310
40A0004040C0004040E00040600000406020004060400040606000406080004060A0004060C0004060E00040800000408020004080400040806000408080004080A0004080C0004080E00040A0000040A0200040A0400040A0600040A0800040A0A00040A0C00040A0E00040C0000040C0200040C0400040C0600040C08000
310
40C0A00040C0C00040C0E00040E0000040E0200040E0400040E0600040E0800040E0A00040E0C00040E0E00080000000800020008000400080006000800080008000A0008000C0008000E00080200000802020008020400080206000802080008020A0008020C0008020E00080400000804020008040400080406000804080
310
008040A0008040C0008040E00080600000806020008060400080606000806080008060A0008060C0008060E00080800000808020008080400080806000808080008080A0008080C0008080E00080A0000080A0200080A0400080A0600080A0800080A0A00080A0C00080A0E00080C0000080C0200080C0400080C0600080C0
310
800080C0A00080C0C00080C0E00080E0000080E0200080E0400080E0600080E0800080E0A00080E0C00080E0E000C0000000C0002000C0004000C0006000C0008000C000A000C000C000C000E000C0200000C0202000C0204000C0206000C0208000C020A000C020C000C020E000C0400000C0402000C0404000C0406000C0
310
408000C040A000C040C000C040E000C0600000C0602000C0604000C0606000C0608000C060A000C060C000C060E000C0800000C0802000C0804000C0806000C0808000C080A000C080C000C080E000C0A00000C0A02000C0A04000C0A06000C0A08000C0A0A000C0A0C000C0A0E000C0C00000C0C02000C0C04000C0C06000
310
C0C08000C0C0A000F0FBFF00A4A0A000808080000000FF0000FF000000FFFF00FF000000FF00FF00FFFF0000FFFFFF00FFFFFFFFFFFFFFFFFFFFFFFFFFFFFFFFFFFFFFFFFFFFFFFFFFFFFFFFFFFFFFFFFFFFFFFFFFFFFFFFFFFFFFFFFFFFFFFFFFFFFFFFFFFFFFFFFFFFFFFFFFFFFFFFFFFFFFFFFFFFFFFFFFFFFFFFFFFFFF
310
FFFFFFFFFFFFFFFFFFFFFFFFFFFFFFFFFFFFFFFFFFFFFFFFFFFFFFFFFFFFFFFFFFFFFFFFFFFFFFFFFFFFFFFFFFFFFFFFFFFFFFFFFFFFFFFFFFFFFFFFFFFFFFFFFFFFFFFFFFFFFFFFFFFFFFFFFFFFFFFFFFFFFFFFFFFFFFFFFFFFFFFFFFFFFFFFFFFFFFFFFFFFFFFFFFFFFFFFFFFFFFFFFFFFFFFFFFFFFFFFFFFFFFFFFFFFFF
310
FFFFFFFFFFFFFFFFFFFFFFFFFFFFFFFFFFFFFFFFFFFFFFFFFFFFFFFFFFFFFFFFFFFFFFFFFFFFFFFFFFFFFFFFFFFFFFFFFFFFFFFFFFFFFFFFFFFFFFFFFFFFFFFFFFFFFFFFFFFFFFFFFFFFFFFFFFFFFFFFFFFFFFFFFFFFFFFFFFFFFFFFFFFFFFFFFFFFFFFFFFFFFFFFFFFFFFFFFFFFFFFFFFFFFFFFFFFFFFFFFFFFFFFFFFFFFF
310
FFFFFFFFFFFFFFFFFFFFFFFFFFFFFFFFFFFFFFFF000000000000000000000000000000000000000000000000000000000000FFFF00FF0000000000000000FFFFFFFFFFFFFFFFFFFFFFFFFFFFFFFFFFFFFF00FFFF00FF0000000000000000FFFFFFFFFFFFFFFFFFFFFFFFFFFFFFFFFFFFFF00FFFF00FF000000000000000000
310
00000000000000000000000000FFFFFFFFFF00FFFF00FF0000000000000000000000000000000000000000000000000000FF00FFFF00FF0000000000000000000000000000000000000000000000000000FF00FFFF00FF0000000000000000000000000000000000000000000000000000FF00FFFF00FF0000000000000000
310
00000000000000000000000000000000FFFFFF00FFFF00FF0000000000FFFFFFFFFFFFFFFFFFFFFFFFFFFFFFFFFFFFFFFFFFFF00FFFF000000000000000000000000000000000000000000000000000000000000FFFFFFFFFFFFFFFFFFFFFFFFFFFFFFFFFFFFFFFFFFFFFFFFFFFFFFFFFFFFFFFFFFFFFFFFFFFFFFFFFFFFFF
310
FFFFFFFFFFFFFFFFFFFFFFFFFFFFFFFFFFFFFFFFFFFFFFFFFFFFFFFFFFFFFFFFFFFFFFFFFFFFFFFFFFFFFFFFFFFFFFFFFFFFFFFFFFFFFFFFFFFFFFFFFFFFFFFFFFFFFFFFFFFFFFFFFFFFFFFFFFFFFFFFFFFFFFFFFFFFFFFFFFFFFFFFFFFFFFFFFFFFFFFFFFFFFFFFFFFFFFFFFFFFFFFFFFFFFFFFFFFFFFFFFFFFFFFFFFFFFF
310
FFFFFFFFFFFFFFFFFFFFFFFFFFFFFFFFFFFFFFFFFFFFFFFFFFFFFFFFFFFFFFFFFFFFFFFFFFFFFFFFFFFFFFFFFFFFFFFFFFFFFFFFFFFFFFFFFFFFFFFFFFFFFFFFFFFFFFFFFFFFFFFFFFFFFFFFFFFFFFFFFFFFFFFFFFFFFFFFFFFFFFFFFFFFFFFFFFFFFFFFFFFFFFFFFFFFFFFFFFFFFFFFFFFFFFFFFFFFFFFFFFFFFFFFFFFFFF
310
FFFFFFFFFFFFFFFFFFFFFFFFFFFFFFFFFFFFFFFFFFFFFFFFFFFFFFFFFFFFFFFFFFFFFFFFFFFFFFFFFFFFFFFFFFFFFFFFFFFFFFFFFFFFFFFF
102
{BLKREFS
331
2B59
331
2B5F
102
}
  0
ENDTAB
  0
ENDSEC
  0
SECTION
  2
BLOCKS
  0
BLOCK
  5
23F9
330
23F8
100
AcDbEntity
  8
0
100
AcDbBlockBegin
  2
*Model_Space
 70
     0
 10
0.0
 20
0.0
 30
0.0
  3
*Model_Space
  1

  0
ENDBLK
  5
23FA
330
23F8
100
AcDbEntity
  8
0
100
AcDbBlockEnd
  0
BLOCK
  5
23F5
330
23F4
100
AcDbEntity
 67
     1
  8
0
100
AcDbBlockBegin
  2
*Paper_Space
 70
     0
 10
0.0
 20
0.0
 30
0.0
  3
*Paper_Space
  1

  0
ENDBLK
  5
23F6
330
23F4
100
AcDbEntity
 67
     1
  8
0
100
AcDbBlockEnd
  0
BLOCK
  5
2413
330
2412
100
AcDbEntity
  8
0
100
AcDbBlockBegin
  2
$MODEL_SPACE
 70
     0
 10
0.0
 20
0.0
 30
0.0
  3
$MODEL_SPACE
  1

  0
ENDBLK
  5
2414
330
2412
100
AcDbEntity
  8
0
100
AcDbBlockEnd
  0
BLOCK
  5
2416
330
2415
100
AcDbEntity
  8
0
100
AcDbBlockBegin
  2
$PAPER_SPACE
 70
     0
 10
0.0
 20
0.0
 30
0.0
  3
$PAPER_SPACE
  1

  0
ENDBLK
  5
2417
330
2415
100
AcDbEntity
  8
0
100
AcDbBlockEnd
  0
BLOCK
  5
265C
330
2659
100
AcDbEntity
  8
0
 62
     7
100
AcDbBlockBegin
  2
AI9-BLK14
 70
     0
 10
0.0
 20
0.0
 30
0.0
  3
AI9-BLK14
  1

  0
SPLINE
  5
265A
330
2659
100
AcDbEntity
  8
LAYER_1
 62
     7
100
AcDbSpline
210
0.0
220
0.0
230
1.0
 70
    11
 71
     3
 72
    23
 73
    19
 74
     0
 42
0.0000000001
 43
0.0000000001
 40
0.0
 40
0.0
 40
0.0
 40
0.0
 40
1.0
 40
1.0
 40
1.0
 40
2.0
 40
2.0
 40
2.0
 40
3.0
 40
3.0
 40
3.0
 40
4.0
 40
4.0
 40
4.0
 40
5.0
 40
5.0
 40
5.0
 40
6.0
 40
6.0
 40
6.0
 40
6.0
 10
-10.90321044921874
 20
10.88107571072048
 30
0.0
 10
-10.90321044921874
 20
10.88107571072048
 30
0.0
 10
-10.90321044921874
 20
-10.88107571072048
 30
0.0
 10
-10.90321044921874
 20
-10.88107571072048
 30
0.0
 10
-10.90321044921874
 20
-10.88107571072048
 30
0.0
 10
1.752692328559025
 20
-10.88107571072048
 30
0.0
 10
1.752692328559025
 20
-10.88107571072048
 30
0.0
 10
3.280592176649305
 20
-10.88107571072048
 30
0.0
 10
10.90321044921874
 20
-10.32383151584201
 30
0.0
 10
10.90321044921874
 20
0.6792867024739583
 30
0.0
 10
10.90321044921874
 20
10.61700914171006
 30
0.0
 10
2.773129611545138
 20
10.87952541775172
 30
0.0
 10
2.691136338975693
 20
10.88090345594618
 30
0.0
 10
2.691136338975693
 20
10.88090345594618
 30
0.0
 10
-9.903099229600693
 20
10.88107571072048
 30
0.0
 10
-9.903099229600693
 20
10.88107571072048
 30
0.0
 10
-9.903099229600693
 20
10.88107571072048
 30
0.0
 10
-10.90321044921874
 20
10.88107571072048
 30
0.0
 10
-10.90321044921874
 20
10.88107571072048
 30
0.0
  0
SPLINE
  5
265B
330
2659
100
AcDbEntity
  8
LAYER_1
 62
     7
100
AcDbSpline
210
0.0
220
0.0
230
1.0
 70
    11
 71
     3
 72
    20
 73
    16
 74
     0
 42
0.0000000001
 43
0.0000000001
 40
0.0
 40
0.0
 40
0.0
 40
0.0
 40
1.0
 40
1.0
 40
1.0
 40
2.0
 40
2.0
 40
2.0
 40
3.0
 40
3.0
 40
3.0
 40
4.0
 40
4.0
 40
4.0
 40
5.0
 40
5.0
 40
5.0
 40
5.0
 10
2.672877332899305
 20
8.881197781032986
 30
0.0
 10
2.905421278211805
 20
8.874307590060762
 30
0.0
 10
8.902988009982637
 20
8.616442192925347
 30
0.0
 10
8.902988009982637
 20
0.6792867024739583
 30
0.0
 10
8.902988009982637
 20
-8.191661919487842
 30
0.0
 10
3.430109320746526
 20
-8.881197781032986
 30
0.0
 10
1.752692328559025
 20
-8.881197781032986
 30
0.0
 10
1.752692328559025
 20
-8.881197781032986
 30
0.0
 10
-7.231427680121528
 20
-8.881197781032986
 30
0.0
 10
-8.902988009982637
 20
-8.881197781032986
 30
0.0
 10
-8.902988009982637
 20
-7.174497477213541
 30
0.0
 10
-8.902988009982637
 20
7.174497477213541
 30
0.0
 10
-8.902988009982637
 20
8.881197781032986
 30
0.0
 10
-7.208690049913191
 20
8.881197781032986
 30
0.0
 10
2.672877332899305
 20
8.881197781032986
 30
0.0
 10
2.672877332899305
 20
8.881197781032986
 30
0.0
  0
ENDBLK
  5
265D
330
2659
100
AcDbEntity
  8
0
100
AcDbBlockEnd
  0
BLOCK
  5
2661
330
265E
100
AcDbEntity
  8
0
 62
     7
100
AcDbBlockBegin
  2
AI9-BLK13
 70
     0
 10
0.0
 20
0.0
 30
0.0
  3
AI9-BLK13
  1

  0
LWPOLYLINE
  5
265F
330
265E
100
AcDbEntity
  8
LAYER_1
 62
     7
100
AcDbPolyline
 90
       12
 70
     1
 43
0.0
 10
-3.792361111111107
 20
10.7376736111111
 10
-2.469444444444443
 20
10.7376736111111
 10
-2.469444444444443
 20
1.874131944444444
 10
2.469444444444443
 20
1.874131944444444
 10
2.469444444444443
 20
10.7376736111111
 10
3.792361111111107
 20
10.7376736111111
 10
3.792361111111107
 20
-10.7376736111111
 10
2.469444444444443
 20
-10.7376736111111
 10
2.469444444444443
 20
-0.6835069444444444
 10
-2.469444444444443
 20
-0.6835069444444444
 10
-2.469444444444443
 20
-10.7376736111111
 10
-3.792361111111107
 20
-10.7376736111111
  0
HATCH
  5
2660
330
265E
100
AcDbEntity
  8
LAYER_1
 62
     7
100
AcDbHatch
 10
0.0
 20
0.0
 30
0.0
210
0.0
220
0.0
230
1.0
  2
SOLID
 70
     1
 71
     0
 91
        1
 92
        3
 72
     0
 73
     1
 93
       12
 10
-3.792361111111107
 20
10.7376736111111
 10
-2.469444444444443
 20
10.7376736111111
 10
-2.469444444444443
 20
1.874131944444444
 10
2.469444444444443
 20
1.874131944444444
 10
2.469444444444443
 20
10.7376736111111
 10
3.792361111111107
 20
10.7376736111111
 10
3.792361111111107
 20
-10.7376736111111
 10
2.469444444444443
 20
-10.7376736111111
 10
2.469444444444443
 20
-0.6835069444444444
 10
-2.469444444444443
 20
-0.6835069444444444
 10
-2.469444444444443
 20
-10.7376736111111
 10
-3.792361111111107
 20
-10.7376736111111
 97
        0
 75
     2
 76
     1
 98
        1
 10
0.0
 20
0.0
  0
ENDBLK
  5
2662
330
265E
100
AcDbEntity
  8
0
100
AcDbBlockEnd
  0
BLOCK
  5
2666
330
2663
100
AcDbEntity
  8
0
 62
     7
100
AcDbBlockBegin
  2
AI9-BLK11
 70
     0
 10
0.0
 20
0.0
 30
0.0
  3
AI9-BLK11
  1

  0
SPLINE
  5
2664
330
2663
100
AcDbEntity
  8
LAYER_1
 62
     7
100
AcDbSpline
210
0.0
220
0.0
230
1.0
 70
    11
 71
     3
 72
    26
 73
    22
 74
     0
 42
0.0000000001
 43
0.0000000001
 40
0.0
 40
0.0
 40
0.0
 40
0.0
 40
1.0
 40
1.0
 40
1.0
 40
2.0
 40
2.0
 40
2.0
 40
3.0
 40
3.0
 40
3.0
 40
4.0
 40
4.0
 40
4.0
 40
5.0
 40
5.0
 40
5.0
 40
6.0
 40
6.0
 40
6.0
 40
7.0
 40
7.0
 40
7.0
 40
7.0
 10
-2.645833333333333
 20
0.9039930555555551
 30
0.0
 10
-2.645833333333333
 20
0.9039930555555551
 30
0.0
 10
-2.645833333333333
 20
8.180034722222217
 30
0.0
 10
-2.645833333333333
 20
8.180034722222217
 30
0.0
 10
-2.645833333333333
 20
8.180034722222217
 30
0.0
 10
0.465087890625
 20
8.180034722222217
 30
0.0
 10
0.465087890625
 20
8.180034722222217
 30
0.0
 10
0.9026150173611108
 20
8.180034722222217
 30
0.0
 10
1.24988064236111
 20
8.034651692708331
 30
0.0
 10
1.506884765625
 20
7.745263671874997
 30
0.0
 10
2.001600477430554
 20
7.194048394097221
 30
0.0
 10
2.248958333333332
 20
6.160519748263887
 30
0.0
 10
2.248958333333332
 20
4.643299696180553
 30
0.0
 10
2.248958333333332
 20
3.232188585069443
 30
0.0
 10
2.072569444444444
 20
2.256537543402775
 30
0.0
 10
1.720480685763888
 20
1.715657552083333
 30
0.0
 10
1.368391927083333
 20
1.174088541666665
 30
0.0
 10
0.8929687499999998
 20
0.9039930555555551
 30
0.0
 10
0.2942111545138888
 20
0.9039930555555551
 30
0.0
 10
0.2942111545138888
 20
0.9039930555555551
 30
0.0
 10
-2.645833333333333
 20
0.9039930555555551
 30
0.0
 10
-2.645833333333333
 20
0.9039930555555551
 30
0.0
  0
SPLINE
  5
2665
330
2663
100
AcDbEntity
  8
LAYER_1
 62
     7
100
AcDbSpline
210
0.0
220
0.0
230
1.0
 70
    11
 71
     3
 72
    68
 73
    64
 74
     0
 42
0.0000000001
 43
0.0000000001
 40
0.0
 40
0.0
 40
0.0
 40
0.0
 40
1.0
 40
1.0
 40
1.0
 40
2.0
 40
2.0
 40
2.0
 40
3.0
 40
3.0
 40
3.0
 40
4.0
 40
4.0
 40
4.0
 40
5.0
 40
5.0
 40
5.0
 40
6.0
 40
6.0
 40
6.0
 40
7.0
 40
7.0
 40
7.0
 40
8.0
 40
8.0
 40
8.0
 40
9.0
 40
9.0
 40
9.0
 40
10.0
 40
10.0
 40
10.0
 40
11.0
 40
11.0
 40
11.0
 40
12.0
 40
12.0
 40
12.0
 40
13.0
 40
13.0
 40
13.0
 40
14.0
 40
14.0
 40
14.0
 40
15.0
 40
15.0
 40
15.0
 40
16.0
 40
16.0
 40
16.0
 40
17.0
 40
17.0
 40
17.0
 40
18.0
 40
18.0
 40
18.0
 40
19.0
 40
19.0
 40
19.0
 40
20.0
 40
20.0
 40
20.0
 40
21.0
 40
21.0
 40
21.0
 40
21.0
 10
-3.968749999999998
 20
-10.7376736111111
 30
0.0
 10
-3.968749999999998
 20
-10.7376736111111
 30
0.0
 10
-2.645833333333333
 20
-10.7376736111111
 30
0.0
 10
-2.645833333333333
 20
-10.7376736111111
 30
0.0
 10
-2.645833333333333
 20
-10.7376736111111
 30
0.0
 10
-2.645833333333333
 20
-1.521354166666665
 30
0.0
 10
-2.645833333333333
 20
-1.521354166666665
 30
0.0
 10
-2.645833333333333
 20
-1.521354166666665
 30
0.0
 10
0.2390896267361111
 20
-1.521354166666665
 30
0.0
 10
0.2390896267361111
 20
-1.521354166666665
 30
0.0
 10
0.7599880642361111
 20
-1.521354166666665
 30
0.0
 10
1.143771701388887
 20
-1.65295681423611
 30
0.0
 10
1.390440538194444
 20
-1.916162109374999
 30
0.0
 10
1.816254340277773
 20
-2.39434136284722
 30
0.0
 10
2.04363064236111
 20
-3.335541449652775
 30
0.0
 10
2.072569444444444
 20
-4.739762369791666
 30
0.0
 10
2.072569444444444
 20
-4.739762369791666
 30
0.0
 10
2.160763888888888
 20
-8.324039713541665
 30
0.0
 10
2.160763888888888
 20
-8.324039713541665
 30
0.0
 10
2.18005642361111
 20
-9.163264973958332
 30
0.0
 10
2.202794053819443
 20
-9.728949652777775
 30
0.0
 10
2.227598741319444
 20
-10.02109374999998
 30
0.0
 10
2.252403428819443
 20
-10.31392686631944
 30
0.0
 10
2.28892144097222
 20
-10.55301649305555
 30
0.0
 10
2.33853081597222
 20
-10.7376736111111
 30
0.0
 10
2.33853081597222
 20
-10.7376736111111
 30
0.0
 10
3.968749999999998
 20
-10.7376736111111
 30
0.0
 10
3.968749999999998
 20
-10.7376736111111
 30
0.0
 10
3.968749999999998
 20
-10.7376736111111
 30
0.0
 10
3.968749999999998
 20
-10.25260416666666
 30
0.0
 10
3.968749999999998
 20
-10.25260416666666
 30
0.0
 10
3.766867404513888
 20
-10.05830078125
 30
0.0
 10
3.625618489583333
 20
-9.621462673611112
 30
0.0
 10
3.545692274305555
 20
-8.942089843749997
 30
0.0
 10
3.49470486111111
 20
-8.543836805555555
 30
0.0
 10
3.459564887152775
 20
-7.937499999999999
 30
0.0
 10
3.439583333333333
 20
-7.121701388888887
 30
0.0
 10
3.439583333333333
 20
-7.121701388888887
 30
0.0
 10
3.395486111111106
 20
-4.232644314236106
 30
0.0
 10
3.395486111111106
 20
-4.232644314236106
 30
0.0
 10
3.375504557291666
 20
-2.981385633680555
 30
0.0
 10
3.26870659722222
 20
-2.077392578125
 30
0.0
 10
3.075781249999999
 20
-1.522043185763888
 30
0.0
 10
2.882166883680555
 20
-0.9666937934027776
 30
0.0
 10
2.592089843749999
 20
-0.5188313802083333
 30
0.0
 10
2.204861111111106
 20
-0.1770779079861111
 30
0.0
 10
2.63618706597222
 20
0.3197048611111111
 30
0.0
 10
2.971739366319443
 20
0.9770290798611107
 30
0.0
 10
3.211518012152775
 20
1.79558376736111
 30
0.0
 10
3.451296657986107
 20
2.613449435763888
 30
0.0
 10
3.571874999999999
 20
3.66558159722222
 30
0.0
 10
3.571874999999999
 20
4.951291232638888
 30
0.0
 10
3.571874999999999
 20
7.415912543402777
 30
0.0
 10
3.124701605902775
 20
9.106076388888887
 30
0.0
 10
2.231043836805555
 20
10.02178276909722
 30
0.0
 10
1.759754774305553
 20
10.498583984375
 30
0.0
 10
1.163753255208332
 20
10.7376736111111
 30
0.0
 10
0.443039279513889
 20
10.7376736111111
 30
0.0
 10
0.443039279513889
 20
10.7376736111111
 30
0.0
 10
-3.968749999999998
 20
10.7376736111111
 30
0.0
 10
-3.968749999999998
 20
10.7376736111111
 30
0.0
 10
-3.968749999999998
 20
10.7376736111111
 30
0.0
 10
-3.968749999999998
 20
-10.7376736111111
 30
0.0
 10
-3.968749999999998
 20
-10.7376736111111
 30
0.0
  0
ENDBLK
  5
2667
330
2663
100
AcDbEntity
  8
0
100
AcDbBlockEnd
  0
BLOCK
  5
266A
330
2668
100
AcDbEntity
  8
0
 62
     7
100
AcDbBlockBegin
  2
AI9-BLK10
 70
     0
 10
0.0
 20
0.0
 30
0.0
  3
AI9-BLK10
  1

  0
SPLINE
  5
2669
330
2668
100
AcDbEntity
  8
LAYER_1
 62
     7
100
AcDbSpline
210
0.0
220
0.0
230
1.0
 70
    11
 71
     3
 72
    59
 73
    55
 74
     0
 42
0.0000000001
 43
0.0000000001
 40
0.0
 40
0.0
 40
0.0
 40
0.0
 40
1.0
 40
1.0
 40
1.0
 40
2.0
 40
2.0
 40
2.0
 40
3.0
 40
3.0
 40
3.0
 40
4.0
 40
4.0
 40
4.0
 40
5.0
 40
5.0
 40
5.0
 40
6.0
 40
6.0
 40
6.0
 40
7.0
 40
7.0
 40
7.0
 40
8.0
 40
8.0
 40
8.0
 40
9.0
 40
9.0
 40
9.0
 40
10.0
 40
10.0
 40
10.0
 40
11.0
 40
11.0
 40
11.0
 40
12.0
 40
12.0
 40
12.0
 40
13.0
 40
13.0
 40
13.0
 40
14.0
 40
14.0
 40
14.0
 40
15.0
 40
15.0
 40
15.0
 40
16.0
 40
16.0
 40
16.0
 40
17.0
 40
17.0
 40
17.0
 40
18.0
 40
18.0
 40
18.0
 40
18.0
 10
-4.652256944444443
 20
10.7376736111111
 30
0.0
 10
-4.652256944444443
 20
10.7376736111111
 30
0.0
 10
-2.798795572916666
 20
10.7376736111111
 30
0.0
 10
-2.798795572916666
 20
10.7376736111111
 30
0.0
 10
-2.798795572916666
 20
10.7376736111111
 30
0.0
 10
0.0
 20
-7.419357638888887
 30
0.0
 10
0.0
 20
-7.419357638888887
 30
0.0
 10
0.0
 20
-7.419357638888887
 30
0.0
 10
2.793283420138888
 20
10.7376736111111
 30
0.0
 10
2.793283420138888
 20
10.7376736111111
 30
0.0
 10
2.793283420138888
 20
10.7376736111111
 30
0.0
 10
4.652256944444443
 20
10.7376736111111
 30
0.0
 10
4.652256944444443
 20
10.7376736111111
 30
0.0
 10
4.652256944444443
 20
10.7376736111111
 30
0.0
 10
4.652256944444443
 20
-10.7376736111111
 30
0.0
 10
4.652256944444443
 20
-10.7376736111111
 30
0.0
 10
4.652256944444443
 20
-10.7376736111111
 30
0.0
 10
3.41753472222222
 20
-10.7376736111111
 30
0.0
 10
3.41753472222222
 20
-10.7376736111111
 30
0.0
 10
3.41753472222222
 20
-10.7376736111111
 30
0.0
 10
3.41753472222222
 20
1.936832682291665
 30
0.0
 10
3.41753472222222
 20
1.936832682291665
 30
0.0
 10
3.41753472222222
 20
2.375048828124999
 30
0.0
 10
3.424424913194443
 20
3.101274956597221
 30
0.0
 10
3.439583333333333
 20
4.11482204861111
 30
0.0
 10
3.454052734374998
 20
5.128369140624998
 30
0.0
 10
3.461631944444443
 20
6.214952256944441
 30
0.0
 10
3.461631944444443
 20
7.375260416666666
 30
0.0
 10
3.461631944444443
 20
7.375260416666666
 30
0.0
 10
0.6538791232638889
 20
-10.7376736111111
 30
0.0
 10
0.6538791232638889
 20
-10.7376736111111
 30
0.0
 10
0.6538791232638889
 20
-10.7376736111111
 30
0.0
 10
-0.6628363715277778
 20
-10.7376736111111
 30
0.0
 10
-0.6628363715277778
 20
-10.7376736111111
 30
0.0
 10
-0.6628363715277778
 20
-10.7376736111111
 30
0.0
 10
-3.461631944444443
 20
7.375260416666666
 30
0.0
 10
-3.461631944444443
 20
7.375260416666666
 30
0.0
 10
-3.461631944444443
 20
7.375260416666666
 30
0.0
 10
-3.461631944444443
 20
6.717247178819441
 30
0.0
 10
-3.461631944444443
 20
6.717247178819441
 30
0.0
 10
-3.461631944444443
 20
6.190836588541666
 30
0.0
 10
-3.45474175347222
 20
5.389507378472222
 30
0.0
 10
-3.439583333333333
 20
4.312570529513888
 30
0.0
 10
-3.425113932291666
 20
3.235633680555555
 30
0.0
 10
-3.41753472222222
 20
2.44395073784722
 30
0.0
 10
-3.41753472222222
 20
1.936832682291665
 30
0.0
 10
-3.41753472222222
 20
1.936832682291665
 30
0.0
 10
-3.41753472222222
 20
-10.7376736111111
 30
0.0
 10
-3.41753472222222
 20
-10.7376736111111
 30
0.0
 10
-3.41753472222222
 20
-10.7376736111111
 30
0.0
 10
-4.652256944444443
 20
-10.7376736111111
 30
0.0
 10
-4.652256944444443
 20
-10.7376736111111
 30
0.0
 10
-4.652256944444443
 20
-10.7376736111111
 30
0.0
 10
-4.652256944444443
 20
10.7376736111111
 30
0.0
 10
-4.652256944444443
 20
10.7376736111111
 30
0.0
  0
ENDBLK
  5
266B
330
2668
100
AcDbEntity
  8
0
100
AcDbBlockEnd
  0
BLOCK
  5
266F
330
266C
100
AcDbEntity
  8
0
 62
     7
100
AcDbBlockBegin
  2
AI9-BLK9
 70
     0
 10
0.0
 20
0.0
 30
0.0
  3
AI9-BLK9
  1

  0
SPLINE
  5
266D
330
266C
100
AcDbEntity
  8
LAYER_1
 62
     7
100
AcDbSpline
210
0.0
220
0.0
230
1.0
 70
    11
 71
     3
 72
    29
 73
    25
 74
     0
 42
0.0000000001
 43
0.0000000001
 40
0.0
 40
0.0
 40
0.0
 40
0.0
 40
1.0
 40
1.0
 40
1.0
 40
2.0
 40
2.0
 40
2.0
 40
3.0
 40
3.0
 40
3.0
 40
4.0
 40
4.0
 40
4.0
 40
5.0
 40
5.0
 40
5.0
 40
6.0
 40
6.0
 40
6.0
 40
7.0
 40
7.0
 40
7.0
 40
8.0
 40
8.0
 40
8.0
 40
8.0
 10
0.0668348524305556
 20
-8.753298611111111
 30
0.0
 10
-0.9067491319444444
 20
-8.753298611111111
 30
0.0
 10
-1.60954861111111
 20
-7.936810980902778
 30
0.0
 10
-2.041563585069444
 20
-6.30383572048611
 30
0.0
 10
-2.474267578124999
 20
-4.670860460069443
 30
0.0
 10
-2.689930555555555
 20
-2.664436848958333
 30
0.0
 10
-2.689930555555555
 20
-0.28525390625
 30
0.0
 10
-2.689930555555555
 20
2.68855251736111
 30
0.0
 10
-2.439127604166666
 20
4.938199869791666
 30
0.0
 10
-1.937521701388888
 20
6.464377170138886
 30
0.0
 10
-1.43591579861111
 20
7.989865451388887
 30
0.0
 10
-0.7827256944444444
 20
8.753298611111111
 30
0.0
 10
0.0220486111111111
 20
8.753298611111111
 30
0.0
 10
0.8468044704861108
 20
8.753298611111111
 30
0.0
 10
1.49792751736111
 20
7.982975260416663
 30
0.0
 10
1.974728732638888
 20
6.442328559027776
 30
0.0
 10
2.451529947916665
 20
4.901681857638886
 30
0.0
 10
2.689930555555555
 20
2.868386501736111
 30
0.0
 10
2.689930555555555
 20
0.3438205295138888
 30
0.0
 10
2.689930555555555
 20
-2.045697699652774
 30
0.0
 10
2.483224826388884
 20
-4.15891927083333
 30
0.0
 10
2.071191406249999
 20
-5.996533203124998
 30
0.0
 10
1.65915798611111
 20
-7.834836154513887
 30
0.0
 10
0.9908094618055557
 20
-8.753298611111111
 30
0.0
 10
0.0668348524305556
 20
-8.753298611111111
 30
0.0
  0
SPLINE
  5
266E
330
266C
100
AcDbEntity
  8
LAYER_1
 62
     7
100
AcDbSpline
210
0.0
220
0.0
230
1.0
 70
    11
 71
     3
 72
    29
 73
    25
 74
     0
 42
0.0000000001
 43
0.0000000001
 40
0.0
 40
0.0
 40
0.0
 40
0.0
 40
1.0
 40
1.0
 40
1.0
 40
2.0
 40
2.0
 40
2.0
 40
3.0
 40
3.0
 40
3.0
 40
4.0
 40
4.0
 40
4.0
 40
5.0
 40
5.0
 40
5.0
 40
6.0
 40
6.0
 40
6.0
 40
7.0
 40
7.0
 40
7.0
 40
8.0
 40
8.0
 40
8.0
 40
8.0
 10
-0.0289388020833333
 20
11.35503472222222
 30
0.0
 10
-1.317404513888887
 20
11.35503472222222
 30
0.0
 10
-2.28892144097222
 20
10.02798394097222
 30
0.0
 10
-2.94280056423611
 20
7.374571397569441
 30
0.0
 10
-3.450607638888888
 20
5.30613606770833
 30
0.0
 10
-3.704166666666666
 20
2.81877712673611
 30
0.0
 10
-3.704166666666666
 20
-0.0881944444444445
 30
0.0
 10
-3.704166666666666
 20
-3.307291666666666
 30
0.0
 10
-3.406510416666666
 20
-5.97035047743055
 30
0.0
 10
-2.811197916666666
 20
-8.077370876736106
 30
0.0
 10
-2.147672526041664
 20
-10.26293945312499
 30
0.0
 10
-1.229899088541666
 20
-11.35503472222222
 30
0.0
 10
-0.0585666232638889
 20
-11.35503472222222
 30
0.0
 10
1.20027126736111
 20
-11.35503472222222
 30
0.0
 10
2.166276041666665
 20
-10.10653211805555
 30
0.0
 10
2.840136718749998
 20
-7.609526909722221
 30
0.0
 10
3.416156684027776
 20
-5.483213975694441
 30
0.0
 10
3.704166666666666
 20
-2.814643012152775
 30
0.0
 10
3.704166666666666
 20
0.3948079427083333
 30
0.0
 10
3.704166666666666
 20
3.360346137152776
 30
0.0
 10
3.449918619791666
 20
5.793961588541666
 30
0.0
 10
2.94280056423611
 20
7.696343315972222
 30
0.0
 10
2.298567708333333
 20
10.13547092013888
 30
0.0
 10
1.307758246527777
 20
11.35503472222222
 30
0.0
 10
-0.0289388020833333
 20
11.35503472222222
 30
0.0
  0
ENDBLK
  5
2670
330
266C
100
AcDbEntity
  8
0
100
AcDbBlockEnd
  0
BLOCK
  5
2674
330
2671
100
AcDbEntity
  8
0
 62
     7
100
AcDbBlockBegin
  2
AI9-BLK8
 70
     0
 10
0.0
 20
0.0
 30
0.0
  3
AI9-BLK8
  1

  0
LWPOLYLINE
  5
2672
330
2671
100
AcDbEntity
  8
LAYER_1
 62
     7
100
AcDbPolyline
 90
       10
 70
     1
 43
0.0
 10
-3.792361111111107
 20
10.7376736111111
 10
-2.268939887152773
 20
10.7376736111111
 10
2.557638888888888
 20
-6.505718315972222
 10
2.557638888888888
 20
10.7376736111111
 10
3.792361111111107
 20
10.7376736111111
 10
3.792361111111107
 20
-10.7376736111111
 10
2.32612847222222
 20
-10.7376736111111
 10
-2.557638888888888
 20
6.549815538194441
 10
-2.557638888888888
 20
-10.7376736111111
 10
-3.792361111111107
 20
-10.7376736111111
  0
HATCH
  5
2673
330
2671
100
AcDbEntity
  8
LAYER_1
 62
     7
100
AcDbHatch
 10
0.0
 20
0.0
 30
0.0
210
0.0
220
0.0
230
1.0
  2
SOLID
 70
     1
 71
     0
 91
        1
 92
        3
 72
     0
 73
     1
 93
       10
 10
-3.792361111111107
 20
10.7376736111111
 10
-2.268939887152773
 20
10.7376736111111
 10
2.557638888888888
 20
-6.505718315972222
 10
2.557638888888888
 20
10.7376736111111
 10
3.792361111111107
 20
10.7376736111111
 10
3.792361111111107
 20
-10.7376736111111
 10
2.32612847222222
 20
-10.7376736111111
 10
-2.557638888888888
 20
6.549815538194441
 10
-2.557638888888888
 20
-10.7376736111111
 10
-3.792361111111107
 20
-10.7376736111111
 97
        0
 75
     2
 76
     1
 98
        1
 10
0.0
 20
0.0
  0
ENDBLK
  5
2675
330
2671
100
AcDbEntity
  8
0
100
AcDbBlockEnd
  0
BLOCK
  5
2679
330
2676
100
AcDbEntity
  8
0
 62
     7
100
AcDbBlockBegin
  2
AI9-BLK7
 70
     0
 10
0.0
 20
0.0
 30
0.0
  3
AI9-BLK7
  1

  0
LWPOLYLINE
  5
2677
330
2676
100
AcDbEntity
  8
LAYER_1
 62
     7
100
AcDbPolyline
 90
        4
 70
     1
 43
0.0
 10
-0.6614583333333333
 20
10.7376736111111
 10
0.6614583333333333
 20
10.7376736111111
 10
0.6614583333333333
 20
-10.7376736111111
 10
-0.6614583333333333
 20
-10.7376736111111
  0
HATCH
  5
2678
330
2676
100
AcDbEntity
  8
LAYER_1
 62
     7
100
AcDbHatch
 10
0.0
 20
0.0
 30
0.0
210
0.0
220
0.0
230
1.0
  2
SOLID
 70
     1
 71
     0
 91
        1
 92
        3
 72
     0
 73
     1
 93
        4
 10
-0.6614583333333333
 20
10.7376736111111
 10
0.6614583333333333
 20
10.7376736111111
 10
0.6614583333333333
 20
-10.7376736111111
 10
-0.6614583333333333
 20
-10.7376736111111
 97
        0
 75
     2
 76
     1
 98
        1
 10
0.0
 20
0.0
  0
ENDBLK
  5
267A
330
2676
100
AcDbEntity
  8
0
100
AcDbBlockEnd
  0
BLOCK
  5
267D
330
267B
100
AcDbEntity
  8
0
 62
     7
100
AcDbBlockBegin
  2
AI9-BLK6
 70
     0
 10
0.0
 20
0.0
 30
0.0
  3
AI9-BLK6
  1

  0
SPLINE
  5
267C
330
267B
100
AcDbEntity
  8
LAYER_1
 62
     7
100
AcDbSpline
210
0.0
220
0.0
230
1.0
 70
    11
 71
     3
 72
    59
 73
    55
 74
     0
 42
0.0000000001
 43
0.0000000001
 40
0.0
 40
0.0
 40
0.0
 40
0.0
 40
1.0
 40
1.0
 40
1.0
 40
2.0
 40
2.0
 40
2.0
 40
3.0
 40
3.0
 40
3.0
 40
4.0
 40
4.0
 40
4.0
 40
5.0
 40
5.0
 40
5.0
 40
6.0
 40
6.0
 40
6.0
 40
7.0
 40
7.0
 40
7.0
 40
8.0
 40
8.0
 40
8.0
 40
9.0
 40
9.0
 40
9.0
 40
10.0
 40
10.0
 40
10.0
 40
11.0
 40
11.0
 40
11.0
 40
12.0
 40
12.0
 40
12.0
 40
13.0
 40
13.0
 40
13.0
 40
14.0
 40
14.0
 40
14.0
 40
15.0
 40
15.0
 40
15.0
 40
16.0
 40
16.0
 40
16.0
 40
17.0
 40
17.0
 40
17.0
 40
18.0
 40
18.0
 40
18.0
 40
18.0
 10
3.062689887152775
 20
9.168088107638887
 30
0.0
 10
3.735172526041666
 20
7.739062499999997
 30
0.0
 10
4.110687934027776
 20
6.116422526041666
 30
0.0
 10
4.189236111111108
 20
4.299479166666666
 30
0.0
 10
4.189236111111108
 20
4.299479166666666
 30
0.0
 10
2.866319444444443
 20
4.299479166666666
 30
0.0
 10
2.866319444444443
 20
4.299479166666666
 30
0.0
 10
2.720936414930555
 20
5.667871093749997
 30
0.0
 10
2.435682508680555
 20
6.752387152777776
 30
0.0
 10
2.009868706597218
 20
7.553027343749997
 30
0.0
 10
1.584054904513888
 20
8.352978515624997
 30
0.0
 10
0.9839192708333332
 20
8.753298611111111
 30
0.0
 10
0.2101508246527778
 20
8.753298611111111
 30
0.0
 10
-0.7386284722222222
 20
8.753298611111111
 30
0.0
 10
-1.503439670138888
 20
8.010536024305555
 30
0.0
 10
-2.083593749999999
 20
6.526388888888886
 30
0.0
 10
-2.664436848958333
 20
5.042241753472221
 30
0.0
 10
-2.954513888888888
 20
2.767100694444443
 30
0.0
 10
-2.954513888888888
 20
-0.2990342881944444
 30
0.0
 10
-2.954513888888888
 20
-2.811197916666666
 30
0.0
 10
-2.693375651041666
 20
-4.847938368055555
 30
0.0
 10
-2.17041015625
 20
-6.409944661458332
 30
0.0
 10
-1.648133680555553
 20
-7.972639973958332
 30
0.0
 10
-0.8640299479166666
 20
-8.753298611111111
 30
0.0
 10
0.1812120225694444
 20
-8.753298611111111
 30
0.0
 10
1.138948567708333
 20
-8.753298611111111
 30
0.0
 10
1.865174696180553
 20
-7.927853732638887
 30
0.0
 10
2.359201388888884
 20
-6.275585937499998
 30
0.0
 10
2.62998589409722
 20
-5.406043836805555
 30
0.0
 10
2.828423394097221
 20
-4.262272135416666
 30
0.0
 10
2.954513888888888
 20
-2.844270833333331
 30
0.0
 10
2.954513888888888
 20
-2.844270833333331
 30
0.0
 10
4.277430555555555
 20
-2.844270833333331
 30
0.0
 10
4.277430555555555
 20
-2.844270833333331
 30
0.0
 10
4.169943576388888
 20
-5.109765624999996
 30
0.0
 10
3.795117187499998
 20
-7.009391276041665
 30
0.0
 10
3.151573350694443
 20
-8.542458767361106
 30
0.0
 10
2.381249999999999
 20
-10.38834092881943
 30
0.0
 10
1.347721354166665
 20
-11.3109375
 30
0.0
 10
0.0509874131944445
 20
-11.3109375
 30
0.0
 10
-1.07004665798611
 20
-11.3109375
 30
0.0
 10
-2.010557725694444
 20
-10.55577256944443
 30
0.0
 10
-2.771234809027776
 20
-9.04475368923611
 30
0.0
 10
-3.775824652777775
 20
-7.046598307291666
 30
0.0
 10
-4.277430555555555
 20
-3.961170789930555
 30
0.0
 10
-4.277430555555555
 20
0.2115288628472222
 30
0.0
 10
-4.277430555555555
 20
3.379638671874998
 30
0.0
 10
-3.902604166666666
 20
5.977929687499997
 30
0.0
 10
-3.151573350694443
 20
8.005712890624996
 30
0.0
 10
-2.333018663194443
 20
10.20919596354165
 30
0.0
 10
-1.20647243923611
 20
11.3109375
 30
0.0
 10
0.2266872829861111
 20
11.3109375
 30
0.0
 10
1.444873046875
 20
11.3109375
 30
0.0
 10
2.390207248263884
 20
10.59642469618055
 30
0.0
 10
3.062689887152775
 20
9.168088107638887
 30
0.0
  0
ENDBLK
  5
267E
330
267B
100
AcDbEntity
  8
0
100
AcDbBlockEnd
  0
BLOCK
  5
2682
330
267F
100
AcDbEntity
  8
0
 62
     7
100
AcDbBlockBegin
  2
AI9-BLK5
 70
     0
 10
0.0
 20
0.0
 30
0.0
  3
AI9-BLK5
  1

  0
SPLINE
  5
2680
330
267F
100
AcDbEntity
  8
LAYER_1
 62
     7
100
AcDbSpline
210
0.0
220
0.0
230
1.0
 70
    11
 71
     3
 72
    32
 73
    28
 74
     0
 42
0.0000000001
 43
0.0000000001
 40
0.0
 40
0.0
 40
0.0
 40
0.0
 40
1.0
 40
1.0
 40
1.0
 40
2.0
 40
2.0
 40
2.0
 40
3.0
 40
3.0
 40
3.0
 40
4.0
 40
4.0
 40
4.0
 40
5.0
 40
5.0
 40
5.0
 40
6.0
 40
6.0
 40
6.0
 40
7.0
 40
7.0
 40
7.0
 40
8.0
 40
8.0
 40
8.0
 40
9.0
 40
9.0
 40
9.0
 40
9.0
 10
-2.62378472222222
 20
-8.268229166666666
 30
0.0
 10
-2.62378472222222
 20
-8.268229166666666
 30
0.0
 10
-2.62378472222222
 20
8.180034722222217
 30
0.0
 10
-2.62378472222222
 20
8.180034722222217
 30
0.0
 10
-2.62378472222222
 20
8.180034722222217
 30
0.0
 10
-0.3376193576388888
 20
8.180034722222217
 30
0.0
 10
-0.3376193576388888
 20
8.180034722222217
 30
0.0
 10
0.6972873263888888
 20
8.180034722222217
 30
0.0
 10
1.449007161458333
 20
7.445540364583332
 30
0.0
 10
1.918918185763885
 20
5.977929687499997
 30
0.0
 10
2.388829210069443
 20
4.510319010416666
 30
0.0
 10
2.62378472222222
 20
2.449462890624999
 30
0.0
 10
2.62378472222222
 20
-0.204638671875
 30
0.0
 10
2.62378472222222
 20
-0.8950358072916666
 30
0.0
 10
2.590022786458332
 20
-1.643310546874999
 30
0.0
 10
2.523187934027773
 20
-2.45015190972222
 30
0.0
 10
2.408121744791666
 20
-3.80200737847222
 30
0.0
 10
2.226220703124999
 20
-4.909950086805555
 30
0.0
 10
1.976795789930553
 20
-5.774669053819441
 30
0.0
 10
1.659847005208333
 20
-6.853672960069442
 30
0.0
 10
1.252636718749998
 20
-7.583344184027778
 30
0.0
 10
0.7544759114583333
 20
-7.962304687499997
 30
0.0
 10
0.4664659288194444
 20
-8.166254340277777
 30
0.0
 10
0.1074869791666666
 20
-8.268229166666666
 30
0.0
 10
-0.3231499565972222
 20
-8.268229166666666
 30
0.0
 10
-0.3231499565972222
 20
-8.268229166666666
 30
0.0
 10
-2.62378472222222
 20
-8.268229166666666
 30
0.0
 10
-2.62378472222222
 20
-8.268229166666666
 30
0.0
  0
SPLINE
  5
2681
330
267F
100
AcDbEntity
  8
LAYER_1
 62
     7
100
AcDbSpline
210
0.0
220
0.0
230
1.0
 70
    11
 71
     3
 72
    26
 73
    22
 74
     0
 42
0.0000000001
 43
0.0000000001
 40
0.0
 40
0.0
 40
0.0
 40
0.0
 40
1.0
 40
1.0
 40
1.0
 40
2.0
 40
2.0
 40
2.0
 40
3.0
 40
3.0
 40
3.0
 40
4.0
 40
4.0
 40
4.0
 40
5.0
 40
5.0
 40
5.0
 40
6.0
 40
6.0
 40
6.0
 40
7.0
 40
7.0
 40
7.0
 40
7.0
 10
-3.946701388888888
 20
-10.7376736111111
 30
0.0
 10
-3.946701388888888
 20
-10.7376736111111
 30
0.0
 10
-0.0943956163194444
 20
-10.7376736111111
 30
0.0
 10
-0.0943956163194444
 20
-10.7376736111111
 30
0.0
 10
1.546847873263885
 20
-10.7376736111111
 30
0.0
 10
2.705777994791666
 20
-9.11021050347222
 30
0.0
 10
3.381705729166666
 20
-5.854595269097222
 30
0.0
 10
3.757910156249999
 20
-4.01284722222222
 30
0.0
 10
3.946701388888888
 20
-1.951991102430555
 30
0.0
 10
3.946701388888888
 20
0.328662109375
 30
0.0
 10
3.946701388888888
 20
3.281797960069443
 30
0.0
 10
3.622862413194443
 20
5.703700086805552
 30
0.0
 10
2.976562499999998
 20
7.594368489583332
 30
0.0
 10
2.25171440972222
 20
9.689675564236106
 30
0.0
 10
1.233344184027777
 20
10.7376736111111
 30
0.0
 10
-0.0799262152777778
 20
10.7376736111111
 30
0.0
 10
-0.0799262152777778
 20
10.7376736111111
 30
0.0
 10
-3.946701388888888
 20
10.7376736111111
 30
0.0
 10
-3.946701388888888
 20
10.7376736111111
 30
0.0
 10
-3.946701388888888
 20
10.7376736111111
 30
0.0
 10
-3.946701388888888
 20
-10.7376736111111
 30
0.0
 10
-3.946701388888888
 20
-10.7376736111111
 30
0.0
  0
ENDBLK
  5
2683
330
267F
100
AcDbEntity
  8
0
100
AcDbBlockEnd
  0
BLOCK
  5
2687
330
2684
100
AcDbEntity
  8
0
 62
     7
100
AcDbBlockBegin
  2
AI9-BLK4
 70
     0
 10
0.0
 20
0.0
 30
0.0
  3
AI9-BLK4
  1

  0
SPLINE
  5
2685
330
2684
100
AcDbEntity
  8
LAYER_1
 62
     7
100
AcDbSpline
210
0.0
220
0.0
230
1.0
 70
    11
 71
     3
 72
    26
 73
    22
 74
     0
 42
0.0000000001
 43
0.0000000001
 40
0.0
 40
0.0
 40
0.0
 40
0.0
 40
1.0
 40
1.0
 40
1.0
 40
2.0
 40
2.0
 40
2.0
 40
3.0
 40
3.0
 40
3.0
 40
4.0
 40
4.0
 40
4.0
 40
5.0
 40
5.0
 40
5.0
 40
6.0
 40
6.0
 40
6.0
 40
7.0
 40
7.0
 40
7.0
 40
7.0
 10
-2.645833333333333
 20
0.9039930555555551
 30
0.0
 10
-2.645833333333333
 20
0.9039930555555551
 30
0.0
 10
-2.645833333333333
 20
8.180034722222217
 30
0.0
 10
-2.645833333333333
 20
8.180034722222217
 30
0.0
 10
-2.645833333333333
 20
8.180034722222217
 30
0.0
 10
0.465087890625
 20
8.180034722222217
 30
0.0
 10
0.465087890625
 20
8.180034722222217
 30
0.0
 10
0.9026150173611108
 20
8.180034722222217
 30
0.0
 10
1.24988064236111
 20
8.034651692708331
 30
0.0
 10
1.506884765625
 20
7.745263671874997
 30
0.0
 10
2.001600477430554
 20
7.194048394097221
 30
0.0
 10
2.248958333333332
 20
6.160519748263887
 30
0.0
 10
2.248958333333332
 20
4.643299696180553
 30
0.0
 10
2.248958333333332
 20
3.232188585069443
 30
0.0
 10
2.072569444444444
 20
2.256537543402775
 30
0.0
 10
1.720480685763888
 20
1.715657552083333
 30
0.0
 10
1.368391927083333
 20
1.174088541666665
 30
0.0
 10
0.8929687499999998
 20
0.9039930555555551
 30
0.0
 10
0.2942111545138888
 20
0.9039930555555551
 30
0.0
 10
0.2942111545138888
 20
0.9039930555555551
 30
0.0
 10
-2.645833333333333
 20
0.9039930555555551
 30
0.0
 10
-2.645833333333333
 20
0.9039930555555551
 30
0.0
  0
SPLINE
  5
2686
330
2684
100
AcDbEntity
  8
LAYER_1
 62
     7
100
AcDbSpline
210
0.0
220
0.0
230
1.0
 70
    11
 71
     3
 72
    68
 73
    64
 74
     0
 42
0.0000000001
 43
0.0000000001
 40
0.0
 40
0.0
 40
0.0
 40
0.0
 40
1.0
 40
1.0
 40
1.0
 40
2.0
 40
2.0
 40
2.0
 40
3.0
 40
3.0
 40
3.0
 40
4.0
 40
4.0
 40
4.0
 40
5.0
 40
5.0
 40
5.0
 40
6.0
 40
6.0
 40
6.0
 40
7.0
 40
7.0
 40
7.0
 40
8.0
 40
8.0
 40
8.0
 40
9.0
 40
9.0
 40
9.0
 40
10.0
 40
10.0
 40
10.0
 40
11.0
 40
11.0
 40
11.0
 40
12.0
 40
12.0
 40
12.0
 40
13.0
 40
13.0
 40
13.0
 40
14.0
 40
14.0
 40
14.0
 40
15.0
 40
15.0
 40
15.0
 40
16.0
 40
16.0
 40
16.0
 40
17.0
 40
17.0
 40
17.0
 40
18.0
 40
18.0
 40
18.0
 40
19.0
 40
19.0
 40
19.0
 40
20.0
 40
20.0
 40
20.0
 40
21.0
 40
21.0
 40
21.0
 40
21.0
 10
-3.968749999999998
 20
-10.7376736111111
 30
0.0
 10
-3.968749999999998
 20
-10.7376736111111
 30
0.0
 10
-2.645833333333333
 20
-10.7376736111111
 30
0.0
 10
-2.645833333333333
 20
-10.7376736111111
 30
0.0
 10
-2.645833333333333
 20
-10.7376736111111
 30
0.0
 10
-2.645833333333333
 20
-1.521354166666665
 30
0.0
 10
-2.645833333333333
 20
-1.521354166666665
 30
0.0
 10
-2.645833333333333
 20
-1.521354166666665
 30
0.0
 10
0.2390896267361111
 20
-1.521354166666665
 30
0.0
 10
0.2390896267361111
 20
-1.521354166666665
 30
0.0
 10
0.7599880642361111
 20
-1.521354166666665
 30
0.0
 10
1.143771701388887
 20
-1.65295681423611
 30
0.0
 10
1.390440538194444
 20
-1.916162109374999
 30
0.0
 10
1.816254340277773
 20
-2.39434136284722
 30
0.0
 10
2.04363064236111
 20
-3.335541449652775
 30
0.0
 10
2.072569444444444
 20
-4.739762369791666
 30
0.0
 10
2.072569444444444
 20
-4.739762369791666
 30
0.0
 10
2.160763888888888
 20
-8.324039713541665
 30
0.0
 10
2.160763888888888
 20
-8.324039713541665
 30
0.0
 10
2.18005642361111
 20
-9.163264973958332
 30
0.0
 10
2.202794053819443
 20
-9.728949652777775
 30
0.0
 10
2.227598741319444
 20
-10.02109374999998
 30
0.0
 10
2.252403428819443
 20
-10.31392686631944
 30
0.0
 10
2.28892144097222
 20
-10.55301649305555
 30
0.0
 10
2.33853081597222
 20
-10.7376736111111
 30
0.0
 10
2.33853081597222
 20
-10.7376736111111
 30
0.0
 10
3.968749999999998
 20
-10.7376736111111
 30
0.0
 10
3.968749999999998
 20
-10.7376736111111
 30
0.0
 10
3.968749999999998
 20
-10.7376736111111
 30
0.0
 10
3.968749999999998
 20
-10.25260416666666
 30
0.0
 10
3.968749999999998
 20
-10.25260416666666
 30
0.0
 10
3.766867404513888
 20
-10.05830078125
 30
0.0
 10
3.625618489583333
 20
-9.621462673611112
 30
0.0
 10
3.545692274305555
 20
-8.942089843749997
 30
0.0
 10
3.49470486111111
 20
-8.543836805555555
 30
0.0
 10
3.459564887152775
 20
-7.937499999999999
 30
0.0
 10
3.439583333333333
 20
-7.121701388888887
 30
0.0
 10
3.439583333333333
 20
-7.121701388888887
 30
0.0
 10
3.395486111111106
 20
-4.232644314236106
 30
0.0
 10
3.395486111111106
 20
-4.232644314236106
 30
0.0
 10
3.375504557291666
 20
-2.981385633680555
 30
0.0
 10
3.26870659722222
 20
-2.077392578125
 30
0.0
 10
3.075781249999999
 20
-1.522043185763888
 30
0.0
 10
2.882166883680555
 20
-0.9666937934027776
 30
0.0
 10
2.592089843749999
 20
-0.5188313802083333
 30
0.0
 10
2.204861111111106
 20
-0.1770779079861111
 30
0.0
 10
2.63618706597222
 20
0.3197048611111111
 30
0.0
 10
2.971739366319443
 20
0.9770290798611107
 30
0.0
 10
3.211518012152775
 20
1.79558376736111
 30
0.0
 10
3.451296657986107
 20
2.613449435763888
 30
0.0
 10
3.571874999999999
 20
3.66558159722222
 30
0.0
 10
3.571874999999999
 20
4.951291232638888
 30
0.0
 10
3.571874999999999
 20
7.415912543402777
 30
0.0
 10
3.124701605902775
 20
9.106076388888887
 30
0.0
 10
2.231043836805555
 20
10.02178276909722
 30
0.0
 10
1.759754774305553
 20
10.498583984375
 30
0.0
 10
1.163753255208332
 20
10.7376736111111
 30
0.0
 10
0.443039279513889
 20
10.7376736111111
 30
0.0
 10
0.443039279513889
 20
10.7376736111111
 30
0.0
 10
-3.968749999999998
 20
10.7376736111111
 30
0.0
 10
-3.968749999999998
 20
10.7376736111111
 30
0.0
 10
-3.968749999999998
 20
10.7376736111111
 30
0.0
 10
-3.968749999999998
 20
-10.7376736111111
 30
0.0
 10
-3.968749999999998
 20
-10.7376736111111
 30
0.0
  0
ENDBLK
  5
2688
330
2684
100
AcDbEntity
  8
0
100
AcDbBlockEnd
  0
BLOCK
  5
268C
330
2689
100
AcDbEntity
  8
0
 62
     7
100
AcDbBlockBegin
  2
AI9-BLK3
 70
     0
 10
0.0
 20
0.0
 30
0.0
  3
AI9-BLK3
  1

  0
LWPOLYLINE
  5
268A
330
2689
100
AcDbEntity
  8
LAYER_1
 62
     7
100
AcDbPolyline
 90
        4
 70
     1
 43
0.0
 10
-0.6613722059461809
 20
10.7376736111111
 10
0.6613722059461809
 20
10.7376736111111
 10
0.6613722059461809
 20
-10.7376736111111
 10
-0.6613722059461809
 20
-10.7376736111111
  0
HATCH
  5
268B
330
2689
100
AcDbEntity
  8
LAYER_1
 62
     7
100
AcDbHatch
 10
0.0
 20
0.0
 30
0.0
210
0.0
220
0.0
230
1.0
  2
SOLID
 70
     1
 71
     0
 91
        1
 92
        3
 72
     0
 73
     1
 93
        4
 10
-0.6613722059461809
 20
10.7376736111111
 10
0.6613722059461809
 20
10.7376736111111
 10
0.6613722059461809
 20
-10.7376736111111
 10
-0.6613722059461809
 20
-10.7376736111111
 97
        0
 75
     2
 76
     1
 98
        1
 10
0.0
 20
0.0
  0
ENDBLK
  5
268D
330
2689
100
AcDbEntity
  8
0
100
AcDbBlockEnd
  0
BLOCK
  5
2691
330
268E
100
AcDbEntity
  8
0
 62
     7
100
AcDbBlockBegin
  2
AI9-BLK2
 70
     0
 10
0.0
 20
0.0
 30
0.0
  3
AI9-BLK2
  1

  0
LWPOLYLINE
  5
268F
330
268E
100
AcDbEntity
  8
LAYER_1
 62
     7
100
AcDbPolyline
 90
        7
 70
     1
 43
0.0
 10
-2.785704210069443
 20
10.7376736111111
 10
0.0
 20
-7.550960286458332
 10
2.771234809027776
 20
10.7376736111111
 10
4.233333333333331
 20
10.7376736111111
 10
0.6910861545138888
 20
-10.7376736111111
 10
-0.7055555555555558
 20
-10.7376736111111
 10
-4.233333333333331
 20
10.7376736111111
  0
HATCH
  5
2690
330
268E
100
AcDbEntity
  8
LAYER_1
 62
     7
100
AcDbHatch
 10
0.0
 20
0.0
 30
0.0
210
0.0
220
0.0
230
1.0
  2
SOLID
 70
     1
 71
     0
 91
        1
 92
        3
 72
     0
 73
     1
 93
        7
 10
-2.785704210069443
 20
10.7376736111111
 10
0.0
 20
-7.550960286458332
 10
2.771234809027776
 20
10.7376736111111
 10
4.233333333333331
 20
10.7376736111111
 10
0.6910861545138888
 20
-10.7376736111111
 10
-0.7055555555555558
 20
-10.7376736111111
 10
-4.233333333333331
 20
10.7376736111111
 97
        0
 75
     2
 76
     1
 98
        1
 10
0.0
 20
0.0
  0
ENDBLK
  5
2692
330
268E
100
AcDbEntity
  8
0
100
AcDbBlockEnd
  0
BLOCK
  5
2696
330
2693
100
AcDbEntity
  8
0
 62
     7
100
AcDbBlockBegin
  2
AI9-BLK1
 70
     0
 10
0.0
 20
0.0
 30
0.0
  3
AI9-BLK1
  1

  0
LWPOLYLINE
  5
2694
330
2693
100
AcDbEntity
  8
LAYER_1
 62
     7
100
AcDbPolyline
 90
       12
 70
     1
 43
0.0
 10
-3.571874999999999
 20
10.7376736111111
 10
3.483680555555555
 20
10.7376736111111
 10
3.483680555555555
 20
8.091840277777777
 10
-2.248958333333332
 20
8.091840277777777
 10
-2.248958333333332
 20
1.565451388888888
 10
3.042708333333333
 20
1.565451388888888
 10
3.042708333333333
 20
-0.9039930555555551
 10
-2.248958333333332
 20
-0.9039930555555551
 10
-2.248958333333332
 20
-8.180034722222217
 10
3.571874999999999
 20
-8.180034722222217
 10
3.571874999999999
 20
-10.7376736111111
 10
-3.571874999999999
 20
-10.7376736111111
  0
HATCH
  5
2695
330
2693
100
AcDbEntity
  8
LAYER_1
 62
     7
100
AcDbHatch
 10
0.0
 20
0.0
 30
0.0
210
0.0
220
0.0
230
1.0
  2
SOLID
 70
     1
 71
     0
 91
        1
 92
        3
 72
     0
 73
     1
 93
       12
 10
-3.571874999999999
 20
10.7376736111111
 10
3.483680555555555
 20
10.7376736111111
 10
3.483680555555555
 20
8.091840277777777
 10
-2.248958333333332
 20
8.091840277777777
 10
-2.248958333333332
 20
1.565451388888888
 10
3.042708333333333
 20
1.565451388888888
 10
3.042708333333333
 20
-0.9039930555555551
 10
-2.248958333333332
 20
-0.9039930555555551
 10
-2.248958333333332
 20
-8.180034722222217
 10
3.571874999999999
 20
-8.180034722222217
 10
3.571874999999999
 20
-10.7376736111111
 10
-3.571874999999999
 20
-10.7376736111111
 97
        0
 75
     2
 76
     1
 98
        1
 10
0.0
 20
0.0
  0
ENDBLK
  5
2697
330
2693
100
AcDbEntity
  8
0
100
AcDbBlockEnd
  0
BLOCK
  5
26BB
330
2698
100
AcDbEntity
  8
0
100
AcDbBlockBegin
  2
HD_LLC_logo_OT5
 70
     0
 10
0.0
 20
0.0
 30
0.0
  3
HD_LLC_logo_OT5
  1

  0
SPLINE
  5
2699
102
{ACAD_REACTORS
330
26B9
102
}
330
2698
100
AcDbEntity
  8
LAYER_1
 62
     7
100
AcDbSpline
210
0.0
220
0.0
230
1.0
 70
    11
 71
     3
 72
   113
 73
   109
 74
     0
 42
0.0000000001
 43
0.0000000001
 40
0.0
 40
0.0
 40
0.0
 40
0.0
 40
1.0
 40
1.0
 40
1.0
 40
2.0
 40
2.0
 40
2.0
 40
3.0
 40
3.0
 40
3.0
 40
4.0
 40
4.0
 40
4.0
 40
5.0
 40
5.0
 40
5.0
 40
6.0
 40
6.0
 40
6.0
 40
7.0
 40
7.0
 40
7.0
 40
8.0
 40
8.0
 40
8.0
 40
9.0
 40
9.0
 40
9.0
 40
10.0
 40
10.0
 40
10.0
 40
11.0
 40
11.0
 40
11.0
 40
12.0
 40
12.0
 40
12.0
 40
13.0
 40
13.0
 40
13.0
 40
14.0
 40
14.0
 40
14.0
 40
15.0
 40
15.0
 40
15.0
 40
16.0
 40
16.0
 40
16.0
 40
17.0
 40
17.0
 40
17.0
 40
18.0
 40
18.0
 40
18.0
 40
19.0
 40
19.0
 40
19.0
 40
20.0
 40
20.0
 40
20.0
 40
21.0
 40
21.0
 40
21.0
 40
22.0
 40
22.0
 40
22.0
 40
23.0
 40
23.0
 40
23.0
 40
24.0
 40
24.0
 40
24.0
 40
25.0
 40
25.0
 40
25.0
 40
26.0
 40
26.0
 40
26.0
 40
27.0
 40
27.0
 40
27.0
 40
28.0
 40
28.0
 40
28.0
 40
29.0
 40
29.0
 40
29.0
 40
30.0
 40
30.0
 40
30.0
 40
31.0
 40
31.0
 40
31.0
 40
32.0
 40
32.0
 40
32.0
 40
33.0
 40
33.0
 40
33.0
 40
34.0
 40
34.0
 40
34.0
 40
35.0
 40
35.0
 40
35.0
 40
36.0
 40
36.0
 40
36.0
 40
36.0
 10
193.3039632161458
 20
186.1548733181423
 30
0.0
 10
193.3039632161458
 20
186.1860514322916
 30
0.0
 10
193.3039632161458
 20
219.6932223849826
 30
0.0
 10
193.3039632161458
 20
219.6932223849826
 30
0.0
 10
193.3039632161458
 20
219.6932223849826
 30
0.0
 10
193.2974175347219
 20
219.7488606770833
 30
0.0
 10
193.2974175347219
 20
219.7488606770833
 30
0.0
 10
191.5293945312499
 20
235.455740017361
 30
0.0
 10
175.1458984374999
 20
235.2467949761284
 30
0.0
 10
174.9808783637151
 20
235.2428331163193
 30
0.0
 10
174.9808783637151
 20
235.2428331163193
 30
0.0
 10
125.8827555338541
 20
235.2430053710937
 30
0.0
 10
125.8827555338541
 20
235.2430053710937
 30
0.0
 10
125.8827555338541
 20
235.2430053710937
 30
0.0
 10
125.8827555338541
 20
255.5278998480901
 30
0.0
 10
125.8827555338541
 20
255.5278998480901
 30
0.0
 10
125.8827555338541
 20
255.5278998480901
 30
0.0
 10
84.5626247829861
 20
255.5278998480901
 30
0.0
 10
84.5626247829861
 20
255.5278998480901
 30
0.0
 10
84.5626247829861
 20
255.5278998480901
 30
0.0
 10
84.55711263020829
 20
233.7919311523436
 30
0.0
 10
84.55711263020829
 20
233.7919311523436
 30
0.0
 10
84.55711263020829
 20
233.7919311523436
 30
0.0
 10
64.42052951388888
 20
233.7919311523436
 30
0.0
 10
64.42052951388888
 20
233.7919311523436
 30
0.0
 10
64.42052951388888
 20
233.7919311523436
 30
0.0
 10
64.41501736111111
 20
255.5278998480901
 30
0.0
 10
64.41501736111111
 20
255.5278998480901
 30
0.0
 10
64.41501736111111
 20
255.5278998480901
 30
0.0
 10
23.91757541232637
 20
255.5278998480901
 30
0.0
 10
23.91757541232637
 20
255.5278998480901
 30
0.0
 10
23.91757541232637
 20
255.5278998480901
 30
0.0
 10
23.91757541232637
 20
233.2393378363715
 30
0.0
 10
23.91757541232637
 20
233.2393378363715
 30
0.0
 10
23.91757541232637
 20
233.2393378363715
 30
0.0
 10
43.65624999999999
 20
233.2393378363715
 30
0.0
 10
43.65624999999999
 20
233.2393378363715
 30
0.0
 10
43.65624999999999
 20
233.2393378363715
 30
0.0
 10
43.65624999999999
 20
211.5188720703125
 30
0.0
 10
43.65624999999999
 20
211.5188720703125
 30
0.0
 10
43.65624999999999
 20
211.5188720703125
 30
0.0
 10
23.91757541232637
 20
211.5188720703125
 30
0.0
 10
23.91757541232637
 20
211.5188720703125
 30
0.0
 10
23.91757541232637
 20
211.5188720703125
 30
0.0
 10
23.91757541232637
 20
189.2303100585936
 30
0.0
 10
23.91757541232637
 20
189.2303100585936
 30
0.0
 10
23.91757541232637
 20
189.2303100585936
 30
0.0
 10
64.41501736111111
 20
189.2303100585936
 30
0.0
 10
64.41501736111111
 20
189.2303100585936
 30
0.0
 10
64.41501736111111
 20
189.2303100585936
 30
0.0
 10
64.42052951388888
 20
211.069976128472
 30
0.0
 10
64.42052951388888
 20
211.069976128472
 30
0.0
 10
64.42052951388888
 20
211.069976128472
 30
0.0
 10
84.55711263020829
 20
211.069976128472
 30
0.0
 10
84.55711263020829
 20
211.069976128472
 30
0.0
 10
84.55711263020829
 20
211.069976128472
 30
0.0
 10
84.5626247829861
 20
189.2303100585936
 30
0.0
 10
84.5626247829861
 20
189.2303100585936
 30
0.0
 10
84.5626247829861
 20
189.2303100585936
 30
0.0
 10
125.8827555338541
 20
189.2303100585936
 30
0.0
 10
125.8827555338541
 20
189.2303100585936
 30
0.0
 10
125.8827555338541
 20
189.2303100585936
 30
0.0
 10
125.8827555338541
 20
211.5188720703125
 30
0.0
 10
125.8827555338541
 20
211.5188720703125
 30
0.0
 10
125.8827555338541
 20
211.5188720703125
 30
0.0
 10
105.3213921440971
 20
211.5188720703125
 30
0.0
 10
105.3213921440971
 20
211.5188720703125
 30
0.0
 10
105.3213921440971
 20
211.5188720703125
 30
0.0
 10
105.3213921440971
 20
233.2393378363715
 30
0.0
 10
105.3213921440971
 20
233.2393378363715
 30
0.0
 10
105.3213921440971
 20
233.2393378363715
 30
0.0
 10
175.0046495225693
 20
233.243127441406
 30
0.0
 10
175.0046495225693
 20
233.243127441406
 30
0.0
 10
175.6268337673611
 20
233.2560465494791
 30
0.0
 10
189.7165852864583
 20
233.3962619357638
 30
0.0
 10
191.3037407769094
 20
219.5690266927083
 30
0.0
 10
191.3037407769094
 20
219.4332899305555
 30
0.0
 10
191.3037407769094
 20
186.1142211914062
 30
0.0
 10
191.3037407769094
 20
186.1142211914062
 30
0.0
 10
191.3037407769094
 20
186.1142211914062
 30
0.0
 10
191.3051188151039
 20
186.0880384657115
 30
0.0
 10
191.3051188151039
 20
186.0880384657115
 30
0.0
 10
191.3054633246526
 20
186.0787367078991
 30
0.0
 10
191.3109754774304
 20
185.9566080729166
 30
0.0
 10
191.3109754774304
 20
185.7399115668401
 30
0.0
 10
191.3109754774304
 20
184.2090833875865
 30
0.0
 10
191.0488037109374
 20
177.9643310546874
 30
0.0
 10
186.9866916232638
 20
173.5652886284722
 30
0.0
 10
184.2540418836804
 20
170.6064683702255
 30
0.0
 10
180.3224989149304
 20
169.0308539496526
 30
0.0
 10
175.300927734375
 20
168.8825425889756
 30
0.0
 10
175.300927734375
 20
168.8825425889756
 30
0.0
 10
107.0094889322916
 20
168.8828870985243
 30
0.0
 10
107.0094889322916
 20
168.8828870985243
 30
0.0
 10
107.0094889322916
 20
168.8828870985243
 30
0.0
 10
107.0094889322916
 20
166.8830091688368
 30
0.0
 10
107.0094889322916
 20
166.8830091688368
 30
0.0
 10
107.0094889322916
 20
166.8830091688368
 30
0.0
 10
175.3305555555555
 20
166.8830091688368
 30
0.0
 10
175.3305555555555
 20
166.8830091688368
 30
0.0
 10
180.9467502170138
 20
167.0485460069444
 30
0.0
 10
185.3571614583333
 20
168.8448187934026
 30
0.0
 10
188.4687717013888
 20
172.2223904079861
 30
0.0
 10
192.9649658203124
 20
177.1034016927083
 30
0.0
 10
193.3136094835069
 20
183.7202243381076
 30
0.0
 10
193.3136094835069
 20
185.6520616319443
 30
0.0
 10
193.3136094835069
 20
185.9247409396701
 30
0.0
 10
193.3070638020833
 20
186.0868326822916
 30
0.0
 10
193.3039632161458
 20
186.1548733181423
 30
0.0
  0
INSERT
  5
269A
102
{ACAD_REACTORS
330
26BA
102
}
330
2698
100
AcDbEntity
  8
LAYER_1
 62
     7
100
AcDbBlockReference
  2
AI9-BLK14
 10
159.5625257703993
 20
200.5118781195744
 30
0.0
  0
INSERT
  5
269B
330
2698
100
AcDbEntity
  8
LAYER_1
 62
     7
100
AcDbBlockReference
  2
AI9-BLK13
 10
27.69615614149305
 20
179.2145562065971
 30
0.0
 42
0.9200000000000001
  0
INSERT
  5
269C
102
{ACAD_REACTORS
330
26A7
102
}
330
2698
100
AcDbEntity
  8
LAYER_1
 62
     7
100
AcDbBlockReference
  2
AI9-BLK11
 10
44.76591525607638
 20
179.2145562065971
 30
0.0
 42
0.9200000000000001
  0
INSERT
  5
269D
102
{ACAD_REACTORS
330
26B5
102
}
330
2698
100
AcDbEntity
  8
LAYER_1
 62
     7
100
AcDbBlockReference
  2
AI9-BLK10
 10
54.04665798611111
 20
179.2145562065971
 30
0.0
 42
0.9200000000000001
  0
INSERT
  5
269E
102
{ACAD_REACTORS
330
26B4
102
}
330
2698
100
AcDbEntity
  8
LAYER_1
 62
     7
100
AcDbBlockReference
  2
AI9-BLK9
 10
62.79013807508679
 20
179.2145562065971
 30
0.0
 42
0.9
  0
INSERT
  5
269F
330
2698
100
AcDbEntity
  8
LAYER_1
 62
     7
100
AcDbBlockReference
  2
AI9-BLK8
 10
71.03046196831595
 20
179.2145562065971
 30
0.0
 42
0.9200000000000001
  0
INSERT
  5
26A0
330
2698
100
AcDbEntity
  8
LAYER_1
 62
     7
100
AcDbBlockReference
  2
AI9-BLK7
 10
76.93793945312498
 20
179.2145562065971
 30
0.0
 42
0.9200000000000001
  0
INSERT
  5
26A1
102
{ACAD_REACTORS
330
26A8
102
}
330
2698
100
AcDbEntity
  8
LAYER_1
 62
     7
100
AcDbBlockReference
  2
AI9-BLK6
 10
82.55602891710069
 20
179.2145562065971
 30
0.0
 42
0.9
  0
INSERT
  5
26A2
102
{ACAD_REACTORS
330
26B6
102
}
330
2698
100
AcDbEntity
  8
LAYER_1
 62
     7
100
AcDbBlockReference
  2
AI9-BLK5
 10
94.32430284288193
 20
179.2145562065971
 30
0.0
 42
0.9200000000000001
  0
INSERT
  5
26A3
102
{ACAD_REACTORS
330
26B7
102
}
330
2698
100
AcDbEntity
  8
LAYER_1
 62
     7
100
AcDbBlockReference
  2
AI9-BLK4
 10
103.2081705729166
 20
179.2145562065971
 30
0.0
 42
0.9200000000000001
  0
INSERT
  5
26A4
330
2698
100
AcDbEntity
  8
LAYER_1
 62
     7
100
AcDbBlockReference
  2
AI9-BLK3
 10
108.850978597005
 20
179.2145562065971
 30
0.0
 42
0.9200000000000001
  0
INSERT
  5
26A5
330
2698
100
AcDbEntity
  8
LAYER_1
 62
     7
100
AcDbBlockReference
  2
AI9-BLK2
 10
114.2045708550346
 20
179.2145562065971
 30
0.0
 42
0.9200000000000001
  0
INSERT
  5
26A6
330
2698
100
AcDbEntity
  8
LAYER_1
 62
     7
100
AcDbBlockReference
  2
AI9-BLK1
 10
122.4125108506944
 20
179.2145562065971
 30
0.0
 42
0.9200000000000001
  0
HATCH
  5
26A7
330
2698
100
AcDbEntity
  8
0
  6
Continuous
100
AcDbHatch
 10
0.0
 20
0.0
 30
0.0
210
0.0
220
0.0
230
1.0
  2
SOLID
 70
     1
 71
     1
 91
        2
 92
       16
 93
        1
 72
     4
 94
        3
 73
     0
 74
     0
 95
       26
 96
       22
 40
0.0
 40
0.0
 40
0.0
 40
0.0
 40
1.0
 40
1.0
 40
1.0
 40
2.0
 40
2.0
 40
2.0
 40
3.0
 40
3.0
 40
3.0
 40
4.0
 40
4.0
 40
4.0
 40
5.0
 40
5.0
 40
5.0
 40
6.0
 40
6.0
 40
6.0
 40
7.0
 40
7.0
 40
7.0
 40
7.0
 10
42.12008192274304
 20
180.046229817708
 10
42.12008192274304
 20
180.046229817708
 10
42.12008192274304
 20
186.7401881510414
 10
42.12008192274304
 20
186.7401881510414
 10
42.12008192274304
 20
186.7401881510414
 10
45.23100314670138
 20
186.7401881510414
 10
45.23100314670138
 20
186.7401881510414
 10
45.66853027343749
 20
186.7401881510414
 10
46.01579589843749
 20
186.6064357638887
 10
46.27280002170138
 20
186.3401987847218
 10
46.76751573350694
 20
185.8330807291664
 10
47.01487358940972
 20
184.8822343749996
 10
47.01487358940972
 20
183.4863919270832
 10
47.01487358940972
 20
182.188169704861
 10
46.83848470052082
 20
181.2905707465276
 10
46.48639594184028
 20
180.7929611545137
 10
46.13430718315971
 20
180.2947176649304
 10
45.65888400607638
 20
180.046229817708
 10
45.06012641059028
 20
180.046229817708
 10
45.06012641059028
 20
180.046229817708
 10
42.12008192274304
 20
180.046229817708
 10
42.12008192274304
 20
180.046229817708
 97
        1
330
269C
 92
        1
 93
        1
 72
     4
 94
        3
 73
     0
 74
     0
 95
       68
 96
       64
 40
0.0
 40
0.0
 40
0.0
 40
0.0
 40
1.0
 40
1.0
 40
1.0
 40
2.0
 40
2.0
 40
2.0
 40
3.0
 40
3.0
 40
3.0
 40
4.0
 40
4.0
 40
4.0
 40
5.0
 40
5.0
 40
5.0
 40
6.0
 40
6.0
 40
6.0
 40
7.0
 40
7.0
 40
7.0
 40
8.0
 40
8.0
 40
8.0
 40
9.0
 40
9.0
 40
9.0
 40
10.0
 40
10.0
 40
10.0
 40
11.0
 40
11.0
 40
11.0
 40
12.0
 40
12.0
 40
12.0
 40
13.0
 40
13.0
 40
13.0
 40
14.0
 40
14.0
 40
14.0
 40
15.0
 40
15.0
 40
15.0
 40
16.0
 40
16.0
 40
16.0
 40
17.0
 40
17.0
 40
17.0
 40
18.0
 40
18.0
 40
18.0
 40
19.0
 40
19.0
 40
19.0
 40
20.0
 40
20.0
 40
20.0
 40
21.0
 40
21.0
 40
21.0
 40
21.0
 10
40.79716525607638
 20
169.3358964843748
 10
40.79716525607638
 20
169.3358964843748
 10
42.12008192274304
 20
169.3358964843748
 10
42.12008192274304
 20
169.3358964843748
 10
42.12008192274304
 20
169.3358964843748
 10
42.12008192274304
 20
177.8149103732637
 10
42.12008192274304
 20
177.8149103732637
 10
42.12008192274304
 20
177.8149103732637
 10
45.00500488281249
 20
177.8149103732637
 10
45.00500488281249
 20
177.8149103732637
 10
45.52590332031249
 20
177.8149103732637
 10
45.90968695746528
 20
177.6938359374998
 10
46.15635579427083
 20
177.4516870659719
 10
46.58216959635415
 20
177.0117621527776
 10
46.80954589843749
 20
176.1458580729164
 10
46.83848470052082
 20
174.8539748263887
 10
46.83848470052082
 20
174.8539748263887
 10
46.92667914496527
 20
171.5564396701385
 10
46.92667914496527
 20
171.5564396701385
 10
46.94597167968749
 20
170.7843524305554
 10
46.96870930989581
 20
170.2639225260415
 10
46.99351399739582
 20
169.9951499565971
 10
47.01831868489581
 20
169.725743489583
 10
47.0548366970486
 20
169.5057810329859
 10
47.10444607204859
 20
169.3358964843748
 10
47.10444607204859
 20
169.3358964843748
 10
48.73466525607638
 20
169.3358964843748
 10
48.73466525607638
 20
169.3358964843748
 10
48.73466525607638
 20
169.3358964843748
 10
48.73466525607638
 20
169.7821603732635
 10
48.73466525607638
 20
169.7821603732635
 10
48.53278266059028
 20
169.9609194878471
 10
48.39153374565971
 20
170.3628105468748
 10
48.31160753038194
 20
170.9878335503471
 10
48.26062011718749
 20
171.3542263454858
 10
48.22548014322915
 20
171.9120562065971
 10
48.20549858940971
 20
172.6625909288193
 10
48.20549858940971
 20
172.6625909288193
 10
48.16140136718749
 20
175.3205234374999
 10
48.16140136718749
 20
175.3205234374999
 10
48.14141981336803
 20
176.4716814236109
 10
48.03462185329859
 20
177.3033550347219
 10
47.84169650607638
 20
177.8142764756941
 10
47.64808213975693
 20
178.3251979166665
 10
47.35800509982638
 20
178.7372313368054
 10
46.97077636718749
 20
179.0516445312498
 10
47.4021023220486
 20
179.5086846788193
 10
47.73765462239582
 20
180.1134229600693
 10
47.97743326822915
 20
180.8664932725691
 10
48.21721191406249
 20
181.6189296874999
 10
48.33779025607638
 20
182.5868912760413
 10
48.33779025607638
 20
183.7697441406248
 10
48.33779025607638
 20
186.0371957465274
 10
47.89061686197916
 20
187.5921464843749
 10
46.99695909288194
 20
188.4345963541665
 10
46.52567003038194
 20
188.8732534722221
 10
45.92966851128472
 20
189.0932159288193
 10
45.20895453559027
 20
189.0932159288193
 10
45.20895453559027
 20
189.0932159288193
 10
40.79716525607638
 20
189.0932159288193
 10
40.79716525607638
 20
189.0932159288193
 10
40.79716525607638
 20
189.0932159288193
 10
40.79716525607638
 20
169.3358964843748
 10
40.79716525607638
 20
169.3358964843748
 97
        0
 75
     0
 76
     1
 98
        0
  0
HATCH
  5
26A8
330
2698
100
AcDbEntity
  8
0
  6
Continuous
100
AcDbHatch
 10
0.0
 20
0.0
 30
0.0
210
0.0
220
0.0
230
1.0
  2
SOLID
 70
     1
 71
     1
 91
        1
 92
        1
 93
        1
 72
     4
 94
        3
 73
     0
 74
     0
 95
       59
 96
       55
 40
0.0
 40
0.0
 40
0.0
 40
0.0
 40
1.0
 40
1.0
 40
1.0
 40
2.0
 40
2.0
 40
2.0
 40
3.0
 40
3.0
 40
3.0
 40
4.0
 40
4.0
 40
4.0
 40
5.0
 40
5.0
 40
5.0
 40
6.0
 40
6.0
 40
6.0
 40
7.0
 40
7.0
 40
7.0
 40
8.0
 40
8.0
 40
8.0
 40
9.0
 40
9.0
 40
9.0
 40
10.0
 40
10.0
 40
10.0
 40
11.0
 40
11.0
 40
11.0
 40
12.0
 40
12.0
 40
12.0
 40
13.0
 40
13.0
 40
13.0
 40
14.0
 40
14.0
 40
14.0
 40
15.0
 40
15.0
 40
15.0
 40
16.0
 40
16.0
 40
16.0
 40
17.0
 40
17.0
 40
17.0
 40
18.0
 40
18.0
 40
18.0
 40
18.0
 10
85.61871880425345
 20
187.4658355034721
 10
86.29120144314232
 20
186.1797124565971
 10
86.66671685112847
 20
184.7193364800346
 10
86.7452650282118
 20
183.0840874565969
 10
86.7452650282118
 20
183.0840874565969
 10
85.42234836154511
 20
183.0840874565969
 10
85.42234836154511
 20
183.0840874565969
 10
85.27696533203123
 20
184.3156401909719
 10
84.99171142578125
 20
185.2917046440971
 10
84.56589762369791
 20
186.0122808159719
 10
84.14008382161458
 20
186.7322368706594
 10
83.53994818793401
 20
187.0925249565969
 10
82.76617974175342
 20
187.0925249565969
 10
81.81740044487847
 20
187.0925249565969
 10
81.05258924696178
 20
186.4240386284721
 10
80.47243516710068
 20
185.0883062065971
 10
79.89159206814234
 20
183.7525737847219
 10
79.6015150282118
 20
181.7049468315971
 10
79.6015150282118
 20
178.9454253472221
 10
79.6015150282118
 20
176.6844780815969
 10
79.86265326605901
 20
174.8514116753471
 10
80.38561876085069
 20
173.4456060112846
 10
80.90789523654512
 20
172.0391802300344
 10
81.69199896918403
 20
171.3365874565971
 10
82.73724093967013
 20
171.3365874565971
 10
83.69497748480901
 20
171.3365874565971
 10
84.42120361328125
 20
172.0794878472221
 10
84.91523030598958
 20
173.5665288628469
 10
85.18601481119791
 20
174.3491167534719
 10
85.38445231119791
 20
175.3785112847221
 10
85.51054280598959
 20
176.6547124565971
 10
85.51054280598959
 20
176.6547124565971
 10
86.83345947265625
 20
176.6547124565971
 10
86.83345947265625
 20
176.6547124565971
 10
86.72597249348957
 20
174.6157671440971
 10
86.35114610460069
 20
172.9061040581596
 10
85.70760226779514
 20
171.526343315972
 10
84.93727891710069
 20
169.8650493706596
 10
83.90375027126735
 20
169.0347124565971
 10
82.60701633029514
 20
169.0347124565971
 10
81.48598225911458
 20
169.0347124565971
 10
80.54547119140625
 20
169.7143608940971
 10
79.78479410807292
 20
171.0742778862845
 10
78.78020426432292
 20
172.8726177300344
 10
78.27859836154512
 20
175.6495024956596
 10
78.27859836154512
 20
179.4049321831594
 10
78.27859836154512
 20
182.2562310112846
 10
78.65342475043402
 20
184.5946929253469
 10
79.40445556640622
 20
186.4196978081596
 10
80.22301025390625
 20
188.4028325737846
 10
81.34955647786458
 20
189.3943999565971
 10
82.78271620008679
 20
189.3943999565971
 10
84.00090196397568
 20
189.3943999565971
 10
84.94623616536458
 20
188.7513384331594
 10
85.61871880425345
 20
187.4658355034721
 97
        1
330
26A1
 75
     0
 76
     1
 98
        1
 10
0.0
 20
0.0
  0
LINE
  5
26A9
102
{ACAD_REACTORS
330
26B8
102
}
330
2698
100
AcDbEntity
  8
LAYER_1
 62
     7
100
AcDbLine
 10
34.65766059027778
 20
177.4497853732638
 30
0.0
 11
36.19830729166666
 21
186.1658769531249
 31
0.0
  0
LINE
  5
26AA
102
{ACAD_REACTORS
330
26B8
102
}
330
2698
100
AcDbEntity
  8
LAYER_1
 62
     7
100
AcDbLine
 10
36.19830729166666
 20
186.1658769531249
 30
0.0
 11
37.67556423611111
 21
177.4497853732638
 31
0.0
  0
LINE
  5
26AB
102
{ACAD_REACTORS
330
26B8
102
}
330
2698
100
AcDbEntity
  8
LAYER_1
 62
     7
100
AcDbLine
 10
37.67556423611111
 20
177.4497853732638
 30
0.0
 11
34.65766059027778
 21
177.4497853732638
 31
0.0
  0
LINE
  5
26AC
102
{ACAD_REACTORS
330
26B8
102
}
330
2698
100
AcDbEntity
  8
LAYER_1
 62
     7
100
AcDbLine
 10
31.83957248263888
 20
169.3358964843748
 30
0.0
 11
33.22450086805555
 21
169.3358964843748
 31
0.0
  0
LINE
  5
26AD
102
{ACAD_REACTORS
330
26B8
102
}
330
2698
100
AcDbEntity
  8
LAYER_1
 62
     7
100
AcDbLine
 10
33.22450086805555
 20
169.3358964843748
 30
0.0
 11
34.27043185763887
 21
175.2590353732638
 31
0.0
  0
LINE
  5
26AE
102
{ACAD_REACTORS
330
26B8
102
}
330
2698
100
AcDbEntity
  8
LAYER_1
 62
     7
100
AcDbLine
 10
34.27043185763887
 20
175.2590353732638
 30
0.0
 11
38.04694552951389
 21
175.2590353732638
 31
0.0
  0
LINE
  5
26AF
102
{ACAD_REACTORS
330
26B8
102
}
330
2698
100
AcDbEntity
  8
LAYER_1
 62
     7
100
AcDbLine
 10
38.04694552951389
 20
175.2590353732638
 30
0.0
 11
39.05015733506942
 21
169.3358964843748
 31
0.0
  0
LINE
  5
26B0
102
{ACAD_REACTORS
330
26B8
102
}
330
2698
100
AcDbEntity
  8
LAYER_1
 62
     7
100
AcDbLine
 10
39.05015733506942
 20
169.3358964843748
 30
0.0
 11
40.43508572048611
 21
169.3358964843748
 31
0.0
  0
LINE
  5
26B1
102
{ACAD_REACTORS
330
26B8
102
}
330
2698
100
AcDbEntity
  8
LAYER_1
 62
     7
100
AcDbLine
 10
40.43508572048611
 20
169.3358964843748
 30
0.0
 11
36.952783203125
 21
189.0932159288193
 31
0.0
  0
LINE
  5
26B2
102
{ACAD_REACTORS
330
26B8
102
}
330
2698
100
AcDbEntity
  8
LAYER_1
 62
     7
100
AcDbLine
 10
36.952783203125
 20
189.0932159288193
 30
0.0
 11
35.47828233506943
 21
189.0932159288193
 31
0.0
  0
LINE
  5
26B3
102
{ACAD_REACTORS
330
26B8
102
}
330
2698
100
AcDbEntity
  8
LAYER_1
 62
     7
100
AcDbLine
 10
35.47828233506943
 20
189.0932159288193
 30
0.0
 11
31.83957248263888
 21
169.3358964843748
 31
0.0
  0
HATCH
  5
26B4
330
2698
100
AcDbEntity
  8
0
  6
Continuous
100
AcDbHatch
 10
0.0
 20
0.0
 30
0.0
210
0.0
220
0.0
230
1.0
  2
SOLID
 70
     1
 71
     1
 91
        2
 92
       16
 93
        1
 72
     4
 94
        3
 73
     0
 74
     0
 95
       29
 96
       25
 40
0.0
 40
0.0
 40
0.0
 40
0.0
 40
1.0
 40
1.0
 40
1.0
 40
2.0
 40
2.0
 40
2.0
 40
3.0
 40
3.0
 40
3.0
 40
4.0
 40
4.0
 40
4.0
 40
5.0
 40
5.0
 40
5.0
 40
6.0
 40
6.0
 40
6.0
 40
7.0
 40
7.0
 40
7.0
 40
8.0
 40
8.0
 40
8.0
 40
8.0
 10
62.85697292751734
 20
171.3365874565971
 10
61.88338894314235
 20
171.3365874565971
 10
61.18058946397566
 20
172.0714263237844
 10
60.74857449001735
 20
173.5411040581594
 10
60.31587049696178
 20
175.0107817925344
 10
60.10020751953123
 20
176.8165630425343
 10
60.10020751953123
 20
178.9578276909721
 10
60.10020751953123
 20
181.6342534722221
 10
60.35101047092013
 20
183.6589360894094
 10
60.85261637369789
 20
185.0324956597219
 10
61.35422227647566
 20
186.4054351128471
 10
62.00741238064235
 20
187.0925249565969
 10
62.81218668619789
 20
187.0925249565969
 10
63.6369425455729
 20
187.0925249565969
 10
64.28806559244789
 20
186.3992339409721
 10
64.76486680772568
 20
185.0126519097221
 10
65.24166802300347
 20
183.6260698784719
 10
65.48006863064235
 20
181.7961040581594
 10
65.48006863064235
 20
179.5239946831596
 10
65.48006863064235
 20
177.3734282769096
 10
65.27336290147568
 20
175.4715288628469
 10
64.86132948133678
 20
173.8176763237846
 10
64.4492960611979
 20
172.1632036675344
 10
63.78094753689235
 20
171.3365874565971
 10
62.85697292751734
 20
171.3365874565971
 97
        1
330
269E
 92
        1
 93
        1
 72
     4
 94
        3
 73
     0
 74
     0
 95
       29
 96
       25
 40
0.0
 40
0.0
 40
0.0
 40
0.0
 40
1.0
 40
1.0
 40
1.0
 40
2.0
 40
2.0
 40
2.0
 40
3.0
 40
3.0
 40
3.0
 40
4.0
 40
4.0
 40
4.0
 40
5.0
 40
5.0
 40
5.0
 40
6.0
 40
6.0
 40
6.0
 40
7.0
 40
7.0
 40
7.0
 40
8.0
 40
8.0
 40
8.0
 40
8.0
 10
62.76119927300346
 20
189.4340874565971
 10
61.47273356119789
 20
189.4340874565971
 10
60.50121663411457
 20
188.2397417534719
 10
59.84733751085068
 20
185.8516704644094
 10
59.3395304361979
 20
183.9900786675344
 10
59.08597140842012
 20
181.7514556206596
 10
59.08597140842012
 20
179.1351812065971
 10
59.08597140842012
 20
176.2379937065971
 10
59.3836276584201
 20
173.8412407769094
 10
59.9789401584201
 20
171.9449224175346
 10
60.6424655490451
 20
169.9779106987846
 10
61.5602389865451
 20
168.9950249565971
 10
62.7315714518229
 20
168.9950249565971
 10
63.9904093424479
 20
168.9950249565971
 10
64.95641411675345
 20
170.1186773003469
 10
65.63027479383679
 20
172.3659819878471
 10
66.20629475911457
 20
174.2796636284719
 10
66.49430474175345
 20
176.6813774956593
 10
66.49430474175345
 20
179.5698833550344
 10
66.49430474175345
 20
182.2388677300343
 10
66.24005669487845
 20
184.4291216362844
 10
65.73293863932289
 20
186.1412651909719
 10
65.08870578342011
 20
188.3364800347219
 10
64.09789632161457
 20
189.4340874565971
 10
62.76119927300346
 20
189.4340874565971
 97
        0
 75
     0
 76
     1
 98
        0
  0
HATCH
  5
26B5
330
2698
100
AcDbEntity
  8
0
  6
Continuous
100
AcDbHatch
 10
0.0
 20
0.0
 30
0.0
210
0.0
220
0.0
230
1.0
  2
SOLID
 70
     1
 71
     1
 91
        1
 92
        1
 93
        1
 72
     4
 94
        3
 73
     0
 74
     0
 95
       59
 96
       55
 40
0.0
 40
0.0
 40
0.0
 40
0.0
 40
1.0
 40
1.0
 40
1.0
 40
2.0
 40
2.0
 40
2.0
 40
3.0
 40
3.0
 40
3.0
 40
4.0
 40
4.0
 40
4.0
 40
5.0
 40
5.0
 40
5.0
 40
6.0
 40
6.0
 40
6.0
 40
7.0
 40
7.0
 40
7.0
 40
8.0
 40
8.0
 40
8.0
 40
9.0
 40
9.0
 40
9.0
 40
10.0
 40
10.0
 40
10.0
 40
11.0
 40
11.0
 40
11.0
 40
12.0
 40
12.0
 40
12.0
 40
13.0
 40
13.0
 40
13.0
 40
14.0
 40
14.0
 40
14.0
 40
15.0
 40
15.0
 40
15.0
 40
16.0
 40
16.0
 40
16.0
 40
17.0
 40
17.0
 40
17.0
 40
18.0
 40
18.0
 40
18.0
 40
18.0
 10
49.39440104166666
 20
189.0932159288193
 10
49.39440104166666
 20
189.0932159288193
 10
51.24786241319444
 20
189.0932159288193
 10
51.24786241319444
 20
189.0932159288193
 10
51.24786241319444
 20
189.0932159288193
 10
54.04665798611111
 20
172.3887471788193
 10
54.04665798611111
 20
172.3887471788193
 10
54.04665798611111
 20
172.3887471788193
 10
56.83994140624999
 20
189.0932159288193
 10
56.83994140624999
 20
189.0932159288193
 10
56.83994140624999
 20
189.0932159288193
 10
58.69891493055553
 20
189.0932159288193
 10
58.69891493055553
 20
189.0932159288193
 10
58.69891493055553
 20
189.0932159288193
 10
58.69891493055553
 20
169.3358964843748
 10
58.69891493055553
 20
169.3358964843748
 10
58.69891493055553
 20
169.3358964843748
 10
57.46419270833333
 20
169.3358964843748
 10
57.46419270833333
 20
169.3358964843748
 10
57.46419270833333
 20
169.3358964843748
 10
57.46419270833333
 20
180.9964422743054
 10
57.46419270833333
 20
180.9964422743054
 10
57.46419270833333
 20
181.3996011284721
 10
57.47108289930555
 20
182.0677291666664
 10
57.48624131944444
 20
183.0001924913193
 10
57.50071072048609
 20
183.9326558159721
 10
57.50828993055553
 20
184.932312282986
 10
57.50828993055553
 20
185.9997957899304
 10
57.50828993055553
 20
185.9997957899304
 10
54.700537109375
 20
169.3358964843748
 10
54.700537109375
 20
169.3358964843748
 10
54.700537109375
 20
169.3358964843748
 10
53.38382161458333
 20
169.3358964843748
 10
53.38382161458333
 20
169.3358964843748
 10
53.38382161458333
 20
169.3358964843748
 10
50.58502604166665
 20
185.9997957899304
 10
50.58502604166665
 20
185.9997957899304
 10
50.58502604166665
 20
185.9997957899304
 10
50.58502604166665
 20
185.3944236111109
 10
50.58502604166665
 20
185.3944236111109
 10
50.58502604166665
 20
184.9101258680554
 10
50.59191623263888
 20
184.1729029947915
 10
50.60707465277777
 20
183.1821210937498
 10
50.62154405381942
 20
182.1913391927082
 10
50.62912326388889
 20
181.4629908854165
 10
50.62912326388889
 20
180.9964422743054
 10
50.62912326388889
 20
180.9964422743054
 10
50.62912326388889
 20
169.3358964843748
 10
50.62912326388889
 20
169.3358964843748
 10
50.62912326388889
 20
169.3358964843748
 10
49.39440104166666
 20
169.3358964843748
 10
49.39440104166666
 20
169.3358964843748
 10
49.39440104166666
 20
169.3358964843748
 10
49.39440104166666
 20
189.0932159288193
 10
49.39440104166666
 20
189.0932159288193
 97
        1
330
269D
 75
     0
 76
     1
 98
        1
 10
0.0
 20
0.0
  0
HATCH
  5
26B6
330
2698
100
AcDbEntity
  8
0
  6
Continuous
100
AcDbHatch
 10
0.0
 20
0.0
 30
0.0
210
0.0
220
0.0
230
1.0
  2
SOLID
 70
     1
 71
     1
 91
        2
 92
       16
 93
        1
 72
     4
 94
        3
 73
     0
 74
     0
 95
       32
 96
       28
 40
0.0
 40
0.0
 40
0.0
 40
0.0
 40
1.0
 40
1.0
 40
1.0
 40
2.0
 40
2.0
 40
2.0
 40
3.0
 40
3.0
 40
3.0
 40
4.0
 40
4.0
 40
4.0
 40
5.0
 40
5.0
 40
5.0
 40
6.0
 40
6.0
 40
6.0
 40
7.0
 40
7.0
 40
7.0
 40
8.0
 40
8.0
 40
8.0
 40
9.0
 40
9.0
 40
9.0
 40
9.0
 10
91.70051812065969
 20
171.6077853732635
 10
91.70051812065969
 20
171.6077853732635
 10
91.70051812065969
 20
186.7401881510414
 10
91.70051812065969
 20
186.7401881510414
 10
91.70051812065969
 20
186.7401881510414
 10
93.98668348524305
 20
186.7401881510414
 10
93.98668348524305
 20
186.7401881510414
 10
95.02159016927082
 20
186.7401881510414
 10
95.77331000434028
 20
186.0644533420137
 10
96.24322102864582
 20
184.7142515190969
 10
96.71313205295138
 20
183.3640496961804
 10
96.94808756510417
 20
181.4680620659721
 10
96.94808756510417
 20
179.0262886284719
 10
96.94808756510417
 20
178.3911232638887
 10
96.91432562934028
 20
177.7027105034721
 10
96.84749077690971
 20
176.9604164496524
 10
96.7324245876736
 20
175.7167094184024
 10
96.55052354600693
 20
174.6974021267359
 10
96.30109863281248
 20
173.901860677083
 10
95.98414984809028
 20
172.9091770833332
 10
95.57693956163193
 20
172.2378795572914
 10
95.07877875434026
 20
171.8892358940971
 10
94.79076877170138
 20
171.7016022135415
 10
94.43178982204859
 20
171.6077853732635
 10
94.00115288628471
 20
171.6077853732635
 10
94.00115288628471
 20
171.6077853732635
 10
91.70051812065969
 20
171.6077853732635
 10
91.70051812065969
 20
171.6077853732635
 97
        1
330
26A2
 92
        1
 93
        1
 72
     4
 94
        3
 73
     0
 74
     0
 95
       26
 96
       22
 40
0.0
 40
0.0
 40
0.0
 40
0.0
 40
1.0
 40
1.0
 40
1.0
 40
2.0
 40
2.0
 40
2.0
 40
3.0
 40
3.0
 40
3.0
 40
4.0
 40
4.0
 40
4.0
 40
5.0
 40
5.0
 40
5.0
 40
6.0
 40
6.0
 40
6.0
 40
7.0
 40
7.0
 40
7.0
 40
7.0
 10
90.37760145399305
 20
169.3358964843748
 10
90.37760145399305
 20
169.3358964843748
 10
94.22990722656248
 20
169.3358964843748
 10
94.22990722656248
 20
169.3358964843748
 10
95.87115071614581
 20
169.3358964843748
 10
97.03008083767359
 20
170.8331625434026
 10
97.70600857204859
 20
173.8283285590274
 10
98.08221299913194
 20
175.5227367621524
 10
98.27100423177082
 20
177.4187243923609
 10
98.27100423177082
 20
179.5169253472221
 10
98.27100423177082
 20
182.233810329861
 10
97.94716525607638
 20
184.4619602864582
 10
97.30086534288195
 20
186.2013752170135
 10
96.57601725260416
 20
188.1290577256941
 10
95.5576470269097
 20
189.0932159288193
 10
94.24437662760416
 20
189.0932159288193
 10
94.24437662760416
 20
189.0932159288193
 10
90.37760145399305
 20
189.0932159288193
 10
90.37760145399305
 20
189.0932159288193
 10
90.37760145399305
 20
189.0932159288193
 10
90.37760145399305
 20
169.3358964843748
 10
90.37760145399305
 20
169.3358964843748
 97
        0
 75
     0
 76
     1
 98
        0
  0
HATCH
  5
26B7
330
2698
100
AcDbEntity
  8
0
  6
Continuous
100
AcDbHatch
 10
0.0
 20
0.0
 30
0.0
210
0.0
220
0.0
230
1.0
  2
SOLID
 70
     1
 71
     1
 91
        2
 92
       16
 93
        1
 72
     4
 94
        3
 73
     0
 74
     0
 95
       26
 96
       22
 40
0.0
 40
0.0
 40
0.0
 40
0.0
 40
1.0
 40
1.0
 40
1.0
 40
2.0
 40
2.0
 40
2.0
 40
3.0
 40
3.0
 40
3.0
 40
4.0
 40
4.0
 40
4.0
 40
5.0
 40
5.0
 40
5.0
 40
6.0
 40
6.0
 40
6.0
 40
7.0
 40
7.0
 40
7.0
 40
7.0
 10
100.5623372395832
 20
180.046229817708
 10
100.5623372395832
 20
180.046229817708
 10
100.5623372395832
 20
186.7401881510414
 10
100.5623372395832
 20
186.7401881510414
 10
100.5623372395832
 20
186.7401881510414
 10
103.6732584635416
 20
186.7401881510414
 10
103.6732584635416
 20
186.7401881510414
 10
104.1107855902777
 20
186.7401881510414
 10
104.4580512152777
 20
186.6064357638887
 10
104.7150553385415
 20
186.3401987847218
 10
105.2097710503471
 20
185.8330807291664
 10
105.4571289062497
 20
184.8822343749996
 10
105.4571289062497
 20
183.4863919270832
 10
105.4571289062497
 20
182.188169704861
 10
105.280740017361
 20
181.2905707465276
 10
104.9286512586804
 20
180.7929611545137
 10
104.5765624999999
 20
180.2947176649304
 10
104.1011393229166
 20
180.046229817708
 10
103.5023817274304
 20
180.046229817708
 10
103.5023817274304
 20
180.046229817708
 10
100.5623372395832
 20
180.046229817708
 10
100.5623372395832
 20
180.046229817708
 97
        1
330
26A3
 92
        1
 93
        1
 72
     4
 94
        3
 73
     0
 74
     0
 95
       68
 96
       64
 40
0.0
 40
0.0
 40
0.0
 40
0.0
 40
1.0
 40
1.0
 40
1.0
 40
2.0
 40
2.0
 40
2.0
 40
3.0
 40
3.0
 40
3.0
 40
4.0
 40
4.0
 40
4.0
 40
5.0
 40
5.0
 40
5.0
 40
6.0
 40
6.0
 40
6.0
 40
7.0
 40
7.0
 40
7.0
 40
8.0
 40
8.0
 40
8.0
 40
9.0
 40
9.0
 40
9.0
 40
10.0
 40
10.0
 40
10.0
 40
11.0
 40
11.0
 40
11.0
 40
12.0
 40
12.0
 40
12.0
 40
13.0
 40
13.0
 40
13.0
 40
14.0
 40
14.0
 40
14.0
 40
15.0
 40
15.0
 40
15.0
 40
16.0
 40
16.0
 40
16.0
 40
17.0
 40
17.0
 40
17.0
 40
18.0
 40
18.0
 40
18.0
 40
19.0
 40
19.0
 40
19.0
 40
20.0
 40
20.0
 40
20.0
 40
21.0
 40
21.0
 40
21.0
 40
21.0
 10
99.23942057291661
 20
169.3358964843748
 10
99.23942057291661
 20
169.3358964843748
 10
100.5623372395832
 20
169.3358964843748
 10
100.5623372395832
 20
169.3358964843748
 10
100.5623372395832
 20
169.3358964843748
 10
100.5623372395832
 20
177.8149103732637
 10
100.5623372395832
 20
177.8149103732637
 10
100.5623372395832
 20
177.8149103732637
 10
103.4472601996527
 20
177.8149103732637
 10
103.4472601996527
 20
177.8149103732637
 10
103.9681586371527
 20
177.8149103732637
 10
104.3519422743053
 20
177.6938359374998
 10
104.5986111111109
 20
177.4516870659719
 10
105.0244249131943
 20
177.0117621527776
 10
105.2518012152777
 20
176.1458580729164
 10
105.280740017361
 20
174.8539748263887
 10
105.280740017361
 20
174.8539748263887
 10
105.3689344618053
 20
171.5564396701385
 10
105.3689344618053
 20
171.5564396701385
 10
105.3882269965277
 20
170.7843524305554
 10
105.4109646267359
 20
170.2639225260415
 10
105.4357693142359
 20
169.9951499565971
 10
105.4605740017358
 20
169.725743489583
 10
105.4970920138888
 20
169.5057810329859
 10
105.5467013888887
 20
169.3358964843748
 10
105.5467013888887
 20
169.3358964843748
 10
107.1769205729166
 20
169.3358964843748
 10
107.1769205729166
 20
169.3358964843748
 10
107.1769205729166
 20
169.3358964843748
 10
107.1769205729166
 20
169.7821603732635
 10
107.1769205729166
 20
169.7821603732635
 10
106.9750379774303
 20
169.9609194878471
 10
106.8337890624997
 20
170.3628105468748
 10
106.7538628472221
 20
170.9878335503471
 10
106.7028754340274
 20
171.3542263454858
 10
106.6677354600692
 20
171.9120562065971
 10
106.6477539062497
 20
172.6625909288193
 10
106.6477539062497
 20
172.6625909288193
 10
106.6036566840277
 20
175.3205234374999
 10
106.6036566840277
 20
175.3205234374999
 10
106.5836751302082
 20
176.4716814236109
 10
106.4768771701387
 20
177.3033550347219
 10
106.2839518229166
 20
177.8142764756941
 10
106.0903374565971
 20
178.3251979166665
 10
105.8002604166666
 20
178.7372313368054
 10
105.4130316840277
 20
179.0516445312498
 10
105.8443576388886
 20
179.5086846788193
 10
106.179909939236
 20
180.1134229600693
 10
106.4196885850692
 20
180.8664932725691
 10
106.6594672309027
 20
181.6189296874999
 10
106.7800455729166
 20
182.5868912760413
 10
106.7800455729166
 20
183.7697441406248
 10
106.7800455729166
 20
186.0371957465274
 10
106.3328721788193
 20
187.5921464843749
 10
105.4392144097221
 20
188.4345963541665
 10
104.9679253472221
 20
188.8732534722221
 10
104.3719238281249
 20
189.0932159288193
 10
103.6512098524303
 20
189.0932159288193
 10
103.6512098524303
 20
189.0932159288193
 10
99.23942057291661
 20
189.0932159288193
 10
99.23942057291661
 20
189.0932159288193
 10
99.23942057291661
 20
189.0932159288193
 10
99.23942057291661
 20
169.3358964843748
 10
99.23942057291661
 20
169.3358964843748
 97
        0
 75
     0
 76
     1
 98
        0
  0
HATCH
  5
26B8
330
2698
100
AcDbEntity
  8
0
  6
Continuous
100
AcDbHatch
 10
0.0
 20
0.0
 30
0.0
210
0.0
220
0.0
230
1.0
  2
SOLID
 70
     1
 71
     1
 91
        2
 92
        1
 93
        8
 72
     1
 10
35.47828233506943
 20
189.0932159288193
 11
31.83957248263888
 21
169.3358964843748
 72
     1
 10
31.83957248263888
 20
169.3358964843748
 11
33.22450086805555
 21
169.3358964843748
 72
     1
 10
33.22450086805555
 20
169.3358964843748
 11
34.27043185763887
 21
175.2590353732638
 72
     1
 10
34.27043185763887
 20
175.2590353732638
 11
38.04694552951389
 21
175.2590353732638
 72
     1
 10
38.04694552951389
 20
175.2590353732638
 11
39.05015733506942
 21
169.3358964843748
 72
     1
 10
39.05015733506942
 20
169.3358964843748
 11
40.43508572048611
 21
169.3358964843748
 72
     1
 10
40.43508572048611
 20
169.3358964843748
 11
36.952783203125
 21
189.0932159288193
 72
     1
 10
36.952783203125
 20
189.0932159288193
 11
35.47828233506943
 21
189.0932159288193
 97
        8
330
26B3
330
26AC
330
26AD
330
26AE
330
26AF
330
26B0
330
26B1
330
26B2
 92
       16
 93
        3
 72
     1
 10
37.67556423611111
 20
177.4497853732638
 11
34.65766059027778
 21
177.4497853732638
 72
     1
 10
34.65766059027778
 20
177.4497853732638
 11
36.19830729166666
 21
186.1658769531249
 72
     1
 10
36.19830729166666
 20
186.1658769531249
 11
37.67556423611111
 21
177.4497853732638
 97
        3
330
26AB
330
26A9
330
26AA
 75
     0
 76
     1
 98
        1
 10
0.0
 20
0.0
  0
HATCH
  5
26B9
330
2698
100
AcDbEntity
  8
0
  6
Continuous
100
AcDbHatch
 10
0.0
 20
0.0
 30
0.0
210
0.0
220
0.0
230
1.0
  2
SOLID
 70
     1
 71
     1
 91
        1
 92
        1
 93
        1
 72
     4
 94
        3
 73
     0
 74
     0
 95
      113
 96
      109
 40
0.0
 40
0.0
 40
0.0
 40
0.0
 40
1.0
 40
1.0
 40
1.0
 40
2.0
 40
2.0
 40
2.0
 40
3.0
 40
3.0
 40
3.0
 40
4.0
 40
4.0
 40
4.0
 40
5.0
 40
5.0
 40
5.0
 40
6.0
 40
6.0
 40
6.0
 40
7.0
 40
7.0
 40
7.0
 40
8.0
 40
8.0
 40
8.0
 40
9.0
 40
9.0
 40
9.0
 40
10.0
 40
10.0
 40
10.0
 40
11.0
 40
11.0
 40
11.0
 40
12.0
 40
12.0
 40
12.0
 40
13.0
 40
13.0
 40
13.0
 40
14.0
 40
14.0
 40
14.0
 40
15.0
 40
15.0
 40
15.0
 40
16.0
 40
16.0
 40
16.0
 40
17.0
 40
17.0
 40
17.0
 40
18.0
 40
18.0
 40
18.0
 40
19.0
 40
19.0
 40
19.0
 40
20.0
 40
20.0
 40
20.0
 40
21.0
 40
21.0
 40
21.0
 40
22.0
 40
22.0
 40
22.0
 40
23.0
 40
23.0
 40
23.0
 40
24.0
 40
24.0
 40
24.0
 40
25.0
 40
25.0
 40
25.0
 40
26.0
 40
26.0
 40
26.0
 40
27.0
 40
27.0
 40
27.0
 40
28.0
 40
28.0
 40
28.0
 40
29.0
 40
29.0
 40
29.0
 40
30.0
 40
30.0
 40
30.0
 40
31.0
 40
31.0
 40
31.0
 40
32.0
 40
32.0
 40
32.0
 40
33.0
 40
33.0
 40
33.0
 40
34.0
 40
34.0
 40
34.0
 40
35.0
 40
35.0
 40
35.0
 40
36.0
 40
36.0
 40
36.0
 40
36.0
 10
193.3039632161458
 20
186.1548733181423
 10
193.3039632161458
 20
186.1860514322916
 10
193.3039632161458
 20
219.6932223849826
 10
193.3039632161458
 20
219.6932223849826
 10
193.3039632161458
 20
219.6932223849826
 10
193.2974175347219
 20
219.7488606770833
 10
193.2974175347219
 20
219.7488606770833
 10
191.5293945312499
 20
235.455740017361
 10
175.1458984374999
 20
235.2467949761284
 10
174.9808783637151
 20
235.2428331163193
 10
174.9808783637151
 20
235.2428331163193
 10
125.8827555338541
 20
235.2430053710937
 10
125.8827555338541
 20
235.2430053710937
 10
125.8827555338541
 20
235.2430053710937
 10
125.8827555338541
 20
255.5278998480901
 10
125.8827555338541
 20
255.5278998480901
 10
125.8827555338541
 20
255.5278998480901
 10
84.5626247829861
 20
255.5278998480901
 10
84.5626247829861
 20
255.5278998480901
 10
84.5626247829861
 20
255.5278998480901
 10
84.55711263020829
 20
233.7919311523436
 10
84.55711263020829
 20
233.7919311523436
 10
84.55711263020829
 20
233.7919311523436
 10
64.42052951388888
 20
233.7919311523436
 10
64.42052951388888
 20
233.7919311523436
 10
64.42052951388888
 20
233.7919311523436
 10
64.41501736111111
 20
255.5278998480901
 10
64.41501736111111
 20
255.5278998480901
 10
64.41501736111111
 20
255.5278998480901
 10
23.91757541232637
 20
255.5278998480901
 10
23.91757541232637
 20
255.5278998480901
 10
23.91757541232637
 20
255.5278998480901
 10
23.91757541232637
 20
233.2393378363715
 10
23.91757541232637
 20
233.2393378363715
 10
23.91757541232637
 20
233.2393378363715
 10
43.65624999999999
 20
233.2393378363715
 10
43.65624999999999
 20
233.2393378363715
 10
43.65624999999999
 20
233.2393378363715
 10
43.65624999999999
 20
211.5188720703125
 10
43.65624999999999
 20
211.5188720703125
 10
43.65624999999999
 20
211.5188720703125
 10
23.91757541232637
 20
211.5188720703125
 10
23.91757541232637
 20
211.5188720703125
 10
23.91757541232637
 20
211.5188720703125
 10
23.91757541232637
 20
189.2303100585936
 10
23.91757541232637
 20
189.2303100585936
 10
23.91757541232637
 20
189.2303100585936
 10
64.41501736111111
 20
189.2303100585936
 10
64.41501736111111
 20
189.2303100585936
 10
64.41501736111111
 20
189.2303100585936
 10
64.42052951388888
 20
211.069976128472
 10
64.42052951388888
 20
211.069976128472
 10
64.42052951388888
 20
211.069976128472
 10
84.55711263020829
 20
211.069976128472
 10
84.55711263020829
 20
211.069976128472
 10
84.55711263020829
 20
211.069976128472
 10
84.5626247829861
 20
189.2303100585936
 10
84.5626247829861
 20
189.2303100585936
 10
84.5626247829861
 20
189.2303100585936
 10
125.8827555338541
 20
189.2303100585936
 10
125.8827555338541
 20
189.2303100585936
 10
125.8827555338541
 20
189.2303100585936
 10
125.8827555338541
 20
211.5188720703125
 10
125.8827555338541
 20
211.5188720703125
 10
125.8827555338541
 20
211.5188720703125
 10
105.3213921440971
 20
211.5188720703125
 10
105.3213921440971
 20
211.5188720703125
 10
105.3213921440971
 20
211.5188720703125
 10
105.3213921440971
 20
233.2393378363715
 10
105.3213921440971
 20
233.2393378363715
 10
105.3213921440971
 20
233.2393378363715
 10
175.0046495225693
 20
233.243127441406
 10
175.0046495225693
 20
233.243127441406
 10
175.6268337673611
 20
233.2560465494791
 10
189.7165852864583
 20
233.3962619357638
 10
191.3037407769094
 20
219.5690266927083
 10
191.3037407769094
 20
219.4332899305555
 10
191.3037407769094
 20
186.1142211914062
 10
191.3037407769094
 20
186.1142211914062
 10
191.3037407769094
 20
186.1142211914062
 10
191.3051188151039
 20
186.0880384657115
 10
191.3051188151039
 20
186.0880384657115
 10
191.3054633246526
 20
186.0787367078991
 10
191.3109754774304
 20
185.9566080729166
 10
191.3109754774304
 20
185.7399115668401
 10
191.3109754774304
 20
184.2090833875865
 10
191.0488037109374
 20
177.9643310546874
 10
186.9866916232638
 20
173.5652886284722
 10
184.2540418836804
 20
170.6064683702255
 10
180.3224989149304
 20
169.0308539496526
 10
175.300927734375
 20
168.8825425889756
 10
175.300927734375
 20
168.8825425889756
 10
107.0094889322916
 20
168.8828870985243
 10
107.0094889322916
 20
168.8828870985243
 10
107.0094889322916
 20
168.8828870985243
 10
107.0094889322916
 20
166.8830091688368
 10
107.0094889322916
 20
166.8830091688368
 10
107.0094889322916
 20
166.8830091688368
 10
175.3305555555555
 20
166.8830091688368
 10
175.3305555555555
 20
166.8830091688368
 10
180.9467502170138
 20
167.0485460069444
 10
185.3571614583333
 20
168.8448187934026
 10
188.4687717013888
 20
172.2223904079861
 10
192.9649658203124
 20
177.1034016927083
 10
193.3136094835069
 20
183.7202243381076
 10
193.3136094835069
 20
185.6520616319443
 10
193.3136094835069
 20
185.9247409396701
 10
193.3070638020833
 20
186.0868326822916
 10
193.3039632161458
 20
186.1548733181423
 97
        1
330
2699
 75
     0
 76
     1
 98
        1
 10
0.0
 20
0.0
  0
HATCH
  5
26BA
330
2698
100
AcDbEntity
  8
0
  6
Continuous
100
AcDbHatch
 10
0.0
 20
0.0
 30
0.0
210
0.0
220
0.0
230
1.0
  2
SOLID
 70
     1
 71
     1
 91
        2
 92
        1
 93
        1
 72
     4
 94
        3
 73
     0
 74
     0
 95
       23
 96
       19
 40
0.0
 40
0.0
 40
0.0
 40
0.0
 40
1.0
 40
1.0
 40
1.0
 40
2.0
 40
2.0
 40
2.0
 40
3.0
 40
3.0
 40
3.0
 40
4.0
 40
4.0
 40
4.0
 40
5.0
 40
5.0
 40
5.0
 40
6.0
 40
6.0
 40
6.0
 40
6.0
 10
148.6593153211804
 20
211.3929538302949
 10
148.6593153211804
 20
211.3929538302949
 10
148.6593153211804
 20
189.630802408854
 10
148.6593153211804
 20
189.630802408854
 10
148.6593153211804
 20
189.630802408854
 10
161.3152180989583
 20
189.630802408854
 10
161.3152180989583
 20
189.630802408854
 10
162.8431179470483
 20
189.630802408854
 10
170.4657362196178
 20
190.1880466037324
 10
170.4657362196178
 20
201.1911648220484
 10
170.4657362196178
 20
211.1288872612845
 10
162.3356553819444
 20
211.3914035373261
 10
162.2536621093749
 20
211.3927815755205
 10
162.2536621093749
 20
211.3927815755205
 10
149.6594265407986
 20
211.3929538302949
 10
149.6594265407986
 20
211.3929538302949
 10
149.6594265407986
 20
211.3929538302949
 10
148.6593153211804
 20
211.3929538302949
 10
148.6593153211804
 20
211.3929538302949
 97
        1
330
269A
 92
       16
 93
        1
 72
     4
 94
        3
 73
     0
 74
     0
 95
       20
 96
       16
 40
0.0
 40
0.0
 40
0.0
 40
0.0
 40
1.0
 40
1.0
 40
1.0
 40
2.0
 40
2.0
 40
2.0
 40
3.0
 40
3.0
 40
3.0
 40
4.0
 40
4.0
 40
4.0
 40
5.0
 40
5.0
 40
5.0
 40
5.0
 10
162.2354031032984
 20
209.3930759006075
 10
162.467947048611
 20
209.3861857096352
 10
168.4655137803819
 20
209.1283203124997
 10
168.4655137803819
 20
201.1911648220484
 10
168.4655137803819
 20
192.3202162000866
 10
162.9926350911458
 20
191.6306803385414
 10
161.3152180989583
 20
191.6306803385414
 10
161.3152180989583
 20
191.6306803385414
 10
152.3310980902776
 20
191.6306803385414
 10
150.6595377604166
 20
191.6306803385414
 10
150.6595377604166
 20
193.3373806423609
 10
150.6595377604166
 20
207.686375596788
 10
150.6595377604166
 20
209.3930759006075
 10
152.3538357204859
 20
209.3930759006075
 10
162.2354031032984
 20
209.3930759006075
 10
162.2354031032984
 20
209.3930759006075
 97
        0
 75
     0
 76
     1
 98
        0
  0
ENDBLK
  5
26BC
330
2698
100
AcDbEntity
  8
0
100
AcDbBlockEnd
  0
BLOCK
  5
26BF
330
26BD
100
AcDbEntity
  8
0
100
AcDbBlockBegin
  2
HD logo-new
 70
     0
 10
0.0
 20
0.0
 30
0.0
  3
HD logo-new
  1

  0
INSERT
  5
26BE
330
26BD
100
AcDbEntity
  8
0
 62
     3
100
AcDbBlockReference
  2
HD_LLC_logo_OT5
 10
-27.1607188578505
 20
-68.37367811463031
 30
0.0
 41
0.2999999999999971
 42
0.3000000000000007
 43
0.3
  0
ENDBLK
  5
26C0
330
26BD
100
AcDbEntity
  8
0
100
AcDbBlockEnd
  0
BLOCK
  5
26C3
330
26C1
100
AcDbEntity
  8
0
100
AcDbBlockBegin
  2
HD Logo
 70
     0
 10
0.0
 20
0.0
 30
0.0
  3
HD Logo
  1

  0
INSERT
  5
26C2
330
26C1
100
AcDbEntity
  8
0
100
AcDbBlockReference
  2
HD logo-new
 10
0.9700256734946606
 20
7.273795608420527
 30
0.0
  0
ENDBLK
  5
26C4
330
26C1
100
AcDbEntity
  8
0
100
AcDbBlockEnd
  0
BLOCK
  5
26CF
330
26CD
100
AcDbEntity
  8
0
100
AcDbBlockBegin
  2
Harmonic Drive LLC
 70
     0
 10
0.0
 20
0.0
 30
0.0
  3
Harmonic Drive LLC
  1

  0
MTEXT
  5
26CE
330
26CD
100
AcDbEntity
  8
0
100
AcDbMText
 10
8.730232253264317
 20
-1.454758693481394
 30
0.0
 40
5.25
 41
158.5992
 71
     5
 72
     5
  1
{\fArial|b0|i0|c0|p34;Harmonic Drive LLC\P800-921-3332\Pwww.harmonicdrive.net}
 73
     1
 44
1.0
  0
ENDBLK
  5
26D0
330
26CD
100
AcDbEntity
  8
0
100
AcDbBlockEnd
  0
BLOCK
  5
2B45
330
2B43
100
AcDbEntity
  8
0
100
AcDbBlockBegin
  2
HD LLC
 70
     0
 10
0.0
 20
0.0
 30
0.0
  3
HD LLC
  1

  0
MTEXT
  5
2B44
330
2B43
100
AcDbEntity
  8
0
100
AcDbMText
 10
-2.314970886968865
 20
1.247205085865914
 30
0.0
 40
5.675387507387601
 41
236.1828726592229
 71
     5
 72
     5
  1
Harmonic Drive LLC\P800-921-3332\Pwww.harmonicdrive.net
 73
     1
 44
1.0
  0
ENDBLK
  5
2B46
330
2B43
100
AcDbEntity
  8
0
100
AcDbBlockEnd
  0
BLOCK
  5
2B56
330
2B53
100
AcDbEntity
  8
0
100
AcDbBlockBegin
  2
NTC
 70
     0
 10
0.0
 20
0.0
 30
0.0
  3
NTC
  1

  0
LWPOLYLINE
  5
2B54
330
2B53
100
AcDbEntity
  8
0
100
AcDbPolyline
 90
        8
 70
     1
 43
0.0
 10
4.581008201925953
 20
-10.78862239032818
 10
319.3921777697513
 20
-10.78862239032818
 42
-0.4142135623730951
 10
324.9046777697513
 20
-16.30112239032816
 10
324.9046777697513
 20
-117.4075202476924
 42
-0.4142135623730951
 10
319.3921777697513
 20
-122.9200202476925
 10
4.581008201925838
 20
-122.9200202476925
 42
-0.4142135623730951
 10
-0.9314917980741483
 20
-117.4075202476924
 10
-0.9314917980740915
 20
-16.30112239032816
 42
-0.4142135623730951
  0
MTEXT
  5
2B55
330
2B53
100
AcDbEntity
  8
0
  6
Continuous
370
    30
100
AcDbMText
 10
21.65307678143926
 20
-17.4535155144544
 30
0.0
 40
8.75
 41
294.5432999999998
 71
     1
 72
     5
  3
{\fTxt|b1|i0|c0|p2;Notice:\P\Ftxt.shx;\H0.5714x;All specifications and dimensions shown in the drawing are subject to change without notice. This drawing is the property of Harmonic Drive LLC.   This data is believed to be accurate, however, Harmonic
  1
 Drive LLC assumes no liability for any errors or omissions in the specifications, models, or drawings.\P\PHarmonic Drive LLC\PTel: 800-921-3332\Pwww.harmonicdrive.net}
 73
     1
 44
1.0
  0
ENDBLK
  5
2B57
330
2B53
100
AcDbEntity
  8
0
100
AcDbBlockEnd
  0
ENDSEC
  0
SECTION
  2
ENTITIES
  0
TEXT
  5
2650
330
23F8
100
AcDbEntity
  8
1
 62
     3
100
AcDbText
 10
-211.1343040962291
 20
-190.9680410690718
 30
0.0
 40
5.4
  1
 
 41
0.9
100
AcDbText
  0
TEXT
  5
2915
330
23F8
100
AcDbEntity
  8
1
 62
     0
100
AcDbText
 10
256.3796640341966
 20
366.2642565033205
 30
0.0
 40
7.5
  1
REMARKS:  M.H.C = MINIMUM HOUSING CLEARANCE
 41
0.9
 72
     1
 11
354.2715390341967
 21
370.0142565033205
 31
0.0
100
AcDbText
 73
     2
  0
LINE
  5
2916
330
23F8
100
AcDbEntity
  8
1
  6
CENTER
 62
     3
100
AcDbLine
 10
311.8960514429665
 20
579.6677756018103
 30
0.0
 11
409.6488350499638
 21
579.6677756018103
 31
0.0
  0
LINE
  5
2917
330
23F8
100
AcDbEntity
  8
1
 62
     7
100
AcDbLine
 10
329.1116092117255
 20
660.3927756018103
 30
0.0
 11
353.9626092117254
 21
660.3927756018102
 31
0.0
  0
LINE
  5
2918
330
23F8
100
AcDbEntity
  8
1
 62
     7
100
AcDbLine
 10
398.5766092117255
 20
659.41477560181
 30
0.0
 11
329.4396092117255
 21
659.41477560181
 31
0.0
  0
LINE
  5
2919
330
23F8
100
AcDbEntity
  8
1
 62
     7
100
AcDbLine
 10
329.4396092117255
 20
499.9207756018105
 30
0.0
 11
398.5766092117255
 21
499.9207756018105
 31
0.0
  0
LINE
  5
291A
330
23F8
100
AcDbEntity
  8
1
 62
     7
100
AcDbLine
 10
353.9626092117254
 20
498.9427756018105
 30
0.0
 11
329.1116092117255
 21
498.9427756018103
 31
0.0
  0
CIRCLE
  5
291B
330
23F8
100
AcDbEntity
  8
1
 62
     7
100
AcDbCircle
 10
118.9766092117255
 20
579.6677756018103
 30
0.0
 40
81.61616886081418
  0
CIRCLE
  5
291C
330
23F8
100
AcDbEntity
  8
1
 62
     7
100
AcDbCircle
 10
118.9766092117255
 20
579.6677756018103
 30
0.0
 40
83.13416886084173
  0
CIRCLE
  5
291D
330
23F8
100
AcDbEntity
  8
1
  6
CENTER
 62
     3
100
AcDbCircle
 10
118.9766092117255
 20
579.6677756018103
 30
0.0
 40
97.50000000000005
  0
CIRCLE
  5
291E
330
23F8
100
AcDbEntity
  8
1
 62
     7
100
AcDbCircle
 10
118.9766092117255
 20
579.6677756018103
 30
0.0
 40
107.4999983856917
  0
CIRCLE
  5
291F
330
23F8
100
AcDbEntity
  8
1
 62
     7
100
AcDbCircle
 10
118.9766092117255
 20
579.6677756018103
 30
0.0
 40
88.49999867086498
  0
CIRCLE
  5
2920
330
23F8
100
AcDbEntity
  8
1
 62
     7
100
AcDbCircle
 10
118.9766092117255
 20
579.6677756018103
 30
0.0
 40
80.72099878758432
  0
CIRCLE
  5
2921
330
23F8
100
AcDbEntity
  8
1
 62
     7
100
AcDbCircle
 10
118.9766092117255
 20
579.6677756018103
 30
0.0
 40
51.49999922654479
  0
CIRCLE
  5
2922
330
23F8
100
AcDbEntity
  8
1
 62
     7
100
AcDbCircle
 10
118.9766092117255
 20
579.6677756018103
 30
0.0
 40
25.9999996095168
  0
CIRCLE
  5
2923
330
23F8
100
AcDbEntity
  8
1
 62
     7
100
AcDbCircle
 10
118.9766092117256
 20
677.1677756018103
 30
0.0
 40
5.500000000000007
  0
CIRCLE
  5
2924
330
23F8
100
AcDbEntity
  8
1
 62
     7
100
AcDbCircle
 10
118.9766092117255
 20
482.1677756018104
 30
0.0
 40
5.500000000000047
  0
CIRCLE
  5
2925
330
23F8
100
AcDbEntity
  8
1
  6
CENTER
 62
     3
100
AcDbCircle
 10
118.9766092117255
 20
579.6677756018103
 30
0.0
 40
40.0
  0
CIRCLE
  5
2926
330
23F8
100
AcDbEntity
  8
1
 62
     7
100
AcDbCircle
 10
118.9766092117255
 20
619.6677756018104
 30
0.0
 40
9.0
  0
CIRCLE
  5
2927
330
23F8
100
AcDbEntity
  8
1
 62
     7
100
AcDbCircle
 10
118.9766092117255
 20
539.6677756018102
 30
0.0
 40
9.0
  0
ARC
  5
2928
330
23F8
100
AcDbEntity
  8
1
  6
CENTER
 62
     3
100
AcDbCircle
 10
118.9766092117255
 20
579.6677756018103
 30
0.0
 40
44.99999999999991
100
AcDbArc
 50
94.45725433945685
 51
130.4321851405747
  0
LINE
  5
2929
330
23F8
100
AcDbEntity
  8
2
  6
CENTER
 62
     3
100
AcDbLine
 10
236.476607446989
 20
579.6677756018103
 30
0.0
 11
1.476610976512858
 21
579.6677756018103
 31
0.0
  0
CIRCLE
  5
292A
330
23F8
100
AcDbEntity
  8
1
 62
     7
100
AcDbCircle
 10
34.53913234274295
 20
628.4177756018103
 30
0.0
 40
5.5
  0
CIRCLE
  5
292B
330
23F8
100
AcDbEntity
  8
1
 62
     3
100
AcDbCircle
 10
101.7558547552968
 20
621.242354564818
 30
0.0
 40
4.0
  0
LINE
  5
292C
330
23F8
100
AcDbEntity
  8
1
  6
CENTER
 62
     3
100
AcDbLine
 10
27.39442276152138
 20
632.5427756018103
 30
0.0
 11
41.68384192396445
 21
624.2927756018104
 31
0.0
  0
LINE
  5
292D
330
23F8
100
AcDbEntity
  8
1
  6
CENTER
 62
     3
100
AcDbLine
 10
104.5401809424574
 20
614.520396521704
 30
0.0
 11
98.3427561261214
 21
629.48230356509
 31
0.0
  0
CIRCLE
  5
292E
330
23F8
100
AcDbEntity
  8
1
 62
     7
100
AcDbCircle
 10
34.53913234274295
 20
530.9177756018105
 30
0.0
 40
5.499999999999959
  0
LINE
  5
292F
330
23F8
100
AcDbEntity
  8
1
  6
CENTER
 62
     3
100
AcDbLine
 10
27.39442276152138
 20
526.7927756018105
 30
0.0
 11
41.68384192396445
 21
535.0427756018104
 31
0.0
  0
CIRCLE
  5
2930
330
23F8
100
AcDbEntity
  8
1
 62
     7
100
AcDbCircle
 10
70.22660921172548
 20
495.2302987328277
 30
0.0
 40
5.5
  0
LINE
  5
2931
330
23F8
100
AcDbEntity
  8
1
  6
CENTER
 62
     3
100
AcDbLine
 10
66.10160921172547
 20
488.0855891516062
 30
0.0
 11
74.35160921172587
 21
502.3750083140493
 31
0.0
  0
CIRCLE
  5
2932
330
23F8
100
AcDbEntity
  8
1
 62
     3
100
AcDbCircle
 10
93.74175231423008
 20
485.4900075386263
 30
0.0
 40
5.000000000000016
  0
CIRCLE
  5
2933
330
23F8
100
AcDbEntity
  8
1
 62
     7
100
AcDbCircle
 10
93.74175231423008
 20
485.4900075386263
 30
0.0
 40
3.800000000000034
  0
LINE
  5
2934
330
23F8
100
AcDbEntity
  8
1
  6
CENTER
 62
     3
100
AcDbLine
 10
91.60649519213407
 20
477.5211194717415
 30
0.0
 11
95.87700943632558
 21
493.4588956055111
 31
0.0
  0
CIRCLE
  5
2935
330
23F8
100
AcDbEntity
  8
1
 62
     7
100
AcDbCircle
 10
21.4766092117257
 20
579.6677756018103
 30
0.0
 40
5.500000000000007
  0
CIRCLE
  5
2936
330
23F8
100
AcDbEntity
  8
1
 62
     7
100
AcDbCircle
 10
78.97660921172558
 20
579.6677756018103
 30
0.0
 40
9.0
  0
CIRCLE
  5
2937
330
23F8
100
AcDbEntity
  8
1
 62
     7
100
AcDbCircle
 10
90.69233796426368
 20
551.3835043543483
 30
0.0
 40
9.0
  0
LINE
  5
2938
330
23F8
100
AcDbEntity
  8
1
  6
CENTER
 62
     3
100
AcDbLine
 10
99.48503883803139
 20
560.1762052281158
 30
0.0
 11
80.65101578470697
 21
541.3421821747914
 31
0.0
  0
CIRCLE
  5
2939
330
23F8
100
AcDbEntity
  8
1
 62
     7
100
AcDbCircle
 10
90.69233796426368
 20
607.9520468492721
 30
0.0
 40
9.0
  0
LINE
  5
293A
330
23F8
100
AcDbEntity
  8
1
  6
CENTER
 62
     3
100
AcDbLine
 10
99.48503883803139
 20
599.1593459755046
 30
0.0
 11
80.65101578470697
 21
617.993369028829
 31
0.0
  0
CIRCLE
  5
293B
330
23F8
100
AcDbEntity
  8
1
 62
     7
100
AcDbCircle
 10
101.7558547552968
 20
621.242354564818
 30
0.0
 40
3.0
  0
CIRCLE
  5
293C
330
23F8
100
AcDbEntity
  8
1
 62
     7
100
AcDbCircle
 10
70.22660921172587
 20
664.1052524707931
 30
0.0
 40
5.500000000000007
  0
LINE
  5
293D
330
23F8
100
AcDbEntity
  8
1
  6
CENTER
 62
     3
100
AcDbLine
 10
66.10160921172587
 20
671.2499620520145
 30
0.0
 11
74.35160921172587
 21
656.9605428895714
 31
0.0
  0
CIRCLE
  5
293E
330
23F8
100
AcDbEntity
  8
1
 62
     7
100
AcDbCircle
 10
203.4140860807084
 20
628.4177756018102
 30
0.0
 40
5.500000000000007
  0
LINE
  5
293F
330
23F8
100
AcDbEntity
  8
2
  6
CENTER
 62
     3
100
AcDbLine
 10
118.9766092117255
 20
694.1156552032232
 30
0.0
 11
118.9766092117255
 21
462.1677773665975
 31
0.0
  0
LINE
  5
2940
330
23F8
100
AcDbEntity
  8
1
 62
     7
100
AcDbLine
 10
318.9766092117255
 20
631.1677756018103
 30
0.0
 11
318.9766092117255
 21
538.6677756018102
 31
0.0
  0
LINE
  5
2941
330
23F8
100
AcDbEntity
  8
1
 62
     7
100
AcDbLine
 10
325.4766092117255
 20
655.3517756018099
 30
0.0
 11
325.4766092117255
 21
538.6677756018102
 31
0.0
  0
LINE
  5
2942
330
23F8
100
AcDbEntity
  8
1
  6
CENTER
 62
     3
100
AcDbLine
 10
210.55879566193
 20
632.5427756018099
 30
0.0
 11
196.2693764994867
 21
624.2927756018101
 31
0.0
  0
CIRCLE
  5
2943
330
23F8
100
AcDbEntity
  8
1
 62
     7
100
AcDbCircle
 10
136.1973636681546
 20
538.0931966388024
 30
0.0
 40
3.0
  0
CIRCLE
  5
2944
330
23F8
100
AcDbEntity
  8
1
 62
     3
100
AcDbCircle
 10
136.1973636681546
 20
538.0931966388024
 30
0.0
 40
4.0
  0
ARC
  5
2945
330
23F8
100
AcDbEntity
  8
1
  6
CENTER
 62
     3
100
AcDbCircle
 10
118.9766092117255
 20
579.6677756018103
 30
0.0
 40
45.00000000000002
100
AcDbArc
 50
274.1643414042526
 51
310.5354372462694
  0
LINE
  5
2946
330
23F8
100
AcDbEntity
  8
1
  6
CENTER
 62
     3
100
AcDbLine
 10
133.4130374809938
 20
544.8151546819164
 30
0.0
 11
139.6104622973298
 21
529.8532476385304
 31
0.0
  0
CIRCLE
  5
2947
330
23F8
100
AcDbEntity
  8
1
 62
     7
100
AcDbCircle
 10
167.7266092117253
 20
495.2302987328274
 30
0.0
 40
5.499999999999863
  0
LINE
  5
2948
330
23F8
100
AcDbEntity
  8
1
  6
CENTER
 62
     3
100
AcDbLine
 10
171.8516092117253
 20
488.0855891516058
 30
0.0
 11
163.6016092117255
 21
502.3750083140491
 31
0.0
  0
CIRCLE
  5
2949
330
23F8
100
AcDbEntity
  8
1
 62
     7
100
AcDbCircle
 10
203.4140860807081
 20
530.9177756018099
 30
0.0
 40
5.5
  0
LINE
  5
294A
330
23F8
100
AcDbEntity
  8
1
  6
CENTER
 62
     3
100
AcDbLine
 10
210.5587956619297
 20
526.7927756018102
 30
0.0
 11
196.2693764994865
 21
535.0427756018099
 31
0.0
  0
CIRCLE
  5
294B
330
23F8
100
AcDbEntity
  8
1
 62
     7
100
AcDbCircle
 10
158.9766092117255
 20
579.6677756018103
 30
0.0
 40
9.0
  0
CIRCLE
  5
294C
330
23F8
100
AcDbEntity
  8
1
 62
     7
100
AcDbCircle
 10
147.2608804591874
 20
551.3835043543483
 30
0.0
 40
9.0
  0
LINE
  5
294D
330
23F8
100
AcDbEntity
  8
1
  6
CENTER
 62
     3
100
AcDbLine
 10
138.4681795854198
 20
560.1762052281158
 30
0.0
 11
157.3022026387442
 21
541.3421821747914
 31
0.0
  0
CIRCLE
  5
294E
330
23F8
100
AcDbEntity
  8
1
 62
     7
100
AcDbCircle
 10
147.2608804591874
 20
607.9520468492721
 30
0.0
 40
9.0
  0
LINE
  5
294F
330
23F8
100
AcDbEntity
  8
1
  6
CENTER
 62
     3
100
AcDbLine
 10
138.4681795854198
 20
599.1593459755046
 30
0.0
 11
157.3022026387442
 21
617.993369028829
 31
0.0
  0
CIRCLE
  5
2950
330
23F8
100
AcDbEntity
  8
1
 62
     7
100
AcDbCircle
 10
216.4766092117255
 20
579.6677756018101
 30
0.0
 40
5.500000000000056
  0
ARC
  5
2951
330
23F8
100
AcDbEntity
  8
1
 62
     7
100
AcDbCircle
 10
329.1116092117255
 20
503.6557756018104
 30
0.0
 40
4.713000000000018
100
AcDbArc
 50
180.0
 51
270.0
  0
LINE
  5
2952
330
23F8
100
AcDbEntity
  8
1
  6
DIVIDE
 62
     7
100
AcDbLine
 10
321.4766091360285
 20
493.6677756018103
 30
0.0
 11
321.4766091360285
 21
513.8212742101173
 31
0.0
  0
LINE
  5
2953
330
23F8
100
AcDbEntity
  8
1
  6
DIVIDE
 62
     7
100
AcDbLine
 10
338.0257362394591
 20
493.6677756018103
 30
0.0
 11
321.4766091360285
 21
493.6677756018103
 31
0.0
  0
LINE
  5
2954
330
23F8
100
AcDbEntity
  8
1
 62
     7
100
AcDbLine
 10
318.9766092117255
 20
537.8677756018102
 30
0.0
 11
325.4766092117255
 21
537.8677756018102
 31
0.0
  0
LINE
  5
2955
330
23F8
100
AcDbEntity
  8
1
 62
     7
100
AcDbLine
 10
318.9766092117255
 20
531.4677756018101
 30
0.0
 11
325.4766092117255
 21
531.4677756018101
 31
0.0
  0
LINE
  5
2956
330
23F8
100
AcDbEntity
  8
1
  6
CENTER
 62
     3
100
AcDbLine
 10
317.6766092117255
 20
534.6677756018099
 30
0.0
 11
326.7766092117255
 21
534.6677756018099
 31
0.0
  0
LINE
  5
2957
330
23F8
100
AcDbEntity
  8
1
 62
     3
100
AcDbLine
 10
318.9766092117255
 20
538.6677756018102
 30
0.0
 11
325.4766092117255
 21
538.6677756018102
 31
0.0
  0
LINE
  5
2958
330
23F8
100
AcDbEntity
  8
1
 62
     3
100
AcDbLine
 10
318.9766092117255
 20
530.6677756018102
 30
0.0
 11
325.4766092117255
 21
530.6677756018102
 31
0.0
  0
LINE
  5
2959
330
23F8
100
AcDbEntity
  8
1
 62
     7
100
AcDbLine
 10
323.7486092117255
 20
527.6677756018105
 30
0.0
 11
319.4766092117255
 21
527.6677756018105
 31
0.0
  0
LINE
  5
295A
330
23F8
100
AcDbEntity
  8
1
 62
     7
100
AcDbLine
 10
318.9766092117255
 20
530.6677756018102
 30
0.0
 11
318.9766092117255
 21
528.1677756018105
 31
0.0
  0
LINE
  5
295B
330
23F8
100
AcDbEntity
  8
1
 62
     7
100
AcDbLine
 10
318.9766092117255
 20
528.1677756018105
 30
0.0
 11
319.4766092117255
 21
527.6677756018105
 31
0.0
  0
LINE
  5
295C
330
23F8
100
AcDbEntity
  8
1
 62
     7
100
AcDbLine
 10
318.9766092117255
 20
537.8677756018102
 30
0.0
 11
318.9766092117255
 21
531.4677756018101
 31
0.0
  0
LINE
  5
295D
330
23F8
100
AcDbEntity
  8
1
 62
     7
100
AcDbLine
 10
318.9766092117255
 20
531.4677756018101
 30
0.0
 11
318.9766092117255
 21
530.6677756018102
 31
0.0
  0
LINE
  5
295E
330
23F8
100
AcDbEntity
  8
1
 62
     7
100
AcDbLine
 10
318.9766092117255
 20
538.6677756018102
 30
0.0
 11
318.9766092117255
 21
537.8677756018102
 31
0.0
  0
LINE
  5
295F
330
23F8
100
AcDbEntity
  8
1
 62
     7
100
AcDbLine
 10
325.4766092117255
 20
530.6677756018102
 30
0.0
 11
325.4766092117255
 21
503.9837756018106
 31
0.0
  0
LINE
  5
2960
330
23F8
100
AcDbEntity
  8
1
 62
     7
100
AcDbLine
 10
324.3986092117255
 20
527.0177756018104
 30
0.0
 11
324.3986092117255
 21
503.6557756018104
 31
0.0
  0
ARC
  5
2961
330
23F8
100
AcDbEntity
  8
1
 62
     7
100
AcDbCircle
 10
329.4896092117255
 20
503.9337756018105
 30
0.0
 40
4.013311475577221
100
AcDbArc
 50
179.2861597939564
 51
269.286159793958
  0
ARC
  5
2962
330
23F8
100
AcDbEntity
  8
1
 62
     7
100
AcDbCircle
 10
323.7486092117255
 20
527.0177756018104
 30
0.0
 40
0.6499999999999773
100
AcDbArc
 50
0.0
 51
90.0
  0
LINE
  5
2963
330
23F8
100
AcDbEntity
  8
1
 62
     7
100
AcDbLine
 10
325.4766092117255
 20
537.8677756018102
 30
0.0
 11
325.4766092117255
 21
531.4677756018101
 31
0.0
  0
LINE
  5
2964
330
23F8
100
AcDbEntity
  8
1
 62
     7
100
AcDbLine
 10
325.4766092117255
 20
531.4677756018101
 30
0.0
 11
325.4766092117255
 21
530.6677756018102
 31
0.0
  0
LINE
  5
2965
330
23F8
100
AcDbEntity
  8
1
 62
     7
100
AcDbLine
 10
325.4766092117255
 20
538.6677756018102
 30
0.0
 11
325.4766092117255
 21
537.8677756018102
 31
0.0
  0
LINE
  5
2966
330
23F8
100
AcDbEntity
  8
1
 62
     7
100
AcDbLine
 10
325.4766092117255
 20
553.6677756018102
 30
0.0
 11
318.9766092117255
 21
553.6677756018102
 31
0.0
  0
LINE
  5
2967
330
23F8
100
AcDbEntity
  8
1
 62
     7
100
AcDbLine
 10
318.9766092117255
 20
605.6677756018103
 30
0.0
 11
325.4766092117255
 21
605.6677756018103
 31
0.0
  0
LINE
  5
2968
330
23F8
100
AcDbEntity
  8
1
 62
     7
100
AcDbLine
 10
318.9766092117255
 20
610.6677756018103
 30
0.0
 11
325.4766092117255
 21
610.6677756018103
 31
0.0
  0
LINE
  5
2969
330
23F8
100
AcDbEntity
  8
1
  6
CENTER
 62
     3
100
AcDbLine
 10
315.6735948621179
 20
619.6677756018104
 30
0.0
 11
329.1530943796702
 21
619.6677756018104
 31
0.0
  0
CIRCLE
  5
296A
330
23F8
100
AcDbEntity
  8
1
 62
     7
100
AcDbCircle
 10
167.7266092117255
 20
664.105252470793
 30
0.0
 40
5.5
  0
LINE
  5
296B
330
23F8
100
AcDbEntity
  8
1
  6
CENTER
 62
     3
100
AcDbLine
 10
171.8516092117255
 20
671.2499620520145
 30
0.0
 11
163.6016092117255
 21
656.9605428895714
 31
0.0
  0
LINE
  5
296C
330
23F8
100
AcDbEntity
  8
1
  6
CENTER
 62
     3
100
AcDbLine
 10
146.3467232313171
 20
681.814431731879
 30
0.0
 11
142.0762089871255
 21
665.8766555981096
 31
0.0
  0
CIRCLE
  5
296D
330
23F8
100
AcDbEntity
  8
1
 62
     7
100
AcDbCircle
 10
144.2114661092213
 20
673.8455436649944
 30
0.0
 40
3.800000000000063
  0
CIRCLE
  5
296E
330
23F8
100
AcDbEntity
  8
1
 62
     3
100
AcDbCircle
 10
144.2114661092213
 20
673.8455436649944
 30
0.0
 40
5.000000000000016
  0
LINE
  5
296F
330
23F8
100
AcDbEntity
  8
1
 62
     7
100
AcDbLine
 10
319.4766092117255
 20
631.6677756018103
 30
0.0
 11
323.7486092117255
 21
631.6677756018103
 31
0.0
  0
LINE
  5
2970
330
23F8
100
AcDbEntity
  8
1
 62
     7
100
AcDbLine
 10
318.9766092117255
 20
628.6677756018104
 30
0.0
 11
325.4766092117255
 21
628.6677756018104
 31
0.0
  0
LINE
  5
2971
330
23F8
100
AcDbEntity
  8
1
 62
     7
100
AcDbLine
 10
319.4766092117255
 20
631.6677756018103
 30
0.0
 11
318.9766092117255
 21
631.1677756018103
 31
0.0
  0
LINE
  5
2972
330
23F8
100
AcDbEntity
  8
1
 62
     7
100
AcDbLine
 10
324.3986092117255
 20
655.6797756018104
 30
0.0
 11
324.3986092117255
 21
632.3177756018103
 31
0.0
  0
LINE
  5
2973
330
23F8
100
AcDbEntity
  8
1
  6
DIVIDE
 62
     7
100
AcDbLine
 10
321.4766091360285
 20
645.5142769935032
 30
0.0
 11
321.4766091360285
 21
665.6677756018104
 31
0.0
  0
ARC
  5
2974
330
23F8
100
AcDbEntity
  8
1
 62
     7
100
AcDbCircle
 10
323.7486092117255
 20
632.3177756018103
 30
0.0
 40
0.6499999999999773
100
AcDbArc
 50
270.0
 51
0.0
  0
LINE
  5
2975
330
23F8
100
AcDbEntity
  8
1
  6
DIVIDE
 62
     7
100
AcDbLine
 10
321.4766091360285
 20
665.6677756018104
 30
0.0
 11
338.0257362394591
 21
665.6677756018104
 31
0.0
  0
LINE
  5
2976
330
23F8
100
AcDbEntity
  8
1
  6
DIVIDE
 62
     7
100
AcDbLine
 10
321.4766091360285
 20
665.6677756018104
 30
0.0
 11
338.0257362394591
 21
665.6677756018104
 31
0.0
  0
ARC
  5
2977
330
23F8
100
AcDbEntity
  8
1
 62
     7
100
AcDbCircle
 10
329.1116092117255
 20
655.6797756018104
 30
0.0
 40
4.71299999999996
100
AcDbArc
 50
90.0
 51
180.0
  0
ARC
  5
2978
330
23F8
100
AcDbEntity
  8
1
 62
     7
100
AcDbCircle
 10
329.4896092117255
 20
655.40177560181
 30
0.0
 40
4.013311475577231
100
AcDbArc
 50
90.7138402060403
 51
180.7138402060403
  0
ARC
  5
2979
330
23F8
100
AcDbEntity
  8
1
  6
CENTER
 62
     3
100
AcDbCircle
 10
601.9766092117255
 20
579.6677756018103
 30
0.0
 40
97.50000000000007
100
AcDbArc
 50
247.5402493012631
 51
0.0
  0
TEXT
  5
297A
330
23F8
100
AcDbEntity
  8
1
 62
     0
100
AcDbText
 10
546.7665892420332
 20
364.7973336458652
 30
0.0
 40
9.5
  1
CSF-65-XXX-2A-GR.dxf
 41
0.9
100
AcDbText
  0
TEXT
  5
297B
330
23F8
100
AcDbEntity
  8
1
 62
     0
100
AcDbText
 10
587.5255932103994
 20
343.2942996360238
 30
0.0
 40
9.5
  1
2002/3
 41
0.9
 72
     1
 11
605.5491114374478
 21
348.0442996360238
 31
0.0
100
AcDbText
 73
     2
  0
CIRCLE
  5
297C
330
23F8
100
AcDbEntity
  8
1
 62
     7
100
AcDbCircle
 10
601.9766092117255
 20
579.6677755973904
 30
0.0
 40
23.99999963996807
  0
ARC
  5
297D
330
23F8
100
AcDbEntity
  8
0
 62
     7
100
AcDbCircle
 10
601.9766092117284
 20
581.0677755764126
 30
0.0
 40
26.51999960163188
100
AcDbArc
 50
90.00000000000488
 51
250.730361122028
  0
ARC
  5
297E
330
23F8
100
AcDbEntity
  8
1
 62
     7
100
AcDbCircle
 10
601.9766092086776
 20
579.6677756018103
 30
0.0
 40
63.01499905355832
100
AcDbArc
 50
53.76468941411134
 51
180.0
  0
ARC
  5
297F
330
23F8
100
AcDbEntity
  8
1
 62
     7
100
AcDbCircle
 10
601.976609214773
 20
579.6677756018103
 30
0.0
 40
63.01499905355829
100
AcDbArc
 50
0.0
 51
126.2353105858886
  0
ARC
  5
2980
330
23F8
100
AcDbEntity
  8
0
 62
     7
100
AcDbCircle
 10
601.976609214773
 20
579.6677756018103
 30
0.0
 40
63.01499905355831
100
AcDbArc
 50
233.7646894141113
 51
0.0
  0
ARC
  5
2981
330
23F8
100
AcDbEntity
  8
0
 62
     7
100
AcDbCircle
 10
601.976609214773
 20
579.6677756018103
 30
0.0
 40
58.92799911496489
100
AcDbArc
 50
230.794824483318
 51
0.0
  0
ARC
  5
2982
330
23F8
100
AcDbEntity
  8
0
 62
     7
100
AcDbCircle
 10
601.976609214773
 20
579.6677756018103
 30
0.0
 40
58.92799911496493
100
AcDbArc
 50
0.0
 51
129.2051755166791
  0
ARC
  5
2983
330
23F8
100
AcDbEntity
  8
0
 62
     7
100
AcDbCircle
 10
601.976609214773
 20
579.6677756018103
 30
0.0
 40
75.81999886122834
100
AcDbArc
 50
240.5756885134488
 51
0.0
  0
ARC
  5
2984
330
23F8
100
AcDbEntity
  8
0
 62
     7
100
AcDbCircle
 10
601.976609214773
 20
579.6677756018103
 30
0.0
 40
75.81999886122841
100
AcDbArc
 50
0.0
 51
119.4243114865511
  0
ARC
  5
2985
330
23F8
100
AcDbEntity
  8
0
 62
     7
100
AcDbCircle
 10
601.976609214773
 20
579.6677756018103
 30
0.0
 40
79.7559988021597
100
AcDbArc
 50
242.1583994086066
 51
0.0
  0
ARC
  5
2986
330
23F8
100
AcDbEntity
  8
0
 62
     7
100
AcDbCircle
 10
601.976609214773
 20
579.6677756018103
 30
0.0
 40
79.7559988021597
100
AcDbArc
 50
0.0
 51
117.8416005913933
  0
ARC
  5
2987
330
23F8
100
AcDbEntity
  8
0
 62
     7
100
AcDbCircle
 10
592.529115298559
 20
510.9491613902805
 30
0.0
 40
7.143749892538918
100
AcDbArc
 50
108.053830336581
 51
235.5697115507326
  0
ARC
  5
2988
330
23F8
100
AcDbEntity
  8
0
 62
     7
100
AcDbCircle
 10
583.2623592042933
 20
646.4605890402133
 30
0.0
 40
7.143749892746619
100
AcDbArc
 50
311.5338303353967
 51
79.04971154909188
  0
ARC
  5
2989
330
23F8
100
AcDbEntity
  8
0
 62
     7
100
AcDbCircle
 10
601.9766092106708
 20
579.6677755976864
 30
0.0
 40
64.38999903244566
100
AcDbArc
 50
251.7191698454432
 51
256.9728301586912
  0
ARC
  5
298A
330
23F8
100
AcDbEntity
  8
0
 62
     7
100
AcDbCircle
 10
592.4943843655982
 20
510.6965376324695
 30
0.0
 40
8.014999878895253
100
AcDbArc
 50
128.8908079562392
 51
203.5959043175954
  0
ARC
  5
298B
330
23F8
100
AcDbEntity
  8
1
 62
     7
100
AcDbCircle
 10
601.9766092117255
 20
579.6677755973904
 30
0.0
 40
29.99999954983339
100
AcDbArc
 50
284.5735961858266
 51
255.4264038142286
  0
ARC
  5
298C
330
23F8
100
AcDbEntity
  8
1
 62
     7
100
AcDbCircle
 10
601.9766092117255
 20
579.6677756018103
 30
0.0
 40
107.4999983859767
100
AcDbArc
 50
90.0
 51
110.2731596192298
  0
ARC
  5
298D
330
23F8
100
AcDbEntity
  8
1
 62
     7
100
AcDbCircle
 10
601.9766092117255
 20
579.6677756018103
 30
0.0
 40
107.4999983859767
100
AcDbArc
 50
249.7268403807687
 51
90.0
  0
ARC
  5
298E
330
23F8
100
AcDbEntity
  8
1
 62
     7
100
AcDbCircle
 10
601.9766092117255
 20
579.6677756018103
 30
0.0
 40
83.137
100
AcDbArc
 50
90.0
 51
116.6177285191599
  0
ARC
  5
298F
330
23F8
100
AcDbEntity
  8
1
 62
     7
100
AcDbCircle
 10
601.9766092117255
 20
579.6677756018103
 30
0.0
 40
83.13700000000002
100
AcDbArc
 50
243.3822714808399
 51
90.0
  0
ARC
  5
2990
330
23F8
100
AcDbEntity
  8
1
 62
     7
100
AcDbCircle
 10
601.9766092117255
 20
579.6677756018103
 30
0.0
 40
81.61616886078702
100
AcDbArc
 50
90.0
 51
117.1540450020614
  0
ARC
  5
2991
330
23F8
100
AcDbEntity
  8
1
 62
     7
100
AcDbCircle
 10
601.9766092117255
 20
579.6677756018103
 30
0.0
 40
81.61616886078704
100
AcDbArc
 50
242.8459549979385
 51
90.0
  0
ARC
  5
2992
330
23F8
100
AcDbEntity
  8
1
  6
CENTER
 62
     3
100
AcDbCircle
 10
601.9766092117255
 20
579.6677756018103
 30
0.0
 40
97.49999999999996
100
AcDbArc
 50
0.0
 51
112.4597506987368
  0
LINE
  5
2993
330
23F8
100
AcDbEntity
  8
2
  6
CENTER
 62
     3
100
AcDbLine
 10
726.890886299807
 20
579.6677756018103
 30
0.0
 11
489.0437976115906
 21
579.6677756018103
 31
0.0
  0
CIRCLE
  5
2994
330
23F8
100
AcDbEntity
  8
1
 62
     7
100
AcDbCircle
 10
517.5391323427427
 20
628.4177756018102
 30
0.0
 40
5.49999999999988
  0
ARC
  5
2995
330
23F8
100
AcDbEntity
  8
0
 62
     7
100
AcDbCircle
 10
551.2792992065961
 20
627.0099960718635
 30
0.0
 40
7.143749892786472
100
AcDbArc
 50
163.5622884485562
 51
291.0781696630836
  0
ARC
  5
2996
330
23F8
100
AcDbEntity
  8
1
 62
     7
100
AcDbCircle
 10
601.976609214773
 20
579.6677756018103
 30
0.0
 40
75.81999886122834
100
AcDbArc
 50
119.4243114865511
 51
240.5756885134488
  0
ARC
  5
2997
330
23F8
100
AcDbEntity
  8
1
 62
     7
100
AcDbCircle
 10
601.976609214773
 20
579.6677756018103
 30
0.0
 40
79.7559988021597
100
AcDbArc
 50
117.8416005913933
 51
242.1583994086066
  0
ARC
  5
2998
330
23F8
100
AcDbEntity
  8
1
 62
     7
100
AcDbCircle
 10
601.9766092157131
 20
579.6677756005274
 30
0.0
 40
63.01499905514856
100
AcDbArc
 50
126.2353105858886
 51
233.7045014929292
  0
ARC
  5
2999
330
23F8
100
AcDbEntity
  8
1
 62
     7
100
AcDbCircle
 10
601.976609214773
 20
579.6677756018103
 30
0.0
 40
58.92799911496485
100
AcDbArc
 50
129.2051755166791
 51
230.794824483318
  0
ARC
  5
299A
330
23F8
100
AcDbEntity
  8
0
 62
     7
100
AcDbCircle
 10
551.0929254754501
 20
627.1840358026927
 30
0.0
 40
8.014999878792471
100
AcDbArc
 50
195.536095681934
 51
270.2411920429416
  0
ARC
  5
299B
330
23F8
100
AcDbEntity
  8
0
 62
     7
100
AcDbCircle
 10
601.9766092117967
 20
579.6677755974915
 30
0.0
 40
74.1149988868827
100
AcDbArc
 50
142.2548919768637
 51
147.317108023904
  0
ARC
  5
299C
330
23F8
100
AcDbEntity
  8
1
 62
     7
100
AcDbCircle
 10
601.9766092117255
 20
579.6677756018103
 30
0.0
 40
107.4999983859767
100
AcDbArc
 50
110.2731596192298
 51
249.7268403807687
  0
ARC
  5
299D
330
23F8
100
AcDbEntity
  8
1
  6
CENTER
 62
     3
100
AcDbCircle
 10
601.9766092117255
 20
579.6677756018103
 30
0.0
 40
97.50000000000005
100
AcDbArc
 50
112.4597506987368
 51
247.5402493012631
  0
ARC
  5
299E
330
23F8
100
AcDbEntity
  8
1
 62
     7
100
AcDbCircle
 10
601.9766092117255
 20
579.6677756018103
 30
0.0
 40
83.13700000000013
100
AcDbArc
 50
116.6177285191599
 51
243.3822714808399
  0
ARC
  5
299F
330
23F8
100
AcDbEntity
  8
1
 62
     7
100
AcDbCircle
 10
601.9766092117255
 20
579.6677756018103
 30
0.0
 40
81.61616886078704
100
AcDbArc
 50
117.1540450020614
 51
242.8459549979385
  0
LINE
  5
29A0
330
23F8
100
AcDbEntity
  8
0
 62
     7
100
AcDbLine
 10
370.5766092117254
 20
631.667774820793
 30
0.0
 11
370.5766092117254
 21
609.667775151288
 31
0.0
  0
LINE
  5
29A1
330
23F8
100
AcDbEntity
  8
0
 62
     7
100
AcDbLine
 10
383.646189280494
 20
631.667774820793
 30
0.0
 11
383.646189280494
 21
612.1677751136807
 31
0.0
  0
LINE
  5
29A2
330
23F8
100
AcDbEntity
  8
0
 62
     7
100
AcDbLine
 10
383.8461892774258
 20
638.5957747167751
 30
0.0
 11
383.8461892774258
 21
603.9177752375987
 31
0.0
  0
LINE
  5
29A3
330
23F8
100
AcDbEntity
  8
0
 62
     7
100
AcDbLine
 10
376.5766092117254
 20
603.9177752375987
 30
0.0
 11
376.5766092117254
 21
638.5957747167751
 31
0.0
  0
LINE
  5
29A4
330
23F8
100
AcDbEntity
  8
0
 62
     7
100
AcDbLine
 10
394.6766092117254
 20
638.5957747167751
 30
0.0
 11
394.6766092117254
 21
603.9177752375987
 31
0.0
  0
LINE
  5
29A5
330
23F8
100
AcDbEntity
  8
1
 62
     7
100
AcDbLine
 10
363.2766092117254
 20
603.6677756018104
 30
0.0
 11
363.2766092117254
 21
631.9177756018103
 31
0.0
  0
LINE
  5
29A6
330
23F8
100
AcDbEntity
  8
0
 62
     7
100
AcDbLine
 10
370.5766092117254
 20
631.9177756018103
 30
0.0
 11
370.5766092117254
 21
606.1677752037649
 31
0.0
  0
LINE
  5
29A7
330
23F8
100
AcDbEntity
  8
1
  6
CENTER
 62
     3
100
AcDbLine
 10
524.6838419239643
 20
624.2927756018104
 30
0.0
 11
510.3944227615212
 21
632.5427756018103
 31
0.0
  0
LINE
  5
29A8
330
23F8
100
AcDbEntity
  8
1
 62
     7
100
AcDbLine
 10
376.5766092117254
 20
555.4177759660803
 30
0.0
 11
376.5766092117254
 21
527.6677763832339
 31
0.0
  0
LINE
  5
29A9
330
23F8
100
AcDbEntity
  8
0
 62
     7
100
AcDbLine
 10
370.5766092117254
 20
549.6677760527391
 30
0.0
 11
370.5766092117254
 21
527.6677763832339
 31
0.0
  0
LINE
  5
29AA
330
23F8
100
AcDbEntity
  8
0
 62
     7
100
AcDbLine
 10
363.6691097360432
 20
549.6677760527391
 30
0.0
 11
363.6691097360432
 21
527.6677763832339
 31
0.0
  0
LINE
  5
29AB
330
23F8
100
AcDbEntity
  8
0
 62
     7
100
AcDbLine
 10
394.6766092117254
 20
555.4177759660803
 30
0.0
 11
394.6766092117254
 21
520.7397764870741
 31
0.0
  0
LINE
  5
29AC
330
23F8
100
AcDbEntity
  8
1
 62
     7
100
AcDbLine
 10
363.2766092117254
 20
554.4177759810772
 30
0.0
 11
363.2766092117254
 21
527.4177756018104
 31
0.0
  0
LINE
  5
29AD
330
23F8
100
AcDbEntity
  8
0
 62
     7
100
AcDbLine
 10
370.5766092117254
 20
527.4177756018104
 30
0.0
 11
370.5766092117254
 21
553.1677759999064
 31
0.0
  0
ARC
  5
29AE
330
23F8
100
AcDbEntity
  8
1
 62
     7
100
AcDbCircle
 10
353.9740692890708
 20
433.858308739226
 30
0.0
 40
65.08446787152994
100
AcDbArc
 50
74.55718742823131
 51
90.01008864464379
  0
LINE
  5
29AF
330
23F8
100
AcDbEntity
  8
1
  6
DIVIDE
 62
     7
100
AcDbLine
 10
402.9766092110568
 20
493.6677756018103
 30
0.0
 11
402.9766092110568
 21
517.2664218590242
 31
0.0
  0
LINE
  5
29B0
330
23F8
100
AcDbEntity
  8
1
 62
     7
100
AcDbLine
 10
400.3594519242001
 20
498.6256183142849
 30
0.0
 11
398.3361922314633
 21
496.6023586215483
 31
0.0
  0
LINE
  5
29B1
330
23F8
100
AcDbEntity
  8
1
 62
     7
100
AcDbLine
 10
371.3045293664163
 20
496.5930129437391
 30
0.0
 11
384.2266092117254
 21
496.5307756018105
 31
0.0
  0
LINE
  5
29B2
330
23F8
100
AcDbEntity
  8
1
 62
     7
100
AcDbLine
 10
371.4766091360285
 20
487.6677756018104
 30
0.0
 11
400.4766092109491
 21
487.6677756018104
 31
0.0
  0
LINE
  5
29B3
330
23F8
100
AcDbEntity
  8
1
 62
     7
100
AcDbLine
 10
371.4766091360285
 20
476.6677756018103
 30
0.0
 11
400.4766092109491
 21
476.6677756018103
 31
0.0
  0
LINE
  5
29B4
330
23F8
100
AcDbEntity
  8
1
  6
CENTER
 62
     3
100
AcDbLine
 10
363.4536891014851
 20
482.1677756018103
 30
0.0
 11
408.4536889356733
 21
482.1677756018103
 31
0.0
  0
LINE
  5
29B5
330
23F8
100
AcDbEntity
  8
0
 62
     7
100
AcDbLine
 10
367.607980044433
 20
498.0520885202655
 30
0.0
 11
399.3452383785101
 21
498.0520885202655
 31
0.0
  0
LINE
  5
29B6
330
23F8
100
AcDbEntity
  8
0
 62
     7
100
AcDbLine
 10
366.4766092113945
 20
496.5340885202654
 30
0.0
 11
400.4766092111133
 21
496.5340885202654
 31
0.0
  0
LINE
  5
29B7
330
23F8
100
AcDbEntity
  8
0
 62
     7
100
AcDbLine
 10
400.0766092168412
 20
472.1677772169822
 30
0.0
 11
371.8766091298671
 21
472.1677772169822
 31
0.0
  0
LINE
  5
29B8
330
23F8
100
AcDbEntity
  8
0
 62
     7
100
AcDbLine
 10
371.4766091360285
 20
476.6677756018103
 30
0.0
 11
371.4766091360285
 21
487.6677756018104
 31
0.0
  0
LINE
  5
29B9
330
23F8
100
AcDbEntity
  8
0
 62
     7
100
AcDbLine
 10
371.4766091360285
 20
472.5677772108208
 30
0.0
 11
371.4766091360285
 21
476.6677756018103
 31
0.0
  0
LINE
  5
29BA
330
23F8
100
AcDbEntity
  8
0
 62
     7
100
AcDbLine
 10
371.8766091298671
 20
472.1677772169822
 30
0.0
 11
371.4766091360285
 21
472.5677772108208
 31
0.0
  0
LINE
  5
29BB
330
23F8
100
AcDbEntity
  8
0
 62
     7
100
AcDbLine
 10
371.4766091360285
 20
487.6677756018104
 30
0.0
 11
371.4766091360285
 21
490.8679060857125
 31
0.0
  0
ARC
  5
29BC
330
23F8
100
AcDbEntity
  8
0
 62
     7
100
AcDbCircle
 10
371.1766091405859
 20
490.8679060859665
 30
0.0
 40
0.2999999954424801
100
AcDbArc
 50
359.9999999515049
 51
90.0
  0
LINE
  5
29BD
330
23F8
100
AcDbEntity
  8
0
 62
     7
100
AcDbLine
 10
366.4766092113945
 20
496.9207176877348
 30
0.0
 11
367.607980044433
 21
498.0520885202655
 31
0.0
  0
LINE
  5
29BE
330
23F8
100
AcDbEntity
  8
0
 62
     7
100
AcDbLine
 10
366.4766092113945
 20
496.9207176877348
 30
0.0
 11
366.4766092111406
 21
491.9679060690861
 31
0.0
  0
LINE
  5
29BF
330
23F8
100
AcDbEntity
  8
0
 62
     7
100
AcDbLine
 10
367.2766091988181
 20
491.167906081409
 30
0.0
 11
366.4766092111406
 21
491.9679060690861
 31
0.0
  0
LINE
  5
29C0
330
23F8
100
AcDbEntity
  8
0
 62
     7
100
AcDbLine
 10
371.1766091405859
 20
491.167906081409
 30
0.0
 11
367.2766091988181
 21
491.167906081409
 31
0.0
  0
LINE
  5
29C1
330
23F8
100
AcDbEntity
  8
0
 62
     7
100
AcDbLine
 10
400.4766092109491
 20
476.6677756018103
 30
0.0
 11
400.4766092109491
 21
487.6677756018104
 31
0.0
  0
LINE
  5
29C2
330
23F8
100
AcDbEntity
  8
0
 62
     7
100
AcDbLine
 10
400.4766092108344
 20
472.5677772105668
 30
0.0
 11
400.4766092109491
 21
476.6677756018103
 31
0.0
  0
LINE
  5
29C3
330
23F8
100
AcDbEntity
  8
0
 62
     7
100
AcDbLine
 10
400.4766092108344
 20
472.5677772105668
 30
0.0
 11
400.0766092168412
 21
472.1677772169822
 31
0.0
  0
LINE
  5
29C4
330
23F8
100
AcDbEntity
  8
1
 62
     7
100
AcDbLine
 10
398.3361922314633
 20
496.6023586215483
 30
0.0
 11
392.0266092117254
 21
496.5307756018105
 31
0.0
  0
LINE
  5
29C5
330
23F8
100
AcDbEntity
  8
1
 62
     7
100
AcDbLine
 10
392.0266092117254
 20
496.5307756018105
 30
0.0
 11
384.2266092117254
 21
496.5307756018105
 31
0.0
  0
LINE
  5
29C6
330
23F8
100
AcDbEntity
  8
0
 62
     7
100
AcDbLine
 10
400.4766092109491
 20
487.6677756018104
 30
0.0
 11
400.4766092110568
 21
493.6677756018103
 31
0.0
  0
LINE
  5
29C7
330
23F8
100
AcDbEntity
  8
1
  6
DIVIDE
 62
     7
100
AcDbLine
 10
400.4766092110568
 20
493.6677756018103
 30
0.0
 11
402.9766092110568
 21
493.6677756018103
 31
0.0
  0
LINE
  5
29C8
330
23F8
100
AcDbEntity
  8
1
  6
DIVIDE
 62
     7
100
AcDbLine
 10
400.4766092110568
 20
493.6677756018103
 30
0.0
 11
402.9766092110568
 21
493.6677756018103
 31
0.0
  0
LINE
  5
29C9
330
23F8
100
AcDbEntity
  8
0
 62
     7
100
AcDbLine
 10
400.4766092110568
 20
493.6677756018103
 30
0.0
 11
400.4766092111149
 21
496.9207176874809
 31
0.0
  0
LINE
  5
29CA
330
23F8
100
AcDbEntity
  8
0
 62
     7
100
AcDbLine
 10
399.3452383785101
 20
498.0520885202655
 30
0.0
 11
400.4766092111149
 21
496.9207176874809
 31
0.0
  0
ARC
  5
29CB
330
23F8
100
AcDbEntity
  8
1
 62
     7
100
AcDbCircle
 10
386.8061890565117
 20
510.2937756018102
 30
0.0
 40
7.143750000000013
100
AcDbArc
 50
90.0
 51
244.6336499391214
  0
LINE
  5
29CC
330
23F8
100
AcDbEntity
  8
1
 62
     7
100
AcDbLine
 10
379.4624390565118
 20
515.2737756018102
 30
0.0
 11
381.6657701047082
 21
515.2545474230532
 31
0.0
  0
LINE
  5
29CD
330
23F8
100
AcDbEntity
  8
1
 62
     7
100
AcDbLine
 10
381.4250866383205
 20
505.5951693374553
 30
0.0
 11
379.4624390565118
 21
505.5437756018101
 31
0.0
  0
LINE
  5
29CE
330
23F8
100
AcDbEntity
  8
1
 62
     7
100
AcDbLine
 10
386.8061890565117
 20
499.9027756018101
 30
0.0
 11
376.0586890565117
 21
499.9027756018101
 31
0.0
  0
LINE
  5
29CF
330
23F8
100
AcDbEntity
  8
1
 62
     7
100
AcDbLine
 10
383.7457742051396
 20
503.8387756018102
 30
0.0
 11
375.4586890565117
 21
503.8387756018102
 31
0.0
  0
LINE
  5
29D0
330
23F8
100
AcDbEntity
  8
1
 62
     7
100
AcDbLine
 10
383.5334739661778
 20
516.6437756018101
 30
0.0
 11
379.8661890565117
 21
516.6437756018101
 31
0.0
  0
LINE
  5
29D1
330
23F8
100
AcDbEntity
  8
1
 62
     7
100
AcDbLine
 10
386.8061890565117
 20
520.7307756018101
 30
0.0
 11
379.8661890565117
 21
520.7307756018101
 31
0.0
  0
LINE
  5
29D2
330
23F8
100
AcDbEntity
  8
0
 62
     7
100
AcDbLine
 10
394.6766092117254
 20
520.7397764870741
 30
0.0
 11
376.5766092117254
 21
520.7397764870741
 31
0.0
  0
LINE
  5
29D3
330
23F8
100
AcDbEntity
  8
1
 62
     7
100
AcDbLine
 10
378.8661890565117
 20
517.6437756018101
 30
0.0
 11
378.8661890565117
 21
519.7307756018101
 31
0.0
  0
LINE
  5
29D4
330
23F8
100
AcDbEntity
  8
0
 62
     7
100
AcDbLine
 10
371.6461894606783
 20
527.6677763832339
 30
0.0
 11
371.6461894606783
 21
510.6677766383624
 31
0.0
  0
LINE
  5
29D5
330
23F8
100
AcDbEntity
  8
0
 62
     7
100
AcDbLine
 10
374.1461894231338
 20
510.6677766383624
 30
0.0
 11
374.1461894231338
 21
527.6677763832339
 31
0.0
  0
LINE
  5
29D6
330
23F8
100
AcDbEntity
  8
1
 62
     7
100
AcDbLine
 10
379.4624390565118
 20
505.5437756018101
 30
0.0
 11
379.4624390565118
 21
515.2737756018102
 31
0.0
  0
LINE
  5
29D7
330
23F8
100
AcDbEntity
  8
1
 62
     7
100
AcDbLine
 10
375.8824390565119
 20
509.9799504236266
 30
0.0
 11
375.8824390565119
 21
506.2437756018103
 31
0.0
  0
LINE
  5
29D8
330
23F8
100
AcDbEntity
  8
1
 62
     7
100
AcDbLine
 10
375.0586890565117
 20
503.4387756018102
 30
0.0
 11
375.0586890565117
 21
515.8563793840246
 31
0.0
  0
ARC
  5
29D9
330
23F8
100
AcDbEntity
  8
1
 62
     7
100
AcDbCircle
 10
376.5824390565118
 20
506.2437756018103
 30
0.0
 40
0.6999999999999904
100
AcDbArc
 50
180.0
 51
270.0
  0
LINE
  5
29DA
330
23F8
100
AcDbEntity
  8
1
 62
     7
100
AcDbLine
 10
379.4624390565118
 20
505.5437756018101
 30
0.0
 11
376.5824390565118
 21
505.5437756018101
 31
0.0
  0
LINE
  5
29DB
330
23F8
100
AcDbEntity
  8
1
 62
     7
100
AcDbLine
 10
375.0586890565117
 20
503.4387756018102
 30
0.0
 11
375.0586890565117
 21
500.4801258709998
 31
0.0
  0
LINE
  5
29DC
330
23F8
100
AcDbEntity
  8
1
 62
     7
100
AcDbLine
 10
375.4586890565117
 20
503.8387756018102
 30
0.0
 11
375.0586890565117
 21
503.4387756018102
 31
0.0
  0
LINE
  5
29DD
330
23F8
100
AcDbEntity
  8
1
 62
     7
100
AcDbLine
 10
376.0586890565117
 20
499.9027756018101
 30
0.0
 11
375.0586890565117
 21
500.4801258709998
 31
0.0
  0
LINE
  5
29DE
330
23F8
100
AcDbEntity
  8
0
 62
     7
100
AcDbLine
 10
371.6461894606783
 20
510.6677766383624
 30
0.0
 11
374.1461894231338
 21
510.6677766383624
 31
0.0
  0
ARC
  5
29DF
330
23F8
100
AcDbEntity
  8
1
 62
     7
100
AcDbCircle
 10
376.0236451269651
 20
514.5737756018101
 30
0.0
 40
0.7000000000000455
100
AcDbArc
 50
90.0
 51
187.0000000000026
  0
LINE
  5
29E0
330
23F8
100
AcDbEntity
  8
1
 62
     7
100
AcDbLine
 10
379.4624390565118
 20
515.2737756018102
 30
0.0
 11
376.0236451269651
 21
515.2737756018102
 31
0.0
  0
LINE
  5
29E1
330
23F8
100
AcDbEntity
  8
1
 62
     7
100
AcDbLine
 10
375.8824390565119
 20
509.9799504236266
 30
0.0
 11
375.3288628208157
 21
514.4884670614264
 31
0.0
  0
LINE
  5
29E2
330
23F8
100
AcDbEntity
  8
1
 62
     7
100
AcDbLine
 10
378.8661890565117
 20
517.6437756018101
 30
0.0
 11
379.8661890565117
 21
516.6437756018101
 31
0.0
  0
LINE
  5
29E3
330
23F8
100
AcDbEntity
  8
0
 62
     7
100
AcDbLine
 10
363.6691097360432
 20
527.6677763832339
 30
0.0
 11
371.6461894606783
 21
527.6677763832339
 31
0.0
  0
LINE
  5
29E4
330
23F8
100
AcDbEntity
  8
1
 62
     7
100
AcDbLine
 10
363.2766092117254
 20
527.4177756018104
 30
0.0
 11
370.5766092117254
 21
527.4177756018104
 31
0.0
  0
LINE
  5
29E5
330
23F8
100
AcDbEntity
  8
1
 62
     7
100
AcDbLine
 10
379.8661890565117
 20
520.7307756018101
 30
0.0
 11
378.8661890565117
 21
519.7307756018101
 31
0.0
  0
LINE
  5
29E6
330
23F8
100
AcDbEntity
  8
1
 62
     7
100
AcDbLine
 10
376.5766092117254
 20
520.7397764870741
 30
0.0
 11
376.5766092117254
 21
527.6677763832339
 31
0.0
  0
LINE
  5
29E7
330
23F8
100
AcDbEntity
  8
0
 62
     7
100
AcDbLine
 10
374.1461894231338
 20
527.6677763832339
 30
0.0
 11
376.5766092117254
 21
527.6677763832339
 31
0.0
  0
LINE
  5
29E8
330
23F8
100
AcDbEntity
  8
1
 62
     7
100
AcDbLine
 10
394.7461890565116
 20
519.7307756018101
 30
0.0
 11
394.7461890565116
 21
517.6437756018101
 31
0.0
  0
LINE
  5
29E9
330
23F8
100
AcDbEntity
  8
1
 62
     7
100
AcDbLine
 10
400.4766092117254
 20
499.2407736077253
 30
0.0
 11
400.4766092117254
 21
520.7307756018101
 31
0.0
  0
LINE
  5
29EA
330
23F8
100
AcDbEntity
  8
1
 62
     7
100
AcDbLine
 10
393.7461890565117
 20
516.6437756018101
 30
0.0
 11
394.7461890565116
 21
517.6437756018101
 31
0.0
  0
LINE
  5
29EB
330
23F8
100
AcDbEntity
  8
1
 62
     7
100
AcDbLine
 10
398.1536890565117
 20
503.8387756018102
 30
0.0
 11
389.8666039078839
 21
503.8387756018102
 31
0.0
  0
LINE
  5
29EC
330
23F8
100
AcDbEntity
  8
1
 62
     7
100
AcDbLine
 10
397.5536890565117
 20
499.9027756018101
 30
0.0
 11
386.8061890565117
 21
499.9027756018101
 31
0.0
  0
ARC
  5
29ED
330
23F8
100
AcDbEntity
  8
1
 62
     7
100
AcDbCircle
 10
386.8061890565117
 20
510.2937756018102
 30
0.0
 40
7.143749999999965
100
AcDbArc
 50
295.3663500608785
 51
62.73395554926568
  0
ARC
  5
29EE
330
23F8
100
AcDbEntity
  8
1
 62
     7
100
AcDbCircle
 10
386.8061890565117
 20
510.2937756018102
 30
0.0
 40
7.143749999999895
100
AcDbArc
 50
270.0
 51
295.3663500608785
  0
ARC
  5
29EF
330
23F8
100
AcDbEntity
  8
1
 62
     7
100
AcDbCircle
 10
386.8061890565117
 20
510.2937756018102
 30
0.0
 40
7.14374999999994
100
AcDbArc
 50
244.6336499391214
 51
270.0
  0
ARC
  5
29F0
330
23F8
100
AcDbEntity
  8
1
 62
     7
100
AcDbCircle
 10
386.8061890565117
 20
510.2937756018102
 30
0.0
 40
7.143749999999974
100
AcDbArc
 50
62.73395554926568
 51
90.0
  0
LINE
  5
29F1
330
23F8
100
AcDbEntity
  8
1
 62
     7
100
AcDbLine
 10
393.7461890565117
 20
516.6437756018101
 30
0.0
 11
390.0789041468458
 21
516.6437756018101
 31
0.0
  0
LINE
  5
29F2
330
23F8
100
AcDbEntity
  8
1
 62
     7
100
AcDbLine
 10
398.5536890565116
 20
515.8563793840246
 30
0.0
 11
398.5536890565116
 21
503.4387756018102
 31
0.0
  0
ARC
  5
29F3
330
23F8
100
AcDbEntity
  8
1
 62
     7
100
AcDbCircle
 10
400.0766092117254
 20
498.9084610267596
 30
0.0
 40
0.4000000000000243
100
AcDbArc
 50
314.9999999999896
 51
0.0
  0
ARC
  5
29F4
330
23F8
100
AcDbEntity
  8
1
 62
     7
100
AcDbCircle
 10
400.0766092117254
 20
499.441614994487
 30
0.0
 40
0.3999999999999773
100
AcDbArc
 50
0.0
 51
87.00000000000253
  0
LINE
  5
29F5
330
23F8
100
AcDbEntity
  8
1
 62
     7
100
AcDbLine
 10
398.5536890565116
 20
500.4801258709998
 30
0.0
 11
397.5536890565117
 21
499.9027756018101
 31
0.0
  0
LINE
  5
29F6
330
23F8
100
AcDbEntity
  8
1
 62
     7
100
AcDbLine
 10
398.5536890565116
 20
503.4387756018102
 30
0.0
 11
398.1536890565117
 21
503.8387756018102
 31
0.0
  0
LINE
  5
29F7
330
23F8
100
AcDbEntity
  8
1
 62
     7
100
AcDbLine
 10
398.5536890565116
 20
500.4801258709998
 30
0.0
 11
398.5536890565116
 21
503.4387756018102
 31
0.0
  0
LINE
  5
29F8
330
23F8
100
AcDbEntity
  8
1
 62
     7
100
AcDbLine
 10
400.4766092117254
 20
499.2407736077253
 30
0.0
 11
400.4766092117254
 21
498.9084610267596
 31
0.0
  0
LINE
  5
29F9
330
23F8
100
AcDbEntity
  8
1
 62
     7
100
AcDbLine
 10
398.5766092117255
 20
499.9207756018105
 30
0.0
 11
400.0975435942226
 21
499.8410668083888
 31
0.0
  0
LINE
  5
29FA
330
23F8
100
AcDbEntity
  8
1
 62
     7
100
AcDbLine
 10
400.4766092117254
 20
499.441614994487
 30
0.0
 11
400.4766092117254
 21
499.2407736077253
 31
0.0
  0
LINE
  5
29FB
330
23F8
100
AcDbEntity
  8
1
 62
     7
100
AcDbLine
 10
394.7461890565116
 20
519.7307756018101
 30
0.0
 11
393.7461890565117
 21
520.7307756018101
 31
0.0
  0
LINE
  5
29FC
330
23F8
100
AcDbEntity
  8
1
 62
     7
100
AcDbLine
 10
393.7461890565117
 20
520.7307756018101
 30
0.0
 11
386.8061890565117
 21
520.7307756018101
 31
0.0
  0
LINE
  5
29FD
330
23F8
100
AcDbEntity
  8
1
 62
     7
100
AcDbLine
 10
361.0766092117255
 20
603.6677756018104
 30
0.0
 11
361.0766092117255
 21
555.6677756018102
 31
0.0
  0
LINE
  5
29FE
330
23F8
100
AcDbEntity
  8
0
 62
     7
100
AcDbLine
 10
401.9766092117253
 20
603.1677752488376
 30
0.0
 11
401.9766092117253
 21
579.6677756018103
 31
0.0
  0
LINE
  5
29FF
330
23F8
100
AcDbEntity
  8
0
 62
     7
100
AcDbLine
 10
361.0766092117255
 20
567.6677757820803
 30
0.0
 11
401.9766092117253
 21
567.6677757820803
 31
0.0
  0
LINE
  5
2A00
330
23F8
100
AcDbEntity
  8
0
 62
     7
100
AcDbLine
 10
376.5766092116923
 20
547.4177760864127
 30
0.0
 11
383.8461892774258
 21
547.4177760864127
 31
0.0
  0
LINE
  5
2A01
330
23F8
100
AcDbEntity
  8
0
 62
     7
100
AcDbLine
 10
376.5766092117254
 20
555.4177759660803
 30
0.0
 11
394.6766092117254
 21
555.4177759660803
 31
0.0
  0
LINE
  5
2A02
330
23F8
100
AcDbEntity
  8
0
 62
     7
100
AcDbLine
 10
373.0766091741692
 20
555.6677759623247
 30
0.0
 11
396.8461890820573
 21
555.6677759622738
 31
0.0
  0
LINE
  5
2A03
330
23F8
100
AcDbEntity
  8
0
 62
     7
100
AcDbLine
 10
371.0766092042157
 20
549.6677760527391
 30
0.0
 11
363.6691097360432
 21
549.6677760527391
 31
0.0
  0
LINE
  5
2A04
330
23F8
100
AcDbEntity
  8
0
 62
     7
100
AcDbLine
 10
363.2766092117254
 20
554.4177759810772
 30
0.0
 11
370.5766092117254
 21
554.4177759810772
 31
0.0
  0
LINE
  5
2A05
330
23F8
100
AcDbEntity
  8
1
 62
     7
100
AcDbLine
 10
361.0766092117255
 20
555.6677756018102
 30
0.0
 11
363.2766092117254
 21
555.6677756018102
 31
0.0
  0
LINE
  5
2A06
330
23F8
100
AcDbEntity
  8
1
 62
     7
100
AcDbLine
 10
363.2766092117254
 20
555.6677756018102
 30
0.0
 11
363.2766092117254
 21
554.4177759810772
 31
0.0
  0
LINE
  5
2A07
330
23F8
100
AcDbEntity
  8
0
 62
     7
100
AcDbLine
 10
371.0766092042157
 20
552.9177760037889
 30
0.0
 11
371.0766092042157
 21
549.6677760527391
 31
0.0
  0
LINE
  5
2A08
330
23F8
100
AcDbEntity
  8
0
 62
     7
100
AcDbLine
 10
376.1461893931068
 20
547.1677760900412
 30
0.0
 11
376.1461893931068
 21
555.4177759660803
 31
0.0
  0
LINE
  5
2A09
330
23F8
100
AcDbEntity
  8
0
 62
     7
100
AcDbLine
 10
376.5766092117254
 20
547.1677760900412
 30
0.0
 11
376.1461893931068
 21
547.1677760900412
 31
0.0
  0
ARC
  5
2A0A
330
23F8
100
AcDbEntity
  8
0
 62
     7
100
AcDbCircle
 10
373.0766091741565
 20
553.1677759998935
 30
0.0
 40
2.499999962431108
100
AcDbArc
 50
89.99999999971176
 51
179.9999999997036
  0
LINE
  5
2A0B
330
23F8
100
AcDbEntity
  8
0
 62
     7
100
AcDbLine
 10
373.5766091666555
 20
555.4177759660297
 30
0.0
 11
371.0766092042157
 21
552.9177760037889
 31
0.0
  0
LINE
  5
2A0C
330
23F8
100
AcDbEntity
  8
1
 62
     7
100
AcDbLine
 10
370.5766092117254
 20
554.4177759810772
 30
0.0
 11
370.5766092117254
 21
553.3629901006873
 31
0.0
  0
LINE
  5
2A0D
330
23F8
100
AcDbEntity
  8
0
 62
     7
100
AcDbLine
 10
371.0766092042157
 20
552.9177760037889
 30
0.0
 11
371.0766092042157
 21
554.6451414470263
 31
0.0
  0
LINE
  5
2A0E
330
23F8
100
AcDbEntity
  8
0
 62
     7
100
AcDbLine
 10
376.5766092117254
 20
555.4177759660803
 30
0.0
 11
373.5766091666555
 21
555.4177759660297
 31
0.0
  0
LINE
  5
2A0F
330
23F8
100
AcDbEntity
  8
0
 62
     7
100
AcDbLine
 10
376.5766092117585
 20
555.4177759660803
 30
0.0
 11
376.5766092117254
 21
555.4177759660803
 31
0.0
  0
LINE
  5
2A10
330
23F8
100
AcDbEntity
  8
0
 62
     7
100
AcDbLine
 10
401.9766092117253
 20
556.1677759547879
 30
0.0
 11
401.9766092117253
 21
579.6677756018103
 31
0.0
  0
LINE
  5
2A11
330
23F8
100
AcDbEntity
  8
0
 62
     7
100
AcDbLine
 10
383.8461892774258
 20
547.4177760864127
 30
0.0
 11
383.8461892774258
 21
555.4177759660803
 31
0.0
  0
LINE
  5
2A12
330
23F8
100
AcDbEntity
  8
0
 62
     7
100
AcDbLine
 10
396.8461890820573
 20
549.6677760524849
 30
0.0
 11
396.8461890820573
 21
555.6677759622738
 31
0.0
  0
LINE
  5
2A13
330
23F8
100
AcDbEntity
  8
0
 62
     7
100
AcDbLine
 10
394.6766092115705
 20
549.6677760524849
 30
0.0
 11
396.8461890820573
 21
549.6677760524849
 31
0.0
  0
LINE
  5
2A14
330
23F8
100
AcDbEntity
  8
0
 62
     7
100
AcDbLine
 10
401.4766092192368
 20
555.6677759622738
 30
0.0
 11
401.9766092117253
 21
556.1677759547879
 31
0.0
  0
LINE
  5
2A15
330
23F8
100
AcDbEntity
  8
0
 62
     7
100
AcDbLine
 10
398.6766092117254
 20
552.1677760149287
 30
0.0
 11
398.6766092117254
 21
555.6677759622738
 31
0.0
  0
LINE
  5
2A16
330
23F8
100
AcDbEntity
  8
0
 62
     7
100
AcDbLine
 10
396.8461890820573
 20
552.1677760149287
 30
0.0
 11
398.6766092117254
 21
552.1677760149287
 31
0.0
  0
LINE
  5
2A17
330
23F8
100
AcDbEntity
  8
0
 62
     7
100
AcDbLine
 10
396.8461890820573
 20
554.6677759773217
 30
0.0
 11
394.6766092115705
 21
554.6677759773217
 31
0.0
  0
LINE
  5
2A18
330
23F8
100
AcDbEntity
  8
0
 62
     7
100
AcDbLine
 10
398.6766092117254
 20
555.6677759622738
 30
0.0
 11
401.4766092192368
 21
555.6677759622738
 31
0.0
  0
LINE
  5
2A19
330
23F8
100
AcDbEntity
  8
0
 62
     7
100
AcDbLine
 10
398.6766092117254
 20
556.9177759435213
 30
0.0
 11
398.6766092117254
 21
555.6677759622738
 31
0.0
  0
LINE
  5
2A1A
330
23F8
100
AcDbEntity
  8
0
 62
     7
100
AcDbLine
 10
396.8461890820573
 20
556.9177759435213
 30
0.0
 11
398.6766092117254
 21
556.9177759435213
 31
0.0
  0
LINE
  5
2A1B
330
23F8
100
AcDbEntity
  8
0
 62
     7
100
AcDbLine
 10
396.8461890820573
 20
555.6677759622738
 30
0.0
 11
396.8461890820573
 21
556.9177759435213
 31
0.0
  0
LINE
  5
2A1C
330
23F8
100
AcDbEntity
  8
0
 62
     7
100
AcDbLine
 10
361.0766092117255
 20
591.6677754215834
 30
0.0
 11
401.9766092117253
 21
591.6677754215834
 31
0.0
  0
LINE
  5
2A1D
330
23F8
100
AcDbEntity
  8
0
 62
     7
100
AcDbLine
 10
361.1691097736248
 20
594.9677753720879
 30
0.0
 11
401.9766092117253
 21
594.9677753720879
 31
0.0
  0
LINE
  5
2A1E
330
23F8
100
AcDbEntity
  8
0
 62
     7
100
AcDbLine
 10
376.1461893931068
 20
612.1677751136807
 30
0.0
 11
383.646189280494
 21
612.1677751136807
 31
0.0
  0
LINE
  5
2A1F
330
23F8
100
AcDbEntity
  8
0
 62
     7
100
AcDbLine
 10
383.8461892774258
 20
611.9177751174365
 30
0.0
 11
376.5766092117254
 21
611.9177751174365
 31
0.0
  0
LINE
  5
2A20
330
23F8
100
AcDbEntity
  8
0
 62
     7
100
AcDbLine
 10
394.6766092117254
 20
603.9177752375987
 30
0.0
 11
376.5766092117254
 21
603.9177752375987
 31
0.0
  0
LINE
  5
2A21
330
23F8
100
AcDbEntity
  8
0
 62
     7
100
AcDbLine
 10
373.0766091741692
 20
603.6677752413136
 30
0.0
 11
396.8461890820573
 21
603.6677752413594
 31
0.0
  0
ARC
  5
2A22
330
23F8
100
AcDbEntity
  8
0
 62
     7
100
AcDbCircle
 10
373.0766091741731
 20
606.1677752037609
 30
0.0
 40
2.499999962447587
100
AcDbArc
 50
179.9999999999087
 51
269.9999999999104
  0
LINE
  5
2A23
330
23F8
100
AcDbEntity
  8
1
 62
     7
100
AcDbLine
 10
361.0766092117255
 20
603.6677756018104
 30
0.0
 11
363.2766092117254
 21
603.6677756018104
 31
0.0
  0
LINE
  5
2A24
330
23F8
100
AcDbEntity
  8
0
 62
     7
100
AcDbLine
 10
371.0766092042157
 20
606.4177752000094
 30
0.0
 11
373.5766091666042
 21
603.9177752375987
 31
0.0
  0
LINE
  5
2A25
330
23F8
100
AcDbEntity
  8
0
 62
     7
100
AcDbLine
 10
371.0766092042157
 20
606.4177752000094
 30
0.0
 11
371.0766092042157
 21
604.7410934758731
 31
0.0
  0
LINE
  5
2A26
330
23F8
100
AcDbEntity
  8
0
 62
     7
100
AcDbLine
 10
371.0766092042157
 20
609.667775151288
 30
0.0
 11
371.0766092042157
 21
606.4177752000094
 31
0.0
  0
LINE
  5
2A27
330
23F8
100
AcDbEntity
  8
0
 62
     7
100
AcDbLine
 10
370.5766092117254
 20
609.667775151288
 30
0.0
 11
371.0766092042157
 21
609.667775151288
 31
0.0
  0
LINE
  5
2A28
330
23F8
100
AcDbEntity
  8
0
 62
     7
100
AcDbLine
 10
376.1461893931068
 20
603.9177752375987
 30
0.0
 11
376.1461893931068
 21
612.1677751136807
 31
0.0
  0
LINE
  5
2A29
330
23F8
100
AcDbEntity
  8
0
 62
     7
100
AcDbLine
 10
373.5766091666042
 20
603.9177752375987
 30
0.0
 11
376.1461893931068
 21
603.9177752375987
 31
0.0
  0
LINE
  5
2A2A
330
23F8
100
AcDbEntity
  8
0
 62
     7
100
AcDbLine
 10
401.4766092192368
 20
603.6677752413594
 30
0.0
 11
401.9766092117253
 21
603.1677752488376
 31
0.0
  0
LINE
  5
2A2B
330
23F8
100
AcDbEntity
  8
0
 62
     7
100
AcDbLine
 10
398.6766092117254
 20
602.4177752601222
 30
0.0
 11
398.6766092117254
 21
603.6677752413594
 31
0.0
  0
LINE
  5
2A2C
330
23F8
100
AcDbEntity
  8
0
 62
     7
100
AcDbLine
 10
396.8461890820573
 20
603.6677752413594
 30
0.0
 11
396.8461890820573
 21
602.4177752601222
 31
0.0
  0
LINE
  5
2A2D
330
23F8
100
AcDbEntity
  8
0
 62
     7
100
AcDbLine
 10
396.8461890820573
 20
602.4177752601222
 30
0.0
 11
398.6766092117254
 21
602.4177752601222
 31
0.0
  0
LINE
  5
2A2E
330
23F8
100
AcDbEntity
  8
0
 62
     7
100
AcDbLine
 10
398.6766092117254
 20
607.1677751887171
 30
0.0
 11
398.6766092117254
 21
603.6677752413594
 31
0.0
  0
LINE
  5
2A2F
330
23F8
100
AcDbEntity
  8
0
 62
     7
100
AcDbLine
 10
396.8461890820573
 20
607.1677751887171
 30
0.0
 11
398.6766092117254
 21
607.1677751887171
 31
0.0
  0
LINE
  5
2A30
330
23F8
100
AcDbEntity
  8
0
 62
     7
100
AcDbLine
 10
396.8461890820573
 20
604.6677752263572
 30
0.0
 11
394.6766092115705
 21
604.6677752263572
 31
0.0
  0
LINE
  5
2A31
330
23F8
100
AcDbEntity
  8
0
 62
     7
100
AcDbLine
 10
396.8461890820573
 20
609.667775151288
 30
0.0
 11
396.8461890820573
 21
603.6677752413594
 31
0.0
  0
LINE
  5
2A32
330
23F8
100
AcDbEntity
  8
0
 62
     7
100
AcDbLine
 10
394.6766092115705
 20
609.667775151288
 30
0.0
 11
396.8461890820573
 21
609.667775151288
 31
0.0
  0
LINE
  5
2A33
330
23F8
100
AcDbEntity
  8
0
 62
     7
100
AcDbLine
 10
398.6766092117254
 20
603.6677752413594
 30
0.0
 11
401.4766092192368
 21
603.6677752413594
 31
0.0
  0
ARC
  5
2A34
330
23F8
100
AcDbEntity
  8
0
 62
     7
100
AcDbCircle
 10
545.3093147675364
 20
539.6637655381876
 30
0.0
 40
7.143749890212053
100
AcDbArc
 50
61.10183033381652
 51
188.6177115498869
  0
ARC
  5
2A35
330
23F8
100
AcDbEntity
  8
0
 62
     7
100
AcDbCircle
 10
545.3093147675262
 20
539.6637655381801
 30
0.0
 40
7.143749892898791
100
AcDbArc
 50
241.822288449699
 51
9.338169662126368
  0
CIRCLE
  5
2A36
330
23F8
100
AcDbEntity
  8
1
 62
     7
100
AcDbCircle
 10
517.5391323427427
 20
530.9177756018102
 30
0.0
 40
5.5
  0
LINE
  5
2A37
330
23F8
100
AcDbEntity
  8
1
  6
CENTER
 62
     3
100
AcDbLine
 10
524.6838419239643
 20
535.0427756018103
 30
0.0
 11
510.3944227615212
 21
526.7927756018103
 31
0.0
  0
CIRCLE
  5
2A38
330
23F8
100
AcDbEntity
  8
1
 62
     7
100
AcDbCircle
 10
553.2266092117254
 20
495.2302987328277
 30
0.0
 40
5.500000000000103
  0
LINE
  5
2A39
330
23F8
100
AcDbEntity
  8
1
  6
CENTER
 62
     3
100
AcDbLine
 10
557.3516092117252
 20
502.3750083140493
 30
0.0
 11
549.1016092117251
 21
488.0855891516059
 31
0.0
  0
ARC
  5
2A3A
330
23F8
100
AcDbEntity
  8
0
 62
     7
100
AcDbCircle
 10
558.2034811826595
 20
525.8587025447041
 30
0.0
 40
7.143749890297462
100
AcDbArc
 50
76.75383033497546
 51
204.2697115472882
  0
ARC
  5
2A3B
330
23F8
100
AcDbEntity
  8
0
 62
     7
100
AcDbCircle
 10
601.9766092112595
 20
579.6677755978894
 30
0.0
 40
64.38999903244449
100
AcDbArc
 50
220.4191698428937
 51
225.6728301560343
  0
ARC
  5
2A3C
330
23F8
100
AcDbEntity
  8
0
 62
     7
100
AcDbCircle
 10
558.0425621681427
 20
525.6608893255329
 30
0.0
 40
8.014999879830535
100
AcDbArc
 50
97.59080795611803
 51
172.2959043337589
  0
ARC
  5
2A3D
330
23F8
100
AcDbEntity
  8
0
 62
     7
100
AcDbCircle
 10
601.9766092116705
 20
579.6677755974497
 30
0.0
 40
74.1149988866415
100
AcDbArc
 50
220.5148919774671
 51
225.5771080244091
  0
ARC
  5
2A3E
330
23F8
100
AcDbEntity
  8
0
 62
     7
100
AcDbCircle
 10
545.1009941462989
 20
539.5167025685355
 30
0.0
 40
8.014999878907824
100
AcDbArc
 50
273.7960956820515
 51
348.501192044478
  0
ARC
  5
2A3F
330
23F8
100
AcDbEntity
  8
0
 62
     7
100
AcDbCircle
 10
574.3440285609242
 20
516.0443242087642
 30
0.0
 40
7.143749890363952
100
AcDbArc
 50
92.40583033508988
 51
219.9217115476155
  0
ARC
  5
2A40
330
23F8
100
AcDbEntity
  8
0
 62
     7
100
AcDbCircle
 10
558.2034811827095
 20
525.8587025447665
 30
0.0
 40
7.143749892665652
100
AcDbArc
 50
257.4742884488547
 51
24.99016966531159
  0
ARC
  5
2A41
330
23F8
100
AcDbEntity
  8
0
 62
     7
100
AcDbCircle
 10
574.3395868816665
 20
516.046253480621
 30
0.0
 40
7.143749892802691
100
AcDbArc
 50
92.40183033511163
 51
219.9177115510837
  0
ARC
  5
2A42
330
23F8
100
AcDbEntity
  8
0
 62
     7
100
AcDbCircle
 10
574.3395868816756
 20
516.0462534806447
 30
0.0
 40
7.14374989010496
100
AcDbArc
 50
273.1222884526641
 51
40.63816966684625
  0
ARC
  5
2A43
330
23F8
100
AcDbEntity
  8
0
 62
     7
100
AcDbCircle
 10
558.042562167965
 20
525.6608893254582
 30
0.0
 40
8.014999878969517
100
AcDbArc
 50
289.4480956821682
 51
4.153192044976327
  0
ARC
  5
2A44
330
23F8
100
AcDbEntity
  8
0
 62
     7
100
AcDbCircle
 10
574.2379875026809
 20
515.8123676815059
 30
0.0
 40
8.014999878848257
100
AcDbArc
 50
113.2388079570913
 51
187.9439043186688
  0
ARC
  5
2A45
330
23F8
100
AcDbEntity
  8
0
 62
     7
100
AcDbCircle
 10
601.9766092123922
 20
579.6677755969851
 30
0.0
 40
74.11499888662034
100
AcDbArc
 50
236.1668919766699
 51
241.2291080236047
  0
ARC
  5
2A46
330
23F8
100
AcDbEntity
  8
0
 62
     7
100
AcDbCircle
 10
601.9766092123282
 20
579.667775597024
 30
0.0
 40
74.11499888668018
100
AcDbArc
 50
239.8294913336476
 51
241.225108021781
  0
ARC
  5
2A47
330
23F8
100
AcDbEntity
  8
0
 62
     7
100
AcDbCircle
 10
601.9766092117111
 20
579.6677755973949
 30
0.0
 40
74.11499888676127
100
AcDbArc
 50
251.8148919757242
 51
256.8771080226436
  0
ARC
  5
2A48
330
23F8
100
AcDbEntity
  8
0
 62
     7
100
AcDbCircle
 10
574.2379875031563
 20
515.8123676814097
 30
0.0
 40
8.014999879827877
100
AcDbArc
 50
305.0960956661699
 51
19.80119204530096
  0
ARC
  5
2A49
330
23F8
100
AcDbEntity
  8
0
 62
     7
100
AcDbCircle
 10
601.9766092114289
 20
579.667775597571
 30
0.0
 40
64.38999903247735
100
AcDbArc
 50
236.0671698447773
 51
241.3208301576984
  0
ARC
  5
2A4A
330
23F8
100
AcDbEntity
  8
0
 62
     7
100
AcDbCircle
 10
558.1997247153132
 20
525.8617586153359
 30
0.0
 40
7.143749890094492
100
AcDbArc
 50
336.0473141982045
 51
24.98616966458849
  0
ARC
  5
2A4B
330
23F8
100
AcDbEntity
  8
0
 62
     7
100
AcDbCircle
 10
558.0387918851079
 20
525.6639566309673
 30
0.0
 40
8.01499987980533
100
AcDbArc
 50
326.5761751977381
 51
4.149192041338126
  0
ARC
  5
2A4C
330
23F8
100
AcDbEntity
  8
0
 62
     7
100
AcDbCircle
 10
532.7735604256633
 20
574.9305697161689
 30
0.0
 40
7.143749890168254
100
AcDbArc
 50
29.79783033351692
 51
157.3137115476488
  0
ARC
  5
2A4D
330
23F8
100
AcDbEntity
  8
0
 62
     7
100
AcDbCircle
 10
532.7735604256774
 20
574.9305697161698
 30
0.0
 40
7.14374989270519
100
AcDbArc
 50
210.5182884500433
 51
338.0341696630542
  0
ARC
  5
2A4E
330
23F8
100
AcDbEntity
  8
0
 62
     7
100
AcDbCircle
 10
534.0616715201222
 20
593.776791131092
 30
0.0
 40
7.143749892755438
100
AcDbArc
 50
194.8662884488987
 51
322.3821696637784
  0
CIRCLE
  5
2A4F
330
23F8
100
AcDbEntity
  8
1
 62
     7
100
AcDbCircle
 10
504.4766092117252
 20
579.6677756018103
 30
0.0
 40
5.499999999999958
  0
ARC
  5
2A50
330
23F8
100
AcDbEntity
  8
0
 62
     7
100
AcDbCircle
 10
601.9766092117203
 20
579.6677755973171
 30
0.0
 40
64.38999903244566
100
AcDbArc
 50
173.4631698413737
 51
178.7168301545967
  0
ARC
  5
2A51
330
23F8
100
AcDbEntity
  8
0
 62
     7
100
AcDbCircle
 10
532.5191557946839
 20
574.9131547695754
 30
0.0
 40
8.014999879624808
100
AcDbArc
 50
50.63480795559434
 51
125.3399043331079
  0
ARC
  5
2A52
330
23F8
100
AcDbEntity
  8
0
 62
     7
100
AcDbCircle
 10
601.9766092117211
 20
579.6677755973238
 30
0.0
 40
74.11499888659673
100
AcDbArc
 50
173.5588919765288
 51
178.6211080234561
  0
ARC
  5
2A53
330
23F8
100
AcDbEntity
  8
0
 62
     7
100
AcDbCircle
 10
536.6178095328307
 20
556.4356774317196
 30
0.0
 40
7.143749890255008
100
AcDbArc
 50
45.44983033369395
 51
172.9657115482478
  0
ARC
  5
2A54
330
23F8
100
AcDbEntity
  8
0
 62
     7
100
AcDbCircle
 10
536.3775371513999
 20
556.3502714588065
 30
0.0
 40
8.014999879671657
100
AcDbArc
 50
66.28680795538892
 51
140.9919043324927
  0
ARC
  5
2A55
330
23F8
100
AcDbEntity
  8
0
 62
     7
100
AcDbCircle
 10
601.9766092117618
 20
579.6677755972153
 30
0.0
 40
74.11499888661481
100
AcDbArc
 50
189.2108919767394
 51
194.2731080236821
  0
ARC
  5
2A56
330
23F8
100
AcDbEntity
  8
0
 62
     7
100
AcDbCircle
 10
536.6178095328587
 20
556.4356774317295
 30
0.0
 40
7.143749892792728
100
AcDbArc
 50
226.1702884484833
 51
353.6861696631958
  0
ARC
  5
2A57
330
23F8
100
AcDbEntity
  8
0
 62
     7
100
AcDbCircle
 10
536.3775371515941
 20
556.3502714582519
 30
0.0
 40
8.014999878907737
100
AcDbArc
 50
258.1440956822975
 51
332.8491920440595
  0
ARC
  5
2A58
330
23F8
100
AcDbEntity
  8
0
 62
     7
100
AcDbCircle
 10
545.1009941463655
 20
539.5167025690657
 30
0.0
 40
8.014999879813634
100
AcDbArc
 50
81.93880795674935
 51
156.6439043339381
  0
ARC
  5
2A59
330
23F8
100
AcDbEntity
  8
0
 62
     7
100
AcDbCircle
 10
601.9766092113082
 20
579.6677755981959
 30
0.0
 40
74.11499888678498
100
AcDbArc
 50
204.8628919778826
 51
209.925108024653
  0
ARC
  5
2A5A
330
23F8
100
AcDbEntity
  8
0
 62
     7
100
AcDbCircle
 10
601.9766092114332
 20
579.6677755979544
 30
0.0
 40
64.38999903238769
100
AcDbArc
 50
204.7671698424573
 51
210.0208301556898
  0
ARC
  5
2A5B
330
23F8
100
AcDbEntity
  8
0
 62
     7
100
AcDbCircle
 10
532.519155794325
 20
574.9131547690178
 30
0.0
 40
8.014999878945662
100
AcDbArc
 50
242.492095681212
 51
317.1971920434564
  0
ARC
  5
2A5C
330
23F8
100
AcDbEntity
  8
0
 62
     7
100
AcDbCircle
 10
601.9766092117155
 20
579.6677755974374
 30
0.0
 40
64.38999903254501
100
AcDbArc
 50
189.115169841794
 51
194.3688301549757
  0
ARC
  5
2A5D
330
23F8
100
AcDbEntity
  8
0
 62
     7
100
AcDbCircle
 10
540.3866116179712
 20
611.5766345162484
 30
0.0
 40
7.143749892710487
100
AcDbArc
 50
179.2142884491701
 51
306.7301696632165
  0
ARC
  5
2A5E
330
23F8
100
AcDbEntity
  8
0
 62
     7
100
AcDbCircle
 10
540.1601941279595
 20
611.6939380371031
 30
0.0
 40
8.014999878994446
100
AcDbArc
 50
211.1880956812803
 51
285.8931920427138
  0
ARC
  5
2A5F
330
23F8
100
AcDbEntity
  8
0
 62
     7
100
AcDbCircle
 10
601.9766092117406
 20
579.6677755974334
 30
0.0
 40
64.38999903252085
100
AcDbArc
 50
157.811169841998
 51
163.0648301551772
  0
ARC
  5
2A60
330
23F8
100
AcDbEntity
  8
0
 62
     7
100
AcDbCircle
 10
601.9766092117118
 20
579.6677755973523
 30
0.0
 40
74.11499888673398
100
AcDbArc
 50
157.9068919770899
 51
162.9691080238939
  0
ARC
  5
2A61
330
23F8
100
AcDbEntity
  8
0
 62
     7
100
AcDbCircle
 10
534.0616715201267
 20
593.7767911310913
 30
0.0
 40
7.143749890265945
100
AcDbArc
 50
14.14583033374821
 51
141.6617115479288
  0
ARC
  5
2A62
330
23F8
100
AcDbEntity
  8
0
 62
     7
100
AcDbCircle
 10
533.8120022500543
 20
593.828658768351
 30
0.0
 40
8.014999878942186
100
AcDbArc
 50
226.8400956808915
 51
301.5451920425432
  0
ARC
  5
2A63
330
23F8
100
AcDbEntity
  8
0
 62
     7
100
AcDbCircle
 10
533.8120022500448
 20
593.8286587678929
 30
0.0
 40
8.014999879637166
100
AcDbArc
 50
34.9828079564884
 51
109.6879043334671
  0
ARC
  5
2A64
330
23F8
100
AcDbEntity
  8
0
 62
     7
100
AcDbCircle
 10
540.3866116179599
 20
611.5766345162543
 30
0.0
 40
7.143749890254037
100
AcDbArc
 50
358.493830334237
 51
126.0097115485011
  0
ARC
  5
2A65
330
23F8
100
AcDbEntity
  8
0
 62
     7
100
AcDbCircle
 10
540.1601941281469
 20
611.6939380375529
 30
0.0
 40
8.014999879661299
100
AcDbArc
 50
19.3308079550759
 51
94.0359043338165
  0
ARC
  5
2A66
330
23F8
100
AcDbEntity
  8
0
 62
     7
100
AcDbCircle
 10
601.976609211739
 20
579.66777559741
 30
0.0
 40
64.38999903278271
100
AcDbArc
 50
142.1591698416903
 51
147.4128301549717
  0
LINE
  5
2A67
330
23F8
100
AcDbEntity
  8
0
 62
     7
100
AcDbLine
 10
400.4766092114744
 20
662.4153152953369
 30
0.0
 11
400.4766092116402
 21
671.6677756018103
 31
0.0
  0
LINE
  5
2A68
330
23F8
100
AcDbEntity
  8
0
 62
     7
100
AcDbLine
 10
366.4766092112027
 20
667.3677742850744
 30
0.0
 11
366.4766092112027
 21
662.4153152955405
 31
0.0
  0
ARC
  5
2A69
330
23F8
100
AcDbEntity
  8
1
 62
     7
100
AcDbCircle
 10
386.8061890565117
 20
649.0237756018101
 30
0.0
 40
7.143750000000043
100
AcDbArc
 50
115.3663500608773
 51
270.0
  0
LINE
  5
2A6A
330
23F8
100
AcDbEntity
  8
1
 62
     7
100
AcDbLine
 10
379.4624390565118
 20
653.7737756018097
 30
0.0
 11
381.4250866383205
 21
653.7223818661648
 31
0.0
  0
LINE
  5
2A6B
330
23F8
100
AcDbEntity
  8
1
 62
     7
100
AcDbLine
 10
381.6657701047082
 20
644.0630037805667
 30
0.0
 11
379.4624390565118
 21
644.0437756018099
 31
0.0
  0
LINE
  5
2A6C
330
23F8
100
AcDbEntity
  8
1
 62
     7
100
AcDbLine
 10
379.8661890565117
 20
638.58677560181
 30
0.0
 11
386.8061890565117
 21
638.58677560181
 31
0.0
  0
LINE
  5
2A6D
330
23F8
100
AcDbEntity
  8
1
 62
     7
100
AcDbLine
 10
379.8661890565117
 20
642.6737756018102
 30
0.0
 11
383.5334739661778
 21
642.6737756018102
 31
0.0
  0
LINE
  5
2A6E
330
23F8
100
AcDbEntity
  8
1
 62
     7
100
AcDbLine
 10
375.4586890565117
 20
655.47877560181
 30
0.0
 11
383.7457742051396
 21
655.47877560181
 31
0.0
  0
LINE
  5
2A6F
330
23F8
100
AcDbEntity
  8
1
 62
     7
100
AcDbLine
 10
376.0586890565117
 20
659.41477560181
 30
0.0
 11
386.8061890565117
 21
659.41477560181
 31
0.0
  0
LINE
  5
2A70
330
23F8
100
AcDbEntity
  8
1
 62
     7
100
AcDbLine
 10
384.2266092117254
 20
662.8047756018103
 30
0.0
 11
371.3045293664163
 21
662.7425382598816
 31
0.0
  0
LINE
  5
2A71
330
23F8
100
AcDbEntity
  8
0
 62
     7
100
AcDbLine
 10
366.4766092112027
 20
662.8019444627211
 30
0.0
 11
400.4766092114762
 21
662.8019444625174
 31
0.0
  0
LINE
  5
2A72
330
23F8
100
AcDbEntity
  8
0
 62
     7
100
AcDbLine
 10
367.6079800442412
 20
661.2839444627049
 30
0.0
 11
399.322318223204
 21
661.2839444625271
 31
0.0
  0
LINE
  5
2A73
330
23F8
100
AcDbEntity
  8
0
 62
     7
100
AcDbLine
 10
374.1461894231338
 20
631.667774820793
 30
0.0
 11
383.646189280494
 21
631.667774820793
 31
0.0
  0
LINE
  5
2A74
330
23F8
100
AcDbEntity
  8
0
 62
     7
100
AcDbLine
 10
376.5766092117254
 20
638.5957747167751
 30
0.0
 11
394.6766092117254
 21
638.5957747167751
 31
0.0
  0
LINE
  5
2A75
330
23F8
100
AcDbEntity
  8
1
 62
     7
100
AcDbLine
 10
375.3288628208157
 20
644.8290841421937
 30
0.0
 11
375.8824390565119
 21
649.3376007799936
 31
0.0
  0
LINE
  5
2A76
330
23F8
100
AcDbEntity
  8
1
 62
     7
100
AcDbLine
 10
379.4624390565118
 20
644.0437756018099
 30
0.0
 11
379.4624390565118
 21
653.7737756018097
 31
0.0
  0
LINE
  5
2A77
330
23F8
100
AcDbEntity
  8
1
 62
     7
100
AcDbLine
 10
375.0586890565117
 20
643.4611718195955
 30
0.0
 11
375.0586890565117
 21
655.87877560181
 31
0.0
  0
LINE
  5
2A78
330
23F8
100
AcDbEntity
  8
0
 62
     7
100
AcDbLine
 10
371.6461894606783
 20
648.6677745655373
 30
0.0
 11
371.6461894606783
 21
631.667774820793
 31
0.0
  0
LINE
  5
2A79
330
23F8
100
AcDbEntity
  8
0
 62
     7
100
AcDbLine
 10
374.1461894231338
 20
648.6677745655373
 30
0.0
 11
374.1461894231338
 21
631.667774820793
 31
0.0
  0
LINE
  5
2A7A
330
23F8
100
AcDbEntity
  8
1
 62
     7
100
AcDbLine
 10
363.2766092117254
 20
631.9177756018103
 30
0.0
 11
370.5766092117254
 21
631.9177756018103
 31
0.0
  0
LINE
  5
2A7B
330
23F8
100
AcDbEntity
  8
0
 62
     7
100
AcDbLine
 10
371.6461894606783
 20
631.667774820793
 30
0.0
 11
370.5766092117254
 21
631.667774820793
 31
0.0
  0
ARC
  5
2A7C
330
23F8
100
AcDbEntity
  8
1
 62
     7
100
AcDbCircle
 10
376.0236451269651
 20
644.7437756018098
 30
0.0
 40
0.6999999999999398
100
AcDbArc
 50
172.9999999999907
 51
270.0
  0
LINE
  5
2A7D
330
23F8
100
AcDbEntity
  8
1
 62
     7
100
AcDbLine
 10
376.0236451269651
 20
644.0437756018099
 30
0.0
 11
379.4624390565118
 21
644.0437756018099
 31
0.0
  0
LINE
  5
2A7E
330
23F8
100
AcDbEntity
  8
1
 62
     7
100
AcDbLine
 10
378.8661890565117
 20
639.58677560181
 30
0.0
 11
379.8661890565117
 21
638.58677560181
 31
0.0
  0
LINE
  5
2A7F
330
23F8
100
AcDbEntity
  8
1
 62
     7
100
AcDbLine
 10
379.8661890565117
 20
642.6737756018102
 30
0.0
 11
378.8661890565117
 21
641.6737756018102
 31
0.0
  0
LINE
  5
2A80
330
23F8
100
AcDbEntity
  8
1
 62
     7
100
AcDbLine
 10
378.8661890565117
 20
639.58677560181
 30
0.0
 11
378.8661890565117
 21
641.6737756018102
 31
0.0
  0
ARC
  5
2A81
330
23F8
100
AcDbEntity
  8
1
 62
     7
100
AcDbCircle
 10
353.9740692890708
 20
725.4772424643946
 30
0.0
 40
65.08446787152997
100
AcDbArc
 50
269.9899113553562
 51
285.4428125717686
  0
LINE
  5
2A82
330
23F8
100
AcDbEntity
  8
1
 62
     7
100
AcDbLine
 10
375.0586890565117
 20
658.8374253326203
 30
0.0
 11
375.0586890565117
 21
655.87877560181
 31
0.0
  0
LINE
  5
2A83
330
23F8
100
AcDbEntity
  8
0
 62
     7
100
AcDbLine
 10
371.6461894606783
 20
648.6677745655373
 30
0.0
 11
374.1461894231338
 21
648.6677745655373
 31
0.0
  0
ARC
  5
2A84
330
23F8
100
AcDbEntity
  8
1
 62
     7
100
AcDbCircle
 10
376.5824390565118
 20
653.0737756018099
 30
0.0
 40
0.7000000000000455
100
AcDbArc
 50
90.0
 51
180.0
  0
LINE
  5
2A85
330
23F8
100
AcDbEntity
  8
1
 62
     7
100
AcDbLine
 10
376.5824390565118
 20
653.7737756018097
 30
0.0
 11
379.4624390565118
 21
653.7737756018097
 31
0.0
  0
LINE
  5
2A86
330
23F8
100
AcDbEntity
  8
1
 62
     7
100
AcDbLine
 10
375.8824390565119
 20
653.0737756018099
 30
0.0
 11
375.8824390565119
 21
649.3376007799936
 31
0.0
  0
LINE
  5
2A87
330
23F8
100
AcDbEntity
  8
1
 62
     7
100
AcDbLine
 10
375.0586890565117
 20
655.87877560181
 30
0.0
 11
375.4586890565117
 21
655.47877560181
 31
0.0
  0
LINE
  5
2A88
330
23F8
100
AcDbEntity
  8
0
 62
     7
100
AcDbLine
 10
366.4766092114563
 20
662.4153152958959
 30
0.0
 11
367.6079800442412
 21
661.2839444627049
 31
0.0
  0
LINE
  5
2A89
330
23F8
100
AcDbEntity
  8
1
 62
     7
100
AcDbLine
 10
375.0586890565117
 20
658.8374253326203
 30
0.0
 11
376.0586890565117
 21
659.41477560181
 31
0.0
  0
ARC
  5
2A8A
330
23F8
100
AcDbEntity
  8
1
 62
     7
100
AcDbCircle
 10
386.8061890565117
 20
649.0237756018101
 30
0.0
 40
7.143749999999918
100
AcDbArc
 50
297.2660444507316
 51
64.63364993912147
  0
LINE
  5
2A8B
330
23F8
100
AcDbEntity
  8
1
 62
     7
100
AcDbLine
 10
398.5536890565116
 20
655.87877560181
 30
0.0
 11
398.5536890565116
 21
643.4611718195955
 31
0.0
  0
LINE
  5
2A8C
330
23F8
100
AcDbEntity
  8
1
 62
     7
100
AcDbLine
 10
400.4766092117254
 20
659.8939362091336
 30
0.0
 11
400.4766092117254
 21
638.5957747167751
 31
0.0
  0
LINE
  5
2A8D
330
23F8
100
AcDbEntity
  8
1
  6
DIVIDE
 62
     7
100
AcDbLine
 10
402.9766092110568
 20
642.0691293445964
 30
0.0
 11
402.9766092110568
 21
665.6677756018104
 31
0.0
  0
LINE
  5
2A8E
330
23F8
100
AcDbEntity
  8
1
 62
     7
100
AcDbLine
 10
394.7461890565116
 20
641.6737756018102
 30
0.0
 11
393.7461890565117
 21
642.6737756018102
 31
0.0
  0
LINE
  5
2A8F
330
23F8
100
AcDbEntity
  8
1
 62
     7
100
AcDbLine
 10
393.7461890565117
 20
638.58677560181
 30
0.0
 11
394.7461890565116
 21
639.58677560181
 31
0.0
  0
ARC
  5
2A90
330
23F8
100
AcDbEntity
  8
1
 62
     7
100
AcDbCircle
 10
386.8061890565117
 20
649.0237756018101
 30
0.0
 40
7.143749999999887
100
AcDbArc
 50
270.0
 51
297.2660444507316
  0
LINE
  5
2A91
330
23F8
100
AcDbEntity
  8
1
 62
     7
100
AcDbLine
 10
386.8061890565117
 20
638.58677560181
 30
0.0
 11
393.7461890565117
 21
638.58677560181
 31
0.0
  0
LINE
  5
2A92
330
23F8
100
AcDbEntity
  8
1
 62
     7
100
AcDbLine
 10
390.0789041468458
 20
642.6737756018102
 30
0.0
 11
393.7461890565117
 21
642.6737756018102
 31
0.0
  0
LINE
  5
2A93
330
23F8
100
AcDbEntity
  8
1
 62
     7
100
AcDbLine
 10
394.7461890565116
 20
641.6737756018102
 30
0.0
 11
394.7461890565116
 21
639.58677560181
 31
0.0
  0
LINE
  5
2A94
330
23F8
100
AcDbEntity
  8
1
 62
     7
100
AcDbLine
 10
386.8061890565117
 20
659.41477560181
 30
0.0
 11
397.5536890565117
 21
659.41477560181
 31
0.0
  0
LINE
  5
2A95
330
23F8
100
AcDbEntity
  8
1
 62
     7
100
AcDbLine
 10
389.8666039078839
 20
655.47877560181
 30
0.0
 11
398.1536890565117
 21
655.47877560181
 31
0.0
  0
LINE
  5
2A96
330
23F8
100
AcDbEntity
  8
1
 62
     7
100
AcDbLine
 10
392.0266092117254
 20
662.8047756018103
 30
0.0
 11
398.3361922314633
 21
662.7331925820724
 31
0.0
  0
ARC
  5
2A97
330
23F8
100
AcDbEntity
  8
1
 62
     7
100
AcDbCircle
 10
386.8061890565117
 20
649.0237756018101
 30
0.0
 40
7.143750000000068
100
AcDbArc
 50
64.63364993912147
 51
90.0
  0
ARC
  5
2A98
330
23F8
100
AcDbEntity
  8
1
 62
     7
100
AcDbCircle
 10
386.8061890565117
 20
649.0237756018101
 30
0.0
 40
7.14374999999995
100
AcDbArc
 50
90.0
 51
115.3663500608773
  0
LINE
  5
2A99
330
23F8
100
AcDbEntity
  8
1
 62
     7
100
AcDbLine
 10
384.2266092117254
 20
662.8047756018103
 30
0.0
 11
392.0266092117254
 21
662.8047756018103
 31
0.0
  0
LINE
  5
2A9A
330
23F8
100
AcDbEntity
  8
1
 62
     7
100
AcDbLine
 10
398.5536890565116
 20
655.87877560181
 30
0.0
 11
398.5536890565116
 21
658.8374253326203
 31
0.0
  0
LINE
  5
2A9B
330
23F8
100
AcDbEntity
  8
1
 62
     7
100
AcDbLine
 10
398.1536890565117
 20
655.47877560181
 30
0.0
 11
398.5536890565116
 21
655.87877560181
 31
0.0
  0
LINE
  5
2A9C
330
23F8
100
AcDbEntity
  8
1
  6
DIVIDE
 62
     7
100
AcDbLine
 10
402.9766092110568
 20
665.6677756018104
 30
0.0
 11
400.4766092110568
 21
665.6677756018104
 31
0.0
  0
ARC
  5
2A9D
330
23F8
100
AcDbEntity
  8
1
 62
     7
100
AcDbCircle
 10
400.0766092117254
 20
660.4270901768607
 30
0.0
 40
0.3999999999999773
100
AcDbArc
 50
0.0
 51
45.00000000000483
  0
ARC
  5
2A9E
330
23F8
100
AcDbEntity
  8
1
 62
     7
100
AcDbCircle
 10
400.0766092117254
 20
659.8939362091336
 30
0.0
 40
0.3999999999999751
100
AcDbArc
 50
272.9999999999975
 51
0.0
  0
LINE
  5
2A9F
330
23F8
100
AcDbEntity
  8
1
 62
     7
100
AcDbLine
 10
397.5536890565117
 20
659.41477560181
 30
0.0
 11
398.5536890565116
 21
658.8374253326203
 31
0.0
  0
LINE
  5
2AA0
330
23F8
100
AcDbEntity
  8
1
 62
     7
100
AcDbLine
 10
398.3361922314633
 20
662.7331925820724
 30
0.0
 11
400.3594519242001
 21
660.7099328893355
 31
0.0
  0
LINE
  5
2AA1
330
23F8
100
AcDbEntity
  8
1
 62
     7
100
AcDbLine
 10
400.0975435942226
 20
659.4944843952319
 30
0.0
 11
398.5766092117255
 21
659.41477560181
 31
0.0
  0
LINE
  5
2AA2
330
23F8
100
AcDbEntity
  8
1
 62
     7
100
AcDbLine
 10
400.4766092117254
 20
660.4270901768607
 30
0.0
 11
400.4766092117254
 21
659.8939362091336
 31
0.0
  0
LINE
  5
2AA3
330
23F8
100
AcDbEntity
  8
0
 62
     7
100
AcDbLine
 10
399.322318223204
 20
661.2839444625271
 30
0.0
 11
400.4766092114744
 21
662.4153152953369
 31
0.0
  0
LINE
  5
2AA4
330
23F8
100
AcDbEntity
  8
1
  6
CENTER
 62
     3
100
AcDbLine
 10
363.4536891018656
 20
677.1677756018103
 30
0.0
 11
408.4536889362993
 21
677.1677756018103
 31
0.0
  0
LINE
  5
2AA5
330
23F8
100
AcDbEntity
  8
1
 62
     3
100
AcDbLine
 10
371.4766091363441
 20
682.1677756018104
 30
0.0
 11
386.1879340017492
 21
682.1677756018104
 31
0.0
  0
LINE
  5
2AA6
330
23F8
100
AcDbEntity
  8
1
 62
     3
100
AcDbLine
 10
371.4766091363441
 20
672.1677756018103
 30
0.0
 11
386.1879340017492
 21
672.1677756018103
 31
0.0
  0
LINE
  5
2AA7
330
23F8
100
AcDbEntity
  8
0
 62
     7
100
AcDbLine
 10
400.0766092177661
 20
687.167773987883
 30
0.0
 11
371.8766091301822
 21
687.1677739875019
 31
0.0
  0
LINE
  5
2AA8
330
23F8
100
AcDbEntity
  8
1
 62
     7
100
AcDbLine
 10
371.4766091363441
 20
680.96777560181
 30
0.0
 11
385.4951136787218
 21
680.96777560181
 31
0.0
  0
LINE
  5
2AA9
330
23F8
100
AcDbEntity
  8
1
 62
     7
100
AcDbLine
 10
385.4951136787218
 20
673.3677756018103
 30
0.0
 11
371.4766091363441
 21
673.3677756018103
 31
0.0
  0
LINE
  5
2AAA
330
23F8
100
AcDbEntity
  8
0
 62
     7
100
AcDbLine
 10
371.4766091363441
 20
673.3677756018103
 30
0.0
 11
371.4766091363441
 21
680.96777560181
 31
0.0
  0
ARC
  5
2AAB
330
23F8
100
AcDbEntity
  8
0
 62
     7
100
AcDbCircle
 10
371.1766091407493
 20
668.4677742684478
 30
0.0
 40
0.2999999955947601
100
AcDbArc
 50
269.9999999805775
 51
359.9999999466619
  0
LINE
  5
2AAC
330
23F8
100
AcDbEntity
  8
0
 62
     7
100
AcDbLine
 10
371.4766091363441
 20
672.1677756018103
 30
0.0
 11
371.4766091363441
 21
668.4677742681684
 31
0.0
  0
LINE
  5
2AAD
330
23F8
100
AcDbEntity
  8
0
 62
     7
100
AcDbLine
 10
371.4766091363441
 20
672.1677756018103
 30
0.0
 11
371.4766091363441
 21
673.3677756018103
 31
0.0
  0
LINE
  5
2AAE
330
23F8
100
AcDbEntity
  8
0
 62
     7
100
AcDbLine
 10
367.2766091993878
 20
668.1677742730308
 30
0.0
 11
366.4766092112027
 21
667.3677742850744
 31
0.0
  0
LINE
  5
2AAF
330
23F8
100
AcDbEntity
  8
0
 62
     7
100
AcDbLine
 10
371.1766091406476
 20
668.1677742728531
 30
0.0
 11
367.2766091993878
 21
668.1677742730308
 31
0.0
  0
LINE
  5
2AB0
330
23F8
100
AcDbEntity
  8
0
 62
     7
100
AcDbLine
 10
371.4766091363441
 20
686.7677739935364
 30
0.0
 11
371.4766091363441
 21
682.1677756018104
 31
0.0
  0
LINE
  5
2AB1
330
23F8
100
AcDbEntity
  8
0
 62
     7
100
AcDbLine
 10
371.8766091301822
 20
687.1677739875019
 30
0.0
 11
371.4766091363441
 21
686.7677739935364
 31
0.0
  0
LINE
  5
2AB2
330
23F8
100
AcDbEntity
  8
0
 62
     7
100
AcDbLine
 10
371.4766091363441
 20
680.96777560181
 30
0.0
 11
371.4766091363441
 21
682.1677756018104
 31
0.0
  0
LINE
  5
2AB3
330
23F8
100
AcDbEntity
  8
1
 62
     7
100
AcDbLine
 10
386.4766091363439
 20
671.6677756018103
 30
0.0
 11
400.4766092116402
 21
671.6677756018103
 31
0.0
  0
LINE
  5
2AB4
330
23F8
100
AcDbEntity
  8
1
 62
     7
100
AcDbLine
 10
386.4766091363439
 20
682.6677756018104
 30
0.0
 11
400.4766092116402
 21
682.6677756018104
 31
0.0
  0
LINE
  5
2AB5
330
23F8
100
AcDbEntity
  8
1
 62
     7
100
AcDbLine
 10
386.4766091363439
 20
671.6677756018103
 30
0.0
 11
386.4766091363439
 21
682.6677756018104
 31
0.0
  0
LINE
  5
2AB6
330
23F8
100
AcDbEntity
  8
1
 62
     7
100
AcDbLine
 10
385.4951136787218
 20
680.96777560181
 30
0.0
 11
385.4951136787218
 21
673.3677756018103
 31
0.0
  0
LINE
  5
2AB7
330
23F8
100
AcDbEntity
  8
1
 62
     7
100
AcDbLine
 10
386.4766091363439
 20
671.6677756018103
 30
0.0
 11
385.4951136787218
 21
673.3677756018103
 31
0.0
  0
LINE
  5
2AB8
330
23F8
100
AcDbEntity
  8
1
 62
     7
100
AcDbLine
 10
385.4951136787218
 20
680.96777560181
 30
0.0
 11
386.4766091363439
 21
682.6677756018104
 31
0.0
  0
LINE
  5
2AB9
330
23F8
100
AcDbEntity
  8
0
 62
     7
100
AcDbLine
 10
400.4766092116402
 20
671.6677756018103
 30
0.0
 11
400.4766092116402
 21
682.6677756018104
 31
0.0
  0
LINE
  5
2ABA
330
23F8
100
AcDbEntity
  8
0
 62
     7
100
AcDbLine
 10
400.4766092116402
 20
682.6677756018104
 30
0.0
 11
400.4766092117551
 21
686.7677739931552
 31
0.0
  0
LINE
  5
2ABB
330
23F8
100
AcDbEntity
  8
0
 62
     7
100
AcDbLine
 10
400.4766092117551
 20
686.7677739931552
 30
0.0
 11
400.0766092177661
 21
687.167773987883
 31
0.0
  0
CIRCLE
  5
2ABC
330
23F8
100
AcDbEntity
  8
1
 62
     7
100
AcDbCircle
 10
553.2266092117254
 20
664.105252470793
 30
0.0
 40
5.5
  0
LINE
  5
2ABD
330
23F8
100
AcDbEntity
  8
1
  6
CENTER
 62
     3
100
AcDbLine
 10
574.6064951921339
 20
681.814431731879
 30
0.0
 11
578.877009436325
 21
665.8766555981096
 31
0.0
  0
LINE
  5
2ABE
330
23F8
100
AcDbEntity
  8
1
  6
CENTER
 62
     3
100
AcDbLine
 10
557.3516092117252
 20
656.9605428895714
 30
0.0
 11
549.1016092117251
 21
671.2499620520145
 31
0.0
  0
ARC
  5
2ABF
330
23F8
100
AcDbEntity
  8
0
 62
     7
100
AcDbCircle
 10
551.2792992066047
 20
627.0099960718553
 30
0.0
 40
7.143749890379377
100
AcDbArc
 50
342.8418303329422
 51
110.3577115473595
  0
ARC
  5
2AC0
330
23F8
100
AcDbEntity
  8
0
 62
     7
100
AcDbCircle
 10
551.0929254761727
 20
627.1840358028853
 30
0.0
 40
8.01499987966117
100
AcDbArc
 50
3.678807954942477
 51
78.38390433383004
  0
ARC
  5
2AC1
330
23F8
100
AcDbEntity
  8
0
 62
     7
100
AcDbCircle
 10
601.9766092117841
 20
579.6677755974384
 30
0.0
 40
74.11499888701969
100
AcDbArc
 50
126.6028919764839
 51
131.6651080233235
  0
ARC
  5
2AC2
330
23F8
100
AcDbEntity
  8
0
 62
     7
100
AcDbCircle
 10
565.9318913193264
 20
638.9322792507505
 30
0.0
 40
7.143749890209917
100
AcDbArc
 50
327.1898303334503
 51
94.70571154833294
  0
ARC
  5
2AC3
330
23F8
100
AcDbEntity
  8
0
 62
     7
100
AcDbCircle
 10
565.9360288538959
 20
638.9347955011264
 30
0.0
 40
7.143749892941673
100
AcDbArc
 50
327.1858303347762
 51
94.70171154966132
  0
ARC
  5
2AC4
330
23F8
100
AcDbEntity
  8
0
 62
     7
100
AcDbCircle
 10
583.2623592042978
 20
646.4605890401975
 30
0.0
 40
7.143749890250702
100
AcDbArc
 50
132.2542884503676
 51
259.7701696649947
  0
ARC
  5
2AC5
330
23F8
100
AcDbEntity
  8
0
 62
     7
100
AcDbCircle
 10
583.1935617705373
 20
646.70613314936
 30
0.0
 40
8.014999879666481
100
AcDbArc
 50
164.2280956644995
 51
238.933192043437
  0
ARC
  5
2AC6
330
23F8
100
AcDbEntity
  8
0
 62
     7
100
AcDbCircle
 10
565.8035362681955
 20
639.1526732461763
 30
0.0
 40
8.014999878656764
100
AcDbArc
 50
348.0228079555137
 51
62.72790431783278
  0
ARC
  5
2AC7
330
23F8
100
AcDbEntity
  8
0
 62
     7
100
AcDbCircle
 10
565.9318913193279
 20
638.9322792507486
 30
0.0
 40
7.143749892717861
100
AcDbArc
 50
147.9102884491512
 51
275.426169662324
  0
ARC
  5
2AC8
330
23F8
100
AcDbEntity
  8
0
 62
     7
100
AcDbCircle
 10
565.7993835291545
 20
639.1501477453989
 30
0.0
 40
8.014999878923513
100
AcDbArc
 50
179.8840956807244
 51
254.5891920423583
  0
ARC
  5
2AC9
330
23F8
100
AcDbEntity
  8
0
 62
     7
100
AcDbCircle
 10
601.9766092116581
 20
579.6677755973361
 30
0.0
 40
64.38999903268727
100
AcDbArc
 50
126.5071698411829
 51
131.760830154507
  0
ARC
  5
2ACA
330
23F8
100
AcDbEntity
  8
0
 62
     7
100
AcDbCircle
 10
565.936028853888
 20
638.9347955011411
 30
0.0
 40
7.143749890085167
100
AcDbArc
 50
260.2664694209892
 51
275.4221696656311
  0
ARC
  5
2ACB
330
23F8
100
AcDbEntity
  8
0
 62
     7
100
AcDbCircle
 10
601.97660921238
 20
579.6677755976749
 30
0.0
 40
64.38999903270735
100
AcDbArc
 50
110.8511698443363
 51
116.1048301574463
  0
ARC
  5
2ACC
330
23F8
100
AcDbEntity
  8
0
 62
     7
100
AcDbCircle
 10
601.9766092126515
 20
579.6677755977928
 30
0.0
 40
74.11499888701294
100
AcDbArc
 50
110.9468919756664
 51
116.0091080224471
  0
CIRCLE
  5
2ACD
330
23F8
100
AcDbEntity
  8
1
 62
     7
100
AcDbCircle
 10
576.7417523142296
 20
673.8455436649944
 30
0.0
 40
6.100000000000021
  0
CIRCLE
  5
2ACE
330
23F8
100
AcDbEntity
  8
1
 62
     7
100
AcDbCircle
 10
576.7417523142296
 20
673.8455436649944
 30
0.0
 40
3.700000000000216
  0
CIRCLE
  5
2ACF
330
23F8
100
AcDbEntity
  8
1
 62
     3
100
AcDbCircle
 10
576.7417523142296
 20
673.8455436649944
 30
0.0
 40
4.900000000000003
  0
CIRCLE
  5
2AD0
330
23F8
100
AcDbEntity
  8
1
 62
     7
100
AcDbCircle
 10
686.4140860807081
 20
628.4177756018102
 30
0.0
 40
5.499999999999808
  0
ARC
  5
2AD1
330
23F8
100
AcDbEntity
  8
0
 62
     7
100
AcDbCircle
 10
652.6739192168548
 20
627.0099960718635
 30
0.0
 40
7.143749892786424
100
AcDbArc
 50
248.9218303369148
 51
16.43771155144372
  0
ARC
  5
2AD2
330
23F8
100
AcDbEntity
  8
0
 62
     7
100
AcDbCircle
 10
601.9766092116542
 20
579.6677755974915
 30
0.0
 40
74.11499888688273
100
AcDbArc
 50
32.68289197609571
 51
37.74510802313626
  0
ARC
  5
2AD3
330
23F8
100
AcDbEntity
  8
0
 62
     7
100
AcDbCircle
 10
652.8602929480009
 20
627.1840358026927
 30
0.0
 40
8.014999878792391
100
AcDbArc
 50
269.7588079570583
 51
344.4639043180659
  0
LINE
  5
2AD4
330
23F8
100
AcDbEntity
  8
2
  6
CENTER
 62
     3
100
AcDbLine
 10
601.9766092117255
 20
462.1677773665975
 30
0.0
 11
601.9766092117255
 21
661.2839444625973
 31
0.0
  0
LINE
  5
2AD5
330
23F8
100
AcDbEntity
  8
1
  6
CENTER
 62
     3
100
AcDbLine
 10
693.5587956619297
 20
632.5427756018103
 30
0.0
 11
679.2693764994865
 21
624.2927756018104
 31
0.0
  0
CIRCLE
  5
2AD6
330
23F8
100
AcDbEntity
  8
1
 62
     7
100
AcDbCircle
 10
699.4766092117255
 20
579.6677756018103
 30
0.0
 40
5.499999999999968
  0
ARC
  5
2AD7
330
23F8
100
AcDbEntity
  8
0
 62
     7
100
AcDbCircle
 10
658.6439036559245
 20
539.6637655381801
 30
0.0
 40
7.143749892898756
100
AcDbArc
 50
170.6618303378736
 51
298.1777115503011
  0
ARC
  5
2AD8
330
23F8
100
AcDbEntity
  8
0
 62
     7
100
AcDbCircle
 10
658.6439036559142
 20
539.6637655381876
 30
0.0
 40
7.143749890211973
100
AcDbArc
 50
351.382288450113
 51
118.8981696661834
  0
ARC
  5
2AD9
330
23F8
100
AcDbEntity
  8
0
 62
     7
100
AcDbCircle
 10
645.7497372407415
 20
525.8587025447665
 30
0.0
 40
7.14374989266563
100
AcDbArc
 50
155.0098303346884
 51
282.5257115511449
  0
ARC
  5
2ADA
330
23F8
100
AcDbEntity
  8
0
 62
     7
100
AcDbCircle
 10
645.749737240791
 20
525.8587025447041
 30
0.0
 40
7.14374989029747
100
AcDbArc
 50
335.7302884527117
 51
103.2461696650245
  0
CIRCLE
  5
2ADB
330
23F8
100
AcDbEntity
  8
1
 62
     7
100
AcDbCircle
 10
601.9766092117255
 20
482.1677756018103
 30
0.0
 40
5.500000000000079
  0
CIRCLE
  5
2ADC
330
23F8
100
AcDbEntity
  8
1
 62
     7
100
AcDbCircle
 10
627.2114661092209
 20
485.490007538626
 30
0.0
 40
3.700000000000101
  0
CIRCLE
  5
2ADD
330
23F8
100
AcDbEntity
  8
1
 62
     3
100
AcDbCircle
 10
627.2114661092209
 20
485.490007538626
 30
0.0
 40
4.900000000000089
  0
CIRCLE
  5
2ADE
330
23F8
100
AcDbEntity
  8
1
 62
     7
100
AcDbCircle
 10
627.2114661092209
 20
485.490007538626
 30
0.0
 40
6.100000000000191
  0
LINE
  5
2ADF
330
23F8
100
AcDbEntity
  8
1
  6
CENTER
 62
     3
100
AcDbLine
 10
629.346723231317
 20
477.5211194717413
 30
0.0
 11
625.0762089871252
 21
493.4588956055111
 31
0.0
  0
ARC
  5
2AE0
330
23F8
100
AcDbEntity
  8
0
 62
     7
100
AcDbCircle
 10
611.4193056459146
 20
510.9485019986488
 30
0.0
 40
7.143749890279392
100
AcDbArc
 50
304.4262884514974
 51
71.94216966563096
  0
ARC
  5
2AE1
330
23F8
100
AcDbEntity
  8
0
 62
     7
100
AcDbCircle
 10
592.5291152985675
 20
510.9491613903335
 30
0.0
 40
7.143749890235485
100
AcDbArc
 50
288.7742884517647
 51
56.29016966603242
  0
ARC
  5
2AE2
330
23F8
100
AcDbEntity
  8
0
 62
     7
100
AcDbCircle
 10
601.97660921142
 20
579.6677755973908
 30
0.0
 40
74.11499888642737
100
AcDbArc
 50
267.4668919758386
 51
272.5291080227724
  0
ARC
  5
2AE3
330
23F8
100
AcDbEntity
  8
0
 62
     7
100
AcDbCircle
 10
592.4943843657413
 20
510.6965376329504
 30
0.0
 40
8.014999879638772
100
AcDbArc
 50
320.7480956661524
 51
35.45319204369803
  0
ARC
  5
2AE4
330
23F8
100
AcDbEntity
  8
0
 62
     7
100
AcDbCircle
 10
601.976609209853
 20
579.6677755973908
 30
0.0
 40
64.38999903247455
100
AcDbArc
 50
267.3711698461013
 51
272.6248301593303
  0
ARC
  5
2AE5
330
23F8
100
AcDbEntity
  8
0
 62
     7
100
AcDbCircle
 10
611.4193056459155
 20
510.9485019986523
 30
0.0
 40
7.143749892710577
100
AcDbArc
 50
123.7058303359837
 51
251.2217115509103
  0
ARC
  5
2AE6
330
23F8
100
AcDbEntity
  8
0
 62
     7
100
AcDbCircle
 10
611.4540189362319
 20
510.6958758168813
 30
0.0
 40
8.014999878921781
100
AcDbArc
 50
144.5428079571229
 51
219.2479043179224
  0
ARC
  5
2AE7
330
23F8
100
AcDbEntity
  8
0
 62
     7
100
AcDbCircle
 10
629.609189862534
 20
516.0443242087519
 30
0.0
 40
7.143749892591062
100
AcDbArc
 50
139.3578303362054
 51
266.8737115512513
  0
ARC
  5
2AE8
330
23F8
100
AcDbEntity
  8
0
 62
     7
100
AcDbCircle
 10
629.6091898625263
 20
516.0443242087642
 30
0.0
 40
7.143749890363976
100
AcDbArc
 50
320.0782884523843
 51
87.59416966490849
  0
ARC
  5
2AE9
330
23F8
100
AcDbEntity
  8
0
 62
     7
100
AcDbCircle
 10
629.710772906684
 20
515.8104313172527
 30
0.0
 40
8.014999879572089
100
AcDbArc
 50
352.0520956649455
 51
66.7571920434404
  0
ARC
  5
2AEA
330
23F8
100
AcDbEntity
  8
0
 62
     7
100
AcDbCircle
 10
645.9106562554855
 20
525.6608893254582
 30
0.0
 40
8.014999878969485
100
AcDbArc
 50
175.8468079550236
 51
250.5519043178316
  0
ARC
  5
2AEB
330
23F8
100
AcDbEntity
  8
0
 62
     7
100
AcDbCircle
 10
601.976609211521
 20
579.6677755973335
 30
0.0
 40
74.11499888670856
100
AcDbArc
 50
283.1188919761014
 51
288.1811080230781
  0
ARC
  5
2AEC
330
23F8
100
AcDbEntity
  8
0
 62
     7
100
AcDbCircle
 10
611.4540189368451
 20
510.6958758172087
 30
0.0
 40
8.014999879509277
100
AcDbArc
 50
336.4000956649424
 51
51.10519204407056
  0
ARC
  5
2AED
330
23F8
100
AcDbEntity
  8
0
 62
     7
100
AcDbCircle
 10
629.7107729068499
 20
515.8104313168361
 30
0.0
 40
8.014999878768716
100
AcDbArc
 50
160.1948079560112
 51
234.8999043180853
  0
ARC
  5
2AEE
330
23F8
100
AcDbEntity
  8
0
 62
     7
100
AcDbCircle
 10
601.9766092120005
 20
579.6677755974676
 30
0.0
 40
64.38999903245997
100
AcDbArc
 50
283.023169844512
 51
288.2768301577789
  0
ARC
  5
2AEF
330
23F8
100
AcDbEntity
  8
0
 62
     7
100
AcDbCircle
 10
601.9766092110582
 20
579.6677755969851
 30
0.0
 40
74.11499888662034
100
AcDbArc
 50
298.7708919763952
 51
303.83310802333
  0
ARC
  5
2AF0
330
23F8
100
AcDbEntity
  8
0
 62
     7
100
AcDbCircle
 10
601.9766092116262
 20
579.6677755973304
 30
0.0
 40
64.38999903233114
100
AcDbArc
 50
298.6751698446983
 51
303.928830158036
  0
CIRCLE
  5
2AF1
330
23F8
100
AcDbEntity
  8
1
 62
     7
100
AcDbCircle
 10
650.7266092117255
 20
495.2302987328277
 30
0.0
 40
5.500000000000103
  0
LINE
  5
2AF2
330
23F8
100
AcDbEntity
  8
1
  6
CENTER
 62
     3
100
AcDbLine
 10
654.8516092117255
 20
488.0855891516059
 30
0.0
 11
646.6016092117255
 21
502.3750083140493
 31
0.0
  0
ARC
  5
2AF3
330
23F8
100
AcDbEntity
  8
0
 62
     7
100
AcDbCircle
 10
601.9766092117804
 20
579.6677755974497
 30
0.0
 40
74.11499888664154
100
AcDbArc
 50
314.4228919755906
 51
319.4851080225328
  0
ARC
  5
2AF4
330
23F8
100
AcDbEntity
  8
0
 62
     7
100
AcDbCircle
 10
645.9106562553081
 20
525.6608893255329
 30
0.0
 40
8.014999879830622
100
AcDbArc
 50
7.704095666241086
 51
82.40919204388198
  0
ARC
  5
2AF5
330
23F8
100
AcDbEntity
  8
0
 62
     7
100
AcDbCircle
 10
658.8522242771521
 20
539.5167025685355
 30
0.0
 40
8.014999878907781
100
AcDbArc
 50
191.4988079555219
 51
266.2039043179484
  0
ARC
  5
2AF6
330
23F8
100
AcDbEntity
  8
0
 62
     7
100
AcDbCircle
 10
601.976609212191
 20
579.6677755978894
 30
0.0
 40
64.38999903244449
100
AcDbArc
 50
314.3271698439659
 51
319.5808301571062
  0
CIRCLE
  5
2AF7
330
23F8
100
AcDbEntity
  8
1
 62
     7
100
AcDbCircle
 10
686.4140860807081
 20
530.9177756018102
 30
0.0
 40
5.5
  0
LINE
  5
2AF8
330
23F8
100
AcDbEntity
  8
1
  6
CENTER
 62
     3
100
AcDbLine
 10
693.5587956619297
 20
526.7927756018103
 30
0.0
 11
679.2693764994865
 21
535.0427756018103
 31
0.0
  0
ARC
  5
2AF9
330
23F8
100
AcDbEntity
  8
0
 62
     7
100
AcDbCircle
 10
601.9766092117228
 20
581.0677755764126
 30
0.0
 40
26.51999960163187
100
AcDbArc
 50
289.2696388779719
 51
89.99999999999349
  0
ARC
  5
2AFA
330
23F8
100
AcDbEntity
  8
1
 62
     7
100
AcDbCircle
 10
601.9766092148529
 20
579.6677756018101
 30
0.0
 40
11.99999981963486
100
AcDbArc
 50
269.9999999850671
 51
70.52877938118865
  0
ARC
  5
2AFB
330
23F8
100
AcDbEntity
  8
1
 62
     7
100
AcDbCircle
 10
601.9766092148529
 20
579.6677756018101
 30
0.0
 40
11.99999981963502
100
AcDbArc
 50
109.4712206479171
 51
269.9999999850671
  0
LINE
  5
2AFC
330
23F8
100
AcDbEntity
  8
0
 62
     7
100
AcDbLine
 10
601.1766092237444
 20
549.6677760480548
 30
0.0
 11
595.8966093030275
 21
549.6677760480548
 31
0.0
  0
ARC
  5
2AFD
330
23F8
100
AcDbEntity
  8
0
 62
     7
100
AcDbCircle
 10
595.8966093030681
 20
551.2677760240578
 30
0.0
 40
1.599999976003118
100
AcDbArc
 50
180.0
 51
269.9999999985425
  0
CIRCLE
  5
2AFE
330
23F8
100
AcDbEntity
  8
0
 62
     7
100
AcDbCircle
 10
597.736609275425
 20
553.507775990324
 30
0.0
 40
1.599999975958381
  0
ARC
  5
2AFF
330
23F8
100
AcDbEntity
  8
0
 62
     7
100
AcDbCircle
 10
592.6966093511135
 20
554.5231720036167
 30
0.0
 40
1.599999975992205
100
AcDbArc
 50
0.0000000005471572
 51
70.73036112249223
  0
LINE
  5
2B00
330
23F8
100
AcDbEntity
  8
0
 62
     7
100
AcDbLine
 10
594.2966093271057
 20
551.2677760240578
 30
0.0
 11
594.2966093271057
 21
554.5231720036319
 31
0.0
  0
ARC
  5
2B01
330
23F8
100
AcDbEntity
  8
0
 62
     7
100
AcDbCircle
 10
608.0566091204091
 20
551.2677760240559
 30
0.0
 40
1.599999976001023
100
AcDbArc
 50
270.0000000007979
 51
0.0000000000716515
  0
LINE
  5
2B02
330
23F8
100
AcDbEntity
  8
0
 62
     7
100
AcDbLine
 10
601.1766092237444
 20
555.7621174815648
 30
0.0
 11
601.1766092237444
 21
549.6677760480548
 31
0.0
  0
LINE
  5
2B03
330
23F8
100
AcDbEntity
  8
0
 62
     7
100
AcDbLine
 10
602.7766091997091
 20
555.7621174815648
 30
0.0
 11
602.7766091997091
 21
549.6677760480548
 31
0.0
  0
LINE
  5
2B04
330
23F8
100
AcDbEntity
  8
0
 62
     7
100
AcDbLine
 10
602.7766091997091
 20
549.6677760480548
 30
0.0
 11
608.0566091204312
 21
549.6677760480548
 31
0.0
  0
ARC
  5
2B05
330
23F8
100
AcDbEntity
  8
1
 62
     7
100
AcDbCircle
 10
601.9766092117255
 20
579.6677755973904
 30
0.0
 40
29.99999954983335
100
AcDbArc
 50
268.4719314054166
 51
271.5280685945882
  0
CIRCLE
  5
2B06
330
23F8
100
AcDbEntity
  8
0
 62
     7
100
AcDbCircle
 10
606.216609148038
 20
553.507775990324
 30
0.0
 40
1.599999975966512
  0
ARC
  5
2B07
330
23F8
100
AcDbEntity
  8
0
 62
     7
100
AcDbCircle
 10
611.256609072348
 20
554.5231720036319
 30
0.0
 40
1.599999975976003
100
AcDbArc
 50
109.2696388775007
 51
180.0
  0
LINE
  5
2B08
330
23F8
100
AcDbEntity
  8
0
 62
     7
100
AcDbLine
 10
609.6566090963736
 20
551.2677760240578
 30
0.0
 11
609.6566090963736
 21
554.5231720036319
 31
0.0
  0
LINE
  5
2B09
330
23F8
100
AcDbEntity
  8
1
 62
     7
100
AcDbLine
 10
597.976609272323
 20
594.9677753726773
 30
0.0
 11
605.9766091516353
 21
594.9677753726773
 31
0.0
  0
LINE
  5
2B0A
330
23F8
100
AcDbEntity
  8
1
 62
     7
100
AcDbLine
 10
597.976609272323
 20
590.9814839303664
 30
0.0
 11
597.976609272323
 21
594.9677753726773
 31
0.0
  0
LINE
  5
2B0B
330
23F8
100
AcDbEntity
  8
1
 62
     7
100
AcDbLine
 10
605.9766091516353
 20
594.9677753726773
 30
0.0
 11
605.9766091516353
 21
590.9814839318398
 31
0.0
  0
ARC
  5
2B0C
330
23F8
100
AcDbEntity
  8
0
 62
     7
100
AcDbCircle
 10
601.97660921173
 20
579.6677755973238
 30
0.0
 40
74.11499888659669
100
AcDbArc
 50
1.378891976547145
 51
6.441108023471096
  0
ARC
  5
2B0D
330
23F8
100
AcDbEntity
  8
0
 62
     7
100
AcDbCircle
 10
671.4340626287671
 20
574.9131547695754
 30
0.0
 40
8.014999879624783
100
AcDbArc
 50
54.66009566689202
 51
129.3651920444056
  0
ARC
  5
2B0E
330
23F8
100
AcDbEntity
  8
0
 62
     7
100
AcDbCircle
 10
601.9766092117301
 20
579.6677755973171
 30
0.0
 40
64.38999903244573
100
AcDbArc
 50
1.283169845403263
 51
6.53683015862621
  0
ARC
  5
2B0F
330
23F8
100
AcDbEntity
  8
0
 62
     7
100
AcDbCircle
 10
671.1796579977735
 20
574.9305697161698
 30
0.0
 40
7.143749892706782
100
AcDbArc
 50
201.9658303369458
 51
329.4817115499565
  0
ARC
  5
2B10
330
23F8
100
AcDbEntity
  8
0
 62
     7
100
AcDbCircle
 10
671.1796579977874
 20
574.9305697161689
 30
0.0
 40
7.143749890168272
100
AcDbArc
 50
22.68628845235112
 51
150.202169666483
  0
ARC
  5
2B11
330
23F8
100
AcDbEntity
  8
0
 62
     7
100
AcDbCircle
 10
667.3354088906201
 20
556.4356774317196
 30
0.0
 40
7.143749890254969
100
AcDbArc
 50
7.034288451752088
 51
134.5501696663028
  0
ARC
  5
2B12
330
23F8
100
AcDbEntity
  8
0
 62
     7
100
AcDbCircle
 10
601.976609211689
 20
579.6677755972153
 30
0.0
 40
74.11499888661481
100
AcDbArc
 50
345.7268919763178
 51
350.7891080232606
  0
ARC
  5
2B13
330
23F8
100
AcDbEntity
  8
0
 62
     7
100
AcDbCircle
 10
667.5756812720507
 20
556.3502714588065
 30
0.0
 40
8.014999879671661
100
AcDbArc
 50
39.00809566750723
 51
113.7131920446107
  0
ARC
  5
2B14
330
23F8
100
AcDbEntity
  8
0
 62
     7
100
AcDbCircle
 10
671.4340626291259
 20
574.9131547690178
 30
0.0
 40
8.01499987894568
100
AcDbArc
 50
222.8028079565436
 51
297.5079043187868
  0
ARC
  5
2B15
330
23F8
100
AcDbEntity
  8
0
 62
     7
100
AcDbCircle
 10
667.335408890592
 20
556.4356774317295
 30
0.0
 40
7.143749892792816
100
AcDbArc
 50
186.3138303368041
 51
313.8297115515165
  0
ARC
  5
2B16
330
23F8
100
AcDbEntity
  8
0
 62
     7
100
AcDbCircle
 10
658.8522242770855
 20
539.5167025690657
 30
0.0
 40
8.014999879813682
100
AcDbArc
 50
23.35609566606181
 51
98.06119204325064
  0
ARC
  5
2B17
330
23F8
100
AcDbEntity
  8
0
 62
     7
100
AcDbCircle
 10
601.9766092120176
 20
579.6677755979544
 30
0.0
 40
64.38999903238772
100
AcDbArc
 50
329.9791698443135
 51
335.2328301575425
  0
ARC
  5
2B18
330
23F8
100
AcDbEntity
  8
0
 62
     7
100
AcDbCircle
 10
667.5756812718568
 20
556.3502714582519
 30
0.0
 40
8.014999878907531
100
AcDbArc
 50
207.1508079559402
 51
281.8559043177023
  0
ARC
  5
2B19
330
23F8
100
AcDbEntity
  8
0
 62
     7
100
AcDbCircle
 10
601.9766092121429
 20
579.6677755981959
 30
0.0
 40
74.11499888678498
100
AcDbArc
 50
330.0748919753468
 51
335.1371080221173
  0
ARC
  5
2B1A
330
23F8
100
AcDbEntity
  8
0
 62
     7
100
AcDbCircle
 10
601.976609211735
 20
579.6677755974374
 30
0.0
 40
64.38999903254504
100
AcDbArc
 50
345.6311698450241
 51
350.8848301582027
  0
ARC
  5
2B1B
330
23F8
100
AcDbEntity
  8
0
 62
     7
100
AcDbCircle
 10
669.8915469033285
 20
593.776791131092
 30
0.0
 40
7.14374989275617
100
AcDbArc
 50
217.6178303362215
 51
345.1337115511012
  0
ARC
  5
2B1C
330
23F8
100
AcDbEntity
  8
0
 62
     7
100
AcDbCircle
 10
669.8915469033241
 20
593.7767911310913
 30
0.0
 40
7.143749890266088
100
AcDbArc
 50
38.33828845207112
 51
165.8541696662517
  0
ARC
  5
2B1D
330
23F8
100
AcDbEntity
  8
0
 62
     7
100
AcDbCircle
 10
670.1412161733967
 20
593.828658768351
 30
0.0
 40
8.014999878942145
100
AcDbArc
 50
238.4548079574557
 51
313.159904319108
  0
ARC
  5
2B1E
330
23F8
100
AcDbEntity
  8
0
 62
     7
100
AcDbCircle
 10
663.5666068054795
 20
611.5766345162484
 30
0.0
 40
7.143749892710475
100
AcDbArc
 50
233.2698303367831
 51
0.7857115508298436
  0
ARC
  5
2B1F
330
23F8
100
AcDbEntity
  8
0
 62
     7
100
AcDbCircle
 10
601.976609211739
 20
579.6677755973523
 30
0.0
 40
74.11499888673401
100
AcDbArc
 50
17.03089197610605
 51
22.0931080229101
  0
ARC
  5
2B20
330
23F8
100
AcDbEntity
  8
0
 62
     7
100
AcDbCircle
 10
601.9766092117103
 20
579.6677755974334
 30
0.0
 40
64.38999903252083
100
AcDbArc
 50
16.93516984482271
 51
22.18883015800198
  0
ARC
  5
2B21
330
23F8
100
AcDbEntity
  8
0
 62
     7
100
AcDbCircle
 10
663.7930242954914
 20
611.6939380371031
 30
0.0
 40
8.01499987899451
100
AcDbArc
 50
254.1068079572861
 51
328.8119043187195
  0
ARC
  5
2B22
330
23F8
100
AcDbEntity
  8
0
 62
     7
100
AcDbCircle
 10
670.1412161734062
 20
593.8286587678929
 30
0.0
 40
8.014999879637173
100
AcDbArc
 50
70.31209566653283
 51
145.0171920435115
  0
ARC
  5
2B23
330
23F8
100
AcDbEntity
  8
0
 62
     7
100
AcDbCircle
 10
663.5666068054907
 20
611.5766345162543
 30
0.0
 40
7.143749890254
100
AcDbArc
 50
53.99028845149921
 51
181.5061696657629
  0
ARC
  5
2B24
330
23F8
100
AcDbEntity
  8
0
 62
     7
100
AcDbCircle
 10
663.7930242953041
 20
611.6939380375529
 30
0.0
 40
8.014999879661338
100
AcDbArc
 50
85.96409566618348
 51
160.6691920449241
  0
ARC
  5
2B25
330
23F8
100
AcDbEntity
  8
0
 62
     7
100
AcDbCircle
 10
601.9766092117118
 20
579.66777559741
 30
0.0
 40
64.38999903278271
100
AcDbArc
 50
32.587169845028
 51
37.84083015830969
  0
ARC
  5
2B26
330
23F8
100
AcDbEntity
  8
0
 62
     7
100
AcDbCircle
 10
638.0213271041228
 20
638.9322792507486
 30
0.0
 40
7.143749892717893
100
AcDbArc
 50
264.5738303376759
 51
32.08971155084874
  0
ARC
  5
2B27
330
23F8
100
AcDbEntity
  8
0
 62
     7
100
AcDbCircle
 10
652.6739192168461
 20
627.0099960718553
 30
0.0
 40
7.143749890379297
100
AcDbArc
 50
69.64228845264049
 51
197.1581696670577
  0
ARC
  5
2B28
330
23F8
100
AcDbEntity
  8
0
 62
     7
100
AcDbCircle
 10
652.8602929472781
 20
627.1840358028853
 30
0.0
 40
8.014999879661187
100
AcDbArc
 50
101.6160956661699
 51
176.3211920450575
  0
ARC
  5
2B29
330
23F8
100
AcDbEntity
  8
0
 62
     7
100
AcDbCircle
 10
601.9766092117926
 20
579.6677755973361
 30
0.0
 40
64.38999903268729
100
AcDbArc
 50
48.23916984549262
 51
53.49283015881707
  0
ARC
  5
2B2A
330
23F8
100
AcDbEntity
  8
0
 62
     7
100
AcDbCircle
 10
638.153834894296
 20
639.1501477453989
 30
0.0
 40
8.014999878923536
100
AcDbArc
 50
285.4108079576416
 51
0.1159043192755634
  0
LINE
  5
2B2B
330
23F8
100
AcDbEntity
  8
2
  6
DASHDOT
 62
     3
100
AcDbLine
 10
601.9766092117255
 20
662.8047756018103
 30
0.0
 11
601.9766092117255
 21
687.1677739877871
 31
0.0
  0
ARC
  5
2B2C
330
23F8
100
AcDbEntity
  8
0
 62
     7
100
AcDbCircle
 10
620.6955221951525
 20
646.4592823769533
 30
0.0
 40
7.143749890314278
100
AcDbArc
 50
100.9462884524472
 51
228.4621696659776
  0
ARC
  5
2B2D
330
23F8
100
AcDbEntity
  8
0
 62
     7
100
AcDbCircle
 10
601.9766092119027
 20
579.6677755973663
 30
0.0
 40
74.11499888705063
100
AcDbArc
 50
79.63889197632527
 51
84.70110802327878
  0
ARC
  5
2B2E
330
23F8
100
AcDbEntity
  8
0
 62
     7
100
AcDbCircle
 10
620.764336765043
 20
646.7048216825677
 30
0.0
 40
8.014999879832037
100
AcDbArc
 50
132.9200956659353
 51
207.6251920461443
  0
ARC
  5
2B2F
330
23F8
100
AcDbEntity
  8
0
 62
     7
100
AcDbCircle
 10
601.9814518034097
 20
649.0327743910813
 30
0.0
 40
7.143749890259798
100
AcDbArc
 50
116.5982884518987
 51
244.1141696656089
  0
ARC
  5
2B30
330
23F8
100
AcDbEntity
  8
0
 62
     7
100
AcDbCircle
 10
601.976609214773
 20
649.0327745599995
 30
0.0
 40
7.143749892745097
100
AcDbArc
 50
295.8818303352078
 51
63.39771154933607
  0
ARC
  5
2B31
330
23F8
100
AcDbEntity
  8
0
 62
     7
100
AcDbCircle
 10
601.9814696027134
 20
649.2877743826263
 30
0.0
 40
8.014999878872821
100
AcDbArc
 50
316.7148079570746
 51
31.41990431792049
  0
ARC
  5
2B32
330
23F8
100
AcDbEntity
  8
0
 62
     7
100
AcDbCircle
 10
601.9766092114955
 20
649.2877745518968
 30
0.0
 40
8.014999879673418
100
AcDbArc
 50
148.5760956640124
 51
223.2811920424977
  0
ARC
  5
2B33
330
23F8
100
AcDbEntity
  8
0
 62
     7
100
AcDbCircle
 10
583.1935617708605
 20
646.7061331495808
 30
0.0
 40
8.014999878987968
100
AcDbArc
 50
332.3708079552233
 51
47.07590431751632
  0
ARC
  5
2B34
330
23F8
100
AcDbEntity
  8
0
 62
     7
100
AcDbCircle
 10
601.9766092118486
 20
579.6677755974076
 30
0.0
 40
64.38999903263385
100
AcDbArc
 50
95.19916984371002
 51
100.4528301569181
  0
ARC
  5
2B35
330
23F8
100
AcDbEntity
  8
0
 62
     7
100
AcDbCircle
 10
601.9766092115682
 20
579.6677755974124
 30
0.0
 40
64.38999903280418
100
AcDbArc
 50
79.54316984487974
 51
84.79683015812563
  0
ARC
  5
2B36
330
23F8
100
AcDbEntity
  8
0
 62
     7
100
AcDbCircle
 10
601.9766092116537
 20
579.6677755973807
 30
0.0
 40
74.11499888699757
100
AcDbArc
 50
95.2948919746942
 51
100.3571080216252
  0
LINE
  5
2B37
330
23F8
100
AcDbEntity
  8
2
  6
DASHDOT
 62
     3
100
AcDbLine
 10
601.9766092117255
 20
661.2839444625973
 30
0.0
 11
601.9766092117255
 21
662.8047756018103
 31
0.0
  0
ARC
  5
2B38
330
23F8
100
AcDbEntity
  8
0
 62
     7
100
AcDbCircle
 10
620.6955221951554
 20
646.4592823769639
 30
0.0
 40
7.143749892678027
100
AcDbArc
 50
280.2258303374404
 51
47.74171155204585
  0
ARC
  5
2B39
330
23F8
100
AcDbEntity
  8
0
 62
     7
100
AcDbCircle
 10
638.0213271041242
 20
638.9322792507505
 30
0.0
 40
7.143749890211879
100
AcDbArc
 50
85.29428845166705
 51
212.8101696665497
  0
ARC
  5
2B3A
330
23F8
100
AcDbEntity
  8
0
 62
     7
100
AcDbCircle
 10
638.1538348938394
 20
639.1501477454023
 30
0.0
 40
8.014999879630657
100
AcDbArc
 50
117.2680956662519
 51
191.9731920443708
  0
ARC
  5
2B3B
330
23F8
100
AcDbEntity
  8
0
 62
     7
100
AcDbCircle
 10
620.764336764529
 20
646.704821682742
 30
0.0
 40
8.014999878991886
100
AcDbArc
 50
301.0628079579687
 51
15.76790432049666
  0
ARC
  5
2B3C
330
23F8
100
AcDbEntity
  8
0
 62
     7
100
AcDbCircle
 10
601.9766092117929
 20
579.6677755973613
 30
0.0
 40
64.38999903272391
100
AcDbArc
 50
63.89116984567916
 51
69.14483015898845
  0
ARC
  5
2B3D
330
23F8
100
AcDbEntity
  8
0
 62
     7
100
AcDbCircle
 10
601.9766092116835
 20
579.667775597409
 30
0.0
 40
74.1149988869617
100
AcDbArc
 50
63.98689197681978
 51
69.049108023681
  0
LINE
  5
2B3E
330
23F8
100
AcDbEntity
  8
2
  6
DASHDOT
 62
     3
100
AcDbLine
 10
601.9766092117255
 20
697.1677738368196
 30
0.0
 11
601.9766092117255
 21
687.1677739877871
 31
0.0
  0
CIRCLE
  5
2B3F
330
23F8
100
AcDbEntity
  8
1
 62
     7
100
AcDbCircle
 10
601.9766092117255
 20
677.1677756018103
 30
0.0
 40
5.500000000000079
  0
CIRCLE
  5
2B40
330
23F8
100
AcDbEntity
  8
1
 62
     7
100
AcDbCircle
 10
650.7266092117255
 20
664.105252470793
 30
0.0
 40
5.5
  0
LINE
  5
2B41
330
23F8
100
AcDbEntity
  8
1
  6
CENTER
 62
     3
100
AcDbLine
 10
654.8516092117255
 20
671.2499620520145
 30
0.0
 11
646.6016092117255
 21
656.9605428895714
 31
0.0
  0
ARC
  5
2B42
330
23F8
100
AcDbEntity
  8
0
 62
     7
100
AcDbCircle
 10
601.9766092116667
 20
579.6677755974384
 30
0.0
 40
74.11499888701969
100
AcDbArc
 50
48.33489197667649
 51
53.397108023516
  0
INSERT
  5
2B4C
330
23F8
100
AcDbEntity
  8
AM_0
100
AcDbBlockReference
  2
HD LLC
 10
680.2979605520526
 20
221.4539984480219
 30
0.0
 41
2.669999999999999
 42
2.669999999999999
 43
2.669999999999999
  0
INSERT
  5
2B52
330
23F8
100
AcDbEntity
  8
AM_0
100
AcDbBlockReference
  2
HD logo-new
 10
479.6875269919421
 20
242.6888243938655
 30
0.0
 41
2.4
 42
2.4
 43
2.4
  0
INSERT
  5
2B5F
330
23F8
100
AcDbEntity
  8
AM_0
100
AcDbBlockReference
  2
NTC
 10
-68.39172491437941
 20
320.5239525281958
 30
0.0
 41
1.377
 42
1.377
 43
1.377
  0
ENDSEC
  0
SECTION
  2
OBJECTS
  0
DICTIONARY
  5
23E6
330
0
100
AcDbDictionary
281
     1
  3
ACAD_GROUP
350
23E7
  3
ACAD_LAYOUT
350
23F3
  3
ACAD_MLINESTYLE
350
23F0
  3
ACAD_PLOTSETTINGS
350
23F2
  3
ACAD_PLOTSTYLENAME
350
23E8
  3
AcDbVariableDictionary
350
26D8
  0
DICTIONARY
  5
23E7
102
{ACAD_REACTORS
330
23E6
102
}
330
23E6
100
AcDbDictionary
281
     1
  0
DICTIONARY
  5
23F3
102
{ACAD_REACTORS
330
23E6
102
}
330
23E6
100
AcDbDictionary
281
     1
  3
Layout1
350
23F7
  3
Model
350
23FB
  0
DICTIONARY
  5
23F0
102
{ACAD_REACTORS
330
23E6
102
}
330
23E6
100
AcDbDictionary
281
     1
  3
Standard
350
23F1
  0
DICTIONARY
  5
23F2
102
{ACAD_REACTORS
330
23E6
102
}
330
23E6
100
AcDbDictionary
281
     1
  0
ACDBDICTIONARYWDFLT
  5
23E8
102
{ACAD_REACTORS
330
23E6
102
}
330
23E6
100
AcDbDictionary
281
     1
  3
Normal
350
23E9
100
AcDbDictionaryWithDefault
340
23E9
  0
DICTIONARY
  5
26D8
102
{ACAD_REACTORS
330
23E6
102
}
330
23E6
100
AcDbDictionary
281
     1
  3
DIMASSOC
350
26D9
  0
LAYOUT
  5
23F7
102
{ACAD_REACTORS
330
23F3
102
}
330
23F3
100
AcDbPlotSettings
  1

  2
\\SERVER9\HP LaserJet 5100 PCL 5e
  4

  6

 40
0.0
 41
0.0
 42
0.0
 43
0.0
 44
0.0
 45
0.0
 46
0.0
 47
0.0
 48
0.0
 49
0.0
140
0.0
141
0.0
142
1.0
143
1.0
 70
   688
 72
     0
 73
     0
 74
     5
  7

 75
    16
147
1.0
148
0.0
149
0.0
100
AcDbLayout
  1
Layout1
 70
     1
 71
     1
 10
0.0
 20
0.0
 11
420.0
 21
297.0
 12
0.0
 22
0.0
 32
0.0
 14
1.000000000000000E+20
 24
1.000000000000000E+20
 34
1.000000000000000E+20
 15
-1.000000000000000E+20
 25
-1.000000000000000E+20
 35
-1.000000000000000E+20
146
0.0
 13
0.0
 23
0.0
 33
0.0
 16
1.0
 26
0.0
 36
0.0
 17
0.0
 27
1.0
 37
0.0
 76
     0
330
23F4
  0
LAYOUT
  5
23FB
102
{ACAD_REACTORS
330
23F3
102
}
330
23F3
100
AcDbPlotSettings
  1

  2
\\SERVER9\HP LaserJet 5100 PCL 5e
  4
Letter
  6

 40
6.349999904632567
 41
4.233341693878172
 42
6.349990844726562
 43
4.23333740234375
 44
215.8999938964842
 45
279.3999938964843
 46
0.0
 47
0.0
 48
0.0
 49
0.0
140
0.0
141
0.0
142
1.0
143
1.0
 70
 11952
 72
     0
 73
     1
 74
     0
  7

 75
     0
147
1.0
148
6687.33816834784
149
12436.86008328906
100
AcDbLayout
  1
Model
 70
     1
 71
     0
 10
0.0
 20
0.0
 11
12.0
 21
9.0
 12
0.0
 22
0.0
 32
0.0
 14
0.0
 24
0.0
 34
0.0
 15
0.0
 25
0.0
 35
0.0
146
0.0
 13
0.0
 23
0.0
 33
0.0
 16
1.0
 26
0.0
 36
0.0
 17
0.0
 27
1.0
 37
0.0
 76
     0
330
23F8
  0
MLINESTYLE
  5
23F1
102
{ACAD_REACTORS
330
23F0
102
}
330
23F0
100
AcDbMlineStyle
  2
STANDARD
 70
     0
  3

 62
   256
 51
90.0
 52
90.0
 71
     2
 49
0.5
 62
   256
  6
BYLAYER
 49
-0.5
 62
   256
  6
BYLAYER
  0
ACDBPLACEHOLDER
  5
23E9
102
{ACAD_REACTORS
330
23E8
102
}
330
23E8
  0
DICTIONARYVAR
  5
26D9
102
{ACAD_REACTORS
330
26D8
102
}
330
26D8
100
DictionaryVariables
280
     0
  1
1
  0
ENDSEC
  0
EOF
