  0
SECTION
  2
HEADER
  9
$ACADVER
  1
AC1015
  9
$ACADMAINTVER
 70
    13
  9
$DWGCODEPAGE
  3
ANSI_1252
  9
$INSBASE
 10
0.0
 20
0.0
 30
0.0
  9
$EXTMIN
 10
98.61315194314647
 20
28.7459766003784
 30
0.0
  9
$EXTMAX
 10
433.8584976450751
 20
199.5371864842025
 30
0.0
  9
$LIMMIN
 10
0.0
 20
0.0
  9
$LIMMAX
 10
420.0
 20
297.0
  9
$ORTHOMODE
 70
     1
  9
$REGENMODE
 70
     1
  9
$FILLMODE
 70
     1
  9
$QTEXTMODE
 70
     0
  9
$MIRRTEXT
 70
     1
  9
$LTSCALE
 40
1.0
  9
$ATTMODE
 70
     1
  9
$TEXTSIZE
 40
2.5
  9
$TRACEWID
 40
1.0
  9
$TEXTSTYLE
  7
STANDARD
  9
$CLAYER
  8
AM_0
  9
$CELTYPE
  6
ByLayer
  9
$CECOLOR
 62
   256
  9
$CELTSCALE
 40
1.0
  9
$DISPSILH
 70
     0
  9
$DIMSCALE
 40
1.0
  9
$DIMASZ
 40
2.5
  9
$DIMEXO
 40
0.625
  9
$DIMDLI
 40
3.75
  9
$DIMRND
 40
0.0
  9
$DIMDLE
 40
0.0
  9
$DIMEXE
 40
1.25
  9
$DIMTP
 40
0.0
  9
$DIMTM
 40
0.0
  9
$DIMTXT
 40
2.5
  9
$DIMCEN
 40
2.5
  9
$DIMTSZ
 40
0.0
  9
$DIMTOL
 70
     0
  9
$DIMLIM
 70
     0
  9
$DIMTIH
 70
     0
  9
$DIMTOH
 70
     0
  9
$DIMSE1
 70
     0
  9
$DIMSE2
 70
     0
  9
$DIMTAD
 70
     1
  9
$DIMZIN
 70
     8
  9
$DIMBLK
  1

  9
$DIMASO
 70
     1
  9
$DIMSHO
 70
     1
  9
$DIMPOST
  1

  9
$DIMAPOST
  1

  9
$DIMALT
 70
     0
  9
$DIMALTD
 70
     3
  9
$DIMALTF
 40
0.03937007874016
  9
$DIMLFAC
 40
1.0
  9
$DIMTOFL
 70
     1
  9
$DIMTVP
 40
0.0
  9
$DIMTIX
 70
     0
  9
$DIMSOXD
 70
     0
  9
$DIMSAH
 70
     0
  9
$DIMBLK1
  1

  9
$DIMBLK2
  1

  9
$DIMSTYLE
  2
ISO-25
  9
$DIMCLRD
 70
     0
  9
$DIMCLRE
 70
     0
  9
$DIMCLRT
 70
     0
  9
$DIMTFAC
 40
1.0
  9
$DIMGAP
 40
0.625
  9
$DIMJUST
 70
     0
  9
$DIMSD1
 70
     0
  9
$DIMSD2
 70
     0
  9
$DIMTOLJ
 70
     1
  9
$DIMTZIN
 70
     0
  9
$DIMALTZ
 70
     0
  9
$DIMALTTZ
 70
     0
  9
$DIMUPT
 70
     0
  9
$DIMDEC
 70
     4
  9
$DIMTDEC
 70
     4
  9
$DIMALTU
 70
     2
  9
$DIMALTTD
 70
     2
  9
$DIMTXSTY
  7
STANDARD
  9
$DIMAUNIT
 70
     0
  9
$DIMADEC
 70
     0
  9
$DIMALTRND
 40
0.0
  9
$DIMAZIN
 70
     0
  9
$DIMDSEP
 70
    46
  9
$DIMATFIT
 70
     3
  9
$DIMFRAC
 70
     0
  9
$DIMLDRBLK
  1

  9
$DIMLUNIT
 70
     2
  9
$DIMLWD
 70
    -2
  9
$DIMLWE
 70
    -2
  9
$DIMTMOVE
 70
     0
  9
$LUNITS
 70
     2
  9
$LUPREC
 70
     2
  9
$SKETCHINC
 40
1.0
  9
$FILLETRAD
 40
2.5
  9
$AUNITS
 70
     0
  9
$AUPREC
 70
     0
  9
$MENU
  1
.
  9
$ELEVATION
 40
0.0
  9
$PELEVATION
 40
0.0
  9
$THICKNESS
 40
0.0
  9
$LIMCHECK
 70
     0
  9
$CHAMFERA
 40
2.5
  9
$CHAMFERB
 40
2.5
  9
$CHAMFERC
 40
0.0
  9
$CHAMFERD
 40
0.0
  9
$SKPOLY
 70
     0
  9
$TDCREATE
 40
2452801.956938113
  9
$TDUCREATE
 40
2452802.123604780
  9
$TDUPDATE
 40
2453865.463800995
  9
$TDUUPDATE
 40
2453865.630467662
  9
$TDINDWG
 40
0.1035431019
  9
$TDUSRTIMER
 40
0.1035431019
  9
$USRTIMER
 70
     1
  9
$ANGBASE
 50
0.0
  9
$ANGDIR
 70
     0
  9
$PDMODE
 70
     0
  9
$PDSIZE
 40
0.0
  9
$PLINEWID
 40
0.0
  9
$SPLFRAME
 70
     0
  9
$SPLINETYPE
 70
     6
  9
$SPLINESEGS
 70
     8
  9
$HANDSEED
  5
1DB7
  9
$SURFTAB1
 70
     6
  9
$SURFTAB2
 70
     6
  9
$SURFTYPE
 70
     6
  9
$SURFU
 70
     6
  9
$SURFV
 70
     6
  9
$UCSBASE
  2

  9
$UCSNAME
  2

  9
$UCSORG
 10
0.0
 20
0.0
 30
0.0
  9
$UCSXDIR
 10
1.0
 20
0.0
 30
0.0
  9
$UCSYDIR
 10
0.0
 20
1.0
 30
0.0
  9
$UCSORTHOREF
  2

  9
$UCSORTHOVIEW
 70
     0
  9
$UCSORGTOP
 10
0.0
 20
0.0
 30
0.0
  9
$UCSORGBOTTOM
 10
0.0
 20
0.0
 30
0.0
  9
$UCSORGLEFT
 10
0.0
 20
0.0
 30
0.0
  9
$UCSORGRIGHT
 10
0.0
 20
0.0
 30
0.0
  9
$UCSORGFRONT
 10
0.0
 20
0.0
 30
0.0
  9
$UCSORGBACK
 10
0.0
 20
0.0
 30
0.0
  9
$PUCSBASE
  2

  9
$PUCSNAME
  2

  9
$PUCSORG
 10
0.0
 20
0.0
 30
0.0
  9
$PUCSXDIR
 10
1.0
 20
0.0
 30
0.0
  9
$PUCSYDIR
 10
0.0
 20
1.0
 30
0.0
  9
$PUCSORTHOREF
  2

  9
$PUCSORTHOVIEW
 70
     0
  9
$PUCSORGTOP
 10
0.0
 20
0.0
 30
0.0
  9
$PUCSORGBOTTOM
 10
0.0
 20
0.0
 30
0.0
  9
$PUCSORGLEFT
 10
0.0
 20
0.0
 30
0.0
  9
$PUCSORGRIGHT
 10
0.0
 20
0.0
 30
0.0
  9
$PUCSORGFRONT
 10
0.0
 20
0.0
 30
0.0
  9
$PUCSORGBACK
 10
0.0
 20
0.0
 30
0.0
  9
$USERI1
 70
     0
  9
$USERI2
 70
     0
  9
$USERI3
 70
     0
  9
$USERI4
 70
     0
  9
$USERI5
 70
     0
  9
$USERR1
 40
0.0
  9
$USERR2
 40
0.0
  9
$USERR3
 40
0.0
  9
$USERR4
 40
0.0
  9
$USERR5
 40
0.0
  9
$WORLDVIEW
 70
     1
  9
$SHADEDGE
 70
     3
  9
$SHADEDIF
 70
    70
  9
$TILEMODE
 70
     1
  9
$MAXACTVP
 70
    64
  9
$PINSBASE
 10
0.0
 20
0.0
 30
0.0
  9
$PLIMCHECK
 70
     0
  9
$PEXTMIN
 10
1.000000000000000E+20
 20
1.000000000000000E+20
 30
1.000000000000000E+20
  9
$PEXTMAX
 10
-1.000000000000000E+20
 20
-1.000000000000000E+20
 30
-1.000000000000000E+20
  9
$PLIMMIN
 10
0.0
 20
0.0
  9
$PLIMMAX
 10
420.0
 20
297.0
  9
$UNITMODE
 70
     0
  9
$VISRETAIN
 70
     1
  9
$PLINEGEN
 70
     0
  9
$PSLTSCALE
 70
     1
  9
$TREEDEPTH
 70
  3020
  9
$CMLSTYLE
  2
Standard
  9
$CMLJUST
 70
     0
  9
$CMLSCALE
 40
1.0
  9
$PROXYGRAPHICS
 70
     1
  9
$MEASUREMENT
 70
     0
  9
$CELWEIGHT
370
    -1
  9
$ENDCAPS
280
     0
  9
$JOINSTYLE
280
     0
  9
$LWDISPLAY
290
     0
  9
$INSUNITS
 70
     0
  9
$HYPERLINKBASE
  1

  9
$STYLESHEET
  1

  9
$XEDIT
290
     1
  9
$CEPSNTYPE
380
     0
  9
$PSTYLEMODE
290
     1
  9
$FINGERPRINTGUID
  2
{225504FF-8C84-4228-B50E-57BD89B3656F}
  9
$VERSIONGUID
  2
{7362596F-8DB8-416F-93EF-1D9152582BC8}
  9
$EXTNAMES
290
     1
  9
$PSVPSCALE
 40
0.0
  9
$OLESTARTUP
290
     0
  0
ENDSEC
  0
SECTION
  2
CLASSES
  0
CLASS
  1
ACDBDICTIONARYWDFLT
  2
AcDbDictionaryWithDefault
  3
AutoCAD 2000
 90
        0
280
     0
281
     0
  0
CLASS
  1
ACDBPLACEHOLDER
  2
AcDbPlaceHolder
  3
AutoCAD 2000
 90
        0
280
     0
281
     0
  0
CLASS
  1
LAYOUT
  2
AcDbLayout
  3
AutoCAD 2000
 90
        0
280
     0
281
     0
  0
CLASS
  1
DICTIONARYVAR
  2
AcDbDictionaryVar
  3
AutoCAD 2000
 90
        0
280
     0
281
     0
  0
ENDSEC
  0
SECTION
  2
TABLES
  0
TABLE
  2
VPORT
  5
1B24
330
0
100
AcDbSymbolTable
 70
     2
  0
VPORT
  5
1DB6
330
1B24
100
AcDbSymbolTableRecord
100
AcDbViewportTableRecord
  2
*Active
 70
     0
 10
0.0
 20
0.0
 11
1.0
 21
1.0
 12
194.0698874431663
 22
148.1301852053948
 13
0.0
 23
0.0
 14
2.5
 24
2.5
 15
10.0
 25
10.0
 16
0.0
 26
0.0
 36
1.0
 17
0.0
 27
0.0
 37
0.0
 40
156.8907348157497
 41
1.182835820895522
 42
50.0
 43
0.0
 44
0.0
 50
0.0
 51
0.0
 71
     0
 72
   100
 73
     1
 74
     3
 75
     0
 76
     0
 77
     0
 78
     0
281
     0
 65
     1
110
0.0
120
0.0
130
0.0
111
1.0
121
0.0
131
0.0
112
0.0
122
1.0
132
0.0
 79
     0
146
0.0
  0
ENDTAB
  0
TABLE
  2
LTYPE
  5
1B21
330
0
100
AcDbSymbolTable
 70
     4
  0
LTYPE
  5
1B2F
330
1B21
100
AcDbSymbolTableRecord
100
AcDbLinetypeTableRecord
  2
ByBlock
 70
     0
  3

 72
    65
 73
     0
 40
0.0
  0
LTYPE
  5
1B30
330
1B21
100
AcDbSymbolTableRecord
100
AcDbLinetypeTableRecord
  2
ByLayer
 70
     0
  3

 72
    65
 73
     0
 40
0.0
  0
LTYPE
  5
1B31
330
1B21
100
AcDbSymbolTableRecord
100
AcDbLinetypeTableRecord
  2
CONTINUOUS
 70
     0
  3
Solid line
 72
    65
 73
     0
 40
0.0
  0
LTYPE
  5
1B40
330
1B21
100
AcDbSymbolTableRecord
100
AcDbLinetypeTableRecord
  2
CENTER
 70
     0
  3
Center ____ _ ____ _ ____ _ ____ _ ____ _ ____
 72
    65
 73
     4
 40
50.8
 49
31.75
 74
     0
 49
-6.349999999999997
 74
     0
 49
6.349999999999997
 74
     0
 49
-6.349999999999997
 74
     0
  0
LTYPE
  5
1B41
330
1B21
100
AcDbSymbolTableRecord
100
AcDbLinetypeTableRecord
  2
DIVIDE
 70
     0
  3
__ . . __ . . 
 72
    65
 73
     6
 40
3.824461106059731
 49
1.529784442423893
 74
     0
 49
-0.7648922212119463
 74
     0
 49
0.0
 74
     0
 49
-0.7648922212119463
 74
     0
 49
0.0
 74
     0
 49
-0.7648922212119463
 74
     0
  0
LTYPE
  5
1B42
330
1B21
100
AcDbSymbolTableRecord
100
AcDbLinetypeTableRecord
  2
PHANTOM
 70
     0
  3
_____ _ _ _____ _ _ 
 72
    65
 73
     6
 40
7.648922212119462
 49
3.824461106059731
 74
     0
 49
-0.7648922212119463
 74
     0
 49
0.7648922212119463
 74
     0
 49
-0.7648922212119463
 74
     0
 49
0.7648922212119463
 74
     0
 49
-0.7648922212119463
 74
     0
  0
ENDTAB
  0
TABLE
  2
LAYER
  5
1B1E
330
0
100
AcDbSymbolTable
 70
     4
  0
LAYER
  5
1B2C
330
1B1E
100
AcDbSymbolTableRecord
100
AcDbLayerTableRecord
  2
0
 70
     0
 62
     7
  6
CONTINUOUS
370
    -3
390
1B2B
  0
LAYER
  5
1B3E
330
1B1E
100
AcDbSymbolTableRecord
100
AcDbLayerTableRecord
  2
AM_0
 70
     0
 62
     7
  6
CONTINUOUS
370
    -3
390
1B2B
  0
LAYER
  5
1B43
330
1B1E
100
AcDbSymbolTableRecord
100
AcDbLayerTableRecord
  2
1
 70
     0
 62
     7
  6
CONTINUOUS
370
    -3
390
1B2B
  0
LAYER
  5
1D80
330
1B1E
100
AcDbSymbolTableRecord
100
AcDbLayerTableRecord
  2
LAYER_1
 70
     0
 62
     5
  6
CONTINUOUS
370
    -3
390
1B2B
  0
ENDTAB
  0
TABLE
  2
STYLE
  5
1B1F
330
0
100
AcDbSymbolTable
 70
     1
  0
STYLE
  5
1B2D
330
1B1F
100
AcDbSymbolTableRecord
100
AcDbTextStyleTableRecord
  2
STANDARD
 70
     0
 40
0.0
 41
1.0
 50
0.0
 71
     0
 42
2.5
  3
ISOCP.SHX
  4

  0
ENDTAB
  0
TABLE
  2
VIEW
  5
1B22
330
0
100
AcDbSymbolTable
 70
     0
  0
ENDTAB
  0
TABLE
  2
UCS
  5
1B23
330
0
100
AcDbSymbolTable
 70
     0
  0
ENDTAB
  0
TABLE
  2
APPID
  5
1B25
330
0
100
AcDbSymbolTable
 70
    13
  0
APPID
  5
1B2E
330
1B25
100
AcDbSymbolTableRecord
100
AcDbRegAppTableRecord
  2
ACAD
 70
     0
  0
APPID
  5
1B44
330
1B25
100
AcDbSymbolTableRecord
100
AcDbRegAppTableRecord
  2
GENIUS_GENDIM_13
 70
     0
  0
APPID
  5
1B45
330
1B25
100
AcDbSymbolTableRecord
100
AcDbRegAppTableRecord
  2
GENIUS_GENDTOL_13
 70
     0
  0
APPID
  5
1B46
330
1B25
100
AcDbSymbolTableRecord
100
AcDbRegAppTableRecord
  2
GENIUS_GE3DTOL_13
 70
     0
  0
APPID
  5
1B47
330
1B25
100
AcDbSymbolTableRecord
100
AcDbRegAppTableRecord
  2
MCAD_NO_VIS
 70
     0
  0
APPID
  5
1B48
330
1B25
100
AcDbSymbolTableRecord
100
AcDbRegAppTableRecord
  2
ACAD_TEMP_GRAPHIC
 70
     0
  0
APPID
  5
1B49
330
1B25
100
AcDbSymbolTableRecord
100
AcDbRegAppTableRecord
  2
AD_DRAW
 70
     0
  0
APPID
  5
1B4A
330
1B25
100
AcDbSymbolTableRecord
100
AcDbRegAppTableRecord
  2
ACATTRIBSERVICES
 70
     0
  0
APPID
  5
1B4B
330
1B25
100
AcDbSymbolTableRecord
100
AcDbRegAppTableRecord
  2
ASURF_PCURVE_APPNAME
 70
     0
  0
APPID
  5
1B4C
330
1B25
100
AcDbSymbolTableRecord
100
AcDbRegAppTableRecord
  2
DESIGNERASSEMBLIES
 70
     0
  0
APPID
  5
1B4D
330
1B25
100
AcDbSymbolTableRecord
100
AcDbRegAppTableRecord
  2
ACADM_DIM_EDIT
 70
     0
  0
APPID
  5
1B4E
330
1B25
100
AcDbSymbolTableRecord
100
AcDbRegAppTableRecord
  2
G3V_ENTHND
 70
     0
  0
APPID
  5
1B4F
330
1B25
100
AcDbSymbolTableRecord
100
AcDbRegAppTableRecord
  2
GENIUS_GENDIMSH_14
 70
     0
  0
ENDTAB
  0
TABLE
  2
DIMSTYLE
  5
1B26
330
0
100
AcDbSymbolTable
 70
     2
100
AcDbDimStyleTable
 71
     0
  0
DIMSTYLE
105
1B50
330
1B26
100
AcDbSymbolTableRecord
100
AcDbDimStyleTableRecord
  2
ISO-25
 70
     0
 41
2.5
 42
0.625
 43
3.75
 44
1.25
 73
     0
 74
     0
 77
     1
 78
     8
140
2.5
141
2.5
143
0.03937007874016
147
0.625
171
     3
172
     1
271
     2
272
     2
274
     3
279
     2
284
     8
285
     8
286
     8
340
1B2D
  0
DIMSTYLE
105
1D81
330
1B26
100
AcDbSymbolTableRecord
100
AcDbDimStyleTableRecord
  2
Standard
 70
     0
340
1B2D
  0
ENDTAB
  0
TABLE
  2
BLOCK_RECORD
  5
1B1D
330
0
100
AcDbSymbolTable
 70
    23
  0
BLOCK_RECORD
  5
1B3A
330
1B1D
100
AcDbSymbolTableRecord
100
AcDbBlockTableRecord
  2
*Model_Space
340
1B3D
  0
BLOCK_RECORD
  5
1B36
330
1B1D
100
AcDbSymbolTableRecord
100
AcDbBlockTableRecord
  2
*Paper_Space
340
1B39
  0
BLOCK_RECORD
  5
1B52
330
1B1D
100
AcDbSymbolTableRecord
100
AcDbBlockTableRecord
  2
$MODEL_SPACE
340
0
  0
BLOCK_RECORD
  5
1B55
330
1B1D
100
AcDbSymbolTableRecord
100
AcDbBlockTableRecord
  2
$PAPER_SPACE
340
0
  0
BLOCK_RECORD
  5
1D14
330
1B1D
100
AcDbSymbolTableRecord
100
AcDbBlockTableRecord
  2
AI9-BLK14
340
0
310
2800000020000000200000000100080000000000000400000000000000000000000000000000000000000000000080000080000000808000800000008000800080800000C0C0C000C0DCC000F0CAA6000020400000206000002080000020A0000020C0000020E00000400000004020000040400000406000004080000040A0
310
000040C0000040E00000600000006020000060400000606000006080000060A0000060C0000060E00000800000008020000080400000806000008080000080A0000080C0000080E00000A0000000A0200000A0400000A0600000A0800000A0A00000A0C00000A0E00000C0000000C0200000C0400000C0600000C0800000C0
310
A00000C0C00000C0E00000E0000000E0200000E0400000E0600000E0800000E0A00000E0C00000E0E00040000000400020004000400040006000400080004000A0004000C0004000E00040200000402020004020400040206000402080004020A0004020C0004020E000404000004040200040404000404060004040800040
310
40A0004040C0004040E00040600000406020004060400040606000406080004060A0004060C0004060E00040800000408020004080400040806000408080004080A0004080C0004080E00040A0000040A0200040A0400040A0600040A0800040A0A00040A0C00040A0E00040C0000040C0200040C0400040C0600040C08000
310
40C0A00040C0C00040C0E00040E0000040E0200040E0400040E0600040E0800040E0A00040E0C00040E0E00080000000800020008000400080006000800080008000A0008000C0008000E00080200000802020008020400080206000802080008020A0008020C0008020E00080400000804020008040400080406000804080
310
008040A0008040C0008040E00080600000806020008060400080606000806080008060A0008060C0008060E00080800000808020008080400080806000808080008080A0008080C0008080E00080A0000080A0200080A0400080A0600080A0800080A0A00080A0C00080A0E00080C0000080C0200080C0400080C0600080C0
310
800080C0A00080C0C00080C0E00080E0000080E0200080E0400080E0600080E0800080E0A00080E0C00080E0E000C0000000C0002000C0004000C0006000C0008000C000A000C000C000C000E000C0200000C0202000C0204000C0206000C0208000C020A000C020C000C020E000C0400000C0402000C0404000C0406000C0
310
408000C040A000C040C000C040E000C0600000C0602000C0604000C0606000C0608000C060A000C060C000C060E000C0800000C0802000C0804000C0806000C0808000C080A000C080C000C080E000C0A00000C0A02000C0A04000C0A06000C0A08000C0A0A000C0A0C000C0A0E000C0C00000C0C02000C0C04000C0C06000
310
C0C08000C0C0A000F0FBFF00A4A0A000808080000000FF0000FF000000FFFF00FF000000FF00FF00FFFF0000FFFFFF00FF00FFFFFFFF00FFFFFFFFFFFFFFFFFFFFFFFFFFFFFFFFFFFFFFFFFFFFFFFFFFFF00FFFFFFFF00FFFFFFFFFFFFFFFFFFFFFFFFFFFFFFFFFFFFFFFFFFFFFFFFFFFF00FFFFFFFF00FFFFFFFFFFFFFFFF
310
FFFFFFFFFFFFFFFFFFFFFFFFFFFFFFFFFFFF00FFFFFFFF00FFFFFFFFFFFFFFFFFFFFFFFFFFFFFFFFFFFFFFFFFFFFFFFFFFFF00FFFFFFFF00FFFFFFFFFFFFFFFFFFFFFFFFFFFFFFFFFFFFFFFFFFFFFFFFFFFF00FFFFFFFF00FFFFFFFFFFFFFFFFFFFFFFFFFFFFFFFFFFFFFFFFFFFFFFFFFFFF00FFFFFFFF00FFFFFFFFFFFFFF
310
FFFFFFFFFFFFFFFFFFFFFFFFFFFFFFFFFFFFFF00FFFFFFFF00FFFFFFFFFFFFFFFFFFFFFFFFFFFFFFFFFFFFFFFFFFFFFFFFFFFF00FFFFFFFF00FFFFFFFFFFFFFFFFFFFFFFFFFFFFFFFFFFFFFFFFFFFFFFFFFFFF00FFFFFFFF00FFFFFFFFFFFFFFFFFFFFFFFFFFFFFFFFFFFFFFFFFFFFFFFFFFFF00FFFFFFFF00FFFFFFFFFFFF
310
FFFFFFFFFFFFFFFFFFFFFFFFFFFFFFFFFFFFFFFF00FFFFFFFF00FFFFFFFFFFFFFFFFFFFFFFFFFFFFFFFFFFFFFFFFFFFFFFFFFFFF00FFFFFFFF00FFFFFFFFFFFFFFFFFFFFFFFFFFFFFFFFFFFFFFFFFFFFFFFFFFFF00FFFFFFFF0000000000000000000000000000000000000000000000000000FF00FFFFFFFFFFFFFFFFFFFF
310
FFFFFFFFFFFFFFFFFFFFFFFFFFFFFFFFFFFFFFFFFF00FFFFFFFFFFFFFFFFFFFFFFFFFFFFFFFFFFFFFFFFFFFFFFFFFFFFFFFFFFFFFF00FFFFFFFFFFFFFFFFFFFFFFFFFFFFFFFFFFFFFFFFFFFFFFFFFFFFFFFFFFFFFF00FFFFFFFFFFFFFFFFFFFFFFFFFFFFFFFFFFFFFFFFFFFFFFFFFFFFFFFFFF00FF00000000000000000000
310
0000000000000000000000000000000000000000FFFFFFFFFFFFFFFFFFFFFFFFFFFFFFFFFFFFFFFFFFFFFFFFFFFFFFFFFFFFFFFFFFFFFFFFFFFFFFFFFFFFFFFFFFFFFFFFFFFFFFFFFFFFFFFFFFFFFFFFFFFFFFFFFFFFFFFFFFFFFFFFFFFFFFFFFFFFFFFFFFFFFFFFFFFFFFFFFFFFFFFFFFFFFFFFFFFFFFFFFFFFFFFFFFFFFF
310
FFFFFFFFFFFFFFFFFFFFFFFFFFFFFFFFFFFFFFFFFFFFFFFFFFFFFFFFFFFFFFFFFFFFFFFFFFFFFFFFFFFFFFFFFFFFFFFFFFFFFFFFFFFFFFFFFFFFFFFFFFFFFFFFFFFFFFFFFFFFFFFFFFFFFFFFFFFFFFFFFFFFFFFFFFFFFFFFFFFFFFFFFFFFFFFFFFFFFFFFFFFFFFFFFFFFFFFFFFFFFFFFFFFFFFFFFFFFFFFFFFFFFFFFFFFFFF
310
FFFFFFFFFFFFFFFFFFFFFFFFFFFFFFFFFFFFFFFFFFFFFFFFFFFFFFFFFFFFFFFFFFFFFFFFFFFFFFFFFFFFFFFFFFFFFFFFFFFFFFFFFFFFFFFFFFFFFFFFFFFFFFFFFFFFFFFFFFFFFFFFFFFFFFFFFFFFFFFFFFFFFFFFFFFFFFFFFFFFFFFFFFFFFFFFFFFFFFFFFFFFFFFFFFFFFFFFFFFFFFFFFFFFFFFFFFFFFFFFFFFFFFFFFFFFFF
310
FFFFFFFFFFFFFFFFFFFFFFFFFFFFFFFFFFFFFFFFFFFFFFFFFFFFFFFFFFFFFFFFFFFFFFFFFFFFFFFFFFFFFFFFFFFFFFFFFFFFFFFFFFFFFFFF
102
{BLKREFS
331
1D55
102
}
  0
BLOCK_RECORD
  5
1D19
330
1B1D
100
AcDbSymbolTableRecord
100
AcDbBlockTableRecord
  2
AI9-BLK13
340
0
310
2800000020000000200000000100080000000000000400000000000000000000000000000000000000000000000080000080000000808000800000008000800080800000C0C0C000C0DCC000F0CAA6000020400000206000002080000020A0000020C0000020E00000400000004020000040400000406000004080000040A0
310
000040C0000040E00000600000006020000060400000606000006080000060A0000060C0000060E00000800000008020000080400000806000008080000080A0000080C0000080E00000A0000000A0200000A0400000A0600000A0800000A0A00000A0C00000A0E00000C0000000C0200000C0400000C0600000C0800000C0
310
A00000C0C00000C0E00000E0000000E0200000E0400000E0600000E0800000E0A00000E0C00000E0E00040000000400020004000400040006000400080004000A0004000C0004000E00040200000402020004020400040206000402080004020A0004020C0004020E000404000004040200040404000404060004040800040
310
40A0004040C0004040E00040600000406020004060400040606000406080004060A0004060C0004060E00040800000408020004080400040806000408080004080A0004080C0004080E00040A0000040A0200040A0400040A0600040A0800040A0A00040A0C00040A0E00040C0000040C0200040C0400040C0600040C08000
310
40C0A00040C0C00040C0E00040E0000040E0200040E0400040E0600040E0800040E0A00040E0C00040E0E00080000000800020008000400080006000800080008000A0008000C0008000E00080200000802020008020400080206000802080008020A0008020C0008020E00080400000804020008040400080406000804080
310
008040A0008040C0008040E00080600000806020008060400080606000806080008060A0008060C0008060E00080800000808020008080400080806000808080008080A0008080C0008080E00080A0000080A0200080A0400080A0600080A0800080A0A00080A0C00080A0E00080C0000080C0200080C0400080C0600080C0
310
800080C0A00080C0C00080C0E00080E0000080E0200080E0400080E0600080E0800080E0A00080E0C00080E0E000C0000000C0002000C0004000C0006000C0008000C000A000C000C000C000E000C0200000C0202000C0204000C0206000C0208000C020A000C020C000C020E000C0400000C0402000C0404000C0406000C0
310
408000C040A000C040C000C040E000C0600000C0602000C0604000C0606000C0608000C060A000C060C000C060E000C0800000C0802000C0804000C0806000C0808000C080A000C080C000C080E000C0A00000C0A02000C0A04000C0A06000C0A08000C0A0A000C0A0C000C0A0E000C0C00000C0C02000C0C04000C0C06000
310
C0C08000C0C0A000F0FBFF00A4A0A000808080000000FF0000FF000000FFFF00FF000000FF00FF00FFFF0000FFFFFF00FFFFFFFFFFFFFFFFFFFFFFFFFFFFFFFFFFFFFFFFFFFFFFFFFFFFFFFFFFFFFFFFFFFFFFFFFFFFFFFFFFFFFF0000FFFFFFFFFFFF0000FFFFFFFFFFFFFFFFFFFFFFFFFFFFFFFFFFFFFFFFFFFF0000FFFF
310
FFFFFFFF0000FFFFFFFFFFFFFFFFFFFFFFFFFFFFFFFFFFFFFFFFFFFF0000FFFFFFFFFFFF0000FFFFFFFFFFFFFFFFFFFFFFFFFFFFFFFFFFFFFFFFFFFF0000FFFFFFFFFFFF0000FFFFFFFFFFFFFFFFFFFFFFFFFFFFFFFFFFFFFFFFFFFF0000FFFFFFFFFFFF0000FFFFFFFFFFFFFFFFFFFFFFFFFFFFFFFFFFFFFFFFFFFF0000FF
310
FFFFFFFFFF0000FFFFFFFFFFFFFFFFFFFFFFFFFFFFFFFFFFFFFFFFFFFF0000FFFFFFFFFFFF0000FFFFFFFFFFFFFFFFFFFFFFFFFFFFFFFFFFFFFFFFFFFF0000FFFFFFFFFFFF0000FFFFFFFFFFFFFFFFFFFFFFFFFFFFFFFFFFFFFFFFFFFF0000FFFFFFFFFFFF0000FFFFFFFFFFFFFFFFFFFFFFFFFFFFFFFFFFFFFFFFFFFF0000
310
FFFFFFFFFFFF0000FFFFFFFFFFFFFFFFFFFFFFFFFFFFFFFFFFFFFFFFFFFF0000FFFFFFFFFFFF0000FFFFFFFFFFFFFFFFFFFFFFFFFFFFFFFFFFFFFFFFFFFF0000FFFFFFFFFFFF0000FFFFFFFFFFFFFFFFFFFFFFFFFFFFFFFFFFFFFFFFFFFF0000FFFFFFFFFFFF0000FFFFFFFFFFFFFFFFFFFFFFFFFFFFFFFFFFFFFFFFFFFF00
310
00FFFFFFFFFFFF0000FFFFFFFFFFFFFFFFFFFFFFFFFFFFFFFFFFFFFFFFFFFF00000000000000000000FFFFFFFFFFFFFFFFFFFFFFFFFFFFFFFFFFFFFFFFFFFF00FFFFFFFFFFFFFFFF00FFFFFFFFFFFFFFFFFFFFFFFFFFFFFFFFFFFFFFFFFFFF00FFFFFFFFFFFFFFFF00FFFFFFFFFFFFFFFFFFFFFFFFFFFFFFFFFFFFFFFFFFFF
310
00000000000000000000FFFFFFFFFFFFFFFFFFFFFFFFFFFFFFFFFFFFFFFFFFFF0000FFFFFFFFFFFF0000FFFFFFFFFFFFFFFFFFFFFFFFFFFFFFFFFFFFFFFFFFFF0000FFFFFFFFFFFF0000FFFFFFFFFFFFFFFFFFFFFFFFFFFFFFFFFFFFFFFFFFFF0000FFFFFFFFFFFF0000FFFFFFFFFFFFFFFFFFFFFFFFFFFFFFFFFFFFFFFFFF
310
FF0000FFFFFFFFFFFF0000FFFFFFFFFFFFFFFFFFFFFFFFFFFFFFFFFFFFFFFFFFFF0000FFFFFFFFFFFF0000FFFFFFFFFFFFFFFFFFFFFFFFFFFFFFFFFFFFFFFFFFFF0000FFFFFFFFFFFF0000FFFFFFFFFFFFFFFFFFFFFFFFFFFFFFFFFFFFFFFFFFFF0000FFFFFFFFFFFF0000FFFFFFFFFFFFFFFFFFFFFFFFFFFFFFFFFFFFFFFF
310
FFFF0000FFFFFFFFFFFF0000FFFFFFFFFFFFFFFFFFFFFFFFFFFFFFFFFFFFFFFFFFFF0000FFFFFFFFFFFF0000FFFFFFFFFFFFFFFFFFFFFFFFFFFFFFFFFFFFFFFFFFFF0000FFFFFFFFFFFF0000FFFFFFFFFFFFFFFFFFFFFFFFFFFFFFFFFFFFFFFFFFFF0000FFFFFFFFFFFF0000FFFFFFFFFFFFFFFFFFFFFFFFFFFFFFFFFFFFFF
310
FFFFFF0000FFFFFFFFFFFF0000FFFFFFFFFFFFFFFFFFFFFFFFFFFFFFFFFFFFFFFFFFFFFFFFFFFFFFFFFFFFFFFFFFFFFFFFFFFFFFFFFFFFFF
102
{BLKREFS
331
1D56
102
}
  0
BLOCK_RECORD
  5
1D1E
330
1B1D
100
AcDbSymbolTableRecord
100
AcDbBlockTableRecord
  2
AI9-BLK11
340
0
310
2800000020000000200000000100080000000000000400000000000000000000000000000000000000000000000080000080000000808000800000008000800080800000C0C0C000C0DCC000F0CAA6000020400000206000002080000020A0000020C0000020E00000400000004020000040400000406000004080000040A0
310
000040C0000040E00000600000006020000060400000606000006080000060A0000060C0000060E00000800000008020000080400000806000008080000080A0000080C0000080E00000A0000000A0200000A0400000A0600000A0800000A0A00000A0C00000A0E00000C0000000C0200000C0400000C0600000C0800000C0
310
A00000C0C00000C0E00000E0000000E0200000E0400000E0600000E0800000E0A00000E0C00000E0E00040000000400020004000400040006000400080004000A0004000C0004000E00040200000402020004020400040206000402080004020A0004020C0004020E000404000004040200040404000404060004040800040
310
40A0004040C0004040E00040600000406020004060400040606000406080004060A0004060C0004060E00040800000408020004080400040806000408080004080A0004080C0004080E00040A0000040A0200040A0400040A0600040A0800040A0A00040A0C00040A0E00040C0000040C0200040C0400040C0600040C08000
310
40C0A00040C0C00040C0E00040E0000040E0200040E0400040E0600040E0800040E0A00040E0C00040E0E00080000000800020008000400080006000800080008000A0008000C0008000E00080200000802020008020400080206000802080008020A0008020C0008020E00080400000804020008040400080406000804080
310
008040A0008040C0008040E00080600000806020008060400080606000806080008060A0008060C0008060E00080800000808020008080400080806000808080008080A0008080C0008080E00080A0000080A0200080A0400080A0600080A0800080A0A00080A0C00080A0E00080C0000080C0200080C0400080C0600080C0
310
800080C0A00080C0C00080C0E00080E0000080E0200080E0400080E0600080E0800080E0A00080E0C00080E0E000C0000000C0002000C0004000C0006000C0008000C000A000C000C000C000E000C0200000C0202000C0204000C0206000C0208000C020A000C020C000C020E000C0400000C0402000C0404000C0406000C0
310
408000C040A000C040C000C040E000C0600000C0602000C0604000C0606000C0608000C060A000C060C000C060E000C0800000C0802000C0804000C0806000C0808000C080A000C080C000C080E000C0A00000C0A02000C0A04000C0A06000C0A08000C0A0A000C0A0C000C0A0E000C0C00000C0C02000C0C04000C0C06000
310
C0C08000C0C0A000F0FBFF00A4A0A000808080000000FF0000FF000000FFFF00FF000000FF00FF00FFFF0000FFFFFF00FFFFFFFFFFFFFFFFFFFFFFFFFFFFFFFFFFFFFFFFFFFFFFFFFFFFFFFFFFFFFFFFFFFFFFFFFFFFFFFFFFFFFFFFFFFF00000000FFFFFFFFFFFFFFFFFFFFFF000000FFFFFFFFFFFFFFFFFFFFFFFFFFFF00
310
FFFF00FFFFFFFFFFFFFFFFFFFFFF00FFFFFFFFFFFFFFFFFFFFFFFFFFFFFFFF00FFFF00FFFFFFFFFFFFFFFFFFFFFF00FFFFFFFFFFFFFFFFFFFFFFFFFFFFFFFF00FFFF00FFFFFFFFFFFFFFFFFFFFFF00FFFFFFFFFFFFFFFFFFFFFFFFFFFFFFFF00FFFF00FFFFFFFFFFFFFFFFFFFFFF00FFFFFFFFFFFFFFFFFFFFFFFFFFFFFFFF
310
00FFFF00FFFFFFFFFFFFFFFFFFFFFF00FFFFFFFFFFFFFFFFFFFFFFFFFFFFFFFF00FFFF00FFFFFFFFFFFFFFFFFFFFFF00FFFFFFFFFFFFFFFFFFFFFFFFFFFFFFFF00FFFF00FFFFFFFFFFFFFFFFFFFFFF00FFFFFFFFFFFFFFFFFFFFFFFFFFFFFFFF00FFFF00FFFFFFFFFFFFFFFFFFFFFF00FFFFFFFFFFFFFFFFFFFFFFFFFFFFFF
310
FF00FFFF00FFFFFFFFFFFFFFFFFFFFFF00FFFFFFFFFFFFFFFFFFFFFFFFFFFFFFFF00FFFF00FFFFFFFFFFFFFFFFFFFFFF00FFFFFFFFFFFFFFFFFFFFFFFFFFFFFFFF00FFFF00FFFFFFFFFFFFFFFFFFFFFF00FFFFFFFFFFFFFFFFFFFFFFFFFFFFFFFF00FFFF00FFFFFFFFFFFFFFFFFFFFFF00FFFFFFFFFFFFFFFFFFFFFFFFFFFF
310
FFFF00FFFF00FFFFFFFFFFFFFFFFFFFFFF00FFFFFFFFFFFFFFFFFFFFFFFFFFFFFFFF00FFFF00FFFFFFFFFFFFFFFFFFFFFF00FFFFFFFFFFFFFFFFFFFFFFFFFFFFFFFF00FFFF00FFFFFFFFFFFFFFFFFFFFFF00FFFFFFFFFFFFFFFFFFFFFFFFFFFFFFFF00FFFF00FFFFFFFFFFFFFFFFFFFF00FFFFFFFFFFFFFFFFFFFFFFFFFFFF
310
FFFFFF00FFFF00FFFFFFFFFFFFFFFFFFFF00FFFFFFFFFFFFFFFFFFFFFFFFFFFFFFFFFF00FFFF00FFFFFFFFFFFFFFFFFFFF00FFFFFFFFFFFFFFFFFFFFFFFFFFFFFFFFFF00FFFF00FFFFFFFFFFFFFFFFFFFF00FFFFFFFFFFFFFFFFFFFFFFFFFFFFFFFFFF00FFFF00FFFFFFFFFFFFFFFFFFFF00FFFFFFFFFFFFFFFFFFFFFFFFFF
310
FFFFFFFF00FFFF00FFFFFFFFFFFFFFFFFF0000FFFF00FFFFFFFFFFFFFFFFFFFFFFFFFFFF00FFFF00FFFFFFFFFFFFFFFF0000FFFFFF00FFFFFFFFFFFFFFFFFFFFFFFFFFFF00FFFF00000000000000000000FFFFFFFF00FFFFFFFFFFFFFFFFFFFFFFFFFFFF00FFFFFFFFFFFFFFFFFFFFFFFFFFFFFF00FFFFFFFFFFFFFFFFFFFF
310
FFFFFFFFFF00FFFFFFFFFFFFFFFFFFFFFFFFFFFF00FFFFFFFFFFFFFFFFFFFFFFFFFFFFFFFF00FFFFFFFFFFFFFFFFFFFFFFFFFFFF00FFFFFFFFFFFFFFFFFFFFFFFFFFFFFFFF00FFFFFFFFFFFFFFFFFFFFFFFFFFFFFF00FFFFFFFFFFFFFFFFFFFFFFFFFFFFFF00FFFFFFFFFFFFFFFFFFFFFFFFFFFFFF00FFFFFFFFFFFFFFFFFF
310
FFFFFFFFFFFF00FFFF00000000000000000000FFFFFFFF00FFFFFFFFFFFFFFFFFFFFFFFFFFFF00FFFF00FFFFFFFFFFFFFFFFFF0000FFFF00
102
{BLKREFS
331
1D57
102
}
  0
BLOCK_RECORD
  5
1D23
330
1B1D
100
AcDbSymbolTableRecord
100
AcDbBlockTableRecord
  2
AI9-BLK10
340
0
310
2800000020000000200000000100080000000000000400000000000000000000000000000000000000000000000080000080000000808000800000008000800080800000C0C0C000C0DCC000F0CAA6000020400000206000002080000020A0000020C0000020E00000400000004020000040400000406000004080000040A0
310
000040C0000040E00000600000006020000060400000606000006080000060A0000060C0000060E00000800000008020000080400000806000008080000080A0000080C0000080E00000A0000000A0200000A0400000A0600000A0800000A0A00000A0C00000A0E00000C0000000C0200000C0400000C0600000C0800000C0
310
A00000C0C00000C0E00000E0000000E0200000E0400000E0600000E0800000E0A00000E0C00000E0E00040000000400020004000400040006000400080004000A0004000C0004000E00040200000402020004020400040206000402080004020A0004020C0004020E000404000004040200040404000404060004040800040
310
40A0004040C0004040E00040600000406020004060400040606000406080004060A0004060C0004060E00040800000408020004080400040806000408080004080A0004080C0004080E00040A0000040A0200040A0400040A0600040A0800040A0A00040A0C00040A0E00040C0000040C0200040C0400040C0600040C08000
310
40C0A00040C0C00040C0E00040E0000040E0200040E0400040E0600040E0800040E0A00040E0C00040E0E00080000000800020008000400080006000800080008000A0008000C0008000E00080200000802020008020400080206000802080008020A0008020C0008020E00080400000804020008040400080406000804080
310
008040A0008040C0008040E00080600000806020008060400080606000806080008060A0008060C0008060E00080800000808020008080400080806000808080008080A0008080C0008080E00080A0000080A0200080A0400080A0600080A0800080A0A00080A0C00080A0E00080C0000080C0200080C0400080C0600080C0
310
800080C0A00080C0C00080C0E00080E0000080E0200080E0400080E0600080E0800080E0A00080E0C00080E0E000C0000000C0002000C0004000C0006000C0008000C000A000C000C000C000E000C0200000C0202000C0204000C0206000C0208000C020A000C020C000C020E000C0400000C0402000C0404000C0406000C0
310
408000C040A000C040C000C040E000C0600000C0602000C0604000C0606000C0608000C060A000C060C000C060E000C0800000C0802000C0804000C0806000C0808000C080A000C080C000C080E000C0A00000C0A02000C0A04000C0A06000C0A08000C0A0A000C0A0C000C0A0E000C0C00000C0C02000C0C04000C0C06000
310
C0C08000C0C0A000F0FBFF00A4A0A000808080000000FF0000FF000000FFFF00FF000000FF00FF00FFFF0000FFFFFF00FFFFFFFFFFFFFFFFFFFFFFFFFFFFFFFF00FFFFFFFFFFFFFFFFFFFFFFFF00FFFFFFFFFFFFFFFFFFFFFFFFFFFFFFFFFFFF00FFFFFFFFFFFFFFFFFFFFFF00FFFFFFFFFFFFFFFFFFFFFFFFFFFFFFFFFFFF
310
FF00FFFFFFFFFFFFFFFFFFFFFF00FFFFFFFFFFFFFFFFFFFFFFFFFFFFFFFFFFFFFF00FFFFFFFFFFFFFFFFFFFFFF00FFFFFFFFFFFFFFFFFFFFFFFFFFFFFFFFFFFFFF00FFFFFFFFFFFFFFFFFFFFFF00FFFFFFFFFFFFFFFFFFFFFFFFFFFFFFFFFFFFFF00FFFFFFFFFFFFFFFFFFFFFF00FFFFFFFFFFFFFFFFFFFFFFFFFFFFFFFFFF
310
FFFF00FFFFFFFFFFFFFFFFFFFFFF00FFFFFFFFFFFFFFFFFFFFFFFFFFFFFFFFFFFFFF00FFFFFFFFFFFFFFFFFFFF00FFFFFFFFFFFFFFFFFFFFFFFFFFFFFFFFFFFFFFFF00FFFFFFFFFFFFFFFFFFFF00FFFFFFFFFFFFFFFFFFFFFFFFFFFFFFFFFFFFFFFF00FFFFFFFFFFFFFFFFFFFF00FFFFFFFFFFFFFFFFFFFFFFFFFFFFFFFFFF
310
FFFFFF00FFFFFFFFFFFFFFFFFFFF00FFFFFFFFFFFFFFFFFFFFFFFFFFFFFFFFFFFFFFFF00FFFFFFFFFFFFFFFFFFFF00FFFFFFFFFFFFFFFFFFFFFFFFFFFFFFFFFFFFFFFF00FFFFFFFFFFFFFFFFFFFF00FFFFFFFFFFFFFFFFFFFFFFFFFFFFFFFFFFFFFFFF00FFFFFFFFFFFFFFFFFF00FFFFFFFFFFFFFFFFFFFFFFFFFFFFFFFFFF
310
FFFFFFFF00FFFFFFFFFFFFFFFFFF00FFFFFFFFFFFFFFFFFFFFFFFFFFFFFFFFFFFFFFFFFF00FFFFFFFFFFFFFFFFFF00FFFFFFFFFFFFFFFFFFFFFFFFFFFFFFFFFFFFFFFFFF0000000000000000000000FFFFFFFFFFFFFFFFFFFFFFFFFFFFFFFFFFFFFFFFFFFFFFFFFFFFFFFFFFFFFFFFFFFFFFFFFFFFFFFFFFFFFFFFFFFFFFFF
310
FFFFFFFFFFFFFFFFFFFFFFFFFFFFFFFFFFFFFFFFFFFFFFFFFFFFFFFFFFFFFFFFFFFFFFFFFFFFFFFFFFFFFFFFFFFFFFFFFFFFFFFFFFFFFFFFFFFFFFFFFFFFFFFFFFFFFFFFFFFFFFFFFFFFFFFFFFFFFFFFFFFFFFFFFFFFFFFFFFFFFFFFFFFFFFFFFFFFFFFFFFFFFFFFFFFFFFFFFFFFFFFFFFFFFFFFFFFFFFFFFFFFFFFFFFFFFF
310
FFFFFFFFFFFFFFFFFFFFFFFFFFFFFFFFFFFFFFFFFFFFFFFFFFFFFFFFFFFFFFFFFFFFFFFFFFFFFFFFFFFFFFFFFFFFFFFFFFFFFFFFFFFFFFFFFFFFFFFFFFFFFFFFFFFFFFFFFFFFFFFFFFFFFFFFFFFFFFFFFFFFFFFFFFFFFFFFFFFFFFFFFFFFFFFFFFFFFFFFFFFFFFFFFFFFFFFFFFFFFFFFFFFFFFFFFFFFFFFFFFFFFFFFFFFFFF
310
FFFFFFFFFFFFFFFFFFFFFFFFFFFFFFFFFFFFFFFFFFFFFFFFFFFFFFFFFFFFFFFFFFFFFFFFFFFFFFFFFFFFFFFFFFFFFFFFFFFFFFFFFFFFFFFFFFFFFFFFFFFFFFFFFFFFFFFFFFFFFFFFFFFFFFFFFFFFFFFFFFFFFFFFFFFFFFFFFFFFFFFFFFFFFFFFFFFFFFFFFFFFFFFFFFFFFFFFFFFFFFFFFFFFFFFFFFFFFFFFFFFFFFFFFFFFFF
310
FFFFFFFFFFFFFFFFFFFFFFFFFFFFFFFFFFFFFFFFFFFFFFFFFFFFFFFFFFFFFFFFFFFFFFFFFFFFFFFFFFFFFFFFFFFFFFFFFFFFFFFFFFFFFFFF
102
{BLKREFS
331
1D58
102
}
  0
BLOCK_RECORD
  5
1D27
330
1B1D
100
AcDbSymbolTableRecord
100
AcDbBlockTableRecord
  2
AI9-BLK9
340
0
310
2800000020000000200000000100080000000000000400000000000000000000000000000000000000000000000080000080000000808000800000008000800080800000C0C0C000C0DCC000F0CAA6000020400000206000002080000020A0000020C0000020E00000400000004020000040400000406000004080000040A0
310
000040C0000040E00000600000006020000060400000606000006080000060A0000060C0000060E00000800000008020000080400000806000008080000080A0000080C0000080E00000A0000000A0200000A0400000A0600000A0800000A0A00000A0C00000A0E00000C0000000C0200000C0400000C0600000C0800000C0
310
A00000C0C00000C0E00000E0000000E0200000E0400000E0600000E0800000E0A00000E0C00000E0E00040000000400020004000400040006000400080004000A0004000C0004000E00040200000402020004020400040206000402080004020A0004020C0004020E000404000004040200040404000404060004040800040
310
40A0004040C0004040E00040600000406020004060400040606000406080004060A0004060C0004060E00040800000408020004080400040806000408080004080A0004080C0004080E00040A0000040A0200040A0400040A0600040A0800040A0A00040A0C00040A0E00040C0000040C0200040C0400040C0600040C08000
310
40C0A00040C0C00040C0E00040E0000040E0200040E0400040E0600040E0800040E0A00040E0C00040E0E00080000000800020008000400080006000800080008000A0008000C0008000E00080200000802020008020400080206000802080008020A0008020C0008020E00080400000804020008040400080406000804080
310
008040A0008040C0008040E00080600000806020008060400080606000806080008060A0008060C0008060E00080800000808020008080400080806000808080008080A0008080C0008080E00080A0000080A0200080A0400080A0600080A0800080A0A00080A0C00080A0E00080C0000080C0200080C0400080C0600080C0
310
800080C0A00080C0C00080C0E00080E0000080E0200080E0400080E0600080E0800080E0A00080E0C00080E0E000C0000000C0002000C0004000C0006000C0008000C000A000C000C000C000E000C0200000C0202000C0204000C0206000C0208000C020A000C020C000C020E000C0400000C0402000C0404000C0406000C0
310
408000C040A000C040C000C040E000C0600000C0602000C0604000C0606000C0608000C060A000C060C000C060E000C0800000C0802000C0804000C0806000C0808000C080A000C080C000C080E000C0A00000C0A02000C0A04000C0A06000C0A08000C0A0A000C0A0C000C0A0E000C0C00000C0C02000C0C04000C0C06000
310
C0C08000C0C0A000F0FBFF00A4A0A000808080000000FF0000FF000000FFFF00FF000000FF00FF00FFFF0000FFFFFF00FFFFFFFFFFFFFFFFFFFFFFFFFFFFFFFFFFFFFFFFFFFFFFFFFFFFFFFFFFFFFFFFFFFFFFFFFFFFFFFFFFFFFFFFFFFFFF0000FFFFFFFFFFFFFFFFFFFFFFFFFFFFFFFFFFFFFFFFFFFFFFFFFFFFFFFF0000
310
FF0000FFFFFFFFFFFFFFFFFFFFFFFFFFFFFFFFFFFFFFFFFFFFFFFFFFFFFF00FFFFFF0000FFFFFFFFFFFFFFFFFFFFFFFFFFFFFFFFFFFFFFFFFFFFFFFFFFFF00FFFFFFFF0000FFFFFFFFFFFFFFFFFFFFFFFFFFFFFFFFFFFFFFFFFFFFFFFF00FF00000000FF00FFFFFFFFFFFFFFFFFFFFFFFFFFFFFFFFFFFFFFFFFFFFFFFF0000
310
00FFFF00FF00FFFFFFFFFFFFFFFFFFFFFFFFFFFFFFFFFFFFFFFFFFFFFFFF0000FFFFFFFF0000FFFFFFFFFFFFFFFFFFFFFFFFFFFFFFFFFFFFFFFFFFFFFFFF0000FFFFFFFF0000FFFFFFFFFFFFFFFFFFFFFFFFFFFFFFFFFFFFFFFFFFFFFF00FF00FFFFFFFF00FF00FFFFFFFFFFFFFFFFFFFFFFFFFFFFFFFFFFFFFFFFFFFF0000
310
FFFFFFFFFF00FF00FFFFFFFFFFFFFFFFFFFFFFFFFFFFFFFFFFFFFFFFFFFF0000FFFFFFFFFFFF0000FFFFFFFFFFFFFFFFFFFFFFFFFFFFFFFFFFFFFFFFFFFF0000FFFFFFFFFFFF0000FFFFFFFFFFFFFFFFFFFFFFFFFFFFFFFFFFFFFFFFFFFF0000FFFFFFFFFFFF0000FFFFFFFFFFFFFFFFFFFFFFFFFFFFFFFFFFFFFFFFFFFF00
310
00FFFFFFFFFFFF0000FFFFFFFFFFFFFFFFFFFFFFFFFFFFFFFFFFFFFFFFFFFF0000FFFFFFFFFFFF0000FFFFFFFFFFFFFFFFFFFFFFFFFFFFFFFFFFFFFFFFFFFF0000FFFFFFFFFFFF0000FFFFFFFFFFFFFFFFFFFFFFFFFFFFFFFFFFFFFFFFFFFF0000FFFFFFFFFFFF0000FFFFFFFFFFFFFFFFFFFFFFFFFFFFFFFFFFFFFFFFFFFF
310
0000FFFFFFFFFFFF0000FFFFFFFFFFFFFFFFFFFFFFFFFFFFFFFFFFFFFFFFFFFF0000FFFFFFFFFFFF0000FFFFFFFFFFFFFFFFFFFFFFFFFFFFFFFFFFFFFFFFFFFF0000FFFFFFFFFFFF0000FFFFFFFFFFFFFFFFFFFFFFFFFFFFFFFFFFFFFFFFFFFF00FF00FFFFFFFF00FF00FFFFFFFFFFFFFFFFFFFFFFFFFFFFFFFFFFFFFFFFFF
310
FF00FF00FFFFFFFF00FF00FFFFFFFFFFFFFFFFFFFFFFFFFFFFFFFFFFFFFFFFFFFF00FF00FFFFFFFF00FF00FFFFFFFFFFFFFFFFFFFFFFFFFFFFFFFFFFFFFFFFFFFFFF0000FFFFFFFF0000FFFFFFFFFFFFFFFFFFFFFFFFFFFFFFFFFFFFFFFFFFFFFFFF00FF00FFFF00FF00FFFFFFFFFFFFFFFFFFFFFFFFFFFFFFFFFFFFFFFFFF
310
FFFFFF00FF00000000FF00FFFFFFFFFFFFFFFFFFFFFFFFFFFFFFFFFFFFFFFFFFFFFFFFFF00FFFFFFFF0000FFFFFFFFFFFFFFFFFFFFFFFFFFFFFFFFFFFFFFFFFFFFFFFFFF00FFFFFFFF00FFFFFFFFFFFFFFFFFFFFFFFFFFFFFFFFFFFFFFFFFFFFFFFFFFFFFF00000000FFFFFFFFFFFFFFFFFFFFFFFFFFFFFFFFFFFFFFFFFFFF
310
FFFFFFFFFFFFFF0000FFFFFFFFFFFFFFFFFFFFFFFFFFFFFFFFFFFFFFFFFFFFFFFFFFFFFFFFFFFFFFFFFFFFFFFFFFFFFFFFFFFFFFFFFFFFFF
102
{BLKREFS
331
1D59
102
}
  0
BLOCK_RECORD
  5
1D2C
330
1B1D
100
AcDbSymbolTableRecord
100
AcDbBlockTableRecord
  2
AI9-BLK8
340
0
310
2800000020000000200000000100080000000000000400000000000000000000000000000000000000000000000080000080000000808000800000008000800080800000C0C0C000C0DCC000F0CAA6000020400000206000002080000020A0000020C0000020E00000400000004020000040400000406000004080000040A0
310
000040C0000040E00000600000006020000060400000606000006080000060A0000060C0000060E00000800000008020000080400000806000008080000080A0000080C0000080E00000A0000000A0200000A0400000A0600000A0800000A0A00000A0C00000A0E00000C0000000C0200000C0400000C0600000C0800000C0
310
A00000C0C00000C0E00000E0000000E0200000E0400000E0600000E0800000E0A00000E0C00000E0E00040000000400020004000400040006000400080004000A0004000C0004000E00040200000402020004020400040206000402080004020A0004020C0004020E000404000004040200040404000404060004040800040
310
40A0004040C0004040E00040600000406020004060400040606000406080004060A0004060C0004060E00040800000408020004080400040806000408080004080A0004080C0004080E00040A0000040A0200040A0400040A0600040A0800040A0A00040A0C00040A0E00040C0000040C0200040C0400040C0600040C08000
310
40C0A00040C0C00040C0E00040E0000040E0200040E0400040E0600040E0800040E0A00040E0C00040E0E00080000000800020008000400080006000800080008000A0008000C0008000E00080200000802020008020400080206000802080008020A0008020C0008020E00080400000804020008040400080406000804080
310
008040A0008040C0008040E00080600000806020008060400080606000806080008060A0008060C0008060E00080800000808020008080400080806000808080008080A0008080C0008080E00080A0000080A0200080A0400080A0600080A0800080A0A00080A0C00080A0E00080C0000080C0200080C0400080C0600080C0
310
800080C0A00080C0C00080C0E00080E0000080E0200080E0400080E0600080E0800080E0A00080E0C00080E0E000C0000000C0002000C0004000C0006000C0008000C000A000C000C000C000E000C0200000C0202000C0204000C0206000C0208000C020A000C020C000C020E000C0400000C0402000C0404000C0406000C0
310
408000C040A000C040C000C040E000C0600000C0602000C0604000C0606000C0608000C060A000C060C000C060E000C0800000C0802000C0804000C0806000C0808000C080A000C080C000C080E000C0A00000C0A02000C0A04000C0A06000C0A08000C0A0A000C0A0C000C0A0E000C0C00000C0C02000C0C04000C0C06000
310
C0C08000C0C0A000F0FBFF00A4A0A000808080000000FF0000FF000000FFFF00FF000000FF00FF00FFFF0000FFFFFF00FFFFFFFFFFFFFFFFFFFFFFFFFFFFFFFFFFFFFFFFFFFFFFFFFFFFFFFFFFFFFFFFFFFFFFFFFFFFFFFFFFFFFF0000FFFFFFFFFFFF0000FFFFFFFFFFFFFFFFFFFFFFFFFFFFFFFFFFFFFFFFFFFF0000FFFF
310
FFFFFFFF0000FFFFFFFFFFFFFFFFFFFFFFFFFFFFFFFFFFFFFFFFFFFF0000FFFFFFFFFF00FF00FFFFFFFFFFFFFFFFFFFFFFFFFFFFFFFFFFFFFFFFFFFF0000FFFFFFFFFF00FF00FFFFFFFFFFFFFFFFFFFFFFFFFFFFFFFFFFFFFFFFFFFF0000FFFFFFFFFF00FF00FFFFFFFFFFFFFFFFFFFFFFFFFFFFFFFFFFFFFFFFFFFF0000FF
310
FFFFFF00FFFF00FFFFFFFFFFFFFFFFFFFFFFFFFFFFFFFFFFFFFFFFFFFF0000FFFFFFFF00FF0000FFFFFFFFFFFFFFFFFFFFFFFFFFFFFFFFFFFFFFFFFFFF0000FFFFFFFF00FF0000FFFFFFFFFFFFFFFFFFFFFFFFFFFFFFFFFFFFFFFFFFFF0000FFFFFFFF00000000FFFFFFFFFFFFFFFFFFFFFFFFFFFFFFFFFFFFFFFFFFFF0000
310
FFFFFF00FF000000FFFFFFFFFFFFFFFFFFFFFFFFFFFFFFFFFFFFFFFFFFFF0000FFFFFF00FF000000FFFFFFFFFFFFFFFFFFFFFFFFFFFFFFFFFFFFFFFFFFFF0000FFFFFF00FF000000FFFFFFFFFFFFFFFFFFFFFFFFFFFFFFFFFFFFFFFFFFFF0000FFFF00FF00FF0000FFFFFFFFFFFFFFFFFFFFFFFFFFFFFFFFFFFFFFFFFFFF00
310
00FFFF00FF00FF0000FFFFFFFFFFFFFFFFFFFFFFFFFFFFFFFFFFFFFFFFFFFF0000FFFF00FF00FF0000FFFFFFFFFFFFFFFFFFFFFFFFFFFFFFFFFFFFFFFFFFFF0000FF00FFFF00FF0000FFFFFFFFFFFFFFFFFFFFFFFFFFFFFFFFFFFFFFFFFFFF0000FF00FF00FFFF0000FFFFFFFFFFFFFFFFFFFFFFFFFFFFFFFFFFFFFFFFFFFF
310
0000FF00FF00FFFF0000FFFFFFFFFFFFFFFFFFFFFFFFFFFFFFFFFFFFFFFFFFFF0000FF00FF00FFFF0000FFFFFFFFFFFFFFFFFFFFFFFFFFFFFFFFFFFFFFFFFFFF000000FFFF00FFFF0000FFFFFFFFFFFFFFFFFFFFFFFFFFFFFFFFFFFFFFFFFFFF000000FF00FFFFFF0000FFFFFFFFFFFFFFFFFFFFFFFFFFFFFFFFFFFFFFFFFF
310
FF000000FF00FFFFFF0000FFFFFFFFFFFFFFFFFFFFFFFFFFFFFFFFFFFFFFFFFFFF0000FFFF00FFFFFF0000FFFFFFFFFFFFFFFFFFFFFFFFFFFFFFFFFFFFFFFFFFFF0000FFFF00FFFFFF0000FFFFFFFFFFFFFFFFFFFFFFFFFFFFFFFFFFFFFFFFFFFF00FFFF00FFFFFFFF0000FFFFFFFFFFFFFFFFFFFFFFFFFFFFFFFFFFFFFFFF
310
FFFF00FFFF00FFFFFFFF0000FFFFFFFFFFFFFFFFFFFFFFFFFFFFFFFFFFFFFFFFFFFF00FFFF00FFFFFFFF0000FFFFFFFFFFFFFFFFFFFFFFFFFFFFFFFFFFFFFFFFFFFF00FFFF00FFFFFFFF0000FFFFFFFFFFFFFFFFFFFFFFFFFFFFFFFFFFFFFFFFFFFF00FF00FFFFFFFFFF0000FFFFFFFFFFFFFFFFFFFFFFFFFFFFFFFFFFFFFF
310
FFFFFF000000FFFFFFFFFF0000FFFFFFFFFFFFFFFFFFFFFFFFFFFFFFFFFFFFFFFFFFFFFFFFFFFFFFFFFFFFFFFFFFFFFFFFFFFFFFFFFFFFFF
102
{BLKREFS
331
1D5A
102
}
  0
BLOCK_RECORD
  5
1D31
330
1B1D
100
AcDbSymbolTableRecord
100
AcDbBlockTableRecord
  2
AI9-BLK7
340
0
310
2800000020000000200000000100080000000000000400000000000000000000000000000000000000000000000080000080000000808000800000008000800080800000C0C0C000C0DCC000F0CAA6000020400000206000002080000020A0000020C0000020E00000400000004020000040400000406000004080000040A0
310
000040C0000040E00000600000006020000060400000606000006080000060A0000060C0000060E00000800000008020000080400000806000008080000080A0000080C0000080E00000A0000000A0200000A0400000A0600000A0800000A0A00000A0C00000A0E00000C0000000C0200000C0400000C0600000C0800000C0
310
A00000C0C00000C0E00000E0000000E0200000E0400000E0600000E0800000E0A00000E0C00000E0E00040000000400020004000400040006000400080004000A0004000C0004000E00040200000402020004020400040206000402080004020A0004020C0004020E000404000004040200040404000404060004040800040
310
40A0004040C0004040E00040600000406020004060400040606000406080004060A0004060C0004060E00040800000408020004080400040806000408080004080A0004080C0004080E00040A0000040A0200040A0400040A0600040A0800040A0A00040A0C00040A0E00040C0000040C0200040C0400040C0600040C08000
310
40C0A00040C0C00040C0E00040E0000040E0200040E0400040E0600040E0800040E0A00040E0C00040E0E00080000000800020008000400080006000800080008000A0008000C0008000E00080200000802020008020400080206000802080008020A0008020C0008020E00080400000804020008040400080406000804080
310
008040A0008040C0008040E00080600000806020008060400080606000806080008060A0008060C0008060E00080800000808020008080400080806000808080008080A0008080C0008080E00080A0000080A0200080A0400080A0600080A0800080A0A00080A0C00080A0E00080C0000080C0200080C0400080C0600080C0
310
800080C0A00080C0C00080C0E00080E0000080E0200080E0400080E0600080E0800080E0A00080E0C00080E0E000C0000000C0002000C0004000C0006000C0008000C000A000C000C000C000E000C0200000C0202000C0204000C0206000C0208000C020A000C020C000C020E000C0400000C0402000C0404000C0406000C0
310
408000C040A000C040C000C040E000C0600000C0602000C0604000C0606000C0608000C060A000C060C000C060E000C0800000C0802000C0804000C0806000C0808000C080A000C080C000C080E000C0A00000C0A02000C0A04000C0A06000C0A08000C0A0A000C0A0C000C0A0E000C0C00000C0C02000C0C04000C0C06000
310
C0C08000C0C0A000F0FBFF00A4A0A000808080000000FF0000FF000000FFFF00FF000000FF00FF00FFFF0000FFFFFF00FFFFFFFFFFFFFFFFFFFFFFFFFFFFFFFFFFFFFFFFFFFFFFFFFFFFFFFFFFFFFFFFFFFFFFFFFFFFFFFFFFFFFFFFFFFFFF0000FFFFFFFFFFFFFFFFFFFFFFFFFFFFFFFFFFFFFFFFFFFFFFFFFFFFFFFFFFFF
310
0000FFFFFFFFFFFFFFFFFFFFFFFFFFFFFFFFFFFFFFFFFFFFFFFFFFFFFFFFFFFF0000FFFFFFFFFFFFFFFFFFFFFFFFFFFFFFFFFFFFFFFFFFFFFFFFFFFFFFFFFFFF0000FFFFFFFFFFFFFFFFFFFFFFFFFFFFFFFFFFFFFFFFFFFFFFFFFFFFFFFFFFFF0000FFFFFFFFFFFFFFFFFFFFFFFFFFFFFFFFFFFFFFFFFFFFFFFFFFFFFFFFFF
310
FF0000FFFFFFFFFFFFFFFFFFFFFFFFFFFFFFFFFFFFFFFFFFFFFFFFFFFFFFFFFFFF0000FFFFFFFFFFFFFFFFFFFFFFFFFFFFFFFFFFFFFFFFFFFFFFFFFFFFFFFFFFFF0000FFFFFFFFFFFFFFFFFFFFFFFFFFFFFFFFFFFFFFFFFFFFFFFFFFFFFFFFFFFF0000FFFFFFFFFFFFFFFFFFFFFFFFFFFFFFFFFFFFFFFFFFFFFFFFFFFFFFFF
310
FFFF0000FFFFFFFFFFFFFFFFFFFFFFFFFFFFFFFFFFFFFFFFFFFFFFFFFFFFFFFFFFFF0000FFFFFFFFFFFFFFFFFFFFFFFFFFFFFFFFFFFFFFFFFFFFFFFFFFFFFFFFFFFF0000FFFFFFFFFFFFFFFFFFFFFFFFFFFFFFFFFFFFFFFFFFFFFFFFFFFFFFFFFFFF0000FFFFFFFFFFFFFFFFFFFFFFFFFFFFFFFFFFFFFFFFFFFFFFFFFFFFFF
310
FFFFFF0000FFFFFFFFFFFFFFFFFFFFFFFFFFFFFFFFFFFFFFFFFFFFFFFFFFFFFFFFFFFF0000FFFFFFFFFFFFFFFFFFFFFFFFFFFFFFFFFFFFFFFFFFFFFFFFFFFFFFFFFFFF0000FFFFFFFFFFFFFFFFFFFFFFFFFFFFFFFFFFFFFFFFFFFFFFFFFFFFFFFFFFFF0000FFFFFFFFFFFFFFFFFFFFFFFFFFFFFFFFFFFFFFFFFFFFFFFFFFFF
310
FFFFFFFF0000FFFFFFFFFFFFFFFFFFFFFFFFFFFFFFFFFFFFFFFFFFFFFFFFFFFFFFFFFFFF0000FFFFFFFFFFFFFFFFFFFFFFFFFFFFFFFFFFFFFFFFFFFFFFFFFFFFFFFFFFFF0000FFFFFFFFFFFFFFFFFFFFFFFFFFFFFFFFFFFFFFFFFFFFFFFFFFFFFFFFFFFF0000FFFFFFFFFFFFFFFFFFFFFFFFFFFFFFFFFFFFFFFFFFFFFFFFFF
310
FFFFFFFFFF0000FFFFFFFFFFFFFFFFFFFFFFFFFFFFFFFFFFFFFFFFFFFFFFFFFFFFFFFFFFFF0000FFFFFFFFFFFFFFFFFFFFFFFFFFFFFFFFFFFFFFFFFFFFFFFFFFFFFFFFFFFF0000FFFFFFFFFFFFFFFFFFFFFFFFFFFFFFFFFFFFFFFFFFFFFFFFFFFFFFFFFFFF0000FFFFFFFFFFFFFFFFFFFFFFFFFFFFFFFFFFFFFFFFFFFFFFFF
310
FFFFFFFFFFFF0000FFFFFFFFFFFFFFFFFFFFFFFFFFFFFFFFFFFFFFFFFFFFFFFFFFFFFFFFFFFF0000FFFFFFFFFFFFFFFFFFFFFFFFFFFFFFFFFFFFFFFFFFFFFFFFFFFFFFFFFFFF0000FFFFFFFFFFFFFFFFFFFFFFFFFFFFFFFFFFFFFFFFFFFFFFFFFFFFFFFFFFFF0000FFFFFFFFFFFFFFFFFFFFFFFFFFFFFFFFFFFFFFFFFFFFFF
310
FFFFFFFFFFFFFF0000FFFFFFFFFFFFFFFFFFFFFFFFFFFFFFFFFFFFFFFFFFFFFFFFFFFFFFFFFFFFFFFFFFFFFFFFFFFFFFFFFFFFFFFFFFFFFF
102
{BLKREFS
331
1D5B
102
}
  0
BLOCK_RECORD
  5
1D36
330
1B1D
100
AcDbSymbolTableRecord
100
AcDbBlockTableRecord
  2
AI9-BLK6
340
0
310
2800000020000000200000000100080000000000000400000000000000000000000000000000000000000000000080000080000000808000800000008000800080800000C0C0C000C0DCC000F0CAA6000020400000206000002080000020A0000020C0000020E00000400000004020000040400000406000004080000040A0
310
000040C0000040E00000600000006020000060400000606000006080000060A0000060C0000060E00000800000008020000080400000806000008080000080A0000080C0000080E00000A0000000A0200000A0400000A0600000A0800000A0A00000A0C00000A0E00000C0000000C0200000C0400000C0600000C0800000C0
310
A00000C0C00000C0E00000E0000000E0200000E0400000E0600000E0800000E0A00000E0C00000E0E00040000000400020004000400040006000400080004000A0004000C0004000E00040200000402020004020400040206000402080004020A0004020C0004020E000404000004040200040404000404060004040800040
310
40A0004040C0004040E00040600000406020004060400040606000406080004060A0004060C0004060E00040800000408020004080400040806000408080004080A0004080C0004080E00040A0000040A0200040A0400040A0600040A0800040A0A00040A0C00040A0E00040C0000040C0200040C0400040C0600040C08000
310
40C0A00040C0C00040C0E00040E0000040E0200040E0400040E0600040E0800040E0A00040E0C00040E0E00080000000800020008000400080006000800080008000A0008000C0008000E00080200000802020008020400080206000802080008020A0008020C0008020E00080400000804020008040400080406000804080
310
008040A0008040C0008040E00080600000806020008060400080606000806080008060A0008060C0008060E00080800000808020008080400080806000808080008080A0008080C0008080E00080A0000080A0200080A0400080A0600080A0800080A0A00080A0C00080A0E00080C0000080C0200080C0400080C0600080C0
310
800080C0A00080C0C00080C0E00080E0000080E0200080E0400080E0600080E0800080E0A00080E0C00080E0E000C0000000C0002000C0004000C0006000C0008000C000A000C000C000C000E000C0200000C0202000C0204000C0206000C0208000C020A000C020C000C020E000C0400000C0402000C0404000C0406000C0
310
408000C040A000C040C000C040E000C0600000C0602000C0604000C0606000C0608000C060A000C060C000C060E000C0800000C0802000C0804000C0806000C0808000C080A000C080C000C080E000C0A00000C0A02000C0A04000C0A06000C0A08000C0A0A000C0A0C000C0A0E000C0C00000C0C02000C0C04000C0C06000
310
C0C08000C0C0A000F0FBFF00A4A0A000808080000000FF0000FF000000FFFF00FF000000FF00FF00FFFF0000FFFFFF00FFFFFFFFFFFFFFFFFFFFFFFF00FFFFFFFFFFFFFF00FFFFFFFFFFFFFFFFFFFFFFFFFFFFFFFFFFFFFFFFFFFFFF00FFFFFFFFFFFFFF00FFFFFFFFFFFFFFFFFFFFFFFFFFFFFFFFFFFFFFFFFFFFFF00FFFF
310
FFFFFFFFFF00FFFFFFFFFFFFFFFFFFFFFFFFFFFFFFFFFFFFFFFFFFFF00FFFFFFFFFFFFFFFF00FFFFFFFFFFFFFFFFFFFFFFFFFFFFFFFFFFFFFFFFFFFF00FFFFFFFFFFFFFF00FFFFFFFFFFFFFFFFFFFFFFFFFFFFFFFFFFFFFFFFFFFFFF00FFFFFFFFFFFFFF00FFFFFFFFFFFFFFFFFFFFFFFFFFFFFFFFFFFFFFFFFFFF00FFFFFF
310
FFFFFFFFFF00FFFFFFFFFFFFFFFFFFFFFFFFFFFFFFFFFFFFFFFFFFFF00FFFFFFFFFFFFFF00FFFFFFFFFFFFFFFFFFFFFFFFFFFFFFFFFFFFFFFFFFFF00FFFFFFFFFFFFFFFF00FFFFFFFFFFFFFFFFFFFFFFFFFFFFFFFFFFFFFFFFFF00FFFFFFFFFFFFFFFFFF00FFFFFFFFFFFFFFFFFFFFFFFFFFFFFFFFFFFFFFFF00FFFFFFFFFF
310
FFFFFFFFFF00FFFFFFFFFFFFFFFFFFFFFFFFFFFFFFFFFFFFFF00FFFFFFFFFFFFFFFFFFFF00FFFFFFFFFFFFFFFFFFFFFFFFFFFFFFFFFFFF0000FFFFFFFFFFFFFFFFFFFFFF00FFFFFFFFFFFFFFFFFFFFFFFFFFFF00000000FFFFFFFFFFFFFFFFFFFFFFFFFF00FFFFFFFFFFFFFFFFFFFFFFFFFFFFFFFFFFFFFFFFFFFFFFFFFFFF
310
FFFFFFFF00FFFFFFFFFFFFFFFFFFFFFFFFFFFFFFFFFFFFFFFFFFFFFFFFFFFFFFFFFFFFFF00FFFFFFFFFFFFFFFFFFFFFFFFFFFFFFFFFFFFFFFFFFFFFFFFFFFFFFFFFFFFFF00FFFFFFFFFFFFFFFFFFFFFFFFFFFFFFFFFFFFFFFFFFFFFFFFFFFFFFFFFFFF00FFFFFFFFFFFFFFFFFFFFFFFFFFFFFFFFFFFFFFFFFFFFFFFFFFFFFF
310
FFFFFFFF00FFFFFFFFFFFFFFFFFFFFFFFFFFFFFFFFFFFFFFFFFFFFFFFFFFFFFFFFFFFF00FFFFFFFFFFFFFFFFFFFFFFFFFFFFFFFFFFFFFFFFFFFFFFFFFFFFFFFFFFFF00FFFFFFFFFFFFFFFFFFFFFFFFFFFFFFFFFFFFFFFFFFFFFFFFFFFFFFFFFFFF00FFFFFFFFFFFFFFFFFFFFFFFFFFFFFFFFFFFFFFFFFFFFFFFFFFFFFFFFFF
310
FF00FFFFFFFFFFFFFFFFFFFFFFFFFFFFFFFFFFFFFFFFFFFFFFFFFFFFFFFFFFFFFF00FFFFFFFFFFFFFFFFFFFFFFFFFFFFFFFFFFFFFFFFFFFFFFFFFFFFFFFFFFFF00FFFFFFFFFFFFFFFFFFFFFFFFFFFFFFFFFFFFFFFFFFFFFFFFFFFFFFFFFF0000FFFFFFFFFFFFFFFFFFFFFFFFFFFFFFFFFFFFFFFFFFFFFFFFFFFFFFFF0000FF
310
FFFFFFFFFFFFFFFFFFFFFFFFFFFFFFFFFFFFFFFFFFFFFFFFFF00000000FFFFFFFFFFFFFFFFFFFFFFFFFFFFFFFFFFFFFFFFFFFFFFFFFFFF0000FFFFFFFFFFFFFFFFFFFFFFFFFFFFFFFFFFFFFFFFFFFFFFFFFFFFFFFFFFFFFFFFFFFFFFFFFFFFFFFFFFFFFFFFFFFFFFFFFFFFFFFFFFFFFFFFFFFFFFFFFFFFFFFFFFFFFFFFFFFF
310
FFFFFFFFFFFFFFFFFFFFFFFFFFFFFFFFFFFFFFFFFFFFFFFFFFFFFFFFFFFFFFFFFFFFFFFFFFFFFFFFFFFFFFFFFFFFFFFFFFFFFFFFFFFFFFFF
102
{BLKREFS
331
1D5C
102
}
  0
BLOCK_RECORD
  5
1D3A
330
1B1D
100
AcDbSymbolTableRecord
100
AcDbBlockTableRecord
  2
AI9-BLK5
340
0
310
2800000020000000200000000100080000000000000400000000000000000000000000000000000000000000000080000080000000808000800000008000800080800000C0C0C000C0DCC000F0CAA6000020400000206000002080000020A0000020C0000020E00000400000004020000040400000406000004080000040A0
310
000040C0000040E00000600000006020000060400000606000006080000060A0000060C0000060E00000800000008020000080400000806000008080000080A0000080C0000080E00000A0000000A0200000A0400000A0600000A0800000A0A00000A0C00000A0E00000C0000000C0200000C0400000C0600000C0800000C0
310
A00000C0C00000C0E00000E0000000E0200000E0400000E0600000E0800000E0A00000E0C00000E0E00040000000400020004000400040006000400080004000A0004000C0004000E00040200000402020004020400040206000402080004020A0004020C0004020E000404000004040200040404000404060004040800040
310
40A0004040C0004040E00040600000406020004060400040606000406080004060A0004060C0004060E00040800000408020004080400040806000408080004080A0004080C0004080E00040A0000040A0200040A0400040A0600040A0800040A0A00040A0C00040A0E00040C0000040C0200040C0400040C0600040C08000
310
40C0A00040C0C00040C0E00040E0000040E0200040E0400040E0600040E0800040E0A00040E0C00040E0E00080000000800020008000400080006000800080008000A0008000C0008000E00080200000802020008020400080206000802080008020A0008020C0008020E00080400000804020008040400080406000804080
310
008040A0008040C0008040E00080600000806020008060400080606000806080008060A0008060C0008060E00080800000808020008080400080806000808080008080A0008080C0008080E00080A0000080A0200080A0400080A0600080A0800080A0A00080A0C00080A0E00080C0000080C0200080C0400080C0600080C0
310
800080C0A00080C0C00080C0E00080E0000080E0200080E0400080E0600080E0800080E0A00080E0C00080E0E000C0000000C0002000C0004000C0006000C0008000C000A000C000C000C000E000C0200000C0202000C0204000C0206000C0208000C020A000C020C000C020E000C0400000C0402000C0404000C0406000C0
310
408000C040A000C040C000C040E000C0600000C0602000C0604000C0606000C0608000C060A000C060C000C060E000C0800000C0802000C0804000C0806000C0808000C080A000C080C000C080E000C0A00000C0A02000C0A04000C0A06000C0A08000C0A0A000C0A0C000C0A0E000C0C00000C0C02000C0C04000C0C06000
310
C0C08000C0C0A000F0FBFF00A4A0A000808080000000FF0000FF000000FFFF00FF000000FF00FF00FFFF0000FFFFFF00FFFFFFFFFFFFFFFFFFFFFFFFFFFFFFFFFFFFFFFFFFFFFFFFFFFFFFFFFFFFFFFFFFFFFFFFFFFFFFFF000000000000000000000000000000000000000000000000FFFFFFFFFFFFFFFF00FFFFFFFFFFFF
310
FFFFFFFFFFFFFFFFFFFFFFFFFFFFFFFFFFFFFFFFFFFFFFFFFF00FFFFFFFFFFFFFFFFFFFFFFFFFFFFFFFFFFFFFFFFFFFFFFFFFFFFFFFFFFFFFF00FFFFFFFFFFFFFFFFFFFFFFFFFFFFFFFFFFFFFFFFFFFFFFFFFFFFFFFFFFFFFF00FFFFFFFFFFFFFFFFFFFFFFFFFFFFFFFFFFFFFFFFFFFFFFFFFFFFFFFFFFFFFF00FFFFFFFFFF
310
FFFFFFFFFFFFFFFFFFFFFFFFFFFFFFFFFFFFFFFFFFFFFFFFFFFF00FFFFFFFFFFFFFFFFFFFFFFFFFFFFFFFFFFFFFFFFFFFFFFFFFFFFFFFFFFFFFF00FFFFFFFFFFFFFFFFFFFFFFFFFFFFFFFFFFFFFFFFFFFFFFFFFFFFFFFFFFFFFF00FFFFFFFFFFFFFFFFFFFFFFFFFFFFFFFFFFFFFFFFFFFFFFFFFFFFFFFFFFFFFF00FFFFFFFF
310
FFFFFFFFFFFFFFFFFFFFFFFFFFFFFFFFFFFFFFFFFFFFFFFFFFFFFF00FFFFFFFFFFFFFFFFFFFFFFFFFFFFFFFFFFFFFFFFFFFFFFFFFFFFFFFFFFFFFF00FFFFFFFFFFFFFFFFFFFFFFFFFFFFFFFFFFFFFFFFFFFFFFFFFFFFFFFFFFFFFF00FFFFFFFFFFFFFFFFFFFFFFFFFFFFFFFFFFFFFFFFFFFFFFFFFFFFFFFFFFFFFF00FFFFFF
310
FFFFFFFFFFFFFFFFFFFFFFFFFFFFFFFFFFFFFFFFFFFFFFFFFFFFFFFF00FFFFFFFFFFFFFFFFFFFFFFFFFFFFFFFFFFFFFFFFFFFFFFFFFFFFFFFFFFFFFF00FFFFFFFFFFFFFFFFFFFFFFFFFFFFFFFFFFFFFFFFFFFFFFFFFFFFFFFFFFFFFF00FFFFFFFFFFFFFFFFFFFFFFFFFFFFFFFFFFFFFFFFFFFFFFFFFFFFFFFFFFFFFF00FFFF
310
FFFFFFFFFFFFFFFFFFFFFFFFFFFFFFFFFFFFFFFFFFFFFFFFFFFFFFFFFF00FFFFFFFFFFFFFFFFFFFFFFFFFFFFFFFFFFFFFFFFFFFFFFFFFFFFFFFFFFFFFF00FFFFFFFFFFFFFFFFFFFFFFFFFFFFFFFFFFFFFFFFFFFFFFFFFFFFFFFFFFFFFF00FFFFFFFFFFFFFFFFFFFFFFFFFFFFFFFFFFFFFFFFFFFFFFFFFFFFFFFFFFFFFF00FF
310
FFFFFFFFFFFFFFFFFFFFFFFFFFFFFFFFFFFFFFFFFFFFFFFFFFFFFFFFFFFF00FFFFFFFFFFFFFFFFFFFFFFFFFFFFFFFFFFFFFFFFFFFFFFFFFFFFFFFFFFFFFF00FFFFFFFFFFFFFFFFFFFFFFFFFFFFFFFFFFFFFFFFFFFFFFFFFFFFFFFFFFFFFF00FFFFFFFFFFFFFFFFFFFFFFFFFFFFFFFFFFFFFFFFFFFFFFFFFFFFFFFFFFFFFF00
310
FFFFFFFFFFFFFFFFFFFFFFFFFFFFFFFFFFFFFFFFFFFFFFFFFFFFFFFFFFFFFF00FFFFFFFFFFFFFFFFFFFFFFFFFFFFFFFFFFFFFFFFFFFFFFFFFFFFFFFFFFFFFF00FFFFFFFFFFFFFFFFFFFFFFFFFFFFFFFFFFFFFFFFFFFFFFFFFFFFFFFFFFFFFF00FFFFFFFFFFFFFFFFFFFFFFFFFFFFFFFFFFFFFFFFFFFFFFFFFFFFFFFFFFFFFF
310
00FFFFFFFFFFFFFFFFFFFFFFFFFFFF000000000000000000FFFFFFFFFFFFFFFF00FFFFFFFFFFFFFFFFFFFFFFFFFFFF00FFFFFFFFFFFFFFFF
102
{BLKREFS
331
1D5D
102
}
  0
BLOCK_RECORD
  5
1D3F
330
1B1D
100
AcDbSymbolTableRecord
100
AcDbBlockTableRecord
  2
AI9-BLK4
340
0
310
2800000020000000200000000100080000000000000400000000000000000000000000000000000000000000000080000080000000808000800000008000800080800000C0C0C000C0DCC000F0CAA6000020400000206000002080000020A0000020C0000020E00000400000004020000040400000406000004080000040A0
310
000040C0000040E00000600000006020000060400000606000006080000060A0000060C0000060E00000800000008020000080400000806000008080000080A0000080C0000080E00000A0000000A0200000A0400000A0600000A0800000A0A00000A0C00000A0E00000C0000000C0200000C0400000C0600000C0800000C0
310
A00000C0C00000C0E00000E0000000E0200000E0400000E0600000E0800000E0A00000E0C00000E0E00040000000400020004000400040006000400080004000A0004000C0004000E00040200000402020004020400040206000402080004020A0004020C0004020E000404000004040200040404000404060004040800040
310
40A0004040C0004040E00040600000406020004060400040606000406080004060A0004060C0004060E00040800000408020004080400040806000408080004080A0004080C0004080E00040A0000040A0200040A0400040A0600040A0800040A0A00040A0C00040A0E00040C0000040C0200040C0400040C0600040C08000
310
40C0A00040C0C00040C0E00040E0000040E0200040E0400040E0600040E0800040E0A00040E0C00040E0E00080000000800020008000400080006000800080008000A0008000C0008000E00080200000802020008020400080206000802080008020A0008020C0008020E00080400000804020008040400080406000804080
310
008040A0008040C0008040E00080600000806020008060400080606000806080008060A0008060C0008060E00080800000808020008080400080806000808080008080A0008080C0008080E00080A0000080A0200080A0400080A0600080A0800080A0A00080A0C00080A0E00080C0000080C0200080C0400080C0600080C0
310
800080C0A00080C0C00080C0E00080E0000080E0200080E0400080E0600080E0800080E0A00080E0C00080E0E000C0000000C0002000C0004000C0006000C0008000C000A000C000C000C000E000C0200000C0202000C0204000C0206000C0208000C020A000C020C000C020E000C0400000C0402000C0404000C0406000C0
310
408000C040A000C040C000C040E000C0600000C0602000C0604000C0606000C0608000C060A000C060C000C060E000C0800000C0802000C0804000C0806000C0808000C080A000C080C000C080E000C0A00000C0A02000C0A04000C0A06000C0A08000C0A0A000C0A0C000C0A0E000C0C00000C0C02000C0C04000C0C06000
310
C0C08000C0C0A000F0FBFF00A4A0A000808080000000FF0000FF000000FFFF00FF000000FF00FF00FFFF0000FFFFFF00FFFFFFFFFFFFFFFFFFFFFFFFFFFFFFFFFFFFFFFFFFFFFFFFFFFFFFFFFFFFFFFFFFFFFFFFFFFFFFFFFFFFFFFFFFFF00000000FFFFFFFFFFFFFFFFFFFFFF000000FFFFFFFFFFFFFFFFFFFFFFFFFFFF00
310
FFFF00FFFFFFFFFFFFFFFFFFFFFF00FFFFFFFFFFFFFFFFFFFFFFFFFFFFFFFF00FFFF00FFFFFFFFFFFFFFFFFFFFFF00FFFFFFFFFFFFFFFFFFFFFFFFFFFFFFFF00FFFF00FFFFFFFFFFFFFFFFFFFFFF00FFFFFFFFFFFFFFFFFFFFFFFFFFFFFFFF00FFFF00FFFFFFFFFFFFFFFFFFFFFF00FFFFFFFFFFFFFFFFFFFFFFFFFFFFFFFF
310
00FFFF00FFFFFFFFFFFFFFFFFFFFFF00FFFFFFFFFFFFFFFFFFFFFFFFFFFFFFFF00FFFF00FFFFFFFFFFFFFFFFFFFFFF00FFFFFFFFFFFFFFFFFFFFFFFFFFFFFFFF00FFFF00FFFFFFFFFFFFFFFFFFFFFF00FFFFFFFFFFFFFFFFFFFFFFFFFFFFFFFF00FFFF00FFFFFFFFFFFFFFFFFFFFFF00FFFFFFFFFFFFFFFFFFFFFFFFFFFFFF
310
FF00FFFF00FFFFFFFFFFFFFFFFFFFFFF00FFFFFFFFFFFFFFFFFFFFFFFFFFFFFFFF00FFFF00FFFFFFFFFFFFFFFFFFFFFF00FFFFFFFFFFFFFFFFFFFFFFFFFFFFFFFF00FFFF00FFFFFFFFFFFFFFFFFFFFFF00FFFFFFFFFFFFFFFFFFFFFFFFFFFFFFFF00FFFF00FFFFFFFFFFFFFFFFFFFFFF00FFFFFFFFFFFFFFFFFFFFFFFFFFFF
310
FFFF00FFFF00FFFFFFFFFFFFFFFFFFFFFF00FFFFFFFFFFFFFFFFFFFFFFFFFFFFFFFF00FFFF00FFFFFFFFFFFFFFFFFFFFFF00FFFFFFFFFFFFFFFFFFFFFFFFFFFFFFFF00FFFF00FFFFFFFFFFFFFFFFFFFFFF00FFFFFFFFFFFFFFFFFFFFFFFFFFFFFFFF00FFFF00FFFFFFFFFFFFFFFFFFFF00FFFFFFFFFFFFFFFFFFFFFFFFFFFF
310
FFFFFF00FFFF00FFFFFFFFFFFFFFFFFFFF00FFFFFFFFFFFFFFFFFFFFFFFFFFFFFFFFFF00FFFF00FFFFFFFFFFFFFFFFFFFF00FFFFFFFFFFFFFFFFFFFFFFFFFFFFFFFFFF00FFFF00FFFFFFFFFFFFFFFFFFFF00FFFFFFFFFFFFFFFFFFFFFFFFFFFFFFFFFF00FFFF00FFFFFFFFFFFFFFFFFFFF00FFFFFFFFFFFFFFFFFFFFFFFFFF
310
FFFFFFFF00FFFF00FFFFFFFFFFFFFFFFFF0000FFFF00FFFFFFFFFFFFFFFFFFFFFFFFFFFF00FFFF00FFFFFFFFFFFFFFFF0000FFFFFF00FFFFFFFFFFFFFFFFFFFFFFFFFFFF00FFFF00000000000000000000FFFFFFFF00FFFFFFFFFFFFFFFFFFFFFFFFFFFF00FFFFFFFFFFFFFFFFFFFFFFFFFFFFFF00FFFFFFFFFFFFFFFFFFFF
310
FFFFFFFFFF00FFFFFFFFFFFFFFFFFFFFFFFFFFFF00FFFFFFFFFFFFFFFFFFFFFFFFFFFFFFFF00FFFFFFFFFFFFFFFFFFFFFFFFFFFF00FFFFFFFFFFFFFFFFFFFFFFFFFFFFFFFF00FFFFFFFFFFFFFFFFFFFFFFFFFFFFFF00FFFFFFFFFFFFFFFFFFFFFFFFFFFFFF00FFFFFFFFFFFFFFFFFFFFFFFFFFFFFF00FFFFFFFFFFFFFFFFFF
310
FFFFFFFFFFFF00FFFF00000000000000000000FFFFFFFF00FFFFFFFFFFFFFFFFFFFFFFFFFFFF00FFFF00FFFFFFFFFFFFFFFFFF0000FFFF00
102
{BLKREFS
331
1D5E
102
}
  0
BLOCK_RECORD
  5
1D44
330
1B1D
100
AcDbSymbolTableRecord
100
AcDbBlockTableRecord
  2
AI9-BLK3
340
0
310
2800000020000000200000000100080000000000000400000000000000000000000000000000000000000000000080000080000000808000800000008000800080800000C0C0C000C0DCC000F0CAA6000020400000206000002080000020A0000020C0000020E00000400000004020000040400000406000004080000040A0
310
000040C0000040E00000600000006020000060400000606000006080000060A0000060C0000060E00000800000008020000080400000806000008080000080A0000080C0000080E00000A0000000A0200000A0400000A0600000A0800000A0A00000A0C00000A0E00000C0000000C0200000C0400000C0600000C0800000C0
310
A00000C0C00000C0E00000E0000000E0200000E0400000E0600000E0800000E0A00000E0C00000E0E00040000000400020004000400040006000400080004000A0004000C0004000E00040200000402020004020400040206000402080004020A0004020C0004020E000404000004040200040404000404060004040800040
310
40A0004040C0004040E00040600000406020004060400040606000406080004060A0004060C0004060E00040800000408020004080400040806000408080004080A0004080C0004080E00040A0000040A0200040A0400040A0600040A0800040A0A00040A0C00040A0E00040C0000040C0200040C0400040C0600040C08000
310
40C0A00040C0C00040C0E00040E0000040E0200040E0400040E0600040E0800040E0A00040E0C00040E0E00080000000800020008000400080006000800080008000A0008000C0008000E00080200000802020008020400080206000802080008020A0008020C0008020E00080400000804020008040400080406000804080
310
008040A0008040C0008040E00080600000806020008060400080606000806080008060A0008060C0008060E00080800000808020008080400080806000808080008080A0008080C0008080E00080A0000080A0200080A0400080A0600080A0800080A0A00080A0C00080A0E00080C0000080C0200080C0400080C0600080C0
310
800080C0A00080C0C00080C0E00080E0000080E0200080E0400080E0600080E0800080E0A00080E0C00080E0E000C0000000C0002000C0004000C0006000C0008000C000A000C000C000C000E000C0200000C0202000C0204000C0206000C0208000C020A000C020C000C020E000C0400000C0402000C0404000C0406000C0
310
408000C040A000C040C000C040E000C0600000C0602000C0604000C0606000C0608000C060A000C060C000C060E000C0800000C0802000C0804000C0806000C0808000C080A000C080C000C080E000C0A00000C0A02000C0A04000C0A06000C0A08000C0A0A000C0A0C000C0A0E000C0C00000C0C02000C0C04000C0C06000
310
C0C08000C0C0A000F0FBFF00A4A0A000808080000000FF0000FF000000FFFF00FF000000FF00FF00FFFF0000FFFFFF00FFFFFFFFFFFFFFFFFFFFFFFFFFFFFFFFFFFFFFFFFFFFFFFFFFFFFFFFFFFFFFFFFFFFFFFFFFFFFFFFFFFFFFFFFFFFFF0000FFFFFFFFFFFFFFFFFFFFFFFFFFFFFFFFFFFFFFFFFFFFFFFFFFFFFFFFFFFF
310
0000FFFFFFFFFFFFFFFFFFFFFFFFFFFFFFFFFFFFFFFFFFFFFFFFFFFFFFFFFFFF0000FFFFFFFFFFFFFFFFFFFFFFFFFFFFFFFFFFFFFFFFFFFFFFFFFFFFFFFFFFFF0000FFFFFFFFFFFFFFFFFFFFFFFFFFFFFFFFFFFFFFFFFFFFFFFFFFFFFFFFFFFF0000FFFFFFFFFFFFFFFFFFFFFFFFFFFFFFFFFFFFFFFFFFFFFFFFFFFFFFFFFF
310
FF0000FFFFFFFFFFFFFFFFFFFFFFFFFFFFFFFFFFFFFFFFFFFFFFFFFFFFFFFFFFFF0000FFFFFFFFFFFFFFFFFFFFFFFFFFFFFFFFFFFFFFFFFFFFFFFFFFFFFFFFFFFF0000FFFFFFFFFFFFFFFFFFFFFFFFFFFFFFFFFFFFFFFFFFFFFFFFFFFFFFFFFFFF0000FFFFFFFFFFFFFFFFFFFFFFFFFFFFFFFFFFFFFFFFFFFFFFFFFFFFFFFF
310
FFFF0000FFFFFFFFFFFFFFFFFFFFFFFFFFFFFFFFFFFFFFFFFFFFFFFFFFFFFFFFFFFF0000FFFFFFFFFFFFFFFFFFFFFFFFFFFFFFFFFFFFFFFFFFFFFFFFFFFFFFFFFFFF0000FFFFFFFFFFFFFFFFFFFFFFFFFFFFFFFFFFFFFFFFFFFFFFFFFFFFFFFFFFFF0000FFFFFFFFFFFFFFFFFFFFFFFFFFFFFFFFFFFFFFFFFFFFFFFFFFFFFF
310
FFFFFF0000FFFFFFFFFFFFFFFFFFFFFFFFFFFFFFFFFFFFFFFFFFFFFFFFFFFFFFFFFFFF0000FFFFFFFFFFFFFFFFFFFFFFFFFFFFFFFFFFFFFFFFFFFFFFFFFFFFFFFFFFFF0000FFFFFFFFFFFFFFFFFFFFFFFFFFFFFFFFFFFFFFFFFFFFFFFFFFFFFFFFFFFF0000FFFFFFFFFFFFFFFFFFFFFFFFFFFFFFFFFFFFFFFFFFFFFFFFFFFF
310
FFFFFFFF0000FFFFFFFFFFFFFFFFFFFFFFFFFFFFFFFFFFFFFFFFFFFFFFFFFFFFFFFFFFFF0000FFFFFFFFFFFFFFFFFFFFFFFFFFFFFFFFFFFFFFFFFFFFFFFFFFFFFFFFFFFF0000FFFFFFFFFFFFFFFFFFFFFFFFFFFFFFFFFFFFFFFFFFFFFFFFFFFFFFFFFFFF0000FFFFFFFFFFFFFFFFFFFFFFFFFFFFFFFFFFFFFFFFFFFFFFFFFF
310
FFFFFFFFFF0000FFFFFFFFFFFFFFFFFFFFFFFFFFFFFFFFFFFFFFFFFFFFFFFFFFFFFFFFFFFF0000FFFFFFFFFFFFFFFFFFFFFFFFFFFFFFFFFFFFFFFFFFFFFFFFFFFFFFFFFFFF0000FFFFFFFFFFFFFFFFFFFFFFFFFFFFFFFFFFFFFFFFFFFFFFFFFFFFFFFFFFFF0000FFFFFFFFFFFFFFFFFFFFFFFFFFFFFFFFFFFFFFFFFFFFFFFF
310
FFFFFFFFFFFF0000FFFFFFFFFFFFFFFFFFFFFFFFFFFFFFFFFFFFFFFFFFFFFFFFFFFFFFFFFFFF0000FFFFFFFFFFFFFFFFFFFFFFFFFFFFFFFFFFFFFFFFFFFFFFFFFFFFFFFFFFFF0000FFFFFFFFFFFFFFFFFFFFFFFFFFFFFFFFFFFFFFFFFFFFFFFFFFFFFFFFFFFF0000FFFFFFFFFFFFFFFFFFFFFFFFFFFFFFFFFFFFFFFFFFFFFF
310
FFFFFFFFFFFFFF0000FFFFFFFFFFFFFFFFFFFFFFFFFFFFFFFFFFFFFFFFFFFFFFFFFFFFFFFFFFFFFFFFFFFFFFFFFFFFFFFFFFFFFFFFFFFFFF
102
{BLKREFS
331
1D5F
102
}
  0
BLOCK_RECORD
  5
1D49
330
1B1D
100
AcDbSymbolTableRecord
100
AcDbBlockTableRecord
  2
AI9-BLK2
340
0
310
2800000020000000200000000100080000000000000400000000000000000000000000000000000000000000000080000080000000808000800000008000800080800000C0C0C000C0DCC000F0CAA6000020400000206000002080000020A0000020C0000020E00000400000004020000040400000406000004080000040A0
310
000040C0000040E00000600000006020000060400000606000006080000060A0000060C0000060E00000800000008020000080400000806000008080000080A0000080C0000080E00000A0000000A0200000A0400000A0600000A0800000A0A00000A0C00000A0E00000C0000000C0200000C0400000C0600000C0800000C0
310
A00000C0C00000C0E00000E0000000E0200000E0400000E0600000E0800000E0A00000E0C00000E0E00040000000400020004000400040006000400080004000A0004000C0004000E00040200000402020004020400040206000402080004020A0004020C0004020E000404000004040200040404000404060004040800040
310
40A0004040C0004040E00040600000406020004060400040606000406080004060A0004060C0004060E00040800000408020004080400040806000408080004080A0004080C0004080E00040A0000040A0200040A0400040A0600040A0800040A0A00040A0C00040A0E00040C0000040C0200040C0400040C0600040C08000
310
40C0A00040C0C00040C0E00040E0000040E0200040E0400040E0600040E0800040E0A00040E0C00040E0E00080000000800020008000400080006000800080008000A0008000C0008000E00080200000802020008020400080206000802080008020A0008020C0008020E00080400000804020008040400080406000804080
310
008040A0008040C0008040E00080600000806020008060400080606000806080008060A0008060C0008060E00080800000808020008080400080806000808080008080A0008080C0008080E00080A0000080A0200080A0400080A0600080A0800080A0A00080A0C00080A0E00080C0000080C0200080C0400080C0600080C0
310
800080C0A00080C0C00080C0E00080E0000080E0200080E0400080E0600080E0800080E0A00080E0C00080E0E000C0000000C0002000C0004000C0006000C0008000C000A000C000C000C000E000C0200000C0202000C0204000C0206000C0208000C020A000C020C000C020E000C0400000C0402000C0404000C0406000C0
310
408000C040A000C040C000C040E000C0600000C0602000C0604000C0606000C0608000C060A000C060C000C060E000C0800000C0802000C0804000C0806000C0808000C080A000C080C000C080E000C0A00000C0A02000C0A04000C0A06000C0A08000C0A0A000C0A0C000C0A0E000C0C00000C0C02000C0C04000C0C06000
310
C0C08000C0C0A000F0FBFF00A4A0A000808080000000FF0000FF000000FFFF00FF000000FF00FF00FFFF0000FFFFFF00FFFFFFFFFFFFFFFFFFFFFFFFFFFFFFFFFFFFFFFFFFFFFFFFFFFFFFFFFFFFFFFFFFFFFFFFFFFFFFFFFFFFFFFFFFFFFF0000FFFFFFFFFFFFFFFFFFFFFFFFFFFFFFFFFFFFFFFFFFFFFFFFFFFFFFFFFFFF
310
0000FFFFFFFFFFFFFFFFFFFFFFFFFFFFFFFFFFFFFFFFFFFFFFFFFFFFFFFFFFFF0000FFFFFFFFFFFFFFFFFFFFFFFFFFFFFFFFFFFFFFFFFFFFFFFFFFFFFFFFFF00FFFF00FFFFFFFFFFFFFFFFFFFFFFFFFFFFFFFFFFFFFFFFFFFFFFFFFFFFFFFF00FFFF00FFFFFFFFFFFFFFFFFFFFFFFFFFFFFFFFFFFFFFFFFFFFFFFFFFFFFFFF
310
00FF0000FFFFFFFFFFFFFFFFFFFFFFFFFFFFFFFFFFFFFFFFFFFFFFFFFFFFFFFF00FF0000FFFFFFFFFFFFFFFFFFFFFFFFFFFFFFFFFFFFFFFFFFFFFFFFFFFFFFFF00FF0000FFFFFFFFFFFFFFFFFFFFFFFFFFFFFFFFFFFFFFFFFFFFFFFFFFFFFFFF00000000FFFFFFFFFFFFFFFFFFFFFFFFFFFFFFFFFFFFFFFFFFFFFFFFFFFFFF
310
00FF00FF0000FFFFFFFFFFFFFFFFFFFFFFFFFFFFFFFFFFFFFFFFFFFFFFFFFFFF00FF00FF0000FFFFFFFFFFFFFFFFFFFFFFFFFFFFFFFFFFFFFFFFFFFFFFFFFFFF00FF00FF0000FFFFFFFFFFFFFFFFFFFFFFFFFFFFFFFFFFFFFFFFFFFFFFFFFFFF00FF00FF0000FFFFFFFFFFFFFFFFFFFFFFFFFFFFFFFFFFFFFFFFFFFFFFFFFF
310
FF00FF00FF0000FFFFFFFFFFFFFFFFFFFFFFFFFFFFFFFFFFFFFFFFFFFFFFFFFFFF0000FFFF0000FFFFFFFFFFFFFFFFFFFFFFFFFFFFFFFFFFFFFFFFFFFFFFFFFF00FF00FFFF00FF00FFFFFFFFFFFFFFFFFFFFFFFFFFFFFFFFFFFFFFFFFFFFFFFF00FF00FFFF00FF00FFFFFFFFFFFFFFFFFFFFFFFFFFFFFFFFFFFFFFFFFFFFFF
310
FF00FF00FFFFFF0000FFFFFFFFFFFFFFFFFFFFFFFFFFFFFFFFFFFFFFFFFFFFFFFF00FF00FFFFFF0000FFFFFFFFFFFFFFFFFFFFFFFFFFFFFFFFFFFFFFFFFFFFFFFF00FF00FFFFFF0000FFFFFFFFFFFFFFFFFFFFFFFFFFFFFFFFFFFFFFFFFFFFFFFF0000FFFFFFFF0000FFFFFFFFFFFFFFFFFFFFFFFFFFFFFFFFFFFFFFFFFFFF
310
FF00FF00FFFFFFFF00FF00FFFFFFFFFFFFFFFFFFFFFFFFFFFFFFFFFFFFFFFFFFFF00FF00FFFFFFFF00FF00FFFFFFFFFFFFFFFFFFFFFFFFFFFFFFFFFFFFFFFFFFFF00FF00FFFFFFFF00FF00FFFFFFFFFFFFFFFFFFFFFFFFFFFFFFFFFFFFFFFFFFFF00FF00FFFFFFFF00FF00FFFFFFFFFFFFFFFFFFFFFFFFFFFFFFFFFFFFFFFF
310
FFFF00FF00FFFFFFFFFF0000FFFFFFFFFFFFFFFFFFFFFFFFFFFFFFFFFFFFFFFFFFFF0000FFFFFFFFFFFF0000FFFFFFFFFFFFFFFFFFFFFFFFFFFFFFFFFFFFFFFFFF00FF00FFFFFFFFFFFF00FF00FFFFFFFFFFFFFFFFFFFFFFFFFFFFFFFFFFFFFFFF00FF00FFFFFFFFFFFF00FF00FFFFFFFFFFFFFFFFFFFFFFFFFFFFFFFFFFFF
310
FFFF000000FFFFFFFFFFFF000000FFFFFFFFFFFFFFFFFFFFFFFFFFFFFFFFFFFFFFFFFFFFFFFFFFFFFFFFFFFFFFFFFFFFFFFFFFFFFFFFFFFF
102
{BLKREFS
331
1D60
102
}
  0
BLOCK_RECORD
  5
1D4E
330
1B1D
100
AcDbSymbolTableRecord
100
AcDbBlockTableRecord
  2
AI9-BLK1
340
0
310
2800000020000000200000000100080000000000000400000000000000000000000000000000000000000000000080000080000000808000800000008000800080800000C0C0C000C0DCC000F0CAA6000020400000206000002080000020A0000020C0000020E00000400000004020000040400000406000004080000040A0
310
000040C0000040E00000600000006020000060400000606000006080000060A0000060C0000060E00000800000008020000080400000806000008080000080A0000080C0000080E00000A0000000A0200000A0400000A0600000A0800000A0A00000A0C00000A0E00000C0000000C0200000C0400000C0600000C0800000C0
310
A00000C0C00000C0E00000E0000000E0200000E0400000E0600000E0800000E0A00000E0C00000E0E00040000000400020004000400040006000400080004000A0004000C0004000E00040200000402020004020400040206000402080004020A0004020C0004020E000404000004040200040404000404060004040800040
310
40A0004040C0004040E00040600000406020004060400040606000406080004060A0004060C0004060E00040800000408020004080400040806000408080004080A0004080C0004080E00040A0000040A0200040A0400040A0600040A0800040A0A00040A0C00040A0E00040C0000040C0200040C0400040C0600040C08000
310
40C0A00040C0C00040C0E00040E0000040E0200040E0400040E0600040E0800040E0A00040E0C00040E0E00080000000800020008000400080006000800080008000A0008000C0008000E00080200000802020008020400080206000802080008020A0008020C0008020E00080400000804020008040400080406000804080
310
008040A0008040C0008040E00080600000806020008060400080606000806080008060A0008060C0008060E00080800000808020008080400080806000808080008080A0008080C0008080E00080A0000080A0200080A0400080A0600080A0800080A0A00080A0C00080A0E00080C0000080C0200080C0400080C0600080C0
310
800080C0A00080C0C00080C0E00080E0000080E0200080E0400080E0600080E0800080E0A00080E0C00080E0E000C0000000C0002000C0004000C0006000C0008000C000A000C000C000C000E000C0200000C0202000C0204000C0206000C0208000C020A000C020C000C020E000C0400000C0402000C0404000C0406000C0
310
408000C040A000C040C000C040E000C0600000C0602000C0604000C0606000C0608000C060A000C060C000C060E000C0800000C0802000C0804000C0806000C0808000C080A000C080C000C080E000C0A00000C0A02000C0A04000C0A06000C0A08000C0A0A000C0A0C000C0A0E000C0C00000C0C02000C0C04000C0C06000
310
C0C08000C0C0A000F0FBFF00A4A0A000808080000000FF0000FF000000FFFF00FF000000FF00FF00FFFF0000FFFFFF00FFFFFFFFFFFFFFFFFFFFFFFFFFFFFFFFFFFFFFFFFFFFFFFFFFFFFFFFFFFFFFFFFFFFFFFFFFFFFFFFFFFFFF00000000000000000000FFFFFFFFFFFFFFFFFFFFFFFFFFFFFFFFFFFFFFFFFFFF00FFFFFF
310
FFFFFFFFFF00FFFFFFFFFFFFFFFFFFFFFFFFFFFFFFFFFFFFFFFFFFFF00FFFFFFFFFFFFFFFF00FFFFFFFFFFFFFFFFFFFFFFFFFFFFFFFFFFFFFFFFFFFF00FFFFFFFFFFFFFFFF00FFFFFFFFFFFFFFFFFFFFFFFFFFFFFFFFFFFFFFFFFFFF00FF0000000000000000FFFFFFFFFFFFFFFFFFFFFFFFFFFFFFFFFFFFFFFFFFFF00FF00
310
FFFFFFFFFFFFFFFFFFFFFFFFFFFFFFFFFFFFFFFFFFFFFFFFFFFFFFFFFF00FF00FFFFFFFFFFFFFFFFFFFFFFFFFFFFFFFFFFFFFFFFFFFFFFFFFFFFFFFFFF00FF00FFFFFFFFFFFFFFFFFFFFFFFFFFFFFFFFFFFFFFFFFFFFFFFFFFFFFFFFFF00FF00FFFFFFFFFFFFFFFFFFFFFFFFFFFFFFFFFFFFFFFFFFFFFFFFFFFFFFFFFF00FF
310
00FFFFFFFFFFFFFFFFFFFFFFFFFFFFFFFFFFFFFFFFFFFFFFFFFFFFFFFFFF00FF00FFFFFFFFFFFFFFFFFFFFFFFFFFFFFFFFFFFFFFFFFFFFFFFFFFFFFFFFFF00FF00FFFFFFFFFFFFFFFFFFFFFFFFFFFFFFFFFFFFFFFFFFFFFFFFFFFFFFFFFF00FF00FFFFFFFFFFFFFFFFFFFFFFFFFFFFFFFFFFFFFFFFFFFFFFFFFFFFFFFFFF00
310
FF00000000000000FFFFFFFFFFFFFFFFFFFFFFFFFFFFFFFFFFFFFFFFFFFFFF00FFFFFFFFFFFFFF00FFFFFFFFFFFFFFFFFFFFFFFFFFFFFFFFFFFFFFFFFFFFFF00FFFFFFFFFFFFFF00FFFFFFFFFFFFFFFFFFFFFFFFFFFFFFFFFFFFFFFFFFFFFF00FFFFFFFFFFFFFF00FFFFFFFFFFFFFFFFFFFFFFFFFFFFFFFFFFFFFFFFFFFFFF
310
00FF00000000000000FFFFFFFFFFFFFFFFFFFFFFFFFFFFFFFFFFFFFFFFFFFFFF00FF00FFFFFFFFFFFFFFFFFFFFFFFFFFFFFFFFFFFFFFFFFFFFFFFFFFFFFFFFFF00FF00FFFFFFFFFFFFFFFFFFFFFFFFFFFFFFFFFFFFFFFFFFFFFFFFFFFFFFFFFF00FF00FFFFFFFFFFFFFFFFFFFFFFFFFFFFFFFFFFFFFFFFFFFFFFFFFFFFFFFF
310
FF00FF00FFFFFFFFFFFFFFFFFFFFFFFFFFFFFFFFFFFFFFFFFFFFFFFFFFFFFFFFFF00FF00FFFFFFFFFFFFFFFFFFFFFFFFFFFFFFFFFFFFFFFFFFFFFFFFFFFFFFFFFF00FF00FFFFFFFFFFFFFFFFFFFFFFFFFFFFFFFFFFFFFFFFFFFFFFFFFFFFFFFFFF00FF00FFFFFFFFFFFFFFFFFFFFFFFFFFFFFFFFFFFFFFFFFFFFFFFFFFFFFF
310
FFFF00FF0000000000000000FFFFFFFFFFFFFFFFFFFFFFFFFFFFFFFFFFFFFFFFFFFF00FFFFFFFFFFFFFFFF00FFFFFFFFFFFFFFFFFFFFFFFFFFFFFFFFFFFFFFFFFFFF00FFFFFFFFFFFFFFFF00FFFFFFFFFFFFFFFFFFFFFFFFFFFFFFFFFFFFFFFFFFFF00FFFFFFFFFFFFFFFF00FFFFFFFFFFFFFFFFFFFFFFFFFFFFFFFFFFFFFF
310
FFFFFF00000000000000000000FFFFFFFFFFFFFFFFFFFFFFFFFFFFFFFFFFFFFFFFFFFFFFFFFFFFFFFFFFFFFFFFFFFFFFFFFFFFFFFFFFFFFF
102
{BLKREFS
331
1D61
102
}
  0
BLOCK_RECORD
  5
1D53
330
1B1D
100
AcDbSymbolTableRecord
100
AcDbBlockTableRecord
  2
HD_LLC_logo_OT5
340
0
310
2800000020000000200000000100080000000000000400000000000000000000000000000000000000000000000080000080000000808000800000008000800080800000C0C0C000C0DCC000F0CAA6000020400000206000002080000020A0000020C0000020E00000400000004020000040400000406000004080000040A0
310
000040C0000040E00000600000006020000060400000606000006080000060A0000060C0000060E00000800000008020000080400000806000008080000080A0000080C0000080E00000A0000000A0200000A0400000A0600000A0800000A0A00000A0C00000A0E00000C0000000C0200000C0400000C0600000C0800000C0
310
A00000C0C00000C0E00000E0000000E0200000E0400000E0600000E0800000E0A00000E0C00000E0E00040000000400020004000400040006000400080004000A0004000C0004000E00040200000402020004020400040206000402080004020A0004020C0004020E000404000004040200040404000404060004040800040
310
40A0004040C0004040E00040600000406020004060400040606000406080004060A0004060C0004060E00040800000408020004080400040806000408080004080A0004080C0004080E00040A0000040A0200040A0400040A0600040A0800040A0A00040A0C00040A0E00040C0000040C0200040C0400040C0600040C08000
310
40C0A00040C0C00040C0E00040E0000040E0200040E0400040E0600040E0800040E0A00040E0C00040E0E00080000000800020008000400080006000800080008000A0008000C0008000E00080200000802020008020400080206000802080008020A0008020C0008020E00080400000804020008040400080406000804080
310
008040A0008040C0008040E00080600000806020008060400080606000806080008060A0008060C0008060E00080800000808020008080400080806000808080008080A0008080C0008080E00080A0000080A0200080A0400080A0600080A0800080A0A00080A0C00080A0E00080C0000080C0200080C0400080C0600080C0
310
800080C0A00080C0C00080C0E00080E0000080E0200080E0400080E0600080E0800080E0A00080E0C00080E0E000C0000000C0002000C0004000C0006000C0008000C000A000C000C000C000E000C0200000C0202000C0204000C0206000C0208000C020A000C020C000C020E000C0400000C0402000C0404000C0406000C0
310
408000C040A000C040C000C040E000C0600000C0602000C0604000C0606000C0608000C060A000C060C000C060E000C0800000C0802000C0804000C0806000C0808000C080A000C080C000C080E000C0A00000C0A02000C0A04000C0A06000C0A08000C0A0A000C0A0C000C0A0E000C0C00000C0C02000C0C04000C0C06000
310
C0C08000C0C0A000F0FBFF00A4A0A000808080000000FF0000FF000000FFFF00FF000000FF00FF00FFFF0000FFFFFF00FFFFFFFFFFFFFFFFFFFFFFFFFFFFFFFFFFFFFFFFFFFFFFFFFFFFFFFFFFFFFFFFFFFFFFFFFFFFFFFFFFFFFFFFFFFFFFFFFFFFFFFFFFFFFFFFFFFFFFFFFFFFFFFFFFFFFFFFFFFFFFFFFFFFFFFFFFFFFF
310
FFFFFFFFFFFFFFFFFFFFFFFFFFFFFFFFFFFFFFFFFFFFFFFFFFFFFFFFFFFFFFFFFFFFFFFFFFFFFFFFFFFFFFFFFFFFFFFFFFFFFFFFFFFFFFFFFFFFFFFFFFFFFFFFFFFFFFFFFFFFFFFFFFFFFFFFFFFFFFFFFFFFFFFFFFFFFFFFFFFFFFFFFFFFFFFFFFFFFFFFFFFFFFFFFFFFFFFFFFFFFFFFFFFFFFFFFFFFFFFFFFFFFFFFFFFFFF
310
FFFFFFFFFFFFFFFFFFFFFFFFFFFFFFFFFFFFFFFFFFFFFFFFFFFFFFFFFFFFFFFFFFFFFFFFFFFFFFFFFFFFFFFFFFFFFFFFFFFFFFFFFFFFFFFFFFFFFFFFFFFFFFFFFFFFFFFFFFFFFFFFFFFFFFFFFFFFFFFFFFFFFFFFFFFFFFFFFFFFFFFFFFFFFFFFFFFFFFFFFFFFFFFFFFFFFFFFFFFFFFFFFFFFFFFFFFFFFFFFFFFFFFFFFFFFFF
310
FFFFFFFFFFFFFFFFFFFFFFFFFFFFFFFFFFFFFFFFFFFFFFFFFFFFFFFFFFFFFFFFFFFFFFFFFFFFFFFFFFFFFFFFFFFFFFFFFFFFFFFF0000000000000000000000000000000000000000000000000000000000FFFFFF0000000000000000000000000000000000FFFFFFFFFFFFFFFFFFFF0000FFFFFF0000000000000000000000
310
00000000000000FFFFFFFFFFFFFFFFFFFF0000FFFF000000000000000000000000000000000000FFFFFF00000000FFFFFF0000FFFF00FFFFFFFFFFFF00FFFFFF00FFFFFFFFFF00FFFFFF0000000000FFFF0000FFFF00FFFFFFFFFFFF00FFFFFF00FFFFFFFFFF00FFFFFF00FFFF0000FFFF0000FFFF00FFFFFFFFFFFF00FFFF
310
00FFFFFFFFFFFF00FFFFFF00FFFF0000FFFF0000FFFF0000000000FFFF00000000FFFFFF00000000FFFFFF00000000FFFFFF0000FFFFFFFFFFFF00FFFFFFFFFFFFFFFFFF00FFFFFFFFFFFFFFFFFFFFFFFFFF0000FFFFFFFFFFFF00FFFFFFFFFFFFFFFFFF00FFFFFFFFFFFFFFFFFFFFFFFFFF0000FFFFFFFFFFFF00FFFFFFFF
310
FFFFFFFFFF00FFFFFFFFFFFFFFFFFFFFFFFF0000FFFFFF0000000000FFFF00000000FFFFFF0000000000000000000000000000FFFFFFFF00FFFFFFFFFFFF00FFFF00FFFFFFFFFFFF00FFFFFFFFFFFFFFFFFFFFFFFFFFFF00FFFFFFFFFFFF00FFFFFF00FFFFFFFFFF00FFFFFFFFFFFFFFFFFFFFFFFFFFFF0000000000000000
310
FFFFFF00000000000000FFFFFFFFFFFFFFFFFFFFFFFFFFFFFFFFFFFFFFFFFFFFFFFFFFFFFFFFFFFFFFFFFFFFFFFFFFFFFFFFFFFFFFFFFFFFFFFFFFFFFFFFFFFFFFFFFFFFFFFFFFFFFFFFFFFFFFFFFFFFFFFFFFFFFFFFFFFFFFFFFFFFFFFFFFFFFFFFFFFFFFFFFFFFFFFFFFFFFFFFFFFFFFFFFFFFFFFFFFFFFFFFFFFFFFFFFF
310
FFFFFFFFFFFFFFFFFFFFFFFFFFFFFFFFFFFFFFFFFFFFFFFFFFFFFFFFFFFFFFFFFFFFFFFFFFFFFFFFFFFFFFFFFFFFFFFFFFFFFFFFFFFFFFFF
102
{BLKREFS
331
1D79
102
}
  0
BLOCK_RECORD
  5
1D78
330
1B1D
100
AcDbSymbolTableRecord
100
AcDbBlockTableRecord
  2
HD logo-new
340
0
310
2800000020000000200000000100080000000000000400000000000000000000000000000000000000000000000080000080000000808000800000008000800080800000C0C0C000C0DCC000F0CAA6000020400000206000002080000020A0000020C0000020E00000400000004020000040400000406000004080000040A0
310
000040C0000040E00000600000006020000060400000606000006080000060A0000060C0000060E00000800000008020000080400000806000008080000080A0000080C0000080E00000A0000000A0200000A0400000A0600000A0800000A0A00000A0C00000A0E00000C0000000C0200000C0400000C0600000C0800000C0
310
A00000C0C00000C0E00000E0000000E0200000E0400000E0600000E0800000E0A00000E0C00000E0E00040000000400020004000400040006000400080004000A0004000C0004000E00040200000402020004020400040206000402080004020A0004020C0004020E000404000004040200040404000404060004040800040
310
40A0004040C0004040E00040600000406020004060400040606000406080004060A0004060C0004060E00040800000408020004080400040806000408080004080A0004080C0004080E00040A0000040A0200040A0400040A0600040A0800040A0A00040A0C00040A0E00040C0000040C0200040C0400040C0600040C08000
310
40C0A00040C0C00040C0E00040E0000040E0200040E0400040E0600040E0800040E0A00040E0C00040E0E00080000000800020008000400080006000800080008000A0008000C0008000E00080200000802020008020400080206000802080008020A0008020C0008020E00080400000804020008040400080406000804080
310
008040A0008040C0008040E00080600000806020008060400080606000806080008060A0008060C0008060E00080800000808020008080400080806000808080008080A0008080C0008080E00080A0000080A0200080A0400080A0600080A0800080A0A00080A0C00080A0E00080C0000080C0200080C0400080C0600080C0
310
800080C0A00080C0C00080C0E00080E0000080E0200080E0400080E0600080E0800080E0A00080E0C00080E0E000C0000000C0002000C0004000C0006000C0008000C000A000C000C000C000E000C0200000C0202000C0204000C0206000C0208000C020A000C020C000C020E000C0400000C0402000C0404000C0406000C0
310
408000C040A000C040C000C040E000C0600000C0602000C0604000C0606000C0608000C060A000C060C000C060E000C0800000C0802000C0804000C0806000C0808000C080A000C080C000C080E000C0A00000C0A02000C0A04000C0A06000C0A08000C0A0A000C0A0C000C0A0E000C0C00000C0C02000C0C04000C0C06000
310
C0C08000C0C0A000F0FBFF00A4A0A000808080000000FF0000FF000000FFFF00FF000000FF00FF00FFFF0000FFFFFF00FFFFFFFFFFFFFFFFFFFFFFFFFFFFFFFFFFFFFFFFFFFFFFFFFFFFFFFFFFFFFFFFFFFFFFFFFFFFFFFFFFFFFFFFFFFFFFFFFFFFFFFFFFFFFFFFFFFFFFFFFFFFFFFFFFFFFFFFFFFFFFFFFFFFFFFFFFFFFF
310
FFFFFFFFFFFFFFFFFFFFFFFFFFFFFFFFFFFFFFFFFFFFFFFFFFFFFFFFFFFFFFFFFFFFFFFFFFFFFFFFFFFFFFFFFFFFFFFFFFFFFFFFFFFFFFFFFFFFFFFFFFFFFFFFFFFFFFFFFFFFFFFFFFFFFFFFFFFFFFFFFFFFFFFFFFFFFFFFFFFFFFFFFFFFFFFFFFFFFFFFFFFFFFFFFFFFFFFFFFFFFFFFFFFFFFFFFFFFFFFFFFFFFFFFFFFFFF
310
FFFFFFFFFFFFFFFFFFFFFFFFFFFFFFFFFFFFFFFFFFFFFFFFFFFFFFFFFFFFFFFFFFFFFFFFFFFFFFFFFFFFFFFFFFFFFFFFFFFFFFFFFFFFFFFFFFFFFFFFFFFFFFFFFFFFFFFFFFFFFFFFFFFFFFFFFFFFFFFFFFFFFFFFFFFFFFFFFFFFFFFFFFFFFFFFFFFFFFFFFFFFFFFFFFFFFFFFFFFFFFFFFFFFFFFFFFFFFFFFFFFFFFFFFFFFFF
310
FFFFFFFFFFFFFFFFFFFFFFFFFFFFFFFFFFFFFFFFFFFFFFFFFFFFFFFFFFFFFFFFFFFFFFFFFFFFFFFFFFFFFFFFFFFFFFFFFFFFFFFF0000000000000000000000000000000000000000000000000000000000FFFFFF0000000000000000000000000000000000FFFFFFFFFFFFFFFFFFFF0000FFFFFF0000000000000000000000
310
00000000000000FFFFFFFFFFFFFFFFFFFF0000FFFF000000000000000000000000000000000000FFFFFF00000000FFFFFF0000FFFF00FFFFFFFFFFFF00FFFFFF00FFFFFFFFFF00FFFFFF0000000000FFFF0000FFFF00FFFFFFFFFFFF00FFFFFF00FFFFFFFFFF00FFFFFF00FFFF0000FFFF0000FFFF00FFFFFFFFFFFF00FFFF
310
00FFFFFFFFFFFF00FFFFFF00FFFF0000FFFF0000FFFF0000000000FFFF00000000FFFFFF00000000FFFFFF00000000FFFFFF0000FFFFFFFFFFFF00FFFFFFFFFFFFFFFFFF00FFFFFFFFFFFFFFFFFFFFFFFFFF0000FFFFFFFFFFFF00FFFFFFFFFFFFFFFFFF00FFFFFFFFFFFFFFFFFFFFFFFFFF0000FFFFFFFFFFFF00FFFFFFFF
310
FFFFFFFFFF00FFFFFFFFFFFFFFFFFFFFFFFF0000FFFFFF0000000000FFFF00000000FFFFFF0000000000000000000000000000FFFFFFFF00FFFFFFFFFFFF00FFFF00FFFFFFFFFFFF00FFFFFFFFFFFFFFFFFFFFFFFFFFFF00FFFFFFFFFFFF00FFFFFF00FFFFFFFFFF00FFFFFFFFFFFFFFFFFFFFFFFFFFFF0000000000000000
310
FFFFFF00000000000000FFFFFFFFFFFFFFFFFFFFFFFFFFFFFFFFFFFFFFFFFFFFFFFFFFFFFFFFFFFFFFFFFFFFFFFFFFFFFFFFFFFFFFFFFFFFFFFFFFFFFFFFFFFFFFFFFFFFFFFFFFFFFFFFFFFFFFFFFFFFFFFFFFFFFFFFFFFFFFFFFFFFFFFFFFFFFFFFFFFFFFFFFFFFFFFFFFFFFFFFFFFFFFFFFFFFFFFFFFFFFFFFFFFFFFFFFF
310
FFFFFFFFFFFFFFFFFFFFFFFFFFFFFFFFFFFFFFFFFFFFFFFFFFFFFFFFFFFFFFFFFFFFFFFFFFFFFFFFFFFFFFFFFFFFFFFFFFFFFFFFFFFFFFFF
102
{BLKREFS
331
1D7D
102
}
  0
BLOCK_RECORD
  5
1D7C
330
1B1D
100
AcDbSymbolTableRecord
100
AcDbBlockTableRecord
  2
HD Logo
340
0
310
2800000020000000200000000100080000000000000400000000000000000000000000000000000000000000000080000080000000808000800000008000800080800000C0C0C000C0DCC000F0CAA6000020400000206000002080000020A0000020C0000020E00000400000004020000040400000406000004080000040A0
310
000040C0000040E00000600000006020000060400000606000006080000060A0000060C0000060E00000800000008020000080400000806000008080000080A0000080C0000080E00000A0000000A0200000A0400000A0600000A0800000A0A00000A0C00000A0E00000C0000000C0200000C0400000C0600000C0800000C0
310
A00000C0C00000C0E00000E0000000E0200000E0400000E0600000E0800000E0A00000E0C00000E0E00040000000400020004000400040006000400080004000A0004000C0004000E00040200000402020004020400040206000402080004020A0004020C0004020E000404000004040200040404000404060004040800040
310
40A0004040C0004040E00040600000406020004060400040606000406080004060A0004060C0004060E00040800000408020004080400040806000408080004080A0004080C0004080E00040A0000040A0200040A0400040A0600040A0800040A0A00040A0C00040A0E00040C0000040C0200040C0400040C0600040C08000
310
40C0A00040C0C00040C0E00040E0000040E0200040E0400040E0600040E0800040E0A00040E0C00040E0E00080000000800020008000400080006000800080008000A0008000C0008000E00080200000802020008020400080206000802080008020A0008020C0008020E00080400000804020008040400080406000804080
310
008040A0008040C0008040E00080600000806020008060400080606000806080008060A0008060C0008060E00080800000808020008080400080806000808080008080A0008080C0008080E00080A0000080A0200080A0400080A0600080A0800080A0A00080A0C00080A0E00080C0000080C0200080C0400080C0600080C0
310
800080C0A00080C0C00080C0E00080E0000080E0200080E0400080E0600080E0800080E0A00080E0C00080E0E000C0000000C0002000C0004000C0006000C0008000C000A000C000C000C000E000C0200000C0202000C0204000C0206000C0208000C020A000C020C000C020E000C0400000C0402000C0404000C0406000C0
310
408000C040A000C040C000C040E000C0600000C0602000C0604000C0606000C0608000C060A000C060C000C060E000C0800000C0802000C0804000C0806000C0808000C080A000C080C000C080E000C0A00000C0A02000C0A04000C0A06000C0A08000C0A0A000C0A0C000C0A0E000C0C00000C0C02000C0C04000C0C06000
310
C0C08000C0C0A000F0FBFF00A4A0A000808080000000FF0000FF000000FFFF00FF000000FF00FF00FFFF0000FFFFFF00FFFFFFFFFFFFFFFFFFFFFFFFFFFFFFFFFFFFFFFFFFFFFFFFFFFFFFFFFFFFFFFFFFFFFFFFFFFFFFFFFFFFFFFFFFFFFFFFFFFFFFFFFFFFFFFFFFFFFFFFFFFFFFFFFFFFFFFFFFFFFFFFFFFFFFFFFFFFFF
310
FFFFFFFFFFFFFFFFFFFFFFFFFFFFFFFFFFFFFFFFFFFFFFFFFFFFFFFFFFFFFFFFFFFFFFFFFFFFFFFFFFFFFFFFFFFFFFFFFFFFFFFFFFFFFFFFFFFFFFFFFFFFFFFFFFFFFFFFFFFFFFFFFFFFFFFFFFFFFFFFFFFFFFFFFFFFFFFFFFFFFFFFFFFFFFFFFFFFFFFFFFFFFFFFFFFFFFFFFFFFFFFFFFFFFFFFFFFFFFFFFFFFFFFFFFFFFF
310
FFFFFFFFFFFFFFFFFFFFFFFFFFFFFFFFFFFFFFFFFFFFFFFFFFFFFFFFFFFFFFFFFFFFFFFFFFFFFFFFFFFFFFFFFFFFFFFFFFFFFFFFFFFFFFFFFFFFFFFFFFFFFFFFFFFFFFFFFFFFFFFFFFFFFFFFFFFFFFFFFFFFFFFFFFFFFFFFFFFFFFFFFFFFFFFFFFFFFFFFFFFFFFFFFFFFFFFFFFFFFFFFFFFFFFFFFFFFFFFFFFFFFFFFFFFFFF
310
FFFFFFFFFFFFFFFFFFFFFFFFFFFFFFFFFFFFFFFFFFFFFFFFFFFFFFFFFFFFFFFFFFFFFFFFFFFFFFFFFFFFFFFFFFFFFFFFFFFFFFFF0000000000000000000000000000000000000000000000000000000000FFFFFF0000000000000000000000000000000000FFFFFFFFFFFFFFFFFFFF0000FFFFFF0000000000000000000000
310
00000000000000FFFFFFFFFFFFFFFFFFFF0000FFFF000000000000000000000000000000000000FFFFFF00000000FFFFFF0000FFFF00FFFFFFFFFFFF00FFFFFF00FFFFFFFFFF00FFFFFF0000000000FFFF0000FFFF00FFFFFFFFFFFF00FFFFFF00FFFFFFFFFF00FFFFFF00FFFF0000FFFF0000FFFF00FFFFFFFFFFFF00FFFF
310
00FFFFFFFFFFFF00FFFFFF00FFFF0000FFFF0000FFFF0000000000FFFF00000000FFFFFF00000000FFFFFF00000000FFFFFF0000FFFFFFFFFFFF00FFFFFFFFFFFFFFFFFF00FFFFFFFFFFFFFFFFFFFFFFFFFF0000FFFFFFFFFFFF00FFFFFFFFFFFFFFFFFF00FFFFFFFFFFFFFFFFFFFFFFFFFF0000FFFFFFFFFFFF00FFFFFFFF
310
FFFFFFFFFF00FFFFFFFFFFFFFFFFFFFFFFFF0000FFFFFF0000000000FFFF00000000FFFFFF0000000000000000000000000000FFFFFFFF00FFFFFFFFFFFF00FFFF00FFFFFFFFFFFF00FFFFFFFFFFFFFFFFFFFFFFFFFFFF00FFFFFFFFFFFF00FFFFFF00FFFFFFFFFF00FFFFFFFFFFFFFFFFFFFFFFFFFFFF0000000000000000
310
FFFFFF00000000000000FFFFFFFFFFFFFFFFFFFFFFFFFFFFFFFFFFFFFFFFFFFFFFFFFFFFFFFFFFFFFFFFFFFFFFFFFFFFFFFFFFFFFFFFFFFFFFFFFFFFFFFFFFFFFFFFFFFFFFFFFFFFFFFFFFFFFFFFFFFFFFFFFFFFFFFFFFFFFFFFFFFFFFFFFFFFFFFFFFFFFFFFFFFFFFFFFFFFFFFFFFFFFFFFFFFFFFFFFFFFFFFFFFFFFFFFFF
310
FFFFFFFFFFFFFFFFFFFFFFFFFFFFFFFFFFFFFFFFFFFFFFFFFFFFFFFFFFFFFFFFFFFFFFFFFFFFFFFFFFFFFFFFFFFFFFFFFFFFFFFFFFFFFFFF
102
{BLKREFS
331
1D83
331
1D87
102
}
  0
BLOCK_RECORD
  5
1D88
330
1B1D
100
AcDbSymbolTableRecord
100
AcDbBlockTableRecord
  2
Harmonic Drive LLC
340
0
310
2800000020000000200000000100080000000000000400000000000000000000000000000000000000000000000080000080000000808000800000008000800080800000C0C0C000C0DCC000F0CAA6000020400000206000002080000020A0000020C0000020E00000400000004020000040400000406000004080000040A0
310
000040C0000040E00000600000006020000060400000606000006080000060A0000060C0000060E00000800000008020000080400000806000008080000080A0000080C0000080E00000A0000000A0200000A0400000A0600000A0800000A0A00000A0C00000A0E00000C0000000C0200000C0400000C0600000C0800000C0
310
A00000C0C00000C0E00000E0000000E0200000E0400000E0600000E0800000E0A00000E0C00000E0E00040000000400020004000400040006000400080004000A0004000C0004000E00040200000402020004020400040206000402080004020A0004020C0004020E000404000004040200040404000404060004040800040
310
40A0004040C0004040E00040600000406020004060400040606000406080004060A0004060C0004060E00040800000408020004080400040806000408080004080A0004080C0004080E00040A0000040A0200040A0400040A0600040A0800040A0A00040A0C00040A0E00040C0000040C0200040C0400040C0600040C08000
310
40C0A00040C0C00040C0E00040E0000040E0200040E0400040E0600040E0800040E0A00040E0C00040E0E00080000000800020008000400080006000800080008000A0008000C0008000E00080200000802020008020400080206000802080008020A0008020C0008020E00080400000804020008040400080406000804080
310
008040A0008040C0008040E00080600000806020008060400080606000806080008060A0008060C0008060E00080800000808020008080400080806000808080008080A0008080C0008080E00080A0000080A0200080A0400080A0600080A0800080A0A00080A0C00080A0E00080C0000080C0200080C0400080C0600080C0
310
800080C0A00080C0C00080C0E00080E0000080E0200080E0400080E0600080E0800080E0A00080E0C00080E0E000C0000000C0002000C0004000C0006000C0008000C000A000C000C000C000E000C0200000C0202000C0204000C0206000C0208000C020A000C020C000C020E000C0400000C0402000C0404000C0406000C0
310
408000C040A000C040C000C040E000C0600000C0602000C0604000C0606000C0608000C060A000C060C000C060E000C0800000C0802000C0804000C0806000C0808000C080A000C080C000C080E000C0A00000C0A02000C0A04000C0A06000C0A08000C0A0A000C0A0C000C0A0E000C0C00000C0C02000C0C04000C0C06000
310
C0C08000C0C0A000F0FBFF00A4A0A000808080000000FF0000FF000000FFFF00FF000000FF00FF00FFFF0000FFFFFF00FFFFFFFFFFFFFFFFFFFFFFFFFFFFFFFFFFFFFFFFFFFFFFFFFFFFFFFFFFFFFFFFFFFFFFFFFFFFFFFFFFFFFFFFFFFFFFFFFFFFFFFFFFFFFFFFFFFFFFFFFFFFFFFFFFFFFFFFFFFFFFFFFFFFFFFFFFFFFF
310
FFFFFFFFFFFFFFFFFFFFFFFFFFFFFFFFFFFFFFFFFFFFFFFFFFFFFFFFFFFFFFFFFFFFFFFFFFFFFFFFFFFFFFFFFFFFFFFFFFFFFFFFFFFFFFFFFFFFFFFFFFFFFFFFFFFFFFFFFFFFFFFFFFFFFFFFFFFFFFFFFFFFFFFFFFFFFFFFFFFFFFFFFFFFFFFFFFFFFFFFFFFFFFFFFFFFFFFFFFFFFFFFFFFFFFFFFFFFFFFFFFFFFFFFFFFFFF
310
FFFFFFFFFFFFFFFFFFFFFFFFFFFFFFFFFFFFFFFFFFFFFFFFFFFFFFFFFFFFFFFFFFFFFFFFFFFFFFFFFFFFFFFFFFFFFFFFFFFFFFFFFFFFFFFFFFFFFFFFFFFFFFFFFFFFFFFFFFFFFFFFFFFFFFFFFFFFFFFFFFFFFFFFFFFFFFFFFFFFFFFFFFFFFFFFFFFFFFFFFFFFFFFFFFFFFFFFFFFFFFFFFFFFFFFFFFFFFFFFFFFFFFFFFFFFFF
310
FFFFFFFFFFFFFFFFFFFFFFFFFFFFFFFFFFFFFFFFFFFFFFFFFFFFFFFFFFFFFFFFFFFFFFFFFFFFFFFFFFFFFFFFFFFFFFFFFFFFFFFFFFFFFFFFFFFFFFFFFFFFFFFFFFFFFFFFFFFFFFFFFFFFFFFFFFFFFFFFFFFFFFFFFFFFFFFFFFFFFFFF0000000000000000000000000000FFFFFFFFFFFFFFFFFFFFFFFFFFFFFFFFFFFF000000
310
0000000000000000000000FFFFFFFFFFFFFFFFFFFFFFFFFFFFFFFFFFFFFFFFFF000000000000000000FFFFFFFFFFFFFFFFFFFFFFFFFFFFFFFFFFFFFFFFFFFFFF000000000000000000FFFFFFFFFFFFFFFFFFFFFFFFFFFFFFFFFFFFFFFFFF000000000000000000000000FFFFFFFFFFFFFFFFFFFFFFFFFFFFFFFFFFFFFFFF00
310
FFFFFF00FF0000FF000000FFFFFFFFFFFFFFFFFFFFFFFFFFFFFFFFFFFFFFFFFFFFFFFFFFFFFFFFFFFFFFFFFFFFFFFFFFFFFFFFFFFFFFFFFFFFFFFFFFFFFFFFFFFFFFFFFFFFFFFFFFFFFFFFFFFFFFFFFFFFFFFFFFFFFFFFFFFFFFFFFFFFFFFFFFFFFFFFFFFFFFFFFFFFFFFFFFFFFFFFFFFFFFFFFFFFFFFFFFFFFFFFFFFFFFFF
310
FFFFFFFFFFFFFFFFFFFFFFFFFFFFFFFFFFFFFFFFFFFFFFFFFFFFFFFFFFFFFFFFFFFFFFFFFFFFFFFFFFFFFFFFFFFFFFFFFFFFFFFFFFFFFFFFFFFFFFFFFFFFFFFFFFFFFFFFFFFFFFFFFFFFFFFFFFFFFFFFFFFFFFFFFFFFFFFFFFFFFFFFFFFFFFFFFFFFFFFFFFFFFFFFFFFFFFFFFFFFFFFFFFFFFFFFFFFFFFFFFFFFFFFFFFFFFF
310
FFFFFFFFFFFFFFFFFFFFFFFFFFFFFFFFFFFFFFFFFFFFFFFFFFFFFFFFFFFFFFFFFFFFFFFFFFFFFFFFFFFFFFFFFFFFFFFFFFFFFFFFFFFFFFFFFFFFFFFFFFFFFFFFFFFFFFFFFFFFFFFFFFFFFFFFFFFFFFFFFFFFFFFFFFFFFFFFFFFFFFFFFFFFFFFFFFFFFFFFFFFFFFFFFFFFFFFFFFFFFFFFFFFFFFFFFFFFFFFFFFFFFFFFFFFFFF
310
FFFFFFFFFFFFFFFFFFFFFFFFFFFFFFFFFFFFFFFFFFFFFFFFFFFFFFFFFFFFFFFFFFFFFFFFFFFFFFFFFFFFFFFFFFFFFFFFFFFFFFFFFFFFFFFF
102
{BLKREFS
331
1D8D
331
1D92
102
}
  0
BLOCK_RECORD
  5
1D9F
330
1B1D
100
AcDbSymbolTableRecord
100
AcDbBlockTableRecord
  2
HD LLC
340
0
310
2800000020000000200000000100080000000000000400000000000000000000000000000000000000000000000080000080000000808000800000008000800080800000C0C0C000C0DCC000F0CAA6000020400000206000002080000020A0000020C0000020E00000400000004020000040400000406000004080000040A0
310
000040C0000040E00000600000006020000060400000606000006080000060A0000060C0000060E00000800000008020000080400000806000008080000080A0000080C0000080E00000A0000000A0200000A0400000A0600000A0800000A0A00000A0C00000A0E00000C0000000C0200000C0400000C0600000C0800000C0
310
A00000C0C00000C0E00000E0000000E0200000E0400000E0600000E0800000E0A00000E0C00000E0E00040000000400020004000400040006000400080004000A0004000C0004000E00040200000402020004020400040206000402080004020A0004020C0004020E000404000004040200040404000404060004040800040
310
40A0004040C0004040E00040600000406020004060400040606000406080004060A0004060C0004060E00040800000408020004080400040806000408080004080A0004080C0004080E00040A0000040A0200040A0400040A0600040A0800040A0A00040A0C00040A0E00040C0000040C0200040C0400040C0600040C08000
310
40C0A00040C0C00040C0E00040E0000040E0200040E0400040E0600040E0800040E0A00040E0C00040E0E00080000000800020008000400080006000800080008000A0008000C0008000E00080200000802020008020400080206000802080008020A0008020C0008020E00080400000804020008040400080406000804080
310
008040A0008040C0008040E00080600000806020008060400080606000806080008060A0008060C0008060E00080800000808020008080400080806000808080008080A0008080C0008080E00080A0000080A0200080A0400080A0600080A0800080A0A00080A0C00080A0E00080C0000080C0200080C0400080C0600080C0
310
800080C0A00080C0C00080C0E00080E0000080E0200080E0400080E0600080E0800080E0A00080E0C00080E0E000C0000000C0002000C0004000C0006000C0008000C000A000C000C000C000E000C0200000C0202000C0204000C0206000C0208000C020A000C020C000C020E000C0400000C0402000C0404000C0406000C0
310
408000C040A000C040C000C040E000C0600000C0602000C0604000C0606000C0608000C060A000C060C000C060E000C0800000C0802000C0804000C0806000C0808000C080A000C080C000C080E000C0A00000C0A02000C0A04000C0A06000C0A08000C0A0A000C0A0C000C0A0E000C0C00000C0C02000C0C04000C0C06000
310
C0C08000C0C0A000F0FBFF00A4A0A000808080000000FF0000FF000000FFFF00FF000000FF00FF00FFFF0000FFFFFF00FFFFFFFFFFFFFFFFFFFFFFFFFFFFFFFFFFFFFFFFFFFFFFFFFFFFFFFFFFFFFFFFFFFFFFFFFFFFFFFFFFFFFFFFFFFFFFFFFFFFFFFFFFFFFFFFFFFFFFFFFFFFFFFFFFFFFFFFFFFFFFFFFFFFFFFFFFFFFF
310
FFFFFFFFFFFFFFFFFFFFFFFFFFFFFFFFFFFFFFFFFFFFFFFFFFFFFFFFFFFFFFFFFFFFFFFFFFFFFFFFFFFFFFFFFFFFFFFFFFFFFFFFFFFFFFFFFFFFFFFFFFFFFFFFFFFFFFFFFFFFFFFFFFFFFFFFFFFFFFFFFFFFFFFFFFFFFFFFFFFFFFFFFFFFFFFFFFFFFFFFFFFFFFFFFFFFFFFFFFFFFFFFFFFFFFFFFFFFFFFFFFFFFFFFFFFFFF
310
FFFFFFFFFFFFFFFFFFFFFFFFFFFFFFFFFFFFFFFFFFFFFFFFFFFFFFFFFFFFFFFFFFFFFFFFFFFFFFFFFFFFFFFFFFFFFFFFFFFFFFFFFFFFFFFFFFFFFFFFFFFFFFFFFFFFFFFFFFFFFFFFFFFFFFFFFFFFFFFFFFFFFFFFFFFFFFFFFFFFFFFFFFFFFFFFFFFFFFFFFFFFFFFFFFFFFFFFFFFFFFFFFFFFFFFFFFFFFFFFFFFFFFFFFFFFFF
310
FFFFFFFFFFFFFFFFFFFFFFFFFFFFFFFFFFFFFFFFFFFFFFFFFFFFFFFFFFFFFFFFFFFFFFFFFFFFFFFFFFFFFFFFFFFFFFFFFFFFFFFFFFFFFFFFFFFFFFFFFFFFFFFFFFFFFFFFFFFFFFFFFFFFFFFFFFFFFFFFFFFFFFFFFFFFFFFFFFFFFFFFFFFFFFFFFFFFFFFFFFFFFFFFFFFFFFFFFFFFFFFFFFFFFFFFFFFFFFFFFFFFFFFFFFFF00
310
000000000000000000FFFFFFFFFFFFFFFFFFFFFFFFFFFFFFFFFFFFFFFFFFFF00000000000000000000FFFFFFFFFFFFFFFFFFFFFFFFFFFFFFFFFFFFFFFFFFFF00000000000000000000FFFFFFFFFFFFFFFFFFFFFFFFFFFFFFFFFFFFFFFFFFFF00000000000000000000FFFFFFFFFFFFFFFFFFFFFFFFFFFFFFFFFFFFFFFFFFFF
310
FFFFFFFFFFFFFFFFFFFFFFFFFFFFFFFFFFFFFFFFFFFFFFFFFFFFFFFFFFFFFFFFFFFFFFFFFFFFFFFFFFFFFFFFFFFFFFFFFFFFFFFFFFFFFFFFFFFFFFFFFFFFFFFFFFFFFFFFFFFFFFFFFFFFFFFFFFFFFFFFFFFFFFFFFFFFFFFFFFFFFFFFFFFFFFFFFFFFFFFFFFFFFFFFFFFFFFFFFFFFFFFFFFFFFFFFFFFFFFFFFFFFFFFFFFFFFF
310
FFFFFFFFFFFFFFFFFFFFFFFFFFFFFFFFFFFFFFFFFFFFFFFFFFFFFFFFFFFFFFFFFFFFFFFFFFFFFFFFFFFFFFFFFFFFFFFFFFFFFFFFFFFFFFFFFFFFFFFFFFFFFFFFFFFFFFFFFFFFFFFFFFFFFFFFFFFFFFFFFFFFFFFFFFFFFFFFFFFFFFFFFFFFFFFFFFFFFFFFFFFFFFFFFFFFFFFFFFFFFFFFFFFFFFFFFFFFFFFFFFFFFFFFFFFFFF
310
FFFFFFFFFFFFFFFFFFFFFFFFFFFFFFFFFFFFFFFFFFFFFFFFFFFFFFFFFFFFFFFFFFFFFFFFFFFFFFFFFFFFFFFFFFFFFFFFFFFFFFFFFFFFFFFFFFFFFFFFFFFFFFFFFFFFFFFFFFFFFFFFFFFFFFFFFFFFFFFFFFFFFFFFFFFFFFFFFFFFFFFFFFFFFFFFFFFFFFFFFFFFFFFFFFFFFFFFFFFFFFFFFFFFFFFFFFFFFFFFFFFFFFFFFFFFFF
310
FFFFFFFFFFFFFFFFFFFFFFFFFFFFFFFFFFFFFFFFFFFFFFFFFFFFFFFFFFFFFFFFFFFFFFFFFFFFFFFFFFFFFFFFFFFFFFFFFFFFFFFFFFFFFFFF
102
{BLKREFS
331
1DA4
331
1DA8
102
}
  0
BLOCK_RECORD
  5
1DA9
330
1B1D
100
AcDbSymbolTableRecord
100
AcDbBlockTableRecord
  2
NTC
340
0
310
2800000020000000200000000100080000000000000400000000000000000000000000000000000000000000000080000080000000808000800000008000800080800000C0C0C000C0DCC000F0CAA6000020400000206000002080000020A0000020C0000020E00000400000004020000040400000406000004080000040A0
310
000040C0000040E00000600000006020000060400000606000006080000060A0000060C0000060E00000800000008020000080400000806000008080000080A0000080C0000080E00000A0000000A0200000A0400000A0600000A0800000A0A00000A0C00000A0E00000C0000000C0200000C0400000C0600000C0800000C0
310
A00000C0C00000C0E00000E0000000E0200000E0400000E0600000E0800000E0A00000E0C00000E0E00040000000400020004000400040006000400080004000A0004000C0004000E00040200000402020004020400040206000402080004020A0004020C0004020E000404000004040200040404000404060004040800040
310
40A0004040C0004040E00040600000406020004060400040606000406080004060A0004060C0004060E00040800000408020004080400040806000408080004080A0004080C0004080E00040A0000040A0200040A0400040A0600040A0800040A0A00040A0C00040A0E00040C0000040C0200040C0400040C0600040C08000
310
40C0A00040C0C00040C0E00040E0000040E0200040E0400040E0600040E0800040E0A00040E0C00040E0E00080000000800020008000400080006000800080008000A0008000C0008000E00080200000802020008020400080206000802080008020A0008020C0008020E00080400000804020008040400080406000804080
310
008040A0008040C0008040E00080600000806020008060400080606000806080008060A0008060C0008060E00080800000808020008080400080806000808080008080A0008080C0008080E00080A0000080A0200080A0400080A0600080A0800080A0A00080A0C00080A0E00080C0000080C0200080C0400080C0600080C0
310
800080C0A00080C0C00080C0E00080E0000080E0200080E0400080E0600080E0800080E0A00080E0C00080E0E000C0000000C0002000C0004000C0006000C0008000C000A000C000C000C000E000C0200000C0202000C0204000C0206000C0208000C020A000C020C000C020E000C0400000C0402000C0404000C0406000C0
310
408000C040A000C040C000C040E000C0600000C0602000C0604000C0606000C0608000C060A000C060C000C060E000C0800000C0802000C0804000C0806000C0808000C080A000C080C000C080E000C0A00000C0A02000C0A04000C0A06000C0A08000C0A0A000C0A0C000C0A0E000C0C00000C0C02000C0C04000C0C06000
310
C0C08000C0C0A000F0FBFF00A4A0A000808080000000FF0000FF000000FFFF00FF000000FF00FF00FFFF0000FFFFFF00FFFFFFFFFFFFFFFFFFFFFFFFFFFFFFFFFFFFFFFFFFFFFFFFFFFFFFFFFFFFFFFFFFFFFFFFFFFFFFFFFFFFFFFFFFFFFFFFFFFFFFFFFFFFFFFFFFFFFFFFFFFFFFFFFFFFFFFFFFFFFFFFFFFFFFFFFFFFFF
310
FFFFFFFFFFFFFFFFFFFFFFFFFFFFFFFFFFFFFFFFFFFFFFFFFFFFFFFFFFFFFFFFFFFFFFFFFFFFFFFFFFFFFFFFFFFFFFFFFFFFFFFFFFFFFFFFFFFFFFFFFFFFFFFFFFFFFFFFFFFFFFFFFFFFFFFFFFFFFFFFFFFFFFFFFFFFFFFFFFFFFFFFFFFFFFFFFFFFFFFFFFFFFFFFFFFFFFFFFFFFFFFFFFFFFFFFFFFFFFFFFFFFFFFFFFFFFF
310
FFFFFFFFFFFFFFFFFFFFFFFFFFFFFFFFFFFFFFFFFFFFFFFFFFFFFFFFFFFFFFFFFFFFFFFFFFFFFFFFFFFFFFFFFFFFFFFFFFFFFFFFFFFFFFFFFFFFFFFFFFFFFFFFFFFFFFFFFFFFFFFFFFFFFFFFFFFFFFFFFFFFFFFFFFFFFFFFFFFFFFFFFFFFFFFFFFFFFFFFFFFFFFFFFFFFFFFFFFFFFFFFFFFFFFFFFFFFFFFFFFFFFFFFFFFFFF
310
FFFFFFFFFFFFFFFFFFFFFFFFFFFFFFFFFFFFFFFF000000000000000000000000000000000000000000000000000000000000FFFF00FF0000000000000000FFFFFFFFFFFFFFFFFFFFFFFFFFFFFFFFFFFFFF00FFFF00FF0000000000000000FFFFFFFFFFFFFFFFFFFFFFFFFFFFFFFFFFFFFF00FFFF00FF000000000000000000
310
00000000000000000000000000FFFFFFFFFF00FFFF00FF0000000000000000000000000000000000000000000000000000FF00FFFF00FF0000000000000000000000000000000000000000000000000000FF00FFFF00FF0000000000000000000000000000000000000000000000000000FF00FFFF00FF0000000000000000
310
00000000000000000000000000000000FFFFFF00FFFF00FF0000000000FFFFFFFFFFFFFFFFFFFFFFFFFFFFFFFFFFFFFFFFFFFF00FFFF000000000000000000000000000000000000000000000000000000000000FFFFFFFFFFFFFFFFFFFFFFFFFFFFFFFFFFFFFFFFFFFFFFFFFFFFFFFFFFFFFFFFFFFFFFFFFFFFFFFFFFFFFF
310
FFFFFFFFFFFFFFFFFFFFFFFFFFFFFFFFFFFFFFFFFFFFFFFFFFFFFFFFFFFFFFFFFFFFFFFFFFFFFFFFFFFFFFFFFFFFFFFFFFFFFFFFFFFFFFFFFFFFFFFFFFFFFFFFFFFFFFFFFFFFFFFFFFFFFFFFFFFFFFFFFFFFFFFFFFFFFFFFFFFFFFFFFFFFFFFFFFFFFFFFFFFFFFFFFFFFFFFFFFFFFFFFFFFFFFFFFFFFFFFFFFFFFFFFFFFFFF
310
FFFFFFFFFFFFFFFFFFFFFFFFFFFFFFFFFFFFFFFFFFFFFFFFFFFFFFFFFFFFFFFFFFFFFFFFFFFFFFFFFFFFFFFFFFFFFFFFFFFFFFFFFFFFFFFFFFFFFFFFFFFFFFFFFFFFFFFFFFFFFFFFFFFFFFFFFFFFFFFFFFFFFFFFFFFFFFFFFFFFFFFFFFFFFFFFFFFFFFFFFFFFFFFFFFFFFFFFFFFFFFFFFFFFFFFFFFFFFFFFFFFFFFFFFFFFFF
310
FFFFFFFFFFFFFFFFFFFFFFFFFFFFFFFFFFFFFFFFFFFFFFFFFFFFFFFFFFFFFFFFFFFFFFFFFFFFFFFFFFFFFFFFFFFFFFFFFFFFFFFFFFFFFFFF
102
{BLKREFS
331
1DAF
331
1DB5
102
}
  0
ENDTAB
  0
ENDSEC
  0
SECTION
  2
BLOCKS
  0
BLOCK
  5
1B3B
330
1B3A
100
AcDbEntity
  8
0
100
AcDbBlockBegin
  2
*Model_Space
 70
     0
 10
0.0
 20
0.0
 30
0.0
  3
*Model_Space
  1

  0
ENDBLK
  5
1B3C
330
1B3A
100
AcDbEntity
  8
0
100
AcDbBlockEnd
  0
BLOCK
  5
1B37
330
1B36
100
AcDbEntity
 67
     1
  8
0
100
AcDbBlockBegin
  2
*Paper_Space
 70
     0
 10
0.0
 20
0.0
 30
0.0
  3
*Paper_Space
  1

  0
ENDBLK
  5
1B38
330
1B36
100
AcDbEntity
 67
     1
  8
0
100
AcDbBlockEnd
  0
BLOCK
  5
1B53
330
1B52
100
AcDbEntity
  8
0
100
AcDbBlockBegin
  2
$MODEL_SPACE
 70
     0
 10
0.0
 20
0.0
 30
0.0
  3
$MODEL_SPACE
  1

  0
ENDBLK
  5
1B54
330
1B52
100
AcDbEntity
  8
0
100
AcDbBlockEnd
  0
BLOCK
  5
1B56
330
1B55
100
AcDbEntity
  8
0
100
AcDbBlockBegin
  2
$PAPER_SPACE
 70
     0
 10
0.0
 20
0.0
 30
0.0
  3
$PAPER_SPACE
  1

  0
ENDBLK
  5
1B57
330
1B55
100
AcDbEntity
  8
0
100
AcDbBlockEnd
  0
BLOCK
  5
1D17
330
1D14
100
AcDbEntity
  8
0
 62
     7
100
AcDbBlockBegin
  2
AI9-BLK14
 70
     0
 10
0.0
 20
0.0
 30
0.0
  3
AI9-BLK14
  1

  0
SPLINE
  5
1D15
330
1D14
100
AcDbEntity
  8
LAYER_1
 62
     7
100
AcDbSpline
210
0.0
220
0.0
230
1.0
 70
    11
 71
     3
 72
    23
 73
    19
 74
     0
 42
0.0000000001
 43
0.0000000001
 40
0.0
 40
0.0
 40
0.0
 40
0.0
 40
1.0
 40
1.0
 40
1.0
 40
2.0
 40
2.0
 40
2.0
 40
3.0
 40
3.0
 40
3.0
 40
4.0
 40
4.0
 40
4.0
 40
5.0
 40
5.0
 40
5.0
 40
6.0
 40
6.0
 40
6.0
 40
6.0
 10
-10.90321044921874
 20
10.88107571072048
 30
0.0
 10
-10.90321044921874
 20
10.88107571072048
 30
0.0
 10
-10.90321044921874
 20
-10.88107571072048
 30
0.0
 10
-10.90321044921874
 20
-10.88107571072048
 30
0.0
 10
-10.90321044921874
 20
-10.88107571072048
 30
0.0
 10
1.752692328559025
 20
-10.88107571072048
 30
0.0
 10
1.752692328559025
 20
-10.88107571072048
 30
0.0
 10
3.280592176649305
 20
-10.88107571072048
 30
0.0
 10
10.90321044921874
 20
-10.32383151584201
 30
0.0
 10
10.90321044921874
 20
0.6792867024739583
 30
0.0
 10
10.90321044921874
 20
10.61700914171006
 30
0.0
 10
2.773129611545138
 20
10.87952541775172
 30
0.0
 10
2.691136338975693
 20
10.88090345594618
 30
0.0
 10
2.691136338975693
 20
10.88090345594618
 30
0.0
 10
-9.903099229600693
 20
10.88107571072048
 30
0.0
 10
-9.903099229600693
 20
10.88107571072048
 30
0.0
 10
-9.903099229600693
 20
10.88107571072048
 30
0.0
 10
-10.90321044921874
 20
10.88107571072048
 30
0.0
 10
-10.90321044921874
 20
10.88107571072048
 30
0.0
  0
SPLINE
  5
1D16
330
1D14
100
AcDbEntity
  8
LAYER_1
 62
     7
100
AcDbSpline
210
0.0
220
0.0
230
1.0
 70
    11
 71
     3
 72
    20
 73
    16
 74
     0
 42
0.0000000001
 43
0.0000000001
 40
0.0
 40
0.0
 40
0.0
 40
0.0
 40
1.0
 40
1.0
 40
1.0
 40
2.0
 40
2.0
 40
2.0
 40
3.0
 40
3.0
 40
3.0
 40
4.0
 40
4.0
 40
4.0
 40
5.0
 40
5.0
 40
5.0
 40
5.0
 10
2.672877332899305
 20
8.881197781032986
 30
0.0
 10
2.905421278211805
 20
8.874307590060762
 30
0.0
 10
8.902988009982637
 20
8.616442192925347
 30
0.0
 10
8.902988009982637
 20
0.6792867024739583
 30
0.0
 10
8.902988009982637
 20
-8.191661919487842
 30
0.0
 10
3.430109320746526
 20
-8.881197781032986
 30
0.0
 10
1.752692328559025
 20
-8.881197781032986
 30
0.0
 10
1.752692328559025
 20
-8.881197781032986
 30
0.0
 10
-7.231427680121528
 20
-8.881197781032986
 30
0.0
 10
-8.902988009982637
 20
-8.881197781032986
 30
0.0
 10
-8.902988009982637
 20
-7.174497477213541
 30
0.0
 10
-8.902988009982637
 20
7.174497477213541
 30
0.0
 10
-8.902988009982637
 20
8.881197781032986
 30
0.0
 10
-7.208690049913191
 20
8.881197781032986
 30
0.0
 10
2.672877332899305
 20
8.881197781032986
 30
0.0
 10
2.672877332899305
 20
8.881197781032986
 30
0.0
  0
ENDBLK
  5
1D18
330
1D14
100
AcDbEntity
  8
0
100
AcDbBlockEnd
  0
BLOCK
  5
1D1C
330
1D19
100
AcDbEntity
  8
0
 62
     7
100
AcDbBlockBegin
  2
AI9-BLK13
 70
     0
 10
0.0
 20
0.0
 30
0.0
  3
AI9-BLK13
  1

  0
LWPOLYLINE
  5
1D1A
330
1D19
100
AcDbEntity
  8
LAYER_1
 62
     7
100
AcDbPolyline
 90
       12
 70
     1
 43
0.0
 10
-3.792361111111107
 20
10.7376736111111
 10
-2.469444444444443
 20
10.7376736111111
 10
-2.469444444444443
 20
1.874131944444444
 10
2.469444444444443
 20
1.874131944444444
 10
2.469444444444443
 20
10.7376736111111
 10
3.792361111111107
 20
10.7376736111111
 10
3.792361111111107
 20
-10.7376736111111
 10
2.469444444444443
 20
-10.7376736111111
 10
2.469444444444443
 20
-0.6835069444444444
 10
-2.469444444444443
 20
-0.6835069444444444
 10
-2.469444444444443
 20
-10.7376736111111
 10
-3.792361111111107
 20
-10.7376736111111
  0
HATCH
  5
1D1B
330
1D19
100
AcDbEntity
  8
LAYER_1
 62
     7
100
AcDbHatch
 10
0.0
 20
0.0
 30
0.0
210
0.0
220
0.0
230
1.0
  2
SOLID
 70
     1
 71
     0
 91
        1
 92
        3
 72
     0
 73
     1
 93
       12
 10
-3.792361111111107
 20
10.7376736111111
 10
-2.469444444444443
 20
10.7376736111111
 10
-2.469444444444443
 20
1.874131944444444
 10
2.469444444444443
 20
1.874131944444444
 10
2.469444444444443
 20
10.7376736111111
 10
3.792361111111107
 20
10.7376736111111
 10
3.792361111111107
 20
-10.7376736111111
 10
2.469444444444443
 20
-10.7376736111111
 10
2.469444444444443
 20
-0.6835069444444444
 10
-2.469444444444443
 20
-0.6835069444444444
 10
-2.469444444444443
 20
-10.7376736111111
 10
-3.792361111111107
 20
-10.7376736111111
 97
        0
 75
     2
 76
     1
 98
        1
 10
0.0
 20
0.0
  0
ENDBLK
  5
1D1D
330
1D19
100
AcDbEntity
  8
0
100
AcDbBlockEnd
  0
BLOCK
  5
1D21
330
1D1E
100
AcDbEntity
  8
0
 62
     7
100
AcDbBlockBegin
  2
AI9-BLK11
 70
     0
 10
0.0
 20
0.0
 30
0.0
  3
AI9-BLK11
  1

  0
SPLINE
  5
1D1F
330
1D1E
100
AcDbEntity
  8
LAYER_1
 62
     7
100
AcDbSpline
210
0.0
220
0.0
230
1.0
 70
    11
 71
     3
 72
    26
 73
    22
 74
     0
 42
0.0000000001
 43
0.0000000001
 40
0.0
 40
0.0
 40
0.0
 40
0.0
 40
1.0
 40
1.0
 40
1.0
 40
2.0
 40
2.0
 40
2.0
 40
3.0
 40
3.0
 40
3.0
 40
4.0
 40
4.0
 40
4.0
 40
5.0
 40
5.0
 40
5.0
 40
6.0
 40
6.0
 40
6.0
 40
7.0
 40
7.0
 40
7.0
 40
7.0
 10
-2.645833333333333
 20
0.9039930555555551
 30
0.0
 10
-2.645833333333333
 20
0.9039930555555551
 30
0.0
 10
-2.645833333333333
 20
8.180034722222217
 30
0.0
 10
-2.645833333333333
 20
8.180034722222217
 30
0.0
 10
-2.645833333333333
 20
8.180034722222217
 30
0.0
 10
0.465087890625
 20
8.180034722222217
 30
0.0
 10
0.465087890625
 20
8.180034722222217
 30
0.0
 10
0.9026150173611108
 20
8.180034722222217
 30
0.0
 10
1.24988064236111
 20
8.034651692708331
 30
0.0
 10
1.506884765625
 20
7.745263671874997
 30
0.0
 10
2.001600477430554
 20
7.194048394097221
 30
0.0
 10
2.248958333333332
 20
6.160519748263887
 30
0.0
 10
2.248958333333332
 20
4.643299696180553
 30
0.0
 10
2.248958333333332
 20
3.232188585069443
 30
0.0
 10
2.072569444444444
 20
2.256537543402775
 30
0.0
 10
1.720480685763888
 20
1.715657552083333
 30
0.0
 10
1.368391927083333
 20
1.174088541666665
 30
0.0
 10
0.8929687499999998
 20
0.9039930555555551
 30
0.0
 10
0.2942111545138888
 20
0.9039930555555551
 30
0.0
 10
0.2942111545138888
 20
0.9039930555555551
 30
0.0
 10
-2.645833333333333
 20
0.9039930555555551
 30
0.0
 10
-2.645833333333333
 20
0.9039930555555551
 30
0.0
  0
SPLINE
  5
1D20
330
1D1E
100
AcDbEntity
  8
LAYER_1
 62
     7
100
AcDbSpline
210
0.0
220
0.0
230
1.0
 70
    11
 71
     3
 72
    68
 73
    64
 74
     0
 42
0.0000000001
 43
0.0000000001
 40
0.0
 40
0.0
 40
0.0
 40
0.0
 40
1.0
 40
1.0
 40
1.0
 40
2.0
 40
2.0
 40
2.0
 40
3.0
 40
3.0
 40
3.0
 40
4.0
 40
4.0
 40
4.0
 40
5.0
 40
5.0
 40
5.0
 40
6.0
 40
6.0
 40
6.0
 40
7.0
 40
7.0
 40
7.0
 40
8.0
 40
8.0
 40
8.0
 40
9.0
 40
9.0
 40
9.0
 40
10.0
 40
10.0
 40
10.0
 40
11.0
 40
11.0
 40
11.0
 40
12.0
 40
12.0
 40
12.0
 40
13.0
 40
13.0
 40
13.0
 40
14.0
 40
14.0
 40
14.0
 40
15.0
 40
15.0
 40
15.0
 40
16.0
 40
16.0
 40
16.0
 40
17.0
 40
17.0
 40
17.0
 40
18.0
 40
18.0
 40
18.0
 40
19.0
 40
19.0
 40
19.0
 40
20.0
 40
20.0
 40
20.0
 40
21.0
 40
21.0
 40
21.0
 40
21.0
 10
-3.968749999999998
 20
-10.7376736111111
 30
0.0
 10
-3.968749999999998
 20
-10.7376736111111
 30
0.0
 10
-2.645833333333333
 20
-10.7376736111111
 30
0.0
 10
-2.645833333333333
 20
-10.7376736111111
 30
0.0
 10
-2.645833333333333
 20
-10.7376736111111
 30
0.0
 10
-2.645833333333333
 20
-1.521354166666665
 30
0.0
 10
-2.645833333333333
 20
-1.521354166666665
 30
0.0
 10
-2.645833333333333
 20
-1.521354166666665
 30
0.0
 10
0.2390896267361111
 20
-1.521354166666665
 30
0.0
 10
0.2390896267361111
 20
-1.521354166666665
 30
0.0
 10
0.7599880642361111
 20
-1.521354166666665
 30
0.0
 10
1.143771701388887
 20
-1.65295681423611
 30
0.0
 10
1.390440538194444
 20
-1.916162109374999
 30
0.0
 10
1.816254340277773
 20
-2.39434136284722
 30
0.0
 10
2.04363064236111
 20
-3.335541449652775
 30
0.0
 10
2.072569444444444
 20
-4.739762369791666
 30
0.0
 10
2.072569444444444
 20
-4.739762369791666
 30
0.0
 10
2.160763888888888
 20
-8.324039713541665
 30
0.0
 10
2.160763888888888
 20
-8.324039713541665
 30
0.0
 10
2.18005642361111
 20
-9.163264973958332
 30
0.0
 10
2.202794053819443
 20
-9.728949652777775
 30
0.0
 10
2.227598741319444
 20
-10.02109374999998
 30
0.0
 10
2.252403428819443
 20
-10.31392686631944
 30
0.0
 10
2.28892144097222
 20
-10.55301649305555
 30
0.0
 10
2.33853081597222
 20
-10.7376736111111
 30
0.0
 10
2.33853081597222
 20
-10.7376736111111
 30
0.0
 10
3.968749999999998
 20
-10.7376736111111
 30
0.0
 10
3.968749999999998
 20
-10.7376736111111
 30
0.0
 10
3.968749999999998
 20
-10.7376736111111
 30
0.0
 10
3.968749999999998
 20
-10.25260416666666
 30
0.0
 10
3.968749999999998
 20
-10.25260416666666
 30
0.0
 10
3.766867404513888
 20
-10.05830078125
 30
0.0
 10
3.625618489583333
 20
-9.621462673611112
 30
0.0
 10
3.545692274305555
 20
-8.942089843749997
 30
0.0
 10
3.49470486111111
 20
-8.543836805555555
 30
0.0
 10
3.459564887152775
 20
-7.937499999999999
 30
0.0
 10
3.439583333333333
 20
-7.121701388888887
 30
0.0
 10
3.439583333333333
 20
-7.121701388888887
 30
0.0
 10
3.395486111111106
 20
-4.232644314236106
 30
0.0
 10
3.395486111111106
 20
-4.232644314236106
 30
0.0
 10
3.375504557291666
 20
-2.981385633680555
 30
0.0
 10
3.26870659722222
 20
-2.077392578125
 30
0.0
 10
3.075781249999999
 20
-1.522043185763888
 30
0.0
 10
2.882166883680555
 20
-0.9666937934027776
 30
0.0
 10
2.592089843749999
 20
-0.5188313802083333
 30
0.0
 10
2.204861111111106
 20
-0.1770779079861111
 30
0.0
 10
2.63618706597222
 20
0.3197048611111111
 30
0.0
 10
2.971739366319443
 20
0.9770290798611107
 30
0.0
 10
3.211518012152775
 20
1.79558376736111
 30
0.0
 10
3.451296657986107
 20
2.613449435763888
 30
0.0
 10
3.571874999999999
 20
3.66558159722222
 30
0.0
 10
3.571874999999999
 20
4.951291232638888
 30
0.0
 10
3.571874999999999
 20
7.415912543402777
 30
0.0
 10
3.124701605902775
 20
9.106076388888887
 30
0.0
 10
2.231043836805555
 20
10.02178276909722
 30
0.0
 10
1.759754774305553
 20
10.498583984375
 30
0.0
 10
1.163753255208332
 20
10.7376736111111
 30
0.0
 10
0.443039279513889
 20
10.7376736111111
 30
0.0
 10
0.443039279513889
 20
10.7376736111111
 30
0.0
 10
-3.968749999999998
 20
10.7376736111111
 30
0.0
 10
-3.968749999999998
 20
10.7376736111111
 30
0.0
 10
-3.968749999999998
 20
10.7376736111111
 30
0.0
 10
-3.968749999999998
 20
-10.7376736111111
 30
0.0
 10
-3.968749999999998
 20
-10.7376736111111
 30
0.0
  0
ENDBLK
  5
1D22
330
1D1E
100
AcDbEntity
  8
0
100
AcDbBlockEnd
  0
BLOCK
  5
1D25
330
1D23
100
AcDbEntity
  8
0
 62
     7
100
AcDbBlockBegin
  2
AI9-BLK10
 70
     0
 10
0.0
 20
0.0
 30
0.0
  3
AI9-BLK10
  1

  0
SPLINE
  5
1D24
330
1D23
100
AcDbEntity
  8
LAYER_1
 62
     7
100
AcDbSpline
210
0.0
220
0.0
230
1.0
 70
    11
 71
     3
 72
    59
 73
    55
 74
     0
 42
0.0000000001
 43
0.0000000001
 40
0.0
 40
0.0
 40
0.0
 40
0.0
 40
1.0
 40
1.0
 40
1.0
 40
2.0
 40
2.0
 40
2.0
 40
3.0
 40
3.0
 40
3.0
 40
4.0
 40
4.0
 40
4.0
 40
5.0
 40
5.0
 40
5.0
 40
6.0
 40
6.0
 40
6.0
 40
7.0
 40
7.0
 40
7.0
 40
8.0
 40
8.0
 40
8.0
 40
9.0
 40
9.0
 40
9.0
 40
10.0
 40
10.0
 40
10.0
 40
11.0
 40
11.0
 40
11.0
 40
12.0
 40
12.0
 40
12.0
 40
13.0
 40
13.0
 40
13.0
 40
14.0
 40
14.0
 40
14.0
 40
15.0
 40
15.0
 40
15.0
 40
16.0
 40
16.0
 40
16.0
 40
17.0
 40
17.0
 40
17.0
 40
18.0
 40
18.0
 40
18.0
 40
18.0
 10
-4.652256944444443
 20
10.7376736111111
 30
0.0
 10
-4.652256944444443
 20
10.7376736111111
 30
0.0
 10
-2.798795572916666
 20
10.7376736111111
 30
0.0
 10
-2.798795572916666
 20
10.7376736111111
 30
0.0
 10
-2.798795572916666
 20
10.7376736111111
 30
0.0
 10
0.0
 20
-7.419357638888887
 30
0.0
 10
0.0
 20
-7.419357638888887
 30
0.0
 10
0.0
 20
-7.419357638888887
 30
0.0
 10
2.793283420138888
 20
10.7376736111111
 30
0.0
 10
2.793283420138888
 20
10.7376736111111
 30
0.0
 10
2.793283420138888
 20
10.7376736111111
 30
0.0
 10
4.652256944444443
 20
10.7376736111111
 30
0.0
 10
4.652256944444443
 20
10.7376736111111
 30
0.0
 10
4.652256944444443
 20
10.7376736111111
 30
0.0
 10
4.652256944444443
 20
-10.7376736111111
 30
0.0
 10
4.652256944444443
 20
-10.7376736111111
 30
0.0
 10
4.652256944444443
 20
-10.7376736111111
 30
0.0
 10
3.41753472222222
 20
-10.7376736111111
 30
0.0
 10
3.41753472222222
 20
-10.7376736111111
 30
0.0
 10
3.41753472222222
 20
-10.7376736111111
 30
0.0
 10
3.41753472222222
 20
1.936832682291665
 30
0.0
 10
3.41753472222222
 20
1.936832682291665
 30
0.0
 10
3.41753472222222
 20
2.375048828124999
 30
0.0
 10
3.424424913194443
 20
3.101274956597221
 30
0.0
 10
3.439583333333333
 20
4.11482204861111
 30
0.0
 10
3.454052734374998
 20
5.128369140624998
 30
0.0
 10
3.461631944444443
 20
6.214952256944441
 30
0.0
 10
3.461631944444443
 20
7.375260416666666
 30
0.0
 10
3.461631944444443
 20
7.375260416666666
 30
0.0
 10
0.6538791232638889
 20
-10.7376736111111
 30
0.0
 10
0.6538791232638889
 20
-10.7376736111111
 30
0.0
 10
0.6538791232638889
 20
-10.7376736111111
 30
0.0
 10
-0.6628363715277778
 20
-10.7376736111111
 30
0.0
 10
-0.6628363715277778
 20
-10.7376736111111
 30
0.0
 10
-0.6628363715277778
 20
-10.7376736111111
 30
0.0
 10
-3.461631944444443
 20
7.375260416666666
 30
0.0
 10
-3.461631944444443
 20
7.375260416666666
 30
0.0
 10
-3.461631944444443
 20
7.375260416666666
 30
0.0
 10
-3.461631944444443
 20
6.717247178819441
 30
0.0
 10
-3.461631944444443
 20
6.717247178819441
 30
0.0
 10
-3.461631944444443
 20
6.190836588541666
 30
0.0
 10
-3.45474175347222
 20
5.389507378472222
 30
0.0
 10
-3.439583333333333
 20
4.312570529513888
 30
0.0
 10
-3.425113932291666
 20
3.235633680555555
 30
0.0
 10
-3.41753472222222
 20
2.44395073784722
 30
0.0
 10
-3.41753472222222
 20
1.936832682291665
 30
0.0
 10
-3.41753472222222
 20
1.936832682291665
 30
0.0
 10
-3.41753472222222
 20
-10.7376736111111
 30
0.0
 10
-3.41753472222222
 20
-10.7376736111111
 30
0.0
 10
-3.41753472222222
 20
-10.7376736111111
 30
0.0
 10
-4.652256944444443
 20
-10.7376736111111
 30
0.0
 10
-4.652256944444443
 20
-10.7376736111111
 30
0.0
 10
-4.652256944444443
 20
-10.7376736111111
 30
0.0
 10
-4.652256944444443
 20
10.7376736111111
 30
0.0
 10
-4.652256944444443
 20
10.7376736111111
 30
0.0
  0
ENDBLK
  5
1D26
330
1D23
100
AcDbEntity
  8
0
100
AcDbBlockEnd
  0
BLOCK
  5
1D2A
330
1D27
100
AcDbEntity
  8
0
 62
     7
100
AcDbBlockBegin
  2
AI9-BLK9
 70
     0
 10
0.0
 20
0.0
 30
0.0
  3
AI9-BLK9
  1

  0
SPLINE
  5
1D28
330
1D27
100
AcDbEntity
  8
LAYER_1
 62
     7
100
AcDbSpline
210
0.0
220
0.0
230
1.0
 70
    11
 71
     3
 72
    29
 73
    25
 74
     0
 42
0.0000000001
 43
0.0000000001
 40
0.0
 40
0.0
 40
0.0
 40
0.0
 40
1.0
 40
1.0
 40
1.0
 40
2.0
 40
2.0
 40
2.0
 40
3.0
 40
3.0
 40
3.0
 40
4.0
 40
4.0
 40
4.0
 40
5.0
 40
5.0
 40
5.0
 40
6.0
 40
6.0
 40
6.0
 40
7.0
 40
7.0
 40
7.0
 40
8.0
 40
8.0
 40
8.0
 40
8.0
 10
0.0668348524305556
 20
-8.753298611111111
 30
0.0
 10
-0.9067491319444444
 20
-8.753298611111111
 30
0.0
 10
-1.60954861111111
 20
-7.936810980902778
 30
0.0
 10
-2.041563585069444
 20
-6.30383572048611
 30
0.0
 10
-2.474267578124999
 20
-4.670860460069443
 30
0.0
 10
-2.689930555555555
 20
-2.664436848958333
 30
0.0
 10
-2.689930555555555
 20
-0.28525390625
 30
0.0
 10
-2.689930555555555
 20
2.68855251736111
 30
0.0
 10
-2.439127604166666
 20
4.938199869791666
 30
0.0
 10
-1.937521701388888
 20
6.464377170138886
 30
0.0
 10
-1.43591579861111
 20
7.989865451388887
 30
0.0
 10
-0.7827256944444444
 20
8.753298611111111
 30
0.0
 10
0.0220486111111111
 20
8.753298611111111
 30
0.0
 10
0.8468044704861108
 20
8.753298611111111
 30
0.0
 10
1.49792751736111
 20
7.982975260416663
 30
0.0
 10
1.974728732638888
 20
6.442328559027776
 30
0.0
 10
2.451529947916665
 20
4.901681857638886
 30
0.0
 10
2.689930555555555
 20
2.868386501736111
 30
0.0
 10
2.689930555555555
 20
0.3438205295138888
 30
0.0
 10
2.689930555555555
 20
-2.045697699652774
 30
0.0
 10
2.483224826388884
 20
-4.15891927083333
 30
0.0
 10
2.071191406249999
 20
-5.996533203124998
 30
0.0
 10
1.65915798611111
 20
-7.834836154513887
 30
0.0
 10
0.9908094618055557
 20
-8.753298611111111
 30
0.0
 10
0.0668348524305556
 20
-8.753298611111111
 30
0.0
  0
SPLINE
  5
1D29
330
1D27
100
AcDbEntity
  8
LAYER_1
 62
     7
100
AcDbSpline
210
0.0
220
0.0
230
1.0
 70
    11
 71
     3
 72
    29
 73
    25
 74
     0
 42
0.0000000001
 43
0.0000000001
 40
0.0
 40
0.0
 40
0.0
 40
0.0
 40
1.0
 40
1.0
 40
1.0
 40
2.0
 40
2.0
 40
2.0
 40
3.0
 40
3.0
 40
3.0
 40
4.0
 40
4.0
 40
4.0
 40
5.0
 40
5.0
 40
5.0
 40
6.0
 40
6.0
 40
6.0
 40
7.0
 40
7.0
 40
7.0
 40
8.0
 40
8.0
 40
8.0
 40
8.0
 10
-0.0289388020833333
 20
11.35503472222222
 30
0.0
 10
-1.317404513888887
 20
11.35503472222222
 30
0.0
 10
-2.28892144097222
 20
10.02798394097222
 30
0.0
 10
-2.94280056423611
 20
7.374571397569441
 30
0.0
 10
-3.450607638888888
 20
5.30613606770833
 30
0.0
 10
-3.704166666666666
 20
2.81877712673611
 30
0.0
 10
-3.704166666666666
 20
-0.0881944444444445
 30
0.0
 10
-3.704166666666666
 20
-3.307291666666666
 30
0.0
 10
-3.406510416666666
 20
-5.97035047743055
 30
0.0
 10
-2.811197916666666
 20
-8.077370876736106
 30
0.0
 10
-2.147672526041664
 20
-10.26293945312499
 30
0.0
 10
-1.229899088541666
 20
-11.35503472222222
 30
0.0
 10
-0.0585666232638889
 20
-11.35503472222222
 30
0.0
 10
1.20027126736111
 20
-11.35503472222222
 30
0.0
 10
2.166276041666665
 20
-10.10653211805555
 30
0.0
 10
2.840136718749998
 20
-7.609526909722221
 30
0.0
 10
3.416156684027776
 20
-5.483213975694441
 30
0.0
 10
3.704166666666666
 20
-2.814643012152775
 30
0.0
 10
3.704166666666666
 20
0.3948079427083333
 30
0.0
 10
3.704166666666666
 20
3.360346137152776
 30
0.0
 10
3.449918619791666
 20
5.793961588541666
 30
0.0
 10
2.94280056423611
 20
7.696343315972222
 30
0.0
 10
2.298567708333333
 20
10.13547092013888
 30
0.0
 10
1.307758246527777
 20
11.35503472222222
 30
0.0
 10
-0.0289388020833333
 20
11.35503472222222
 30
0.0
  0
ENDBLK
  5
1D2B
330
1D27
100
AcDbEntity
  8
0
100
AcDbBlockEnd
  0
BLOCK
  5
1D2F
330
1D2C
100
AcDbEntity
  8
0
 62
     7
100
AcDbBlockBegin
  2
AI9-BLK8
 70
     0
 10
0.0
 20
0.0
 30
0.0
  3
AI9-BLK8
  1

  0
LWPOLYLINE
  5
1D2D
330
1D2C
100
AcDbEntity
  8
LAYER_1
 62
     7
100
AcDbPolyline
 90
       10
 70
     1
 43
0.0
 10
-3.792361111111107
 20
10.7376736111111
 10
-2.268939887152773
 20
10.7376736111111
 10
2.557638888888888
 20
-6.505718315972222
 10
2.557638888888888
 20
10.7376736111111
 10
3.792361111111107
 20
10.7376736111111
 10
3.792361111111107
 20
-10.7376736111111
 10
2.32612847222222
 20
-10.7376736111111
 10
-2.557638888888888
 20
6.549815538194441
 10
-2.557638888888888
 20
-10.7376736111111
 10
-3.792361111111107
 20
-10.7376736111111
  0
HATCH
  5
1D2E
330
1D2C
100
AcDbEntity
  8
LAYER_1
 62
     7
100
AcDbHatch
 10
0.0
 20
0.0
 30
0.0
210
0.0
220
0.0
230
1.0
  2
SOLID
 70
     1
 71
     0
 91
        1
 92
        3
 72
     0
 73
     1
 93
       10
 10
-3.792361111111107
 20
10.7376736111111
 10
-2.268939887152773
 20
10.7376736111111
 10
2.557638888888888
 20
-6.505718315972222
 10
2.557638888888888
 20
10.7376736111111
 10
3.792361111111107
 20
10.7376736111111
 10
3.792361111111107
 20
-10.7376736111111
 10
2.32612847222222
 20
-10.7376736111111
 10
-2.557638888888888
 20
6.549815538194441
 10
-2.557638888888888
 20
-10.7376736111111
 10
-3.792361111111107
 20
-10.7376736111111
 97
        0
 75
     2
 76
     1
 98
        1
 10
0.0
 20
0.0
  0
ENDBLK
  5
1D30
330
1D2C
100
AcDbEntity
  8
0
100
AcDbBlockEnd
  0
BLOCK
  5
1D34
330
1D31
100
AcDbEntity
  8
0
 62
     7
100
AcDbBlockBegin
  2
AI9-BLK7
 70
     0
 10
0.0
 20
0.0
 30
0.0
  3
AI9-BLK7
  1

  0
LWPOLYLINE
  5
1D32
330
1D31
100
AcDbEntity
  8
LAYER_1
 62
     7
100
AcDbPolyline
 90
        4
 70
     1
 43
0.0
 10
-0.6614583333333333
 20
10.7376736111111
 10
0.6614583333333333
 20
10.7376736111111
 10
0.6614583333333333
 20
-10.7376736111111
 10
-0.6614583333333333
 20
-10.7376736111111
  0
HATCH
  5
1D33
330
1D31
100
AcDbEntity
  8
LAYER_1
 62
     7
100
AcDbHatch
 10
0.0
 20
0.0
 30
0.0
210
0.0
220
0.0
230
1.0
  2
SOLID
 70
     1
 71
     0
 91
        1
 92
        3
 72
     0
 73
     1
 93
        4
 10
-0.6614583333333333
 20
10.7376736111111
 10
0.6614583333333333
 20
10.7376736111111
 10
0.6614583333333333
 20
-10.7376736111111
 10
-0.6614583333333333
 20
-10.7376736111111
 97
        0
 75
     2
 76
     1
 98
        1
 10
0.0
 20
0.0
  0
ENDBLK
  5
1D35
330
1D31
100
AcDbEntity
  8
0
100
AcDbBlockEnd
  0
BLOCK
  5
1D38
330
1D36
100
AcDbEntity
  8
0
 62
     7
100
AcDbBlockBegin
  2
AI9-BLK6
 70
     0
 10
0.0
 20
0.0
 30
0.0
  3
AI9-BLK6
  1

  0
SPLINE
  5
1D37
330
1D36
100
AcDbEntity
  8
LAYER_1
 62
     7
100
AcDbSpline
210
0.0
220
0.0
230
1.0
 70
    11
 71
     3
 72
    59
 73
    55
 74
     0
 42
0.0000000001
 43
0.0000000001
 40
0.0
 40
0.0
 40
0.0
 40
0.0
 40
1.0
 40
1.0
 40
1.0
 40
2.0
 40
2.0
 40
2.0
 40
3.0
 40
3.0
 40
3.0
 40
4.0
 40
4.0
 40
4.0
 40
5.0
 40
5.0
 40
5.0
 40
6.0
 40
6.0
 40
6.0
 40
7.0
 40
7.0
 40
7.0
 40
8.0
 40
8.0
 40
8.0
 40
9.0
 40
9.0
 40
9.0
 40
10.0
 40
10.0
 40
10.0
 40
11.0
 40
11.0
 40
11.0
 40
12.0
 40
12.0
 40
12.0
 40
13.0
 40
13.0
 40
13.0
 40
14.0
 40
14.0
 40
14.0
 40
15.0
 40
15.0
 40
15.0
 40
16.0
 40
16.0
 40
16.0
 40
17.0
 40
17.0
 40
17.0
 40
18.0
 40
18.0
 40
18.0
 40
18.0
 10
3.062689887152775
 20
9.168088107638887
 30
0.0
 10
3.735172526041666
 20
7.739062499999997
 30
0.0
 10
4.110687934027776
 20
6.116422526041666
 30
0.0
 10
4.189236111111108
 20
4.299479166666666
 30
0.0
 10
4.189236111111108
 20
4.299479166666666
 30
0.0
 10
2.866319444444443
 20
4.299479166666666
 30
0.0
 10
2.866319444444443
 20
4.299479166666666
 30
0.0
 10
2.720936414930555
 20
5.667871093749997
 30
0.0
 10
2.435682508680555
 20
6.752387152777776
 30
0.0
 10
2.009868706597218
 20
7.553027343749997
 30
0.0
 10
1.584054904513888
 20
8.352978515624997
 30
0.0
 10
0.9839192708333332
 20
8.753298611111111
 30
0.0
 10
0.2101508246527778
 20
8.753298611111111
 30
0.0
 10
-0.7386284722222222
 20
8.753298611111111
 30
0.0
 10
-1.503439670138888
 20
8.010536024305555
 30
0.0
 10
-2.083593749999999
 20
6.526388888888886
 30
0.0
 10
-2.664436848958333
 20
5.042241753472221
 30
0.0
 10
-2.954513888888888
 20
2.767100694444443
 30
0.0
 10
-2.954513888888888
 20
-0.2990342881944444
 30
0.0
 10
-2.954513888888888
 20
-2.811197916666666
 30
0.0
 10
-2.693375651041666
 20
-4.847938368055555
 30
0.0
 10
-2.17041015625
 20
-6.409944661458332
 30
0.0
 10
-1.648133680555553
 20
-7.972639973958332
 30
0.0
 10
-0.8640299479166666
 20
-8.753298611111111
 30
0.0
 10
0.1812120225694444
 20
-8.753298611111111
 30
0.0
 10
1.138948567708333
 20
-8.753298611111111
 30
0.0
 10
1.865174696180553
 20
-7.927853732638887
 30
0.0
 10
2.359201388888884
 20
-6.275585937499998
 30
0.0
 10
2.62998589409722
 20
-5.406043836805555
 30
0.0
 10
2.828423394097221
 20
-4.262272135416666
 30
0.0
 10
2.954513888888888
 20
-2.844270833333331
 30
0.0
 10
2.954513888888888
 20
-2.844270833333331
 30
0.0
 10
4.277430555555555
 20
-2.844270833333331
 30
0.0
 10
4.277430555555555
 20
-2.844270833333331
 30
0.0
 10
4.169943576388888
 20
-5.109765624999996
 30
0.0
 10
3.795117187499998
 20
-7.009391276041665
 30
0.0
 10
3.151573350694443
 20
-8.542458767361106
 30
0.0
 10
2.381249999999999
 20
-10.38834092881943
 30
0.0
 10
1.347721354166665
 20
-11.3109375
 30
0.0
 10
0.0509874131944445
 20
-11.3109375
 30
0.0
 10
-1.07004665798611
 20
-11.3109375
 30
0.0
 10
-2.010557725694444
 20
-10.55577256944443
 30
0.0
 10
-2.771234809027776
 20
-9.04475368923611
 30
0.0
 10
-3.775824652777775
 20
-7.046598307291666
 30
0.0
 10
-4.277430555555555
 20
-3.961170789930555
 30
0.0
 10
-4.277430555555555
 20
0.2115288628472222
 30
0.0
 10
-4.277430555555555
 20
3.379638671874998
 30
0.0
 10
-3.902604166666666
 20
5.977929687499997
 30
0.0
 10
-3.151573350694443
 20
8.005712890624996
 30
0.0
 10
-2.333018663194443
 20
10.20919596354165
 30
0.0
 10
-1.20647243923611
 20
11.3109375
 30
0.0
 10
0.2266872829861111
 20
11.3109375
 30
0.0
 10
1.444873046875
 20
11.3109375
 30
0.0
 10
2.390207248263884
 20
10.59642469618055
 30
0.0
 10
3.062689887152775
 20
9.168088107638887
 30
0.0
  0
ENDBLK
  5
1D39
330
1D36
100
AcDbEntity
  8
0
100
AcDbBlockEnd
  0
BLOCK
  5
1D3D
330
1D3A
100
AcDbEntity
  8
0
 62
     7
100
AcDbBlockBegin
  2
AI9-BLK5
 70
     0
 10
0.0
 20
0.0
 30
0.0
  3
AI9-BLK5
  1

  0
SPLINE
  5
1D3B
330
1D3A
100
AcDbEntity
  8
LAYER_1
 62
     7
100
AcDbSpline
210
0.0
220
0.0
230
1.0
 70
    11
 71
     3
 72
    32
 73
    28
 74
     0
 42
0.0000000001
 43
0.0000000001
 40
0.0
 40
0.0
 40
0.0
 40
0.0
 40
1.0
 40
1.0
 40
1.0
 40
2.0
 40
2.0
 40
2.0
 40
3.0
 40
3.0
 40
3.0
 40
4.0
 40
4.0
 40
4.0
 40
5.0
 40
5.0
 40
5.0
 40
6.0
 40
6.0
 40
6.0
 40
7.0
 40
7.0
 40
7.0
 40
8.0
 40
8.0
 40
8.0
 40
9.0
 40
9.0
 40
9.0
 40
9.0
 10
-2.62378472222222
 20
-8.268229166666666
 30
0.0
 10
-2.62378472222222
 20
-8.268229166666666
 30
0.0
 10
-2.62378472222222
 20
8.180034722222217
 30
0.0
 10
-2.62378472222222
 20
8.180034722222217
 30
0.0
 10
-2.62378472222222
 20
8.180034722222217
 30
0.0
 10
-0.3376193576388888
 20
8.180034722222217
 30
0.0
 10
-0.3376193576388888
 20
8.180034722222217
 30
0.0
 10
0.6972873263888888
 20
8.180034722222217
 30
0.0
 10
1.449007161458333
 20
7.445540364583332
 30
0.0
 10
1.918918185763885
 20
5.977929687499997
 30
0.0
 10
2.388829210069443
 20
4.510319010416666
 30
0.0
 10
2.62378472222222
 20
2.449462890624999
 30
0.0
 10
2.62378472222222
 20
-0.204638671875
 30
0.0
 10
2.62378472222222
 20
-0.8950358072916666
 30
0.0
 10
2.590022786458332
 20
-1.643310546874999
 30
0.0
 10
2.523187934027773
 20
-2.45015190972222
 30
0.0
 10
2.408121744791666
 20
-3.80200737847222
 30
0.0
 10
2.226220703124999
 20
-4.909950086805555
 30
0.0
 10
1.976795789930553
 20
-5.774669053819441
 30
0.0
 10
1.659847005208333
 20
-6.853672960069442
 30
0.0
 10
1.252636718749998
 20
-7.583344184027778
 30
0.0
 10
0.7544759114583333
 20
-7.962304687499997
 30
0.0
 10
0.4664659288194444
 20
-8.166254340277777
 30
0.0
 10
0.1074869791666666
 20
-8.268229166666666
 30
0.0
 10
-0.3231499565972222
 20
-8.268229166666666
 30
0.0
 10
-0.3231499565972222
 20
-8.268229166666666
 30
0.0
 10
-2.62378472222222
 20
-8.268229166666666
 30
0.0
 10
-2.62378472222222
 20
-8.268229166666666
 30
0.0
  0
SPLINE
  5
1D3C
330
1D3A
100
AcDbEntity
  8
LAYER_1
 62
     7
100
AcDbSpline
210
0.0
220
0.0
230
1.0
 70
    11
 71
     3
 72
    26
 73
    22
 74
     0
 42
0.0000000001
 43
0.0000000001
 40
0.0
 40
0.0
 40
0.0
 40
0.0
 40
1.0
 40
1.0
 40
1.0
 40
2.0
 40
2.0
 40
2.0
 40
3.0
 40
3.0
 40
3.0
 40
4.0
 40
4.0
 40
4.0
 40
5.0
 40
5.0
 40
5.0
 40
6.0
 40
6.0
 40
6.0
 40
7.0
 40
7.0
 40
7.0
 40
7.0
 10
-3.946701388888888
 20
-10.7376736111111
 30
0.0
 10
-3.946701388888888
 20
-10.7376736111111
 30
0.0
 10
-0.0943956163194444
 20
-10.7376736111111
 30
0.0
 10
-0.0943956163194444
 20
-10.7376736111111
 30
0.0
 10
1.546847873263885
 20
-10.7376736111111
 30
0.0
 10
2.705777994791666
 20
-9.11021050347222
 30
0.0
 10
3.381705729166666
 20
-5.854595269097222
 30
0.0
 10
3.757910156249999
 20
-4.01284722222222
 30
0.0
 10
3.946701388888888
 20
-1.951991102430555
 30
0.0
 10
3.946701388888888
 20
0.328662109375
 30
0.0
 10
3.946701388888888
 20
3.281797960069443
 30
0.0
 10
3.622862413194443
 20
5.703700086805552
 30
0.0
 10
2.976562499999998
 20
7.594368489583332
 30
0.0
 10
2.25171440972222
 20
9.689675564236106
 30
0.0
 10
1.233344184027777
 20
10.7376736111111
 30
0.0
 10
-0.0799262152777778
 20
10.7376736111111
 30
0.0
 10
-0.0799262152777778
 20
10.7376736111111
 30
0.0
 10
-3.946701388888888
 20
10.7376736111111
 30
0.0
 10
-3.946701388888888
 20
10.7376736111111
 30
0.0
 10
-3.946701388888888
 20
10.7376736111111
 30
0.0
 10
-3.946701388888888
 20
-10.7376736111111
 30
0.0
 10
-3.946701388888888
 20
-10.7376736111111
 30
0.0
  0
ENDBLK
  5
1D3E
330
1D3A
100
AcDbEntity
  8
0
100
AcDbBlockEnd
  0
BLOCK
  5
1D42
330
1D3F
100
AcDbEntity
  8
0
 62
     7
100
AcDbBlockBegin
  2
AI9-BLK4
 70
     0
 10
0.0
 20
0.0
 30
0.0
  3
AI9-BLK4
  1

  0
SPLINE
  5
1D40
330
1D3F
100
AcDbEntity
  8
LAYER_1
 62
     7
100
AcDbSpline
210
0.0
220
0.0
230
1.0
 70
    11
 71
     3
 72
    26
 73
    22
 74
     0
 42
0.0000000001
 43
0.0000000001
 40
0.0
 40
0.0
 40
0.0
 40
0.0
 40
1.0
 40
1.0
 40
1.0
 40
2.0
 40
2.0
 40
2.0
 40
3.0
 40
3.0
 40
3.0
 40
4.0
 40
4.0
 40
4.0
 40
5.0
 40
5.0
 40
5.0
 40
6.0
 40
6.0
 40
6.0
 40
7.0
 40
7.0
 40
7.0
 40
7.0
 10
-2.645833333333333
 20
0.9039930555555551
 30
0.0
 10
-2.645833333333333
 20
0.9039930555555551
 30
0.0
 10
-2.645833333333333
 20
8.180034722222217
 30
0.0
 10
-2.645833333333333
 20
8.180034722222217
 30
0.0
 10
-2.645833333333333
 20
8.180034722222217
 30
0.0
 10
0.465087890625
 20
8.180034722222217
 30
0.0
 10
0.465087890625
 20
8.180034722222217
 30
0.0
 10
0.9026150173611108
 20
8.180034722222217
 30
0.0
 10
1.24988064236111
 20
8.034651692708331
 30
0.0
 10
1.506884765625
 20
7.745263671874997
 30
0.0
 10
2.001600477430554
 20
7.194048394097221
 30
0.0
 10
2.248958333333332
 20
6.160519748263887
 30
0.0
 10
2.248958333333332
 20
4.643299696180553
 30
0.0
 10
2.248958333333332
 20
3.232188585069443
 30
0.0
 10
2.072569444444444
 20
2.256537543402775
 30
0.0
 10
1.720480685763888
 20
1.715657552083333
 30
0.0
 10
1.368391927083333
 20
1.174088541666665
 30
0.0
 10
0.8929687499999998
 20
0.9039930555555551
 30
0.0
 10
0.2942111545138888
 20
0.9039930555555551
 30
0.0
 10
0.2942111545138888
 20
0.9039930555555551
 30
0.0
 10
-2.645833333333333
 20
0.9039930555555551
 30
0.0
 10
-2.645833333333333
 20
0.9039930555555551
 30
0.0
  0
SPLINE
  5
1D41
330
1D3F
100
AcDbEntity
  8
LAYER_1
 62
     7
100
AcDbSpline
210
0.0
220
0.0
230
1.0
 70
    11
 71
     3
 72
    68
 73
    64
 74
     0
 42
0.0000000001
 43
0.0000000001
 40
0.0
 40
0.0
 40
0.0
 40
0.0
 40
1.0
 40
1.0
 40
1.0
 40
2.0
 40
2.0
 40
2.0
 40
3.0
 40
3.0
 40
3.0
 40
4.0
 40
4.0
 40
4.0
 40
5.0
 40
5.0
 40
5.0
 40
6.0
 40
6.0
 40
6.0
 40
7.0
 40
7.0
 40
7.0
 40
8.0
 40
8.0
 40
8.0
 40
9.0
 40
9.0
 40
9.0
 40
10.0
 40
10.0
 40
10.0
 40
11.0
 40
11.0
 40
11.0
 40
12.0
 40
12.0
 40
12.0
 40
13.0
 40
13.0
 40
13.0
 40
14.0
 40
14.0
 40
14.0
 40
15.0
 40
15.0
 40
15.0
 40
16.0
 40
16.0
 40
16.0
 40
17.0
 40
17.0
 40
17.0
 40
18.0
 40
18.0
 40
18.0
 40
19.0
 40
19.0
 40
19.0
 40
20.0
 40
20.0
 40
20.0
 40
21.0
 40
21.0
 40
21.0
 40
21.0
 10
-3.968749999999998
 20
-10.7376736111111
 30
0.0
 10
-3.968749999999998
 20
-10.7376736111111
 30
0.0
 10
-2.645833333333333
 20
-10.7376736111111
 30
0.0
 10
-2.645833333333333
 20
-10.7376736111111
 30
0.0
 10
-2.645833333333333
 20
-10.7376736111111
 30
0.0
 10
-2.645833333333333
 20
-1.521354166666665
 30
0.0
 10
-2.645833333333333
 20
-1.521354166666665
 30
0.0
 10
-2.645833333333333
 20
-1.521354166666665
 30
0.0
 10
0.2390896267361111
 20
-1.521354166666665
 30
0.0
 10
0.2390896267361111
 20
-1.521354166666665
 30
0.0
 10
0.7599880642361111
 20
-1.521354166666665
 30
0.0
 10
1.143771701388887
 20
-1.65295681423611
 30
0.0
 10
1.390440538194444
 20
-1.916162109374999
 30
0.0
 10
1.816254340277773
 20
-2.39434136284722
 30
0.0
 10
2.04363064236111
 20
-3.335541449652775
 30
0.0
 10
2.072569444444444
 20
-4.739762369791666
 30
0.0
 10
2.072569444444444
 20
-4.739762369791666
 30
0.0
 10
2.160763888888888
 20
-8.324039713541665
 30
0.0
 10
2.160763888888888
 20
-8.324039713541665
 30
0.0
 10
2.18005642361111
 20
-9.163264973958332
 30
0.0
 10
2.202794053819443
 20
-9.728949652777775
 30
0.0
 10
2.227598741319444
 20
-10.02109374999998
 30
0.0
 10
2.252403428819443
 20
-10.31392686631944
 30
0.0
 10
2.28892144097222
 20
-10.55301649305555
 30
0.0
 10
2.33853081597222
 20
-10.7376736111111
 30
0.0
 10
2.33853081597222
 20
-10.7376736111111
 30
0.0
 10
3.968749999999998
 20
-10.7376736111111
 30
0.0
 10
3.968749999999998
 20
-10.7376736111111
 30
0.0
 10
3.968749999999998
 20
-10.7376736111111
 30
0.0
 10
3.968749999999998
 20
-10.25260416666666
 30
0.0
 10
3.968749999999998
 20
-10.25260416666666
 30
0.0
 10
3.766867404513888
 20
-10.05830078125
 30
0.0
 10
3.625618489583333
 20
-9.621462673611112
 30
0.0
 10
3.545692274305555
 20
-8.942089843749997
 30
0.0
 10
3.49470486111111
 20
-8.543836805555555
 30
0.0
 10
3.459564887152775
 20
-7.937499999999999
 30
0.0
 10
3.439583333333333
 20
-7.121701388888887
 30
0.0
 10
3.439583333333333
 20
-7.121701388888887
 30
0.0
 10
3.395486111111106
 20
-4.232644314236106
 30
0.0
 10
3.395486111111106
 20
-4.232644314236106
 30
0.0
 10
3.375504557291666
 20
-2.981385633680555
 30
0.0
 10
3.26870659722222
 20
-2.077392578125
 30
0.0
 10
3.075781249999999
 20
-1.522043185763888
 30
0.0
 10
2.882166883680555
 20
-0.9666937934027776
 30
0.0
 10
2.592089843749999
 20
-0.5188313802083333
 30
0.0
 10
2.204861111111106
 20
-0.1770779079861111
 30
0.0
 10
2.63618706597222
 20
0.3197048611111111
 30
0.0
 10
2.971739366319443
 20
0.9770290798611107
 30
0.0
 10
3.211518012152775
 20
1.79558376736111
 30
0.0
 10
3.451296657986107
 20
2.613449435763888
 30
0.0
 10
3.571874999999999
 20
3.66558159722222
 30
0.0
 10
3.571874999999999
 20
4.951291232638888
 30
0.0
 10
3.571874999999999
 20
7.415912543402777
 30
0.0
 10
3.124701605902775
 20
9.106076388888887
 30
0.0
 10
2.231043836805555
 20
10.02178276909722
 30
0.0
 10
1.759754774305553
 20
10.498583984375
 30
0.0
 10
1.163753255208332
 20
10.7376736111111
 30
0.0
 10
0.443039279513889
 20
10.7376736111111
 30
0.0
 10
0.443039279513889
 20
10.7376736111111
 30
0.0
 10
-3.968749999999998
 20
10.7376736111111
 30
0.0
 10
-3.968749999999998
 20
10.7376736111111
 30
0.0
 10
-3.968749999999998
 20
10.7376736111111
 30
0.0
 10
-3.968749999999998
 20
-10.7376736111111
 30
0.0
 10
-3.968749999999998
 20
-10.7376736111111
 30
0.0
  0
ENDBLK
  5
1D43
330
1D3F
100
AcDbEntity
  8
0
100
AcDbBlockEnd
  0
BLOCK
  5
1D47
330
1D44
100
AcDbEntity
  8
0
 62
     7
100
AcDbBlockBegin
  2
AI9-BLK3
 70
     0
 10
0.0
 20
0.0
 30
0.0
  3
AI9-BLK3
  1

  0
LWPOLYLINE
  5
1D45
330
1D44
100
AcDbEntity
  8
LAYER_1
 62
     7
100
AcDbPolyline
 90
        4
 70
     1
 43
0.0
 10
-0.6613722059461809
 20
10.7376736111111
 10
0.6613722059461809
 20
10.7376736111111
 10
0.6613722059461809
 20
-10.7376736111111
 10
-0.6613722059461809
 20
-10.7376736111111
  0
HATCH
  5
1D46
330
1D44
100
AcDbEntity
  8
LAYER_1
 62
     7
100
AcDbHatch
 10
0.0
 20
0.0
 30
0.0
210
0.0
220
0.0
230
1.0
  2
SOLID
 70
     1
 71
     0
 91
        1
 92
        3
 72
     0
 73
     1
 93
        4
 10
-0.6613722059461809
 20
10.7376736111111
 10
0.6613722059461809
 20
10.7376736111111
 10
0.6613722059461809
 20
-10.7376736111111
 10
-0.6613722059461809
 20
-10.7376736111111
 97
        0
 75
     2
 76
     1
 98
        1
 10
0.0
 20
0.0
  0
ENDBLK
  5
1D48
330
1D44
100
AcDbEntity
  8
0
100
AcDbBlockEnd
  0
BLOCK
  5
1D4C
330
1D49
100
AcDbEntity
  8
0
 62
     7
100
AcDbBlockBegin
  2
AI9-BLK2
 70
     0
 10
0.0
 20
0.0
 30
0.0
  3
AI9-BLK2
  1

  0
LWPOLYLINE
  5
1D4A
330
1D49
100
AcDbEntity
  8
LAYER_1
 62
     7
100
AcDbPolyline
 90
        7
 70
     1
 43
0.0
 10
-2.785704210069443
 20
10.7376736111111
 10
0.0
 20
-7.550960286458332
 10
2.771234809027776
 20
10.7376736111111
 10
4.233333333333331
 20
10.7376736111111
 10
0.6910861545138888
 20
-10.7376736111111
 10
-0.7055555555555558
 20
-10.7376736111111
 10
-4.233333333333331
 20
10.7376736111111
  0
HATCH
  5
1D4B
330
1D49
100
AcDbEntity
  8
LAYER_1
 62
     7
100
AcDbHatch
 10
0.0
 20
0.0
 30
0.0
210
0.0
220
0.0
230
1.0
  2
SOLID
 70
     1
 71
     0
 91
        1
 92
        3
 72
     0
 73
     1
 93
        7
 10
-2.785704210069443
 20
10.7376736111111
 10
0.0
 20
-7.550960286458332
 10
2.771234809027776
 20
10.7376736111111
 10
4.233333333333331
 20
10.7376736111111
 10
0.6910861545138888
 20
-10.7376736111111
 10
-0.7055555555555558
 20
-10.7376736111111
 10
-4.233333333333331
 20
10.7376736111111
 97
        0
 75
     2
 76
     1
 98
        1
 10
0.0
 20
0.0
  0
ENDBLK
  5
1D4D
330
1D49
100
AcDbEntity
  8
0
100
AcDbBlockEnd
  0
BLOCK
  5
1D51
330
1D4E
100
AcDbEntity
  8
0
 62
     7
100
AcDbBlockBegin
  2
AI9-BLK1
 70
     0
 10
0.0
 20
0.0
 30
0.0
  3
AI9-BLK1
  1

  0
LWPOLYLINE
  5
1D4F
330
1D4E
100
AcDbEntity
  8
LAYER_1
 62
     7
100
AcDbPolyline
 90
       12
 70
     1
 43
0.0
 10
-3.571874999999999
 20
10.7376736111111
 10
3.483680555555555
 20
10.7376736111111
 10
3.483680555555555
 20
8.091840277777777
 10
-2.248958333333332
 20
8.091840277777777
 10
-2.248958333333332
 20
1.565451388888888
 10
3.042708333333333
 20
1.565451388888888
 10
3.042708333333333
 20
-0.9039930555555551
 10
-2.248958333333332
 20
-0.9039930555555551
 10
-2.248958333333332
 20
-8.180034722222217
 10
3.571874999999999
 20
-8.180034722222217
 10
3.571874999999999
 20
-10.7376736111111
 10
-3.571874999999999
 20
-10.7376736111111
  0
HATCH
  5
1D50
330
1D4E
100
AcDbEntity
  8
LAYER_1
 62
     7
100
AcDbHatch
 10
0.0
 20
0.0
 30
0.0
210
0.0
220
0.0
230
1.0
  2
SOLID
 70
     1
 71
     0
 91
        1
 92
        3
 72
     0
 73
     1
 93
       12
 10
-3.571874999999999
 20
10.7376736111111
 10
3.483680555555555
 20
10.7376736111111
 10
3.483680555555555
 20
8.091840277777777
 10
-2.248958333333332
 20
8.091840277777777
 10
-2.248958333333332
 20
1.565451388888888
 10
3.042708333333333
 20
1.565451388888888
 10
3.042708333333333
 20
-0.9039930555555551
 10
-2.248958333333332
 20
-0.9039930555555551
 10
-2.248958333333332
 20
-8.180034722222217
 10
3.571874999999999
 20
-8.180034722222217
 10
3.571874999999999
 20
-10.7376736111111
 10
-3.571874999999999
 20
-10.7376736111111
 97
        0
 75
     2
 76
     1
 98
        1
 10
0.0
 20
0.0
  0
ENDBLK
  5
1D52
330
1D4E
100
AcDbEntity
  8
0
100
AcDbBlockEnd
  0
BLOCK
  5
1D76
330
1D53
100
AcDbEntity
  8
0
100
AcDbBlockBegin
  2
HD_LLC_logo_OT5
 70
     0
 10
0.0
 20
0.0
 30
0.0
  3
HD_LLC_logo_OT5
  1

  0
SPLINE
  5
1D54
102
{ACAD_REACTORS
330
1D74
102
}
330
1D53
100
AcDbEntity
  8
LAYER_1
 62
     7
100
AcDbSpline
210
0.0
220
0.0
230
1.0
 70
    11
 71
     3
 72
   113
 73
   109
 74
     0
 42
0.0000000001
 43
0.0000000001
 40
0.0
 40
0.0
 40
0.0
 40
0.0
 40
1.0
 40
1.0
 40
1.0
 40
2.0
 40
2.0
 40
2.0
 40
3.0
 40
3.0
 40
3.0
 40
4.0
 40
4.0
 40
4.0
 40
5.0
 40
5.0
 40
5.0
 40
6.0
 40
6.0
 40
6.0
 40
7.0
 40
7.0
 40
7.0
 40
8.0
 40
8.0
 40
8.0
 40
9.0
 40
9.0
 40
9.0
 40
10.0
 40
10.0
 40
10.0
 40
11.0
 40
11.0
 40
11.0
 40
12.0
 40
12.0
 40
12.0
 40
13.0
 40
13.0
 40
13.0
 40
14.0
 40
14.0
 40
14.0
 40
15.0
 40
15.0
 40
15.0
 40
16.0
 40
16.0
 40
16.0
 40
17.0
 40
17.0
 40
17.0
 40
18.0
 40
18.0
 40
18.0
 40
19.0
 40
19.0
 40
19.0
 40
20.0
 40
20.0
 40
20.0
 40
21.0
 40
21.0
 40
21.0
 40
22.0
 40
22.0
 40
22.0
 40
23.0
 40
23.0
 40
23.0
 40
24.0
 40
24.0
 40
24.0
 40
25.0
 40
25.0
 40
25.0
 40
26.0
 40
26.0
 40
26.0
 40
27.0
 40
27.0
 40
27.0
 40
28.0
 40
28.0
 40
28.0
 40
29.0
 40
29.0
 40
29.0
 40
30.0
 40
30.0
 40
30.0
 40
31.0
 40
31.0
 40
31.0
 40
32.0
 40
32.0
 40
32.0
 40
33.0
 40
33.0
 40
33.0
 40
34.0
 40
34.0
 40
34.0
 40
35.0
 40
35.0
 40
35.0
 40
36.0
 40
36.0
 40
36.0
 40
36.0
 10
193.3039632161458
 20
186.1548733181423
 30
0.0
 10
193.3039632161458
 20
186.1860514322916
 30
0.0
 10
193.3039632161458
 20
219.6932223849826
 30
0.0
 10
193.3039632161458
 20
219.6932223849826
 30
0.0
 10
193.3039632161458
 20
219.6932223849826
 30
0.0
 10
193.2974175347219
 20
219.7488606770833
 30
0.0
 10
193.2974175347219
 20
219.7488606770833
 30
0.0
 10
191.5293945312499
 20
235.455740017361
 30
0.0
 10
175.1458984374999
 20
235.2467949761284
 30
0.0
 10
174.9808783637151
 20
235.2428331163193
 30
0.0
 10
174.9808783637151
 20
235.2428331163193
 30
0.0
 10
125.8827555338541
 20
235.2430053710937
 30
0.0
 10
125.8827555338541
 20
235.2430053710937
 30
0.0
 10
125.8827555338541
 20
235.2430053710937
 30
0.0
 10
125.8827555338541
 20
255.5278998480901
 30
0.0
 10
125.8827555338541
 20
255.5278998480901
 30
0.0
 10
125.8827555338541
 20
255.5278998480901
 30
0.0
 10
84.5626247829861
 20
255.5278998480901
 30
0.0
 10
84.5626247829861
 20
255.5278998480901
 30
0.0
 10
84.5626247829861
 20
255.5278998480901
 30
0.0
 10
84.55711263020829
 20
233.7919311523436
 30
0.0
 10
84.55711263020829
 20
233.7919311523436
 30
0.0
 10
84.55711263020829
 20
233.7919311523436
 30
0.0
 10
64.42052951388888
 20
233.7919311523436
 30
0.0
 10
64.42052951388888
 20
233.7919311523436
 30
0.0
 10
64.42052951388888
 20
233.7919311523436
 30
0.0
 10
64.41501736111111
 20
255.5278998480901
 30
0.0
 10
64.41501736111111
 20
255.5278998480901
 30
0.0
 10
64.41501736111111
 20
255.5278998480901
 30
0.0
 10
23.91757541232637
 20
255.5278998480901
 30
0.0
 10
23.91757541232637
 20
255.5278998480901
 30
0.0
 10
23.91757541232637
 20
255.5278998480901
 30
0.0
 10
23.91757541232637
 20
233.2393378363715
 30
0.0
 10
23.91757541232637
 20
233.2393378363715
 30
0.0
 10
23.91757541232637
 20
233.2393378363715
 30
0.0
 10
43.65624999999999
 20
233.2393378363715
 30
0.0
 10
43.65624999999999
 20
233.2393378363715
 30
0.0
 10
43.65624999999999
 20
233.2393378363715
 30
0.0
 10
43.65624999999999
 20
211.5188720703125
 30
0.0
 10
43.65624999999999
 20
211.5188720703125
 30
0.0
 10
43.65624999999999
 20
211.5188720703125
 30
0.0
 10
23.91757541232637
 20
211.5188720703125
 30
0.0
 10
23.91757541232637
 20
211.5188720703125
 30
0.0
 10
23.91757541232637
 20
211.5188720703125
 30
0.0
 10
23.91757541232637
 20
189.2303100585936
 30
0.0
 10
23.91757541232637
 20
189.2303100585936
 30
0.0
 10
23.91757541232637
 20
189.2303100585936
 30
0.0
 10
64.41501736111111
 20
189.2303100585936
 30
0.0
 10
64.41501736111111
 20
189.2303100585936
 30
0.0
 10
64.41501736111111
 20
189.2303100585936
 30
0.0
 10
64.42052951388888
 20
211.069976128472
 30
0.0
 10
64.42052951388888
 20
211.069976128472
 30
0.0
 10
64.42052951388888
 20
211.069976128472
 30
0.0
 10
84.55711263020829
 20
211.069976128472
 30
0.0
 10
84.55711263020829
 20
211.069976128472
 30
0.0
 10
84.55711263020829
 20
211.069976128472
 30
0.0
 10
84.5626247829861
 20
189.2303100585936
 30
0.0
 10
84.5626247829861
 20
189.2303100585936
 30
0.0
 10
84.5626247829861
 20
189.2303100585936
 30
0.0
 10
125.8827555338541
 20
189.2303100585936
 30
0.0
 10
125.8827555338541
 20
189.2303100585936
 30
0.0
 10
125.8827555338541
 20
189.2303100585936
 30
0.0
 10
125.8827555338541
 20
211.5188720703125
 30
0.0
 10
125.8827555338541
 20
211.5188720703125
 30
0.0
 10
125.8827555338541
 20
211.5188720703125
 30
0.0
 10
105.3213921440971
 20
211.5188720703125
 30
0.0
 10
105.3213921440971
 20
211.5188720703125
 30
0.0
 10
105.3213921440971
 20
211.5188720703125
 30
0.0
 10
105.3213921440971
 20
233.2393378363715
 30
0.0
 10
105.3213921440971
 20
233.2393378363715
 30
0.0
 10
105.3213921440971
 20
233.2393378363715
 30
0.0
 10
175.0046495225693
 20
233.243127441406
 30
0.0
 10
175.0046495225693
 20
233.243127441406
 30
0.0
 10
175.6268337673611
 20
233.2560465494791
 30
0.0
 10
189.7165852864583
 20
233.3962619357638
 30
0.0
 10
191.3037407769094
 20
219.5690266927083
 30
0.0
 10
191.3037407769094
 20
219.4332899305555
 30
0.0
 10
191.3037407769094
 20
186.1142211914062
 30
0.0
 10
191.3037407769094
 20
186.1142211914062
 30
0.0
 10
191.3037407769094
 20
186.1142211914062
 30
0.0
 10
191.3051188151039
 20
186.0880384657115
 30
0.0
 10
191.3051188151039
 20
186.0880384657115
 30
0.0
 10
191.3054633246526
 20
186.0787367078991
 30
0.0
 10
191.3109754774304
 20
185.9566080729166
 30
0.0
 10
191.3109754774304
 20
185.7399115668401
 30
0.0
 10
191.3109754774304
 20
184.2090833875865
 30
0.0
 10
191.0488037109374
 20
177.9643310546874
 30
0.0
 10
186.9866916232638
 20
173.5652886284722
 30
0.0
 10
184.2540418836804
 20
170.6064683702255
 30
0.0
 10
180.3224989149304
 20
169.0308539496526
 30
0.0
 10
175.300927734375
 20
168.8825425889756
 30
0.0
 10
175.300927734375
 20
168.8825425889756
 30
0.0
 10
107.0094889322916
 20
168.8828870985243
 30
0.0
 10
107.0094889322916
 20
168.8828870985243
 30
0.0
 10
107.0094889322916
 20
168.8828870985243
 30
0.0
 10
107.0094889322916
 20
166.8830091688368
 30
0.0
 10
107.0094889322916
 20
166.8830091688368
 30
0.0
 10
107.0094889322916
 20
166.8830091688368
 30
0.0
 10
175.3305555555555
 20
166.8830091688368
 30
0.0
 10
175.3305555555555
 20
166.8830091688368
 30
0.0
 10
180.9467502170138
 20
167.0485460069444
 30
0.0
 10
185.3571614583333
 20
168.8448187934026
 30
0.0
 10
188.4687717013888
 20
172.2223904079861
 30
0.0
 10
192.9649658203124
 20
177.1034016927083
 30
0.0
 10
193.3136094835069
 20
183.7202243381076
 30
0.0
 10
193.3136094835069
 20
185.6520616319443
 30
0.0
 10
193.3136094835069
 20
185.9247409396701
 30
0.0
 10
193.3070638020833
 20
186.0868326822916
 30
0.0
 10
193.3039632161458
 20
186.1548733181423
 30
0.0
  0
INSERT
  5
1D55
102
{ACAD_REACTORS
330
1D75
102
}
330
1D53
100
AcDbEntity
  8
LAYER_1
 62
     7
100
AcDbBlockReference
  2
AI9-BLK14
 10
159.5625257703993
 20
200.5118781195744
 30
0.0
  0
INSERT
  5
1D56
330
1D53
100
AcDbEntity
  8
LAYER_1
 62
     7
100
AcDbBlockReference
  2
AI9-BLK13
 10
27.69615614149305
 20
179.2145562065971
 30
0.0
 42
0.9200000000000001
  0
INSERT
  5
1D57
102
{ACAD_REACTORS
330
1D62
102
}
330
1D53
100
AcDbEntity
  8
LAYER_1
 62
     7
100
AcDbBlockReference
  2
AI9-BLK11
 10
44.76591525607638
 20
179.2145562065971
 30
0.0
 42
0.9200000000000001
  0
INSERT
  5
1D58
102
{ACAD_REACTORS
330
1D70
102
}
330
1D53
100
AcDbEntity
  8
LAYER_1
 62
     7
100
AcDbBlockReference
  2
AI9-BLK10
 10
54.04665798611111
 20
179.2145562065971
 30
0.0
 42
0.9200000000000001
  0
INSERT
  5
1D59
102
{ACAD_REACTORS
330
1D6F
102
}
330
1D53
100
AcDbEntity
  8
LAYER_1
 62
     7
100
AcDbBlockReference
  2
AI9-BLK9
 10
62.79013807508679
 20
179.2145562065971
 30
0.0
 42
0.9
  0
INSERT
  5
1D5A
330
1D53
100
AcDbEntity
  8
LAYER_1
 62
     7
100
AcDbBlockReference
  2
AI9-BLK8
 10
71.03046196831595
 20
179.2145562065971
 30
0.0
 42
0.9200000000000001
  0
INSERT
  5
1D5B
330
1D53
100
AcDbEntity
  8
LAYER_1
 62
     7
100
AcDbBlockReference
  2
AI9-BLK7
 10
76.93793945312498
 20
179.2145562065971
 30
0.0
 42
0.9200000000000001
  0
INSERT
  5
1D5C
102
{ACAD_REACTORS
330
1D63
102
}
330
1D53
100
AcDbEntity
  8
LAYER_1
 62
     7
100
AcDbBlockReference
  2
AI9-BLK6
 10
82.55602891710069
 20
179.2145562065971
 30
0.0
 42
0.9
  0
INSERT
  5
1D5D
102
{ACAD_REACTORS
330
1D71
102
}
330
1D53
100
AcDbEntity
  8
LAYER_1
 62
     7
100
AcDbBlockReference
  2
AI9-BLK5
 10
94.32430284288193
 20
179.2145562065971
 30
0.0
 42
0.9200000000000001
  0
INSERT
  5
1D5E
102
{ACAD_REACTORS
330
1D72
102
}
330
1D53
100
AcDbEntity
  8
LAYER_1
 62
     7
100
AcDbBlockReference
  2
AI9-BLK4
 10
103.2081705729166
 20
179.2145562065971
 30
0.0
 42
0.9200000000000001
  0
INSERT
  5
1D5F
330
1D53
100
AcDbEntity
  8
LAYER_1
 62
     7
100
AcDbBlockReference
  2
AI9-BLK3
 10
108.850978597005
 20
179.2145562065971
 30
0.0
 42
0.9200000000000001
  0
INSERT
  5
1D60
330
1D53
100
AcDbEntity
  8
LAYER_1
 62
     7
100
AcDbBlockReference
  2
AI9-BLK2
 10
114.2045708550346
 20
179.2145562065971
 30
0.0
 42
0.9200000000000001
  0
INSERT
  5
1D61
330
1D53
100
AcDbEntity
  8
LAYER_1
 62
     7
100
AcDbBlockReference
  2
AI9-BLK1
 10
122.4125108506944
 20
179.2145562065971
 30
0.0
 42
0.9200000000000001
  0
HATCH
  5
1D62
330
1D53
100
AcDbEntity
  8
0
  6
Continuous
100
AcDbHatch
 10
0.0
 20
0.0
 30
0.0
210
0.0
220
0.0
230
1.0
  2
SOLID
 70
     1
 71
     1
 91
        2
 92
       16
 93
        1
 72
     4
 94
        3
 73
     0
 74
     0
 95
       26
 96
       22
 40
0.0
 40
0.0
 40
0.0
 40
0.0
 40
1.0
 40
1.0
 40
1.0
 40
2.0
 40
2.0
 40
2.0
 40
3.0
 40
3.0
 40
3.0
 40
4.0
 40
4.0
 40
4.0
 40
5.0
 40
5.0
 40
5.0
 40
6.0
 40
6.0
 40
6.0
 40
7.0
 40
7.0
 40
7.0
 40
7.0
 10
42.12008192274304
 20
180.046229817708
 10
42.12008192274304
 20
180.046229817708
 10
42.12008192274304
 20
186.7401881510414
 10
42.12008192274304
 20
186.7401881510414
 10
42.12008192274304
 20
186.7401881510414
 10
45.23100314670138
 20
186.7401881510414
 10
45.23100314670138
 20
186.7401881510414
 10
45.66853027343749
 20
186.7401881510414
 10
46.01579589843749
 20
186.6064357638887
 10
46.27280002170138
 20
186.3401987847218
 10
46.76751573350694
 20
185.8330807291664
 10
47.01487358940972
 20
184.8822343749996
 10
47.01487358940972
 20
183.4863919270832
 10
47.01487358940972
 20
182.188169704861
 10
46.83848470052082
 20
181.2905707465276
 10
46.48639594184028
 20
180.7929611545137
 10
46.13430718315971
 20
180.2947176649304
 10
45.65888400607638
 20
180.046229817708
 10
45.06012641059028
 20
180.046229817708
 10
45.06012641059028
 20
180.046229817708
 10
42.12008192274304
 20
180.046229817708
 10
42.12008192274304
 20
180.046229817708
 97
        1
330
1D57
 92
        1
 93
        1
 72
     4
 94
        3
 73
     0
 74
     0
 95
       68
 96
       64
 40
0.0
 40
0.0
 40
0.0
 40
0.0
 40
1.0
 40
1.0
 40
1.0
 40
2.0
 40
2.0
 40
2.0
 40
3.0
 40
3.0
 40
3.0
 40
4.0
 40
4.0
 40
4.0
 40
5.0
 40
5.0
 40
5.0
 40
6.0
 40
6.0
 40
6.0
 40
7.0
 40
7.0
 40
7.0
 40
8.0
 40
8.0
 40
8.0
 40
9.0
 40
9.0
 40
9.0
 40
10.0
 40
10.0
 40
10.0
 40
11.0
 40
11.0
 40
11.0
 40
12.0
 40
12.0
 40
12.0
 40
13.0
 40
13.0
 40
13.0
 40
14.0
 40
14.0
 40
14.0
 40
15.0
 40
15.0
 40
15.0
 40
16.0
 40
16.0
 40
16.0
 40
17.0
 40
17.0
 40
17.0
 40
18.0
 40
18.0
 40
18.0
 40
19.0
 40
19.0
 40
19.0
 40
20.0
 40
20.0
 40
20.0
 40
21.0
 40
21.0
 40
21.0
 40
21.0
 10
40.79716525607638
 20
169.3358964843748
 10
40.79716525607638
 20
169.3358964843748
 10
42.12008192274304
 20
169.3358964843748
 10
42.12008192274304
 20
169.3358964843748
 10
42.12008192274304
 20
169.3358964843748
 10
42.12008192274304
 20
177.8149103732637
 10
42.12008192274304
 20
177.8149103732637
 10
42.12008192274304
 20
177.8149103732637
 10
45.00500488281249
 20
177.8149103732637
 10
45.00500488281249
 20
177.8149103732637
 10
45.52590332031249
 20
177.8149103732637
 10
45.90968695746528
 20
177.6938359374998
 10
46.15635579427083
 20
177.4516870659719
 10
46.58216959635415
 20
177.0117621527776
 10
46.80954589843749
 20
176.1458580729164
 10
46.83848470052082
 20
174.8539748263887
 10
46.83848470052082
 20
174.8539748263887
 10
46.92667914496527
 20
171.5564396701385
 10
46.92667914496527
 20
171.5564396701385
 10
46.94597167968749
 20
170.7843524305554
 10
46.96870930989581
 20
170.2639225260415
 10
46.99351399739582
 20
169.9951499565971
 10
47.01831868489581
 20
169.725743489583
 10
47.0548366970486
 20
169.5057810329859
 10
47.10444607204859
 20
169.3358964843748
 10
47.10444607204859
 20
169.3358964843748
 10
48.73466525607638
 20
169.3358964843748
 10
48.73466525607638
 20
169.3358964843748
 10
48.73466525607638
 20
169.3358964843748
 10
48.73466525607638
 20
169.7821603732635
 10
48.73466525607638
 20
169.7821603732635
 10
48.53278266059028
 20
169.9609194878471
 10
48.39153374565971
 20
170.3628105468748
 10
48.31160753038194
 20
170.9878335503471
 10
48.26062011718749
 20
171.3542263454858
 10
48.22548014322915
 20
171.9120562065971
 10
48.20549858940971
 20
172.6625909288193
 10
48.20549858940971
 20
172.6625909288193
 10
48.16140136718749
 20
175.3205234374999
 10
48.16140136718749
 20
175.3205234374999
 10
48.14141981336803
 20
176.4716814236109
 10
48.03462185329859
 20
177.3033550347219
 10
47.84169650607638
 20
177.8142764756941
 10
47.64808213975693
 20
178.3251979166665
 10
47.35800509982638
 20
178.7372313368054
 10
46.97077636718749
 20
179.0516445312498
 10
47.4021023220486
 20
179.5086846788193
 10
47.73765462239582
 20
180.1134229600693
 10
47.97743326822915
 20
180.8664932725691
 10
48.21721191406249
 20
181.6189296874999
 10
48.33779025607638
 20
182.5868912760413
 10
48.33779025607638
 20
183.7697441406248
 10
48.33779025607638
 20
186.0371957465274
 10
47.89061686197916
 20
187.5921464843749
 10
46.99695909288194
 20
188.4345963541665
 10
46.52567003038194
 20
188.8732534722221
 10
45.92966851128472
 20
189.0932159288193
 10
45.20895453559027
 20
189.0932159288193
 10
45.20895453559027
 20
189.0932159288193
 10
40.79716525607638
 20
189.0932159288193
 10
40.79716525607638
 20
189.0932159288193
 10
40.79716525607638
 20
189.0932159288193
 10
40.79716525607638
 20
169.3358964843748
 10
40.79716525607638
 20
169.3358964843748
 97
        0
 75
     0
 76
     1
 98
        0
  0
HATCH
  5
1D63
330
1D53
100
AcDbEntity
  8
0
  6
Continuous
100
AcDbHatch
 10
0.0
 20
0.0
 30
0.0
210
0.0
220
0.0
230
1.0
  2
SOLID
 70
     1
 71
     1
 91
        1
 92
        1
 93
        1
 72
     4
 94
        3
 73
     0
 74
     0
 95
       59
 96
       55
 40
0.0
 40
0.0
 40
0.0
 40
0.0
 40
1.0
 40
1.0
 40
1.0
 40
2.0
 40
2.0
 40
2.0
 40
3.0
 40
3.0
 40
3.0
 40
4.0
 40
4.0
 40
4.0
 40
5.0
 40
5.0
 40
5.0
 40
6.0
 40
6.0
 40
6.0
 40
7.0
 40
7.0
 40
7.0
 40
8.0
 40
8.0
 40
8.0
 40
9.0
 40
9.0
 40
9.0
 40
10.0
 40
10.0
 40
10.0
 40
11.0
 40
11.0
 40
11.0
 40
12.0
 40
12.0
 40
12.0
 40
13.0
 40
13.0
 40
13.0
 40
14.0
 40
14.0
 40
14.0
 40
15.0
 40
15.0
 40
15.0
 40
16.0
 40
16.0
 40
16.0
 40
17.0
 40
17.0
 40
17.0
 40
18.0
 40
18.0
 40
18.0
 40
18.0
 10
85.61871880425345
 20
187.4658355034721
 10
86.29120144314232
 20
186.1797124565971
 10
86.66671685112847
 20
184.7193364800346
 10
86.7452650282118
 20
183.0840874565969
 10
86.7452650282118
 20
183.0840874565969
 10
85.42234836154511
 20
183.0840874565969
 10
85.42234836154511
 20
183.0840874565969
 10
85.27696533203123
 20
184.3156401909719
 10
84.99171142578125
 20
185.2917046440971
 10
84.56589762369791
 20
186.0122808159719
 10
84.14008382161458
 20
186.7322368706594
 10
83.53994818793401
 20
187.0925249565969
 10
82.76617974175342
 20
187.0925249565969
 10
81.81740044487847
 20
187.0925249565969
 10
81.05258924696178
 20
186.4240386284721
 10
80.47243516710068
 20
185.0883062065971
 10
79.89159206814234
 20
183.7525737847219
 10
79.6015150282118
 20
181.7049468315971
 10
79.6015150282118
 20
178.9454253472221
 10
79.6015150282118
 20
176.6844780815969
 10
79.86265326605901
 20
174.8514116753471
 10
80.38561876085069
 20
173.4456060112846
 10
80.90789523654512
 20
172.0391802300344
 10
81.69199896918403
 20
171.3365874565971
 10
82.73724093967013
 20
171.3365874565971
 10
83.69497748480901
 20
171.3365874565971
 10
84.42120361328125
 20
172.0794878472221
 10
84.91523030598958
 20
173.5665288628469
 10
85.18601481119791
 20
174.3491167534719
 10
85.38445231119791
 20
175.3785112847221
 10
85.51054280598959
 20
176.6547124565971
 10
85.51054280598959
 20
176.6547124565971
 10
86.83345947265625
 20
176.6547124565971
 10
86.83345947265625
 20
176.6547124565971
 10
86.72597249348957
 20
174.6157671440971
 10
86.35114610460069
 20
172.9061040581596
 10
85.70760226779514
 20
171.526343315972
 10
84.93727891710069
 20
169.8650493706596
 10
83.90375027126735
 20
169.0347124565971
 10
82.60701633029514
 20
169.0347124565971
 10
81.48598225911458
 20
169.0347124565971
 10
80.54547119140625
 20
169.7143608940971
 10
79.78479410807292
 20
171.0742778862845
 10
78.78020426432292
 20
172.8726177300344
 10
78.27859836154512
 20
175.6495024956596
 10
78.27859836154512
 20
179.4049321831594
 10
78.27859836154512
 20
182.2562310112846
 10
78.65342475043402
 20
184.5946929253469
 10
79.40445556640622
 20
186.4196978081596
 10
80.22301025390625
 20
188.4028325737846
 10
81.34955647786458
 20
189.3943999565971
 10
82.78271620008679
 20
189.3943999565971
 10
84.00090196397568
 20
189.3943999565971
 10
84.94623616536458
 20
188.7513384331594
 10
85.61871880425345
 20
187.4658355034721
 97
        1
330
1D5C
 75
     0
 76
     1
 98
        1
 10
0.0
 20
0.0
  0
LINE
  5
1D64
102
{ACAD_REACTORS
330
1D73
102
}
330
1D53
100
AcDbEntity
  8
LAYER_1
 62
     7
100
AcDbLine
 10
34.65766059027778
 20
177.4497853732638
 30
0.0
 11
36.19830729166666
 21
186.1658769531249
 31
0.0
  0
LINE
  5
1D65
102
{ACAD_REACTORS
330
1D73
102
}
330
1D53
100
AcDbEntity
  8
LAYER_1
 62
     7
100
AcDbLine
 10
36.19830729166666
 20
186.1658769531249
 30
0.0
 11
37.67556423611111
 21
177.4497853732638
 31
0.0
  0
LINE
  5
1D66
102
{ACAD_REACTORS
330
1D73
102
}
330
1D53
100
AcDbEntity
  8
LAYER_1
 62
     7
100
AcDbLine
 10
37.67556423611111
 20
177.4497853732638
 30
0.0
 11
34.65766059027778
 21
177.4497853732638
 31
0.0
  0
LINE
  5
1D67
102
{ACAD_REACTORS
330
1D73
102
}
330
1D53
100
AcDbEntity
  8
LAYER_1
 62
     7
100
AcDbLine
 10
31.83957248263888
 20
169.3358964843748
 30
0.0
 11
33.22450086805555
 21
169.3358964843748
 31
0.0
  0
LINE
  5
1D68
102
{ACAD_REACTORS
330
1D73
102
}
330
1D53
100
AcDbEntity
  8
LAYER_1
 62
     7
100
AcDbLine
 10
33.22450086805555
 20
169.3358964843748
 30
0.0
 11
34.27043185763887
 21
175.2590353732638
 31
0.0
  0
LINE
  5
1D69
102
{ACAD_REACTORS
330
1D73
102
}
330
1D53
100
AcDbEntity
  8
LAYER_1
 62
     7
100
AcDbLine
 10
34.27043185763887
 20
175.2590353732638
 30
0.0
 11
38.04694552951389
 21
175.2590353732638
 31
0.0
  0
LINE
  5
1D6A
102
{ACAD_REACTORS
330
1D73
102
}
330
1D53
100
AcDbEntity
  8
LAYER_1
 62
     7
100
AcDbLine
 10
38.04694552951389
 20
175.2590353732638
 30
0.0
 11
39.05015733506942
 21
169.3358964843748
 31
0.0
  0
LINE
  5
1D6B
102
{ACAD_REACTORS
330
1D73
102
}
330
1D53
100
AcDbEntity
  8
LAYER_1
 62
     7
100
AcDbLine
 10
39.05015733506942
 20
169.3358964843748
 30
0.0
 11
40.43508572048611
 21
169.3358964843748
 31
0.0
  0
LINE
  5
1D6C
102
{ACAD_REACTORS
330
1D73
102
}
330
1D53
100
AcDbEntity
  8
LAYER_1
 62
     7
100
AcDbLine
 10
40.43508572048611
 20
169.3358964843748
 30
0.0
 11
36.952783203125
 21
189.0932159288193
 31
0.0
  0
LINE
  5
1D6D
102
{ACAD_REACTORS
330
1D73
102
}
330
1D53
100
AcDbEntity
  8
LAYER_1
 62
     7
100
AcDbLine
 10
36.952783203125
 20
189.0932159288193
 30
0.0
 11
35.47828233506943
 21
189.0932159288193
 31
0.0
  0
LINE
  5
1D6E
102
{ACAD_REACTORS
330
1D73
102
}
330
1D53
100
AcDbEntity
  8
LAYER_1
 62
     7
100
AcDbLine
 10
35.47828233506943
 20
189.0932159288193
 30
0.0
 11
31.83957248263888
 21
169.3358964843748
 31
0.0
  0
HATCH
  5
1D6F
330
1D53
100
AcDbEntity
  8
0
  6
Continuous
100
AcDbHatch
 10
0.0
 20
0.0
 30
0.0
210
0.0
220
0.0
230
1.0
  2
SOLID
 70
     1
 71
     1
 91
        2
 92
       16
 93
        1
 72
     4
 94
        3
 73
     0
 74
     0
 95
       29
 96
       25
 40
0.0
 40
0.0
 40
0.0
 40
0.0
 40
1.0
 40
1.0
 40
1.0
 40
2.0
 40
2.0
 40
2.0
 40
3.0
 40
3.0
 40
3.0
 40
4.0
 40
4.0
 40
4.0
 40
5.0
 40
5.0
 40
5.0
 40
6.0
 40
6.0
 40
6.0
 40
7.0
 40
7.0
 40
7.0
 40
8.0
 40
8.0
 40
8.0
 40
8.0
 10
62.85697292751734
 20
171.3365874565971
 10
61.88338894314235
 20
171.3365874565971
 10
61.18058946397566
 20
172.0714263237844
 10
60.74857449001735
 20
173.5411040581594
 10
60.31587049696178
 20
175.0107817925344
 10
60.10020751953123
 20
176.8165630425343
 10
60.10020751953123
 20
178.9578276909721
 10
60.10020751953123
 20
181.6342534722221
 10
60.35101047092013
 20
183.6589360894094
 10
60.85261637369789
 20
185.0324956597219
 10
61.35422227647566
 20
186.4054351128471
 10
62.00741238064235
 20
187.0925249565969
 10
62.81218668619789
 20
187.0925249565969
 10
63.6369425455729
 20
187.0925249565969
 10
64.28806559244789
 20
186.3992339409721
 10
64.76486680772568
 20
185.0126519097221
 10
65.24166802300347
 20
183.6260698784719
 10
65.48006863064235
 20
181.7961040581594
 10
65.48006863064235
 20
179.5239946831596
 10
65.48006863064235
 20
177.3734282769096
 10
65.27336290147568
 20
175.4715288628469
 10
64.86132948133678
 20
173.8176763237846
 10
64.4492960611979
 20
172.1632036675344
 10
63.78094753689235
 20
171.3365874565971
 10
62.85697292751734
 20
171.3365874565971
 97
        1
330
1D59
 92
        1
 93
        1
 72
     4
 94
        3
 73
     0
 74
     0
 95
       29
 96
       25
 40
0.0
 40
0.0
 40
0.0
 40
0.0
 40
1.0
 40
1.0
 40
1.0
 40
2.0
 40
2.0
 40
2.0
 40
3.0
 40
3.0
 40
3.0
 40
4.0
 40
4.0
 40
4.0
 40
5.0
 40
5.0
 40
5.0
 40
6.0
 40
6.0
 40
6.0
 40
7.0
 40
7.0
 40
7.0
 40
8.0
 40
8.0
 40
8.0
 40
8.0
 10
62.76119927300346
 20
189.4340874565971
 10
61.47273356119789
 20
189.4340874565971
 10
60.50121663411457
 20
188.2397417534719
 10
59.84733751085068
 20
185.8516704644094
 10
59.3395304361979
 20
183.9900786675344
 10
59.08597140842012
 20
181.7514556206596
 10
59.08597140842012
 20
179.1351812065971
 10
59.08597140842012
 20
176.2379937065971
 10
59.3836276584201
 20
173.8412407769094
 10
59.9789401584201
 20
171.9449224175346
 10
60.6424655490451
 20
169.9779106987846
 10
61.5602389865451
 20
168.9950249565971
 10
62.7315714518229
 20
168.9950249565971
 10
63.9904093424479
 20
168.9950249565971
 10
64.95641411675345
 20
170.1186773003469
 10
65.63027479383679
 20
172.3659819878471
 10
66.20629475911457
 20
174.2796636284719
 10
66.49430474175345
 20
176.6813774956593
 10
66.49430474175345
 20
179.5698833550344
 10
66.49430474175345
 20
182.2388677300343
 10
66.24005669487845
 20
184.4291216362844
 10
65.73293863932289
 20
186.1412651909719
 10
65.08870578342011
 20
188.3364800347219
 10
64.09789632161457
 20
189.4340874565971
 10
62.76119927300346
 20
189.4340874565971
 97
        0
 75
     0
 76
     1
 98
        0
  0
HATCH
  5
1D70
330
1D53
100
AcDbEntity
  8
0
  6
Continuous
100
AcDbHatch
 10
0.0
 20
0.0
 30
0.0
210
0.0
220
0.0
230
1.0
  2
SOLID
 70
     1
 71
     1
 91
        1
 92
        1
 93
        1
 72
     4
 94
        3
 73
     0
 74
     0
 95
       59
 96
       55
 40
0.0
 40
0.0
 40
0.0
 40
0.0
 40
1.0
 40
1.0
 40
1.0
 40
2.0
 40
2.0
 40
2.0
 40
3.0
 40
3.0
 40
3.0
 40
4.0
 40
4.0
 40
4.0
 40
5.0
 40
5.0
 40
5.0
 40
6.0
 40
6.0
 40
6.0
 40
7.0
 40
7.0
 40
7.0
 40
8.0
 40
8.0
 40
8.0
 40
9.0
 40
9.0
 40
9.0
 40
10.0
 40
10.0
 40
10.0
 40
11.0
 40
11.0
 40
11.0
 40
12.0
 40
12.0
 40
12.0
 40
13.0
 40
13.0
 40
13.0
 40
14.0
 40
14.0
 40
14.0
 40
15.0
 40
15.0
 40
15.0
 40
16.0
 40
16.0
 40
16.0
 40
17.0
 40
17.0
 40
17.0
 40
18.0
 40
18.0
 40
18.0
 40
18.0
 10
49.39440104166666
 20
189.0932159288193
 10
49.39440104166666
 20
189.0932159288193
 10
51.24786241319444
 20
189.0932159288193
 10
51.24786241319444
 20
189.0932159288193
 10
51.24786241319444
 20
189.0932159288193
 10
54.04665798611111
 20
172.3887471788193
 10
54.04665798611111
 20
172.3887471788193
 10
54.04665798611111
 20
172.3887471788193
 10
56.83994140624999
 20
189.0932159288193
 10
56.83994140624999
 20
189.0932159288193
 10
56.83994140624999
 20
189.0932159288193
 10
58.69891493055553
 20
189.0932159288193
 10
58.69891493055553
 20
189.0932159288193
 10
58.69891493055553
 20
189.0932159288193
 10
58.69891493055553
 20
169.3358964843748
 10
58.69891493055553
 20
169.3358964843748
 10
58.69891493055553
 20
169.3358964843748
 10
57.46419270833333
 20
169.3358964843748
 10
57.46419270833333
 20
169.3358964843748
 10
57.46419270833333
 20
169.3358964843748
 10
57.46419270833333
 20
180.9964422743054
 10
57.46419270833333
 20
180.9964422743054
 10
57.46419270833333
 20
181.3996011284721
 10
57.47108289930555
 20
182.0677291666664
 10
57.48624131944444
 20
183.0001924913193
 10
57.50071072048609
 20
183.9326558159721
 10
57.50828993055553
 20
184.932312282986
 10
57.50828993055553
 20
185.9997957899304
 10
57.50828993055553
 20
185.9997957899304
 10
54.700537109375
 20
169.3358964843748
 10
54.700537109375
 20
169.3358964843748
 10
54.700537109375
 20
169.3358964843748
 10
53.38382161458333
 20
169.3358964843748
 10
53.38382161458333
 20
169.3358964843748
 10
53.38382161458333
 20
169.3358964843748
 10
50.58502604166665
 20
185.9997957899304
 10
50.58502604166665
 20
185.9997957899304
 10
50.58502604166665
 20
185.9997957899304
 10
50.58502604166665
 20
185.3944236111109
 10
50.58502604166665
 20
185.3944236111109
 10
50.58502604166665
 20
184.9101258680554
 10
50.59191623263888
 20
184.1729029947915
 10
50.60707465277777
 20
183.1821210937498
 10
50.62154405381942
 20
182.1913391927082
 10
50.62912326388889
 20
181.4629908854165
 10
50.62912326388889
 20
180.9964422743054
 10
50.62912326388889
 20
180.9964422743054
 10
50.62912326388889
 20
169.3358964843748
 10
50.62912326388889
 20
169.3358964843748
 10
50.62912326388889
 20
169.3358964843748
 10
49.39440104166666
 20
169.3358964843748
 10
49.39440104166666
 20
169.3358964843748
 10
49.39440104166666
 20
169.3358964843748
 10
49.39440104166666
 20
189.0932159288193
 10
49.39440104166666
 20
189.0932159288193
 97
        1
330
1D58
 75
     0
 76
     1
 98
        1
 10
0.0
 20
0.0
  0
HATCH
  5
1D71
330
1D53
100
AcDbEntity
  8
0
  6
Continuous
100
AcDbHatch
 10
0.0
 20
0.0
 30
0.0
210
0.0
220
0.0
230
1.0
  2
SOLID
 70
     1
 71
     1
 91
        2
 92
       16
 93
        1
 72
     4
 94
        3
 73
     0
 74
     0
 95
       32
 96
       28
 40
0.0
 40
0.0
 40
0.0
 40
0.0
 40
1.0
 40
1.0
 40
1.0
 40
2.0
 40
2.0
 40
2.0
 40
3.0
 40
3.0
 40
3.0
 40
4.0
 40
4.0
 40
4.0
 40
5.0
 40
5.0
 40
5.0
 40
6.0
 40
6.0
 40
6.0
 40
7.0
 40
7.0
 40
7.0
 40
8.0
 40
8.0
 40
8.0
 40
9.0
 40
9.0
 40
9.0
 40
9.0
 10
91.70051812065969
 20
171.6077853732635
 10
91.70051812065969
 20
171.6077853732635
 10
91.70051812065969
 20
186.7401881510414
 10
91.70051812065969
 20
186.7401881510414
 10
91.70051812065969
 20
186.7401881510414
 10
93.98668348524305
 20
186.7401881510414
 10
93.98668348524305
 20
186.7401881510414
 10
95.02159016927082
 20
186.7401881510414
 10
95.77331000434028
 20
186.0644533420137
 10
96.24322102864582
 20
184.7142515190969
 10
96.71313205295138
 20
183.3640496961804
 10
96.94808756510417
 20
181.4680620659721
 10
96.94808756510417
 20
179.0262886284719
 10
96.94808756510417
 20
178.3911232638887
 10
96.91432562934028
 20
177.7027105034721
 10
96.84749077690971
 20
176.9604164496524
 10
96.7324245876736
 20
175.7167094184024
 10
96.55052354600693
 20
174.6974021267359
 10
96.30109863281248
 20
173.901860677083
 10
95.98414984809028
 20
172.9091770833332
 10
95.57693956163193
 20
172.2378795572914
 10
95.07877875434026
 20
171.8892358940971
 10
94.79076877170138
 20
171.7016022135415
 10
94.43178982204859
 20
171.6077853732635
 10
94.00115288628471
 20
171.6077853732635
 10
94.00115288628471
 20
171.6077853732635
 10
91.70051812065969
 20
171.6077853732635
 10
91.70051812065969
 20
171.6077853732635
 97
        1
330
1D5D
 92
        1
 93
        1
 72
     4
 94
        3
 73
     0
 74
     0
 95
       26
 96
       22
 40
0.0
 40
0.0
 40
0.0
 40
0.0
 40
1.0
 40
1.0
 40
1.0
 40
2.0
 40
2.0
 40
2.0
 40
3.0
 40
3.0
 40
3.0
 40
4.0
 40
4.0
 40
4.0
 40
5.0
 40
5.0
 40
5.0
 40
6.0
 40
6.0
 40
6.0
 40
7.0
 40
7.0
 40
7.0
 40
7.0
 10
90.37760145399305
 20
169.3358964843748
 10
90.37760145399305
 20
169.3358964843748
 10
94.22990722656248
 20
169.3358964843748
 10
94.22990722656248
 20
169.3358964843748
 10
95.87115071614581
 20
169.3358964843748
 10
97.03008083767359
 20
170.8331625434026
 10
97.70600857204859
 20
173.8283285590274
 10
98.08221299913194
 20
175.5227367621524
 10
98.27100423177082
 20
177.4187243923609
 10
98.27100423177082
 20
179.5169253472221
 10
98.27100423177082
 20
182.233810329861
 10
97.94716525607638
 20
184.4619602864582
 10
97.30086534288195
 20
186.2013752170135
 10
96.57601725260416
 20
188.1290577256941
 10
95.5576470269097
 20
189.0932159288193
 10
94.24437662760416
 20
189.0932159288193
 10
94.24437662760416
 20
189.0932159288193
 10
90.37760145399305
 20
189.0932159288193
 10
90.37760145399305
 20
189.0932159288193
 10
90.37760145399305
 20
189.0932159288193
 10
90.37760145399305
 20
169.3358964843748
 10
90.37760145399305
 20
169.3358964843748
 97
        0
 75
     0
 76
     1
 98
        0
  0
HATCH
  5
1D72
330
1D53
100
AcDbEntity
  8
0
  6
Continuous
100
AcDbHatch
 10
0.0
 20
0.0
 30
0.0
210
0.0
220
0.0
230
1.0
  2
SOLID
 70
     1
 71
     1
 91
        2
 92
       16
 93
        1
 72
     4
 94
        3
 73
     0
 74
     0
 95
       26
 96
       22
 40
0.0
 40
0.0
 40
0.0
 40
0.0
 40
1.0
 40
1.0
 40
1.0
 40
2.0
 40
2.0
 40
2.0
 40
3.0
 40
3.0
 40
3.0
 40
4.0
 40
4.0
 40
4.0
 40
5.0
 40
5.0
 40
5.0
 40
6.0
 40
6.0
 40
6.0
 40
7.0
 40
7.0
 40
7.0
 40
7.0
 10
100.5623372395832
 20
180.046229817708
 10
100.5623372395832
 20
180.046229817708
 10
100.5623372395832
 20
186.7401881510414
 10
100.5623372395832
 20
186.7401881510414
 10
100.5623372395832
 20
186.7401881510414
 10
103.6732584635416
 20
186.7401881510414
 10
103.6732584635416
 20
186.7401881510414
 10
104.1107855902777
 20
186.7401881510414
 10
104.4580512152777
 20
186.6064357638887
 10
104.7150553385415
 20
186.3401987847218
 10
105.2097710503471
 20
185.8330807291664
 10
105.4571289062497
 20
184.8822343749996
 10
105.4571289062497
 20
183.4863919270832
 10
105.4571289062497
 20
182.188169704861
 10
105.280740017361
 20
181.2905707465276
 10
104.9286512586804
 20
180.7929611545137
 10
104.5765624999999
 20
180.2947176649304
 10
104.1011393229166
 20
180.046229817708
 10
103.5023817274304
 20
180.046229817708
 10
103.5023817274304
 20
180.046229817708
 10
100.5623372395832
 20
180.046229817708
 10
100.5623372395832
 20
180.046229817708
 97
        1
330
1D5E
 92
        1
 93
        1
 72
     4
 94
        3
 73
     0
 74
     0
 95
       68
 96
       64
 40
0.0
 40
0.0
 40
0.0
 40
0.0
 40
1.0
 40
1.0
 40
1.0
 40
2.0
 40
2.0
 40
2.0
 40
3.0
 40
3.0
 40
3.0
 40
4.0
 40
4.0
 40
4.0
 40
5.0
 40
5.0
 40
5.0
 40
6.0
 40
6.0
 40
6.0
 40
7.0
 40
7.0
 40
7.0
 40
8.0
 40
8.0
 40
8.0
 40
9.0
 40
9.0
 40
9.0
 40
10.0
 40
10.0
 40
10.0
 40
11.0
 40
11.0
 40
11.0
 40
12.0
 40
12.0
 40
12.0
 40
13.0
 40
13.0
 40
13.0
 40
14.0
 40
14.0
 40
14.0
 40
15.0
 40
15.0
 40
15.0
 40
16.0
 40
16.0
 40
16.0
 40
17.0
 40
17.0
 40
17.0
 40
18.0
 40
18.0
 40
18.0
 40
19.0
 40
19.0
 40
19.0
 40
20.0
 40
20.0
 40
20.0
 40
21.0
 40
21.0
 40
21.0
 40
21.0
 10
99.23942057291661
 20
169.3358964843748
 10
99.23942057291661
 20
169.3358964843748
 10
100.5623372395832
 20
169.3358964843748
 10
100.5623372395832
 20
169.3358964843748
 10
100.5623372395832
 20
169.3358964843748
 10
100.5623372395832
 20
177.8149103732637
 10
100.5623372395832
 20
177.8149103732637
 10
100.5623372395832
 20
177.8149103732637
 10
103.4472601996527
 20
177.8149103732637
 10
103.4472601996527
 20
177.8149103732637
 10
103.9681586371527
 20
177.8149103732637
 10
104.3519422743053
 20
177.6938359374998
 10
104.5986111111109
 20
177.4516870659719
 10
105.0244249131943
 20
177.0117621527776
 10
105.2518012152777
 20
176.1458580729164
 10
105.280740017361
 20
174.8539748263887
 10
105.280740017361
 20
174.8539748263887
 10
105.3689344618053
 20
171.5564396701385
 10
105.3689344618053
 20
171.5564396701385
 10
105.3882269965277
 20
170.7843524305554
 10
105.4109646267359
 20
170.2639225260415
 10
105.4357693142359
 20
169.9951499565971
 10
105.4605740017358
 20
169.725743489583
 10
105.4970920138888
 20
169.5057810329859
 10
105.5467013888887
 20
169.3358964843748
 10
105.5467013888887
 20
169.3358964843748
 10
107.1769205729166
 20
169.3358964843748
 10
107.1769205729166
 20
169.3358964843748
 10
107.1769205729166
 20
169.3358964843748
 10
107.1769205729166
 20
169.7821603732635
 10
107.1769205729166
 20
169.7821603732635
 10
106.9750379774303
 20
169.9609194878471
 10
106.8337890624997
 20
170.3628105468748
 10
106.7538628472221
 20
170.9878335503471
 10
106.7028754340274
 20
171.3542263454858
 10
106.6677354600692
 20
171.9120562065971
 10
106.6477539062497
 20
172.6625909288193
 10
106.6477539062497
 20
172.6625909288193
 10
106.6036566840277
 20
175.3205234374999
 10
106.6036566840277
 20
175.3205234374999
 10
106.5836751302082
 20
176.4716814236109
 10
106.4768771701387
 20
177.3033550347219
 10
106.2839518229166
 20
177.8142764756941
 10
106.0903374565971
 20
178.3251979166665
 10
105.8002604166666
 20
178.7372313368054
 10
105.4130316840277
 20
179.0516445312498
 10
105.8443576388886
 20
179.5086846788193
 10
106.179909939236
 20
180.1134229600693
 10
106.4196885850692
 20
180.8664932725691
 10
106.6594672309027
 20
181.6189296874999
 10
106.7800455729166
 20
182.5868912760413
 10
106.7800455729166
 20
183.7697441406248
 10
106.7800455729166
 20
186.0371957465274
 10
106.3328721788193
 20
187.5921464843749
 10
105.4392144097221
 20
188.4345963541665
 10
104.9679253472221
 20
188.8732534722221
 10
104.3719238281249
 20
189.0932159288193
 10
103.6512098524303
 20
189.0932159288193
 10
103.6512098524303
 20
189.0932159288193
 10
99.23942057291661
 20
189.0932159288193
 10
99.23942057291661
 20
189.0932159288193
 10
99.23942057291661
 20
189.0932159288193
 10
99.23942057291661
 20
169.3358964843748
 10
99.23942057291661
 20
169.3358964843748
 97
        0
 75
     0
 76
     1
 98
        0
  0
HATCH
  5
1D73
330
1D53
100
AcDbEntity
  8
0
  6
Continuous
100
AcDbHatch
 10
0.0
 20
0.0
 30
0.0
210
0.0
220
0.0
230
1.0
  2
SOLID
 70
     1
 71
     1
 91
        2
 92
        1
 93
        8
 72
     1
 10
35.47828233506943
 20
189.0932159288193
 11
31.83957248263888
 21
169.3358964843748
 72
     1
 10
31.83957248263888
 20
169.3358964843748
 11
33.22450086805555
 21
169.3358964843748
 72
     1
 10
33.22450086805555
 20
169.3358964843748
 11
34.27043185763887
 21
175.2590353732638
 72
     1
 10
34.27043185763887
 20
175.2590353732638
 11
38.04694552951389
 21
175.2590353732638
 72
     1
 10
38.04694552951389
 20
175.2590353732638
 11
39.05015733506942
 21
169.3358964843748
 72
     1
 10
39.05015733506942
 20
169.3358964843748
 11
40.43508572048611
 21
169.3358964843748
 72
     1
 10
40.43508572048611
 20
169.3358964843748
 11
36.952783203125
 21
189.0932159288193
 72
     1
 10
36.952783203125
 20
189.0932159288193
 11
35.47828233506943
 21
189.0932159288193
 97
        8
330
1D6E
330
1D67
330
1D68
330
1D69
330
1D6A
330
1D6B
330
1D6C
330
1D6D
 92
       16
 93
        3
 72
     1
 10
37.67556423611111
 20
177.4497853732638
 11
34.65766059027778
 21
177.4497853732638
 72
     1
 10
34.65766059027778
 20
177.4497853732638
 11
36.19830729166666
 21
186.1658769531249
 72
     1
 10
36.19830729166666
 20
186.1658769531249
 11
37.67556423611111
 21
177.4497853732638
 97
        3
330
1D66
330
1D64
330
1D65
 75
     0
 76
     1
 98
        1
 10
0.0
 20
0.0
  0
HATCH
  5
1D74
330
1D53
100
AcDbEntity
  8
0
  6
Continuous
100
AcDbHatch
 10
0.0
 20
0.0
 30
0.0
210
0.0
220
0.0
230
1.0
  2
SOLID
 70
     1
 71
     1
 91
        1
 92
        1
 93
        1
 72
     4
 94
        3
 73
     0
 74
     0
 95
      113
 96
      109
 40
0.0
 40
0.0
 40
0.0
 40
0.0
 40
1.0
 40
1.0
 40
1.0
 40
2.0
 40
2.0
 40
2.0
 40
3.0
 40
3.0
 40
3.0
 40
4.0
 40
4.0
 40
4.0
 40
5.0
 40
5.0
 40
5.0
 40
6.0
 40
6.0
 40
6.0
 40
7.0
 40
7.0
 40
7.0
 40
8.0
 40
8.0
 40
8.0
 40
9.0
 40
9.0
 40
9.0
 40
10.0
 40
10.0
 40
10.0
 40
11.0
 40
11.0
 40
11.0
 40
12.0
 40
12.0
 40
12.0
 40
13.0
 40
13.0
 40
13.0
 40
14.0
 40
14.0
 40
14.0
 40
15.0
 40
15.0
 40
15.0
 40
16.0
 40
16.0
 40
16.0
 40
17.0
 40
17.0
 40
17.0
 40
18.0
 40
18.0
 40
18.0
 40
19.0
 40
19.0
 40
19.0
 40
20.0
 40
20.0
 40
20.0
 40
21.0
 40
21.0
 40
21.0
 40
22.0
 40
22.0
 40
22.0
 40
23.0
 40
23.0
 40
23.0
 40
24.0
 40
24.0
 40
24.0
 40
25.0
 40
25.0
 40
25.0
 40
26.0
 40
26.0
 40
26.0
 40
27.0
 40
27.0
 40
27.0
 40
28.0
 40
28.0
 40
28.0
 40
29.0
 40
29.0
 40
29.0
 40
30.0
 40
30.0
 40
30.0
 40
31.0
 40
31.0
 40
31.0
 40
32.0
 40
32.0
 40
32.0
 40
33.0
 40
33.0
 40
33.0
 40
34.0
 40
34.0
 40
34.0
 40
35.0
 40
35.0
 40
35.0
 40
36.0
 40
36.0
 40
36.0
 40
36.0
 10
193.3039632161458
 20
186.1548733181423
 10
193.3039632161458
 20
186.1860514322916
 10
193.3039632161458
 20
219.6932223849826
 10
193.3039632161458
 20
219.6932223849826
 10
193.3039632161458
 20
219.6932223849826
 10
193.2974175347219
 20
219.7488606770833
 10
193.2974175347219
 20
219.7488606770833
 10
191.5293945312499
 20
235.455740017361
 10
175.1458984374999
 20
235.2467949761284
 10
174.9808783637151
 20
235.2428331163193
 10
174.9808783637151
 20
235.2428331163193
 10
125.8827555338541
 20
235.2430053710937
 10
125.8827555338541
 20
235.2430053710937
 10
125.8827555338541
 20
235.2430053710937
 10
125.8827555338541
 20
255.5278998480901
 10
125.8827555338541
 20
255.5278998480901
 10
125.8827555338541
 20
255.5278998480901
 10
84.5626247829861
 20
255.5278998480901
 10
84.5626247829861
 20
255.5278998480901
 10
84.5626247829861
 20
255.5278998480901
 10
84.55711263020829
 20
233.7919311523436
 10
84.55711263020829
 20
233.7919311523436
 10
84.55711263020829
 20
233.7919311523436
 10
64.42052951388888
 20
233.7919311523436
 10
64.42052951388888
 20
233.7919311523436
 10
64.42052951388888
 20
233.7919311523436
 10
64.41501736111111
 20
255.5278998480901
 10
64.41501736111111
 20
255.5278998480901
 10
64.41501736111111
 20
255.5278998480901
 10
23.91757541232637
 20
255.5278998480901
 10
23.91757541232637
 20
255.5278998480901
 10
23.91757541232637
 20
255.5278998480901
 10
23.91757541232637
 20
233.2393378363715
 10
23.91757541232637
 20
233.2393378363715
 10
23.91757541232637
 20
233.2393378363715
 10
43.65624999999999
 20
233.2393378363715
 10
43.65624999999999
 20
233.2393378363715
 10
43.65624999999999
 20
233.2393378363715
 10
43.65624999999999
 20
211.5188720703125
 10
43.65624999999999
 20
211.5188720703125
 10
43.65624999999999
 20
211.5188720703125
 10
23.91757541232637
 20
211.5188720703125
 10
23.91757541232637
 20
211.5188720703125
 10
23.91757541232637
 20
211.5188720703125
 10
23.91757541232637
 20
189.2303100585936
 10
23.91757541232637
 20
189.2303100585936
 10
23.91757541232637
 20
189.2303100585936
 10
64.41501736111111
 20
189.2303100585936
 10
64.41501736111111
 20
189.2303100585936
 10
64.41501736111111
 20
189.2303100585936
 10
64.42052951388888
 20
211.069976128472
 10
64.42052951388888
 20
211.069976128472
 10
64.42052951388888
 20
211.069976128472
 10
84.55711263020829
 20
211.069976128472
 10
84.55711263020829
 20
211.069976128472
 10
84.55711263020829
 20
211.069976128472
 10
84.5626247829861
 20
189.2303100585936
 10
84.5626247829861
 20
189.2303100585936
 10
84.5626247829861
 20
189.2303100585936
 10
125.8827555338541
 20
189.2303100585936
 10
125.8827555338541
 20
189.2303100585936
 10
125.8827555338541
 20
189.2303100585936
 10
125.8827555338541
 20
211.5188720703125
 10
125.8827555338541
 20
211.5188720703125
 10
125.8827555338541
 20
211.5188720703125
 10
105.3213921440971
 20
211.5188720703125
 10
105.3213921440971
 20
211.5188720703125
 10
105.3213921440971
 20
211.5188720703125
 10
105.3213921440971
 20
233.2393378363715
 10
105.3213921440971
 20
233.2393378363715
 10
105.3213921440971
 20
233.2393378363715
 10
175.0046495225693
 20
233.243127441406
 10
175.0046495225693
 20
233.243127441406
 10
175.6268337673611
 20
233.2560465494791
 10
189.7165852864583
 20
233.3962619357638
 10
191.3037407769094
 20
219.5690266927083
 10
191.3037407769094
 20
219.4332899305555
 10
191.3037407769094
 20
186.1142211914062
 10
191.3037407769094
 20
186.1142211914062
 10
191.3037407769094
 20
186.1142211914062
 10
191.3051188151039
 20
186.0880384657115
 10
191.3051188151039
 20
186.0880384657115
 10
191.3054633246526
 20
186.0787367078991
 10
191.3109754774304
 20
185.9566080729166
 10
191.3109754774304
 20
185.7399115668401
 10
191.3109754774304
 20
184.2090833875865
 10
191.0488037109374
 20
177.9643310546874
 10
186.9866916232638
 20
173.5652886284722
 10
184.2540418836804
 20
170.6064683702255
 10
180.3224989149304
 20
169.0308539496526
 10
175.300927734375
 20
168.8825425889756
 10
175.300927734375
 20
168.8825425889756
 10
107.0094889322916
 20
168.8828870985243
 10
107.0094889322916
 20
168.8828870985243
 10
107.0094889322916
 20
168.8828870985243
 10
107.0094889322916
 20
166.8830091688368
 10
107.0094889322916
 20
166.8830091688368
 10
107.0094889322916
 20
166.8830091688368
 10
175.3305555555555
 20
166.8830091688368
 10
175.3305555555555
 20
166.8830091688368
 10
180.9467502170138
 20
167.0485460069444
 10
185.3571614583333
 20
168.8448187934026
 10
188.4687717013888
 20
172.2223904079861
 10
192.9649658203124
 20
177.1034016927083
 10
193.3136094835069
 20
183.7202243381076
 10
193.3136094835069
 20
185.6520616319443
 10
193.3136094835069
 20
185.9247409396701
 10
193.3070638020833
 20
186.0868326822916
 10
193.3039632161458
 20
186.1548733181423
 97
        1
330
1D54
 75
     0
 76
     1
 98
        1
 10
0.0
 20
0.0
  0
HATCH
  5
1D75
330
1D53
100
AcDbEntity
  8
0
  6
Continuous
100
AcDbHatch
 10
0.0
 20
0.0
 30
0.0
210
0.0
220
0.0
230
1.0
  2
SOLID
 70
     1
 71
     1
 91
        2
 92
        1
 93
        1
 72
     4
 94
        3
 73
     0
 74
     0
 95
       23
 96
       19
 40
0.0
 40
0.0
 40
0.0
 40
0.0
 40
1.0
 40
1.0
 40
1.0
 40
2.0
 40
2.0
 40
2.0
 40
3.0
 40
3.0
 40
3.0
 40
4.0
 40
4.0
 40
4.0
 40
5.0
 40
5.0
 40
5.0
 40
6.0
 40
6.0
 40
6.0
 40
6.0
 10
148.6593153211804
 20
211.3929538302949
 10
148.6593153211804
 20
211.3929538302949
 10
148.6593153211804
 20
189.630802408854
 10
148.6593153211804
 20
189.630802408854
 10
148.6593153211804
 20
189.630802408854
 10
161.3152180989583
 20
189.630802408854
 10
161.3152180989583
 20
189.630802408854
 10
162.8431179470483
 20
189.630802408854
 10
170.4657362196178
 20
190.1880466037324
 10
170.4657362196178
 20
201.1911648220484
 10
170.4657362196178
 20
211.1288872612845
 10
162.3356553819444
 20
211.3914035373261
 10
162.2536621093749
 20
211.3927815755205
 10
162.2536621093749
 20
211.3927815755205
 10
149.6594265407986
 20
211.3929538302949
 10
149.6594265407986
 20
211.3929538302949
 10
149.6594265407986
 20
211.3929538302949
 10
148.6593153211804
 20
211.3929538302949
 10
148.6593153211804
 20
211.3929538302949
 97
        1
330
1D55
 92
       16
 93
        1
 72
     4
 94
        3
 73
     0
 74
     0
 95
       20
 96
       16
 40
0.0
 40
0.0
 40
0.0
 40
0.0
 40
1.0
 40
1.0
 40
1.0
 40
2.0
 40
2.0
 40
2.0
 40
3.0
 40
3.0
 40
3.0
 40
4.0
 40
4.0
 40
4.0
 40
5.0
 40
5.0
 40
5.0
 40
5.0
 10
162.2354031032984
 20
209.3930759006075
 10
162.467947048611
 20
209.3861857096352
 10
168.4655137803819
 20
209.1283203124997
 10
168.4655137803819
 20
201.1911648220484
 10
168.4655137803819
 20
192.3202162000866
 10
162.9926350911458
 20
191.6306803385414
 10
161.3152180989583
 20
191.6306803385414
 10
161.3152180989583
 20
191.6306803385414
 10
152.3310980902776
 20
191.6306803385414
 10
150.6595377604166
 20
191.6306803385414
 10
150.6595377604166
 20
193.3373806423609
 10
150.6595377604166
 20
207.686375596788
 10
150.6595377604166
 20
209.3930759006075
 10
152.3538357204859
 20
209.3930759006075
 10
162.2354031032984
 20
209.3930759006075
 10
162.2354031032984
 20
209.3930759006075
 97
        0
 75
     0
 76
     1
 98
        0
  0
ENDBLK
  5
1D77
330
1D53
100
AcDbEntity
  8
0
100
AcDbBlockEnd
  0
BLOCK
  5
1D7A
330
1D78
100
AcDbEntity
  8
0
100
AcDbBlockBegin
  2
HD logo-new
 70
     0
 10
0.0
 20
0.0
 30
0.0
  3
HD logo-new
  1

  0
INSERT
  5
1D79
330
1D78
100
AcDbEntity
  8
0
 62
     3
100
AcDbBlockReference
  2
HD_LLC_logo_OT5
 10
-27.1607188578505
 20
-68.37367811463031
 30
0.0
 41
0.2999999999999971
 42
0.3000000000000007
 43
0.3
  0
ENDBLK
  5
1D7B
330
1D78
100
AcDbEntity
  8
0
100
AcDbBlockEnd
  0
BLOCK
  5
1D7E
330
1D7C
100
AcDbEntity
  8
0
100
AcDbBlockBegin
  2
HD Logo
 70
     0
 10
0.0
 20
0.0
 30
0.0
  3
HD Logo
  1

  0
INSERT
  5
1D7D
330
1D7C
100
AcDbEntity
  8
0
100
AcDbBlockReference
  2
HD logo-new
 10
0.9700256734946606
 20
7.273795608420527
 30
0.0
  0
ENDBLK
  5
1D7F
330
1D7C
100
AcDbEntity
  8
0
100
AcDbBlockEnd
  0
BLOCK
  5
1D8A
330
1D88
100
AcDbEntity
  8
0
100
AcDbBlockBegin
  2
Harmonic Drive LLC
 70
     0
 10
0.0
 20
0.0
 30
0.0
  3
Harmonic Drive LLC
  1

  0
MTEXT
  5
1D89
330
1D88
100
AcDbEntity
  8
0
100
AcDbMText
 10
8.730232253264317
 20
-1.454758693481394
 30
0.0
 40
5.25
 41
158.5992
 71
     5
 72
     5
  1
{\fArial|b0|i0|c0|p34;Harmonic Drive LLC\P800-921-3332\Pwww.harmonicdrive.net}
 73
     1
 44
1.0
  0
ENDBLK
  5
1D8B
330
1D88
100
AcDbEntity
  8
0
100
AcDbBlockEnd
  0
BLOCK
  5
1DA1
330
1D9F
100
AcDbEntity
  8
0
100
AcDbBlockBegin
  2
HD LLC
 70
     0
 10
0.0
 20
0.0
 30
0.0
  3
HD LLC
  1

  0
MTEXT
  5
1DA0
330
1D9F
100
AcDbEntity
  8
0
100
AcDbMText
 10
-2.314970886968865
 20
1.247205085865914
 30
0.0
 40
5.675387507387601
 41
236.1828726592229
 71
     5
 72
     5
  1
Harmonic Drive LLC\P800-921-3332\Pwww.harmonicdrive.net
 73
     1
 44
1.0
  0
ENDBLK
  5
1DA2
330
1D9F
100
AcDbEntity
  8
0
100
AcDbBlockEnd
  0
BLOCK
  5
1DAC
330
1DA9
100
AcDbEntity
  8
0
100
AcDbBlockBegin
  2
NTC
 70
     0
 10
0.0
 20
0.0
 30
0.0
  3
NTC
  1

  0
LWPOLYLINE
  5
1DAA
330
1DA9
100
AcDbEntity
  8
0
100
AcDbPolyline
 90
        8
 70
     1
 43
0.0
 10
4.581008201925953
 20
-10.78862239032818
 10
319.3921777697513
 20
-10.78862239032818
 42
-0.4142135623730951
 10
324.9046777697513
 20
-16.30112239032816
 10
324.9046777697513
 20
-117.4075202476924
 42
-0.4142135623730951
 10
319.3921777697513
 20
-122.9200202476925
 10
4.581008201925838
 20
-122.9200202476925
 42
-0.4142135623730951
 10
-0.9314917980741483
 20
-117.4075202476924
 10
-0.9314917980740915
 20
-16.30112239032816
 42
-0.4142135623730951
  0
MTEXT
  5
1DAB
330
1DA9
100
AcDbEntity
  8
0
  6
Continuous
370
    30
100
AcDbMText
 10
21.65307678143926
 20
-17.4535155144544
 30
0.0
 40
8.75
 41
294.5432999999998
 71
     1
 72
     5
  3
{\fTxt|b1|i0|c0|p2;Notice:\P\Ftxt.shx;\H0.5714x;All specifications and dimensions shown in the drawing are subject to change without notice. This drawing is the property of Harmonic Drive LLC.   This data is believed to be accurate, however, Harmonic
  1
 Drive LLC assumes no liability for any errors or omissions in the specifications, models, or drawings.\P\PHarmonic Drive LLC\PTel: 800-921-3332\Pwww.harmonicdrive.net}
 73
     1
 44
1.0
  0
ENDBLK
  5
1DAD
330
1DA9
100
AcDbEntity
  8
0
100
AcDbBlockEnd
  0
ENDSEC
  0
SECTION
  2
ENTITIES
  0
LINE
  5
1B5C
330
1B3A
100
AcDbEntity
  8
0
 62
     7
100
AcDbLine
 10
251.393558436772
 20
175.5824920809969
 30
0.0
 11
251.393558436772
 21
176.0911477028058
 31
0.0
  0
LINE
  5
1B5D
330
1B3A
100
AcDbEntity
  8
0
 62
     7
100
AcDbLine
 10
252.4685584206228
 20
175.3324920847461
 30
0.0
 11
251.6435584330096
 21
175.3324920847461
 31
0.0
  0
LINE
  5
1B5E
330
1B3A
100
AcDbEntity
  8
0
 62
     7
100
AcDbLine
 10
252.4685584206228
 20
176.2847329337331
 30
0.0
 11
252.4685584206228
 21
175.3324920847461
 31
0.0
  0
LINE
  5
1B5F
330
1B3A
100
AcDbEntity
  8
0
 62
     7
100
AcDbLine
 10
253.7935584007225
 20
175.5824920809969
 30
0.0
 11
253.7935584007225
 21
176.0911477028058
 31
0.0
  0
LINE
  5
1B60
330
1B3A
100
AcDbEntity
  8
0
 62
     7
100
AcDbLine
 10
252.7185584168676
 20
175.3324920847461
 30
0.0
 11
253.5435584044813
 21
175.3324920847461
 31
0.0
  0
LINE
  5
1B61
330
1B3A
100
AcDbEntity
  8
0
 62
     7
100
AcDbLine
 10
252.7185584168676
 20
176.2847329337331
 30
0.0
 11
252.7185584168676
 21
175.3324920847461
 31
0.0
  0
LINE
  5
1B62
330
1B3A
100
AcDbEntity
  8
1
 62
     7
100
AcDbLine
 10
252.4685584206228
 20
176.2847329337331
 30
0.0
 11
252.4685584206228
 21
176.4410105485611
 31
0.0
  0
LINE
  5
1B63
330
1B3A
100
AcDbEntity
  8
1
 62
     7
100
AcDbLine
 10
252.7185584168676
 20
176.2847329337331
 30
0.0
 11
252.7185584168676
 21
176.4409631350896
 31
0.0
  0
LINE
  5
1B64
330
1B3A
100
AcDbEntity
  8
1
  6
CENTER
 62
     3
100
AcDbLine
 10
252.5935584187446
 20
189.222122530583
 30
0.0
 11
252.5935584187446
 21
187.7221225305832
 31
0.0
  0
LINE
  5
1B65
330
1B3A
100
AcDbEntity
  8
1
 62
     7
100
AcDbLine
 10
252.5935584187446
 20
188.9721225305832
 30
0.0
 11
252.5935584187446
 21
187.972122530583
 31
0.0
  0
LINE
  5
1B66
330
1B3A
100
AcDbEntity
  8
1
 62
     7
100
AcDbLine
 10
198.2244278878934
 20
187.5687420110568
 30
0.0
 11
199.1666644971981
 21
187.5687420110568
 31
0.0
  0
LINE
  5
1B67
330
1B3A
100
AcDbEntity
  8
1
 62
     7
100
AcDbLine
 10
199.3166644971981
 20
187.248742011057
 30
0.0
 11
199.3166644971981
 21
187.4187420110568
 31
0.0
  0
LINE
  5
1B68
330
1B3A
100
AcDbEntity
  8
1
 62
     7
100
AcDbLine
 10
196.2166644971981
 20
187.0487420110569
 30
0.0
 11
199.1166644971981
 21
187.0487420110569
 31
0.0
  0
LINE
  5
1B69
330
1B3A
100
AcDbEntity
  8
1
 62
     7
100
AcDbLine
 10
196.0166644971978
 20
187.248742011057
 30
0.0
 11
196.0166644971978
 21
187.4187420110568
 31
0.0
  0
LINE
  5
1B6A
330
1B3A
100
AcDbEntity
  8
1
 62
     7
100
AcDbLine
 10
197.1089011065028
 20
187.5687420110568
 30
0.0
 11
196.1666644971981
 21
187.5687420110568
 31
0.0
  0
LINE
  5
1B6B
330
1B3A
100
AcDbEntity
  8
1
 62
     7
100
AcDbLine
 10
198.1684363577084
 20
189.2637420110568
 30
0.0
 11
199.0666644971979
 21
189.2637420110568
 31
0.0
  0
LINE
  5
1B6C
330
1B3A
100
AcDbEntity
  8
1
 62
     7
100
AcDbLine
 10
199.2166644971979
 20
189.551242011057
 30
0.0
 11
199.2166644971979
 21
189.413742011057
 31
0.0
  0
LINE
  5
1B6D
330
1B3A
100
AcDbEntity
  8
1
 62
     7
100
AcDbLine
 10
199.0166644971981
 20
189.751242011057
 30
0.0
 11
196.3166644971981
 21
189.751242011057
 31
0.0
  0
LINE
  5
1B6E
330
1B3A
100
AcDbEntity
  8
1
 62
     7
100
AcDbLine
 10
196.1166644971981
 20
189.551242011057
 30
0.0
 11
196.1166644971981
 21
189.413742011057
 31
0.0
  0
LINE
  5
1B6F
330
1B3A
100
AcDbEntity
  8
1
 62
     7
100
AcDbLine
 10
197.1648926366878
 20
189.2637420110568
 30
0.0
 11
196.2666644971981
 21
189.2637420110568
 31
0.0
  0
LINE
  5
1B70
330
1B3A
100
AcDbEntity
  8
1
 62
     7
100
AcDbLine
 10
196.0166644971978
 20
187.248742011057
 30
0.0
 11
196.2166644971981
 21
187.0487420110569
 31
0.0
  0
LINE
  5
1B71
330
1B3A
100
AcDbEntity
  8
1
 62
     7
100
AcDbLine
 10
199.1166644971981
 20
187.0487420110569
 30
0.0
 11
199.3166644971981
 21
187.248742011057
 31
0.0
  0
LINE
  5
1B72
330
1B3A
100
AcDbEntity
  8
1
 62
     7
100
AcDbLine
 10
199.0166644971981
 20
189.751242011057
 30
0.0
 11
199.2166644971979
 21
189.551242011057
 31
0.0
  0
LINE
  5
1B73
330
1B3A
100
AcDbEntity
  8
1
 62
     7
100
AcDbLine
 10
196.1166644971981
 20
189.551242011057
 30
0.0
 11
196.3166644971981
 21
189.751242011057
 31
0.0
  0
LINE
  5
1B74
330
1B3A
100
AcDbEntity
  8
1
 62
     7
100
AcDbLine
 10
199.3166644971981
 20
187.4187420110568
 30
0.0
 11
199.1666644971981
 21
187.5687420110568
 31
0.0
  0
LINE
  5
1B75
330
1B3A
100
AcDbEntity
  8
1
 62
     7
100
AcDbLine
 10
199.2166644971979
 20
189.413742011057
 30
0.0
 11
199.0666644971979
 21
189.2637420110568
 31
0.0
  0
LINE
  5
1B76
330
1B3A
100
AcDbEntity
  8
1
 62
     7
100
AcDbLine
 10
196.2666644971981
 20
189.2637420110568
 30
0.0
 11
196.1166644971981
 21
189.413742011057
 31
0.0
  0
LINE
  5
1B77
330
1B3A
100
AcDbEntity
  8
1
 62
     7
100
AcDbLine
 10
196.1666644971981
 20
187.5687420110568
 30
0.0
 11
196.0166644971978
 21
187.4187420110568
 31
0.0
  0
LINE
  5
1B78
330
1B3A
100
AcDbEntity
  8
1
 62
     7
100
AcDbLine
 10
196.898289588706
 20
189.0387420110568
 30
0.0
 11
196.5166644971978
 21
189.0387420110568
 31
0.0
  0
LINE
  5
1B79
330
1B3A
100
AcDbEntity
  8
1
 62
     7
100
AcDbLine
 10
196.0166644971978
 20
189.0387420110568
 30
0.0
 11
196.0166644971978
 21
187.7887420110568
 31
0.0
  0
LINE
  5
1B7A
330
1B3A
100
AcDbEntity
  8
1
 62
     7
100
AcDbLine
 10
196.0166644971978
 20
187.7887420110568
 30
0.0
 11
196.5166644971978
 21
187.7887420110568
 31
0.0
  0
LINE
  5
1B7B
330
1B3A
100
AcDbEntity
  8
1
 62
     7
100
AcDbLine
 10
196.5166644971978
 20
189.0387420110568
 30
0.0
 11
196.5166644971978
 21
187.7887420110568
 31
0.0
  0
LINE
  5
1B7C
330
1B3A
100
AcDbEntity
  8
1
 62
     7
100
AcDbLine
 10
196.5166644971978
 20
189.0387420110568
 30
0.0
 11
196.0166644971978
 21
189.0387420110568
 31
0.0
  0
LINE
  5
1B7D
330
1B3A
100
AcDbEntity
  8
1
 62
     7
100
AcDbLine
 10
196.5166644971978
 20
187.7887420110568
 30
0.0
 11
196.8742630837718
 21
187.7887420110568
 31
0.0
  0
LINE
  5
1B7E
330
1B3A
100
AcDbEntity
  8
1
 62
     7
100
AcDbLine
 10
199.2166644971979
 20
189.413742011057
 30
0.0
 11
199.2166644971979
 21
187.6316769308131
 31
0.0
  0
LINE
  5
1B7F
330
1B3A
100
AcDbEntity
  8
1
 62
     7
100
AcDbLine
 10
196.1166644971981
 20
189.413742011057
 30
0.0
 11
196.1166644971981
 21
189.1257435605865
 31
0.0
  0
LINE
  5
1B80
330
1B3A
100
AcDbEntity
  8
1
 62
     7
100
AcDbLine
 10
196.0166644971978
 20
187.7887420110568
 30
0.0
 11
196.0166644971978
 21
187.5687420110568
 31
0.0
  0
LINE
  5
1B81
330
1B3A
100
AcDbEntity
  8
1
 62
     7
100
AcDbLine
 10
196.0166644971978
 20
172.308742011057
 30
0.0
 11
196.0166644971978
 21
172.088742011057
 31
0.0
  0
LINE
  5
1B82
330
1B3A
100
AcDbEntity
  8
1
 62
     7
100
AcDbLine
 10
196.1166644971981
 20
170.7517404615273
 30
0.0
 11
196.1166644971981
 21
170.463742011057
 31
0.0
  0
LINE
  5
1B83
330
1B3A
100
AcDbEntity
  8
1
 62
     7
100
AcDbLine
 10
199.2166644971979
 20
172.2458070913002
 30
0.0
 11
199.2166644971979
 21
170.463742011057
 31
0.0
  0
LINE
  5
1B84
330
1B3A
100
AcDbEntity
  8
1
 62
     7
100
AcDbLine
 10
196.8742630837718
 20
172.088742011057
 30
0.0
 11
196.5166644971978
 21
172.088742011057
 31
0.0
  0
LINE
  5
1B85
330
1B3A
100
AcDbEntity
  8
1
 62
     7
100
AcDbLine
 10
196.0166644971978
 20
170.838742011057
 30
0.0
 11
196.5166644971978
 21
170.838742011057
 31
0.0
  0
LINE
  5
1B86
330
1B3A
100
AcDbEntity
  8
1
 62
     7
100
AcDbLine
 10
196.5166644971978
 20
172.088742011057
 30
0.0
 11
196.5166644971978
 21
170.838742011057
 31
0.0
  0
LINE
  5
1B87
330
1B3A
100
AcDbEntity
  8
1
 62
     7
100
AcDbLine
 10
196.5166644971978
 20
172.088742011057
 30
0.0
 11
196.0166644971978
 21
172.088742011057
 31
0.0
  0
LINE
  5
1B88
330
1B3A
100
AcDbEntity
  8
1
 62
     7
100
AcDbLine
 10
196.0166644971978
 20
172.088742011057
 30
0.0
 11
196.0166644971978
 21
170.838742011057
 31
0.0
  0
LINE
  5
1B89
330
1B3A
100
AcDbEntity
  8
1
 62
     7
100
AcDbLine
 10
196.5166644971978
 20
170.838742011057
 30
0.0
 11
196.898289588706
 21
170.838742011057
 31
0.0
  0
LINE
  5
1B8A
330
1B3A
100
AcDbEntity
  8
1
 62
     7
100
AcDbLine
 10
196.0166644971978
 20
172.458742011057
 30
0.0
 11
196.1666644971981
 21
172.308742011057
 31
0.0
  0
LINE
  5
1B8B
330
1B3A
100
AcDbEntity
  8
1
 62
     7
100
AcDbLine
 10
196.1166644971981
 20
170.463742011057
 30
0.0
 11
196.2666644971981
 21
170.6137420110569
 31
0.0
  0
LINE
  5
1B8C
330
1B3A
100
AcDbEntity
  8
1
 62
     7
100
AcDbLine
 10
199.0666644971979
 20
170.6137420110569
 30
0.0
 11
199.2166644971979
 21
170.463742011057
 31
0.0
  0
LINE
  5
1B8D
330
1B3A
100
AcDbEntity
  8
1
 62
     7
100
AcDbLine
 10
199.1666644971981
 20
172.308742011057
 30
0.0
 11
199.3166644971981
 21
172.458742011057
 31
0.0
  0
LINE
  5
1B8E
330
1B3A
100
AcDbEntity
  8
1
 62
     7
100
AcDbLine
 10
196.3166644971981
 20
170.126242011057
 30
0.0
 11
196.1166644971981
 21
170.3262420110569
 31
0.0
  0
LINE
  5
1B8F
330
1B3A
100
AcDbEntity
  8
1
 62
     7
100
AcDbLine
 10
199.2166644971979
 20
170.3262420110569
 30
0.0
 11
199.0166644971981
 21
170.126242011057
 31
0.0
  0
LINE
  5
1B90
330
1B3A
100
AcDbEntity
  8
1
 62
     7
100
AcDbLine
 10
199.3166644971981
 20
172.628742011057
 30
0.0
 11
199.1166644971981
 21
172.828742011057
 31
0.0
  0
LINE
  5
1B91
330
1B3A
100
AcDbEntity
  8
1
 62
     7
100
AcDbLine
 10
196.2166644971981
 20
172.828742011057
 30
0.0
 11
196.0166644971978
 21
172.628742011057
 31
0.0
  0
LINE
  5
1B92
330
1B3A
100
AcDbEntity
  8
1
 62
     7
100
AcDbLine
 10
196.2666644971981
 20
170.6137420110569
 30
0.0
 11
197.1648926366878
 21
170.6137420110569
 31
0.0
  0
LINE
  5
1B93
330
1B3A
100
AcDbEntity
  8
1
 62
     7
100
AcDbLine
 10
196.1166644971981
 20
170.463742011057
 30
0.0
 11
196.1166644971981
 21
170.3262420110569
 31
0.0
  0
LINE
  5
1B94
330
1B3A
100
AcDbEntity
  8
1
 62
     7
100
AcDbLine
 10
196.3166644971981
 20
170.126242011057
 30
0.0
 11
199.0166644971981
 21
170.126242011057
 31
0.0
  0
LINE
  5
1B95
330
1B3A
100
AcDbEntity
  8
1
 62
     7
100
AcDbLine
 10
199.2166644971979
 20
170.463742011057
 30
0.0
 11
199.2166644971979
 21
170.3262420110569
 31
0.0
  0
LINE
  5
1B96
330
1B3A
100
AcDbEntity
  8
1
 62
     7
100
AcDbLine
 10
199.0666644971979
 20
170.6137420110569
 30
0.0
 11
198.1684363577084
 21
170.6137420110569
 31
0.0
  0
LINE
  5
1B97
330
1B3A
100
AcDbEntity
  8
1
 62
     7
100
AcDbLine
 10
196.1666644971981
 20
172.308742011057
 30
0.0
 11
197.1089011065028
 21
172.308742011057
 31
0.0
  0
LINE
  5
1B98
330
1B3A
100
AcDbEntity
  8
1
 62
     7
100
AcDbLine
 10
196.0166644971978
 20
172.458742011057
 30
0.0
 11
196.0166644971978
 21
172.628742011057
 31
0.0
  0
LINE
  5
1B99
330
1B3A
100
AcDbEntity
  8
1
 62
     7
100
AcDbLine
 10
199.1166644971981
 20
172.828742011057
 30
0.0
 11
196.2166644971981
 21
172.828742011057
 31
0.0
  0
LINE
  5
1B9A
330
1B3A
100
AcDbEntity
  8
1
 62
     7
100
AcDbLine
 10
199.3166644971981
 20
172.458742011057
 30
0.0
 11
199.3166644971981
 21
172.628742011057
 31
0.0
  0
LINE
  5
1B9B
330
1B3A
100
AcDbEntity
  8
1
 62
     7
100
AcDbLine
 10
199.1666644971981
 20
172.308742011057
 30
0.0
 11
198.2244278878934
 21
172.308742011057
 31
0.0
  0
LINE
  5
1B9C
330
1B3A
100
AcDbEntity
  8
1
 62
     7
100
AcDbLine
 10
184.1166644971981
 20
185.9030106166783
 30
0.0
 11
184.1166644971981
 21
182.9387420110568
 31
0.0
  0
LINE
  5
1B9D
330
1B3A
100
AcDbEntity
  8
1
 62
     7
100
AcDbLine
 10
184.1166644971981
 20
186.088742011057
 30
0.0
 11
184.1166644971981
 21
185.9030106166783
 31
0.0
  0
LINE
  5
1B9E
330
1B3A
100
AcDbEntity
  8
1
 62
     7
100
AcDbLine
 10
182.6166644971981
 20
185.9030106166783
 30
0.0
 11
184.1166644971981
 21
185.9030106166783
 31
0.0
  0
LINE
  5
1B9F
330
1B3A
100
AcDbEntity
  8
1
 62
     7
100
AcDbLine
 10
184.1166644971981
 20
186.088742011057
 30
0.0
 11
184.8434992897715
 21
186.088742011057
 31
0.0
  0
LINE
  5
1BA0
330
1B3A
100
AcDbEntity
  8
1
 62
     7
100
AcDbLine
 10
182.6166644971981
 20
182.5368182224104
 30
0.0
 11
182.6166644971981
 21
179.9387420110568
 31
0.0
  0
LINE
  5
1BA1
330
1B3A
100
AcDbEntity
  8
1
 62
     7
100
AcDbLine
 10
182.6166644971981
 20
182.5368182224104
 30
0.0
 11
184.1166644971981
 21
182.5368182224104
 31
0.0
  0
LINE
  5
1BA2
330
1B3A
100
AcDbEntity
  8
1
 62
     7
100
AcDbLine
 10
184.1166644971981
 20
182.9387420110568
 30
0.0
 11
185.3166644971981
 21
182.9387420110568
 31
0.0
  0
LINE
  5
1BA3
330
1B3A
100
AcDbEntity
  8
1
 62
     7
100
AcDbLine
 10
184.1166644971981
 20
182.9387420110568
 30
0.0
 11
184.1166644971981
 21
182.5368182224104
 31
0.0
  0
LINE
  5
1BA4
330
1B3A
100
AcDbEntity
  8
1
 62
     7
100
AcDbLine
 10
182.6166644971981
 20
185.9030106166783
 30
0.0
 11
182.6166644971981
 21
182.5368182224104
 31
0.0
  0
LINE
  5
1BA5
330
1B3A
100
AcDbEntity
  8
1
 62
     7
100
AcDbLine
 10
185.1457561119355
 20
189.2728780345214
 30
0.0
 11
185.0433822399994
 21
186.2819005047784
 31
0.0
  0
LINE
  5
1BA6
330
1B3A
100
AcDbEntity
  8
1
 62
     7
100
AcDbLine
 10
185.0433822399994
 20
173.5955835173355
 30
0.0
 11
185.1457561119355
 21
170.6046059875921
 31
0.0
  0
LINE
  5
1BA7
330
1B3A
100
AcDbEntity
  8
1
 62
     7
100
AcDbLine
 10
182.6166644971981
 20
173.788742011057
 30
0.0
 11
184.8434992897715
 21
173.788742011057
 31
0.0
  0
LINE
  5
1BA8
330
1B3A
100
AcDbEntity
  8
1
 62
     7
100
AcDbLine
 10
182.6166644971981
 20
176.938742011057
 30
0.0
 11
185.3166644971981
 21
176.938742011057
 31
0.0
  0
LINE
  5
1BA9
330
1B3A
100
AcDbEntity
  8
1
 62
     7
100
AcDbLine
 10
182.6166644971981
 20
176.938742011057
 30
0.0
 11
182.6166644971981
 21
173.788742011057
 31
0.0
  0
LINE
  5
1BAA
330
1B3A
100
AcDbEntity
  8
1
 62
     7
100
AcDbLine
 10
182.6166644971981
 20
179.9387420110568
 30
0.0
 11
182.6166644971981
 21
176.938742011057
 31
0.0
  0
LINE
  5
1BAB
330
1B3A
100
AcDbEntity
  8
1
 62
     7
100
AcDbLine
 10
133.9507436359262
 20
177.1297222811551
 30
0.0
 11
133.9507436359262
 21
173.914778137495
 31
0.0
  0
LINE
  5
1BAC
330
1B3A
100
AcDbEntity
  8
1
 62
     7
100
AcDbLine
 10
130.9507436359263
 20
177.1297222811551
 30
0.0
 11
130.9507436359263
 21
173.763529886887
 31
0.0
  0
LINE
  5
1BAD
330
1B3A
100
AcDbEntity
  8
1
 62
     7
100
AcDbLine
 10
133.9507436359262
 20
182.3258747038618
 30
0.0
 11
133.9507436359262
 21
185.6920670981295
 31
0.0
  0
LINE
  5
1BAE
330
1B3A
100
AcDbEntity
  8
1
 62
     7
100
AcDbLine
 10
130.9507436359263
 20
182.3258747038618
 30
0.0
 11
130.9507436359263
 21
185.6920670981295
 31
0.0
  0
LINE
  5
1BAF
330
1B3A
100
AcDbEntity
  8
1
 62
     7
100
AcDbLine
 10
198.1166644971981
 20
191.588742011057
 30
0.0
 11
198.1166644971981
 21
193.788742011057
 31
0.0
  0
LINE
  5
1BB0
330
1B3A
100
AcDbEntity
  8
1
 62
     7
100
AcDbLine
 10
197.9434594164413
 20
191.8887420110571
 30
0.0
 11
198.1166644971981
 21
191.588742011057
 31
0.0
  0
LINE
  5
1BB1
330
1B3A
100
AcDbEntity
  8
1
 62
     7
100
AcDbLine
 10
197.9434594164413
 20
193.488742011057
 30
0.0
 11
197.9434594164413
 21
191.8887420110571
 31
0.0
  0
LINE
  5
1BB2
330
1B3A
100
AcDbEntity
  8
1
 62
     7
100
AcDbLine
 10
198.1166644971981
 20
193.788742011057
 30
0.0
 11
197.9434594164413
 21
193.488742011057
 31
0.0
  0
LINE
  5
1BB3
330
1B3A
100
AcDbEntity
  8
1
 62
     7
100
AcDbLine
 10
198.1166644971981
 20
191.588742011057
 30
0.0
 11
199.6166644971981
 21
191.588742011057
 31
0.0
  0
LINE
  5
1BB4
330
1B3A
100
AcDbEntity
  8
1
 62
     7
100
AcDbLine
 10
198.1166644971981
 20
193.788742011057
 30
0.0
 11
199.6166644971981
 21
193.788742011057
 31
0.0
  0
LINE
  5
1BB5
330
1B3A
100
AcDbEntity
  8
1
 62
     7
100
AcDbLine
 10
199.6166644971981
 20
193.788742011057
 30
0.0
 11
199.6166644971981
 21
194.6387420110568
 31
0.0
  0
LINE
  5
1BB6
330
1B3A
100
AcDbEntity
  8
1
 62
     7
100
AcDbLine
 10
195.1166644971981
 20
194.6387420110568
 30
0.0
 11
195.1166644971981
 21
193.688742011057
 31
0.0
  0
LINE
  5
1BB7
330
1B3A
100
AcDbEntity
  8
1
 62
     7
100
AcDbLine
 10
199.6166644971981
 20
191.588742011057
 30
0.0
 11
199.6166644971981
 21
193.788742011057
 31
0.0
  0
LINE
  5
1BB8
330
1B3A
100
AcDbEntity
  8
1
 62
     7
100
AcDbLine
 10
195.1166644971981
 20
191.688742011057
 30
0.0
 11
195.1166644971981
 21
190.2812260154065
 31
0.0
  0
LINE
  5
1BB9
330
1B3A
100
AcDbEntity
  8
1
  6
CENTER
 62
     3
100
AcDbLine
 10
193.9166644971981
 20
192.688742011057
 30
0.0
 11
200.8166644971981
 21
192.688742011057
 31
0.0
  0
LINE
  5
1BBA
330
1B3A
100
AcDbEntity
  8
1
 62
     7
100
AcDbLine
 10
195.1166644971981
 20
193.488742011057
 30
0.0
 11
195.1166644971981
 21
193.688742011057
 31
0.0
  0
LINE
  5
1BBB
330
1B3A
100
AcDbEntity
  8
1
 62
     7
100
AcDbLine
 10
195.1166644971981
 20
193.488742011057
 30
0.0
 11
197.9434594164413
 21
193.488742011057
 31
0.0
  0
LINE
  5
1BBC
330
1B3A
100
AcDbEntity
  8
1
 62
     7
100
AcDbLine
 10
195.1166644971981
 20
191.8887420110568
 30
0.0
 11
195.1166644971981
 21
193.488742011057
 31
0.0
  0
LINE
  5
1BBD
330
1B3A
100
AcDbEntity
  8
1
 62
     7
100
AcDbLine
 10
195.1166644971981
 20
191.8887420110568
 30
0.0
 11
197.9434594164413
 21
191.8887420110571
 31
0.0
  0
LINE
  5
1BBE
330
1B3A
100
AcDbEntity
  8
1
 62
     3
100
AcDbLine
 10
195.1166644971981
 20
193.688742011057
 30
0.0
 11
198.0589294702792
 21
193.688742011057
 31
0.0
  0
LINE
  5
1BBF
330
1B3A
100
AcDbEntity
  8
1
 62
     7
100
AcDbLine
 10
195.1166644971981
 20
191.688742011057
 30
0.0
 11
195.1166644971981
 21
191.8887420110568
 31
0.0
  0
LINE
  5
1BC0
330
1B3A
100
AcDbEntity
  8
1
 62
     3
100
AcDbLine
 10
195.1166644971981
 20
191.688742011057
 30
0.0
 11
198.0589294702792
 21
191.688742011057
 31
0.0
  0
LINE
  5
1BC1
330
1B3A
100
AcDbEntity
  8
1
  6
DIVIDE
 62
     7
100
AcDbLine
 10
183.7766644971981
 20
169.1887420110568
 30
0.0
 11
188.7766644971981
 21
169.1887420110568
 31
0.0
  0
LINE
  5
1BC2
330
1B3A
100
AcDbEntity
  8
1
  6
DIVIDE
 62
     7
100
AcDbLine
 10
183.7766644971981
 20
170.938742011057
 30
0.0
 11
183.7766644971981
 21
169.1887420110568
 31
0.0
  0
LINE
  5
1BC3
330
1B3A
100
AcDbEntity
  8
1
  6
DIVIDE
 62
     7
100
AcDbLine
 10
183.7766644971981
 20
190.688742011057
 30
0.0
 11
183.7766644971981
 21
188.9387420110568
 31
0.0
  0
LINE
  5
1BC4
330
1B3A
100
AcDbEntity
  8
1
  6
DIVIDE
 62
     7
100
AcDbLine
 10
188.7766644971981
 20
190.688742011057
 30
0.0
 11
183.7766644971981
 21
190.688742011057
 31
0.0
  0
LINE
  5
1BC5
330
1B3A
100
AcDbEntity
  8
1
 62
     7
100
AcDbLine
 10
192.7166644971982
 20
186.488742011057
 30
0.0
 11
192.7166644971982
 21
183.438742011057
 31
0.0
  0
LINE
  5
1BC6
330
1B3A
100
AcDbEntity
  8
1
 62
     7
100
AcDbLine
 10
194.0166644971981
 20
186.7887420110568
 30
0.0
 11
193.0166644971981
 21
186.7887420110568
 31
0.0
  0
LINE
  5
1BC7
330
1B3A
100
AcDbEntity
  8
1
 62
     7
100
AcDbLine
 10
199.7666644971978
 20
183.438742011057
 30
0.0
 11
199.2166644971979
 21
183.438742011057
 31
0.0
  0
LINE
  5
1BC8
330
1B3A
100
AcDbEntity
  8
1
 62
     7
100
AcDbLine
 10
199.7666644971978
 20
183.438742011057
 30
0.0
 11
199.7666644971978
 21
183.238742011057
 31
0.0
  0
LINE
  5
1BC9
330
1B3A
100
AcDbEntity
  8
1
 62
     7
100
AcDbLine
 10
199.7666644971978
 20
183.238742011057
 30
0.0
 11
200.6666644971981
 21
183.238742011057
 31
0.0
  0
LINE
  5
1BCA
330
1B3A
100
AcDbEntity
  8
1
 62
     7
100
AcDbLine
 10
200.6666644971981
 20
183.238742011057
 30
0.0
 11
200.6666644971981
 21
183.438742011057
 31
0.0
  0
LINE
  5
1BCB
330
1B3A
100
AcDbEntity
  8
1
 62
     7
100
AcDbLine
 10
200.6666644971981
 20
183.438742011057
 30
0.0
 11
201.7166644971982
 21
183.438742011057
 31
0.0
  0
LINE
  5
1BCC
330
1B3A
100
AcDbEntity
  8
1
 62
     7
100
AcDbLine
 10
204.716664497198
 20
181.738742011057
 30
0.0
 11
204.716664497198
 21
183.1387420110568
 31
0.0
  0
LINE
  5
1BCD
330
1B3A
100
AcDbEntity
  8
1
 62
     7
100
AcDbLine
 10
204.4166644971979
 20
181.438742011057
 30
0.0
 11
193.0166644971981
 21
181.438742011057
 31
0.0
  0
LINE
  5
1BCE
330
1B3A
100
AcDbEntity
  8
1
 62
     7
100
AcDbLine
 10
204.4166644971979
 20
181.438742011057
 30
0.0
 11
204.716664497198
 21
181.738742011057
 31
0.0
  0
LINE
  5
1BCF
330
1B3A
100
AcDbEntity
  8
1
 62
     7
100
AcDbLine
 10
204.716664497198
 20
183.1387420110568
 30
0.0
 11
204.4166644971979
 21
183.438742011057
 31
0.0
  0
LINE
  5
1BD0
330
1B3A
100
AcDbEntity
  8
1
 62
     7
100
AcDbLine
 10
193.0166644971981
 20
186.7887420110568
 30
0.0
 11
192.7166644971982
 21
186.488742011057
 31
0.0
  0
LINE
  5
1BD1
330
1B3A
100
AcDbEntity
  8
1
 62
     7
100
AcDbLine
 10
193.0166644971981
 20
181.438742011057
 30
0.0
 11
192.7166644971982
 21
181.738742011057
 31
0.0
  0
LINE
  5
1BD2
330
1B3A
100
AcDbEntity
  8
1
 62
     7
100
AcDbLine
 10
204.716664497198
 20
181.738742011057
 30
0.0
 11
204.716664497198
 21
179.9387420110568
 31
0.0
  0
LINE
  5
1BD3
330
1B3A
100
AcDbEntity
  8
1
 62
     7
100
AcDbLine
 10
192.7166644971982
 20
181.738742011057
 30
0.0
 11
192.7166644971982
 21
179.9387420110568
 31
0.0
  0
LINE
  5
1BD4
330
1B3A
100
AcDbEntity
  8
1
 62
     7
100
AcDbLine
 10
194.4166644971979
 20
184.038742011057
 30
0.0
 11
194.4166644971979
 21
183.8887420110568
 31
0.0
  0
LINE
  5
1BD5
330
1B3A
100
AcDbEntity
  8
1
 62
     7
100
AcDbLine
 10
194.4166644971979
 20
184.038742011057
 30
0.0
 11
194.3166644971981
 21
184.038742011057
 31
0.0
  0
LINE
  5
1BD6
330
1B3A
100
AcDbEntity
  8
1
 62
     7
100
AcDbLine
 10
192.8166644971979
 20
184.038742011057
 30
0.0
 11
192.8166644971979
 21
186.538742011057
 31
0.0
  0
LINE
  5
1BD7
330
1B3A
100
AcDbEntity
  8
1
 62
     7
100
AcDbLine
 10
192.8166644971979
 20
186.538742011057
 30
0.0
 11
194.2666644971978
 21
186.538742011057
 31
0.0
  0
LINE
  5
1BD8
330
1B3A
100
AcDbEntity
  8
1
 62
     7
100
AcDbLine
 10
194.4166644971979
 20
186.538742011057
 30
0.0
 11
194.4166644971979
 21
188.438742011057
 31
0.0
  0
LINE
  5
1BD9
330
1B3A
100
AcDbEntity
  8
1
 62
     7
100
AcDbLine
 10
194.4166644971979
 20
188.438742011057
 30
0.0
 11
195.7166644971982
 21
188.438742011057
 31
0.0
  0
LINE
  5
1BDA
330
1B3A
100
AcDbEntity
  8
1
 62
     7
100
AcDbLine
 10
195.7166644971982
 20
188.438742011057
 30
0.0
 11
195.7166644971982
 21
186.538742011057
 31
0.0
  0
LINE
  5
1BDB
330
1B3A
100
AcDbEntity
  8
1
 62
     7
100
AcDbLine
 10
195.7166644971982
 20
186.538742011057
 30
0.0
 11
195.8166644971981
 21
186.538742011057
 31
0.0
  0
LINE
  5
1BDC
330
1B3A
100
AcDbEntity
  8
1
 62
     7
100
AcDbLine
 10
195.8166644971981
 20
186.538742011057
 30
0.0
 11
195.8166644971981
 21
184.038742011057
 31
0.0
  0
LINE
  5
1BDD
330
1B3A
100
AcDbEntity
  8
1
 62
     7
100
AcDbLine
 10
195.8166644971981
 20
184.038742011057
 30
0.0
 11
195.7166644971982
 21
184.038742011057
 31
0.0
  0
LINE
  5
1BDE
330
1B3A
100
AcDbEntity
  8
1
 62
     7
100
AcDbLine
 10
195.7166644971982
 20
184.038742011057
 30
0.0
 11
195.7166644971982
 21
183.8887420110568
 31
0.0
  0
LINE
  5
1BDF
330
1B3A
100
AcDbEntity
  8
1
 62
     7
100
AcDbLine
 10
195.4166644971979
 20
183.588742011057
 30
0.0
 11
194.7166644971981
 21
183.588742011057
 31
0.0
  0
LINE
  5
1BE0
330
1B3A
100
AcDbEntity
  8
1
 62
     7
100
AcDbLine
 10
195.4166644971979
 20
183.588742011057
 30
0.0
 11
195.7166644971982
 21
183.8887420110568
 31
0.0
  0
LINE
  5
1BE1
330
1B3A
100
AcDbEntity
  8
1
 62
     7
100
AcDbLine
 10
194.7166644971981
 20
183.588742011057
 30
0.0
 11
194.4166644971979
 21
183.8887420110568
 31
0.0
  0
LINE
  5
1BE2
330
1B3A
100
AcDbEntity
  8
1
 62
     7
100
AcDbLine
 10
195.7166644971982
 20
183.8887420110568
 30
0.0
 11
195.7166644971982
 21
183.438742011057
 31
0.0
  0
LINE
  5
1BE3
330
1B3A
100
AcDbEntity
  8
1
 62
     7
100
AcDbLine
 10
195.7166644971982
 20
183.438742011057
 30
0.0
 11
195.4166644971979
 21
183.438742011057
 31
0.0
  0
LINE
  5
1BE4
330
1B3A
100
AcDbEntity
  8
1
 62
     7
100
AcDbLine
 10
194.4166644971979
 20
183.8887420110568
 30
0.0
 11
194.4166644971979
 21
183.4655369303001
 31
0.0
  0
LINE
  5
1BE5
330
1B3A
100
AcDbEntity
  8
1
 62
     7
100
AcDbLine
 10
194.4166644971979
 20
176.4119470918138
 30
0.0
 11
194.4166644971979
 21
175.988742011057
 31
0.0
  0
LINE
  5
1BE6
330
1B3A
100
AcDbEntity
  8
1
 62
     7
100
AcDbLine
 10
194.5166644971978
 20
176.438742011057
 30
0.0
 11
194.7166644971981
 21
176.438742011057
 31
0.0
  0
LINE
  5
1BE7
330
1B3A
100
AcDbEntity
  8
1
 62
     7
100
AcDbLine
 10
195.7166644971982
 20
176.438742011057
 30
0.0
 11
195.7166644971982
 21
175.988742011057
 31
0.0
  0
LINE
  5
1BE8
330
1B3A
100
AcDbEntity
  8
1
 62
     7
100
AcDbLine
 10
194.4166644971979
 20
175.988742011057
 30
0.0
 11
194.7166644971981
 21
176.2887420110569
 31
0.0
  0
LINE
  5
1BE9
330
1B3A
100
AcDbEntity
  8
1
 62
     7
100
AcDbLine
 10
195.7166644971982
 20
175.988742011057
 30
0.0
 11
195.4166644971979
 21
176.2887420110569
 31
0.0
  0
LINE
  5
1BEA
330
1B3A
100
AcDbEntity
  8
1
 62
     7
100
AcDbLine
 10
197.3166644971981
 20
175.838742011057
 30
0.0
 11
197.3166644971981
 21
173.338742011057
 31
0.0
  0
LINE
  5
1BEB
330
1B3A
100
AcDbEntity
  8
1
 62
     7
100
AcDbLine
 10
194.7166644971981
 20
176.2887420110569
 30
0.0
 11
195.4166644971979
 21
176.2887420110569
 31
0.0
  0
LINE
  5
1BEC
330
1B3A
100
AcDbEntity
  8
1
 62
     7
100
AcDbLine
 10
195.7166644971982
 20
175.988742011057
 30
0.0
 11
195.7166644971982
 21
175.838742011057
 31
0.0
  0
LINE
  5
1BED
330
1B3A
100
AcDbEntity
  8
1
 62
     7
100
AcDbLine
 10
195.7166644971982
 20
175.838742011057
 30
0.0
 11
197.3166644971981
 21
175.838742011057
 31
0.0
  0
LINE
  5
1BEE
330
1B3A
100
AcDbEntity
  8
1
 62
     7
100
AcDbLine
 10
195.7166644971982
 20
173.338742011057
 30
0.0
 11
197.3166644971981
 21
173.338742011057
 31
0.0
  0
LINE
  5
1BEF
330
1B3A
100
AcDbEntity
  8
1
 62
     7
100
AcDbLine
 10
195.7166644971982
 20
173.338742011057
 30
0.0
 11
195.7166644971982
 21
171.4387420110566
 31
0.0
  0
LINE
  5
1BF0
330
1B3A
100
AcDbEntity
  8
1
 62
     7
100
AcDbLine
 10
195.7166644971982
 20
171.4387420110566
 30
0.0
 11
194.4166644971979
 21
171.4387420110566
 31
0.0
  0
LINE
  5
1BF1
330
1B3A
100
AcDbEntity
  8
1
 62
     7
100
AcDbLine
 10
194.4166644971979
 20
171.4387420110566
 30
0.0
 11
194.4166644971979
 21
173.338742011057
 31
0.0
  0
LINE
  5
1BF2
330
1B3A
100
AcDbEntity
  8
1
 62
     7
100
AcDbLine
 10
194.4166644971979
 20
173.338742011057
 30
0.0
 11
194.3166644971981
 21
173.338742011057
 31
0.0
  0
LINE
  5
1BF3
330
1B3A
100
AcDbEntity
  8
1
 62
     7
100
AcDbLine
 10
194.4166644971979
 20
175.988742011057
 30
0.0
 11
194.4166644971979
 21
175.838742011057
 31
0.0
  0
LINE
  5
1BF4
330
1B3A
100
AcDbEntity
  8
1
 62
     7
100
AcDbLine
 10
192.7166644971982
 20
179.9387420110568
 30
0.0
 11
192.7166644971982
 21
178.1387420110569
 31
0.0
  0
LINE
  5
1BF5
330
1B3A
100
AcDbEntity
  8
1
 62
     7
100
AcDbLine
 10
204.716664497198
 20
179.9387420110568
 30
0.0
 11
204.716664497198
 21
178.1387420110569
 31
0.0
  0
LINE
  5
1BF6
330
1B3A
100
AcDbEntity
  8
1
 62
     7
100
AcDbLine
 10
192.7166644971982
 20
178.1387420110569
 30
0.0
 11
193.0166644971981
 21
178.438742011057
 31
0.0
  0
LINE
  5
1BF7
330
1B3A
100
AcDbEntity
  8
1
 62
     7
100
AcDbLine
 10
192.7166644971982
 20
173.3887420110569
 30
0.0
 11
193.0166644971981
 21
173.088742011057
 31
0.0
  0
LINE
  5
1BF8
330
1B3A
100
AcDbEntity
  8
1
 62
     7
100
AcDbLine
 10
194.0166644971981
 20
173.088742011057
 30
0.0
 11
194.3166644971981
 21
173.3887420110569
 31
0.0
  0
LINE
  5
1BF9
330
1B3A
100
AcDbEntity
  8
1
 62
     7
100
AcDbLine
 10
204.4166644971979
 20
176.438742011057
 30
0.0
 11
204.716664497198
 21
176.738742011057
 31
0.0
  0
LINE
  5
1BFA
330
1B3A
100
AcDbEntity
  8
1
 62
     7
100
AcDbLine
 10
204.716664497198
 20
178.1387420110569
 30
0.0
 11
204.4166644971979
 21
178.438742011057
 31
0.0
  0
LINE
  5
1BFB
330
1B3A
100
AcDbEntity
  8
1
 62
     7
100
AcDbLine
 10
193.0166644971981
 20
178.438742011057
 30
0.0
 11
204.4166644971979
 21
178.438742011057
 31
0.0
  0
LINE
  5
1BFC
330
1B3A
100
AcDbEntity
  8
1
 62
     7
100
AcDbLine
 10
204.716664497198
 20
176.738742011057
 30
0.0
 11
204.716664497198
 21
178.1387420110569
 31
0.0
  0
LINE
  5
1BFD
330
1B3A
100
AcDbEntity
  8
1
 62
     7
100
AcDbLine
 10
204.4166644971979
 20
176.438742011057
 30
0.0
 11
200.6666644971981
 21
176.438742011057
 31
0.0
  0
LINE
  5
1BFE
330
1B3A
100
AcDbEntity
  8
1
 62
     7
100
AcDbLine
 10
200.6666644971981
 20
176.438742011057
 30
0.0
 11
200.6666644971981
 21
176.638742011057
 31
0.0
  0
LINE
  5
1BFF
330
1B3A
100
AcDbEntity
  8
1
 62
     7
100
AcDbLine
 10
200.6666644971981
 20
176.638742011057
 30
0.0
 11
199.7666644971978
 21
176.638742011057
 31
0.0
  0
LINE
  5
1C00
330
1B3A
100
AcDbEntity
  8
1
 62
     7
100
AcDbLine
 10
199.7666644971978
 20
176.638742011057
 30
0.0
 11
199.7666644971978
 21
176.438742011057
 31
0.0
  0
LINE
  5
1C01
330
1B3A
100
AcDbEntity
  8
1
 62
     7
100
AcDbLine
 10
195.7166644971982
 20
176.438742011057
 30
0.0
 11
199.7666644971978
 21
176.438742011057
 31
0.0
  0
LINE
  5
1C02
330
1B3A
100
AcDbEntity
  8
1
 62
     7
100
AcDbLine
 10
194.3166644971981
 20
176.238742011057
 30
0.0
 11
194.3166644971981
 21
173.3887420110569
 31
0.0
  0
LINE
  5
1C03
330
1B3A
100
AcDbEntity
  8
1
 62
     7
100
AcDbLine
 10
193.0166644971981
 20
173.088742011057
 30
0.0
 11
194.0166644971981
 21
173.088742011057
 31
0.0
  0
LINE
  5
1C04
330
1B3A
100
AcDbEntity
  8
1
 62
     7
100
AcDbLine
 10
192.7166644971982
 20
178.1387420110569
 30
0.0
 11
192.7166644971982
 21
173.3887420110569
 31
0.0
  0
LINE
  5
1C05
330
1B3A
100
AcDbEntity
  8
1
 62
     7
100
AcDbLine
 10
194.2666644971978
 20
186.538742011057
 30
0.0
 11
194.0166644971981
 21
186.7887420110568
 31
0.0
  0
LINE
  5
1C06
330
1B3A
100
AcDbEntity
  8
1
 62
     7
100
AcDbLine
 10
194.2666644971978
 20
186.538742011057
 30
0.0
 11
194.4166644971979
 21
186.538742011057
 31
0.0
  0
LINE
  5
1C07
330
1B3A
100
AcDbEntity
  8
1
 62
     7
100
AcDbLine
 10
194.3166644971981
 20
184.038742011057
 30
0.0
 11
192.8166644971979
 21
184.038742011057
 31
0.0
  0
LINE
  5
1C08
330
1B3A
100
AcDbEntity
  8
1
 62
     7
100
AcDbLine
 10
194.3166644971981
 20
184.038742011057
 30
0.0
 11
194.3166644971981
 21
183.6387420110568
 31
0.0
  0
LINE
  5
1C09
330
1B3A
100
AcDbEntity
  8
1
 62
     7
100
AcDbLine
 10
194.3166644971981
 20
175.838742011057
 30
0.0
 11
194.4166644971979
 21
175.838742011057
 31
0.0
  0
LINE
  5
1C0A
330
1B3A
100
AcDbEntity
  8
1
 62
     7
100
AcDbLine
 10
194.3166644971981
 20
173.3887420110569
 30
0.0
 11
194.3166644971981
 21
173.338742011057
 31
0.0
  0
LINE
  5
1C0B
330
1B3A
100
AcDbEntity
  8
1
 62
     7
100
AcDbLine
 10
194.5166644971978
 20
183.438742011057
 30
0.0
 11
192.7166644971982
 21
183.438742011057
 31
0.0
  0
LINE
  5
1C0C
330
1B3A
100
AcDbEntity
  8
1
 62
     7
100
AcDbLine
 10
192.7166644971982
 20
183.438742011057
 30
0.0
 11
192.7166644971982
 21
181.738742011057
 31
0.0
  0
LINE
  5
1C0D
330
1B3A
100
AcDbEntity
  8
1
 62
     7
100
AcDbLine
 10
195.4166644971979
 20
183.588742011057
 30
0.0
 11
195.4166644971979
 21
183.438742011057
 31
0.0
  0
LINE
  5
1C0E
330
1B3A
100
AcDbEntity
  8
1
 62
     7
100
AcDbLine
 10
195.4166644971979
 20
183.438742011057
 30
0.0
 11
194.7166644971981
 21
183.438742011057
 31
0.0
  0
LINE
  5
1C0F
330
1B3A
100
AcDbEntity
  8
1
 62
     7
100
AcDbLine
 10
194.7166644971981
 20
183.588742011057
 30
0.0
 11
194.7166644971981
 21
183.438742011057
 31
0.0
  0
LINE
  5
1C10
330
1B3A
100
AcDbEntity
  8
1
 62
     7
100
AcDbLine
 10
194.7166644971981
 20
183.438742011057
 30
0.0
 11
194.5166644971978
 21
183.438742011057
 31
0.0
  0
LINE
  5
1C11
330
1B3A
100
AcDbEntity
  8
1
 62
     7
100
AcDbLine
 10
194.7166644971981
 20
176.2887420110569
 30
0.0
 11
194.7166644971981
 21
176.438742011057
 31
0.0
  0
LINE
  5
1C12
330
1B3A
100
AcDbEntity
  8
1
 62
     7
100
AcDbLine
 10
194.7166644971981
 20
176.438742011057
 30
0.0
 11
195.4166644971979
 21
176.438742011057
 31
0.0
  0
LINE
  5
1C13
330
1B3A
100
AcDbEntity
  8
1
 62
     7
100
AcDbLine
 10
195.4166644971979
 20
176.2887420110569
 30
0.0
 11
195.4166644971979
 21
176.438742011057
 31
0.0
  0
LINE
  5
1C14
330
1B3A
100
AcDbEntity
  8
1
 62
     7
100
AcDbLine
 10
195.4166644971979
 20
176.438742011057
 30
0.0
 11
195.7166644971982
 21
176.438742011057
 31
0.0
  0
LINE
  5
1C15
330
1B3A
100
AcDbEntity
  8
1
 62
     7
100
AcDbLine
 10
195.8166644971981
 20
186.538742011057
 30
0.0
 11
195.8166644971981
 21
187.0487420110569
 31
0.0
  0
LINE
  5
1C16
330
1B3A
100
AcDbEntity
  8
1
 62
     7
100
AcDbLine
 10
195.8166644971981
 20
187.0487420110569
 30
0.0
 11
196.1166644971981
 21
187.0487420110569
 31
0.0
  0
LINE
  5
1C17
330
1B3A
100
AcDbEntity
  8
1
 62
     7
100
AcDbLine
 10
199.0166644971981
 20
187.0487420110569
 30
0.0
 11
199.2166644971979
 21
187.0487420110569
 31
0.0
  0
LINE
  5
1C18
330
1B3A
100
AcDbEntity
  8
1
 62
     7
100
AcDbLine
 10
199.2166644971979
 20
187.0487420110569
 30
0.0
 11
199.2166644971979
 21
184.938742011057
 31
0.0
  0
LINE
  5
1C19
330
1B3A
100
AcDbEntity
  8
1
 62
     7
100
AcDbLine
 10
199.2166644971979
 20
183.438742011057
 30
0.0
 11
195.8166644971981
 21
183.438742011057
 31
0.0
  0
LINE
  5
1C1A
330
1B3A
100
AcDbEntity
  8
1
 62
     7
100
AcDbLine
 10
199.2166644971979
 20
183.588742011057
 30
0.0
 11
195.8166644971981
 21
183.588742011057
 31
0.0
  0
LINE
  5
1C1B
330
1B3A
100
AcDbEntity
  8
1
 62
     7
100
AcDbLine
 10
199.2166644971979
 20
183.588742011057
 30
0.0
 11
199.2166644971979
 21
183.438742011057
 31
0.0
  0
LINE
  5
1C1C
330
1B3A
100
AcDbEntity
  8
1
 62
     7
100
AcDbLine
 10
195.8166644971981
 20
184.038742011057
 30
0.0
 11
195.8166644971981
 21
183.438742011057
 31
0.0
  0
LINE
  5
1C1D
330
1B3A
100
AcDbEntity
  8
1
 62
     7
100
AcDbLine
 10
195.8166644971981
 20
183.438742011057
 30
0.0
 11
195.7166644971982
 21
183.438742011057
 31
0.0
  0
LINE
  5
1C1E
330
1B3A
100
AcDbEntity
  8
1
 62
     7
100
AcDbLine
 10
195.8166644971981
 20
176.2887420110569
 30
0.0
 11
197.4166644971981
 21
176.2887420110569
 31
0.0
  0
LINE
  5
1C1F
330
1B3A
100
AcDbEntity
  8
1
 62
     7
100
AcDbLine
 10
195.8166644971981
 20
176.438742011057
 30
0.0
 11
195.8166644971981
 21
175.838742011057
 31
0.0
  0
LINE
  5
1C20
330
1B3A
100
AcDbEntity
  8
1
 62
     7
100
AcDbLine
 10
195.7166644971982
 20
175.838742011057
 30
0.0
 11
195.8166644971981
 21
175.838742011057
 31
0.0
  0
LINE
  5
1C21
330
1B3A
100
AcDbEntity
  8
1
 62
     7
100
AcDbLine
 10
199.2166644971979
 20
176.2887420110569
 30
0.0
 11
199.2166644971979
 21
174.938742011057
 31
0.0
  0
LINE
  5
1C22
330
1B3A
100
AcDbEntity
  8
1
 62
     7
100
AcDbLine
 10
199.2166644971979
 20
176.438742011057
 30
0.0
 11
199.2166644971979
 21
176.2887420110569
 31
0.0
  0
LINE
  5
1C23
330
1B3A
100
AcDbEntity
  8
1
 62
     7
100
AcDbLine
 10
196.1166644971981
 20
172.828742011057
 30
0.0
 11
195.8166644971981
 21
172.828742011057
 31
0.0
  0
LINE
  5
1C24
330
1B3A
100
AcDbEntity
  8
1
 62
     7
100
AcDbLine
 10
195.8166644971981
 20
172.828742011057
 30
0.0
 11
195.8166644971981
 21
173.338742011057
 31
0.0
  0
LINE
  5
1C25
330
1B3A
100
AcDbEntity
  8
1
 62
     7
100
AcDbLine
 10
199.2166644971979
 20
176.2887420110569
 30
0.0
 11
199.2166644971979
 21
174.938742011057
 31
0.0
  0
LINE
  5
1C26
330
1B3A
100
AcDbEntity
  8
1
 62
     7
100
AcDbLine
 10
199.2166644971979
 20
172.828742011057
 30
0.0
 11
199.0166644971981
 21
172.828742011057
 31
0.0
  0
LINE
  5
1C27
330
1B3A
100
AcDbEntity
  8
1
 62
     7
100
AcDbLine
 10
197.4166644971981
 20
172.828742011057
 30
0.0
 11
197.4166644971981
 21
176.2887420110569
 31
0.0
  0
LINE
  5
1C28
330
1B3A
100
AcDbEntity
  8
1
 62
     7
100
AcDbLine
 10
197.4166644971981
 20
176.2887420110569
 30
0.0
 11
199.2166644971979
 21
176.2887420110569
 31
0.0
  0
LINE
  5
1C29
330
1B3A
100
AcDbEntity
  8
1
 62
     7
100
AcDbLine
 10
203.7166644971982
 20
183.438742011057
 30
0.0
 11
204.4166644971979
 21
183.438742011057
 31
0.0
  0
LINE
  5
1C2A
330
1B3A
100
AcDbEntity
  8
1
 62
     7
100
AcDbLine
 10
199.7666644971978
 20
183.438742011057
 30
0.0
 11
199.7666644971978
 21
183.588742011057
 31
0.0
  0
LINE
  5
1C2B
330
1B3A
100
AcDbEntity
  8
1
 62
     7
100
AcDbLine
 10
199.7666644971978
 20
184.938742011057
 30
0.0
 11
199.2166644971979
 21
184.938742011057
 31
0.0
  0
LINE
  5
1C2C
330
1B3A
100
AcDbEntity
  8
1
 62
     7
100
AcDbLine
 10
199.2166644971979
 20
184.938742011057
 30
0.0
 11
199.2166644971979
 21
183.588742011057
 31
0.0
  0
LINE
  5
1C2D
330
1B3A
100
AcDbEntity
  8
1
 62
     7
100
AcDbLine
 10
199.7666644971978
 20
176.438742011057
 30
0.0
 11
199.7666644971978
 21
176.2887420110569
 31
0.0
  0
LINE
  5
1C2E
330
1B3A
100
AcDbEntity
  8
1
 62
     7
100
AcDbLine
 10
199.7666644971978
 20
174.938742011057
 30
0.0
 11
199.2166644971979
 21
174.938742011057
 31
0.0
  0
LINE
  5
1C2F
330
1B3A
100
AcDbEntity
  8
1
 62
     7
100
AcDbLine
 10
199.2166644971979
 20
174.938742011057
 30
0.0
 11
199.2166644971979
 21
172.828742011057
 31
0.0
  0
LINE
  5
1C30
330
1B3A
100
AcDbEntity
  8
1
 62
     7
100
AcDbLine
 10
199.2166644971979
 20
174.938742011057
 30
0.0
 11
199.2166644971979
 21
172.828742011057
 31
0.0
  0
LINE
  5
1C31
330
1B3A
100
AcDbEntity
  8
1
 62
     7
100
AcDbLine
 10
199.7666644971978
 20
184.7251080320864
 30
0.0
 11
200.6666644971981
 21
184.7251080320864
 31
0.0
  0
LINE
  5
1C32
330
1B3A
100
AcDbEntity
  8
1
 62
     7
100
AcDbLine
 10
199.7666644971978
 20
184.7251080320864
 30
0.0
 11
199.7666644971978
 21
184.938742011057
 31
0.0
  0
LINE
  5
1C33
330
1B3A
100
AcDbEntity
  8
1
 62
     7
100
AcDbLine
 10
200.6666644971981
 20
184.7251080320864
 30
0.0
 11
200.6666644971981
 21
183.438742011057
 31
0.0
  0
LINE
  5
1C34
330
1B3A
100
AcDbEntity
  8
1
 62
     7
100
AcDbLine
 10
200.6666644971981
 20
175.1523759900277
 30
0.0
 11
199.7666644971978
 21
175.1523759900277
 31
0.0
  0
LINE
  5
1C35
330
1B3A
100
AcDbEntity
  8
1
 62
     7
100
AcDbLine
 10
200.6666644971981
 20
176.438742011057
 30
0.0
 11
200.6666644971981
 21
175.1523759900277
 31
0.0
  0
LINE
  5
1C36
330
1B3A
100
AcDbEntity
  8
1
 62
     7
100
AcDbLine
 10
199.2166644971979
 20
183.588742011057
 30
0.0
 11
199.7666644971978
 21
183.588742011057
 31
0.0
  0
LINE
  5
1C37
330
1B3A
100
AcDbEntity
  8
1
 62
     7
100
AcDbLine
 10
199.7666644971978
 20
183.588742011057
 30
0.0
 11
199.7666644971978
 21
184.7251080320864
 31
0.0
  0
LINE
  5
1C38
330
1B3A
100
AcDbEntity
  8
1
 62
     7
100
AcDbLine
 10
199.2166644971979
 20
176.2887420110569
 30
0.0
 11
199.7666644971978
 21
176.2887420110569
 31
0.0
  0
LINE
  5
1C39
330
1B3A
100
AcDbEntity
  8
1
 62
     7
100
AcDbLine
 10
199.7666644971978
 20
176.2887420110569
 30
0.0
 11
199.7666644971978
 21
174.938742011057
 31
0.0
  0
LINE
  5
1C3A
330
1B3A
100
AcDbEntity
  8
1
 62
     7
100
AcDbLine
 10
185.3166644971981
 20
189.251242011057
 30
0.0
 11
185.3166644971981
 21
179.9387420110568
 31
0.0
  0
LINE
  5
1C3B
330
1B3A
100
AcDbEntity
  8
1
 62
     7
100
AcDbLine
 10
185.8166644971981
 20
189.751242011057
 30
0.0
 11
199.5666644971981
 21
189.751242011057
 31
0.0
  0
LINE
  5
1C3C
330
1B3A
100
AcDbEntity
  8
1
 62
     7
100
AcDbLine
 10
199.6166644971981
 20
189.8540745642123
 30
0.0
 11
199.6166644971981
 21
189.801242011057
 31
0.0
  0
LINE
  5
1C3D
330
1B3A
100
AcDbEntity
  8
1
 62
     7
100
AcDbLine
 10
199.1166644971981
 20
190.1567420110568
 30
0.0
 11
199.5906255499679
 21
189.8979592762447
 31
0.0
  0
LINE
  5
1C3E
330
1B3A
100
AcDbEntity
  8
1
 62
     7
100
AcDbLine
 10
199.1166644971981
 20
190.1567420110568
 30
0.0
 11
195.6166644971981
 21
190.1567420110568
 31
0.0
  0
LINE
  5
1C3F
330
1B3A
100
AcDbEntity
  8
1
 62
     7
100
AcDbLine
 10
193.8736652523246
 20
189.8839203941751
 30
0.0
 11
185.7778720553326
 21
189.8837417707632
 31
0.0
  0
LINE
  5
1C40
330
1B3A
100
AcDbEntity
  8
1
 62
     7
100
AcDbLine
 10
199.6166644971981
 20
189.801242011057
 30
0.0
 11
199.6166644971981
 21
185.3766961477476
 31
0.0
  0
LINE
  5
1C41
330
1B3A
100
AcDbEntity
  8
1
 62
     7
100
AcDbLine
 10
185.3166644971981
 20
170.626242011057
 30
0.0
 11
185.3166644971981
 21
179.9387420110568
 31
0.0
  0
LINE
  5
1C42
330
1B3A
100
AcDbEntity
  8
1
 62
     7
100
AcDbLine
 10
199.5666644971981
 20
170.126242011057
 30
0.0
 11
185.8166644971981
 21
170.126242011057
 31
0.0
  0
LINE
  5
1C43
330
1B3A
100
AcDbEntity
  8
1
 62
     7
100
AcDbLine
 10
185.7778720553326
 20
169.9937422513506
 30
0.0
 11
193.8736652523246
 21
169.9935636279384
 31
0.0
  0
LINE
  5
1C44
330
1B3A
100
AcDbEntity
  8
1
 62
     7
100
AcDbLine
 10
195.6166644971981
 20
169.7207420110569
 30
0.0
 11
199.1166644971981
 21
169.7207420110569
 31
0.0
  0
LINE
  5
1C45
330
1B3A
100
AcDbEntity
  8
1
 62
     7
100
AcDbLine
 10
199.6166644971981
 20
174.5007878743661
 30
0.0
 11
199.6166644971981
 21
170.0762420110569
 31
0.0
  0
LINE
  5
1C46
330
1B3A
100
AcDbEntity
  8
1
 62
     7
100
AcDbLine
 10
199.6166644971981
 20
170.0762420110569
 30
0.0
 11
199.6166644971981
 21
170.0234094579014
 31
0.0
  0
LINE
  5
1C47
330
1B3A
100
AcDbEntity
  8
1
 62
     7
100
AcDbLine
 10
199.5906255499679
 20
169.9795247458693
 30
0.0
 11
199.1166644971981
 21
169.7207420110569
 31
0.0
  0
LINE
  5
1C48
330
1B3A
100
AcDbEntity
  8
1
 62
     7
100
AcDbLine
 10
195.4166644971979
 20
194.938742011057
 30
0.0
 11
199.3166644971981
 21
194.938742011057
 31
0.0
  0
LINE
  5
1C49
330
1B3A
100
AcDbEntity
  8
1
 62
     7
100
AcDbLine
 10
199.4166644971981
 20
190.0812260154064
 30
0.0
 11
195.3166644971981
 21
190.0812260154064
 31
0.0
  0
LINE
  5
1C4A
330
1B3A
100
AcDbEntity
  8
1
 62
     7
100
AcDbLine
 10
199.4166644971981
 20
190.0812260154064
 30
0.0
 11
199.6166644971981
 21
190.2812260154065
 31
0.0
  0
LINE
  5
1C4B
330
1B3A
100
AcDbEntity
  8
1
 62
     7
100
AcDbLine
 10
195.3166644971981
 20
190.0812260154064
 30
0.0
 11
195.1166644971981
 21
190.2812260154065
 31
0.0
  0
LINE
  5
1C4C
330
1B3A
100
AcDbEntity
  8
1
 62
     7
100
AcDbLine
 10
199.6166644971981
 20
190.2812260154065
 30
0.0
 11
199.6166644971981
 21
189.8540745642123
 31
0.0
  0
LINE
  5
1C4D
330
1B3A
100
AcDbEntity
  8
1
 62
     7
100
AcDbLine
 10
195.1166644971981
 20
190.2812260154065
 30
0.0
 11
195.1166644971981
 21
190.0238960666861
 31
0.0
  0
LINE
  5
1C4E
330
1B3A
100
AcDbEntity
  8
1
 62
     7
100
AcDbLine
 10
199.1166644971981
 20
190.1567420110568
 30
0.0
 11
199.4921804928484
 21
190.1567420110568
 31
0.0
  0
LINE
  5
1C4F
330
1B3A
100
AcDbEntity
  8
1
 62
     7
100
AcDbLine
 10
195.6166644971981
 20
190.1567420110568
 30
0.0
 11
195.2411485015477
 21
190.1567420110568
 31
0.0
  0
LINE
  5
1C50
330
1B3A
100
AcDbEntity
  8
1
 62
     7
100
AcDbLine
 10
199.6166644971981
 20
190.2812260154065
 30
0.0
 11
199.6166644971981
 21
191.588742011057
 31
0.0
  0
LINE
  5
1C51
330
1B3A
100
AcDbEntity
  8
1
 62
     7
100
AcDbLine
 10
195.4166644971979
 20
194.938742011057
 30
0.0
 11
195.1166644971981
 21
194.6387420110568
 31
0.0
  0
LINE
  5
1C52
330
1B3A
100
AcDbEntity
  8
1
 62
     7
100
AcDbLine
 10
199.6166644971981
 20
194.6387420110568
 30
0.0
 11
199.3166644971981
 21
194.938742011057
 31
0.0
  0
LINE
  5
1C53
330
1B3A
100
AcDbEntity
  8
1
 62
     7
100
AcDbLine
 10
195.1166644971981
 20
169.5962580067075
 30
0.0
 11
195.1166644971981
 21
168.2887420110569
 31
0.0
  0
LINE
  5
1C54
330
1B3A
100
AcDbEntity
  8
1
 62
     7
100
AcDbLine
 10
195.1166644971981
 20
169.8535879554279
 30
0.0
 11
195.1166644971981
 21
169.5962580067075
 31
0.0
  0
LINE
  5
1C55
330
1B3A
100
AcDbEntity
  8
1
  6
CENTER
 62
     3
100
AcDbLine
 10
200.9460925547521
 20
167.188742011057
 30
0.0
 11
193.6651486698598
 21
167.188742011057
 31
0.0
  0
LINE
  5
1C56
330
1B3A
100
AcDbEntity
  8
1
 62
     7
100
AcDbLine
 10
195.1166644971981
 20
168.2887420110569
 30
0.0
 11
195.1166644971981
 21
166.088742011057
 31
0.0
  0
LINE
  5
1C57
330
1B3A
100
AcDbEntity
  8
1
 62
     7
100
AcDbLine
 10
195.1166644971981
 20
165.2387420110569
 30
0.0
 11
195.1166644971981
 21
166.088742011057
 31
0.0
  0
LINE
  5
1C58
330
1B3A
100
AcDbEntity
  8
1
 62
     7
100
AcDbLine
 10
195.1166644971981
 20
165.2387420110569
 30
0.0
 11
195.4166644971979
 21
164.938742011057
 31
0.0
  0
LINE
  5
1C59
330
1B3A
100
AcDbEntity
  8
1
 62
     7
100
AcDbLine
 10
199.3166644971981
 20
164.938742011057
 30
0.0
 11
195.4166644971979
 21
164.938742011057
 31
0.0
  0
LINE
  5
1C5A
330
1B3A
100
AcDbEntity
  8
1
 62
     7
100
AcDbLine
 10
199.3166644971981
 20
164.938742011057
 30
0.0
 11
199.6166644971981
 21
165.2387420110569
 31
0.0
  0
LINE
  5
1C5B
330
1B3A
100
AcDbEntity
  8
1
 62
     7
100
AcDbLine
 10
199.6166644971981
 20
165.2387420110569
 30
0.0
 11
199.6166644971981
 21
166.088742011057
 31
0.0
  0
LINE
  5
1C5C
330
1B3A
100
AcDbEntity
  8
1
 62
     7
100
AcDbLine
 10
199.6166644971981
 20
168.2887420110569
 30
0.0
 11
199.6166644971981
 21
166.088742011057
 31
0.0
  0
LINE
  5
1C5D
330
1B3A
100
AcDbEntity
  8
1
 62
     7
100
AcDbLine
 10
199.6166644971981
 20
169.5962580067075
 30
0.0
 11
199.6166644971981
 21
168.2887420110569
 31
0.0
  0
LINE
  5
1C5E
330
1B3A
100
AcDbEntity
  8
1
 62
     7
100
AcDbLine
 10
199.6166644971981
 20
170.0234094579014
 30
0.0
 11
199.6166644971981
 21
169.5962580067075
 31
0.0
  0
LINE
  5
1C5F
330
1B3A
100
AcDbEntity
  8
1
 62
     7
100
AcDbLine
 10
199.6166644971981
 20
169.5962580067075
 30
0.0
 11
199.4166644971981
 21
169.7962580067076
 31
0.0
  0
LINE
  5
1C60
330
1B3A
100
AcDbEntity
  8
1
 62
     7
100
AcDbLine
 10
195.1166644971981
 20
169.5962580067075
 30
0.0
 11
195.3166644971981
 21
169.7962580067076
 31
0.0
  0
LINE
  5
1C61
330
1B3A
100
AcDbEntity
  8
1
 62
     7
100
AcDbLine
 10
195.3166644971981
 20
169.7962580067076
 30
0.0
 11
199.4166644971981
 21
169.7962580067076
 31
0.0
  0
LINE
  5
1C62
330
1B3A
100
AcDbEntity
  8
1
 62
     7
100
AcDbLine
 10
195.2411485015475
 20
169.7207420110569
 30
0.0
 11
195.6166644971981
 21
169.7207420110569
 31
0.0
  0
LINE
  5
1C63
330
1B3A
100
AcDbEntity
  8
1
 62
     7
100
AcDbLine
 10
199.4921804928488
 20
169.7207420110569
 30
0.0
 11
199.1166644971981
 21
169.7207420110569
 31
0.0
  0
LINE
  5
1C64
330
1B3A
100
AcDbEntity
  8
1
 62
     7
100
AcDbLine
 10
195.1166644971981
 20
166.088742011057
 30
0.0
 11
199.6166644971981
 21
166.088742011057
 31
0.0
  0
LINE
  5
1C65
330
1B3A
100
AcDbEntity
  8
1
 62
     7
100
AcDbLine
 10
199.6166644971981
 20
168.2887420110569
 30
0.0
 11
195.1166644971981
 21
168.2887420110569
 31
0.0
  0
LINE
  5
1C66
330
1B3A
100
AcDbEntity
  8
1
  6
CENTER
 62
     3
100
AcDbLine
 10
235.0983124722332
 20
179.9387420110568
 30
0.0
 11
270.5935584187443
 21
179.9387420110568
 31
0.0
  0
LINE
  5
1C67
330
1B3A
100
AcDbEntity
  8
1
  6
CENTER
 62
     3
100
AcDbLine
 10
252.5935584187446
 20
197.7416032616386
 30
0.0
 11
252.5935584187446
 21
161.8300126802155
 31
0.0
  0
LINE
  5
1C68
330
1B3A
100
AcDbEntity
  8
1
  6
CENTER
 62
     3
100
AcDbLine
 10
124.963708307201
 20
187.2148338212338
 30
0.0
 11
121.844141918128
 21
190.3344002103066
 31
0.0
  0
LINE
  5
1C69
330
1B3A
100
AcDbEntity
  8
1
  6
CENTER
 62
     3
100
AcDbLine
 10
139.9377789646514
 20
172.2407631637829
 30
0.0
 11
143.0573453537246
 21
169.1211967747101
 31
0.0
  0
LINE
  5
1C6A
330
1B3A
100
AcDbEntity
  8
1
  6
CENTER
 62
     3
100
AcDbLine
 10
114.402790932854
 20
179.7277984925083
 30
0.0
 11
150.1615644327491
 21
179.7277984925083
 31
0.0
  0
LINE
  5
1C6B
330
1B3A
100
AcDbEntity
  8
1
  6
CENTER
 62
     3
100
AcDbLine
 10
132.4507436359263
 20
197.7277984925083
 30
0.0
 11
132.4507436359263
 21
161.1860176144261
 31
0.0
  0
LINE
  5
1C6C
330
1B3A
100
AcDbEntity
  8
1
 62
     3
100
AcDbLine
 10
201.916664497198
 20
184.438742011057
 30
0.0
 11
201.916664497198
 21
181.438742011057
 31
0.0
  0
LINE
  5
1C6D
330
1B3A
100
AcDbEntity
  8
1
 62
     3
100
AcDbLine
 10
203.5166644971978
 20
184.438742011057
 30
0.0
 11
203.5166644971978
 21
181.438742011057
 31
0.0
  0
LINE
  5
1C6E
330
1B3A
100
AcDbEntity
  8
1
  6
CENTER
 62
     3
100
AcDbLine
 10
205.7350098209389
 20
179.9387420110568
 30
0.0
 11
180.2234990295723
 21
179.9387420110568
 31
0.0
  0
LINE
  5
1C6F
330
1B3A
100
AcDbEntity
  8
1
  6
CENTER
 62
     3
100
AcDbLine
 10
202.716664497198
 20
184.438742011057
 30
0.0
 11
202.716664497198
 21
178.0577420110568
 31
0.0
  0
LINE
  5
1C70
330
1B3A
100
AcDbEntity
  8
1
 62
     7
100
AcDbLine
 10
201.916664497198
 20
184.438742011057
 30
0.0
 11
201.7166644971982
 21
184.3232719572188
 31
0.0
  0
LINE
  5
1C71
330
1B3A
100
AcDbEntity
  8
1
 62
     7
100
AcDbLine
 10
201.7166644971982
 20
184.3232719572188
 30
0.0
 11
201.7166644971982
 21
181.6387420110568
 31
0.0
  0
LINE
  5
1C72
330
1B3A
100
AcDbEntity
  8
1
 62
     7
100
AcDbLine
 10
201.7166644971982
 20
184.3232719572188
 30
0.0
 11
203.7166644971982
 21
184.3232719572188
 31
0.0
  0
LINE
  5
1C73
330
1B3A
100
AcDbEntity
  8
1
 62
     7
100
AcDbLine
 10
203.7166644971982
 20
184.3232719572188
 30
0.0
 11
203.7166644971982
 21
181.6387420110568
 31
0.0
  0
LINE
  5
1C74
330
1B3A
100
AcDbEntity
  8
1
 62
     7
100
AcDbLine
 10
203.7166644971982
 20
184.3232719572188
 30
0.0
 11
203.5166644971978
 21
184.438742011057
 31
0.0
  0
LINE
  5
1C75
330
1B3A
100
AcDbEntity
  8
1
 62
     7
100
AcDbLine
 10
203.5166644971978
 20
184.438742011057
 30
0.0
 11
201.916664497198
 21
184.438742011057
 31
0.0
  0
LINE
  5
1C76
330
1B3A
100
AcDbEntity
  8
1
 62
     7
100
AcDbLine
 10
201.916664497198
 20
181.438742011057
 30
0.0
 11
201.7166644971982
 21
181.6387420110568
 31
0.0
  0
LINE
  5
1C77
330
1B3A
100
AcDbEntity
  8
1
 62
     3
100
AcDbLine
 10
201.7166644971982
 20
181.6387420110568
 30
0.0
 11
201.7166644971982
 21
181.438742011057
 31
0.0
  0
LINE
  5
1C78
330
1B3A
100
AcDbEntity
  8
1
 62
     7
100
AcDbLine
 10
201.7166644971982
 20
181.6387420110568
 30
0.0
 11
203.7166644971982
 21
181.6387420110568
 31
0.0
  0
LINE
  5
1C79
330
1B3A
100
AcDbEntity
  8
1
 62
     3
100
AcDbLine
 10
203.7166644971982
 20
181.6387420110568
 30
0.0
 11
203.7166644971982
 21
181.438742011057
 31
0.0
  0
LINE
  5
1C7A
330
1B3A
100
AcDbEntity
  8
1
 62
     7
100
AcDbLine
 10
203.7166644971982
 20
181.6387420110568
 30
0.0
 11
203.5166644971978
 21
181.438742011057
 31
0.0
  0
LINE
  5
1C7B
330
1B3A
100
AcDbEntity
  8
1
 62
     7
100
AcDbLine
 10
203.5166644971978
 20
181.438742011057
 30
0.0
 11
201.916664497198
 21
181.438742011057
 31
0.0
  0
LINE
  5
1C7C
330
1B3A
100
AcDbEntity
  8
1
 62
     7
100
AcDbLine
 10
253.3935584187445
 20
184.438742011057
 30
0.0
 11
251.7935584187446
 21
184.438742011057
 31
0.0
  0
LINE
  5
1C7D
330
1B3A
100
AcDbEntity
  8
1
 62
     7
100
AcDbLine
 10
253.5935584187444
 20
184.3232719572188
 30
0.0
 11
253.3935584187445
 21
184.438742011057
 31
0.0
  0
LINE
  5
1C7E
330
1B3A
100
AcDbEntity
  8
1
 62
     7
100
AcDbLine
 10
253.5935584187444
 20
184.3232719572188
 30
0.0
 11
253.5935584187444
 21
183.2928439773066
 31
0.0
  0
LINE
  5
1C7F
330
1B3A
100
AcDbEntity
  8
1
 62
     7
100
AcDbLine
 10
251.5935584187444
 20
184.3232719572188
 30
0.0
 11
253.5935584187444
 21
184.3232719572188
 31
0.0
  0
LINE
  5
1C80
330
1B3A
100
AcDbEntity
  8
1
 62
     7
100
AcDbLine
 10
251.5935584187444
 20
184.3232719572188
 30
0.0
 11
251.5935584187444
 21
183.2928439773066
 31
0.0
  0
LINE
  5
1C81
330
1B3A
100
AcDbEntity
  8
1
 62
     7
100
AcDbLine
 10
251.7935584187446
 20
184.438742011057
 30
0.0
 11
251.5935584187444
 21
184.3232719572188
 31
0.0
  0
LINE
  5
1C82
330
1B3A
100
AcDbEntity
  8
1
 62
     3
100
AcDbLine
 10
253.3935584187445
 20
184.438742011057
 30
0.0
 11
253.3935584187445
 21
183.3460870185371
 31
0.0
  0
LINE
  5
1C83
330
1B3A
100
AcDbEntity
  8
1
 62
     3
100
AcDbLine
 10
251.7935584187446
 20
184.438742011057
 30
0.0
 11
251.7935584187446
 21
183.3460870185371
 31
0.0
  0
LINE
  5
1C84
330
1B3A
100
AcDbEntity
  8
1
 62
     3
100
AcDbLine
 10
257.0935584187444
 20
180.738742011057
 30
0.0
 11
256.0009034262248
 21
180.738742011057
 31
0.0
  0
LINE
  5
1C85
330
1B3A
100
AcDbEntity
  8
1
 62
     3
100
AcDbLine
 10
257.0935584187444
 20
179.1387420110569
 30
0.0
 11
256.0009034262248
 21
179.1387420110569
 31
0.0
  0
LINE
  5
1C86
330
1B3A
100
AcDbEntity
  8
1
 62
     7
100
AcDbLine
 10
257.0935584187444
 20
180.738742011057
 30
0.0
 11
256.9780883649065
 21
180.9387420110568
 31
0.0
  0
LINE
  5
1C87
330
1B3A
100
AcDbEntity
  8
1
 62
     7
100
AcDbLine
 10
256.9780883649065
 20
180.9387420110568
 30
0.0
 11
255.9476603849942
 21
180.9387420110568
 31
0.0
  0
LINE
  5
1C88
330
1B3A
100
AcDbEntity
  8
1
 62
     7
100
AcDbLine
 10
256.9780883649065
 20
180.9387420110568
 30
0.0
 11
256.9780883649065
 21
178.9387420110568
 31
0.0
  0
LINE
  5
1C89
330
1B3A
100
AcDbEntity
  8
1
 62
     7
100
AcDbLine
 10
256.9780883649065
 20
178.9387420110568
 30
0.0
 11
255.9476603849942
 21
178.9387420110568
 31
0.0
  0
LINE
  5
1C8A
330
1B3A
100
AcDbEntity
  8
1
 62
     7
100
AcDbLine
 10
256.9780883649065
 20
178.9387420110568
 30
0.0
 11
257.0935584187444
 21
179.1387420110569
 31
0.0
  0
LINE
  5
1C8B
330
1B3A
100
AcDbEntity
  8
1
 62
     7
100
AcDbLine
 10
257.0935584187444
 20
179.1387420110569
 30
0.0
 11
257.0935584187444
 21
180.738742011057
 31
0.0
  0
LINE
  5
1C8C
330
1B3A
100
AcDbEntity
  8
1
  6
CENTER
 62
     3
100
AcDbLine
 10
143.0573453537246
 20
190.3344002103066
 30
0.0
 11
139.9377789646514
 21
187.2148338212338
 31
0.0
  0
LINE
  5
1C8D
330
1B3A
100
AcDbEntity
  8
1
  6
CENTER
 62
     3
100
AcDbLine
 10
121.8441419181282
 20
169.1211967747101
 30
0.0
 11
124.963708307201
 21
172.2407631637829
 31
0.0
  0
LINE
  5
1C8E
330
1B3A
100
AcDbEntity
  8
1
  6
CENTER
 62
     3
100
AcDbLine
 10
246.8533069332681
 20
193.7969349987263
 30
0.0
 11
248.8384772386621
 21
189.004309923824
 31
0.0
  0
LINE
  5
1C8F
330
1B3A
100
AcDbEntity
  8
1
  6
CENTER
 62
     3
100
AcDbLine
 10
256.503817730651
 20
170.4985409478567
 30
0.0
 11
258.3338099042209
 21
166.0805490233876
 31
0.0
  0
LINE
  5
1C90
330
1B3A
100
AcDbEntity
  8
1
  6
CENTER
 62
     3
100
AcDbLine
 10
242.4112207696583
 20
190.1210796601432
 30
0.0
 11
244.7446731475737
 21
187.7876272822275
 31
0.0
  0
LINE
  5
1C91
330
1B3A
100
AcDbEntity
  8
1
  6
CENTER
 62
     3
100
AcDbLine
 10
242.4112207696583
 20
169.7564043619705
 30
0.0
 11
244.7446731475737
 21
172.0898567398863
 31
0.0
  0
LINE
  5
1C92
330
1B3A
100
AcDbEntity
  8
1
  6
CENTER
 62
     3
100
AcDbLine
 10
262.7758960678308
 20
169.7564043619705
 30
0.0
 11
260.442443689915
 21
172.0898567398863
 31
0.0
  0
LINE
  5
1C93
330
1B3A
100
AcDbEntity
  8
1
  6
CENTER
 62
     3
100
AcDbLine
 10
138.1909951214024
 20
193.5859914801776
 30
0.0
 11
136.3610029478329
 21
189.1679995557083
 31
0.0
  0
LINE
  5
1C94
330
1B3A
100
AcDbEntity
  8
1
  6
CENTER
 62
     3
100
AcDbLine
 10
128.5404843240194
 20
170.2875974293076
 30
0.0
 11
126.71049215045
 21
165.8696055048388
 31
0.0
  0
ARC
  5
1C95
330
1B3A
100
AcDbEntity
  8
0
 62
     7
100
AcDbCircle
 10
252.5935584187446
 20
180.238742011057
 30
0.0
 40
4.143749937758848
100
AcDbArc
 50
101.7364481395153
 51
250.7303611220382
  0
ARC
  5
1C96
330
1B3A
100
AcDbEntity
  8
0
 62
     7
100
AcDbCircle
 10
251.143558440523
 20
176.0911477028035
 30
0.0
 40
0.249999996249052
100
AcDbArc
 50
0.0000000005439003
 51
70.73036112249055
  0
ARC
  5
1C97
330
1B3A
100
AcDbEntity
  8
0
 62
     7
100
AcDbCircle
 10
251.6435584330164
 20
175.5824920809969
 30
0.0
 40
0.249999996250736
100
AcDbArc
 50
180.0
 51
269.9999999985424
  0
ARC
  5
1C98
330
1B3A
100
AcDbEntity
  8
0
 62
     7
100
AcDbCircle
 10
254.0435583969688
 20
176.0911477028058
 30
0.0
 40
0.2499999962465062
100
AcDbArc
 50
109.2696388775012
 51
180.0
  0
ARC
  5
1C99
330
1B3A
100
AcDbEntity
  8
0
 62
     7
100
AcDbCircle
 10
253.5435584044777
 20
175.5824920809963
 30
0.0
 40
0.2499999962504087
100
AcDbArc
 50
270.0000000007995
 51
0.0000000000716515
  0
ARC
  5
1C9A
330
1B3A
100
AcDbEntity
  8
0
 62
     7
100
AcDbCircle
 10
252.5935584187446
 20
180.238742011057
 30
0.0
 40
4.143749937759126
100
AcDbArc
 50
289.2696388779717
 51
341.7161097752422
  0
ARC
  5
1C9B
330
1B3A
100
AcDbEntity
  8
0
 62
     7
100
AcDbCircle
 10
252.5935584187446
 20
180.238742011057
 30
0.0
 40
4.143749937759142
100
AcDbArc
 50
9.725561248181305
 51
78.26355186048982
  0
ARC
  5
1C9C
330
1B3A
100
AcDbEntity
  8
1
 62
     7
100
AcDbCircle
 10
249.59319252809
 20
187.8488244709431
 30
0.0
 40
0.9999999999999859
100
AcDbArc
 50
322.7355797902237
 51
78.99687891542146
  0
ARC
  5
1C9D
330
1B3A
100
AcDbEntity
  8
1
 62
     7
100
AcDbCircle
 10
197.6666644971981
 20
188.398742011057
 30
0.0
 40
1.000000000000015
100
AcDbArc
 50
236.0987380031348
 51
303.901261996865
  0
ARC
  5
1C9E
330
1B3A
100
AcDbEntity
  8
1
 62
     7
100
AcDbCircle
 10
197.6666644971981
 20
188.398742011057
 30
0.0
 40
1.000000000000015
100
AcDbArc
 50
217.5895029648574
 51
236.0987380031348
  0
ARC
  5
1C9F
330
1B3A
100
AcDbEntity
  8
1
 62
     7
100
AcDbCircle
 10
197.6666644971981
 20
188.398742011057
 30
0.0
 40
1.000000000000015
100
AcDbArc
 50
303.901261996865
 51
59.88270525267822
  0
ARC
  5
1CA0
330
1B3A
100
AcDbEntity
  8
1
 62
     7
100
AcDbCircle
 10
197.6666644971981
 20
188.398742011057
 30
0.0
 40
0.9999999999999827
100
AcDbArc
 50
59.88270525267822
 51
120.1172947473214
  0
ARC
  5
1CA1
330
1B3A
100
AcDbEntity
  8
1
 62
     7
100
AcDbCircle
 10
197.6666644971981
 20
188.398742011057
 30
0.0
 40
0.9999999999999827
100
AcDbArc
 50
120.1172947473214
 51
140.2081805004436
  0
ARC
  5
1CA2
330
1B3A
100
AcDbEntity
  8
1
 62
     7
100
AcDbCircle
 10
197.6666644971981
 20
188.398742011057
 30
0.0
 40
0.9999999999999927
100
AcDbArc
 50
140.2081805004436
 51
217.5895029648574
  0
ARC
  5
1CA3
330
1B3A
100
AcDbEntity
  8
1
 62
     7
100
AcDbCircle
 10
197.6666644971981
 20
171.4787420110569
 30
0.0
 40
1.000000000000011
100
AcDbArc
 50
142.4104970351421
 51
219.7918194995563
  0
ARC
  5
1CA4
330
1B3A
100
AcDbEntity
  8
1
 62
     7
100
AcDbCircle
 10
197.6666644971981
 20
171.4787420110569
 30
0.0
 40
0.9999999999999978
100
AcDbArc
 50
219.7918194995563
 51
239.882705252678
  0
ARC
  5
1CA5
330
1B3A
100
AcDbEntity
  8
1
 62
     7
100
AcDbCircle
 10
197.6666644971981
 20
171.4787420110569
 30
0.0
 40
0.9999999999999833
100
AcDbArc
 50
239.882705252678
 51
300.1172947473217
  0
ARC
  5
1CA6
330
1B3A
100
AcDbEntity
  8
1
 62
     7
100
AcDbCircle
 10
197.6666644971981
 20
171.4787420110569
 30
0.0
 40
0.9999999999999833
100
AcDbArc
 50
300.1172947473217
 51
56.09873800313494
  0
ARC
  5
1CA7
330
1B3A
100
AcDbEntity
  8
1
 62
     7
100
AcDbCircle
 10
197.6666644971981
 20
171.4787420110569
 30
0.0
 40
1.000000000000009
100
AcDbArc
 50
123.9012619968647
 51
142.4104970351421
  0
ARC
  5
1CA8
330
1B3A
100
AcDbEntity
  8
1
 62
     7
100
AcDbCircle
 10
197.6666644971981
 20
171.4787420110569
 30
0.0
 40
1.000000000000009
100
AcDbArc
 50
56.09873800313494
 51
123.9012619968647
  0
ARC
  5
1CA9
330
1B3A
100
AcDbEntity
  8
1
 62
     7
100
AcDbCircle
 10
252.5935584187446
 20
188.398742011057
 30
0.0
 40
0.9999999999999891
100
AcDbArc
 50
220.3240556544355
 51
238.0366102083331
  0
ARC
  5
1CAA
330
1B3A
100
AcDbEntity
  8
1
 62
     7
100
AcDbCircle
 10
252.5935584187446
 20
188.398742011057
 30
0.0
 40
1.000000000000009
100
AcDbArc
 50
301.963389791668
 51
58.22468891686106
  0
ARC
  5
1CAB
330
1B3A
100
AcDbEntity
  8
1
 62
     7
100
AcDbCircle
 10
252.5935584187446
 20
179.9387420110568
 30
0.0
 40
7.630000000000006
100
AcDbArc
 50
93.97843657100485
 51
86.02156342899515
  0
ARC
  5
1CAC
330
1B3A
100
AcDbEntity
  8
1
 62
     7
100
AcDbCircle
 10
252.5935584187446
 20
179.9387420110568
 30
0.0
 40
7.630000000000008
100
AcDbArc
 50
86.02156342899515
 51
93.97843657100485
  0
ARC
  5
1CAD
330
1B3A
100
AcDbEntity
  8
1
 62
     7
100
AcDbCircle
 10
252.5935584187446
 20
179.9387420110568
 30
0.0
 40
9.325000000000033
100
AcDbArc
 50
93.23725642730725
 51
86.76274357269274
  0
ARC
  5
1CAE
330
1B3A
100
AcDbEntity
  8
1
 62
     7
100
AcDbCircle
 10
252.5935584187446
 20
179.9387420110568
 30
0.0
 40
9.325000000000033
100
AcDbArc
 50
86.76274357269274
 51
93.23725642730725
  0
ARC
  5
1CAF
330
1B3A
100
AcDbEntity
  8
1
 62
     7
100
AcDbCircle
 10
252.5935584187446
 20
188.398742011057
 30
0.0
 40
1.149999999999971
100
AcDbArc
 50
324.6001916440888
 51
30.63754279895614
  0
ARC
  5
1CB0
330
1B3A
100
AcDbEntity
  8
1
 62
     7
100
AcDbCircle
 10
252.5935584187446
 20
188.398742011057
 30
0.0
 40
1.150000000000003
100
AcDbArc
 50
149.3624572010438
 51
215.3998083559108
  0
ARC
  5
1CB1
330
1B3A
100
AcDbEntity
  8
1
 62
     7
100
AcDbCircle
 10
255.3405159282163
 20
187.9403558758444
 30
0.0
 40
1.149999999999979
100
AcDbArc
 50
130.4150887799922
 51
196.4524399348616
  0
ARC
  5
1CB2
330
1B3A
100
AcDbEntity
  8
1
 62
     7
100
AcDbCircle
 10
255.3405159282163
 20
187.9403558758444
 30
0.0
 40
0.999999999999942
100
AcDbArc
 50
102.8279426620869
 51
219.0892417872801
  0
ARC
  5
1CB3
330
1B3A
100
AcDbEntity
  8
1
 62
     7
100
AcDbCircle
 10
255.3405159282163
 20
187.9403558758444
 30
0.0
 40
1.000000000000011
100
AcDbArc
 50
283.0160213706156
 51
39.27732049580775
  0
ARC
  5
1CB4
330
1B3A
100
AcDbEntity
  8
1
 62
     7
100
AcDbCircle
 10
249.59319252809
 20
187.8488244709431
 30
0.0
 40
1.149999999999999
100
AcDbArc
 50
345.3723816426422
 51
51.40973279751142
  0
ARC
  5
1CB5
330
1B3A
100
AcDbEntity
  8
1
 62
     7
100
AcDbCircle
 10
255.3405159282163
 20
187.9403558758444
 30
0.0
 40
1.15000000000003
100
AcDbArc
 50
305.6528232230318
 51
11.6901743779023
  0
ARC
  5
1CB6
330
1B3A
100
AcDbEntity
  8
1
 62
     7
100
AcDbCircle
 10
252.5935584187446
 20
179.9387420110568
 30
0.0
 40
9.100000000000076
100
AcDbArc
 50
95.0191341166777
 51
103.9282343043749
  0
ARC
  5
1CB7
330
1B3A
100
AcDbEntity
  8
1
 62
     7
100
AcDbCircle
 10
252.5935584187446
 20
188.398742011057
 30
0.0
 40
1.000000000000021
100
AcDbArc
 50
121.7753110831389
 51
142.7635024980098
  0
ARC
  5
1CB8
330
1B3A
100
AcDbEntity
  8
1
 62
     7
100
AcDbCircle
 10
252.5935584187446
 20
179.9387420110568
 30
0.0
 40
7.850000000000025
100
AcDbArc
 50
95.57338574008984
 51
103.3739826809622
  0
ARC
  5
1CB9
330
1B3A
100
AcDbEntity
  8
1
 62
     7
100
AcDbCircle
 10
252.5935584187446
 20
188.398742011057
 30
0.0
 40
1.000000000000045
100
AcDbArc
 50
142.7635024980098
 51
220.3240556544355
  0
ARC
  5
1CBA
330
1B3A
100
AcDbEntity
  8
1
 62
     7
100
AcDbCircle
 10
252.5935584187446
 20
179.9387420110568
 30
0.0
 40
9.100000000000063
100
AcDbArc
 50
57.12439727457154
 51
66.03349746226969
  0
ARC
  5
1CBB
330
1B3A
100
AcDbEntity
  8
1
 62
     7
100
AcDbCircle
 10
252.5935584187446
 20
179.9387420110568
 30
0.0
 40
9.100000000000052
100
AcDbArc
 50
76.07176569562503
 51
84.98086588332226
  0
ARC
  5
1CBC
330
1B3A
100
AcDbEntity
  8
1
 62
     7
100
AcDbCircle
 10
252.5935584187446
 20
179.9387420110568
 30
0.0
 40
7.850000000000034
100
AcDbArc
 50
57.67864889798471
 51
65.47924583885738
  0
ARC
  5
1CBD
330
1B3A
100
AcDbEntity
  8
1
 62
     7
100
AcDbCircle
 10
252.5935584187446
 20
179.9387420110568
 30
0.0
 40
7.850000000000025
100
AcDbArc
 50
76.62601731903578
 51
84.42661425991014
  0
ARC
  5
1CBE
330
1B3A
100
AcDbEntity
  8
1
 62
     7
100
AcDbCircle
 10
132.4507436359263
 20
179.7277984925083
 30
0.0
 40
2.999999999999975
100
AcDbArc
 50
240.0000000000002
 51
299.9999999999997
  0
ARC
  5
1CBF
330
1B3A
100
AcDbEntity
  8
1
 62
     7
100
AcDbCircle
 10
132.4507436359263
 20
179.7277984925083
 30
0.0
 40
3.000000000000071
100
AcDbArc
 50
119.9999999999997
 51
240.0000000000002
  0
ARC
  5
1CC0
330
1B3A
100
AcDbEntity
  8
1
 62
     7
100
AcDbCircle
 10
132.4507436359263
 20
179.7277984925083
 30
0.0
 40
6.149999999999987
100
AcDbArc
 50
104.1169805713034
 51
255.8830194286965
  0
ARC
  5
1CC1
330
1B3A
100
AcDbEntity
  8
1
 62
     7
100
AcDbCircle
 10
132.4507436359263
 20
179.7277984925083
 30
0.0
 40
3.000000000000071
100
AcDbArc
 50
60.00000000000028
 51
119.9999999999997
  0
ARC
  5
1CC2
330
1B3A
100
AcDbEntity
  8
1
 62
     7
100
AcDbCircle
 10
132.4507436359263
 20
179.7277984925083
 30
0.0
 40
2.999999999999975
100
AcDbArc
 50
299.9999999999997
 51
60.00000000000028
  0
ARC
  5
1CC3
330
1B3A
100
AcDbEntity
  8
1
 62
     7
100
AcDbCircle
 10
132.4507436359263
 20
179.7277984925083
 30
0.0
 40
6.149999999999987
100
AcDbArc
 50
75.88301942869648
 51
104.1169805713034
  0
ARC
  5
1CC4
330
1B3A
100
AcDbEntity
  8
1
 62
     7
100
AcDbCircle
 10
132.4507436359263
 20
179.7277984925083
 30
0.0
 40
6.149999999999987
100
AcDbArc
 50
255.8830194286965
 51
75.88301942869648
  0
ARC
  5
1CC5
330
1B3A
100
AcDbEntity
  8
1
 62
     7
100
AcDbCircle
 10
193.8273990054391
 20
195.883742011057
 30
0.0
 40
6.000000000000102
100
AcDbArc
 50
282.4083454091638
 51
287.3501781947158
  0
ARC
  5
1CC6
330
1B3A
100
AcDbEntity
  8
1
 62
     7
100
AcDbCircle
 10
193.8273990054391
 20
163.993742011057
 30
0.0
 40
6.000000000000006
100
AcDbArc
 50
72.64982180528413
 51
89.5581855081247
  0
ARC
  5
1CC7
330
1B3A
100
AcDbEntity
  8
1
 62
     7
100
AcDbCircle
 10
193.8273990054391
 20
195.883742011057
 30
0.0
 40
5.999999999999959
100
AcDbArc
 50
270.4418144918752
 51
282.4083454091638
  0
ARC
  5
1CC8
330
1B3A
100
AcDbEntity
  8
1
 62
     7
100
AcDbCircle
 10
252.5935584187446
 20
179.9387420110568
 30
0.0
 40
15.0
100
AcDbArc
 50
112.5000000000005
 51
292.5000000000006
  0
ARC
  5
1CC9
330
1B3A
100
AcDbEntity
  8
1
 62
     7
100
AcDbCircle
 10
252.5935584187446
 20
179.9387420110568
 30
0.0
 40
15.0
100
AcDbArc
 50
292.5000000000006
 51
112.5000000000005
  0
CIRCLE
  5
1CCA
330
1B3A
100
AcDbEntity
  8
0
 62
     7
100
AcDbCircle
 10
251.9310584286973
 20
175.9324920757262
 30
0.0
 40
0.24999999624373
  0
CIRCLE
  5
1CCB
330
1B3A
100
AcDbEntity
  8
0
 62
     7
100
AcDbCircle
 10
253.2560584087945
 20
175.9324920757262
 30
0.0
 40
0.2499999962450303
  0
CIRCLE
  5
1CCC
330
1B3A
100
AcDbEntity
  8
1
 62
     7
100
AcDbCircle
 10
252.5935584187446
 20
179.9387420110568
 30
0.0
 40
7.109999999999978
  0
CIRCLE
  5
1CCD
330
1B3A
100
AcDbEntity
  8
1
 62
     7
100
AcDbCircle
 10
252.5935584187446
 20
179.9387420110568
 30
0.0
 40
9.812500000000003
  0
CIRCLE
  5
1CCE
330
1B3A
100
AcDbEntity
  8
1
 62
     7
100
AcDbCircle
 10
252.5935584187446
 20
179.9387420110568
 30
0.0
 40
1.5
  0
CIRCLE
  5
1CCF
330
1B3A
100
AcDbEntity
  8
1
 62
     7
100
AcDbCircle
 10
252.5935584187446
 20
179.9387420110568
 30
0.0
 40
5.0
  0
CIRCLE
  5
1CD0
330
1B3A
100
AcDbEntity
  8
1
 62
     7
100
AcDbCircle
 10
252.5935584187446
 20
179.9387420110568
 30
0.0
 40
10.14248400434951
  0
CIRCLE
  5
1CD1
330
1B3A
100
AcDbEntity
  8
1
 62
     7
100
AcDbCircle
 10
252.5935584187446
 20
179.9387420110568
 30
0.0
 40
10.21799999999998
  0
CIRCLE
  5
1CD2
330
1B3A
100
AcDbEntity
  8
1
 62
     7
100
AcDbCircle
 10
132.4507436359263
 20
179.7277984925083
 30
0.0
 40
9.944999999999987
  0
CIRCLE
  5
1CD3
330
1B3A
100
AcDbEntity
  8
1
 62
     7
100
AcDbCircle
 10
132.4507436359263
 20
179.7277984925083
 30
0.0
 40
10.21799999999998
  0
CIRCLE
  5
1CD4
330
1B3A
100
AcDbEntity
  8
1
 62
     7
100
AcDbCircle
 10
132.4507436359263
 20
179.7277984925083
 30
0.0
 40
14.99999999999998
  0
CIRCLE
  5
1CD5
330
1B3A
100
AcDbEntity
  8
1
  6
CENTER
 62
     3
100
AcDbCircle
 10
132.4507436359263
 20
179.7277984925083
 30
0.0
 40
12.75
  0
CIRCLE
  5
1CD6
330
1B3A
100
AcDbEntity
  8
1
 62
     7
100
AcDbCircle
 10
145.2007436359259
 20
179.7277984925083
 30
0.0
 40
1.1
  0
CIRCLE
  5
1CD7
330
1B3A
100
AcDbEntity
  8
1
 62
     7
100
AcDbCircle
 10
123.4351321757979
 20
188.7434099526368
 30
0.0
 40
1.099999999999994
  0
CIRCLE
  5
1CD8
330
1B3A
100
AcDbEntity
  8
1
 62
     7
100
AcDbCircle
 10
119.7007436359263
 20
179.7277984925083
 30
0.0
 40
1.10000000000002
  0
CIRCLE
  5
1CD9
330
1B3A
100
AcDbEntity
  8
1
 62
     7
100
AcDbCircle
 10
141.4663550960548
 20
170.7121870323798
 30
0.0
 40
1.099999999999998
  0
CIRCLE
  5
1CDA
330
1B3A
100
AcDbEntity
  8
1
 62
     3
100
AcDbCircle
 10
202.716664497198
 20
179.9387420110568
 30
0.0
 40
0.8000000000000007
  0
CIRCLE
  5
1CDB
330
1B3A
100
AcDbEntity
  8
1
 62
     7
100
AcDbCircle
 10
202.716664497198
 20
179.9387420110568
 30
0.0
 40
1.0
  0
CIRCLE
  5
1CDC
330
1B3A
100
AcDbEntity
  8
1
 62
     7
100
AcDbCircle
 10
252.5935584187446
 20
179.9387420110568
 30
0.0
 40
3.5
  0
CIRCLE
  5
1CDD
330
1B3A
100
AcDbEntity
  8
1
 62
     7
100
AcDbCircle
 10
141.4663550960549
 20
188.7434099526368
 30
0.0
 40
1.100000000000009
  0
CIRCLE
  5
1CDE
330
1B3A
100
AcDbEntity
  8
1
 62
     7
100
AcDbCircle
 10
123.4351321757979
 20
170.7121870323798
 30
0.0
 40
1.09999999999999
  0
CIRCLE
  5
1CDF
330
1B3A
100
AcDbEntity
  8
1
 62
     7
100
AcDbCircle
 10
132.4507436359263
 20
192.4777984925083
 30
0.0
 40
1.099999999999998
  0
CIRCLE
  5
1CE0
330
1B3A
100
AcDbEntity
  8
1
 62
     7
100
AcDbCircle
 10
132.4507436359263
 20
166.9777984925084
 30
0.0
 40
1.099999999999994
  0
CIRCLE
  5
1CE1
330
1B3A
100
AcDbEntity
  8
1
  6
CENTER
 62
     3
100
AcDbCircle
 10
252.5935584187446
 20
179.9387420110568
 30
0.0
 40
12.75
  0
CIRCLE
  5
1CE2
330
1B3A
100
AcDbEntity
  8
1
 62
     7
100
AcDbCircle
 10
247.7143446560897
 20
191.7182060505759
 30
0.0
 40
0.7000000000000122
  0
CIRCLE
  5
1CE3
330
1B3A
100
AcDbEntity
  8
1
 62
     3
100
AcDbCircle
 10
247.7143446560897
 20
191.7182060505759
 30
0.0
 40
1.000000000000005
  0
CIRCLE
  5
1CE4
330
1B3A
100
AcDbEntity
  8
1
 62
     7
100
AcDbCircle
 10
247.7143446560897
 20
191.7182060505759
 30
0.0
 40
1.200000000000001
  0
CIRCLE
  5
1CE5
330
1B3A
100
AcDbEntity
  8
1
 62
     7
100
AcDbCircle
 10
257.4727721813995
 20
168.159277971538
 30
0.0
 40
0.6999999999999826
  0
CIRCLE
  5
1CE6
330
1B3A
100
AcDbEntity
  8
1
 62
     3
100
AcDbCircle
 10
257.4727721813995
 20
168.159277971538
 30
0.0
 40
0.9999999999999719
  0
CIRCLE
  5
1CE7
330
1B3A
100
AcDbEntity
  8
1
 62
     7
100
AcDbCircle
 10
257.4727721813995
 20
168.159277971538
 30
0.0
 40
1.199999999999985
  0
CIRCLE
  5
1CE8
330
1B3A
100
AcDbEntity
  8
1
 62
     7
100
AcDbCircle
 10
252.5935584187446
 20
192.688742011057
 30
0.0
 40
1.1
  0
CIRCLE
  5
1CE9
330
1B3A
100
AcDbEntity
  8
1
 62
     7
100
AcDbCircle
 10
243.5779469586161
 20
188.9543534711854
 30
0.0
 40
1.099999999999998
  0
CIRCLE
  5
1CEA
330
1B3A
100
AcDbEntity
  8
1
 62
     7
100
AcDbCircle
 10
239.8435584187442
 20
179.9387420110568
 30
0.0
 40
1.099999999999994
  0
CIRCLE
  5
1CEB
330
1B3A
100
AcDbEntity
  8
1
 62
     7
100
AcDbCircle
 10
243.5779469586161
 20
170.9231305509286
 30
0.0
 40
1.1
  0
CIRCLE
  5
1CEC
330
1B3A
100
AcDbEntity
  8
1
 62
     7
100
AcDbCircle
 10
252.5935584187446
 20
167.188742011057
 30
0.0
 40
1.1
  0
CIRCLE
  5
1CED
330
1B3A
100
AcDbEntity
  8
1
 62
     7
100
AcDbCircle
 10
261.6091698788731
 20
170.9231305509285
 30
0.0
 40
1.100000000000008
  0
CIRCLE
  5
1CEE
330
1B3A
100
AcDbEntity
  8
1
 62
     7
100
AcDbCircle
 10
265.3435584187444
 20
179.9387420110568
 30
0.0
 40
1.099999999999994
  0
CIRCLE
  5
1CEF
330
1B3A
100
AcDbEntity
  8
1
 62
     7
100
AcDbCircle
 10
261.6091698788731
 20
188.9543534711854
 30
0.0
 40
1.100000000000004
  0
CIRCLE
  5
1CF0
330
1B3A
100
AcDbEntity
  8
1
 62
     7
100
AcDbCircle
 10
137.3299573985812
 20
191.5072625320272
 30
0.0
 40
0.699999999999999
  0
CIRCLE
  5
1CF1
330
1B3A
100
AcDbEntity
  8
1
 62
     3
100
AcDbCircle
 10
137.3299573985812
 20
191.5072625320272
 30
0.0
 40
0.999999999999996
  0
CIRCLE
  5
1CF2
330
1B3A
100
AcDbEntity
  8
1
 62
     7
100
AcDbCircle
 10
127.5715298732714
 20
167.9483344529895
 30
0.0
 40
0.6999999999999892
  0
CIRCLE
  5
1CF3
330
1B3A
100
AcDbEntity
  8
1
 62
     3
100
AcDbCircle
 10
127.5715298732714
 20
167.9483344529895
 30
0.0
 40
0.9999999999999852
  0
ARC
  5
1CF8
330
1B3A
100
AcDbEntity
  8
1
 62
     7
100
AcDbCircle
 10
185.7778859420313
 20
170.6262422511983
 30
0.0
 40
0.6324999999999971
100
AcDbArc
 50
181.9603296181854
 51
269.9987420565651
  0
ARC
  5
1CF9
330
1B3A
100
AcDbEntity
  8
1
 62
     7
100
AcDbCircle
 10
185.7778859420313
 20
189.2512417709156
 30
0.0
 40
0.6324999999999929
100
AcDbArc
 50
90.00125794343469
 51
178.0396703818128
  0
ARC
  5
1CFA
330
1B3A
100
AcDbEntity
  8
1
 62
     7
100
AcDbCircle
 10
184.8434992897715
 20
173.588742011057
 30
0.0
 40
0.1999999999999961
100
AcDbArc
 50
1.960329618191961
 51
90.0
  0
ARC
  5
1CFB
330
1B3A
100
AcDbEntity
  8
1
 62
     7
100
AcDbCircle
 10
184.8434992897715
 20
186.288742011057
 30
0.0
 40
0.1999999999999886
100
AcDbArc
 50
270.0
 51
358.0396703818341
  0
ARC
  5
1CFC
330
1B3A
100
AcDbEntity
  8
1
 62
     7
100
AcDbCircle
 10
194.5166644971978
 20
183.6387420110568
 30
0.0
 40
0.1999999999999206
100
AcDbArc
 50
239.9999999999834
 51
269.9999999999949
  0
ARC
  5
1CFD
330
1B3A
100
AcDbEntity
  8
1
 62
     7
100
AcDbCircle
 10
194.5166644971978
 20
183.6387420110568
 30
0.0
 40
0.2000000000000028
100
AcDbArc
 50
180.0
 51
239.9999999999834
  0
ARC
  5
1CFE
330
1B3A
100
AcDbEntity
  8
1
 62
     7
100
AcDbCircle
 10
194.5166644971978
 20
176.238742011057
 30
0.0
 40
0.200000000000016
100
AcDbArc
 50
119.9999999999997
 51
180.0
  0
ARC
  5
1CFF
330
1B3A
100
AcDbEntity
  8
1
 62
     7
100
AcDbCircle
 10
194.5166644971978
 20
176.238742011057
 30
0.0
 40
0.1999999999999891
100
AcDbArc
 50
90.00000000000486
 51
119.9999999999997
  0
ARC
  5
1D00
330
1B3A
100
AcDbEntity
  8
1
 62
     7
100
AcDbCircle
 10
185.8166644971981
 20
189.251242011057
 30
0.0
 40
0.4999999999999984
100
AcDbArc
 50
90.0
 51
180.0
  0
ARC
  5
1D01
330
1B3A
100
AcDbEntity
  8
1
 62
     7
100
AcDbCircle
 10
199.5666644971981
 20
189.8540745642123
 30
0.0
 40
0.0499999999999972
100
AcDbArc
 50
0.0
 51
61.36545973324676
  0
ARC
  5
1D02
330
1B3A
100
AcDbEntity
  8
1
 62
     7
100
AcDbCircle
 10
199.5666644971981
 20
189.801242011057
 30
0.0
 40
0.0500000000000114
100
AcDbArc
 50
270.0
 51
0.0
  0
ARC
  5
1D03
330
1B3A
100
AcDbEntity
  8
1
 62
     7
100
AcDbCircle
 10
185.8166644971981
 20
170.626242011057
 30
0.0
 40
0.5
100
AcDbArc
 50
180.0
 51
270.0
  0
ARC
  5
1D04
330
1B3A
100
AcDbEntity
  8
1
 62
     7
100
AcDbCircle
 10
199.5666644971981
 20
170.0762420110569
 30
0.0
 40
0.0499999999999972
100
AcDbArc
 50
0.0
 51
90.0
  0
ARC
  5
1D05
330
1B3A
100
AcDbEntity
  8
1
 62
     7
100
AcDbCircle
 10
199.5666644971981
 20
170.0234094579014
 30
0.0
 40
0.0499999999999811
100
AcDbArc
 50
298.6345402667576
 51
0.0
  0
TEXT
  5
1D09
330
1B3A
100
AcDbEntity
  8
1
 62
     3
100
AcDbText
 10
136.6115614492152
 20
129.8341312959371
 30
0.0
 40
0.8
  1
 
 41
0.9
100
AcDbText
  0
TEXT
  5
1D10
330
1B3A
100
AcDbEntity
  8
1
 62
     0
100
AcDbText
 10
240.1884024926424
 20
149.8507650719186
 30
0.0
 40
2.456152548151134
  1
CSF-8-XXX-2A-R.dxf
 41
0.9
100
AcDbText
  0
TEXT
  5
1D11
330
1B3A
100
AcDbEntity
  8
1
 62
     0
100
AcDbText
 10
171.9138982852922
 20
146.857040081646
 30
0.0
 40
1.520475386950681
  1
REMARKS:  M.H.C = MINIMUM HOUSING CLEARANCE
 41
0.9
 72
     1
 11
191.7595231546192
 21
147.6172777751213
 31
0.0
100
AcDbText
 73
     2
  0
TEXT
  5
1D12
330
1B3A
100
AcDbEntity
  8
1
 62
     0
100
AcDbText
 10
249.653693934948
 20
143.6629158792275
 30
0.0
 40
2.046793790125946
  1
2002/3
 41
0.9
 72
     1
 11
253.5368965858264
 21
144.6863127742904
 31
0.0
100
AcDbText
 73
     2
  0
INSERT
  5
1D87
330
1B3A
100
AcDbEntity
  8
AM_0
100
AcDbBlockReference
  2
HD Logo
 10
210.0446083784628
 20
123.8953736873734
 30
0.0
 41
0.4165
 42
0.4165
 43
0.4165
  0
INSERT
  5
1DA8
330
1B3A
100
AcDbEntity
  8
AM_0
100
AcDbBlockReference
  2
HD LLC
 10
253.4237860530677
 20
124.4528724817349
 30
0.0
 41
0.4873318547918615
 42
0.4873318547918615
 43
0.4873318547918615
  0
INSERT
  5
1DB5
330
1B3A
100
AcDbEntity
  8
AM_0
100
AcDbBlockReference
  2
NTC
 10
106.3404012703524
 20
137.2199449758135
 30
0.0
 41
0.255
 42
0.255
 43
0.255
  0
ENDSEC
  0
SECTION
  2
OBJECTS
  0
DICTIONARY
  5
1B28
330
0
100
AcDbDictionary
281
     1
  3
ACAD_GROUP
350
1B29
  3
ACAD_LAYOUT
350
1B35
  3
ACAD_MLINESTYLE
350
1B32
  3
ACAD_PLOTSETTINGS
350
1B34
  3
ACAD_PLOTSTYLENAME
350
1B2A
  3
AcDbVariableDictionary
350
1D96
  0
DICTIONARY
  5
1B29
102
{ACAD_REACTORS
330
1B28
102
}
330
1B28
100
AcDbDictionary
281
     1
  0
DICTIONARY
  5
1B35
102
{ACAD_REACTORS
330
1B28
102
}
330
1B28
100
AcDbDictionary
281
     1
  3
Layout1
350
1B39
  3
Model
350
1B3D
  0
DICTIONARY
  5
1B32
102
{ACAD_REACTORS
330
1B28
102
}
330
1B28
100
AcDbDictionary
281
     1
  3
Standard
350
1B33
  0
DICTIONARY
  5
1B34
102
{ACAD_REACTORS
330
1B28
102
}
330
1B28
100
AcDbDictionary
281
     1
  0
ACDBDICTIONARYWDFLT
  5
1B2A
102
{ACAD_REACTORS
330
1B28
102
}
330
1B28
100
AcDbDictionary
281
     1
  3
Normal
350
1B2B
100
AcDbDictionaryWithDefault
340
1B2B
  0
DICTIONARY
  5
1D96
102
{ACAD_REACTORS
330
1B28
102
}
330
1B28
100
AcDbDictionary
281
     1
  3
DIMASSOC
350
1D97
  0
LAYOUT
  5
1B39
102
{ACAD_REACTORS
330
1B35
102
}
330
1B35
100
AcDbPlotSettings
  1

  2
\\SERVER9\HP LaserJet 5100 PCL 5e
  4

  6

 40
0.0
 41
0.0
 42
0.0
 43
0.0
 44
0.0
 45
0.0
 46
0.0
 47
0.0
 48
0.0
 49
0.0
140
0.0
141
0.0
142
1.0
143
1.0
 70
   688
 72
     0
 73
     0
 74
     5
  7

 75
    16
147
1.0
148
0.0
149
0.0
100
AcDbLayout
  1
Layout1
 70
     1
 71
     1
 10
0.0
 20
0.0
 11
420.0
 21
297.0
 12
0.0
 22
0.0
 32
0.0
 14
1.000000000000000E+20
 24
1.000000000000000E+20
 34
1.000000000000000E+20
 15
-1.000000000000000E+20
 25
-1.000000000000000E+20
 35
-1.000000000000000E+20
146
0.0
 13
0.0
 23
0.0
 33
0.0
 16
1.0
 26
0.0
 36
0.0
 17
0.0
 27
1.0
 37
0.0
 76
     0
330
1B36
  0
LAYOUT
  5
1B3D
102
{ACAD_REACTORS
330
1B35
102
}
330
1B35
100
AcDbPlotSettings
  1

  2
\\SERVER9\HP LaserJet 5100 PCL 5e
  4

  6

 40
0.0
 41
0.0
 42
0.0
 43
0.0
 44
0.0
 45
0.0
 46
0.0
 47
0.0
 48
0.0
 49
0.0
140
0.0
141
0.0
142
1.0
143
1.0
 70
  1712
 72
     0
 73
     0
 74
     0
  7

 75
     0
147
1.0
148
0.0
149
0.0
100
AcDbLayout
  1
Model
 70
     1
 71
     0
 10
0.0
 20
0.0
 11
12.0
 21
9.0
 12
0.0
 22
0.0
 32
0.0
 14
0.0
 24
0.0
 34
0.0
 15
0.0
 25
0.0
 35
0.0
146
0.0
 13
0.0
 23
0.0
 33
0.0
 16
1.0
 26
0.0
 36
0.0
 17
0.0
 27
1.0
 37
0.0
 76
     0
330
1B3A
  0
MLINESTYLE
  5
1B33
102
{ACAD_REACTORS
330
1B32
102
}
330
1B32
100
AcDbMlineStyle
  2
STANDARD
 70
     0
  3

 62
   256
 51
90.0
 52
90.0
 71
     2
 49
0.5
 62
   256
  6
BYLAYER
 49
-0.5
 62
   256
  6
BYLAYER
  0
ACDBPLACEHOLDER
  5
1B2B
102
{ACAD_REACTORS
330
1B2A
102
}
330
1B2A
  0
DICTIONARYVAR
  5
1D97
102
{ACAD_REACTORS
330
1D96
102
}
330
1D96
100
DictionaryVariables
280
     0
  1
1
  0
ENDSEC
  0
EOF
