  0
SECTION
  2
HEADER
  9
$ACADVER
  1
AC1014
  9
$ACADMAINTVER
 70
           0
  9
$DWGCODEPAGE
  3
DOS932
  9
$INSBASE
 10
0.0
 20
0.0
 30
0.0
  9
$EXTMIN
 10
1.000000000000E+20
 20
1.000000000000E+20
 30
1.000000000000E+20
  9
$EXTMAX
 10
-1.000000000000E+20
 20
-1.000000000000E+20
 30
-1.000000000000E+20
  9
$LIMMIN
 10
0.0
 20
0.0
  9
$LIMMAX
 10
0.0
 20
0.0
  9
$ORTHOMODE
 70
           0
  9
$REGENMODE
 70
           1
  9
$FILLMODE
 70
           1
  9
$QTEXTMODE
 70
           0
  9
$MIRRTEXT
 70
           1
  9
$DRAGMODE
 70
           2
  9
$LTSCALE
 40
1.0
  9
$OSMODE
 70
           0
  9
$ATTMODE
 70
           1
  9
$TEXTSIZE
 40
0.2
  9
$TRACEWID
 40
0.05
  9
$TEXTSTYLE
  7
STANDARD
  9
$CLAYER
  8
0
  9
$CELTYPE
  6
CONTINUOUS
  9
$CECOLOR
 62
         256
  9
$CELTSCALE
 40
1.0
  9
$DELOBJ
 70
           1
  9
$DISPSILH
 70
           0
  9
$DIMSCALE
 40
1.0
  9
$DIMASZ
 40
0.18
  9
$DIMEXO
 40
0.0625
  9
$DIMDLI
 40
0.38
  9
$DIMRND
 40
0.0
  9
$DIMDLE
 40
0.0
  9
$DIMEXE
 40
0.18
  9
$DIMTP
 40
0.0
  9
$DIMTM
 40
0.0
  9
$DIMTXT
 40
0.18
  9
$DIMCEN
 40
0.09
  9
$DIMTSZ
 40
0.0
  9
$DIMTOL
 70
           0
  9
$DIMLIM
 70
           0
  9
$DIMTIH
 70
           1
  9
$DIMTOH
 70
           1
  9
$DIMSE1
 70
           0
  9
$DIMSE2
 70
           0
  9
$DIMTAD
 70
           0
  9
$DIMZIN
 70
           0
  9
$DIMBLK
  1

  9
$DIMASO
 70
           1
  9
$DIMSHO
 70
           1
  9
$DIMPOST
  1

  9
$DIMAPOST
  1

  9
$DIMALT
 70
           0
  9
$DIMALTD
 70
           2
  9
$DIMALTF
 40
25.4
  9
$DIMLFAC
 40
1.0
  9
$DIMTOFL
 70
           0
  9
$DIMTVP
 40
0.0
  9
$DIMTIX
 70
           0
  9
$DIMSOXD
 70
           0
  9
$DIMSAH
 70
           0
  9
$DIMBLK1
  1

  9
$DIMBLK2
  1

  9
$DIMSTYLE
  2
STANDARD
  9
$DIMCLRD
 70
           0
  9
$DIMCLRE
 70
           0
  9
$DIMCLRT
 70
           0
  9
$DIMTFAC
 40
1.0
  9
$DIMGAP
 40
0.09
  9
$DIMJUST
 70
           0
  9
$DIMSD1
 70
           0
  9
$DIMSD2
 70
           0
  9
$DIMTOLJ
 70
           1
  9
$DIMTZIN
 70
           0
  9
$DIMALTZ
 70
           0
  9
$DIMALTTZ
 70
           0
  9
$DIMFIT
 70
           3
  9
$DIMUPT
 70
           0
  9
$DIMUNIT
 70
           2
  9
$DIMDEC
 70
           4
  9
$DIMTDEC
 70
           4
  9
$DIMALTU
 70
           2
  9
$DIMALTTD
 70
           2
  9
$DIMTXSTY
  7
STANDARD
  9
$DIMAUNIT
 70
           0
  9
$LUNITS
 70
           2
  9
$LUPREC
 70
           4
  9
$SKETCHINC
 40
0.1
  9
$FILLETRAD
 40
0.0
  9
$AUNITS
 70
           0
  9
$AUPREC
 70
           0
  9
$MENU
  1
acad
  9
$ELEVATION
 40
0.0
  9
$PELEVATION
 40
0.0
  9
$THICKNESS
 40
0.0
  9
$LIMCHECK
 70
           0
  9
$BLIPMODE
 70
           1
  9
$CHAMFERA
 40
0.0
  9
$CHAMFERB
 40
0.0
  9
$CHAMFERC
 40
0.0
  9
$CHAMFERD
 40
0.0
  9
$SKPOLY
 70
           0
  9
$TDCREATE
 40
0.000000000
  9
$TDUPDATE
 40
0.000000000
  9
$TDINDWG
 40
0.0000000000
  9
$TDUSRTIMER
 40
0.0000000000
  9
$USRTIMER
 70
           1
  9
$ANGBASE
 50
0.0
  9
$ANGDIR
 70
           0
  9
$PDMODE
 70
           0
  9
$PDSIZE
 40
0.0
  9
$PLINEWID
 40
0.0
  9
$COORDS
 70
           0
  9
$SPLFRAME
 70
           0
  9
$SPLINETYPE
 70
           6
  9
$SPLINESEGS
 70
           8
  9
$ATTDIA
 70
           0
  9
$ATTREQ
 70
           1
  9
$HANDLING
 70
           1
  9
$HANDSEED
  5
40E
  9
$SURFTAB1
 70
           6
  9
$SURFTAB2
 70
           6
  9
$SURFTYPE
 70
           6
  9
$SURFU
 70
           6
  9
$SURFV
 70
           6
  9
$UCSNAME
  2

  9
$UCSORG
 10
0.0
 20
0.0
 30
0.0
  9
$UCSXDIR
 10
1.0
 20
0.0
 30
0.0
  9
$UCSYDIR
 10
0.0
 20
1.0
 30
0.0
  9
$PUCSNAME
  2

  9
$PUCSORG
 10
0.0
 20
0.0
 30
0.0
  9
$PUCSXDIR
 10
1.0
 20
0.0
 30
0.0
  9
$PUCSYDIR
 10
0.0
 20
1.0
 30
0.0
  9
$USERI1
 70
           0
  9
$USERI2
 70
           0
  9
$USERI3
 70
           0
  9
$USERI4
 70
           0
  9
$USERI5
 70
           0
  9
$USERR1
 40
0.0
  9
$USERR2
 40
0.0
  9
$USERR3
 40
0.0
  9
$USERR4
 40
0.0
  9
$USERR5
 40
0.0
  9
$WORLDVIEW
 70
           1
  9
$SHADEDGE
 70
           3
  9
$SHADEDIF
 70
          70
  9
$TILEMODE
 70
           1
  9
$MAXACTVP
 70
          16
  9
$PINSBASE
 10
0.0
 20
0.0
 30
0.0
  9
$PLIMCHECK
 70
           0
  9
$PEXTMIN
 10
1.000000000000E+20
 20
1.000000000000E+20
 30
1.000000000000E+20
  9
$PEXTMAX
 10
-1.000000000000E+20
 20
-1.000000000000E+20
 30
-1.000000000000E+20
  9
$PLIMMIN
 10
0.0
 20
0.0
  9
$PLIMMAX
 10
12.0
 20
9.0
  9
$UNITMODE
 70
           0
  9
$VISRETAIN
 70
           0
  9
$PLINEGEN
 70
           1
  9
$PSLTSCALE
 70
           0
  9
$TREEDEPTH
 70
        3020
  9
$PICKSTYLE
 70
           1
  9
$CMLSTYLE
  2
STANDARD
  9
$CMLJUST
 70
           0
  9
$CMLSCALE
 40
1.0
  9
$PROXYGRAPHICS
 70
           0
  9
$MEASUREMENT
 70
           0
  0
ENDSEC
  0
SECTION
  2
CLASSES
  0
CLASS
  1
LWPOLYLINE
  2
AcDbPolyline
  3
"AutoCAD"
 90
        0
280
           0
281
           1
  0
CLASS
  1
IMAGE
  2
AcDbRasterImage
  3
ISM
 90
      127
280
           0
281
           1
  0
CLASS
  1
OLE2FRAME
  2
AcDbOle2Frame
  3
""
 90
        0
280
           0
281
           1
  0
CLASS
  1
HATCH
  2
AcDbHatch
  3
"ACAD_SEDONA"
 90
        0
280
           0
281
           1
  0
CLASS
  1
DICTIONARYVAR
  2
AcDbDictionaryVar
  3
"AutoCAD"
 90
        0
280
           0
281
           0
  0
CLASS
  1
RASTERVARIABLES
  2
AcDbRasterVariables
  3
ISM
 90
        0
280
           0
281
           0
  0
CLASS
  1
IMAGEDEF
  2
AcDbRasterImageDef
  3
ISM
 90
        0
280
           0
281
           0
  0
CLASS
  1
IMAGEDEF_REACTOR
  2
AcDbRasterImageDefReactor
  3
ISM
 90
        1
280
           0
281
           0
  0
CLASS
  1
IDBUFFER
  2
AcDbIdBuffer
  3
"Acad"
 90
        0
280
           0
281
           0
  0
CLASS
  1
SPATIAL_FILTER
  2
AcDbSpatialFilter
  3
"Acad"
 90
        0
280
           0
281
           0
  0
CLASS
  1
XRECORD
  2
AcDbXrecord
  3
"<Built In>"
 90
        0
280
           0
281
           0
  0
CLASS
  1
SORTENTSTABLE
  2
AcDbSortentsTable
  3
"AutoCAD"
 90
        0
280
           0
281
           0
  0
CLASS
  1
LAYER_INDEX
  2
AcDbLayerIndex
  3
"Acad"
 90
        0
280
           0
281
           0
  0
CLASS
  1
SPATIAL_INDEX
  2
AcDbSpatialIndex
  3
"Acad"
 90
        0
280
           0
281
           0
  0
CLASS
  1
OBJECT_PTR
  2
CAseDLPNTableRecord
  3
"ASE-LPNTableRecord"
 90
        1
280
           0
281
           0
  0
CLASS
  1
LAYOUT
  2
AcDbLayout
  3
"AutoCAD 2000"
 90
        1
280
           0
281
           0
  0
CLASS
  1
PLOTSETTINGS
  2
AcDbPlotSettings
  3
"AutoCAD 2000"
 90
        1
280
           0
281
           0
  0
CLASS
  1
ACDBDICTIONARYWDFLT
  2
AcDbDictionaryWithDefault
  3
"AutoCAD 2000"
 90
        1
280
           0
281
           0
  0
CLASS
  1
ACDBPLACEHOLDER
  2
AcDbPlaceHolder
  3
"AutoCAD 2000"
 90
        1
280
           0
281
           0
  0
CLASS
  1
VBA_PROJECT
  2
AcDbVbaProject
  3
"acadvba"
 90
        1
280
           0
281
           0
  0
CLASS
  1
WIPEOUT
  2
AcDbWipeout
  3
WipeOut|AutoCAD Express Tool|expresstools@autodesk.com
 90
      127
280
           0
281
           1
  0
CLASS
  1
WIPEOUTVARIABLES
  2
AcDbWipeoutVariables
  3
WipeOut|AutoCAD Express Tool|expresstools@autodesk.com
 90
        0
280
           0
281
           0
  0
CLASS
  1
RTEXT
  2
RText
  3
RText|AutoCAD Express Tool|expresstools@autodesk.com
 90
        0
280
           0
281
           1
  0
CLASS
  1
ARCALIGNEDTEXT
  2
AcDbArcAlignedText
  3
ATEXT|AutoCAD Express Tool|expresstools@autodesk.com
 90
        0
280
           0
281
           1
  0
ENDSEC
  0
SECTION
  2
TABLES
  0
TABLE
  2
VPORT
  5
7
100
AcDbSymbolTable
 70
           1
  0
VPORT
  5
15
100
AcDbSymbolTableRecord
100
AcDbViewportTableRecord
  2
*ACTIVE
 70
           0
 10
0.0
 20
0.0
 11
1.0
 21
1.0
 12
6.591288
 22
4.579184
 13
0.0
 23
0.0
 14
1.0
 24
1.0
 15
0.0
 25
0.0
 16
0.0
 26
0.0
 36
1.0
 17
0.0
 27
0.0
 37
0.0
 40
9.158369
 41
0.688564
 42
50.0
 43
0.0
 44
0.0
 50
0.0
 51
0.0
 71
           0
 72
         100
 73
           1
 74
           1
 75
           0
 76
           0
 77
           0
 78
           0
  0
ENDTAB
  0
TABLE
  2
LTYPE
  5
4
100
AcDbSymbolTable
 70
          10
  0
LTYPE
  5
11
100
AcDbSymbolTableRecord
100
AcDbLinetypeTableRecord
  2
BYBLOCK
 70
          64
  3

 72
          65
 73
           0
 40
0.0
  0
LTYPE
  5
12
100
AcDbSymbolTableRecord
100
AcDbLinetypeTableRecord
  2
BYLAYER
 70
          64
  3

 72
          65
 73
           0
 40
0.0
  0
LTYPE
  5
13
100
AcDbSymbolTableRecord
100
AcDbLinetypeTableRecord
  2
CONTINUOUS
 70
          64
  3
Solid line
 72
          65
 73
           0
 40
0.0
  0
LTYPE
  5
1D
100
AcDbSymbolTableRecord
100
AcDbLinetypeTableRecord
  2
DASHED
 70
          64
  3
Dashed
 72
          65
 73
           2
 40
15.0
 49
12.0
 74
           0
 49
-3.0
 74
           0
  0
LTYPE
  5
1E
100
AcDbSymbolTableRecord
100
AcDbLinetypeTableRecord
  2
DOTTED
 70
          64
  3
Dotted
 72
          65
 73
           2
 40
3.5
 49
0.5
 74
           0
 49
-3.0
 74
           0
  0
LTYPE
  5
1F
100
AcDbSymbolTableRecord
100
AcDbLinetypeTableRecord
  2
DOT_CENTER
 70
          64
  3
Dot_Center
 72
          65
 73
           4
 40
2.0
 49
1.25
 74
           0
 49
-0.25
 74
           0
 49
0.25
 74
           0
 49
-0.25
 74
           0
  0
LTYPE
  5
20
100
AcDbSymbolTableRecord
100
AcDbLinetypeTableRecord
  2
LONG_DASHED
 70
          64
  3
Long_Dashed
 72
          65
 73
           2
 40
2.0
 49
1.5
 74
           0
 49
-0.5
 74
           0
  0
LTYPE
  5
21
100
AcDbSymbolTableRecord
100
AcDbLinetypeTableRecord
  2
DASH_CENTER
 70
          64
  3
Dash_Center
 72
          65
 73
           4
 40
36.0
 49
24.0
 74
           0
 49
-3.0
 74
           0
 49
6.0
 74
           0
 49
-3.0
 74
           0
  0
LTYPE
  5
22
100
AcDbSymbolTableRecord
100
AcDbLinetypeTableRecord
  2
PHANTOM
 70
          64
  3
Phantom
 72
          65
 73
           6
 40
2.5
 49
1.25
 74
           0
 49
-0.25
 74
           0
 49
0.25
 74
           0
 49
-0.25
 74
           0
 49
0.25
 74
           0
 49
-0.25
 74
           0
  0
LTYPE
  5
23
100
AcDbSymbolTableRecord
100
AcDbLinetypeTableRecord
  2
CENTER_DASH_DASH
 70
          64
  3
Center_Dash_Dash
 72
          65
 73
           6
 40
22.0
 49
12.0
 74
           0
 49
-3.0
 74
           0
 49
0.5
 74
           0
 49
-3.0
 74
           0
 49
0.5
 74
           0
 49
-3.0
 74
           0
  0
ENDTAB
  0
TABLE
  2
LAYER
  5
2
100
AcDbSymbolTable
 70
           2
  0
LAYER
  5
14
100
AcDbSymbolTableRecord
100
AcDbLayerTableRecord
  2
0
 70
           0
 62
           7
  6
CONTINUOUS
  0
LAYER
  5
24
100
AcDbSymbolTableRecord
100
AcDbLayerTableRecord
  2
___L
 70
           0
 62
           7
  6
CONTINUOUS
  0
ENDTAB
  0
TABLE
  2
STYLE
  5
3
100
AcDbSymbolTable
 70
           2
  0
STYLE
  5
17
100
AcDbSymbolTableRecord
100
AcDbTextStyleTableRecord
  2
STANDARD
 70
           0
 40
0.0
 41
1.0
 50
0.0
 71
           0
 42
0.0
  3
txt
  4

  0
STYLE
  5
46
100
AcDbSymbolTableRecord
100
AcDbTextStyleTableRecord
  2
CONVERTER_1
 70
           0
 40
0.0
 41
0.63
 50
0.0
 71
           0
 42
0.0
  3
txt.shx
  4

  0
ENDTAB
  0
TABLE
  2
VIEW
  5
5
100
AcDbSymbolTable
 70
           0
  0
ENDTAB
  0
TABLE
  2
UCS
  5
6
100
AcDbSymbolTable
 70
           0
  0
ENDTAB
  0
TABLE
  2
APPID
  5
8
100
AcDbSymbolTable
 70
           1
  0
APPID
  5
16
100
AcDbSymbolTableRecord
100
AcDbRegAppTableRecord
  2
ACAD
 70
           0
  0
ENDTAB
  0
TABLE
  2
DIMSTYLE
  5
9
100
AcDbSymbolTable
 70
           1
  0
DIMSTYLE
105
18
100
AcDbSymbolTableRecord
100
AcDbDimStyleTableRecord
  2
STANDARD
 70
           0
  3

  4

  5

  6

  7

 40
1.0
 41
0.18
 42
0.0625
 43
0.38
 44
0.18
 45
0.0
 46
0.0
 47
0.0
 48
0.0
 71
           0
 72
           0
 73
           1
 74
           1
 75
           0
 76
           0
 77
           0
 78
           0
140
0.18
141
0.09
142
0.0
143
25.4
144
1.0
145
0.0
146
1.0
147
0.09
170
           0
171
           2
172
           0
173
           0
174
           0
175
           0
176
           0
177
           0
178
           0
270
           2
271
           4
272
           4
273
           2
274
           2
275
           0
280
           0
281
           0
282
           0
283
           1
284
           0
285
           0
286
           0
287
           0
288
           0
340
17
  0
ENDTAB
  0
TABLE
  2
BLOCK_RECORD
  5
1
100
AcDbSymbolTable
 70
           9
  0
BLOCK_RECORD
  5
A
100
AcDbSymbolTableRecord
100
AcDbBlockTableRecord
  2
*MODEL_SPACE
  0
BLOCK_RECORD
  5
B
100
AcDbSymbolTableRecord
100
AcDbBlockTableRecord
  2
*PAPER_SPACE
  0
BLOCK_RECORD
  5
25
100
AcDbSymbolTableRecord
100
AcDbBlockTableRecord
  2
SW_NOTE_0__S
  0
BLOCK_RECORD
  5
27
100
AcDbSymbolTableRecord
100
AcDbBlockTableRecord
  2
SW_NOTE_1__S
  0
BLOCK_RECORD
  5
29
100
AcDbSymbolTableRecord
100
AcDbBlockTableRecord
  2
SW_CENTERMARKSYMBOL_0__S
  0
BLOCK_RECORD
  5
2B
100
AcDbSymbolTableRecord
100
AcDbBlockTableRecord
  2
SW_CENTERMARKSYMBOL_1__S
  0
BLOCK_RECORD
  5
2D
100
AcDbSymbolTableRecord
100
AcDbBlockTableRecord
  2
SW_CENTERMARKSYMBOL_2__S
  0
BLOCK_RECORD
  5
2F
100
AcDbSymbolTableRecord
100
AcDbBlockTableRecord
  2
SW_CENTERMARKSYMBOL_3__S
  0
BLOCK_RECORD
  5
31
100
AcDbSymbolTableRecord
100
AcDbBlockTableRecord
  2
SW_CENTERMARKSYMBOL_4__S
  0
BLOCK_RECORD
  5
33
100
AcDbSymbolTableRecord
100
AcDbBlockTableRecord
  2
SW_CENTERMARKSYMBOL_5__S
  0
BLOCK_RECORD
  5
35
100
AcDbSymbolTableRecord
100
AcDbBlockTableRecord
  2
SW_CENTERMARKSYMBOL_6__S
  0
ENDTAB
  0
ENDSEC
  0
SECTION
  2
BLOCKS
  0
BLOCK
  5
D
100
AcDbEntity
  8
0
100
AcDbBlockBegin
  2
*MODEL_SPACE
 70
           0
 10
0.0
 20
0.0
 30
0.0
  3
*MODEL_SPACE
  1

  0
ENDBLK
  5
E
100
AcDbEntity
  8
0
100
AcDbBlockEnd
  0
BLOCK
  5
F
100
AcDbEntity
 67
           1
  8
0
100
AcDbBlockBegin
  2
*PAPER_SPACE
 70
           0
 10
0.0
 20
0.0
 30
0.0
  3
*PAPER_SPACE
  1

  0
ENDBLK
  5
10
100
AcDbEntity
 67
           1
  8
0
100
AcDbBlockEnd
  0
BLOCK
  5
26
100
AcDbEntity
  8
0
100
AcDbBlockBegin
  2
SW_NOTE_0__S
 70
           0
 10
0.0
 20
0.0
 30
0.0
  3
SW_NOTE_0__S
  1

  0
MTEXT
  5
4F
100
AcDbEntity
  8
___L
 62
         190
100
AcDbMText
 10
0.0
 20
-24.8928951311
 30
0.0
 40
1.7638888889
 41
0.0
 71
           1
 72
           1
  1
http://www.hds.co.jp
  7
CONVERTER_1
  0
MTEXT
  5
4E
100
AcDbEntity
  8
___L
 62
         190
100
AcDbMText
 10
0.0
 20
-21.8743765318
 30
0.0
 40
1.7638888889
 41
0.0
 71
           1
 72
           1
  1
Tel. 03-5471-7800 / Fax. 03-5471-7811
  7
CONVERTER_1
  0
MTEXT
  5
4D
100
AcDbEntity
  8
___L
 62
         190
100
AcDbMText
 10
0.0
 20
-18.8558579324
 30
0.0
 40
1.7638888889
 41
0.0
 71
           1
 72
           1
  1
Japan
  7
CONVERTER_1
  0
MTEXT
  5
4C
100
AcDbEntity
  8
___L
 62
         190
100
AcDbMText
 10
0.0
 20
-15.837339333
 30
0.0
 40
1.7638888889
 41
0.0
 71
           1
 72
           1
  1
Ichigo Omori Building 4F Minamiohi 6-25-3 Shinagawa-ku, Tokyo 140-0013
  7
CONVERTER_1
  0
MTEXT
  5
4B
100
AcDbEntity
  8
___L
 62
         190
100
AcDbMText
 10
0.0
 20
-12.8188207336
 30
0.0
 40
1.7638888889
 41
0.0
 71
           1
 72
           1
  1
Harmonic Drive Systems,Inc.
  7
CONVERTER_1
  0
MTEXT
  5
4A
100
AcDbEntity
  8
___L
 62
         190
100
AcDbMText
 10
0.0
 20
-6.7817835349
 30
0.0
 40
1.7638888889
 41
0.0
 71
           1
 72
           1
  1
This drawing itself is also a property of Harmonic Drive systems,Inc.
  7
CONVERTER_1
  0
MTEXT
  5
49
100
AcDbEntity
  8
___L
 62
         190
100
AcDbMText
 10
0.0
 20
-3.7632649355
 30
0.0
 40
1.7638888889
 41
0.0
 71
           1
 72
           1
  1
subject to change without notification.
  7
CONVERTER_1
  0
MTEXT
  5
48
100
AcDbEntity
  8
___L
 62
         190
100
AcDbMText
 10
0.0
 20
-0.7447463362
 30
0.0
 40
1.7638888889
 41
0.0
 71
           1
 72
           1
  1
All speciffcations and dimensions mentioned in the drawing are
  7
CONVERTER_1
  0
MTEXT
  5
47
100
AcDbEntity
  8
___L
 62
         190
100
AcDbMText
 10
0.0
 20
2.2737722632
 30
0.0
 40
1.7638888889
 41
0.0
 71
           1
 72
           1
  1
The reference drawing
  7
CONVERTER_1
  0
ARC
  5
45
100
AcDbEntity
  8
___L
  6
CONTINUOUS
 62
         190
100
AcDbCircle
 10
73.5983457052
 20
-12.021403107
 40
15.095986038394
100
AcDbArc
 50
-89.999999999999
 51
90.0
  0
ARC
  5
44
100
AcDbEntity
  8
___L
  6
CONTINUOUS
 62
         190
100
AcDbCircle
 10
-0.0491237538
 20
-12.021403107
 40
15.095986038394
100
AcDbArc
 50
90.0
 51
-89.999999999999
  0
LINE
  5
43
100
AcDbEntity
  8
___L
  6
CONTINUOUS
 62
         190
100
AcDbLine
 10
73.5983457052
 20
-27.117389145394
 11
-0.0491237538
 21
-27.117389145394
  0
LINE
  5
42
100
AcDbEntity
  8
___L
  6
CONTINUOUS
 62
         190
100
AcDbLine
 10
-0.0491237538
 20
3.074582931394
 11
73.5983457052
 21
3.074582931394
  0
ENDBLK
  5
50
100
AcDbEntity
  8
0
100
AcDbBlockEnd
  0
BLOCK
  5
28
100
AcDbEntity
  8
0
100
AcDbBlockBegin
  2
SW_NOTE_1__S
 70
           0
 10
0.0
 20
0.0
 30
0.0
  3
SW_NOTE_1__S
  1

  0
MTEXT
  5
52
100
AcDbEntity
  8
___L
 62
         190
100
AcDbMText
 10
22.3315702246
 20
-0.8228258964
 30
0.0
 40
3.5277777778
 41
0.0
 71
           2
 72
           1
  1
C009521
  7
CONVERTER_1
  0
MTEXT
  5
51
100
AcDbEntity
  8
___L
 62
         190
100
AcDbMText
 10
20.3949652778
 20
4.5475445264
 30
0.0
 40
3.5277777778
 41
0.0
 71
           2
 72
           1
  1
CSF-14-xxx-2UH-ULW
  7
CONVERTER_1
  0
ENDBLK
  5
53
100
AcDbEntity
  8
0
100
AcDbBlockEnd
  0
BLOCK
  5
2A
100
AcDbEntity
  8
0
100
AcDbBlockBegin
  2
SW_CENTERMARKSYMBOL_0__S
 70
           0
 10
0.0
 20
0.0
 30
0.0
  3
SW_CENTERMARKSYMBOL_0__S
  1

  0
ARC
  5
99
100
AcDbEntity
  8
0
  6
CONTINUOUS
 62
           7
100
AcDbCircle
 10
-6.0258313903
 20
-18.5456020678
 40
19.5
100
AcDbArc
 50
11.7529804129
 51
24.2470195871
  0
ARC
  5
98
100
AcDbEntity
  8
0
  6
CONTINUOUS
 62
           7
100
AcDbCircle
 10
-6.0258313903
 20
-18.5456020678
 40
19.5
100
AcDbArc
 50
-24.247019587099
 51
-11.752980412899
  0
ARC
  5
97
100
AcDbEntity
  8
0
  6
CONTINUOUS
 62
           7
100
AcDbCircle
 10
-6.0258313903
 20
-18.5456020678
 40
19.5
100
AcDbArc
 50
-60.247019587099
 51
-47.752980412899
  0
ARC
  5
96
100
AcDbEntity
  8
0
  6
CONTINUOUS
 62
           7
100
AcDbCircle
 10
-6.0258313903
 20
-18.5456020678
 40
19.5
100
AcDbArc
 50
-96.247019587099
 51
-83.752980412899
  0
ARC
  5
95
100
AcDbEntity
  8
0
  6
CONTINUOUS
 62
           7
100
AcDbCircle
 10
-6.0258313903
 20
-18.5456020678
 40
19.5
100
AcDbArc
 50
-132.247019587099
 51
-119.752980412899
  0
ARC
  5
94
100
AcDbEntity
  8
0
  6
CONTINUOUS
 62
           7
100
AcDbCircle
 10
-6.0258313903
 20
-18.5456020678
 40
19.5
100
AcDbArc
 50
-168.247019587099
 51
-155.752980412899
  0
ARC
  5
93
100
AcDbEntity
  8
0
  6
CONTINUOUS
 62
           7
100
AcDbCircle
 10
-6.0258313903
 20
-18.5456020678
 40
19.5
100
AcDbArc
 50
155.7529804129
 51
168.2470195871
  0
ARC
  5
92
100
AcDbEntity
  8
0
  6
CONTINUOUS
 62
           7
100
AcDbCircle
 10
-6.0258313903
 20
-18.5456020678
 40
19.5
100
AcDbArc
 50
119.7529804129
 51
132.2470195871
  0
ARC
  5
91
100
AcDbEntity
  8
0
  6
CONTINUOUS
 62
           7
100
AcDbCircle
 10
-6.0258313903
 20
-18.5456020678
 40
19.5
100
AcDbArc
 50
83.7529804129
 51
96.2470195871
  0
ARC
  5
90
100
AcDbEntity
  8
0
  6
CONTINUOUS
 62
           7
100
AcDbCircle
 10
-6.0258313903
 20
-18.5456020678
 40
19.5
100
AcDbArc
 50
47.7529804129
 51
60.2470195871
  0
ARC
  5
8F
100
AcDbEntity
  8
0
  6
CONTINUOUS
 62
           7
100
AcDbCircle
 10
-6.0258313903
 20
-18.5456020678
 40
19.5
100
AcDbArc
 50
138.1235097935
 51
144.0
  0
ARC
  5
8E
100
AcDbEntity
  8
0
  6
CONTINUOUS
 62
           7
100
AcDbCircle
 10
-6.0258313903
 20
-18.5456020678
 40
19.5
100
AcDbArc
 50
144.0
 51
149.8764902065
  0
ARC
  5
8D
100
AcDbEntity
  8
0
  6
CONTINUOUS
 62
           7
100
AcDbCircle
 10
-6.0258313903
 20
-18.5456020678
 40
19.5
100
AcDbArc
 50
174.1235097935
 51
-179.999999999999
  0
ARC
  5
8C
100
AcDbEntity
  8
0
  6
CONTINUOUS
 62
           7
100
AcDbCircle
 10
-6.0258313903
 20
-18.5456020678
 40
19.5
100
AcDbArc
 50
-179.999999999999
 51
-174.123509793499
  0
ARC
  5
8B
100
AcDbEntity
  8
0
  6
CONTINUOUS
 62
           7
100
AcDbCircle
 10
-6.0258313903
 20
-18.5456020678
 40
19.5
100
AcDbArc
 50
-149.876490206499
 51
-143.999999999999
  0
ARC
  5
8A
100
AcDbEntity
  8
0
  6
CONTINUOUS
 62
           7
100
AcDbCircle
 10
-6.0258313903
 20
-18.5456020678
 40
19.5
100
AcDbArc
 50
-143.999999999999
 51
-138.123509793499
  0
ARC
  5
89
100
AcDbEntity
  8
0
  6
CONTINUOUS
 62
           7
100
AcDbCircle
 10
-6.0258313903
 20
-18.5456020678
 40
19.5
100
AcDbArc
 50
-113.876490206499
 51
-107.999999999999
  0
ARC
  5
88
100
AcDbEntity
  8
0
  6
CONTINUOUS
 62
           7
100
AcDbCircle
 10
-6.0258313903
 20
-18.5456020678
 40
19.5
100
AcDbArc
 50
-107.999999999999
 51
-102.123509793499
  0
ARC
  5
87
100
AcDbEntity
  8
0
  6
CONTINUOUS
 62
           7
100
AcDbCircle
 10
-6.0258313903
 20
-18.5456020678
 40
19.5
100
AcDbArc
 50
-77.876490206499
 51
-71.999999999999
  0
ARC
  5
86
100
AcDbEntity
  8
0
  6
CONTINUOUS
 62
           7
100
AcDbCircle
 10
-6.0258313903
 20
-18.5456020678
 40
19.5
100
AcDbArc
 50
-71.999999999999
 51
-66.123509793499
  0
ARC
  5
85
100
AcDbEntity
  8
0
  6
CONTINUOUS
 62
           7
100
AcDbCircle
 10
-6.0258313903
 20
-18.5456020678
 40
19.5
100
AcDbArc
 50
-41.876490206499
 51
-35.999999999999
  0
ARC
  5
84
100
AcDbEntity
  8
0
  6
CONTINUOUS
 62
           7
100
AcDbCircle
 10
-6.0258313903
 20
-18.5456020678
 40
19.5
100
AcDbArc
 50
-35.999999999999
 51
-30.123509793499
  0
ARC
  5
83
100
AcDbEntity
  8
0
  6
CONTINUOUS
 62
           7
100
AcDbCircle
 10
-6.0258313903
 20
-18.5456020678
 40
19.5
100
AcDbArc
 50
-5.876490206499
 51
0.0
  0
ARC
  5
82
100
AcDbEntity
  8
0
  6
CONTINUOUS
 62
           7
100
AcDbCircle
 10
-6.0258313903
 20
-18.5456020678
 40
19.5
100
AcDbArc
 50
0.0
 51
5.8764902065
  0
ARC
  5
81
100
AcDbEntity
  8
0
  6
CONTINUOUS
 62
           7
100
AcDbCircle
 10
-6.0258313903
 20
-18.5456020678
 40
19.5
100
AcDbArc
 50
30.1235097935
 51
36.0
  0
ARC
  5
80
100
AcDbEntity
  8
0
  6
CONTINUOUS
 62
           7
100
AcDbCircle
 10
-6.0258313903
 20
-18.5456020678
 40
19.5
100
AcDbArc
 50
36.0
 51
41.8764902065
  0
ARC
  5
7F
100
AcDbEntity
  8
0
  6
CONTINUOUS
 62
           7
100
AcDbCircle
 10
-6.0258313903
 20
-18.5456020678
 40
19.5
100
AcDbArc
 50
102.1235097935
 51
108.0
  0
ARC
  5
7E
100
AcDbEntity
  8
0
  6
CONTINUOUS
 62
           7
100
AcDbCircle
 10
-6.0258313903
 20
-18.5456020678
 40
19.5
100
AcDbArc
 50
108.0
 51
113.8764902065
  0
ARC
  5
7D
100
AcDbEntity
  8
0
  6
CONTINUOUS
 62
           7
100
AcDbCircle
 10
-6.0258313903
 20
-18.5456020678
 40
19.5
100
AcDbArc
 50
66.1235097935
 51
72.0
  0
ARC
  5
7C
100
AcDbEntity
  8
0
  6
CONTINUOUS
 62
           7
100
AcDbCircle
 10
-6.0258313903
 20
-18.5456020678
 40
19.5
100
AcDbArc
 50
72.0
 51
77.8764902065
  0
LINE
  5
7B
100
AcDbEntity
  8
0
  6
CONTINUOUS
 62
           7
100
AcDbLine
 10
-20.1836287919
 20
-8.2593601526
 11
-19.1723575489
 21
-8.994091718
  0
LINE
  5
7A
100
AcDbEntity
  8
0
  6
CONTINUOUS
 62
           7
100
AcDbLine
 10
-23.4196967694
 20
-5.9082191435
 11
-24.4309680123
 21
-5.1734875781
  0
LINE
  5
79
100
AcDbEntity
  8
0
  6
CONTINUOUS
 62
           7
100
AcDbLine
 10
-21.801662780612
 20
-7.083789648097
 11
-20.1836287919
 21
-8.2593601526
  0
LINE
  5
78
100
AcDbEntity
  8
0
  6
CONTINUOUS
 62
           7
100
AcDbLine
 10
-21.801662780612
 20
-7.083789648097
 11
-23.4196967694
 21
-5.9082191435
  0
LINE
  5
77
100
AcDbEntity
  8
0
  6
CONTINUOUS
 62
           7
100
AcDbLine
 10
-23.5258313903
 20
-18.5456020678
 11
-22.2758313903
 21
-18.5456020678
  0
LINE
  5
76
100
AcDbEntity
  8
0
  6
CONTINUOUS
 62
           7
100
AcDbLine
 10
-27.5258313903
 20
-18.5456020678
 11
-28.7758313903
 21
-18.5456020678
  0
LINE
  5
75
100
AcDbEntity
  8
0
  6
CONTINUOUS
 62
           7
100
AcDbLine
 10
-25.5258313903
 20
-18.5456020678
 11
-23.5258313903
 21
-18.5456020678
  0
LINE
  5
74
100
AcDbEntity
  8
0
  6
CONTINUOUS
 62
           7
100
AcDbLine
 10
-25.5258313903
 20
-18.5456020678
 11
-27.5258313903
 21
-18.5456020678
  0
LINE
  5
73
100
AcDbEntity
  8
0
  6
CONTINUOUS
 62
           7
100
AcDbLine
 10
-20.1836287919
 20
-28.8318439829
 11
-19.1723575489
 21
-28.0971124175
  0
LINE
  5
72
100
AcDbEntity
  8
0
  6
CONTINUOUS
 62
           7
100
AcDbLine
 10
-23.4196967694
 20
-31.182984992
 11
-24.4309680123
 21
-31.9177165574
  0
LINE
  5
71
100
AcDbEntity
  8
0
  6
CONTINUOUS
 62
           7
100
AcDbLine
 10
-21.801662780611
 20
-30.007414487503
 11
-20.1836287919
 21
-28.8318439829
  0
LINE
  5
70
100
AcDbEntity
  8
0
  6
CONTINUOUS
 62
           7
100
AcDbLine
 10
-21.801662780611
 20
-30.007414487503
 11
-23.4196967694
 21
-31.182984992
  0
LINE
  5
6F
100
AcDbEntity
  8
0
  6
CONTINUOUS
 62
           7
100
AcDbLine
 10
-11.4336287919
 20
-35.1890911029
 11
-11.0473575489
 21
-34.0002704576
  0
LINE
  5
6E
100
AcDbEntity
  8
0
  6
CONTINUOUS
 62
           7
100
AcDbLine
 10
-12.6696967694
 20
-38.9933171681
 11
-13.0559680123
 21
-40.1821378135
  0
LINE
  5
6D
100
AcDbEntity
  8
0
  6
CONTINUOUS
 62
           7
100
AcDbLine
 10
-12.051662780611
 20
-37.091204135556
 11
-11.4336287919
 21
-35.1890911029
  0
LINE
  5
6C
100
AcDbEntity
  8
0
  6
CONTINUOUS
 62
           7
100
AcDbLine
 10
-12.051662780611
 20
-37.091204135556
 11
-12.6696967694
 21
-38.9933171681
  0
LINE
  5
6B
100
AcDbEntity
  8
0
  6
CONTINUOUS
 62
           7
100
AcDbLine
 10
-0.6180339888
 20
-35.1890911029
 11
-1.0043052317
 21
-34.0002704576
  0
LINE
  5
6A
100
AcDbEntity
  8
0
  6
CONTINUOUS
 62
           7
100
AcDbLine
 10
0.6180339887
 20
-38.9933171681
 11
1.0043052317
 21
-40.1821378135
  0
LINE
  5
69
100
AcDbEntity
  8
0
  6
CONTINUOUS
 62
           7
100
AcDbLine
 10
0.000000000012
 20
-37.091204135555
 11
-0.6180339888
 21
-35.1890911029
  0
LINE
  5
68
100
AcDbEntity
  8
0
  6
CONTINUOUS
 62
           7
100
AcDbLine
 10
0.000000000012
 20
-37.091204135555
 11
0.6180339887
 21
-38.9933171681
  0
LINE
  5
67
100
AcDbEntity
  8
0
  6
CONTINUOUS
 62
           7
100
AcDbLine
 10
8.1319660112
 20
-28.8318439829
 11
7.1206947683
 21
-28.0971124175
  0
LINE
  5
66
100
AcDbEntity
  8
0
  6
CONTINUOUS
 62
           7
100
AcDbLine
 10
11.3680339887
 20
-31.182984992
 11
12.3793052317
 21
-31.9177165574
  0
LINE
  5
65
100
AcDbEntity
  8
0
  6
CONTINUOUS
 62
           7
100
AcDbLine
 10
9.750000000012
 20
-30.007414487503
 11
8.1319660112
 21
-28.8318439829
  0
LINE
  5
64
100
AcDbEntity
  8
0
  6
CONTINUOUS
 62
           7
100
AcDbLine
 10
9.750000000012
 20
-30.007414487503
 11
11.3680339887
 21
-31.182984992
  0
LINE
  5
63
100
AcDbEntity
  8
0
  6
CONTINUOUS
 62
           7
100
AcDbLine
 10
11.4741686097
 20
-18.5456020678
 11
10.2241686097
 21
-18.5456020678
  0
LINE
  5
62
100
AcDbEntity
  8
0
  6
CONTINUOUS
 62
           7
100
AcDbLine
 10
15.4741686097
 20
-18.5456020678
 11
16.7241686097
 21
-18.5456020678
  0
LINE
  5
61
100
AcDbEntity
  8
0
  6
CONTINUOUS
 62
           7
100
AcDbLine
 10
13.4741686097
 20
-18.5456020678
 11
11.4741686097
 21
-18.5456020678
  0
LINE
  5
60
100
AcDbEntity
  8
0
  6
CONTINUOUS
 62
           7
100
AcDbLine
 10
13.4741686097
 20
-18.5456020678
 11
15.4741686097
 21
-18.5456020678
  0
LINE
  5
5F
100
AcDbEntity
  8
0
  6
CONTINUOUS
 62
           7
100
AcDbLine
 10
8.1319660113
 20
-8.2593601526
 11
7.1206947683
 21
-8.994091718
  0
LINE
  5
5E
100
AcDbEntity
  8
0
  6
CONTINUOUS
 62
           7
100
AcDbLine
 10
11.3680339887
 20
-5.9082191435
 11
12.3793052317
 21
-5.1734875781
  0
LINE
  5
5D
100
AcDbEntity
  8
0
  6
CONTINUOUS
 62
           7
100
AcDbLine
 10
9.750000000011
 20
-7.083789648097
 11
8.1319660113
 21
-8.2593601526
  0
LINE
  5
5C
100
AcDbEntity
  8
0
  6
CONTINUOUS
 62
           7
100
AcDbLine
 10
9.750000000011
 20
-7.083789648097
 11
11.3680339887
 21
-5.9082191435
  0
LINE
  5
5B
100
AcDbEntity
  8
0
  6
CONTINUOUS
 62
           7
100
AcDbLine
 10
-11.4336287919
 20
-1.9021130326
 11
-11.0473575489
 21
-3.090933678
  0
LINE
  5
5A
100
AcDbEntity
  8
0
  6
CONTINUOUS
 62
           7
100
AcDbLine
 10
-12.6696967694
 20
1.9021130326
 11
-13.0559680123
 21
3.090933678
  0
LINE
  5
59
100
AcDbEntity
  8
0
  6
CONTINUOUS
 62
           7
100
AcDbLine
 10
-12.051662780612
 20
-0.000000000045
 11
-11.4336287919
 21
-1.9021130326
  0
LINE
  5
58
100
AcDbEntity
  8
0
  6
CONTINUOUS
 62
           7
100
AcDbLine
 10
-12.051662780612
 20
-0.000000000045
 11
-12.6696967694
 21
1.9021130326
  0
LINE
  5
57
100
AcDbEntity
  8
0
  6
CONTINUOUS
 62
           7
100
AcDbLine
 10
-0.6180339887
 20
-1.9021130326
 11
-1.0043052317
 21
-3.090933678
  0
LINE
  5
56
100
AcDbEntity
  8
0
  6
CONTINUOUS
 62
           7
100
AcDbLine
 10
0.6180339887
 20
1.9021130326
 11
1.0043052317
 21
3.090933678
  0
LINE
  5
55
100
AcDbEntity
  8
0
  6
CONTINUOUS
 62
           7
100
AcDbLine
 10
0.000000000011
 20
-0.000000000044
 11
-0.6180339887
 21
-1.9021130326
  0
LINE
  5
54
100
AcDbEntity
  8
0
  6
CONTINUOUS
 62
           7
100
AcDbLine
 10
0.000000000011
 20
-0.000000000044
 11
0.6180339887
 21
1.9021130326
  0
ENDBLK
  5
9A
100
AcDbEntity
  8
0
100
AcDbBlockEnd
  0
BLOCK
  5
2C
100
AcDbEntity
  8
0
100
AcDbBlockBegin
  2
SW_CENTERMARKSYMBOL_1__S
 70
           0
 10
0.0
 20
0.0
 30
0.0
  3
SW_CENTERMARKSYMBOL_1__S
  1

  0
ARC
  5
A2
100
AcDbEntity
  8
0
  6
CONTINUOUS
 62
           7
100
AcDbCircle
 10
0.0
 20
-19.4
 40
19.4
100
AcDbArc
 50
81.0659931429
 51
84.0932186069
  0
ARC
  5
A1
100
AcDbEntity
  8
0
  6
CONTINUOUS
 62
           7
100
AcDbCircle
 10
0.0
 20
-19.4
 40
19.4
100
AcDbArc
 50
95.9067813931
 51
98.9340068571
  0
ARC
  5
A0
100
AcDbEntity
  8
0
  6
CONTINUOUS
 62
           7
100
AcDbCircle
 10
0.0
 20
-19.4
 40
19.4
100
AcDbArc
 50
84.0932186069
 51
90.0
  0
ARC
  5
9F
100
AcDbEntity
  8
0
  6
CONTINUOUS
 62
           7
100
AcDbCircle
 10
0.0
 20
-19.4
 40
19.4
100
AcDbArc
 50
90.0
 51
95.9067813931
  0
LINE
  5
9E
100
AcDbEntity
  8
0
  6
CONTINUOUS
 62
           7
100
AcDbLine
 10
0.0
 20
-2.0
 11
0.0
 21
-3.025
  0
LINE
  5
9D
100
AcDbEntity
  8
0
  6
CONTINUOUS
 62
           7
100
AcDbLine
 10
0.0
 20
2.0
 11
0.0
 21
3.025
  0
LINE
  5
9C
100
AcDbEntity
  8
0
  6
CONTINUOUS
 62
           7
100
AcDbLine
 10
0.0
 20
0.0
 11
0.0
 21
-2.0
  0
LINE
  5
9B
100
AcDbEntity
  8
0
  6
CONTINUOUS
 62
           7
100
AcDbLine
 10
0.0
 20
0.0
 11
0.0
 21
2.0
  0
ENDBLK
  5
A3
100
AcDbEntity
  8
0
100
AcDbBlockEnd
  0
BLOCK
  5
2E
100
AcDbEntity
  8
0
100
AcDbBlockBegin
  2
SW_CENTERMARKSYMBOL_2__S
 70
           0
 10
0.0
 20
0.0
 30
0.0
  3
SW_CENTERMARKSYMBOL_2__S
  1

  0
ARC
  5
F7
100
AcDbEntity
  8
0
  6
CONTINUOUS
 62
           7
100
AcDbCircle
 10
0.0
 20
-32.5
 40
32.5
100
AcDbArc
 50
127.0517882478
 51
142.9482117522
  0
ARC
  5
F6
100
AcDbEntity
  8
0
  6
CONTINUOUS
 62
           7
100
AcDbCircle
 10
0.0
 20
-32.5
 40
32.5
100
AcDbArc
 50
97.0517882478
 51
112.9482117522
  0
ARC
  5
F5
100
AcDbEntity
  8
0
  6
CONTINUOUS
 62
           7
100
AcDbCircle
 10
0.0
 20
-32.5
 40
32.5
100
AcDbArc
 50
157.0517882478
 51
172.9482117522
  0
ARC
  5
F4
100
AcDbEntity
  8
0
  6
CONTINUOUS
 62
           7
100
AcDbCircle
 10
0.0
 20
-32.5
 40
32.5
100
AcDbArc
 50
-172.948211752199
 51
-157.051788247799
  0
ARC
  5
F3
100
AcDbEntity
  8
0
  6
CONTINUOUS
 62
           7
100
AcDbCircle
 10
0.0
 20
-32.5
 40
32.5
100
AcDbArc
 50
-142.948211752199
 51
-127.051788247799
  0
ARC
  5
F2
100
AcDbEntity
  8
0
  6
CONTINUOUS
 62
           7
100
AcDbCircle
 10
0.0
 20
-32.5
 40
32.5
100
AcDbArc
 50
-112.948211752199
 51
-97.051788247799
  0
ARC
  5
F1
100
AcDbEntity
  8
0
  6
CONTINUOUS
 62
           7
100
AcDbCircle
 10
0.0
 20
-32.5
 40
32.5
100
AcDbArc
 50
-82.948211752199
 51
-67.051788247799
  0
ARC
  5
F0
100
AcDbEntity
  8
0
  6
CONTINUOUS
 62
           7
100
AcDbCircle
 10
0.0
 20
-32.5
 40
32.5
100
AcDbArc
 50
-52.948211752199
 51
-37.051788247799
  0
ARC
  5
EF
100
AcDbEntity
  8
0
  6
CONTINUOUS
 62
           7
100
AcDbCircle
 10
0.0
 20
-32.5
 40
32.5
100
AcDbArc
 50
-22.948211752199
 51
-7.051788247799
  0
ARC
  5
EE
100
AcDbEntity
  8
0
  6
CONTINUOUS
 62
           7
100
AcDbCircle
 10
0.0
 20
-32.5
 40
32.5
100
AcDbArc
 50
7.0517882478
 51
22.9482117522
  0
ARC
  5
ED
100
AcDbEntity
  8
0
  6
CONTINUOUS
 62
           7
100
AcDbCircle
 10
0.0
 20
-32.5
 40
32.5
100
AcDbArc
 50
67.0517882478
 51
82.9482117522
  0
ARC
  5
EC
100
AcDbEntity
  8
0
  6
CONTINUOUS
 62
           7
100
AcDbCircle
 10
0.0
 20
-32.5
 40
32.5
100
AcDbArc
 50
37.0517882478
 51
52.9482117522
  0
ARC
  5
EB
100
AcDbEntity
  8
0
  6
CONTINUOUS
 62
           7
100
AcDbCircle
 10
0.0
 20
-32.5
 40
32.5
100
AcDbArc
 50
116.4741058761
 51
120.0
  0
ARC
  5
EA
100
AcDbEntity
  8
0
  6
CONTINUOUS
 62
           7
100
AcDbCircle
 10
0.0
 20
-32.5
 40
32.5
100
AcDbArc
 50
120.0
 51
123.5258941239
  0
ARC
  5
E9
100
AcDbEntity
  8
0
  6
CONTINUOUS
 62
           7
100
AcDbCircle
 10
0.0
 20
-32.5
 40
32.5
100
AcDbArc
 50
146.4741058761
 51
150.0
  0
ARC
  5
E8
100
AcDbEntity
  8
0
  6
CONTINUOUS
 62
           7
100
AcDbCircle
 10
0.0
 20
-32.5
 40
32.5
100
AcDbArc
 50
150.0
 51
153.5258941239
  0
ARC
  5
E7
100
AcDbEntity
  8
0
  6
CONTINUOUS
 62
           7
100
AcDbCircle
 10
0.0
 20
-32.5
 40
32.5
100
AcDbArc
 50
176.4741058761
 51
-179.999999999999
  0
ARC
  5
E6
100
AcDbEntity
  8
0
  6
CONTINUOUS
 62
           7
100
AcDbCircle
 10
0.0
 20
-32.5
 40
32.5
100
AcDbArc
 50
-179.999999999999
 51
-176.474105876099
  0
ARC
  5
E5
100
AcDbEntity
  8
0
  6
CONTINUOUS
 62
           7
100
AcDbCircle
 10
0.0
 20
-32.5
 40
32.5
100
AcDbArc
 50
-153.525894123899
 51
-149.999999999999
  0
ARC
  5
E4
100
AcDbEntity
  8
0
  6
CONTINUOUS
 62
           7
100
AcDbCircle
 10
0.0
 20
-32.5
 40
32.5
100
AcDbArc
 50
-149.999999999999
 51
-146.474105876099
  0
ARC
  5
E3
100
AcDbEntity
  8
0
  6
CONTINUOUS
 62
           7
100
AcDbCircle
 10
0.0
 20
-32.5
 40
32.5
100
AcDbArc
 50
-123.525894123899
 51
-119.999999999999
  0
ARC
  5
E2
100
AcDbEntity
  8
0
  6
CONTINUOUS
 62
           7
100
AcDbCircle
 10
0.0
 20
-32.5
 40
32.5
100
AcDbArc
 50
-119.999999999999
 51
-116.474105876099
  0
ARC
  5
E1
100
AcDbEntity
  8
0
  6
CONTINUOUS
 62
           7
100
AcDbCircle
 10
0.0
 20
-32.5
 40
32.5
100
AcDbArc
 50
-93.525894123899
 51
-89.999999999999
  0
ARC
  5
E0
100
AcDbEntity
  8
0
  6
CONTINUOUS
 62
           7
100
AcDbCircle
 10
0.0
 20
-32.5
 40
32.5
100
AcDbArc
 50
-89.999999999999
 51
-86.474105876099
  0
ARC
  5
DF
100
AcDbEntity
  8
0
  6
CONTINUOUS
 62
           7
100
AcDbCircle
 10
0.0
 20
-32.5
 40
32.5
100
AcDbArc
 50
-63.525894123899
 51
-59.999999999999
  0
ARC
  5
DE
100
AcDbEntity
  8
0
  6
CONTINUOUS
 62
           7
100
AcDbCircle
 10
0.0
 20
-32.5
 40
32.5
100
AcDbArc
 50
-59.999999999999
 51
-56.474105876099
  0
ARC
  5
DD
100
AcDbEntity
  8
0
  6
CONTINUOUS
 62
           7
100
AcDbCircle
 10
0.0
 20
-32.5
 40
32.5
100
AcDbArc
 50
-33.525894123899
 51
-29.999999999999
  0
ARC
  5
DC
100
AcDbEntity
  8
0
  6
CONTINUOUS
 62
           7
100
AcDbCircle
 10
0.0
 20
-32.5
 40
32.5
100
AcDbArc
 50
-29.999999999999
 51
-26.474105876099
  0
ARC
  5
DB
100
AcDbEntity
  8
0
  6
CONTINUOUS
 62
           7
100
AcDbCircle
 10
0.0
 20
-32.5
 40
32.5
100
AcDbArc
 50
-3.525894123899
 51
0.0
  0
ARC
  5
DA
100
AcDbEntity
  8
0
  6
CONTINUOUS
 62
           7
100
AcDbCircle
 10
0.0
 20
-32.5
 40
32.5
100
AcDbArc
 50
0.0
 51
3.5258941239
  0
ARC
  5
D9
100
AcDbEntity
  8
0
  6
CONTINUOUS
 62
           7
100
AcDbCircle
 10
0.0
 20
-32.5
 40
32.5
100
AcDbArc
 50
26.4741058761
 51
30.0
  0
ARC
  5
D8
100
AcDbEntity
  8
0
  6
CONTINUOUS
 62
           7
100
AcDbCircle
 10
0.0
 20
-32.5
 40
32.5
100
AcDbArc
 50
30.0
 51
33.5258941239
  0
ARC
  5
D7
100
AcDbEntity
  8
0
  6
CONTINUOUS
 62
           7
100
AcDbCircle
 10
0.0
 20
-32.5
 40
32.5
100
AcDbArc
 50
56.4741058761
 51
60.0
  0
ARC
  5
D6
100
AcDbEntity
  8
0
  6
CONTINUOUS
 62
           7
100
AcDbCircle
 10
0.0
 20
-32.5
 40
32.5
100
AcDbArc
 50
60.0
 51
63.5258941239
  0
ARC
  5
D5
100
AcDbEntity
  8
0
  6
CONTINUOUS
 62
           7
100
AcDbCircle
 10
0.0
 20
-32.5
 40
32.5
100
AcDbArc
 50
86.4741058761
 51
90.0
  0
ARC
  5
D4
100
AcDbEntity
  8
0
  6
CONTINUOUS
 62
           7
100
AcDbCircle
 10
0.0
 20
-32.5
 40
32.5
100
AcDbArc
 50
90.0
 51
93.5258941239
  0
LINE
  5
D3
100
AcDbEntity
  8
0
  6
CONTINUOUS
 62
           7
100
AcDbLine
 10
-15.25
 20
-6.0862251846
 11
-14.625
 21
-7.1687569393
  0
LINE
  5
D2
100
AcDbEntity
  8
0
  6
CONTINUOUS
 62
           7
100
AcDbLine
 10
-17.25
 20
-2.6221235694
 11
-17.875
 21
-1.5395918147
  0
LINE
  5
D1
100
AcDbEntity
  8
0
  6
CONTINUOUS
 62
           7
100
AcDbLine
 10
-16.25
 20
-4.354174377006
 11
-15.25
 21
-6.0862251846
  0
LINE
  5
D0
100
AcDbEntity
  8
0
  6
CONTINUOUS
 62
           7
100
AcDbLine
 10
-16.25
 20
-4.354174377006
 11
-17.25
 21
-2.6221235694
  0
LINE
  5
CF
100
AcDbEntity
  8
0
  6
CONTINUOUS
 62
           7
100
AcDbLine
 10
-26.4137748154
 20
-17.25
 11
-24.941531629
 21
-18.1
  0
LINE
  5
CE
100
AcDbEntity
  8
0
  6
CONTINUOUS
 62
           7
100
AcDbLine
 10
-29.8778764306
 20
-15.25
 11
-31.350119617
 21
-14.4
  0
LINE
  5
CD
100
AcDbEntity
  8
0
  6
CONTINUOUS
 62
           7
100
AcDbLine
 10
-28.145825622994
 20
-16.25
 11
-26.4137748154
 21
-17.25
  0
LINE
  5
CC
100
AcDbEntity
  8
0
  6
CONTINUOUS
 62
           7
100
AcDbLine
 10
-28.145825622994
 20
-16.25
 11
-29.8778764306
 21
-15.25
  0
LINE
  5
CB
100
AcDbEntity
  8
0
  6
CONTINUOUS
 62
           7
100
AcDbLine
 10
-30.5
 20
-32.5
 11
-29.25
 21
-32.5
  0
LINE
  5
CA
100
AcDbEntity
  8
0
  6
CONTINUOUS
 62
           7
100
AcDbLine
 10
-34.5
 20
-32.5
 11
-35.75
 21
-32.5
  0
LINE
  5
C9
100
AcDbEntity
  8
0
  6
CONTINUOUS
 62
           7
100
AcDbLine
 10
-32.5
 20
-32.5
 11
-30.5
 21
-32.5
  0
LINE
  5
C8
100
AcDbEntity
  8
0
  6
CONTINUOUS
 62
           7
100
AcDbLine
 10
-32.5
 20
-32.5
 11
-34.5
 21
-32.5
  0
LINE
  5
C7
100
AcDbEntity
  8
0
  6
CONTINUOUS
 62
           7
100
AcDbLine
 10
-26.4137748154
 20
-47.75
 11
-24.941531629
 21
-46.9
  0
LINE
  5
C6
100
AcDbEntity
  8
0
  6
CONTINUOUS
 62
           7
100
AcDbLine
 10
-29.8778764306
 20
-49.75
 11
-31.350119617
 21
-50.6
  0
LINE
  5
C5
100
AcDbEntity
  8
0
  6
CONTINUOUS
 62
           7
100
AcDbLine
 10
-28.145825622994
 20
-48.75
 11
-26.4137748154
 21
-47.75
  0
LINE
  5
C4
100
AcDbEntity
  8
0
  6
CONTINUOUS
 62
           7
100
AcDbLine
 10
-28.145825622994
 20
-48.75
 11
-29.8778764306
 21
-49.75
  0
LINE
  5
C3
100
AcDbEntity
  8
0
  6
CONTINUOUS
 62
           7
100
AcDbLine
 10
-15.25
 20
-58.9137748154
 11
-14.625
 21
-57.8312430607
  0
LINE
  5
C2
100
AcDbEntity
  8
0
  6
CONTINUOUS
 62
           7
100
AcDbLine
 10
-17.25
 20
-62.3778764306
 11
-17.875
 21
-63.4604081853
  0
LINE
  5
C1
100
AcDbEntity
  8
0
  6
CONTINUOUS
 62
           7
100
AcDbLine
 10
-16.25
 20
-60.645825622994
 11
-15.25
 21
-58.9137748154
  0
LINE
  5
C0
100
AcDbEntity
  8
0
  6
CONTINUOUS
 62
           7
100
AcDbLine
 10
-16.25
 20
-60.645825622994
 11
-17.25
 21
-62.3778764306
  0
LINE
  5
BF
100
AcDbEntity
  8
0
  6
CONTINUOUS
 62
           7
100
AcDbLine
 10
0.0
 20
-63.0
 11
0.0
 21
-61.3
  0
LINE
  5
BE
100
AcDbEntity
  8
0
  6
CONTINUOUS
 62
           7
100
AcDbLine
 10
0.0
 20
-67.0
 11
0.0
 21
-68.7
  0
LINE
  5
BD
100
AcDbEntity
  8
0
  6
CONTINUOUS
 62
           7
100
AcDbLine
 10
0.0
 20
-65.0
 11
0.0
 21
-63.0
  0
LINE
  5
BC
100
AcDbEntity
  8
0
  6
CONTINUOUS
 62
           7
100
AcDbLine
 10
0.0
 20
-65.0
 11
0.0
 21
-67.0
  0
LINE
  5
BB
100
AcDbEntity
  8
0
  6
CONTINUOUS
 62
           7
100
AcDbLine
 10
15.25
 20
-58.9137748154
 11
14.625
 21
-57.8312430607
  0
LINE
  5
BA
100
AcDbEntity
  8
0
  6
CONTINUOUS
 62
           7
100
AcDbLine
 10
17.25
 20
-62.3778764306
 11
17.875
 21
-63.4604081853
  0
LINE
  5
B9
100
AcDbEntity
  8
0
  6
CONTINUOUS
 62
           7
100
AcDbLine
 10
16.25
 20
-60.645825622994
 11
15.25
 21
-58.9137748154
  0
LINE
  5
B8
100
AcDbEntity
  8
0
  6
CONTINUOUS
 62
           7
100
AcDbLine
 10
16.25
 20
-60.645825622994
 11
17.25
 21
-62.3778764306
  0
LINE
  5
B7
100
AcDbEntity
  8
0
  6
CONTINUOUS
 62
           7
100
AcDbLine
 10
26.4137748154
 20
-47.75
 11
24.941531629
 21
-46.9
  0
LINE
  5
B6
100
AcDbEntity
  8
0
  6
CONTINUOUS
 62
           7
100
AcDbLine
 10
29.8778764306
 20
-49.75
 11
31.350119617
 21
-50.6
  0
LINE
  5
B5
100
AcDbEntity
  8
0
  6
CONTINUOUS
 62
           7
100
AcDbLine
 10
28.145825622995
 20
-48.75
 11
26.4137748154
 21
-47.75
  0
LINE
  5
B4
100
AcDbEntity
  8
0
  6
CONTINUOUS
 62
           7
100
AcDbLine
 10
28.145825622995
 20
-48.75
 11
29.8778764306
 21
-49.75
  0
LINE
  5
B3
100
AcDbEntity
  8
0
  6
CONTINUOUS
 62
           7
100
AcDbLine
 10
30.5
 20
-32.5
 11
29.25
 21
-32.5
  0
LINE
  5
B2
100
AcDbEntity
  8
0
  6
CONTINUOUS
 62
           7
100
AcDbLine
 10
34.5
 20
-32.5
 11
35.75
 21
-32.5
  0
LINE
  5
B1
100
AcDbEntity
  8
0
  6
CONTINUOUS
 62
           7
100
AcDbLine
 10
32.5
 20
-32.5
 11
30.5
 21
-32.5
  0
LINE
  5
B0
100
AcDbEntity
  8
0
  6
CONTINUOUS
 62
           7
100
AcDbLine
 10
32.5
 20
-32.5
 11
34.5
 21
-32.5
  0
LINE
  5
AF
100
AcDbEntity
  8
0
  6
CONTINUOUS
 62
           7
100
AcDbLine
 10
26.4137748154
 20
-17.25
 11
24.941531629
 21
-18.1
  0
LINE
  5
AE
100
AcDbEntity
  8
0
  6
CONTINUOUS
 62
           7
100
AcDbLine
 10
29.8778764306
 20
-15.25
 11
31.350119617
 21
-14.4
  0
LINE
  5
AD
100
AcDbEntity
  8
0
  6
CONTINUOUS
 62
           7
100
AcDbLine
 10
28.145825622994
 20
-16.25
 11
26.4137748154
 21
-17.25
  0
LINE
  5
AC
100
AcDbEntity
  8
0
  6
CONTINUOUS
 62
           7
100
AcDbLine
 10
28.145825622994
 20
-16.25
 11
29.8778764306
 21
-15.25
  0
LINE
  5
AB
100
AcDbEntity
  8
0
  6
CONTINUOUS
 62
           7
100
AcDbLine
 10
15.25
 20
-6.0862251846
 11
14.625
 21
-7.1687569393
  0
LINE
  5
AA
100
AcDbEntity
  8
0
  6
CONTINUOUS
 62
           7
100
AcDbLine
 10
17.25
 20
-2.6221235694
 11
17.875
 21
-1.5395918147
  0
LINE
  5
A9
100
AcDbEntity
  8
0
  6
CONTINUOUS
 62
           7
100
AcDbLine
 10
16.25
 20
-4.354174377006
 11
15.25
 21
-6.0862251846
  0
LINE
  5
A8
100
AcDbEntity
  8
0
  6
CONTINUOUS
 62
           7
100
AcDbLine
 10
16.25
 20
-4.354174377006
 11
17.25
 21
-2.6221235694
  0
LINE
  5
A7
100
AcDbEntity
  8
0
  6
CONTINUOUS
 62
           7
100
AcDbLine
 10
0.0
 20
-2.0
 11
0.0
 21
-3.7
  0
LINE
  5
A6
100
AcDbEntity
  8
0
  6
CONTINUOUS
 62
           7
100
AcDbLine
 10
0.0
 20
2.0
 11
0.0
 21
3.7
  0
LINE
  5
A5
100
AcDbEntity
  8
0
  6
CONTINUOUS
 62
           7
100
AcDbLine
 10
0.0
 20
0.0
 11
0.0
 21
-2.0
  0
LINE
  5
A4
100
AcDbEntity
  8
0
  6
CONTINUOUS
 62
           7
100
AcDbLine
 10
0.0
 20
0.0
 11
0.0
 21
2.0
  0
ENDBLK
  5
F8
100
AcDbEntity
  8
0
100
AcDbBlockEnd
  0
BLOCK
  5
30
100
AcDbEntity
  8
0
100
AcDbBlockBegin
  2
SW_CENTERMARKSYMBOL_3__S
 70
           0
 10
0.0
 20
0.0
 30
0.0
  3
SW_CENTERMARKSYMBOL_3__S
  1

  0
LINE
  5
100
100
AcDbEntity
  8
0
  6
CONTINUOUS
 62
           7
100
AcDbLine
 10
8.0
 20
0.0
 11
39.5
 21
0.0
  0
LINE
  5
FF
100
AcDbEntity
  8
0
  6
CONTINUOUS
 62
           7
100
AcDbLine
 10
0.0
 20
-8.0
 11
0.0
 21
-39.5
  0
LINE
  5
FE
100
AcDbEntity
  8
0
  6
CONTINUOUS
 62
           7
100
AcDbLine
 10
-8.0
 20
0.0
 11
-39.5
 21
0.0
  0
LINE
  5
FD
100
AcDbEntity
  8
0
  6
CONTINUOUS
 62
           7
100
AcDbLine
 10
0.0
 20
8.0
 11
0.0
 21
39.5
  0
LINE
  5
FC
100
AcDbEntity
  8
0
  6
CONTINUOUS
 62
           7
100
AcDbLine
 10
0.0
 20
0.0
 11
4.0
 21
0.0
  0
LINE
  5
FB
100
AcDbEntity
  8
0
  6
CONTINUOUS
 62
           7
100
AcDbLine
 10
0.0
 20
0.0
 11
0.0
 21
-4.0
  0
LINE
  5
FA
100
AcDbEntity
  8
0
  6
CONTINUOUS
 62
           7
100
AcDbLine
 10
0.0
 20
0.0
 11
-4.0
 21
0.0
  0
LINE
  5
F9
100
AcDbEntity
  8
0
  6
CONTINUOUS
 62
           7
100
AcDbLine
 10
0.0
 20
0.0
 11
0.0
 21
4.0
  0
ENDBLK
  5
101
100
AcDbEntity
  8
0
100
AcDbBlockEnd
  0
BLOCK
  5
32
100
AcDbEntity
  8
0
100
AcDbBlockBegin
  2
SW_CENTERMARKSYMBOL_4__S
 70
           0
 10
0.0
 20
0.0
 30
0.0
  3
SW_CENTERMARKSYMBOL_4__S
  1

  0
ARC
  5
155
100
AcDbEntity
  8
0
  6
CONTINUOUS
 62
           7
100
AcDbCircle
 10
0.0
 20
-32.5
 40
32.5
100
AcDbArc
 50
127.0517882478
 51
142.9482117522
  0
ARC
  5
154
100
AcDbEntity
  8
0
  6
CONTINUOUS
 62
           7
100
AcDbCircle
 10
0.0
 20
-32.5
 40
32.5
100
AcDbArc
 50
97.0517882478
 51
112.9482117522
  0
ARC
  5
153
100
AcDbEntity
  8
0
  6
CONTINUOUS
 62
           7
100
AcDbCircle
 10
0.0
 20
-32.5
 40
32.5
100
AcDbArc
 50
157.0517882478
 51
172.9482117522
  0
ARC
  5
152
100
AcDbEntity
  8
0
  6
CONTINUOUS
 62
           7
100
AcDbCircle
 10
0.0
 20
-32.5
 40
32.5
100
AcDbArc
 50
-172.948211752199
 51
-157.051788247799
  0
ARC
  5
151
100
AcDbEntity
  8
0
  6
CONTINUOUS
 62
           7
100
AcDbCircle
 10
0.0
 20
-32.5
 40
32.5
100
AcDbArc
 50
-142.948211752199
 51
-127.051788247799
  0
ARC
  5
150
100
AcDbEntity
  8
0
  6
CONTINUOUS
 62
           7
100
AcDbCircle
 10
0.0
 20
-32.5
 40
32.5
100
AcDbArc
 50
-112.948211752199
 51
-97.051788247799
  0
ARC
  5
14F
100
AcDbEntity
  8
0
  6
CONTINUOUS
 62
           7
100
AcDbCircle
 10
0.0
 20
-32.5
 40
32.5
100
AcDbArc
 50
-82.948211752199
 51
-67.051788247799
  0
ARC
  5
14E
100
AcDbEntity
  8
0
  6
CONTINUOUS
 62
           7
100
AcDbCircle
 10
0.0
 20
-32.5
 40
32.5
100
AcDbArc
 50
-52.948211752199
 51
-37.051788247799
  0
ARC
  5
14D
100
AcDbEntity
  8
0
  6
CONTINUOUS
 62
           7
100
AcDbCircle
 10
0.0
 20
-32.5
 40
32.5
100
AcDbArc
 50
-22.948211752199
 51
-7.051788247799
  0
ARC
  5
14C
100
AcDbEntity
  8
0
  6
CONTINUOUS
 62
           7
100
AcDbCircle
 10
0.0
 20
-32.5
 40
32.5
100
AcDbArc
 50
7.0517882478
 51
22.9482117522
  0
ARC
  5
14B
100
AcDbEntity
  8
0
  6
CONTINUOUS
 62
           7
100
AcDbCircle
 10
0.0
 20
-32.5
 40
32.5
100
AcDbArc
 50
67.0517882478
 51
82.9482117522
  0
ARC
  5
14A
100
AcDbEntity
  8
0
  6
CONTINUOUS
 62
           7
100
AcDbCircle
 10
0.0
 20
-32.5
 40
32.5
100
AcDbArc
 50
37.0517882478
 51
52.9482117522
  0
ARC
  5
149
100
AcDbEntity
  8
0
  6
CONTINUOUS
 62
           7
100
AcDbCircle
 10
0.0
 20
-32.5
 40
32.5
100
AcDbArc
 50
116.4741058761
 51
120.0
  0
ARC
  5
148
100
AcDbEntity
  8
0
  6
CONTINUOUS
 62
           7
100
AcDbCircle
 10
0.0
 20
-32.5
 40
32.5
100
AcDbArc
 50
120.0
 51
123.5258941239
  0
ARC
  5
147
100
AcDbEntity
  8
0
  6
CONTINUOUS
 62
           7
100
AcDbCircle
 10
0.0
 20
-32.5
 40
32.5
100
AcDbArc
 50
146.4741058761
 51
150.0
  0
ARC
  5
146
100
AcDbEntity
  8
0
  6
CONTINUOUS
 62
           7
100
AcDbCircle
 10
0.0
 20
-32.5
 40
32.5
100
AcDbArc
 50
150.0
 51
153.5258941239
  0
ARC
  5
145
100
AcDbEntity
  8
0
  6
CONTINUOUS
 62
           7
100
AcDbCircle
 10
0.0
 20
-32.5
 40
32.5
100
AcDbArc
 50
176.4741058761
 51
-179.999999999999
  0
ARC
  5
144
100
AcDbEntity
  8
0
  6
CONTINUOUS
 62
           7
100
AcDbCircle
 10
0.0
 20
-32.5
 40
32.5
100
AcDbArc
 50
-179.999999999999
 51
-176.474105876099
  0
ARC
  5
143
100
AcDbEntity
  8
0
  6
CONTINUOUS
 62
           7
100
AcDbCircle
 10
0.0
 20
-32.5
 40
32.5
100
AcDbArc
 50
-153.525894123899
 51
-149.999999999999
  0
ARC
  5
142
100
AcDbEntity
  8
0
  6
CONTINUOUS
 62
           7
100
AcDbCircle
 10
0.0
 20
-32.5
 40
32.5
100
AcDbArc
 50
-149.999999999999
 51
-146.474105876099
  0
ARC
  5
141
100
AcDbEntity
  8
0
  6
CONTINUOUS
 62
           7
100
AcDbCircle
 10
0.0
 20
-32.5
 40
32.5
100
AcDbArc
 50
-123.525894123899
 51
-119.999999999999
  0
ARC
  5
140
100
AcDbEntity
  8
0
  6
CONTINUOUS
 62
           7
100
AcDbCircle
 10
0.0
 20
-32.5
 40
32.5
100
AcDbArc
 50
-119.999999999999
 51
-116.474105876099
  0
ARC
  5
13F
100
AcDbEntity
  8
0
  6
CONTINUOUS
 62
           7
100
AcDbCircle
 10
0.0
 20
-32.5
 40
32.5
100
AcDbArc
 50
-93.525894123899
 51
-89.999999999999
  0
ARC
  5
13E
100
AcDbEntity
  8
0
  6
CONTINUOUS
 62
           7
100
AcDbCircle
 10
0.0
 20
-32.5
 40
32.5
100
AcDbArc
 50
-89.999999999999
 51
-86.474105876099
  0
ARC
  5
13D
100
AcDbEntity
  8
0
  6
CONTINUOUS
 62
           7
100
AcDbCircle
 10
0.0
 20
-32.5
 40
32.5
100
AcDbArc
 50
-63.525894123899
 51
-59.999999999999
  0
ARC
  5
13C
100
AcDbEntity
  8
0
  6
CONTINUOUS
 62
           7
100
AcDbCircle
 10
0.0
 20
-32.5
 40
32.5
100
AcDbArc
 50
-59.999999999999
 51
-56.474105876099
  0
ARC
  5
13B
100
AcDbEntity
  8
0
  6
CONTINUOUS
 62
           7
100
AcDbCircle
 10
0.0
 20
-32.5
 40
32.5
100
AcDbArc
 50
-33.525894123899
 51
-29.999999999999
  0
ARC
  5
13A
100
AcDbEntity
  8
0
  6
CONTINUOUS
 62
           7
100
AcDbCircle
 10
0.0
 20
-32.5
 40
32.5
100
AcDbArc
 50
-29.999999999999
 51
-26.474105876099
  0
ARC
  5
139
100
AcDbEntity
  8
0
  6
CONTINUOUS
 62
           7
100
AcDbCircle
 10
0.0
 20
-32.5
 40
32.5
100
AcDbArc
 50
-3.525894123899
 51
0.0
  0
ARC
  5
138
100
AcDbEntity
  8
0
  6
CONTINUOUS
 62
           7
100
AcDbCircle
 10
0.0
 20
-32.5
 40
32.5
100
AcDbArc
 50
0.0
 51
3.5258941239
  0
ARC
  5
137
100
AcDbEntity
  8
0
  6
CONTINUOUS
 62
           7
100
AcDbCircle
 10
0.0
 20
-32.5
 40
32.5
100
AcDbArc
 50
26.4741058761
 51
30.0
  0
ARC
  5
136
100
AcDbEntity
  8
0
  6
CONTINUOUS
 62
           7
100
AcDbCircle
 10
0.0
 20
-32.5
 40
32.5
100
AcDbArc
 50
30.0
 51
33.5258941239
  0
ARC
  5
135
100
AcDbEntity
  8
0
  6
CONTINUOUS
 62
           7
100
AcDbCircle
 10
0.0
 20
-32.5
 40
32.5
100
AcDbArc
 50
56.4741058761
 51
60.0
  0
ARC
  5
134
100
AcDbEntity
  8
0
  6
CONTINUOUS
 62
           7
100
AcDbCircle
 10
0.0
 20
-32.5
 40
32.5
100
AcDbArc
 50
60.0
 51
63.5258941239
  0
ARC
  5
133
100
AcDbEntity
  8
0
  6
CONTINUOUS
 62
           7
100
AcDbCircle
 10
0.0
 20
-32.5
 40
32.5
100
AcDbArc
 50
86.4741058761
 51
90.0
  0
ARC
  5
132
100
AcDbEntity
  8
0
  6
CONTINUOUS
 62
           7
100
AcDbCircle
 10
0.0
 20
-32.5
 40
32.5
100
AcDbArc
 50
90.0
 51
93.5258941239
  0
LINE
  5
131
100
AcDbEntity
  8
0
  6
CONTINUOUS
 62
           7
100
AcDbLine
 10
-15.25
 20
-6.0862251846
 11
-14.625
 21
-7.1687569393
  0
LINE
  5
130
100
AcDbEntity
  8
0
  6
CONTINUOUS
 62
           7
100
AcDbLine
 10
-17.25
 20
-2.6221235694
 11
-17.875
 21
-1.5395918147
  0
LINE
  5
12F
100
AcDbEntity
  8
0
  6
CONTINUOUS
 62
           7
100
AcDbLine
 10
-16.25
 20
-4.354174377006
 11
-15.25
 21
-6.0862251846
  0
LINE
  5
12E
100
AcDbEntity
  8
0
  6
CONTINUOUS
 62
           7
100
AcDbLine
 10
-16.25
 20
-4.354174377006
 11
-17.25
 21
-2.6221235694
  0
LINE
  5
12D
100
AcDbEntity
  8
0
  6
CONTINUOUS
 62
           7
100
AcDbLine
 10
-26.4137748154
 20
-17.25
 11
-24.941531629
 21
-18.1
  0
LINE
  5
12C
100
AcDbEntity
  8
0
  6
CONTINUOUS
 62
           7
100
AcDbLine
 10
-29.8778764306
 20
-15.25
 11
-31.350119617
 21
-14.4
  0
LINE
  5
12B
100
AcDbEntity
  8
0
  6
CONTINUOUS
 62
           7
100
AcDbLine
 10
-28.145825622994
 20
-16.25
 11
-26.4137748154
 21
-17.25
  0
LINE
  5
12A
100
AcDbEntity
  8
0
  6
CONTINUOUS
 62
           7
100
AcDbLine
 10
-28.145825622994
 20
-16.25
 11
-29.8778764306
 21
-15.25
  0
LINE
  5
129
100
AcDbEntity
  8
0
  6
CONTINUOUS
 62
           7
100
AcDbLine
 10
-30.5
 20
-32.5
 11
-29.25
 21
-32.5
  0
LINE
  5
128
100
AcDbEntity
  8
0
  6
CONTINUOUS
 62
           7
100
AcDbLine
 10
-34.5
 20
-32.5
 11
-35.75
 21
-32.5
  0
LINE
  5
127
100
AcDbEntity
  8
0
  6
CONTINUOUS
 62
           7
100
AcDbLine
 10
-32.5
 20
-32.5
 11
-30.5
 21
-32.5
  0
LINE
  5
126
100
AcDbEntity
  8
0
  6
CONTINUOUS
 62
           7
100
AcDbLine
 10
-32.5
 20
-32.5
 11
-34.5
 21
-32.5
  0
LINE
  5
125
100
AcDbEntity
  8
0
  6
CONTINUOUS
 62
           7
100
AcDbLine
 10
-26.4137748154
 20
-47.75
 11
-24.941531629
 21
-46.9
  0
LINE
  5
124
100
AcDbEntity
  8
0
  6
CONTINUOUS
 62
           7
100
AcDbLine
 10
-29.8778764306
 20
-49.75
 11
-31.350119617
 21
-50.6
  0
LINE
  5
123
100
AcDbEntity
  8
0
  6
CONTINUOUS
 62
           7
100
AcDbLine
 10
-28.145825622994
 20
-48.75
 11
-26.4137748154
 21
-47.75
  0
LINE
  5
122
100
AcDbEntity
  8
0
  6
CONTINUOUS
 62
           7
100
AcDbLine
 10
-28.145825622994
 20
-48.75
 11
-29.8778764306
 21
-49.75
  0
LINE
  5
121
100
AcDbEntity
  8
0
  6
CONTINUOUS
 62
           7
100
AcDbLine
 10
-15.25
 20
-58.9137748154
 11
-14.625
 21
-57.8312430607
  0
LINE
  5
120
100
AcDbEntity
  8
0
  6
CONTINUOUS
 62
           7
100
AcDbLine
 10
-17.25
 20
-62.3778764306
 11
-17.875
 21
-63.4604081853
  0
LINE
  5
11F
100
AcDbEntity
  8
0
  6
CONTINUOUS
 62
           7
100
AcDbLine
 10
-16.25
 20
-60.645825622994
 11
-15.25
 21
-58.9137748154
  0
LINE
  5
11E
100
AcDbEntity
  8
0
  6
CONTINUOUS
 62
           7
100
AcDbLine
 10
-16.25
 20
-60.645825622994
 11
-17.25
 21
-62.3778764306
  0
LINE
  5
11D
100
AcDbEntity
  8
0
  6
CONTINUOUS
 62
           7
100
AcDbLine
 10
0.0
 20
-63.0
 11
0.0
 21
-61.3
  0
LINE
  5
11C
100
AcDbEntity
  8
0
  6
CONTINUOUS
 62
           7
100
AcDbLine
 10
0.0
 20
-67.0
 11
0.0
 21
-68.7
  0
LINE
  5
11B
100
AcDbEntity
  8
0
  6
CONTINUOUS
 62
           7
100
AcDbLine
 10
0.0
 20
-65.0
 11
0.0
 21
-63.0
  0
LINE
  5
11A
100
AcDbEntity
  8
0
  6
CONTINUOUS
 62
           7
100
AcDbLine
 10
0.0
 20
-65.0
 11
0.0
 21
-67.0
  0
LINE
  5
119
100
AcDbEntity
  8
0
  6
CONTINUOUS
 62
           7
100
AcDbLine
 10
15.25
 20
-58.9137748154
 11
14.625
 21
-57.8312430607
  0
LINE
  5
118
100
AcDbEntity
  8
0
  6
CONTINUOUS
 62
           7
100
AcDbLine
 10
17.25
 20
-62.3778764306
 11
17.875
 21
-63.4604081853
  0
LINE
  5
117
100
AcDbEntity
  8
0
  6
CONTINUOUS
 62
           7
100
AcDbLine
 10
16.25
 20
-60.645825622994
 11
15.25
 21
-58.9137748154
  0
LINE
  5
116
100
AcDbEntity
  8
0
  6
CONTINUOUS
 62
           7
100
AcDbLine
 10
16.25
 20
-60.645825622994
 11
17.25
 21
-62.3778764306
  0
LINE
  5
115
100
AcDbEntity
  8
0
  6
CONTINUOUS
 62
           7
100
AcDbLine
 10
26.4137748154
 20
-47.75
 11
24.941531629
 21
-46.9
  0
LINE
  5
114
100
AcDbEntity
  8
0
  6
CONTINUOUS
 62
           7
100
AcDbLine
 10
29.8778764306
 20
-49.75
 11
31.350119617
 21
-50.6
  0
LINE
  5
113
100
AcDbEntity
  8
0
  6
CONTINUOUS
 62
           7
100
AcDbLine
 10
28.145825622995
 20
-48.75
 11
26.4137748154
 21
-47.75
  0
LINE
  5
112
100
AcDbEntity
  8
0
  6
CONTINUOUS
 62
           7
100
AcDbLine
 10
28.145825622995
 20
-48.75
 11
29.8778764306
 21
-49.75
  0
LINE
  5
111
100
AcDbEntity
  8
0
  6
CONTINUOUS
 62
           7
100
AcDbLine
 10
30.5
 20
-32.5
 11
29.25
 21
-32.5
  0
LINE
  5
110
100
AcDbEntity
  8
0
  6
CONTINUOUS
 62
           7
100
AcDbLine
 10
34.5
 20
-32.5
 11
35.75
 21
-32.5
  0
LINE
  5
10F
100
AcDbEntity
  8
0
  6
CONTINUOUS
 62
           7
100
AcDbLine
 10
32.5
 20
-32.5
 11
30.5
 21
-32.5
  0
LINE
  5
10E
100
AcDbEntity
  8
0
  6
CONTINUOUS
 62
           7
100
AcDbLine
 10
32.5
 20
-32.5
 11
34.5
 21
-32.5
  0
LINE
  5
10D
100
AcDbEntity
  8
0
  6
CONTINUOUS
 62
           7
100
AcDbLine
 10
26.4137748154
 20
-17.25
 11
24.941531629
 21
-18.1
  0
LINE
  5
10C
100
AcDbEntity
  8
0
  6
CONTINUOUS
 62
           7
100
AcDbLine
 10
29.8778764306
 20
-15.25
 11
31.350119617
 21
-14.4
  0
LINE
  5
10B
100
AcDbEntity
  8
0
  6
CONTINUOUS
 62
           7
100
AcDbLine
 10
28.145825622994
 20
-16.25
 11
26.4137748154
 21
-17.25
  0
LINE
  5
10A
100
AcDbEntity
  8
0
  6
CONTINUOUS
 62
           7
100
AcDbLine
 10
28.145825622994
 20
-16.25
 11
29.8778764306
 21
-15.25
  0
LINE
  5
109
100
AcDbEntity
  8
0
  6
CONTINUOUS
 62
           7
100
AcDbLine
 10
15.25
 20
-6.0862251846
 11
14.625
 21
-7.1687569393
  0
LINE
  5
108
100
AcDbEntity
  8
0
  6
CONTINUOUS
 62
           7
100
AcDbLine
 10
17.25
 20
-2.6221235694
 11
17.875
 21
-1.5395918147
  0
LINE
  5
107
100
AcDbEntity
  8
0
  6
CONTINUOUS
 62
           7
100
AcDbLine
 10
16.25
 20
-4.354174377006
 11
15.25
 21
-6.0862251846
  0
LINE
  5
106
100
AcDbEntity
  8
0
  6
CONTINUOUS
 62
           7
100
AcDbLine
 10
16.25
 20
-4.354174377006
 11
17.25
 21
-2.6221235694
  0
LINE
  5
105
100
AcDbEntity
  8
0
  6
CONTINUOUS
 62
           7
100
AcDbLine
 10
0.0
 20
-2.0
 11
0.0
 21
-3.7
  0
LINE
  5
104
100
AcDbEntity
  8
0
  6
CONTINUOUS
 62
           7
100
AcDbLine
 10
0.0
 20
2.0
 11
0.0
 21
3.7
  0
LINE
  5
103
100
AcDbEntity
  8
0
  6
CONTINUOUS
 62
           7
100
AcDbLine
 10
0.0
 20
0.0
 11
0.0
 21
-2.0
  0
LINE
  5
102
100
AcDbEntity
  8
0
  6
CONTINUOUS
 62
           7
100
AcDbLine
 10
0.0
 20
0.0
 11
0.0
 21
2.0
  0
ENDBLK
  5
156
100
AcDbEntity
  8
0
100
AcDbBlockEnd
  0
BLOCK
  5
34
100
AcDbEntity
  8
0
100
AcDbBlockBegin
  2
SW_CENTERMARKSYMBOL_5__S
 70
           0
 10
0.0
 20
0.0
 30
0.0
  3
SW_CENTERMARKSYMBOL_5__S
  1

  0
LINE
  5
15E
100
AcDbEntity
  8
0
  6
CONTINUOUS
 62
           7
100
AcDbLine
 10
8.0
 20
0.0
 11
39.5
 21
0.0
  0
LINE
  5
15D
100
AcDbEntity
  8
0
  6
CONTINUOUS
 62
           7
100
AcDbLine
 10
0.0
 20
-8.0
 11
0.0
 21
-39.5
  0
LINE
  5
15C
100
AcDbEntity
  8
0
  6
CONTINUOUS
 62
           7
100
AcDbLine
 10
-8.0
 20
0.0
 11
-39.5
 21
0.0
  0
LINE
  5
15B
100
AcDbEntity
  8
0
  6
CONTINUOUS
 62
           7
100
AcDbLine
 10
0.0
 20
8.0
 11
0.0
 21
39.5
  0
LINE
  5
15A
100
AcDbEntity
  8
0
  6
CONTINUOUS
 62
           7
100
AcDbLine
 10
0.0
 20
0.0
 11
4.0
 21
0.0
  0
LINE
  5
159
100
AcDbEntity
  8
0
  6
CONTINUOUS
 62
           7
100
AcDbLine
 10
0.0
 20
0.0
 11
0.0
 21
-4.0
  0
LINE
  5
158
100
AcDbEntity
  8
0
  6
CONTINUOUS
 62
           7
100
AcDbLine
 10
0.0
 20
0.0
 11
-4.0
 21
0.0
  0
LINE
  5
157
100
AcDbEntity
  8
0
  6
CONTINUOUS
 62
           7
100
AcDbLine
 10
0.0
 20
0.0
 11
0.0
 21
4.0
  0
ENDBLK
  5
15F
100
AcDbEntity
  8
0
100
AcDbBlockEnd
  0
BLOCK
  5
36
100
AcDbEntity
  8
0
100
AcDbBlockBegin
  2
SW_CENTERMARKSYMBOL_6__S
 70
           0
 10
0.0
 20
0.0
 30
0.0
  3
SW_CENTERMARKSYMBOL_6__S
  1

  0
ARC
  5
17B
100
AcDbEntity
  8
0
  6
CONTINUOUS
 62
           7
100
AcDbCircle
 10
0.0
 20
-8.0
 40
8.0
100
AcDbArc
 50
-61.352110243499
 51
-28.647889756499
  0
ARC
  5
17A
100
AcDbEntity
  8
0
  6
CONTINUOUS
 62
           7
100
AcDbCircle
 10
0.0
 20
-8.0
 40
8.0
100
AcDbArc
 50
-151.352110243499
 51
-118.647889756499
  0
ARC
  5
179
100
AcDbEntity
  8
0
  6
CONTINUOUS
 62
           7
100
AcDbCircle
 10
0.0
 20
-8.0
 40
8.0
100
AcDbArc
 50
118.6478897565
 51
151.3521102435
  0
ARC
  5
178
100
AcDbEntity
  8
0
  6
CONTINUOUS
 62
           7
100
AcDbCircle
 10
0.0
 20
-8.0
 40
8.0
100
AcDbArc
 50
28.6478897565
 51
61.3521102435
  0
ARC
  5
177
100
AcDbEntity
  8
0
  6
CONTINUOUS
 62
           7
100
AcDbCircle
 10
0.0
 20
-8.0
 40
8.0
100
AcDbArc
 50
-14.323944878299
 51
0.0
  0
ARC
  5
176
100
AcDbEntity
  8
0
  6
CONTINUOUS
 62
           7
100
AcDbCircle
 10
0.0
 20
-8.0
 40
8.0
100
AcDbArc
 50
0.0
 51
14.3239448783
  0
ARC
  5
175
100
AcDbEntity
  8
0
  6
CONTINUOUS
 62
           7
100
AcDbCircle
 10
0.0
 20
-8.0
 40
8.0
100
AcDbArc
 50
-104.323944878299
 51
-89.999999999999
  0
ARC
  5
174
100
AcDbEntity
  8
0
  6
CONTINUOUS
 62
           7
100
AcDbCircle
 10
0.0
 20
-8.0
 40
8.0
100
AcDbArc
 50
-89.999999999999
 51
-75.676055121699
  0
ARC
  5
173
100
AcDbEntity
  8
0
  6
CONTINUOUS
 62
           7
100
AcDbCircle
 10
0.0
 20
-8.0
 40
8.0
100
AcDbArc
 50
165.6760551217
 51
-179.999999999999
  0
ARC
  5
172
100
AcDbEntity
  8
0
  6
CONTINUOUS
 62
           7
100
AcDbCircle
 10
0.0
 20
-8.0
 40
8.0
100
AcDbArc
 50
-179.999999999999
 51
-165.676055121699
  0
ARC
  5
171
100
AcDbEntity
  8
0
  6
CONTINUOUS
 62
           7
100
AcDbCircle
 10
0.0
 20
-8.0
 40
8.0
100
AcDbArc
 50
75.6760551217
 51
90.0
  0
ARC
  5
170
100
AcDbEntity
  8
0
  6
CONTINUOUS
 62
           7
100
AcDbCircle
 10
0.0
 20
-8.0
 40
8.0
100
AcDbArc
 50
90.0
 51
104.3239448783
  0
LINE
  5
16F
100
AcDbEntity
  8
0
  6
CONTINUOUS
 62
           7
100
AcDbLine
 10
6.0
 20
-8.0
 11
4.55
 21
-8.0
  0
LINE
  5
16E
100
AcDbEntity
  8
0
  6
CONTINUOUS
 62
           7
100
AcDbLine
 10
10.0
 20
-8.0
 11
11.45
 21
-8.0
  0
LINE
  5
16D
100
AcDbEntity
  8
0
  6
CONTINUOUS
 62
           7
100
AcDbLine
 10
8.0
 20
-8.0
 11
6.0
 21
-8.0
  0
LINE
  5
16C
100
AcDbEntity
  8
0
  6
CONTINUOUS
 62
           7
100
AcDbLine
 10
8.0
 20
-8.0
 11
10.0
 21
-8.0
  0
LINE
  5
16B
100
AcDbEntity
  8
0
  6
CONTINUOUS
 62
           7
100
AcDbLine
 10
0.0
 20
-14.0
 11
0.0
 21
-12.55
  0
LINE
  5
16A
100
AcDbEntity
  8
0
  6
CONTINUOUS
 62
           7
100
AcDbLine
 10
0.0
 20
-18.0
 11
0.0
 21
-19.45
  0
LINE
  5
169
100
AcDbEntity
  8
0
  6
CONTINUOUS
 62
           7
100
AcDbLine
 10
0.0
 20
-16.0
 11
0.0
 21
-14.0
  0
LINE
  5
168
100
AcDbEntity
  8
0
  6
CONTINUOUS
 62
           7
100
AcDbLine
 10
0.0
 20
-16.0
 11
0.0
 21
-18.0
  0
LINE
  5
167
100
AcDbEntity
  8
0
  6
CONTINUOUS
 62
           7
100
AcDbLine
 10
-6.0
 20
-8.0
 11
-4.55
 21
-8.0
  0
LINE
  5
166
100
AcDbEntity
  8
0
  6
CONTINUOUS
 62
           7
100
AcDbLine
 10
-10.0
 20
-8.0
 11
-11.45
 21
-8.0
  0
LINE
  5
165
100
AcDbEntity
  8
0
  6
CONTINUOUS
 62
           7
100
AcDbLine
 10
-8.0
 20
-8.0
 11
-6.0
 21
-8.0
  0
LINE
  5
164
100
AcDbEntity
  8
0
  6
CONTINUOUS
 62
           7
100
AcDbLine
 10
-8.0
 20
-8.0
 11
-10.0
 21
-8.0
  0
LINE
  5
163
100
AcDbEntity
  8
0
  6
CONTINUOUS
 62
           7
100
AcDbLine
 10
0.0
 20
-2.0
 11
0.0
 21
-3.45
  0
LINE
  5
162
100
AcDbEntity
  8
0
  6
CONTINUOUS
 62
           7
100
AcDbLine
 10
0.0
 20
2.0
 11
0.0
 21
3.45
  0
LINE
  5
161
100
AcDbEntity
  8
0
  6
CONTINUOUS
 62
           7
100
AcDbLine
 10
0.0
 20
0.0
 11
0.0
 21
-2.0
  0
LINE
  5
160
100
AcDbEntity
  8
0
  6
CONTINUOUS
 62
           7
100
AcDbLine
 10
0.0
 20
0.0
 11
0.0
 21
2.0
  0
ENDBLK
  5
17C
100
AcDbEntity
  8
0
100
AcDbBlockEnd
  0
ENDSEC
  0
SECTION
  2
ENTITIES
  0
SPLINE
  5
40C
100
AcDbEntity
  8
0
  6
CONTINUOUS
 62
           7
100
AcDbSpline
210
0.0
220
0.0
230
1.0
 70
           0
 71
           3
 72
           9
 73
           6
 74
           9
 42
0.00000000001
 43
0.00000000001
 44
0.00000000001
 40
0.0
 40
0.0
 40
0.0
 40
0.0583864906165182
 40
0.1550987207914603
 40
0.2186661276012864
 40
0.2361254192255226
 40
0.2361254192255226
 40
0.2361254192255226
 10
214.00134015646
 20
105.82391669254
 30
0.0
 10
214.00158551193701
 20
105.84047084127999
 30
0.0
 10
214.00282534868501
 20
105.924122701177
 30
0.0
 10
214.00610298446799
 20
106.03383716657
 30
0.0
 10
214.00665801367299
 20
106.051199698221
 30
0.0
 10
214.00693833645599
 20
106.059968810084
 30
0.0
 11
214.00134015646
 21
105.82391669254
 31
0.0
 11
214.00164085635868
 21
105.84420493274725
 31
0.0
 11
214.0020522451008
 21
105.87196135588906
 31
0.0
 11
214.00312650157645
 21
105.92763270591865
 31
0.0
 11
214.00480306383486
 21
105.99032406543151
 31
0.0
 11
214.00588686277223
 21
106.02636422290456
 31
0.0
 11
214.00653841831817
 21
106.04745849304679
 31
0.0
 11
214.00669819553005
 21
106.05245667489321
 31
0.0
 11
214.00693833645599
 21
106.059968810084
 31
0.0
  0
SPLINE
  5
40B
100
AcDbEntity
  8
0
  6
CONTINUOUS
 62
           7
100
AcDbSpline
210
0.0
220
0.0
230
1.0
 70
           0
 71
           3
 72
           9
 73
           6
 74
           9
 42
0.00000000001
 43
0.00000000001
 44
0.00000000001
 40
0.0
 40
0.0
 40
0.0
 40
0.0174271994242023
 40
0.0809478643730651
 40
0.1771839044216636
 40
0.2345198960655578
 40
0.2345198960655578
 40
0.2345198960655578
 10
214.19926389869499
 20
103.248275572921
 30
0.0
 10
214.19779492139
 20
103.25690897672899
 30
0.0
 10
214.19488641244999
 20
103.27400272765099
 30
0.0
 10
214.17670470691101
 20
103.382187444598
 30
0.0
 10
214.164226627407
 20
103.46401164543499
 30
0.0
 10
214.16182193722801
 20
103.47978024605899
 30
0.0
 11
214.19926389869499
 21
103.248275572921
 31
0.0
 11
214.19800562308936
 21
103.25567065068603
 31
0.0
 11
214.19716875088238
 21
103.26058907636514
 31
0.0
 11
214.19364969572172
 21
103.28140311254633
 31
0.0
 11
214.18765720710454
 21
103.31701791851819
 31
0.0
 11
214.17748798226177
 21
103.37871386377682
 31
0.0
 11
214.16888530812048
 21
103.43346264739313
 31
0.0
 11
214.16479012504061
 21
103.46031654608052
 31
0.0
 11
214.16182193722801
 21
103.47978024605899
 31
0.0
  0
SPLINE
  5
40A
100
AcDbEntity
  8
0
  6
CONTINUOUS
 62
           7
100
AcDbSpline
210
0.0
220
0.0
230
1.0
 70
           0
 71
           3
 72
           9
 73
           6
 74
           9
 42
0.00000000001
 43
0.00000000001
 44
0.00000000001
 40
0.0
 40
0.0
 40
0.0
 40
0.0177172497815275
 40
0.0778295480300136
 40
0.1663866353676705
 40
0.2118399018632363
 40
0.2118399018632363
 40
0.2118399018632363
 10
214.07526854243301
 20
107.05892496139001
 30
0.0
 10
214.07620746865101
 20
107.067778555339
 30
0.0
 10
214.07806650023099
 20
107.085308272202
 30
0.0
 10
214.088905471608
 20
107.18733069567701
 30
0.0
 10
214.09794079396599
 20
107.261298491993
 30
0.0
 10
214.09893438037699
 20
107.269432501423
 30
0.0
 11
214.07526854243301
 21
107.05892496139001
 31
0.0
 11
214.07607853536879
 21
107.06656278044113
 31
0.0
 11
214.07663066174013
 21
107.07176904969651
 31
0.0
 11
214.07880318561536
 21
107.09223628640025
 31
0.0
 11
214.08244908025949
 21
107.12655955150058
 31
0.0
 11
214.08878406035865
 21
107.18435780983307
 31
0.0
 11
214.09487621795924
 21
107.23621029647771
 31
0.0
 11
214.09742304656706
 21
107.25705994547168
 31
0.0
 11
214.09893438037699
 21
107.269432501423
 31
0.0
  0
SPLINE
  5
409
100
AcDbEntity
  8
0
  6
CONTINUOUS
 62
           7
100
AcDbSpline
210
0.0
220
0.0
230
1.0
 70
           0
 71
           3
 72
           9
 73
           6
 74
           9
 42
0.00000000001
 43
0.00000000001
 44
0.00000000001
 40
0.0
 40
0.0
 40
0.0
 40
0.0434497303753072
 40
0.1306486281002456
 40
0.1901377015529618
 40
0.2078994233600152
 40
0.2078994233600152
 40
0.2078994233600152
 10
214.454086793626
 20
102.066413954387
 30
0.0
 10
214.452325155637
 20
102.073089164392
 30
0.0
 10
214.433674201906
 20
102.14376147830301
 30
0.0
 10
214.40936467182601
 20
102.24210739768201
 30
0.0
 10
214.405124080994
 20
102.259263383209
 30
0.0
 10
214.40298232998899
 20
102.267928177977
 30
0.0
 11
214.454086793626
 21
102.066413954387
 31
0.0
 11
214.45121488120699
 21
102.07729622340777
 31
0.0
 11
214.44612241992797
 21
102.09659261046015
 31
0.0
 11
214.43317354670842
 21
102.14658473338261
 31
0.0
 11
214.41922336309372
 21
102.2022233664643
 31
0.0
 11
214.41101294910086
 21
102.23543924805443
 31
0.0
 11
214.40609908965769
 21
102.25531883038943
 31
0.0
 11
214.40483239540865
 21
102.2604434436961
 31
0.0
 11
214.40298232998899
 21
102.267928177977
 31
0.0
  0
SPLINE
  5
408
100
AcDbEntity
  8
0
  6
CONTINUOUS
 62
           7
100
AcDbSpline
210
0.0
220
0.0
230
1.0
 70
           0
 71
           3
 72
           9
 73
           6
 74
           9
 42
0.00000000001
 43
0.00000000001
 44
0.00000000001
 40
0.0
 40
0.0
 40
0.0
 40
0.0620757143844151
 40
0.1612882500848422
 40
0.2261068347422148
 40
0.2434232049087075
 40
0.2434232049087075
 40
0.2434232049087075
 10
214.57751031782601
 20
109.585456772263
 30
0.0
 10
214.582923387595
 20
109.603739425182
 30
0.0
 10
214.60734320100201
 20
109.686217389067
 30
0.0
 10
214.64086354254701
 20
109.79351109026901
 30
0.0
 10
214.64604470486
 20
109.809942793837
 30
0.0
 10
214.648661499882
 20
109.81824178111
 30
0.0
 11
214.57751031782601
 21
109.585456772263
 31
0.0
 11
214.58391976025609
 21
109.60710467564473
 31
0.0
 11
214.59232194800828
 21
109.63548307995188
 31
0.0
 11
214.60865649619046
 21
109.68975768463886
 31
0.0
 11
214.62761763474953
 21
109.75111288046958
 31
0.0
 11
214.63857427230832
 21
109.78615339681534
 31
0.0
 11
214.64495236938973
 21
109.80647852625374
 31
0.0
 11
214.64642581974792
 21
109.81115147375942
 31
0.0
 11
214.648661499882
 21
109.81824178111
 31
0.0
  0
SPLINE
  5
407
100
AcDbEntity
  8
0
  6
CONTINUOUS
 62
           7
100
AcDbSpline
210
0.0
220
0.0
230
1.0
 70
           0
 71
           3
 72
           9
 73
           6
 74
           9
 42
0.00000000001
 43
0.00000000001
 44
0.00000000001
 40
0.0
 40
0.0
 40
0.0
 40
0.0173233785932586
 40
0.0822438307771928
 40
0.1816423526390488
 40
0.2439344132031644
 40
0.2439344132031644
 40
0.2439344132031644
 10
215.34676134404
 20
99.612388981992595
 30
0.0
 10
215.34303740383601
 20
99.620257573601293
 30
0.0
 10
215.33566416748101
 20
99.635837035821098
 30
0.0
 10
215.28776170667101
 20
99.737744783004302
 30
0.0
 10
215.25226890871599
 20
99.816290113802694
 30
0.0
 10
215.24436428960601
 20
99.833782984430201
 30
0.0
 11
215.34676134404
 21
99.612388981992595
 31
0.0
 11
215.34358012461342
 21
99.619110818304137
 31
0.0
 11
215.34148434674191
 21
99.623539144021379
 31
0.0
 11
215.33238779062904
 21
99.642828194467569
 31
0.0
 11
215.31673848081232
 21
99.67609956220673
 31
0.0
 11
215.28955114272983
 21
99.734404820587173
 31
0.0
 11
215.26594267676501
 21
99.786030154133357
 31
0.0
 11
215.25371119595076
 21
99.813098341542243
 31
0.0
 11
215.24436428960601
 21
99.833782984430201
 31
0.0
  0
SPLINE
  5
406
100
AcDbEntity
  8
0
  6
CONTINUOUS
 62
           7
100
AcDbSpline
210
0.0
220
0.0
230
1.0
 70
           0
 71
           3
 72
           9
 73
           6
 74
           9
 42
0.00000000001
 43
0.00000000001
 44
0.00000000001
 40
0.0
 40
0.0
 40
0.0
 40
0.0173360805098549
 40
0.0820779166106828
 40
0.1810726192526959
 40
0.2427298655185507
 40
0.2427298655185507
 40
0.2427298655185507
 10
214.98397301700101
 20
110.761718580986
 30
0.0
 10
214.987184515335
 20
110.76981672292099
 30
0.0
 10
214.993543140535
 20
110.785850687145
 30
0.0
 10
215.03518513892601
 20
110.89007456576
 30
0.0
 10
215.068193612296
 20
110.96922174364001
 30
0.0
 10
215.07542237457099
 20
110.986554751659
 30
0.0
 11
214.98397301700101
 21
110.761718580986
 31
0.0
 11
214.98671739987816
 21
110.76863884055102
 31
0.0
 11
214.98852755184166
 21
110.77320333537605
 31
0.0
 11
214.99640558088694
 21
110.79299144463884
 31
0.0
 11
215.0100084906361
 21
110.82706106888932
 31
0.0
 11
215.03397598209023
 21
110.88651393397782
 31
0.0
 11
215.05552515987279
 21
110.93884553550204
 31
0.0
 11
215.06683368975897
 21
110.96596094361027
 31
0.0
 11
215.07542237457099
 21
110.986554751659
 31
0.0
  0
SPLINE
  5
405
100
AcDbEntity
  8
0
  6
CONTINUOUS
 62
           7
100
AcDbSpline
210
0.0
220
0.0
230
1.0
 70
           0
 71
           3
 72
           9
 73
           6
 74
           9
 42
0.00000000001
 43
0.00000000001
 44
0.00000000001
 40
0.0
 40
0.0
 40
0.0
 40
0.0474436798461367
 40
0.137250504923322
 40
0.1978993356036005
 40
0.2155516376022588
 40
0.2155516376022588
 40
0.2155516376022588
 10
216.1640891042
 20
113.08264335479799
 30
0.0
 10
216.169148625004
 20
113.090688639018
 30
0.0
 10
216.20954371882701
 20
113.15492199697
 30
0.0
 10
216.26612542876501
 20
113.241866223671
 30
0.0
 10
216.27571447382701
 20
113.25658100119399
 30
0.0
 10
216.28055751141301
 20
113.264012838269
 30
0.0
 11
216.1640891042
 21
113.08264335479799
 31
0.0
 11
216.17137460973601
 21
113.09422823901755
 31
0.0
 11
216.183112084736
 21
113.11289232323628
 31
0.0
 11
216.2113792013177
 21
113.15738880825148
 31
0.0
 11
216.24331728288075
 21
113.20681891582956
 31
0.0
 11
216.26228021208203
 21
113.23595376178352
 31
0.0
 11
216.27355270791733
 21
113.25326368396252
 31
0.0
 11
216.2763847917461
 21
113.25760963115488
 31
0.0
 11
216.28055751141301
 21
113.264012838269
 31
0.0
  0
SPLINE
  5
404
100
AcDbEntity
  8
0
  6
CONTINUOUS
 62
           7
100
AcDbSpline
210
0.0
220
0.0
230
1.0
 70
           0
 71
           3
 72
           9
 73
           6
 74
           9
 42
0.00000000001
 43
0.00000000001
 44
0.00000000001
 40
0.0
 40
0.0
 40
0.0
 40
0.0612533300210701
 40
0.1599426977561842
 40
0.2245301826064513
 40
0.2418632871171619
 40
0.2418632871171619
 40
0.2418632871171619
 10
215.92819347795299
 20
98.513815308476097
 30
0.0
 10
215.91879965567401
 20
98.529785976399197
 30
0.0
 10
215.87547733880601
 20
98.603439311092501
 30
0.0
 10
215.82018503539399
 20
98.700757803685605
 30
0.0
 10
215.81170333125701
 20
98.715773796499803
 30
0.0
 10
215.80741956647699
 20
98.723357765490405
 30
0.0
 11
215.92819347795299
 21
98.513815308476097
 31
0.0
 11
215.91700031923821
 21
98.532845072456695
 31
0.0
 11
215.90220848765182
 21
98.557993028552318
 31
0.0
 11
215.87380504938233
 21
98.606783285595753
 31
0.0
 11
215.84205703226564
 21
98.662261491645779
 31
0.0
 11
215.82398125727937
 21
98.694093437074102
 31
0.0
 11
215.81349792606377
 21
98.712596649279419
 31
0.0
 11
215.81108103876369
 21
98.716875501942368
 31
0.0
 11
215.80741956647699
 21
98.723357765490405
 31
0.0
  0
SPLINE
  5
403
100
AcDbEntity
  8
0
  6
CONTINUOUS
 62
           7
100
AcDbSpline
210
0.0
220
0.0
230
1.0
 70
           0
 71
           3
 72
           9
 73
           6
 74
           9
 42
0.00000000001
 43
0.00000000001
 44
0.00000000001
 40
0.0
 40
0.0
 40
0.0
 40
0.0173924625211162
 40
0.0813735175631865
 40
0.1786497312683728
 40
0.237613399932141
 40
0.237613399932141
 40
0.237613399932141
 10
216.85798216428799
 20
114.08203722771501
 30
0.0
 10
216.863277845136
 20
114.088990210326
 30
0.0
 10
216.87376304345
 20
114.102756787964
 30
0.0
 10
216.94100778656701
 20
114.19063836959199
 30
0.0
 10
216.99298971915701
 20
114.256488797101
 30
0.0
 10
217.003532981539
 20
114.269844944144
 30
0.0
 11
216.85798216428799
 21
114.08203722771501
 31
0.0
 11
216.86251419140922
 21
114.08798756850599
 31
0.0
 11
216.86551891107689
 21
114.09193262565697
 31
0.0
 11
216.878372081176
 21
114.10876780608947
 31
0.0
 11
216.90044332672704
 21
114.13762502277291
 31
0.0
 11
216.93895776446175
 21
114.18763478500209
 31
0.0
 11
216.97337215798592
 21
114.23163737805143
 31
0.0
 11
216.99072114445971
 21
114.25361497909934
 31
0.0
 11
217.003532981539
 21
114.269844944144
 31
0.0
  0
SPLINE
  5
402
100
AcDbEntity
  8
0
  6
CONTINUOUS
 62
           7
100
AcDbSpline
210
0.0
220
0.0
230
1.0
 70
           0
 71
           3
 72
           9
 73
           6
 74
           9
 42
0.00000000001
 43
0.00000000001
 44
0.00000000001
 40
0.0
 40
0.0
 40
0.0
 40
0.017695672900047
 40
0.0780464847448054
 40
0.1671393925498392
 40
0.2134143063471704
 40
0.2134143063471704
 40
0.2134143063471704
 10
217.43265662159899
 20
96.420921141768105
 30
0.0
 10
217.42683347399901
 20
96.427641688669695
 30
0.0
 10
217.41530391080701
 20
96.440948061014495
 30
0.0
 10
217.34781854780601
 20
96.518885993688599
 30
0.0
 10
217.299561111679
 20
96.576417188682697
 30
0.0
 10
217.29395102527201
 20
96.583105380201999
 30
0.0
 11
217.43265662159899
 21
96.420921141768105
 31
0.0
 11
217.42763572929027
 21
96.426715798638668
 31
0.0
 11
217.42421934756408
 21
96.43065867544712
 31
0.0
 11
217.41071950869915
 21
96.446244257913392
 31
0.0
 11
217.38805086561854
 21
96.472422234177515
 31
0.0
 11
217.34993641802612
 21
96.516736154008896
 31
0.0
 11
217.31605771087388
 21
96.556750394480815
 31
0.0
 11
217.30228273987595
 21
96.573172538012045
 31
0.0
 11
217.29395102527201
 21
96.583105380201999
 31
0.0
  0
SPLINE
  5
401
100
AcDbEntity
  8
0
  6
CONTINUOUS
 62
           7
100
AcDbSpline
210
0.0
220
0.0
230
1.0
 70
           0
 71
           3
 72
           9
 73
           6
 74
           9
 42
0.00000000001
 43
0.00000000001
 44
0.00000000001
 40
0.0
 40
0.0
 40
0.0
 40
0.0564650002811438
 40
0.1520957989508295
 40
0.2153290603980422
 40
0.2327632190488681
 40
0.2327632190488681
 40
0.2327632190488681
 10
218.60775474276599
 20
115.98695231464001
 30
0.0
 10
218.619159580961
 20
115.99729218751099
 30
0.0
 10
218.68001408908401
 20
116.052464200198
 30
0.0
 10
218.76195792154499
 20
116.124522573192
 30
0.0
 10
218.77500619631101
 20
116.135952366975
 30
0.0
 10
218.78159634586601
 20
116.141725088025
 30
0.0
 11
218.60775474276599
 21
115.98695231464001
 31
0.0
 11
218.62195637392446
 21
115.99982782047582
 31
0.0
 11
218.64175159100978
 21
116.01777459224125
 31
0.0
 11
218.68278031945215
 21
116.05463597491432
 31
0.0
 11
218.72934150863085
 21
116.09584090702006
 31
0.0
 11
218.75636087595109
 21
116.11959204214953
 31
0.0
 11
218.77218615208355
 21
116.13348211519408
 31
0.0
 11
218.77594872264288
 21
116.13677798429227
 31
0.0
 11
218.78159634586601
 21
116.141725088025
 31
0.0
  0
SPLINE
  5
400
100
AcDbEntity
  8
0
  6
CONTINUOUS
 62
           7
100
AcDbSpline
210
0.0
220
0.0
230
1.0
 70
           0
 71
           3
 72
           9
 73
           6
 74
           9
 42
0.00000000001
 43
0.00000000001
 44
0.00000000001
 40
0.0
 40
0.0
 40
0.0
 40
0.0597203593444351
 40
0.1574321298603107
 40
0.2215863852030828
 40
0.2389508564627568
 40
0.2389508564627568
 40
0.2389508564627568
 10
218.28682191487599
 20
95.521975065136601
 30
0.0
 10
218.274191816366
 20
95.534123407028304
 30
0.0
 10
218.213368872036
 20
95.592626349187498
 30
0.0
 10
218.13451539644799
 20
95.670793558297206
 30
0.0
 10
218.12227370884401
 20
95.682985271193999
 30
0.0
 10
218.11609092917499
 20
95.689142810667207
 30
0.0
 11
218.28682191487599
 21
95.521975065136601
 31
0.0
 11
218.27158119173609
 21
95.536634453203519
 31
0.0
 11
218.25111921933643
 21
95.556315933620894
 31
0.0
 11
218.21090632004234
 21
95.595345316500158
 31
0.0
 11
218.16576831676096
 21
95.639812634004699
 31
0.0
 11
218.13992011137543
 21
95.665447010001785
 31
0.0
 11
218.12488133584492
 21
95.680388289408015
 31
0.0
 11
218.12137992067696
 21
95.683875410615798
 31
0.0
 11
218.11609092917499
 21
95.689142810667207
 31
0.0
  0
SPLINE
  5
3FF
100
AcDbEntity
  8
0
  6
CONTINUOUS
 62
           7
100
AcDbSpline
210
0.0
220
0.0
230
1.0
 70
           0
 71
           3
 72
           9
 73
           6
 74
           9
 42
0.00000000001
 43
0.00000000001
 44
0.00000000001
 40
0.0
 40
0.0
 40
0.0
 40
0.0178149057768257
 40
0.0769169469045306
 40
0.1632053956432988
 40
0.2051965843290057
 40
0.2051965843290057
 40
0.2051965843290057
 10
219.55830912854699
 20
116.773627454901
 30
0.0
 10
219.56546119984301
 20
116.77901185736
 30
0.0
 10
219.57962198509401
 20
116.789672736393
 30
0.0
 10
219.65987360650701
 20
116.85013500619
 30
0.0
 10
219.71813877168799
 20
116.89260019371901
 30
0.0
 10
219.72294088270701
 20
116.896100098754
 30
0.0
 11
219.55830912854699
 21
116.773627454901
 31
0.0
 11
219.5644931347899
 21
116.77828305424313
 31
0.0
 11
219.5687410109266
 21
116.78148104735146
 31
0.0
 11
219.58505742393837
 21
116.79376937620043
 31
0.0
 11
219.61224471463893
 21
116.81425098466426
 31
0.0
 11
219.65776453003446
 21
116.84830514813102
 31
0.0
 11
219.69906619248491
 21
116.87869959547983
 31
0.0
 11
219.71457115464199
 21
116.89000002041796
 31
0.0
 11
219.72294088270701
 21
116.896100098754
 31
0.0
  0
SPLINE
  5
3FE
100
AcDbEntity
  8
0
  6
CONTINUOUS
 62
           7
100
AcDbSpline
210
0.0
220
0.0
230
1.0
 70
           0
 71
           3
 72
           8
 73
           5
 74
           7
 42
0.00000000001
 43
0.00000000001
 44
0.00000000001
 40
0.0
 40
0.0
 40
0.0
 40
0.0134714853531868
 40
0.0714391378268786
 40
0.1705675669118849
 40
0.1705675669118849
 40
0.1705675669118849
 10
220.30224913548801
 20
93.910570944214498
 30
0.0
 10
220.29638104118001
 20
93.914344257725105
 30
0.0
 10
220.285455081945
 20
93.921369889460294
 30
0.0
 10
220.19996743677899
 20
93.978725186877995
 30
0.0
 10
220.16039334055199
 20
94.0052762055046
 30
0.0
 11
220.30224913548801
 21
93.910570944214498
 31
0.0
 11
220.29733297980397
 21
93.913732140284111
 31
0.0
 11
220.29432070136795
 21
93.915669101471778
 31
0.0
 11
220.27978536058961
 21
93.925235645482559
 31
0.0
 11
220.25391057710053
 21
93.942533701537883
 31
0.0
 11
220.20355969780263
 21
93.976315070199604
 31
0.0
 11
220.16039334055199
 21
94.0052762055046
 31
0.0
  0
SPLINE
  5
3FD
100
AcDbEntity
  8
0
  6
CONTINUOUS
 62
           7
100
AcDbSpline
210
0.0
220
0.0
230
1.0
 70
           0
 71
           3
 72
           9
 73
           6
 74
           9
 42
0.00000000001
 43
0.00000000001
 44
0.00000000001
 40
0.0
 40
0.0
 40
0.0
 40
0.0436549455138423
 40
0.1309890953188799
 40
0.1905386306177472
 40
0.2082939028392246
 40
0.2082939028392246
 40
0.2082939028392246
 10
221.34027426879999
 20
93.289934786523006
 30
0.0
 10
221.33407546337199
 20
93.293266387183394
 30
0.0
 10
221.269567061153
 20
93.327936976206303
 30
0.0
 10
221.180990545085
 20
93.377362571624403
 30
0.0
 10
221.16556312567801
 20
93.385969467208596
 30
0.0
 10
221.15777136575599
 20
93.390316458905403
 30
0.0
 11
221.34027426879999
 21
93.289934786523006
 31
0.0
 11
221.33025046010715
 21
93.295322167696341
 31
0.0
 11
221.31257664488487
 21
93.304821109895556
 31
0.0
 11
221.26715299357096
 21
93.329504881324056
 31
0.0
 11
221.21690120709292
 21
93.357324462988061
 31
0.0
 11
221.18699719336945
 21
93.374010563088149
 31
0.0
 11
221.16910647621509
 21
93.383992646115829
 31
0.0
 11
221.16450102333175
 21
93.386562009859603
 31
0.0
 11
221.15777136575599
 21
93.390316458905403
 31
0.0
  0
SPLINE
  5
3FC
100
AcDbEntity
  8
0
  6
CONTINUOUS
 62
           7
100
AcDbSpline
210
0.0
220
0.0
230
1.0
 70
           0
 71
           3
 72
           9
 73
           6
 74
           9
 42
0.00000000001
 43
0.00000000001
 44
0.00000000001
 40
0.0
 40
0.0
 40
0.0
 40
0.0505153700291715
 40
0.1423140956596111
 40
0.203847685499339
 40
0.2214224421482371
 40
0.2214224421482371
 40
0.2214224421482371
 10
221.767284272278
 20
118.140881637598
 30
0.0
 10
221.77757910820901
 20
118.146022611221
 30
0.0
 10
221.84737669822599
 20
118.18087771446299
 30
0.0
 10
221.94255198844499
 20
118.226583197956
 30
0.0
 10
221.95832271856699
 20
118.23413660392001
 30
0.0
 10
221.96628788303801
 20
118.23795152690499
 30
0.0
 11
221.767284272278
 21
118.140881637598
 31
0.0
 11
221.78119918324762
 21
118.14783038265244
 31
0.0
 11
221.80235424429452
 21
118.15839467056981
 31
0.0
 11
221.85036623966499
 21
118.18209782249717
 31
0.0
 11
221.90435731791351
 21
118.20824119049291
 31
0.0
 11
221.93607009467945
 21
118.22346653030657
 31
0.0
 11
221.95481908391437
 21
118.23245853482136
 31
0.0
 11
221.95943810102159
 21
118.23467081739159
 31
0.0
 11
221.96628788303801
 21
118.23795152690499
 31
0.0
  0
SPLINE
  5
3FB
100
AcDbEntity
  8
0
  6
CONTINUOUS
 62
           7
100
AcDbSpline
210
0.0
220
0.0
230
1.0
 70
           0
 71
           3
 72
           9
 73
           6
 74
           9
 42
0.00000000001
 43
0.00000000001
 44
0.00000000001
 40
0.0
 40
0.0
 40
0.0
 40
0.0173566263755909
 40
0.0818121816547492
 40
0.1801604853684278
 40
0.2408033113677911
 40
0.2408033113677911
 40
0.2408033113677911
 10
222.88468276899499
 20
118.63686678793501
 30
0.0
 10
222.892803036228
 20
118.640050324195
 30
0.0
 10
222.90888080302901
 20
118.646353583943
 30
0.0
 10
223.012919260964
 20
118.686849421716
 30
0.0
 10
223.09263625349001
 20
118.71650586339
 30
0.0
 10
223.10961486589301
 20
118.72282227363699
 30
0.0
 11
222.88468276899499
 21
118.63686678793501
 31
0.0
 11
222.89162570242871
 21
118.63958875258257
 31
0.0
 11
222.89621396826371
 21
118.64138757400525
 31
0.0
 11
222.91601154155126
 21
118.64912025074628
 31
0.0
 11
222.95007059188333
 21
118.6623862610939
 31
0.0
 11
223.00953487419054
 21
118.68531983196374
 31
0.0
 11
223.06223038295076
 21
118.70519422332907
 31
0.0
 11
223.08927943895594
 21
118.71525705593652
 31
0.0
 11
223.10961486589301
 21
118.72282227363699
 31
0.0
  0
SPLINE
  5
3FA
100
AcDbEntity
  8
0
  6
CONTINUOUS
 62
           7
100
AcDbSpline
210
0.0
220
0.0
230
1.0
 70
           0
 71
           3
 72
           9
 73
           6
 74
           9
 42
0.00000000001
 43
0.00000000001
 44
0.00000000001
 40
0.0
 40
0.0
 40
0.0
 40
0.0174698237432479
 40
0.0804474898291356
 40
0.1754580213674425
 40
0.2308827776477726
 40
0.2308827776477726
 40
0.2308827776477726
 10
223.74271398227799
 20
92.267516756916706
 30
0.0
 10
223.734352780162
 20
92.270192483888493
 30
0.0
 10
223.717797984828
 20
92.275490300132404
 30
0.0
 10
223.614447637165
 20
92.308760563749303
 30
0.0
 10
223.53730771754701
 20
92.334897480299503
 30
0.0
 10
223.52338425632701
 20
92.339615094030506
 30
0.0
 11
223.74271398227799
 21
92.267516756916706
 31
0.0
 11
223.73554432873118
 21
92.26981116806806
 31
0.0
 11
223.73075777232265
 21
92.27134294757856
 31
0.0
 11
223.71073848563091
 21
92.277769031739282
 31
0.0
 11
223.67660020054501
 21
92.288752579113762
 31
0.0
 11
223.61780594827721
 21
92.307885395760536
 31
0.0
 11
223.56572831823391
 21
92.32526787642982
 31
0.0
 11
223.54093200241374
 21
92.333669482764833
 31
0.0
 11
223.52338425632701
 21
92.339615094030506
 31
0.0
  0
SPLINE
  5
3F9
100
AcDbEntity
  8
0
  6
CONTINUOUS
 62
           7
100
AcDbSpline
210
0.0
220
0.0
230
1.0
 70
           0
 71
           3
 72
           9
 73
           6
 74
           9
 42
0.00000000001
 43
0.00000000001
 44
0.00000000001
 40
0.0
 40
0.0
 40
0.0
 40
0.0600434375823886
 40
0.1579616064954013
 40
0.2222076586989539
 40
0.2395655772418664
 40
0.2395655772418664
 40
0.2395655772418664
 10
224.94020738456601
 20
91.943115683758904
 30
0.0
 10
224.92289725401
 20
91.946979217802905
 30
0.0
 10
224.840314454881
 20
91.965411283052603
 30
0.0
 10
224.73214037816899
 20
91.991268693980302
 30
0.0
 10
224.71535263499501
 20
91.995323715875003
 30
0.0
 10
224.70687382672199
 20
91.997371742988307
 30
0.0
 11
224.94020738456601
 21
91.943115683758904
 31
0.0
 11
224.91937706457449
 21
91.947764906373067
 31
0.0
 11
224.89150636571193
 21
91.953985506127566
 31
0.0
 11
224.83678298666877
 21
91.966458151021541
 31
0.0
 11
224.77499667120117
 21
91.981024531853336
 31
0.0
 11
224.73955024265365
 21
91.989505773766567
 31
0.0
 11
224.71892354307545
 21
91.994461175252354
 31
0.0
 11
224.71412565994692
 21
91.995620087497684
 31
0.0
 11
224.70687382672199
 21
91.997371742988307
 31
0.0
  0
SPLINE
  5
3F8
100
AcDbEntity
  8
0
  6
CONTINUOUS
 62
           7
100
AcDbSpline
210
0.0
220
0.0
230
1.0
 70
           0
 71
           3
 72
           9
 73
           6
 74
           9
 42
0.00000000001
 43
0.00000000001
 44
0.00000000001
 40
0.0
 40
0.0
 40
0.0
 40
0.062526518476034
 40
0.1620258165681853
 40
0.226971307557871
 40
0.2442786647405769
 40
0.2442786647405769
 40
0.2442786647405769
 10
225.35817634131899
 20
119.353141392136
 30
0.0
 10
225.377189591893
 20
119.35680286729701
 30
0.0
 10
225.46195988976001
 20
119.373127500416
 30
0.0
 10
225.57290446032599
 20
119.392774386715
 30
0.0
 10
225.589868828834
 20
119.395731850926
 30
0.0
 10
225.59843684364299
 20
119.397225546206
 30
0.0
 11
225.35817634131899
 21
119.353141392136
 31
0.0
 11
225.38061459260112
 21
119.35746243652581
 31
0.0
 11
225.40990284529957
 21
119.36310261937325
 31
0.0
 11
225.46572771544749
 21
119.37359317638771
 31
0.0
 11
225.52908823697055
 21
119.38501508534564
 31
0.0
 11
225.56529910081369
 21
119.39141835260158
 31
0.0
 11
225.58629924563206
 21
119.3951095516307
 31
0.0
 11
225.59111843673577
 21
119.39594969992218
 31
0.0
 11
225.59843684364299
 21
119.397225546206
 31
0.0
  0
SPLINE
  5
3F7
100
AcDbEntity
  8
0
  6
CONTINUOUS
 62
           7
100
AcDbSpline
210
0.0
220
0.0
230
1.0
 70
           0
 71
           3
 72
           9
 73
           6
 74
           9
 42
0.00000000001
 43
0.00000000001
 44
0.00000000001
 40
0.0
 40
0.0
 40
0.0
 40
0.0173640190407003
 40
0.0817239447009877
 40
0.1798556750038216
 40
0.240158791988674
 40
0.240158791988674
 40
0.240158791988674
 10
226.5904012686
 20
119.533567512433
 30
0.0
 10
226.599083057694
 20
119.534442401047
 30
0.0
 10
226.616272500592
 20
119.53617477298199
 30
0.0
 10
226.72718090994599
 20
119.547080797462
 30
0.0
 10
226.81170905446999
 20
119.554112632543
 30
0.0
 10
226.829540513495
 20
119.55559601869599
 30
0.0
 11
226.5904012686
 21
119.533567512433
 31
0.0
 11
226.59782567762153
 21
119.53431569886199
 31
0.0
 11
226.60273532649811
 21
119.53481048092095
 31
0.0
 11
226.62387039710597
 21
119.5369136183795
 31
0.0
 11
226.66020126074164
 21
119.54049444663306
 31
0.0
 11
226.72352480547889
 21
119.54652305819232
 31
0.0
 11
226.77953614128199
 21
119.55143619121228
 31
0.0
 11
226.80812369092925
 21
119.55381436874858
 31
0.0
 11
226.829540513495
 21
119.55559601869599
 31
0.0
  0
SPLINE
  5
3F6
100
AcDbEntity
  8
0
  6
CONTINUOUS
 62
           7
100
AcDbSpline
210
0.0
220
0.0
230
1.0
 70
           0
 71
           3
 72
           9
 73
           6
 74
           9
 42
0.00000000001
 43
0.00000000001
 44
0.00000000001
 40
0.0
 40
0.0
 40
0.0
 40
0.017318147873009
 40
0.0823149577933625
 40
0.1818862201154948
 40
0.2444502753140881
 40
0.2444502753140881
 40
0.2444502753140881
 10
227.498887694014
 20
91.613618413472807
 30
0.0
 10
227.49019064316201
 20
91.613931521117493
 30
0.0
 10
227.47297087362401
 20
91.614551460171995
 30
0.0
 10
227.36029258439001
 20
91.618913616856105
 30
0.0
 10
227.27403704513301
 20
91.623545786931601
 30
0.0
 10
227.25469078220601
 20
91.624584736788904
 30
0.0
 11
227.498887694014
 21
91.613618413472807
 31
0.0
 11
227.49145919407246
 21
91.613885851269814
 31
0.0
 11
227.48656779595183
 21
91.614061949371433
 31
0.0
 11
227.46524442039666
 21
91.614859795223381
 31
0.0
 11
227.42846813838688
 21
91.616274311178131
 31
0.0
 11
227.36409356403783
 21
91.618964972658915
 31
0.0
 11
227.30732094898428
 21
91.621758345745278
 31
0.0
 11
227.27752145536405
 21
91.623358664099342
 31
0.0
 11
227.25469078220601
 21
91.624584736788904
 31
0.0
  0
SPLINE
  5
3F5
100
AcDbEntity
  8
0
  6
CONTINUOUS
 62
           7
100
AcDbSpline
210
0.0
220
0.0
230
1.0
 70
           0
 71
           3
 72
           9
 73
           6
 74
           9
 42
0.00000000001
 43
0.00000000001
 44
0.00000000001
 40
0.0
 40
0.0
 40
0.0
 40
0.0609119060073217
 40
0.1593836562342945
 40
0.2238747325466775
 40
0.2412147902322034
 40
0.2412147902322034
 40
0.2412147902322034
 10
228.74114400990501
 20
91.624414304757707
 30
0.0
 10
228.72286546137201
 20
91.623433415554302
 30
0.0
 10
228.63777378022399
 20
91.618867105970395
 30
0.0
 10
228.52612758912301
 20
91.614556235810696
 30
0.0
 10
228.50888607808801
 20
91.613933122684401
 30
0.0
 10
228.50017808893901
 20
91.613618413472807
 30
0.0
 11
228.74114400990501
 21
91.624414304757707
 31
0.0
 11
228.7193051926439
 21
91.623242359401715
 31
0.0
 11
228.6903458379266
 21
91.621688301740591
 31
0.0
 11
228.63405099145186
 21
91.618921184418923
 31
0.0
 11
228.57031056743273
 21
91.616262223994283
 31
0.0
 11
228.53377632711636
 21
91.61485996406978
 31
0.0
 11
228.51253956278663
 21
91.614065160663429
 31
0.0
 11
228.50762245197544
 21
91.613887454876263
 31
0.0
 11
228.50017808893901
 21
91.613618413472807
 31
0.0
  0
SPLINE
  5
3F4
100
AcDbEntity
  8
0
  6
CONTINUOUS
 62
           7
100
AcDbSpline
210
0.0
220
0.0
230
1.0
 70
           0
 71
           3
 72
           9
 73
           6
 74
           9
 42
0.00000000001
 43
0.00000000001
 44
0.00000000001
 40
0.0
 40
0.0
 40
0.0
 40
0.0509185921096218
 40
0.1429789230578812
 40
0.2046288991549062
 40
0.2221930213415183
 40
0.2221930213415183
 40
0.2221930213415183
 10
229.18742808331001
 20
119.554091932738
 30
0.0
 10
229.19915778984401
 20
119.553113914973
 30
0.0
 10
229.27718340239099
 20
119.546608173761
 30
0.0
 10
229.38249326728899
 20
119.53618636871801
 30
0.0
 10
229.39988207623699
 20
119.53444628942
 30
0.0
 10
229.40866451439999
 20
119.533567512434
 30
0.0
 11
229.18742808331001
 21
119.554091932738
 31
0.0
 11
229.20317211146966
 21
119.55277920260373
 31
0.0
 11
229.22694478288054
 21
119.5507970477309
 31
0.0
 11
229.2803918199364
 21
119.5460949327765
 31
0.0
 11
229.34025569208313
 21
119.54036633585318
 31
0.0
 11
229.37531717166053
 21
119.53689279751411
 31
0.0
 11
229.39602645998104
 21
119.53483211676725
 31
0.0
 11
229.40111378171378
 21
119.53432305201031
 31
0.0
 11
229.40866451439999
 21
119.533567512434
 31
0.0
  0
SPLINE
  5
3F3
100
AcDbEntity
  8
0
  6
CONTINUOUS
 62
           7
100
AcDbSpline
210
0.0
220
0.0
230
1.0
 70
           0
 71
           3
 72
           9
 73
           6
 74
           9
 42
0.00000000001
 43
0.00000000001
 44
0.00000000001
 40
0.0
 40
0.0
 40
0.0
 40
0.0177249897088355
 40
0.0777555258125109
 40
0.1661291615528105
 40
0.2113018290688504
 40
0.2113018290688504
 40
0.2113018290688504
 10
230.40062893931
 20
119.397225546206
 30
0.0
 10
230.409401618191
 20
119.395683764113
 30
0.0
 10
230.42677112557399
 20
119.39263110530599
 30
0.0
 10
230.52764789220899
 20
119.37488761771699
 30
0.0
 10
230.600634470046
 20
119.360862401587
 30
0.0
 10
230.60850223343999
 20
119.359350519741
 30
0.0
 11
230.40062893931
 21
119.397225546206
 31
0.0
 11
230.40819832776356
 21
119.39589524018081
 31
0.0
 11
230.41336113536221
 21
119.39498788629116
 31
0.0
 11
230.43361996924054
 21
119.3914259590269
 31
0.0
 11
230.46757649045196
 21
119.38545373920448
 31
0.0
 11
230.5247046726027
 21
119.37520886794776
 31
0.0
 11
230.57594641554076
 21
119.3656064971526
 31
0.0
 11
230.5964293972682
 21
119.36167045501689
 31
0.0
 11
230.60850223343999
 21
119.359350519741
 31
0.0
  0
SPLINE
  5
3F2
100
AcDbEntity
  8
0
  6
CONTINUOUS
 62
           7
100
AcDbSpline
210
0.0
220
0.0
230
1.0
 70
           0
 71
           3
 72
           9
 73
           6
 74
           9
 42
0.00000000001
 43
0.00000000001
 44
0.00000000001
 40
0.0
 40
0.0
 40
0.0
 40
0.0175394436844909
 40
0.0796553425673344
 40
0.1727227025010881
 40
0.2251269456565802
 40
0.2251269456565802
 40
0.2251269456565802
 10
231.29219195623099
 20
91.997371742988307
 30
0.0
 10
231.283623207429
 20
91.995307478319106
 30
0.0
 10
231.266657465956
 20
91.991220326096993
 30
0.0
 10
231.162814840582
 20
91.966344138696499
 30
0.0
 10
231.08536908085699
 20
91.949046262673207
 30
0.0
 10
231.07294791195699
 20
91.946271935964205
 30
0.0
 11
231.29219195623099
 21
91.997371742988307
 31
0.0
 11
231.284831465851
 21
91.995598555258056
 31
0.0
 11
231.27988749231508
 21
91.994407521405748
 31
0.0
 11
231.2595735842178
 21
91.98952779915389
 31
0.0
 11
231.22509191264407
 21
91.981263023015828
 31
0.0
 11
231.16599737427512
 21
91.967307224192879
 31
0.0
 11
231.1132679032925
 21
91.95527759636272
 31
0.0
 11
231.08923849424082
 21
91.949910514418335
 31
0.0
 11
231.07294791195699
 21
91.946271935964205
 31
0.0
  0
SPLINE
  5
3F1
100
AcDbEntity
  8
0
  6
CONTINUOUS
 62
           7
100
AcDbSpline
210
0.0
220
0.0
230
1.0
 70
           0
 71
           3
 72
           9
 73
           6
 74
           9
 42
0.00000000001
 43
0.00000000001
 44
0.00000000001
 40
0.0
 40
0.0
 40
0.0
 40
0.0467185033350482
 40
0.1360533200856187
 40
0.1964925623510044
 40
0.2141642508084913
 40
0.2141642508084913
 40
0.2141642508084913
 10
232.45984345492201
 20
92.334260920549099
 30
0.0
 10
232.45128882016201
 20
92.331364821111094
 30
0.0
 10
232.37989521583199
 20
92.307195118582896
 30
0.0
 10
232.28155067208999
 20
92.275598217953402
 30
0.0
 10
232.264807898561
 20
92.270228688910095
 30
0.0
 10
232.25635180067499
 20
92.267516756916706
 30
0.0
 11
232.45984345492201
 21
92.334260920549099
 31
0.0
 11
232.44729862742099
 21
92.33001397501657
 31
0.0
 11
232.42677341443803
 21
92.323065337295034
 31
0.0
 11
232.37695002338575
 21
92.306451070754164
 31
0.0
 11
232.32123624744096
 21
92.288348708555901
 31
0.0
 11
232.28823333692992
 21
92.277747156697373
 31
0.0
 11
232.26859575609876
 21
92.271443482326816
 31
0.0
 11
232.26364083847392
 21
92.269854404265914
 31
0.0
 11
232.25635180067499
 21
92.267516756916706
 31
0.0
  0
SPLINE
  5
3F0
100
AcDbEntity
  8
0
  6
CONTINUOUS
 62
           7
100
AcDbSpline
210
0.0
220
0.0
230
1.0
 70
           0
 71
           3
 72
           9
 73
           6
 74
           9
 42
0.00000000001
 43
0.00000000001
 44
0.00000000001
 40
0.0
 40
0.0
 40
0.0
 40
0.0544168623072379
 40
0.1487321346781684
 40
0.2113821534346941
 40
0.2288631270691107
 40
0.2288631270691107
 40
0.2288631270691107
 10
232.900638429487
 20
118.71864994850201
 30
0.0
 10
232.91381077281599
 20
118.713747311543
 30
0.0
 10
232.98946414075701
 20
118.68558975533099
 30
0.0
 10
233.090007454285
 20
118.646410973393
 30
0.0
 10
233.10620319780401
 20
118.64006957316001
 30
0.0
 10
233.11438301395799
 20
118.63686678793501
 30
0.0
 11
232.900638429487
 21
118.71864994850201
 31
0.0
 11
232.91743754145102
 21
118.7123974583311
 31
0.0
 11
232.94149019068513
 21
118.70344526173641
 31
0.0
 11
232.99257394443856
 21
118.68416832209233
 31
0.0
 11
233.04987730555513
 21
118.66204851597101
 31
0.0
 11
233.08314055752754
 21
118.64908086096165
 31
0.0
 11
233.10267001598513
 21
118.64145298108959
 31
0.0
 11
233.10736485638779
 21
118.63961472883615
 31
0.0
 11
233.11438301395799
 21
118.63686678793501
 31
0.0
  0
SPLINE
  5
3EF
100
AcDbEntity
  8
0
  6
CONTINUOUS
 62
           7
100
AcDbSpline
210
0.0
220
0.0
230
1.0
 70
           0
 71
           3
 72
           9
 73
           6
 74
           9
 42
0.00000000001
 43
0.00000000001
 44
0.00000000001
 40
0.0
 40
0.0
 40
0.0
 40
0.017386852824661
 40
0.0814438218317252
 40
0.1788909599383556
 40
0.2381215194149487
 40
0.2381215194149487
 40
0.2381215194149487
 10
234.032777899915
 20
118.23795152690499
 30
0.0
 10
234.040660432462
 20
118.23418263384301
 30
0.0
 10
234.05626748758701
 20
118.226720397382
 30
0.0
 10
234.156133141982
 20
118.17869187298101
 30
0.0
 10
234.23134736438899
 20
118.141112580712
 30
0.0
 10
234.246725512708
 20
118.133429194356
 30
0.0
 11
234.032777899915
 21
118.23795152690499
 31
0.0
 11
234.03952275867189
 21
118.23472659237775
 31
0.0
 11
234.04399226984859
 21
118.23258957492003
 31
0.0
 11
234.06310104917074
 21
118.223425333468
 31
0.0
 11
234.09587695166056
 21
118.20767096418805
 31
0.0
 11
234.15276413912005
 21
118.18009344898422
 31
0.0
 11
234.20291332085577
 21
118.15531908578683
 31
0.0
 11
234.22808339058543
 21
118.14274336039169
 31
0.0
 11
234.246725512708
 21
118.133429194356
 31
0.0
  0
SPLINE
  5
3EE
100
AcDbEntity
  8
0
  6
CONTINUOUS
 62
           7
100
AcDbSpline
210
0.0
220
0.0
230
1.0
 70
           0
 71
           3
 72
           9
 73
           6
 74
           9
 42
0.00000000001
 43
0.00000000001
 44
0.00000000001
 40
0.0
 40
0.0
 40
0.0
 40
0.0175197281597859
 40
0.0798766569449369
 40
0.1734872648403071
 40
0.2267346256161502
 40
0.2267346256161502
 40
0.2267346256161502
 10
234.84129441719699
 20
93.390316458905403
 30
0.0
 10
234.83360947211
 20
93.386020909747003
 30
0.0
 10
234.81839362788301
 20
93.377515916395694
 30
0.0
 10
234.72467178832201
 20
93.325307456541594
 30
0.0
 10
234.65424890134599
 20
93.287481058740596
 30
0.0
 10
234.642551576758
 20
93.281198049450495
 30
0.0
 11
234.84129441719699
 21
93.390316458905403
 31
0.0
 11
234.8346963674592
 21
93.386628436846991
 31
0.0
 11
234.83027210841985
 21
93.384155468988524
 31
0.0
 11
234.81199558375911
 21
93.373957476290471
 31
0.0
 11
234.78092297085075
 21
93.356642603382014
 31
0.0
 11
234.72751229666667
 21
93.327113391776095
 31
0.0
 11
234.67978263917183
 21
93.30119605063912
 31
0.0
 11
234.65770800465543
 21
93.289339054392684
 31
0.0
 11
234.642551576758
 21
93.281198049450495
 31
0.0
  0
SPLINE
  5
3ED
100
AcDbEntity
  8
0
  6
CONTINUOUS
 62
           7
100
AcDbSpline
210
0.0
220
0.0
230
1.0
 70
           0
 71
           3
 72
           9
 73
           6
 74
           9
 42
0.00000000001
 43
0.00000000001
 44
0.00000000001
 40
0.0
 40
0.0
 40
0.0
 40
0.0584259693898713
 40
0.1553110543930091
 40
0.2190996389092991
 40
0.2364917900672516
 40
0.2364917900672516
 40
0.2364917900672516
 10
235.89319299724099
 20
94.042333530748493
 30
0.0
 10
235.87942804878199
 20
94.032917892837204
 30
0.0
 10
235.81051107929599
 20
93.985776617114198
 30
0.0
 10
235.718564127208
 20
93.924901346679903
 30
0.0
 10
235.704114547703
 20
93.915379862250305
 30
0.0
 10
235.696816647464
 20
93.910570944214498
 30
0.0
 11
235.89319299724099
 21
94.042333530748493
 31
0.0
 11
235.87638787225018
 21
94.030838320836281
 31
0.0
 11
235.85350239419563
 21
94.015183966922166
 31
0.0
 11
235.80739806776089
 21
93.983951615311412
 31
0.0
 11
235.75506771825576
 21
93.949069260095115
 31
0.0
 11
235.7248515491425
 21
93.929072924349313
 31
0.0
 11
235.70721022389802
 21
93.917419743942332
 31
0.0
 11
235.70306399169198
 21
93.914687603164367
 31
0.0
 11
235.696816647464
 21
93.910570944214498
 31
0.0
  0
SPLINE
  5
3EC
100
AcDbEntity
  8
0
  6
CONTINUOUS
 62
           7
100
AcDbSpline
210
0.0
220
0.0
230
1.0
 70
           0
 71
           3
 72
           9
 73
           6
 74
           9
 42
0.00000000001
 43
0.00000000001
 44
0.00000000001
 40
0.0
 40
0.0
 40
0.0
 40
0.0626205357252221
 40
0.1621799011393297
 40
0.2271521397264728
 40
0.2444574898975212
 40
0.2444574898975212
 40
0.2444574898975212
 10
236.244404053354
 20
116.91923508283
 30
0.0
 10
236.260107238579
 20
116.90780210328199
 30
0.0
 10
236.32994954843099
 20
116.856952184067
 30
0.0
 10
236.42007866416401
 20
116.789247327477
 30
0.0
 10
236.43381765099201
 20
116.77886908369901
 30
0.0
 10
236.44075665440599
 20
116.773627454901
 30
0.0
 11
236.244404053354
 21
116.91923508283
 31
0.0
 11
236.26292328085526
 21
116.90575183428957
 31
0.0
 11
236.28707459290894
 21
116.88816804776428
 31
0.0
 11
236.33286526844697
 21
116.85451396491315
 31
0.0
 11
236.38448738401695
 21
116.81598344375433
 31
0.0
 11
236.41389316452825
 21
116.79388250660725
 31
0.0
 11
236.43092794576796
 21
116.78105192772067
 31
0.0
 11
236.43482997553949
 21
116.77810438750492
 31
0.0
 11
236.44075665440599
 21
116.773627454901
 31
0.0
  0
SPLINE
  5
3EB
100
AcDbEntity
  8
0
  6
CONTINUOUS
 62
           7
100
AcDbSpline
210
0.0
220
0.0
230
1.0
 70
           0
 71
           3
 72
           9
 73
           6
 74
           9
 42
0.00000000001
 43
0.00000000001
 44
0.00000000001
 40
0.0
 40
0.0
 40
0.0
 40
0.0173428792086335
 40
0.0819961292532319
 40
0.1807909628590436
 40
0.2421352912771366
 40
0.2421352912771366
 40
0.2421352912771366
 10
237.217469437087
 20
116.141725088025
 30
0.0
 10
237.22402698978499
 20
116.13598472752101
 30
0.0
 10
237.237010642553
 20
116.124619077717
 30
0.0
 10
237.3211342308
 20
116.050601226331
 30
0.0
 10
237.38449888432601
 20
115.99314003083499
 30
0.0
 10
237.39825870659399
 20
115.980662161971
 30
0.0
 11
237.217469437087
 21
116.141725088025
 31
0.0
 11
237.22307413987664
 21
116.13681883473026
 31
0.0
 11
237.22677314284971
 21
116.13358079585406
 31
0.0
 11
237.24277021402304
 21
116.1195399129395
 31
0.0
 11
237.2702864281365
 21
116.09534070046995
 31
0.0
 11
237.31819518690233
 21
116.05292369485053
 31
0.0
 11
237.36022585787282
 21
116.01515162627021
 31
0.0
 11
237.38187058327972
 21
115.99552346247781
 31
0.0
 11
237.39825870659399
 21
115.980662161971
 31
0.0
  0
SPLINE
  5
3EA
100
AcDbEntity
  8
0
  6
CONTINUOUS
 62
           7
100
AcDbSpline
210
0.0
220
0.0
230
1.0
 70
           0
 71
           3
 72
           9
 73
           6
 74
           9
 42
0.00000000001
 43
0.00000000001
 44
0.00000000001
 40
0.0
 40
0.0
 40
0.0
 40
0.0173191493469524
 40
0.0822945780506634
 40
0.1818174085349576
 40
0.2443044441428011
 40
0.2443044441428011
 40
0.2443044441428011
 10
237.88297485377799
 20
95.689142810667207
 30
0.0
 10
237.87680940320499
 20
95.683000120433505
 30
0.0
 10
237.86460207775099
 20
95.670837859465905
 30
0.0
 10
237.78453763028901
 20
95.591495304606397
 30
0.0
 10
237.72231607660399
 20
95.531655660060196
 30
0.0
 10
237.708388192618
 20
95.518260950709006
 30
0.0
 11
237.88297485377799
 21
95.689142810667207
 31
0.0
 11
237.87770849846663
 21
95.683895896600575
 31
0.0
 11
237.8742403336785
 21
95.68044053486804
 31
0.0
 11
237.85910544591133
 21
95.665403617871348
 31
0.0
 11
237.83297729446485
 21
95.639498217685542
 31
0.0
 11
237.78709185492778
 21
95.594306143790917
 31
0.0
 11
237.74631486466842
 21
95.554735748265401
 31
0.0
 11
237.72483380262361
 21
95.534077004773707
 31
0.0
 11
237.708388192618
 21
95.518260950709006
 31
0.0
  0
SPLINE
  5
3E9
100
AcDbEntity
  8
0
  6
CONTINUOUS
 62
           7
100
AcDbSpline
210
0.0
220
0.0
230
1.0
 70
           0
 71
           3
 72
           9
 73
           6
 74
           9
 42
0.00000000001
 43
0.00000000001
 44
0.00000000001
 40
0.0
 40
0.0
 40
0.0
 40
0.061800392111371
 40
0.1608377964573307
 40
0.2255794088225829
 40
0.2429019751389454
 40
0.2429019751389454
 40
0.2429019751389454
 10
238.724075553978
 20
96.605689021313793
 30
0.0
 10
238.711942934685
 20
96.591214378642803
 30
0.0
 10
238.65680924044801
 20
96.525437937135905
 30
0.0
 10
238.583419541571
 20
96.440505405148897
 30
0.0
 10
238.57211741145099
 20
96.4274931214605
 30
0.0
 10
238.56640916135299
 20
96.420921141768105
 30
0.0
 11
238.724075553978
 21
96.605689021313793
 31
0.0
 11
238.70967994022394
 21
96.58851454644639
 31
0.0
 11
238.69075833754772
 21
96.565940407186133
 31
0.0
 11
238.6542018008999
 21
96.522723848925722
 31
0.0
 11
238.6124303851559
 21
96.474079114244972
 31
0.0
 11
238.58844314916391
 21
96.446332437925108
 31
0.0
 11
238.57450312835778
 21
96.430239827157692
 31
0.0
 11
238.57128677815319
 21
96.426536802961692
 31
0.0
 11
238.56640916135299
 21
96.420921141768105
 31
0.0
  0
SPLINE
  5
3E8
100
AcDbEntity
  8
0
  6
CONTINUOUS
 62
           7
100
AcDbSpline
210
0.0
220
0.0
230
1.0
 70
           0
 71
           3
 72
           9
 73
           6
 74
           9
 42
0.00000000001
 43
0.00000000001
 44
0.00000000001
 40
0.0
 40
0.0
 40
0.0
 40
0.0538864065352485
 40
0.1478613734310231
 40
0.2103606604338107
 40
0.2278531692422286
 40
0.2278531692422286
 40
0.2278531692422286
 10
239.00157429095501
 20
114.262179228032
 30
0.0
 10
239.01006686657101
 20
114.251418232112
 30
0.0
 10
239.05984824735401
 20
114.188339931755
 30
0.0
 10
239.12520410590301
 20
114.102870024645
 30
0.0
 10
239.135754863888
 20
114.08902817686
 30
0.0
 10
239.14108361866499
 20
114.08203722771501
 30
0.0
 11
239.00157429095501
 21
114.262179228032
 31
0.0
 11
239.01247928807621
 21
114.24836143766592
 31
0.0
 11
239.02820912820778
 21
114.2284300584077
 31
0.0
 11
239.06175128739332
 21
114.18552963071386
 31
0.0
 11
239.09909952665754
 21
114.13700860093775
 31
0.0
 11
239.12073884385066
 21
114.10870093638979
 31
0.0
 11
239.13344763693905
 21
114.09205509533142
 31
0.0
 11
239.13651024584499
 21
114.08803716919162
 31
0.0
 11
239.14108361866499
 21
114.08203722771501
 31
0.0
  0
SPLINE
  5
3E7
100
AcDbEntity
  8
0
  6
CONTINUOUS
 62
           7
100
AcDbSpline
210
0.0
220
0.0
230
1.0
 70
           0
 71
           3
 72
           9
 73
           6
 74
           9
 42
0.00000000001
 43
0.00000000001
 44
0.00000000001
 40
0.0
 40
0.0
 40
0.0
 40
0.0176462552201424
 40
0.0785290869559749
 40
0.1688191102686855
 40
0.2169327528053932
 40
0.2169327528053932
 40
0.2169327528053932
 10
239.71850827153901
 20
113.264012838269
 30
0.0
 10
239.72334989656099
 20
113.25658368092
 30
0.0
 10
239.73293609632
 20
113.24187428354099
 30
0.0
 10
239.78977345849501
 20
113.154530820261
 30
0.0
 10
239.83042767763399
 20
113.089878823436
 30
0.0
 10
239.83571242358701
 20
113.08147454496699
 30
0.0
 11
239.71850827153901
 21
113.264012838269
 31
0.0
 11
239.72267801855693
 21
113.257614633831
 31
0.0
 11
239.72550400956669
 21
113.25327833521504
 31
0.0
 11
239.73680069519824
 21
113.23593119553379
 31
0.0
 11
239.75582657858615
 21
113.20669787983815
 31
0.0
 11
239.78791710912844
 21
113.1570283732937
 31
0.0
 11
239.81629494093767
 21
113.11235397281469
 31
0.0
 11
239.82821567994816
 21
113.09339654116343
 31
0.0
 11
239.83571242358701
 21
113.08147454496699
 31
0.0
  0
SPLINE
  5
3E6
100
AcDbEntity
  8
0
  6
CONTINUOUS
 62
           7
100
AcDbSpline
210
0.0
220
0.0
230
1.0
 70
           0
 71
           3
 72
           9
 73
           6
 74
           9
 42
0.00000000001
 43
0.00000000001
 44
0.00000000001
 40
0.0
 40
0.0
 40
0.0
 40
0.0174761604367894
 40
0.080370965928659
 40
0.1751946959586396
 40
0.2303281067802016
 40
0.2303281067802016
 40
0.2303281067802016
 10
240.19164621647599
 20
98.723357765490405
 30
0.0
 10
240.18732385990899
 20
98.715713007965903
 30
0.0
 10
240.17876578713501
 20
98.700576729821407
 30
0.0
 10
240.125249882459
 20
98.606306235213594
 30
0.0
 10
240.08406770512801
 20
98.536270961677303
 30
0.0
 10
240.07671262886501
 20
98.523762764895594
 30
0.0
 11
240.19164621647599
 21
98.723357765490405
 31
0.0
 11
240.18793922429231
 21
98.716801375255073
 31
0.0
 11
240.18546296087538
 21
98.712421719598112
 31
0.0
 11
240.17510482874923
 21
98.694139709011367
 31
0.0
 11
240.15742477985145
 21
98.662983656804556
 31
0.0
 11
240.12678333386663
 21
98.609404084058411
 31
0.0
 11
240.09920879069699
 21
98.562020209001901
 31
0.0
 11
240.08601420745453
 21
98.539581224313025
 31
0.0
 11
240.07671262886501
 21
98.523762764895594
 31
0.0
  0
SPLINE
  5
3E5
100
AcDbEntity
  8
0
  6
CONTINUOUS
 62
           7
100
AcDbSpline
210
0.0
220
0.0
230
1.0
 70
           0
 71
           3
 72
           9
 73
           6
 74
           9
 42
0.00000000001
 43
0.00000000001
 44
0.00000000001
 40
0.0
 40
0.0
 40
0.0
 40
0.0495380454135075
 40
0.1407047306656498
 40
0.2019578671627396
 40
0.2195563024758334
 40
0.2195563024758334
 40
0.2195563024758334
 10
240.74464414086401
 20
99.811576063299796
 30
0.0
 10
240.74016531211001
 20
99.801672137809007
 30
0.0
 10
240.708298478334
 20
99.731205780486306
 30
0.0
 10
240.66355592052199
 20
99.636219710435398
 30
0.0
 10
240.65608014847399
 20
99.620385965176894
 30
0.0
 10
240.65230443891301
 20
99.612388981992595
 30
0.0
 11
240.74464414086401
 21
99.811576063299796
 31
0.0
 11
240.73848017284573
 21
99.797945830188539
 31
0.0
 11
240.72894592629893
 21
99.776862981836331
 31
0.0
 11
240.70676988720928
 21
99.728416604772775
 31
0.0
 11
240.68153666587017
 21
99.674391876282186
 31
0.0
 11
240.66659928264312
 21
99.642687776543681
 31
0.0
 11
240.65774862365819
 21
99.623919809021714
 31
0.0
 11
240.65555333987982
 21
99.619270180342028
 31
0.0
 11
240.65230443891301
 21
99.612388981992595
 31
0.0
  0
SPLINE
  5
3E4
100
AcDbEntity
  8
0
  6
CONTINUOUS
 62
           7
100
AcDbSpline
210
0.0
220
0.0
230
1.0
 70
           0
 71
           3
 72
           9
 73
           6
 74
           9
 42
0.00000000001
 43
0.00000000001
 44
0.00000000001
 40
0.0
 40
0.0
 40
0.0
 40
0.0521065422244435
 40
0.1449340740299098
 40
0.2069245387000936
 40
0.2244599553548813
 40
0.2244599553548813
 40
0.2244599553548813
 10
240.93066185530401
 20
110.969686637188
 30
0.0
 10
240.935488432856
 20
110.958106315403
 30
0.0
 10
240.965927449655
 20
110.88507452308301
 30
0.0
 10
241.00539474252
 20
110.786121096974
 30
0.0
 10
241.01183835707201
 20
110.769907441868
 30
0.0
 10
241.01509276595101
 20
110.761718580986
 30
0.0
 11
240.93066185530401
 21
110.969686637188
 31
0.0
 11
240.9370176391034
 21
110.9544373180164
 31
0.0
 11
240.94643183539765
 21
110.93185000407166
 31
0.0
 11
240.96696960796189
 21
110.88193548869617
 31
0.0
 11
240.98959169713982
 21
110.82574290454706
 31
0.0
 11
241.00269968137462
 21
110.79286691078065
 31
0.0
 11
241.01041754331865
 21
110.77348254462756
 31
0.0
 11
241.01229675585341
 21
110.76875400233737
 31
0.0
 11
241.01509276595101
 21
110.761718580986
 31
0.0
  0
SPLINE
  5
3E3
100
AcDbEntity
  8
0
  6
CONTINUOUS
 62
           7
100
AcDbSpline
210
0.0
220
0.0
230
1.0
 70
           0
 71
           3
 72
           9
 73
           6
 74
           9
 42
0.00000000001
 43
0.00000000001
 44
0.00000000001
 40
0.0
 40
0.0
 40
0.0
 40
0.0174258401584517
 40
0.0809649805693704
 40
0.1772426067012484
 40
0.2346435316883956
 40
0.2346435316883956
 40
0.2346435316883956
 10
241.35040428307099
 20
109.81824178111
 30
0.0
 10
241.35303470875101
 20
109.809889388939
 30
0.0
 10
241.358242833069
 20
109.793352028808
 30
0.0
 10
241.39099773897601
 20
109.68861412282899
 30
0.0
 10
241.41451424267601
 20
109.609208166228
 30
0.0
 10
241.41905579533599
 20
109.59387313436901
 30
0.0
 11
241.35040428307099
 21
109.81824178111
 31
0.0
 11
241.35265733441793
 21
109.81108766587559
 31
0.0
 11
241.3541556370987
 21
109.8063301045143
 31
0.0
 11
241.36047666646499
 21
109.78618625622026
 31
0.0
 11
241.37126536262326
 21
109.75171086275073
 31
0.0
 11
241.38974784129789
 21
109.69195160641779
 31
0.0
 11
241.40573052461633
 21
109.6388673172624
 31
0.0
 11
241.41345370132612
 21
109.61278919602185
 31
0.0
 11
241.41905579533599
 21
109.59387313436901
 31
0.0
  0
SPLINE
  5
3E2
100
AcDbEntity
  8
0
  6
CONTINUOUS
 62
           7
100
AcDbSpline
210
0.0
220
0.0
230
1.0
 70
           0
 71
           3
 72
           9
 73
           6
 74
           9
 42
0.00000000001
 43
0.00000000001
 44
0.00000000001
 40
0.0
 40
0.0
 40
0.0
 40
0.0175782687319861
 40
0.0792367489710998
 40
0.171273130159845
 40
0.2220809279479812
 40
0.2220809279479812
 40
0.2220809279479812
 10
241.596083452964
 20
102.267928177977
 30
0.0
 10
241.59396889699599
 20
102.25935160497301
 30
0.0
 10
241.58978217040101
 20
102.242370372588
 30
0.0
 10
241.56433286382
 20
102.139648739878
 30
0.0
 10
241.544348891683
 20
102.06399819222
 30
0.0
 10
241.54136452641501
 20
102.05270069513701
 30
0.0
 11
241.596083452964
 21
102.267928177977
 31
0.0
 11
241.59426533500124
 21
102.26055394826963
 31
0.0
 11
241.59304009304896
 21
102.25558440515549
 31
0.0
 11
241.58804424698073
 21
102.23537155230174
 31
0.0
 11
241.57957255407194
 21
102.2011610588755
 31
0.0
 11
241.56492380243409
 21
102.14284115919082
 31
0.0
 11
241.55145692802452
 21
102.09090609813188
 31
0.0
 11
241.54537980945136
 21
102.06790079442722
 31
0.0
 11
241.54136452641501
 21
102.05270069513701
 31
0.0
  0
SPLINE
  5
3E1
100
AcDbEntity
  8
0
  6
CONTINUOUS
 62
           7
100
AcDbSpline
210
0.0
220
0.0
230
1.0
 70
           0
 71
           3
 72
           9
 73
           6
 74
           9
 42
0.00000000001
 43
0.00000000001
 44
0.00000000001
 40
0.0
 40
0.0
 40
0.0
 40
0.0563812908341747
 40
0.1519575298037719
 40
0.2151664193092625
 40
0.2326033217973687
 40
0.2326033217973687
 40
0.2326033217973687
 10
241.836954204405
 20
103.477885703111
 30
0.0
 10
241.83464091508301
 20
103.46272175626
 30
0.0
 10
241.822262082234
 20
103.381576712419
 30
0.0
 10
241.804180584363
 20
103.274017280487
 30
0.0
 10
241.801271264398
 20
103.25691383381
 30
0.0
 10
241.79980188425799
 20
103.248275572921
 30
0.0
 11
241.836954204405
 21
103.477885703111
 31
0.0
 11
241.83407099787587
 21
103.45898586634731
 31
0.0
 11
241.8300479569325
 21
103.43261424975827
 31
0.0
 11
241.82148763872678
 21
103.3781505035744
 31
0.0
 11
241.81137843350666
 21
103.31683433970127
 31
0.0
 11
241.80540997696625
 21
103.28137019289994
 31
0.0
 11
241.80190030563227
 21
103.26061187092446
 31
0.0
 11
241.80106117967159
 21
103.25567877786638
 31
0.0
 11
241.79980188425799
 21
103.248275572921
 31
0.0
  0
SPLINE
  5
3E0
100
AcDbEntity
  8
0
  6
CONTINUOUS
 62
           7
100
AcDbSpline
210
0.0
220
0.0
230
1.0
 70
           0
 71
           3
 72
           9
 73
           6
 74
           9
 42
0.00000000001
 43
0.00000000001
 44
0.00000000001
 40
0.0
 40
0.0
 40
0.0
 40
0.0623743192585036
 40
0.1617768698304354
 40
0.2266797344686316
 40
0.2439902770796065
 40
0.2439902770796065
 40
0.2439902770796065
 10
241.89624685611801
 20
107.30134752907099
 30
0.0
 10
241.89858997741899
 20
107.282227634194
 30
0.0
 10
241.90907801738399
 20
107.19664511594
 30
0.0
 10
241.921097155236
 20
107.084706198853
 30
0.0
 10
241.922891160864
 20
107.06757648618
 30
0.0
 10
241.92379724052
 20
107.05892496139001
 30
0.0
 11
241.89624685611801
 21
107.30134752907099
 31
0.0
 11
241.89901513325825
 21
107.27875835800174
 31
0.0
 11
241.90263372207704
 21
107.24923063454801
 31
0.0
 11
241.90928479745548
 21
107.19286111345505
 31
0.0
 11
241.91634943297692
 21
107.12892358739221
 31
0.0
 11
241.9202642913263
 21
107.09237980962099
 31
0.0
 11
241.92251342185637
 21
107.07118325338575
 31
0.0
 11
241.9230232460261
 21
107.06631529678396
 31
0.0
 11
241.92379724052
 21
107.05892496139001
 31
0.0
  0
SPLINE
  5
3DF
100
AcDbEntity
  8
0
  6
CONTINUOUS
 62
           7
100
AcDbSpline
210
0.0
220
0.0
230
1.0
 70
           0
 71
           3
 72
           9
 73
           6
 74
           9
 42
0.00000000001
 43
0.00000000001
 44
0.00000000001
 40
0.0
 40
0.0
 40
0.0
 40
0.0173279178472643
 40
0.0821874603165416
 40
0.1814484348041787
 40
0.2435246588770862
 40
0.2435246588770862
 40
0.2435246588770862
 10
241.99212744649699
 20
106.059968810084
 30
0.0
 10
241.99240842126099
 20
106.051265749549
 30
0.0
 10
241.99296473864101
 20
106.034034081619
 30
0.0
 10
241.99629793657499
 20
105.92160504152901
 30
0.0
 10
241.99755751768299
 20
105.835570751587
 30
0.0
 10
241.99783645387899
 20
105.816518324215
 30
0.0
 11
241.99212744649699
 21
106.059968810084
 31
0.0
 11
241.99236750023618
 21
106.05253325895521
 31
0.0
 11
241.99252571192579
 21
106.0476327266388
 31
0.0
 11
241.99318429742041
 21
106.02632590542055
 31
0.0
 11
241.99428200047373
 21
105.98960273180543
 31
0.0
 11
241.99598768847875
 21
105.92537154643375
 31
0.0
 11
241.99707288029128
 21
105.8686733708716
 31
0.0
 11
241.99750609238407
 21
105.83908329956515
 31
0.0
 11
241.99783645387899
 21
105.816518324215
 31
0.0
  0
SPLINE
  5
3DE
100
AcDbEntity
  8
0
  6
CONTINUOUS
 62
           7
100
AcDbSpline
210
0.0
220
0.0
230
1.0
 70
           0
 71
           3
 72
          10
 73
           7
 74
          11
 42
0.00000000001
 43
0.00000000001
 44
0.00000000001
 40
0.0
 40
0.0
 40
0.0
 40
0.0453195983290413
 40
0.1264013977475392
 40
0.1973292668073742
 40
0.2323063806905669
 40
0.2389758445777507
 40
0.2389758445777507
 40
0.2389758445777507
 10
222.41902241301
 20
120.40627723422099
 30
0.0
 10
222.41576338612401
 20
120.405013641138
 30
0.0
 10
222.33777198776599
 20
120.37477474008701
 30
0.0
 10
222.266209426096
 20
120.34247239732299
 30
0.0
 10
222.20902175340601
 20
120.315240249621
 30
0.0
 10
222.204217969762
 20
120.310694375625
 30
0.0
 10
222.201775589997
 20
120.30838312443601
 30
0.0
 11
222.41902241301
 21
120.40627723422099
 31
0.0
 11
222.4095874392028
 21
120.40261909697307
 31
0.0
 11
222.38780057155321
 21
120.39417187139523
 31
0.0
 11
222.3407362846801
 21
120.37531651388692
 31
0.0
 11
222.29960059163517
 21
120.35754470397842
 31
0.0
 11
222.26498212562089
 21
120.34168091939188
 31
0.0
 11
222.22790905865651
 21
120.32423417894319
 31
0.0
 11
222.21273495850301
 21
120.31653426245506
 31
0.0
 11
222.20498726854356
 21
120.31142237163512
 31
0.0
 11
222.20379969951611
 21
120.31029856183028
 31
0.0
 11
222.201775589997
 21
120.30838312443601
 31
0.0
  0
SPLINE
  5
3DD
100
AcDbEntity
  8
0
  6
CONTINUOUS
 62
           7
100
AcDbSpline
210
0.0
220
0.0
230
1.0
 70
           0
 71
           3
 72
           9
 73
           6
 74
           9
 42
0.00000000001
 43
0.00000000001
 44
0.00000000001
 40
0.0
 40
0.0
 40
0.0
 40
0.007052721375231
 40
0.039381030565819
 40
0.1138330470682648
 40
0.2198950376315272
 40
0.2198950376315272
 40
0.2198950376315272
 10
225.31343304369801
 20
121.18022864546801
 30
0.0
 10
225.30993686551301
 20
121.18087716927801
 30
0.0
 10
225.303060363962
 20
121.182152726399
 30
0.0
 10
225.24563209625401
 20
121.176957149147
 30
0.0
 10
225.15543717173
 20
121.16317905442099
 30
0.0
 10
225.09568889443
 20
121.154051961864
 30
0.0
 11
225.31343304369801
 21
121.18022864546801
 31
0.0
 11
225.31050303308922
 21
121.18077214798491
 31
0.0
 11
225.3087053576327
 21
121.18110560791567
 31
0.0
 11
225.30012493432196
 21
121.18149769964502
 31
0.0
 11
225.28567365173112
 21
121.18057973786635
 31
0.0
 11
225.24634238409755
 21
121.1764421213435
 31
0.0
 11
225.20843169215101
 21
121.1712744492137
 31
0.0
 11
225.15374873251022
 21
121.16292112997992
 31
0.0
 11
225.09568889443
 21
121.154051961864
 31
0.0
  0
SPLINE
  5
3DC
100
AcDbEntity
  8
0
  6
CONTINUOUS
 62
           7
100
AcDbSpline
210
0.0
220
0.0
230
1.0
 70
           0
 71
           3
 72
          10
 73
           7
 74
          11
 42
0.00000000001
 43
0.00000000001
 44
0.00000000001
 40
0.0
 40
0.0
 40
0.0
 40
0.0490966916650087
 40
0.1326188412797433
 40
0.2045786408165353
 40
0.2394975161920462
 40
0.2461789992662035
 40
0.2461789992662035
 40
0.2461789992662035
 10
226.626562017986
 20
121.3636963987
 30
0.0
 10
226.62066125831601
 20
121.36312577847301
 30
0.0
 10
226.534725323853
 20
121.35481552941999
 30
0.0
 10
226.45491915832599
 20
121.342787459273
 30
0.0
 10
226.39263543098301
 20
121.33199355513899
 30
0.0
 10
226.38677009580701
 20
121.328911845081
 30
0.0
 10
226.38378799244899
 20
121.32734501596801
 30
0.0
 11
226.626562017986
 21
121.3636963987
 31
0.0
 11
226.61418288364843
 21
121.362499301234
 31
0.0
 11
226.58884699997563
 21
121.36004924928999
 31
0.0
 11
226.5375381281803
 21
121.35450864281879
 31
0.0
 11
226.49185486503961
 21
121.34835426314518
 31
0.0
 11
226.45366941148933
 21
121.34236231703463
 31
0.0
 11
226.41298446426583
 21
121.33552008644733
 31
0.0
 11
226.39649186512526
 21
121.33222849973147
 31
0.0
 11
226.38771213426924
 21
121.32940680220058
 31
0.0
 11
226.38626007958308
 21
121.32864387708267
 31
0.0
 11
226.38378799244899
 21
121.32734501596801
 31
0.0
  0
SPLINE
  5
3DB
100
AcDbEntity
  8
0
  6
CONTINUOUS
 62
           7
100
AcDbSpline
210
0.0
220
0.0
230
1.0
 70
           0
 71
           3
 72
          10
 73
           7
 74
          11
 42
0.00000000001
 43
0.00000000001
 44
0.00000000001
 40
0.0
 40
0.0
 40
0.0
 40
0.0066657917387024
 40
0.0416406701032502
 40
0.112385253672116
 40
0.1930728473444178
 40
0.2378171549580855
 40
0.2378171549580855
 40
0.2378171549580855
 10
229.615277790504
 20
121.32734501596801
 30
0.0
 10
229.612304341156
 20
121.32891127134501
 30
0.0
 10
229.60645597541401
 20
121.331991880166
 30
0.0
 10
229.544042250465
 20
121.342782523948
 30
0.0
 10
229.46678281586
 20
121.354543775949
 30
0.0
 10
229.383946047173
 20
121.36258004766199
 30
0.0
 10
229.38082920670701
 20
121.36288242277
 30
0.0
 11
229.615277790504
 21
121.32734501596801
 31
0.0
 11
229.61281365353685
 21
121.32864299260147
 31
0.0
 11
229.61136814133138
 21
121.32940441174784
 31
0.0
 11
229.60252197672011
 21
121.33223747280078
 31
0.0
 11
229.58580781472111
 21
121.33556171912326
 31
0.0
 11
229.54546031731306
 21
121.3423509490249
 31
0.0
 11
229.50794895360121
 21
121.34827702908038
 31
0.0
 11
229.46375258074463
 21
121.35426947860802
 31
0.0
 11
229.41349573765723
 21
121.35971333345367
 31
0.0
 11
229.39055425967757
 21
121.36193896288691
 31
0.0
 11
229.38082920670701
 21
121.36288242277
 31
0.0
  0
SPLINE
  5
3DA
100
AcDbEntity
  8
0
  6
CONTINUOUS
 62
           7
100
AcDbSpline
210
0.0
220
0.0
230
1.0
 70
           0
 71
           3
 72
           9
 73
           6
 74
           9
 42
0.00000000001
 43
0.00000000001
 44
0.00000000001
 40
0.0
 40
0.0
 40
0.0
 40
0.1057283700216684
 40
0.1800132906655235
 40
0.2122860155329581
 40
0.2193432428610797
 40
0.2193432428610797
 40
0.2193432428610797
 10
230.90283090066299
 20
121.15413019296
 30
0.0
 10
230.843304433166
 20
121.163223772756
 30
0.0
 10
230.75332567294899
 20
121.176969406762
 30
0.0
 10
230.69601233504599
 20
121.18215230784
 30
0.0
 10
230.689131269917
 20
121.180877032162
 30
0.0
 10
230.685632739255
 20
121.18022864546801
 30
0.0
 11
230.90283090066299
 21
121.15413019296
 31
0.0
 11
230.84497409827384
 21
121.16296870583295
 31
0.0
 11
230.79045662610051
 21
121.17129708485976
 31
0.0
 11
230.75261964708594
 21
121.17645461997652
 31
0.0
 11
230.71337061634532
 21
121.18058258152236
 31
0.0
 11
230.69894031757764
 21
121.18149826507884
 31
0.0
 11
230.69036598387328
 21
121.18110586311305
 31
0.0
 11
230.68856531574056
 21
121.18077214322626
 31
0.0
 11
230.685632739255
 21
121.18022864546801
 31
0.0
  0
SPLINE
  5
3D9
100
AcDbEntity
  8
0
  6
CONTINUOUS
 62
           7
100
AcDbSpline
210
0.0
220
0.0
230
1.0
 70
           0
 71
           3
 72
          10
 73
           7
 74
          11
 42
0.00000000001
 43
0.00000000001
 44
0.00000000001
 40
0.0
 40
0.0
 40
0.0
 40
0.0066792109488534
 40
0.0415858542959376
 40
0.1135351813134485
 40
0.197070601727743
 40
0.2462204058319333
 40
0.2462204058319333
 40
0.2462204058319333
 10
233.79729019295601
 20
120.30838312443601
 30
0.0
 10
233.794842091698
 20
120.310695455359
 30
0.0
 10
233.79002701173201
 20
120.315243493669
 30
0.0
 10
233.732985991221
 20
120.342433228142
 30
0.0
 10
233.65938176394599
 20
120.375544035042
 30
0.0
 10
233.57885229062799
 20
120.406743534971
 30
0.0
 10
233.57328662466401
 20
120.408899838591
 30
0.0
 11
233.79729019295601
 21
120.30838312443601
 31
0.0
 11
233.79526077642004
 21
120.310299990659
 31
0.0
 11
233.79406872932819
 21
120.31142592748203
 31
0.0
 11
233.78637904312032
 21
120.31650961998551
 31
0.0
 11
233.77139341968899
 21
120.32412556512193
 31
0.0
 11
233.73407290602765
 21
120.3416867528527
 31
0.0
 11
233.6989262219796
 21
120.35775499000488
 31
0.0
 11
233.6565930244272
 21
120.37600738713989
 31
0.0
 11
233.60868234783715
 21
120.39518648847073
 31
0.0
 11
233.58491838843929
 21
120.40439334925094
 31
0.0
 11
233.57328662466401
 21
120.408899838591
 31
0.0
  0
SPLINE
  5
3D8
100
AcDbEntity
  8
0
  6
CONTINUOUS
 62
           7
100
AcDbSpline
210
0.0
220
0.0
230
1.0
 70
           0
 71
           3
 72
          10
 73
           7
 74
          11
 42
0.00000000001
 43
0.00000000001
 44
0.00000000001
 40
0.0
 40
0.0
 40
0.0
 40
0.0435963703520291
 40
0.1235571748979517
 40
0.1940090939848088
 40
0.22901405074178
 40
0.2356779845562926
 40
0.2356779845562926
 40
0.2356779845562926
 10
235.00511685203901
 20
119.787421765292
 30
0.0
 10
235.00296735483801
 20
119.788458943832
 30
0.0
 10
234.92873749400101
 20
119.824276445064
 30
0.0
 10
234.857199951468
 20
119.85409195730099
 30
0.0
 10
234.798211427442
 20
119.87733258689001
 30
0.0
 10
234.79161561572701
 20
119.877737603509
 30
0.0
 10
234.78826211583001
 20
119.877943525577
 30
0.0
 11
235.00511685203901
 21
119.787421765292
 31
0.0
 11
234.99695684451132
 21
119.79135914408282
 31
0.0
 11
234.97677581633042
 21
119.80109692337534
 31
0.0
 11
234.931239568639
 21
119.82244411562961
 31
0.0
 11
234.89070747022362
 21
119.84012664901508
 31
0.0
 11
234.85572480707484
 21
119.85448218594182
 31
0.0
 11
234.81779185513972
 21
119.86961818015021
 31
0.0
 11
234.8017212916788
 21
119.87548904620043
 31
0.0
 11
234.79267045669155
 21
119.87767283087155
 31
0.0
 11
234.79104095099387
 21
119.87777289086662
 31
0.0
 11
234.78826211583001
 21
119.877943525577
 31
0.0
  0
SPLINE
  5
3D7
100
AcDbEntity
  8
0
  6
CONTINUOUS
 62
           7
100
AcDbSpline
210
0.0
220
0.0
230
1.0
 70
           0
 71
           3
 72
           9
 73
           6
 74
           9
 42
0.00000000001
 43
0.00000000001
 44
0.00000000001
 40
0.0
 40
0.0
 40
0.0
 40
0.007055603407673
 40
0.0393057555839629
 40
0.1135322598471725
 40
0.2191616207624653
 40
0.2191616207624653
 40
0.2191616207624653
 10
237.54930991497099
 20
118.19891327854501
 30
0.0
 10
237.54739590359199
 20
118.201911735869
 30
0.0
 10
237.54363130804799
 20
118.207809286535
 30
0.0
 10
237.50075884812301
 20
118.246131878152
 30
0.0
 10
237.42935574514499
 20
118.302464676314
 30
0.0
 10
237.382129130924
 20
118.33972366389099
 30
0.0
 11
237.54930991497099
 21
118.19891327854501
 31
0.0
 11
237.54770546493722
 21
118.201426782387
 31
0.0
 11
237.54672013759398
 21
118.20297037926505
 31
0.0
 11
237.54115716218911
 21
118.20950139156677
 31
0.0
 11
237.53064589506653
 21
118.21941661393205
 31
0.0
 11
237.50086359583028
 21
118.24526519766289
 31
0.0
 11
237.47129079200852
 21
118.26938042041544
 31
0.0
 11
237.42803285330561
 21
118.3035083592336
 31
0.0
 11
237.382129130924
 21
118.33972366389099
 31
0.0
  0
SPLINE
  5
3D6
100
AcDbEntity
  8
0
  6
CONTINUOUS
 62
           7
100
AcDbSpline
210
0.0
220
0.0
230
1.0
 70
           0
 71
           3
 72
          10
 73
           7
 74
          11
 42
0.00000000001
 43
0.00000000001
 44
0.00000000001
 40
0.0
 40
0.0
 40
0.0
 40
0.0495215475464353
 40
0.1333169507531035
 40
0.2053924708204724
 40
0.2403050008461789
 40
0.2469872815418275
 40
0.2469872815418275
 40
0.2469872815418275
 10
238.580281211102
 20
117.363922054434
 30
0.0
 10
238.57563126603301
 20
117.368026583139
 30
0.0
 10
238.510677856283
 20
117.425361267927
 30
0.0
 10
238.44722972749901
 20
117.475636787215
 30
0.0
 10
238.39683932243
 20
117.513779594806
 30
0.0
 10
238.390583221833
 20
117.515963809818
 30
0.0
 10
238.38740244325399
 20
117.51707432654
 30
0.0
 11
238.580281211102
 21
117.363922054434
 31
0.0
 11
238.57076189860297
 21
117.37232479700943
 31
0.0
 11
238.55150385124392
 21
117.38932396732571
 31
0.0
 11
238.51235700844938
 21
117.4231089076449
 31
0.0
 11
238.47656846998768
 21
117.45238912739991
 31
0.0
 11
238.44607768341496
 21
117.47624886702408
 31
0.0
 11
238.41328280867401
 21
117.50133276626647
 31
0.0
 11
238.39963743227779
 21
117.51112621691259
 31
0.0
 11
238.39158827557708
 21
117.51561291177191
 31
0.0
 11
238.39003929062426
 21
117.51615371448698
 31
0.0
 11
238.38740244325399
 21
117.51707432654
 31
0.0
  0
SPLINE
  5
3D5
100
AcDbEntity
  8
0
  6
CONTINUOUS
 62
           7
100
AcDbSpline
210
0.0
220
0.0
230
1.0
 70
           0
 71
           3
 72
           9
 73
           6
 74
           9
 42
0.00000000001
 43
0.00000000001
 44
0.00000000001
 40
0.0
 40
0.0
 40
0.0
 40
0.0070326803545048
 40
0.03990837237513
 40
0.1159442784219446
 40
0.2250507909417019
 40
0.2250507909417019
 40
0.2250507909417019
 10
240.59306580391001
 20
115.155385563636
 30
0.0
 10
240.59203976434799
 20
115.15877957700999
 30
0.0
 10
240.59002168476101
 20
115.165455137449
 30
0.0
 10
240.55836947303999
 20
115.214982161912
 30
0.0
 10
240.50342680492
 20
115.290382037044
 30
0.0
 10
240.46664342101801
 20
115.340861248339
 30
0.0
 11
240.59306580391001
 21
115.155385563636
 31
0.0
 11
240.59220736740124
 21
115.15822516660965
 31
0.0
 11
240.59168413699913
 21
115.15995594878265
 31
0.0
 11
240.58804869003501
 21
115.16781785591857
 31
0.0
 11
240.58046725361891
 21
115.18040519999363
 31
0.0
 11
240.55825283444028
 21
115.21407939130444
 31
0.0
 11
240.53580513806219
 21
115.24594804140015
 31
0.0
 11
240.50232554223004
 21
115.29189334095679
 31
0.0
 11
240.46664342101801
 21
115.340861248339
 31
0.0
  0
SPLINE
  5
3D4
100
AcDbEntity
  8
0
  6
CONTINUOUS
 62
           7
100
AcDbSpline
210
0.0
220
0.0
230
1.0
 70
           0
 71
           3
 72
           9
 73
           6
 74
           9
 42
0.00000000001
 43
0.00000000001
 44
0.00000000001
 40
0.0
 40
0.0
 40
0.0
 40
0.1095515182051914
 40
0.185825438419255
 40
0.2187858024447834
 40
0.2258183315737746
 40
0.2258183315737746
 40
0.2258183315737746
 10
241.348987741435
 20
114.090850333238
 30
0.0
 10
241.31357771346899
 20
114.1426560157
 30
0.0
 10
241.26075935738501
 20
114.21993048117299
 30
0.0
 10
241.22459109339999
 20
114.266477260898
 30
0.0
 10
241.21897627213801
 20
114.270613321196
 30
0.0
 10
241.21612153765
 20
114.272716211641
 30
0.0
 11
241.348987741435
 21
114.090850333238
 31
0.0
 11
241.31464558781366
 21
114.14109369105955
 31
0.0
 11
241.28243918288177
 21
114.18821239960026
 31
0.0
 11
241.25986560167539
 21
114.22012639820011
 31
0.0
 11
241.2355045090498
 21
114.25243223085425
 31
0.0
 11
241.22616257581521
 21
114.26381819262809
 31
0.0
 11
241.21996360741093
 21
114.26988601786205
 31
0.0
 11
241.21850942233425
 21
114.27095721797376
 31
0.0
 11
241.21612153765
 21
114.272716211641
 31
0.0
  0
SPLINE
  5
3D3
100
AcDbEntity
  8
0
  6
CONTINUOUS
 62
           7
100
AcDbSpline
210
0.0
220
0.0
230
1.0
 70
           0
 71
           3
 72
          10
 73
           7
 74
          11
 42
0.00000000001
 43
0.00000000001
 44
0.00000000001
 40
0.0
 40
0.0
 40
0.0
 40
0.0066583834434075
 40
0.0416686940919308
 40
0.1118207176905983
 40
0.191108671542926
 40
0.2337039123435817
 40
0.2337039123435817
 40
0.2337039123435817
 10
242.702816909218
 20
111.40352416646
 30
0.0
 10
242.70284128959
 20
111.406881080566
 30
0.0
 10
242.702889242422
 20
111.413483668043
 30
0.0
 10
242.683721597557
 20
111.473935519278
 30
0.0
 10
242.65906689558801
 20
111.546761555148
 30
0.0
 10
242.62868913560101
 20
111.622592960804
 30
0.0
 10
242.628038225735
 20
111.624217814321
 30
0.0
 11
242.702816909218
 21
111.40352416646
 31
0.0
 11
242.70283711013383
 21
111.40630561456013
 31
0.0
 11
242.70284895213737
 21
111.40793613064852
 31
0.0
 11
242.70128386197297
 21
111.41712814332082
 31
0.0
 11
242.69650801091046
 21
111.43360910654877
 31
0.0
 11
242.68402476959295
 21
111.47240064815844
 31
0.0
 11
242.67214787234741
 21
111.508122447529
 31
0.0
 11
242.65739677363706
 21
111.54943431721495
 31
0.0
 11
242.63930543102478
 21
111.59609171103476
 31
0.0
 11
242.63118048199044
 21
111.61637386174094
 31
0.0
 11
242.628038225735
 21
111.624217814321
 31
0.0
  0
SPLINE
  5
3D2
100
AcDbEntity
  8
0
  6
CONTINUOUS
 62
           7
100
AcDbSpline
210
0.0
220
0.0
230
1.0
 70
           0
 71
           3
 72
          10
 73
           7
 74
          11
 42
0.00000000001
 43
0.00000000001
 44
0.00000000001
 40
0.0
 40
0.0
 40
0.0
 40
0.0416007756017225
 40
0.1202609698585906
 40
0.1901649100209193
 40
0.2252031869250685
 40
0.2318601342574135
 40
0.2318601342574135
 40
0.2318601342574135
 10
243.145349731708
 20
110.168863775695
 30
0.0
 10
243.14502059969999
 20
110.169920609247
 30
0.0
 10
243.120939210313
 20
110.24724526836
 30
0.0
 10
243.09426377141199
 20
110.318765140585
 30
0.0
 10
243.07096896120899
 20
110.37781138168999
 30
0.0
 10
243.06676484160801
 20
110.382900846482
 30
0.0
 10
243.064627347553
 20
110.385488475228
 30
0.0
 11
243.145349731708
 21
110.168863775695
 31
0.0
 11
243.14302031909625
 21
110.17634345359942
 31
0.0
 11
243.13669034527709
 21
110.19666882020871
 31
0.0
 11
243.12134603549856
 21
110.24406805602923
 31
0.0
 11
243.10681537609122
 21
110.2851128671882
 31
0.0
 11
243.09352239724331
 21
110.32018501892873
 31
0.0
 11
243.07874667005808
 21
110.35809692735677
 31
0.0
 11
243.07203016312741
 21
110.37395199174046
 31
0.0
 11
243.06743606003349
 21
110.38208827622508
 31
0.0
 11
243.06639827270061
 21
110.38334461110426
 31
0.0
 11
243.064627347553
 21
110.385488475228
 31
0.0
  0
SPLINE
  5
3D1
100
AcDbEntity
  8
0
  6
CONTINUOUS
 62
           7
100
AcDbSpline
210
0.0
220
0.0
230
1.0
 70
           0
 71
           3
 72
          10
 73
           7
 74
          11
 42
0.00000000001
 43
0.00000000001
 44
0.00000000001
 40
0.0
 40
0.0
 40
0.0
 40
0.0066807273250516
 40
0.0415811107327655
 40
0.1136406403323216
 40
0.1974366506965097
 40
0.2469908419930882
 40
0.2469908419930882
 40
0.2469908419930882
 10
243.72209265645799
 20
107.221588132458
 30
0.0
 10
243.72301936482901
 20
107.22482640979101
 30
0.0
 10
243.724842072531
 20
107.23119565519499
 30
0.0
 10
243.72274149914401
 20
107.294336571816
 30
0.0
 10
243.71825788947001
 20
107.37515550955101
 30
0.0
 10
243.70887560661299
 20
107.461294867264
 30
0.0
 10
243.708201048935
 20
107.467488025802
 30
0.0
 11
243.72209265645799
 21
107.221588132458
 31
0.0
 11
243.72286090014532
 21
107.22427267292028
 31
0.0
 11
243.72331221446518
 21
107.22584973964103
 31
0.0
 11
243.72428825686413
 21
107.23500980268798
 31
0.0
 11
243.72415666792921
 21
107.25179816072094
 31
0.0
 11
243.72257704411584
 21
107.29304359179956
 31
0.0
 11
243.72066851024613
 21
107.33170306284529
 31
0.0
 11
243.71738661012603
 21
107.37782468808072
 31
0.0
 11
243.71236215131788
 21
107.42928467037557
 31
0.0
 11
243.70957860336972
 21
107.4548406076764
 31
0.0
 11
243.708201048935
 21
107.467488025802
 31
0.0
  0
SPLINE
  5
3D0
100
AcDbEntity
  8
0
  6
CONTINUOUS
 62
           7
100
AcDbSpline
210
0.0
220
0.0
230
1.0
 70
           0
 71
           3
 72
          10
 73
           7
 74
          11
 42
0.00000000001
 43
0.00000000001
 44
0.00000000001
 40
0.0
 40
0.0
 40
0.0
 40
0.0496055164844722
 40
0.1334551842166028
 40
0.2055531570811983
 40
0.2404641699748565
 40
0.2471470789981249
 40
0.2471470789981249
 40
0.2471470789981249
 10
243.81554901417499
 20
105.898031837793
 30
0.0
 10
243.81537386319599
 20
105.904285720446
 30
0.0
 10
243.81294667483201
 20
105.99095010148299
 30
0.0
 10
243.80637187909801
 20
106.071683796844
 30
0.0
 10
243.79985685454801
 20
106.134542043145
 30
0.0
 10
243.79718304385099
 20
106.140605751471
 30
0.0
 10
243.795823602045
 20
106.14368871415201
 30
0.0
 11
243.81554901417499
 21
105.898031837793
 31
0.0
 11
243.81519210344121
 21
105.9107755738394
 31
0.0
 11
243.81447167319783
 21
105.93649901667263
 31
0.0
 11
243.81244414311777
 21
105.98818952000398
 31
0.0
 11
243.80941154960925
 21
106.03435886037735
 31
0.0
 11
243.8060344120999
 21
106.07294034679055
 31
0.0
 11
243.80198234059441
 21
106.11403493309683
 31
0.0
 11
243.79982717389493
 21
106.13068762821501
 31
0.0
 11
243.79761264588922
 21
106.13963149347323
 31
0.0
 11
243.79695058390908
 21
106.14113292764182
 31
0.0
 11
243.795823602045
 21
106.14368871415201
 31
0.0
  0
SPLINE
  5
3CF
100
AcDbEntity
  8
0
  6
CONTINUOUS
 62
           7
100
AcDbSpline
210
0.0
220
0.0
230
1.0
 70
           0
 71
           3
 72
          10
 73
           7
 74
          11
 42
0.00000000001
 43
0.00000000001
 44
0.00000000001
 40
0.0
 40
0.0
 40
0.0
 40
0.0066513614016721
 40
0.0416979738029435
 40
0.1112789951260667
 40
0.1892241086509428
 40
0.229770980890937
 40
0.229770980890937
 40
0.229770980890937
 10
243.57529852356899
 20
102.919732209781
 30
0.0
 10
243.577063618528
 20
102.92258355104801
 30
0.0
 10
243.580535317738
 20
102.928191747464
 30
0.0
 10
243.595567634796
 20
102.98988415013
 30
0.0
 10
243.61215530290499
 20
103.06370815358299
 30
0.0
 10
243.62535554021201
 20
103.14284033598901
 30
0.0
 10
243.62542696114801
 20
103.143268486971
 30
0.0
 11
243.57529852356899
 21
102.919732209781
 31
0.0
 11
243.57676078992131
 21
102.922094360538
 31
0.0
 11
243.57761739906019
 21
102.92347813027507
 31
0.0
 11
243.58106466370256
 21
102.93217954459791
 31
0.0
 11
243.58557062027398
 21
102.94885655318859
 31
0.0
 11
243.59502428357149
 21
102.98833206371259
 31
0.0
 11
243.60339124442001
 21
103.02470340140174
 31
0.0
 11
243.61213509753469
 21
103.0669704341307
 31
0.0
 11
243.62083853990885
 21
103.11576202795513
 31
0.0
 11
243.62424414537026
 21
103.13617779672605
 31
0.0
 11
243.62542696114801
 21
103.143268486971
 31
0.0
  0
SPLINE
  5
3CE
100
AcDbEntity
  8
0
  6
CONTINUOUS
 62
           7
100
AcDbSpline
210
0.0
220
0.0
230
1.0
 70
           0
 71
           3
 72
          10
 73
           7
 74
          11
 42
0.00000000001
 43
0.00000000001
 44
0.00000000001
 40
0.0
 40
0.0
 40
0.0
 40
0.0413392054500245
 40
0.1198270660207398
 40
0.1896566912168998
 40
0.2246998455429741
 40
0.231356075827637
 40
0.231356075827637
 40
0.231356075827637
 10
243.31201921966101
 20
101.635371556992
 30
0.0
 10
243.312246284797
 20
101.636281776529
 30
0.0
 10
243.331803988259
 20
101.71468132336599
 30
0.0
 10
243.346130601346
 20
101.789495467317
 30
0.0
 10
243.35691249364501
 20
101.85205892633699
 30
0.0
 10
243.355963662893
 20
101.858590970325
 30
0.0
 10
243.35548125025099
 20
101.861912047977
 30
0.0
 11
243.31201921966101
 21
101.635371556992
 31
0.0
 11
243.31387632423309
 21
101.64281599734684
 31
0.0
 11
243.31899350767739
 21
101.66332887933733
 31
0.0
 11
243.33049673669507
 21
101.71174090255494
 31
0.0
 11
243.33938546258489
 21
101.75427208415041
 31
0.0
 11
243.346239099586
 21
101.79110410399221
 31
0.0
 11
243.35330973306708
 21
101.83115339718444
 31
0.0
 11
243.35581245989638
 21
101.84820488699631
 31
0.0
 11
243.35611511922852
 21
101.85754829812684
 31
0.0
 11
243.35588092381641
 21
101.85916057168848
 31
0.0
 11
243.35548125025099
 21
101.861912047977
 31
0.0
  0
SPLINE
  5
3CD
100
AcDbEntity
  8
0
  6
CONTINUOUS
 62
           7
100
AcDbSpline
210
0.0
220
0.0
230
1.0
 70
           0
 71
           3
 72
          10
 73
           7
 74
          11
 42
0.00000000001
 43
0.00000000001
 44
0.00000000001
 40
0.0
 40
0.0
 40
0.0
 40
0.0066490414404986
 40
0.0417054475383761
 40
0.1111374808634742
 40
0.1887363835210907
 40
0.2287627754066292
 40
0.2287627754066292
 40
0.2287627754066292
 10
242.27332074009999
 20
98.817005510000001
 30
0.0
 10
242.27578838611501
 20
98.819274561705001
 30
0.0
 10
242.280641902848
 20
98.823737471088606
 30
0.0
 10
242.31179323025299
 20
98.879093576223994
 30
0.0
 10
242.347419619498
 20
98.945483272391201
 30
0.0
 10
242.38143176378699
 20
99.017730656204606
 30
0.0
 10
242.38147429939499
 20
99.017821008825905
 30
0.0
 11
242.27332074009999
 21
98.817005510000001
 31
0.0
 11
242.27536492196521
 21
98.818885177636218
 31
0.0
 11
242.2765621755309
 21
98.819986077134956
 31
0.0
 11
242.28223482845544
 21
98.827442686733278
 31
0.0
 11
242.29109333259495
 21
98.842309727620901
 31
0.0
 11
242.31082419493009
 21
98.877735372103388
 31
0.0
 11
242.32861698661949
 21
98.910444608344648
 31
0.0
 11
242.3483285223088
 21
98.948639235848489
 31
0.0
 11
242.36985786361981
 21
98.993145790266951
 31
0.0
 11
242.37854892264718
 21
99.011607027875513
 31
0.0
 11
242.38147429939499
 21
99.017821008825905
 31
0.0
  0
SPLINE
  5
3CC
100
AcDbEntity
  8
0
  6
CONTINUOUS
 62
           7
100
AcDbSpline
210
0.0
220
0.0
230
1.0
 70
           0
 71
           3
 72
           9
 73
           6
 74
           9
 42
0.00000000001
 43
0.00000000001
 44
0.00000000001
 40
0.0
 40
0.0
 40
0.0
 40
0.1105022582248252
 40
0.1872703231590834
 40
0.2204013648902291
 40
0.2274278031156993
 40
0.2274278031156993
 40
0.2274278031156993
 10
241.67515832748401
 20
97.654655332232096
 30
0.0
 10
241.705164102168
 20
97.710484112221593
 30
0.0
 10
241.74977968211201
 20
97.793495913219303
 30
0.0
 10
241.774619977604
 20
97.847336252880297
 30
0.0
 10
241.77570592379701
 20
97.854218820363499
 30
0.0
 10
241.77625804957199
 20
97.857718112433602
 30
0.0
 11
241.67515832748401
 21
97.654655332232096
 31
0.0
 11
241.70424421697976
 21
97.708772572748842
 31
0.0
 11
241.73149033609906
 21
97.759466734320057
 31
0.0
 11
241.74954528218345
 21
97.794390921244243
 31
0.0
 11
241.76713142841075
 21
97.831105124218269
 31
0.0
 11
241.77297182428498
 21
97.844698048280108
 31
0.0
 11
241.77551591352125
 21
97.853014563141542
 31
0.0
 11
241.77579645267181
 21
97.85479257907555
 31
0.0
 11
241.77625804957199
 21
97.857718112433602
 31
0.0
  0
SPLINE
  5
3CB
100
AcDbEntity
  8
0
  6
CONTINUOUS
 62
           7
100
AcDbSpline
210
0.0
220
0.0
230
1.0
 70
           0
 71
           3
 72
          10
 73
           7
 74
          11
 42
0.00000000001
 43
0.00000000001
 44
0.00000000001
 40
0.0
 40
0.0
 40
0.0
 40
0.0066813532482156
 40
0.0415804092015328
 40
0.1136620932159527
 40
0.1975105124159221
 40
0.2471455881407827
 40
0.2471455881407827
 40
0.2471455881407827
 10
239.91272162460001
 20
95.217688696899998
 30
0.0
 10
239.91572127495999
 20
95.219221490591593
 30
0.0
 10
239.92162117174601
 20
95.2222362834287
 30
0.0
 10
239.966329782787
 20
95.266867148905803
 30
0.0
 10
240.022369168202
 20
95.3253401859874
 30
0.0
 10
240.07895341331599
 20
95.391037684150604
 30
0.0
 10
240.08305307295399
 20
95.395797620082504
 30
0.0
 11
239.91272162460001
 21
95.217688696899998
 31
0.0
 11
239.91520836878311
 21
95.218959400259635
 31
0.0
 11
239.91666930061226
 21
95.219705922955328
 31
0.0
 11
239.92402939373184
 21
95.225243542576692
 31
0.0
 11
239.93620593082306
 21
95.236795680493998
 31
0.0
 11
239.96527514025718
 21
95.266106852816051
 31
0.0
 11
239.9922350646317
 21
95.293897432958687
 31
0.0
 11
240.0237215714408
 21
95.327796562340879
 31
0.0
 11
240.05791288472744
 21
95.36660844443
 31
0.0
 11
240.07471819607835
 21
95.386120358203414
 31
0.0
 11
240.08305307295399
 21
95.395797620082504
 31
0.0
  0
SPLINE
  5
3CA
100
AcDbEntity
  8
0
  6
CONTINUOUS
 62
           7
100
AcDbSpline
210
0.0
220
0.0
230
1.0
 70
           0
 71
           3
 72
          10
 73
           7
 74
          11
 42
0.00000000001
 43
0.00000000001
 44
0.00000000001
 40
0.0
 40
0.0
 40
0.0
 40
0.0493604847725589
 40
0.1330528700319627
 40
0.2050848343262436
 40
0.239999435676625
 40
0.246681459366828
 40
0.246681459366828
 40
0.246681459366828
 10
239.009538961613
 20
94.246317388976195
 30
0.0
 10
239.01387740524001
 20
94.250603438187994
 30
0.0
 10
239.07542956714801
 20
94.311412248390099
 30
0.0
 10
239.12985152164401
 20
94.371218068713603
 30
0.0
 10
239.17134867559901
 20
94.418889957046204
 30
0.0
 10
239.173954244247
 20
94.424982346215202
 30
0.0
 10
239.17527898963701
 20
94.428079890573599
 30
0.0
 11
239.009538961613
 21
94.246317388976195
 31
0.0
 11
239.018501511007
 21
94.255171699663123
 31
0.0
 11
239.0367122719351
 21
94.273162533300308
 31
0.0
 11
239.07306236761323
 21
94.309885319155143
 31
0.0
 11
239.10467806422187
 21
94.343554246540123
 31
0.0
 11
239.13054557547716
 21
94.372329252091234
 31
0.0
 11
239.15780119439864
 21
94.403326624397607
 31
0.0
 11
239.16850855873474
 21
94.416277552956728
 31
0.0
 11
239.17353568934226
 21
94.424003673336884
 31
0.0
 11
239.17418079186834
 21
94.425512064085211
 31
0.0
 11
239.17527898963701
 21
94.428079890573599
 31
0.0
  0
SPLINE
  5
3C9
100
AcDbEntity
  8
0
  6
CONTINUOUS
 62
           7
100
AcDbSpline
210
0.0
220
0.0
230
1.0
 70
           0
 71
           3
 72
          10
 73
           7
 74
          11
 42
0.00000000001
 43
0.00000000001
 44
0.00000000001
 40
0.0
 40
0.0
 40
0.0
 40
0.0066588766165408
 40
0.0416683094001567
 40
0.1118391350983192
 40
0.1911738665097795
 40
0.2338420221783105
 40
0.2338420221783105
 40
0.2338420221783105
 10
236.66857585128599
 20
92.388725596035101
 30
0.0
 10
236.67186779123799
 20
92.389384585835003
 30
0.0
 10
236.67834258350101
 20
92.390680727963797
 30
0.0
 10
236.73362579433501
 20
92.421750115052305
 30
0.0
 10
236.799955897773
 20
92.460710767866303
 30
0.0
 10
236.86805677458199
 20
92.505924242923896
 30
0.0
 10
236.86955340024301
 20
92.506917881334402
 30
0.0
 11
236.66857585128599
 21
92.388725596035101
 31
0.0
 11
236.67130348510821
 21
92.389271621446525
 31
0.0
 11
236.67290250667082
 21
92.389591718080993
 31
0.0
 11
236.68158284261972
 21
92.392993850435616
 31
0.0
 11
236.69674369680584
 21
92.401022227733847
 31
0.0
 11
236.73218832199586
 21
92.421139714391273
 31
0.0
 11
236.76475800250756
 21
92.440036399726608
 31
0.0
 11
236.80222740125038
 21
92.462892409472829
 31
0.0
 11
236.84423980694788
 21
92.49011170243206
 31
0.0
 11
236.86247668908871
 21
92.502219517403574
 31
0.0
 11
236.86955340024301
 21
92.506917881334402
 31
0.0
  0
SPLINE
  5
3C8
100
AcDbEntity
  8
0
  6
CONTINUOUS
 62
           7
100
AcDbSpline
210
0.0
220
0.0
230
1.0
 70
           0
 71
           3
 72
           9
 73
           6
 74
           9
 42
0.00000000001
 43
0.00000000001
 44
0.00000000001
 40
0.0
 40
0.0
 40
0.0
 40
0.1084484217894767
 40
0.1841486496553118
 40
0.2169107219269412
 40
0.2239503674214944
 40
0.2239503674214944
 40
0.2239503674214944
 10
235.55653990995299
 20
91.708169075215494
 30
0.0
 10
235.61000970337699
 20
91.739592705383799
 30
0.0
 10
235.69006552343799
 20
91.786640661273594
 30
0.0
 10
235.73863354700401
 20
91.819328111566605
 30
0.0
 10
235.743149577087
 20
91.824651376047598
 30
0.0
 10
235.74544565569801
 20
91.827357875669605
 30
0.0
 11
235.55653990995299
 21
91.708169075215494
 31
0.0
 11
235.60842882983013
 21
91.7386636427768
 31
0.0
 11
235.65715600261365
 21
91.767300085124134
 31
0.0
 11
235.69031254043324
 21
91.787508990775876
 31
0.0
 11
235.72396311224335
 21
91.809454555432183
 31
0.0
 11
235.73589526066641
 21
91.817955160025619
 31
0.0
 11
235.7423508364142
 21
91.823709861537083
 31
0.0
 11
235.74352391157157
 21
91.825092622325485
 31
0.0
 11
235.74544565569801
 21
91.827357875669605
 31
0.0
  0
SPLINE
  5
3C7
100
AcDbEntity
  8
0
  6
CONTINUOUS
 62
           7
100
AcDbSpline
210
0.0
220
0.0
230
1.0
 70
           0
 71
           3
 72
           9
 73
           6
 74
           9
 42
0.00000000001
 43
0.00000000001
 44
0.00000000001
 40
0.0
 40
0.0
 40
0.0
 40
0.0070420436384917
 40
0.039666588368651
 40
0.1149764356162106
 40
0.222687949258585
 40
0.222687949258585
 40
0.222687949258585
 10
232.78148688193599
 20
90.539928282166102
 30
0.0
 10
232.785033331628
 20
90.5397600914214
 30
0.0
 10
232.79200870764299
 20
90.539429283489994
 30
0.0
 10
232.84877956582699
 20
90.552543462141301
 30
0.0
 10
232.93732412515899
 20
90.578793971768803
 30
0.0
 10
232.99632064815799
 20
90.596284473801305
 30
0.0
 11
232.78148688193599
 21
90.539928282166102
 31
0.0
 11
232.78445630533474
 21
90.539787456953249
 31
0.0
 11
232.78627167614695
 21
90.539701362804081
 31
0.0
 11
232.79486437851239
 21
90.540488285201505
 31
0.0
 11
232.80916842261666
 21
90.543393211021979
 31
0.0
 11
232.84798538516949
 21
90.552956297091811
 31
0.0
 11
232.88521398640756
 21
90.563345053062733
 31
0.0
 11
232.93904572122091
 21
90.5793043676004
 31
0.0
 11
232.99632064815799
 21
90.596284473801305
 31
0.0
  0
SPLINE
  5
3C6
100
AcDbEntity
  8
0
  6
CONTINUOUS
 62
           7
100
AcDbSpline
210
0.0
220
0.0
230
1.0
 70
           0
 71
           3
 72
          10
 73
           7
 74
          11
 42
0.00000000001
 43
0.00000000001
 44
0.00000000001
 40
0.0
 40
0.0
 40
0.0
 40
0.043700483500498
 40
0.1237288460983071
 40
0.1942098591560608
 40
0.2292135563170529
 40
0.2358777807588866
 40
0.2358777807588866
 40
0.2358777807588866
 10
231.51559505429299
 20
90.181752795839898
 30
0.0
 10
231.51798216200501
 20
90.182320560623893
 30
0.0
 10
231.59823691708999
 20
90.201408858757006
 30
0.0
 10
231.67260860701799
 20
90.2234291906816
 30
0.0
 10
231.73303007220099
 20
90.242629794458693
 30
0.0
 10
231.73840213348501
 20
90.246478633153998
 30
0.0
 10
231.74113344218799
 20
90.248435492182395
 30
0.0
 11
231.51559505429299
 21
90.181752795839898
 31
0.0
 11
231.52447179158409
 21
90.183864095135306
 31
0.0
 11
231.54632778803341
 21
90.189062463453538
 31
0.0
 11
231.59514580394762
 21
90.201249405001192
 31
0.0
 11
231.63778159357705
 21
90.213117439037205
 31
0.0
 11
231.67399470518978
 21
90.224058537510444
 31
0.0
 11
231.71298001314597
 21
90.236258329641402
 31
0.0
 11
231.72914577549497
 21
90.241845245413771
 31
0.0
 11
231.73754294443179
 21
90.245863063096294
 31
0.0
 11
231.73887016339748
 21
90.246813955396675
 31
0.0
 11
231.74113344218799
 21
90.248435492182395
 31
0.0
  0
SPLINE
  5
3C5
100
AcDbEntity
  8
0
  6
CONTINUOUS
 62
           7
100
AcDbSpline
210
0.0
220
0.0
230
1.0
 70
           0
 71
           3
 72
          10
 73
           7
 74
          11
 42
0.00000000001
 43
0.00000000001
 44
0.00000000001
 40
0.0
 40
0.0
 40
0.0
 40
0.0066804623799367
 40
0.0415834097013577
 40
0.1135961263581708
 40
0.197281474866735
 40
0.2466633810796458
 40
0.2466633810796458
 40
0.2466633810796458
 10
228.53974195247699
 20
89.808414446676395
 30
0.0
 10
228.54290917213399
 20
89.807268562810407
 30
0.0
 10
228.54913865602401
 20
89.805014767413098
 30
0.0
 10
228.612281204292
 20
89.802803986609405
 30
0.0
 10
228.693118596906
 20
89.801755311314594
 30
0.0
 10
228.77957511351801
 20
89.805234735751199
 30
0.0
 10
228.78568881940299
 20
89.805480780566398
 30
0.0
 11
228.53974195247699
 21
89.808414446676395
 31
0.0
 11
228.54236756214769
 21
89.807464514532143
 31
0.0
 11
228.54390995184573
 21
89.806906485831348
 31
0.0
 11
228.55298474974819
 21
89.805307267969525
 31
0.0
 11
228.569751735099
 21
89.80429305122054
 31
0.0
 11
228.61099596703582
 21
89.803054995704827
 31
0.0
 11
228.64966972446024
 21
89.802318958379999
 31
0.0
 11
228.69584939936649
 21
89.802443271352132
 31
0.0
 11
228.74749067919367
 21
89.803943504399342
 31
0.0
 11
228.77308243140817
 21
89.80497343911702
 31
0.0
 11
228.78568881940299
 21
89.805480780566398
 31
0.0
  0
SPLINE
  5
3C4
100
AcDbEntity
  8
0
  6
CONTINUOUS
 62
           7
100
AcDbSpline
210
0.0
220
0.0
230
1.0
 70
           0
 71
           3
 72
           9
 73
           6
 74
           9
 42
0.00000000001
 43
0.00000000001
 44
0.00000000001
 40
0.0
 40
0.0
 40
0.0
 40
0.1076015305874895
 40
0.1828613612579975
 40
0.2154710774211524
 40
0.2225157611578224
 40
0.2225157611578224
 40
0.2225157611578224
 10
227.23742400346501
 20
89.804718958700306
 30
0.0
 10
227.298875555991
 20
89.803793941409097
 30
0.0
 10
227.39115113520501
 20
89.8024049365293
 30
0.0
 10
227.449322576073
 20
89.8050954676944
 30
0.0
 10
227.455952823595
 20
89.807295756906498
 30
0.0
 10
227.459323830476
 20
89.808414446676395
 30
0.0
 11
227.23742400346501
 21
89.804718958700306
 31
0.0
 11
227.29708715058641
 21
89.803820861899382
 31
0.0
 11
227.3531734868987
 21
89.802976606079028
 31
0.0
 11
227.39180317529704
 21
89.803017145125054
 31
0.0
 11
227.4317369438794
 21
89.804282101362588
 31
0.0
 11
227.44628926070996
 21
89.805344476965743
 31
0.0
 11
227.4547749468145
 21
89.806904871111541
 31
0.0
 11
227.4565011061201
 21
89.807477707900233
 31
0.0
 11
227.459323830476
 21
89.808414446676395
 31
0.0
  0
SPLINE
  5
3C3
100
AcDbEntity
  8
0
  6
CONTINUOUS
 62
           7
100
AcDbSpline
210
0.0
220
0.0
230
1.0
 70
           0
 71
           3
 72
          10
 73
           7
 74
          11
 42
0.00000000001
 43
0.00000000001
 44
0.00000000001
 40
0.0
 40
0.0
 40
0.0
 40
0.006665472282968
 40
0.0416436074200855
 40
0.1123277320065373
 40
0.1928736727892967
 40
0.2373996944264198
 40
0.2373996944264198
 40
0.2373996944264198
 10
224.257932340765
 20
90.248435492182395
 30
0.0
 10
224.260664427992
 20
90.246478662818902
 30
0.0
 10
224.26603806410401
 20
90.242629851246093
 30
0.0
 10
224.326408919193
 20
90.223442967755304
 30
0.0
 10
224.401222842518
 20
90.201300854004899
 30
0.0
 10
224.48204185111001
 20
90.182093262473003
 30
0.0
 10
224.48495176438399
 20
90.181401687229297
 30
0.0
 11
224.257932340765
 21
90.248435492182395
 31
0.0
 11
224.26019643212069
 21
90.246813860046046
 31
0.0
 11
224.26152453173378
 21
90.245862622363944
 31
0.0
 11
224.2699059302237
 21
90.241850151136077
 31
0.0
 11
224.28602306095314
 21
90.236278279688207
 31
0.0
 11
224.32505436164769
 21
90.224064519321118
 31
0.0
 11
224.36137654725158
 21
90.2130938620856
 31
0.0
 11
224.40427306397953
 21
90.20115669926146
 31
0.0
 11
224.45327002363058
 21
90.188931226950416
 31
0.0
 11
224.47557637255869
 21
90.183629859781433
 31
0.0
 11
224.48495176438399
 21
90.181401687229297
 31
0.0
  0
SPLINE
  5
3C2
100
AcDbEntity
  8
0
  6
CONTINUOUS
 62
           7
100
AcDbSpline
210
0.0
220
0.0
230
1.0
 70
           0
 71
           3
 72
          10
 73
           7
 74
          11
 42
0.00000000001
 43
0.00000000001
 44
0.00000000001
 40
0.0
 40
0.0
 40
0.0
 40
0.0487977792577999
 40
0.1321279544788842
 40
0.2040065463784951
 40
0.2389294944739975
 40
0.2456100267391738
 40
0.2456100267391738
 40
0.2456100267391738
 10
222.98096336242
 20
90.603134351337602
 30
0.0
 10
222.986419626105
 20
90.601366233088299
 30
0.0
 10
223.068349612356
 20
90.57481658076
 30
0.0
 10
223.14617811801099
 20
90.554109860885504
 30
0.0
 10
223.207613392947
 20
90.539189162589693
 30
0.0
 10
223.214219942303
 20
90.539679155666505
 30
0.0
 10
223.21757890101699
 20
90.539928282166102
 30
0.0
 11
222.98096336242
 21
90.603134351337602
 31
0.0
 11
222.992620199702
 21
90.599356919029205
 31
0.0
 11
223.01667818417803
 21
90.591560858602662
 31
0.0
 11
223.06587810949262
 21
90.576223337834818
 31
0.0
 11
223.11013502908042
 21
90.563699331216654
 31
0.0
 11
223.14750399695296
 21
90.553996780623351
 31
0.0
 11
223.18752472270944
 21
90.544068069505798
 31
0.0
 11
223.20397764894068
 21
90.540511717271087
 31
0.0
 11
223.21315908715937
 21
90.539600474399194
 31
0.0
 11
223.21479446819558
 21
90.539721766974566
 31
0.0
 11
223.21757890101699
 21
90.539928282166102
 31
0.0
  0
SPLINE
  5
3C1
100
AcDbEntity
  8
0
  6
CONTINUOUS
 62
           7
100
AcDbSpline
210
0.0
220
0.0
230
1.0
 70
           0
 71
           3
 72
           9
 73
           6
 74
           9
 42
0.00000000001
 43
0.00000000001
 44
0.00000000001
 40
0.0
 40
0.0
 40
0.0
 40
0.0070686521944218
 40
0.038953140772036
 40
0.1121217494899721
 40
0.2157184182999674
 40
0.2157184182999674
 40
0.2157184182999674
 10
220.253620127255
 20
91.827357875669605
 30
0.0
 10
220.255930711421
 20
91.824644533935995
 30
0.0
 10
220.26047531526399
 20
91.819307760903598
 30
0.0
 10
220.30754120941401
 20
91.787583513573693
 30
0.0
 10
220.38476524077799
 20
91.742189246862694
 30
0.0
 10
220.435462722594
 20
91.712387966478502
 30
0.0
 11
220.253620127255
 21
91.827357875669605
 31
0.0
 11
220.25555923761164
 21
91.82508075928753
 31
0.0
 11
220.25675540034956
 21
91.823676093608483
 31
0.0
 11
220.26311655909583
 21
91.81799270086448
 31
0.0
 11
220.27476020550571
 21
91.809679188042224
 31
0.0
 11
220.3073373114525
 21
91.78840990988121
 31
0.0
 11
220.33950662147635
 21
91.768793424335215
 31
0.0
 11
220.3861249564066
 21
91.741389971134765
 31
0.0
 11
220.435462722594
 21
91.712387966478502
 31
0.0
  0
SPLINE
  5
3C0
100
AcDbEntity
  8
0
  6
CONTINUOUS
 62
           7
100
AcDbSpline
210
0.0
220
0.0
230
1.0
 70
           0
 71
           3
 72
          10
 73
           7
 74
          11
 42
0.00000000001
 43
0.00000000001
 44
0.00000000001
 40
0.0
 40
0.0
 40
0.0
 40
0.0456347350880227
 40
0.1269206544936274
 40
0.1979348762371575
 40
0.2329071198063932
 40
0.2395775090635369
 40
0.2395775090635369
 40
0.2395775090635369
 10
219.12473004129001
 20
92.510089034700997
 30
0.0
 10
219.127810563933
 20
92.508042959336194
 30
0.0
 10
219.19767683970099
 20
92.461637955298698
 30
0.0
 10
219.265489632624
 20
92.421701830042906
 30
0.0
 10
219.320707901709
 20
92.390691954769906
 30
0.0
 10
219.32719281738801
 20
92.389388373545501
 30
0.0
 10
219.33048993166699
 20
92.388725596035101
 30
0.0
 11
219.12473004129001
 21
92.510089034700997
 31
0.0
 11
219.13332059507684
 21
92.504383210556583
 31
0.0
 11
219.15293121115135
 21
92.491357888852917
 31
0.0
 11
219.19553872558984
 21
92.463739242609861
 31
0.0
 11
219.23387001180586
 21
92.440323170989103
 31
0.0
 11
219.26683421600637
 21
92.421162770522599
 31
0.0
 11
219.30248758697149
 21
92.400924251015454
 31
0.0
 11
219.31751436068004
 21
92.392976336001382
 31
0.0
 11
219.32615405233059
 21
92.389597183450263
 31
0.0
 11
219.32775740469339
 21
92.389274881644113
 31
0.0
 11
219.33048993166699
 21
92.388725596035101
 31
0.0
  0
SPLINE
  5
3BF
100
AcDbEntity
  8
0
  6
CONTINUOUS
 62
           7
100
AcDbSpline
210
0.0
220
0.0
230
1.0
 70
           0
 71
           3
 72
          10
 73
           7
 74
          11
 42
0.00000000001
 43
0.00000000001
 44
0.00000000001
 40
0.0
 40
0.0
 40
0.0
 40
0.006678756562839
 40
0.0415908274066982
 40
0.1134397165691453
 40
0.1967376344859349
 40
0.2455181438918534
 40
0.2455181438918534
 40
0.2455181438918534
 10
216.823786793316
 20
94.428079890573599
 30
0.0
 10
216.82511044878899
 20
94.424983687615494
 30
0.0
 10
216.82771389661701
 20
94.418893883258306
 30
0.0
 10
216.86921099455401
 20
94.371224399614206
 30
0.0
 10
216.923376489052
 20
94.311677762534799
 30
0.0
 10
216.98462313953101
 20
94.251163912597207
 30
0.0
 10
216.98869980689301
 20
94.247136021519296
 30
0.0
 11
216.823786793316
 21
94.428079890573599
 31
0.0
 11
216.82488405192217
 21
94.425513259443733
 31
0.0
 11
216.82552851679466
 21
94.424005771970315
 31
0.0
 11
216.83056005961308
 21
94.416274737074929
 31
0.0
 11
216.84128392842365
 21
94.403305409812816
 31
0.0
 11
216.86850027330408
 21
94.372350601606101
 31
0.0
 11
216.89429517568465
 21
94.343648197383175
 31
0.0
 11
216.92576276884765
 21
94.310129301961197
 31
0.0
 11
216.96200292160194
 21
94.273513485391987
 31
0.0
 11
216.97998725188921
 21
94.255744333026414
 31
0.0
 11
216.98869980689301
 21
94.247136021519296
 31
0.0
  0
SPLINE
  5
3BE
100
AcDbEntity
  8
0
  6
CONTINUOUS
 62
           7
100
AcDbSpline
210
0.0
220
0.0
230
1.0
 70
           0
 71
           3
 72
           9
 73
           6
 74
           9
 42
0.00000000001
 43
0.00000000001
 44
0.00000000001
 40
0.0
 40
0.0
 40
0.0
 40
0.1044202361274128
 40
0.1780238148834163
 40
0.2100607426416934
 40
0.2171265462580594
 40
0.2171265462580594
 40
0.2171265462580594
 10
215.93583032306501
 20
95.373373235130899
 30
0.0
 10
215.975686095122
 20
95.329396364538397
 30
0.0
 10
216.03621833313099
 20
95.262605075342904
 30
0.0
 10
216.077069935363
 20
95.222757846478999
 30
0.0
 10
216.08321820248301
 20
95.219397296968495
 30
0.0
 10
216.086344158316
 20
95.217688696945302
 30
0.0
 11
215.93583032306501
 21
95.373373235130899
 31
0.0
 11
215.97459847939908
 21
95.330596440046577
 31
0.0
 11
216.01119140428727
 21
95.290219795978643
 31
0.0
 11
216.03707729976844
 21
95.262568002506924
 31
0.0
 11
216.06468112852457
 21
95.23484206336326
 31
0.0
 11
216.07523205482249
 21
95.225090574858669
 31
0.0
 11
216.08210722003946
 21
95.220004543113447
 31
0.0
 11
216.0837219458304
 21
95.219121958498931
 31
0.0
 11
216.086344158316
 21
95.217688696945302
 31
0.0
  0
SPLINE
  5
3BD
100
AcDbEntity
  8
0
  6
CONTINUOUS
 62
           7
100
AcDbSpline
210
0.0
220
0.0
230
1.0
 70
           0
 71
           3
 72
          10
 73
           7
 74
          11
 42
0.00000000001
 43
0.00000000001
 44
0.00000000001
 40
0.0
 40
0.0
 40
0.0
 40
0.0066702662901422
 40
0.041622726956735
 40
0.1127426763531386
 40
0.1943183600658473
 40
0.2404312193948089
 40
0.2404312193948089
 40
0.2404312193948089
 10
214.22280773338099
 20
97.857718112433602
 30
0.0
 10
214.223244235153
 20
97.854383566160394
 30
0.0
 10
214.22410277352699
 20
97.847824976668306
 30
0.0
 10
214.25125198731601
 20
97.790653374182796
 30
0.0
 10
214.286586520257
 20
97.720052399513094
 30
0.0
 10
214.32828352847801
 20
97.646899747667106
 30
0.0
 10
214.330270251298
 20
97.643414268756501
 30
0.0
 11
214.22280773338099
 21
97.857718112433602
 31
0.0
 11
214.2231695060602
 21
97.854954440401485
 31
0.0
 11
214.22338182055393
 21
97.853332516851552
 31
0.0
 11
214.2261590542488
 21
97.844492135155804
 31
0.0
 11
214.2330488493871
 21
97.828986070434965
 31
0.0
 11
214.2508155808018
 21
97.792015720898632
 31
0.0
 11
214.26770949918807
 21
97.757770064793988
 31
0.0
 11
214.28852695009812
 21
97.717798156815078
 31
0.0
 11
214.31322526069039
 21
97.673317763440167
 31
0.0
 11
214.32501564223611
 21
97.652632881882724
 31
0.0
 11
214.330270251298
 21
97.643414268756501
 31
0.0
  0
SPLINE
  5
3BC
100
AcDbEntity
  8
0
  6
CONTINUOUS
 62
           7
100
AcDbSpline
210
0.0
220
0.0
230
1.0
 70
           0
 71
           3
 72
          10
 73
           7
 74
          11
 42
0.00000000001
 43
0.00000000001
 44
0.00000000001
 40
0.0
 40
0.0
 40
0.0
 40
0.0479312161158348
 40
0.1307016786278542
 40
0.2023429547942831
 40
0.2372795339348034
 40
0.2439576669215511
 40
0.2439576669215511
 40
0.2439576669215511
 10
213.61113648679299
 20
99.031577108914306
 30
0.0
 10
213.61333209898899
 20
99.026889191833604
 30
0.0
 10
213.64960006487499
 20
98.949452376229502
 30
0.0
 10
213.687363047589
 20
98.878890121236594
 30
0.0
 10
213.71840376476001
 20
98.823779842122093
 30
0.0
 10
213.72327060322601
 20
98.819288855692193
 30
0.0
 10
213.725745042825
 20
98.817005509997003
 30
0.0
 11
213.61113648679299
 21
99.031577108914306
 31
0.0
 11
213.61610826362318
 21
99.020961719927996
 31
0.0
 11
213.62663236972162
 21
98.998491387130485
 31
0.0
 11
213.64891873358405
 21
98.952256127533417
 31
0.0
 11
213.66984243486462
 21
98.911628370544179
 31
0.0
 11
213.68819926084927
 21
98.877813447459886
 31
0.0
 11
213.70822851335436
 21
98.841845176822204
 31
0.0
 11
213.71688140969684
 21
98.827353602276801
 31
0.0
 11
213.72248959591298
 21
98.820009548040829
 31
0.0
 11
213.7236939612975
 21
98.818898192355547
 31
0.0
 11
213.725745042825
 21
98.817005509997003
 31
0.0
  0
SPLINE
  5
3BB
100
AcDbEntity
  8
0
  6
CONTINUOUS
 62
           7
100
AcDbSpline
210
0.0
220
0.0
230
1.0
 70
           0
 71
           3
 72
           9
 73
           6
 74
           9
 42
0.00000000001
 43
0.00000000001
 44
0.00000000001
 40
0.0
 40
0.0
 40
0.0
 40
0.0071001840033346
 40
0.038179627626067
 40
0.1090231341340448
 40
0.2081631180758227
 40
0.2081631180758227
 40
0.2081631180758227
 10
212.64358453270199
 20
101.861912047977
 30
0.0
 10
212.64318342187701
 20
101.85835484305299
 30
0.0
 10
212.642394492112
 20
101.851358310739
 30
0.0
 10
212.651040834546
 20
101.796922693742
 30
0.0
 10
212.669909900606
 20
101.71243512262799
 30
0.0
 10
212.68208447661399
 20
101.65792260181399
 30
0.0
 11
212.64358453270199
 21
101.861912047977
 31
0.0
 11
212.64324702068637
 21
101.85891886173212
 31
0.0
 11
212.64303670628954
 21
101.85705371284551
 31
0.0
 11
212.64321417961952
 21
101.84863238761956
 31
0.0
 11
212.64503102796459
 21
101.83475921615474
 31
0.0
 11
212.65150438383503
 21
101.79757891681248
 31
0.0
 11
212.65890483828355
 21
101.76171106361122
 31
0.0
 11
212.67020227902736
 21
101.71112597767028
 31
0.0
 11
212.68208447661399
 21
101.65792260181399
 31
0.0
  0
SPLINE
  5
3BA
100
AcDbEntity
  8
0
  6
CONTINUOUS
 62
           7
100
AcDbSpline
210
0.0
220
0.0
230
1.0
 70
           0
 71
           3
 72
          10
 73
           7
 74
          11
 42
0.00000000001
 43
0.00000000001
 44
0.00000000001
 40
0.0
 40
0.0
 40
0.0
 40
0.0471687697690792
 40
0.1294475797291158
 40
0.2008809723575971
 40
0.2358287745293096
 40
0.2425044064942306
 40
0.2425044064942306
 40
0.2425044064942306
 10
212.37153962072199
 20
103.15583412397901
 30
0.0
 10
212.37230854305699
 20
103.15121217972001
 30
0.0
 10
212.386252234354
 20
103.067397519946
 30
0.0
 10
212.40350455785199
 20
102.98969882485
 30
0.0
 10
212.41852676419899
 20
102.92823211641701
 30
0.0
 10
212.42200090602199
 20
102.92259717542601
 30
0.0
 10
212.42376725938399
 20
102.919732209781
 30
0.0
 11
212.37153962072199
 21
103.15583412397901
 31
0.0
 11
212.37338653082321
 21
103.14473246241047
 31
0.0
 11
212.37738941645682
 21
103.12067136622292
 31
0.0
 11
212.38634522857532
 21
103.07031837472103
 31
0.0
 11
212.3954870291364
 21
103.02580709276917
 31
0.0
 11
212.4040219727965
 21
102.98840739633506
 31
0.0
 11
212.41359174634565
 21
102.94842484287113
 31
0.0
 11
212.41802224810621
 21
102.93209749796199
 31
0.0
 11
212.4214437176812
 21
102.92350091614274
 31
0.0
 11
212.42230319727727
 21
102.92210686919393
 31
0.0
 11
212.42376725938399
 21
102.919732209781
 31
0.0
  0
SPLINE
  5
3B9
100
AcDbEntity
  8
0
  6
CONTINUOUS
 62
           7
100
AcDbSpline
210
0.0
220
0.0
230
1.0
 70
           0
 71
           3
 72
          10
 73
           7
 74
          11
 42
0.00000000001
 43
0.00000000001
 44
0.00000000001
 40
0.0
 40
0.0
 40
0.0
 40
0.0068594539139174
 40
0.0428633309792317
 40
0.1142174925577098
 40
0.1958645503103572
 40
0.2436773435703402
 40
0.2436773435703402
 40
0.2436773435703402
 10
212.20324218090801
 20
106.14368871415201
 30
0.0
 10
212.20188728168699
 20
106.140520789596
 30
0.0
 10
212.19920229972399
 20
106.134242964526
 30
0.0
 10
212.19265515377899
 20
106.069392765684
 30
0.0
 10
212.18612462156401
 20
105.99213983287
 30
0.0
 10
212.183734264706
 20
105.90640750324199
 30
0.0
 10
212.18359686251901
 20
105.901479448445
 30
0.0
 11
212.20324218090801
 21
106.14368871415201
 31
0.0
 11
212.20211858652735
 21
106.14106160936488
 31
0.0
 11
212.20145760182746
 21
106.1395161441155
 31
0.0
 11
212.19921720818525
 21
106.13012417567943
 31
0.0
 11
212.19700663146563
 21
106.11249462955021
 31
0.0
 11
212.19298162297636
 21
106.07116124746682
 31
0.0
 11
212.18960955288182
 21
106.03336482894912
 31
0.0
 11
212.18661896997156
 21
105.98892877823607
 31
0.0
 11
212.18461708387639
 21
105.93807061825515
 31
0.0
 11
212.18392061895184
 21
105.91309126829603
 31
0.0
 11
212.18359686251901
 21
105.901479448445
 31
0.0
  0
SPLINE
  5
3B8
100
AcDbEntity
  8
0
  6
CONTINUOUS
 62
           7
100
AcDbSpline
210
0.0
220
0.0
230
1.0
 70
           0
 71
           3
 72
           9
 73
           6
 74
           9
 42
0.00000000001
 43
0.00000000001
 44
0.00000000001
 40
0.0
 40
0.0
 40
0.0
 40
0.1009579853733097
 40
0.1727570895624208
 40
0.2041696194292298
 40
0.2112588529013873
 40
0.2112588529013873
 40
0.2112588529013873
 10
212.28757344003901
 20
107.432004984955
 30
0.0
 10
212.28283206207701
 20
107.375145909504
 30
0.0
 10
212.27553563829301
 20
107.28764647078999
 30
0.0
 10
212.27435431341701
 20
107.231863899296
 30
0.0
 10
212.27609043349801
 20
107.22505166618799
 30
0.0
 10
212.27697312649499
 20
107.221588132458
 30
0.0
 11
212.28757344003901
 21
107.432004984955
 31
0.0
 11
212.28295141233318
 21
107.37657716963167
 31
0.0
 11
212.27856808513963
 21
107.32401187456375
 31
0.0
 11
212.27608830303973
 21
107.28703654459721
 31
0.0
 11
212.27471385043327
 21
107.24884136224513
 31
0.0
 11
212.27479831082829
 21
107.23471878662109
 31
0.0
 11
212.27577076604587
 21
107.22630598564719
 31
0.0
 11
212.27623118988419
 21
107.22449936262028
 31
0.0
 11
212.27697312649499
 21
107.221588132458
 31
0.0
  0
SPLINE
  5
3B7
100
AcDbEntity
  8
0
  6
CONTINUOUS
 62
           7
100
AcDbSpline
210
0.0
220
0.0
230
1.0
 70
           0
 71
           3
 72
          10
 73
           7
 74
          11
 42
0.00000000001
 43
0.00000000001
 44
0.00000000001
 40
0.0
 40
0.0
 40
0.0
 40
0.0066743597273042
 40
0.0416070330306126
 40
0.1130842315884639
 40
0.1955039887591264
 40
0.2429229853108053
 40
0.2429229853108053
 40
0.2429229853108053
 10
212.93443843540001
 20
110.385488475228
 30
0.0
 10
212.932299002311
 20
110.382891084596
 30
0.0
 10
212.92809103222501
 20
110.377782375126
 30
0.0
 10
212.904848139926
 20
110.318961304474
 30
0.0
 10
212.87713786782399
 20
110.24422542903901
 30
0.0
 10
212.85186544868901
 20
110.16293128217001
 30
0.0
 10
212.85042475726601
 20
110.158296989763
 30
0.0
 11
212.93443843540001
 21
110.385488475228
 31
0.0
 11
212.93266510602405
 21
110.38333555484348
 31
0.0
 11
212.93162398407418
 21
110.38207157495395
 31
0.0
 11
212.92706670195818
 21
110.37402716893037
 31
0.0
 11
212.92046075930858
 21
110.35847235051551
 31
0.0
 11
212.90553379671957
 21
110.3201613260925
 31
0.0
 11
212.89197814771757
 21
110.28425034490644
 31
0.0
 11
212.87683729654333
 21
110.24133057175032
 31
0.0
 11
212.86109530280771
 21
110.19262108401681
 31
0.0
 11
212.85381273936292
 21
110.16919515952995
 31
0.0
 11
212.85042475726601
 21
110.158296989763
 31
0.0
  0
SPLINE
  5
3B6
100
AcDbEntity
  8
0
  6
CONTINUOUS
 62
           7
100
AcDbSpline
210
0.0
220
0.0
230
1.0
 70
           0
 71
           3
 72
          10
 73
           7
 74
          11
 42
0.00000000001
 43
0.00000000001
 44
0.00000000001
 40
0.0
 40
0.0
 40
0.0
 40
0.0467682783448947
 40
0.1287883050831181
 40
0.2001125247240834
 40
0.2350665441296136
 40
0.2417406794657388
 40
0.2417406794657388
 40
0.2417406794657388
 10
213.37401524003801
 20
111.631681433434
 30
0.0
 10
213.37236675391799
 20
111.62757212900399
 30
0.0
 10
213.34083837121
 20
111.548978975469
 30
0.0
 10
213.315295776353
 20
111.473843181866
 30
0.0
 10
213.29618651798299
 20
111.413507283179
 30
0.0
 10
213.29622785620299
 20
111.40688906003599
 30
0.0
 10
213.29624887373501
 20
111.40352416646
 30
0.0
 11
213.37401524003801
 21
111.631681433434
 31
0.0
 11
213.36991656551757
 21
111.62146436144334
 31
0.0
 11
213.36091751419627
 21
111.59903175433135
 31
0.0
 11
213.34244263214458
 21
111.55144510297173
 31
0.0
 11
213.32717627196206
 21
111.50879070661752
 31
0.0
 11
213.31505980427224
 21
111.47245708084984
 31
0.0
 11
213.3024713924209
 21
111.43335125304975
 31
0.0
 11
213.29776641423476
 21
111.41707899054862
 31
0.0
 11
213.29622122855216
 21
111.40795014278672
 31
0.0
 11
213.2962314536733
 21
111.40631310732968
 31
0.0
 11
213.29624887373501
 21
111.40352416646
 31
0.0
  0
SPLINE
  5
3B5
100
AcDbEntity
  8
0
  6
CONTINUOUS
 62
           7
100
AcDbSpline
210
0.0
220
0.0
230
1.0
 70
           0
 71
           3
 72
           9
 73
           6
 74
           9
 42
0.00000000001
 43
0.00000000001
 44
0.00000000001
 40
0.0
 40
0.0
 40
0.0
 40
0.0070747161069625
 40
0.0388043966682101
 40
0.1115262891016689
 40
0.2142667113859402
 40
0.2142667113859402
 40
0.2142667113859402
 10
214.78294424530301
 20
114.272716211641
 30
0.0
 10
214.78007786505799
 20
114.27059331404701
 30
0.0
 10
214.77444008910501
 20
114.266417866276
 30
0.0
 10
214.73976638905501
 20
114.221879896225
 30
0.0
 10
214.68953279932401
 20
114.14841157846899
 30
0.0
 10
214.656660629475
 20
114.10033492233801
 30
0.0
 11
214.78294424530301
 21
114.272716211641
 31
0.0
 11
214.78053749397773
 21
114.27093372426633
 31
0.0
 11
214.77905000049196
 21
114.26983205733036
 31
0.0
 11
214.77295932411272
 21
114.26388904381278
 31
0.0
 11
214.76390711774883
 21
114.25288838536875
 31
0.0
 11
214.74059663346898
 21
114.22201962164141
 31
0.0
 11
214.71894663801709
 21
114.19143030874685
 31
0.0
 11
214.68866821653501
 21
114.1471470970057
 31
0.0
 11
214.656660629475
 21
114.10033492233801
 31
0.0
  0
SPLINE
  5
3B4
100
AcDbEntity
  8
0
  6
CONTINUOUS
 62
           7
100
AcDbSpline
210
0.0
220
0.0
230
1.0
 70
           0
 71
           3
 72
          10
 73
           7
 74
          11
 42
0.00000000001
 43
0.00000000001
 44
0.00000000001
 40
0.0
 40
0.0
 40
0.0
 40
0.0483169562386376
 40
0.1313374998206714
 40
0.2030851384364868
 40
0.2380150260415844
 40
0.2446937677346343
 40
0.2446937677346343
 40
0.2446937677346343
 10
215.54423618879301
 20
115.356446000303
 30
0.0
 10
215.540932113313
 20
115.35214245824
 30
0.0
 10
215.488692511968
 20
115.28410063442
 30
0.0
 10
215.44328096820601
 20
115.217925065617
 30
0.0
 10
215.40863941810201
 20
115.165020784733
 30
0.0
 10
215.40688962432799
 20
115.15863319649699
 30
0.0
 10
215.405999979043
 20
115.155385563636
 30
0.0
 11
215.54423618879301
 21
115.356446000303
 31
0.0
 11
215.53695360465741
 21
115.34696047028396
 31
0.0
 11
215.52171400321075
 21
115.3271109643529
 31
0.0
 11
215.49085798471899
 21
115.28597876413158
 31
0.0
 11
215.46433291172923
 21
115.24860282333339
 31
0.0
 11
215.44271927501427
 21
115.21669910467321
 31
0.0
 11
215.41998225191588
 21
115.18234346412547
 31
0.0
 11
215.41110789443991
 21
115.16801088086531
 31
0.0
 11
215.40717048963955
 21
115.15965848986977
 31
0.0
 11
215.40673742933461
 21
115.15807761162492
 31
0.0
 11
215.405999979043
 21
115.155385563636
 31
0.0
  0
SPLINE
  5
3B3
100
AcDbEntity
  8
0
  6
CONTINUOUS
 62
           7
100
AcDbSpline
210
0.0
220
0.0
230
1.0
 70
           0
 71
           3
 72
          10
 73
           7
 74
          11
 42
0.00000000001
 43
0.00000000001
 44
0.00000000001
 40
0.0
 40
0.0
 40
0.0
 40
0.0066708036955165
 40
0.0416181729094066
 40
0.1128384588791196
 40
0.1946496101870993
 40
0.2411271648826057
 40
0.2411271648826057
 40
0.2411271648826057
 10
217.61166333969899
 20
117.51707432654
 30
0.0
 10
217.60848721522001
 20
117.515968082642
 30
0.0
 10
217.60224021224801
 20
117.51379225201499
 30
0.0
 10
217.551794977979
 20
117.47558762540299
 30
0.0
 10
217.48970392299501
 20
117.426484151609
 30
0.0
 10
217.42636785216999
 20
117.370606890036
 30
0.0
 10
217.42318320837001
 20
117.367797287667
 30
0.0
 11
217.61166333969899
 21
117.51707432654
 31
0.0
 11
217.60903091981413
 21
117.51615745490798
 31
0.0
 11
217.60748590911746
 21
117.51561932780793
 31
0.0
 11
217.59940035276216
 21
117.51110505213963
 31
0.0
 11
217.58563507743523
 21
117.50121637672059
 31
0.0
 11
217.55303076387165
 21
117.47628166777037
 31
0.0
 11
217.52289802209341
 21
117.45273504355494
 31
0.0
 11
217.48790491651579
 21
117.42413848498811
 31
0.0
 11
217.44931379797981
 21
117.39085059317948
 31
0.0
 11
217.43130817767246
 21
117.37496541522961
 31
0.0
 11
217.42318320837001
 21
117.367797287667
 31
0.0
  0
SPLINE
  5
3B2
100
AcDbEntity
  8
0
  6
CONTINUOUS
 62
           7
100
AcDbSpline
210
0.0
220
0.0
230
1.0
 70
           0
 71
           3
 72
           9
 73
           6
 74
           9
 42
0.00000000001
 43
0.00000000001
 44
0.00000000001
 40
0.0
 40
0.0
 40
0.0
 40
0.1013179682075561
 40
0.1733039783540424
 40
0.204780835958001
 40
0.2118680402448155
 40
0.2118680402448155
 40
0.2118680402448155
 10
218.61124720242
 20
118.335166702533
 30
0.0
 10
218.566268929091
 20
118.299675114384
 30
0.0
 10
218.49714979580099
 20
118.245134385485
 30
0.0
 10
218.455475299471
 20
118.207839266777
 30
0.0
 10
218.45168365184099
 20
118.20192186009299
 30
0.0
 10
218.44975586798199
 20
118.19891327854501
 30
0.0
 11
218.61124720242
 21
118.335166702533
 31
0.0
 11
218.56741129114999
 21
118.30057653279582
 31
0.0
 11
218.52586010399813
 21
118.26778919988227
 31
0.0
 11
218.49707844195143
 21
118.24431091438072
 31
0.0
 11
218.46815407220578
 21
118.21918568667063
 31
0.0
 11
218.45787128556393
 21
118.20946839153149
 31
0.0
 11
218.45238047110792
 21
118.20300934590132
 31
0.0
 11
218.451375910693
 21
118.2014415861581
 31
0.0
 11
218.44975586798199
 21
118.19891327854501
 31
0.0
  0
SPLINE
  5
3B1
100
AcDbEntity
  8
0
  6
CONTINUOUS
 62
           7
100
AcDbSpline
210
0.0
220
0.0
230
1.0
 70
           0
 71
           3
 72
          10
 73
           7
 74
          11
 42
0.00000000001
 43
0.00000000001
 44
0.00000000001
 40
0.0
 40
0.0
 40
0.0
 40
0.0066772810742984
 40
0.0415945005506639
 40
0.1133491538936424
 40
0.1964241115483206
 40
0.244858417793844
 40
0.244858417793844
 40
0.244858417793844
 10
221.21080366712201
 20
119.877943525577
 30
0.0
 10
221.207443705142
 20
119.877733335714
 30
0.0
 10
221.20083512141301
 20
119.87731992112199
 30
0.0
 10
221.14201122605999
 20
119.854176353623
 30
0.0
 10
221.06794442441199
 20
119.823166421219
 30
0.0
 10
220.990635392613
 20
119.78582817183501
 30
0.0
 10
220.98567599248301
 20
119.783432910705
 30
0.0
 11
221.21080366712201
 21
119.877943525577
 31
0.0
 11
221.20801847204689
 21
119.87776929153065
 31
0.0
 11
221.20638281078149
 21
119.87766696911758
 31
0.0
 11
221.19740829386444
 21
119.8755127700291
 31
0.0
 11
221.18158012185023
 21
119.86974426875489
 31
0.0
 11
221.14332202032782
 21
119.8544755006868
 31
0.0
 11
221.10768550734102
 21
119.83980502674632
 31
0.0
 11
221.06567058463648
 21
119.82142939012677
 31
0.0
 11
221.01910798238083
 21
119.79957969132271
 31
0.0
 11
220.99651369002248
 21
119.78866723642444
 31
0.0
 11
220.98567599248301
 21
119.783432910705
 31
0.0
  0
SPLINE
  5
3B0
100
AcDbEntity
  8
0
  6
CONTINUOUS
 62
           7
100
AcDbSpline
210
0.0
220
0.0
230
1.0
 70
           0
 71
           3
 72
           7
 73
           4
 74
           5
 42
0.00000000001
 43
0.00000000001
 44
0.00000000001
 40
0.0
 40
0.0
 40
0.0
 40
0.1506852135132766
 40
0.3011960801060113
 40
0.3011960801060113
 40
0.3011960801060113
 10
153.29368560169999
 20
91.568534950300005
 30
0.0
 10
153.39372313356199
 20
91.559059495814793
 30
0.0
 10
153.493725389779
 20
91.550133073955095
 30
0.0
 10
153.59368558689999
 20
91.541751975699995
 30
0.0
 11
153.29368560169999
 21
91.568534950300005
 31
0.0
 11
153.381221268394
 21
91.560311910822833
 31
0.0
 11
153.44375320475206
 21
91.554593701361682
 31
0.0
 11
153.5062223928025
 21
91.549152956242963
 31
0.0
 11
153.59368558689999
 21
91.541751975699995
 31
0.0
  0
SPLINE
  5
3AF
100
AcDbEntity
  8
0
  6
CONTINUOUS
 62
           7
100
AcDbSpline
210
0.0
220
0.0
230
1.0
 70
           0
 71
           3
 72
           7
 73
           4
 74
           5
 42
0.00000000001
 43
0.00000000001
 44
0.00000000001
 40
0.0
 40
0.0
 40
0.0
 40
0.1505108665924892
 40
0.3011960801060417
 40
0.3011960801060417
 40
0.3011960801060417
 10
153.59368558689999
 20
119.6675763824
 30
0.0
 10
153.493725389779
 20
119.659195284148
 30
0.0
 10
153.39372313356199
 20
119.650268862288
 30
0.0
 10
153.29368560169999
 20
119.6407934078
 30
0.0
 11
153.59368558689999
 21
119.6675763824
 31
0.0
 11
153.50622239280256
 21
119.66017540185931
 31
0.0
 11
153.44375320475214
 21
119.65473465674128
 31
0.0
 11
153.38122126839403
 21
119.64901644727931
 31
0.0
 11
153.29368560169999
 21
119.6407934078
 31
0.0
  0
SPLINE
  5
3AE
100
AcDbEntity
  8
0
  6
CONTINUOUS
 62
           7
100
AcDbSpline
210
0.0
220
0.0
230
1.0
 70
           0
 71
           3
 72
           7
 73
           4
 74
           5
 42
0.00000000001
 43
0.00000000001
 44
0.00000000001
 40
0.0
 40
0.0
 40
0.0
 40
0.8560067457645051
 40
1.7140017346431473
 40
1.7140017346431473
 40
1.7140017346431473
 10
151.59368557677999
 20
91.782806930852402
 30
0.0
 10
152.157150059618
 20
91.693863793534703
 30
0.0
 10
152.72380693195299
 20
91.622513754928406
 30
0.0
 10
153.29368560169999
 20
91.568534950300005
 30
0.0
 11
151.59368557677999
 21
91.782806930852402
 31
0.0
 11
152.08703388265835
 21
91.707191168799667
 31
0.0
 11
152.44014983461739
 21
91.658230157276876
 31
0.0
 11
152.79536232505583
 21
91.61794815435843
 31
0.0
 11
153.29368560169999
 21
91.568534950300005
 31
0.0
  0
SPLINE
  5
3AD
100
AcDbEntity
  8
0
  6
CONTINUOUS
 62
           7
100
AcDbSpline
210
0.0
220
0.0
230
1.0
 70
           0
 71
           3
 72
           7
 73
           4
 74
           5
 42
0.00000000001
 43
0.00000000001
 44
0.00000000001
 40
0.0
 40
0.0
 40
0.0
 40
0.8579949888783034
 40
1.7140017346428364
 40
1.7140017346428364
 40
1.7140017346428364
 10
153.29368560169999
 20
119.6407934078
 30
0.0
 10
152.72380693195299
 20
119.586814603175
 30
0.0
 10
152.157150059618
 20
119.515464564569
 30
0.0
 10
151.59368557677999
 20
119.426521427251
 30
0.0
 11
153.29368560169999
 21
119.6407934078
 31
0.0
 11
152.79536232505586
 21
119.59138020374418
 31
0.0
 11
152.44014983461744
 21
119.55109820082669
 31
0.0
 11
152.08703388265835
 21
119.50213718930391
 31
0.0
 11
151.59368557677999
 21
119.426521427251
 31
0.0
  0
SPLINE
  5
3AC
100
AcDbEntity
  8
0
  6
CONTINUOUS
 62
           7
100
AcDbSpline
210
0.0
220
0.0
230
1.0
 70
           0
 71
           3
 72
          25
 73
          22
 74
          41
 42
0.00000000001
 43
0.00000000001
 44
0.00000000001
 40
0.0
 40
0.0
 40
0.0
 40
0.0650889777824287
 40
0.1399974809983377
 40
0.2217740703180302
 40
0.3197550803203882
 40
0.4269680380786906
 40
0.5403597263316403
 40
0.649723095720635
 40
0.7747774639546418
 40
0.9095700435624057
 40
1.0305212937141615
 40
1.138726289531415
 40
1.2568079551923179
 40
1.3867773959785397
 40
1.5060450366053053
 40
1.6128277924382628
 40
1.7250566503851954
 40
1.8429348708528026
 40
1.9286023865935313
 40
1.9890287274156306
 40
2.000782155711744
 40
2.000782155711744
 40
2.000782155711744
 10
151.59368557677999
 20
129.41852072190699
 30
0.0
 10
151.633084092997
 20
129.40337257680699
 30
0.0
 10
151.67643852294799
 20
129.38873942637099
 30
0.0
 10
151.77696627724399
 20
129.361858553471
 30
0.0
 10
151.83512941927199
 20
129.34934740300599
 30
0.0
 10
151.970524387723
 20
129.33226373850599
 30
0.0
 10
152.048388938779
 20
129.32845956922
 30
0.0
 10
152.197089417825
 20
129.33456952497301
 30
0.0
 10
152.26636303049099
 20
129.34391225273399
 30
0.0
 10
152.44314131568399
 20
129.378902866662
 30
0.0
 10
152.526915384793
 20
129.41005075429501
 30
0.0
 10
152.666744770214
 20
129.470974537334
 30
0.0
 10
152.72257836465599
 20
129.502020708087
 30
0.0
 10
152.86853345907599
 20
129.59354686267201
 30
0.0
 10
152.934898819762
 20
129.65081778463201
 30
0.0
 10
153.04324212345
 20
129.75581780038101
 30
0.0
 10
153.08380479763801
 20
129.80361702547299
 30
0.0
 10
153.18247961866899
 20
129.93180406793101
 30
0.0
 10
153.217925593724
 20
129.99675008798201
 30
0.0
 10
153.26306353410899
 20
130.082998427055
 30
0.0
 10
153.272183155661
 20
130.10466417905201
 30
0.0
 10
153.272183155661
 20
130.10466417905201
 30
0.0
 11
151.59368557677999
 21
129.41852072190699
 31
0.0
 11
151.6282736537691
 21
129.40545876675813
 31
0.0
 11
151.65324085230242
 21
129.39656919151159
 31
0.0
 11
151.68265426174483
 21
129.38748404453193
 31
0.0
 11
151.72449914878104
 21
129.37588813387413
 31
0.0
 11
151.77046449137472
 21
129.36394303346643
 31
0.0
 11
151.80342626222989
 21
129.35616689304968
 31
0.0
 11
151.84336655124991
 21
129.34901289453447
 31
0.0
 11
151.89978110422572
 21
129.34118987907624
 31
0.0
 11
151.96229903036811
 21
129.33403307096114
 31
0.0
 11
152.00836624180079
 21
129.33041492775635
 31
0.0
 11
152.05730696321669
 21
129.32972596493443
 31
0.0
 11
152.12408373350797
 21
129.33156979354138
 31
0.0
 11
152.18691758552569
 21
129.33490926241649
 31
0.0
 11
152.22940777294491
 21
129.33892820617854
 31
0.0
 11
152.27839336796089
 21
129.3468761511549
 31
0.0
 11
152.35143963791671
 21
129.3607518929731
 31
0.0
 11
152.43125440584186
 21
129.37846933186069
 31
0.0
 11
152.48729535408273
 21
129.3953197011457
 31
0.0
 11
152.5354612586342
 21
129.4144070558948
 31
0.0
 11
152.60071891086801
 21
129.44220701384353
 31
0.0
 11
152.65691288554672
 21
129.46749404487744
 31
0.0
 11
152.69344309089092
 21
129.48582009099823
 31
0.0
 11
152.73266457623359
 21
129.50886302768816
 31
0.0
 11
152.79205848473148
 21
129.54559060358045
 31
0.0
 11
152.85806658700017
 21
129.58902405217623
 31
0.0
 11
152.90314094511712
 21
129.62341187978043
 31
0.0
 11
152.94125024641764
 21
129.65781621129506
 31
0.0
 11
152.9920624010295
 21
129.70621739613586
 31
0.0
 11
153.03539144449778
 21
129.74924402616821
 31
0.0
 11
153.06301913006163
 21
129.77912310777504
 31
0.0
 11
153.09063991248635
 21
129.81312353609246
 31
0.0
 11
153.13193092460779
 21
129.86613698564884
 31
0.0
 11
153.17497434884777
 21
129.92479024705213
 31
0.0
 11
153.20300723344519
 21
129.9694158666976
 31
0.0
 11
153.22081307727638
 21
130.00256025553705
 31
0.0
 11
153.2443938882123
 21
130.04732497948658
 31
0.0
 11
153.26030477850475
 21
130.07861451480969
 31
0.0
 11
153.2706981575887
 21
130.10113622564222
 31
0.0
 11
153.27181190614291
 21
130.10378219069958
 31
0.0
 11
153.272183155661
 21
130.10466417905201
 31
0.0
  0
SPLINE
  5
3AB
100
AcDbEntity
  8
0
  6
CONTINUOUS
 62
           7
100
AcDbSpline
210
0.0
220
0.0
230
1.0
 70
           0
 71
           3
 72
           7
 73
           4
 74
           5
 42
0.00000000001
 43
0.00000000001
 44
0.00000000001
 40
0.0
 40
0.0
 40
0.0
 40
0.3061406112575344
 40
0.6158559482868855
 40
0.6158559482868855
 40
0.6158559482868855
 10
151.59368557677999
 20
131.88802488554199
 30
0.0
 10
151.401842188008
 20
131.81426394811001
 30
0.0
 10
151.235058068299
 20
131.70170658770601
 30
0.0
 10
151.09368557677999
 20
131.54762667259899
 30
0.0
 11
151.59368557677999
 21
131.88802488554199
 31
0.0
 11
151.42907603219902
 21
131.81871617958703
 31
0.0
 11
151.318934176
 21
131.7583119365861
 31
0.0
 11
151.22068397234449
 21
131.67733794614927
 31
0.0
 11
151.09368557677999
 21
131.54762667259899
 31
0.0
  0
SPLINE
  5
3AA
100
AcDbEntity
  8
0
  6
CONTINUOUS
 62
           7
100
AcDbSpline
210
0.0
220
0.0
230
1.0
 70
           0
 71
           3
 72
           7
 73
           4
 74
           5
 42
0.00000000001
 43
0.00000000001
 44
0.00000000001
 40
0.0
 40
0.0
 40
0.0
 40
0.2506531953283505
 40
0.5155320187757744
 40
0.5155320187757744
 40
0.5155320187757744
 10
151.09368557677999
 20
76.578074106008401
 30
0.0
 10
151.24900179618601
 20
76.520021632268595
 30
0.0
 10
151.414214186512
 20
76.481320187949507
 30
0.0
 10
151.593685576779
 20
76.467067766010103
 30
0.0
 11
151.09368557677999
 21
76.578074106008401
 31
0.0
 11
151.23025442978198
 21
76.529830561473247
 31
0.0
 11
151.32932854997597
 21
76.501204875347383
 31
0.0
 11
151.43786062494473
 21
76.482728254314139
 31
0.0
 11
151.593685576779
 21
76.467067766010103
 31
0.0
  0
SPLINE
  5
3A9
100
AcDbEntity
  8
0
  6
CONTINUOUS
 62
           7
100
AcDbSpline
210
0.0
220
0.0
230
1.0
 70
           0
 71
           3
 72
          13
 73
          10
 74
          17
 42
0.00000000001
 43
0.00000000001
 44
0.00000000001
 40
0.0
 40
0.0
 40
0.0
 40
0.01047197203507
 40
0.0642557678176114
 40
0.1403892961320133
 40
0.2457783196964005
 40
0.3576820277094037
 40
0.4702348127189377
 40
0.5778389979419498
 40
0.6729213025404548
 40
0.6729213025404548
 40
0.6729213025404548
 10
144.59368557677999
 20
117.263684288958
 30
0.0
 10
144.59368557677999
 20
117.263684288958
 30
0.0
 10
144.574849761244
 20
117.254526732171
 30
0.0
 10
144.497118298792
 20
117.21629747569899
 30
0.0
 10
144.438280657284
 20
117.187190962605
 30
0.0
 10
144.308588240522
 20
117.122045431827
 30
0.0
 10
144.23847017444101
 20
117.086368228851
 30
0.0
 10
144.10831547164
 20
117.019268929986
 30
0.0
 10
144.04736403254799
 20
116.987409829797
 30
0.0
 10
143.99368557678
 20
116.959082324042
 30
0.0
 11
144.59368557677999
 21
117.263684288958
 31
0.0
 11
144.59291814320846
 21
117.26331117973434
 31
0.0
 11
144.59061584249389
 21
117.26219185206338
 31
0.0
 11
144.57074637081908
 21
117.25248642949182
 31
0.0
 11
144.5426701182945
 21
117.2387004015619
 31
0.0
 11
144.50233688628137
 21
117.21884627020725
 31
0.0
 11
144.47244082924709
 21
117.2040897278691
 31
0.0
 11
144.43109518904043
 21
117.18351660475768
 31
0.0
 11
144.37537861234659
 21
117.15559476595158
 31
0.0
 11
144.31654642090035
 21
117.12598601127813
 31
0.0
 11
144.27363059021079
 21
117.10425841550689
 31
0.0
 11
144.23062524490385
 21
117.08226483427693
 31
0.0
 11
144.17193004052262
 21
117.05206446389882
 31
0.0
 11
144.11612948989577
 21
117.02323939582178
 31
0.0
 11
144.07595697578051
 21
117.00235525941628
 31
0.0
 11
144.04109265441411
 21
116.98406431076307
 31
0.0
 11
143.99368557678
 21
116.959082324042
 31
0.0
  0
SPLINE
  5
3A8
100
AcDbEntity
  8
0
  6
CONTINUOUS
 62
           7
100
AcDbSpline
210
0.0
220
0.0
230
1.0
 70
           0
 71
           3
 72
          13
 73
          10
 74
          17
 42
0.00000000001
 43
0.00000000001
 44
0.00000000001
 40
0.0
 40
0.0
 40
0.0
 40
0.0945957010039057
 40
0.201973901453697
 40
0.314387597067748
 40
0.4258866237720869
 40
0.5314087248261465
 40
0.607897473682242
 40
0.6621659534323032
 40
0.6729213071543537
 40
0.6729213071543537
 40
0.6729213071543537
 10
143.99368557678
 20
94.250246034060893
 30
0.0
 10
144.04734999911301
 20
94.221925934111795
 30
0.0
 10
144.10746568713901
 20
94.190500306429797
 30
0.0
 10
144.238053219606
 20
94.123172326227305
 30
0.0
 10
144.30748609999699
 20
94.087841330593903
 30
0.0
 10
144.43713745998801
 20
94.022706924444407
 30
0.0
 10
144.49624912758699
 20
93.993460086029501
 30
0.0
 10
144.57434050384899
 20
93.955050380219305
 30
0.0
 10
144.59368557677999
 20
93.945644069144294
 30
0.0
 10
144.59368557677999
 20
93.945644069144294
 30
0.0
 11
143.99368557678
 21
94.250246034060893
 31
0.0
 11
144.04097278024881
 21
94.225326363296503
 31
0.0
 11
144.07550554598924
 21
94.207207550901529
 31
0.0
 11
144.11542511869794
 21
94.186453932931357
 31
0.0
 11
144.1712635545245
 21
94.157607567964305
 31
0.0
 11
144.23007036698465
 21
94.127346721604923
 31
0.0
 11
144.27291147420209
 21
94.105434666000789
 31
0.0
 11
144.31549520058533
 21
94.083873632338921
 31
0.0
 11
144.37409712814531
 21
94.054377202167103
 31
0.0
 11
144.4299449807786
 21
94.026385477574337
 31
0.0
 11
144.47140787499313
 21
94.005750859241402
 31
0.0
 11
144.50145904667042
 21
93.990915670487595
 31
0.0
 11
144.54193005651462
 21
93.970991650649893
 31
0.0
 11
144.57027421086403
 21
93.957073085908988
 31
0.0
 11
144.59048577924358
 21
93.947199932547434
 31
0.0
 11
144.5928856273959
 21
93.946033034995082
 31
0.0
 11
144.59368557677999
 21
93.945644069144294
 31
0.0
  0
SPLINE
  5
3A7
100
AcDbEntity
  8
0
  6
CONTINUOUS
 62
           7
100
AcDbSpline
210
0.0
220
0.0
230
1.0
 70
           0
 71
           3
 72
           7
 73
           4
 74
           5
 42
0.00000000001
 43
0.00000000001
 44
0.00000000001
 40
0.0
 40
0.0
 40
0.0
 40
0.3416259269889256
 40
0.6845170200230153
 40
0.6845170200230153
 40
0.6845170200230153
 10
143.99368557678
 20
116.959082324042
 30
0.0
 10
143.792432261269
 20
116.85287575808
 30
0.0
 10
143.59241581822201
 20
116.743152408944
 30
0.0
 10
143.39368557678
 20
116.62972216059801
 30
0.0
 11
143.99368557678
 21
116.959082324042
 31
0.0
 11
143.81778974508731
 21
116.86573733060052
 31
0.0
 11
143.69260888103128
 21
116.79811548220015
 31
0.0
 11
143.56778152356378
 21
116.72853561517152
 31
0.0
 11
143.39368557678
 21
116.62972216059801
 31
0.0
  0
SPLINE
  5
3A6
100
AcDbEntity
  8
0
  6
CONTINUOUS
 62
           7
100
AcDbSpline
210
0.0
220
0.0
230
1.0
 70
           0
 71
           3
 72
           7
 73
           4
 74
           5
 42
0.00000000001
 43
0.00000000001
 44
0.00000000001
 40
0.0
 40
0.0
 40
0.0
 40
0.3428910930345415
 40
0.684517020023559
 40
0.684517020023559
 40
0.684517020023559
 10
143.39368557678
 20
94.579606197505996
 30
0.0
 10
143.59241581822201
 20
94.466175949158796
 30
0.0
 10
143.792432261269
 20
94.356452600023403
 30
0.0
 10
143.99368557678
 20
94.250246034060893
 30
0.0
 11
143.39368557678
 21
94.579606197505996
 31
0.0
 11
143.56778152356384
 21
94.480792742931627
 31
0.0
 11
143.69260888103133
 21
94.411212875902919
 31
0.0
 11
143.81778974508731
 21
94.34359102750264
 31
0.0
 11
143.99368557678
 21
94.250246034060893
 31
0.0
  0
SPLINE
  5
3A5
100
AcDbEntity
  8
0
  6
CONTINUOUS
 62
           7
100
AcDbSpline
210
0.0
220
0.0
230
1.0
 70
           0
 71
           3
 72
           7
 73
           4
 74
           5
 42
0.00000000001
 43
0.00000000001
 44
0.00000000001
 40
0.0
 40
0.0
 40
0.0
 40
1.0783961084825835
 40
2.1555334630052116
 40
2.1555334630052116
 40
2.1555334630052116
 10
143.39368557678
 20
116.62972216059801
 30
0.0
 10
142.768707382104
 20
116.27300024792299
 30
0.0
 10
142.16519475728899
 20
115.88484689660901
 30
0.0
 10
141.58510773969999
 20
115.46112852029999
 30
0.0
 11
143.39368557678
 21
116.62972216059801
 31
0.0
 11
142.84946879896472
 21
116.31363322372917
 31
0.0
 11
142.46677485487095
 21
116.07881023847267
 31
0.0
 11
142.09556802728721
 21
115.82740813799766
 31
0.0
 11
141.58510773969999
 21
115.46112852029999
 31
0.0
  0
SPLINE
  5
3A4
100
AcDbEntity
  8
0
  6
CONTINUOUS
 62
           7
100
AcDbSpline
210
0.0
220
0.0
230
1.0
 70
           0
 71
           3
 72
           7
 73
           4
 74
           5
 42
0.00000000001
 43
0.00000000001
 44
0.00000000001
 40
0.0
 40
0.0
 40
0.0
 40
1.0771373545204053
 40
2.1555334630028691
 40
2.1555334630028691
 40
2.1555334630028691
 10
141.58510773969999
 20
95.748199837800001
 30
0.0
 10
142.16519475728899
 20
95.3244814614944
 30
0.0
 10
142.768707382104
 20
94.936328110181194
 30
0.0
 10
143.39368557678
 20
94.579606197505996
 30
0.0
 11
141.58510773969999
 21
95.748199837800001
 31
0.0
 11
142.09556802728716
 21
95.38192022010503
 31
0.0
 11
142.46677485487064
 21
95.130518119631319
 31
0.0
 11
142.84946879896466
 21
94.895695134374932
 31
0.0
 11
143.39368557678
 21
94.579606197505996
 31
0.0
  0
SPLINE
  5
3A3
100
AcDbEntity
  8
0
  6
CONTINUOUS
 62
           7
100
AcDbSpline
210
0.0
220
0.0
230
1.0
 70
           0
 71
           3
 72
           7
 73
           4
 74
           5
 42
0.00000000001
 43
0.00000000001
 44
0.00000000001
 40
0.0
 40
0.0
 40
0.0
 40
0.1500746921611127
 40
0.3008238170308094
 40
0.3008238170308094
 40
0.3008238170308094
 10
141.58510773969999
 20
115.46112852029999
 30
0.0
 10
141.504407514446
 20
115.402181771801
 30
0.0
 10
141.42392331953701
 20
115.342367349992
 30
0.0
 10
141.34368557677999
 20
115.281668045999
 30
0.0
 11
141.58510773969999
 21
115.46112852029999
 31
0.0
 11
141.51454460161364
 21
115.40945841883619
 31
0.0
 11
141.46425563786249
 21
115.37234161144275
 31
0.0
 11
141.41394696342911
 21
115.33468608935644
 31
0.0
 11
141.34368557677999
 21
115.281668045999
 31
0.0
  0
SPLINE
  5
3A2
100
AcDbEntity
  8
0
  6
CONTINUOUS
 62
           7
100
AcDbSpline
210
0.0
220
0.0
230
1.0
 70
           0
 71
           3
 72
           7
 73
           4
 74
           5
 42
0.00000000001
 43
0.00000000001
 44
0.00000000001
 40
0.0
 40
0.0
 40
0.0
 40
0.1507491248702115
 40
0.3008238170332434
 40
0.3008238170332434
 40
0.3008238170332434
 10
141.34368557677999
 20
95.927660312105104
 30
0.0
 10
141.42392331953701
 20
95.866961008111204
 30
0.0
 10
141.504407514446
 20
95.807146586302295
 30
0.0
 10
141.58510773969999
 20
95.748199837800001
 30
0.0
 11
141.34368557677999
 21
95.927660312105104
 31
0.0
 11
141.41394696342908
 21
95.874642268747039
 31
0.0
 11
141.46425563786232
 21
95.836986746660642
 31
0.0
 11
141.51454460161358
 21
95.799869939266301
 31
0.0
 11
141.58510773969999
 21
95.748199837800001
 31
0.0
  0
SPLINE
  5
3A1
100
AcDbEntity
  8
0
  6
CONTINUOUS
 62
           7
100
AcDbSpline
210
0.0
220
0.0
230
1.0
 70
           0
 71
           3
 72
          33
 73
          30
 74
          57
 42
0.00000000001
 43
0.00000000001
 44
0.00000000001
 40
0.0
 40
0.0
 40
0.0
 40
0.7153399427487917
 40
1.4295127868599429
 40
2.1449614997278723
 40
3.0983572094555436
 40
4.2847879456389517
 40
5.4688862231669413
 40
6.4195045691648227
 40
7.1421613570762537
 40
7.8678165013780532
 40
8.5904195592625321
 40
9.3118131636248194
 40
10.037161121844999
 40
10.767853952158498
 40
11.497469584037777
 40
12.221865364580252
 40
12.824396369136679
 40
13.306965698733356
 40
13.670485027194859
 40
14.035383825334007
 40
14.76350155895779
 40
15.849512964101345
 40
17.294044082030346
 40
18.732507199969458
 40
19.916091750178538
 40
20.862626479332384
 40
21.575810282093244
 40
22.291193987260158
 40
23.00799390820476
 40
23.00799390820476
 40
23.00799390820476
 10
141.34368557677999
 20
115.281668045999
 30
0.0
 10
140.96307250612301
 20
114.993736859425
 30
0.0
 10
140.59519355805801
 20
114.691402365125
 30
0.0
 10
139.88671234883
 20
114.05525260083699
 30
0.0
 10
139.544888533727
 20
113.720089660602
 30
0.0
 10
138.57446750289799
 20
112.672398652485
 30
0.0
 10
138.001663993591
 20
111.921043867965
 30
0.0
 10
137.273487143126
 20
110.69800256088099
 30
0.0
 10
137.052769913698
 20
110.274197812704
 30
0.0
 10
136.66186490281601
 20
109.389207691309
 30
0.0
 10
136.49509663157599
 20
108.93502518818801
 30
0.0
 10
136.225470929571
 20
108.012234759734
 30
0.0
 10
136.121905543568
 20
107.542093530836
 30
0.0
 10
135.98171184628001
 20
106.58300285591
 30
0.0
 10
135.94573363027899
 20
106.09221698765801
 30
0.0
 10
135.94534891425101
 20
105.12508863571
 30
0.0
 10
135.98004512610899
 20
104.6446767851
 30
0.0
 10
136.08321450440701
 20
103.92867258546499
 30
0.0
 10
136.12614249398899
 20
103.690774896847
 30
0.0
 10
136.22907641917399
 20
103.21651799982899
 30
0.0
 10
136.28931459712899
 20
102.97955600498
 30
0.0
 10
136.62788598886701
 20
101.81608045631199
 30
0.0
 10
137.01941997172901
 20
100.939239269393
 30
0.0
 10
138.005097235497
 20
99.281343660918594
 30
0.0
 10
138.581694208817
 20
98.528665458541298
 30
0.0
 10
139.546313712368
 20
97.487932910801703
 30
0.0
 10
139.88472438360199
 20
97.155966013137501
 30
0.0
 10
140.59320901386599
 20
96.519603266899907
 30
0.0
 10
140.96281607292801
 20
96.215785488637394
 30
0.0
 10
141.34368557677999
 20
95.927660312105104
 30
0.0
 11
141.34368557677999
 21
115.281668045999
 31
0.0
 11
141.01220336180427
 21
115.0278969898721
 31
0.0
 11
140.77898285819103
 21
114.84244619463939
 31
0.0
 11
140.55265976763039
 21
114.64971556861651
 31
0.0
 11
140.24126909621452
 21
114.37361134957665
 31
0.0
 11
139.93871579461606
 21
114.09892044130189
 31
0.0
 11
139.74016938458971
 21
113.91156521395692
 31
0.0
 11
139.48561642320897
 21
113.65125935189046
 31
0.0
 11
139.11251924079215
 21
113.25329287240093
 31
0.0
 11
138.63730954816236
 21
112.72361044838227
 31
0.0
 11
138.28778394606121
 21
112.29635161615815
 31
0.0
 11
137.97221653289063
 21
111.84526971029378
 31
0.0
 11
137.59775419831934
 21
111.24263948908694
 31
0.0
 11
137.32320552862717
 21
110.77396897697326
 31
0.0
 11
137.14809362993736
 21
110.45723129704416
 31
0.0
 11
137.02783887490077
 21
110.20956143659474
 31
0.0
 11
136.85772204226964
 21
109.83261882392681
 31
0.0
 11
136.68993922245275
 21
109.44316801748582
 31
0.0
 11
136.57830504190935
 21
109.16163786339843
 31
0.0
 11
136.48216729248657
 21
108.87623294031806
 31
0.0
 11
136.36017086488488
 21
108.47324352149781
 31
0.0
 11
136.24623562433538
 21
108.0688799251807
 31
0.0
 11
136.17382977331465
 21
107.77780665975695
 31
0.0
 11
136.1174267171738
 21
107.48157556054981
 31
0.0
 11
136.05206600824454
 21
107.06430852077033
 31
0.0
 11
135.9947997923488
 21
106.64193578498941
 31
0.0
 11
135.96370946859059
 21
106.33742890736735
 31
0.0
 11
135.95017932771373
 21
106.03219492887062
 31
0.0
 11
135.9455405817063
 21
105.60691683279909
 31
0.0
 11
135.95013216952103
 21
105.17997908375519
 31
0.0
 11
135.96429026787578
 21
104.86282223080164
 31
0.0
 11
135.99042830123886
 21
104.5998180223848
 31
0.0
 11
136.0373326848617
 21
104.24709628853753
 31
0.0
 11
136.07786507801936
 21
103.97435708733282
 31
0.0
 11
136.10769861840171
 21
103.79298688986371
 31
0.0
 11
136.13437389885823
 21
103.65715805074036
 31
0.0
 11
136.1775119890533
 21
103.45409551940375
 31
0.0
 11
136.22121287483685
 21
103.25613519781091
 31
0.0
 11
136.24918667194612
 21
103.13740927218186
 31
0.0
 11
136.31325481620675
 21
102.9022763676104
 31
0.0
 11
136.42520339862281
 21
102.51258418829971
 31
0.0
 11
136.61922316838383
 21
101.89612977127037
 31
0.0
 11
136.79591729717836
 21
101.4397739841578
 31
0.0
 11
137.08701328735376
 21
100.85669981376748
 31
0.0
 11
137.51329590877862
 21
100.1085467321261
 31
0.0
 11
137.96122760571612
 21
99.384914055856868
 31
0.0
 11
138.32142004309185
 21
98.868422169464125
 31
0.0
 11
138.65062153704127
 21
98.469035858323963
 31
0.0
 11
139.11767768743928
 21
97.950390346749089
 31
0.0
 11
139.48740346742875
 21
97.556217226843529
 31
0.0
 11
139.7393087575397
 21
97.29861273902165
 31
0.0
 11
139.93679467825388
 21
97.11220484605947
 31
0.0
 11
140.2384211882719
 21
96.838274618941227
 31
0.0
 11
140.55066725407545
 21
96.561331436430166
 31
0.0
 11
140.77782980029792
 21
96.367844592979623
 31
0.0
 11
141.0117868807335
 21
96.181768970589886
 31
0.0
 11
141.34368557677999
 21
95.927660312105104
 31
0.0
  0
SPLINE
  5
3A0
100
AcDbEntity
  8
0
  6
CONTINUOUS
 62
           7
100
AcDbSpline
210
0.0
220
0.0
230
1.0
 70
           0
 71
           3
 72
           7
 73
           4
 74
           5
 42
0.00000000001
 43
0.00000000001
 44
0.00000000001
 40
0.0
 40
0.0
 40
0.0
 40
0.2534402080949836
 40
0.5069741386555223
 40
0.5069741386555223
 40
0.5069741386555223
 10
151.59368557677999
 20
119.426521427251
 30
0.0
 10
151.42680674574399
 20
119.400179524191
 30
0.0
 10
151.26013542609201
 20
119.372280101339
 30
0.0
 10
151.09368557677999
 20
119.342808683803
 30
0.0
 11
151.59368557677999
 21
119.426521427251
 31
0.0
 11
151.44769639003661
 21
119.40327821680762
 31
0.0
 11
151.34348649187842
 21
119.38623239159743
 31
0.0
 11
151.23936073021059
 21
119.36840031951961
 31
0.0
 11
151.09368557677999
 21
119.342808683803
 31
0.0
  0
SPLINE
  5
39F
100
AcDbEntity
  8
0
  6
CONTINUOUS
 62
           7
100
AcDbSpline
210
0.0
220
0.0
230
1.0
 70
           0
 71
           3
 72
           9
 73
           6
 74
           9
 42
0.00000000001
 43
0.00000000001
 44
0.00000000001
 40
0.0
 40
0.0
 40
0.0
 40
0.1722401222750083
 40
0.3288691781979485
 40
0.4768715616828336
 40
0.6116626263374827
 40
0.6116626263374827
 40
0.6116626263374827
 10
151.09368557677999
 20
129.75891893484999
 30
0.0
 10
151.17244176128901
 20
129.67308366312901
 30
0.0
 10
151.25864035605699
 20
129.60236228973699
 30
0.0
 10
151.427359189707
 20
129.49172202900601
 30
0.0
 10
151.51185658067999
 20
129.44998275716401
 30
0.0
 10
151.59368557677999
 20
129.41852072190699
 30
0.0
 11
151.09368557677999
 21
129.75891893484999
 31
0.0
 11
151.16403900883643
 21
129.68528267593913
 31
0.0
 11
151.21758693598775
 21
129.63604444264857
 31
0.0
 11
151.27006408599914
 21
129.5965611510928
 31
0.0
 11
151.34538869589477
 21
129.5454755822486
 31
0.0
 11
151.41792217534294
 21
129.49969926558367
 31
0.0
 11
151.47158162606306
 21
129.46987742207406
 31
0.0
 11
151.52224509105076
 21
129.44709091457725
 31
0.0
 11
151.59368557677999
 21
129.41852072190699
 31
0.0
  0
SPLINE
  5
39E
100
AcDbEntity
  8
0
  6
CONTINUOUS
 62
           7
100
AcDbSpline
210
0.0
220
0.0
230
1.0
 70
           0
 71
           3
 72
           7
 73
           4
 74
           5
 42
0.00000000001
 43
0.00000000001
 44
0.00000000001
 40
0.0
 40
0.0
 40
0.0
 40
0.2535339305605707
 40
0.506974138655495
 40
0.506974138655495
 40
0.506974138655495
 10
151.09368557677999
 20
91.866519674300207
 30
0.0
 10
151.26013542609201
 20
91.837048256764305
 30
0.0
 10
151.42680674574399
 20
91.809148833911706
 30
0.0
 10
151.59368557677999
 20
91.782806930852402
 30
0.0
 11
151.09368557677999
 21
91.866519674300207
 31
0.0
 11
151.23936073021062
 21
91.840928038583598
 31
0.0
 11
151.34348649187842
 21
91.823095966505576
 31
0.0
 11
151.44769639003661
 21
91.806050141295344
 31
0.0
 11
151.59368557677999
 21
91.782806930852402
 31
0.0
  0
SPLINE
  5
39D
100
AcDbEntity
  8
0
  6
CONTINUOUS
 62
           7
100
AcDbSpline
210
0.0
220
0.0
230
1.0
 70
           0
 71
           3
 72
           7
 73
           4
 74
           5
 42
0.00000000001
 43
0.00000000001
 44
0.00000000001
 40
0.0
 40
0.0
 40
0.0
 40
0.2413152695725729
 40
0.5155999005255172
 40
0.5155999005255172
 40
0.5155999005255172
 10
151.59368557677999
 20
80.146220859097397
 30
0.0
 10
151.43685930823801
 20
80.133766761833797
 30
0.0
 10
151.271931061982
 20
80.101837254242795
 30
0.0
 10
151.09368557677999
 20
80.035214519099696
 30
0.0
 11
151.59368557677999
 21
80.146220859097397
 31
0.0
 11
151.45676810971992
 21
80.133144309026832
 31
0.0
 11
151.35966824562371
 21
80.118822853342365
 31
0.0
 11
151.24930398659194
 21
80.089427970231924
 31
0.0
 11
151.09368557677999
 21
80.035214519099696
 31
0.0
  0
SPLINE
  5
39C
100
AcDbEntity
  8
0
  6
CONTINUOUS
 62
           7
100
AcDbSpline
210
0.0
220
0.0
230
1.0
 70
           0
 71
           3
 72
           7
 73
           4
 74
           5
 42
0.00000000001
 43
0.00000000001
 44
0.00000000001
 40
0.0
 40
0.0
 40
0.0
 40
0.2756638370076732
 40
0.5530548126442093
 40
0.5530548126442093
 40
0.5530548126442093
 10
145.09368557677999
 20
117.499983629729
 30
0.0
 10
144.92682293167601
 20
117.42366599762801
 30
0.0
 10
144.76012845017601
 20
117.344931391003
 30
0.0
 10
144.59368557677999
 20
117.263684288958
 30
0.0
 11
145.09368557677999
 21
117.499983629729
 31
0.0
 11
144.94776685418051
 21
117.43293431492982
 31
0.0
 11
144.84373597658998
 21
117.38442163473427
 31
0.0
 11
144.73941961343047
 21
117.33449217642458
 31
0.0
 11
144.59368557677999
 21
117.263684288958
 31
0.0
  0
SPLINE
  5
39B
100
AcDbEntity
  8
0
  6
CONTINUOUS
 62
           7
100
AcDbSpline
210
0.0
220
0.0
230
1.0
 70
           0
 71
           3
 72
           7
 73
           4
 74
           5
 42
0.00000000001
 43
0.00000000001
 44
0.00000000001
 40
0.0
 40
0.0
 40
0.0
 40
0.2773909756361886
 40
0.5530548126439371
 40
0.5530548126439371
 40
0.5530548126439371
 10
144.59368557677999
 20
93.945644069144294
 30
0.0
 10
144.76012845017601
 20
93.864396967099694
 30
0.0
 10
144.92682293167601
 20
93.785662360475499
 30
0.0
 10
145.09368557677999
 20
93.709344728373907
 30
0.0
 11
144.59368557677999
 21
93.945644069144294
 31
0.0
 11
144.73941961343047
 21
93.874836181678148
 31
0.0
 11
144.8437359765899
 21
93.824906723368869
 31
0.0
 11
144.94776685418049
 21
93.77639404317344
 31
0.0
 11
145.09368557677999
 21
93.709344728373907
 31
0.0
  0
SPLINE
  5
39A
100
AcDbEntity
  8
0
  6
CONTINUOUS
 62
           7
100
AcDbSpline
210
0.0
220
0.0
230
1.0
 70
           0
 71
           3
 72
          13
 73
          10
 74
          17
 42
0.00000000001
 43
0.00000000001
 44
0.00000000001
 40
0.0
 40
0.0
 40
0.0
 40
0.2571740992781111
 40
0.4992561675794922
 40
0.7377155086267321
 40
0.9730269889183083
 40
1.2101154716757505
 40
1.4530249393253236
 40
1.7035961675131026
 40
1.9757974639247573
 40
1.9757974639247573
 40
1.9757974639247573
 10
151.09368557677999
 20
131.54762667259899
 30
0.0
 10
150.97509777701899
 20
131.41837947660201
 30
0.0
 10
150.891350971988
 20
131.277918203572
 30
0.0
 10
150.776217528817
 20
130.97867097914499
 30
0.0
 10
150.74737586569
 20
130.82506819181299
 30
0.0
 10
150.743897862197
 20
130.510751573775
 30
0.0
 10
150.76981055399699
 20
130.35302487528901
 30
0.0
 10
150.881527463667
 20
130.046788238673
 30
0.0
 10
150.96887039587401
 20
129.89495326707001
 30
0.0
 10
151.09368557677999
 20
129.75891893484999
 30
0.0
 11
151.09368557677999
 21
131.54762667259899
 31
0.0
 11
150.99395992821769
 21
131.43260286542193
 31
0.0
 11
150.93195858205286
 21
131.34602583588469
 31
0.0
 11
150.88700269745846
 21
131.25725721128748
 31
0.0
 11
150.83335026380496
 21
131.12716660212118
 31
0.0
 11
150.7868715507023
 21
130.99646696419381
 31
0.0
 11
150.76170088137013
 21
130.90135929636403
 31
0.0
 11
150.75052400455161
 21
130.80499918426315
 31
0.0
 11
150.74564340545629
 21
130.66850105706263
 31
0.0
 11
150.74753405374946
 21
130.53071220328857
 31
0.0
 11
150.75669708514744
 21
130.43284460854176
 31
0.0
 11
150.78027998648795
 21
130.33529455616849
 31
0.0
 11
150.82480175281046
 21
130.20228386555414
 31
0.0
 11
150.87781216833685
 21
130.06746805832572
 31
0.0
 11
150.92339199320287
 21
129.97401189040266
 31
0.0
 11
150.98870459043272
 21
129.88070933984818
 31
0.0
 11
151.09368557677999
 21
129.75891893484999
 31
0.0
  0
SPLINE
  5
399
100
AcDbEntity
  8
0
  6
CONTINUOUS
 62
           7
100
AcDbSpline
210
0.0
220
0.0
230
1.0
 70
           0
 71
           3
 72
          25
 73
          22
 74
          41
 42
0.00000000001
 43
0.00000000001
 44
0.00000000001
 40
0.0
 40
0.0
 40
0.0
 40
0.181424669826791
 40
0.352589688412228
 40
0.5207162232308278
 40
0.7342946692658551
 40
0.9909087441253764
 40
1.2760818947276811
 40
1.5509213847725656
 40
1.8094669526609324
 40
2.0643785996838231
 40
2.3125834772367968
 40
2.5577947126108116
 40
2.8041898762110415
 40
3.0528032436258408
 40
3.3081648422696794
 40
3.5710615526763498
 40
3.8068845793355512
 40
4.0014477343101804
 40
4.1567148401092027
 40
4.3176352462413607
 40
4.4900878630578971
 40
4.4900878630578971
 40
4.4900878630578971
 10
151.09368557677999
 20
80.035214519099696
 30
0.0
 10
150.97844141981801
 20
79.992139762185701
 30
0.0
 10
150.87386904572301
 20
79.940141139260703
 30
0.0
 10
150.68140746694701
 20
79.822548048369597
 30
0.0
 10
150.59282817219599
 20
79.756136807919404
 30
0.0
 10
150.356282047131
 20
79.545935829651995
 30
0.0
 10
150.234965407403
 20
79.390999688709599
 30
0.0
 10
150.048201677138
 20
79.067472232189402
 30
0.0
 10
149.98513196916801
 20
78.903038675536294
 30
0.0
 10
149.90556575170601
 20
78.5714748904538
 30
0.0
 10
149.88967780151199
 20
78.403377781304798
 30
0.0
 10
149.901560122597
 20
78.076029888375402
 30
0.0
 10
149.92881213836199
 20
77.915467193652205
 30
0.0
 10
150.026910429748
 20
77.600457017429093
 30
0.0
 10
150.09703809424599
 20
77.448569356855302
 30
0.0
 10
150.283560442853
 20
77.160208358066498
 30
0.0
 10
150.40170329263299
 20
77.021285762416099
 30
0.0
 10
150.62270372674399
 20
76.834625709500699
 30
0.0
 10
150.70355741836099
 20
76.776043457262801
 30
0.0
 10
150.88447235612799
 20
76.668064948185304
 30
0.0
 10
150.984206591343
 20
76.618994017344306
 30
0.0
 10
151.09368557677999
 20
76.578074106008401
 30
0.0
 11
151.09368557677999
 21
80.035214519099696
 31
0.0
 11
150.99380055655917
 21
79.996219491622071
 31
0.0
 11
150.92463380982059
 21
79.965383923017242
 31
0.0
 11
150.86228709365139
 21
79.931621062531036
 31
0.0
 11
150.77677647333897
 21
79.880818048585567
 31
0.0
 11
150.69549576547249
 21
79.829802641669716
 31
0.0
 11
150.64239165465693
 21
79.793296421354086
 31
0.0
 11
150.57835709182206
 21
79.741556489880253
 31
0.0
 11
150.4853803682393
 21
79.660655922328147
 31
0.0
 11
150.3741914136277
 21
79.556269723288182
 31
0.0
 11
150.29882119200963
 21
79.472551311520647
 31
0.0
 11
150.22715310391663
 21
79.370200424076529
 31
0.0
 11
150.13986040885089
 21
79.226251007366272
 31
0.0
 11
150.06299181377551
 21
79.085984838960073
 31
0.0
 11
150.01570349197527
 21
78.982743884095214
 31
0.0
 11
149.98275868285481
 21
78.881226180062598
 31
0.0
 11
149.945067301108
 21
78.736083485082531
 31
0.0
 11
149.91342867109236
 21
78.591334799212348
 31
0.0
 11
149.89751587984938
 21
78.486305930859231
 31
0.0
 11
149.89313162274794
 21
78.382943072435467
 31
0.0
 11
149.89565500811852
 21
78.238710796273068
 31
0.0
 11
149.90348214212102
 21
78.09667811359688
 31
0.0
 11
149.91515331517161
 21
77.995941881363677
 31
0.0
 11
149.93760476993361
 21
77.896386044242107
 31
0.0
 11
149.97764148783884
 21
77.758667908300339
 31
0.0
 11
150.02324177604257
 21
77.621278004789431
 31
0.0
 11
150.06150475683557
 21
77.5255300759992
 31
0.0
 11
150.1111310654785
 21
77.432288482588064
 31
0.0
 11
150.18894331658646
 21
77.306485140642451
 31
0.0
 11
150.27547571080328
 21
77.178469528840395
 31
0.0
 11
150.34583864092065
 21
77.086976258586105
 31
0.0
 11
150.41801051758833
 21
77.012139060285207
 31
0.0
 11
150.52279684416663
 21
76.919008457722498
 31
0.0
 11
150.60896899335481
 21
76.847576055015566
 31
0.0
 11
150.66767167576464
 21
76.80204434333838
 31
0.0
 11
150.71679601451498
 21
76.769287691463788
 31
0.0
 11
150.79239754557324
 21
76.723019507991182
 31
0.0
 11
150.87348917566064
 21
76.675881907634292
 31
0.0
 11
150.93261444481328
 21
76.64437822617532
 31
0.0
 11
150.99867830106984
 21
76.615110091718094
 31
0.0
 11
151.09368557677999
 21
76.578074106008401
 31
0.0
  0
SPLINE
  5
398
100
AcDbEntity
  8
0
  6
CONTINUOUS
 62
           7
100
AcDbSpline
210
0.0
220
0.0
230
1.0
 70
           0
 71
           3
 72
           9
 73
           6
 74
           9
 42
0.00000000001
 43
0.00000000001
 44
0.00000000001
 40
0.0
 40
0.0
 40
0.0
 40
1.5737754613453689
 40
3.1425607696176314
 40
4.7136904336770842
 40
6.2976440166869434
 40
6.2976440166869434
 40
6.2976440166869434
 10
145.09368557677999
 20
93.709344728373907
 30
0.0
 10
146.04942053402999
 20
93.272222154843305
 30
0.0
 10
147.02861687000501
 20
92.905423322279702
 30
0.0
 10
149.02943824219901
 20
92.294784425781899
 30
0.0
 10
150.051113387127
 20
92.051116298686495
 30
0.0
 10
151.09368557677999
 20
91.866519674300207
 30
0.0
 11
145.09368557677999
 21
93.709344728373907
 31
0.0
 11
145.93308069809524
 21
93.335580137992977
 31
0.0
 11
146.53979614754098
 21
93.088531513911335
 31
0.0
 11
147.15632762667025
 21
92.874927498316325
 31
0.0
 11
148.0282806191301
 21
92.600331834794616
 31
0.0
 11
148.90633915135609
 21
92.340836561588148
 31
0.0
 11
149.53819950189623
 21
92.173445559994121
 31
0.0
 11
150.18352796323256
 21
92.035549457916829
 31
0.0
 11
151.09368557677999
 21
91.866519674300207
 31
0.0
  0
SPLINE
  5
397
100
AcDbEntity
  8
0
  6
CONTINUOUS
 62
           7
100
AcDbSpline
210
0.0
220
0.0
230
1.0
 70
           0
 71
           3
 72
           9
 73
           6
 74
           9
 42
0.00000000001
 43
0.00000000001
 44
0.00000000001
 40
0.0
 40
0.0
 40
0.0
 40
1.5797947709971139
 40
3.1554770438557975
 40
4.7286861406643492
 40
6.2976419424438195
 40
6.2976419424438195
 40
6.2976419424438195
 10
151.09368557677999
 20
119.342808683803
 30
0.0
 10
150.05534100188299
 20
119.158960595989
 30
0.0
 10
149.03328382473401
 20
118.915734811688
 30
0.0
 10
147.02402080438699
 20
118.30248510700299
 30
0.0
 10
146.045032331188
 20
117.93509917975901
 30
0.0
 10
145.09368557677999
 20
117.499983629729
 30
0.0
 11
151.09368557677999
 21
119.342808683803
 31
0.0
 11
150.18700349399458
 21
119.17447977072241
 31
0.0
 11
149.54364639543229
 21
119.03718920710864
 31
0.0
 11
148.90951932753549
 21
118.86938199077269
 31
0.0
 11
148.02786326524171
 21
118.60886913260612
 31
0.0
 11
147.15244221324014
 21
118.33309570991338
 31
0.0
 11
146.53386397894491
 21
118.11854349304141
 31
0.0
 11
145.92940355452524
 21
117.87218137057211
 31
0.0
 11
145.09368557677999
 21
117.499983629729
 31
0.0
  0
SPLINE
  5
396
100
AcDbEntity
  8
0
  6
CONTINUOUS
 62
           7
100
AcDbSpline
210
0.0
220
0.0
230
1.0
 70
           0
 71
           3
 72
          12
 73
           9
 74
          15
 42
0.00000000001
 43
0.00000000001
 44
0.00000000001
 40
0.0
 40
0.0
 40
0.0
 40
0.79136333731604
 40
1.7409124141058707
 40
2.842324964946116
 40
3.9267682507952721
 40
4.9352383681059457
 40
5.6595292645424822
 40
6.1241430637673435
 40
6.1241430637673435
 40
6.1241430637673435
 10
129.66370846675201
 20
99.708017183954098
 30
0.0
 10
129.630941748965
 20
99.315749556367805
 30
0.0
 10
129.56472643361801
 20
98.523051159470199
 30
0.0
 10
129.43080297346
 20
97.427567879567803
 30
0.0
 10
129.35360796270999
 20
96.331095832815393
 30
0.0
 10
129.40655784096401
 20
95.262706638148103
 30
0.0
 10
129.533608717015
 20
94.324026080829697
 30
0.0
 10
129.62398078789801
 20
93.830896535240001
 30
0.0
 10
129.66254617617801
 20
93.620458374286301
 30
0.0
 11
129.66370846675201
 21
99.708017183954098
 31
0.0
 11
129.63160858504372
 21
99.323732602098943
 31
0.0
 11
129.60084237549287
 21
98.955414111706077
 31
0.0
 11
129.55825453205887
 21
98.504345871331452
 31
0.0
 11
129.50272288550656
 21
98.015867054679319
 31
0.0
 11
129.43905866496161
 21
97.436519649211604
 31
0.0
 11
129.39190582741992
 21
96.875075783031519
 31
0.0
 11
129.37004142504475
 21
96.328694328775285
 31
0.0
 11
129.38104394733907
 21
95.777509866438805
 31
0.0
 11
129.41866532881539
 21
95.254828989760696
 31
0.0
 11
129.4805016859946
 21
94.716392816307774
 31
0.0
 11
129.53409581864904
 21
94.347013081805386
 31
0.0
 11
129.58866415457157
 21
94.023607349254405
 31
0.0
 11
129.6247929766364
 21
93.826464698505177
 31
0.0
 11
129.66254617617801
 21
93.620458374286301
 31
0.0
  0
SPLINE
  5
395
100
AcDbEntity
  8
0
  6
CONTINUOUS
 62
           7
100
AcDbSpline
210
0.0
220
0.0
230
1.0
 70
           0
 71
           3
 72
          42
 73
          39
 74
          75
 42
0.00000000001
 43
0.00000000001
 44
0.00000000001
 40
0.0
 40
0.0
 40
0.0
 40
0.2661600386908439
 40
0.5784499009957493
 40
0.92904889176869
 40
1.2922129441062249
 40
1.7090914028575752
 40
2.247656440042952
 40
2.9576058668422895
 40
3.8522108478332147
 40
4.8911173879292829
 40
6.0875385814337504
 40
7.5293300912166279
 40
9.2436586097292484
 40
11.098446566176204
 40
12.934798323102946
 40
14.723096611341312
 40
16.498697870634388
 40
18.300145999209811
 40
20.112214648876883
 40
21.923860590145619
 40
23.725246162435436
 40
25.498114673937732
 40
27.223075746892647
 40
28.890908321345563
 40
30.499064300372215
 40
32.011549694539667
 40
33.392978015821981
 40
34.647253673158048
 40
35.801800851208831
 40
36.799738487868979
 40
37.576912866163184
 40
38.171968420392425
 40
38.683937981379273
 40
39.172362454093559
 40
39.624546640291129
 40
40.062540402573944
 40
40.457458604034343
 40
40.834949996608643
 40
40.834949996608643
 40
40.834949996608643
 10
128.34708284185601
 20
125.298677700127
 30
0.0
 10
128.47986985778701
 20
125.298075487419
 30
0.0
 10
128.74661042905501
 20
125.29686577154
 30
0.0
 10
129.096580086632
 20
125.22224583283101
 30
0.0
 10
129.40853548361699
 20
125.078785040428
 30
0.0
 10
129.680762705837
 20
124.809423378074
 30
0.0
 10
129.870366577239
 20
124.400446187516
 30
0.0
 10
129.981663496192
 20
123.784074219164
 30
0.0
 10
130.03323113754101
 20
122.99219233140801
 30
0.0
 10
130.00628621770201
 20
121.996906199663
 30
0.0
 10
129.92695153021899
 20
120.917655899192
 30
0.0
 10
129.81298557368399
 20
119.611939965506
 30
0.0
 10
129.69517708586099
 20
118.043455111406
 30
0.0
 10
129.58394646823899
 20
116.191037471059
 30
0.0
 10
129.508951644088
 20
114.338733228905
 30
0.0
 10
129.47099385330901
 20
112.52024761405499
 30
0.0
 10
129.46000967151099
 20
110.762567082516
 30
0.0
 10
129.476015510661
 20
108.969150839419
 30
0.0
 10
129.51562824371101
 20
107.16017591385599
 30
0.0
 10
129.59351993244201
 20
105.34711960780101
 30
0.0
 10
129.679319220655
 20
103.540592763833
 30
0.0
 10
129.73100075845599
 20
101.747129282502
 30
0.0
 10
129.69515768725299
 20
99.995967012129995
 30
0.0
 10
129.57533081671599
 20
98.301806270140304
 30
0.0
 10
129.48726189157401
 20
96.666904545500003
 30
0.0
 10
129.47562099571701
 20
95.087907552991297
 30
0.0
 10
129.635043965547
 20
93.650792232598704
 30
0.0
 10
129.902084183482
 20
92.361225262639394
 30
0.0
 10
130.11607889723899
 20
91.188971990735595
 30
0.0
 10
130.268439427347
 20
90.0819386655361
 30
0.0
 10
130.29866636330601
 20
89.204052415252704
 30
0.0
 10
130.234238039144
 20
88.531187675137403
 30
0.0
 10
130.114144892029
 20
88.031240458930597
 30
0.0
 10
129.905622167178
 20
87.566069494077198
 30
0.0
 10
129.61428850872301
 20
87.200984345856696
 30
0.0
 10
129.26454159851599
 20
86.938497394858203
 30
0.0
 10
128.87760837539901
 20
86.731764612870805
 30
0.0
 10
128.540777362802
 20
86.632551784300603
 30
0.0
 10
128.34708284185601
 20
86.575499492252504
 30
0.0
 11
128.34708284185601
 21
125.298677700127
 31
0.0
 11
128.47735669483214
 21
125.29808688505952
 31
0.0
 11
128.60260422189856
 21
125.29751886527315
 31
0.0
 11
128.75182693956555
 21
125.28824059941546
 31
0.0
 11
128.91148267825361
 21
125.26171198930874
 31
0.0
 11
129.08861370256855
 21
125.21449545779475
 31
0.0
 11
129.24981195875651
 21
125.15177817620817
 31
0.0
 11
129.40053977973918
 21
125.06568167640057
 31
0.0
 11
129.53527619296628
 21
124.95337844853815
 31
0.0
 11
129.66507303579357
 21
124.80080098302332
 31
0.0
 11
129.76349053853409
 21
124.63097872740721
 31
0.0
 11
129.85564995740759
 21
124.39160904888939
 31
0.0
 11
129.91837613661826
 21
124.13456509311838
 31
0.0
 11
129.9715457971553
 21
123.78410313441732
 31
0.0
 11
130.0044800596188
 21
123.43369900622287
 31
0.0
 11
130.02292662176265
 21
122.98744324041756
 31
0.0
 11
130.02076415234981
 21
122.53168929263134
 31
0.0
 11
130.00068766540846
 21
122.00520199478265
 31
0.0
 11
129.96941407388002
 21
121.49530628717324
 31
0.0
 11
129.92464636509661
 21
120.91403397514472
 31
0.0
 11
129.87526832606846
 21
120.32551781502167
 31
0.0
 11
129.81510182436955
 21
119.61120402999207
 31
0.0
 11
129.75916782404178
 21
118.89541837393467
 31
0.0
 11
129.69781811608718
 21
118.03400625525086
 31
0.0
 11
129.64175046858497
 21
117.15369642425678
 31
0.0
 11
129.58897629306307
 21
116.1990077120752
 31
0.0
 11
129.54626176718929
 21
115.26025948192603
 31
0.0
 11
129.51347154827059
 21
114.33879053932445
 31
0.0
 11
129.48972113771703
 21
113.41743621756174
 31
0.0
 11
129.47429776004748
 21
112.52405194211921
 31
0.0
 11
129.46548219585483
 21
111.63827632280515
 31
0.0
 11
129.46336407571405
 21
110.75893720967102
 31
0.0
 11
129.46795476397944
 21
109.87233835084696
 31
0.0
 11
129.47893736235241
 21
108.96949044847922
 31
0.0
 11
129.49576366410815
 21
108.06732176423193
 31
0.0
 11
129.52039969566547
 21
107.16030390143506
 31
0.0
 11
129.55457863113173
 21
106.25354201379628
 31
0.0
 11
129.59453997498704
 21
105.34726807680693
 31
0.0
 11
129.63654140393248
 21
104.44129107782943
 31
0.0
 11
129.67513650111647
 21
103.53979577148405
 31
0.0
 11
129.70536615922342
 21
102.63670648044078
 31
0.0
 11
129.72005035991785
 21
101.74763023550486
 31
0.0
 11
129.71283376353614
 21
100.8595558965747
 31
0.0
 11
129.68434613907957
 21
99.996528315781731
 31
0.0
 11
129.63423541827615
 21
99.134623342292201
 31
0.0
 11
129.57884781452881
 21
98.301925077265423
 31
0.0
 11
129.53049420640707
 21
97.469464426488813
 31
0.0
 11
129.49657024842745
 21
96.664118909381486
 31
0.0
 11
129.48126300415475
 21
95.853202120037082
 31
0.0
 11
129.4978618453309
 21
95.091456424532083
 31
0.0
 11
129.55894238573475
 21
94.336808472108629
 31
0.0
 11
129.65100893018757
 21
93.653323946857739
 31
0.0
 11
129.77500540392151
 21
92.974902850124948
 31
0.0
 11
129.8981712861447
 21
92.362046394335181
 31
0.0
 11
130.01351137369332
 21
91.750832201937044
 31
0.0
 11
130.11086775515273
 21
91.180989747545524
 31
0.0
 11
130.19780185243957
 21
90.595182806773849
 31
0.0
 11
130.25502830031829
 21
90.086866539320539
 31
0.0
 11
130.28543249413957
 21
89.588406019436135
 31
0.0
 11
130.28623551032882
 21
89.204870114268047
 31
0.0
 11
130.26217682056367
 21
88.822969607130631
 31
0.0
 11
130.22508441630873
 21
88.536949414123015
 31
0.0
 11
130.16968476638317
 21
88.262452699086538
 31
0.0
 11
130.1013510509932
 21
88.029528626178106
 31
0.0
 11
130.00742965353166
 21
87.793180887764692
 31
0.0
 11
129.89325424857878
 21
87.575453423857681
 31
0.0
 11
129.75434300642752
 21
87.376493819511637
 31
0.0
 11
129.60488685016077
 21
87.211527803750812
 31
0.0
 11
129.43662737676948
 21
87.067648703778218
 31
0.0
 11
129.25669502055041
 21
86.943607178996174
 31
0.0
 11
129.06106950840027
 21
86.829785222490173
 31
0.0
 11
128.88041985056674
 21
86.74358836148312
 31
0.0
 11
128.70539314306862
 21
86.681038997700639
 31
0.0
 11
128.53350767763217
 21
86.630410514638584
 31
0.0
 11
128.34708284185601
 21
86.575499492252504
 31
0.0
  0
CIRCLE
  5
394
100
AcDbEntity
  8
0
  6
CONTINUOUS
 62
           7
100
AcDbCircle
 10
244.2495328915
 20
133.750489802
 40
1.500000378743
  0
CIRCLE
  5
393
100
AcDbEntity
  8
0
  6
CONTINUOUS
 62
           7
100
AcDbCircle
 10
260.4995328915
 20
105.6046641791
 40
1.50000012759
  0
CIRCLE
  5
392
100
AcDbEntity
  8
0
  6
CONTINUOUS
 62
           7
100
AcDbCircle
 10
244.2495328915
 20
77.4588385561
 40
1.500000581145
  0
CIRCLE
  5
391
100
AcDbEntity
  8
0
  6
CONTINUOUS
 62
           7
100
AcDbCircle
 10
211.7495328915
 20
77.4588385561
 40
1.500000378743
  0
CIRCLE
  5
390
100
AcDbEntity
  8
0
  6
CONTINUOUS
 62
           7
100
AcDbCircle
 10
195.4995328915
 20
105.6046641791
 40
1.50000012759
  0
CIRCLE
  5
38F
100
AcDbEntity
  8
0
  6
CONTINUOUS
 62
           7
100
AcDbCircle
 10
211.7495328915
 20
133.750489802
 40
1.500000581145
  0
CIRCLE
  5
38E
100
AcDbEntity
  8
0
  6
CONTINUOUS
 62
           7
100
AcDbCircle
 10
227.9995328915
 20
105.6046641791
 40
16.95
  0
CIRCLE
  5
38D
100
AcDbEntity
  8
0
  6
CONTINUOUS
 62
           7
100
AcDbCircle
 10
227.9995328915
 20
105.6046641791
 40
17.45
  0
CIRCLE
  5
38C
100
AcDbEntity
  8
0
  6
CONTINUOUS
 62
           7
100
AcDbCircle
 10
227.9995328915
 20
105.6046641791
 40
17.25
  0
CIRCLE
  5
38B
100
AcDbEntity
  8
0
  6
CONTINUOUS
 62
           7
100
AcDbCircle
 10
227.9995328915
 20
105.6046641791
 40
13.7
  0
CIRCLE
  5
38A
100
AcDbEntity
  8
0
  6
CONTINUOUS
 62
           7
100
AcDbCircle
 10
227.9995328915
 20
105.6046641791
 40
16.25
  0
CIRCLE
  5
389
100
AcDbEntity
  8
0
  6
CONTINUOUS
 62
           7
100
AcDbCircle
 10
227.9995328915
 20
105.6046641791
 40
5.5
  0
CIRCLE
  5
388
100
AcDbEntity
  8
0
  6
CONTINUOUS
 62
           7
100
AcDbCircle
 10
227.9995328915
 20
105.6046641791
 40
5.8
  0
CIRCLE
  5
387
100
AcDbEntity
  8
0
  6
CONTINUOUS
 62
           7
100
AcDbCircle
 10
235.9995328915
 20
105.6046641791
 40
1.45
  0
CIRCLE
  5
386
100
AcDbEntity
  8
0
  6
CONTINUOUS
 62
           7
100
AcDbCircle
 10
227.9995328915
 20
97.6046641791
 40
1.45
  0
CIRCLE
  5
385
100
AcDbEntity
  8
0
  6
CONTINUOUS
 62
           7
100
AcDbCircle
 10
219.9995328915
 20
105.6046641791
 40
1.45
  0
CIRCLE
  5
384
100
AcDbEntity
  8
0
  6
CONTINUOUS
 62
           7
100
AcDbCircle
 10
227.9995328915
 20
113.6046641791
 40
1.45
  0
CIRCLE
  5
383
100
AcDbEntity
  8
0
  6
CONTINUOUS
 62
           7
100
AcDbCircle
 10
227.9995328915
 20
105.6046641791
 40
11.0
  0
CIRCLE
  5
382
100
AcDbEntity
  8
0
  6
CONTINUOUS
 62
           7
100
AcDbCircle
 10
227.9995328915
 20
105.6046641791
 40
13.0
  0
CIRCLE
  5
381
100
AcDbEntity
  8
0
  6
CONTINUOUS
 62
           7
100
AcDbCircle
 10
227.9995328915
 20
105.6046641791
 40
11.4
  0
CIRCLE
  5
380
100
AcDbEntity
  8
0
  6
CONTINUOUS
 62
           7
100
AcDbCircle
 10
227.9995328915
 20
105.6046641791
 40
28.2
  0
CIRCLE
  5
37F
100
AcDbEntity
  8
0
  6
CONTINUOUS
 62
           7
100
AcDbCircle
 10
227.9995328915
 20
105.6046641791
 40
26.186222003238
  0
CIRCLE
  5
37E
100
AcDbEntity
  8
0
  6
CONTINUOUS
 62
           7
100
AcDbCircle
 10
227.9995328915
 20
105.6046641791
 40
25.9755629091
  0
CIRCLE
  5
37D
100
AcDbEntity
  8
0
  6
CONTINUOUS
 62
           7
100
AcDbCircle
 10
227.9995328915
 20
105.6046641791
 40
25.7
  0
CIRCLE
  5
37C
100
AcDbEntity
  8
0
  6
CONTINUOUS
 62
           7
100
AcDbCircle
 10
227.9995328915
 20
105.6046641791
 40
28.213965647037
  0
CIRCLE
  5
37B
100
AcDbEntity
  8
0
  6
CONTINUOUS
 62
           7
100
AcDbCircle
 10
256.1453585145
 20
121.8546641791
 40
1.7
  0
CIRCLE
  5
37A
100
AcDbEntity
  8
0
  6
CONTINUOUS
 62
           7
100
AcDbCircle
 10
256.1453585145
 20
89.3546641791
 40
1.7
  0
CIRCLE
  5
379
100
AcDbEntity
  8
0
  6
CONTINUOUS
 62
           7
100
AcDbCircle
 10
227.9995328915
 20
73.1046641791
 40
1.7
  0
CIRCLE
  5
378
100
AcDbEntity
  8
0
  6
CONTINUOUS
 62
           7
100
AcDbCircle
 10
199.8537072685
 20
89.3546641791
 40
1.7
  0
CIRCLE
  5
377
100
AcDbEntity
  8
0
  6
CONTINUOUS
 62
           7
100
AcDbCircle
 10
199.8537072685
 20
121.8546641791
 40
1.7
  0
CIRCLE
  5
376
100
AcDbEntity
  8
0
  6
CONTINUOUS
 62
           7
100
AcDbCircle
 10
227.9995328915
 20
138.1046641791
 40
1.7
  0
CIRCLE
  5
375
100
AcDbEntity
  8
0
  6
CONTINUOUS
 62
           7
100
AcDbCircle
 10
244.2495328915
 20
133.750489802
 40
1.25
  0
CIRCLE
  5
374
100
AcDbEntity
  8
0
  6
CONTINUOUS
 62
           7
100
AcDbCircle
 10
260.4995328915
 20
105.6046641791
 40
1.25
  0
CIRCLE
  5
373
100
AcDbEntity
  8
0
  6
CONTINUOUS
 62
           7
100
AcDbCircle
 10
244.2495328915
 20
77.4588385561
 40
1.25
  0
CIRCLE
  5
372
100
AcDbEntity
  8
0
  6
CONTINUOUS
 62
           7
100
AcDbCircle
 10
211.7495328915
 20
77.4588385561
 40
1.25
  0
CIRCLE
  5
371
100
AcDbEntity
  8
0
  6
CONTINUOUS
 62
           7
100
AcDbCircle
 10
195.4995328915
 20
105.6046641791
 40
1.25
  0
CIRCLE
  5
370
100
AcDbEntity
  8
0
  6
CONTINUOUS
 62
           7
100
AcDbCircle
 10
211.7495328915
 20
133.750489802
 40
1.25
  0
CIRCLE
  5
36F
100
AcDbEntity
  8
0
  6
CONTINUOUS
 62
           7
100
AcDbCircle
 10
227.9995328915
 20
105.6046641791
 40
28.420977080026
  0
CIRCLE
  5
36E
100
AcDbEntity
  8
0
  6
CONTINUOUS
 62
           7
100
AcDbCircle
 10
227.9995328915
 20
105.6046641791
 40
35.0
  0
CIRCLE
  5
36D
100
AcDbEntity
  8
0
  6
CONTINUOUS
 62
           7
100
AcDbCircle
 10
227.9995328915
 20
105.6046641791
 40
35.5
  0
CIRCLE
  5
36C
100
AcDbEntity
  8
0
  6
CONTINUOUS
 62
           7
100
AcDbCircle
 10
227.9995328915
 20
105.6046641791
 40
24.2
  0
CIRCLE
  5
36B
100
AcDbEntity
  8
0
  6
CONTINUOUS
 62
           7
100
AcDbCircle
 10
227.9995328915
 20
105.6046641791
 40
24.5
  0
CIRCLE
  5
36A
100
AcDbEntity
  8
0
  6
CONTINUOUS
 62
           7
100
AcDbCircle
 10
227.9995328915
 20
105.6046641791
 40
20.75
  0
CIRCLE
  5
369
100
AcDbEntity
  8
0
  6
CONTINUOUS
 62
           7
100
AcDbCircle
 10
227.9995328915
 20
105.6046641791
 40
17.85
  0
CIRCLE
  5
368
100
AcDbEntity
  8
0
  6
CONTINUOUS
 62
           7
100
AcDbCircle
 10
227.9995328915
 20
105.6046641791
 40
26.92399
  0
CIRCLE
  5
367
100
AcDbEntity
  8
0
  6
CONTINUOUS
 62
           7
100
AcDbCircle
 10
39.2772105777
 20
133.750489802
 40
1.500000378743
  0
CIRCLE
  5
366
100
AcDbEntity
  8
0
  6
CONTINUOUS
 62
           7
100
AcDbCircle
 10
23.0272105777
 20
105.6046641791
 40
1.50000012759
  0
CIRCLE
  5
365
100
AcDbEntity
  8
0
  6
CONTINUOUS
 62
           7
100
AcDbCircle
 10
39.2772105777
 20
77.4588385561
 40
1.500000581145
  0
CIRCLE
  5
364
100
AcDbEntity
  8
0
  6
CONTINUOUS
 62
           7
100
AcDbCircle
 10
71.7772105777
 20
77.4588385561
 40
1.500000378743
  0
CIRCLE
  5
363
100
AcDbEntity
  8
0
  6
CONTINUOUS
 62
           7
100
AcDbCircle
 10
88.0272105777
 20
105.6046641791
 40
1.50000012759
  0
CIRCLE
  5
362
100
AcDbEntity
  8
0
  6
CONTINUOUS
 62
           7
100
AcDbCircle
 10
71.7772105777
 20
133.750489802
 40
1.500000581145
  0
CIRCLE
  5
361
100
AcDbEntity
  8
0
  6
CONTINUOUS
 62
           7
100
AcDbCircle
 10
55.5272105777
 20
105.6046641791
 40
9.65
  0
CIRCLE
  5
360
100
AcDbEntity
  8
0
  6
CONTINUOUS
 62
           7
100
AcDbCircle
 10
55.5272105777
 20
105.6046641791
 40
9.35
  0
CIRCLE
  5
35F
100
AcDbEntity
  8
0
  6
CONTINUOUS
 62
           7
100
AcDbCircle
 10
55.5272105777
 20
125.0046641791
 40
1.025
  0
CIRCLE
  5
35E
100
AcDbEntity
  8
0
  6
CONTINUOUS
 62
           7
100
AcDbCircle
 10
55.5272105777
 20
105.6046641791
 40
10.3
  0
CIRCLE
  5
35D
100
AcDbEntity
  8
0
  6
CONTINUOUS
 62
           7
100
AcDbCircle
 10
55.5272105777
 20
105.6046641791
 40
27.1
  0
CIRCLE
  5
35C
100
AcDbEntity
  8
0
  6
CONTINUOUS
 62
           7
100
AcDbCircle
 10
55.5272105777
 20
105.6046641791
 40
22.308576217915
  0
CIRCLE
  5
35B
100
AcDbEntity
  8
0
  6
CONTINUOUS
 62
           7
100
AcDbCircle
 10
55.5272105777
 20
105.6046641791
 40
24.859675201443
  0
CIRCLE
  5
35A
100
AcDbEntity
  8
0
  6
CONTINUOUS
 62
           7
100
AcDbCircle
 10
55.5272105777
 20
105.6046641791
 40
21.85
  0
CIRCLE
  5
359
100
AcDbEntity
  8
0
  6
CONTINUOUS
 62
           7
100
AcDbCircle
 10
55.5272105777
 20
105.6046641791
 40
26.693008534776
  0
CIRCLE
  5
358
100
AcDbEntity
  8
0
  6
CONTINUOUS
 62
           7
100
AcDbCircle
 10
55.5272105777
 20
105.6046641791
 40
26.85
  0
CIRCLE
  5
357
100
AcDbEntity
  8
0
  6
CONTINUOUS
 62
           7
100
AcDbCircle
 10
55.5272105777
 20
105.6046641791
 40
9.003589838486
  0
CIRCLE
  5
356
100
AcDbEntity
  8
0
  6
CONTINUOUS
 62
           7
100
AcDbCircle
 10
55.5272105777
 20
105.6046641791
 40
35.5
  0
CIRCLE
  5
355
100
AcDbEntity
  8
0
  6
CONTINUOUS
 62
           7
100
AcDbCircle
 10
71.7772105777
 20
133.750489802
 40
1.25
  0
CIRCLE
  5
354
100
AcDbEntity
  8
0
  6
CONTINUOUS
 62
           7
100
AcDbCircle
 10
23.0272105777
 20
105.6046641791
 40
1.25
  0
CIRCLE
  5
353
100
AcDbEntity
  8
0
  6
CONTINUOUS
 62
           7
100
AcDbCircle
 10
55.5272105777
 20
105.6046641791
 40
35.0
  0
CIRCLE
  5
352
100
AcDbEntity
  8
0
  6
CONTINUOUS
 62
           7
100
AcDbCircle
 10
27.3813849547
 20
121.8546641791
 40
1.7
  0
CIRCLE
  5
351
100
AcDbEntity
  8
0
  6
CONTINUOUS
 62
           7
100
AcDbCircle
 10
27.3813849547
 20
89.3546641791
 40
1.7
  0
CIRCLE
  5
350
100
AcDbEntity
  8
0
  6
CONTINUOUS
 62
           7
100
AcDbCircle
 10
55.5272105777
 20
73.1046641791
 40
1.7
  0
CIRCLE
  5
34F
100
AcDbEntity
  8
0
  6
CONTINUOUS
 62
           7
100
AcDbCircle
 10
83.6730362007
 20
89.3546641791
 40
1.7
  0
CIRCLE
  5
34E
100
AcDbEntity
  8
0
  6
CONTINUOUS
 62
           7
100
AcDbCircle
 10
83.6730362007
 20
121.8546641791
 40
1.7
  0
CIRCLE
  5
34D
100
AcDbEntity
  8
0
  6
CONTINUOUS
 62
           7
100
AcDbCircle
 10
55.5272105777
 20
138.1046641791
 40
1.7
  0
CIRCLE
  5
34C
100
AcDbEntity
  8
0
  6
CONTINUOUS
 62
           7
100
AcDbCircle
 10
39.2772105777
 20
133.750489802
 40
1.25
  0
CIRCLE
  5
34B
100
AcDbEntity
  8
0
  6
CONTINUOUS
 62
           7
100
AcDbCircle
 10
39.2772105777
 20
77.4588385561
 40
1.25
  0
CIRCLE
  5
34A
100
AcDbEntity
  8
0
  6
CONTINUOUS
 62
           7
100
AcDbCircle
 10
71.7772105777
 20
77.4588385561
 40
1.25
  0
CIRCLE
  5
349
100
AcDbEntity
  8
0
  6
CONTINUOUS
 62
           7
100
AcDbCircle
 10
88.0272105777
 20
105.6046641791
 40
1.25
  0
CIRCLE
  5
348
100
AcDbEntity
  8
0
  6
CONTINUOUS
 62
           7
100
AcDbCircle
 10
55.5272105777
 20
105.6046641791
 40
29.25
  0
CIRCLE
  5
347
100
AcDbEntity
  8
0
  6
CONTINUOUS
 62
           7
100
AcDbCircle
 10
55.5272105777
 20
105.6046641791
 40
29.0
  0
CIRCLE
  5
346
100
AcDbEntity
  8
0
  6
CONTINUOUS
 62
           7
100
AcDbCircle
 10
55.5272105777
 20
105.6046641791
 40
27.423205080757
  0
CIRCLE
  5
345
100
AcDbEntity
  8
0
  6
CONTINUOUS
 62
           7
100
AcDbCircle
 10
55.5272105777
 20
105.6046641791
 40
27.25
  0
CIRCLE
  5
344
100
AcDbEntity
  8
0
  6
CONTINUOUS
 62
           7
100
AcDbCircle
 10
55.5272105777
 20
105.6046641791
 40
28.612358052022
  0
CIRCLE
  5
343
100
AcDbEntity
  8
0
  6
CONTINUOUS
 62
           7
100
AcDbCircle
 10
55.5272105777
 20
105.6046641791
 40
28.815911083401
  0
CIRCLE
  5
342
100
AcDbEntity
  8
0
  6
CONTINUOUS
 62
           7
100
AcDbCircle
 10
55.5272105777
 20
105.6046641791
 40
11.5
  0
CIRCLE
  5
341
100
AcDbEntity
  8
0
  6
CONTINUOUS
 62
           7
100
AcDbCircle
 10
55.5272105777
 20
105.6046641791
 40
12.7
  0
CIRCLE
  5
340
100
AcDbEntity
  8
0
  6
CONTINUOUS
 62
           7
100
AcDbCircle
 10
55.5272105777
 20
105.6046641791
 40
13.5
  0
CIRCLE
  5
33F
100
AcDbEntity
  8
0
  6
CONTINUOUS
 62
           7
100
AcDbCircle
 10
71.303041968
 20
117.0664765988
 40
1.25
  0
CIRCLE
  5
33E
100
AcDbEntity
  8
0
  6
CONTINUOUS
 62
           7
100
AcDbCircle
 10
61.553041968
 20
124.1502662468
 40
1.25
  0
CIRCLE
  5
33D
100
AcDbEntity
  8
0
  6
CONTINUOUS
 62
           7
100
AcDbCircle
 10
55.5272105777
 20
125.0046641791
 40
1.15
  0
CIRCLE
  5
33C
100
AcDbEntity
  8
0
  6
CONTINUOUS
 62
           7
100
AcDbCircle
 10
49.5013791874
 20
124.1502662468
 40
1.25
  0
CIRCLE
  5
33B
100
AcDbEntity
  8
0
  6
CONTINUOUS
 62
           7
100
AcDbCircle
 10
36.0272105777
 20
105.6046641791
 40
1.25
  0
CIRCLE
  5
33A
100
AcDbEntity
  8
0
  6
CONTINUOUS
 62
           7
100
AcDbCircle
 10
49.5013791874
 20
87.0590621113
 40
1.25
  0
CIRCLE
  5
339
100
AcDbEntity
  8
0
  6
CONTINUOUS
 62
           7
100
AcDbCircle
 10
61.553041968
 20
87.0590621113
 40
1.25
  0
CIRCLE
  5
338
100
AcDbEntity
  8
0
  6
CONTINUOUS
 62
           7
100
AcDbCircle
 10
71.303041968
 20
94.1428517593
 40
1.25
  0
CIRCLE
  5
337
100
AcDbEntity
  8
0
  6
CONTINUOUS
 62
           7
100
AcDbCircle
 10
75.0272105777
 20
105.6046641791
 40
1.25
  0
CIRCLE
  5
336
100
AcDbEntity
  8
0
  6
CONTINUOUS
 62
           7
100
AcDbCircle
 10
39.7513791874
 20
117.0664765988
 40
1.25
  0
CIRCLE
  5
335
100
AcDbEntity
  8
0
  6
CONTINUOUS
 62
           7
100
AcDbCircle
 10
39.7513791874
 20
94.1428517593
 40
1.25
  0
CIRCLE
  5
334
100
AcDbEntity
  8
0
  6
CONTINUOUS
 62
           7
100
AcDbCircle
 10
55.5272105777
 20
105.6046641791
 40
17.55
  0
CIRCLE
  5
333
100
AcDbEntity
  8
0
  6
CONTINUOUS
 62
           7
100
AcDbCircle
 10
55.5272105777
 20
105.6046641791
 40
17.25
  0
CIRCLE
  5
332
100
AcDbEntity
  8
0
  6
CONTINUOUS
 62
           7
100
AcDbCircle
 10
55.5272105777
 20
105.6046641791
 40
21.603700908476
  0
CIRCLE
  5
331
100
AcDbEntity
  8
0
  6
CONTINUOUS
 62
           7
100
AcDbCircle
 10
55.5272105777
 20
105.6046641791
 40
21.75
  0
ARC
  5
330
100
AcDbEntity
  8
0
  6
CONTINUOUS
 62
           7
100
AcDbCircle
 10
227.9995328915
 20
105.6046641791
 40
14.000000000056
100
AcDbArc
 50
174.037601229718
 51
178.136311814276
  0
ARC
  5
32F
100
AcDbEntity
  8
0
  6
CONTINUOUS
 62
           7
100
AcDbCircle
 10
213.3132715762
 20
108.6565043748
 40
1.769999999883
100
AcDbArc
 50
-123.552019329267
 51
-64.500259674788
  0
ARC
  5
32E
100
AcDbEntity
  8
0
  6
CONTINUOUS
 62
           7
100
AcDbCircle
 10
213.0345013536
 20
104.5810279786
 40
1.77
100
AcDbArc
 50
56.674172718308
 51
115.725932371346
  0
ARC
  5
32D
100
AcDbEntity
  8
0
  6
CONTINUOUS
 62
           7
100
AcDbCircle
 10
227.9995328915
 20
105.6046641791
 40
14.000000000046
100
AcDbArc
 50
-170.31022485754
 51
-166.211514272681
  0
ARC
  5
32C
100
AcDbEntity
  8
0
  6
CONTINUOUS
 62
           7
100
AcDbCircle
 10
213.8656190597
 20
100.5814699965
 40
1.77
100
AcDbArc
 50
72.326346631304
 51
131.378106284677
  0
ARC
  5
32B
100
AcDbEntity
  8
0
  6
CONTINUOUS
 62
           7
100
AcDbCircle
 10
213.0345013536
 20
104.5810279786
 40
1.769999999966
100
AcDbArc
 50
-107.899845415165
 51
-48.848085761711
  0
ARC
  5
32A
100
AcDbEntity
  8
0
  6
CONTINUOUS
 62
           7
100
AcDbCircle
 10
227.9995328915
 20
105.6046641791
 40
14.000000000034
100
AcDbArc
 50
158.385427316631
 51
162.484137901537
  0
ARC
  5
329
100
AcDbEntity
  8
0
  6
CONTINUOUS
 62
           7
100
AcDbCircle
 10
214.6812546154
 20
112.505639745
 40
1.769999999911
100
AcDbArc
 50
-139.204193242557
 51
-80.152433587782
  0
ARC
  5
328
100
AcDbEntity
  8
0
  6
CONTINUOUS
 62
           7
100
AcDbCircle
 10
213.3132715762
 20
108.6565043748
 40
1.77
100
AcDbArc
 50
41.021998805199
 51
100.073758457124
  0
ARC
  5
327
100
AcDbEntity
  8
0
  6
CONTINUOUS
 62
           7
100
AcDbCircle
 10
227.9995328915
 20
105.6046641791
 40
14.000000000031
100
AcDbArc
 50
-154.658050944487
 51
-150.55934035957
  0
ARC
  5
326
100
AcDbEntity
  8
0
  6
CONTINUOUS
 62
           7
100
AcDbCircle
 10
215.7449844963
 20
96.9544593473
 40
1.77
100
AcDbArc
 50
87.978520544293
 51
147.03028019586
  0
ARC
  5
325
100
AcDbEntity
  8
0
  6
CONTINUOUS
 62
           7
100
AcDbCircle
 10
213.8656190597
 20
100.5814699965
 40
1.769999999961
100
AcDbArc
 50
-92.247671502753
 51
-33.195911848698
  0
ARC
  5
324
100
AcDbEntity
  8
0
  6
CONTINUOUS
 62
           7
100
AcDbCircle
 10
227.9995328915
 20
105.6046641791
 40
13.999999999975
100
AcDbArc
 50
142.733253403572
 51
146.831963988439
  0
ARC
  5
323
100
AcDbEntity
  8
0
  6
CONTINUOUS
 62
           7
100
AcDbCircle
 10
217.0369934273
 20
115.8429613273
 40
1.769999999931
100
AcDbArc
 50
-154.856367157498
 51
-95.80460750091
  0
ARC
  5
322
100
AcDbEntity
  8
0
  6
CONTINUOUS
 62
           7
100
AcDbCircle
 10
214.6812546154
 20
112.505639745
 40
1.77
100
AcDbArc
 50
25.369824892202
 51
84.421584544979
  0
ARC
  5
321
100
AcDbEntity
  8
0
  6
CONTINUOUS
 62
           7
100
AcDbCircle
 10
227.9995328915
 20
105.6046641791
 40
14.000000000082
100
AcDbArc
 50
-139.005877031425
 51
-134.907166446647
  0
ARC
  5
320
100
AcDbEntity
  8
0
  6
CONTINUOUS
 62
           7
100
AcDbCircle
 10
218.5332137266
 20
93.9689948185
 40
1.77
100
AcDbArc
 50
103.630694457394
 51
162.682454110868
  0
ARC
  5
31F
100
AcDbEntity
  8
0
  6
CONTINUOUS
 62
           7
100
AcDbCircle
 10
215.7449844963
 20
96.9544593473
 40
1.769999999945
100
AcDbArc
 50
-76.59549758806
 51
-17.5437379356
  0
ARC
  5
31E
100
AcDbEntity
  8
0
  6
CONTINUOUS
 62
           7
100
AcDbCircle
 10
227.9995328915
 20
105.6046641791
 40
13.999999999964
100
AcDbArc
 50
127.081079490659
 51
131.179790075325
  0
ARC
  5
31D
100
AcDbEntity
  8
0
  6
CONTINUOUS
 62
           7
100
AcDbCircle
 10
220.2057736409
 20
118.4209552472
 40
1.769999999917
100
AcDbArc
 50
-170.508541071161
 51
-111.456781413905
  0
ARC
  5
31C
100
AcDbEntity
  8
0
  6
CONTINUOUS
 62
           7
100
AcDbCircle
 10
217.0369934273
 20
115.8429613273
 40
1.77
100
AcDbArc
 50
9.717650979117
 51
68.769410633667
  0
ARC
  5
31B
100
AcDbEntity
  8
0
  6
CONTINUOUS
 62
           7
100
AcDbCircle
 10
227.9995328915
 20
105.6046641791
 40
14.000000000033
100
AcDbArc
 50
-123.353703118456
 51
-119.254992533659
  0
ARC
  5
31A
100
AcDbEntity
  8
0
  6
CONTINUOUS
 62
           7
100
AcDbCircle
 10
222.0235165438
 20
91.8464946565
 40
1.77
100
AcDbArc
 50
119.282868370406
 51
178.334628024264
  0
ARC
  5
319
100
AcDbEntity
  8
0
  6
CONTINUOUS
 62
           7
100
AcDbCircle
 10
218.5332137266
 20
93.9689948185
 40
1.769999999975
100
AcDbArc
 50
-60.94332367634
 51
-1.8915640226
  0
ARC
  5
318
100
AcDbEntity
  8
0
  6
CONTINUOUS
 62
           7
100
AcDbCircle
 10
227.9995328915
 20
105.6046641791
 40
14.0
100
AcDbArc
 50
111.428905577345
 51
115.527616162401
  0
ARC
  5
317
100
AcDbEntity
  8
0
  6
CONTINUOUS
 62
           7
100
AcDbCircle
 10
223.9525813241
 20
120.0484234893
 40
1.769999999969
100
AcDbArc
 50
173.839285018005
 51
-127.10895532692
  0
ARC
  5
316
100
AcDbEntity
  8
0
  6
CONTINUOUS
 62
           7
100
AcDbCircle
 10
220.2057736409
 20
118.4209552472
 40
1.77
100
AcDbArc
 50
-5.934522933886
 51
53.117236720818
  0
ARC
  5
315
100
AcDbEntity
  8
0
  6
CONTINUOUS
 62
           7
100
AcDbCircle
 10
227.9995328915
 20
105.6046641791
 40
14.00000000002
100
AcDbArc
 50
-107.701529205457
 51
-103.602818620801
  0
ARC
  5
314
100
AcDbEntity
  8
0
  6
CONTINUOUS
 62
           7
100
AcDbCircle
 10
225.957033155
 20
90.7443749885
 40
1.77
100
AcDbArc
 50
134.935042283489
 51
-166.013198063148
  0
ARC
  5
313
100
AcDbEntity
  8
0
  6
CONTINUOUS
 62
           7
100
AcDbCircle
 10
222.0235165438
 20
91.8464946565
 40
1.769999999981
100
AcDbArc
 50
-45.29114976372
 51
13.760609890401
  0
ARC
  5
312
100
AcDbEntity
  8
0
  6
CONTINUOUS
 62
           7
100
AcDbCircle
 10
227.9995328915
 20
105.6046641791
 40
14.0
100
AcDbArc
 50
95.77673166411
 51
99.875442249128
  0
ARC
  5
311
100
AcDbEntity
  8
0
  6
CONTINUOUS
 62
           7
100
AcDbCircle
 10
227.9995328915
 20
120.6046641791
 40
1.769999999998
100
AcDbArc
 50
158.187111105428
 51
-142.761129239992
  0
ARC
  5
310
100
AcDbEntity
  8
0
  6
CONTINUOUS
 62
           7
100
AcDbCircle
 10
223.9525813241
 20
120.0484234893
 40
1.77
100
AcDbArc
 50
-21.586696846985
 51
37.465062806989
  0
ARC
  5
30F
100
AcDbEntity
  8
0
  6
CONTINUOUS
 62
           7
100
AcDbCircle
 10
227.9995328915
 20
105.6046641791
 40
14.000000000057
100
AcDbArc
 50
-92.049355292636
 51
-87.950644707773
  0
ARC
  5
30E
100
AcDbEntity
  8
0
  6
CONTINUOUS
 62
           7
100
AcDbCircle
 10
230.0420326279
 20
90.7443749885
 40
1.77
100
AcDbArc
 50
150.587216196501
 51
-150.361024149847
  0
ARC
  5
30D
100
AcDbEntity
  8
0
  6
CONTINUOUS
 62
           7
100
AcDbCircle
 10
225.957033155
 20
90.7443749885
 40
1.770000000024
100
AcDbArc
 50
-29.638975848552
 51
29.412783803498
  0
ARC
  5
30C
100
AcDbEntity
  8
0
  6
CONTINUOUS
 62
           7
100
AcDbCircle
 10
227.9995328915
 20
105.6046641791
 40
13.999999999973
100
AcDbArc
 50
80.124557751275
 51
84.22326833589
  0
ARC
  5
30B
100
AcDbEntity
  8
0
  6
CONTINUOUS
 62
           7
100
AcDbCircle
 10
232.0464844588
 20
120.0484234893
 40
1.769999955637
100
AcDbArc
 50
142.534934778754
 51
-158.413303153015
  0
ARC
  5
30A
100
AcDbEntity
  8
0
  6
CONTINUOUS
 62
           7
100
AcDbCircle
 10
227.9995328915
 20
120.6046641791
 40
1.77
100
AcDbArc
 50
-37.238870759982
 51
21.812888894584
  0
ARC
  5
309
100
AcDbEntity
  8
0
  6
CONTINUOUS
 62
           7
100
AcDbCircle
 10
227.9995328915
 20
105.6046641791
 40
14.000000000044
100
AcDbArc
 50
-76.397181379596
 51
-72.298470794543
  0
ARC
  5
308
100
AcDbEntity
  8
0
  6
CONTINUOUS
 62
           7
100
AcDbCircle
 10
233.9755492392
 20
91.8464946565
 40
1.77
100
AcDbArc
 50
166.239390109599
 51
-134.708850236282
  0
ARC
  5
307
100
AcDbEntity
  8
0
  6
CONTINUOUS
 62
           7
100
AcDbCircle
 10
230.0420326279
 20
90.7443749885
 40
1.770000000022
100
AcDbArc
 50
-13.986801936061
 51
45.064957716511
  0
ARC
  5
306
100
AcDbEntity
  8
0
  6
CONTINUOUS
 62
           7
100
AcDbCircle
 10
227.9995328915
 20
105.6046641791
 40
13.9999999999
100
AcDbArc
 50
64.472383837968
 51
68.571094423036
  0
ARC
  5
305
100
AcDbEntity
  8
0
  6
CONTINUOUS
 62
           7
100
AcDbCircle
 10
235.793292142
 20
118.4209552472
 40
1.769999985846
100
AcDbArc
 50
126.882766588891
 51
-174.065477066114
  0
ARC
  5
304
100
AcDbEntity
  8
0
  6
CONTINUOUS
 62
           7
100
AcDbCircle
 10
232.0464844588
 20
120.0484234893
 40
1.77
100
AcDbArc
 50
-52.891044673079
 51
6.160714981647
  0
ARC
  5
303
100
AcDbEntity
  8
0
  6
CONTINUOUS
 62
           7
100
AcDbCircle
 10
227.9995328915
 20
105.6046641791
 40
14.000000000018
100
AcDbArc
 50
-60.745007466341
 51
-56.646296881544
  0
ARC
  5
302
100
AcDbEntity
  8
0
  6
CONTINUOUS
 62
           7
100
AcDbCircle
 10
237.4658520564
 20
93.9689948185
 40
1.77
100
AcDbArc
 50
-178.108435977399
 51
-119.056676323635
  0
ARC
  5
301
100
AcDbEntity
  8
0
  6
CONTINUOUS
 62
           7
100
AcDbCircle
 10
233.9755492392
 20
91.8464946565
 40
1.77
100
AcDbArc
 50
1.665371975739
 51
60.717131629594
  0
ARC
  5
300
100
AcDbEntity
  8
0
  6
CONTINUOUS
 62
           7
100
AcDbCircle
 10
227.9995328915
 20
105.6046641791
 40
13.999999999893
100
AcDbArc
 50
48.820209924982
 51
52.918920509667
  0
ARC
  5
2FF
100
AcDbEntity
  8
0
  6
CONTINUOUS
 62
           7
100
AcDbCircle
 10
238.9620723556
 20
115.8429613273
 40
1.770000000053
100
AcDbArc
 50
111.230589363315
 51
170.282349020883
  0
ARC
  5
2FE
100
AcDbEntity
  8
0
  6
CONTINUOUS
 62
           7
100
AcDbCircle
 10
235.793292142
 20
118.4209552472
 40
1.77
100
AcDbArc
 50
-68.543218586095
 51
-9.491458928305
  0
ARC
  5
2FD
100
AcDbEntity
  8
0
  6
CONTINUOUS
 62
           7
100
AcDbCircle
 10
227.9995328915
 20
105.6046641791
 40
14.000000000031
100
AcDbArc
 50
-45.092833553353
 51
-40.994122968843
  0
ARC
  5
2FC
100
AcDbEntity
  8
0
  6
CONTINUOUS
 62
           7
100
AcDbCircle
 10
240.2540812866
 20
96.9544593473
 40
1.77
100
AcDbArc
 50
-162.4562620644
 51
-103.404502408791
  0
ARC
  5
2FB
100
AcDbEntity
  8
0
  6
CONTINUOUS
 62
           7
100
AcDbCircle
 10
237.4658520564
 20
93.9689948185
 40
1.769999999997
100
AcDbArc
 50
17.31754588914
 51
76.369305542605
  0
ARC
  5
2FA
100
AcDbEntity
  8
0
  6
CONTINUOUS
 62
           7
100
AcDbCircle
 10
227.9995328915
 20
105.6046641791
 40
13.999999999935
100
AcDbArc
 50
33.168036011785
 51
37.266746596675
  0
ARC
  5
2F9
100
AcDbEntity
  8
0
  6
CONTINUOUS
 62
           7
100
AcDbCircle
 10
241.3178111675
 20
112.505639745
 40
1.770000000055
100
AcDbArc
 50
95.578415451799
 51
154.630175107797
  0
ARC
  5
2F8
100
AcDbEntity
  8
0
  6
CONTINUOUS
 62
           7
100
AcDbCircle
 10
238.9620723556
 20
115.8429613273
 40
1.77
100
AcDbArc
 50
-84.195392499088
 51
-25.143632841126
  0
ARC
  5
2F7
100
AcDbEntity
  8
0
  6
CONTINUOUS
 62
           7
100
AcDbCircle
 10
242.1334467233
 20
100.5814699965
 40
1.769999999993
100
AcDbArc
 50
-146.804088152643
 51
-87.752328497247
  0
ARC
  5
2F6
100
AcDbEntity
  8
0
  6
CONTINUOUS
 62
           7
100
AcDbCircle
 10
227.9995328915
 20
105.6046641791
 40
13.999999999987
100
AcDbArc
 50
-29.440659640631
 51
-25.3419490554
  0
ARC
  5
2F5
100
AcDbEntity
  8
0
  6
CONTINUOUS
 62
           7
100
AcDbCircle
 10
240.2540812866
 20
96.9544593473
 40
1.770000000099
100
AcDbArc
 50
32.969719802386
 51
92.021479455708
  0
ARC
  5
2F4
100
AcDbEntity
  8
0
  6
CONTINUOUS
 62
           7
100
AcDbCircle
 10
242.6857942067
 20
108.6565043748
 40
1.770000000096
100
AcDbArc
 50
79.926241539688
 51
138.97800119181
  0
ARC
  5
2F3
100
AcDbEntity
  8
0
  6
CONTINUOUS
 62
           7
100
AcDbCircle
 10
241.3178111675
 20
112.505639745
 40
1.769999999931
100
AcDbArc
 50
-99.847566411355
 51
-40.795806755328
  0
ARC
  5
2F2
100
AcDbEntity
  8
0
  6
CONTINUOUS
 62
           7
100
AcDbCircle
 10
227.9995328915
 20
105.6046641791
 40
14.0
100
AcDbArc
 50
17.515862098901
 51
21.614572683702
  0
ARC
  5
2F1
100
AcDbEntity
  8
0
  6
CONTINUOUS
 62
           7
100
AcDbCircle
 10
242.9645644293
 20
104.5810279786
 40
1.769999999946
100
AcDbArc
 50
-131.151914237368
 51
-72.100154581755
  0
ARC
  5
2F0
100
AcDbEntity
  8
0
  6
CONTINUOUS
 62
           7
100
AcDbCircle
 10
242.1334467233
 20
100.5814699965
 40
1.769999936968
100
AcDbArc
 50
48.621892219201
 51
107.673653368907
  0
ARC
  5
2EF
100
AcDbEntity
  8
0
  6
CONTINUOUS
 62
           7
100
AcDbCircle
 10
227.9995328915
 20
105.6046641791
 40
14.0
100
AcDbArc
 50
-13.788485727197
 51
-9.6897751424
  0
ARC
  5
2EE
100
AcDbEntity
  8
0
  6
CONTINUOUS
 62
           7
100
AcDbCircle
 10
242.9645644293
 20
104.5810279786
 40
1.77000000004
100
AcDbArc
 50
64.274067625737
 51
123.325827279847
  0
ARC
  5
2ED
100
AcDbEntity
  8
0
  6
CONTINUOUS
 62
           7
100
AcDbCircle
 10
242.6857942067
 20
108.6565043748
 40
1.769999999899
100
AcDbArc
 50
-115.499740325556
 51
-56.447980668035
  0
ARC
  5
2EC
100
AcDbEntity
  8
0
  6
CONTINUOUS
 62
           7
100
AcDbCircle
 10
227.9995328915
 20
105.6046641791
 40
14.0
100
AcDbArc
 50
1.863688185799
 51
5.9623987707
  0
ARC
  5
2EB
100
AcDbEntity
  8
0
  6
CONTINUOUS
 62
           7
100
AcDbCircle
 10
227.9995328915
 20
105.6046641791
 40
15.74368515843
100
AcDbArc
 50
95.991249835402
 51
99.660924077601
  0
ARC
  5
2EA
100
AcDbEntity
  8
0
  6
CONTINUOUS
 62
           7
100
AcDbCircle
 10
227.9995328915
 20
105.6046641791
 40
15.743685203665
100
AcDbArc
 50
80.339075653169
 51
84.008750164602
  0
ARC
  5
2E9
100
AcDbEntity
  8
0
  6
CONTINUOUS
 62
           7
100
AcDbCircle
 10
227.9995328915
 20
105.6046641791
 40
15.743685061291
100
AcDbArc
 50
64.686902137266
 51
68.356576251499
  0
ARC
  5
2E8
100
AcDbEntity
  8
0
  6
CONTINUOUS
 62
           7
100
AcDbCircle
 10
227.9995328915
 20
105.6046641791
 40
15.743685158429
100
AcDbArc
 50
49.034728096299
 51
52.704402338501
  0
ARC
  5
2E7
100
AcDbEntity
  8
0
  6
CONTINUOUS
 62
           7
100
AcDbCircle
 10
227.9995328915
 20
105.6046641791
 40
15.743685158429
100
AcDbArc
 50
33.382554183202
 51
37.052228425499
  0
ARC
  5
2E6
100
AcDbEntity
  8
0
  6
CONTINUOUS
 62
           7
100
AcDbCircle
 10
227.9995328915
 20
105.6046641791
 40
15.743685158429
100
AcDbArc
 50
17.730380270201
 51
21.400054512399
  0
ARC
  5
2E5
100
AcDbEntity
  8
0
  6
CONTINUOUS
 62
           7
100
AcDbCircle
 10
227.9995328915
 20
105.6046641791
 40
15.743685158429
100
AcDbArc
 50
2.0782063571
 51
5.747880599401
  0
ARC
  5
2E4
100
AcDbEntity
  8
0
  6
CONTINUOUS
 62
           7
100
AcDbCircle
 10
227.9995328915
 20
105.6046641791
 40
15.743685169904
100
AcDbArc
 50
-13.57396783731
 51
-9.9042933137
  0
ARC
  5
2E3
100
AcDbEntity
  8
0
  6
CONTINUOUS
 62
           7
100
AcDbCircle
 10
227.9995328915
 20
105.6046641791
 40
15.743685158429
100
AcDbArc
 50
-29.2261414689
 51
-25.5564672267
  0
ARC
  5
2E2
100
AcDbEntity
  8
0
  6
CONTINUOUS
 62
           7
100
AcDbCircle
 10
227.9995328915
 20
105.6046641791
 40
15.743685158429
100
AcDbArc
 50
-44.878315381999
 51
-41.208641139799
  0
ARC
  5
2E1
100
AcDbEntity
  8
0
  6
CONTINUOUS
 62
           7
100
AcDbCircle
 10
227.9995328915
 20
105.6046641791
 40
15.743685158429
100
AcDbArc
 50
-60.530489294999
 51
-56.860815052798
  0
ARC
  5
2E0
100
AcDbEntity
  8
0
  6
CONTINUOUS
 62
           7
100
AcDbCircle
 10
227.9995328915
 20
105.6046641791
 40
15.743685158429
100
AcDbArc
 50
-76.182663208098
 51
-72.512988965799
  0
ARC
  5
2DF
100
AcDbEntity
  8
0
  6
CONTINUOUS
 62
           7
100
AcDbCircle
 10
227.9995328915
 20
105.6046641791
 40
15.743685158429
100
AcDbArc
 50
-91.834837121101
 51
-88.165162878899
  0
ARC
  5
2DE
100
AcDbEntity
  8
0
  6
CONTINUOUS
 62
           7
100
AcDbCircle
 10
227.9995328915
 20
105.6046641791
 40
15.743685158429
100
AcDbArc
 50
-107.4870110342
 51
-103.817336791898
  0
ARC
  5
2DD
100
AcDbEntity
  8
0
  6
CONTINUOUS
 62
           7
100
AcDbCircle
 10
227.9995328915
 20
105.6046641791
 40
15.743685158429
100
AcDbArc
 50
-123.139184947198
 51
-119.469510705
  0
ARC
  5
2DC
100
AcDbEntity
  8
0
  6
CONTINUOUS
 62
           7
100
AcDbCircle
 10
227.9995328915
 20
105.6046641791
 40
15.743685158429
100
AcDbArc
 50
-138.7913588602
 51
-135.121684618
  0
ARC
  5
2DB
100
AcDbEntity
  8
0
  6
CONTINUOUS
 62
           7
100
AcDbCircle
 10
227.9995328915
 20
105.6046641791
 40
15.743685158429
100
AcDbArc
 50
-154.443532773299
 51
-150.773858531099
  0
ARC
  5
2DA
100
AcDbEntity
  8
0
  6
CONTINUOUS
 62
           7
100
AcDbCircle
 10
227.9995328915
 20
105.6046641791
 40
15.74368515843
100
AcDbArc
 50
-170.0957066863
 51
-166.4260324441
  0
ARC
  5
2D9
100
AcDbEntity
  8
0
  6
CONTINUOUS
 62
           7
100
AcDbCircle
 10
227.9995328915
 20
105.6046641791
 40
15.743685158429
100
AcDbArc
 50
174.252119400599
 51
177.921793642899
  0
ARC
  5
2D8
100
AcDbEntity
  8
0
  6
CONTINUOUS
 62
           7
100
AcDbCircle
 10
227.9995328915
 20
105.6046641791
 40
15.743685158429
100
AcDbArc
 50
158.599945487601
 51
162.269619729799
  0
ARC
  5
2D7
100
AcDbEntity
  8
0
  6
CONTINUOUS
 62
           7
100
AcDbCircle
 10
227.9995328915
 20
105.6046641791
 40
15.743685158429
100
AcDbArc
 50
142.9477715745
 51
146.617445816798
  0
ARC
  5
2D6
100
AcDbEntity
  8
0
  6
CONTINUOUS
 62
           7
100
AcDbCircle
 10
227.9995328915
 20
105.6046641791
 40
15.743685158429
100
AcDbArc
 50
127.295597661499
 51
130.965271903701
  0
ARC
  5
2D5
100
AcDbEntity
  8
0
  6
CONTINUOUS
 62
           7
100
AcDbCircle
 10
227.9995328915
 20
105.6046641791
 40
15.743685158429
100
AcDbArc
 50
111.643423748501
 51
115.313097990699
  0
ARC
  5
2D4
100
AcDbEntity
  8
0
  6
CONTINUOUS
 62
           7
100
AcDbCircle
 10
227.9995328915
 20
105.6046641791
 40
15.85
100
AcDbArc
 50
-124.091763825999
 51
-118.516931826098
  0
ARC
  5
2D3
100
AcDbEntity
  8
0
  6
CONTINUOUS
 62
           7
100
AcDbCircle
 10
227.9995328915
 20
105.6046641791
 40
15.85
100
AcDbArc
 50
-108.439589913001
 51
-102.864757913101
  0
ARC
  5
2D2
100
AcDbEntity
  8
0
  6
CONTINUOUS
 62
           7
100
AcDbCircle
 10
227.9995328915
 20
105.6046641791
 40
15.85
100
AcDbArc
 50
-92.787415999998
 51
-87.212583999998
  0
ARC
  5
2D1
100
AcDbEntity
  8
0
  6
CONTINUOUS
 62
           7
100
AcDbCircle
 10
227.9995328915
 20
105.6046641791
 40
15.85
100
AcDbArc
 50
-77.135242086899
 51
-71.560410086999
  0
ARC
  5
2D0
100
AcDbEntity
  8
0
  6
CONTINUOUS
 62
           7
100
AcDbCircle
 10
227.9995328915
 20
105.6046641791
 40
15.85
100
AcDbArc
 50
-61.483068173898
 51
-55.908236173899
  0
ARC
  5
2CF
100
AcDbEntity
  8
0
  6
CONTINUOUS
 62
           7
100
AcDbCircle
 10
227.9995328915
 20
105.6046641791
 40
15.85
100
AcDbArc
 50
48.082149217401
 51
53.656981217399
  0
ARC
  5
2CE
100
AcDbEntity
  8
0
  6
CONTINUOUS
 62
           7
100
AcDbCircle
 10
227.9995328915
 20
105.6046641791
 40
15.85
100
AcDbArc
 50
63.734323130498
 51
69.3091551304
  0
ARC
  5
2CD
100
AcDbEntity
  8
0
  6
CONTINUOUS
 62
           7
100
AcDbCircle
 10
227.9995328915
 20
105.6046641791
 40
15.85
100
AcDbArc
 50
79.386497043498
 51
84.961329043399
  0
ARC
  5
2CC
100
AcDbEntity
  8
0
  6
CONTINUOUS
 62
           7
100
AcDbCircle
 10
227.9995328915
 20
105.6046641791
 40
15.85
100
AcDbArc
 50
95.0386709566
 51
100.613502956501
  0
ARC
  5
2CB
100
AcDbEntity
  8
0
  6
CONTINUOUS
 62
           7
100
AcDbCircle
 10
227.9995328915
 20
105.6046641791
 40
15.85
100
AcDbArc
 50
110.6908448696
 51
116.265676869501
  0
ARC
  5
2CA
100
AcDbEntity
  8
0
  6
CONTINUOUS
 62
           7
100
AcDbCircle
 10
227.9995328915
 20
105.6046641791
 40
15.85
100
AcDbArc
 50
126.3430187826
 51
131.917850782602
  0
ARC
  5
2C9
100
AcDbEntity
  8
0
  6
CONTINUOUS
 62
           7
100
AcDbCircle
 10
232.0464844588
 20
120.0484234893
 40
1.6
100
AcDbArc
 50
-71.815168151209
 51
0.0
  0
ARC
  5
2C8
100
AcDbEntity
  8
0
  6
CONTINUOUS
 62
           7
100
AcDbCircle
 10
232.0464844588
 20
120.0484234893
 40
1.6
100
AcDbArc
 50
114.842286791283
 51
-139.4891796748
  0
ARC
  5
2C7
100
AcDbEntity
  8
0
  6
CONTINUOUS
 62
           7
100
AcDbCircle
 10
232.0464844588
 20
120.0484234893
 40
1.6
100
AcDbArc
 50
0.0
 51
33.853365382604
  0
ARC
  5
2C6
100
AcDbEntity
  8
0
  6
CONTINUOUS
 62
           7
100
AcDbCircle
 10
235.793292142
 20
118.4209552472
 40
1.6
100
AcDbArc
 50
-87.467342064282
 51
0.0
  0
ARC
  5
2C5
100
AcDbEntity
  8
0
  6
CONTINUOUS
 62
           7
100
AcDbCircle
 10
235.793292142
 20
118.4209552472
 40
1.6
100
AcDbArc
 50
99.190112878303
 51
-155.141353587904
  0
ARC
  5
2C4
100
AcDbEntity
  8
0
  6
CONTINUOUS
 62
           7
100
AcDbCircle
 10
238.9620723556
 20
115.8429613273
 40
1.6
100
AcDbArc
 50
-103.119515977303
 51
0.0
  0
ARC
  5
2C3
100
AcDbEntity
  8
0
  6
CONTINUOUS
 62
           7
100
AcDbCircle
 10
238.9620723556
 20
115.8429613273
 40
1.6
100
AcDbArc
 50
83.537938965214
 51
-170.793527500911
  0
ARC
  5
2C2
100
AcDbEntity
  8
0
  6
CONTINUOUS
 62
           7
100
AcDbCircle
 10
241.3178111675
 20
112.505639745
 40
1.6
100
AcDbArc
 50
-118.771689890382
 51
-13.103156356503
  0
ARC
  5
2C1
100
AcDbEntity
  8
0
  6
CONTINUOUS
 62
           7
100
AcDbCircle
 10
241.3178111675
 20
112.505639745
 40
1.6
100
AcDbArc
 50
67.885765052209
 51
173.554298585985
  0
ARC
  5
2C0
100
AcDbEntity
  8
0
  6
CONTINUOUS
 62
           7
100
AcDbCircle
 10
242.6857942067
 20
108.6565043748
 40
1.6
100
AcDbArc
 50
-134.423863803392
 51
-28.755330269593
  0
ARC
  5
2BF
100
AcDbEntity
  8
0
  6
CONTINUOUS
 62
           7
100
AcDbCircle
 10
242.6857942067
 20
108.6565043748
 40
1.6
100
AcDbArc
 50
52.233591139093
 51
157.902124672995
  0
ARC
  5
2BE
100
AcDbEntity
  8
0
  6
CONTINUOUS
 62
           7
100
AcDbCircle
 10
242.9645644293
 20
104.5810279786
 40
1.6
100
AcDbArc
 50
-150.0760377165
 51
-44.407504182596
  0
ARC
  5
2BD
100
AcDbEntity
  8
0
  6
CONTINUOUS
 62
           7
100
AcDbCircle
 10
242.9645644293
 20
104.5810279786
 40
1.6
100
AcDbArc
 50
36.581417226109
 51
142.249950759906
  0
ARC
  5
2BC
100
AcDbEntity
  8
0
  6
CONTINUOUS
 62
           7
100
AcDbCircle
 10
242.1334467233
 20
100.5814699965
 40
1.6
100
AcDbArc
 50
-165.728211629517
 51
-60.059678095598
  0
ARC
  5
2BB
100
AcDbEntity
  8
0
  6
CONTINUOUS
 62
           7
100
AcDbCircle
 10
242.1334467233
 20
100.5814699965
 40
1.6
100
AcDbArc
 50
20.929243313006
 51
126.597776846893
  0
ARC
  5
2BA
100
AcDbEntity
  8
0
  6
CONTINUOUS
 62
           7
100
AcDbCircle
 10
240.2540812866
 20
96.9544593473
 40
1.6
100
AcDbArc
 50
178.619614457399
 51
-75.71185200871
  0
ARC
  5
2B9
100
AcDbEntity
  8
0
  6
CONTINUOUS
 62
           7
100
AcDbCircle
 10
240.2540812866
 20
96.9544593473
 40
1.6
100
AcDbArc
 50
5.277069400001
 51
110.945602933916
  0
ARC
  5
2B8
100
AcDbEntity
  8
0
  6
CONTINUOUS
 62
           7
100
AcDbCircle
 10
237.4658520564
 20
93.9689948185
 40
1.6
100
AcDbArc
 50
162.967440544397
 51
-91.364025921686
  0
ARC
  5
2B7
100
AcDbEntity
  8
0
  6
CONTINUOUS
 62
           7
100
AcDbCircle
 10
237.4658520564
 20
93.9689948185
 40
1.6
100
AcDbArc
 50
0.0
 51
95.293429020804
  0
ARC
  5
2B6
100
AcDbEntity
  8
0
  6
CONTINUOUS
 62
           7
100
AcDbCircle
 10
233.9755492392
 20
91.8464946565
 40
1.6
100
AcDbArc
 50
-26.027278426103
 51
0.0
  0
ARC
  5
2B5
100
AcDbEntity
  8
0
  6
CONTINUOUS
 62
           7
100
AcDbCircle
 10
233.9755492392
 20
91.8464946565
 40
1.6
100
AcDbArc
 50
147.315266631395
 51
-107.016199834797
  0
ARC
  5
2B4
100
AcDbEntity
  8
0
  6
CONTINUOUS
 62
           7
100
AcDbCircle
 10
233.9755492392
 20
91.8464946565
 40
1.6
100
AcDbArc
 50
0.0
 51
79.641255107783
  0
ARC
  5
2B3
100
AcDbEntity
  8
0
  6
CONTINUOUS
 62
           7
100
AcDbCircle
 10
230.0420326279
 20
90.7443749885
 40
1.6
100
AcDbArc
 50
-41.67945233909
 51
0.0
  0
ARC
  5
2B2
100
AcDbEntity
  8
0
  6
CONTINUOUS
 62
           7
100
AcDbCircle
 10
230.0420326279
 20
90.7443749885
 40
1.6
100
AcDbArc
 50
131.663092718308
 51
-122.668373747808
  0
ARC
  5
2B1
100
AcDbEntity
  8
0
  6
CONTINUOUS
 62
           7
100
AcDbCircle
 10
230.0420326279
 20
90.7443749885
 40
1.6
100
AcDbArc
 50
0.0
 51
63.989081194695
  0
ARC
  5
2B0
100
AcDbEntity
  8
0
  6
CONTINUOUS
 62
           7
100
AcDbCircle
 10
225.957033155
 20
90.7443749885
 40
1.6
100
AcDbArc
 50
-57.331626252191
 51
0.0
  0
ARC
  5
2AF
100
AcDbEntity
  8
0
  6
CONTINUOUS
 62
           7
100
AcDbCircle
 10
225.957033155
 20
90.7443749885
 40
1.6
100
AcDbArc
 50
116.010918805304
 51
-138.32054766091
  0
ARC
  5
2AE
100
AcDbEntity
  8
0
  6
CONTINUOUS
 62
           7
100
AcDbCircle
 10
225.957033155
 20
90.7443749885
 40
1.6
100
AcDbArc
 50
0.0
 51
48.336907281692
  0
ARC
  5
2AD
100
AcDbEntity
  8
0
  6
CONTINUOUS
 62
           7
100
AcDbCircle
 10
222.0235165438
 20
91.8464946565
 40
1.6
100
AcDbArc
 50
-72.983800165204
 51
0.0
  0
ARC
  5
2AC
100
AcDbEntity
  8
0
  6
CONTINUOUS
 62
           7
100
AcDbCircle
 10
222.0235165438
 20
91.8464946565
 40
1.6
100
AcDbArc
 50
100.358744892181
 51
-153.972721573897
  0
ARC
  5
2AB
100
AcDbEntity
  8
0
  6
CONTINUOUS
 62
           7
100
AcDbCircle
 10
222.0235165438
 20
91.8464946565
 40
1.6
100
AcDbArc
 50
0.0
 51
32.684733368605
  0
ARC
  5
2AA
100
AcDbEntity
  8
0
  6
CONTINUOUS
 62
           7
100
AcDbCircle
 10
218.5332137266
 20
93.9689948185
 40
1.6
100
AcDbArc
 50
-88.635974078313
 51
0.0
  0
ARC
  5
2A9
100
AcDbEntity
  8
0
  6
CONTINUOUS
 62
           7
100
AcDbCircle
 10
218.5332137266
 20
93.9689948185
 40
1.6
100
AcDbArc
 50
84.706570979195
 51
-169.624895486895
  0
ARC
  5
2A8
100
AcDbEntity
  8
0
  6
CONTINUOUS
 62
           7
100
AcDbCircle
 10
215.7449844963
 20
96.9544593473
 40
1.6
100
AcDbArc
 50
-104.288147991289
 51
0.0
  0
ARC
  5
2A7
100
AcDbEntity
  8
0
  6
CONTINUOUS
 62
           7
100
AcDbCircle
 10
215.7449844963
 20
96.9544593473
 40
1.6
100
AcDbArc
 50
69.054397066085
 51
174.722930599999
  0
ARC
  5
2A6
100
AcDbEntity
  8
0
  6
CONTINUOUS
 62
           7
100
AcDbCircle
 10
213.8656190597
 20
100.5814699965
 40
1.6
100
AcDbArc
 50
-119.940321904402
 51
-14.271788370483
  0
ARC
  5
2A5
100
AcDbEntity
  8
0
  6
CONTINUOUS
 62
           7
100
AcDbCircle
 10
213.8656190597
 20
100.5814699965
 40
1.6
100
AcDbArc
 50
53.402223153108
 51
159.070756686994
  0
ARC
  5
2A4
100
AcDbEntity
  8
0
  6
CONTINUOUS
 62
           7
100
AcDbCircle
 10
213.0345013536
 20
104.5810279786
 40
1.6
100
AcDbArc
 50
-135.592495817403
 51
-29.923962283499
  0
ARC
  5
2A3
100
AcDbEntity
  8
0
  6
CONTINUOUS
 62
           7
100
AcDbCircle
 10
213.0345013536
 20
104.5810279786
 40
1.6
100
AcDbArc
 50
37.750049240094
 51
143.41858277389
  0
ARC
  5
2A2
100
AcDbEntity
  8
0
  6
CONTINUOUS
 62
           7
100
AcDbCircle
 10
213.3132715762
 20
108.6565043748
 40
1.6
100
AcDbArc
 50
-151.244669730406
 51
-45.576136196608
  0
ARC
  5
2A1
100
AcDbEntity
  8
0
  6
CONTINUOUS
 62
           7
100
AcDbCircle
 10
213.3132715762
 20
108.6565043748
 40
1.6
100
AcDbArc
 50
22.097875327004
 51
127.766408860906
  0
ARC
  5
2A0
100
AcDbEntity
  8
0
  6
CONTINUOUS
 62
           7
100
AcDbCircle
 10
214.6812546154
 20
112.505639745
 40
1.6
100
AcDbArc
 50
-166.896843643497
 51
-61.228310109587
  0
ARC
  5
29F
100
AcDbEntity
  8
0
  6
CONTINUOUS
 62
           7
100
AcDbCircle
 10
214.6812546154
 20
112.505639745
 40
1.6
100
AcDbArc
 50
6.445701414019
 51
112.11423494779
  0
ARC
  5
29E
100
AcDbEntity
  8
0
  6
CONTINUOUS
 62
           7
100
AcDbCircle
 10
217.0369934273
 20
115.8429613273
 40
1.6
100
AcDbArc
 50
177.450982443483
 51
-76.880484022696
  0
ARC
  5
29D
100
AcDbEntity
  8
0
  6
CONTINUOUS
 62
           7
100
AcDbCircle
 10
217.0369934273
 20
115.8429613273
 40
1.6
100
AcDbArc
 50
0.0
 51
96.462061034784
  0
ARC
  5
29C
100
AcDbEntity
  8
0
  6
CONTINUOUS
 62
           7
100
AcDbCircle
 10
220.2057736409
 20
118.4209552472
 40
1.6
100
AcDbArc
 50
-24.858646412096
 51
0.0
  0
ARC
  5
29B
100
AcDbEntity
  8
0
  6
CONTINUOUS
 62
           7
100
AcDbCircle
 10
220.2057736409
 20
118.4209552472
 40
1.6
100
AcDbArc
 50
161.798808530408
 51
-92.532657935682
  0
ARC
  5
29A
100
AcDbEntity
  8
0
  6
CONTINUOUS
 62
           7
100
AcDbCircle
 10
220.2057736409
 20
118.4209552472
 40
1.6
100
AcDbArc
 50
0.0
 51
80.809887121696
  0
ARC
  5
299
100
AcDbEntity
  8
0
  6
CONTINUOUS
 62
           7
100
AcDbCircle
 10
223.9525813241
 20
120.0484234893
 40
1.6
100
AcDbArc
 50
-40.5108203252
 51
0.0
  0
ARC
  5
298
100
AcDbEntity
  8
0
  6
CONTINUOUS
 62
           7
100
AcDbCircle
 10
223.9525813241
 20
120.0484234893
 40
1.6
100
AcDbArc
 50
146.146634617396
 51
-108.18483184879
  0
ARC
  5
297
100
AcDbEntity
  8
0
  6
CONTINUOUS
 62
           7
100
AcDbCircle
 10
223.9525813241
 20
120.0484234893
 40
1.6
100
AcDbArc
 50
0.0
 51
65.157713208717
  0
ARC
  5
296
100
AcDbEntity
  8
0
  6
CONTINUOUS
 62
           7
100
AcDbCircle
 10
227.9995328915
 20
120.6046641791
 40
1.6
100
AcDbArc
 50
-56.162994238197
 51
0.0
  0
ARC
  5
295
100
AcDbEntity
  8
0
  6
CONTINUOUS
 62
           7
100
AcDbCircle
 10
227.9995328915
 20
120.6046641791
 40
1.6
100
AcDbArc
 50
130.494460704296
 51
-123.837005761803
  0
ARC
  5
294
100
AcDbEntity
  8
0
  6
CONTINUOUS
 62
           7
100
AcDbCircle
 10
227.9995328915
 20
120.6046641791
 40
1.6
100
AcDbArc
 50
0.0
 51
49.505539295703
  0
ARC
  5
293
100
AcDbEntity
  8
0
  6
CONTINUOUS
 62
           7
100
AcDbCircle
 10
152.9686855768
 20
118.8046641791
 40
0.2
100
AcDbArc
 50
-90.0
 51
0.0
  0
ARC
  5
292
100
AcDbEntity
  8
0
  6
CONTINUOUS
 62
           7
100
AcDbCircle
 10
152.9686855768
 20
92.4046641791
 40
0.2
100
AcDbArc
 50
0.0
 51
90.0
  0
ARC
  5
291
100
AcDbEntity
  8
0
  6
CONTINUOUS
 62
           7
100
AcDbCircle
 10
151.5936855768
 20
130.5046641791
 40
0.4
100
AcDbArc
 50
150.000000000014
 51
-90.0
  0
ARC
  5
290
100
AcDbEntity
  8
0
  6
CONTINUOUS
 62
           7
100
AcDbCircle
 10
150.7936855768
 20
79.2081247264
 40
0.2
100
AcDbArc
 50
90.999999999861
 51
180.0
  0
ARC
  5
28F
100
AcDbEntity
  8
0
  6
CONTINUOUS
 62
           7
100
AcDbCircle
 10
150.7936855768
 20
77.6012036317
 40
0.2
100
AcDbArc
 50
180.0
 51
-90.999999999861
  0
ARC
  5
28E
100
AcDbEntity
  8
0
  6
CONTINUOUS
 62
           7
100
AcDbCircle
 10
151.2936855768
 20
77.7046641791
 40
0.3
100
AcDbArc
 50
-90.0
 51
0.0
  0
ARC
  5
28D
100
AcDbEntity
  8
0
  6
CONTINUOUS
 62
           7
100
AcDbCircle
 10
151.0936855768
 20
78.1806741791
 40
0.5
100
AcDbArc
 50
0.0
 51
180.0
  0
ARC
  5
28C
100
AcDbEntity
  8
0
  6
CONTINUOUS
 62
           7
100
AcDbCircle
 10
150.8936855768
 20
77.7046641791
 40
0.3
100
AcDbArc
 50
180.0
 51
-90.0
  0
ARC
  5
28B
100
AcDbEntity
  8
0
  6
CONTINUOUS
 62
           7
100
AcDbCircle
 10
129.2436855768
 20
124.2046641791
 40
0.1
100
AcDbArc
 50
90.0
 51
180.0
  0
ARC
  5
28A
100
AcDbEntity
  8
0
  6
CONTINUOUS
 62
           7
100
AcDbCircle
 10
130.7936855768
 20
125.0046641791
 40
2.2
100
AcDbArc
 50
-162.639562497098
 51
-154.312536902276
  0
ARC
  5
289
100
AcDbEntity
  8
0
  6
CONTINUOUS
 62
           7
100
AcDbCircle
 10
130.7936855768
 20
125.0046641791
 40
2.190383115983
100
AcDbArc
 50
-174.617178240405
 51
-162.760538167995
  0
ARC
  5
288
100
AcDbEntity
  8
0
  6
CONTINUOUS
 62
           7
100
AcDbCircle
 10
131.4028805592
 20
125.0046647513
 40
2.70897848355
100
AcDbArc
 50
175.6498619781
 51
-175.6498619781
  0
ARC
  5
287
100
AcDbEntity
  8
0
  6
CONTINUOUS
 62
           7
100
AcDbCircle
 10
128.9246550794
 20
124.1056641791
 40
0.126
100
AcDbArc
 50
-154.312536901457
 51
-90.0
  0
ARC
  5
286
100
AcDbEntity
  8
0
  6
CONTINUOUS
 62
           7
100
AcDbCircle
 10
144.1936855768
 20
134.8546641791
 40
0.4
100
AcDbArc
 50
-119.999999999982
 51
0.0
  0
ARC
  5
285
100
AcDbEntity
  8
0
  6
CONTINUOUS
 62
           7
100
AcDbCircle
 10
144.1936855768
 20
76.3546641791
 40
0.4
100
AcDbArc
 50
0.0
 51
119.999999999996
  0
ARC
  5
284
100
AcDbEntity
  8
0
  6
CONTINUOUS
 62
           7
100
AcDbCircle
 10
53.2828906719
 20
125.0046647513
 40
2.900761661008
100
AcDbArc
 50
-4.062029639093
 51
4.062029639093
  0
ARC
  5
283
100
AcDbEntity
  8
0
  6
CONTINUOUS
 62
           7
100
AcDbCircle
 10
55.5272105777
 20
127.2494950212
 40
2.901271896317
100
AcDbArc
 50
-94.061311762098
 51
-85.938688237899
  0
ARC
  5
282
100
AcDbEntity
  8
0
  6
CONTINUOUS
 62
           7
100
AcDbCircle
 10
57.7715304835
 20
125.0046647513
 40
2.900761661008
100
AcDbArc
 50
175.937970360907
 51
-175.937970360907
  0
ARC
  5
281
100
AcDbEntity
  8
0
  6
CONTINUOUS
 62
           7
100
AcDbCircle
 10
55.5272105777
 20
122.7604916242
 40
2.900614546055
100
AcDbArc
 50
85.937766300099
 51
94.0622336999
  0
LINE
  5
280
100
AcDbEntity
  8
0
  6
CONTINUOUS
 62
           7
100
AcDbLine
 10
212.467139883
 20
102.4475663328
 11
212.3425885272
 21
103.1383718257
  0
LINE
  5
27F
100
AcDbEntity
  8
0
  6
CONTINUOUS
 62
           7
100
AcDbLine
 10
212.6562328246
 20
101.6290315786
 11
212.467139883
 21
102.4475663328
  0
LINE
  5
27E
100
AcDbEntity
  8
0
  6
CONTINUOUS
 62
           7
100
AcDbLine
 10
213.8531089928
 20
98.4561538683
 11
213.5885882359
 21
99.0056355843
  0
LINE
  5
27D
100
AcDbEntity
  8
0
  6
CONTINUOUS
 62
           7
100
AcDbLine
 10
214.2978173849
 20
97.6368866288
 11
213.8531089928
 21
98.4561538683
  0
LINE
  5
27C
100
AcDbEntity
  8
0
  6
CONTINUOUS
 62
           7
100
AcDbLine
 10
216.2443467584
 20
94.9727266454
 11
215.9033821132
 21
95.3623193675
  0
LINE
  5
27B
100
AcDbEntity
  8
0
  6
CONTINUOUS
 62
           7
100
AcDbLine
 10
216.9555950147
 20
94.2356742346
 11
216.2443467584
 21
94.9727266454
  0
LINE
  5
27A
100
AcDbEntity
  8
0
  6
CONTINUOUS
 62
           7
100
AcDbLine
 10
239.7547190246
 20
94.9727266454
 11
239.0434707683
 21
94.2356742346
  0
LINE
  5
279
100
AcDbEntity
  8
0
  6
CONTINUOUS
 62
           7
100
AcDbLine
 10
240.0956836697
 20
95.3623193675
 11
239.7547190246
 21
94.9727266454
  0
LINE
  5
278
100
AcDbEntity
  8
0
  6
CONTINUOUS
 62
           7
100
AcDbLine
 10
242.1459567901
 20
98.4561538683
 11
241.7012483981
 21
97.6368866288
  0
LINE
  5
277
100
AcDbEntity
  8
0
  6
CONTINUOUS
 62
           7
100
AcDbLine
 10
242.410477547
 20
99.0056355843
 11
242.1459567901
 21
98.4561538683
  0
LINE
  5
276
100
AcDbEntity
  8
0
  6
CONTINUOUS
 62
           7
100
AcDbLine
 10
243.5319258999
 20
102.4475663328
 11
243.3428329584
 21
101.6290315786
  0
LINE
  5
275
100
AcDbEntity
  8
0
  6
CONTINUOUS
 62
           7
100
AcDbLine
 10
243.6564772558
 20
103.1383718257
 11
243.5319258999
 21
102.4475663328
  0
LINE
  5
274
100
AcDbEntity
  8
0
  6
CONTINUOUS
 62
           7
100
AcDbLine
 10
243.8141371292
 20
106.6633274206
 11
243.8464745116
 21
105.916031742
  0
LINE
  5
273
100
AcDbEntity
  8
0
  6
CONTINUOUS
 62
           7
100
AcDbLine
 10
243.7412723136
 20
107.454021567
 11
243.8141371292
 21
106.6633274206
  0
LINE
  5
272
100
AcDbEntity
  8
0
  6
CONTINUOUS
 62
           7
100
AcDbLine
 10
242.9725381714
 20
110.8038581335
 11
243.1748205033
 21
110.1799390638
  0
LINE
  5
271
100
AcDbEntity
  8
0
  6
CONTINUOUS
 62
           7
100
AcDbLine
 10
242.6585753616
 20
111.6325131045
 11
242.9725381714
 21
110.8038581335
  0
LINE
  5
270
100
AcDbEntity
  8
0
  6
CONTINUOUS
 62
           7
100
AcDbLine
 10
241.0669320431
 20
114.5749257305
 11
241.3776855152
 21
114.1045193547
  0
LINE
  5
26F
100
AcDbEntity
  8
0
  6
CONTINUOUS
 62
           7
100
AcDbLine
 10
240.4886841011
 20
115.3639468723
 11
241.0669320431
 21
114.5749257305
  0
LINE
  5
26E
100
AcDbEntity
  8
0
  6
CONTINUOUS
 62
           7
100
AcDbLine
 10
214.9321337399
 20
114.5749257305
 11
215.5103816819
 21
115.3639468723
  0
LINE
  5
26D
100
AcDbEntity
  8
0
  6
CONTINUOUS
 62
           7
100
AcDbLine
 10
214.6213802677
 20
114.1045193547
 11
214.9321337399
 21
114.5749257305
  0
LINE
  5
26C
100
AcDbEntity
  8
0
  6
CONTINUOUS
 62
           7
100
AcDbLine
 10
213.0265276116
 20
110.8038581335
 11
213.3404904213
 21
111.6325131045
  0
LINE
  5
26B
100
AcDbEntity
  8
0
  6
CONTINUOUS
 62
           7
100
AcDbLine
 10
212.8242452797
 20
110.1799390638
 11
213.0265276116
 21
110.8038581335
  0
LINE
  5
26A
100
AcDbEntity
  8
0
  6
CONTINUOUS
 62
           7
100
AcDbLine
 10
212.1849286538
 20
106.6633274206
 11
212.2577934694
 21
107.454021567
  0
LINE
  5
269
100
AcDbEntity
  8
0
  6
CONTINUOUS
 62
           7
100
AcDbLine
 10
212.1525912714
 20
105.916031742
 11
212.1849286538
 21
106.6633274206
  0
LINE
  5
268
100
AcDbEntity
  8
0
  6
CONTINUOUS
 62
           7
100
AcDbLine
 10
237.3558853921
 20
118.7649078095
 11
237.3132373374
 21
118.9207227328
  0
LINE
  5
267
100
AcDbEntity
  8
0
  6
CONTINUOUS
 62
           7
100
AcDbLine
 10
237.3932919633
 20
118.4209554815
 11
237.3558853921
 21
118.7649078095
  0
LINE
  5
266
100
AcDbEntity
  8
0
  6
CONTINUOUS
 62
           7
100
AcDbLine
 10
220.0958070513
 20
94.3129479313
 11
220.0630356726
 21
94.4376585433
  0
LINE
  5
265
100
AcDbEntity
  8
0
  6
CONTINUOUS
 62
           7
100
AcDbLine
 10
220.1332136225
 20
93.968994672
 11
220.0958070513
 21
94.3129479313
  0
LINE
  5
264
100
AcDbEntity
  8
0
  6
CONTINUOUS
 62
           7
100
AcDbLine
 10
128.6190066819
 20
125.2664781534
 11
128.6225401198
 21
125.2943228358
  0
LINE
  5
263
100
AcDbEntity
  8
0
  6
CONTINUOUS
 62
           7
100
AcDbLine
 10
128.6129623984
 20
125.2101443135
 11
128.6190066819
 21
125.2664781534
  0
LINE
  5
262
100
AcDbEntity
  8
0
  6
CONTINUOUS
 62
           7
100
AcDbLine
 10
128.6190066819
 20
125.2664781534
 11
128.6225401198
 21
125.2943228358
  0
LINE
  5
261
100
AcDbEntity
  8
0
  6
CONTINUOUS
 62
           7
100
AcDbLine
 10
128.6129623984
 20
125.2101443135
 11
128.6190066819
 21
125.2664781534
  0
LINE
  5
260
100
AcDbEntity
  8
0
  6
CONTINUOUS
 62
           7
100
AcDbLine
 10
225.3134332765
 20
121.1802277141
 11
225.357473506221
 21
121.12507475912
  0
LINE
  5
25F
100
AcDbEntity
  8
0
  6
CONTINUOUS
 62
           7
100
AcDbLine
 10
226.3562608911
 20
121.2623554641
 11
226.3837876432
 21
121.327345016
  0
LINE
  5
25E
100
AcDbEntity
  8
0
  6
CONTINUOUS
 62
           7
100
AcDbLine
 10
229.6152781397
 20
121.327345016
 11
229.6428048918
 21
121.2623554641
  0
LINE
  5
25D
100
AcDbEntity
  8
0
  6
CONTINUOUS
 62
           7
100
AcDbLine
 10
230.6415923573
 20
121.1250747913
 11
230.6856325064
 21
121.1802277141
  0
LINE
  5
25C
100
AcDbEntity
  8
0
  6
CONTINUOUS
 62
           7
100
AcDbLine
 10
233.797290193
 20
120.3083821931
 11
233.806262089
 21
120.2383756065
  0
LINE
  5
25B
100
AcDbEntity
  8
0
  6
CONTINUOUS
 62
           7
100
AcDbLine
 10
234.730974136
 20
119.8367166692
 11
234.7882611845
 21
119.8779425943
  0
LINE
  5
25A
100
AcDbEntity
  8
0
  6
CONTINUOUS
 62
           7
100
AcDbLine
 10
237.549309915
 20
118.1989123472
 11
237.5390616414
 21
118.1290808493
  0
LINE
  5
259
100
AcDbEntity
  8
0
  6
CONTINUOUS
 62
           7
100
AcDbLine
 10
238.321115559
 20
117.4928329312
 11
238.3874015119
 21
117.5170743265
  0
LINE
  5
258
100
AcDbEntity
  8
0
  6
CONTINUOUS
 62
           7
100
AcDbLine
 10
240.5930658039
 20
115.1553846323
 11
240.5643568542
 21
115.0909082392
  0
LINE
  5
257
100
AcDbEntity
  8
0
  6
CONTINUOUS
 62
           7
100
AcDbLine
 10
241.1457526666
 20
114.2672567987
 11
241.2161206063
 21
114.2727162116
  0
LINE
  5
256
100
AcDbEntity
  8
0
  6
CONTINUOUS
 62
           7
100
AcDbLine
 10
242.7028169092
 20
111.4035237008
 11
242.6577772182
 21
111.3491833569
  0
LINE
  5
255
100
AcDbEntity
  8
0
  6
CONTINUOUS
 62
           7
100
AcDbLine
 10
242.9953956213
 20
110.3992171013
 11
243.0646264162
 21
110.3854884752
  0
LINE
  5
254
100
AcDbEntity
  8
0
  6
CONTINUOUS
 62
           7
100
AcDbLine
 10
243.7220926565
 20
107.2215876668
 11
243.6640619468
 21
107.1814140198
  0
LINE
  5
253
100
AcDbEntity
  8
0
  6
CONTINUOUS
 62
           7
100
AcDbLine
 10
243.7328624707
 20
106.1755867452
 11
243.795823602
 21
106.1436890052
  0
LINE
  5
252
100
AcDbEntity
  8
0
  6
CONTINUOUS
 62
           7
100
AcDbLine
 10
243.5752985236
 20
102.919731977
 11
243.5085813683
 21
102.8967043278
  0
LINE
  5
251
100
AcDbEntity
  8
0
  6
CONTINUOUS
 62
           7
100
AcDbLine
 10
243.3034612965
 20
101.9096136918
 11
243.3554803189
 21
101.8619125136
  0
LINE
  5
250
100
AcDbEntity
  8
0
  6
CONTINUOUS
 62
           7
100
AcDbLine
 10
242.2733207401
 20
98.81700551
 11
242.2028643247
 21
98.8128317879
  0
LINE
  5
24F
100
AcDbEntity
  8
0
  6
CONTINUOUS
 62
           7
100
AcDbLine
 10
241.7390377429
 20
97.917685973
 11
241.7762580496
 21
97.8577185781
  0
LINE
  5
24E
100
AcDbEntity
  8
0
  6
CONTINUOUS
 62
           7
100
AcDbLine
 10
239.9127216246
 20
95.2176886969
 11
239.8437525314
 21
95.2326783338
  0
LINE
  5
24D
100
AcDbEntity
  8
0
  6
CONTINUOUS
 62
           7
100
AcDbLine
 10
239.1556178388
 20
94.4958662042
 11
239.1752789896
 21
94.4280808219
  0
LINE
  5
24C
100
AcDbEntity
  8
0
  6
CONTINUOUS
 62
           7
100
AcDbLine
 10
236.66857492
 20
92.388725596
 11
236.6062079724
 21
92.4217679897
  0
LINE
  5
24B
100
AcDbEntity
  8
0
  6
CONTINUOUS
 62
           7
100
AcDbLine
 10
235.7448016461
 20
91.8979344317
 11
235.7454456557
 21
91.827358807
  0
LINE
  5
24A
100
AcDbEntity
  8
0
  6
CONTINUOUS
 62
           7
100
AcDbLine
 10
232.7814864163
 20
90.5399292135
 11
232.7303460967
 21
90.5885721916
  0
LINE
  5
249
100
AcDbEntity
  8
0
  6
CONTINUOUS
 62
           7
100
AcDbLine
 10
231.7595547699
 20
90.3165691891
 11
231.741133675
 21
90.2484354922
  0
LINE
  5
248
100
AcDbEntity
  8
0
  6
CONTINUOUS
 62
           7
100
AcDbLine
 10
228.5397416032
 20
89.8084144467
 11
228.5036217124
 21
89.8690509969
  0
LINE
  5
247
100
AcDbEntity
  8
0
  6
CONTINUOUS
 62
           7
100
AcDbLine
 10
227.4954440706
 20
89.8690509969
 11
227.4593241797
 21
89.8084144467
  0
LINE
  5
246
100
AcDbEntity
  8
0
  6
CONTINUOUS
 62
           7
100
AcDbLine
 10
224.2579321079
 20
90.2484354922
 11
224.2395110131
 21
90.3165691891
  0
LINE
  5
245
100
AcDbEntity
  8
0
  6
CONTINUOUS
 62
           7
100
AcDbLine
 10
223.2687196862
 20
90.5885721916
 11
223.2175793667
 21
90.5399292135
  0
LINE
  5
244
100
AcDbEntity
  8
0
  6
CONTINUOUS
 62
           7
100
AcDbLine
 10
220.2536201273
 20
91.827358807
 11
220.2542641368
 21
91.8979344317
  0
LINE
  5
243
100
AcDbEntity
  8
0
  6
CONTINUOUS
 62
           7
100
AcDbLine
 10
219.3928578105
 20
92.4217679897
 11
219.330490863
 21
92.388725596
  0
LINE
  5
242
100
AcDbEntity
  8
0
  6
CONTINUOUS
 62
           7
100
AcDbLine
 10
216.8237867933
 20
94.4280808219
 11
216.8434479442
 21
94.4958662042
  0
LINE
  5
241
100
AcDbEntity
  8
0
  6
CONTINUOUS
 62
           7
100
AcDbLine
 10
216.1553132516
 20
95.2326783338
 11
216.086344158316
 21
95.217688696945
  0
LINE
  5
240
100
AcDbEntity
  8
0
  6
CONTINUOUS
 62
           7
100
AcDbLine
 10
214.2228077334
 20
97.8577185781
 11
214.2600280401
 21
97.917685973
  0
LINE
  5
23F
100
AcDbEntity
  8
0
  6
CONTINUOUS
 62
           7
100
AcDbLine
 10
213.7962014582
 20
98.8128317879
 11
213.725745042825
 21
98.817005509997
  0
LINE
  5
23E
100
AcDbEntity
  8
0
  6
CONTINUOUS
 62
           7
100
AcDbLine
 10
212.643585464
 20
101.8619125136
 11
212.695604479506
 21
101.909613769659
  0
LINE
  5
23D
100
AcDbEntity
  8
0
  6
CONTINUOUS
 62
           7
100
AcDbLine
 10
212.4904844147
 20
102.8967043278
 11
212.4237672594
 21
102.919731977
  0
LINE
  5
23C
100
AcDbEntity
  8
0
  6
CONTINUOUS
 62
           7
100
AcDbLine
 10
212.2032421809
 20
106.1436890052
 11
212.2662033122
 21
106.1755867452
  0
LINE
  5
23B
100
AcDbEntity
  8
0
  6
CONTINUOUS
 62
           7
100
AcDbLine
 10
212.3350038361
 20
107.1814140198
 11
212.2769731265
 21
107.2215876668
  0
LINE
  5
23A
100
AcDbEntity
  8
0
  6
CONTINUOUS
 62
           7
100
AcDbLine
 10
212.9344393667
 20
110.3854884752
 11
213.0036701616
 21
110.3992171013
  0
LINE
  5
239
100
AcDbEntity
  8
0
  6
CONTINUOUS
 62
           7
100
AcDbLine
 10
213.3412885648
 20
111.3491833569
 11
213.2962488737
 21
111.4035237008
  0
LINE
  5
238
100
AcDbEntity
  8
0
  6
CONTINUOUS
 62
           7
100
AcDbLine
 10
214.7829451766
 20
114.2727162116
 11
214.8533131164
 21
114.2672567987
  0
LINE
  5
237
100
AcDbEntity
  8
0
  6
CONTINUOUS
 62
           7
100
AcDbLine
 10
215.4347089287
 20
115.0909082392
 11
215.405999979
 21
115.1553846323
  0
LINE
  5
236
100
AcDbEntity
  8
0
  6
CONTINUOUS
 62
           7
100
AcDbLine
 10
217.611664271
 20
117.5170743265
 11
217.6779502239
 21
117.4928329312
  0
LINE
  5
235
100
AcDbEntity
  8
0
  6
CONTINUOUS
 62
           7
100
AcDbLine
 10
218.4600041416
 20
118.1290808493
 11
218.449755868
 21
118.1989123472
  0
LINE
  5
234
100
AcDbEntity
  8
0
  6
CONTINUOUS
 62
           7
100
AcDbLine
 10
221.2108045984
 20
119.8779425943
 11
221.268091573681
 21
119.836716741977
  0
LINE
  5
233
100
AcDbEntity
  8
0
  6
CONTINUOUS
 62
           7
100
AcDbLine
 10
222.192803694
 20
120.2383756065
 11
222.20177559
 21
120.3083821931
  0
LINE
  5
232
100
AcDbEntity
  8
0
  6
CONTINUOUS
 62
           7
100
AcDbLine
 10
240.5620723199
 20
115.8429614627
 11
240.5604890716
 21
115.9141200953
  0
LINE
  5
231
100
AcDbEntity
  8
0
  6
CONTINUOUS
 62
           7
100
AcDbLine
 10
239.0396914613
 20
93.680848124
 11
239.0658523124
 21
93.968994672
  0
LINE
  5
230
100
AcDbEntity
  8
0
  6
CONTINUOUS
 62
           7
100
AcDbLine
 10
217.3449847084
 20
96.954459081
 11
217.3445199784
 21
96.993002797
  0
LINE
  5
22F
100
AcDbEntity
  8
0
  6
CONTINUOUS
 62
           7
100
AcDbLine
 10
218.6163825151
 20
115.5869725519
 11
218.636993615
 21
115.8429614627
  0
LINE
  5
22E
100
AcDbEntity
  8
0
  6
CONTINUOUS
 62
           7
100
AcDbLine
 10
125.5712357614
 20
105.6046641791
 11
156.3270189101
 21
105.6046641791
  0
LINE
  5
22D
100
AcDbEntity
  8
0
  6
CONTINUOUS
 62
           7
100
AcDbLine
 10
147.400868134
 20
113.6046641791
 11
152.3688951818
 21
113.6046641791
  0
LINE
  5
22C
100
AcDbEntity
  8
0
  6
CONTINUOUS
 62
           7
100
AcDbLine
 10
147.6181023189
 20
97.6046641791
 11
152.0036284728
 21
97.6046641791
  0
LINE
  5
22B
100
AcDbEntity
  8
0
  6
CONTINUOUS
 62
           7
100
AcDbLine
 10
129.1436858808
 20
124.3046640777
 11
129.1436858808
 21
124.4671649658
  0
LINE
  5
22A
100
AcDbEntity
  8
0
  6
CONTINUOUS
 62
           7
100
AcDbLine
 10
129.1436858808
 20
124.3046640777
 11
129.1436858808
 21
124.4671649658
  0
LINE
  5
229
100
AcDbEntity
  8
0
  6
CONTINUOUS
 62
           7
100
AcDbLine
 10
153.1686855768
 20
118.8046641791
 11
153.1686855813
 21
119.3046641895
  0
LINE
  5
228
100
AcDbEntity
  8
0
  6
CONTINUOUS
 62
           7
100
AcDbLine
 10
153.1686855813
 20
92.6046639108
 11
153.1686855768
 21
92.4046641791
  0
LINE
  5
227
100
AcDbEntity
  8
0
  6
CONTINUOUS
 62
           7
100
AcDbLine
 10
153.1686855768
 20
118.8046641791
 11
153.1686855813
 21
118.6046644473
  0
LINE
  5
226
100
AcDbEntity
  8
0
  6
CONTINUOUS
 62
           7
100
AcDbLine
 10
153.1686855813
 20
119.3046641895
 11
150.980041675
 21
119.3046641895
  0
LINE
  5
225
100
AcDbEntity
  8
0
  6
CONTINUOUS
 62
           7
100
AcDbLine
 10
153.1686855813
 20
91.9046641686
 11
153.1686855768
 21
92.4046641791
  0
LINE
  5
224
100
AcDbEntity
  8
0
  6
CONTINUOUS
 62
           7
100
AcDbLine
 10
150.9264235717
 20
91.9046641686
 11
153.1686855813
 21
91.9046641686
  0
LINE
  5
223
100
AcDbEntity
  8
0
  6
CONTINUOUS
 62
           7
100
AcDbLine
 10
148.0622615998
 20
118.6046644473
 11
152.9686855718
 21
118.6046644473
  0
LINE
  5
222
100
AcDbEntity
  8
0
  6
CONTINUOUS
 62
           7
100
AcDbLine
 10
152.9686855718
 20
92.6046639108
 11
148.0690518727
 21
92.6046639108
  0
LINE
  5
221
100
AcDbEntity
  8
0
  6
CONTINUOUS
 62
           7
100
AcDbLine
 10
153.0411855999
 20
91.9046641686
 11
153.0411855999
 21
91.5792470225
  0
LINE
  5
220
100
AcDbEntity
  8
0
  6
CONTINUOUS
 62
           7
100
AcDbLine
 10
153.0411855999
 20
119.6212468096
 11
153.0411855999
 21
119.3046641895
  0
LINE
  5
21F
100
AcDbEntity
  8
0
  6
CONTINUOUS
 62
           7
100
AcDbLine
 10
145.9686857049
 20
93.3312892341
 11
145.9686857049
 21
94.1046641567
  0
LINE
  5
21E
100
AcDbEntity
  8
0
  6
CONTINUOUS
 62
           7
100
AcDbLine
 10
153.1686855813
 20
94.2046639868
 11
153.1686855813
 21
92.6046639108
  0
LINE
  5
21D
100
AcDbEntity
  8
0
  6
CONTINUOUS
 62
           7
100
AcDbLine
 10
148.6936857325
 20
94.6046642387
 11
148.6936857325
 21
96.1546643996
  0
LINE
  5
21C
100
AcDbEntity
  8
0
  6
CONTINUOUS
 62
           7
100
AcDbLine
 10
151.2936855067
 20
96.1546643996
 11
151.2936855067
 21
94.6046642387
  0
LINE
  5
21B
100
AcDbEntity
  8
0
  6
CONTINUOUS
 62
           7
100
AcDbLine
 10
145.9686857049
 20
117.1046642014
 11
145.9686857049
 21
117.878039124
  0
LINE
  5
21A
100
AcDbEntity
  8
0
  6
CONTINUOUS
 62
           7
100
AcDbLine
 10
153.1686855813
 20
118.6046644473
 11
153.1686855813
 21
117.0046643713
  0
LINE
  5
219
100
AcDbEntity
  8
0
  6
CONTINUOUS
 62
           7
100
AcDbLine
 10
148.6936857325
 20
115.0546639585
 11
148.6936857325
 21
116.6046641194
  0
LINE
  5
218
100
AcDbEntity
  8
0
  6
CONTINUOUS
 62
           7
100
AcDbLine
 10
151.2936855067
 20
116.6046641194
 11
151.2936855067
 21
115.0546639585
  0
LINE
  5
217
100
AcDbEntity
  8
0
  6
CONTINUOUS
 62
           7
100
AcDbLine
 10
151.2936855067
 20
94.6046642387
 11
152.7686855623
 21
94.6046642387
  0
LINE
  5
216
100
AcDbEntity
  8
0
  6
CONTINUOUS
 62
           7
100
AcDbLine
 10
152.7686855623
 20
116.6046641194
 11
151.2936855067
 21
116.6046641194
  0
LINE
  5
215
100
AcDbEntity
  8
0
  6
CONTINUOUS
 62
           7
100
AcDbLine
 10
148.6936857325
 20
115.0546639585
 11
148.6936857325
 21
112.1546642282
  0
LINE
  5
214
100
AcDbEntity
  8
0
  6
CONTINUOUS
 62
           7
100
AcDbLine
 10
151.2936855067
 20
112.1546642282
 11
151.2936855067
 21
115.0546639585
  0
LINE
  5
213
100
AcDbEntity
  8
0
  6
CONTINUOUS
 62
           7
100
AcDbLine
 10
148.6936857325
 20
115.0546639585
 11
151.2936855067
 21
115.0546639585
  0
LINE
  5
212
100
AcDbEntity
  8
0
  6
CONTINUOUS
 62
           7
100
AcDbLine
 10
148.9936856885
 20
100.1046642089
 11
150.9936855507
 21
100.1046642089
  0
LINE
  5
211
100
AcDbEntity
  8
0
  6
CONTINUOUS
 62
           7
100
AcDbLine
 10
148.6936857325
 20
99.0546641299
 11
148.6936857325
 21
99.8046642528
  0
LINE
  5
210
100
AcDbEntity
  8
0
  6
CONTINUOUS
 62
           7
100
AcDbLine
 10
151.2936855067
 20
99.8046642528
 11
151.2936855067
 21
99.0546641299
  0
LINE
  5
20F
100
AcDbEntity
  8
0
  6
CONTINUOUS
 62
           7
100
AcDbLine
 10
150.9936855507
 20
100.1046642089
 11
151.2936855067
 21
99.8046642528
  0
LINE
  5
20E
100
AcDbEntity
  8
0
  6
CONTINUOUS
 62
           7
100
AcDbLine
 10
151.2936855067
 20
111.4046641053
 11
151.2936855067
 21
99.8046642528
  0
LINE
  5
20D
100
AcDbEntity
  8
0
  6
CONTINUOUS
 62
           7
100
AcDbLine
 10
152.7686855623
 20
94.6046642387
 11
153.1686855813
 21
94.2046639868
  0
LINE
  5
20C
100
AcDbEntity
  8
0
  6
CONTINUOUS
 62
           7
100
AcDbLine
 10
153.1686855813
 20
117.0046643713
 11
153.1686855813
 21
94.2046639868
  0
LINE
  5
20B
100
AcDbEntity
  8
0
  6
CONTINUOUS
 62
           7
100
AcDbLine
 10
153.1686855813
 20
117.0046643713
 11
152.7686855623
 21
116.6046641194
  0
LINE
  5
20A
100
AcDbEntity
  8
0
  6
CONTINUOUS
 62
           7
100
AcDbLine
 10
148.6936857325
 20
99.8046642528
 11
148.6936857325
 21
111.4046641053
  0
LINE
  5
209
100
AcDbEntity
  8
0
  6
CONTINUOUS
 62
           7
100
AcDbLine
 10
148.6936857325
 20
99.8046642528
 11
148.9936856885
 21
100.1046642089
  0
LINE
  5
208
100
AcDbEntity
  8
0
  6
CONTINUOUS
 62
           7
100
AcDbLine
 10
146.4686857869
 20
94.6046642387
 11
148.6936857325
 21
94.6046642387
  0
LINE
  5
207
100
AcDbEntity
  8
0
  6
CONTINUOUS
 62
           7
100
AcDbLine
 10
148.6936857325
 20
116.6046641194
 11
146.4686857869
 21
116.6046641194
  0
LINE
  5
206
100
AcDbEntity
  8
0
  6
CONTINUOUS
 62
           7
100
AcDbLine
 10
151.2936855067
 20
112.1546642282
 11
148.6936857325
 21
112.1546642282
  0
LINE
  5
205
100
AcDbEntity
  8
0
  6
CONTINUOUS
 62
           7
100
AcDbLine
 10
148.6936857325
 20
111.4046641053
 11
148.6936857325
 21
112.1546642282
  0
LINE
  5
204
100
AcDbEntity
  8
0
  6
CONTINUOUS
 62
           7
100
AcDbLine
 10
148.9936856885
 20
111.1046641492
 11
148.6936857325
 21
111.4046641053
  0
LINE
  5
203
100
AcDbEntity
  8
0
  6
CONTINUOUS
 62
           7
100
AcDbLine
 10
150.9936855507
 20
111.1046641492
 11
148.9936856885
 21
111.1046641492
  0
LINE
  5
202
100
AcDbEntity
  8
0
  6
CONTINUOUS
 62
           7
100
AcDbLine
 10
151.2936855067
 20
111.4046641053
 11
150.9936855507
 21
111.1046641492
  0
LINE
  5
201
100
AcDbEntity
  8
0
  6
CONTINUOUS
 62
           7
100
AcDbLine
 10
151.2936855067
 20
112.1546642282
 11
151.2936855067
 21
111.4046641053
  0
LINE
  5
200
100
AcDbEntity
  8
0
  6
CONTINUOUS
 62
           7
100
AcDbLine
 10
151.2936855067
 20
96.1546643996
 11
148.6936857325
 21
96.1546643996
  0
LINE
  5
1FF
100
AcDbEntity
  8
0
  6
CONTINUOUS
 62
           7
100
AcDbLine
 10
151.2936855067
 20
96.1546643996
 11
151.2936855067
 21
99.0546641299
  0
LINE
  5
1FE
100
AcDbEntity
  8
0
  6
CONTINUOUS
 62
           7
100
AcDbLine
 10
148.6936857325
 20
99.0546641299
 11
151.2936855067
 21
99.0546641299
  0
LINE
  5
1FD
100
AcDbEntity
  8
0
  6
CONTINUOUS
 62
           7
100
AcDbLine
 10
148.6936857325
 20
99.0546641299
 11
148.6936857325
 21
96.1546643996
  0
LINE
  5
1FC
100
AcDbEntity
  8
0
  6
CONTINUOUS
 62
           7
100
AcDbLine
 10
145.9686857049
 20
94.1046641567
 11
145.9686857049
 21
117.1046642014
  0
LINE
  5
1FB
100
AcDbEntity
  8
0
  6
CONTINUOUS
 62
           7
100
AcDbLine
 10
146.4686857869
 20
116.6046641194
 11
145.9686857049
 21
117.1046642014
  0
LINE
  5
1FA
100
AcDbEntity
  8
0
  6
CONTINUOUS
 62
           7
100
AcDbLine
 10
145.9686857049
 20
94.1046641567
 11
146.4686857869
 21
94.6046642387
  0
LINE
  5
1F9
100
AcDbEntity
  8
0
  6
CONTINUOUS
 62
           7
100
AcDbLine
 10
148.0622615998
 20
118.6046644473
 11
153.1686855813
 21
118.6046644473
  0
LINE
  5
1F8
100
AcDbEntity
  8
0
  6
CONTINUOUS
 62
           7
100
AcDbLine
 10
153.1686855813
 20
92.6046639108
 11
148.0690518727
 21
92.6046639108
  0
LINE
  5
1F7
100
AcDbEntity
  8
0
  6
CONTINUOUS
 62
           7
100
AcDbLine
 10
150.5936855317
 20
79.2081251168
 11
150.5936855317
 21
77.6012043827
  0
LINE
  5
1F6
100
AcDbEntity
  8
0
  6
CONTINUOUS
 62
           7
100
AcDbLine
 10
151.5936854628
 20
77.1836868846
 11
151.5936854628
 21
76.4670676911
  0
LINE
  5
1F5
100
AcDbEntity
  8
0
  6
CONTINUOUS
 62
           7
100
AcDbLine
 10
151.5936854628
 20
79.9046649956
 11
151.5936854628
 21
79.629101547
  0
LINE
  5
1F4
100
AcDbEntity
  8
0
  6
CONTINUOUS
 62
           7
100
AcDbLine
 10
151.5936854628
 20
131.5802268111
 11
151.5936854628
 21
131.3046633625
  0
LINE
  5
1F3
100
AcDbEntity
  8
0
  6
CONTINUOUS
 62
           7
100
AcDbLine
 10
151.5936854628
 20
79.629101547
 11
151.3830265828
 21
79.4184419685
  0
LINE
  5
1F2
100
AcDbEntity
  8
0
  6
CONTINUOUS
 62
           7
100
AcDbLine
 10
151.3830265828
 20
79.4184419685
 11
150.7901950606
 21
79.4080949747
  0
LINE
  5
1F1
100
AcDbEntity
  8
0
  6
CONTINUOUS
 62
           7
100
AcDbLine
 10
151.5936854628
 20
77.1836868846
 11
151.5936854628
 21
77.7046650076
  0
LINE
  5
1F0
100
AcDbEntity
  8
0
  6
CONTINUOUS
 62
           7
100
AcDbLine
 10
151.3937770721
 20
77.3906994038
 11
151.5936854628
 21
77.1836868846
  0
LINE
  5
1EF
100
AcDbEntity
  8
0
  6
CONTINUOUS
 62
           7
100
AcDbLine
 10
150.7901950606
 20
77.4012345248
 11
151.3937770721
 21
77.3906994038
  0
LINE
  5
1EE
100
AcDbEntity
  8
0
  6
CONTINUOUS
 62
           7
100
AcDbLine
 10
151.3937770721
 20
77.3906994038
 11
151.3937770721
 21
77.4218540066
  0
LINE
  5
1ED
100
AcDbEntity
  8
0
  6
CONTINUOUS
 62
           7
100
AcDbLine
 10
153.5936855869
 20
129.8046640479
 11
153.5936855869
 21
119.6675763824
  0
LINE
  5
1EC
100
AcDbEntity
  8
0
  6
CONTINUOUS
 62
           7
100
AcDbLine
 10
153.5936855869
 20
91.5417519757
 11
153.5936855869
 21
81.4046643102
  0
LINE
  5
1EB
100
AcDbEntity
  8
0
  6
CONTINUOUS
 62
           7
100
AcDbLine
 10
153.2936856017
 20
81.1046648198
 11
153.2936856017
 21
91.5685349503
  0
LINE
  5
1EA
100
AcDbEntity
  8
0
  6
CONTINUOUS
 62
           7
100
AcDbLine
 10
153.2936856017
 20
119.6407934078
 11
153.2936856017
 21
130.1046635383
  0
LINE
  5
1E9
100
AcDbEntity
  8
0
  6
CONTINUOUS
 62
           7
100
AcDbLine
 10
151.5936854628
 20
130.1046635383
 11
153.2721831679
 21
130.1046635383
  0
LINE
  5
1E8
100
AcDbEntity
  8
0
  6
CONTINUOUS
 62
           7
100
AcDbLine
 10
151.5936854628
 20
80.1462202692
 11
151.5936854628
 21
79.9046649956
  0
LINE
  5
1E7
100
AcDbEntity
  8
0
  6
CONTINUOUS
 62
           7
100
AcDbLine
 10
151.5936854628
 20
131.3046633625
 11
151.5936854628
 21
130.1046635383
  0
LINE
  5
1E6
100
AcDbEntity
  8
0
  6
CONTINUOUS
 62
           7
100
AcDbLine
 10
151.5936854628
 20
131.3046633625
 11
151.2472753745
 21
130.7046643817
  0
LINE
  5
1E5
100
AcDbEntity
  8
0
  6
CONTINUOUS
 62
           7
100
AcDbLine
 10
151.4629359224
 20
80.1311291182
 11
151.5936854628
 21
79.9046649956
  0
LINE
  5
1E4
100
AcDbEntity
  8
0
  6
CONTINUOUS
 62
           7
100
AcDbLine
 10
151.5936854628
 20
140.6046643281
 11
151.5936854628
 21
131.8880251968
  0
LINE
  5
1E3
100
AcDbEntity
  8
0
  6
CONTINUOUS
 62
           7
100
AcDbLine
 10
151.5936854628
 20
76.4670676911
 11
151.5936854628
 21
70.60466403
  0
LINE
  5
1E2
100
AcDbEntity
  8
0
  6
CONTINUOUS
 62
           7
100
AcDbLine
 10
143.3936858882
 20
76.3546645069
 11
143.3936858882
 21
94.5796060735
  0
LINE
  5
1E1
100
AcDbEntity
  8
0
  6
CONTINUOUS
 62
           7
100
AcDbLine
 10
143.3936858882
 20
116.6297222846
 11
143.3936858882
 21
134.8546638512
  0
LINE
  5
1E0
100
AcDbEntity
  8
0
  6
CONTINUOUS
 62
           7
100
AcDbLine
 10
141.5851077397
 20
76.3546645069
 11
141.5851077397
 21
95.7481998378
  0
LINE
  5
1DF
100
AcDbEntity
  8
0
  6
CONTINUOUS
 62
           7
100
AcDbLine
 10
141.5851077397
 20
115.4611285203
 11
141.5851077397
 21
134.8546638512
  0
LINE
  5
1DE
100
AcDbEntity
  8
0
  6
CONTINUOUS
 62
           7
100
AcDbLine
 10
130.5936862116
 20
76.9923056835
 11
130.5936862116
 21
105.6046641791
  0
LINE
  5
1DD
100
AcDbEntity
  8
0
  6
CONTINUOUS
 62
           7
100
AcDbLine
 10
130.5936862116
 20
105.6046641791
 11
130.5936862116
 21
134.2170226746
  0
LINE
  5
1DC
100
AcDbEntity
  8
0
  6
CONTINUOUS
 62
           7
100
AcDbLine
 10
141.3436856453
 20
134.6046633446
 11
141.3436856453
 21
115.2816682481
  0
LINE
  5
1DB
100
AcDbEntity
  8
0
  6
CONTINUOUS
 62
           7
100
AcDbLine
 10
141.3436856453
 20
95.92766011
 11
141.3436856453
 21
76.6046650135
  0
LINE
  5
1DA
100
AcDbEntity
  8
0
  6
CONTINUOUS
 62
           7
100
AcDbLine
 10
130.7972379361
 20
134.4205743992
 11
130.7972379361
 21
105.6046641791
  0
LINE
  5
1D9
100
AcDbEntity
  8
0
  6
CONTINUOUS
 62
           7
100
AcDbLine
 10
130.7972379361
 20
105.6046641791
 11
130.7972379361
 21
76.7887539589
  0
LINE
  5
1D8
100
AcDbEntity
  8
0
  6
CONTINUOUS
 62
           7
100
AcDbLine
 10
151.5936854628
 20
129.4185209447
 11
151.5936854628
 21
119.4265212291
  0
LINE
  5
1D7
100
AcDbEntity
  8
0
  6
CONTINUOUS
 62
           7
100
AcDbLine
 10
151.5936854628
 20
91.782807129
 11
151.5936854628
 21
80.1462202692
  0
LINE
  5
1D6
100
AcDbEntity
  8
0
  6
CONTINUOUS
 62
           7
100
AcDbLine
 10
144.5936857124
 20
70.60466403
 11
144.5936857124
 21
93.9456436211
  0
LINE
  5
1D5
100
AcDbEntity
  8
0
  6
CONTINUOUS
 62
           7
100
AcDbLine
 10
144.5936857124
 20
117.2636847371
 11
144.5936857124
 21
140.6046643281
  0
LINE
  5
1D4
100
AcDbEntity
  8
0
  6
CONTINUOUS
 62
           7
100
AcDbLine
 10
151.0936856137
 20
70.1046630168
 11
151.0936856137
 21
76.5780738914
  0
LINE
  5
1D3
100
AcDbEntity
  8
0
  6
CONTINUOUS
 62
           7
100
AcDbLine
 10
151.0936856137
 20
131.5476267957
 11
151.0936856137
 21
141.1046653413
  0
LINE
  5
1D2
100
AcDbEntity
  8
0
  6
CONTINUOUS
 62
           7
100
AcDbLine
 10
151.0936856137
 20
80.0352140689
 11
151.0936856137
 21
91.8665199899
  0
LINE
  5
1D1
100
AcDbEntity
  8
0
  6
CONTINUOUS
 62
           7
100
AcDbLine
 10
145.0936857943
 20
141.1046653413
 11
145.0936857943
 21
117.499983626
  0
LINE
  5
1D0
100
AcDbEntity
  8
0
  6
CONTINUOUS
 62
           7
100
AcDbLine
 10
145.0936857943
 20
93.7093447321
 11
145.0936857943
 21
70.1046630168
  0
LINE
  5
1CF
100
AcDbEntity
  8
0
  6
CONTINUOUS
 62
           7
100
AcDbLine
 10
151.0936856137
 20
119.3428083682
 11
151.0936856137
 21
129.7589193457
  0
LINE
  5
1CE
100
AcDbEntity
  8
0
  6
CONTINUOUS
 62
           7
100
AcDbLine
 10
150.5936855317
 20
77.7046650076
 11
150.5936855317
 21
78.1806732887
  0
LINE
  5
1CD
100
AcDbEntity
  8
0
  6
CONTINUOUS
 62
           7
100
AcDbLine
 10
151.2936855067
 20
77.4046636545
 11
150.8936854877
 21
77.4046636545
  0
LINE
  5
1CC
100
AcDbEntity
  8
0
  6
CONTINUOUS
 62
           7
100
AcDbLine
 10
151.5936854628
 20
131.5802268111
 11
151.5936854628
 21
131.8880251968
  0
LINE
  5
1CB
100
AcDbEntity
  8
0
  6
CONTINUOUS
 62
           7
100
AcDbLine
 10
151.5936854628
 20
78.1806732887
 11
151.5936854628
 21
79.629101547
  0
LINE
  5
1CA
100
AcDbEntity
  8
0
  6
CONTINUOUS
 62
           7
100
AcDbLine
 10
128.8936853741
 20
114.9546641284
 11
128.5936858837
 21
115.2546645501
  0
LINE
  5
1C9
100
AcDbEntity
  8
0
  6
CONTINUOUS
 62
           7
100
AcDbLine
 10
128.5936858837
 20
95.954663808
 11
128.8936853741
 21
96.2546642297
  0
LINE
  5
1C8
100
AcDbEntity
  8
0
  6
CONTINUOUS
 62
           7
100
AcDbLine
 10
128.8936853741
 20
114.9546641284
 11
129.5353126113
 21
114.9546641284
  0
LINE
  5
1C7
100
AcDbEntity
  8
0
  6
CONTINUOUS
 62
           7
100
AcDbLine
 10
129.3749556278
 20
96.2546642297
 11
128.8936853741
 21
96.2546642297
  0
LINE
  5
1C6
100
AcDbEntity
  8
0
  6
CONTINUOUS
 62
           7
100
AcDbLine
 10
153.5936855869
 20
119.6675763824
 11
153.5936855869
 21
91.5417519757
  0
LINE
  5
1C5
100
AcDbEntity
  8
0
  6
CONTINUOUS
 62
           7
100
AcDbLine
 10
128.5936858837
 20
119.1046645292
 11
128.5936858837
 21
118.3046640256
  0
LINE
  5
1C4
100
AcDbEntity
  8
0
  6
CONTINUOUS
 62
           7
100
AcDbLine
 10
128.0936848705
 20
88.0546632582
 11
128.0936848705
 21
86.519513967
  0
LINE
  5
1C3
100
AcDbEntity
  8
0
  6
CONTINUOUS
 62
           7
100
AcDbLine
 10
128.5936858837
 20
92.9046643325
 11
128.5936858837
 21
92.1046638289
  0
LINE
  5
1C2
100
AcDbEntity
  8
0
  6
CONTINUOUS
 62
           7
100
AcDbLine
 10
128.0936848705
 20
88.0546632582
 11
128.0936848705
 21
123.1546650999
  0
LINE
  5
1C1
100
AcDbEntity
  8
0
  6
CONTINUOUS
 62
           7
100
AcDbLine
 10
128.0936848705
 20
88.0546632582
 11
128.3936862235
 21
88.3546646112
  0
LINE
  5
1C0
100
AcDbEntity
  8
0
  6
CONTINUOUS
 62
           7
100
AcDbLine
 10
128.0936848705
 20
123.8546639108
 11
128.0936848705
 21
123.1546650999
  0
LINE
  5
1BF
100
AcDbEntity
  8
0
  6
CONTINUOUS
 62
           7
100
AcDbLine
 10
129.1436858808
 20
124.254665094
 11
129.1436858808
 21
123.8546639108
  0
LINE
  5
1BE
100
AcDbEntity
  8
0
  6
CONTINUOUS
 62
           7
100
AcDbLine
 10
128.3936862235
 20
122.8546637469
 11
128.0936848705
 21
123.1546650999
  0
LINE
  5
1BD
100
AcDbEntity
  8
0
  6
CONTINUOUS
 62
           7
100
AcDbLine
 10
129.8845026975
 20
124.254665094
 11
129.1436858808
 21
124.254665094
  0
LINE
  5
1BC
100
AcDbEntity
  8
0
  6
CONTINUOUS
 62
           7
100
AcDbLine
 10
128.0936848705
 20
125.2842403376
 11
128.0936848705
 21
123.8546639108
  0
LINE
  5
1BB
100
AcDbEntity
  8
0
  6
CONTINUOUS
 62
           7
100
AcDbLine
 10
129.1436858808
 20
123.8546639108
 11
128.0936848705
 21
123.8546639108
  0
LINE
  5
1BA
100
AcDbEntity
  8
0
  6
CONTINUOUS
 62
           7
100
AcDbLine
 10
128.0936848705
 20
86.519513967
 11
128.347082841856
 21
86.575499492253
  0
LINE
  5
1B9
100
AcDbEntity
  8
0
  6
CONTINUOUS
 62
           7
100
AcDbLine
 10
128.347082841856
 20
125.298677700127
 11
128.0936848705
 21
125.2842403376
  0
LINE
  5
1B8
100
AcDbEntity
  8
0
  6
CONTINUOUS
 62
           7
100
AcDbLine
 10
128.0936848705
 20
84.0009625429
 11
128.0936848705
 21
86.519513967
  0
LINE
  5
1B7
100
AcDbEntity
  8
0
  6
CONTINUOUS
 62
           7
100
AcDbLine
 10
128.0936848705
 20
125.2842403376
 11
128.0936848705
 21
127.2083658152
  0
LINE
  5
1B6
100
AcDbEntity
  8
0
  6
CONTINUOUS
 62
           7
100
AcDbLine
 10
128.5936858837
 20
92.1046638289
 11
130.0401546393
 21
91.5781927654
  0
LINE
  5
1B5
100
AcDbEntity
  8
0
  6
CONTINUOUS
 62
           7
100
AcDbLine
 10
129.8106097017
 20
119.5475885072
 11
128.5936858837
 21
119.1046645292
  0
LINE
  5
1B4
100
AcDbEntity
  8
0
  6
CONTINUOUS
 62
           7
100
AcDbLine
 10
128.3936862235
 20
122.8546637469
 11
130.0054982637
 21
122.8546637469
  0
LINE
  5
1B3
100
AcDbEntity
  8
0
  6
CONTINUOUS
 62
           7
100
AcDbLine
 10
130.1875550632
 20
88.3546646112
 11
128.3936862235
 21
88.3546646112
  0
LINE
  5
1B2
100
AcDbEntity
  8
0
  6
CONTINUOUS
 62
           7
100
AcDbLine
 10
128.3470828419
 20
127.3546635532
 11
128.347082841856
 21
125.298677700127
  0
LINE
  5
1B1
100
AcDbEntity
  8
0
  6
CONTINUOUS
 62
           7
100
AcDbLine
 10
128.347082841856
 20
86.575499492253
 11
128.3470828419
 21
83.8546648049
  0
LINE
  5
1B0
100
AcDbEntity
  8
0
  6
CONTINUOUS
 62
           7
100
AcDbLine
 10
128.9953690355
 20
124.799185189
 11
128.6129623984
 21
124.799185189
  0
LINE
  5
1AF
100
AcDbEntity
  8
0
  6
CONTINUOUS
 62
           7
100
AcDbLine
 10
128.6129623984
 20
125.2101443135
 11
128.9953690355
 21
125.2101443135
  0
LINE
  5
1AE
100
AcDbEntity
  8
0
  6
CONTINUOUS
 62
           7
100
AcDbLine
 10
129.1436858808
 20
124.2046642476
 11
129.1436858808
 21
123.9796641642
  0
LINE
  5
1AD
100
AcDbEntity
  8
0
  6
CONTINUOUS
 62
           7
100
AcDbLine
 10
128.9953690355
 20
124.6296639913
 11
128.9953690355
 21
125.2392649078
  0
LINE
  5
1AC
100
AcDbEntity
  8
0
  6
CONTINUOUS
 62
           7
100
AcDbLine
 10
128.9953690355
 20
124.6296639913
 11
128.6939036434
 21
124.3482238972
  0
LINE
  5
1AB
100
AcDbEntity
  8
0
  6
CONTINUOUS
 62
           7
100
AcDbLine
 10
129.8711624329
 20
124.3046640777
 11
129.2436857109
 21
124.3046640777
  0
LINE
  5
1AA
100
AcDbEntity
  8
0
  6
CONTINUOUS
 62
           7
100
AcDbLine
 10
129.1436858808
 20
123.9796641642
 11
128.924655575
 21
123.9796641642
  0
LINE
  5
1A9
100
AcDbEntity
  8
0
  6
CONTINUOUS
 62
           7
100
AcDbLine
 10
129.0936850344
 20
114.6082540401
 11
129.0936850344
 21
96.601074318
  0
LINE
  5
1A8
100
AcDbEntity
  8
0
  6
CONTINUOUS
 62
           7
100
AcDbLine
 10
129.0936850344
 20
96.601074318
 11
129.3768667017
 21
96.4375797087
  0
LINE
  5
1A7
100
AcDbEntity
  8
0
  6
CONTINUOUS
 62
           7
100
AcDbLine
 10
129.5319933777
 20
114.8613111475
 11
129.0936850344
 21
114.6082540401
  0
LINE
  5
1A6
100
AcDbEntity
  8
0
  6
CONTINUOUS
 62
           7
100
AcDbLine
 10
129.3936863874
 20
114.2046644711
 11
129.3936863874
 21
97.004663887
  0
LINE
  5
1A5
100
AcDbEntity
  8
0
  6
CONTINUOUS
 62
           7
100
AcDbLine
 10
151.4103089792
 20
119.3046641895
 11
151.4394223557
 21
119.3629705706
  0
LINE
  5
1A4
100
AcDbEntity
  8
0
  6
CONTINUOUS
 62
           7
100
AcDbLine
 10
151.5936854628
 20
91.8464946919
 11
151.5926277132
 21
91.9046641686
  0
LINE
  5
1A3
100
AcDbEntity
  8
0
  6
CONTINUOUS
 62
           7
100
AcDbLine
 10
153.5936855869
 20
129.8046640479
 11
153.2936856017
 21
130.1046635383
  0
LINE
  5
1A2
100
AcDbEntity
  8
0
  6
CONTINUOUS
 62
           7
100
AcDbLine
 10
153.2936856017
 20
81.1046648198
 11
153.5936855869
 21
81.4046643102
  0
LINE
  5
1A1
100
AcDbEntity
  8
0
  6
CONTINUOUS
 62
           7
100
AcDbLine
 10
153.2936856017
 20
130.1046635383
 11
153.2721831679
 21
130.1046635383
  0
LINE
  5
1A0
100
AcDbEntity
  8
0
  6
CONTINUOUS
 62
           7
100
AcDbLine
 10
151.5936854628
 20
81.1046648198
 11
153.2936856017
 21
81.1046648198
  0
LINE
  5
19F
100
AcDbEntity
  8
0
  6
CONTINUOUS
 62
           7
100
AcDbLine
 10
151.5936854628
 20
140.6046643281
 11
151.0936856137
 21
141.1046653413
  0
LINE
  5
19E
100
AcDbEntity
  8
0
  6
CONTINUOUS
 62
           7
100
AcDbLine
 10
151.0936856137
 20
70.1046630168
 11
151.5936854628
 21
70.60466403
  0
LINE
  5
19D
100
AcDbEntity
  8
0
  6
CONTINUOUS
 62
           7
100
AcDbLine
 10
143.9936858003
 20
134.5082546943
 11
143.3936858882
 21
134.8546638512
  0
LINE
  5
19C
100
AcDbEntity
  8
0
  6
CONTINUOUS
 62
           7
100
AcDbLine
 10
143.3936858882
 20
76.3546645069
 11
143.9936858003
 21
76.7010736638
  0
LINE
  5
19B
100
AcDbEntity
  8
0
  6
CONTINUOUS
 62
           7
100
AcDbLine
 10
143.3936858882
 20
134.8546638512
 11
141.5851077397
 21
134.8546638512
  0
LINE
  5
19A
100
AcDbEntity
  8
0
  6
CONTINUOUS
 62
           7
100
AcDbLine
 10
141.5851077397
 20
76.3546645069
 11
143.3936858882
 21
76.3546645069
  0
LINE
  5
199
100
AcDbEntity
  8
0
  6
CONTINUOUS
 62
           7
100
AcDbLine
 10
141.3436856453
 20
76.6046650135
 11
141.5851077397
 21
76.3546645069
  0
LINE
  5
198
100
AcDbEntity
  8
0
  6
CONTINUOUS
 62
           7
100
AcDbLine
 10
141.5851077397
 20
134.8546638512
 11
141.3436856453
 21
134.6046633446
  0
LINE
  5
197
100
AcDbEntity
  8
0
  6
CONTINUOUS
 62
           7
100
AcDbLine
 10
130.5936862116
 20
76.9923056835
 11
130.7972379361
 21
76.7887539589
  0
LINE
  5
196
100
AcDbEntity
  8
0
  6
CONTINUOUS
 62
           7
100
AcDbLine
 10
130.7972379361
 20
134.4205743992
 11
130.5936862116
 21
134.2170226746
  0
LINE
  5
195
100
AcDbEntity
  8
0
  6
CONTINUOUS
 62
           7
100
AcDbLine
 10
130.7972379361
 20
76.7887539589
 11
141.3436856453
 21
76.6046650135
  0
LINE
  5
194
100
AcDbEntity
  8
0
  6
CONTINUOUS
 62
           7
100
AcDbLine
 10
141.3436856453
 20
134.6046633446
 11
130.7972379361
 21
134.4205743992
  0
LINE
  5
193
100
AcDbEntity
  8
0
  6
CONTINUOUS
 62
           7
100
AcDbLine
 10
144.5936857124
 20
70.60466403
 11
145.0936857943
 21
70.1046630168
  0
LINE
  5
192
100
AcDbEntity
  8
0
  6
CONTINUOUS
 62
           7
100
AcDbLine
 10
145.0936857943
 20
141.1046653413
 11
144.5936857124
 21
140.6046643281
  0
LINE
  5
191
100
AcDbEntity
  8
0
  6
CONTINUOUS
 62
           7
100
AcDbLine
 10
151.0936856137
 20
141.1046653413
 11
145.0936857943
 21
141.1046653413
  0
LINE
  5
190
100
AcDbEntity
  8
0
  6
CONTINUOUS
 62
           7
100
AcDbLine
 10
145.0936857943
 20
70.1046630168
 11
151.0936856137
 21
70.1046630168
  0
LINE
  5
18F
100
AcDbEntity
  8
0
  6
CONTINUOUS
 62
           7
100
AcDbLine
 10
128.0936848705
 20
84.0009625429
 11
128.3470828419
 21
83.8546648049
  0
LINE
  5
18E
100
AcDbEntity
  8
0
  6
CONTINUOUS
 62
           7
100
AcDbLine
 10
128.3470828419
 20
127.3546635532
 11
128.0936848705
 21
127.2083658152
  0
LINE
  5
18D
100
AcDbEntity
  8
0
  6
CONTINUOUS
 62
           7
100
AcDbLine
 10
128.3470828419
 20
83.8546648049
 11
130.5936862116
 21
83.8546648049
  0
LINE
  5
18C
100
AcDbEntity
  8
0
  6
CONTINUOUS
 62
           7
100
AcDbLine
 10
130.5936862116
 20
127.3546635532
 11
128.3470828419
 21
127.3546635532
  0
LINE
  5
18B
100
AcDbEntity
  8
0
  6
CONTINUOUS
 62
           7
100
AcDbLine
 10
55.1522105744
 20
125.2101443135
 11
55.1522105744
 21
124.799185189
  0
LINE
  5
18A
100
AcDbEntity
  8
0
  6
CONTINUOUS
 62
           7
100
AcDbLine
 10
55.3217311318
 20
124.6296639913
 11
55.7326900236
 21
124.6296639913
  0
LINE
  5
189
100
AcDbEntity
  8
0
  6
CONTINUOUS
 62
           7
100
AcDbLine
 10
55.7326900236
 20
125.3796636486
 11
55.3217311318
 21
125.3796636486
  0
LINE
  5
188
100
AcDbEntity
  8
0
  6
CONTINUOUS
 62
           7
100
AcDbLine
 10
55.9022105809
 20
124.799185189
 11
55.9022105809
 21
125.2101443135
  0
LINE
  5
187
100
AcDbEntity
  8
0
  6
CONTINUOUS
 62
           7
100
AcDbLine
 10
56.176365462434
 20
124.799185189017
 11
55.7326900236
 21
124.799185189
  0
LINE
  5
186
100
AcDbEntity
  8
0
  6
CONTINUOUS
 62
           7
100
AcDbLine
 10
54.878055692966
 20
125.210144313583
 11
55.3217311318
 21
125.2101443135
  0
LINE
  5
185
100
AcDbEntity
  8
0
  6
CONTINUOUS
 62
           7
100
AcDbLine
 10
55.3217311318
 20
124.799185189
 11
54.878055692966
 21
124.799185189017
  0
LINE
  5
184
100
AcDbEntity
  8
0
  6
CONTINUOUS
 62
           7
100
AcDbLine
 10
55.732690023569
 20
125.653818937539
 11
55.7326900236
 21
125.2101443135
  0
LINE
  5
183
100
AcDbEntity
  8
0
  6
CONTINUOUS
 62
           7
100
AcDbLine
 10
55.3217311318
 20
125.2101443135
 11
55.321731131831
 21
125.653818937539
  0
LINE
  5
182
100
AcDbEntity
  8
0
  6
CONTINUOUS
 62
           7
100
AcDbLine
 10
55.7326900236
 20
124.799185189
 11
55.732690023568
 21
124.355508702351
  0
LINE
  5
181
100
AcDbEntity
  8
0
  6
CONTINUOUS
 62
           7
100
AcDbLine
 10
55.7326900236
 20
125.2101443135
 11
56.176365462434
 21
125.210144313583
  0
LINE
  5
180
100
AcDbEntity
  8
0
  6
CONTINUOUS
 62
           7
100
AcDbLine
 10
55.321731131832
 20
124.355508702351
 11
55.3217311318
 21
124.799185189
  0
LINE
  5
17F
100
AcDbEntity
  8
0
  6
CONTINUOUS
 62
           7
100
AcDbLine
 10
128.5936855768
 20
95.9546641791
 11
128.5936855768
 21
92.9046641791
  0
LINE
  5
17E
100
AcDbEntity
  8
0
  6
CONTINUOUS
 62
           7
100
AcDbLine
 10
128.5936855768
 20
118.3046641791
 11
128.5936855768
 21
115.2546641791
  0
INSERT
  5
39
100
AcDbEntity
  8
0
100
AcDbBlockReference
  2
SW_NOTE_0__S
 10
99.6128235792
 20
45.1802163705
  0
INSERT
  5
3A
100
AcDbEntity
  8
0
100
AcDbBlockReference
  2
SW_NOTE_1__S
 10
32.0749560119
 20
56.2911709381
  0
INSERT
  5
3B
100
AcDbEntity
  8
0
100
AcDbBlockReference
  2
SW_CENTERMARKSYMBOL_0__S
 10
61.553041968
 20
124.1502662468
  0
INSERT
  5
3C
100
AcDbEntity
  8
0
100
AcDbBlockReference
  2
SW_CENTERMARKSYMBOL_1__S
 10
55.5272105777
 20
125.0046641791
  0
INSERT
  5
3D
100
AcDbEntity
  8
0
100
AcDbBlockReference
  2
SW_CENTERMARKSYMBOL_2__S
 10
55.5272105777
 20
138.1046641791
  0
INSERT
  5
3E
100
AcDbEntity
  8
0
100
AcDbBlockReference
  2
SW_CENTERMARKSYMBOL_3__S
 10
55.5272105777
 20
105.6046641791
  0
INSERT
  5
3F
100
AcDbEntity
  8
0
100
AcDbBlockReference
  2
SW_CENTERMARKSYMBOL_4__S
 10
227.9995328915
 20
138.1046641791
  0
INSERT
  5
40
100
AcDbEntity
  8
0
100
AcDbBlockReference
  2
SW_CENTERMARKSYMBOL_5__S
 10
227.9995328915
 20
105.6046641791
  0
INSERT
  5
41
100
AcDbEntity
  8
0
100
AcDbBlockReference
  2
SW_CENTERMARKSYMBOL_6__S
 10
227.9995328915
 20
113.6046641791
  0
ENDSEC
  0
SECTION
  2
OBJECTS
  0
DICTIONARY
  5
19
100
AcDbDictionary
  3
ACAD_GROUP
350
1A
  3
ACAD_MLINESTYLE
350
1B
  0
DICTIONARY
  5
1A
102
{ACAD_REACTORS
330
19
102
}
100
AcDbDictionary
  0
DICTIONARY
  5
1B
102
{ACAD_REACTORS
330
19
102
}
100
AcDbDictionary
  3
STANDARD
350
1C
  0
MLINESTYLE
  5
1C
102
{ACAD_REACTORS
330
1B
102
}
100
AcDbMlineStyle
  2
STANDARD
 70
           0
  3

 62
           0
 51
90.0
 52
90.0
 71
           2
 49
0.5
 62
         256
  6
BYLAYER
 49
-0.5
 62
         256
  6
BYLAYER
  0
ENDSEC
  0
EOF
