  0
SECTION
  2
HEADER
  9
$ACADVER
  1
AC1015
  9
$ACADMAINTVER
 70
     6
  9
$DWGCODEPAGE
  3
DOS932
  9
$INSBASE
 10
0.0
 20
0.0
 30
0.0
  9
$EXTMIN
 10
0.0
 20
0.0
 30
0.0
  9
$EXTMAX
 10
336.0
 20
237.6
 30
0.0
  9
$LIMMIN
 10
0.0
 20
0.0
  9
$LIMMAX
 10
336.0
 20
237.6
  9
$ORTHOMODE
 70
     0
  9
$REGENMODE
 70
     1
  9
$FILLMODE
 70
     1
  9
$QTEXTMODE
 70
     0
  9
$MIRRTEXT
 70
     1
  9
$LTSCALE
 40
0.8
  9
$ATTMODE
 70
     1
  9
$TEXTSIZE
 40
3.3866666667
  9
$TRACEWID
 40
1.0
  9
$TEXTSTYLE
  7
Standard
  9
$CLAYER
  8
0
  9
$CELTYPE
  6
ByLayer
  9
$CECOLOR
 62
   256
  9
$CELTSCALE
 40
1.0
  9
$DISPSILH
 70
     0
  9
$DIMSCALE
 40
1.0
  9
$DIMASZ
 40
2.1580078125
  9
$DIMEXO
 40
0.8
  9
$DIMDLI
 40
3.75
  9
$DIMRND
 40
0.0
  9
$DIMDLE
 40
0.0
  9
$DIMEXE
 40
0.8
  9
$DIMTP
 40
0.0
  9
$DIMTM
 40
0.0
  9
$DIMTXT
 40
2.8222222222
  9
$DIMCEN
 40
2.5
  9
$DIMTSZ
 40
0.0
  9
$DIMTOL
 70
     0
  9
$DIMLIM
 70
     0
  9
$DIMTIH
 70
     1
  9
$DIMTOH
 70
     1
  9
$DIMSE1
 70
     0
  9
$DIMSE2
 70
     0
  9
$DIMTAD
 70
     1
  9
$DIMZIN
 70
     0
  9
$DIMBLK
  1

  9
$DIMASO
 70
     1
  9
$DIMSHO
 70
     1
  9
$DIMPOST
  1

  9
$DIMAPOST
  1

  9
$DIMALT
 70
     0
  9
$DIMALTD
 70
     3
  9
$DIMALTF
 40
0.0393700787
  9
$DIMLFAC
 40
1.0
  9
$DIMTOFL
 70
     1
  9
$DIMTVP
 40
0.0
  9
$DIMTIX
 70
     0
  9
$DIMSOXD
 70
     0
  9
$DIMSAH
 70
     0
  9
$DIMBLK1
  1

  9
$DIMBLK2
  1

  9
$DIMSTYLE
  2
ISO-25
  9
$DIMCLRD
 70
     0
  9
$DIMCLRE
 70
     0
  9
$DIMCLRT
 70
     0
  9
$DIMTFAC
 40
1.0
  9
$DIMGAP
 40
1.6
  9
$DIMJUST
 70
     0
  9
$DIMSD1
 70
     0
  9
$DIMSD2
 70
     0
  9
$DIMTOLJ
 70
     0
  9
$DIMTZIN
 70
     0
  9
$DIMALTZ
 70
     0
  9
$DIMALTTZ
 70
     0
  9
$DIMUPT
 70
     0
  9
$DIMDEC
 70
     3
  9
$DIMTDEC
 70
     3
  9
$DIMALTU
 70
     2
  9
$DIMALTTD
 70
     3
  9
$DIMTXSTY
  7
Standard
  9
$DIMAUNIT
 70
     0
  9
$DIMADEC
 70
     0
  9
$DIMALTRND
 40
0.0
  9
$DIMAZIN
 70
     0
  9
$DIMDSEP
 70
    44
  9
$DIMATFIT
 70
     3
  9
$DIMFRAC
 70
     0
  9
$DIMLDRBLK
  1

  9
$DIMLUNIT
 70
     2
  9
$DIMLWD
 70
    -2
  9
$DIMLWE
 70
    -2
  9
$DIMTMOVE
 70
     0
  9
$LUNITS
 70
     2
  9
$LUPREC
 70
     4
  9
$SKETCHINC
 40
1.0
  9
$FILLETRAD
 40
10.0
  9
$AUNITS
 70
     0
  9
$AUPREC
 70
     0
  9
$MENU
  1
.
  9
$ELEVATION
 40
0.0
  9
$PELEVATION
 40
0.0
  9
$THICKNESS
 40
0.0
  9
$LIMCHECK
 70
     0
  9
$CHAMFERA
 40
10.0
  9
$CHAMFERB
 40
10.0
  9
$CHAMFERC
 40
20.0
  9
$CHAMFERD
 40
0.0
  9
$SKPOLY
 70
     0
  9
$TDCREATE
 40
2457206.646416852
  9
$TDUCREATE
 40
2457206.271416852
  9
$TDUPDATE
 40
2457206.646419375
  9
$TDUUPDATE
 40
2457206.271419375
  9
$TDINDWG
 40
0.0000000116
  9
$TDUSRTIMER
 40
0.0000000116
  9
$USRTIMER
 70
     1
  9
$ANGBASE
 50
0.0
  9
$ANGDIR
 70
     0
  9
$PDMODE
 70
     0
  9
$PDSIZE
 40
-1.0
  9
$PLINEWID
 40
0.0
  9
$SPLFRAME
 70
     0
  9
$SPLINETYPE
 70
     6
  9
$SPLINESEGS
 70
     8
  9
$HANDSEED
  5
45D
  9
$SURFTAB1
 70
     6
  9
$SURFTAB2
 70
     6
  9
$SURFTYPE
 70
     6
  9
$SURFU
 70
     6
  9
$SURFV
 70
     6
  9
$UCSBASE
  2

  9
$UCSNAME
  2

  9
$UCSORG
 10
0.0
 20
0.0
 30
0.0
  9
$UCSXDIR
 10
1.0
 20
0.0
 30
0.0
  9
$UCSYDIR
 10
0.0
 20
1.0
 30
0.0
  9
$UCSORTHOREF
  2

  9
$UCSORTHOVIEW
 70
     0
  9
$UCSORGTOP
 10
0.0
 20
0.0
 30
0.0
  9
$UCSORGBOTTOM
 10
0.0
 20
0.0
 30
0.0
  9
$UCSORGLEFT
 10
0.0
 20
0.0
 30
0.0
  9
$UCSORGRIGHT
 10
0.0
 20
0.0
 30
0.0
  9
$UCSORGFRONT
 10
0.0
 20
0.0
 30
0.0
  9
$UCSORGBACK
 10
0.0
 20
0.0
 30
0.0
  9
$PUCSBASE
  2

  9
$PUCSNAME
  2

  9
$PUCSORG
 10
0.0
 20
0.0
 30
0.0
  9
$PUCSXDIR
 10
1.0
 20
0.0
 30
0.0
  9
$PUCSYDIR
 10
0.0
 20
1.0
 30
0.0
  9
$PUCSORTHOREF
  2

  9
$PUCSORTHOVIEW
 70
     0
  9
$PUCSORGTOP
 10
0.0
 20
0.0
 30
0.0
  9
$PUCSORGBOTTOM
 10
0.0
 20
0.0
 30
0.0
  9
$PUCSORGLEFT
 10
0.0
 20
0.0
 30
0.0
  9
$PUCSORGRIGHT
 10
0.0
 20
0.0
 30
0.0
  9
$PUCSORGFRONT
 10
0.0
 20
0.0
 30
0.0
  9
$PUCSORGBACK
 10
0.0
 20
0.0
 30
0.0
  9
$USERI1
 70
     0
  9
$USERI2
 70
     0
  9
$USERI3
 70
     0
  9
$USERI4
 70
     0
  9
$USERI5
 70
     0
  9
$USERR1
 40
0.0
  9
$USERR2
 40
0.0
  9
$USERR3
 40
0.0
  9
$USERR4
 40
0.0
  9
$USERR5
 40
0.0
  9
$WORLDVIEW
 70
     1
  9
$SHADEDGE
 70
     3
  9
$SHADEDIF
 70
    70
  9
$TILEMODE
 70
     1
  9
$MAXACTVP
 70
    64
  9
$PINSBASE
 10
0.0
 20
0.0
 30
0.0
  9
$PLIMCHECK
 70
     0
  9
$PEXTMIN
 10
1.0000000000E+20
 20
1.0000000000E+20
 30
1.0000000000E+20
  9
$PEXTMAX
 10
-1.0000000000E+20
 20
-1.0000000000E+20
 30
-1.0000000000E+20
  9
$PLIMMIN
 10
0.0
 20
0.0
  9
$PLIMMAX
 10
420.0
 20
297.0
  9
$UNITMODE
 70
     0
  9
$VISRETAIN
 70
     1
  9
$PLINEGEN
 70
     0
  9
$PSLTSCALE
 70
     1
  9
$TREEDEPTH
 70
  3020
  9
$CMLSTYLE
  2
Standard
  9
$CMLJUST
 70
     0
  9
$CMLSCALE
 40
20.0
  9
$PROXYGRAPHICS
 70
     1
  9
$MEASUREMENT
 70
     1
  9
$CELWEIGHT
370
    -1
  9
$ENDCAPS
280
     0
  9
$JOINSTYLE
280
     0
  9
$LWDISPLAY
290
     1
  9
$INSUNITS
 70
     4
  9
$HYPERLINKBASE
  1

  9
$STYLESHEET
  1

  9
$XEDIT
290
     1
  9
$CEPSNTYPE
380
     0
  9
$PSTYLEMODE
290
     1
  9
$FINGERPRINTGUID
  2
{0629D49D-8E31-4C6B-B91A-C2C66F7AD6DE}
  9
$VERSIONGUID
  2
{FAEB1C32-E019-11D5-929B-00C0DF256EC4}
  9
$EXTNAMES
290
     1
  9
$PSVPSCALE
 40
0.0
  9
$OLESTARTUP
290
     0
  0
ENDSEC
  0
SECTION
  2
CLASSES
  0
CLASS
  1
ACDBDICTIONARYWDFLT
  2
AcDbDictionaryWithDefault
  3
ObjectDBX Classes
 90
        0
280
     0
281
     0
  0
CLASS
  1
VISUALSTYLE
  2
AcDbVisualStyle
  3
ObjectDBX Classes
 90
     4095
280
     0
281
     0
  0
CLASS
  1
MATERIAL
  2
AcDbMaterial
  3
ObjectDBX Classes
 90
     1153
280
     0
281
     0
  0
CLASS
  1
ACDBPLACEHOLDER
  2
AcDbPlaceHolder
  3
ObjectDBX Classes
 90
        0
280
     0
281
     0
  0
CLASS
  1
LAYOUT
  2
AcDbLayout
  3
ObjectDBX Classes
 90
        0
280
     0
281
     0
  0
ENDSEC
  0
SECTION
  2
TABLES
  0
TABLE
  2
VPORT
  5
8
330
0
100
AcDbSymbolTable
 70
     1
  0
VPORT
  5
29
330
8
100
AcDbSymbolTableRecord
100
AcDbViewportTableRecord
  2
*Active
 70
     0
 10
0.0
 20
0.0
 11
1.0
 21
1.0
 12
168.0
 22
118.8
 13
0.0
 23
0.0
 14
10.0
 24
10.0
 15
10.0
 25
10.0
 16
0.0
 26
0.0
 36
1.0
 17
0.0
 27
0.0
 37
0.0
 40
237.6
 41
1.4141414141
 42
50.0
 43
0.0
 44
0.0
 50
0.0
 51
0.0
 71
     0
 72
  2000
 73
     1
 74
     3
 75
     0
 76
     0
 77
     0
 78
     0
281
     0
 65
     1
110
0.0
120
0.0
130
0.0
111
1.0
121
0.0
131
0.0
112
0.0
122
1.0
132
0.0
 79
     0
146
0.0
  0
ENDTAB
  0
TABLE
  2
LTYPE
  5
5
330
0
100
AcDbSymbolTable
 70
     6
  0
LTYPE
  5
14
330
5
100
AcDbSymbolTableRecord
100
AcDbLinetypeTableRecord
  2
ByBlock
 70
     0
  3

 72
    65
 73
     0
 40
0.0
  0
LTYPE
  5
15
330
5
100
AcDbSymbolTableRecord
100
AcDbLinetypeTableRecord
  2
ByLayer
 70
     0
  3

 72
    65
 73
     0
 40
0.0
  0
LTYPE
  5
16
330
5
100
AcDbSymbolTableRecord
100
AcDbLinetypeTableRecord
  2
Continuous
 70
     0
  3
Solid line
 72
    65
 73
     0
 40
0.0
  0
LTYPE
  5
3F
330
5
100
AcDbSymbolTableRecord
100
AcDbLinetypeTableRecord
  2
HIDDEN
 70
     0
  3
Hidden __ __ __ __ __ __ __ __ __ __ __ __ __ __
 72
    65
 73
     2
 40
1.905
 49
1.27
 74
     0
 49
-0.635
 74
     0
  0
LTYPE
  5
40
330
5
100
AcDbSymbolTableRecord
100
AcDbLinetypeTableRecord
  2
PHANTOM
 70
     0
  3
Phantom ______  __  __  ______  __  __  ______
 72
    65
 73
     6
 40
12.7
 49
6.35
 74
     0
 49
-1.27
 74
     0
 49
1.27
 74
     0
 49
-1.27
 74
     0
 49
1.27
 74
     0
 49
-1.27
 74
     0
  0
LTYPE
  5
41
330
5
100
AcDbSymbolTableRecord
100
AcDbLinetypeTableRecord
  2
CENTER
 70
     0
  3
Center ____ _ ____ _ ____ _ ____ _ ____ _ ____
 72
    65
 73
     4
 40
10.16
 49
6.35
 74
     0
 49
-1.27
 74
     0
 49
1.27
 74
     0
 49
-1.27
 74
     0
  0
LTYPE
  5
42
330
5
100
AcDbSymbolTableRecord
100
AcDbLinetypeTableRecord
  2
CENTERX2
 70
     0
  3
Center (2x) ________  __  ________  __  _____
 72
    65
 73
     4
 40
20.32
 49
12.7
 74
     0
 49
-2.54
 74
     0
 49
2.54
 74
     0
 49
-2.54
 74
     0
  0
LTYPE
  5
43
330
5
100
AcDbSymbolTableRecord
100
AcDbLinetypeTableRecord
  2
DOT2
 70
     0
  3
Dot (.5x) ........................................
 72
    65
 73
     2
 40
0.635
 49
0.0
 74
     0
 49
-0.635
 74
     0
  0
ENDTAB
  0
TABLE
  2
LAYER
  5
2
330
0
100
AcDbSymbolTable
 70
     6
  0
LAYER
  5
10
330
2
100
AcDbSymbolTableRecord
100
AcDbLayerTableRecord
  2
0
 70
     0
 62
     7
  6
Continuous
370
    -3
390
F
  0
LAYER
  5
44
330
2
100
AcDbSymbolTableRecord
100
AcDbLayerTableRecord
  2
SLD-0
 70
     0
 62
   179
  6
Continuous
370
    -3
390
F
  0
LAYER
  5
45
330
2
100
AcDbSymbolTableRecord
100
AcDbLayerTableRecord
  2
1
 70
     0
 62
   179
  6
Continuous
370
    -3
390
F
  0
LAYER
  5
46
330
2
100
AcDbSymbolTableRecord
100
AcDbLayerTableRecord
  2
FORMAT
 70
     0
 62
     7
  6
Continuous
370
    -3
390
F
  0
LAYER
  5
47
330
2
100
AcDbSymbolTableRecord
100
AcDbLayerTableRecord
  2
注記
 70
     0
 62
   190
  6
Continuous
370
    -3
390
F
  0
LAYER
  5
48
330
2
100
AcDbSymbolTableRecord
100
AcDbLayerTableRecord
  2
寸法
 70
     0
 62
    96
  6
Continuous
370
    -3
390
F
  0
ENDTAB
  0
TABLE
  2
STYLE
  5
3
330
0
100
AcDbSymbolTable
 70
     2
  0
STYLE
  5
11
330
3
100
AcDbSymbolTableRecord
100
AcDbTextStyleTableRecord
  2
Standard
 70
     0
 40
0.0
 41
1.0
 50
0.0
 71
     0
 42
3.3866666667
  3
txt
  4
bigfont
  0
STYLE
  5
340
330
3
100
AcDbSymbolTableRecord
100
AcDbTextStyleTableRecord
  2
SLDTEXTSTYLE0
 70
     0
 40
0.0
 41
0.7
 50
0.0
 71
     0
 42
0.2
  3
TXT
  4
bigfont
  0
ENDTAB
  0
TABLE
  2
VIEW
  5
6
330
0
100
AcDbSymbolTable
 70
     0
  0
ENDTAB
  0
TABLE
  2
UCS
  5
7
330
0
100
AcDbSymbolTable
 70
     0
  0
ENDTAB
  0
TABLE
  2
APPID
  5
9
330
0
100
AcDbSymbolTable
 70
     1
  0
APPID
  5
12
330
9
100
AcDbSymbolTableRecord
100
AcDbRegAppTableRecord
  2
ACAD
 70
     0
  0
ENDTAB
  0
TABLE
  2
DIMSTYLE
  5
A
330
0
100
AcDbSymbolTable
 70
     1
100
AcDbDimStyleTable
  0
DIMSTYLE
105
27
330
A
100
AcDbSymbolTableRecord
100
AcDbDimStyleTableRecord
  2
ISO-25
 70
     0
 41
2.5
 42
0.625
 43
3.75
 44
1.25
 73
     0
 74
     0
 77
     1
 78
     8
140
2.5
141
2.5
143
0.0393700787
147
0.625
171
     3
172
     1
178
     0
271
     2
272
     2
274
     3
278
    44
283
     0
284
     8
340
11
  0
ENDTAB
  0
TABLE
  2
BLOCK_RECORD
  5
1
330
0
100
AcDbSymbolTable
 70
    10
  0
BLOCK_RECORD
  5
1F
330
1
100
AcDbSymbolTableRecord
100
AcDbBlockTableRecord
  2
*Model_Space
340
22
  0
BLOCK_RECORD
  5
1B
330
1
100
AcDbSymbolTableRecord
100
AcDbBlockTableRecord
  2
*Paper_Space
340
1E
  0
BLOCK_RECORD
  5
23
330
1
100
AcDbSymbolTableRecord
100
AcDbBlockTableRecord
  2
*Paper_Space0
340
26
  0
BLOCK_RECORD
  5
B8
330
1
100
AcDbSymbolTableRecord
100
AcDbBlockTableRecord
  2
SW_CENTERMARKSYMBOL_0
340
0
102
{BLKREFS
331
F3
102
}
  0
BLOCK_RECORD
  5
F4
330
1
100
AcDbSymbolTableRecord
100
AcDbBlockTableRecord
  2
SW_CENTERMARKSYMBOL_1
340
0
102
{BLKREFS
331
117
102
}
  0
BLOCK_RECORD
  5
118
330
1
100
AcDbSymbolTableRecord
100
AcDbBlockTableRecord
  2
SW_CENTERMARKSYMBOL_2
340
0
102
{BLKREFS
331
123
102
}
  0
BLOCK_RECORD
  5
1C1
330
1
100
AcDbSymbolTableRecord
100
AcDbBlockTableRecord
  2
SW_CENTERMARKSYMBOL_3
340
0
102
{BLKREFS
331
1E0
102
}
  0
BLOCK_RECORD
  5
1E1
330
1
100
AcDbSymbolTableRecord
100
AcDbBlockTableRecord
  2
SW_CENTERMARKSYMBOL_4
340
0
102
{BLKREFS
331
200
102
}
  0
BLOCK_RECORD
  5
201
330
1
100
AcDbSymbolTableRecord
100
AcDbBlockTableRecord
  2
SW_CENTERMARKSYMBOL_5
340
0
102
{BLKREFS
331
20C
102
}
  0
BLOCK_RECORD
  5
339
330
1
100
AcDbSymbolTableRecord
100
AcDbBlockTableRecord
  2
SW_NOTE_0
340
0
102
{BLKREFS
331
34A
102
}
  0
BLOCK_RECORD
  5
34C
330
1
100
AcDbSymbolTableRecord
100
AcDbBlockTableRecord
  2
SW_CENTERMARKSYMBOL_6
340
0
102
{BLKREFS
331
357
102
}
  0
BLOCK_RECORD
  5
451
330
1
100
AcDbSymbolTableRecord
100
AcDbBlockTableRecord
  2
SW_CENTERMARKSYMBOL_7
340
0
102
{BLKREFS
331
45C
102
}
  0
ENDTAB
  0
ENDSEC
  0
SECTION
  2
BLOCKS
  0
BLOCK
  5
20
330
1F
100
AcDbEntity
  8
0
100
AcDbBlockBegin
  2
*Model_Space
 70
     0
 10
0.0
 20
0.0
 30
0.0
  3
*Model_Space
  1

  0
ENDBLK
  5
21
330
1F
100
AcDbEntity
  8
0
100
AcDbBlockEnd
  0
BLOCK
  5
1C
330
1B
100
AcDbEntity
 67
     1
  8
0
100
AcDbBlockBegin
  2
*Paper_Space
 70
     0
 10
0.0
 20
0.0
 30
0.0
  3
*Paper_Space
  1

  0
ENDBLK
  5
1D
330
1B
100
AcDbEntity
 67
     1
  8
0
100
AcDbBlockEnd
  0
BLOCK
  5
24
330
23
100
AcDbEntity
  8
0
100
AcDbBlockBegin
  2
*Paper_Space0
 70
     0
 10
0.0
 20
0.0
 30
0.0
  3
*Paper_Space0
  1

  0
ENDBLK
  5
25
330
23
100
AcDbEntity
  8
0
100
AcDbBlockEnd
  0
BLOCK
  5
B9
330
B8
100
AcDbEntity
  8
0
100
AcDbBlockBegin
  2
SW_CENTERMARKSYMBOL_0
 70
     0
 10
0.0
 20
0.0
 30
0.0
  3
SW_CENTERMARKSYMBOL_0
  1

  0
ARC
  5
BB
330
B8
100
AcDbEntity
  8
0
  6
Continuous
 62
     0
370
     0
100
AcDbCircle
 10
0.0
 20
-22.0
 30
0.0
 40
22.0
100
AcDbArc
 50
90.0
 51
93.9065304213
  0
ARC
  5
BC
330
B8
100
AcDbEntity
  8
0
  6
Continuous
 62
     0
370
     0
100
AcDbCircle
 10
0.0
 20
-22.0
 30
0.0
 40
22.0
100
AcDbArc
 50
86.0934695787
 51
90.0
  0
ARC
  5
BD
330
B8
100
AcDbEntity
  8
0
  6
Continuous
 62
     0
370
     0
100
AcDbCircle
 10
0.0
 20
-22.0
 30
0.0
 40
22.0
100
AcDbArc
 50
150.0
 51
153.9065304213
  0
ARC
  5
BE
330
B8
100
AcDbEntity
  8
0
  6
Continuous
 62
     0
370
     0
100
AcDbCircle
 10
0.0
 20
-22.0
 30
0.0
 40
22.0
100
AcDbArc
 50
146.0934695787
 51
150.0
  0
ARC
  5
BF
330
B8
100
AcDbEntity
  8
0
  6
Continuous
 62
     0
370
     0
100
AcDbCircle
 10
0.0
 20
-22.0
 30
0.0
 40
22.0
100
AcDbArc
 50
180.0
 51
183.9065304213
  0
ARC
  5
C0
330
B8
100
AcDbEntity
  8
0
  6
Continuous
 62
     0
370
     0
100
AcDbCircle
 10
0.0
 20
-22.0
 30
0.0
 40
22.0
100
AcDbArc
 50
176.0934695787
 51
180.0
  0
ARC
  5
C1
330
B8
100
AcDbEntity
  8
0
  6
Continuous
 62
     0
370
     0
100
AcDbCircle
 10
0.0
 20
-22.0
 30
0.0
 40
22.0
100
AcDbArc
 50
210.0
 51
213.9065304213
  0
ARC
  5
C2
330
B8
100
AcDbEntity
  8
0
  6
Continuous
 62
     0
370
     0
100
AcDbCircle
 10
0.0
 20
-22.0
 30
0.0
 40
22.0
100
AcDbArc
 50
206.0934695787
 51
210.0
  0
ARC
  5
C3
330
B8
100
AcDbEntity
  8
0
  6
Continuous
 62
     0
370
     0
100
AcDbCircle
 10
0.0
 20
-22.0
 30
0.0
 40
22.0
100
AcDbArc
 50
270.0
 51
273.9065304213
  0
ARC
  5
C4
330
B8
100
AcDbEntity
  8
0
  6
Continuous
 62
     0
370
     0
100
AcDbCircle
 10
0.0
 20
-22.0
 30
0.0
 40
22.0
100
AcDbArc
 50
266.0934695787
 51
270.0
  0
ARC
  5
C5
330
B8
100
AcDbEntity
  8
0
  6
Continuous
 62
     0
370
     0
100
AcDbCircle
 10
0.0
 20
-22.0
 30
0.0
 40
22.0
100
AcDbArc
 50
330.0
 51
333.9065304213
  0
ARC
  5
C6
330
B8
100
AcDbEntity
  8
0
  6
Continuous
 62
     0
370
     0
100
AcDbCircle
 10
0.0
 20
-22.0
 30
0.0
 40
22.0
100
AcDbArc
 50
326.0934695787
 51
330.0
  0
ARC
  5
C7
330
B8
100
AcDbEntity
  8
0
  6
Continuous
 62
     0
370
     0
100
AcDbCircle
 10
0.0
 20
-22.0
 30
0.0
 40
22.0
100
AcDbArc
 50
0.0
 51
3.9065304213
  0
ARC
  5
C8
330
B8
100
AcDbEntity
  8
0
  6
Continuous
 62
     0
370
     0
100
AcDbCircle
 10
0.0
 20
-22.0
 30
0.0
 40
22.0
100
AcDbArc
 50
356.0934695787
 51
0.0
  0
ARC
  5
C9
330
B8
100
AcDbEntity
  8
0
  6
Continuous
 62
     0
370
     0
100
AcDbCircle
 10
0.0
 20
-22.0
 30
0.0
 40
22.0
100
AcDbArc
 50
30.0
 51
33.9065304213
  0
ARC
  5
CA
330
B8
100
AcDbEntity
  8
0
  6
Continuous
 62
     0
370
     0
100
AcDbCircle
 10
0.0
 20
-22.0
 30
0.0
 40
22.0
100
AcDbArc
 50
26.0934695787
 51
30.0
  0
ARC
  5
CB
330
B8
100
AcDbEntity
  8
0
  6
CENTERX2
 62
     0
370
     0
100
AcDbCircle
 10
0.0
 20
-22.0
 30
0.0
 40
22.00000000000001
100
AcDbArc
 50
97.8130608427
 51
142.1869391573
  0
ARC
  5
CC
330
B8
100
AcDbEntity
  8
0
  6
CENTERX2
 62
     0
370
     0
100
AcDbCircle
 10
0.0
 20
-22.0
 30
0.0
 40
22.0
100
AcDbArc
 50
157.8130608427
 51
172.1869391573
  0
ARC
  5
CD
330
B8
100
AcDbEntity
  8
0
  6
CENTERX2
 62
     0
370
     0
100
AcDbCircle
 10
0.0
 20
-22.0
 30
0.0
 40
22.0
100
AcDbArc
 50
187.8130608427
 51
202.1869391573
  0
ARC
  5
CE
330
B8
100
AcDbEntity
  8
0
  6
CENTERX2
 62
     0
370
     0
100
AcDbCircle
 10
0.0
 20
-22.0
 30
0.0
 40
22.0
100
AcDbArc
 50
217.8130608427
 51
262.1869391573
  0
ARC
  5
CF
330
B8
100
AcDbEntity
  8
0
  6
CENTERX2
 62
     0
370
     0
100
AcDbCircle
 10
0.0
 20
-22.0
 30
0.0
 40
22.0
100
AcDbArc
 50
277.8130608427
 51
322.1869391573
  0
ARC
  5
D0
330
B8
100
AcDbEntity
  8
0
  6
CENTERX2
 62
     0
370
     0
100
AcDbCircle
 10
0.0
 20
-22.0
 30
0.0
 40
22.0
100
AcDbArc
 50
337.8130608427
 51
352.1869391573
  0
ARC
  5
D1
330
B8
100
AcDbEntity
  8
0
  6
CENTERX2
 62
     0
370
     0
100
AcDbCircle
 10
0.0
 20
-22.0
 30
0.0
 40
22.00000000000001
100
AcDbArc
 50
37.8130608427
 51
82.1869391573
  0
ARC
  5
D2
330
B8
100
AcDbEntity
  8
0
  6
CENTERX2
 62
     0
370
     0
100
AcDbCircle
 10
0.0
 20
-22.0
 30
0.0
 40
22.0
100
AcDbArc
 50
7.8130608427
 51
22.1869391573
  0
LINE
  5
D3
330
B8
100
AcDbEntity
  8
0
  6
Continuous
 62
     0
370
     0
100
AcDbLine
 10
0.0
 20
0.0
 30
0.0
 11
0.0
 21
1.5
 31
0.0
  0
LINE
  5
D4
330
B8
100
AcDbEntity
  8
0
  6
Continuous
 62
     0
370
     0
100
AcDbLine
 10
0.0
 20
0.0
 30
0.0
 11
0.0
 21
-1.5
 31
0.0
  0
LINE
  5
D5
330
B8
100
AcDbEntity
  8
0
  6
Continuous
 62
     0
370
     0
100
AcDbLine
 10
0.0
 20
3.0
 30
0.0
 11
0.0
 21
3.6
 31
0.0
  0
LINE
  5
D6
330
B8
100
AcDbEntity
  8
0
  6
Continuous
 62
     0
370
     0
100
AcDbLine
 10
0.0
 20
-3.0
 30
0.0
 11
0.0
 21
-3.6
 31
0.0
  0
LINE
  5
D7
330
B8
100
AcDbEntity
  8
0
  6
Continuous
 62
     0
370
     0
100
AcDbLine
 10
-19.0525588833
 20
-11.0
 30
0.0
 11
-20.3515969889
 21
-10.25
 31
0.0
  0
LINE
  5
D8
330
B8
100
AcDbEntity
  8
0
  6
Continuous
 62
     0
370
     0
100
AcDbLine
 10
-19.0525588833
 20
-11.0
 30
0.0
 11
-17.7535207776
 21
-11.75
 31
0.0
  0
LINE
  5
D9
330
B8
100
AcDbEntity
  8
0
  6
Continuous
 62
     0
370
     0
100
AcDbLine
 10
-21.6506350946
 20
-9.5
 30
0.0
 11
-22.1702503369
 21
-9.2
 31
0.0
  0
LINE
  5
DA
330
B8
100
AcDbEntity
  8
0
  6
Continuous
 62
     0
370
     0
100
AcDbLine
 10
-16.4544826719
 20
-12.5
 30
0.0
 11
-15.9348674296
 21
-12.8
 31
0.0
  0
LINE
  5
DB
330
B8
100
AcDbEntity
  8
0
  6
Continuous
 62
     0
370
     0
100
AcDbLine
 10
-22.0
 20
-22.0
 30
0.0
 11
-23.5
 21
-22.0
 31
0.0
  0
LINE
  5
DC
330
B8
100
AcDbEntity
  8
0
  6
Continuous
 62
     0
370
     0
100
AcDbLine
 10
-22.0
 20
-22.0
 30
0.0
 11
-20.5
 21
-22.0
 31
0.0
  0
LINE
  5
DD
330
B8
100
AcDbEntity
  8
0
  6
Continuous
 62
     0
370
     0
100
AcDbLine
 10
-25.0
 20
-22.0
 30
0.0
 11
-25.55
 21
-22.0
 31
0.0
  0
LINE
  5
DE
330
B8
100
AcDbEntity
  8
0
  6
Continuous
 62
     0
370
     0
100
AcDbLine
 10
-19.0
 20
-22.0
 30
0.0
 11
-18.45
 21
-22.0
 31
0.0
  0
LINE
  5
DF
330
B8
100
AcDbEntity
  8
0
  6
Continuous
 62
     0
370
     0
100
AcDbLine
 10
-19.0525588833
 20
-33.0
 30
0.0
 11
-20.3515969889
 21
-33.75
 31
0.0
  0
LINE
  5
E0
330
B8
100
AcDbEntity
  8
0
  6
Continuous
 62
     0
370
     0
100
AcDbLine
 10
-19.0525588833
 20
-33.0
 30
0.0
 11
-17.7535207776
 21
-32.25
 31
0.0
  0
LINE
  5
E1
330
B8
100
AcDbEntity
  8
0
  6
Continuous
 62
     0
370
     0
100
AcDbLine
 10
-21.6506350946
 20
-34.5
 30
0.0
 11
-22.1702503369
 21
-34.8
 31
0.0
  0
LINE
  5
E2
330
B8
100
AcDbEntity
  8
0
  6
Continuous
 62
     0
370
     0
100
AcDbLine
 10
-16.4544826719
 20
-31.5
 30
0.0
 11
-15.9348674296
 21
-31.2
 31
0.0
  0
LINE
  5
E3
330
B8
100
AcDbEntity
  8
0
  6
Continuous
 62
     0
370
     0
100
AcDbLine
 10
0.0
 20
-44.0
 30
0.0
 11
0.0
 21
-45.5
 31
0.0
  0
LINE
  5
E4
330
B8
100
AcDbEntity
  8
0
  6
Continuous
 62
     0
370
     0
100
AcDbLine
 10
0.0
 20
-44.0
 30
0.0
 11
0.0
 21
-42.5
 31
0.0
  0
LINE
  5
E5
330
B8
100
AcDbEntity
  8
0
  6
Continuous
 62
     0
370
     0
100
AcDbLine
 10
0.0
 20
-47.0
 30
0.0
 11
0.0
 21
-47.6
 31
0.0
  0
LINE
  5
E6
330
B8
100
AcDbEntity
  8
0
  6
Continuous
 62
     0
370
     0
100
AcDbLine
 10
0.0
 20
-41.0
 30
0.0
 11
0.0
 21
-40.4
 31
0.0
  0
LINE
  5
E7
330
B8
100
AcDbEntity
  8
0
  6
Continuous
 62
     0
370
     0
100
AcDbLine
 10
19.0525588833
 20
-33.0
 30
0.0
 11
20.3515969889
 21
-33.75
 31
0.0
  0
LINE
  5
E8
330
B8
100
AcDbEntity
  8
0
  6
Continuous
 62
     0
370
     0
100
AcDbLine
 10
19.0525588833
 20
-33.0
 30
0.0
 11
17.7535207776
 21
-32.25
 31
0.0
  0
LINE
  5
E9
330
B8
100
AcDbEntity
  8
0
  6
Continuous
 62
     0
370
     0
100
AcDbLine
 10
21.6506350946
 20
-34.5
 30
0.0
 11
22.1702503369
 21
-34.8
 31
0.0
  0
LINE
  5
EA
330
B8
100
AcDbEntity
  8
0
  6
Continuous
 62
     0
370
     0
100
AcDbLine
 10
16.4544826719
 20
-31.5
 30
0.0
 11
15.9348674296
 21
-31.2
 31
0.0
  0
LINE
  5
EB
330
B8
100
AcDbEntity
  8
0
  6
Continuous
 62
     0
370
     0
100
AcDbLine
 10
22.0
 20
-22.0
 30
0.0
 11
23.5
 21
-22.0
 31
0.0
  0
LINE
  5
EC
330
B8
100
AcDbEntity
  8
0
  6
Continuous
 62
     0
370
     0
100
AcDbLine
 10
22.0
 20
-22.0
 30
0.0
 11
20.5
 21
-22.0
 31
0.0
  0
LINE
  5
ED
330
B8
100
AcDbEntity
  8
0
  6
Continuous
 62
     0
370
     0
100
AcDbLine
 10
25.0
 20
-22.0
 30
0.0
 11
25.55
 21
-22.0
 31
0.0
  0
LINE
  5
EE
330
B8
100
AcDbEntity
  8
0
  6
Continuous
 62
     0
370
     0
100
AcDbLine
 10
19.0
 20
-22.0
 30
0.0
 11
18.45
 21
-22.0
 31
0.0
  0
LINE
  5
EF
330
B8
100
AcDbEntity
  8
0
  6
Continuous
 62
     0
370
     0
100
AcDbLine
 10
19.0525588833
 20
-11.0
 30
0.0
 11
20.3515969889
 21
-10.25
 31
0.0
  0
LINE
  5
F0
330
B8
100
AcDbEntity
  8
0
  6
Continuous
 62
     0
370
     0
100
AcDbLine
 10
19.0525588833
 20
-11.0
 30
0.0
 11
17.7535207776
 21
-11.75
 31
0.0
  0
LINE
  5
F1
330
B8
100
AcDbEntity
  8
0
  6
Continuous
 62
     0
370
     0
100
AcDbLine
 10
21.6506350946
 20
-9.5
 30
0.0
 11
22.1702503369
 21
-9.2
 31
0.0
  0
LINE
  5
F2
330
B8
100
AcDbEntity
  8
0
  6
Continuous
 62
     0
370
     0
100
AcDbLine
 10
16.4544826719
 20
-12.5
 30
0.0
 11
15.9348674296
 21
-12.8
 31
0.0
  0
ENDBLK
  5
BA
330
B8
100
AcDbEntity
  8
0
100
AcDbBlockEnd
  0
BLOCK
  5
F5
330
F4
100
AcDbEntity
  8
0
100
AcDbBlockBegin
  2
SW_CENTERMARKSYMBOL_1
 70
     0
 10
0.0
 20
0.0
 30
0.0
  3
SW_CENTERMARKSYMBOL_1
  1

  0
ARC
  5
F7
330
F4
100
AcDbEntity
  8
0
  6
Continuous
 62
     0
370
     0
100
AcDbCircle
 10
-31.1126983722
 20
-31.1126983722
 30
0.0
 40
44.00000000000001
100
AcDbArc
 50
45.0
 51
49.5576188249
  0
ARC
  5
F8
330
F4
100
AcDbEntity
  8
0
  6
Continuous
 62
     0
370
     0
100
AcDbCircle
 10
-31.1126983722
 20
-31.1126983722
 30
0.0
 40
44.00000000000001
100
AcDbArc
 50
40.4423811751
 51
45.0
  0
ARC
  5
F9
330
F4
100
AcDbEntity
  8
0
  6
Continuous
 62
     0
370
     0
100
AcDbCircle
 10
-31.1126983722
 20
-31.1126983722
 30
0.0
 40
44.00000000000001
100
AcDbArc
 50
49.5576188249
 51
53.1386050445
  0
ARC
  5
FA
330
F4
100
AcDbEntity
  8
0
  6
Continuous
 62
     0
370
     0
100
AcDbCircle
 10
-31.1126983722
 20
-31.1126983722
 30
0.0
 40
44.00000000000001
100
AcDbArc
 50
36.8613949555
 51
40.4423811751
  0
ARC
  5
FB
330
F4
100
AcDbEntity
  8
0
  6
Continuous
 62
     0
370
     0
100
AcDbCircle
 10
-31.1126983722
 20
-31.1126983722
 30
0.0
 40
44.0
100
AcDbArc
 50
315.0
 51
319.5576188249
  0
ARC
  5
FC
330
F4
100
AcDbEntity
  8
0
  6
Continuous
 62
     0
370
     0
100
AcDbCircle
 10
-31.1126983722
 20
-31.1126983722
 30
0.0
 40
44.00000000000001
100
AcDbArc
 50
310.4423811751
 51
315.0
  0
ARC
  5
FD
330
F4
100
AcDbEntity
  8
0
  6
Continuous
 62
     0
370
     0
100
AcDbCircle
 10
-31.1126983722
 20
-31.1126983722
 30
0.0
 40
44.0
100
AcDbArc
 50
319.5576188249
 51
323.1386050445
  0
ARC
  5
FE
330
F4
100
AcDbEntity
  8
0
  6
Continuous
 62
     0
370
     0
100
AcDbCircle
 10
-31.1126983722
 20
-31.1126983722
 30
0.0
 40
44.00000000000001
100
AcDbArc
 50
306.8613949555
 51
310.4423811751
  0
ARC
  5
FF
330
F4
100
AcDbEntity
  8
0
  6
Continuous
 62
     0
370
     0
100
AcDbCircle
 10
-31.1126983722
 20
-31.1126983722
 30
0.0
 40
43.99999999999999
100
AcDbArc
 50
225.0
 51
229.5576188249
  0
ARC
  5
100
330
F4
100
AcDbEntity
  8
0
  6
Continuous
 62
     0
370
     0
100
AcDbCircle
 10
-31.1126983722
 20
-31.1126983722
 30
0.0
 40
43.99999999999999
100
AcDbArc
 50
220.4423811751
 51
225.0
  0
ARC
  5
101
330
F4
100
AcDbEntity
  8
0
  6
Continuous
 62
     0
370
     0
100
AcDbCircle
 10
-31.1126983722
 20
-31.1126983722
 30
0.0
 40
43.99999999999999
100
AcDbArc
 50
229.5576188249
 51
233.1386050445
  0
ARC
  5
102
330
F4
100
AcDbEntity
  8
0
  6
Continuous
 62
     0
370
     0
100
AcDbCircle
 10
-31.1126983722
 20
-31.1126983722
 30
0.0
 40
43.99999999999999
100
AcDbArc
 50
216.8613949555
 51
220.4423811751
  0
ARC
  5
103
330
F4
100
AcDbEntity
  8
0
  6
Continuous
 62
     0
370
     0
100
AcDbCircle
 10
-31.1126983722
 20
-31.1126983722
 30
0.0
 40
44.0
100
AcDbArc
 50
135.0
 51
139.5576188249
  0
ARC
  5
104
330
F4
100
AcDbEntity
  8
0
  6
Continuous
 62
     0
370
     0
100
AcDbCircle
 10
-31.1126983722
 20
-31.1126983722
 30
0.0
 40
44.00000000000002
100
AcDbArc
 50
130.4423811751
 51
135.0
  0
ARC
  5
105
330
F4
100
AcDbEntity
  8
0
  6
Continuous
 62
     0
370
     0
100
AcDbCircle
 10
-31.1126983722
 20
-31.1126983722
 30
0.0
 40
43.99999999999999
100
AcDbArc
 50
139.5576188249
 51
143.1386050445
  0
ARC
  5
106
330
F4
100
AcDbEntity
  8
0
  6
Continuous
 62
     0
370
     0
100
AcDbCircle
 10
-31.1126983722
 20
-31.1126983722
 30
0.0
 40
44.00000000000002
100
AcDbArc
 50
126.8613949555
 51
130.4423811751
  0
LINE
  5
107
330
F4
100
AcDbEntity
  8
0
  6
Continuous
 62
     0
370
     0
100
AcDbLine
 10
0.0
 20
0.0
 30
0.0
 11
2.4748737342
 21
2.4748737342
 31
0.0
  0
LINE
  5
108
330
F4
100
AcDbEntity
  8
0
  6
Continuous
 62
     0
370
     0
100
AcDbLine
 10
0.0
 20
0.0
 30
0.0
 11
-2.4748737342
 21
-2.4748737342
 31
0.0
  0
LINE
  5
109
330
F4
100
AcDbEntity
  8
0
  6
Continuous
 62
     0
370
     0
100
AcDbLine
 10
2.4748737342
 20
2.4748737342
 30
0.0
 11
4.4194173824
 21
4.4194173824
 31
0.0
  0
LINE
  5
10A
330
F4
100
AcDbEntity
  8
0
  6
Continuous
 62
     0
370
     0
100
AcDbLine
 10
-2.4748737342
 20
-2.4748737342
 30
0.0
 11
-4.4194173824
 21
-4.4194173824
 31
0.0
  0
LINE
  5
10B
330
F4
100
AcDbEntity
  8
0
  6
Continuous
 62
     0
370
     0
100
AcDbLine
 10
0.0
 20
-62.2253967444
 30
0.0
 11
2.4748737342
 21
-64.7002704786
 31
0.0
  0
LINE
  5
10C
330
F4
100
AcDbEntity
  8
0
  6
Continuous
 62
     0
370
     0
100
AcDbLine
 10
0.0
 20
-62.2253967444
 30
0.0
 11
-2.4748737342
 21
-59.7505230103
 31
0.0
  0
LINE
  5
10D
330
F4
100
AcDbEntity
  8
0
  6
Continuous
 62
     0
370
     0
100
AcDbLine
 10
2.4748737342
 20
-64.7002704786
 30
0.0
 11
4.4194173824
 21
-66.6448141268
 31
0.0
  0
LINE
  5
10E
330
F4
100
AcDbEntity
  8
0
  6
Continuous
 62
     0
370
     0
100
AcDbLine
 10
-2.4748737342
 20
-59.7505230103
 30
0.0
 11
-4.4194173824
 21
-57.805979362
 31
0.0
  0
LINE
  5
10F
330
F4
100
AcDbEntity
  8
0
  6
Continuous
 62
     0
370
     0
100
AcDbLine
 10
-62.2253967444
 20
-62.2253967444
 30
0.0
 11
-64.7002704786
 21
-64.7002704786
 31
0.0
  0
LINE
  5
110
330
F4
100
AcDbEntity
  8
0
  6
Continuous
 62
     0
370
     0
100
AcDbLine
 10
-62.2253967444
 20
-62.2253967444
 30
0.0
 11
-59.7505230103
 21
-59.7505230103
 31
0.0
  0
LINE
  5
111
330
F4
100
AcDbEntity
  8
0
  6
Continuous
 62
     0
370
     0
100
AcDbLine
 10
-64.7002704786
 20
-64.7002704786
 30
0.0
 11
-66.6448141268
 21
-66.6448141268
 31
0.0
  0
LINE
  5
112
330
F4
100
AcDbEntity
  8
0
  6
Continuous
 62
     0
370
     0
100
AcDbLine
 10
-59.7505230103
 20
-59.7505230103
 30
0.0
 11
-57.805979362
 21
-57.805979362
 31
0.0
  0
LINE
  5
113
330
F4
100
AcDbEntity
  8
0
  6
Continuous
 62
     0
370
     0
100
AcDbLine
 10
-62.2253967444
 20
0.0
 30
0.0
 11
-64.7002704786
 21
2.4748737342
 31
0.0
  0
LINE
  5
114
330
F4
100
AcDbEntity
  8
0
  6
Continuous
 62
     0
370
     0
100
AcDbLine
 10
-62.2253967444
 20
0.0
 30
0.0
 11
-59.7505230103
 21
-2.4748737342
 31
0.0
  0
LINE
  5
115
330
F4
100
AcDbEntity
  8
0
  6
Continuous
 62
     0
370
     0
100
AcDbLine
 10
-64.7002704786
 20
2.4748737342
 30
0.0
 11
-66.6448141268
 21
4.4194173824
 31
0.0
  0
LINE
  5
116
330
F4
100
AcDbEntity
  8
0
  6
Continuous
 62
     0
370
     0
100
AcDbLine
 10
-59.7505230103
 20
-2.4748737342
 30
0.0
 11
-57.805979362
 21
-4.4194173824
 31
0.0
  0
ENDBLK
  5
F6
330
F4
100
AcDbEntity
  8
0
100
AcDbBlockEnd
  0
BLOCK
  5
119
330
118
100
AcDbEntity
  8
0
100
AcDbBlockBegin
  2
SW_CENTERMARKSYMBOL_2
 70
     0
 10
0.0
 20
0.0
 30
0.0
  3
SW_CENTERMARKSYMBOL_2
  1

  0
LINE
  5
11B
330
118
100
AcDbEntity
  8
0
  6
Continuous
 62
     0
370
     0
100
AcDbLine
 10
0.0
 20
0.0
 30
0.0
 11
0.0
 21
4.0
 31
0.0
  0
LINE
  5
11C
330
118
100
AcDbEntity
  8
0
  6
Continuous
 62
     0
370
     0
100
AcDbLine
 10
0.0
 20
0.0
 30
0.0
 11
-4.0
 21
0.0
 31
0.0
  0
LINE
  5
11D
330
118
100
AcDbEntity
  8
0
  6
Continuous
 62
     0
370
     0
100
AcDbLine
 10
0.0
 20
0.0
 30
0.0
 11
0.0
 21
-4.0
 31
0.0
  0
LINE
  5
11E
330
118
100
AcDbEntity
  8
0
  6
Continuous
 62
     0
370
     0
100
AcDbLine
 10
0.0
 20
0.0
 30
0.0
 11
4.0
 21
0.0
 31
0.0
  0
LINE
  5
11F
330
118
100
AcDbEntity
  8
0
  6
Continuous
 62
     0
370
     0
100
AcDbLine
 10
0.0
 20
8.0
 30
0.0
 11
0.0
 21
41.0
 31
0.0
  0
LINE
  5
120
330
118
100
AcDbEntity
  8
0
  6
Continuous
 62
     0
370
     0
100
AcDbLine
 10
-8.0
 20
0.0
 30
0.0
 11
-41.0
 21
0.0
 31
0.0
  0
LINE
  5
121
330
118
100
AcDbEntity
  8
0
  6
Continuous
 62
     0
370
     0
100
AcDbLine
 10
0.0
 20
-8.0
 30
0.0
 11
0.0
 21
-41.0
 31
0.0
  0
LINE
  5
122
330
118
100
AcDbEntity
  8
0
  6
Continuous
 62
     0
370
     0
100
AcDbLine
 10
8.0
 20
0.0
 30
0.0
 11
41.0
 21
0.0
 31
0.0
  0
ENDBLK
  5
11A
330
118
100
AcDbEntity
  8
0
100
AcDbBlockEnd
  0
BLOCK
  5
1C2
330
1C1
100
AcDbEntity
  8
0
100
AcDbBlockBegin
  2
SW_CENTERMARKSYMBOL_3
 70
     0
 10
0.0
 20
0.0
 30
0.0
  3
SW_CENTERMARKSYMBOL_3
  1

  0
ARC
  5
1C4
330
1C1
100
AcDbEntity
  8
0
  6
Continuous
 62
     0
370
     0
100
AcDbCircle
 10
-20.2787949072
 20
-28.9611205258
 30
0.0
 40
35.35499999999981
100
AcDbArc
 50
55.0
 51
59.0514622764
  0
ARC
  5
1C5
330
1C1
100
AcDbEntity
  8
0
  6
Continuous
 62
     0
370
     0
100
AcDbCircle
 10
-20.2787949072
 20
-28.9611205258
 30
0.0
 40
35.35499999999981
100
AcDbArc
 50
50.9485377236
 51
55.0
  0
ARC
  5
1C6
330
1C1
100
AcDbEntity
  8
0
  6
Continuous
 62
     0
370
     0
100
AcDbCircle
 10
-20.2787949072
 20
-28.9611205258
 30
0.0
 40
35.35500000000026
100
AcDbArc
 50
145.0
 51
149.0514622764
  0
ARC
  5
1C7
330
1C1
100
AcDbEntity
  8
0
  6
Continuous
 62
     0
370
     0
100
AcDbCircle
 10
-20.2787949072
 20
-28.9611205258
 30
0.0
 40
35.35500000000026
100
AcDbArc
 50
140.9485377236
 51
145.0
  0
ARC
  5
1C8
330
1C1
100
AcDbEntity
  8
0
  6
Continuous
 62
     0
370
     0
100
AcDbCircle
 10
-20.2787949072
 20
-28.9611205258
 30
0.0
 40
35.35500000000017
100
AcDbArc
 50
235.0
 51
239.0514622764
  0
ARC
  5
1C9
330
1C1
100
AcDbEntity
  8
0
  6
Continuous
 62
     0
370
     0
100
AcDbCircle
 10
-20.2787949072
 20
-28.9611205258
 30
0.0
 40
35.35500000000017
100
AcDbArc
 50
230.9485377236
 51
235.0
  0
ARC
  5
1CA
330
1C1
100
AcDbEntity
  8
0
  6
Continuous
 62
     0
370
     0
100
AcDbCircle
 10
-20.2787949072
 20
-28.9611205258
 30
0.0
 40
35.35499999999973
100
AcDbArc
 50
325.0
 51
329.0514622764
  0
ARC
  5
1CB
330
1C1
100
AcDbEntity
  8
0
  6
Continuous
 62
     0
370
     0
100
AcDbCircle
 10
-20.2787949072
 20
-28.9611205258
 30
0.0
 40
35.35499999999973
100
AcDbArc
 50
320.9485377236
 51
325.0
  0
ARC
  5
1CC
330
1C1
100
AcDbEntity
  8
0
  6
CENTERX2
 62
     0
370
     0
100
AcDbCircle
 10
-20.2787949072
 20
-28.9611205258
 30
0.0
 40
35.35500000000023
100
AcDbArc
 50
63.1029245528
 51
136.8970754472
  0
ARC
  5
1CD
330
1C1
100
AcDbEntity
  8
0
  6
CENTERX2
 62
     0
370
     0
100
AcDbCircle
 10
-20.2787949072
 20
-28.9611205258
 30
0.0
 40
35.35500000000024
100
AcDbArc
 50
153.1029245528
 51
226.8970754472
  0
ARC
  5
1CE
330
1C1
100
AcDbEntity
  8
0
  6
CENTERX2
 62
     0
370
     0
100
AcDbCircle
 10
-20.2787949072
 20
-28.9611205258
 30
0.0
 40
35.35500000000018
100
AcDbArc
 50
243.1029245528
 51
316.8970754472
  0
ARC
  5
1CF
330
1C1
100
AcDbEntity
  8
0
  6
CENTERX2
 62
     0
370
     0
100
AcDbCircle
 10
-20.2787949072
 20
-28.9611205258
 30
0.0
 40
35.35499999999979
100
AcDbArc
 50
333.1029245528
 51
46.8970754472
  0
LINE
  5
1D0
330
1C1
100
AcDbEntity
  8
0
  6
Continuous
 62
     0
370
     0
100
AcDbLine
 10
0.0
 20
0.0
 30
0.0
 11
1.4339410909
 21
2.0478801107
 31
0.0
  0
LINE
  5
1D1
330
1C1
100
AcDbEntity
  8
0
  6
Continuous
 62
     0
370
     0
100
AcDbLine
 10
0.0
 20
0.0
 30
0.0
 11
-1.4339410909
 21
-2.0478801107
 31
0.0
  0
LINE
  5
1D2
330
1C1
100
AcDbEntity
  8
0
  6
Continuous
 62
     0
370
     0
100
AcDbLine
 10
1.4339410909
 20
2.0478801107
 30
0.0
 11
2.7531668945
 21
3.9319298126
 31
0.0
  0
LINE
  5
1D3
330
1C1
100
AcDbEntity
  8
0
  6
Continuous
 62
     0
370
     0
100
AcDbLine
 10
-1.4339410909
 20
-2.0478801107
 30
0.0
 11
-2.7531668945
 21
-3.9319298126
 31
0.0
  0
LINE
  5
1D4
330
1C1
100
AcDbEntity
  8
0
  6
Continuous
 62
     0
370
     0
100
AcDbLine
 10
-49.239915433
 20
-8.6823256186
 30
0.0
 11
-51.2877955438
 21
-7.2483845278
 31
0.0
  0
LINE
  5
1D5
330
1C1
100
AcDbEntity
  8
0
  6
Continuous
 62
     0
370
     0
100
AcDbLine
 10
-49.239915433
 20
-8.6823256186
 30
0.0
 11
-47.1920353223
 21
-10.1162667095
 31
0.0
  0
LINE
  5
1D6
330
1C1
100
AcDbEntity
  8
0
  6
Continuous
 62
     0
370
     0
100
AcDbLine
 10
-51.2877955438
 20
-7.2483845278
 30
0.0
 11
-53.1718452456
 21
-5.9291587242
 31
0.0
  0
LINE
  5
1D7
330
1C1
100
AcDbEntity
  8
0
  6
Continuous
 62
     0
370
     0
100
AcDbLine
 10
-47.1920353223
 20
-10.1162667095
 30
0.0
 11
-45.3079856204
 21
-11.4354925131
 31
0.0
  0
LINE
  5
1D8
330
1C1
100
AcDbEntity
  8
0
  6
Continuous
 62
     0
370
     0
100
AcDbLine
 10
-40.5575898144
 20
-57.9222410517
 30
0.0
 11
-41.9915309053
 21
-59.9701211624
 31
0.0
  0
LINE
  5
1D9
330
1C1
100
AcDbEntity
  8
0
  6
Continuous
 62
     0
370
     0
100
AcDbLine
 10
-40.5575898144
 20
-57.9222410517
 30
0.0
 11
-39.1236487235
 21
-55.874360941
 31
0.0
  0
LINE
  5
1DA
330
1C1
100
AcDbEntity
  8
0
  6
Continuous
 62
     0
370
     0
100
AcDbLine
 10
-41.9915309053
 20
-59.9701211624
 30
0.0
 11
-43.3107567089
 21
-61.8541708643
 31
0.0
  0
LINE
  5
1DB
330
1C1
100
AcDbEntity
  8
0
  6
Continuous
 62
     0
370
     0
100
AcDbLine
 10
-39.1236487235
 20
-55.874360941
 30
0.0
 11
-37.8044229199
 21
-53.9903112391
 31
0.0
  0
LINE
  5
1DC
330
1C1
100
AcDbEntity
  8
0
  6
Continuous
 62
     0
370
     0
100
AcDbLine
 10
8.6823256186
 20
-49.239915433
 30
0.0
 11
10.7302057294
 21
-50.6738565239
 31
0.0
  0
LINE
  5
1DD
330
1C1
100
AcDbEntity
  8
0
  6
Continuous
 62
     0
370
     0
100
AcDbLine
 10
8.6823256186
 20
-49.239915433
 30
0.0
 11
6.6344455079
 21
-47.8059743422
 31
0.0
  0
LINE
  5
1DE
330
1C1
100
AcDbEntity
  8
0
  6
Continuous
 62
     0
370
     0
100
AcDbLine
 10
10.7302057294
 20
-50.6738565239
 30
0.0
 11
12.6142554312
 21
-51.9930823275
 31
0.0
  0
LINE
  5
1DF
330
1C1
100
AcDbEntity
  8
0
  6
Continuous
 62
     0
370
     0
100
AcDbLine
 10
6.6344455079
 20
-47.8059743422
 30
0.0
 11
4.7503958061
 21
-46.4867485385
 31
0.0
  0
ENDBLK
  5
1C3
330
1C1
100
AcDbEntity
  8
0
100
AcDbBlockEnd
  0
BLOCK
  5
1E2
330
1E1
100
AcDbEntity
  8
0
100
AcDbBlockBegin
  2
SW_CENTERMARKSYMBOL_4
 70
     0
 10
0.0
 20
0.0
 30
0.0
  3
SW_CENTERMARKSYMBOL_4
  1

  0
ARC
  5
1E4
330
1E1
100
AcDbEntity
  8
0
  6
Continuous
 62
     0
370
     0
100
AcDbCircle
 10
-31.1126983722
 20
-31.1126983722
 30
0.0
 40
43.99999999999977
100
AcDbArc
 50
45.0
 51
48.9065304213
  0
ARC
  5
1E5
330
1E1
100
AcDbEntity
  8
0
  6
Continuous
 62
     0
370
     0
100
AcDbCircle
 10
-31.1126983722
 20
-31.1126983722
 30
0.0
 40
43.99999999999977
100
AcDbArc
 50
41.0934695787
 51
45.0
  0
ARC
  5
1E6
330
1E1
100
AcDbEntity
  8
0
  6
Continuous
 62
     0
370
     0
100
AcDbCircle
 10
-31.1126983722
 20
-31.1126983722
 30
0.0
 40
44.00000000000021
100
AcDbArc
 50
135.0
 51
138.9065304213
  0
ARC
  5
1E7
330
1E1
100
AcDbEntity
  8
0
  6
Continuous
 62
     0
370
     0
100
AcDbCircle
 10
-31.1126983722
 20
-31.1126983722
 30
0.0
 40
44.00000000000021
100
AcDbArc
 50
131.0934695787
 51
135.0
  0
ARC
  5
1E8
330
1E1
100
AcDbEntity
  8
0
  6
Continuous
 62
     0
370
     0
100
AcDbCircle
 10
-31.1126983722
 20
-31.1126983722
 30
0.0
 40
44.00000000000022
100
AcDbArc
 50
225.0
 51
228.9065304213
  0
ARC
  5
1E9
330
1E1
100
AcDbEntity
  8
0
  6
Continuous
 62
     0
370
     0
100
AcDbCircle
 10
-31.1126983722
 20
-31.1126983722
 30
0.0
 40
44.00000000000021
100
AcDbArc
 50
221.0934695787
 51
225.0
  0
ARC
  5
1EA
330
1E1
100
AcDbEntity
  8
0
  6
Continuous
 62
     0
370
     0
100
AcDbCircle
 10
-31.1126983722
 20
-31.1126983722
 30
0.0
 40
43.99999999999977
100
AcDbArc
 50
315.0
 51
318.9065304213
  0
ARC
  5
1EB
330
1E1
100
AcDbEntity
  8
0
  6
Continuous
 62
     0
370
     0
100
AcDbCircle
 10
-31.1126983722
 20
-31.1126983722
 30
0.0
 40
43.99999999999977
100
AcDbArc
 50
311.0934695787
 51
315.0
  0
ARC
  5
1EC
330
1E1
100
AcDbEntity
  8
0
  6
CENTERX2
 62
     0
370
     0
100
AcDbCircle
 10
-31.1126983722
 20
-31.1126983722
 30
0.0
 40
44.00000000000018
100
AcDbArc
 50
52.8130608427
 51
127.1869391573
  0
ARC
  5
1ED
330
1E1
100
AcDbEntity
  8
0
  6
CENTERX2
 62
     0
370
     0
100
AcDbCircle
 10
-31.1126983722
 20
-31.1126983722
 30
0.0
 40
44.00000000000021
100
AcDbArc
 50
142.8130608427
 51
217.1869391573
  0
ARC
  5
1EE
330
1E1
100
AcDbEntity
  8
0
  6
CENTERX2
 62
     0
370
     0
100
AcDbCircle
 10
-31.1126983722
 20
-31.1126983722
 30
0.0
 40
44.00000000000022
100
AcDbArc
 50
232.8130608427
 51
307.1869391573
  0
ARC
  5
1EF
330
1E1
100
AcDbEntity
  8
0
  6
CENTERX2
 62
     0
370
     0
100
AcDbCircle
 10
-31.1126983722
 20
-31.1126983722
 30
0.0
 40
43.99999999999977
100
AcDbArc
 50
322.8130608427
 51
37.1869391573
  0
LINE
  5
1F0
330
1E1
100
AcDbEntity
  8
0
  6
Continuous
 62
     0
370
     0
100
AcDbLine
 10
0.0
 20
0.0
 30
0.0
 11
2.1213203436
 21
2.1213203436
 31
0.0
  0
LINE
  5
1F1
330
1E1
100
AcDbEntity
  8
0
  6
Continuous
 62
     0
370
     0
100
AcDbLine
 10
0.0
 20
0.0
 30
0.0
 11
-2.1213203436
 21
-2.1213203436
 31
0.0
  0
LINE
  5
1F2
330
1E1
100
AcDbEntity
  8
0
  6
Continuous
 62
     0
370
     0
100
AcDbLine
 10
2.1213203436
 20
2.1213203436
 30
0.0
 11
4.0658639918
 21
4.0658639918
 31
0.0
  0
LINE
  5
1F3
330
1E1
100
AcDbEntity
  8
0
  6
Continuous
 62
     0
370
     0
100
AcDbLine
 10
-2.1213203436
 20
-2.1213203436
 30
0.0
 11
-4.0658639918
 21
-4.0658639918
 31
0.0
  0
LINE
  5
1F4
330
1E1
100
AcDbEntity
  8
0
  6
Continuous
 62
     0
370
     0
100
AcDbLine
 10
-62.2253967444
 20
0.0
 30
0.0
 11
-64.346717088
 21
2.1213203436
 31
0.0
  0
LINE
  5
1F5
330
1E1
100
AcDbEntity
  8
0
  6
Continuous
 62
     0
370
     0
100
AcDbLine
 10
-62.2253967444
 20
0.0
 30
0.0
 11
-60.1040764009
 21
-2.1213203436
 31
0.0
  0
LINE
  5
1F6
330
1E1
100
AcDbEntity
  8
0
  6
Continuous
 62
     0
370
     0
100
AcDbLine
 10
-64.346717088
 20
2.1213203436
 30
0.0
 11
-66.2912607362
 21
4.0658639918
 31
0.0
  0
LINE
  5
1F7
330
1E1
100
AcDbEntity
  8
0
  6
Continuous
 62
     0
370
     0
100
AcDbLine
 10
-60.1040764009
 20
-2.1213203436
 30
0.0
 11
-58.1595327526
 21
-4.0658639918
 31
0.0
  0
LINE
  5
1F8
330
1E1
100
AcDbEntity
  8
0
  6
Continuous
 62
     0
370
     0
100
AcDbLine
 10
-62.2253967444
 20
-62.2253967444
 30
0.0
 11
-64.346717088
 21
-64.346717088
 31
0.0
  0
LINE
  5
1F9
330
1E1
100
AcDbEntity
  8
0
  6
Continuous
 62
     0
370
     0
100
AcDbLine
 10
-62.2253967444
 20
-62.2253967444
 30
0.0
 11
-60.1040764009
 21
-60.1040764009
 31
0.0
  0
LINE
  5
1FA
330
1E1
100
AcDbEntity
  8
0
  6
Continuous
 62
     0
370
     0
100
AcDbLine
 10
-64.346717088
 20
-64.346717088
 30
0.0
 11
-66.2912607362
 21
-66.2912607362
 31
0.0
  0
LINE
  5
1FB
330
1E1
100
AcDbEntity
  8
0
  6
Continuous
 62
     0
370
     0
100
AcDbLine
 10
-60.1040764009
 20
-60.1040764009
 30
0.0
 11
-58.1595327526
 21
-58.1595327526
 31
0.0
  0
LINE
  5
1FC
330
1E1
100
AcDbEntity
  8
0
  6
Continuous
 62
     0
370
     0
100
AcDbLine
 10
0.0
 20
-62.2253967444
 30
0.0
 11
2.1213203436
 21
-64.346717088
 31
0.0
  0
LINE
  5
1FD
330
1E1
100
AcDbEntity
  8
0
  6
Continuous
 62
     0
370
     0
100
AcDbLine
 10
0.0
 20
-62.2253967444
 30
0.0
 11
-2.1213203436
 21
-60.1040764009
 31
0.0
  0
LINE
  5
1FE
330
1E1
100
AcDbEntity
  8
0
  6
Continuous
 62
     0
370
     0
100
AcDbLine
 10
2.1213203436
 20
-64.346717088
 30
0.0
 11
4.0658639918
 21
-66.2912607362
 31
0.0
  0
LINE
  5
1FF
330
1E1
100
AcDbEntity
  8
0
  6
Continuous
 62
     0
370
     0
100
AcDbLine
 10
-2.1213203436
 20
-60.1040764009
 30
0.0
 11
-4.0658639918
 21
-58.1595327526
 31
0.0
  0
ENDBLK
  5
1E3
330
1E1
100
AcDbEntity
  8
0
100
AcDbBlockEnd
  0
BLOCK
  5
202
330
201
100
AcDbEntity
  8
0
100
AcDbBlockBegin
  2
SW_CENTERMARKSYMBOL_5
 70
     0
 10
0.0
 20
0.0
 30
0.0
  3
SW_CENTERMARKSYMBOL_5
  1

  0
LINE
  5
204
330
201
100
AcDbEntity
  8
0
  6
Continuous
 62
     0
370
     0
100
AcDbLine
 10
0.0
 20
0.0
 30
0.0
 11
0.0
 21
4.0
 31
0.0
  0
LINE
  5
205
330
201
100
AcDbEntity
  8
0
  6
Continuous
 62
     0
370
     0
100
AcDbLine
 10
0.0
 20
0.0
 30
0.0
 11
-4.0
 21
0.0
 31
0.0
  0
LINE
  5
206
330
201
100
AcDbEntity
  8
0
  6
Continuous
 62
     0
370
     0
100
AcDbLine
 10
0.0
 20
0.0
 30
0.0
 11
0.0
 21
-4.0
 31
0.0
  0
LINE
  5
207
330
201
100
AcDbEntity
  8
0
  6
Continuous
 62
     0
370
     0
100
AcDbLine
 10
0.0
 20
0.0
 30
0.0
 11
4.0
 21
0.0
 31
0.0
  0
LINE
  5
208
330
201
100
AcDbEntity
  8
0
  6
Continuous
 62
     0
370
     0
100
AcDbLine
 10
0.0
 20
8.0
 30
0.0
 11
0.0
 21
46.0971606513
 31
0.0
  0
LINE
  5
209
330
201
100
AcDbEntity
  8
0
  6
Continuous
 62
     0
370
     0
100
AcDbLine
 10
-8.0
 20
0.0
 30
0.0
 11
-46.155063058
 21
0.0
 31
0.0
  0
LINE
  5
20A
330
201
100
AcDbEntity
  8
0
  6
Continuous
 62
     0
370
     0
100
AcDbLine
 10
0.0
 20
-8.0
 30
0.0
 11
0.0
 21
-45.554820953
 31
0.0
  0
LINE
  5
20B
330
201
100
AcDbEntity
  8
0
  6
Continuous
 62
     0
370
     0
100
AcDbLine
 10
8.0
 20
0.0
 30
0.0
 11
45.8795570106
 21
0.0
 31
0.0
  0
ENDBLK
  5
203
330
201
100
AcDbEntity
  8
0
100
AcDbBlockEnd
  0
BLOCK
  5
33A
330
339
100
AcDbEntity
  8
0
100
AcDbBlockBegin
  2
SW_NOTE_0
 70
     0
 10
0.0
 20
0.0
 30
0.0
  3
SW_NOTE_0
  1

  0
ARC
  5
33C
330
339
100
AcDbEntity
  8
注記
 62
     0
100
AcDbCircle
 10
-0.0390354426
 20
-11.2888118667
 30
0.0
 40
14.05189620758485
100
AcDbArc
 50
90.0
 51
270.0
  0
ARC
  5
33D
330
339
100
AcDbEntity
  8
注記
 62
     0
100
AcDbCircle
 10
79.881124238
 20
-11.2888118667
 30
0.0
 40
14.05189620758485
100
AcDbArc
 50
270.0
 51
90.0
  0
LINE
  5
33E
330
339
100
AcDbEntity
  8
注記
 62
     0
100
AcDbLine
 10
-0.0390354426
 20
2.7630843409
 30
0.0
 11
79.881124238
 21
2.7630843409
 31
0.0
  0
LINE
  5
33F
330
339
100
AcDbEntity
  8
注記
 62
     0
100
AcDbLine
 10
79.881124238
 20
-25.3407080743
 30
0.0
 11
-0.0390354426
 21
-25.3407080743
 31
0.0
  0
MTEXT
  5
341
330
339
100
AcDbEntity
  8
注記
 62
     0
100
AcDbMText
 10
0.0
 20
2.7285267159
 30
0.0
 40
2.1166666667
 41
0.0
 71
     1
 72
     1
  1
The reference drawing
  7
SLDTEXTSTYLE0
 73
     1
 44
1.0
  0
MTEXT
  5
342
330
339
100
AcDbEntity
  8
注記
 62
     0
100
AcDbMText
 10
0.0
 20
-0.0936954723
 30
0.0
 40
2.1166666667
 41
0.0
 71
     1
 72
     1
  1
All speciffcations and dimensions mentioned in the drawing are
  7
SLDTEXTSTYLE0
 73
     1
 44
1.0
  0
MTEXT
  5
343
330
339
100
AcDbEntity
  8
注記
 62
     0
100
AcDbMText
 10
0.0
 20
-2.9159176604
 30
0.0
 40
2.1166666667
 41
0.0
 71
     1
 72
     1
  1
subject to change without notification.
  7
SLDTEXTSTYLE0
 73
     1
 44
1.0
  0
MTEXT
  5
344
330
339
100
AcDbEntity
  8
注記
 62
     0
100
AcDbMText
 10
0.0
 20
-5.7381398485
 30
0.0
 40
2.1166666667
 41
0.0
 71
     1
 72
     1
  1
This drawing itself is also a property of Harmonic Drive systems,Inc.
  7
SLDTEXTSTYLE0
 73
     1
 44
1.0
  0
MTEXT
  5
345
330
339
100
AcDbEntity
  8
注記
 62
     0
100
AcDbMText
 10
0.0
 20
-11.3825842247
 30
0.0
 40
2.1166666667
 41
0.0
 71
     1
 72
     1
  1
Harmonic Drive Systems,Inc.
  7
SLDTEXTSTYLE0
 73
     1
 44
1.0
  0
MTEXT
  5
346
330
339
100
AcDbEntity
  8
注記
 62
     0
100
AcDbMText
 10
0.0
 20
-14.2048064128
 30
0.0
 40
2.1166666667
 41
0.0
 71
     1
 72
     1
  1
Believe Omori Minamiohi 6-25-3 Shinagawa-ku Tokyo 140-0013
  7
SLDTEXTSTYLE0
 73
     1
 44
1.0
  0
MTEXT
  5
347
330
339
100
AcDbEntity
  8
注記
 62
     0
100
AcDbMText
 10
0.0
 20
-17.027028601
 30
0.0
 40
2.1166666667
 41
0.0
 71
     1
 72
     1
  1
Japan
  7
SLDTEXTSTYLE0
 73
     1
 44
1.0
  0
MTEXT
  5
348
330
339
100
AcDbEntity
  8
注記
 62
     0
100
AcDbMText
 10
0.0
 20
-19.8492507891
 30
0.0
 40
2.1166666667
 41
0.0
 71
     1
 72
     1
  1
Tel. 03-5471-7800 / Fax. 03-5471-7811
  7
SLDTEXTSTYLE0
 73
     1
 44
1.0
  0
MTEXT
  5
349
330
339
100
AcDbEntity
  8
注記
 62
     0
100
AcDbMText
 10
0.0
 20
-22.6714729772
 30
0.0
 40
2.1166666667
 41
0.0
 71
     1
 72
     1
  1
http://www.hds.co.jp
  7
SLDTEXTSTYLE0
 73
     1
 44
1.0
  0
ENDBLK
  5
33B
330
339
100
AcDbEntity
  8
0
100
AcDbBlockEnd
  0
BLOCK
  5
34D
330
34C
100
AcDbEntity
  8
0
100
AcDbBlockBegin
  2
SW_CENTERMARKSYMBOL_6
 70
     0
 10
0.0
 20
0.0
 30
0.0
  3
SW_CENTERMARKSYMBOL_6
  1

  0
LINE
  5
34F
330
34C
100
AcDbEntity
  8
0
  6
Continuous
 62
     0
370
     0
100
AcDbLine
 10
0.0
 20
0.0
 30
0.0
 11
0.0
 21
2.0
 31
0.0
  0
LINE
  5
350
330
34C
100
AcDbEntity
  8
0
  6
Continuous
 62
     0
370
     0
100
AcDbLine
 10
0.0
 20
0.0
 30
0.0
 11
-2.0
 21
0.0
 31
0.0
  0
LINE
  5
351
330
34C
100
AcDbEntity
  8
0
  6
Continuous
 62
     0
370
     0
100
AcDbLine
 10
0.0
 20
0.0
 30
0.0
 11
0.0
 21
-2.0
 31
0.0
  0
LINE
  5
352
330
34C
100
AcDbEntity
  8
0
  6
Continuous
 62
     0
370
     0
100
AcDbLine
 10
0.0
 20
0.0
 30
0.0
 11
2.0
 21
0.0
 31
0.0
  0
LINE
  5
353
330
34C
100
AcDbEntity
  8
0
  6
Continuous
 62
     0
370
     0
100
AcDbLine
 10
0.0
 20
2.0
 30
0.0
 11
0.0
 21
10.7103580884
 31
0.0
  0
LINE
  5
354
330
34C
100
AcDbEntity
  8
0
  6
Continuous
 62
     0
370
     0
100
AcDbLine
 10
-2.0
 20
0.0
 30
0.0
 11
-26.8830656784
 21
0.0
 31
0.0
  0
LINE
  5
355
330
34C
100
AcDbEntity
  8
0
  6
Continuous
 62
     0
370
     0
100
AcDbLine
 10
0.0
 20
-2.0
 30
0.0
 11
0.0
 21
-3.65
 31
0.0
  0
LINE
  5
356
330
34C
100
AcDbEntity
  8
0
  6
Continuous
 62
     0
370
     0
100
AcDbLine
 10
2.0
 20
0.0
 30
0.0
 11
13.8102323496
 21
0.0
 31
0.0
  0
ENDBLK
  5
34E
330
34C
100
AcDbEntity
  8
0
100
AcDbBlockEnd
  0
BLOCK
  5
452
330
451
100
AcDbEntity
  8
0
100
AcDbBlockBegin
  2
SW_CENTERMARKSYMBOL_7
 70
     0
 10
0.0
 20
0.0
 30
0.0
  3
SW_CENTERMARKSYMBOL_7
  1

  0
LINE
  5
454
330
451
100
AcDbEntity
  8
0
  6
Continuous
 62
     0
370
     0
100
AcDbLine
 10
0.0
 20
0.0
 30
0.0
 11
0.0
 21
2.0
 31
0.0
  0
LINE
  5
455
330
451
100
AcDbEntity
  8
0
  6
Continuous
 62
     0
370
     0
100
AcDbLine
 10
0.0
 20
0.0
 30
0.0
 11
-2.0
 21
0.0
 31
0.0
  0
LINE
  5
456
330
451
100
AcDbEntity
  8
0
  6
Continuous
 62
     0
370
     0
100
AcDbLine
 10
0.0
 20
0.0
 30
0.0
 11
0.0
 21
-2.0
 31
0.0
  0
LINE
  5
457
330
451
100
AcDbEntity
  8
0
  6
Continuous
 62
     0
370
     0
100
AcDbLine
 10
0.0
 20
0.0
 30
0.0
 11
2.0
 21
0.0
 31
0.0
  0
LINE
  5
458
330
451
100
AcDbEntity
  8
0
  6
Continuous
 62
     0
370
     0
100
AcDbLine
 10
0.0
 20
2.0
 30
0.0
 11
0.0
 21
3.65
 31
0.0
  0
LINE
  5
459
330
451
100
AcDbEntity
  8
0
  6
Continuous
 62
     0
370
     0
100
AcDbLine
 10
-2.0
 20
0.0
 30
0.0
 11
-39.5624387465
 21
0.0
 31
0.0
  0
LINE
  5
45A
330
451
100
AcDbEntity
  8
0
  6
Continuous
 62
     0
370
     0
100
AcDbLine
 10
0.0
 20
-2.0
 30
0.0
 11
0.0
 21
-11.4572412014
 31
0.0
  0
LINE
  5
45B
330
451
100
AcDbEntity
  8
0
  6
Continuous
 62
     0
370
     0
100
AcDbLine
 10
2.0
 20
0.0
 30
0.0
 11
5.3995837596
 21
0.0
 31
0.0
  0
ENDBLK
  5
453
330
451
100
AcDbEntity
  8
0
100
AcDbBlockEnd
  0
ENDSEC
  0
SECTION
  2
ENTITIES
  0
CIRCLE
  5
49
330
1F
100
AcDbEntity
  8
0
  6
Continuous
 62
     7
370
    30
100
AcDbCircle
 10
51.725859332
 20
182.1768477495
 30
0.0
 40
2.099999999999994
  0
CIRCLE
  5
4A
330
1F
100
AcDbEntity
  8
0
  6
Continuous
 62
     7
370
    30
100
AcDbCircle
 10
51.725859332
 20
182.1768477495
 30
0.0
 40
2.649999999999999
  0
CIRCLE
  5
4B
330
1F
100
AcDbEntity
  8
0
  6
Continuous
 62
     7
370
    30
100
AcDbCircle
 10
70.7784182153
 20
171.1768477495
 30
0.0
 40
25.45
  0
CIRCLE
  5
4C
330
1F
100
AcDbEntity
  8
0
  6
Continuous
 62
     7
370
    30
100
AcDbCircle
 10
70.7784182153
 20
171.1768477495
 30
0.0
 40
26.25
  0
CIRCLE
  5
4D
330
1F
100
AcDbEntity
  8
0
  6
Continuous
 62
     7
370
    30
100
AcDbCircle
 10
70.7784182153
 20
193.1768477495
 30
0.0
 40
2.650000000000006
  0
CIRCLE
  5
4E
330
1F
100
AcDbEntity
  8
0
  6
Continuous
 62
     7
370
    30
100
AcDbCircle
 10
89.8309770985
 20
160.1768477495
 30
0.0
 40
2.650000000000006
  0
CIRCLE
  5
4F
330
1F
100
AcDbEntity
  8
0
  6
Continuous
 62
     7
370
    30
100
AcDbCircle
 10
51.725859332
 20
160.1768477495
 30
0.0
 40
2.649999999999999
  0
CIRCLE
  5
50
330
1F
100
AcDbEntity
  8
0
  6
Continuous
 62
     7
370
    30
100
AcDbCircle
 10
92.7784182153
 20
171.1768477495
 30
0.0
 40
3.0
  0
CIRCLE
  5
51
330
1F
100
AcDbEntity
  8
0
  6
Continuous
 62
     7
370
    30
100
AcDbCircle
 10
70.7784182153
 20
149.1768477495
 30
0.0
 40
2.650000000000006
  0
CIRCLE
  5
52
330
1F
100
AcDbEntity
  8
0
  6
Continuous
 62
     7
370
    30
100
AcDbCircle
 10
89.8309770985
 20
182.1768477495
 30
0.0
 40
2.649999999999991
  0
CIRCLE
  5
53
330
1F
100
AcDbEntity
  8
0
  6
Continuous
 62
     7
370
    30
100
AcDbCircle
 10
70.7784182153
 20
171.1768477495
 30
0.0
 40
12.0
  0
CIRCLE
  5
54
330
1F
100
AcDbEntity
  8
0
  6
Continuous
 62
     7
370
    30
100
AcDbCircle
 10
48.7784182153
 20
171.1768477495
 30
0.0
 40
3.0
  0
CIRCLE
  5
55
330
1F
100
AcDbEntity
  8
0
  6
Continuous
 62
     7
370
    30
100
AcDbCircle
 10
51.725859332
 20
160.1768477495
 30
0.0
 40
2.100000000000001
  0
CIRCLE
  5
56
330
1F
100
AcDbEntity
  8
0
  6
Continuous
 62
     7
370
    30
100
AcDbCircle
 10
89.8309770985
 20
182.1768477495
 30
0.0
 40
2.099999999999994
  0
CIRCLE
  5
57
330
1F
100
AcDbEntity
  8
0
  6
Continuous
 62
     7
370
    30
100
AcDbCircle
 10
89.8309770985
 20
160.1768477495
 30
0.0
 40
2.099999999999994
  0
CIRCLE
  5
58
330
1F
100
AcDbEntity
  8
0
  6
Continuous
 62
     7
370
    30
100
AcDbCircle
 10
70.7784182153
 20
149.1768477495
 30
0.0
 40
2.099999999999994
  0
CIRCLE
  5
59
330
1F
100
AcDbEntity
  8
0
  6
Continuous
 62
     7
370
    30
100
AcDbCircle
 10
70.7784182153
 20
193.1768477495
 30
0.0
 40
2.099999999999994
  0
CIRCLE
  5
5A
330
1F
100
AcDbEntity
  8
0
  6
Continuous
 62
     7
370
    30
100
AcDbCircle
 10
70.7784182153
 20
171.1768477495
 30
0.0
 40
9.399999999999999
  0
CIRCLE
  5
5B
330
1F
100
AcDbEntity
  8
0
  6
Continuous
 62
     7
370
    30
100
AcDbCircle
 10
70.7784182153
 20
171.1768477495
 30
0.0
 40
9.100000000000001
  0
CIRCLE
  5
5C
330
1F
100
AcDbEntity
  8
0
  6
Continuous
 62
     7
370
    30
100
AcDbCircle
 10
48.7784182153
 20
171.1768477495
 30
0.0
 40
2.049999999999997
  0
CIRCLE
  5
5D
330
1F
100
AcDbEntity
  8
0
  6
Continuous
 62
     7
370
    30
100
AcDbCircle
 10
92.7784182153
 20
171.1768477495
 30
0.0
 40
2.049999999999997
  0
LINE
  5
5E
330
1F
100
AcDbEntity
  8
0
  6
Continuous
 62
     7
370
    30
100
AcDbLine
 10
94.7784184239
 20
209.0794972416
 30
0.0
 11
94.7784184239
 21
209.1294943627
 31
0.0
  0
ARC
  5
5F
330
1F
100
AcDbEntity
  8
0
  6
Continuous
 62
     7
370
    30
100
AcDbCircle
 10
94.0285030254
 20
237.7077164859
 30
0.0
 40
28.63803956643778
100
AcDbArc
 50
269.4996520741
 51
271.50051819
  0
ARC
  5
60
330
1F
100
AcDbEntity
  8
0
  6
Continuous
 62
     7
370
    30
100
AcDbCircle
 10
94.0283241252
 20
237.7782100425
 30
0.0
 40
28.65853366031715
100
AcDbArc
 50
269.5003675695
 51
271.4998026946
  0
LINE
  5
61
330
1F
100
AcDbEntity
  8
0
  6
Continuous
 62
     7
370
    30
100
AcDbLine
 10
47.7784181706
 20
209.1766155596
 30
0.0
 11
93.77841826
 21
209.1766155596
 31
0.0
  0
ARC
  5
62
330
1F
100
AcDbEntity
  8
0
  6
Continuous
 62
     7
370
    30
100
AcDbCircle
 10
94.0284314473
 20
180.5192399889
 30
0.0
 40
28.65846613474323
100
AcDbArc
 50
88.5004084093
 51
90.4998481809
  0
LINE
  5
63
330
1F
100
AcDbEntity
  8
0
  6
Continuous
 62
     7
370
    30
100
AcDbLine
 10
94.7784184239
 20
209.1678909298
 30
0.0
 11
94.7784184239
 21
209.1294943627
 31
0.0
  0
LINE
  5
64
330
1F
100
AcDbEntity
  8
0
  6
Continuous
 62
     7
370
    30
100
AcDbLine
 10
93.77841826
 20
209.1207660075
 30
0.0
 11
47.7784181706
 21
209.1207660075
 31
0.0
  0
ARC
  5
65
330
1F
100
AcDbEntity
  8
0
  6
Continuous
 62
     7
370
    30
100
AcDbCircle
 10
47.5285123053
 20
237.7782100425
 30
0.0
 40
28.65853366031712
100
AcDbArc
 50
268.5001973054
 51
270.4996324305
  0
LINE
  5
66
330
1F
100
AcDbEntity
  8
0
  6
Continuous
 62
     7
370
    30
100
AcDbLine
 10
46.7784180066
 20
209.1294943627
 30
0.0
 11
46.7784180066
 21
209.1678909298
 31
0.0
  0
ARC
  5
67
330
1F
100
AcDbEntity
  8
0
  6
Continuous
 62
     7
370
    30
100
AcDbCircle
 10
47.5284049832
 20
180.5192399889
 30
0.0
 40
28.65846613474323
100
AcDbArc
 50
89.5001518191
 51
91.4995915907
  0
ARC
  5
68
330
1F
100
AcDbEntity
  8
0
  6
Continuous
 62
     7
370
    30
100
AcDbCircle
 10
47.5283334052
 20
237.7077164859
 30
0.0
 40
28.63803956643778
100
AcDbArc
 50
268.49948181
 51
270.5003479259
  0
LINE
  5
69
330
1F
100
AcDbEntity
  8
0
  6
Continuous
 62
     7
370
    30
100
AcDbLine
 10
46.7784180066
 20
209.0794972416
 30
0.0
 11
46.7784180066
 21
209.1294943627
 31
0.0
  0
LINE
  5
6A
330
1F
100
AcDbEntity
  8
0
  6
Continuous
 62
     7
370
    30
100
AcDbLine
 10
93.77841826
 20
209.0707688864
 30
0.0
 11
47.7784181706
 21
209.0707688864
 31
0.0
  0
CIRCLE
  5
6B
330
1F
100
AcDbEntity
  8
0
  6
Continuous
 62
     7
370
    30
100
AcDbCircle
 10
70.7784182153
 20
171.1768477495
 30
0.0
 40
32.35000000000001
  0
CIRCLE
  5
6C
330
1F
100
AcDbEntity
  8
0
  6
Continuous
 62
     7
370
    30
100
AcDbCircle
 10
70.7784182153
 20
171.1768477495
 30
0.0
 40
31.8216808912932
  0
CIRCLE
  5
6D
330
1F
100
AcDbEntity
  8
0
  6
Continuous
 62
     7
370
    30
100
AcDbCircle
 10
70.7784182153
 20
171.1768477495
 30
0.0
 40
32.74999999999999
  0
CIRCLE
  5
6E
330
1F
100
AcDbEntity
  8
0
  6
Continuous
 62
     7
370
    30
100
AcDbCircle
 10
70.7784182153
 20
171.1768477495
 30
0.0
 40
27.18096036319226
  0
CIRCLE
  5
6F
330
1F
100
AcDbEntity
  8
0
  6
Continuous
 62
     7
370
    30
100
AcDbCircle
 10
70.7784182153
 20
171.1768477495
 30
0.0
 40
26.41666666666666
  0
CIRCLE
  5
70
330
1F
100
AcDbEntity
  8
0
  6
Continuous
 62
     7
370
    30
100
AcDbCircle
 10
70.7784182153
 20
171.1768477495
 30
0.0
 40
29.65501422462653
  0
CIRCLE
  5
71
330
1F
100
AcDbEntity
  8
0
  6
Continuous
 62
     7
370
    30
100
AcDbCircle
 10
70.7784182153
 20
171.1768477495
 30
0.0
 40
8.800000000000018
  0
CIRCLE
  5
72
330
1F
100
AcDbEntity
  8
0
  6
Continuous
 62
     7
370
    30
100
AcDbCircle
 10
70.7784182153
 20
171.1768477495
 30
0.0
 40
32.93198511713311
  0
CIRCLE
  5
73
330
1F
100
AcDbEntity
  8
0
  6
Continuous
 62
     7
370
    30
100
AcDbCircle
 10
70.7784182153
 20
171.1768477495
 30
0.0
 40
35.99999999999999
  0
CIRCLE
  5
74
330
1F
100
AcDbEntity
  8
0
  6
Continuous
 62
     7
370
    30
100
AcDbCircle
 10
70.7784182153
 20
171.1768477495
 30
0.0
 40
36.3845264801806
  0
CIRCLE
  5
75
330
1F
100
AcDbEntity
  8
0
  6
Continuous
 62
     7
370
    30
100
AcDbCircle
 10
70.7784182153
 20
171.1768477495
 30
0.0
 40
36.5
  0
CIRCLE
  5
76
330
1F
100
AcDbEntity
  8
0
  6
Continuous
 62
     7
370
    30
100
AcDbCircle
 10
70.7784182153
 20
171.1768477495
 30
0.0
 40
36.99999999999999
  0
CIRCLE
  5
77
330
1F
100
AcDbEntity
  8
0
  6
Continuous
 62
     7
370
    30
100
AcDbCircle
 10
101.8911165875
 20
202.2895461217
 30
0.0
 40
3.150000000000006
  0
CIRCLE
  5
78
330
1F
100
AcDbEntity
  8
0
  6
Continuous
 62
     7
370
    30
100
AcDbCircle
 10
39.6657198431
 20
140.0641493773
 30
0.0
 40
3.149999999999999
  0
ARC
  5
79
330
1F
100
AcDbEntity
  8
0
  6
Continuous
 62
     7
370
    30
100
AcDbCircle
 10
70.7784182153
 20
171.1768477495
 30
0.0
 40
49.80000000000025
100
AcDbArc
 50
311.5646230696
 51
318.4353769304
  0
LINE
  5
7A
330
1F
100
AcDbEntity
  8
0
  6
Continuous
 62
     7
370
    30
100
AcDbLine
 10
103.8189417443
 20
133.9160955783
 30
0.0
 11
75.2193814835
 21
133.9160955783
 31
0.0
  0
ARC
  5
7B
330
1F
100
AcDbEntity
  8
0
  6
Continuous
 62
     7
370
    30
100
AcDbCircle
 10
70.7784182153
 20
171.1768477495
 30
0.0
 40
37.52446997518748
100
AcDbArc
 50
263.2032025241
 51
276.7967974759
  0
LINE
  5
7C
330
1F
100
AcDbEntity
  8
0
  6
Continuous
 62
     7
370
    30
100
AcDbLine
 10
66.337454947
 20
133.9160955783
 30
0.0
 11
37.7378946862
 21
133.9160955783
 31
0.0
  0
ARC
  5
7D
330
1F
100
AcDbEntity
  8
0
  6
Continuous
 62
     7
370
    30
100
AcDbCircle
 10
70.7784182153
 20
171.1768477495
 30
0.0
 40
49.80000000000003
100
AcDbArc
 50
221.5646230696
 51
228.4353769304
  0
LINE
  5
7E
330
1F
100
AcDbEntity
  8
0
  6
Continuous
 62
     7
370
    30
100
AcDbLine
 10
33.517666044
 20
138.1363242205
 30
0.0
 11
33.517666044
 21
166.7358844813
 31
0.0
  0
ARC
  5
7F
330
1F
100
AcDbEntity
  8
0
  6
Continuous
 62
     7
370
    30
100
AcDbCircle
 10
70.7784182153
 20
171.1768477495
 30
0.0
 40
37.52446997518748
100
AcDbArc
 50
173.2032025241
 51
186.7967974759
  0
LINE
  5
80
330
1F
100
AcDbEntity
  8
0
  6
Continuous
 62
     7
370
    30
100
AcDbLine
 10
33.517666044
 20
175.6178110178
 30
0.0
 11
33.517666044
 21
204.2173712786
 31
0.0
  0
ARC
  5
81
330
1F
100
AcDbEntity
  8
0
  6
Continuous
 62
     7
370
    30
100
AcDbCircle
 10
70.7784182153
 20
171.1768477495
 30
0.0
 40
49.80000000000008
100
AcDbArc
 50
131.5646230696
 51
138.4353769304
  0
LINE
  5
82
330
1F
100
AcDbEntity
  8
0
  6
Continuous
 62
     7
370
    30
100
AcDbLine
 10
37.7378946862
 20
208.4375999208
 30
0.0
 11
66.337454947
 21
208.4375999208
 31
0.0
  0
ARC
  5
83
330
1F
100
AcDbEntity
  8
0
  6
Continuous
 62
     7
370
    30
100
AcDbCircle
 10
70.7784182153
 20
171.1768477495
 30
0.0
 40
37.52446997518746
100
AcDbArc
 50
83.2032025241
 51
96.7967974759
  0
LINE
  5
84
330
1F
100
AcDbEntity
  8
0
  6
Continuous
 62
     7
370
    30
100
AcDbLine
 10
75.2193814835
 20
208.4375999208
 30
0.0
 11
103.8189417443
 21
208.4375999208
 31
0.0
  0
ARC
  5
85
330
1F
100
AcDbEntity
  8
0
  6
Continuous
 62
     7
370
    30
100
AcDbCircle
 10
70.7784182153
 20
171.1768477495
 30
0.0
 40
49.80000000000006
100
AcDbArc
 50
41.5646230696
 51
48.4353769304
  0
LINE
  5
86
330
1F
100
AcDbEntity
  8
0
  6
Continuous
 62
     7
370
    30
100
AcDbLine
 10
108.0391703865
 20
204.2173712786
 30
0.0
 11
108.0391703865
 21
175.6178110178
 31
0.0
  0
ARC
  5
87
330
1F
100
AcDbEntity
  8
0
  6
Continuous
 62
     7
370
    30
100
AcDbCircle
 10
70.7784182153
 20
171.1768477495
 30
0.0
 40
37.52446997518746
100
AcDbArc
 50
353.2032025241
 51
6.7967974759
  0
LINE
  5
88
330
1F
100
AcDbEntity
  8
0
  6
Continuous
 62
     7
370
    30
100
AcDbLine
 10
108.0391703865
 20
166.7358844813
 30
0.0
 11
108.0391703865
 21
138.1363242205
 31
0.0
  0
CIRCLE
  5
89
330
1F
100
AcDbEntity
  8
0
  6
Continuous
 62
     7
370
    30
100
AcDbCircle
 10
39.6657198431
 20
202.2895461217
 30
0.0
 40
3.149999999999991
  0
CIRCLE
  5
8A
330
1F
100
AcDbEntity
  8
0
  6
Continuous
 62
     7
370
    30
100
AcDbCircle
 10
101.8911165875
 20
140.0641493773
 30
0.0
 40
3.149999999999991
  0
ELLIPSE
  5
8B
330
1F
100
AcDbEntity
  8
0
  6
Continuous
 62
     7
370
    30
100
AcDbEllipse
 10
70.1455362169
 20
171.1768477495
 30
0.0
 11
36.89619047826653
 21
0.0
 31
0.0
210
0.0
220
0.0
230
1.0
 40
0.9998528757
 41
3.020918534529301
 42
3.262266772650295
  0
ELLIPSE
  5
8C
330
1F
100
AcDbEntity
  8
0
  6
Continuous
 62
     7
370
    30
100
AcDbEllipse
 10
-306.8758722308
 20
171.1768477495
 30
0.0
 11
384.3037979455787
 21
0.0
 31
0.0
210
0.0
220
0.0
230
1.0
 40
0.18521903
 41
5.7993367490452
 42
5.800476413582334
  0
ARC
  5
8D
330
1F
100
AcDbEntity
  8
0
  6
Continuous
 62
     7
370
    30
100
AcDbCircle
 10
70.7784182153
 20
171.1768477495
 30
0.0
 40
50.00000000000002
100
AcDbArc
 50
220.7622357691
 51
221.4714779082
  0
LINE
  5
8E
330
1F
100
AcDbEntity
  8
0
  6
Continuous
 62
     7
370
    30
100
AcDbLine
 10
32.9071393928
 20
138.5307728584
 30
0.0
 11
32.9071393928
 21
203.8229226406
 31
0.0
  0
ARC
  5
8F
330
1F
100
AcDbEntity
  8
0
  6
Continuous
 62
     7
370
    30
100
AcDbCircle
 10
70.7784182153
 20
171.1768477495
 30
0.0
 40
50.00000000000001
100
AcDbArc
 50
138.5285220918
 51
139.2377642309
  0
ELLIPSE
  5
90
330
1F
100
AcDbEntity
  8
0
  6
Continuous
 62
     7
370
    30
100
AcDbEllipse
 10
-306.8758722308
 20
171.1768477495
 30
0.0
 11
384.3037979455787
 21
0.0
 31
0.0
210
0.0
220
0.0
230
1.0
 40
0.18521903
 41
0.4827088935973124
 42
0.4838485581344497
  0
ARC
  5
91
330
1F
100
AcDbEntity
  8
0
  6
Continuous
 62
     7
370
    30
100
AcDbCircle
 10
70.7784182153
 20
171.1768477495
 30
0.0
 40
50.00000000000001
100
AcDbArc
 50
131.4714779082
 51
138.5285220918
  0
ELLIPSE
  5
92
330
1F
100
AcDbEntity
  8
0
  6
Continuous
 62
     7
370
    30
100
AcDbEllipse
 10
70.7784182153
 20
548.8311381956
 30
0.0
 11
0.0
 21
384.3037979455789
 31
0.0
210
0.0
220
0.0
230
1.0
 40
0.18521903
 41
2.657744095455345
 42
2.658883759992481
  0
ELLIPSE
  5
93
330
1F
100
AcDbEntity
  8
0
  6
Continuous
 62
     7
370
    30
100
AcDbEllipse
 10
71.4113002136
 20
171.1768477495
 30
0.0
 11
36.89619047826653
 21
0.0
 31
0.0
210
0.0
220
0.0
230
1.0
 40
0.9998528757
 41
6.16251118811911
 42
6.403859426240079
  0
ELLIPSE
  5
94
330
1F
100
AcDbEntity
  8
0
  6
Continuous
 62
     7
370
    30
100
AcDbEllipse
 10
448.4327086613
 20
171.1768477495
 30
0.0
 11
384.3037979455789
 21
0.0
 31
0.0
210
0.0
220
0.0
230
1.0
 40
0.18521903
 41
2.657744095455343
 42
2.658883759992481
  0
ARC
  5
95
330
1F
100
AcDbEntity
  8
0
  6
Continuous
 62
     7
370
    30
100
AcDbCircle
 10
70.7784182153
 20
171.1768477495
 30
0.0
 40
50.0
100
AcDbArc
 50
40.7622357691
 51
41.4714779082
  0
LINE
  5
96
330
1F
100
AcDbEntity
  8
0
  6
Continuous
 62
     7
370
    30
100
AcDbLine
 10
108.6496970377
 20
203.8229226406
 30
0.0
 11
108.6496970377
 21
138.5307728584
 31
0.0
  0
ARC
  5
97
330
1F
100
AcDbEntity
  8
0
  6
Continuous
 62
     7
370
    30
100
AcDbCircle
 10
70.7784182153
 20
171.1768477495
 30
0.0
 40
50.00000000000014
100
AcDbArc
 50
318.5285220918
 51
319.2377642309
  0
ELLIPSE
  5
98
330
1F
100
AcDbEntity
  8
0
  6
Continuous
 62
     7
370
    30
100
AcDbEllipse
 10
448.4327086619
 20
171.1768477495
 30
0.0
 11
384.3037979461537
 21
0.0
 31
0.0
210
0.0
220
0.0
230
1.0
 40
0.18521903
 41
3.624301547186799
 42
3.625441211723933
  0
ELLIPSE
  5
99
330
1F
100
AcDbEntity
  8
0
  6
Continuous
 62
     7
370
    30
100
AcDbEllipse
 10
70.7784182153
 20
548.8311381956
 30
0.0
 11
0.0
 21
384.3037979455789
 31
0.0
210
0.0
220
0.0
230
1.0
 40
0.18521903
 41
3.624301547187164
 42
3.625441211724305
  0
ARC
  5
9A
330
1F
100
AcDbEntity
  8
0
  6
Continuous
 62
     7
370
    30
100
AcDbCircle
 10
70.7784182153
 20
171.1768477495
 30
0.0
 40
50.00000000000025
100
AcDbArc
 50
41.4714779082
 51
48.5285220918
  0
CIRCLE
  5
9B
330
1F
100
AcDbEntity
  8
0
  6
Continuous
 62
     7
370
    30
100
AcDbCircle
 10
39.6657198431
 20
202.2895461217
 30
0.0
 40
2.749999999999993
  0
ELLIPSE
  5
9C
330
1F
100
AcDbEntity
  8
0
  6
Continuous
 62
     7
370
    30
100
AcDbEllipse
 10
70.7784182153
 20
171.8097297479
 30
0.0
 11
0.0
 21
36.89619047826656
 31
0.0
210
0.0
220
0.0
230
1.0
 40
0.9998528757
 41
6.16251118811911
 42
6.403859426240079
  0
ARC
  5
9D
330
1F
100
AcDbEntity
  8
0
  6
Continuous
 62
     7
370
    30
100
AcDbCircle
 10
70.7784182153
 20
171.1768477495
 30
0.0
 40
50.00000000000001
100
AcDbArc
 50
130.7622357691
 51
131.4714779082
  0
LINE
  5
9E
330
1F
100
AcDbEntity
  8
0
  6
Continuous
 62
     7
370
    30
100
AcDbLine
 10
38.1323433242
 20
209.048126572
 30
0.0
 11
103.4244931064
 21
209.048126572
 31
0.0
  0
ARC
  5
9F
330
1F
100
AcDbEntity
  8
0
  6
Continuous
 62
     7
370
    30
100
AcDbCircle
 10
70.7784182153
 20
171.1768477495
 30
0.0
 40
50.00000000000025
100
AcDbArc
 50
48.5285220918
 51
49.2377642309
  0
ELLIPSE
  5
A0
330
1F
100
AcDbEntity
  8
0
  6
Continuous
 62
     7
370
    30
100
AcDbEllipse
 10
70.7784182153
 20
-206.4774426967
 30
0.0
 11
0.0
 21
384.3037979457201
 31
0.0
210
0.0
220
0.0
230
1.0
 40
0.18521903
 41
0.4827088935972195
 42
0.4838485581343562
  0
ARC
  5
A1
330
1F
100
AcDbEntity
  8
0
  6
Continuous
 62
     7
370
    30
100
AcDbCircle
 10
70.7784182153
 20
171.1768477495
 30
0.0
 40
49.99999999999996
100
AcDbArc
 50
221.4714779082
 51
228.5285220918
  0
CIRCLE
  5
A2
330
1F
100
AcDbEntity
  8
0
  6
Continuous
 62
     7
370
    30
100
AcDbCircle
 10
101.8911165875
 20
202.2895461217
 30
0.0
 40
2.75
  0
ELLIPSE
  5
A3
330
1F
100
AcDbEntity
  8
0
  6
Continuous
 62
     7
370
    30
100
AcDbEllipse
 10
70.7784182153
 20
170.5439657512
 30
0.0
 11
0.0
 21
36.8961904782665
 31
0.0
210
0.0
220
0.0
230
1.0
 40
0.9998528757
 41
3.020918534529303
 42
3.262266772650296
  0
ELLIPSE
  5
A4
330
1F
100
AcDbEntity
  8
0
  6
Continuous
 62
     7
370
    30
100
AcDbEllipse
 10
70.7784182153
 20
-206.4774426973
 30
0.0
 11
0.0
 21
384.3037979462947
 31
0.0
210
0.0
220
0.0
230
1.0
 40
0.18521903
 41
5.799336749045657
 42
5.800476413582794
  0
ARC
  5
A5
330
1F
100
AcDbEntity
  8
0
  6
Continuous
 62
     7
370
    30
100
AcDbCircle
 10
70.7784182153
 20
171.1768477495
 30
0.0
 40
50.00000000000018
100
AcDbArc
 50
310.7622357691
 51
311.4714779082
  0
LINE
  5
A6
330
1F
100
AcDbEntity
  8
0
  6
Continuous
 62
     7
370
    30
100
AcDbLine
 10
103.4244931064
 20
133.3055689271
 30
0.0
 11
38.1323433242
 21
133.3055689271
 31
0.0
  0
ARC
  5
A7
330
1F
100
AcDbEntity
  8
0
  6
Continuous
 62
     7
370
    30
100
AcDbCircle
 10
70.7784182153
 20
171.1768477495
 30
0.0
 40
50.00000000000001
100
AcDbArc
 50
228.5285220918
 51
229.2377642309
  0
CIRCLE
  5
A8
330
1F
100
AcDbEntity
  8
0
  6
Continuous
 62
     7
370
    30
100
AcDbCircle
 10
39.6657198431
 20
140.0641493773
 30
0.0
 40
2.749999999999993
  0
ARC
  5
A9
330
1F
100
AcDbEntity
  8
0
  6
Continuous
 62
     7
370
    30
100
AcDbCircle
 10
70.7784182153
 20
171.1768477495
 30
0.0
 40
50.00000000000018
100
AcDbArc
 50
311.4714779082
 51
318.5285220918
  0
CIRCLE
  5
AA
330
1F
100
AcDbEntity
  8
0
  6
Continuous
 62
     7
370
    30
100
AcDbCircle
 10
101.8911165875
 20
140.0641493773
 30
0.0
 40
2.749999999999986
  0
LINE
  5
AB
330
1F
100
AcDbEntity
  8
0
  6
Continuous
 62
     7
370
    30
100
AcDbLine
 10
38.2419972441
 20
133.2113190826
 30
0.0
 11
103.3148391864
 21
133.2113190826
 31
0.0
  0
ARC
  5
AC
330
1F
100
AcDbEntity
  8
0
  6
Continuous
 62
     7
370
    30
100
AcDbCircle
 10
70.7784182153
 20
171.1768477495
 30
0.0
 40
50.00000000000001
100
AcDbArc
 50
310.5965418551
 51
310.7622357691
  0
ARC
  5
AD
330
1F
100
AcDbEntity
  8
0
  6
Continuous
 62
     7
370
    30
100
AcDbCircle
 10
70.7784182153
 20
171.1768477495
 30
0.0
 40
50.00000000000001
100
AcDbArc
 50
229.2377642309
 51
229.4034581449
  0
LINE
  5
AE
330
1F
100
AcDbEntity
  8
0
  6
Continuous
 62
     7
370
    30
100
AcDbLine
 10
103.3148391864
 20
209.1423764165
 30
0.0
 11
94.7784184239
 21
209.1423764165
 31
0.0
  0
LINE
  5
AF
330
1F
100
AcDbEntity
  8
0
  6
Continuous
 62
     7
370
    30
100
AcDbLine
 10
46.7784180066
 20
209.1423764165
 30
0.0
 11
38.2419972441
 21
209.1423764165
 31
0.0
  0
ARC
  5
B0
330
1F
100
AcDbEntity
  8
0
  6
Continuous
 62
     7
370
    30
100
AcDbCircle
 10
70.7784182153
 20
171.1768477495
 30
0.0
 40
50.00000000000001
100
AcDbArc
 50
49.2377642309
 51
49.4034581449
  0
ARC
  5
B1
330
1F
100
AcDbEntity
  8
0
  6
Continuous
 62
     7
370
    30
100
AcDbCircle
 10
70.7784182153
 20
171.1768477495
 30
0.0
 40
50.00000000000001
100
AcDbArc
 50
130.5965418551
 51
130.7622357691
  0
LINE
  5
B2
330
1F
100
AcDbEntity
  8
0
  6
Continuous
 62
     7
370
    30
100
AcDbLine
 10
32.8128895483
 20
203.7132687207
 30
0.0
 11
32.8128895483
 21
138.6404267784
 31
0.0
  0
ARC
  5
B3
330
1F
100
AcDbEntity
  8
0
  6
Continuous
 62
     7
370
    30
100
AcDbCircle
 10
70.7784182153
 20
171.1768477495
 30
0.0
 40
50.00000000000003
100
AcDbArc
 50
139.2377642309
 51
139.4034581449
  0
ARC
  5
B4
330
1F
100
AcDbEntity
  8
0
  6
Continuous
 62
     7
370
    30
100
AcDbCircle
 10
70.7784182153
 20
171.1768477495
 30
0.0
 40
50.00000000000003
100
AcDbArc
 50
220.5965418551
 51
220.7622357691
  0
LINE
  5
B5
330
1F
100
AcDbEntity
  8
0
  6
Continuous
 62
     7
370
    30
100
AcDbLine
 10
108.7439468822
 20
138.6404267784
 30
0.0
 11
108.7439468822
 21
203.7132687207
 31
0.0
  0
ARC
  5
B6
330
1F
100
AcDbEntity
  8
0
  6
Continuous
 62
     7
370
    30
100
AcDbCircle
 10
70.7784182153
 20
171.1768477495
 30
0.0
 40
50.00000000000001
100
AcDbArc
 50
319.2377642309
 51
319.4034581449
  0
ARC
  5
B7
330
1F
100
AcDbEntity
  8
0
  6
Continuous
 62
     7
370
    30
100
AcDbCircle
 10
70.7784182153
 20
171.1768477495
 30
0.0
 40
50.00000000000001
100
AcDbArc
 50
40.5965418551
 51
40.7622357691
  0
INSERT
  5
F3
330
1F
100
AcDbEntity
  8
0
  6
Continuous
 62
     7
370
     0
100
AcDbBlockReference
  2
SW_CENTERMARKSYMBOL_0
 10
70.7784182153
 20
193.1768477495
 30
0.0
  0
INSERT
  5
117
330
1F
100
AcDbEntity
  8
0
  6
Continuous
 62
     7
370
     0
100
AcDbBlockReference
  2
SW_CENTERMARKSYMBOL_1
 10
101.8911165875
 20
202.2895461217
 30
0.0
  0
INSERT
  5
123
330
1F
100
AcDbEntity
  8
0
  6
Continuous
 62
     7
370
     0
100
AcDbBlockReference
  2
SW_CENTERMARKSYMBOL_2
 10
70.7784182153
 20
171.1768477495
 30
0.0
  0
CIRCLE
  5
124
330
1F
100
AcDbEntity
  8
0
  6
Continuous
 62
     7
370
     0
100
AcDbCircle
 10
70.7784182153
 20
193.1768477495
 30
0.0
 40
2.499999944120646
  0
CIRCLE
  5
125
330
1F
100
AcDbEntity
  8
0
  6
Continuous
 62
     7
370
     0
100
AcDbCircle
 10
89.8309770985
 20
182.1768477495
 30
0.0
 40
2.500000105075074
  0
CIRCLE
  5
126
330
1F
100
AcDbEntity
  8
0
  6
Continuous
 62
     7
370
     0
100
AcDbCircle
 10
89.8309770985
 20
160.1768477495
 30
0.0
 40
2.500000105075145
  0
CIRCLE
  5
127
330
1F
100
AcDbEntity
  8
0
  6
Continuous
 62
     7
370
     0
100
AcDbCircle
 10
70.7784182153
 20
149.1768477495
 30
0.0
 40
2.499999944120802
  0
CIRCLE
  5
128
330
1F
100
AcDbEntity
  8
0
  6
Continuous
 62
     7
370
     0
100
AcDbCircle
 10
51.725859332
 20
160.1768477495
 30
0.0
 40
2.500000714488863
  0
CIRCLE
  5
129
330
1F
100
AcDbEntity
  8
0
  6
Continuous
 62
     7
370
     0
100
AcDbCircle
 10
51.725859332
 20
182.1768477495
 30
0.0
 40
2.500000714488642
  0
CIRCLE
  5
12A
330
1F
100
AcDbEntity
  8
0
  6
Continuous
 62
     7
370
    30
100
AcDbCircle
 10
270.6440018687
 20
171.1768477495
 30
0.0
 40
30.67896312499994
  0
ARC
  5
12B
330
1F
100
AcDbEntity
  8
0
  6
Continuous
 62
     7
370
    30
100
AcDbCircle
 10
270.6440018687
 20
156.1768477495
 30
0.0
 40
1.600000000000021
100
AcDbArc
 50
209.5358963806
 51
229.5055392957
  0
ARC
  5
12C
330
1F
100
AcDbEntity
  8
0
  6
Continuous
 62
     7
370
    30
100
AcDbCircle
 10
270.6440018687
 20
156.1768477495
 30
0.0
 40
1.599999999999985
100
AcDbArc
 50
310.4944607043
 51
330.4641036194
  0
ARC
  5
12D
330
1F
100
AcDbEntity
  8
0
  6
Continuous
 62
     7
370
    30
100
AcDbCircle
 10
266.5970503013
 20
156.7330884393
 30
0.0
 40
1.599999999999979
100
AcDbArc
 50
193.8837224676
 51
213.8533653826
  0
ARC
  5
12E
330
1F
100
AcDbEntity
  8
0
  6
Continuous
 62
     7
370
    30
100
AcDbCircle
 10
266.5970503013
 20
156.7330884393
 30
0.0
 40
1.600000000000074
100
AcDbArc
 50
294.8422867913
 51
314.8119297064
  0
ARC
  5
12F
330
1F
100
AcDbEntity
  8
0
  6
Continuous
 62
     7
370
    30
100
AcDbCircle
 10
262.8502426182
 20
158.3605566813
 30
0.0
 40
1.599999999999966
100
AcDbArc
 50
180.0
 51
198.2011914696
  0
ARC
  5
130
330
1F
100
AcDbEntity
  8
0
  6
Continuous
 62
     7
370
    30
100
AcDbCircle
 10
262.8502426182
 20
158.3605566813
 30
0.0
 40
1.600000000000028
100
AcDbArc
 50
279.1901128783
 51
299.1597557933
  0
LINE
  5
131
330
1F
100
AcDbEntity
  8
0
  6
Continuous
 62
     7
370
    30
100
AcDbLine
 10
261.2510046187
 20
158.4099333074
 30
0.0
 11
261.2502427969
 21
158.3605564471
 31
0.0
  0
LINE
  5
132
330
1F
100
AcDbEntity
  8
0
  6
Continuous
 62
     7
370
    30
100
AcDbLine
 10
258.0814624402
 20
160.9385504659
 30
0.0
 11
258.0830456886
 21
160.8673918332
 31
0.0
  0
ARC
  5
133
330
1F
100
AcDbEntity
  8
0
  6
Continuous
 62
     7
370
    30
100
AcDbCircle
 10
259.6814624045
 20
160.9385506013
 30
0.0
 40
1.599999999999997
100
AcDbArc
 50
263.5379389652
 51
283.5075818803
  0
ARC
  5
134
330
1F
100
AcDbEntity
  8
0
  6
Continuous
 62
     7
370
    30
100
AcDbCircle
 10
259.6814624045
 20
160.9385506013
 30
0.0
 40
1.600000000000027
100
AcDbArc
 50
162.5793746415
 51
180.0
  0
ARC
  5
135
330
1F
100
AcDbEntity
  8
0
  6
Continuous
 62
     7
370
    30
100
AcDbCircle
 10
257.3257235926
 20
164.2758721836
 30
0.0
 40
1.600000000000021
100
AcDbArc
 50
247.8857650522
 51
267.8554079672
  0
ARC
  5
136
330
1F
100
AcDbEntity
  8
0
  6
Continuous
 62
     7
370
    30
100
AcDbCircle
 10
257.3257235926
 20
164.2758721836
 30
0.0
 40
1.600000000000011
100
AcDbArc
 50
146.9272007284
 51
166.8968436435
  0
ARC
  5
137
330
1F
100
AcDbEntity
  8
0
  6
Continuous
 62
     7
370
    30
100
AcDbCircle
 10
255.9577405535
 20
168.1250075537
 30
0.0
 40
1.600000000000009
100
AcDbArc
 50
232.2335911391
 51
252.2032340542
  0
ARC
  5
138
330
1F
100
AcDbEntity
  8
0
  6
Continuous
 62
     7
370
    30
100
AcDbCircle
 10
255.9577405535
 20
168.1250075537
 30
0.0
 40
1.600000000000013
100
AcDbArc
 50
131.2750268154
 51
151.2446697304
  0
ARC
  5
139
330
1F
100
AcDbEntity
  8
0
  6
Continuous
 62
     7
370
    30
100
AcDbCircle
 10
255.6789703308
 20
172.20048395
 30
0.0
 40
1.600000000000027
100
AcDbArc
 50
216.5814172261
 51
236.5510601411
  0
ARC
  5
13A
330
1F
100
AcDbEntity
  8
0
  6
Continuous
 62
     7
370
    30
100
AcDbCircle
 10
255.6789703308
 20
172.20048395
 30
0.0
 40
1.600000000000005
100
AcDbArc
 50
115.6228529023
 51
135.5924958174
  0
ARC
  5
13B
330
1F
100
AcDbEntity
  8
0
  6
Continuous
 62
     7
370
    30
100
AcDbCircle
 10
256.5100880369
 20
176.2000419321
 30
0.0
 40
1.600000000000032
100
AcDbArc
 50
200.929243313
 51
220.8988862281
  0
ARC
  5
13C
330
1F
100
AcDbEntity
  8
0
  6
Continuous
 62
     7
370
    30
100
AcDbCircle
 10
256.5100880369
 20
176.2000419321
 30
0.0
 40
1.600000000000011
100
AcDbArc
 50
99.9706789893
 51
119.9403219044
  0
ARC
  5
13D
330
1F
100
AcDbEntity
  8
0
  6
Continuous
 62
     7
370
    30
100
AcDbCircle
 10
258.3894534735
 20
179.8270525813
 30
0.0
 40
1.599999999999967
100
AcDbArc
 50
185.2770694
 51
205.2467123151
  0
ARC
  5
13E
330
1F
100
AcDbEntity
  8
0
  6
Continuous
 62
     7
370
    30
100
AcDbCircle
 10
258.3894534735
 20
179.8270525813
 30
0.0
 40
1.600000000000017
100
AcDbArc
 50
84.3185050762
 51
104.2881479913
  0
LWPOLYLINE
  5
13F
330
1F
100
AcDbEntity
  8
0
  6
Continuous
 62
     7
370
    30
100
AcDbPolyline
 90
        3
 70
   128
 43
0.0
 10
259.5776824478
 20
182.8125172566
 10
259.5939684856
 20
182.5848135437
 10
259.6000639919
 20
182.545837694
  0
ARC
  5
140
330
1F
100
AcDbEntity
  8
0
  6
Continuous
 62
     7
370
    30
100
AcDbCircle
 10
261.1776827038
 20
182.8125171101
 30
0.0
 40
1.59999999999999
100
AcDbArc
 50
68.6663311632
 51
88.6359740783
  0
LWPOLYLINE
  5
141
330
1F
100
AcDbEntity
  8
0
  6
Continuous
 62
     7
370
    30
100
AcDbPolyline
 90
        3
 70
   128
 43
0.0
 10
259.6038432989
 20
183.1006638046
 10
259.5939684856
 20
183.0402209695
 10
259.5776824478
 20
182.8125172566
  0
ARC
  5
142
330
1F
100
AcDbEntity
  8
0
  6
Continuous
 62
     7
370
    30
100
AcDbCircle
 10
264.667985521
 20
184.9350172721
 30
0.0
 40
1.600000000000003
100
AcDbArc
 50
53.0141572502
 51
72.9838001652
  0
ARC
  5
143
330
1F
100
AcDbEntity
  8
0
  6
Continuous
 62
     7
370
    30
100
AcDbCircle
 10
264.667985521
 20
184.9350172721
 30
0.0
 40
1.600000000000006
100
AcDbArc
 50
153.9727215739
 51
173.942364489
  0
ARC
  5
144
330
1F
100
AcDbEntity
  8
0
  6
Continuous
 62
     7
370
    30
100
AcDbCircle
 10
268.6015021322
 20
186.0371369401
 30
0.0
 40
1.599999999999996
100
AcDbArc
 50
37.3619833371
 51
57.3316262522
  0
ARC
  5
145
330
1F
100
AcDbEntity
  8
0
  6
Continuous
 62
     7
370
    30
100
AcDbCircle
 10
268.6015021322
 20
186.0371369401
 30
0.0
 40
1.600000000000003
100
AcDbArc
 50
138.3205476609
 51
158.2901905759
  0
ARC
  5
146
330
1F
100
AcDbEntity
  8
0
  6
Continuous
 62
     7
370
    30
100
AcDbCircle
 10
272.6865016051
 20
186.0371369401
 30
0.0
 40
1.600000000000011
100
AcDbArc
 50
21.7098094241
 51
41.6794523391
  0
ARC
  5
147
330
1F
100
AcDbEntity
  8
0
  6
Continuous
 62
     7
370
    30
100
AcDbCircle
 10
272.6865016051
 20
186.0371369401
 30
0.0
 40
1.600000000000013
100
AcDbArc
 50
122.6683737478
 51
142.6380166629
  0
ARC
  5
148
330
1F
100
AcDbEntity
  8
0
  6
Continuous
 62
     7
370
    30
100
AcDbCircle
 10
276.6200182164
 20
184.9350172721
 30
0.0
 40
1.599999999999997
100
AcDbArc
 50
6.057635511
 51
26.0272784261
  0
ARC
  5
149
330
1F
100
AcDbEntity
  8
0
  6
Continuous
 62
     7
370
    30
100
AcDbCircle
 10
276.6200182164
 20
184.9350172721
 30
0.0
 40
1.599999999999983
100
AcDbArc
 50
107.0161998348
 51
126.9858427498
  0
ARC
  5
14A
330
1F
100
AcDbEntity
  8
0
  6
Continuous
 62
     7
370
    30
100
AcDbCircle
 10
280.1103210336
 20
182.8125171101
 30
0.0
 40
1.599999999999979
100
AcDbArc
 50
350.405461598
 51
10.375104513
  0
ARC
  5
14B
330
1F
100
AcDbEntity
  8
0
  6
Continuous
 62
     7
370
    30
100
AcDbCircle
 10
280.1103210336
 20
182.8125171101
 30
0.0
 40
1.600000000000005
100
AcDbArc
 50
91.3640259217
 51
111.3336688368
  0
ARC
  5
14C
330
1F
100
AcDbEntity
  8
0
  6
Continuous
 62
     7
370
    30
100
AcDbCircle
 10
282.8985502638
 20
179.8270525813
 30
0.0
 40
1.6
100
AcDbArc
 50
334.7532876849
 51
354.7229306
  0
ARC
  5
14D
330
1F
100
AcDbEntity
  8
0
  6
Continuous
 62
     7
370
    30
100
AcDbCircle
 10
282.8985502638
 20
179.8270525813
 30
0.0
 40
1.600000000000003
100
AcDbArc
 50
75.7118520087
 51
95.6814949238
  0
ARC
  5
14E
330
1F
100
AcDbEntity
  8
0
  6
Continuous
 62
     7
370
    30
100
AcDbCircle
 10
284.7779157005
 20
176.2000419321
 30
0.0
 40
1.599999999999995
100
AcDbArc
 50
319.1011137719
 51
339.070756687
  0
ARC
  5
14F
330
1F
100
AcDbEntity
  8
0
  6
Continuous
 62
     7
370
    30
100
AcDbCircle
 10
284.7779157005
 20
176.2000419321
 30
0.0
 40
1.6
100
AcDbArc
 50
60.0596780956
 51
80.0293210107
  0
ARC
  5
150
330
1F
100
AcDbEntity
  8
0
  6
Continuous
 62
     7
370
    30
100
AcDbCircle
 10
285.6090334065
 20
172.20048395
 30
0.0
 40
1.60000000000002
100
AcDbArc
 50
303.4489398589
 51
323.4185827739
  0
ARC
  5
151
330
1F
100
AcDbEntity
  8
0
  6
Continuous
 62
     7
370
    30
100
AcDbCircle
 10
285.6090334065
 20
172.20048395
 30
0.0
 40
1.600000000000005
100
AcDbArc
 50
44.4075041826
 51
64.3771470977
  0
ARC
  5
152
330
1F
100
AcDbEntity
  8
0
  6
Continuous
 62
     7
370
    30
100
AcDbCircle
 10
285.3302631839
 20
168.1250075537
 30
0.0
 40
1.599999999999992
100
AcDbArc
 50
287.7967659458
 51
307.7664088609
  0
ARC
  5
153
330
1F
100
AcDbEntity
  8
0
  6
Continuous
 62
     7
370
    30
100
AcDbCircle
 10
285.3302631839
 20
168.1250075537
 30
0.0
 40
1.600000000000011
100
AcDbArc
 50
28.7553302696
 51
48.7249731846
  0
ARC
  5
154
330
1F
100
AcDbEntity
  8
0
  6
Continuous
 62
     7
370
    30
100
AcDbCircle
 10
283.9622801447
 20
164.2758721836
 30
0.0
 40
1.599999999999985
100
AcDbArc
 50
272.1445920328
 51
292.1142349478
  0
ARC
  5
155
330
1F
100
AcDbEntity
  8
0
  6
Continuous
 62
     7
370
    30
100
AcDbCircle
 10
283.9622801447
 20
164.2758721836
 30
0.0
 40
1.599999999999995
100
AcDbArc
 50
13.1031563565
 51
33.0727992716
  0
ARC
  5
156
330
1F
100
AcDbEntity
  8
0
  6
Continuous
 62
     7
370
    30
100
AcDbCircle
 10
281.6065413329
 20
160.9385506013
 30
0.0
 40
1.600000000000008
100
AcDbArc
 50
256.4924181197
 51
276.4620610348
  0
ARC
  5
157
330
1F
100
AcDbEntity
  8
0
  6
Continuous
 62
     7
370
    30
100
AcDbCircle
 10
281.6065413329
 20
160.9385506013
 30
0.0
 40
1.599999999999985
100
AcDbArc
 50
357.4509824435
 51
17.4206253585
  0
ARC
  5
158
330
1F
100
AcDbEntity
  8
0
  6
Continuous
 62
     7
370
    30
100
AcDbCircle
 10
278.4377611192
 20
158.3605566813
 30
0.0
 40
1.600000000000001
100
AcDbArc
 50
240.8402442067
 51
260.8098871217
  0
ARC
  5
159
330
1F
100
AcDbEntity
  8
0
  6
Continuous
 62
     7
370
    30
100
AcDbCircle
 10
278.4377611192
 20
158.3605566813
 30
0.0
 40
1.600000000000078
100
AcDbArc
 50
341.7988085304
 51
1.7684514455
  0
ARC
  5
15A
330
1F
100
AcDbEntity
  8
0
  6
Continuous
 62
     7
370
    30
100
AcDbCircle
 10
274.690953436
 20
156.7330884393
 30
0.0
 40
1.600000000000013
100
AcDbArc
 50
225.1880702936
 51
245.1577132087
  0
ARC
  5
15B
330
1F
100
AcDbEntity
  8
0
  6
Continuous
 62
     7
370
    30
100
AcDbCircle
 10
274.690953436
 20
156.7330884393
 30
0.0
 40
1.599999999999986
100
AcDbArc
 50
326.1466346174
 51
346.1162775324
  0
CIRCLE
  5
15C
330
1F
100
AcDbEntity
  8
0
  6
Continuous
 62
     7
370
    30
100
AcDbCircle
 10
270.6440018687
 20
171.1768477495
 30
0.0
 40
14.75
  0
CIRCLE
  5
15D
330
1F
100
AcDbEntity
  8
0
  6
Continuous
 62
     7
370
    30
100
AcDbCircle
 10
270.6440018687
 20
171.1768477495
 30
0.0
 40
4.5
  0
CIRCLE
  5
15E
330
1F
100
AcDbEntity
  8
0
  6
Continuous
 62
     7
370
    30
100
AcDbCircle
 10
270.6440018687
 20
171.1768477495
 30
0.0
 40
4.0
  0
LINE
  5
15F
330
1F
100
AcDbEntity
  8
0
  6
Continuous
 62
     7
370
    30
100
AcDbLine
 10
294.6440020773
 20
209.1423764165
 30
0.0
 11
294.6440020773
 21
209.1678909298
 31
0.0
  0
ARC
  5
160
330
1F
100
AcDbEntity
  8
0
  6
Continuous
 62
     7
370
    30
100
AcDbCircle
 10
293.8940151007
 20
180.5192399889
 30
0.0
 40
28.65846613474323
100
AcDbArc
 50
88.5004084093
 51
90.4998481809
  0
LINE
  5
161
330
1F
100
AcDbEntity
  8
0
  6
Continuous
 62
     7
370
    30
100
AcDbLine
 10
293.6440019134
 20
209.1766155596
 30
0.0
 11
247.644001824
 21
209.1766155596
 31
0.0
  0
LINE
  5
162
330
1F
100
AcDbEntity
  8
0
  6
Continuous
 62
     7
370
    30
100
AcDbLine
 10
246.6440016601
 20
209.1423764165
 30
0.0
 11
246.6440016601
 21
209.1678909298
 31
0.0
  0
ARC
  5
163
330
1F
100
AcDbEntity
  8
0
  6
Continuous
 62
     7
370
    30
100
AcDbCircle
 10
247.3939886366
 20
180.5192399889
 30
0.0
 40
28.65846613474323
100
AcDbArc
 50
89.5001518191
 51
91.4995915907
  0
CIRCLE
  5
164
330
1F
100
AcDbEntity
  8
0
  6
Continuous
 62
     7
370
    30
100
AcDbCircle
 10
270.6440018687
 20
171.1768477495
 30
0.0
 40
15.84999999999999
  0
CIRCLE
  5
165
330
1F
100
AcDbEntity
  8
0
  6
Continuous
 62
     7
370
    30
100
AcDbCircle
 10
270.6440018687
 20
171.1768477495
 30
0.0
 40
16.25
  0
CIRCLE
  5
166
330
1F
100
AcDbEntity
  8
0
  6
Continuous
 62
     7
370
    30
100
AcDbCircle
 10
270.6440018687
 20
171.1768477495
 30
0.0
 40
17.65000000000003
  0
CIRCLE
  5
167
330
1F
100
AcDbEntity
  8
0
  6
Continuous
 62
     7
370
    30
100
AcDbCircle
 10
270.6440018687
 20
171.1768477495
 30
0.0
 40
17.05000000000007
  0
CIRCLE
  5
168
330
1F
100
AcDbEntity
  8
0
  6
Continuous
 62
     7
370
    30
100
AcDbCircle
 10
270.6440018687
 20
171.1768477495
 30
0.0
 40
16.95000000000005
  0
CIRCLE
  5
169
330
1F
100
AcDbEntity
  8
0
  6
Continuous
 62
     7
370
    30
100
AcDbCircle
 10
270.6440018687
 20
171.1768477495
 30
0.0
 40
18.44900000000001
  0
CIRCLE
  5
16A
330
1F
100
AcDbEntity
  8
0
  6
Continuous
 62
     7
370
    30
100
AcDbCircle
 10
270.6440018687
 20
171.1768477495
 30
0.0
 40
24.0
  0
CIRCLE
  5
16B
330
1F
100
AcDbEntity
  8
0
  6
Continuous
 62
     7
370
    30
100
AcDbCircle
 10
270.6440018687
 20
171.1768477495
 30
0.0
 40
26.0
  0
CIRCLE
  5
16C
330
1F
100
AcDbEntity
  8
0
  6
Continuous
 62
     7
370
    30
100
AcDbCircle
 10
270.6440018687
 20
171.1768477495
 30
0.0
 40
25.5
  0
ARC
  5
16D
330
1F
100
AcDbEntity
  8
0
  6
Continuous
 62
     7
370
    30
100
AcDbCircle
 10
270.6440018687
 20
171.1768477495
 30
0.0
 40
50.00000000000004
100
AcDbArc
 50
40.5965418551
 51
41.2838833832
  0
LINE
  5
16E
330
1F
100
AcDbEntity
  8
0
  6
Continuous
 62
     7
370
    30
100
AcDbLine
 10
308.6095305357
 20
203.7132687207
 30
0.0
 11
308.6095305357
 21
138.6404267784
 31
0.0
  0
ARC
  5
16F
330
1F
100
AcDbEntity
  8
0
  6
Continuous
 62
     7
370
    30
100
AcDbCircle
 10
270.6440018687
 20
171.1768477495
 30
0.0
 40
50.00000000000004
100
AcDbArc
 50
318.7161166168
 51
319.4034581449
  0
SPLINE
  5
170
330
1F
100
AcDbEntity
  8
0
  6
Continuous
 62
     7
370
    30
100
AcDbSpline
210
0.0
220
0.0
230
1.0
 70
     8
 71
     3
 72
     8
 73
     4
 74
     0
 42
0.00000001
 43
0.00000001
 12
1.0
 22
0.0
 32
0.0
 13
1.0
 23
0.0
 33
0.0
 40
0.0005829623619466
 40
0.0005829623619466
 40
0.0005829623619466
 40
0.0005829623619466
 40
0.0008743821116369
 40
0.0008743821116369
 40
0.0008743821116369
 40
0.0008743821116369
 10
308.0199501334351
 20
138.2666898752437
 30
0.0
 10
308.0854587015306
 20
138.2402140707063
 30
0.0
 10
308.1509718667758
 20
138.2137614087477
 30
0.0
 10
308.2164895860582
 20
138.1873317372033
 30
0.0
  0
LINE
  5
171
330
1F
100
AcDbEntity
  8
0
  6
Continuous
 62
     7
370
    30
100
AcDbLine
 10
308.0199511919
 20
204.0870047446
 30
0.0
 11
308.0199511919
 21
138.2666907545
 31
0.0
  0
SPLINE
  5
172
330
1F
100
AcDbEntity
  8
0
  6
Continuous
 62
     7
370
    30
100
AcDbSpline
210
0.0
220
0.0
230
1.0
 70
     8
 71
     3
 72
     8
 73
     4
 74
     0
 42
0.00000001
 43
0.00000001
 12
1.0
 22
0.0
 32
0.0
 13
1.0
 23
0.0
 33
0.0
 40
0.0005829623619466
 40
0.0005829623619466
 40
0.0005829623619466
 40
0.0005829623619466
 40
0.0008743821116368
 40
0.0008743821116368
 40
0.0008743821116368
 40
0.0008743821116368
 10
308.0199501334351
 20
204.0870056238247
 30
0.0
 10
308.0854587015306
 20
204.1134814283621
 30
0.0
 10
308.1509718667758
 20
204.1399340903208
 30
0.0
 10
308.2164895860582
 20
204.1663637618651
 30
0.0
  0
ARC
  5
173
330
1F
100
AcDbEntity
  8
0
  6
Continuous
 62
     7
370
    30
100
AcDbCircle
 10
270.6440018687
 20
171.1768477495
 30
0.0
 40
50.00000000000002
100
AcDbArc
 50
41.2838833832
 51
48.7161166168
  0
ARC
  5
174
330
1F
100
AcDbEntity
  8
0
  6
Continuous
 62
     7
370
    30
100
AcDbCircle
 10
270.6440018687
 20
171.1768477495
 30
0.0
 40
49.8
100
AcDbArc
 50
41.3644670186
 51
48.6355329814
  0
SPLINE
  5
175
330
1F
100
AcDbEntity
  8
0
  6
Continuous
 62
     7
370
    30
100
AcDbSpline
210
0.0
220
0.0
230
1.0
 70
     8
 71
     3
 72
     8
 73
     4
 74
     0
 42
0.00000001
 43
0.00000001
 12
1.0
 22
0.0
 32
0.0
 13
1.0
 23
0.0
 33
0.0
 40
0.0005829623619466
 40
0.0005829623619466
 40
0.0005829623619466
 40
0.0005829623619466
 40
0.0008743821116369
 40
0.0008743821116369
 40
0.0008743821116369
 40
0.0008743821116369
 10
303.5541597429755
 20
208.5527960142843
 30
0.0
 10
303.5806355475129
 20
208.6183045823799
 30
0.0
 10
303.6070882094715
 20
208.6838177476251
 30
0.0
 10
303.6335178810159
 20
208.7493354669075
 30
0.0
  0
ARC
  5
176
330
1F
100
AcDbEntity
  8
0
  6
Continuous
 62
     7
370
    30
100
AcDbCircle
 10
270.6440018687
 20
171.1768477495
 30
0.0
 40
50.00000000000004
100
AcDbArc
 50
311.2838833832
 51
318.7161166168
  0
SPLINE
  5
177
330
1F
100
AcDbEntity
  8
0
  6
Continuous
 62
     7
370
    30
100
AcDbSpline
210
0.0
220
0.0
230
1.0
 70
     8
 71
     3
 72
     8
 73
     4
 74
     0
 42
0.00000001
 43
0.00000001
 12
1.0
 22
0.0
 32
0.0
 13
1.0
 23
0.0
 33
0.0
 40
0.0005829623619466
 40
0.0005829623619466
 40
0.0005829623619466
 40
0.0005829623619466
 40
0.0008743821116368
 40
0.0008743821116368
 40
0.0008743821116368
 40
0.0008743821116368
 10
303.5541597429755
 20
133.8008994847841
 30
0.0
 10
303.5806355475129
 20
133.7353909166886
 30
0.0
 10
303.6070882094715
 20
133.6698777514434
 30
0.0
 10
303.6335178810159
 20
133.604360032161
 30
0.0
  0
ARC
  5
178
330
1F
100
AcDbEntity
  8
0
  6
Continuous
 62
     7
370
    30
100
AcDbCircle
 10
270.6440018687
 20
171.1768477495
 30
0.0
 40
49.8
100
AcDbArc
 50
311.3644670186
 51
318.6355329814
  0
CIRCLE
  5
179
330
1F
100
AcDbEntity
  8
0
  6
Continuous
 62
     7
370
    30
100
AcDbCircle
 10
239.5313034965
 20
140.0641493773
 30
0.0
 40
3.150000000000034
  0
CIRCLE
  5
17A
330
1F
100
AcDbEntity
  8
0
  6
Continuous
 62
     7
370
    30
100
AcDbCircle
 10
301.7567002409
 20
202.2895461217
 30
0.0
 40
3.149999999999977
  0
CIRCLE
  5
17B
330
1F
100
AcDbEntity
  8
0
  6
Continuous
 62
     7
370
    30
100
AcDbCircle
 10
241.6828813428
 20
191.4556426567
 30
0.0
 40
2.300000000000011
  0
CIRCLE
  5
17C
330
1F
100
AcDbEntity
  8
0
  6
Continuous
 62
     7
370
    30
100
AcDbCircle
 10
299.6051223945
 20
150.8980528423
 30
0.0
 40
2.299999999999955
  0
LINE
  5
17D
330
1F
100
AcDbEntity
  8
0
  6
Continuous
 62
     7
370
    30
100
AcDbLine
 10
303.5541588637
 20
133.8008984264
 30
0.0
 11
237.7338448736
 21
133.8008984264
 31
0.0
  0
ARC
  5
17E
330
1F
100
AcDbEntity
  8
0
  6
Continuous
 62
     7
370
    30
100
AcDbCircle
 10
270.6440018687
 20
171.1768477495
 30
0.0
 40
49.80000000000002
100
AcDbArc
 50
221.3644670186
 51
228.6355329814
  0
LINE
  5
17F
330
1F
100
AcDbEntity
  8
0
  6
Continuous
 62
     7
370
    30
100
AcDbLine
 10
233.2680525455
 20
138.2666907545
 30
0.0
 11
233.2680525455
 21
204.0870047446
 31
0.0
  0
ARC
  5
180
330
1F
100
AcDbEntity
  8
0
  6
Continuous
 62
     7
370
    30
100
AcDbCircle
 10
270.6440018687
 20
171.1768477495
 30
0.0
 40
49.80000000000002
100
AcDbArc
 50
131.3644670186
 51
138.6355329814
  0
LINE
  5
181
330
1F
100
AcDbEntity
  8
0
  6
Continuous
 62
     7
370
    30
100
AcDbLine
 10
237.7338448736
 20
208.5527970727
 30
0.0
 11
303.5541588637
 21
208.5527970727
 31
0.0
  0
CIRCLE
  5
182
330
1F
100
AcDbEntity
  8
0
  6
Continuous
 62
     7
370
    30
100
AcDbCircle
 10
250.3652069615
 20
142.2157272237
 30
0.0
 40
2.299999999999983
  0
CIRCLE
  5
183
330
1F
100
AcDbEntity
  8
0
  6
Continuous
 62
     7
370
    30
100
AcDbCircle
 10
290.9227967759
 20
200.1379682754
 30
0.0
 40
2.299999999999955
  0
CIRCLE
  5
184
330
1F
100
AcDbEntity
  8
0
  6
Continuous
 62
     7
370
    30
100
AcDbCircle
 10
301.7567002409
 20
140.0641493773
 30
0.0
 40
3.149999999999977
  0
CIRCLE
  5
185
330
1F
100
AcDbEntity
  8
0
  6
Continuous
 62
     7
370
    30
100
AcDbCircle
 10
239.5313034965
 20
202.2895461217
 30
0.0
 40
3.150000000000006
  0
CIRCLE
  5
186
330
1F
100
AcDbEntity
  8
0
  6
Continuous
 62
     7
370
    30
100
AcDbCircle
 10
301.7567002409
 20
140.0641493773
 30
0.0
 40
2.750000000000057
  0
CIRCLE
  5
187
330
1F
100
AcDbEntity
  8
0
  6
Continuous
 62
     7
370
    30
100
AcDbCircle
 10
301.7567002409
 20
202.2895461217
 30
0.0
 40
2.75
  0
ARC
  5
188
330
1F
100
AcDbEntity
  8
0
  6
Continuous
 62
     7
370
    30
100
AcDbCircle
 10
270.6440018687
 20
171.1768477495
 30
0.0
 40
50.00000000000001
100
AcDbArc
 50
130.5965418551
 51
131.2838833832
  0
LINE
  5
189
330
1F
100
AcDbEntity
  8
0
  6
Continuous
 62
     7
370
    30
100
AcDbLine
 10
238.1075808975
 20
209.1423764165
 30
0.0
 11
303.1804228398
 21
209.1423764165
 31
0.0
  0
ARC
  5
18A
330
1F
100
AcDbEntity
  8
0
  6
Continuous
 62
     7
370
    30
100
AcDbCircle
 10
270.6440018687
 20
171.1768477495
 30
0.0
 40
50.00000000000002
100
AcDbArc
 50
48.7161166168
 51
49.4034581449
  0
SPLINE
  5
18B
330
1F
100
AcDbEntity
  8
0
  6
Continuous
 62
     7
370
    30
100
AcDbSpline
210
0.0
220
0.0
230
1.0
 70
     8
 71
     3
 72
     8
 73
     4
 74
     0
 42
0.00000001
 43
0.00000001
 12
1.0
 22
0.0
 32
0.0
 13
1.0
 23
0.0
 33
0.0
 40
0.0005826626448706
 40
0.0005826626448706
 40
0.0005826626448706
 40
0.0005826626448706
 40
0.0008740823945609
 40
0.0008740823945609
 40
0.0008740823945609
 40
0.0008740823945609
 10
237.6544858563541
 20
208.7493354669075
 30
0.0
 10
237.6809155278985
 20
208.6838177476251
 30
0.0
 10
237.7073681898571
 20
208.6183045823799
 30
0.0
 10
237.7338439943945
 20
208.5527960142843
 30
0.0
  0
ARC
  5
18C
330
1F
100
AcDbEntity
  8
0
  6
Continuous
 62
     7
370
    30
100
AcDbCircle
 10
270.6440018687
 20
171.1768477495
 30
0.0
 40
50.00000000000004
100
AcDbArc
 50
310.5965418551
 51
311.2838833832
  0
LINE
  5
18D
330
1F
100
AcDbEntity
  8
0
  6
Continuous
 62
     7
370
    30
100
AcDbLine
 10
303.1804228398
 20
133.2113190826
 30
0.0
 11
238.1075808975
 21
133.2113190826
 31
0.0
  0
ARC
  5
18E
330
1F
100
AcDbEntity
  8
0
  6
Continuous
 62
     7
370
    30
100
AcDbCircle
 10
270.6440018687
 20
171.1768477495
 30
0.0
 40
50.00000000000001
100
AcDbArc
 50
228.7161166168
 51
229.4034581449
  0
SPLINE
  5
18F
330
1F
100
AcDbEntity
  8
0
  6
Continuous
 62
     7
370
    30
100
AcDbSpline
210
0.0
220
0.0
230
1.0
 70
     8
 71
     3
 72
     8
 73
     4
 74
     0
 42
0.00000001
 43
0.00000001
 12
1.0
 22
0.0
 32
0.0
 13
1.0
 23
0.0
 33
0.0
 40
0.0005829623619466
 40
0.0005829623619466
 40
0.0005829623619466
 40
0.0005829623619466
 40
0.0008743821116369
 40
0.0008743821116369
 40
0.0008743821116369
 40
0.0008743821116369
 10
237.7338439943945
 20
133.8008994847841
 30
0.0
 10
237.7073681898571
 20
133.7353909166886
 30
0.0
 10
237.6809155278985
 20
133.6698777514434
 30
0.0
 10
237.6544858563541
 20
133.604360032161
 30
0.0
  0
CIRCLE
  5
190
330
1F
100
AcDbEntity
  8
0
  6
Continuous
 62
     7
370
    30
100
AcDbCircle
 10
299.6051223945
 20
150.8980528423
 30
0.0
 40
1.649999999999977
  0
CIRCLE
  5
191
330
1F
100
AcDbEntity
  8
0
  6
Continuous
 62
     7
370
    30
100
AcDbCircle
 10
270.6440018687
 20
171.1768477495
 30
0.0
 40
30.99999999999994
  0
CIRCLE
  5
192
330
1F
100
AcDbEntity
  8
0
  6
Continuous
 62
     7
370
    30
100
AcDbCircle
 10
270.6440018687
 20
171.1768477495
 30
0.0
 40
29.19999999999999
  0
CIRCLE
  5
193
330
1F
100
AcDbEntity
  8
0
  6
Continuous
 62
     7
370
    30
100
AcDbCircle
 10
290.9227967759
 20
200.1379682754
 30
0.0
 40
1.649999999999977
  0
CIRCLE
  5
194
330
1F
100
AcDbEntity
  8
0
  6
Continuous
 62
     7
370
    30
100
AcDbCircle
 10
250.3652069615
 20
142.2157272237
 30
0.0
 40
1.649999999999977
  0
CIRCLE
  5
195
330
1F
100
AcDbEntity
  8
0
  6
Continuous
 62
     7
370
    30
100
AcDbCircle
 10
241.6828813428
 20
191.4556426567
 30
0.0
 40
1.650000000000006
  0
CIRCLE
  5
196
330
1F
100
AcDbEntity
  8
0
  6
Continuous
 62
     7
370
    30
100
AcDbCircle
 10
239.5313034965
 20
140.0641493773
 30
0.0
 40
2.75
  0
CIRCLE
  5
197
330
1F
100
AcDbEntity
  8
0
  6
Continuous
 62
     7
370
    30
100
AcDbCircle
 10
239.5313034965
 20
202.2895461217
 30
0.0
 40
2.750000000000028
  0
ARC
  5
198
330
1F
100
AcDbEntity
  8
0
  6
Continuous
 62
     7
370
    30
100
AcDbCircle
 10
270.6440018687
 20
171.1768477495
 30
0.0
 40
50.00000000000001
100
AcDbArc
 50
221.2838833832
 51
228.7161166168
  0
SPLINE
  5
199
330
1F
100
AcDbEntity
  8
0
  6
Continuous
 62
     7
370
    30
100
AcDbSpline
210
0.0
220
0.0
230
1.0
 70
     8
 71
     3
 72
     8
 73
     4
 74
     0
 42
0.00000001
 43
0.00000001
 12
1.0
 22
0.0
 32
0.0
 13
1.0
 23
0.0
 33
0.0
 40
0.0005829623619466
 40
0.0005829623619466
 40
0.0005829623619466
 40
0.0005829623619466
 40
0.0008743821116369
 40
0.0008743821116369
 40
0.0008743821116369
 40
0.0008743821116369
 10
233.2680536039349
 20
138.2666898752437
 30
0.0
 10
233.2025450358393
 20
138.2402140707063
 30
0.0
 10
233.1370318705941
 20
138.2137614087477
 30
0.0
 10
233.0715141513117
 20
138.1873317372033
 30
0.0
  0
ARC
  5
19A
330
1F
100
AcDbEntity
  8
0
  6
Continuous
 62
     7
370
    30
100
AcDbCircle
 10
270.6440018687
 20
171.1768477495
 30
0.0
 40
50.00000000000002
100
AcDbArc
 50
131.2838833832
 51
138.7161166168
  0
SPLINE
  5
19B
330
1F
100
AcDbEntity
  8
0
  6
Continuous
 62
     7
370
    30
100
AcDbSpline
210
0.0
220
0.0
230
1.0
 70
     8
 71
     3
 72
     8
 73
     4
 74
     0
 42
0.00000001
 43
0.00000001
 12
1.0
 22
0.0
 32
0.0
 13
1.0
 23
0.0
 33
0.0
 40
0.0005829623619466
 40
0.0005829623619466
 40
0.0005829623619466
 40
0.0005829623619466
 40
0.0008743821116369
 40
0.0008743821116369
 40
0.0008743821116369
 40
0.0008743821116369
 10
233.2680536039349
 20
204.0870056238247
 30
0.0
 10
233.2025450358393
 20
204.1134814283621
 30
0.0
 10
233.1370318705941
 20
204.1399340903208
 30
0.0
 10
233.0715141513117
 20
204.1663637618651
 30
0.0
  0
ARC
  5
19C
330
1F
100
AcDbEntity
  8
0
  6
Continuous
 62
     7
370
    30
100
AcDbCircle
 10
270.6440018687
 20
171.1768477495
 30
0.0
 40
50.00000000000003
100
AcDbArc
 50
220.5965418551
 51
221.2838833832
  0
LINE
  5
19D
330
1F
100
AcDbEntity
  8
0
  6
Continuous
 62
     7
370
    30
100
AcDbLine
 10
232.6784732017
 20
138.6404267784
 30
0.0
 11
232.6784732017
 21
203.7132687207
 31
0.0
  0
ARC
  5
19E
330
1F
100
AcDbEntity
  8
0
  6
Continuous
 62
     7
370
    30
100
AcDbCircle
 10
270.6440018687
 20
171.1768477495
 30
0.0
 40
50.00000000000003
100
AcDbArc
 50
138.7161166168
 51
139.4034581449
  0
LINE
  5
19F
330
1F
100
AcDbEntity
  8
0
  6
HIDDEN
 62
     7
370
     0
100
AcDbLine
 10
278.2650019239
 20
173.1768478445
 30
0.0
 11
278.2650019239
 21
169.1768476545
 31
0.0
  0
LINE
  5
1A0
330
1F
100
AcDbEntity
  8
0
  6
HIDDEN
 62
     7
370
     0
100
AcDbLine
 10
278.6440022487
 20
172.7978477526
 30
0.0
 11
278.6440022487
 21
169.5558477465
 31
0.0
  0
LINE
  5
1A1
330
1F
100
AcDbEntity
  8
0
  6
HIDDEN
 62
     7
370
     0
100
AcDbLine
 10
275.6440017569
 20
173.1768478445
 30
0.0
 11
275.6440017569
 21
169.1768476545
 31
0.0
  0
LINE
  5
1A2
330
1F
100
AcDbEntity
  8
0
  6
HIDDEN
 62
     7
370
     0
100
AcDbLine
 10
274.6440020587
 20
172.176847797
 30
0.0
 11
274.6440020587
 21
170.176847702
 31
0.0
  0
LINE
  5
1A3
330
1F
100
AcDbEntity
  8
0
  6
HIDDEN
 62
     7
370
     0
100
AcDbLine
 10
278.6440022487
 20
172.176847797
 30
0.0
 11
278.6440022487
 21
171.1768477495
 31
0.0
  0
LINE
  5
1A4
330
1F
100
AcDbEntity
  8
0
  6
HIDDEN
 62
     7
370
     0
100
AcDbLine
 10
277.1440020028
 20
171.1768477495
 30
0.0
 11
278.6440022487
 21
171.1768477495
 31
0.0
  0
LINE
  5
1A5
330
1F
100
AcDbEntity
  8
0
  6
HIDDEN
 62
     7
370
     0
100
AcDbLine
 10
278.6440022487
 20
171.1768477495
 30
0.0
 11
278.6440022487
 21
170.176847702
 31
0.0
  0
LINE
  5
1A6
330
1F
100
AcDbEntity
  8
0
  6
HIDDEN
 62
     7
370
     0
100
AcDbLine
 10
277.1440020028
 20
171.1768477495
 30
0.0
 11
277.1440020028
 21
170.176847702
 31
0.0
  0
LINE
  5
1A7
330
1F
100
AcDbEntity
  8
0
  6
HIDDEN
 62
     7
370
     0
100
AcDbLine
 10
277.1440020028
 20
172.176847797
 30
0.0
 11
277.1440020028
 21
171.1768477495
 31
0.0
  0
LINE
  5
1A8
330
1F
100
AcDbEntity
  8
0
  6
HIDDEN
 62
     7
370
     0
100
AcDbLine
 10
277.1440020028
 20
170.176847702
 30
0.0
 11
278.6440022487
 21
170.176847702
 31
0.0
  0
LINE
  5
1A9
330
1F
100
AcDbEntity
  8
0
  6
HIDDEN
 62
     7
370
     0
100
AcDbLine
 10
277.1440020028
 20
172.176847797
 30
0.0
 11
278.6440022487
 21
172.176847797
 31
0.0
  0
LINE
  5
1AA
330
1F
100
AcDbEntity
  8
0
  6
HIDDEN
 62
     7
370
     0
100
AcDbLine
 10
268.6440017737
 20
176.1768476378
 30
0.0
 11
272.6440019637
 21
176.1768476378
 31
0.0
  0
LINE
  5
1AB
330
1F
100
AcDbEntity
  8
0
  6
HIDDEN
 62
     7
370
     0
100
AcDbLine
 10
268.6440017737
 20
178.7978478048
 30
0.0
 11
272.6440019637
 21
178.7978478048
 31
0.0
  0
LINE
  5
1AC
330
1F
100
AcDbEntity
  8
0
  6
HIDDEN
 62
     7
370
     0
100
AcDbLine
 10
269.6440018212
 20
175.1768479395
 30
0.0
 11
271.6440019162
 21
175.1768479395
 31
0.0
  0
LINE
  5
1AD
330
1F
100
AcDbEntity
  8
0
  6
HIDDEN
 62
     7
370
     0
100
AcDbLine
 10
269.0230018656
 20
179.1768481295
 30
0.0
 11
272.2650018718
 21
179.1768481295
 31
0.0
  0
LINE
  5
1AE
330
1F
100
AcDbEntity
  8
0
  6
HIDDEN
 62
     7
370
     0
100
AcDbLine
 10
270.6440018687
 20
177.6768478836
 30
0.0
 11
271.6440019162
 21
177.6768478836
 31
0.0
  0
LINE
  5
1AF
330
1F
100
AcDbEntity
  8
0
  6
HIDDEN
 62
     7
370
     0
100
AcDbLine
 10
270.6440018687
 20
179.1768481295
 30
0.0
 11
271.6440019162
 21
179.1768481295
 31
0.0
  0
LINE
  5
1B0
330
1F
100
AcDbEntity
  8
0
  6
HIDDEN
 62
     7
370
     0
100
AcDbLine
 10
270.6440018687
 20
177.6768478836
 30
0.0
 11
270.6440018687
 21
179.1768481295
 31
0.0
  0
LINE
  5
1B1
330
1F
100
AcDbEntity
  8
0
  6
HIDDEN
 62
     7
370
     0
100
AcDbLine
 10
269.6440018212
 20
177.6768478836
 30
0.0
 11
270.6440018687
 21
177.6768478836
 31
0.0
  0
LINE
  5
1B2
330
1F
100
AcDbEntity
  8
0
  6
HIDDEN
 62
     7
370
     0
100
AcDbLine
 10
269.6440018212
 20
179.1768481295
 30
0.0
 11
270.6440018687
 21
179.1768481295
 31
0.0
  0
LINE
  5
1B3
330
1F
100
AcDbEntity
  8
0
  6
HIDDEN
 62
     7
370
     0
100
AcDbLine
 10
271.6440019162
 20
177.6768478836
 30
0.0
 11
271.6440019162
 21
179.1768481295
 31
0.0
  0
LINE
  5
1B4
330
1F
100
AcDbEntity
  8
0
  6
HIDDEN
 62
     7
370
     0
100
AcDbLine
 10
269.6440018212
 20
177.6768478836
 30
0.0
 11
269.6440018212
 21
179.1768481295
 31
0.0
  0
LINE
  5
1B5
330
1F
100
AcDbEntity
  8
0
  6
HIDDEN
 62
     7
370
     0
100
AcDbLine
 10
278.2650019239
 20
169.1768476545
 30
0.0
 11
278.6440022487
 21
169.5558477465
 31
0.0
  0
LINE
  5
1B6
330
1F
100
AcDbEntity
  8
0
  6
HIDDEN
 62
     7
370
     0
100
AcDbLine
 10
278.6440022487
 20
172.7978477526
 30
0.0
 11
278.2650019239
 21
173.1768478445
 31
0.0
  0
LINE
  5
1B7
330
1F
100
AcDbEntity
  8
0
  6
HIDDEN
 62
     7
370
     0
100
AcDbLine
 10
275.6440017569
 20
169.1768476545
 30
0.0
 11
278.2650019239
 21
169.1768476545
 31
0.0
  0
LINE
  5
1B8
330
1F
100
AcDbEntity
  8
0
  6
HIDDEN
 62
     7
370
     0
100
AcDbLine
 10
278.2650019239
 20
173.1768478445
 30
0.0
 11
275.6440017569
 21
173.1768478445
 31
0.0
  0
LINE
  5
1B9
330
1F
100
AcDbEntity
  8
0
  6
HIDDEN
 62
     7
370
     0
100
AcDbLine
 10
275.6440017569
 20
173.1768478445
 30
0.0
 11
274.6440020587
 21
172.176847797
 31
0.0
  0
LINE
  5
1BA
330
1F
100
AcDbEntity
  8
0
  6
HIDDEN
 62
     7
370
     0
100
AcDbLine
 10
274.6440020587
 20
170.176847702
 30
0.0
 11
275.6440017569
 21
169.1768476545
 31
0.0
  0
LINE
  5
1BB
330
1F
100
AcDbEntity
  8
0
  6
HIDDEN
 62
     7
370
     0
100
AcDbLine
 10
272.6440019637
 20
176.1768476378
 30
0.0
 11
272.6440019637
 21
178.7978478048
 31
0.0
  0
LINE
  5
1BC
330
1F
100
AcDbEntity
  8
0
  6
HIDDEN
 62
     7
370
     0
100
AcDbLine
 10
268.6440017737
 20
178.7978478048
 30
0.0
 11
268.6440017737
 21
176.1768476378
 31
0.0
  0
LINE
  5
1BD
330
1F
100
AcDbEntity
  8
0
  6
HIDDEN
 62
     7
370
     0
100
AcDbLine
 10
268.6440017737
 20
176.1768476378
 30
0.0
 11
269.6440018212
 21
175.1768479395
 31
0.0
  0
LINE
  5
1BE
330
1F
100
AcDbEntity
  8
0
  6
HIDDEN
 62
     7
370
     0
100
AcDbLine
 10
271.6440019162
 20
175.1768479395
 30
0.0
 11
272.6440019637
 21
176.1768476378
 31
0.0
  0
LINE
  5
1BF
330
1F
100
AcDbEntity
  8
0
  6
HIDDEN
 62
     7
370
     0
100
AcDbLine
 10
272.6440019637
 20
178.7978478048
 30
0.0
 11
272.2650018718
 21
179.1768481295
 31
0.0
  0
LINE
  5
1C0
330
1F
100
AcDbEntity
  8
0
  6
HIDDEN
 62
     7
370
     0
100
AcDbLine
 10
269.0230018656
 20
179.1768481295
 30
0.0
 11
268.6440017737
 21
178.7978478048
 31
0.0
  0
INSERT
  5
1E0
330
1F
100
AcDbEntity
  8
0
  6
Continuous
 62
     7
370
     0
100
AcDbBlockReference
  2
SW_CENTERMARKSYMBOL_3
 10
290.9227967759
 20
200.1379682754
 30
0.0
  0
INSERT
  5
200
330
1F
100
AcDbEntity
  8
0
  6
Continuous
 62
     7
370
     0
100
AcDbBlockReference
  2
SW_CENTERMARKSYMBOL_4
 10
301.7567002409
 20
202.2895461217
 30
0.0
  0
INSERT
  5
20C
330
1F
100
AcDbEntity
  8
0
  6
Continuous
 62
     7
370
     0
100
AcDbBlockReference
  2
SW_CENTERMARKSYMBOL_5
 10
270.6440018687
 20
171.1768477495
 30
0.0
  0
LINE
  5
20D
330
1F
100
AcDbEntity
  8
0
  6
Continuous
 62
     7
370
    30
100
AcDbLine
 10
159.8813113115
 20
134.1768472727
 30
0.0
 11
166.1813099227
 21
134.1768472727
 31
0.0
  0
LINE
  5
20E
330
1F
100
AcDbEntity
  8
0
  6
Continuous
 62
     7
370
    30
100
AcDbLine
 10
166.1813099227
 20
208.1768482264
 30
0.0
 11
159.8813113115
 21
208.1768482264
 31
0.0
  0
LINE
  5
20F
330
1F
100
AcDbEntity
  8
0
  6
Continuous
 62
     7
370
    30
100
AcDbLine
 10
159.8813113115
 20
208.1768482264
 30
0.0
 11
159.3813102983
 21
207.6768472131
 31
0.0
  0
LINE
  5
210
330
1F
100
AcDbEntity
  8
0
  6
Continuous
 62
     7
370
    30
100
AcDbLine
 10
159.3813102983
 20
134.676848286
 30
0.0
 11
159.8813113115
 21
134.1768472727
 31
0.0
  0
LINE
  5
211
330
1F
100
AcDbEntity
  8
0
  6
Continuous
 62
     7
370
    30
100
AcDbLine
 10
159.3813102983
 20
207.6768472131
 30
0.0
 11
152.7658373408
 21
207.5613743897
 31
0.0
  0
LINE
  5
212
330
1F
100
AcDbEntity
  8
0
  6
Continuous
 62
     7
370
    30
100
AcDbLine
 10
152.7658373408
 20
134.7923211094
 30
0.0
 11
159.3813102983
 21
134.676848286
 31
0.0
  0
LINE
  5
213
330
1F
100
AcDbEntity
  8
0
  6
Continuous
 62
     7
370
    30
100
AcDbLine
 10
152.7658373408
 20
207.5613743897
 30
0.0
 11
152.3813110135
 21
207.1768461998
 31
0.0
  0
LINE
  5
214
330
1F
100
AcDbEntity
  8
0
  6
Continuous
 62
     7
370
    30
100
AcDbLine
 10
152.3813110135
 20
135.1768492993
 30
0.0
 11
152.7658373408
 21
134.7923211094
 31
0.0
  0
LINE
  5
215
330
1F
100
AcDbEntity
  8
0
  6
Continuous
 62
     7
370
    30
100
AcDbLine
 10
166.1813099227
 20
134.1768472727
 30
0.0
 11
166.7813107661
 21
134.5232582923
 31
0.0
  0
LINE
  5
216
330
1F
100
AcDbEntity
  8
0
  6
Continuous
 62
     7
370
    30
100
AcDbLine
 10
166.7813107661
 20
207.8304372068
 30
0.0
 11
166.1813099227
 21
208.1768482264
 31
0.0
  0
LINE
  5
217
330
1F
100
AcDbEntity
  8
0
  6
Continuous
 62
     7
370
    30
100
AcDbLine
 10
181.8813106685
 20
145.1768472131
 30
0.0
 11
182.3813106922
 21
145.6768482264
 31
0.0
  0
LINE
  5
218
330
1F
100
AcDbEntity
  8
0
  6
Continuous
 62
     7
370
    30
100
AcDbLine
 10
182.3813106922
 20
196.6768472727
 30
0.0
 11
181.8813106685
 21
197.176848286
 31
0.0
  0
LINE
  5
219
330
1F
100
AcDbEntity
  8
0
  6
Continuous
 62
     7
370
    30
100
AcDbLine
 10
180.2349005185
 20
145.1768472131
 30
0.0
 11
181.8813106685
 21
145.1768472131
 31
0.0
  0
LINE
  5
21A
330
1F
100
AcDbEntity
  8
0
  6
Continuous
 62
     7
370
    30
100
AcDbLine
 10
181.8813106685
 20
197.176848286
 30
0.0
 11
180.2349005185
 21
197.176848286
 31
0.0
  0
ARC
  5
21B
330
1F
100
AcDbEntity
  8
0
  6
Continuous
 62
     7
370
    30
100
AcDbCircle
 10
179.7813106797
 20
144.9768477495
 30
0.0
 40
0.4000000000000057
100
AcDbArc
 50
60.0
 51
180.0
  0
ARC
  5
21C
330
1F
100
AcDbEntity
  8
0
  6
Continuous
 62
     7
370
    30
100
AcDbCircle
 10
179.7813106797
 20
197.3768477495
 30
0.0
 40
0.4000000000000057
100
AcDbArc
 50
180.0
 51
300.0
  0
LINE
  5
21D
330
1F
100
AcDbEntity
  8
0
  6
Continuous
 62
     7
370
    30
100
AcDbLine
 10
180.2349005185
 20
197.176848286
 30
0.0
 11
179.9813106946
 21
197.0304369267
 31
0.0
  0
LINE
  5
21E
330
1F
100
AcDbEntity
  8
0
  6
Continuous
 62
     7
370
    30
100
AcDbLine
 10
179.9813106946
 20
145.3232585724
 30
0.0
 11
180.2349005185
 21
145.1768472131
 31
0.0
  0
LINE
  5
21F
330
1F
100
AcDbEntity
  8
0
  6
Continuous
 62
     7
370
    30
100
AcDbLine
 10
152.3813110135
 20
197.42684693
 30
0.0
 11
149.6813100121
 21
197.42684693
 31
0.0
  0
LINE
  5
220
330
1F
100
AcDbEntity
  8
0
  6
Continuous
 62
     7
370
    30
100
AcDbLine
 10
149.6813100121
 20
144.9268485691
 30
0.0
 11
152.3813110135
 21
144.9268485691
 31
0.0
  0
LINE
  5
221
330
1F
100
AcDbEntity
  8
0
  6
Continuous
 62
     7
370
    30
100
AcDbLine
 10
149.6813100121
 20
197.42684693
 30
0.0
 11
148.8813113711
 21
196.626848289
 31
0.0
  0
LINE
  5
222
330
1F
100
AcDbEntity
  8
0
  6
Continuous
 62
     7
370
    30
100
AcDbLine
 10
148.8813113711
 20
145.7268472101
 30
0.0
 11
149.6813100121
 21
144.9268485691
 31
0.0
  0
ARC
  5
223
330
1F
100
AcDbEntity
  8
0
  6
Continuous
 62
     7
370
    30
100
AcDbCircle
 10
178.7558106797
 20
186.0371369401
 30
0.0
 40
1.600000000000001
100
AcDbArc
 50
180.0
 51
204.1468479965
  0
LWPOLYLINE
  5
224
330
1F
100
AcDbEntity
  8
0
  6
Continuous
 62
     7
370
    30
100
AcDbPolyline
 90
        3
 70
   128
 43
0.0
 10
177.4128599383
 20
185.1673766311
 10
177.5466113641
 20
184.9893599089
 10
177.643145743
 20
184.8873642545
  0
LWPOLYLINE
  5
225
330
1F
100
AcDbEntity
  8
0
  6
Continuous
 62
     7
370
    30
100
AcDbPolyline
 90
        3
 70
   128
 43
0.0
 10
179.8575043968
 20
184.87684776
 10
179.9650099884
 20
184.9893599089
 10
180.0941550929
 20
185.1603050988
  0
ARC
  5
226
330
1F
100
AcDbEntity
  8
0
  6
Continuous
 62
     7
370
    30
100
AcDbCircle
 10
178.7558106797
 20
186.0371369401
 30
0.0
 40
1.599999999999998
100
AcDbArc
 50
36.6570597884
 51
146.3429402116
  0
ARC
  5
227
330
1F
100
AcDbEntity
  8
0
  6
Continuous
 62
     7
370
    30
100
AcDbCircle
 10
178.7558106797
 20
186.0371369401
 30
0.0
 40
1.600000000000001
100
AcDbArc
 50
155.8531520035
 51
180.0
  0
LINE
  5
228
330
1F
100
AcDbEntity
  8
0
  6
Continuous
 62
     7
370
    30
100
AcDbLine
 10
177.1558107167
 20
184.9350172367
 30
0.0
 11
177.1568682335
 21
184.87684776
 31
0.0
  0
LINE
  5
229
330
1F
100
AcDbEntity
  8
0
  6
Continuous
 62
     7
370
    30
100
AcDbLine
 10
180.3558106359
 20
184.9350172367
 30
0.0
 11
180.3419837553
 21
185.1449103366
 31
0.0
  0
ARC
  5
22A
330
1F
100
AcDbEntity
  8
0
  6
Continuous
 62
     7
370
    30
100
AcDbCircle
 10
178.7558106797
 20
184.9350172721
 30
0.0
 40
1.599999999999997
100
AcDbArc
 50
159.8540696164
 51
180.0
  0
LWPOLYLINE
  5
22B
330
1F
100
AcDbEntity
  8
0
  6
Continuous
 62
     7
370
    30
100
AcDbPolyline
 90
        3
 70
   128
 43
0.0
 10
177.1558107167
 20
156.7330888744
 10
177.1720962889
 20
156.5053851615
 10
177.1801680617
 20
156.4549680139
  0
LWPOLYLINE
  5
22C
330
1F
100
AcDbEntity
  8
0
  6
Continuous
 62
     7
370
    30
100
AcDbPolyline
 90
        3
 70
   128
 43
0.0
 10
180.3314530581
 20
156.4549680139
 10
180.3395250637
 20
156.5053851615
 10
180.3558106359
 20
156.7330888744
  0
LINE
  5
22D
330
1F
100
AcDbEntity
  8
0
  6
Continuous
 62
     7
370
    30
100
AcDbLine
 10
180.1952089473
 20
157.4317531
 30
0.0
 11
180.1724341522
 21
157.4768477391
 31
0.0
  0
ARC
  5
22E
330
1F
100
AcDbEntity
  8
0
  6
Continuous
 62
     7
370
    30
100
AcDbCircle
 10
178.7558106797
 20
156.7330884393
 30
0.0
 40
1.600000000000013
100
AcDbArc
 50
152.2995131585
 51
180.0
  0
ARC
  5
22F
330
1F
100
AcDbEntity
  8
0
  6
Continuous
 62
     7
370
    30
100
AcDbCircle
 10
178.8813106797
 20
140.9978846245
 30
0.0
 40
0.5000000000000284
100
AcDbArc
 50
180.0
 51
0.0
  0
ARC
  5
230
330
1F
100
AcDbEntity
  8
0
  6
Continuous
 62
     7
370
    30
100
AcDbCircle
 10
179.0563106797
 20
141.6518477495
 30
0.0
 40
0.3249999999999886
100
AcDbArc
 50
0.0
 51
90.0
  0
LINE
  5
231
330
1F
100
AcDbEntity
  8
0
  6
Continuous
 62
     7
370
    30
100
AcDbLine
 10
179.3813107825
 20
141.6518471475
 30
0.0
 11
179.3813107825
 21
142.176848584
 31
0.0
  0
ARC
  5
232
330
1F
100
AcDbEntity
  8
0
  6
Continuous
 62
     7
370
    30
100
AcDbCircle
 10
178.7063106797
 20
141.6518477495
 30
0.0
 40
0.3249999999999886
100
AcDbArc
 50
90.0
 51
180.0
  0
LINE
  5
233
330
1F
100
AcDbEntity
  8
0
  6
Continuous
 62
     7
370
    30
100
AcDbLine
 10
178.7063105322
 20
141.9768470611
 30
0.0
 11
179.0563106361
 21
141.9768470611
 31
0.0
  0
LINE
  5
234
330
1F
100
AcDbEntity
  8
0
  6
Continuous
 62
     7
370
    30
100
AcDbLine
 10
178.3813106186
 20
140.9978854741
 30
0.0
 11
178.3813106186
 21
141.6518471475
 31
0.0
  0
LINE
  5
235
330
1F
100
AcDbEntity
  8
0
  6
Continuous
 62
     7
370
    30
100
AcDbLine
 10
179.3813107825
 20
141.6518471475
 30
0.0
 11
179.3813107825
 21
140.9978854741
 31
0.0
  0
LINE
  5
236
330
1F
100
AcDbEntity
  8
0
  6
Continuous
 62
     7
370
    30
100
AcDbLine
 10
179.3813107825
 20
138.2666907545
 30
0.0
 11
179.3813107825
 21
139.4940286215
 31
0.0
  0
SPLINE
  5
237
330
1F
100
AcDbEntity
  8
0
  6
Continuous
 62
     7
370
    30
100
AcDbSpline
210
0.0
220
0.0
230
1.0
 70
     8
 71
     3
 72
     8
 73
     4
 74
     0
 42
0.00000001
 43
0.00000001
 12
1.0
 22
0.0
 32
0.0
 13
1.0
 23
0.0
 33
0.0
 40
0.0005829623619466
 40
0.0005829623619466
 40
0.0005829623619466
 40
0.0005829623619466
 40
0.0008743821116369
 40
0.0008743821116369
 40
0.0008743821116369
 40
0.0008743821116369
 10
179.38131067972
 20
138.2666898752437
 30
0.0
 10
179.314648676523
 20
138.2402140707063
 30
0.0
 10
179.2479819952325
 20
138.2137614087477
 30
0.0
 10
179.18131067972
 20
138.1873317372033
 30
0.0
  0
ELLIPSE
  5
238
330
1F
100
AcDbEntity
  8
0
  6
Continuous
 62
     7
370
    30
100
AcDbEllipse
 10
217.4153519533
 20
171.1768477495
 30
0.0
 11
50.88036964860688
 21
0.0
 31
0.0
210
0.0
220
0.0
230
1.0
 40
0.9826972631
 41
3.850135973884418
 42
3.862132346635673
  0
LINE
  5
239
330
1F
100
AcDbEntity
  8
0
  6
Continuous
 62
     7
370
    30
100
AcDbLine
 10
178.781348589
 20
138.6404267784
 30
0.0
 11
178.781348589
 21
139.5381733115
 31
0.0
  0
ARC
  5
23A
330
1F
100
AcDbEntity
  8
0
  6
Continuous
 62
     7
370
     0
100
AcDbCircle
 10
179.2032708648
 20
141.1734410813
 30
0.0
 40
1.688822773227006
100
AcDbArc
 50
255.5324241583
 51
276.051505585
  0
ELLIPSE
  5
23B
330
1F
100
AcDbEntity
  8
0
  6
Continuous
 62
     7
370
    30
100
AcDbEllipse
 10
-4171.637394234
 20
171.1768477495
 30
0.0
 11
5729.432506465469
 21
0.0
 31
0.0
210
0.0
220
0.0
230
1.0
 40
0.0087268678
 41
0.7085433202946106
 42
0.7114352246449571
  0
LINE
  5
23C
330
1F
100
AcDbEntity
  8
0
  6
Continuous
 62
     7
370
    30
100
AcDbLine
 10
178.781348589
 20
190.303888851
 30
0.0
 11
178.781348589
 21
203.7132687207
 31
0.0
  0
LINE
  5
23D
330
1F
100
AcDbEntity
  8
0
  6
Continuous
 62
     7
370
    30
100
AcDbLine
 10
167.9812724061
 20
203.8229226406
 30
0.0
 11
167.9812724061
 21
184.3414602141
 31
0.0
  0
SPLINE
  5
23E
330
1F
100
AcDbEntity
  8
0
  6
Continuous
 62
     7
370
     0
100
AcDbSpline
210
0.0
220
0.0
230
1.0
 70
     8
 71
     3
 72
    20
 73
    16
 74
     0
 42
0.00000001
 43
0.00000001
 12
1.0
 22
0.0
 32
0.0
 13
1.0
 23
0.0
 33
0.0
 40
0.0
 40
0.0
 40
0.0
 40
0.0
 40
0.1249999999999999
 40
0.1249999999999999
 40
0.2499999999999997
 40
0.2499999999999997
 40
0.3749999999999996
 40
0.3749999999999996
 40
0.4999999999999994
 40
0.4999999999999994
 40
0.7499999999999994
 40
0.7499999999999994
 40
0.8749999999999997
 40
0.8749999999999997
 40
1.0
 40
1.0
 40
1.0
 40
1.0
 10
167.9812726027842
 20
184.3414599973708
 30
0.0
 10
168.2996782029983
 20
184.7726407229665
 30
0.0
 10
168.6360697103172
 20
185.188034947035
 30
0.0
 10
169.3470211598592
 20
185.985322385053
 30
0.0
 10
169.7224929672036
 20
186.3680589073371
 30
0.0
 10
170.5107659645016
 20
187.0929267903456
 30
0.0
 10
170.9222273713268
 20
187.4340120778847
 30
0.0
 10
171.7823433520562
 20
188.070351295834
 30
0.0
 10
172.2314521959919
 20
188.3654412564318
 30
0.0
 10
173.6116660420873
 20
189.1603675498611
 30
0.0
 10
174.5831590875089
 20
189.577554344475
 30
0.0
 10
176.1284660542882
 20
190.0099412548106
 30
0.0
 10
176.6550204391041
 20
190.120090391335
 30
0.0
 10
177.7113606756284
 20
190.2666291885589
 30
0.0
 10
178.2440280027405
 20
190.3038893086333
 30
0.0
 10
178.7813487566558
 20
190.3038893086333
 30
0.0
  0
ELLIPSE
  5
23F
330
1F
100
AcDbEntity
  8
0
  6
Continuous
 62
     7
370
    30
100
AcDbEllipse
 10
217.4153519533
 20
171.1768477495
 30
0.0
 11
50.88036964860688
 21
0.0
 31
0.0
210
0.0
220
0.0
230
1.0
 40
0.9826972631
 41
2.421052960543927
 42
2.433049333295183
  0
SPLINE
  5
240
330
1F
100
AcDbEntity
  8
0
  6
Continuous
 62
     7
370
    30
100
AcDbSpline
210
0.0
220
0.0
230
1.0
 70
     8
 71
     3
 72
     8
 73
     4
 74
     0
 42
0.00000001
 43
0.00000001
 12
1.0
 22
0.0
 32
0.0
 13
1.0
 23
0.0
 33
0.0
 40
0.0005829623619466
 40
0.0005829623619466
 40
0.0005829623619466
 40
0.0005829623619466
 40
0.0008743821116369
 40
0.0008743821116369
 40
0.0008743821116369
 40
0.0008743821116369
 10
179.38131067972
 20
204.0870056238247
 30
0.0
 10
179.314648676523
 20
204.1134814283621
 30
0.0
 10
179.2479819952325
 20
204.1399340903208
 30
0.0
 10
179.18131067972
 20
204.1663637618651
 30
0.0
  0
LINE
  5
241
330
1F
100
AcDbEntity
  8
0
  6
Continuous
 62
     7
370
    30
100
AcDbLine
 10
179.3813107825
 20
190.2883506652
 30
0.0
 11
179.3813107825
 21
204.0870047446
 31
0.0
  0
SPLINE
  5
242
330
1F
100
AcDbEntity
  8
0
  6
Continuous
 62
     7
370
     0
100
AcDbSpline
210
0.0
220
0.0
230
1.0
 70
     8
 71
     3
 72
     8
 73
     4
 74
     0
 42
0.00000001
 43
0.00000001
 12
1.0
 22
0.0
 32
0.0
 13
1.0
 23
0.0
 33
0.0
 40
0.0
 40
0.0
 40
0.0
 40
0.0
 40
1.0
 40
1.0
 40
1.0
 40
1.0
 10
179.38131067972
 20
190.2883509222439
 30
0.0
 10
179.1813916228005
 20
190.298710520921
 30
0.0
 10
178.9814043062259
 20
190.3038893086333
 30
0.0
 10
178.7813487566558
 20
190.3038893086333
 30
0.0
  0
LINE
  5
243
330
1F
100
AcDbEntity
  8
0
  6
Continuous
 62
     7
370
    30
100
AcDbLine
 10
179.1813106566
 20
208.7493359383
 30
0.0
 11
179.1813106566
 21
204.1663646038
 31
0.0
  0
ELLIPSE
  5
244
330
1F
100
AcDbEntity
  8
0
  6
Continuous
 62
     7
370
    30
100
AcDbEllipse
 10
130.7652710001
 20
171.1768477495
 30
0.0
 11
0.0
 21
50.00000000000003
 31
0.0
210
0.0
220
0.0
230
1.0
 40
0.9826972631
 41
5.42382420502966
 42
5.436202815550747
  0
LINE
  5
245
330
1F
100
AcDbEntity
  8
0
  6
Continuous
 62
     7
370
    30
100
AcDbLine
 10
167.5813103385
 20
204.2892060514
 30
0.0
 11
167.5813103385
 21
208.6411237057
 31
0.0
  0
LINE
  5
246
330
1F
100
AcDbEntity
  8
0
  6
Continuous
 62
     7
370
    30
100
AcDbLine
 10
167.5813103385
 20
208.6411237057
 30
0.0
 11
167.9812724061
 21
209.048126572
 31
0.0
  0
LINE
  5
247
330
1F
100
AcDbEntity
  8
0
  6
Continuous
 62
     7
370
    30
100
AcDbLine
 10
178.781348589
 20
209.1423764165
 30
0.0
 11
167.9812724061
 21
209.048126572
 31
0.0
  0
LINE
  5
248
330
1F
100
AcDbEntity
  8
0
  6
Continuous
 62
     7
370
    30
100
AcDbLine
 10
178.781348589
 20
209.1423764165
 30
0.0
 11
179.1813106566
 21
208.7493359383
 31
0.0
  0
LINE
  5
249
330
1F
100
AcDbEntity
  8
0
  6
Continuous
 62
     7
370
    30
100
AcDbLine
 10
179.1813106566
 20
138.1873308952
 30
0.0
 11
179.1813106566
 21
133.6043595608
 31
0.0
  0
LINE
  5
24A
330
1F
100
AcDbEntity
  8
0
  6
Continuous
 62
     7
370
    30
100
AcDbLine
 10
179.1813106566
 20
133.6043595608
 30
0.0
 11
178.781348589
 21
133.2113190826
 31
0.0
  0
LINE
  5
24B
330
1F
100
AcDbEntity
  8
0
  6
Continuous
 62
     7
370
    30
100
AcDbLine
 10
167.9812724061
 20
133.3055689271
 30
0.0
 11
178.781348589
 21
133.2113190826
 31
0.0
  0
LINE
  5
24C
330
1F
100
AcDbEntity
  8
0
  6
Continuous
 62
     7
370
    30
100
AcDbLine
 10
167.9812724061
 20
133.3055689271
 30
0.0
 11
167.5813103385
 21
133.7125717934
 31
0.0
  0
LINE
  5
24D
330
1F
100
AcDbEntity
  8
0
  6
Continuous
 62
     7
370
    30
100
AcDbLine
 10
167.5813103385
 20
133.7125717934
 30
0.0
 11
167.5813103385
 21
138.0644894477
 31
0.0
  0
ELLIPSE
  5
24E
330
1F
100
AcDbEntity
  8
0
  6
Continuous
 62
     7
370
    30
100
AcDbEllipse
 10
130.7652710001
 20
171.1768477495
 30
0.0
 11
0.0
 21
50.00000000000003
 31
0.0
210
0.0
220
0.0
230
1.0
 40
0.9826972631
 41
3.988575145218661
 42
4.000953755739747
  0
ELLIPSE
  5
24F
330
1F
100
AcDbEntity
  8
0
  6
Continuous
 62
     7
370
    30
100
AcDbEllipse
 10
-4171.637394234
 20
171.1768477495
 30
0.0
 11
5729.432506465469
 21
0.0
 31
0.0
210
0.0
220
0.0
230
1.0
 40
0.0087268678
 41
5.571750082535523
 42
5.5746419868859
  0
LINE
  5
250
330
1F
100
AcDbEntity
  8
0
  6
Continuous
 62
     7
370
    30
100
AcDbLine
 10
167.9812724061
 20
158.0122352849
 30
0.0
 11
167.9812724061
 21
138.5307728584
 31
0.0
  0
LINE
  5
251
330
1F
100
AcDbEntity
  8
0
  6
Continuous
 62
     7
370
    30
100
AcDbLine
 10
178.781348589
 20
142.8087099727
 30
0.0
 11
178.781348589
 21
152.0498066481
 31
0.0
  0
ARC
  5
252
330
1F
100
AcDbEntity
  8
0
  6
Continuous
 62
     7
370
     0
100
AcDbCircle
 10
179.2032708648
 20
141.1734410813
 30
0.0
 40
1.688822773227025
100
AcDbArc
 50
104.4675758417
 51
255.5324241583
  0
SPLINE
  5
253
330
1F
100
AcDbEntity
  8
0
  6
Continuous
 62
     7
370
     0
100
AcDbSpline
210
0.0
220
0.0
230
1.0
 70
     8
 71
     3
 72
    18
 73
    14
 74
     0
 42
0.00000001
 43
0.00000001
 12
1.0
 22
0.0
 32
0.0
 13
1.0
 23
0.0
 33
0.0
 40
0.0
 40
0.0
 40
0.0
 40
0.0
 40
0.25
 40
0.25
 40
0.375
 40
0.375
 40
0.5
 40
0.5
 40
0.625
 40
0.625
 40
0.75
 40
0.75
 40
1.0
 40
1.0
 40
1.0
 40
1.0
 10
178.7813487566558
 20
152.0498061904352
 30
0.0
 10
177.7039821707531
 20
152.0498061904352
 30
0.0
 10
176.6528498869602
 20
152.1982403314408
 30
0.0
 10
175.1126483781494
 20
152.6273917380975
 30
0.0
 10
174.6023010924894
 20
152.8067957047488
 30
0.0
 10
173.6184137123267
 20
153.2245008457326
 30
0.0
 10
173.1427167468781
 20
153.4629264509941
 30
0.0
 10
172.2214077432461
 20
153.9945396286318
 30
0.0
 10
171.7758060330047
 20
154.2877460004024
 30
0.0
 10
170.9134310933473
 20
154.9266336695103
 30
0.0
 10
170.5008415153593
 20
155.269423004991
 30
0.0
 10
169.325487546608
 20
156.3516662535628
 30
0.0
 10
168.619102203134
 20
157.1484949465683
 30
0.0
 10
167.9812726027842
 20
158.0122355016977
 30
0.0
  0
LINE
  5
254
330
1F
100
AcDbEntity
  8
0
  6
Continuous
 62
     7
370
    30
100
AcDbLine
 10
179.3813107825
 20
142.8528528001
 30
0.0
 11
179.3813107825
 21
152.0653448339
 31
0.0
  0
ARC
  5
255
330
1F
100
AcDbEntity
  8
0
  6
Continuous
 62
     7
370
     0
100
AcDbCircle
 10
179.2032708648
 20
141.1734410813
 30
0.0
 40
1.688822773227025
100
AcDbArc
 50
83.948494415
 51
104.4675758417
  0
SPLINE
  5
256
330
1F
100
AcDbEntity
  8
0
  6
Continuous
 62
     7
370
     0
100
AcDbSpline
210
0.0
220
0.0
230
1.0
 70
     8
 71
     3
 72
     8
 73
     4
 74
     0
 42
0.00000001
 43
0.00000001
 12
1.0
 22
0.0
 32
0.0
 13
1.0
 23
0.0
 33
0.0
 40
0.0
 40
0.0
 40
0.0
 40
0.0
 40
1.0
 40
1.0
 40
1.0
 40
1.0
 10
178.7813487566558
 20
152.0498061904352
 30
0.0
 10
178.9814043062259
 20
152.0498061904352
 30
0.0
 10
179.1813916228005
 20
152.0549849781474
 30
0.0
 10
179.38131067972
 20
152.0653445768245
 30
0.0
  0
ELLIPSE
  5
257
330
1F
100
AcDbEntity
  8
0
  6
Continuous
 62
     7
370
    30
100
AcDbEllipse
 10
501.8851086259
 20
171.1768477495
 30
0.0
 11
377.6542904466457
 21
0.0
 31
0.0
210
0.0
220
0.0
230
1.0
 40
0.1884802542
 41
3.624301547186797
 42
3.625441211723932
  0
LINE
  5
258
330
1F
100
AcDbEntity
  8
0
  6
Continuous
 62
     7
370
    30
100
AcDbLine
 10
167.3813106782
 20
158.8755713116
 30
0.0
 11
167.3813106782
 21
138.1363242205
 31
0.0
  0
SPLINE
  5
259
330
1F
100
AcDbEntity
  8
0
  6
Continuous
 62
     7
370
     0
100
AcDbSpline
210
0.0
220
0.0
230
1.0
 70
     8
 71
     3
 72
     8
 73
     4
 74
     0
 42
0.00000001
 43
0.00000001
 12
1.0
 22
0.0
 32
0.0
 13
1.0
 23
0.0
 33
0.0
 40
0.0
 40
0.0
 40
0.0
 40
0.0
 40
1.0
 40
1.0
 40
1.0
 40
1.0
 10
167.38131067972
 20
158.8755717261875
 30
0.0
 10
167.5751339474813
 20
158.5790736054508
 30
0.0
 10
167.7751603029986
 20
158.2913500992926
 30
0.0
 10
167.9812726027842
 20
158.0122355016977
 30
0.0
  0
LINE
  5
25A
330
1F
100
AcDbEntity
  8
0
  6
Continuous
 62
     7
370
    30
100
AcDbLine
 10
167.3813106782
 20
204.2173712786
 30
0.0
 11
167.3813106782
 21
183.4781241875
 31
0.0
  0
ELLIPSE
  5
25B
330
1F
100
AcDbEntity
  8
0
  6
Continuous
 62
     7
370
    30
100
AcDbEllipse
 10
501.8851086253
 20
171.1768477495
 30
0.0
 11
377.6542904460809
 21
0.0
 31
0.0
210
0.0
220
0.0
230
1.0
 40
0.1884802542
 41
2.657744095455344
 42
2.658883759992481
  0
SPLINE
  5
25C
330
1F
100
AcDbEntity
  8
0
  6
Continuous
 62
     7
370
     0
100
AcDbSpline
210
0.0
220
0.0
230
1.0
 70
     8
 71
     3
 72
     8
 73
     4
 74
     0
 42
0.00000001
 43
0.00000001
 12
1.0
 22
0.0
 32
0.0
 13
1.0
 23
0.0
 33
0.0
 40
0.0
 40
0.0
 40
0.0
 40
0.0
 40
1.0
 40
1.0
 40
1.0
 40
1.0
 10
167.9812726027842
 20
184.3414599973708
 30
0.0
 10
167.7751603029986
 20
184.0623453997758
 30
0.0
 10
167.5751339474813
 20
183.7746218936176
 30
0.0
 10
167.38131067972
 20
183.478123772881
 30
0.0
  0
LINE
  5
25D
330
1F
100
AcDbEntity
  8
0
  6
Continuous
 62
     7
370
    30
100
AcDbLine
 10
179.3813107825
 20
133.8008984264
 30
0.0
 11
179.3813107825
 21
138.2666907545
 31
0.0
  0
SPLINE
  5
25E
330
1F
100
AcDbEntity
  8
0
  6
Continuous
 62
     7
370
    30
100
AcDbSpline
210
0.0
220
0.0
230
1.0
 70
    24
 71
     3
 72
     8
 73
     4
 74
     0
 42
0.00000001
 43
0.00000001
 12
1.0
 22
0.0
 32
0.0
 13
1.0
 23
0.0
 33
0.0
 40
0.0005829623619466
 40
0.0005829623619466
 40
0.0005829623619466
 40
0.0005829623619466
 40
0.0008743821116369
 40
0.0008743821116369
 40
0.0008743821116369
 40
0.0008743821116369
 10
179.38131067972
 20
133.8008994847841
 30
0.0
 10
179.314648676523
 20
133.7353909166886
 30
0.0
 10
179.2479819952324
 20
133.6698777514434
 30
0.0
 10
179.18131067972
 20
133.604360032161
 30
0.0
  0
SPLINE
  5
25F
330
1F
100
AcDbEntity
  8
0
  6
Continuous
 62
     7
370
    30
100
AcDbSpline
210
0.0
220
0.0
230
1.0
 70
    24
 71
     3
 72
     8
 73
     4
 74
     0
 42
0.00000001
 43
0.00000001
 12
1.0
 22
0.0
 32
0.0
 13
1.0
 23
0.0
 33
0.0
 40
0.0005826626448706
 40
0.0005826626448706
 40
0.0005826626448706
 40
0.0005826626448706
 40
0.0008740823945609
 40
0.0008740823945609
 40
0.0008740823945609
 40
0.0008740823945609
 10
179.18131067972
 20
208.7493354669075
 30
0.0
 10
179.2479819952324
 20
208.6838177476251
 30
0.0
 10
179.314648676523
 20
208.6183045823799
 30
0.0
 10
179.38131067972
 20
208.5527960142843
 30
0.0
  0
LINE
  5
260
330
1F
100
AcDbEntity
  8
0
  6
Continuous
 62
     7
370
    30
100
AcDbLine
 10
179.3813107825
 20
204.0870047446
 30
0.0
 11
179.3813107825
 21
208.5527970727
 31
0.0
  0
LINE
  5
261
330
1F
100
AcDbEntity
  8
0
  6
Continuous
 62
     7
370
    30
100
AcDbLine
 10
167.3813106782
 20
138.1363242205
 30
0.0
 11
167.3813106782
 21
133.9160955783
 31
0.0
  0
LINE
  5
262
330
1F
100
AcDbEntity
  8
0
  6
Continuous
 62
     7
370
    30
100
AcDbLine
 10
167.5813103385
 20
133.7125717934
 30
0.0
 11
167.3813106782
 21
133.9160955783
 31
0.0
  0
LINE
  5
263
330
1F
100
AcDbEntity
  8
0
  6
Continuous
 62
     7
370
    30
100
AcDbLine
 10
167.3813106782
 20
208.4375999208
 30
0.0
 11
167.3813106782
 21
204.2173712786
 31
0.0
  0
LINE
  5
264
330
1F
100
AcDbEntity
  8
0
  6
Continuous
 62
     7
370
    30
100
AcDbLine
 10
167.3813106782
 20
208.4375999208
 30
0.0
 11
167.5813103385
 21
208.6411237057
 31
0.0
  0
LINE
  5
265
330
1F
100
AcDbEntity
  8
0
  6
Continuous
 62
     7
370
    30
100
AcDbLine
 10
159.8813113115
 20
171.1768477495
 30
0.0
 11
159.8813113115
 21
208.1768482264
 31
0.0
  0
LINE
  5
266
330
1F
100
AcDbEntity
  8
0
  6
Continuous
 62
     7
370
    30
100
AcDbLine
 10
159.8813113115
 20
134.1768472727
 30
0.0
 11
159.8813113115
 21
171.1768477495
 31
0.0
  0
LINE
  5
267
330
1F
100
AcDbEntity
  8
0
  6
Continuous
 62
     7
370
    30
100
AcDbLine
 10
166.1813099227
 20
181.3641923751
 30
0.0
 11
166.1813099227
 21
208.1768482264
 31
0.0
  0
LINE
  5
268
330
1F
100
AcDbEntity
  8
0
  6
Continuous
 62
     7
370
    30
100
AcDbLine
 10
166.1813099227
 20
134.1768472727
 30
0.0
 11
166.1813099227
 21
160.9895031239
 31
0.0
  0
SPLINE
  5
269
330
1F
100
AcDbEntity
  8
0
  6
Continuous
 62
     7
370
     0
100
AcDbSpline
210
0.0
220
0.0
230
1.0
 70
     8
 71
     3
 72
    22
 73
    18
 74
     0
 42
0.00000001
 43
0.00000001
 12
1.0
 22
0.0
 32
0.0
 13
1.0
 23
0.0
 33
0.0
 40
0.0
 40
0.0
 40
0.0
 40
0.0
 40
0.2499999999999995
 40
0.2499999999999995
 40
0.3124999999999995
 40
0.3124999999999995
 40
0.3749999999999995
 40
0.3749999999999995
 40
0.4999999999999996
 40
0.4999999999999996
 40
0.6249999999999997
 40
0.6249999999999997
 40
0.7499999999999997
 40
0.7499999999999997
 40
0.8749999999999998
 40
0.8749999999999998
 40
1.0
 40
1.0
 40
1.0
 40
1.0
 10
166.18131067972
 20
181.3641920883078
 30
0.0
 10
165.4222005040876
 20
179.8143923608274
 30
0.0
 10
164.8586911785927
 20
178.1814897183552
 30
0.0
 10
164.3783780035756
 20
176.0367915006897
 30
0.0
 10
164.2937463845698
 20
175.6020609906077
 30
0.0
 10
164.1490351398021
 20
174.7302445533882
 30
0.0
 10
164.0887072787453
 20
174.2921949958748
 30
0.0
 10
163.9435214549711
 20
172.9716199168431
 30
0.0
 10
163.8945409241083
 20
172.0801895988546
 30
0.0
 10
163.8934349192176
 20
170.3041116218629
 30
0.0
 10
163.9411397928875
 20
169.4142705636636
 30
0.0
 10
164.1327516254063
 20
167.650713435261
 30
0.0
 10
164.2760207427573
 20
166.7794601461559
 30
0.0
 10
164.6591355597065
 20
165.0579467843761
 30
0.0
 10
164.89765697656
 20
164.2140015132212
 30
0.0
 10
165.469930505813
 20
162.564609241601
 30
0.0
 10
165.8017532073928
 20
161.7644081427198
 30
0.0
 10
166.18131067972
 20
160.9895034107607
 30
0.0
  0
LINE
  5
26A
330
1F
100
AcDbEntity
  8
0
  6
Continuous
 62
     7
370
    30
100
AcDbLine
 10
159.3813102983
 20
171.1768477495
 30
0.0
 11
159.3813102983
 21
207.6768472131
 31
0.0
  0
LINE
  5
26B
330
1F
100
AcDbEntity
  8
0
  6
Continuous
 62
     7
370
    30
100
AcDbLine
 10
159.3813102983
 20
134.676848286
 30
0.0
 11
159.3813102983
 21
171.1768477495
 31
0.0
  0
LINE
  5
26C
330
1F
100
AcDbEntity
  8
0
  6
Continuous
 62
     7
370
    30
100
AcDbLine
 10
152.7658373408
 20
207.5613743897
 30
0.0
 11
152.7658373408
 21
134.7923211094
 31
0.0
  0
LINE
  5
26D
330
1F
100
AcDbEntity
  8
0
  6
Continuous
 62
     7
370
    30
100
AcDbLine
 10
152.3813110135
 20
171.1768477495
 30
0.0
 11
152.3813110135
 21
207.1768461998
 31
0.0
  0
LINE
  5
26E
330
1F
100
AcDbEntity
  8
0
  6
Continuous
 62
     7
370
    30
100
AcDbLine
 10
152.3813110135
 20
135.1768492993
 30
0.0
 11
152.3813110135
 21
171.1768477495
 31
0.0
  0
SPLINE
  5
26F
330
1F
100
AcDbEntity
  8
0
  6
Continuous
 62
     7
370
     0
100
AcDbSpline
210
0.0
220
0.0
230
1.0
 70
     8
 71
     3
 72
     8
 73
     4
 74
     0
 42
0.00000001
 43
0.00000001
 12
1.0
 22
0.0
 32
0.0
 13
1.0
 23
0.0
 33
0.0
 40
0.0
 40
0.0
 40
0.0
 40
0.0
 40
1.0
 40
1.0
 40
1.0
 40
1.0
 10
166.18131067972
 20
160.9895034107606
 30
0.0
 10
166.3718489960912
 20
160.6005002854362
 30
0.0
 10
166.5719288570984
 20
160.2230696263507
 30
0.0
 10
166.78131067972
 20
159.8566918785599
 30
0.0
  0
SPLINE
  5
270
330
1F
100
AcDbEntity
  8
0
  6
Continuous
 62
     7
370
     0
100
AcDbSpline
210
0.0
220
0.0
230
1.0
 70
     8
 71
     3
 72
     8
 73
     4
 74
     0
 42
0.00000001
 43
0.00000001
 12
1.0
 22
0.0
 32
0.0
 13
1.0
 23
0.0
 33
0.0
 40
0.0
 40
0.0
 40
0.0
 40
0.0
 40
1.0
 40
1.0
 40
1.0
 40
1.0
 10
166.78131067972
 20
182.4970036205086
 30
0.0
 10
166.5719288570984
 20
182.1306258727178
 30
0.0
 10
166.3718489960912
 20
181.7531952136322
 30
0.0
 10
166.18131067972
 20
181.3641920883078
 30
0.0
  0
SPLINE
  5
271
330
1F
100
AcDbEntity
  8
0
  6
Continuous
 62
     7
370
     0
100
AcDbSpline
210
0.0
220
0.0
230
1.0
 70
     8
 71
     3
 72
    16
 73
    12
 74
     0
 42
0.00000001
 43
0.00000001
 12
1.0
 22
0.0
 32
0.0
 13
1.0
 23
0.0
 33
0.0
 40
0.0
 40
0.0
 40
0.0
 40
0.0
 40
0.2499999999999976
 40
0.2499999999999976
 40
0.4999999999999951
 40
0.4999999999999951
 40
0.7499999999999927
 40
0.7499999999999927
 40
0.8749999999999963
 40
0.8749999999999963
 40
1.0
 40
1.0
 40
1.0
 40
1.0
 10
166.78131067972
 20
159.8566918785599
 30
0.0
 10
166.8287536650706
 20
159.7736758177406
 30
0.0
 10
166.8786894428151
 20
159.6877048989472
 30
0.0
 10
166.983417359918
 20
159.5107622746321
 30
0.0
 10
167.0387067740784
 20
159.4189649860546
 30
0.0
 10
167.153610355423
 20
159.2319570334151
 30
0.0
 10
167.2131856616909
 20
159.1368877257879
 30
0.0
 10
167.2987320081634
 20
159.0028757477685
 30
0.0
 10
167.3271169403123
 20
158.958881018137
 30
0.0
 10
167.3690462866249
 20
158.8942854278161
 30
0.0
 10
167.3813106797201
 20
158.8755717261874
 30
0.0
 10
167.3813106797201
 20
158.8755717261874
 30
0.0
  0
SPLINE
  5
272
330
1F
100
AcDbEntity
  8
0
  6
Continuous
 62
     7
370
     0
100
AcDbSpline
210
0.0
220
0.0
230
1.0
 70
     8
 71
     3
 72
    16
 73
    12
 74
     0
 42
0.00000001
 43
0.00000001
 12
1.0
 22
0.0
 32
0.0
 13
1.0
 23
0.0
 33
0.0
 40
0.0
 40
0.0
 40
0.0
 40
0.0
 40
0.1249999999999983
 40
0.1249999999999983
 40
0.2499999999999966
 40
0.2499999999999966
 40
0.4999999999999977
 40
0.4999999999999977
 40
0.7499999999999988
 40
0.7499999999999988
 40
1.0
 40
1.0
 40
1.0
 40
1.0
 10
167.38131067972
 20
183.478123772881
 30
0.0
 10
167.38131067972
 20
183.478123772881
 30
0.0
 10
167.369370556735
 20
183.4599080960677
 30
0.0
 10
167.3272353732
 20
183.3949984602297
 30
0.0
 10
167.2994504021576
 20
183.3519375886499
 30
0.0
 10
167.2140716527045
 20
183.218210526068
 30
0.0
 10
167.1538560827606
 20
183.1221283546492
 30
0.0
 10
167.0394242147546
 20
182.9359081157279
 30
0.0
 10
166.984773398901
 20
182.8452042696344
 30
0.0
 10
166.8792690308421
 20
182.666989521192
 30
0.0
 10
166.8286535868894
 20
182.5798445638407
 30
0.0
 10
166.78131067972
 20
182.4970036205086
 30
0.0
  0
ARC
  5
273
330
1F
100
AcDbEntity
  8
0
  6
Continuous
 62
     7
370
    30
100
AcDbCircle
 10
179.1813106797
 20
139.9768477495
 30
0.0
 40
0.2000000000000455
100
AcDbArc
 50
0.0
 51
90.0
  0
LINE
  5
274
330
1F
100
AcDbEntity
  8
0
  6
Continuous
 62
     7
370
    30
100
AcDbLine
 10
179.3813107825
 20
140.9978854741
 30
0.0
 11
179.3813107825
 21
139.9768485959
 31
0.0
  0
LINE
  5
275
330
1F
100
AcDbEntity
  8
0
  6
Continuous
 62
     7
370
    30
100
AcDbLine
 10
178.5813107445
 20
140.1768482562
 30
0.0
 11
179.1813106566
 21
140.1768482562
 31
0.0
  0
ARC
  5
276
330
1F
100
AcDbEntity
  8
0
  6
Continuous
 62
     7
370
    30
100
AcDbCircle
 10
178.5813106797
 20
140.3768477495
 30
0.0
 40
0.2000000000000171
100
AcDbArc
 50
180.0
 51
270.0
  0
ARC
  5
277
330
1F
100
AcDbEntity
  8
0
  6
Continuous
 62
     7
370
    30
100
AcDbCircle
 10
178.5813106797
 20
141.7768477495
 30
0.0
 40
0.2000000000000171
100
AcDbArc
 50
90.0
 51
180.0
  0
LINE
  5
278
330
1F
100
AcDbEntity
  8
0
  6
Continuous
 62
     7
370
    30
100
AcDbLine
 10
179.1813106566
 20
141.9768470611
 30
0.0
 11
178.5813107445
 21
141.9768470611
 31
0.0
  0
ARC
  5
279
330
1F
100
AcDbEntity
  8
0
  6
Continuous
 62
     7
370
    30
100
AcDbCircle
 10
179.1813106797
 20
142.1768477495
 30
0.0
 40
0.2000000000000171
100
AcDbArc
 50
270.0
 51
0.0
  0
LINE
  5
27A
330
1F
100
AcDbEntity
  8
0
  6
Continuous
 62
     7
370
    30
100
AcDbLine
 10
181.8813106685
 20
189.8846316423
 30
0.0
 11
181.8813106685
 21
197.176848286
 31
0.0
  0
LINE
  5
27B
330
1F
100
AcDbEntity
  8
0
  6
Continuous
 62
     7
370
    30
100
AcDbLine
 10
181.8813106685
 20
145.1768472131
 30
0.0
 11
181.8813106685
 21
152.4690638568
 31
0.0
  0
LINE
  5
27C
330
1F
100
AcDbEntity
  8
0
  6
Continuous
 62
     7
370
    30
100
AcDbLine
 10
182.3813106922
 20
152.6174421694
 30
0.0
 11
182.3813106922
 21
145.6768482264
 31
0.0
  0
LINE
  5
27D
330
1F
100
AcDbEntity
  8
0
  6
Continuous
 62
     7
370
    30
100
AcDbLine
 10
182.3813106922
 20
196.6768472727
 30
0.0
 11
182.3813106922
 21
189.7362533297
 31
0.0
  0
SPLINE
  5
27E
330
1F
100
AcDbEntity
  8
0
  6
Continuous
 62
     7
370
     0
100
AcDbSpline
210
0.0
220
0.0
230
1.0
 70
     8
 71
     3
 72
     8
 73
     4
 74
     0
 42
0.00000001
 43
0.00000001
 12
1.0
 22
0.0
 32
0.0
 13
1.0
 23
0.0
 33
0.0
 40
0.0
 40
0.0
 40
0.0
 40
0.0
 40
1.0
 40
1.0
 40
1.0
 40
1.0
 10
182.38131067972
 20
189.7362525355824
 30
0.0
 10
182.213580451636
 20
189.7899563454078
 30
0.0
 10
182.046971397181
 20
189.8393197499361
 30
0.0
 10
181.88131067972
 20
189.8846317722287
 30
0.0
  0
SPLINE
  5
27F
330
1F
100
AcDbEntity
  8
0
  6
Continuous
 62
     7
370
     0
100
AcDbSpline
210
0.0
220
0.0
230
1.0
 70
     8
 71
     3
 72
     8
 73
     4
 74
     0
 42
0.00000001
 43
0.00000001
 12
1.0
 22
0.0
 32
0.0
 13
1.0
 23
0.0
 33
0.0
 40
0.0
 40
0.0
 40
0.0
 40
0.0
 40
1.0
 40
1.0
 40
1.0
 40
1.0
 10
181.88131067972
 20
152.4690637268398
 30
0.0
 10
182.046971397181
 20
152.5143757491324
 30
0.0
 10
182.213580451636
 20
152.5637391536607
 30
0.0
 10
182.38131067972
 20
152.6174429634861
 30
0.0
  0
LINE
  5
280
330
1F
100
AcDbEntity
  8
0
  6
Continuous
 62
     7
370
    30
100
AcDbLine
 10
180.2349005185
 20
190.2125037547
 30
0.0
 11
180.2349005185
 21
197.176848286
 31
0.0
  0
LINE
  5
281
330
1F
100
AcDbEntity
  8
0
  6
Continuous
 62
     7
370
    30
100
AcDbLine
 10
180.2349005185
 20
145.1768472131
 30
0.0
 11
180.2349005185
 21
152.1411917444
 31
0.0
  0
SPLINE
  5
282
330
1F
100
AcDbEntity
  8
0
  6
Continuous
 62
     7
370
     0
100
AcDbSpline
210
0.0
220
0.0
230
1.0
 70
     8
 71
     3
 72
     8
 73
     4
 74
     0
 42
0.00000001
 43
0.00000001
 12
1.0
 22
0.0
 32
0.0
 13
1.0
 23
0.0
 33
0.0
 40
0.0
 40
0.0
 40
0.0
 40
0.0
 40
1.0
 40
1.0
 40
1.0
 40
1.0
 10
181.88131067972
 20
189.8846317722287
 30
0.0
 10
181.3473869979307
 20
190.0306721983634
 30
0.0
 10
180.7994611689148
 20
190.1413433039107
 30
0.0
 10
180.2349005182066
 20
190.2125028509251
 30
0.0
  0
SPLINE
  5
283
330
1F
100
AcDbEntity
  8
0
  6
Continuous
 62
     7
370
     0
100
AcDbSpline
210
0.0
220
0.0
230
1.0
 70
     8
 71
     3
 72
     8
 73
     4
 74
     0
 42
0.00000001
 43
0.00000001
 12
1.0
 22
0.0
 32
0.0
 13
1.0
 23
0.0
 33
0.0
 40
0.0
 40
0.0
 40
0.0
 40
0.0
 40
1.0
 40
1.0
 40
1.0
 40
1.0
 10
180.2349005182062
 20
152.1411926481433
 30
0.0
 10
180.7994611689145
 20
152.2123521951578
 30
0.0
 10
181.3473869979306
 20
152.3230233007051
 30
0.0
 10
181.88131067972
 20
152.4690637268398
 30
0.0
  0
SPLINE
  5
284
330
1F
100
AcDbEntity
  8
0
  6
Continuous
 62
     7
370
     0
100
AcDbSpline
210
0.0
220
0.0
230
1.0
 70
     8
 71
     3
 72
    18
 73
    14
 74
     0
 42
0.00000001
 43
0.00000001
 12
1.0
 22
0.0
 32
0.0
 13
1.0
 23
0.0
 33
0.0
 40
0.0
 40
0.0
 40
0.0
 40
0.0
 40
0.1250000000000019
 40
0.1250000000000019
 40
0.2500000000000038
 40
0.2500000000000038
 40
0.3750000000000057
 40
0.3750000000000057
 40
0.5000000000000075
 40
0.5000000000000075
 40
0.7500000000000038
 40
0.7500000000000038
 40
1.0
 40
1.0
 40
1.0
 40
1.0
 10
179.98131067972
 20
190.241655821814
 30
0.0
 10
179.9512682016542
 20
190.2447770870549
 30
0.0
 10
179.9177986735407
 20
190.2481401810277
 30
0.0
 10
179.8426196750431
 20
190.2552890517864
 30
0.0
 10
179.8014710631566
 20
190.2590064390458
 30
0.0
 10
179.7188534836965
 20
190.2660004327269
 30
0.0
 10
179.6771856081368
 20
190.2692897613169
 30
0.0
 10
179.6022693049311
 20
190.2748486818626
 30
0.0
 10
179.5688093871603
 20
190.2771490851884
 30
0.0
 10
179.4827333765132
 20
190.2827928434028
 30
0.0
 10
179.4436434866386
 20
190.2849804602259
 30
0.0
 10
179.3930850473002
 20
190.2877624382771
 30
0.0
 10
179.38131067972
 20
190.2883509222439
 30
0.0
 10
179.38131067972
 20
190.2883509222439
 30
0.0
  0
SPLINE
  5
285
330
1F
100
AcDbEntity
  8
0
  6
Continuous
 62
     7
370
     0
100
AcDbSpline
210
0.0
220
0.0
230
1.0
 70
     8
 71
     3
 72
    16
 73
    12
 74
     0
 42
0.00000001
 43
0.00000001
 12
1.0
 22
0.0
 32
0.0
 13
1.0
 23
0.0
 33
0.0
 40
0.0
 40
0.0
 40
0.0
 40
0.0
 40
0.25
 40
0.25
 40
0.5
 40
0.5
 40
0.75
 40
0.75
 40
0.875
 40
0.875
 40
1.0
 40
1.0
 40
1.0
 40
1.0
 10
179.38131067972
 20
152.0653445768245
 30
0.0
 10
179.38131067972
 20
152.0653445768245
 30
0.0
 10
179.3928956635107
 20
152.0659230035413
 30
0.0
 10
179.4435018552994
 20
152.0687068843562
 30
0.0
 10
179.4827733533278
 20
152.0709061438751
 30
0.0
 10
179.5971118399173
 20
152.0784012604881
 30
0.0
 10
179.6768916923378
 20
152.0841446583199
 30
0.0
 10
179.8014094323385
 20
152.0946829126801
 30
0.0
 10
179.8428336825088
 20
152.0984264788021
 30
0.0
 10
179.9177804296518
 20
152.1055539027727
 30
0.0
 10
179.9512528922452
 20
152.1089168214412
 30
0.0
 10
179.9813106797205
 20
152.1120396772542
 30
0.0
  0
SPLINE
  5
286
330
1F
100
AcDbEntity
  8
0
  6
Continuous
 62
     7
370
     0
100
AcDbSpline
210
0.0
220
0.0
230
1.0
 70
     8
 71
     3
 72
     8
 73
     4
 74
     0
 42
0.00000001
 43
0.00000001
 12
1.0
 22
0.0
 32
0.0
 13
1.0
 23
0.0
 33
0.0
 40
0.0000000000000007
 40
0.0000000000000007
 40
0.0000000000000007
 40
0.0000000000000007
 40
0.0003554964586789
 40
0.0003554964586789
 40
0.0003554964586789
 40
0.0003554964586789
 10
180.2349005182062
 20
190.2125028509251
 30
0.0
 10
180.1507368878731
 20
190.223111181141
 30
0.0
 10
180.0662083754593
 20
190.2328353701138
 30
0.0
 10
179.98131067972
 20
190.2416558218143
 30
0.0
  0
SPLINE
  5
287
330
1F
100
AcDbEntity
  8
0
  6
Continuous
 62
     7
370
     0
100
AcDbSpline
210
0.0
220
0.0
230
1.0
 70
     8
 71
     3
 72
     8
 73
     4
 74
     0
 42
0.00000001
 43
0.00000001
 12
1.0
 22
0.0
 32
0.0
 13
1.0
 23
0.0
 33
0.0
 40
0.0
 40
0.0
 40
0.0
 40
0.0
 40
0.0003554964586781
 40
0.0003554964586781
 40
0.0003554964586781
 40
0.0003554964586781
 10
179.98131067972
 20
152.1120396772546
 30
0.0
 10
180.066208375459
 20
152.1208601289551
 30
0.0
 10
180.1507368878733
 20
152.1305843179275
 30
0.0
 10
180.2349005182062
 20
152.1411926481433
 30
0.0
  0
LINE
  5
288
330
1F
100
AcDbEntity
  8
0
  6
Continuous
 62
     7
370
    30
100
AcDbLine
 10
179.3813107825
 20
142.8528528001
 30
0.0
 11
179.3813107825
 21
142.176848584
 31
0.0
  0
LINE
  5
289
330
1F
100
AcDbEntity
  8
0
  6
Continuous
 62
     7
370
    30
100
AcDbLine
 10
178.3813106186
 20
141.7768474008
 30
0.0
 11
178.3813106186
 21
140.3768479164
 31
0.0
  0
LINE
  5
28A
330
1F
100
AcDbEntity
  8
0
  6
Continuous
 62
     7
370
    30
100
AcDbLine
 10
179.3813107825
 20
139.9768485959
 30
0.0
 11
179.3813107825
 21
139.4940286215
 31
0.0
  0
SPLINE
  5
28B
330
1F
100
AcDbEntity
  8
0
  6
Continuous
 62
     7
370
     0
100
AcDbSpline
210
0.0
220
0.0
230
1.0
 70
     8
 71
     3
 72
    30
 73
    26
 74
     0
 42
0.00000001
 43
0.00000001
 12
1.0
 22
0.0
 32
0.0
 13
1.0
 23
0.0
 33
0.0
 40
0.0
 40
0.0
 40
0.0
 40
0.0
 40
0.0241322821754216
 40
0.0482743734774752
 40
0.0965518913614977
 40
0.1448421960977099
 40
0.19307345590766
 40
0.2413064269342909
 40
0.2895299102496326
 40
0.3377538486261587
 40
0.3859750470804857
 40
0.4341964117616862
 40
0.4824169644014298
 40
0.5306375360471899
 40
0.5788582953078079
 40
0.6270789567438146
 40
0.675300991083381
 40
0.7235227319539453
 40
0.7717488502844989
 40
0.8199739476189298
 40
0.8646637027717059
 40
0.9093498557729276
 40
0.9395771173628852
 40
0.9698130982872629
 40
0.9999999999999999
 40
0.9999999999999999
 40
0.9999999999999999
 40
0.9999999999999999
 10
149.681310012148
 20
182.645594448927
 30
0.0
 10
149.7406468131157
 20
182.4802256950326
 30
0.0
 10
149.8593445338721
 20
182.1494209692726
 30
0.0
 10
150.0427429479443
 20
181.4654361833418
 30
0.0
 10
150.2331377546588
 20
180.5909093819065
 30
0.0
 10
150.4087002256676
 20
179.515369066538
 30
0.0
 10
150.5528814698803
 20
178.4202993366607
 30
0.0
 10
150.6681580973103
 20
177.3087827356206
 30
0.0
 10
150.7604331520128
 20
176.1835412045714
 30
0.0
 10
150.8313139564826
 20
175.047288301974
 30
0.0
 10
150.882878749888
 20
173.9025642853497
 30
0.0
 10
150.9158985535339
 20
172.751936832279
 30
0.0
 10
150.9311402575626
 20
171.5978941146948
 30
0.0
 10
150.9287295493676
 20
170.4429453642898
 30
0.0
 10
150.9087585025234
 20
169.2895873487668
 30
0.0
 10
150.8707338109388
 20
168.1403102349081
 30
0.0
 10
150.8141425528605
 20
166.997653481754
 30
0.0
 10
150.7375128446245
 20
165.8641329443117
 30
0.0
 10
150.6395578254025
 20
164.7424067056417
 30
0.0
 10
150.5195180459525
 20
163.6623152003308
 30
0.0
 10
150.3769381606583
 20
162.6255020838107
 30
0.0
 10
150.2234722763482
 20
161.7405150174656
 30
0.0
 10
150.063608385437
 20
160.977315540305
 30
0.0
 10
149.9024133717445
 20
160.3300726004946
 30
0.0
 10
149.7549712114587
 20
159.9153126023303
 30
0.0
 10
149.681310012148
 20
159.7081010501414
 30
0.0
  0
LINE
  5
28C
330
1F
100
AcDbEntity
  8
0
  6
Continuous
 62
     7
370
    30
100
AcDbLine
 10
149.6813100121
 20
159.7081010501
 30
0.0
 11
149.6813100121
 21
144.9268485691
 31
0.0
  0
LINE
  5
28D
330
1F
100
AcDbEntity
  8
0
  6
Continuous
 62
     7
370
    30
100
AcDbLine
 10
149.6813100121
 20
197.42684693
 30
0.0
 11
149.6813100121
 21
182.6455944489
 31
0.0
  0
LINE
  5
28E
330
1F
100
AcDbEntity
  8
0
  6
Continuous
 62
     7
370
    30
100
AcDbLine
 10
148.8813113711
 20
158.7183156322
 30
0.0
 11
148.8813113711
 21
145.7268472101
 31
0.0
  0
LINE
  5
28F
330
1F
100
AcDbEntity
  8
0
  6
Continuous
 62
     7
370
    30
100
AcDbLine
 10
148.8813113711
 20
196.626848289
 30
0.0
 11
148.8813113711
 21
183.6353798668
 31
0.0
  0
SPLINE
  5
290
330
1F
100
AcDbEntity
  8
0
  6
Continuous
 62
     7
370
     0
100
AcDbSpline
210
0.0
220
0.0
230
1.0
 70
     8
 71
     3
 72
    12
 73
     8
 74
     0
 42
0.00000001
 43
0.00000001
 12
1.0
 22
0.0
 32
0.0
 13
1.0
 23
0.0
 33
0.0
 40
0.0
 40
0.0
 40
0.0
 40
0.0
 40
0.145566248533161
 40
0.2817710352611448
 40
0.4211803260043991
 40
0.7081633193764698
 40
0.9999999999999999
 40
0.9999999999999999
 40
0.9999999999999999
 40
0.9999999999999999
 10
148.8813113711339
 20
183.6353798668414
 30
0.0
 10
148.9407991293501
 20
183.6254554220093
 30
0.0
 10
149.0559489486718
 20
183.6062447799619
 30
0.0
 10
149.1922282843196
 20
183.497597795522
 30
0.0
 10
149.3513860943619
 20
183.3195267665753
 30
0.0
 10
149.5189412122742
 20
183.0380992773919
 30
0.0
 10
149.6268853572993
 20
182.7771587632058
 30
0.0
 10
149.681310012148
 20
182.645594448927
 30
0.0
  0
SPLINE
  5
291
330
1F
100
AcDbEntity
  8
0
  6
Continuous
 62
     7
370
     0
100
AcDbSpline
210
0.0
220
0.0
230
1.0
 70
     8
 71
     3
 72
    13
 73
     9
 74
     0
 42
0.00000001
 43
0.00000001
 12
1.0
 22
0.0
 32
0.0
 13
1.0
 23
0.0
 33
0.0
 40
0.0
 40
0.0
 40
0.0
 40
0.0
 40
0.2800362317531742
 40
0.5632683301797518
 40
0.6858142487682394
 40
0.8098184862240948
 40
0.9034822354711987
 40
0.9999999999999999
 40
0.9999999999999999
 40
0.9999999999999999
 40
0.9999999999999999
 10
149.681310012148
 20
159.7081010501414
 30
0.0
 10
149.6291744449067
 20
159.5816215657106
 30
0.0
 10
149.52430832198
 20
159.32721917088
 30
0.0
 10
149.3654329518485
 20
159.0573993358387
 30
0.0
 10
149.2194132517081
 20
158.8828750644304
 30
0.0
 10
149.1122338321363
 20
158.7924124634446
 30
0.0
 10
149.0003977886303
 20
158.7313722782965
 30
0.0
 10
148.921402001534
 20
158.7227111727332
 30
0.0
 10
148.8813113711339
 20
158.718315632227
 30
0.0
  0
LINE
  5
292
330
1F
100
AcDbEntity
  8
0
  6
Continuous
 62
     7
370
    30
100
AcDbLine
 10
149.0813110314
 20
159.1768476452
 30
0.0
 11
148.8813113711
 21
159.1768476452
 31
0.0
  0
LINE
  5
293
330
1F
100
AcDbEntity
  8
0
  6
Continuous
 62
     7
370
    30
100
AcDbLine
 10
149.0813110314
 20
161.7768478851
 30
0.0
 11
149.0813110314
 21
159.1768476452
 31
0.0
  0
LINE
  5
294
330
1F
100
AcDbEntity
  8
0
  6
Continuous
 62
     7
370
    30
100
AcDbLine
 10
148.8813113711
 20
159.1768476452
 30
0.0
 11
148.8813113711
 21
158.7183156322
 31
0.0
  0
LINE
  5
295
330
1F
100
AcDbEntity
  8
0
  6
Continuous
 62
     7
370
    30
100
AcDbLine
 10
149.0813110314
 20
183.1768478538
 30
0.0
 11
149.0813110314
 21
180.5768476139
 31
0.0
  0
LINE
  5
296
330
1F
100
AcDbEntity
  8
0
  6
Continuous
 62
     7
370
    30
100
AcDbLine
 10
148.8813113711
 20
183.1768478538
 30
0.0
 11
149.0813110314
 21
183.1768478538
 31
0.0
  0
LINE
  5
297
330
1F
100
AcDbEntity
  8
0
  6
Continuous
 62
     7
370
    30
100
AcDbLine
 10
148.8813113711
 20
183.6353798668
 30
0.0
 11
148.8813113711
 21
183.1768478538
 31
0.0
  0
LINE
  5
298
330
1F
100
AcDbEntity
  8
0
  6
Continuous
 62
     7
370
    30
100
AcDbLine
 10
149.0813110314
 20
161.7768478851
 30
0.0
 11
149.0813110314
 21
180.5768476139
 31
0.0
  0
LINE
  5
299
330
1F
100
AcDbEntity
  8
0
  6
Continuous
 62
     7
370
    30
100
AcDbLine
 10
148.8813113711
 20
159.1768476452
 30
0.0
 11
148.8813113711
 21
183.1768478538
 31
0.0
  0
LINE
  5
29A
330
1F
100
AcDbEntity
  8
0
  6
Continuous
 62
     7
370
    30
100
AcDbLine
 10
171.8834171362
 20
188.126847827
 30
0.0
 11
182.3813106922
 21
188.126847827
 31
0.0
  0
LINE
  5
29B
330
1F
100
AcDbEntity
  8
0
  6
Continuous
 62
     7
370
    30
100
AcDbLine
 10
182.3813106922
 20
154.226847672
 30
0.0
 11
182.3813106922
 21
156.4268476601
 31
0.0
  0
LINE
  5
29C
330
1F
100
AcDbEntity
  8
0
  6
Continuous
 62
     7
370
    30
100
AcDbLine
 10
182.3813106922
 20
185.9268478389
 30
0.0
 11
182.3813106922
 21
188.126847827
 31
0.0
  0
LINE
  5
29D
330
1F
100
AcDbEntity
  8
0
  6
Continuous
 62
     7
370
    30
100
AcDbLine
 10
182.3813106922
 20
154.226847672
 30
0.0
 11
171.8834171362
 21
154.226847672
 31
0.0
  0
LINE
  5
29E
330
1F
100
AcDbEntity
  8
0
  6
Continuous
 62
     7
370
    30
100
AcDbLine
 10
150.2801169
 20
180.2768481236
 30
0.0
 11
150.0813093327
 21
180.2768481236
 31
0.0
  0
LINE
  5
29F
330
1F
100
AcDbEntity
  8
0
  6
Continuous
 62
     7
370
    30
100
AcDbLine
 10
150.0813093327
 20
162.0768473755
 30
0.0
 11
150.2801169
 21
162.0768473755
 31
0.0
  0
ARC
  5
2A0
330
1F
100
AcDbEntity
  8
0
  6
Continuous
 62
     7
370
    30
100
AcDbCircle
 10
171.1859566204
 20
202.1768477495
 30
0.0
 40
13.80000000000002
100
AcDbArc
 50
274.8309505306
 51
284.672077465
  0
ARC
  5
2A1
330
1F
100
AcDbEntity
  8
0
  6
Continuous
 62
     7
370
    30
100
AcDbCircle
 10
171.1859566204
 20
140.1768477495
 30
0.0
 40
13.80000000000002
100
AcDbArc
 50
75.327922535
 51
85.1690494694
  0
LINE
  5
2A2
330
1F
100
AcDbEntity
  8
0
  6
Continuous
 62
     7
370
    30
100
AcDbLine
 10
182.3813106922
 20
154.1268478419
 30
0.0
 11
182.3813106922
 21
154.226847672
 31
0.0
  0
LINE
  5
2A3
330
1F
100
AcDbEntity
  8
0
  6
Continuous
 62
     7
370
    30
100
AcDbLine
 10
181.7813106637
 20
153.5268469985
 30
0.0
 11
182.3813106922
 21
154.1268478419
 31
0.0
  0
LINE
  5
2A4
330
1F
100
AcDbEntity
  8
0
  6
Continuous
 62
     7
370
    30
100
AcDbLine
 10
174.6813103847
 20
153.5268469985
 30
0.0
 11
181.7813106637
 21
153.5268469985
 31
0.0
  0
LINE
  5
2A5
330
1F
100
AcDbEntity
  8
0
  6
Continuous
 62
     7
370
    30
100
AcDbLine
 10
181.7813106637
 20
188.8268485006
 30
0.0
 11
174.6813103847
 21
188.8268485006
 31
0.0
  0
LINE
  5
2A6
330
1F
100
AcDbEntity
  8
0
  6
Continuous
 62
     7
370
    30
100
AcDbLine
 10
182.3813106922
 20
188.2268476571
 30
0.0
 11
181.7813106637
 21
188.8268485006
 31
0.0
  0
LINE
  5
2A7
330
1F
100
AcDbEntity
  8
0
  6
Continuous
 62
     7
370
    30
100
AcDbLine
 10
182.3813106922
 20
188.126847827
 30
0.0
 11
182.3813106922
 21
188.2268476571
 31
0.0
  0
LINE
  5
2A8
330
1F
100
AcDbEntity
  8
0
  6
Continuous
 62
     7
370
    30
100
AcDbLine
 10
150.0813093327
 20
162.0768473755
 30
0.0
 11
149.7813117049
 21
162.3768477972
 31
0.0
  0
LINE
  5
2A9
330
1F
100
AcDbEntity
  8
0
  6
Continuous
 62
     7
370
    30
100
AcDbLine
 10
149.7813117049
 20
179.9768477019
 30
0.0
 11
149.7813117049
 21
162.3768477972
 31
0.0
  0
LINE
  5
2AA
330
1F
100
AcDbEntity
  8
0
  6
Continuous
 62
     7
370
    30
100
AcDbLine
 10
149.7813117049
 20
179.9768477019
 30
0.0
 11
150.0813093327
 21
180.2768481236
 31
0.0
  0
LINE
  5
2AB
330
1F
100
AcDbEntity
  8
0
  6
Continuous
 62
     7
370
     0
100
AcDbLine
 10
166.0813100926
 20
181.1571174573
 30
0.0
 11
165.9813102625
 21
180.943963797
 31
0.0
  0
LINE
  5
2AC
330
1F
100
AcDbEntity
  8
0
  6
Continuous
 62
     7
370
     0
100
AcDbLine
 10
165.9813102625
 20
161.4097317021
 30
0.0
 11
166.0813100926
 21
161.1965780418
 31
0.0
  0
LINE
  5
2AD
330
1F
100
AcDbEntity
  8
0
  6
Continuous
 62
     7
370
    30
100
AcDbLine
 10
173.5308103554
 20
177.6768478836
 30
0.0
 11
173.5308103554
 21
179.1768481295
 31
0.0
  0
LINE
  5
2AE
330
1F
100
AcDbEntity
  8
0
  6
Continuous
 62
     7
370
    30
100
AcDbLine
 10
172.9534602083
 20
177.6768478836
 30
0.0
 11
172.9534602083
 21
179.1768481295
 31
0.0
  0
LINE
  5
2AF
330
1F
100
AcDbEntity
  8
0
  6
Continuous
 62
     7
370
    30
100
AcDbLine
 10
173.5308103554
 20
179.1768481295
 30
0.0
 11
172.9534602083
 21
179.1768481295
 31
0.0
  0
LINE
  5
2B0
330
1F
100
AcDbEntity
  8
0
  6
Continuous
 62
     7
370
    30
100
AcDbLine
 10
171.2308105371
 20
177.6768478836
 30
0.0
 11
171.2308105371
 21
179.1768481295
 31
0.0
  0
LINE
  5
2B1
330
1F
100
AcDbEntity
  8
0
  6
Continuous
 62
     7
370
    30
100
AcDbLine
 10
171.2308105371
 20
177.6768478836
 30
0.0
 11
173.5308103554
 21
177.6768478836
 31
0.0
  0
LINE
  5
2B2
330
1F
100
AcDbEntity
  8
0
  6
Continuous
 62
     7
370
    30
100
AcDbLine
 10
174.001810915
 20
179.1768481295
 30
0.0
 11
174.3808107741
 21
178.7978478048
 31
0.0
  0
LINE
  5
2B3
330
1F
100
AcDbEntity
  8
0
  6
Continuous
 62
     7
370
    30
100
AcDbLine
 10
174.3808107741
 20
178.7978478048
 30
0.0
 11
174.3808107741
 21
176.1768476378
 31
0.0
  0
LINE
  5
2B4
330
1F
100
AcDbEntity
  8
0
  6
Continuous
 62
     7
370
    30
100
AcDbLine
 10
174.3808107741
 20
176.1768476378
 30
0.0
 11
173.3808106102
 21
175.1768479395
 31
0.0
  0
LINE
  5
2B5
330
1F
100
AcDbEntity
  8
0
  6
Continuous
 62
     7
370
    30
100
AcDbLine
 10
173.3808106102
 20
175.1768479395
 30
0.0
 11
171.3808102823
 21
175.1768479395
 31
0.0
  0
LINE
  5
2B6
330
1F
100
AcDbEntity
  8
0
  6
Continuous
 62
     7
370
    30
100
AcDbLine
 10
171.3808102823
 20
175.1768479395
 30
0.0
 11
170.3808110497
 21
176.1768476378
 31
0.0
  0
LINE
  5
2B7
330
1F
100
AcDbEntity
  8
0
  6
Continuous
 62
     7
370
    30
100
AcDbLine
 10
170.3808110497
 20
176.1768476378
 30
0.0
 11
170.3808110497
 21
178.7978478048
 31
0.0
  0
LINE
  5
2B8
330
1F
100
AcDbEntity
  8
0
  6
Continuous
 62
     7
370
    30
100
AcDbLine
 10
170.3808110497
 20
178.7978478048
 30
0.0
 11
170.7598109088
 21
179.1768481295
 31
0.0
  0
LINE
  5
2B9
330
1F
100
AcDbEntity
  8
0
  6
Continuous
 62
     7
370
    30
100
AcDbLine
 10
173.5308103554
 20
179.1768481295
 30
0.0
 11
174.001810915
 21
179.1768481295
 31
0.0
  0
LINE
  5
2BA
330
1F
100
AcDbEntity
  8
0
  6
Continuous
 62
     7
370
    30
100
AcDbLine
 10
170.7598109088
 20
179.1768481295
 30
0.0
 11
171.2308105371
 21
179.1768481295
 31
0.0
  0
LINE
  5
2BB
330
1F
100
AcDbEntity
  8
0
  6
Continuous
 62
     7
370
    30
100
AcDbLine
 10
171.8081606842
 20
177.6768478836
 30
0.0
 11
171.8081606842
 21
179.1768481295
 31
0.0
  0
LINE
  5
2BC
330
1F
100
AcDbEntity
  8
0
  6
Continuous
 62
     7
370
    30
100
AcDbLine
 10
171.8081606842
 20
179.1768481295
 30
0.0
 11
171.2308105371
 21
179.1768481295
 31
0.0
  0
LINE
  5
2BD
330
1F
100
AcDbEntity
  8
0
  6
Continuous
 62
     7
370
    30
100
AcDbLine
 10
172.9534602083
 20
179.1768481295
 30
0.0
 11
171.8081606842
 21
179.1768481295
 31
0.0
  0
SPLINE
  5
2BE
330
1F
100
AcDbEntity
  8
0
  6
Continuous
 62
     7
370
    30
100
AcDbSpline
210
0.0
220
0.0
230
1.0
 70
     8
 71
     3
 72
    12
 73
     8
 74
     0
 42
0.00000001
 43
0.00000001
 12
1.0
 22
0.0
 32
0.0
 13
1.0
 23
0.0
 33
0.0
 40
0.0
 40
0.0
 40
0.0
 40
0.0
 40
0.1720974488268938
 40
0.3370387507292695
 40
0.5025103530923388
 40
0.6761277587540135
 40
0.9999999999999999
 40
0.9999999999999999
 40
0.9999999999999999
 40
0.9999999999999999
 10
180.3558106358659
 20
157.1967692385942
 30
0.0
 10
180.3534324644898
 20
157.1993326012981
 30
0.0
 10
180.3487750107327
 20
157.204352737095
 30
0.0
 10
180.3074476142293
 20
157.2131094840133
 30
0.0
 10
180.2398577181852
 20
157.2219310147778
 30
0.0
 10
180.1225040242441
 20
157.233196408433
 30
0.0
 10
180.0044901769249
 20
157.2391044918372
 30
0.0
 10
179.9276616248798
 20
157.2429507311016
 30
0.0
  0
LINE
  5
2BF
330
1F
100
AcDbEntity
  8
0
  6
Continuous
 62
     7
370
    30
100
AcDbLine
 10
177.2958108514
 20
157.2479444827
 30
0.0
 11
177.5884584814
 21
157.2479444827
 31
0.0
  0
LINE
  5
2C0
330
1F
100
AcDbEntity
  8
0
  6
Continuous
 62
     7
370
    30
100
AcDbLine
 10
177.2958108514
 20
157.2479444827
 30
0.0
 11
177.2958108514
 21
157.3842863824
 31
0.0
  0
LINE
  5
2C1
330
1F
100
AcDbEntity
  8
0
  6
Continuous
 62
     7
370
    30
100
AcDbLine
 10
177.7070381969
 20
157.3842863824
 30
0.0
 11
177.2958108514
 21
157.3842863824
 31
0.0
  0
SPLINE
  5
2C2
330
1F
100
AcDbEntity
  8
0
  6
Continuous
 62
     7
370
    30
100
AcDbSpline
210
0.0
220
0.0
230
1.0
 70
     8
 71
     3
 72
    12
 73
     8
 74
     0
 42
0.00000001
 43
0.00000001
 12
1.0
 22
0.0
 32
0.0
 13
1.0
 23
0.0
 33
0.0
 40
0.0
 40
0.0
 40
0.0
 40
0.0
 40
0.1663773033631479
 40
0.519794511259675
 40
0.7038997929953513
 40
0.8793738962612103
 40
1.0
 40
1.0
 40
1.0
 40
1.0
 10
179.7989849756968
 20
157.3886589418679
 30
0.0
 10
179.8405067748073
 20
157.3895145324388
 30
0.0
 10
179.970228815248
 20
157.3921875609928
 30
0.0
 10
180.1201559752432
 20
157.4113787509418
 30
0.0
 10
180.2394452101785
 20
157.4359910218615
 30
0.0
 10
180.3028686648596
 20
157.4561763680998
 30
0.0
 10
180.3224591763542
 20
157.4708641789614
 30
0.0
 10
180.3304400119495
 20
157.4768477391034
 30
0.0
  0
SPLINE
  5
2C3
330
1F
100
AcDbEntity
  8
0
  6
Continuous
 62
     7
370
    30
100
AcDbSpline
210
0.0
220
0.0
230
1.0
 70
     8
 71
     3
 72
     9
 73
     5
 74
     0
 42
0.00000001
 43
0.00000001
 12
1.0
 22
0.0
 32
0.0
 13
1.0
 23
0.0
 33
0.0
 40
0.0
 40
0.0
 40
0.0
 40
0.0
 40
0.4533257344824074
 40
1.0
 40
1.0
 40
1.0
 40
1.0
 10
180.3085718594056
 20
184.876847759965
 30
0.0
 10
180.3216921423812
 20
184.8841499899976
 30
0.0
 10
180.3506344281982
 20
184.9002581203708
 30
0.0
 10
180.3539810977479
 20
184.916288622259
 30
0.0
 10
180.3558106358659
 20
184.9250520851046
 30
0.0
  0
LINE
  5
2C4
330
1F
100
AcDbEntity
  8
0
  6
Continuous
 62
     7
370
    30
100
AcDbLine
 10
180.3558106359
 20
185.1283774983
 30
0.0
 11
180.3558106359
 21
184.9250520851
 31
0.0
  0
SPLINE
  5
2C5
330
1F
100
AcDbEntity
  8
0
  6
Continuous
 62
     7
370
    30
100
AcDbSpline
210
0.0
220
0.0
230
1.0
 70
     8
 71
     3
 72
    13
 73
     9
 74
     0
 42
0.00000001
 43
0.00000001
 12
1.0
 22
0.0
 32
0.0
 13
1.0
 23
0.0
 33
0.0
 40
0.0
 40
0.0
 40
0.0
 40
0.0
 40
0.1275747582788993
 40
0.2498448661945739
 40
0.3725079920299393
 40
0.5012095579440525
 40
0.7480811427297411
 40
1.0
 40
1.0
 40
1.0
 40
1.0
 10
180.3558106358659
 20
185.128377498272
 30
0.0
 10
180.3534363138585
 20
185.1320424230042
 30
0.0
 10
180.3487863958635
 20
185.1392198822577
 30
0.0
 10
180.3074041560175
 20
185.1479370830792
 30
0.0
 10
180.2400249999216
 20
185.1549300387658
 30
0.0
 10
180.1199676294901
 20
185.161811435211
 30
0.0
 10
179.9262385235101
 20
185.1670732402741
 30
0.0
 10
179.7465593410438
 20
185.1676182518383
 30
0.0
 10
179.6558106608254
 20
185.167893515113
 30
0.0
  0
LINE
  5
2C6
330
1F
100
AcDbEntity
  8
0
  6
Continuous
 62
     7
370
    30
100
AcDbLine
 10
177.2958108514
 20
185.1678935151
 30
0.0
 11
179.6558106608
 21
185.1678935151
 31
0.0
  0
LINE
  5
2C7
330
1F
100
AcDbEntity
  8
0
  6
Continuous
 62
     7
370
    30
100
AcDbLine
 10
177.2958108514
 20
185.1678935151
 30
0.0
 11
177.2958108514
 21
185.1768481817
 31
0.0
  0
LINE
  5
2C8
330
1F
100
AcDbEntity
  8
0
  6
Continuous
 62
     7
370
    30
100
AcDbLine
 10
177.2958108514
 20
185.1768481817
 30
0.0
 11
181.3558106834
 21
185.1768481817
 31
0.0
  0
LINE
  5
2C9
330
1F
100
AcDbEntity
  8
0
  6
Continuous
 62
     7
370
    30
100
AcDbLine
 10
181.3558106834
 20
157.1768473174
 30
0.0
 11
181.3558106834
 21
157.4768477391
 31
0.0
  0
LINE
  5
2CA
330
1F
100
AcDbEntity
  8
0
  6
Continuous
 62
     7
370
    30
100
AcDbLine
 10
181.3558106834
 20
184.87684776
 30
0.0
 11
181.3558106834
 21
185.1768481817
 31
0.0
  0
LINE
  5
2CB
330
1F
100
AcDbEntity
  8
0
  6
Continuous
 62
     7
370
    30
100
AcDbLine
 10
181.3558106834
 20
157.1768473174
 30
0.0
 11
180.3558106359
 21
157.1768473174
 31
0.0
  0
LINE
  5
2CC
330
1F
100
AcDbEntity
  8
0
  6
Continuous
 62
     7
370
    30
100
AcDbLine
 10
181.3558106834
 20
187.026847833
 30
0.0
 11
177.2958108514
 21
186.9205336358
 31
0.0
  0
SPLINE
  5
2CD
330
1F
100
AcDbEntity
  8
0
  6
Continuous
 62
     7
370
    30
100
AcDbSpline
210
0.0
220
0.0
230
1.0
 70
     8
 71
     3
 72
    10
 73
     6
 74
     0
 42
0.00000001
 43
0.00000001
 12
1.0
 22
0.0
 32
0.0
 13
1.0
 23
0.0
 33
0.0
 40
0.0
 40
0.0
 40
0.0
 40
0.0
 40
0.0084497030517936
 40
0.50413568967574
 40
1.0
 40
1.0
 40
1.0
 40
1.0
 10
180.1510798569333
 20
155.419901692453
 30
0.0
 10
180.1523653901606
 20
155.4197801381098
 30
0.0
 10
180.229064319835
 20
155.4125278261293
 30
0.0
 10
180.3237135252359
 20
155.3952089255798
 30
0.0
 10
180.3451103162992
 20
155.3833890747898
 30
0.0
 10
180.3558106358659
 20
155.3774780865341
 30
0.0
  0
LINE
  5
2CE
330
1F
100
AcDbEntity
  8
0
  6
Continuous
 62
     7
370
    30
100
AcDbLine
 10
180.3558106359
 20
155.3530345942
 30
0.0
 11
181.3558106834
 21
155.3268476661
 31
0.0
  0
LINE
  5
2CF
330
1F
100
AcDbEntity
  8
0
  6
Continuous
 62
     7
370
    30
100
AcDbLine
 10
181.3558106834
 20
185.1768481817
 30
0.0
 11
181.3558106834
 21
187.026847833
 31
0.0
  0
LINE
  5
2D0
330
1F
100
AcDbEntity
  8
0
  6
Continuous
 62
     7
370
    30
100
AcDbLine
 10
177.2958108514
 20
186.9205336358
 30
0.0
 11
177.2958108514
 21
185.1768481817
 31
0.0
  0
LINE
  5
2D1
330
1F
100
AcDbEntity
  8
0
  6
Continuous
 62
     7
370
    30
100
AcDbLine
 10
181.3558106834
 20
155.3268476661
 30
0.0
 11
181.3558106834
 21
157.1768473174
 31
0.0
  0
LINE
  5
2D2
330
1F
100
AcDbEntity
  8
0
  6
Continuous
 62
     7
370
    30
100
AcDbLine
 10
180.3558106359
 20
157.1768473174
 30
0.0
 11
180.3558106359
 21
155.3530345942
 31
0.0
  0
LINE
  5
2D3
330
1F
100
AcDbEntity
  8
0
  6
Continuous
 62
     7
370
    30
100
AcDbLine
 10
177.2958108514
 20
156.8313704144
 30
0.0
 11
177.2958108514
 21
157.2479444827
 31
0.0
  0
LINE
  5
2D4
330
1F
100
AcDbEntity
  8
0
  6
Continuous
 62
     7
370
    30
100
AcDbLine
 10
177.2958108514
 20
184.8835774969
 30
0.0
 11
177.2958108514
 21
185.1768481817
 31
0.0
  0
LINE
  5
2D5
330
1F
100
AcDbEntity
  8
0
  6
Continuous
 62
     7
370
    30
100
AcDbLine
 10
177.2958108514
 20
157.387611204
 30
0.0
 11
177.2958108514
 21
157.4768477391
 31
0.0
  0
ARC
  5
2D6
330
1F
100
AcDbEntity
  8
0
  6
Continuous
 62
     7
370
    30
100
AcDbCircle
 10
181.6033106797
 20
154.4268477495
 30
0.0
 40
0.2000000000000171
100
AcDbArc
 50
270.0
 51
0.0
  0
ARC
  5
2D7
330
1F
100
AcDbEntity
  8
0
  6
Continuous
 62
     7
370
    30
100
AcDbCircle
 10
181.6033106797
 20
187.9268477495
 30
0.0
 40
0.2000000000000171
100
AcDbArc
 50
0.0
 51
90.0
  0
LINE
  5
2D8
330
1F
100
AcDbEntity
  8
0
  6
Continuous
 62
     7
370
    30
100
AcDbLine
 10
181.6033107053
 20
188.126847827
 30
0.0
 11
175.9083106473
 21
188.126847827
 31
0.0
  0
LINE
  5
2D9
330
1F
100
AcDbEntity
  8
0
  6
Continuous
 62
     7
370
    30
100
AcDbLine
 10
175.9083106473
 20
154.226847672
 30
0.0
 11
181.6033107053
 21
154.226847672
 31
0.0
  0
LINE
  5
2DA
330
1F
100
AcDbEntity
  8
0
  6
Continuous
 62
     7
370
    30
100
AcDbLine
 10
179.7545599576
 20
187.2871375914
 30
0.0
 11
179.7545599576
 21
187.4268471535
 31
0.0
  0
LINE
  5
2DB
330
1F
100
AcDbEntity
  8
0
  6
Continuous
 62
     7
370
    30
100
AcDbLine
 10
179.7545599576
 20
187.4268471535
 30
0.0
 11
181.8033106566
 21
187.4268471535
 31
0.0
  0
LINE
  5
2DC
330
1F
100
AcDbEntity
  8
0
  6
Continuous
 62
     7
370
    30
100
AcDbLine
 10
181.8033106566
 20
154.9268483456
 30
0.0
 11
179.7545599576
 21
154.9268483456
 31
0.0
  0
LINE
  5
2DD
330
1F
100
AcDbEntity
  8
0
  6
Continuous
 62
     7
370
    30
100
AcDbLine
 10
181.8033106566
 20
154.9268483456
 30
0.0
 11
181.8033106566
 21
157.4768477391
 31
0.0
  0
LINE
  5
2DE
330
1F
100
AcDbEntity
  8
0
  6
Continuous
 62
     7
370
    30
100
AcDbLine
 10
181.8033106566
 20
184.87684776
 30
0.0
 11
181.8033106566
 21
187.4268471535
 31
0.0
  0
ARC
  5
2DF
330
1F
100
AcDbEntity
  8
0
  6
Continuous
 62
     7
370
    30
100
AcDbCircle
 10
178.7558106797
 20
186.1768477495
 30
0.0
 40
1.599999999999982
100
AcDbArc
 50
51.3751671269
 51
128.6248328731
  0
ARC
  5
2E0
330
1F
100
AcDbEntity
  8
0
  6
Continuous
 62
     7
370
    30
100
AcDbCircle
 10
178.7558106797
 20
156.1768477495
 30
0.0
 40
1.599999999999982
100
AcDbArc
 50
231.3751671269
 51
308.6248328731
  0
LINE
  5
2E1
330
1F
100
AcDbEntity
  8
0
  6
Continuous
 62
     7
370
    30
100
AcDbLine
 10
177.757061395
 20
187.4268471535
 30
0.0
 11
177.757061395
 21
187.2871375914
 31
0.0
  0
ARC
  5
2E2
330
1F
100
AcDbEntity
  8
0
  6
Continuous
 62
     7
370
    30
100
AcDbCircle
 10
175.9083106797
 20
187.9268477495
 30
0.0
 40
0.2000000000000171
100
AcDbArc
 50
90.0
 51
180.0
  0
ARC
  5
2E3
330
1F
100
AcDbEntity
  8
0
  6
Continuous
 62
     7
370
    30
100
AcDbCircle
 10
175.9083106797
 20
154.4268477495
 30
0.0
 40
0.2000000000000171
100
AcDbArc
 50
180.0
 51
270.0
  0
LINE
  5
2E4
330
1F
100
AcDbEntity
  8
0
  6
Continuous
 62
     7
370
    30
100
AcDbLine
 10
175.7083105214
 20
187.4268471535
 30
0.0
 11
177.757061395
 21
187.4268471535
 31
0.0
  0
LINE
  5
2E5
330
1F
100
AcDbEntity
  8
0
  6
Continuous
 62
     7
370
    30
100
AcDbLine
 10
175.7083105214
 20
187.9268481668
 30
0.0
 11
175.7083105214
 21
187.4268471535
 31
0.0
  0
LINE
  5
2E6
330
1F
100
AcDbEntity
  8
0
  6
Continuous
 62
     7
370
    30
100
AcDbLine
 10
181.8033106566
 20
187.4268471535
 30
0.0
 11
181.8033106566
 21
187.9268481668
 31
0.0
  0
LINE
  5
2E7
330
1F
100
AcDbEntity
  8
0
  6
Continuous
 62
     7
370
    30
100
AcDbLine
 10
177.757061395
 20
154.9268483456
 30
0.0
 11
175.7083105214
 21
154.9268483456
 31
0.0
  0
LINE
  5
2E8
330
1F
100
AcDbEntity
  8
0
  6
Continuous
 62
     7
370
    30
100
AcDbLine
 10
175.7083105214
 20
154.9268483456
 30
0.0
 11
175.7083105214
 21
154.4268473323
 31
0.0
  0
LINE
  5
2E9
330
1F
100
AcDbEntity
  8
0
  6
Continuous
 62
     7
370
    30
100
AcDbLine
 10
181.8033106566
 20
154.4268473323
 30
0.0
 11
181.8033106566
 21
154.9268483456
 31
0.0
  0
LINE
  5
2EA
330
1F
100
AcDbEntity
  8
0
  6
Continuous
 62
     7
370
    30
100
AcDbLine
 10
175.7083105214
 20
154.9268483456
 30
0.0
 11
175.7083105214
 21
157.4768477391
 31
0.0
  0
LINE
  5
2EB
330
1F
100
AcDbEntity
  8
0
  6
Continuous
 62
     7
370
    30
100
AcDbLine
 10
175.7083105214
 20
184.87684776
 30
0.0
 11
175.7083105214
 21
187.4268471535
 31
0.0
  0
LINE
  5
2EC
330
1F
100
AcDbEntity
  8
0
  6
Continuous
 62
     7
370
    30
100
AcDbLine
 10
175.7808107242
 20
184.1768480178
 30
0.0
 11
181.7308106284
 21
184.1768480178
 31
0.0
  0
LINE
  5
2ED
330
1F
100
AcDbEntity
  8
0
  6
Continuous
 62
     7
370
    30
100
AcDbLine
 10
181.7308106284
 20
158.1768474813
 30
0.0
 11
175.7808107242
 21
158.1768474813
 31
0.0
  0
ARC
  5
2EE
330
1F
100
AcDbEntity
  8
0
  6
Continuous
 62
     7
370
     0
100
AcDbCircle
 10
181.7308106797
 20
157.9768477495
 30
0.0
 40
0.2000000000000171
100
AcDbArc
 50
0.0
 51
90.0
  0
ARC
  5
2EF
330
1F
100
AcDbEntity
  8
0
  6
Continuous
 62
     7
370
    30
100
AcDbCircle
 10
181.7308106797
 20
184.3768477495
 30
0.0
 40
0.2000000000000171
100
AcDbArc
 50
270.0
 51
0.0
  0
LINE
  5
2F0
330
1F
100
AcDbEntity
  8
0
  6
Continuous
 62
     7
370
    30
100
AcDbLine
 10
181.9308106961
 20
184.376847678
 30
0.0
 11
181.9308106961
 21
183.326847599
 31
0.0
  0
LINE
  5
2F1
330
1F
100
AcDbEntity
  8
0
  6
Continuous
 62
     7
370
    30
100
AcDbLine
 10
181.9308106961
 20
159.0268479
 30
0.0
 11
181.9308106961
 21
157.9768478211
 31
0.0
  0
LINE
  5
2F2
330
1F
100
AcDbEntity
  8
0
  6
Continuous
 62
     7
370
    30
100
AcDbLine
 10
181.9308106961
 20
184.87684776
 30
0.0
 11
179.688548512
 21
184.87684776
 31
0.0
  0
LINE
  5
2F3
330
1F
100
AcDbEntity
  8
0
  6
Continuous
 62
     7
370
    30
100
AcDbLine
 10
179.688548512
 20
157.4768477391
 30
0.0
 11
181.9308106961
 21
157.4768477391
 31
0.0
  0
ARC
  5
2F4
330
1F
100
AcDbEntity
  8
0
  6
Continuous
 62
     7
370
    30
100
AcDbCircle
 10
178.7558106797
 20
186.1768477495
 30
0.0
 40
1.600000000000042
100
AcDbArc
 50
234.3409123039
 51
305.6590876961
  0
ARC
  5
2F5
330
1F
100
AcDbEntity
  8
0
  6
Continuous
 62
     7
370
     0
100
AcDbCircle
 10
178.7558106797
 20
156.1768477495
 30
0.0
 40
1.600000000000019
100
AcDbArc
 50
54.3409123039
 51
125.6590876961
  0
ARC
  5
2F6
330
1F
100
AcDbEntity
  8
0
  6
Continuous
 62
     7
370
    30
100
AcDbCircle
 10
175.7808106797
 20
184.3768477495
 30
0.0
 40
0.2000000000000171
100
AcDbArc
 50
180.0
 51
270.0
  0
ARC
  5
2F7
330
1F
100
AcDbEntity
  8
0
  6
Continuous
 62
     7
370
    30
100
AcDbCircle
 10
175.7808106797
 20
157.9768477495
 30
0.0
 40
0.1999999999999886
100
AcDbArc
 50
90.0
 51
180.0
  0
LINE
  5
2F8
330
1F
100
AcDbEntity
  8
0
  6
Continuous
 62
     7
370
    30
100
AcDbLine
 10
175.5808105982
 20
157.9768478211
 30
0.0
 11
175.5808105982
 21
158.2268473964
 31
0.0
  0
LINE
  5
2F9
330
1F
100
AcDbEntity
  8
0
  6
Continuous
 62
     7
370
    30
100
AcDbLine
 10
175.5808105982
 20
184.1268481027
 30
0.0
 11
175.5808105982
 21
184.376847678
 31
0.0
  0
LINE
  5
2FA
330
1F
100
AcDbEntity
  8
0
  6
Continuous
 62
     7
370
    30
100
AcDbLine
 10
177.8230726078
 20
184.87684776
 30
0.0
 11
175.5808105982
 21
184.87684776
 31
0.0
  0
LINE
  5
2FB
330
1F
100
AcDbEntity
  8
0
  6
Continuous
 62
     7
370
    30
100
AcDbLine
 10
175.5808105982
 20
184.87684776
 30
0.0
 11
175.5808105982
 21
184.376847678
 31
0.0
  0
LINE
  5
2FC
330
1F
100
AcDbEntity
  8
0
  6
Continuous
 62
     7
370
    30
100
AcDbLine
 10
181.9308106961
 20
184.376847678
 30
0.0
 11
181.9308106961
 21
184.87684776
 31
0.0
  0
LINE
  5
2FD
330
1F
100
AcDbEntity
  8
0
  6
Continuous
 62
     7
370
    30
100
AcDbLine
 10
175.5808105982
 20
157.4768477391
 30
0.0
 11
177.8230726078
 21
157.4768477391
 31
0.0
  0
LINE
  5
2FE
330
1F
100
AcDbEntity
  8
0
  6
Continuous
 62
     7
370
    30
100
AcDbLine
 10
175.5808105982
 20
157.9768478211
 30
0.0
 11
175.5808105982
 21
157.4768477391
 31
0.0
  0
LINE
  5
2FF
330
1F
100
AcDbEntity
  8
0
  6
Continuous
 62
     7
370
    30
100
AcDbLine
 10
181.9308106961
 20
157.4768477391
 30
0.0
 11
181.9308106961
 21
157.9768478211
 31
0.0
  0
CIRCLE
  5
300
330
1F
100
AcDbEntity
  8
0
  6
Continuous
 62
     7
370
    30
100
AcDbCircle
 10
178.7558106797
 20
156.1768477495
 30
0.0
 40
1.599999999999994
  0
LINE
  5
301
330
1F
100
AcDbEntity
  8
0
  6
Continuous
 62
     7
370
    30
100
AcDbLine
 10
170.7308104552
 20
175.1768479395
 30
0.0
 11
169.3808108858
 21
175.1768479395
 31
0.0
  0
SPLINE
  5
302
330
1F
100
AcDbEntity
  8
0
  6
Continuous
 62
     7
370
    30
100
AcDbSpline
210
0.0
220
0.0
230
1.0
 70
     8
 71
     3
 72
    27
 73
    23
 74
     0
 42
0.00000001
 43
0.00000001
 12
1.0
 22
0.0
 32
0.0
 13
1.0
 23
0.0
 33
0.0
 40
0.0
 40
0.0
 40
0.0
 40
0.0
 40
0.044204340073022
 40
0.0927676119080422
 40
0.142662705277035
 40
0.1927936674369604
 40
0.2441979262095615
 40
0.297787354755754
 40
0.3528844883698569
 40
0.4070067063447816
 40
0.4629550241090672
 40
0.5129996665738982
 40
0.564640603879129
 40
0.6125894325991756
 40
0.6617851219822571
 40
0.7126176472005985
 40
0.7647357198414423
 40
0.8190637837040433
 40
0.875016302723248
 40
0.9282485765770676
 40
0.9832620924176653
 40
0.9999999999999999
 40
0.9999999999999999
 40
0.9999999999999999
 40
0.9999999999999999
 10
170.7308104551893
 20
175.176847939524
 30
0.0
 10
170.7339718870621
 20
175.1755386937353
 30
0.0
 10
170.7406064954413
 20
175.1727910991546
 30
0.0
 10
170.7964925240848
 20
175.1500105663745
 30
0.0
 10
170.8899336841066
 20
175.1134266475979
 30
0.0
 10
171.022021611229
 20
175.0649477168442
 30
0.0
 10
171.1909000318332
 20
175.0086757768505
 30
0.0
 10
171.39713379191
 20
174.9490434083243
 30
0.0
 10
171.635775048274
 20
174.8933149527787
 30
0.0
 10
171.9016455054889
 20
174.848665701522
 30
0.0
 10
172.1757767171778
 20
174.8229332744149
 30
0.0
 10
172.4520989639705
 20
174.8180941562203
 30
0.0
 10
172.7123508395667
 20
174.8327741625707
 30
0.0
 10
172.9611191601612
 20
174.8641239273761
 30
0.0
 10
173.1930913489629
 20
174.9079537867381
 30
0.0
 10
173.4101718687619
 20
174.9615262427282
 30
0.0
 10
173.6073155257021
 20
175.0202379155881
 30
0.0
 10
173.7773396830738
 20
175.0782518083253
 30
0.0
 10
173.9089646684767
 20
175.1277299948319
 30
0.0
 10
173.9964630746277
 20
175.1626700185901
 30
0.0
 10
174.0282595287334
 20
175.1757967744911
 30
0.0
 10
174.030327928609
 20
175.1766491098688
 30
0.0
 10
174.0308104373079
 20
175.176847939524
 30
0.0
  0
LINE
  5
303
330
1F
100
AcDbEntity
  8
0
  6
Continuous
 62
     7
370
    30
100
AcDbLine
 10
182.3808106884
 20
175.1768479395
 30
0.0
 11
174.0308104373
 21
175.1768479395
 31
0.0
  0
LINE
  5
304
330
1F
100
AcDbEntity
  8
0
  6
Continuous
 62
     7
370
    30
100
AcDbLine
 10
182.3808106884
 20
167.1768475595
 30
0.0
 11
182.3808106884
 21
175.1768479395
 31
0.0
  0
LINE
  5
305
330
1F
100
AcDbEntity
  8
0
  6
Continuous
 62
     7
370
    30
100
AcDbLine
 10
169.3808108858
 20
167.1768475595
 30
0.0
 11
182.3808106884
 21
167.1768475595
 31
0.0
  0
LINE
  5
306
330
1F
100
AcDbEntity
  8
0
  6
Continuous
 62
     7
370
    30
100
AcDbLine
 10
169.3808108858
 20
175.1768479395
 30
0.0
 11
169.3808108858
 21
167.1768475595
 31
0.0
  0
SPLINE
  5
307
330
1F
100
AcDbEntity
  8
0
  6
Continuous
 62
     7
370
    30
100
AcDbSpline
210
0.0
220
0.0
230
1.0
 70
    11
 71
     3
 72
    46
 73
    42
 74
     0
 42
0.00000001
 43
0.00000001
 12
1.0
 22
0.0
 32
0.0
 13
1.0
 23
0.0
 33
0.0
 40
0.0
 40
0.0
 40
0.0
 40
0.0
 40
0.0253585434640695
 40
0.0507221994421463
 40
0.0760246797950724
 40
0.1013348970156188
 40
0.1277863925438373
 40
0.1542380010004465
 40
0.1819652769397937
 40
0.2096791522561946
 40
0.2360715264419794
 40
0.2624591345225741
 40
0.2868665132406384
 40
0.3112818296631278
 40
0.3362120434294092
 40
0.3611488879562492
 40
0.3881539126955081
 40
0.4151548082541121
 40
0.4427580655658901
 40
0.4703498164933247
 40
0.4962195723274701
 40
0.5220884422259549
 40
0.5467003268995129
 40
0.5713191110207801
 40
0.5967012740344309
 40
0.6220891116684498
 40
0.6492647116266085
 40
0.6764347528615314
 40
0.7039593129813129
 40
0.7314702844739337
 40
0.7568905878349721
 40
0.7823131433225213
 40
0.80659594580172
 40
0.830887261097642
 40
0.8566245862885343
 40
0.882365169253354
 40
0.909940760167996
 40
0.9375072897844693
 40
0.9645730946160269
 40
0.9916303732019541
 40
0.9999999999999999
 40
0.9999999999999999
 40
0.9999999999999999
 40
0.9999999999999999
 10
174.0308104373079
 20
171.1768477495343
 30
0.0
 10
174.0265744219933
 20
171.2654765887805
 30
0.0
 10
174.0181015373448
 20
171.4427521356567
 30
0.0
 10
173.9525152598665
 20
171.7006294978286
 30
0.0
 10
173.849847392394
 20
171.9429362991638
 30
0.0
 10
173.7090294446563
 20
172.1679475153576
 30
0.0
 10
173.5318068833036
 20
172.3691264549293
 30
0.0
 10
173.3181448983287
 20
172.5444297817172
 30
0.0
 10
173.0726317205137
 20
172.6835739271234
 30
0.0
 10
172.8050960083757
 20
172.7799064618643
 30
0.0
 10
172.5274319605412
 20
172.8276899350723
 30
0.0
 10
172.2564021115686
 20
172.829531575219
 30
0.0
 10
171.9965626021429
 20
172.7879451630717
 30
0.0
 10
171.7523612472506
 20
172.7097609656067
 30
0.0
 10
171.5235790909235
 20
172.5942289731214
 30
0.0
 10
171.309017862
 20
172.440911459714
 30
0.0
 10
171.1174988283172
 20
172.2498575638845
 30
0.0
 10
170.9540995331759
 20
172.0218643593264
 30
0.0
 10
170.8308306461409
 20
171.7653287804867
 30
0.0
 10
170.7531672514061
 20
171.4932812758335
 30
0.0
 10
170.7242073347049
 20
171.2166381593348
 30
0.0
 10
170.7392870965287
 20
170.9491514189424
 30
0.0
 10
170.7966325797743
 20
170.6931341837475
 30
0.0
 10
170.8909236320159
 20
170.4519079990335
 30
0.0
 10
171.0227947911708
 20
170.2279834071418
 30
0.0
 10
171.1924600953857
 20
170.0214279221177
 30
0.0
 10
171.3983666015819
 20
169.8417704877168
 30
0.0
 10
171.6382643007941
 20
169.6941585954677
 30
0.0
 10
171.9033786779526
 20
169.5891763297663
 30
0.0
 10
172.178724894021
 20
169.5312183753177
 30
0.0
 10
172.453512511823
 20
169.5216090575836
 30
0.0
 10
172.7147781905921
 20
169.5538749042612
 30
0.0
 10
172.9620413671006
 20
169.626003345053
 30
0.0
 10
173.1950236329284
 20
169.7338807703023
 30
0.0
 10
173.4109130382505
 20
169.8791671313573
 30
0.0
 10
173.6091014871795
 20
170.0636402709223
 30
0.0
 10
173.7778659287627
 20
170.2843067653611
 30
0.0
 10
173.9102806879138
 20
170.5358023504712
 30
0.0
 10
173.9964349201698
 20
170.8069400425592
 30
0.0
 10
174.0283117745984
 20
171.0239383310692
 30
0.0
 10
174.0303329366171
 20
171.1476263773685
 30
0.0
 10
174.0308104373079
 20
171.1768477495343
 30
0.0
  0
LINE
  5
308
330
1F
100
AcDbEntity
  8
0
  6
Continuous
 62
     7
370
    30
100
AcDbLine
 10
170.7308104552
 20
175.1768479395
 30
0.0
 11
170.7308104552
 21
179.1768481295
 31
0.0
  0
SPLINE
  5
309
330
1F
100
AcDbEntity
  8
0
  6
Continuous
 62
     7
370
    30
100
AcDbSpline
210
0.0
220
0.0
230
1.0
 70
     8
 71
     3
 72
     9
 73
     5
 74
     0
 42
0.00000001
 43
0.00000001
 12
1.0
 22
0.0
 32
0.0
 13
1.0
 23
0.0
 33
0.0
 40
0.0
 40
0.0
 40
0.0
 40
0.0
 40
0.2555110541600309
 40
1.0
 40
1.0
 40
1.0
 40
1.0
 10
170.7308104551893
 20
179.1768481295138
 30
0.0
 10
170.7309385340912
 20
179.1768207695029
 30
0.0
 10
170.7314397996911
 20
179.1767136899441
 30
0.0
 10
170.7448287457565
 20
179.1739836901129
 30
0.0
 10
170.7547966680985
 20
179.1719512354165
 30
0.0
  0
SPLINE
  5
30A
330
1F
100
AcDbEntity
  8
0
  6
Continuous
 62
     7
370
    30
100
AcDbSpline
210
0.0
220
0.0
230
1.0
 70
     8
 71
     3
 72
     9
 73
     5
 74
     0
 42
0.00000001
 43
0.00000001
 12
1.0
 22
0.0
 32
0.0
 13
1.0
 23
0.0
 33
0.0
 40
0.0
 40
0.0
 40
0.0
 40
0.0
 40
0.2022776041208979
 40
1.0
 40
1.0
 40
1.0
 40
1.0
 10
174.0067255042058
 20
179.1719335402876
 30
0.0
 10
174.0104013427699
 20
179.1726764787178
 30
0.0
 10
174.0285735896682
 20
179.1763493442012
 30
0.0
 10
174.0298178572174
 20
179.1766267982251
 30
0.0
 10
174.0308104373079
 20
179.1768481295138
 30
0.0
  0
LINE
  5
30B
330
1F
100
AcDbEntity
  8
0
  6
Continuous
 62
     7
370
    30
100
AcDbLine
 10
174.0308104373
 20
179.1768481295
 30
0.0
 11
174.0308104373
 21
175.1768479395
 31
0.0
  0
LINE
  5
30C
330
1F
100
AcDbEntity
  8
0
  6
Continuous
 62
     7
370
    30
100
AcDbLine
 10
175.5808105982
 20
179.1768481295
 30
0.0
 11
174.0308104373
 21
179.1768481295
 31
0.0
  0
LINE
  5
30D
330
1F
100
AcDbEntity
  8
0
  6
Continuous
 62
     7
370
    30
100
AcDbLine
 10
170.7308104552
 20
179.1768481295
 30
0.0
 11
168.8808108039
 21
179.1768481295
 31
0.0
  0
LINE
  5
30E
330
1F
100
AcDbEntity
  8
0
  6
Continuous
 62
     7
370
    30
100
AcDbLine
 10
168.8808108039
 20
163.1768473696
 30
0.0
 11
175.5808105982
 21
163.1768473696
 31
0.0
  0
LINE
  5
30F
330
1F
100
AcDbEntity
  8
0
  6
Continuous
 62
     7
370
    30
100
AcDbLine
 10
182.880810683
 20
185.9268478389
 30
0.0
 11
181.9808106694
 21
185.9268478389
 31
0.0
  0
LINE
  5
310
330
1F
100
AcDbEntity
  8
0
  6
Continuous
 62
     7
370
    30
100
AcDbLine
 10
181.9808106694
 20
156.4268476601
 30
0.0
 11
182.880810683
 21
156.4268476601
 31
0.0
  0
LINE
  5
311
330
1F
100
AcDbEntity
  8
0
  6
Continuous
 62
     7
370
    30
100
AcDbLine
 10
181.9808106694
 20
183.326847599
 30
0.0
 11
181.2808106944
 21
183.326847599
 31
0.0
  0
LINE
  5
312
330
1F
100
AcDbEntity
  8
0
  6
Continuous
 62
     7
370
    30
100
AcDbLine
 10
181.2808106944
 20
159.0268479
 30
0.0
 11
181.9808106694
 21
159.0268479
 31
0.0
  0
LINE
  5
313
330
1F
100
AcDbEntity
  8
0
  6
Continuous
 62
     7
370
    30
100
AcDbLine
 10
181.2808106944
 20
184.1268481027
 30
0.0
 11
175.5808105982
 21
184.1268481027
 31
0.0
  0
LINE
  5
314
330
1F
100
AcDbEntity
  8
0
  6
Continuous
 62
     7
370
    30
100
AcDbLine
 10
175.5808105982
 20
158.2268473964
 30
0.0
 11
181.2808106944
 21
158.2268473964
 31
0.0
  0
LINE
  5
315
330
1F
100
AcDbEntity
  8
0
  6
Continuous
 62
     7
370
    30
100
AcDbLine
 10
182.880810683
 20
175.6768475558
 30
0.0
 11
182.3808106884
 21
175.1768479395
 31
0.0
  0
LINE
  5
316
330
1F
100
AcDbEntity
  8
0
  6
Continuous
 62
     7
370
    30
100
AcDbLine
 10
182.3808106884
 20
167.1768475595
 30
0.0
 11
182.880810683
 21
166.6768479432
 31
0.0
  0
LINE
  5
317
330
1F
100
AcDbEntity
  8
0
  6
Continuous
 62
     7
370
    30
100
AcDbLine
 10
182.880810683
 20
175.6768475558
 30
0.0
 11
182.880810683
 21
166.6768479432
 31
0.0
  0
LINE
  5
318
330
1F
100
AcDbEntity
  8
0
  6
Continuous
 62
     7
370
    30
100
AcDbLine
 10
168.8808108039
 20
166.6768479432
 30
0.0
 11
169.3808108858
 21
167.1768475595
 31
0.0
  0
LINE
  5
319
330
1F
100
AcDbEntity
  8
0
  6
Continuous
 62
     7
370
    30
100
AcDbLine
 10
169.3808108858
 20
175.1768479395
 30
0.0
 11
168.8808108039
 21
175.6768475558
 31
0.0
  0
LINE
  5
31A
330
1F
100
AcDbEntity
  8
0
  6
Continuous
 62
     7
370
    30
100
AcDbLine
 10
168.8808108039
 20
166.6768479432
 30
0.0
 11
168.8808108039
 21
175.6768475558
 31
0.0
  0
LINE
  5
31B
330
1F
100
AcDbEntity
  8
0
  6
Continuous
 62
     7
370
    30
100
AcDbLine
 10
175.5808105982
 20
163.1768473696
 30
0.0
 11
175.5808105982
 21
158.2268473964
 31
0.0
  0
LINE
  5
31C
330
1F
100
AcDbEntity
  8
0
  6
Continuous
 62
     7
370
    30
100
AcDbLine
 10
168.8808108039
 20
166.6768479432
 30
0.0
 11
168.8808108039
 21
163.1768473696
 31
0.0
  0
LINE
  5
31D
330
1F
100
AcDbEntity
  8
0
  6
Continuous
 62
     7
370
    30
100
AcDbLine
 10
181.2808106944
 20
158.2268473964
 30
0.0
 11
181.2808106944
 21
159.0268479
 31
0.0
  0
LINE
  5
31E
330
1F
100
AcDbEntity
  8
0
  6
Continuous
 62
     7
370
    30
100
AcDbLine
 10
181.9808106694
 20
159.0268479
 30
0.0
 11
181.9808106694
 21
156.4268476601
 31
0.0
  0
LINE
  5
31F
330
1F
100
AcDbEntity
  8
0
  6
Continuous
 62
     7
370
    30
100
AcDbLine
 10
182.880810683
 20
156.4268476601
 30
0.0
 11
182.880810683
 21
166.6768479432
 31
0.0
  0
LINE
  5
320
330
1F
100
AcDbEntity
  8
0
  6
Continuous
 62
     7
370
    30
100
AcDbLine
 10
175.5808105982
 20
184.1268481027
 30
0.0
 11
175.5808105982
 21
179.1768481295
 31
0.0
  0
LINE
  5
321
330
1F
100
AcDbEntity
  8
0
  6
Continuous
 62
     7
370
    30
100
AcDbLine
 10
181.2808106944
 20
183.326847599
 30
0.0
 11
181.2808106944
 21
184.1268481027
 31
0.0
  0
LINE
  5
322
330
1F
100
AcDbEntity
  8
0
  6
Continuous
 62
     7
370
    30
100
AcDbLine
 10
181.9808106694
 20
185.9268478389
 30
0.0
 11
181.9808106694
 21
183.326847599
 31
0.0
  0
LINE
  5
323
330
1F
100
AcDbEntity
  8
0
  6
Continuous
 62
     7
370
    30
100
AcDbLine
 10
182.880810683
 20
175.6768475558
 30
0.0
 11
182.880810683
 21
185.9268478389
 31
0.0
  0
LINE
  5
324
330
1F
100
AcDbEntity
  8
0
  6
Continuous
 62
     7
370
    30
100
AcDbLine
 10
168.8808108039
 20
179.1768481295
 30
0.0
 11
168.8808108039
 21
175.6768475558
 31
0.0
  0
LINE
  5
325
330
1F
100
AcDbEntity
  8
0
  6
Continuous
 62
     7
370
     0
100
AcDbLine
 10
174.6313104696
 20
152.8080000814
 30
0.0
 11
174.0313105575
 21
153.0495236899
 31
0.0
  0
LINE
  5
326
330
1F
100
AcDbEntity
  8
0
  6
Continuous
 62
     7
370
     0
100
AcDbLine
 10
174.0313105575
 20
189.3041718091
 30
0.0
 11
174.6313104696
 21
189.5456954177
 31
0.0
  0
LINE
  5
327
330
1F
100
AcDbEntity
  8
0
  6
Continuous
 62
     7
370
    30
100
AcDbLine
 10
174.8813109763
 20
188.72584843
 30
0.0
 11
174.2222409986
 21
189.3849174764
 31
0.0
  0
LINE
  5
328
330
1F
100
AcDbEntity
  8
0
  6
Continuous
 62
     7
370
    30
100
AcDbLine
 10
174.2222409986
 20
152.9687780227
 30
0.0
 11
174.8813109763
 21
153.6278470691
 31
0.0
  0
LINE
  5
329
330
1F
100
AcDbEntity
  8
0
  6
Continuous
 62
     7
370
    30
100
AcDbLine
 10
173.9813106425
 20
189.2875868167
 30
0.0
 11
173.9813106425
 21
188.6629282768
 31
0.0
  0
LINE
  5
32A
330
1F
100
AcDbEntity
  8
0
  6
Continuous
 62
     7
370
    30
100
AcDbLine
 10
173.9813106425
 20
153.6907672222
 30
0.0
 11
173.9813106425
 21
153.0617556806
 31
0.0
  0
LINE
  5
32B
330
1F
100
AcDbEntity
  8
0
  6
Continuous
 62
     7
370
    30
100
AcDbLine
 10
174.8813109763
 20
153.6278470691
 30
0.0
 11
181.4813107077
 21
153.6278470691
 31
0.0
  0
LINE
  5
32C
330
1F
100
AcDbEntity
  8
0
  6
Continuous
 62
     7
370
    30
100
AcDbLine
 10
181.4813107077
 20
188.72584843
 30
0.0
 11
174.8813109763
 21
188.72584843
 31
0.0
  0
LINE
  5
32D
330
1F
100
AcDbEntity
  8
0
  6
Continuous
 62
     7
370
    30
100
AcDbLine
 10
181.4813107077
 20
153.6278470691
 30
0.0
 11
182.3813106922
 21
152.7278485979
 31
0.0
  0
LINE
  5
32E
330
1F
100
AcDbEntity
  8
0
  6
Continuous
 62
     7
370
    30
100
AcDbLine
 10
182.3813106922
 20
152.7278485979
 30
0.0
 11
182.3813106922
 21
152.6174421694
 31
0.0
  0
LINE
  5
32F
330
1F
100
AcDbEntity
  8
0
  6
Continuous
 62
     7
370
    30
100
AcDbLine
 10
182.3813106922
 20
189.6258469011
 30
0.0
 11
181.4813107077
 21
188.72584843
 31
0.0
  0
LINE
  5
330
330
1F
100
AcDbEntity
  8
0
  6
Continuous
 62
     7
370
    30
100
AcDbLine
 10
182.3813106922
 20
189.7362533297
 30
0.0
 11
182.3813106922
 21
189.6258469011
 31
0.0
  0
LINE
  5
331
330
1F
100
AcDbEntity
  8
0
  6
Continuous
 62
     7
370
    30
100
AcDbLine
 10
182.3813106922
 20
189.6258469011
 30
0.0
 11
182.3813106922
 21
188.2268476571
 31
0.0
  0
LINE
  5
332
330
1F
100
AcDbEntity
  8
0
  6
Continuous
 62
     7
370
    30
100
AcDbLine
 10
182.3813106922
 20
154.1268478419
 30
0.0
 11
182.3813106922
 21
152.7278485979
 31
0.0
  0
LINE
  5
333
330
1F
100
AcDbEntity
  8
0
  6
Continuous
 62
     7
370
    30
100
AcDbLine
 10
175.9752648241
 20
209.1678909298
 30
0.0
 11
171.575432486
 21
209.1294943627
 31
0.0
  0
LINE
  5
334
330
1F
100
AcDbEntity
  8
0
  6
Continuous
 62
     7
370
    30
100
AcDbLine
 10
176.9756631285
 20
209.1266184385
 30
0.0
 11
176.9752268038
 21
209.1766155596
 31
0.0
  0
LWPOLYLINE
  5
335
330
1F
100
AcDbEntity
  8
0
  6
Continuous
 62
     7
370
    30
100
AcDbPolyline
 90
        9
 70
   128
 43
0.0
 10
176.9752268038
 20
209.1766155596
 10
176.9560131534
 20
209.1764479216
 10
176.8991093441
 20
209.175952458
 10
176.8067030526
 20
209.1751477953
 10
176.6823449462
 20
209.1740600105
 10
176.5308141067
 20
209.1727375324
 10
176.3579340942
 20
209.1712287899
 10
176.1703480325
 20
209.1695933874
 10
175.9752648241
 20
209.1678909298
  0
LINE
  5
336
330
1F
100
AcDbEntity
  8
0
  6
Continuous
 62
     7
370
    30
100
AcDbLine
 10
170.5759072966
 20
209.0707688864
 30
0.0
 11
170.5754705064
 21
209.1207660075
 31
0.0
  0
LWPOLYLINE
  5
337
330
1F
100
AcDbEntity
  8
0
  6
Continuous
 62
     7
370
    30
100
AcDbPolyline
 90
        9
 70
   128
 43
0.0
 10
171.575432486
 20
209.1294943627
 10
171.3803492777
 20
209.127791905
 10
171.1927641473
 20
209.1261527773
 10
171.0198836691
 20
209.1246440347
 10
170.8683528296
 20
209.1233215566
 10
170.7439942576
 20
209.1222374972
 10
170.6515884317
 20
209.1214328344
 10
170.5946846224
 20
209.1209336455
 10
170.5754705064
 20
209.1207660075
  0
CIRCLE
  5
338
330
1F
100
AcDbEntity
  8
0
  6
Continuous
 62
     7
370
    30
100
AcDbCircle
 10
172.3808106797
 20
171.1768477495
 30
0.0
 40
1.0
  0
INSERT
  5
34A
330
1F
100
AcDbEntity
  8
注記
100
AcDbBlockReference
  2
SW_NOTE_0
 10
40.6378378378
 20
84.1031831242
 30
0.0
  0
MTEXT
  5
34B
330
1F
100
AcDbEntity
  8
注記
100
AcDbMText
 10
53.4421621622
 20
120.5383752235
 30
0.0
 40
3.81
 41
0.0
 71
     1
 72
     1
  1
CSF-14-xx-2UP
  7
SLDTEXTSTYLE0
 73
     1
 44
1.0
  0
INSERT
  5
357
330
1F
100
AcDbEntity
  8
0
  6
Continuous
 62
     7
370
     0
100
AcDbBlockReference
  2
SW_CENTERMARKSYMBOL_6
 10
172.3808106797
 20
171.1768477495
 30
0.0
  0
ARC
  5
358
330
1F
100
AcDbEntity
  8
0
  6
Continuous
 62
     7
370
    30
100
AcDbCircle
 10
178.7063106797
 20
64.2999821139
 30
0.0
 40
1.600000000000001
100
AcDbArc
 50
0.0
 51
24.1468479965
  0
ARC
  5
359
330
1F
100
AcDbEntity
  8
0
  6
Continuous
 62
     7
370
    30
100
AcDbCircle
 10
178.7063106797
 20
64.2999821139
 30
0.0
 40
1.6
100
AcDbArc
 50
32.9177444101
 51
45.9822511048
  0
ARC
  5
35A
330
1F
100
AcDbEntity
  8
0
  6
Continuous
 62
     7
370
    30
100
AcDbCircle
 10
178.7063106797
 20
64.2999821139
 30
0.0
 40
1.600000000000001
100
AcDbArc
 50
133.5161143141
 51
146.6302656358
  0
ARC
  5
35B
330
1F
100
AcDbEntity
  8
0
  6
Continuous
 62
     7
370
    30
100
AcDbCircle
 10
178.7063106797
 20
64.2999821139
 30
0.0
 40
1.600000000000009
100
AcDbArc
 50
216.6570597884
 51
325.9066091886
  0
ARC
  5
35C
330
1F
100
AcDbEntity
  8
0
  6
Continuous
 62
     7
370
    30
100
AcDbCircle
 10
178.7063106797
 20
64.2999821139
 30
0.0
 40
1.600000000000013
100
AcDbArc
 50
335.8531520035
 51
0.0
  0
LINE
  5
35D
330
1F
100
AcDbEntity
  8
0
  6
Continuous
 62
     7
370
    30
100
AcDbLine
 10
180.3063106082
 20
65.4021018173
 30
0.0
 11
180.3052528586
 21
65.460271294
 31
0.0
  0
LWPOLYLINE
  5
35E
330
1F
100
AcDbEntity
  8
0
  6
Continuous
 62
     7
370
    30
100
AcDbPolyline
 90
        3
 70
   128
 43
0.0
 10
177.1063104562
 20
65.4021018173
 10
177.1105791732
 20
65.2853093099
 10
177.1176199719
 20
65.2122004878
  0
ARC
  5
35F
330
1F
100
AcDbEntity
  8
0
  6
Continuous
 62
     7
370
    30
100
AcDbCircle
 10
178.7063106797
 20
65.4021017819
 30
0.0
 40
1.600000000000006
100
AcDbArc
 50
339.8540696164
 51
0.0
  0
LWPOLYLINE
  5
360
330
1F
100
AcDbEntity
  8
0
  6
Continuous
 62
     7
370
    30
100
AcDbPolyline
 90
        3
 70
   128
 43
0.0
 10
180.3063106082
 20
93.6040301796
 10
180.2892599545
 20
93.8369921397
 10
180.2819530304
 20
93.8821510401
  0
LWPOLYLINE
  5
361
330
1F
100
AcDbEntity
  8
0
  6
Continuous
 62
     7
370
    30
100
AcDbPolyline
 90
        3
 70
   128
 43
0.0
 10
177.1306682668
 20
93.8821510401
 10
177.1105791732
 20
93.7208226871
 10
177.1063104562
 20
93.6040301796
  0
LINE
  5
362
330
1F
100
AcDbEntity
  8
0
  6
Continuous
 62
     7
370
    30
100
AcDbLine
 10
177.267163369
 20
92.9048490699
 30
0.0
 11
177.2896874055
 21
92.8602713149
 31
0.0
  0
ARC
  5
363
330
1F
100
AcDbEntity
  8
0
  6
Continuous
 62
     7
370
    30
100
AcDbCircle
 10
178.7063106797
 20
93.6040306147
 30
0.0
 40
1.600000000000007
100
AcDbArc
 50
332.2995131585
 51
0.0
  0
LINE
  5
364
330
1F
100
AcDbEntity
  8
0
  6
Continuous
 62
     7
370
    30
100
AcDbLine
 10
152.3813110135
 20
105.4102704849
 30
0.0
 11
149.6813100121
 21
105.4102704849
 31
0.0
  0
LINE
  5
365
330
1F
100
AcDbEntity
  8
0
  6
Continuous
 62
     7
370
    30
100
AcDbLine
 10
149.6813100121
 20
52.910272124
 30
0.0
 11
152.3813110135
 21
52.910272124
 31
0.0
  0
LINE
  5
366
330
1F
100
AcDbEntity
  8
0
  6
Continuous
 62
     7
370
    30
100
AcDbLine
 10
149.6813100121
 20
105.4102704849
 30
0.0
 11
148.8813113711
 21
104.6102718439
 31
0.0
  0
LINE
  5
367
330
1F
100
AcDbEntity
  8
0
  6
Continuous
 62
     7
370
    30
100
AcDbLine
 10
148.8813113711
 20
53.710270765
 30
0.0
 11
149.6813100121
 21
52.910272124
 31
0.0
  0
LINE
  5
368
330
1F
100
AcDbEntity
  8
0
  6
Continuous
 62
     7
370
    30
100
AcDbLine
 10
166.1813099227
 20
42.1602708276
 30
0.0
 11
166.7813107661
 21
42.5066818472
 31
0.0
  0
LINE
  5
369
330
1F
100
AcDbEntity
  8
0
  6
Continuous
 62
     7
370
    30
100
AcDbLine
 10
166.7813107661
 20
115.8138607617
 30
0.0
 11
166.1813099227
 21
116.1602717813
 31
0.0
  0
LINE
  5
36A
330
1F
100
AcDbEntity
  8
0
  6
Continuous
 62
     7
370
    30
100
AcDbLine
 10
159.8813113115
 20
42.1602708276
 30
0.0
 11
166.1813099227
 21
42.1602708276
 31
0.0
  0
LINE
  5
36B
330
1F
100
AcDbEntity
  8
0
  6
Continuous
 62
     7
370
    30
100
AcDbLine
 10
166.1813099227
 20
116.1602717813
 30
0.0
 11
159.8813113115
 21
116.1602717813
 31
0.0
  0
ARC
  5
36C
330
1F
100
AcDbEntity
  8
0
  6
Continuous
 62
     7
370
    30
100
AcDbCircle
 10
166.9813106797
 20
42.1602713045
 30
0.0
 40
0.4000000000000192
100
AcDbArc
 50
0.0
 51
120.0
  0
ARC
  5
36D
330
1F
100
AcDbEntity
  8
0
  6
Continuous
 62
     7
370
    30
100
AcDbCircle
 10
166.9813106797
 20
116.1602713045
 30
0.0
 40
0.4000000000000069
100
AcDbArc
 50
240.0
 51
0.0
  0
LINE
  5
36E
330
1F
100
AcDbEntity
  8
0
  6
Continuous
 62
     7
370
    30
100
AcDbLine
 10
159.8813113115
 20
116.1602717813
 30
0.0
 11
159.3813102983
 21
115.660270768
 31
0.0
  0
LINE
  5
36F
330
1F
100
AcDbEntity
  8
0
  6
Continuous
 62
     7
370
    30
100
AcDbLine
 10
159.3813102983
 20
42.6602718409
 30
0.0
 11
159.8813113115
 21
42.1602708276
 31
0.0
  0
LINE
  5
370
330
1F
100
AcDbEntity
  8
0
  6
Continuous
 62
     7
370
    30
100
AcDbLine
 10
159.3813102983
 20
115.660270768
 30
0.0
 11
152.7658373408
 21
115.5447979446
 31
0.0
  0
LINE
  5
371
330
1F
100
AcDbEntity
  8
0
  6
Continuous
 62
     7
370
    30
100
AcDbLine
 10
152.7658373408
 20
42.7757446643
 30
0.0
 11
159.3813102983
 21
42.6602718409
 31
0.0
  0
LINE
  5
372
330
1F
100
AcDbEntity
  8
0
  6
Continuous
 62
     7
370
    30
100
AcDbLine
 10
152.7658373408
 20
115.5447979446
 30
0.0
 11
152.3813110135
 21
115.1602697547
 31
0.0
  0
LINE
  5
373
330
1F
100
AcDbEntity
  8
0
  6
Continuous
 62
     7
370
    30
100
AcDbLine
 10
152.3813110135
 20
43.1602728542
 30
0.0
 11
152.7658373408
 21
42.7757446643
 31
0.0
  0
ARC
  5
374
330
1F
100
AcDbEntity
  8
0
  6
Continuous
 62
     7
370
    30
100
AcDbCircle
 10
179.7813106797
 20
52.9602713045
 30
0.0
 40
0.4000000000000057
100
AcDbArc
 50
60.0
 51
180.0
  0
ARC
  5
375
330
1F
100
AcDbEntity
  8
0
  6
Continuous
 62
     7
370
    30
100
AcDbCircle
 10
179.7813106797
 20
105.3602713045
 30
0.0
 40
0.4000000000000057
100
AcDbArc
 50
180.0
 51
300.0
  0
LINE
  5
376
330
1F
100
AcDbEntity
  8
0
  6
Continuous
 62
     7
370
    30
100
AcDbLine
 10
180.2349005185
 20
53.160270768
 30
0.0
 11
181.8813106685
 21
53.160270768
 31
0.0
  0
LINE
  5
377
330
1F
100
AcDbEntity
  8
0
  6
Continuous
 62
     7
370
    30
100
AcDbLine
 10
181.8813106685
 20
105.1602718409
 30
0.0
 11
180.2349005185
 21
105.1602718409
 31
0.0
  0
LINE
  5
378
330
1F
100
AcDbEntity
  8
0
  6
Continuous
 62
     7
370
    30
100
AcDbLine
 10
180.2349005185
 20
105.1602718409
 30
0.0
 11
179.9813106946
 21
105.0138604816
 31
0.0
  0
LINE
  5
379
330
1F
100
AcDbEntity
  8
0
  6
Continuous
 62
     7
370
    30
100
AcDbLine
 10
179.9813106946
 20
53.3066821273
 30
0.0
 11
180.2349005185
 21
53.160270768
 31
0.0
  0
LINE
  5
37A
330
1F
100
AcDbEntity
  8
0
  6
Continuous
 62
     7
370
    30
100
AcDbLine
 10
181.8813106685
 20
53.160270768
 30
0.0
 11
182.3813106922
 21
53.6602717813
 31
0.0
  0
LINE
  5
37B
330
1F
100
AcDbEntity
  8
0
  6
Continuous
 62
     7
370
    30
100
AcDbLine
 10
182.3813106922
 20
104.6602708276
 30
0.0
 11
181.8813106685
 21
105.1602718409
 31
0.0
  0
LINE
  5
37C
330
1F
100
AcDbEntity
  8
0
  6
Continuous
 62
     7
370
    30
100
AcDbLine
 10
167.6449876569
 20
116.6893449601
 30
0.0
 11
167.3813106782
 21
116.6847405013
 31
0.0
  0
LINE
  5
37D
330
1F
100
AcDbEntity
  8
0
  6
Continuous
 62
     7
370
    30
100
AcDbLine
 10
167.3813106782
 20
41.6358021077
 30
0.0
 11
167.6449876569
 21
41.6311976489
 31
0.0
  0
LINE
  5
37E
330
1F
100
AcDbEntity
  8
0
  6
Continuous
 62
     7
370
    30
100
AcDbLine
 10
176.9756631285
 20
117.1100419935
 30
0.0
 11
176.9752268038
 21
117.1600391146
 31
0.0
  0
LWPOLYLINE
  5
37F
330
1F
100
AcDbEntity
  8
0
  6
Continuous
 62
     7
370
    30
100
AcDbPolyline
 90
        9
 70
   128
 43
0.0
 10
176.9752268038
 20
117.1600391146
 10
176.9560131534
 20
117.1598714765
 10
176.8991093441
 20
117.1593760129
 10
176.8067030526
 20
117.1585713502
 10
176.6823449462
 20
117.1574835654
 10
176.5308141067
 20
117.1561610874
 10
176.3579340942
 20
117.1546523448
 10
176.1703480325
 20
117.1530169424
 10
175.9752648241
 20
117.1513144847
  0
LINE
  5
380
330
1F
100
AcDbEntity
  8
0
  6
Continuous
 62
     7
370
    30
100
AcDbLine
 10
170.5759072966
 20
117.0541924413
 30
0.0
 11
170.5754705064
 21
117.1041895624
 31
0.0
  0
LWPOLYLINE
  5
381
330
1F
100
AcDbEntity
  8
0
  6
Continuous
 62
     7
370
    30
100
AcDbPolyline
 90
        9
 70
   128
 43
0.0
 10
171.575432486
 20
117.1129179176
 10
171.3803492777
 20
117.1112154599
 10
171.1927641473
 20
117.1095763322
 10
171.0198836691
 20
117.1080675896
 10
170.8683528296
 20
117.1067451116
 10
170.7439942576
 20
117.1056610521
 10
170.6515884317
 20
117.1048563894
 10
170.5946846224
 20
117.1043572005
 10
170.5754705064
 20
117.1041895624
  0
LINE
  5
382
330
1F
100
AcDbEntity
  8
0
  6
Continuous
 62
     7
370
    30
100
AcDbLine
 10
175.9752648241
 20
117.1513144847
 30
0.0
 11
171.575432486
 21
117.1129179176
 31
0.0
  0
CIRCLE
  5
383
330
1F
100
AcDbEntity
  8
0
  6
Continuous
 62
     7
370
    30
100
AcDbCircle
 10
185.0813106797
 20
79.1602713045
 30
0.0
 40
1.0
  0
LINE
  5
384
330
1F
100
AcDbEntity
  8
0
  6
Continuous
 62
     7
370
    30
100
AcDbLine
 10
149.6813100121
 20
105.4102704849
 30
0.0
 11
149.6813100121
 21
52.910272124
 31
0.0
  0
LINE
  5
385
330
1F
100
AcDbEntity
  8
0
  6
Continuous
 62
     7
370
    30
100
AcDbLine
 10
148.8813113711
 20
104.6102718439
 30
0.0
 11
148.8813113711
 21
53.710270765
 31
0.0
  0
LINE
  5
386
330
1F
100
AcDbEntity
  8
0
  6
Continuous
 62
     7
370
    30
100
AcDbLine
 10
186.7023108817
 20
71.1602709245
 30
0.0
 11
186.2313107878
 21
71.1602709245
 31
0.0
  0
LINE
  5
387
330
1F
100
AcDbEntity
  8
0
  6
Continuous
 62
     7
370
    30
100
AcDbLine
 10
186.2313107878
 20
72.6602711704
 30
0.0
 11
186.2313107878
 21
71.1602709245
 31
0.0
  0
LINE
  5
388
330
1F
100
AcDbEntity
  8
0
  6
Continuous
 62
     7
370
    30
100
AcDbLine
 10
186.2313107878
 20
72.6602711704
 30
0.0
 11
183.9313107367
 21
72.6602711704
 31
0.0
  0
LINE
  5
389
330
1F
100
AcDbEntity
  8
0
  6
Continuous
 62
     7
370
    30
100
AcDbLine
 10
183.9313107367
 20
72.6602711704
 30
0.0
 11
183.9313107367
 21
71.1602709245
 31
0.0
  0
LINE
  5
38A
330
1F
100
AcDbEntity
  8
0
  6
Continuous
 62
     7
370
    30
100
AcDbLine
 10
183.9313107367
 20
71.1602709245
 30
0.0
 11
183.460310701
 21
71.1602709245
 31
0.0
  0
LINE
  5
38B
330
1F
100
AcDbEntity
  8
0
  6
Continuous
 62
     7
370
    30
100
AcDbLine
 10
183.460310701
 20
71.1602709245
 30
0.0
 11
183.0813106672
 21
71.5392712492
 31
0.0
  0
LINE
  5
38C
330
1F
100
AcDbEntity
  8
0
  6
Continuous
 62
     7
370
    30
100
AcDbLine
 10
183.0813106672
 20
71.5392712492
 30
0.0
 11
183.0813106672
 21
74.1602714162
 31
0.0
  0
LINE
  5
38D
330
1F
100
AcDbEntity
  8
0
  6
Continuous
 62
     7
370
    30
100
AcDbLine
 10
183.0813106672
 20
74.1602714162
 30
0.0
 11
184.0813107147
 21
75.1602711145
 31
0.0
  0
LINE
  5
38E
330
1F
100
AcDbEntity
  8
0
  6
Continuous
 62
     7
370
    30
100
AcDbLine
 10
184.0813107147
 20
75.1602711145
 30
0.0
 11
186.0813105769
 21
75.1602711145
 31
0.0
  0
LINE
  5
38F
330
1F
100
AcDbEntity
  8
0
  6
Continuous
 62
     7
370
    30
100
AcDbLine
 10
186.0813105769
 20
75.1602711145
 30
0.0
 11
187.0813107408
 21
74.1602714162
 31
0.0
  0
LINE
  5
390
330
1F
100
AcDbEntity
  8
0
  6
Continuous
 62
     7
370
    30
100
AcDbLine
 10
187.0813107408
 20
74.1602714162
 30
0.0
 11
187.0813107408
 21
71.5392712492
 31
0.0
  0
LINE
  5
391
330
1F
100
AcDbEntity
  8
0
  6
Continuous
 62
     7
370
    30
100
AcDbLine
 10
187.0813107408
 20
71.5392712492
 30
0.0
 11
186.7023108817
 21
71.1602709245
 31
0.0
  0
LINE
  5
392
330
1F
100
AcDbEntity
  8
0
  6
Continuous
 62
     7
370
    30
100
AcDbLine
 10
184.5086610002
 20
72.6602711704
 30
0.0
 11
184.5086610002
 21
71.1602709245
 31
0.0
  0
LINE
  5
393
330
1F
100
AcDbEntity
  8
0
  6
Continuous
 62
     7
370
    30
100
AcDbLine
 10
183.9313107367
 20
71.1602709245
 30
0.0
 11
184.5086610002
 21
71.1602709245
 31
0.0
  0
LINE
  5
394
330
1F
100
AcDbEntity
  8
0
  6
Continuous
 62
     7
370
    30
100
AcDbLine
 10
185.6539604079
 20
72.6602711704
 30
0.0
 11
185.6539604079
 21
71.1602709245
 31
0.0
  0
LINE
  5
395
330
1F
100
AcDbEntity
  8
0
  6
Continuous
 62
     7
370
    30
100
AcDbLine
 10
185.6539604079
 20
71.1602709245
 30
0.0
 11
186.2313107878
 21
71.1602709245
 31
0.0
  0
LINE
  5
396
330
1F
100
AcDbEntity
  8
0
  6
Continuous
 62
     7
370
    30
100
AcDbLine
 10
184.5086610002
 20
71.1602709245
 30
0.0
 11
185.6539604079
 21
71.1602709245
 31
0.0
  0
SPLINE
  5
397
330
1F
100
AcDbEntity
  8
0
  6
Continuous
 62
     7
370
    30
100
AcDbSpline
210
0.0
220
0.0
230
1.0
 70
     8
 71
     3
 72
    12
 73
     8
 74
     0
 42
0.00000001
 43
0.00000001
 12
1.0
 22
0.0
 32
0.0
 13
1.0
 23
0.0
 33
0.0
 40
0.0
 40
0.0
 40
0.0
 40
0.0
 40
0.1718430104301684
 40
0.3365404269711903
 40
0.5017672133177599
 40
0.6751281004993787
 40
1.0
 40
1.0
 40
1.0
 40
1.0
 10
177.1063104562026
 20
93.14034981540782
 30
0.0
 10
177.1086886530441
 20
93.13778644684399
 30
0.0
 10
177.1133461562991
 20
93.1327662999739
 30
0.0
 10
177.1546745024319
 20
93.1240096400766
 30
0.0
 10
177.2222604413013
 20
93.1151877808466
 30
0.0
 10
177.3398950660283
 20
93.1038988269274
 30
0.0
 10
177.4582695935091
 20
93.09797391217906
 30
0.0
 10
177.5354555166822
 20
93.09411058090073
 30
0.0
  0
LINE
  5
398
330
1F
100
AcDbEntity
  8
0
  6
Continuous
 62
     7
370
    30
100
AcDbLine
 10
180.1663107063
 20
93.0891745713
 30
0.0
 11
179.87960538
 21
93.0891745713
 31
0.0
  0
LINE
  5
399
330
1F
100
AcDbEntity
  8
0
  6
Continuous
 62
     7
370
    30
100
AcDbLine
 10
180.1663107063
 20
93.0891745713
 30
0.0
 11
180.1663107063
 21
92.9528326716
 31
0.0
  0
LINE
  5
39A
330
1F
100
AcDbEntity
  8
0
  6
Continuous
 62
     7
370
    30
100
AcDbLine
 10
179.7391817264
 20
92.9528326716
 30
0.0
 11
180.1663107063
 21
92.9528326716
 31
0.0
  0
SPLINE
  5
39B
330
1F
100
AcDbEntity
  8
0
  6
Continuous
 62
     7
370
    30
100
AcDbSpline
210
0.0
220
0.0
230
1.0
 70
     8
 71
     3
 72
    12
 73
     8
 74
     0
 42
0.00000001
 43
0.00000001
 12
1.0
 22
0.0
 32
0.0
 13
1.0
 23
0.0
 33
0.0
 40
0.0
 40
0.0
 40
0.0
 40
0.0
 40
0.1758329470533367
 40
0.5252415656656261
 40
0.7072585211849729
 40
0.8807423564987773
 40
0.9999999999999999
 40
0.9999999999999999
 40
0.9999999999999999
 40
0.9999999999999999
 10
177.671592059688
 20
92.94871808848721
 30
0.0
 10
177.6271772533873
 20
92.94782160000206
 30
0.0
 10
177.4945030146223
 20
92.94514364331965
 30
0.0
 10
177.3419373882711
 20
92.92575718879999
 30
0.0
 10
177.2226813554318
 20
92.90112491043831
 30
0.0
 10
177.1592514386278
 20
92.88094320729063
 30
0.0
 10
177.1396619522289
 20
92.86625501981408
 30
0.0
 10
177.1316815457803
 20
92.86027131489855
 30
0.0
  0
SPLINE
  5
39C
330
1F
100
AcDbEntity
  8
0
  6
Continuous
 62
     7
370
    30
100
AcDbSpline
210
0.0
220
0.0
230
1.0
 70
     8
 71
     3
 72
     9
 73
     5
 74
     0
 42
0.00000001
 43
0.00000001
 12
1.0
 22
0.0
 32
0.0
 13
1.0
 23
0.0
 33
0.0
 40
0.0
 40
0.0
 40
0.0
 40
0.0
 40
0.453325693839832
 40
1.0
 40
1.0
 40
1.0
 40
1.0
 10
177.1535494654935
 20
65.46027129403693
 30
0.0
 10
177.1404291971276
 20
65.45296906373446
 30
0.0
 10
177.1114869409436
 20
65.43686093132172
 30
0.0
 10
177.1081400923405
 20
65.42083043134797
 30
0.0
 10
177.1063104562026
 20
65.4120669688974
 30
0.0
  0
LINE
  5
39D
330
1F
100
AcDbEntity
  8
0
  6
Continuous
 62
     7
370
    30
100
AcDbLine
 10
177.1063104562
 20
65.2087415557
 30
0.0
 11
177.1063104562
 21
65.4120669689
 31
0.0
  0
SPLINE
  5
39E
330
1F
100
AcDbEntity
  8
0
  6
Continuous
 62
     7
370
    30
100
AcDbSpline
210
0.0
220
0.0
230
1.0
 70
     8
 71
     3
 72
    13
 73
     9
 74
     0
 42
0.00000001
 43
0.00000001
 12
1.0
 22
0.0
 32
0.0
 13
1.0
 23
0.0
 33
0.0
 40
0.0
 40
0.0
 40
0.0
 40
0.0
 40
0.1275747718907322
 40
0.2498448728013565
 40
0.3725078828169919
 40
0.5012095865205564
 40
0.7480811571625762
 40
1.0
 40
1.0
 40
1.0
 40
1.0
 10
177.1063104562026
 20
65.20874155572993
 30
0.0
 10
177.1086848701311
 20
65.20507663091041
 30
0.0
 10
177.113334967773
 20
65.19789917206185
 30
0.0
 10
177.1547172112012
 20
65.18918197581061
 30
0.0
 10
177.2220960427948
 20
65.18218900686726
 30
0.0
 10
177.3421537859274
 20
65.17530762624337
 30
0.0
 10
177.5358827581383
 20
65.1700458117352
 30
0.0
 10
177.7155619693415
 20
65.16950080149498
 30
0.0
 10
177.8063106640738
 20
65.169225538889
 30
0.0
  0
LINE
  5
39F
330
1F
100
AcDbEntity
  8
0
  6
Continuous
 62
     7
370
    30
100
AcDbLine
 10
180.1663107063
 20
65.1692255389
 30
0.0
 11
177.8063106641
 21
65.1692255389
 31
0.0
  0
LINE
  5
3A0
330
1F
100
AcDbEntity
  8
0
  6
Continuous
 62
     7
370
    30
100
AcDbLine
 10
180.1663107063
 20
65.1692255389
 30
0.0
 11
180.1663107063
 21
65.1602708723
 31
0.0
  0
LINE
  5
3A1
330
1F
100
AcDbEntity
  8
0
  6
Continuous
 62
     7
370
    30
100
AcDbLine
 10
180.1663107063
 20
65.1602708723
 30
0.0
 11
176.106310758
 21
65.1602708723
 31
0.0
  0
LINE
  5
3A2
330
1F
100
AcDbEntity
  8
0
  6
Continuous
 62
     7
370
    30
100
AcDbLine
 10
176.106310758
 20
93.1602717366
 30
0.0
 11
176.106310758
 21
92.8602713149
 31
0.0
  0
LINE
  5
3A3
330
1F
100
AcDbEntity
  8
0
  6
Continuous
 62
     7
370
    30
100
AcDbLine
 10
176.106310758
 20
65.460271294
 30
0.0
 11
176.106310758
 21
65.1602708723
 31
0.0
  0
LINE
  5
3A4
330
1F
100
AcDbEntity
  8
0
  6
Continuous
 62
     7
370
    30
100
AcDbLine
 10
176.106310758
 20
93.1602717366
 30
0.0
 11
177.1063104562
 21
93.1602717366
 31
0.0
  0
LINE
  5
3A5
330
1F
100
AcDbEntity
  8
0
  6
Continuous
 62
     7
370
    30
100
AcDbLine
 10
176.106310758
 20
63.310271221
 30
0.0
 11
180.1663107063
 21
63.4165854182
 31
0.0
  0
SPLINE
  5
3A6
330
1F
100
AcDbEntity
  8
0
  6
Continuous
 62
     7
370
    30
100
AcDbSpline
210
0.0
220
0.0
230
1.0
 70
     8
 71
     3
 72
    10
 73
     6
 74
     0
 42
0.00000001
 43
0.00000001
 12
1.0
 22
0.0
 32
0.0
 13
1.0
 23
0.0
 33
0.0
 40
0.0
 40
0.0
 40
0.0
 40
0.0
 40
0.0009014530365487
 40
0.5003609970974007
 40
1.0
 40
1.0
 40
1.0
 40
1.0
 10
177.3076004638833
 20
94.91754332445008
 30
0.0
 10
177.3074646150599
 20
94.91755636154518
 30
0.0
 10
177.2320602956192
 20
94.92479273841067
 30
0.0
 10
177.138528079971
 20
94.94187986452131
 30
0.0
 10
177.1170509500382
 20
94.95371989091414
 30
0.0
 10
177.1063104562026
 20
94.95964096746785
 30
0.0
  0
LINE
  5
3A7
330
1F
100
AcDbEntity
  8
0
  6
Continuous
 62
     7
370
    30
100
AcDbLine
 10
177.1063104562
 20
94.9840844598
 30
0.0
 11
176.106310758
 21
95.0102713879
 31
0.0
  0
LINE
  5
3A8
330
1F
100
AcDbEntity
  8
0
  6
Continuous
 62
     7
370
    30
100
AcDbLine
 10
176.106310758
 20
65.1602708723
 30
0.0
 11
176.106310758
 21
63.310271221
 31
0.0
  0
LINE
  5
3A9
330
1F
100
AcDbEntity
  8
0
  6
Continuous
 62
     7
370
    30
100
AcDbLine
 10
180.1663107063
 20
63.4165854182
 30
0.0
 11
180.1663107063
 21
65.1602708723
 31
0.0
  0
LINE
  5
3AA
330
1F
100
AcDbEntity
  8
0
  6
Continuous
 62
     7
370
    30
100
AcDbLine
 10
176.106310758
 20
95.0102713879
 30
0.0
 11
176.106310758
 21
93.1602717366
 31
0.0
  0
LINE
  5
3AB
330
1F
100
AcDbEntity
  8
0
  6
Continuous
 62
     7
370
    30
100
AcDbLine
 10
177.1063104562
 20
93.1602717366
 30
0.0
 11
177.1063104562
 21
94.9840844598
 31
0.0
  0
LINE
  5
3AC
330
1F
100
AcDbEntity
  8
0
  6
Continuous
 62
     7
370
    30
100
AcDbLine
 10
180.1663107063
 20
93.5057486396
 30
0.0
 11
180.1663107063
 21
93.0891745713
 31
0.0
  0
LINE
  5
3AD
330
1F
100
AcDbEntity
  8
0
  6
Continuous
 62
     7
370
    30
100
AcDbLine
 10
180.1663107063
 20
65.4535415571
 30
0.0
 11
180.1663107063
 21
65.1693829324
 31
0.0
  0
LINE
  5
3AE
330
1F
100
AcDbEntity
  8
0
  6
Continuous
 62
     7
370
    30
100
AcDbLine
 10
180.1663107063
 20
92.94950785
 30
0.0
 11
180.1663107063
 21
92.8602713149
 31
0.0
  0
LINE
  5
3AF
330
1F
100
AcDbEntity
  8
0
  6
Continuous
 62
     7
370
    30
100
AcDbLine
 10
175.6588107265
 20
95.9102717217
 30
0.0
 11
175.6588107265
 21
95.4102707084
 31
0.0
  0
ARC
  5
3B0
330
1F
100
AcDbEntity
  8
0
  6
Continuous
 62
     7
370
    30
100
AcDbCircle
 10
175.8588106797
 20
95.9102713045
 30
0.0
 40
0.2000000000000028
100
AcDbArc
 50
90.0
 51
180.0
  0
LINE
  5
3B1
330
1F
100
AcDbEntity
  8
0
  6
Continuous
 62
     7
370
    30
100
AcDbLine
 10
181.5538106776
 20
96.110271382
 30
0.0
 11
175.8588108524
 21
96.110271382
 31
0.0
  0
ARC
  5
3B2
330
1F
100
AcDbEntity
  8
0
  6
Continuous
 62
     7
370
    30
100
AcDbCircle
 10
181.5538106797
 20
95.9102713045
 30
0.0
 40
0.2000000000000171
100
AcDbArc
 50
0.0
 51
90.0
  0
LINE
  5
3B3
330
1F
100
AcDbEntity
  8
0
  6
Continuous
 62
     7
370
    30
100
AcDbLine
 10
181.7538106871
 20
95.4102707084
 30
0.0
 11
181.7538106871
 21
95.9102717217
 31
0.0
  0
LINE
  5
3B4
330
1F
100
AcDbEntity
  8
0
  6
Continuous
 62
     7
370
    30
100
AcDbLine
 10
179.7050599299
 20
95.4102707084
 30
0.0
 11
181.7538106871
 21
95.4102707084
 31
0.0
  0
ARC
  5
3B5
330
1F
100
AcDbEntity
  8
0
  6
Continuous
 62
     7
370
    30
100
AcDbCircle
 10
178.7063106797
 20
94.1602713045
 30
0.0
 40
1.600000000000005
100
AcDbArc
 50
51.3751671269
 51
128.6248328731
  0
LINE
  5
3B6
330
1F
100
AcDbEntity
  8
0
  6
Continuous
 62
     7
370
    30
100
AcDbLine
 10
175.6588107265
 20
95.4102707084
 30
0.0
 11
177.7075616002
 21
95.4102707084
 31
0.0
  0
LINE
  5
3B7
330
1F
100
AcDbEntity
  8
0
  6
Continuous
 62
     7
370
    30
100
AcDbLine
 10
175.8588108524
 20
62.210271227
 30
0.0
 11
181.5538106776
 21
62.210271227
 31
0.0
  0
ARC
  5
3B8
330
1F
100
AcDbEntity
  8
0
  6
Continuous
 62
     7
370
    30
100
AcDbCircle
 10
178.7063106797
 20
64.1602713045
 30
0.0
 40
1.599999999999999
100
AcDbArc
 50
231.3751671269
 51
308.6248328731
  0
LINE
  5
3B9
330
1F
100
AcDbEntity
  8
0
  6
Continuous
 62
     7
370
    30
100
AcDbLine
 10
181.7538106871
 20
62.9102719005
 30
0.0
 11
179.7050599299
 21
62.9102719005
 31
0.0
  0
ARC
  5
3BA
330
1F
100
AcDbEntity
  8
0
  6
Continuous
 62
     7
370
    30
100
AcDbCircle
 10
181.5538106797
 20
62.4102713045
 30
0.0
 40
0.2000000000000171
100
AcDbArc
 50
270.0
 51
0.0
  0
ARC
  5
3BB
330
1F
100
AcDbEntity
  8
0
  6
Continuous
 62
     7
370
    30
100
AcDbCircle
 10
175.8588106797
 20
62.4102713045
 30
0.0
 40
0.2000000000000028
100
AcDbArc
 50
180.0
 51
270.0
  0
LINE
  5
3BC
330
1F
100
AcDbEntity
  8
0
  6
Continuous
 62
     7
370
    30
100
AcDbLine
 10
175.6588107265
 20
62.9102719005
 30
0.0
 11
175.6588107265
 21
62.4102708872
 31
0.0
  0
LINE
  5
3BD
330
1F
100
AcDbEntity
  8
0
  6
Continuous
 62
     7
370
    30
100
AcDbLine
 10
177.7075616002
 20
62.9102719005
 30
0.0
 11
175.6588107265
 21
62.9102719005
 31
0.0
  0
LINE
  5
3BE
330
1F
100
AcDbEntity
  8
0
  6
Continuous
 62
     7
370
    30
100
AcDbLine
 10
181.7538106871
 20
62.4102708872
 30
0.0
 11
181.7538106871
 21
62.9102719005
 31
0.0
  0
LINE
  5
3BF
330
1F
100
AcDbEntity
  8
0
  6
Continuous
 62
     7
370
    30
100
AcDbLine
 10
177.7075616002
 20
63.0499814626
 30
0.0
 11
177.7075616002
 21
62.9102719005
 31
0.0
  0
LINE
  5
3C0
330
1F
100
AcDbEntity
  8
0
  6
Continuous
 62
     7
370
    30
100
AcDbLine
 10
175.6588107265
 20
95.4102707084
 30
0.0
 11
175.6588107265
 21
92.8602713149
 31
0.0
  0
LINE
  5
3C1
330
1F
100
AcDbEntity
  8
0
  6
Continuous
 62
     7
370
    30
100
AcDbLine
 10
175.6588107265
 20
65.460271294
 30
0.0
 11
175.6588107265
 21
62.9102719005
 31
0.0
  0
LINE
  5
3C2
330
1F
100
AcDbEntity
  8
0
  6
Continuous
 62
     7
370
    30
100
AcDbLine
 10
179.7050599299
 20
62.9102719005
 30
0.0
 11
179.7050599299
 21
63.0499814626
 31
0.0
  0
LINE
  5
3C3
330
1F
100
AcDbEntity
  8
0
  6
Continuous
 62
     7
370
    30
100
AcDbLine
 10
181.7538106871
 20
95.4102707084
 30
0.0
 11
181.7538106871
 21
92.8602713149
 31
0.0
  0
LINE
  5
3C4
330
1F
100
AcDbEntity
  8
0
  6
Continuous
 62
     7
370
    30
100
AcDbLine
 10
181.7538106871
 20
65.460271294
 30
0.0
 11
181.7538106871
 21
62.9102719005
 31
0.0
  0
LINE
  5
3C5
330
1F
100
AcDbEntity
  8
0
  6
Continuous
 62
     7
370
    30
100
AcDbLine
 10
175.5313108034
 20
65.460271294
 30
0.0
 11
177.7735728129
 21
65.460271294
 31
0.0
  0
LINE
  5
3C6
330
1F
100
AcDbEntity
  8
0
  6
Continuous
 62
     7
370
    30
100
AcDbLine
 10
177.7735728129
 20
92.8602713149
 30
0.0
 11
175.5313108034
 21
92.8602713149
 31
0.0
  0
ARC
  5
3C7
330
1F
100
AcDbEntity
  8
0
  6
Continuous
 62
     7
370
    30
100
AcDbCircle
 10
178.7063106797
 20
64.1602713045
 30
0.0
 40
1.600000000000007
100
AcDbArc
 50
54.3409123039
 51
125.6590876961
  0
ARC
  5
3C8
330
1F
100
AcDbEntity
  8
0
  6
Continuous
 62
     7
370
    30
100
AcDbCircle
 10
178.7063106797
 20
94.1602713045
 30
0.0
 40
1.600000000000007
100
AcDbArc
 50
234.3409123039
 51
305.6590876961
  0
LINE
  5
3C9
330
1F
100
AcDbEntity
  8
0
  6
Continuous
 62
     7
370
    30
100
AcDbLine
 10
175.5313108034
 20
65.960271376
 30
0.0
 11
175.5313108034
 21
65.460271294
 31
0.0
  0
ARC
  5
3CA
330
1F
100
AcDbEntity
  8
0
  6
Continuous
 62
     7
370
    30
100
AcDbCircle
 10
175.7313106797
 20
65.9602713045
 30
0.0
 40
0.2000000000000028
100
AcDbArc
 50
90.0
 51
180.0
  0
LINE
  5
3CB
330
1F
100
AcDbEntity
  8
0
  6
Continuous
 62
     7
370
    30
100
AcDbLine
 10
181.6813107172
 20
66.1602710362
 30
0.0
 11
175.7313104637
 21
66.1602710362
 31
0.0
  0
ARC
  5
3CC
330
1F
100
AcDbEntity
  8
0
  6
Continuous
 62
     7
370
    30
100
AcDbCircle
 10
181.6813106797
 20
65.9602713045
 30
0.0
 40
0.2000000000000171
100
AcDbArc
 50
0.0
 51
90.0
  0
LINE
  5
3CD
330
1F
100
AcDbEntity
  8
0
  6
Continuous
 62
     7
370
    30
100
AcDbLine
 10
181.8813106685
 20
65.460271294
 30
0.0
 11
181.8813106685
 21
65.960271376
 31
0.0
  0
LINE
  5
3CE
330
1F
100
AcDbEntity
  8
0
  6
Continuous
 62
     7
370
    30
100
AcDbLine
 10
179.6390484843
 20
65.460271294
 30
0.0
 11
181.8813106685
 21
65.460271294
 31
0.0
  0
ARC
  5
3CF
330
1F
100
AcDbEntity
  8
0
  6
Continuous
 62
     7
370
    30
100
AcDbCircle
 10
181.6813106797
 20
92.3602713045
 30
0.0
 40
0.2000000000000171
100
AcDbArc
 50
270.0
 51
0.0
  0
LINE
  5
3D0
330
1F
100
AcDbEntity
  8
0
  6
Continuous
 62
     7
370
    30
100
AcDbLine
 10
181.8813106685
 20
92.3602712329
 30
0.0
 11
181.8813106685
 21
92.1102716576
 31
0.0
  0
LINE
  5
3D1
330
1F
100
AcDbEntity
  8
0
  6
Continuous
 62
     7
370
    30
100
AcDbLine
 10
181.8813106685
 20
66.2102709513
 30
0.0
 11
181.8813106685
 21
65.960271376
 31
0.0
  0
LINE
  5
3D2
330
1F
100
AcDbEntity
  8
0
  6
Continuous
 62
     7
370
    30
100
AcDbLine
 10
181.8813106685
 20
92.8602713149
 30
0.0
 11
179.6390484843
 21
92.8602713149
 31
0.0
  0
LINE
  5
3D3
330
1F
100
AcDbEntity
  8
0
  6
Continuous
 62
     7
370
    30
100
AcDbLine
 10
181.8813106685
 20
92.3602712329
 30
0.0
 11
181.8813106685
 21
92.8602713149
 31
0.0
  0
LINE
  5
3D4
330
1F
100
AcDbEntity
  8
0
  6
Continuous
 62
     7
370
    30
100
AcDbLine
 10
175.7313104637
 20
92.1602715727
 30
0.0
 11
181.6813107172
 21
92.1602715727
 31
0.0
  0
ARC
  5
3D5
330
1F
100
AcDbEntity
  8
0
  6
Continuous
 62
     7
370
    30
100
AcDbCircle
 10
175.7313106797
 20
92.3602713045
 30
0.0
 40
0.2000000000000028
100
AcDbArc
 50
180.0
 51
270.0
  0
LINE
  5
3D6
330
1F
100
AcDbEntity
  8
0
  6
Continuous
 62
     7
370
    30
100
AcDbLine
 10
175.5313108034
 20
92.8602713149
 30
0.0
 11
175.5313108034
 21
92.3602712329
 31
0.0
  0
LINE
  5
3D7
330
1F
100
AcDbEntity
  8
0
  6
Continuous
 62
     7
370
    30
100
AcDbLine
 10
175.5313108034
 20
65.960271376
 30
0.0
 11
175.5313108034
 21
67.010271455
 31
0.0
  0
LINE
  5
3D8
330
1F
100
AcDbEntity
  8
0
  6
Continuous
 62
     7
370
    30
100
AcDbLine
 10
175.5313108034
 20
91.310271154
 30
0.0
 11
175.5313108034
 21
92.3602712329
 31
0.0
  0
CIRCLE
  5
3D9
330
1F
100
AcDbEntity
  8
0
  6
Continuous
 62
     7
370
    30
100
AcDbCircle
 10
178.7063106797
 20
94.1602713045
 30
0.0
 40
1.599999999999994
  0
SPLINE
  5
3DA
330
1F
100
AcDbEntity
  8
0
  6
Continuous
 62
     7
370
    30
100
AcDbSpline
210
0.0
220
0.0
230
1.0
 70
     8
 71
     3
 72
    27
 73
    23
 74
     0
 42
0.00000001
 43
0.00000001
 12
1.0
 22
0.0
 32
0.0
 13
1.0
 23
0.0
 33
0.0
 40
0.0
 40
0.0
 40
0.0
 40
0.0
 40
0.0442043344928286
 40
0.0927676452255492
 40
0.1426627072828412
 40
0.1927936480994795
 40
0.2441979076307397
 40
0.2977874350152799
 40
0.3528844207329901
 40
0.4070066803186938
 40
0.4629549989087028
 40
0.5129996421121268
 40
0.5646405801795097
 40
0.6125894944350199
 40
0.6617851646545275
 40
0.7126176000896587
 40
0.7647356894023503
 40
0.8190637407953093
 40
0.8750162708187463
 40
0.9282485792911599
 40
0.9832620912850542
 40
1.0
 40
1.0
 40
1.0
 40
1.0
 10
186.7313108697098
 20
75.16027111447794
 30
0.0
 10
186.7281497274575
 20
75.16158036321875
 30
0.0
 10
186.7215157236583
 20
75.16432796532821
 30
0.0
 10
186.665627868855
 20
75.18710845985633
 30
0.0
 10
186.5721878275081
 20
75.22369241595888
 30
0.0
 10
186.4400998865874
 20
75.27217133693959
 30
0.0
 10
186.2712215500658
 20
75.3284433626908
 30
0.0
 10
186.0649871797557
 20
75.38807546120307
 30
0.0
 10
185.8263465968313
 20
75.44380423399788
 30
0.0
 10
185.5604760671301
 20
75.4884533140137
 30
0.0
 10
185.2863448548783
 20
75.51418578552169
 30
0.0
 10
185.0100225862119
 20
75.51902490184712
 30
0.0
 10
184.7497705868227
 20
75.50434486058602
 30
0.0
 10
184.5010020965366
 20
75.4729951701815
 30
0.0
 10
184.2690299049373
 20
75.4291653125507
 30
0.0
 10
184.0519498773437
 20
75.37559273273524
 30
0.0
 10
183.8548061231943
 20
75.31688116981421
 30
0.0
 10
183.6847820934965
 20
75.25886722698056
 30
0.0
 10
183.5531571877231
 20
75.2093890497157
 30
0.0
 10
183.465657705641
 20
75.1744490481689
 30
0.0
 10
183.4338619379474
 20
75.16132227868371
 30
0.0
 10
183.4317932343593
 20
75.16046994399372
 30
0.0
 10
183.4313106547606
 20
75.16027111447794
 30
0.0
  0
LINE
  5
3DB
330
1F
100
AcDbEntity
  8
0
  6
Continuous
 62
     7
370
    30
100
AcDbLine
 10
186.7313108697
 20
75.1602711145
 30
0.0
 11
186.7313108697
 21
71.1602709245
 31
0.0
  0
LINE
  5
3DC
330
1F
100
AcDbEntity
  8
0
  6
Continuous
 62
     7
370
    30
100
AcDbLine
 10
186.7313108697
 20
71.1602709245
 30
0.0
 11
186.7074853099
 21
71.165134291
 31
0.0
  0
SPLINE
  5
3DD
330
1F
100
AcDbEntity
  8
0
  6
Continuous
 62
     7
370
    30
100
AcDbSpline
210
0.0
220
0.0
230
1.0
 70
     8
 71
     3
 72
     9
 73
     5
 74
     0
 42
0.00000001
 43
0.00000001
 12
1.0
 22
0.0
 32
0.0
 13
1.0
 23
0.0
 33
0.0
 40
0.0
 40
0.0
 40
0.0
 40
0.0
 40
0.2022776450397165
 40
1.0
 40
1.0
 40
1.0
 40
1.0
 10
183.455396228147
 20
71.16518551371438
 30
0.0
 10
183.4517203513145
 20
71.1644425752809
 30
0.0
 10
183.4335479189049
 20
71.16076971052449
 30
0.0
 10
183.4323034196427
 20
71.16049225609167
 30
0.0
 10
183.4313106547606
 20
71.16027092448813
 30
0.0
  0
LINE
  5
3DE
330
1F
100
AcDbEntity
  8
0
  6
Continuous
 62
     7
370
    30
100
AcDbLine
 10
183.4313106548
 20
71.1602709245
 30
0.0
 11
183.4313106548
 21
75.1602711145
 31
0.0
  0
LINE
  5
3DF
330
1F
100
AcDbEntity
  8
0
  6
Continuous
 62
     7
370
    30
100
AcDbLine
 10
186.7313108697
 20
75.1602711145
 30
0.0
 11
188.0813109047
 21
75.1602711145
 31
0.0
  0
LINE
  5
3E0
330
1F
100
AcDbEntity
  8
0
  6
Continuous
 62
     7
370
    30
100
AcDbLine
 10
175.0813106365
 20
75.1602711145
 30
0.0
 11
183.4313106548
 21
75.1602711145
 31
0.0
  0
LINE
  5
3E1
330
1F
100
AcDbEntity
  8
0
  6
Continuous
 62
     7
370
    30
100
AcDbLine
 10
175.0813106365
 20
83.1602714945
 30
0.0
 11
175.0813106365
 21
75.1602711145
 31
0.0
  0
LINE
  5
3E2
330
1F
100
AcDbEntity
  8
0
  6
Continuous
 62
     7
370
    30
100
AcDbLine
 10
188.0813109047
 20
83.1602714945
 30
0.0
 11
175.0813106365
 21
83.1602714945
 31
0.0
  0
LINE
  5
3E3
330
1F
100
AcDbEntity
  8
0
  6
Continuous
 62
     7
370
    30
100
AcDbLine
 10
188.0813109047
 20
75.1602711145
 30
0.0
 11
188.0813109047
 21
83.1602714945
 31
0.0
  0
SPLINE
  5
3E4
330
1F
100
AcDbEntity
  8
0
  6
Continuous
 62
     7
370
    30
100
AcDbSpline
210
0.0
220
0.0
230
1.0
 70
    11
 71
     3
 72
    46
 73
    42
 74
     0
 42
0.00000001
 43
0.00000001
 12
1.0
 22
0.0
 32
0.0
 13
1.0
 23
0.0
 33
0.0
 40
0.0
 40
0.0
 40
0.0
 40
0.0
 40
0.0253585463138079
 40
0.0507221980331859
 40
0.0760246630490422
 40
0.1013349118243597
 40
0.1277863783182372
 40
0.1542380116965291
 40
0.1819652778050109
 40
0.2096791217039779
 40
0.2360715720226029
 40
0.2624591353292383
 40
0.2868665356577994
 40
0.3112817888127281
 40
0.3362120609355925
 40
0.3611488520461135
 40
0.3881538764623444
 40
0.4151547970394074
 40
0.4427580730469986
 40
0.470349823644387
 40
0.4962195744964123
 40
0.5220884415329781
 40
0.5467003259121344
 40
0.5713191257846877
 40
0.5967012774267075
 40
0.6220891147570431
 40
0.6492647307567299
 40
0.6764347344689641
 40
0.7039593555454683
 40
0.7314702833600927
 40
0.7568906308413774
 40
0.7823131419722054
 40
0.8065959335617914
 40
0.8308872883404499
 40
0.8566246041780669
 40
0.882365162992674
 40
0.9099407535774631
 40
0.9375072828641918
 40
0.9645730907329089
 40
0.9916303728592435
 40
1.0
 40
1.0
 40
1.0
 40
1.0
 10
183.4313106547606
 20
79.16027130446773
 30
0.0
 10
183.4355468452786
 20
79.07164246558452
 30
0.0
 10
183.4440200791819
 20
78.89436694428073
 30
0.0
 10
183.5096061441515
 20
78.63648966135119
 30
0.0
 10
183.6122732982956
 20
78.39418243890901
 30
0.0
 10
183.7530923059738
 20
78.16917191692303
 30
0.0
 10
183.9303141277948
 20
77.96799229573826
 30
0.0
 10
184.1439765538685
 20
77.7926894404827
 30
0.0
 10
184.3894895174801
 20
77.65354516528483
 30
0.0
 10
184.6570253088586
 20
77.55721242052235
 30
0.0
 10
184.9346894271972
 20
77.50942919717161
 30
0.0
 10
185.2057194219216
 20
77.50758752980504
 30
0.0
 10
185.4655587211715
 20
77.54917371133229
 30
0.0
 10
185.7097598903885
 20
77.6273584508435
 30
0.0
 10
185.9385422911038
 20
77.74288965430979
 30
0.0
 10
186.1531030341179
 20
77.89620785798347
 30
0.0
 10
186.3446220377247
 20
78.08726157318372
 30
0.0
 10
186.5080217744628
 20
78.31525466743436
 30
0.0
 10
186.6312911717507
 20
78.57179016860563
 30
0.0
 10
186.7089547348199
 20
78.84383775611504
 30
0.0
 10
186.7379136710143
 20
79.12048091184728
 30
0.0
 10
186.7228348485812
 20
79.38796763143975
 30
0.0
 10
186.6654893055117
 20
79.64398498677768
 30
0.0
 10
186.5711975368739
 20
79.88521088211739
 30
0.0
 10
186.4393268338004
 20
80.10913571440577
 30
0.0
 10
186.2696614450762
 20
80.31569121754703
 30
0.0
 10
186.0637547777012
 20
80.4953483249429
 30
0.0
 10
185.8238572902366
 20
80.64296078807793
 30
0.0
 10
185.5587426961503
 20
80.74794247923232
 30
0.0
 10
185.283396383228
 20
80.80590077671495
 30
0.0
 10
185.0086088829355
 20
80.81550999780391
 30
0.0
 10
184.7473432451293
 20
80.7832441402402
 30
0.0
 10
184.5000801792754
 20
80.71111557705419
 30
0.0
 10
184.2670976859271
 20
80.60323843961153
 30
0.0
 10
184.0512082893747
 20
80.45795197581022
 30
0.0
 10
183.8530201965224
 20
80.27347866512162
 30
0.0
 10
183.6842557225481
 20
80.05281230543191
 30
0.0
 10
183.5518410106779
 20
79.80131668073953
 30
0.0
 10
183.4656866487084
 20
79.5301790087636
 30
0.0
 10
183.4338096391932
 20
79.31318073309728
 30
0.0
 10
183.431788216907
 20
79.18949267695294
 30
0.0
 10
183.4313106547606
 20
79.16027130446773
 30
0.0
  0
LINE
  5
3E5
330
1F
100
AcDbEntity
  8
0
  6
Continuous
 62
     7
370
    30
100
AcDbLine
 10
181.8813106685
 20
71.1602709245
 30
0.0
 11
183.4313106548
 21
71.1602709245
 31
0.0
  0
LINE
  5
3E6
330
1F
100
AcDbEntity
  8
0
  6
Continuous
 62
     7
370
    30
100
AcDbLine
 10
186.7313108697
 20
71.1602709245
 30
0.0
 11
188.581310521
 21
71.1602709245
 31
0.0
  0
LINE
  5
3E7
330
1F
100
AcDbEntity
  8
0
  6
Continuous
 62
     7
370
    30
100
AcDbLine
 10
188.581310521
 20
87.1602716844
 30
0.0
 11
181.8813106685
 21
87.1602716844
 31
0.0
  0
LINE
  5
3E8
330
1F
100
AcDbEntity
  8
0
  6
Continuous
 62
     7
370
    30
100
AcDbLine
 10
174.5813105546
 20
74.6602714982
 30
0.0
 11
175.0813106365
 21
75.1602711145
 31
0.0
  0
LINE
  5
3E9
330
1F
100
AcDbEntity
  8
0
  6
Continuous
 62
     7
370
    30
100
AcDbLine
 10
181.8813106685
 20
66.2102709513
 30
0.0
 11
181.8813106685
 21
71.1602709245
 31
0.0
  0
LINE
  5
3EA
330
1F
100
AcDbEntity
  8
0
  6
Continuous
 62
     7
370
    30
100
AcDbLine
 10
176.1813106305
 20
66.2102709513
 30
0.0
 11
181.8813106685
 21
66.2102709513
 31
0.0
  0
LINE
  5
3EB
330
1F
100
AcDbEntity
  8
0
  6
Continuous
 62
     7
370
    30
100
AcDbLine
 10
176.1813106305
 20
67.010271455
 30
0.0
 11
176.1813106305
 21
66.2102709513
 31
0.0
  0
LINE
  5
3EC
330
1F
100
AcDbEntity
  8
0
  6
Continuous
 62
     7
370
    30
100
AcDbLine
 10
175.4813108883
 20
67.010271455
 30
0.0
 11
176.1813106305
 21
67.010271455
 31
0.0
  0
LINE
  5
3ED
330
1F
100
AcDbEntity
  8
0
  6
Continuous
 62
     7
370
    30
100
AcDbLine
 10
175.4813108883
 20
64.4102712151
 30
0.0
 11
175.4813108883
 21
67.010271455
 31
0.0
  0
LINE
  5
3EE
330
1F
100
AcDbEntity
  8
0
  6
Continuous
 62
     7
370
    30
100
AcDbLine
 10
174.5813105546
 20
64.4102712151
 30
0.0
 11
175.4813108883
 21
64.4102712151
 31
0.0
  0
LINE
  5
3EF
330
1F
100
AcDbEntity
  8
0
  6
Continuous
 62
     7
370
    30
100
AcDbLine
 10
174.5813105546
 20
74.6602714982
 30
0.0
 11
174.5813105546
 21
64.4102712151
 31
0.0
  0
LINE
  5
3F0
330
1F
100
AcDbEntity
  8
0
  6
Continuous
 62
     7
370
    30
100
AcDbLine
 10
188.581310521
 20
83.6602711108
 30
0.0
 11
188.0813109047
 21
83.1602714945
 31
0.0
  0
LINE
  5
3F1
330
1F
100
AcDbEntity
  8
0
  6
Continuous
 62
     7
370
    30
100
AcDbLine
 10
188.581310521
 20
83.6602711108
 30
0.0
 11
188.581310521
 21
74.6602714982
 31
0.0
  0
LINE
  5
3F2
330
1F
100
AcDbEntity
  8
0
  6
Continuous
 62
     7
370
    30
100
AcDbLine
 10
188.0813109047
 20
75.1602711145
 30
0.0
 11
188.581310521
 21
74.6602714982
 31
0.0
  0
LINE
  5
3F3
330
1F
100
AcDbEntity
  8
0
  6
Continuous
 62
     7
370
    30
100
AcDbLine
 10
175.4813108883
 20
91.310271154
 30
0.0
 11
175.4813108883
 21
93.9102713939
 31
0.0
  0
LINE
  5
3F4
330
1F
100
AcDbEntity
  8
0
  6
Continuous
 62
     7
370
    30
100
AcDbLine
 10
176.1813106305
 20
91.310271154
 30
0.0
 11
175.4813108883
 21
91.310271154
 31
0.0
  0
LINE
  5
3F5
330
1F
100
AcDbEntity
  8
0
  6
Continuous
 62
     7
370
    30
100
AcDbLine
 10
176.1813106305
 20
92.1102716576
 30
0.0
 11
176.1813106305
 21
91.310271154
 31
0.0
  0
LINE
  5
3F6
330
1F
100
AcDbEntity
  8
0
  6
Continuous
 62
     7
370
    30
100
AcDbLine
 10
181.8813106685
 20
92.1102716576
 30
0.0
 11
176.1813106305
 21
92.1102716576
 31
0.0
  0
LINE
  5
3F7
330
1F
100
AcDbEntity
  8
0
  6
Continuous
 62
     7
370
    30
100
AcDbLine
 10
181.8813106685
 20
87.1602716844
 30
0.0
 11
181.8813106685
 21
92.1102716576
 31
0.0
  0
LINE
  5
3F8
330
1F
100
AcDbEntity
  8
0
  6
Continuous
 62
     7
370
    30
100
AcDbLine
 10
188.581310521
 20
83.6602711108
 30
0.0
 11
188.581310521
 21
87.1602716844
 31
0.0
  0
LINE
  5
3F9
330
1F
100
AcDbEntity
  8
0
  6
Continuous
 62
     7
370
    30
100
AcDbLine
 10
175.0813106365
 20
83.1602714945
 30
0.0
 11
174.5813105546
 21
83.6602711108
 31
0.0
  0
LINE
  5
3FA
330
1F
100
AcDbEntity
  8
0
  6
Continuous
 62
     7
370
    30
100
AcDbLine
 10
174.5813105546
 20
93.9102713939
 30
0.0
 11
174.5813105546
 21
83.6602711108
 31
0.0
  0
LINE
  5
3FB
330
1F
100
AcDbEntity
  8
0
  6
Continuous
 62
     7
370
    30
100
AcDbLine
 10
175.4813108883
 20
93.9102713939
 30
0.0
 11
174.5813105546
 21
93.9102713939
 31
0.0
  0
LINE
  5
3FC
330
1F
100
AcDbEntity
  8
0
  6
Continuous
 62
     7
370
    30
100
AcDbLine
 10
188.581310521
 20
71.1602709245
 30
0.0
 11
188.581310521
 21
74.6602714982
 31
0.0
  0
LINE
  5
3FD
330
1F
100
AcDbEntity
  8
0
  6
Continuous
 62
     7
370
    30
100
AcDbLine
 10
174.5813105546
 20
74.6602714982
 30
0.0
 11
174.5813105546
 21
83.6602711108
 31
0.0
  0
LINE
  5
3FE
330
1F
100
AcDbEntity
  8
0
  6
Continuous
 62
     7
370
    30
100
AcDbLine
 10
174.6842868916
 20
96.110271382
 30
0.0
 11
182.3813106922
 21
96.110271382
 31
0.0
  0
LINE
  5
3FF
330
1F
100
AcDbEntity
  8
0
  6
Continuous
 62
     7
370
    30
100
AcDbLine
 10
182.3813106922
 20
62.210271227
 30
0.0
 11
182.3813106922
 21
71.1602709245
 31
0.0
  0
LINE
  5
400
330
1F
100
AcDbEntity
  8
0
  6
Continuous
 62
     7
370
    30
100
AcDbLine
 10
182.3813106922
 20
87.1602716844
 30
0.0
 11
182.3813106922
 21
96.110271382
 31
0.0
  0
LINE
  5
401
330
1F
100
AcDbEntity
  8
0
  6
Continuous
 62
     7
370
    30
100
AcDbLine
 10
182.3813106922
 20
62.210271227
 30
0.0
 11
174.6842868916
 21
62.210271227
 31
0.0
  0
LINE
  5
402
330
1F
100
AcDbEntity
  8
0
  6
Continuous
 62
     7
370
    30
100
AcDbLine
 10
181.7813106637
 20
96.8102720555
 30
0.0
 11
175.3536498464
 21
96.8102720555
 31
0.0
  0
LINE
  5
403
330
1F
100
AcDbEntity
  8
0
  6
Continuous
 62
     7
370
    30
100
AcDbLine
 10
175.3724527835
 20
61.5102705534
 30
0.0
 11
181.7813106637
 21
61.5102705534
 31
0.0
  0
LINE
  5
404
330
1F
100
AcDbEntity
  8
0
  6
Continuous
 62
     7
370
    30
100
AcDbLine
 10
181.7813106637
 20
61.5102705534
 30
0.0
 11
182.3813106922
 21
62.1102713969
 31
0.0
  0
LINE
  5
405
330
1F
100
AcDbEntity
  8
0
  6
Continuous
 62
     7
370
    30
100
AcDbLine
 10
182.3813106922
 20
96.2102712121
 30
0.0
 11
181.7813106637
 21
96.8102720555
 31
0.0
  0
LINE
  5
406
330
1F
100
AcDbEntity
  8
0
  6
Continuous
 62
     7
370
    30
100
AcDbLine
 10
182.3813106922
 20
96.110271382
 30
0.0
 11
182.3813106922
 21
96.2102712121
 31
0.0
  0
LINE
  5
407
330
1F
100
AcDbEntity
  8
0
  6
Continuous
 62
     7
370
    30
100
AcDbLine
 10
182.3813106922
 20
62.1102713969
 30
0.0
 11
182.3813106922
 21
62.210271227
 31
0.0
  0
LINE
  5
408
330
1F
100
AcDbEntity
  8
0
  6
Continuous
 62
     7
370
    30
100
AcDbLine
 10
181.4813107077
 20
96.7092719849
 30
0.0
 11
175.2506455697
 21
96.7092719849
 31
0.0
  0
LINE
  5
409
330
1F
100
AcDbEntity
  8
0
  6
Continuous
 62
     7
370
    30
100
AcDbLine
 10
175.2679798111
 20
61.611270624
 30
0.0
 11
181.4813107077
 21
61.611270624
 31
0.0
  0
LINE
  5
40A
330
1F
100
AcDbEntity
  8
0
  6
Continuous
 62
     7
370
    30
100
AcDbLine
 10
182.3813106922
 20
97.6092704561
 30
0.0
 11
181.4813107077
 21
96.7092719849
 31
0.0
  0
LINE
  5
40B
330
1F
100
AcDbEntity
  8
0
  6
Continuous
 62
     7
370
    30
100
AcDbLine
 10
182.3813106922
 20
99.3185156014
 30
0.0
 11
182.3813106922
 21
97.6092704561
 31
0.0
  0
LINE
  5
40C
330
1F
100
AcDbEntity
  8
0
  6
Continuous
 62
     7
370
    30
100
AcDbLine
 10
181.4813107077
 20
61.611270624
 30
0.0
 11
182.3813106922
 21
60.7112721529
 31
0.0
  0
LINE
  5
40D
330
1F
100
AcDbEntity
  8
0
  6
Continuous
 62
     7
370
    30
100
AcDbLine
 10
182.3813106922
 20
97.6092704561
 30
0.0
 11
182.3813106922
 21
96.2102712121
 31
0.0
  0
LINE
  5
40E
330
1F
100
AcDbEntity
  8
0
  6
Continuous
 62
     7
370
    30
100
AcDbLine
 10
182.3813106922
 20
62.1102713969
 30
0.0
 11
182.3813106922
 21
60.7112721529
 31
0.0
  0
LINE
  5
40F
330
1F
100
AcDbEntity
  8
0
  6
Continuous
 62
     7
370
    30
100
AcDbLine
 10
182.3813106922
 20
60.7112721529
 30
0.0
 11
182.3813106922
 21
59.0020270076
 31
0.0
  0
ELLIPSE
  5
410
330
1F
100
AcDbEntity
  8
0
  6
Continuous
 62
     7
370
    30
100
AcDbEllipse
 10
-4171.637394234
 20
79.1602713045
 30
0.0
 11
5729.432506465469
 21
0.0
 31
0.0
210
0.0
220
0.0
230
1.0
 40
0.0087268678
 41
5.571750082535523
 42
5.5746419868859
  0
LINE
  5
411
330
1F
100
AcDbEntity
  8
0
  6
Continuous
 62
     7
370
    30
100
AcDbLine
 10
167.9812724061
 20
111.8063461956
 30
0.0
 11
167.9812724061
 21
46.5141964134
 31
0.0
  0
ELLIPSE
  5
412
330
1F
100
AcDbEntity
  8
0
  6
Continuous
 62
     7
370
    30
100
AcDbEllipse
 10
-4171.637394234
 20
79.1602713045
 30
0.0
 11
5729.432506465469
 21
0.0
 31
0.0
210
0.0
220
0.0
230
1.0
 40
0.0087268678
 41
0.7085433202946106
 42
0.7114352246449571
  0
LINE
  5
413
330
1F
100
AcDbEntity
  8
0
  6
Continuous
 62
     7
370
    30
100
AcDbLine
 10
178.781348589
 20
99.0135167714
 30
0.0
 11
178.781348589
 21
111.6966922756
 31
0.0
  0
LINE
  5
414
330
1F
100
AcDbEntity
  8
0
  6
Continuous
 62
     7
370
    30
100
AcDbLine
 10
178.781348589
 20
46.6238503333
 30
0.0
 11
178.781348589
 21
59.3070258375
 31
0.0
  0
SPLINE
  5
415
330
1F
100
AcDbEntity
  8
0
  6
Continuous
 62
     7
370
     0
100
AcDbSpline
210
0.0
220
0.0
230
1.0
 70
     8
 71
     3
 72
    40
 73
    36
 74
     0
 42
0.00000001
 43
0.00000001
 12
1.0
 22
0.0
 32
0.0
 13
1.0
 23
0.0
 33
0.0
 40
0.0
 40
0.0
 40
0.0
 40
0.0
 40
0.0625000000000001
 40
0.0625000000000001
 40
0.0937500000000001
 40
0.0937500000000001
 40
0.1250000000000001
 40
0.1250000000000001
 40
0.1875000000000001
 40
0.1875000000000001
 40
0.2500000000000001
 40
0.2500000000000001
 40
0.3750000000000001
 40
0.3750000000000001
 40
0.5
 40
0.5
 40
0.5625
 40
0.5625
 40
0.6249999999999999
 40
0.6249999999999999
 40
0.6874999999999998
 40
0.6874999999999998
 40
0.7499999999999998
 40
0.7499999999999998
 40
0.8124999999999999
 40
0.8124999999999999
 40
0.8749999999999999
 40
0.8749999999999999
 40
0.9062499999999998
 40
0.9062499999999998
 40
0.9374999999999999
 40
0.9374999999999999
 40
0.9687499999999999
 40
0.9687499999999999
 40
1.0
 40
1.0
 40
1.0
 40
1.0
 10
178.7813487566559
 20
59.30702599376352
 30
0.0
 10
177.8607517859769
 20
59.63166196370556
 30
0.0
 10
177.0352285068625
 20
60.11389139086013
 30
0.0
 10
175.8962357106615
 20
61.00182142908419
 30
0.0
 10
175.5327618191398
 20
61.32725962225709
 30
0.0
 10
174.8503408554812
 20
62.01331283342684
 30
0.0
 10
174.5292461418325
 20
62.37542032486666
 30
0.0
 10
173.6175940722806
 20
63.51071859031103
 30
0.0
 10
173.0879692361839
 20
64.31938043173125
 30
0.0
 10
172.1460140655467
 20
66.01381037232035
 30
0.0
 10
171.7383241169789
 20
66.89260008701703
 30
0.0
 10
170.671576173895
 20
69.59653051681836
 30
0.0
 10
170.1710327271211
 20
71.47981829133188
 30
0.0
 10
169.5116575053676
 20
75.28689807049665
 30
0.0
 10
169.3518073076323
 20
77.2252701437091
 30
0.0
 10
169.351599410279
 20
80.12402834031194
 30
0.0
 10
169.3916961525021
 20
81.09195650284691
 30
0.0
 10
169.5539902189601
 20
83.02168231445972
 30
0.0
 10
169.6757659813181
 20
83.98028524089224
 30
0.0
 10
170.0052227539366
 20
85.88425501447297
 30
0.0
 10
170.2135537437209
 20
86.8321091654421
 30
0.0
 10
170.7234950466561
 20
88.69910009324083
 30
0.0
 10
171.0244864508235
 20
89.61760433544445
 30
0.0
 10
171.7345828104978
 20
91.4193949209396
 30
0.0
 10
172.1427073384274
 20
92.29984219608927
 30
0.0
 10
173.0822538489275
 20
93.99181384836612
 30
0.0
 10
173.6150181612244
 20
94.80590750320304
 30
0.0
 10
174.5241631492937
 20
95.93914296372226
 30
0.0
 10
174.846977958606
 20
96.30342089572103
 30
0.0
 10
175.5250628458851
 20
96.98596419262404
 30
0.0
 10
175.8814838498176
 20
97.30590732526196
 30
0.0
 10
176.6349890223202
 20
97.89588813603656
 30
0.0
 10
177.0319972861415
 20
98.16601897123596
 30
0.0
 10
177.8761651473308
 20
98.64473046183957
 30
0.0
 10
178.3208141427212
 20
98.85111536267132
 30
0.0
 10
178.7813487566557
 20
99.01351661517191
 30
0.0
  0
LINE
  5
416
330
1F
100
AcDbEntity
  8
0
  6
Continuous
 62
     7
370
    30
100
AcDbLine
 10
179.1813106566
 20
116.7327594932
 30
0.0
 11
179.1813106566
 21
112.1497881588
 31
0.0
  0
ELLIPSE
  5
417
330
1F
100
AcDbEntity
  8
0
  6
Continuous
 62
     7
370
    30
100
AcDbEllipse
 10
217.4153519533
 20
79.1602713045
 30
0.0
 11
50.88036964860688
 21
0.0
 31
0.0
210
0.0
220
0.0
230
1.0
 40
0.9826972631
 41
2.421052960543928
 42
2.433049333295183
  0
ELLIPSE
  5
418
330
1F
100
AcDbEntity
  8
0
  6
Continuous
 62
     7
370
    30
100
AcDbEllipse
 10
130.7652710001
 20
79.1602713045
 30
0.0
 11
0.0
 21
50.00000000000001
 31
0.0
210
0.0
220
0.0
230
1.0
 40
0.9826972631
 41
5.42382420502966
 42
5.436202815550747
  0
LINE
  5
419
330
1F
100
AcDbEntity
  8
0
  6
Continuous
 62
     7
370
    30
100
AcDbLine
 10
167.5813103385
 20
112.2726296063
 30
0.0
 11
167.5813103385
 21
116.6245472606
 31
0.0
  0
LINE
  5
41A
330
1F
100
AcDbEntity
  8
0
  6
Continuous
 62
     7
370
    30
100
AcDbLine
 10
167.5813103385
 20
116.6245472606
 30
0.0
 11
167.9812724061
 21
117.0315501269
 31
0.0
  0
LINE
  5
41B
330
1F
100
AcDbEntity
  8
0
  6
Continuous
 62
     7
370
    30
100
AcDbLine
 10
178.781348589
 20
117.1257999714
 30
0.0
 11
167.9812724061
 21
117.0315501269
 31
0.0
  0
LINE
  5
41C
330
1F
100
AcDbEntity
  8
0
  6
Continuous
 62
     7
370
    30
100
AcDbLine
 10
178.781348589
 20
117.1257999714
 30
0.0
 11
179.1813106566
 21
116.7327594932
 31
0.0
  0
LINE
  5
41D
330
1F
100
AcDbEntity
  8
0
  6
Continuous
 62
     7
370
    30
100
AcDbLine
 10
179.3813107825
 20
46.2501143094
 30
0.0
 11
179.3813107825
 21
59.1230337497
 31
0.0
  0
SPLINE
  5
41E
330
1F
100
AcDbEntity
  8
0
  6
Continuous
 62
     7
370
    30
100
AcDbSpline
210
0.0
220
0.0
230
1.0
 70
     8
 71
     3
 72
     8
 73
     4
 74
     0
 42
0.00000001
 43
0.00000001
 12
1.0
 22
0.0
 32
0.0
 13
1.0
 23
0.0
 33
0.0
 40
0.0005829623619466
 40
0.0005829623619466
 40
0.0005829623619466
 40
0.0005829623619466
 40
0.0008743821116369
 40
0.0008743821116369
 40
0.0008743821116369
 40
0.0008743821116369
 10
179.38131067972
 20
46.25011343017725
 30
0.0
 10
179.314648676523
 20
46.22363762563982
 30
0.0
 10
179.2479819952325
 20
46.1971849636812
 30
0.0
 10
179.18131067972
 20
46.17075529213682
 30
0.0
  0
ELLIPSE
  5
41F
330
1F
100
AcDbEntity
  8
0
  6
Continuous
 62
     7
370
    30
100
AcDbEllipse
 10
217.4153519533
 20
79.1602713045
 30
0.0
 11
50.88036964860688
 21
0.0
 31
0.0
210
0.0
220
0.0
230
1.0
 40
0.9826972631
 41
3.850135973884417
 42
3.862132346635672
  0
SPLINE
  5
420
330
1F
100
AcDbEntity
  8
0
  6
Continuous
 62
     7
370
     0
100
AcDbSpline
210
0.0
220
0.0
230
1.0
 70
     8
 71
     3
 72
     8
 73
     4
 74
     0
 42
0.00000001
 43
0.00000001
 12
1.0
 22
0.0
 32
0.0
 13
1.0
 23
0.0
 33
0.0
 40
0.0
 40
0.0
 40
0.0
 40
0.0
 40
1.0
 40
1.0
 40
1.0
 40
1.0
 10
178.7813487566559
 20
59.30702599376352
 30
0.0
 10
178.9799767873945
 20
59.23698252689336
 30
0.0
 10
179.1799581029343
 20
59.17561323797952
 30
0.0
 10
179.38131067972
 20
59.12303335101799
 30
0.0
  0
SPLINE
  5
421
330
1F
100
AcDbEntity
  8
0
  6
Continuous
 62
     7
370
    30
100
AcDbSpline
210
0.0
220
0.0
230
1.0
 70
     8
 71
     3
 72
     8
 73
     4
 74
     0
 42
0.00000001
 43
0.00000001
 12
1.0
 22
0.0
 32
0.0
 13
1.0
 23
0.0
 33
0.0
 40
0.0005829623619466
 40
0.0005829623619466
 40
0.0005829623619466
 40
0.0005829623619466
 40
0.0008743821116369
 40
0.0008743821116369
 40
0.0008743821116369
 40
0.0008743821116369
 10
179.38131067972
 20
112.0704291787582
 30
0.0
 10
179.314648676523
 20
112.0969049832957
 30
0.0
 10
179.2479819952325
 20
112.1233576452543
 30
0.0
 10
179.18131067972
 20
112.1497873167987
 30
0.0
  0
LINE
  5
422
330
1F
100
AcDbEntity
  8
0
  6
Continuous
 62
     7
370
    30
100
AcDbLine
 10
179.3813107825
 20
99.1975088593
 30
0.0
 11
179.3813107825
 21
112.0704282995
 31
0.0
  0
SPLINE
  5
423
330
1F
100
AcDbEntity
  8
0
  6
Continuous
 62
     7
370
     0
100
AcDbSpline
210
0.0
220
0.0
230
1.0
 70
     8
 71
     3
 72
     8
 73
     4
 74
     0
 42
0.00000001
 43
0.00000001
 12
1.0
 22
0.0
 32
0.0
 13
1.0
 23
0.0
 33
0.0
 40
0.0
 40
0.0
 40
0.0
 40
0.0
 40
1.0
 40
1.0
 40
1.0
 40
1.0
 10
179.38131067972
 20
99.19750925791753
 30
0.0
 10
179.1799581029343
 20
99.14492937095599
 30
0.0
 10
178.9799767873945
 20
99.08356008204213
 30
0.0
 10
178.7813487566559
 20
99.01351661517195
 30
0.0
  0
LINE
  5
424
330
1F
100
AcDbEntity
  8
0
  6
Continuous
 62
     7
370
    30
100
AcDbLine
 10
179.1813106566
 20
46.1707544502
 30
0.0
 11
179.1813106566
 21
41.5877831157
 31
0.0
  0
LINE
  5
425
330
1F
100
AcDbEntity
  8
0
  6
Continuous
 62
     7
370
    30
100
AcDbLine
 10
179.1813106566
 20
41.5877831157
 30
0.0
 11
178.781348589
 21
41.1947426375
 31
0.0
  0
LINE
  5
426
330
1F
100
AcDbEntity
  8
0
  6
Continuous
 62
     7
370
    30
100
AcDbLine
 10
167.9812724061
 20
41.288992482
 30
0.0
 11
178.781348589
 21
41.1947426375
 31
0.0
  0
LINE
  5
427
330
1F
100
AcDbEntity
  8
0
  6
Continuous
 62
     7
370
    30
100
AcDbLine
 10
167.9812724061
 20
41.288992482
 30
0.0
 11
167.5813103385
 21
41.6959953483
 31
0.0
  0
LINE
  5
428
330
1F
100
AcDbEntity
  8
0
  6
Continuous
 62
     7
370
    30
100
AcDbLine
 10
167.5813103385
 20
41.6959953483
 30
0.0
 11
167.5813103385
 21
46.0479130026
 31
0.0
  0
ELLIPSE
  5
429
330
1F
100
AcDbEntity
  8
0
  6
Continuous
 62
     7
370
    30
100
AcDbEllipse
 10
130.7652710001
 20
79.1602713045
 30
0.0
 11
0.0
 21
50.00000000000001
 31
0.0
210
0.0
220
0.0
230
1.0
 40
0.9826972631
 41
3.988575145218659
 42
4.000953755739746
  0
LINE
  5
42A
330
1F
100
AcDbEntity
  8
0
  6
Continuous
 62
     7
370
    30
100
AcDbLine
 10
167.3813106782
 20
74.7193080362
 30
0.0
 11
167.3813106782
 21
46.1197477754
 31
0.0
  0
ELLIPSE
  5
42B
330
1F
100
AcDbEntity
  8
0
  6
Continuous
 62
     7
370
    30
100
AcDbEllipse
 10
131.3872024077
 20
79.1602713045
 30
0.0
 11
0.0
 21
36.89076215239648
 31
0.0
210
0.0
220
0.0
230
1.0
 40
0.982841863
 41
4.591714861324213
 42
4.833063099445196
  0
LINE
  5
42C
330
1F
100
AcDbEntity
  8
0
  6
Continuous
 62
     7
370
    30
100
AcDbLine
 10
167.3813106782
 20
112.2007948335
 30
0.0
 11
167.3813106782
 21
83.6012345727
 31
0.0
  0
ELLIPSE
  5
42D
330
1F
100
AcDbEntity
  8
0
  6
Continuous
 62
     7
370
    30
100
AcDbEllipse
 10
501.8851086253
 20
79.1602713045
 30
0.0
 11
377.6542904460812
 21
0.0
 31
0.0
210
0.0
220
0.0
230
1.0
 40
0.1884802542
 41
2.657744095455343
 42
2.65888375999248
  0
ELLIPSE
  5
42E
330
1F
100
AcDbEntity
  8
0
  6
Continuous
 62
     7
370
    30
100
AcDbEllipse
 10
501.8851086259
 20
79.1602713045
 30
0.0
 11
377.6542904466458
 21
0.0
 31
0.0
210
0.0
220
0.0
230
1.0
 40
0.1884802542
 41
3.624301547186798
 42
3.625441211723932
  0
LINE
  5
42F
330
1F
100
AcDbEntity
  8
0
  6
Continuous
 62
     7
370
    30
100
AcDbLine
 10
179.3813107825
 20
41.7843219813
 30
0.0
 11
179.3813107825
 21
46.2501143094
 31
0.0
  0
SPLINE
  5
430
330
1F
100
AcDbEntity
  8
0
  6
Continuous
 62
     7
370
    30
100
AcDbSpline
210
0.0
220
0.0
230
1.0
 70
    24
 71
     3
 72
     8
 73
     4
 74
     0
 42
0.00000001
 43
0.00000001
 12
1.0
 22
0.0
 32
0.0
 13
1.0
 23
0.0
 33
0.0
 40
0.0005829623619466
 40
0.0005829623619466
 40
0.0005829623619466
 40
0.0005829623619466
 40
0.0008743821116369
 40
0.0008743821116369
 40
0.0008743821116369
 40
0.0008743821116369
 10
179.38131067972
 20
41.78432303971764
 30
0.0
 10
179.314648676523
 20
41.7188144716221
 30
0.0
 10
179.2479819952325
 20
41.65330130637689
 30
0.0
 10
179.18131067972
 20
41.58778358709448
 30
0.0
  0
SPLINE
  5
431
330
1F
100
AcDbEntity
  8
0
  6
Continuous
 62
     7
370
    30
100
AcDbSpline
210
0.0
220
0.0
230
1.0
 70
    24
 71
     3
 72
     8
 73
     4
 74
     0
 42
0.00000001
 43
0.00000001
 12
1.0
 22
0.0
 32
0.0
 13
1.0
 23
0.0
 33
0.0
 40
0.0005826626448706
 40
0.0005826626448706
 40
0.0005826626448706
 40
0.0005826626448706
 40
0.0008740823945609
 40
0.0008740823945609
 40
0.0008740823945609
 40
0.0008740823945609
 10
179.18131067972
 20
116.732759021841
 30
0.0
 10
179.2479819952325
 20
116.6672413025586
 30
0.0
 10
179.314648676523
 20
116.6017281373134
 30
0.0
 10
179.38131067972
 20
116.5362195692178
 30
0.0
  0
LINE
  5
432
330
1F
100
AcDbEntity
  8
0
  6
Continuous
 62
     7
370
    30
100
AcDbLine
 10
179.3813107825
 20
112.0704282995
 30
0.0
 11
179.3813107825
 21
116.5362206276
 31
0.0
  0
LINE
  5
433
330
1F
100
AcDbEntity
  8
0
  6
Continuous
 62
     7
370
    30
100
AcDbLine
 10
167.3813106782
 20
83.6012345727
 30
0.0
 11
167.3813106782
 21
74.7193080362
 31
0.0
  0
LINE
  5
434
330
1F
100
AcDbEntity
  8
0
  6
Continuous
 62
     7
370
    30
100
AcDbLine
 10
167.5813103385
 20
41.6959953483
 30
0.0
 11
167.3813106782
 21
41.8995191332
 31
0.0
  0
LINE
  5
435
330
1F
100
AcDbEntity
  8
0
  6
Continuous
 62
     7
370
    30
100
AcDbLine
 10
167.3813106782
 20
46.1197477754
 30
0.0
 11
167.3813106782
 21
41.8995191332
 31
0.0
  0
LINE
  5
436
330
1F
100
AcDbEntity
  8
0
  6
Continuous
 62
     7
370
    30
100
AcDbLine
 10
167.3813106782
 20
116.4210234757
 30
0.0
 11
167.5813103385
 21
116.6245472606
 31
0.0
  0
LINE
  5
437
330
1F
100
AcDbEntity
  8
0
  6
Continuous
 62
     7
370
    30
100
AcDbLine
 10
167.3813106782
 20
116.4210234757
 30
0.0
 11
167.3813106782
 21
112.2007948335
 31
0.0
  0
LINE
  5
438
330
1F
100
AcDbEntity
  8
0
  6
Continuous
 62
     7
370
    30
100
AcDbLine
 10
166.1813099227
 20
79.1602713045
 30
0.0
 11
166.1813099227
 21
116.1602717813
 31
0.0
  0
LINE
  5
439
330
1F
100
AcDbEntity
  8
0
  6
Continuous
 62
     7
370
    30
100
AcDbLine
 10
166.1813099227
 20
42.1602708276
 30
0.0
 11
166.1813099227
 21
79.1602713045
 31
0.0
  0
LINE
  5
43A
330
1F
100
AcDbEntity
  8
0
  6
Continuous
 62
     7
370
    30
100
AcDbLine
 10
159.8813113115
 20
79.1602713045
 30
0.0
 11
159.8813113115
 21
116.1602717813
 31
0.0
  0
LINE
  5
43B
330
1F
100
AcDbEntity
  8
0
  6
Continuous
 62
     7
370
    30
100
AcDbLine
 10
159.8813113115
 20
42.1602708276
 30
0.0
 11
159.8813113115
 21
79.1602713045
 31
0.0
  0
LINE
  5
43C
330
1F
100
AcDbEntity
  8
0
  6
Continuous
 62
     7
370
    30
100
AcDbLine
 10
159.3813102983
 20
79.1602713045
 30
0.0
 11
159.3813102983
 21
115.660270768
 31
0.0
  0
LINE
  5
43D
330
1F
100
AcDbEntity
  8
0
  6
Continuous
 62
     7
370
    30
100
AcDbLine
 10
159.3813102983
 20
42.6602718409
 30
0.0
 11
159.3813102983
 21
79.1602713045
 31
0.0
  0
LINE
  5
43E
330
1F
100
AcDbEntity
  8
0
  6
Continuous
 62
     7
370
    30
100
AcDbLine
 10
152.7658373408
 20
115.5447979446
 30
0.0
 11
152.7658373408
 21
42.7757446643
 31
0.0
  0
LINE
  5
43F
330
1F
100
AcDbEntity
  8
0
  6
Continuous
 62
     7
370
    30
100
AcDbLine
 10
152.3813110135
 20
79.1602713045
 30
0.0
 11
152.3813110135
 21
115.1602697547
 31
0.0
  0
LINE
  5
440
330
1F
100
AcDbEntity
  8
0
  6
Continuous
 62
     7
370
    30
100
AcDbLine
 10
152.3813110135
 20
43.1602728542
 30
0.0
 11
152.3813110135
 21
79.1602713045
 31
0.0
  0
SPLINE
  5
441
330
1F
100
AcDbEntity
  8
0
  6
Continuous
 62
     7
370
     0
100
AcDbSpline
210
0.0
220
0.0
230
1.0
 70
     8
 71
     3
 72
    16
 73
    12
 74
     0
 42
0.00000001
 43
0.00000001
 12
1.0
 22
0.0
 32
0.0
 13
1.0
 23
0.0
 33
0.0
 40
0.0
 40
0.0
 40
0.0
 40
0.0
 40
0.2500000000000004
 40
0.2500000000000004
 40
0.5000000000000009
 40
0.5000000000000009
 40
0.7500000000000013
 40
0.7500000000000013
 40
0.8750000000000007
 40
0.8750000000000007
 40
1.0
 40
1.0
 40
1.0
 40
1.0
 10
179.38131067972
 20
59.12303335101799
 30
0.0
 10
179.38131067972
 20
59.12303335101799
 30
0.0
 10
179.3942153755509
 20
59.11963219372063
 30
0.0
 10
179.4425136275303
 20
59.10728908933638
 30
0.0
 10
179.477864466604
 20
59.09834276303254
 30
0.0
 10
179.5753445212749
 20
59.07501345196157
 30
0.0
 10
179.6388514875913
 20
59.06026243470816
 30
0.0
 10
179.7610694758148
 20
59.03454550556244
 30
0.0
 10
179.8072216607197
 20
59.02523978268931
 30
0.0
 10
179.8988160452046
 20
59.00777063144237
 30
0.0
 10
179.9432309647935
 20
58.99979492693337
 30
0.0
 10
179.98131067972
 20
58.99325471451149
 30
0.0
  0
SPLINE
  5
442
330
1F
100
AcDbEntity
  8
0
  6
Continuous
 62
     7
370
     0
100
AcDbSpline
210
0.0
220
0.0
230
1.0
 70
     8
 71
     3
 72
    18
 73
    14
 74
     0
 42
0.00000001
 43
0.00000001
 12
1.0
 22
0.0
 32
0.0
 13
1.0
 23
0.0
 33
0.0
 40
0.0
 40
0.0
 40
0.0
 40
0.0
 40
0.1249999999999978
 40
0.1249999999999978
 40
0.2499999999999956
 40
0.2499999999999956
 40
0.3749999999999933
 40
0.3749999999999933
 40
0.4999999999999911
 40
0.4999999999999911
 40
0.7499999999999956
 40
0.7499999999999956
 40
1.0
 40
1.0
 40
1.0
 40
1.0
 10
179.98131067972
 20
99.32728789442393
 30
0.0
 10
179.9432456965176
 20
99.32075021218397
 30
0.0
 10
179.8987443658624
 20
99.31275749088286
 30
0.0
 10
179.8075344948296
 20
99.29536330445137
 30
0.0
 10
179.7611081225681
 20
99.28600532969958
 30
0.0
 10
179.6795210689935
 20
99.26883771330031
 30
0.0
 10
179.6430270188505
 20
99.26079012425508
 30
0.0
 10
179.5791488885182
 20
99.24630926154074
 30
0.0
 10
179.5514954153916
 20
99.23982035433468
 30
0.0
 10
179.4777466429853
 20
99.22217390774104
 30
0.0
 10
179.4430004162826
 20
99.21337677914617
 30
0.0
 10
179.394350526881
 20
99.20094608418046
 30
0.0
 10
179.38131067972
 20
99.19750925791749
 30
0.0
 10
179.38131067972
 20
99.19750925791749
 30
0.0
  0
LINE
  5
443
330
1F
100
AcDbEntity
  8
0
  6
Continuous
 62
     7
370
    30
100
AcDbLine
 10
180.2349005185
 20
99.3661043223
 30
0.0
 11
180.2349005185
 21
105.1602718409
 31
0.0
  0
LINE
  5
444
330
1F
100
AcDbEntity
  8
0
  6
Continuous
 62
     7
370
    30
100
AcDbLine
 10
180.2349005185
 20
53.160270768
 30
0.0
 11
180.2349005185
 21
58.9544382866
 31
0.0
  0
LINE
  5
445
330
1F
100
AcDbEntity
  8
0
  6
Continuous
 62
     7
370
    30
100
AcDbLine
 10
181.8813106685
 20
99.3896798219
 30
0.0
 11
181.8813106685
 21
105.1602718409
 31
0.0
  0
LINE
  5
446
330
1F
100
AcDbEntity
  8
0
  6
Continuous
 62
     7
370
    30
100
AcDbLine
 10
181.8813106685
 20
53.160270768
 30
0.0
 11
181.8813106685
 21
58.930862787
 31
0.0
  0
SPLINE
  5
447
330
1F
100
AcDbEntity
  8
0
  6
Continuous
 62
     7
370
     0
100
AcDbSpline
210
0.0
220
0.0
230
1.0
 70
     8
 71
     3
 72
     8
 73
     4
 74
     0
 42
0.00000001
 43
0.00000001
 12
1.0
 22
0.0
 32
0.0
 13
1.0
 23
0.0
 33
0.0
 40
0.0
 40
0.0
 40
0.0
 40
0.0
 40
1.0
 40
1.0
 40
1.0
 40
1.0
 10
180.2349005182062
 20
58.95443783237191
 30
0.0
 10
180.7813304655107
 20
58.88098430171608
 30
0.0
 10
181.3301116597009
 20
58.87263078408974
 30
0.0
 10
181.8813106797197
 20
58.93086325565271
 30
0.0
  0
SPLINE
  5
448
330
1F
100
AcDbEntity
  8
0
  6
Continuous
 62
     7
370
     0
100
AcDbSpline
210
0.0
220
0.0
230
1.0
 70
     8
 71
     3
 72
     8
 73
     4
 74
     0
 42
0.00000001
 43
0.00000001
 12
1.0
 22
0.0
 32
0.0
 13
1.0
 23
0.0
 33
0.0
 40
0.0
 40
0.0
 40
0.0
 40
0.0
 40
1.0
 40
1.0
 40
1.0
 40
1.0
 10
181.88131067972
 20
99.38967935328272
 30
0.0
 10
181.3301116597013
 20
99.44791182484572
 30
0.0
 10
180.7813304655108
 20
99.4395583072194
 30
0.0
 10
180.2349005182062
 20
99.36610477656357
 30
0.0
  0
SPLINE
  5
449
330
1F
100
AcDbEntity
  8
0
  6
Continuous
 62
     7
370
     0
100
AcDbSpline
210
0.0
220
0.0
230
1.0
 70
     8
 71
     3
 72
     8
 73
     4
 74
     0
 42
0.00000001
 43
0.00000001
 12
1.0
 22
0.0
 32
0.0
 13
1.0
 23
0.0
 33
0.0
 40
0.0
 40
0.0
 40
0.0
 40
0.0
 40
0.0003163793577303
 40
0.0003163793577303
 40
0.0003163793577303
 40
0.0003163793577303
 10
179.98131067972
 20
58.99325471451149
 30
0.0
 10
180.0665255487898
 20
58.97861901289731
 30
0.0
 10
180.1510728705522
 20
58.96570631558213
 30
0.0
 10
180.2349005182062
 20
58.95443783237191
 30
0.0
  0
SPLINE
  5
44A
330
1F
100
AcDbEntity
  8
0
  6
Continuous
 62
     7
370
     0
100
AcDbSpline
210
0.0
220
0.0
230
1.0
 70
     8
 71
     3
 72
     8
 73
     4
 74
     0
 42
0.00000001
 43
0.00000001
 12
1.0
 22
0.0
 32
0.0
 13
1.0
 23
0.0
 33
0.0
 40
0.0
 40
0.0
 40
0.0
 40
0.0
 40
0.0003163793577303
 40
0.0003163793577303
 40
0.0003163793577303
 40
0.0003163793577303
 10
180.2349005182062
 20
99.36610477656357
 30
0.0
 10
180.1510728705522
 20
99.35483629335334
 30
0.0
 10
180.0665255487898
 20
99.34192359603817
 30
0.0
 10
179.98131067972
 20
99.327287894424
 30
0.0
  0
LINE
  5
44B
330
1F
100
AcDbEntity
  8
0
  6
Continuous
 62
     7
370
    30
100
AcDbLine
 10
182.3813106922
 20
59.0020270076
 30
0.0
 11
182.3813106922
 21
53.6602717813
 31
0.0
  0
LINE
  5
44C
330
1F
100
AcDbEntity
  8
0
  6
Continuous
 62
     7
370
    30
100
AcDbLine
 10
182.3813106922
 20
104.6602708276
 30
0.0
 11
182.3813106922
 21
99.3185156014
 31
0.0
  0
SPLINE
  5
44D
330
1F
100
AcDbEntity
  8
0
  6
Continuous
 62
     7
370
     0
100
AcDbSpline
210
0.0
220
0.0
230
1.0
 70
     8
 71
     3
 72
     8
 73
     4
 74
     0
 42
0.00000001
 43
0.00000001
 12
1.0
 22
0.0
 32
0.0
 13
1.0
 23
0.0
 33
0.0
 40
0.0
 40
0.0
 40
0.0
 40
0.0
 40
1.0
 40
1.0
 40
1.0
 40
1.0
 10
181.88131067972
 20
58.93086325565275
 30
0.0
 10
182.0460267594892
 20
58.94826500000055
 30
0.0
 10
182.2125416624772
 20
58.97179408560791
 30
0.0
 10
182.3813106797197
 20
59.00202686378486
 30
0.0
  0
SPLINE
  5
44E
330
1F
100
AcDbEntity
  8
0
  6
Continuous
 62
     7
370
     0
100
AcDbSpline
210
0.0
220
0.0
230
1.0
 70
     8
 71
     3
 72
     8
 73
     4
 74
     0
 42
0.00000001
 43
0.00000001
 12
1.0
 22
0.0
 32
0.0
 13
1.0
 23
0.0
 33
0.0
 40
0.0
 40
0.0
 40
0.0
 40
0.0
 40
1.0
 40
1.0
 40
1.0
 40
1.0
 10
182.38131067972
 20
99.31851574515065
 30
0.0
 10
182.2125416624773
 20
99.34874852332766
 30
0.0
 10
182.0460267594893
 20
99.37227760893488
 30
0.0
 10
181.8813106797198
 20
99.3896793532827
 30
0.0
  0
LINE
  5
44F
330
1F
100
AcDbEntity
  8
0
  6
Continuous
 62
     7
370
    30
100
AcDbLine
 10
167.3813106782
 20
116.6847405013
 30
0.0
 11
167.3813106782
 21
116.4210234757
 31
0.0
  0
LINE
  5
450
330
1F
100
AcDbEntity
  8
0
  6
Continuous
 62
     7
370
    30
100
AcDbLine
 10
167.3813106782
 20
41.8995191332
 30
0.0
 11
167.3813106782
 21
41.6358021077
 31
0.0
  0
INSERT
  5
45C
330
1F
100
AcDbEntity
  8
0
  6
Continuous
 62
     7
370
     0
100
AcDbBlockReference
  2
SW_CENTERMARKSYMBOL_7
 10
185.0813106797
 20
79.1602713045
 30
0.0
  0
ENDSEC
  0
SECTION
  2
OBJECTS
  0
DICTIONARY
  5
C
330
0
100
AcDbDictionary
281
     1
  3
ACAD_GROUP
350
D
  3
ACAD_LAYOUT
350
1A
  3
ACAD_MLINESTYLE
350
17
  3
ACAD_PLOTSETTINGS
350
19
  3
ACAD_PLOTSTYLENAME
350
E
  0
DICTIONARY
  5
D
102
{ACAD_REACTORS
330
C
102
}
330
C
100
AcDbDictionary
281
     1
  0
DICTIONARY
  5
1A
102
{ACAD_REACTORS
330
C
102
}
330
C
100
AcDbDictionary
281
     1
  3
Layout1
350
1E
  3
Layout2
350
26
  3
Model
350
22
  0
DICTIONARY
  5
17
102
{ACAD_REACTORS
330
C
102
}
330
C
100
AcDbDictionary
281
     1
  3
Standard
350
18
  0
DICTIONARY
  5
19
102
{ACAD_REACTORS
330
C
102
}
330
C
100
AcDbDictionary
281
     1
  0
ACDBDICTIONARYWDFLT
  5
E
102
{ACAD_REACTORS
330
C
102
}
330
C
100
AcDbDictionary
281
     1
  3
Normal
350
F
100
AcDbDictionaryWithDefault
340
F
  0
LAYOUT
  5
1E
102
{ACAD_REACTORS
330
1A
102
}
330
1A
100
AcDbPlotSettings
  1

  2
none_device
  4

  6

 40
0.0
 41
0.0
 42
0.0
 43
0.0
 44
0.0
 45
0.0
 46
0.0
 47
0.0
 48
0.0
 49
0.0
140
0.0
141
0.0
142
1.0
143
1.0
 70
   688
 72
     0
 73
     0
 74
     5
  7

 75
    16
147
1.0
148
0.0
149
0.0
100
AcDbLayout
  1
Layout1
 70
     1
 71
     1
 10
0.0
 20
0.0
 11
420.0
 21
297.0
 12
0.0
 22
0.0
 32
0.0
 14
1.0000000000E+20
 24
1.0000000000E+20
 34
1.0000000000E+20
 15
-1.0000000000E+20
 25
-1.0000000000E+20
 35
-1.0000000000E+20
146
0.0
 13
0.0
 23
0.0
 33
0.0
 16
1.0
 26
0.0
 36
0.0
 17
0.0
 27
1.0
 37
0.0
 76
     0
330
1B
  0
LAYOUT
  5
26
102
{ACAD_REACTORS
330
1A
102
}
330
1A
100
AcDbPlotSettings
  1

  2
none_device
  4

  6

 40
0.0
 41
0.0
 42
0.0
 43
0.0
 44
0.0
 45
0.0
 46
0.0
 47
0.0
 48
0.0
 49
0.0
140
0.0
141
0.0
142
1.0
143
1.0
 70
   688
 72
     0
 73
     0
 74
     5
  7

 75
    16
147
1.0
148
0.0
149
0.0
100
AcDbLayout
  1
Layout2
 70
     1
 71
     2
 10
0.0
 20
0.0
 11
0.0
 21
0.0
 12
0.0
 22
0.0
 32
0.0
 14
0.0
 24
0.0
 34
0.0
 15
0.0
 25
0.0
 35
0.0
146
0.0
 13
0.0
 23
0.0
 33
0.0
 16
1.0
 26
0.0
 36
0.0
 17
0.0
 27
1.0
 37
0.0
 76
     0
330
23
  0
LAYOUT
  5
22
102
{ACAD_REACTORS
330
1A
102
}
330
1A
100
AcDbPlotSettings
  1

  2
none_device
  4

  6

 40
0.0
 41
0.0
 42
0.0
 43
0.0
 44
0.0
 45
0.0
 46
0.0
 47
0.0
 48
0.0
 49
0.0
140
0.0
141
0.0
142
1.0
143
1.0
 70
  1712
 72
     0
 73
     0
 74
     0
  7

 75
     0
147
1.0
148
0.0
149
0.0
100
AcDbLayout
  1
Model
 70
     1
 71
     0
 10
0.0
 20
0.0
 11
336.0
 21
237.6
 12
0.0
 22
0.0
 32
0.0
 14
0.0
 24
0.0
 34
0.0
 15
336.0
 25
237.6
 35
0.0
146
0.0
 13
0.0
 23
0.0
 33
0.0
 16
1.0
 26
0.0
 36
0.0
 17
0.0
 27
1.0
 37
0.0
 76
     0
330
1F
331
29
  0
MLINESTYLE
  5
18
102
{ACAD_REACTORS
330
17
102
}
330
17
100
AcDbMlineStyle
  2
Standard
 70
     0
  3

 62
   256
 51
90.0
 52
90.0
 71
     2
 49
0.5
 62
   256
  6
BYLAYER
 49
-0.5
 62
   256
  6
BYLAYER
  0
ACDBPLACEHOLDER
  5
F
102
{ACAD_REACTORS
330
E
102
}
330
E
  0
ENDSEC
  0
EOF
