  0
SECTION
  2
HEADER
  9
$ACADVER
  1
AC1015
  9
$ACADMAINTVER
 70
    13
  9
$DWGCODEPAGE
  3
ANSI_1252
  9
$INSBASE
 10
0.0
 20
0.0
 30
0.0
  9
$EXTMIN
 10
-101.1873423855587
 20
-135.3105367977677
 30
0.0
  9
$EXTMAX
 10
226.9321794448485
 20
14.2682541924612
 30
0.0
  9
$LIMMIN
 10
-92.21417532361527
 20
-47.62210031375832
  9
$LIMMAX
 10
16.59557530116171
 20
14.2682541924612
  9
$ORTHOMODE
 70
     0
  9
$REGENMODE
 70
     1
  9
$FILLMODE
 70
     1
  9
$QTEXTMODE
 70
     0
  9
$MIRRTEXT
 70
     1
  9
$LTSCALE
 40
1.0
  9
$ATTMODE
 70
     1
  9
$TEXTSIZE
 40
3.5
  9
$TRACEWID
 40
0.5
  9
$TEXTSTYLE
  7
STANDARD
  9
$CLAYER
  8
0
  9
$CELTYPE
  6
ByLayer
  9
$CECOLOR
 62
   256
  9
$CELTSCALE
 40
1.0
  9
$DISPSILH
 70
     0
  9
$DIMSCALE
 40
1.0
  9
$DIMASZ
 40
0.18
  9
$DIMEXO
 40
0.0625
  9
$DIMDLI
 40
0.38
  9
$DIMRND
 40
0.0
  9
$DIMDLE
 40
0.0
  9
$DIMEXE
 40
0.18
  9
$DIMTP
 40
0.0
  9
$DIMTM
 40
0.0
  9
$DIMTXT
 40
0.18
  9
$DIMCEN
 40
0.09
  9
$DIMTSZ
 40
0.0
  9
$DIMTOL
 70
     0
  9
$DIMLIM
 70
     0
  9
$DIMTIH
 70
     1
  9
$DIMTOH
 70
     1
  9
$DIMSE1
 70
     0
  9
$DIMSE2
 70
     0
  9
$DIMTAD
 70
     0
  9
$DIMZIN
 70
     0
  9
$DIMBLK
  1

  9
$DIMASO
 70
     1
  9
$DIMSHO
 70
     1
  9
$DIMPOST
  1

  9
$DIMAPOST
  1

  9
$DIMALT
 70
     0
  9
$DIMALTD
 70
     2
  9
$DIMALTF
 40
25.4
  9
$DIMLFAC
 40
1.0
  9
$DIMTOFL
 70
     0
  9
$DIMTVP
 40
0.0
  9
$DIMTIX
 70
     0
  9
$DIMSOXD
 70
     0
  9
$DIMSAH
 70
     0
  9
$DIMBLK1
  1

  9
$DIMBLK2
  1

  9
$DIMSTYLE
  2
Standard
  9
$DIMCLRD
 70
     0
  9
$DIMCLRE
 70
     0
  9
$DIMCLRT
 70
     0
  9
$DIMTFAC
 40
1.0
  9
$DIMGAP
 40
0.09
  9
$DIMJUST
 70
     0
  9
$DIMSD1
 70
     0
  9
$DIMSD2
 70
     0
  9
$DIMTOLJ
 70
     1
  9
$DIMTZIN
 70
     0
  9
$DIMALTZ
 70
     0
  9
$DIMALTTZ
 70
     0
  9
$DIMUPT
 70
     0
  9
$DIMDEC
 70
     4
  9
$DIMTDEC
 70
     4
  9
$DIMALTU
 70
     2
  9
$DIMALTTD
 70
     2
  9
$DIMTXSTY
  7
STANDARD
  9
$DIMAUNIT
 70
     0
  9
$DIMADEC
 70
     0
  9
$DIMALTRND
 40
0.0
  9
$DIMAZIN
 70
     0
  9
$DIMDSEP
 70
    46
  9
$DIMATFIT
 70
     3
  9
$DIMFRAC
 70
     0
  9
$DIMLDRBLK
  1

  9
$DIMLUNIT
 70
     2
  9
$DIMLWD
 70
    -2
  9
$DIMLWE
 70
    -2
  9
$DIMTMOVE
 70
     0
  9
$LUNITS
 70
     2
  9
$LUPREC
 70
     4
  9
$SKETCHINC
 40
0.1
  9
$FILLETRAD
 40
2.0
  9
$AUNITS
 70
     0
  9
$AUPREC
 70
     0
  9
$MENU
  1
ACAD
  9
$ELEVATION
 40
0.0
  9
$PELEVATION
 40
0.0
  9
$THICKNESS
 40
0.0
  9
$LIMCHECK
 70
     0
  9
$CHAMFERA
 40
0.0
  9
$CHAMFERB
 40
0.0
  9
$CHAMFERC
 40
0.0
  9
$CHAMFERD
 40
0.0
  9
$SKPOLY
 70
     0
  9
$TDCREATE
 40
2453850.649726736
  9
$TDUCREATE
 40
2453850.816393402
  9
$TDUPDATE
 40
2453861.640625532
  9
$TDUUPDATE
 40
2453861.807292199
  9
$TDINDWG
 40
0.0076361690
  9
$TDUSRTIMER
 40
0.0076361690
  9
$USRTIMER
 70
     1
  9
$ANGBASE
 50
0.0
  9
$ANGDIR
 70
     0
  9
$PDMODE
 70
     0
  9
$PDSIZE
 40
0.0
  9
$PLINEWID
 40
0.0
  9
$SPLFRAME
 70
     0
  9
$SPLINETYPE
 70
     6
  9
$SPLINESEGS
 70
     8
  9
$HANDSEED
  5
33F
  9
$SURFTAB1
 70
     6
  9
$SURFTAB2
 70
     6
  9
$SURFTYPE
 70
     6
  9
$SURFU
 70
     6
  9
$SURFV
 70
     6
  9
$UCSBASE
  2

  9
$UCSNAME
  2

  9
$UCSORG
 10
0.0
 20
0.0
 30
0.0
  9
$UCSXDIR
 10
1.0
 20
0.0
 30
0.0
  9
$UCSYDIR
 10
0.0
 20
1.0
 30
0.0
  9
$UCSORTHOREF
  2

  9
$UCSORTHOVIEW
 70
     0
  9
$UCSORGTOP
 10
0.0
 20
0.0
 30
0.0
  9
$UCSORGBOTTOM
 10
0.0
 20
0.0
 30
0.0
  9
$UCSORGLEFT
 10
0.0
 20
0.0
 30
0.0
  9
$UCSORGRIGHT
 10
0.0
 20
0.0
 30
0.0
  9
$UCSORGFRONT
 10
0.0
 20
0.0
 30
0.0
  9
$UCSORGBACK
 10
0.0
 20
0.0
 30
0.0
  9
$PUCSBASE
  2

  9
$PUCSNAME
  2

  9
$PUCSORG
 10
0.0
 20
0.0
 30
0.0
  9
$PUCSXDIR
 10
1.0
 20
0.0
 30
0.0
  9
$PUCSYDIR
 10
0.0
 20
1.0
 30
0.0
  9
$PUCSORTHOREF
  2

  9
$PUCSORTHOVIEW
 70
     0
  9
$PUCSORGTOP
 10
0.0
 20
0.0
 30
0.0
  9
$PUCSORGBOTTOM
 10
0.0
 20
0.0
 30
0.0
  9
$PUCSORGLEFT
 10
0.0
 20
0.0
 30
0.0
  9
$PUCSORGRIGHT
 10
0.0
 20
0.0
 30
0.0
  9
$PUCSORGFRONT
 10
0.0
 20
0.0
 30
0.0
  9
$PUCSORGBACK
 10
0.0
 20
0.0
 30
0.0
  9
$USERI1
 70
     0
  9
$USERI2
 70
     0
  9
$USERI3
 70
     0
  9
$USERI4
 70
     0
  9
$USERI5
 70
     0
  9
$USERR1
 40
0.0
  9
$USERR2
 40
0.0
  9
$USERR3
 40
0.0
  9
$USERR4
 40
0.0
  9
$USERR5
 40
0.0
  9
$WORLDVIEW
 70
     1
  9
$SHADEDGE
 70
     3
  9
$SHADEDIF
 70
    70
  9
$TILEMODE
 70
     1
  9
$MAXACTVP
 70
    64
  9
$PINSBASE
 10
0.0
 20
0.0
 30
0.0
  9
$PLIMCHECK
 70
     0
  9
$PEXTMIN
 10
1.000000000000000E+20
 20
1.000000000000000E+20
 30
1.000000000000000E+20
  9
$PEXTMAX
 10
-1.000000000000000E+20
 20
-1.000000000000000E+20
 30
-1.000000000000000E+20
  9
$PLIMMIN
 10
0.0
 20
0.0
  9
$PLIMMAX
 10
12.0
 20
9.0
  9
$UNITMODE
 70
     0
  9
$VISRETAIN
 70
     1
  9
$PLINEGEN
 70
     0
  9
$PSLTSCALE
 70
     1
  9
$TREEDEPTH
 70
  3020
  9
$CMLSTYLE
  2
Standard
  9
$CMLJUST
 70
     0
  9
$CMLSCALE
 40
1.0
  9
$PROXYGRAPHICS
 70
     1
  9
$MEASUREMENT
 70
     0
  9
$CELWEIGHT
370
    -1
  9
$ENDCAPS
280
     0
  9
$JOINSTYLE
280
     0
  9
$LWDISPLAY
290
     0
  9
$INSUNITS
 70
     0
  9
$HYPERLINKBASE
  1

  9
$STYLESHEET
  1

  9
$XEDIT
290
     1
  9
$CEPSNTYPE
380
     0
  9
$PSTYLEMODE
290
     1
  9
$FINGERPRINTGUID
  2
{81D41F36-5AC9-46A0-9F8C-967380B29204}
  9
$VERSIONGUID
  2
{75CB8743-A60C-4D39-A666-D0EE42034AA7}
  9
$EXTNAMES
290
     1
  9
$PSVPSCALE
 40
0.0
  9
$OLESTARTUP
290
     0
  0
ENDSEC
  0
SECTION
  2
CLASSES
  0
CLASS
  1
ACDBDICTIONARYWDFLT
  2
AcDbDictionaryWithDefault
  3
AutoCAD 2000
 90
        0
280
     0
281
     0
  0
CLASS
  1
ACDBPLACEHOLDER
  2
AcDbPlaceHolder
  3
AutoCAD 2000
 90
        0
280
     0
281
     0
  0
CLASS
  1
LAYOUT
  2
AcDbLayout
  3
AutoCAD 2000
 90
        0
280
     0
281
     0
  0
CLASS
  1
DICTIONARYVAR
  2
AcDbDictionaryVar
  3
AutoCAD 2000
 90
        0
280
     0
281
     0
  0
ENDSEC
  0
SECTION
  2
TABLES
  0
TABLE
  2
VPORT
  5
8
330
0
100
AcDbSymbolTable
 70
     2
  0
VPORT
  5
33E
330
8
100
AcDbSymbolTableRecord
100
AcDbViewportTableRecord
  2
*Active
 70
     0
 10
0.0
 20
0.0
 11
1.0
 21
1.0
 12
-37.15513094393302
 22
-19.23578242434996
 13
0.0
 23
0.0
 14
1.0
 24
1.0
 15
0.0
 25
0.0
 16
0.0
 26
0.0
 36
1.0
 17
0.0
 27
0.0
 37
0.0
 40
94.51321517679753
 41
1.182835820895522
 42
50.0
 43
0.0
 44
0.0
 50
0.0
 51
0.0
 71
     0
 72
   100
 73
     1
 74
     1
 75
     0
 76
     0
 77
     0
 78
     0
281
     0
 65
     1
110
0.0
120
0.0
130
0.0
111
1.0
121
0.0
131
0.0
112
0.0
122
1.0
132
0.0
 79
     0
146
0.0
  0
ENDTAB
  0
TABLE
  2
LTYPE
  5
5
330
0
100
AcDbSymbolTable
 70
     9
  0
LTYPE
  5
13
330
5
100
AcDbSymbolTableRecord
100
AcDbLinetypeTableRecord
  2
ByBlock
 70
     0
  3

 72
    65
 73
     0
 40
0.0
  0
LTYPE
  5
14
330
5
100
AcDbSymbolTableRecord
100
AcDbLinetypeTableRecord
  2
ByLayer
 70
     0
  3

 72
    65
 73
     0
 40
0.0
  0
LTYPE
  5
15
330
5
100
AcDbSymbolTableRecord
100
AcDbLinetypeTableRecord
  2
CONTINUOUS
 70
     0
  3
Solid line
 72
    65
 73
     0
 40
0.0
  0
LTYPE
  5
22
330
5
100
AcDbSymbolTableRecord
100
AcDbLinetypeTableRecord
  2
BORDER
 70
     0
  3
__ __ . __ __ .
 72
    65
 73
     6
 40
5.010975357719993
 49
1.431707245062854
 74
     0
 49
-0.7158536225314276
 74
     0
 49
1.431707245062854
 74
     0
 49
-0.7158536225314276
 74
     0
 49
0.0
 74
     0
 49
-0.7158536225314276
 74
     0
  0
LTYPE
  5
23
330
5
100
AcDbSymbolTableRecord
100
AcDbLinetypeTableRecord
  2
CENTER
 70
     0
  3
____ _ ____ _
 72
    65
 73
     4
 40
5.726828980251419
 49
3.579268112657138
 74
     0
 49
-0.7158536225314276
 74
     0
 49
0.7158536225314276
 74
     0
 49
-0.7158536225314276
 74
     0
  0
LTYPE
  5
24
330
5
100
AcDbSymbolTableRecord
100
AcDbLinetypeTableRecord
  2
DASHDOT
 70
     0
  3
__ . __ . __ .
 72
    65
 73
     4
 40
2.863414490125709
 49
1.431707245062854
 74
     0
 49
-0.7158536225314276
 74
     0
 49
0.0
 74
     0
 49
-0.7158536225314276
 74
     0
  0
LTYPE
  5
25
330
5
100
AcDbSymbolTableRecord
100
AcDbLinetypeTableRecord
  2
DASHED
 70
     0
  3
__ __ __ __ __
 72
    65
 73
     2
 40
2.147560867594283
 49
1.431707245062854
 74
     0
 49
-0.7158536225314276
 74
     0
  0
LTYPE
  5
26
330
5
100
AcDbSymbolTableRecord
100
AcDbLinetypeTableRecord
  2
DIVIDE
 70
     0
  3
__ . . __ . . 
 72
    65
 73
     6
 40
3.579268112657138
 49
1.431707245062854
 74
     0
 49
-0.7158536225314276
 74
     0
 49
0.0
 74
     0
 49
-0.7158536225314276
 74
     0
 49
0.0
 74
     0
 49
-0.7158536225314276
 74
     0
  0
LTYPE
  5
27
330
5
100
AcDbSymbolTableRecord
100
AcDbLinetypeTableRecord
  2
DOT
 70
     0
  3
..............
 72
    65
 73
     4
 40
1.431707245062854
 49
0.0
 74
     0
 49
-0.7158536225314276
 74
     0
 49
0.0
 74
     0
 49
-0.7158536225314276
 74
     0
  0
LTYPE
  5
28
330
5
100
AcDbSymbolTableRecord
100
AcDbLinetypeTableRecord
  2
HIDDEN
 70
     0
  3
_ _ _ _ _ _ _
 72
    65
 73
     2
 40
1.073780433797141
 49
0.7158536225314276
 74
     0
 49
-0.3579268112657138
 74
     0
  0
LTYPE
  5
29
330
5
100
AcDbSymbolTableRecord
100
AcDbLinetypeTableRecord
  2
PHANTOM
 70
     0
  3
_____ _ _ _____ _ _ 
 72
    65
 73
     6
 40
7.158536225314275
 49
3.579268112657138
 74
     0
 49
-0.7158536225314276
 74
     0
 49
0.7158536225314276
 74
     0
 49
-0.7158536225314276
 74
     0
 49
0.7158536225314276
 74
     0
 49
-0.7158536225314276
 74
     0
  0
ENDTAB
  0
TABLE
  2
LAYER
  5
2
330
0
100
AcDbSymbolTable
 70
     3
  0
LAYER
  5
10
330
2
100
AcDbSymbolTableRecord
100
AcDbLayerTableRecord
  2
0
 70
     0
 62
     7
  6
CONTINUOUS
370
    -3
390
F
  0
LAYER
  5
2A
330
2
100
AcDbSymbolTableRecord
100
AcDbLayerTableRecord
  2
1
 70
     0
 62
     7
  6
CONTINUOUS
370
    -3
390
F
  0
LAYER
  5
2FF
330
2
100
AcDbSymbolTableRecord
100
AcDbLayerTableRecord
  2
LAYER_1
 70
     0
 62
     5
  6
CONTINUOUS
370
    -3
390
F
  0
ENDTAB
  0
TABLE
  2
STYLE
  5
3
330
0
100
AcDbSymbolTable
 70
     4
  0
STYLE
  5
11
330
3
100
AcDbSymbolTableRecord
100
AcDbTextStyleTableRecord
  2
STANDARD
 70
     0
 40
0.0
 41
1.0
 50
0.0
 71
     0
 42
3.5
  3
txt
  4

  0
STYLE
  5
2B
330
3
100
AcDbSymbolTableRecord
100
AcDbTextStyleTableRecord
  2
SIMPLEX
 70
     0
 40
0.0
 41
1.0
 50
0.0
 71
     0
 42
3.5
  3
simplex
  4

  0
STYLE
  5
2C
330
3
100
AcDbSymbolTableRecord
100
AcDbTextStyleTableRecord
  2
COMPLEX
 70
     0
 40
0.0
 41
1.0
 50
0.0
 71
     0
 42
3.5
  3
complex
  4

  0
STYLE
  5
2D
330
3
100
AcDbSymbolTableRecord
100
AcDbTextStyleTableRecord
  2
ITALIC
 70
     0
 40
0.0
 41
1.0
 50
0.0
 71
     0
 42
3.5
  3
italic
  4

  0
ENDTAB
  0
TABLE
  2
VIEW
  5
6
330
0
100
AcDbSymbolTable
 70
     0
  0
ENDTAB
  0
TABLE
  2
UCS
  5
7
330
0
100
AcDbSymbolTable
 70
     0
  0
ENDTAB
  0
TABLE
  2
APPID
  5
9
330
0
100
AcDbSymbolTable
 70
     1
  0
APPID
  5
12
330
9
100
AcDbSymbolTableRecord
100
AcDbRegAppTableRecord
  2
ACAD
 70
     0
  0
ENDTAB
  0
TABLE
  2
DIMSTYLE
  5
A
330
0
100
AcDbSymbolTable
 70
     1
100
AcDbDimStyleTable
 71
     0
  0
DIMSTYLE
105
292
330
A
100
AcDbSymbolTableRecord
100
AcDbDimStyleTableRecord
  2
Standard
 70
     0
340
11
  0
ENDTAB
  0
TABLE
  2
BLOCK_RECORD
  5
1
330
0
100
AcDbSymbolTable
 70
    21
  0
BLOCK_RECORD
  5
1E
330
1
100
AcDbSymbolTableRecord
100
AcDbBlockTableRecord
  2
*Model_Space
340
21
  0
BLOCK_RECORD
  5
1A
330
1
100
AcDbSymbolTableRecord
100
AcDbBlockTableRecord
  2
*Paper_Space
340
1D
  0
BLOCK_RECORD
  5
293
330
1
100
AcDbSymbolTableRecord
100
AcDbBlockTableRecord
  2
AI9-BLK14
340
0
310
2800000020000000200000000100080000000000000400000000000000000000000000000000000000000000000080000080000000808000800000008000800080800000C0C0C000C0DCC000F0CAA6000020400000206000002080000020A0000020C0000020E00000400000004020000040400000406000004080000040A0
310
000040C0000040E00000600000006020000060400000606000006080000060A0000060C0000060E00000800000008020000080400000806000008080000080A0000080C0000080E00000A0000000A0200000A0400000A0600000A0800000A0A00000A0C00000A0E00000C0000000C0200000C0400000C0600000C0800000C0
310
A00000C0C00000C0E00000E0000000E0200000E0400000E0600000E0800000E0A00000E0C00000E0E00040000000400020004000400040006000400080004000A0004000C0004000E00040200000402020004020400040206000402080004020A0004020C0004020E000404000004040200040404000404060004040800040
310
40A0004040C0004040E00040600000406020004060400040606000406080004060A0004060C0004060E00040800000408020004080400040806000408080004080A0004080C0004080E00040A0000040A0200040A0400040A0600040A0800040A0A00040A0C00040A0E00040C0000040C0200040C0400040C0600040C08000
310
40C0A00040C0C00040C0E00040E0000040E0200040E0400040E0600040E0800040E0A00040E0C00040E0E00080000000800020008000400080006000800080008000A0008000C0008000E00080200000802020008020400080206000802080008020A0008020C0008020E00080400000804020008040400080406000804080
310
008040A0008040C0008040E00080600000806020008060400080606000806080008060A0008060C0008060E00080800000808020008080400080806000808080008080A0008080C0008080E00080A0000080A0200080A0400080A0600080A0800080A0A00080A0C00080A0E00080C0000080C0200080C0400080C0600080C0
310
800080C0A00080C0C00080C0E00080E0000080E0200080E0400080E0600080E0800080E0A00080E0C00080E0E000C0000000C0002000C0004000C0006000C0008000C000A000C000C000C000E000C0200000C0202000C0204000C0206000C0208000C020A000C020C000C020E000C0400000C0402000C0404000C0406000C0
310
408000C040A000C040C000C040E000C0600000C0602000C0604000C0606000C0608000C060A000C060C000C060E000C0800000C0802000C0804000C0806000C0808000C080A000C080C000C080E000C0A00000C0A02000C0A04000C0A06000C0A08000C0A0A000C0A0C000C0A0E000C0C00000C0C02000C0C04000C0C06000
310
C0C08000C0C0A000F0FBFF00A4A0A000808080000000FF0000FF000000FFFF00FF000000FF00FF00FFFF0000FFFFFF00FF00FFFFFFFF00FFFFFFFFFFFFFFFFFFFFFFFFFFFFFFFFFFFFFFFFFFFFFFFFFFFF00FFFFFFFF00FFFFFFFFFFFFFFFFFFFFFFFFFFFFFFFFFFFFFFFFFFFFFFFFFFFF00FFFFFFFF00FFFFFFFFFFFFFFFF
310
FFFFFFFFFFFFFFFFFFFFFFFFFFFFFFFFFFFF00FFFFFFFF00FFFFFFFFFFFFFFFFFFFFFFFFFFFFFFFFFFFFFFFFFFFFFFFFFFFF00FFFFFFFF00FFFFFFFFFFFFFFFFFFFFFFFFFFFFFFFFFFFFFFFFFFFFFFFFFFFF00FFFFFFFF00FFFFFFFFFFFFFFFFFFFFFFFFFFFFFFFFFFFFFFFFFFFFFFFFFFFF00FFFFFFFF00FFFFFFFFFFFFFF
310
FFFFFFFFFFFFFFFFFFFFFFFFFFFFFFFFFFFFFF00FFFFFFFF00FFFFFFFFFFFFFFFFFFFFFFFFFFFFFFFFFFFFFFFFFFFFFFFFFFFF00FFFFFFFF00FFFFFFFFFFFFFFFFFFFFFFFFFFFFFFFFFFFFFFFFFFFFFFFFFFFF00FFFFFFFF00FFFFFFFFFFFFFFFFFFFFFFFFFFFFFFFFFFFFFFFFFFFFFFFFFFFF00FFFFFFFF00FFFFFFFFFFFF
310
FFFFFFFFFFFFFFFFFFFFFFFFFFFFFFFFFFFFFFFF00FFFFFFFF00FFFFFFFFFFFFFFFFFFFFFFFFFFFFFFFFFFFFFFFFFFFFFFFFFFFF00FFFFFFFF00FFFFFFFFFFFFFFFFFFFFFFFFFFFFFFFFFFFFFFFFFFFFFFFFFFFF00FFFFFFFF0000000000000000000000000000000000000000000000000000FF00FFFFFFFFFFFFFFFFFFFF
310
FFFFFFFFFFFFFFFFFFFFFFFFFFFFFFFFFFFFFFFFFF00FFFFFFFFFFFFFFFFFFFFFFFFFFFFFFFFFFFFFFFFFFFFFFFFFFFFFFFFFFFFFF00FFFFFFFFFFFFFFFFFFFFFFFFFFFFFFFFFFFFFFFFFFFFFFFFFFFFFFFFFFFFFF00FFFFFFFFFFFFFFFFFFFFFFFFFFFFFFFFFFFFFFFFFFFFFFFFFFFFFFFFFF00FF00000000000000000000
310
0000000000000000000000000000000000000000FFFFFFFFFFFFFFFFFFFFFFFFFFFFFFFFFFFFFFFFFFFFFFFFFFFFFFFFFFFFFFFFFFFFFFFFFFFFFFFFFFFFFFFFFFFFFFFFFFFFFFFFFFFFFFFFFFFFFFFFFFFFFFFFFFFFFFFFFFFFFFFFFFFFFFFFFFFFFFFFFFFFFFFFFFFFFFFFFFFFFFFFFFFFFFFFFFFFFFFFFFFFFFFFFFFFFF
310
FFFFFFFFFFFFFFFFFFFFFFFFFFFFFFFFFFFFFFFFFFFFFFFFFFFFFFFFFFFFFFFFFFFFFFFFFFFFFFFFFFFFFFFFFFFFFFFFFFFFFFFFFFFFFFFFFFFFFFFFFFFFFFFFFFFFFFFFFFFFFFFFFFFFFFFFFFFFFFFFFFFFFFFFFFFFFFFFFFFFFFFFFFFFFFFFFFFFFFFFFFFFFFFFFFFFFFFFFFFFFFFFFFFFFFFFFFFFFFFFFFFFFFFFFFFFFF
310
FFFFFFFFFFFFFFFFFFFFFFFFFFFFFFFFFFFFFFFFFFFFFFFFFFFFFFFFFFFFFFFFFFFFFFFFFFFFFFFFFFFFFFFFFFFFFFFFFFFFFFFFFFFFFFFFFFFFFFFFFFFFFFFFFFFFFFFFFFFFFFFFFFFFFFFFFFFFFFFFFFFFFFFFFFFFFFFFFFFFFFFFFFFFFFFFFFFFFFFFFFFFFFFFFFFFFFFFFFFFFFFFFFFFFFFFFFFFFFFFFFFFFFFFFFFFFF
310
FFFFFFFFFFFFFFFFFFFFFFFFFFFFFFFFFFFFFFFFFFFFFFFFFFFFFFFFFFFFFFFFFFFFFFFFFFFFFFFFFFFFFFFFFFFFFFFFFFFFFFFFFFFFFFFF
102
{BLKREFS
331
2D4
102
}
  0
BLOCK_RECORD
  5
298
330
1
100
AcDbSymbolTableRecord
100
AcDbBlockTableRecord
  2
AI9-BLK13
340
0
310
2800000020000000200000000100080000000000000400000000000000000000000000000000000000000000000080000080000000808000800000008000800080800000C0C0C000C0DCC000F0CAA6000020400000206000002080000020A0000020C0000020E00000400000004020000040400000406000004080000040A0
310
000040C0000040E00000600000006020000060400000606000006080000060A0000060C0000060E00000800000008020000080400000806000008080000080A0000080C0000080E00000A0000000A0200000A0400000A0600000A0800000A0A00000A0C00000A0E00000C0000000C0200000C0400000C0600000C0800000C0
310
A00000C0C00000C0E00000E0000000E0200000E0400000E0600000E0800000E0A00000E0C00000E0E00040000000400020004000400040006000400080004000A0004000C0004000E00040200000402020004020400040206000402080004020A0004020C0004020E000404000004040200040404000404060004040800040
310
40A0004040C0004040E00040600000406020004060400040606000406080004060A0004060C0004060E00040800000408020004080400040806000408080004080A0004080C0004080E00040A0000040A0200040A0400040A0600040A0800040A0A00040A0C00040A0E00040C0000040C0200040C0400040C0600040C08000
310
40C0A00040C0C00040C0E00040E0000040E0200040E0400040E0600040E0800040E0A00040E0C00040E0E00080000000800020008000400080006000800080008000A0008000C0008000E00080200000802020008020400080206000802080008020A0008020C0008020E00080400000804020008040400080406000804080
310
008040A0008040C0008040E00080600000806020008060400080606000806080008060A0008060C0008060E00080800000808020008080400080806000808080008080A0008080C0008080E00080A0000080A0200080A0400080A0600080A0800080A0A00080A0C00080A0E00080C0000080C0200080C0400080C0600080C0
310
800080C0A00080C0C00080C0E00080E0000080E0200080E0400080E0600080E0800080E0A00080E0C00080E0E000C0000000C0002000C0004000C0006000C0008000C000A000C000C000C000E000C0200000C0202000C0204000C0206000C0208000C020A000C020C000C020E000C0400000C0402000C0404000C0406000C0
310
408000C040A000C040C000C040E000C0600000C0602000C0604000C0606000C0608000C060A000C060C000C060E000C0800000C0802000C0804000C0806000C0808000C080A000C080C000C080E000C0A00000C0A02000C0A04000C0A06000C0A08000C0A0A000C0A0C000C0A0E000C0C00000C0C02000C0C04000C0C06000
310
C0C08000C0C0A000F0FBFF00A4A0A000808080000000FF0000FF000000FFFF00FF000000FF00FF00FFFF0000FFFFFF00FFFFFFFFFFFFFFFFFFFFFFFFFFFFFFFFFFFFFFFFFFFFFFFFFFFFFFFFFFFFFFFFFFFFFFFFFFFFFFFFFFFFFF0000FFFFFFFFFFFF0000FFFFFFFFFFFFFFFFFFFFFFFFFFFFFFFFFFFFFFFFFFFF0000FFFF
310
FFFFFFFF0000FFFFFFFFFFFFFFFFFFFFFFFFFFFFFFFFFFFFFFFFFFFF0000FFFFFFFFFFFF0000FFFFFFFFFFFFFFFFFFFFFFFFFFFFFFFFFFFFFFFFFFFF0000FFFFFFFFFFFF0000FFFFFFFFFFFFFFFFFFFFFFFFFFFFFFFFFFFFFFFFFFFF0000FFFFFFFFFFFF0000FFFFFFFFFFFFFFFFFFFFFFFFFFFFFFFFFFFFFFFFFFFF0000FF
310
FFFFFFFFFF0000FFFFFFFFFFFFFFFFFFFFFFFFFFFFFFFFFFFFFFFFFFFF0000FFFFFFFFFFFF0000FFFFFFFFFFFFFFFFFFFFFFFFFFFFFFFFFFFFFFFFFFFF0000FFFFFFFFFFFF0000FFFFFFFFFFFFFFFFFFFFFFFFFFFFFFFFFFFFFFFFFFFF0000FFFFFFFFFFFF0000FFFFFFFFFFFFFFFFFFFFFFFFFFFFFFFFFFFFFFFFFFFF0000
310
FFFFFFFFFFFF0000FFFFFFFFFFFFFFFFFFFFFFFFFFFFFFFFFFFFFFFFFFFF0000FFFFFFFFFFFF0000FFFFFFFFFFFFFFFFFFFFFFFFFFFFFFFFFFFFFFFFFFFF0000FFFFFFFFFFFF0000FFFFFFFFFFFFFFFFFFFFFFFFFFFFFFFFFFFFFFFFFFFF0000FFFFFFFFFFFF0000FFFFFFFFFFFFFFFFFFFFFFFFFFFFFFFFFFFFFFFFFFFF00
310
00FFFFFFFFFFFF0000FFFFFFFFFFFFFFFFFFFFFFFFFFFFFFFFFFFFFFFFFFFF00000000000000000000FFFFFFFFFFFFFFFFFFFFFFFFFFFFFFFFFFFFFFFFFFFF00FFFFFFFFFFFFFFFF00FFFFFFFFFFFFFFFFFFFFFFFFFFFFFFFFFFFFFFFFFFFF00FFFFFFFFFFFFFFFF00FFFFFFFFFFFFFFFFFFFFFFFFFFFFFFFFFFFFFFFFFFFF
310
00000000000000000000FFFFFFFFFFFFFFFFFFFFFFFFFFFFFFFFFFFFFFFFFFFF0000FFFFFFFFFFFF0000FFFFFFFFFFFFFFFFFFFFFFFFFFFFFFFFFFFFFFFFFFFF0000FFFFFFFFFFFF0000FFFFFFFFFFFFFFFFFFFFFFFFFFFFFFFFFFFFFFFFFFFF0000FFFFFFFFFFFF0000FFFFFFFFFFFFFFFFFFFFFFFFFFFFFFFFFFFFFFFFFF
310
FF0000FFFFFFFFFFFF0000FFFFFFFFFFFFFFFFFFFFFFFFFFFFFFFFFFFFFFFFFFFF0000FFFFFFFFFFFF0000FFFFFFFFFFFFFFFFFFFFFFFFFFFFFFFFFFFFFFFFFFFF0000FFFFFFFFFFFF0000FFFFFFFFFFFFFFFFFFFFFFFFFFFFFFFFFFFFFFFFFFFF0000FFFFFFFFFFFF0000FFFFFFFFFFFFFFFFFFFFFFFFFFFFFFFFFFFFFFFF
310
FFFF0000FFFFFFFFFFFF0000FFFFFFFFFFFFFFFFFFFFFFFFFFFFFFFFFFFFFFFFFFFF0000FFFFFFFFFFFF0000FFFFFFFFFFFFFFFFFFFFFFFFFFFFFFFFFFFFFFFFFFFF0000FFFFFFFFFFFF0000FFFFFFFFFFFFFFFFFFFFFFFFFFFFFFFFFFFFFFFFFFFF0000FFFFFFFFFFFF0000FFFFFFFFFFFFFFFFFFFFFFFFFFFFFFFFFFFFFF
310
FFFFFF0000FFFFFFFFFFFF0000FFFFFFFFFFFFFFFFFFFFFFFFFFFFFFFFFFFFFFFFFFFFFFFFFFFFFFFFFFFFFFFFFFFFFFFFFFFFFFFFFFFFFF
102
{BLKREFS
331
2D5
102
}
  0
BLOCK_RECORD
  5
29D
330
1
100
AcDbSymbolTableRecord
100
AcDbBlockTableRecord
  2
AI9-BLK11
340
0
310
2800000020000000200000000100080000000000000400000000000000000000000000000000000000000000000080000080000000808000800000008000800080800000C0C0C000C0DCC000F0CAA6000020400000206000002080000020A0000020C0000020E00000400000004020000040400000406000004080000040A0
310
000040C0000040E00000600000006020000060400000606000006080000060A0000060C0000060E00000800000008020000080400000806000008080000080A0000080C0000080E00000A0000000A0200000A0400000A0600000A0800000A0A00000A0C00000A0E00000C0000000C0200000C0400000C0600000C0800000C0
310
A00000C0C00000C0E00000E0000000E0200000E0400000E0600000E0800000E0A00000E0C00000E0E00040000000400020004000400040006000400080004000A0004000C0004000E00040200000402020004020400040206000402080004020A0004020C0004020E000404000004040200040404000404060004040800040
310
40A0004040C0004040E00040600000406020004060400040606000406080004060A0004060C0004060E00040800000408020004080400040806000408080004080A0004080C0004080E00040A0000040A0200040A0400040A0600040A0800040A0A00040A0C00040A0E00040C0000040C0200040C0400040C0600040C08000
310
40C0A00040C0C00040C0E00040E0000040E0200040E0400040E0600040E0800040E0A00040E0C00040E0E00080000000800020008000400080006000800080008000A0008000C0008000E00080200000802020008020400080206000802080008020A0008020C0008020E00080400000804020008040400080406000804080
310
008040A0008040C0008040E00080600000806020008060400080606000806080008060A0008060C0008060E00080800000808020008080400080806000808080008080A0008080C0008080E00080A0000080A0200080A0400080A0600080A0800080A0A00080A0C00080A0E00080C0000080C0200080C0400080C0600080C0
310
800080C0A00080C0C00080C0E00080E0000080E0200080E0400080E0600080E0800080E0A00080E0C00080E0E000C0000000C0002000C0004000C0006000C0008000C000A000C000C000C000E000C0200000C0202000C0204000C0206000C0208000C020A000C020C000C020E000C0400000C0402000C0404000C0406000C0
310
408000C040A000C040C000C040E000C0600000C0602000C0604000C0606000C0608000C060A000C060C000C060E000C0800000C0802000C0804000C0806000C0808000C080A000C080C000C080E000C0A00000C0A02000C0A04000C0A06000C0A08000C0A0A000C0A0C000C0A0E000C0C00000C0C02000C0C04000C0C06000
310
C0C08000C0C0A000F0FBFF00A4A0A000808080000000FF0000FF000000FFFF00FF000000FF00FF00FFFF0000FFFFFF00FFFFFFFFFFFFFFFFFFFFFFFFFFFFFFFFFFFFFFFFFFFFFFFFFFFFFFFFFFFFFFFFFFFFFFFFFFFFFFFFFFFFFFFFFFFF00000000FFFFFFFFFFFFFFFFFFFFFF000000FFFFFFFFFFFFFFFFFFFFFFFFFFFF00
310
FFFF00FFFFFFFFFFFFFFFFFFFFFF00FFFFFFFFFFFFFFFFFFFFFFFFFFFFFFFF00FFFF00FFFFFFFFFFFFFFFFFFFFFF00FFFFFFFFFFFFFFFFFFFFFFFFFFFFFFFF00FFFF00FFFFFFFFFFFFFFFFFFFFFF00FFFFFFFFFFFFFFFFFFFFFFFFFFFFFFFF00FFFF00FFFFFFFFFFFFFFFFFFFFFF00FFFFFFFFFFFFFFFFFFFFFFFFFFFFFFFF
310
00FFFF00FFFFFFFFFFFFFFFFFFFFFF00FFFFFFFFFFFFFFFFFFFFFFFFFFFFFFFF00FFFF00FFFFFFFFFFFFFFFFFFFFFF00FFFFFFFFFFFFFFFFFFFFFFFFFFFFFFFF00FFFF00FFFFFFFFFFFFFFFFFFFFFF00FFFFFFFFFFFFFFFFFFFFFFFFFFFFFFFF00FFFF00FFFFFFFFFFFFFFFFFFFFFF00FFFFFFFFFFFFFFFFFFFFFFFFFFFFFF
310
FF00FFFF00FFFFFFFFFFFFFFFFFFFFFF00FFFFFFFFFFFFFFFFFFFFFFFFFFFFFFFF00FFFF00FFFFFFFFFFFFFFFFFFFFFF00FFFFFFFFFFFFFFFFFFFFFFFFFFFFFFFF00FFFF00FFFFFFFFFFFFFFFFFFFFFF00FFFFFFFFFFFFFFFFFFFFFFFFFFFFFFFF00FFFF00FFFFFFFFFFFFFFFFFFFFFF00FFFFFFFFFFFFFFFFFFFFFFFFFFFF
310
FFFF00FFFF00FFFFFFFFFFFFFFFFFFFFFF00FFFFFFFFFFFFFFFFFFFFFFFFFFFFFFFF00FFFF00FFFFFFFFFFFFFFFFFFFFFF00FFFFFFFFFFFFFFFFFFFFFFFFFFFFFFFF00FFFF00FFFFFFFFFFFFFFFFFFFFFF00FFFFFFFFFFFFFFFFFFFFFFFFFFFFFFFF00FFFF00FFFFFFFFFFFFFFFFFFFF00FFFFFFFFFFFFFFFFFFFFFFFFFFFF
310
FFFFFF00FFFF00FFFFFFFFFFFFFFFFFFFF00FFFFFFFFFFFFFFFFFFFFFFFFFFFFFFFFFF00FFFF00FFFFFFFFFFFFFFFFFFFF00FFFFFFFFFFFFFFFFFFFFFFFFFFFFFFFFFF00FFFF00FFFFFFFFFFFFFFFFFFFF00FFFFFFFFFFFFFFFFFFFFFFFFFFFFFFFFFF00FFFF00FFFFFFFFFFFFFFFFFFFF00FFFFFFFFFFFFFFFFFFFFFFFFFF
310
FFFFFFFF00FFFF00FFFFFFFFFFFFFFFFFF0000FFFF00FFFFFFFFFFFFFFFFFFFFFFFFFFFF00FFFF00FFFFFFFFFFFFFFFF0000FFFFFF00FFFFFFFFFFFFFFFFFFFFFFFFFFFF00FFFF00000000000000000000FFFFFFFF00FFFFFFFFFFFFFFFFFFFFFFFFFFFF00FFFFFFFFFFFFFFFFFFFFFFFFFFFFFF00FFFFFFFFFFFFFFFFFFFF
310
FFFFFFFFFF00FFFFFFFFFFFFFFFFFFFFFFFFFFFF00FFFFFFFFFFFFFFFFFFFFFFFFFFFFFFFF00FFFFFFFFFFFFFFFFFFFFFFFFFFFF00FFFFFFFFFFFFFFFFFFFFFFFFFFFFFFFF00FFFFFFFFFFFFFFFFFFFFFFFFFFFFFF00FFFFFFFFFFFFFFFFFFFFFFFFFFFFFF00FFFFFFFFFFFFFFFFFFFFFFFFFFFFFF00FFFFFFFFFFFFFFFFFF
310
FFFFFFFFFFFF00FFFF00000000000000000000FFFFFFFF00FFFFFFFFFFFFFFFFFFFFFFFFFFFF00FFFF00FFFFFFFFFFFFFFFFFF0000FFFF00
102
{BLKREFS
331
2D6
102
}
  0
BLOCK_RECORD
  5
2A2
330
1
100
AcDbSymbolTableRecord
100
AcDbBlockTableRecord
  2
AI9-BLK10
340
0
310
2800000020000000200000000100080000000000000400000000000000000000000000000000000000000000000080000080000000808000800000008000800080800000C0C0C000C0DCC000F0CAA6000020400000206000002080000020A0000020C0000020E00000400000004020000040400000406000004080000040A0
310
000040C0000040E00000600000006020000060400000606000006080000060A0000060C0000060E00000800000008020000080400000806000008080000080A0000080C0000080E00000A0000000A0200000A0400000A0600000A0800000A0A00000A0C00000A0E00000C0000000C0200000C0400000C0600000C0800000C0
310
A00000C0C00000C0E00000E0000000E0200000E0400000E0600000E0800000E0A00000E0C00000E0E00040000000400020004000400040006000400080004000A0004000C0004000E00040200000402020004020400040206000402080004020A0004020C0004020E000404000004040200040404000404060004040800040
310
40A0004040C0004040E00040600000406020004060400040606000406080004060A0004060C0004060E00040800000408020004080400040806000408080004080A0004080C0004080E00040A0000040A0200040A0400040A0600040A0800040A0A00040A0C00040A0E00040C0000040C0200040C0400040C0600040C08000
310
40C0A00040C0C00040C0E00040E0000040E0200040E0400040E0600040E0800040E0A00040E0C00040E0E00080000000800020008000400080006000800080008000A0008000C0008000E00080200000802020008020400080206000802080008020A0008020C0008020E00080400000804020008040400080406000804080
310
008040A0008040C0008040E00080600000806020008060400080606000806080008060A0008060C0008060E00080800000808020008080400080806000808080008080A0008080C0008080E00080A0000080A0200080A0400080A0600080A0800080A0A00080A0C00080A0E00080C0000080C0200080C0400080C0600080C0
310
800080C0A00080C0C00080C0E00080E0000080E0200080E0400080E0600080E0800080E0A00080E0C00080E0E000C0000000C0002000C0004000C0006000C0008000C000A000C000C000C000E000C0200000C0202000C0204000C0206000C0208000C020A000C020C000C020E000C0400000C0402000C0404000C0406000C0
310
408000C040A000C040C000C040E000C0600000C0602000C0604000C0606000C0608000C060A000C060C000C060E000C0800000C0802000C0804000C0806000C0808000C080A000C080C000C080E000C0A00000C0A02000C0A04000C0A06000C0A08000C0A0A000C0A0C000C0A0E000C0C00000C0C02000C0C04000C0C06000
310
C0C08000C0C0A000F0FBFF00A4A0A000808080000000FF0000FF000000FFFF00FF000000FF00FF00FFFF0000FFFFFF00FFFFFFFFFFFFFFFFFFFFFFFFFFFFFFFF00FFFFFFFFFFFFFFFFFFFFFFFF00FFFFFFFFFFFFFFFFFFFFFFFFFFFFFFFFFFFF00FFFFFFFFFFFFFFFFFFFFFF00FFFFFFFFFFFFFFFFFFFFFFFFFFFFFFFFFFFF
310
FF00FFFFFFFFFFFFFFFFFFFFFF00FFFFFFFFFFFFFFFFFFFFFFFFFFFFFFFFFFFFFF00FFFFFFFFFFFFFFFFFFFFFF00FFFFFFFFFFFFFFFFFFFFFFFFFFFFFFFFFFFFFF00FFFFFFFFFFFFFFFFFFFFFF00FFFFFFFFFFFFFFFFFFFFFFFFFFFFFFFFFFFFFF00FFFFFFFFFFFFFFFFFFFFFF00FFFFFFFFFFFFFFFFFFFFFFFFFFFFFFFFFF
310
FFFF00FFFFFFFFFFFFFFFFFFFFFF00FFFFFFFFFFFFFFFFFFFFFFFFFFFFFFFFFFFFFF00FFFFFFFFFFFFFFFFFFFF00FFFFFFFFFFFFFFFFFFFFFFFFFFFFFFFFFFFFFFFF00FFFFFFFFFFFFFFFFFFFF00FFFFFFFFFFFFFFFFFFFFFFFFFFFFFFFFFFFFFFFF00FFFFFFFFFFFFFFFFFFFF00FFFFFFFFFFFFFFFFFFFFFFFFFFFFFFFFFF
310
FFFFFF00FFFFFFFFFFFFFFFFFFFF00FFFFFFFFFFFFFFFFFFFFFFFFFFFFFFFFFFFFFFFF00FFFFFFFFFFFFFFFFFFFF00FFFFFFFFFFFFFFFFFFFFFFFFFFFFFFFFFFFFFFFF00FFFFFFFFFFFFFFFFFFFF00FFFFFFFFFFFFFFFFFFFFFFFFFFFFFFFFFFFFFFFF00FFFFFFFFFFFFFFFFFF00FFFFFFFFFFFFFFFFFFFFFFFFFFFFFFFFFF
310
FFFFFFFF00FFFFFFFFFFFFFFFFFF00FFFFFFFFFFFFFFFFFFFFFFFFFFFFFFFFFFFFFFFFFF00FFFFFFFFFFFFFFFFFF00FFFFFFFFFFFFFFFFFFFFFFFFFFFFFFFFFFFFFFFFFF0000000000000000000000FFFFFFFFFFFFFFFFFFFFFFFFFFFFFFFFFFFFFFFFFFFFFFFFFFFFFFFFFFFFFFFFFFFFFFFFFFFFFFFFFFFFFFFFFFFFFFFF
310
FFFFFFFFFFFFFFFFFFFFFFFFFFFFFFFFFFFFFFFFFFFFFFFFFFFFFFFFFFFFFFFFFFFFFFFFFFFFFFFFFFFFFFFFFFFFFFFFFFFFFFFFFFFFFFFFFFFFFFFFFFFFFFFFFFFFFFFFFFFFFFFFFFFFFFFFFFFFFFFFFFFFFFFFFFFFFFFFFFFFFFFFFFFFFFFFFFFFFFFFFFFFFFFFFFFFFFFFFFFFFFFFFFFFFFFFFFFFFFFFFFFFFFFFFFFFFF
310
FFFFFFFFFFFFFFFFFFFFFFFFFFFFFFFFFFFFFFFFFFFFFFFFFFFFFFFFFFFFFFFFFFFFFFFFFFFFFFFFFFFFFFFFFFFFFFFFFFFFFFFFFFFFFFFFFFFFFFFFFFFFFFFFFFFFFFFFFFFFFFFFFFFFFFFFFFFFFFFFFFFFFFFFFFFFFFFFFFFFFFFFFFFFFFFFFFFFFFFFFFFFFFFFFFFFFFFFFFFFFFFFFFFFFFFFFFFFFFFFFFFFFFFFFFFFFF
310
FFFFFFFFFFFFFFFFFFFFFFFFFFFFFFFFFFFFFFFFFFFFFFFFFFFFFFFFFFFFFFFFFFFFFFFFFFFFFFFFFFFFFFFFFFFFFFFFFFFFFFFFFFFFFFFFFFFFFFFFFFFFFFFFFFFFFFFFFFFFFFFFFFFFFFFFFFFFFFFFFFFFFFFFFFFFFFFFFFFFFFFFFFFFFFFFFFFFFFFFFFFFFFFFFFFFFFFFFFFFFFFFFFFFFFFFFFFFFFFFFFFFFFFFFFFFFF
310
FFFFFFFFFFFFFFFFFFFFFFFFFFFFFFFFFFFFFFFFFFFFFFFFFFFFFFFFFFFFFFFFFFFFFFFFFFFFFFFFFFFFFFFFFFFFFFFFFFFFFFFFFFFFFFFF
102
{BLKREFS
331
2D7
102
}
  0
BLOCK_RECORD
  5
2A6
330
1
100
AcDbSymbolTableRecord
100
AcDbBlockTableRecord
  2
AI9-BLK9
340
0
310
2800000020000000200000000100080000000000000400000000000000000000000000000000000000000000000080000080000000808000800000008000800080800000C0C0C000C0DCC000F0CAA6000020400000206000002080000020A0000020C0000020E00000400000004020000040400000406000004080000040A0
310
000040C0000040E00000600000006020000060400000606000006080000060A0000060C0000060E00000800000008020000080400000806000008080000080A0000080C0000080E00000A0000000A0200000A0400000A0600000A0800000A0A00000A0C00000A0E00000C0000000C0200000C0400000C0600000C0800000C0
310
A00000C0C00000C0E00000E0000000E0200000E0400000E0600000E0800000E0A00000E0C00000E0E00040000000400020004000400040006000400080004000A0004000C0004000E00040200000402020004020400040206000402080004020A0004020C0004020E000404000004040200040404000404060004040800040
310
40A0004040C0004040E00040600000406020004060400040606000406080004060A0004060C0004060E00040800000408020004080400040806000408080004080A0004080C0004080E00040A0000040A0200040A0400040A0600040A0800040A0A00040A0C00040A0E00040C0000040C0200040C0400040C0600040C08000
310
40C0A00040C0C00040C0E00040E0000040E0200040E0400040E0600040E0800040E0A00040E0C00040E0E00080000000800020008000400080006000800080008000A0008000C0008000E00080200000802020008020400080206000802080008020A0008020C0008020E00080400000804020008040400080406000804080
310
008040A0008040C0008040E00080600000806020008060400080606000806080008060A0008060C0008060E00080800000808020008080400080806000808080008080A0008080C0008080E00080A0000080A0200080A0400080A0600080A0800080A0A00080A0C00080A0E00080C0000080C0200080C0400080C0600080C0
310
800080C0A00080C0C00080C0E00080E0000080E0200080E0400080E0600080E0800080E0A00080E0C00080E0E000C0000000C0002000C0004000C0006000C0008000C000A000C000C000C000E000C0200000C0202000C0204000C0206000C0208000C020A000C020C000C020E000C0400000C0402000C0404000C0406000C0
310
408000C040A000C040C000C040E000C0600000C0602000C0604000C0606000C0608000C060A000C060C000C060E000C0800000C0802000C0804000C0806000C0808000C080A000C080C000C080E000C0A00000C0A02000C0A04000C0A06000C0A08000C0A0A000C0A0C000C0A0E000C0C00000C0C02000C0C04000C0C06000
310
C0C08000C0C0A000F0FBFF00A4A0A000808080000000FF0000FF000000FFFF00FF000000FF00FF00FFFF0000FFFFFF00FFFFFFFFFFFFFFFFFFFFFFFFFFFFFFFFFFFFFFFFFFFFFFFFFFFFFFFFFFFFFFFFFFFFFFFFFFFFFFFFFFFFFFFFFFFFFF0000FFFFFFFFFFFFFFFFFFFFFFFFFFFFFFFFFFFFFFFFFFFFFFFFFFFFFFFF0000
310
FF0000FFFFFFFFFFFFFFFFFFFFFFFFFFFFFFFFFFFFFFFFFFFFFFFFFFFFFF00FFFFFF0000FFFFFFFFFFFFFFFFFFFFFFFFFFFFFFFFFFFFFFFFFFFFFFFFFFFF00FFFFFFFF0000FFFFFFFFFFFFFFFFFFFFFFFFFFFFFFFFFFFFFFFFFFFFFFFF00FF00000000FF00FFFFFFFFFFFFFFFFFFFFFFFFFFFFFFFFFFFFFFFFFFFFFFFF0000
310
00FFFF00FF00FFFFFFFFFFFFFFFFFFFFFFFFFFFFFFFFFFFFFFFFFFFFFFFF0000FFFFFFFF0000FFFFFFFFFFFFFFFFFFFFFFFFFFFFFFFFFFFFFFFFFFFFFFFF0000FFFFFFFF0000FFFFFFFFFFFFFFFFFFFFFFFFFFFFFFFFFFFFFFFFFFFFFF00FF00FFFFFFFF00FF00FFFFFFFFFFFFFFFFFFFFFFFFFFFFFFFFFFFFFFFFFFFF0000
310
FFFFFFFFFF00FF00FFFFFFFFFFFFFFFFFFFFFFFFFFFFFFFFFFFFFFFFFFFF0000FFFFFFFFFFFF0000FFFFFFFFFFFFFFFFFFFFFFFFFFFFFFFFFFFFFFFFFFFF0000FFFFFFFFFFFF0000FFFFFFFFFFFFFFFFFFFFFFFFFFFFFFFFFFFFFFFFFFFF0000FFFFFFFFFFFF0000FFFFFFFFFFFFFFFFFFFFFFFFFFFFFFFFFFFFFFFFFFFF00
310
00FFFFFFFFFFFF0000FFFFFFFFFFFFFFFFFFFFFFFFFFFFFFFFFFFFFFFFFFFF0000FFFFFFFFFFFF0000FFFFFFFFFFFFFFFFFFFFFFFFFFFFFFFFFFFFFFFFFFFF0000FFFFFFFFFFFF0000FFFFFFFFFFFFFFFFFFFFFFFFFFFFFFFFFFFFFFFFFFFF0000FFFFFFFFFFFF0000FFFFFFFFFFFFFFFFFFFFFFFFFFFFFFFFFFFFFFFFFFFF
310
0000FFFFFFFFFFFF0000FFFFFFFFFFFFFFFFFFFFFFFFFFFFFFFFFFFFFFFFFFFF0000FFFFFFFFFFFF0000FFFFFFFFFFFFFFFFFFFFFFFFFFFFFFFFFFFFFFFFFFFF0000FFFFFFFFFFFF0000FFFFFFFFFFFFFFFFFFFFFFFFFFFFFFFFFFFFFFFFFFFF00FF00FFFFFFFF00FF00FFFFFFFFFFFFFFFFFFFFFFFFFFFFFFFFFFFFFFFFFF
310
FF00FF00FFFFFFFF00FF00FFFFFFFFFFFFFFFFFFFFFFFFFFFFFFFFFFFFFFFFFFFF00FF00FFFFFFFF00FF00FFFFFFFFFFFFFFFFFFFFFFFFFFFFFFFFFFFFFFFFFFFFFF0000FFFFFFFF0000FFFFFFFFFFFFFFFFFFFFFFFFFFFFFFFFFFFFFFFFFFFFFFFF00FF00FFFF00FF00FFFFFFFFFFFFFFFFFFFFFFFFFFFFFFFFFFFFFFFFFF
310
FFFFFF00FF00000000FF00FFFFFFFFFFFFFFFFFFFFFFFFFFFFFFFFFFFFFFFFFFFFFFFFFF00FFFFFFFF0000FFFFFFFFFFFFFFFFFFFFFFFFFFFFFFFFFFFFFFFFFFFFFFFFFF00FFFFFFFF00FFFFFFFFFFFFFFFFFFFFFFFFFFFFFFFFFFFFFFFFFFFFFFFFFFFFFF00000000FFFFFFFFFFFFFFFFFFFFFFFFFFFFFFFFFFFFFFFFFFFF
310
FFFFFFFFFFFFFF0000FFFFFFFFFFFFFFFFFFFFFFFFFFFFFFFFFFFFFFFFFFFFFFFFFFFFFFFFFFFFFFFFFFFFFFFFFFFFFFFFFFFFFFFFFFFFFF
102
{BLKREFS
331
2D8
102
}
  0
BLOCK_RECORD
  5
2AB
330
1
100
AcDbSymbolTableRecord
100
AcDbBlockTableRecord
  2
AI9-BLK8
340
0
310
2800000020000000200000000100080000000000000400000000000000000000000000000000000000000000000080000080000000808000800000008000800080800000C0C0C000C0DCC000F0CAA6000020400000206000002080000020A0000020C0000020E00000400000004020000040400000406000004080000040A0
310
000040C0000040E00000600000006020000060400000606000006080000060A0000060C0000060E00000800000008020000080400000806000008080000080A0000080C0000080E00000A0000000A0200000A0400000A0600000A0800000A0A00000A0C00000A0E00000C0000000C0200000C0400000C0600000C0800000C0
310
A00000C0C00000C0E00000E0000000E0200000E0400000E0600000E0800000E0A00000E0C00000E0E00040000000400020004000400040006000400080004000A0004000C0004000E00040200000402020004020400040206000402080004020A0004020C0004020E000404000004040200040404000404060004040800040
310
40A0004040C0004040E00040600000406020004060400040606000406080004060A0004060C0004060E00040800000408020004080400040806000408080004080A0004080C0004080E00040A0000040A0200040A0400040A0600040A0800040A0A00040A0C00040A0E00040C0000040C0200040C0400040C0600040C08000
310
40C0A00040C0C00040C0E00040E0000040E0200040E0400040E0600040E0800040E0A00040E0C00040E0E00080000000800020008000400080006000800080008000A0008000C0008000E00080200000802020008020400080206000802080008020A0008020C0008020E00080400000804020008040400080406000804080
310
008040A0008040C0008040E00080600000806020008060400080606000806080008060A0008060C0008060E00080800000808020008080400080806000808080008080A0008080C0008080E00080A0000080A0200080A0400080A0600080A0800080A0A00080A0C00080A0E00080C0000080C0200080C0400080C0600080C0
310
800080C0A00080C0C00080C0E00080E0000080E0200080E0400080E0600080E0800080E0A00080E0C00080E0E000C0000000C0002000C0004000C0006000C0008000C000A000C000C000C000E000C0200000C0202000C0204000C0206000C0208000C020A000C020C000C020E000C0400000C0402000C0404000C0406000C0
310
408000C040A000C040C000C040E000C0600000C0602000C0604000C0606000C0608000C060A000C060C000C060E000C0800000C0802000C0804000C0806000C0808000C080A000C080C000C080E000C0A00000C0A02000C0A04000C0A06000C0A08000C0A0A000C0A0C000C0A0E000C0C00000C0C02000C0C04000C0C06000
310
C0C08000C0C0A000F0FBFF00A4A0A000808080000000FF0000FF000000FFFF00FF000000FF00FF00FFFF0000FFFFFF00FFFFFFFFFFFFFFFFFFFFFFFFFFFFFFFFFFFFFFFFFFFFFFFFFFFFFFFFFFFFFFFFFFFFFFFFFFFFFFFFFFFFFF0000FFFFFFFFFFFF0000FFFFFFFFFFFFFFFFFFFFFFFFFFFFFFFFFFFFFFFFFFFF0000FFFF
310
FFFFFFFF0000FFFFFFFFFFFFFFFFFFFFFFFFFFFFFFFFFFFFFFFFFFFF0000FFFFFFFFFF00FF00FFFFFFFFFFFFFFFFFFFFFFFFFFFFFFFFFFFFFFFFFFFF0000FFFFFFFFFF00FF00FFFFFFFFFFFFFFFFFFFFFFFFFFFFFFFFFFFFFFFFFFFF0000FFFFFFFFFF00FF00FFFFFFFFFFFFFFFFFFFFFFFFFFFFFFFFFFFFFFFFFFFF0000FF
310
FFFFFF00FFFF00FFFFFFFFFFFFFFFFFFFFFFFFFFFFFFFFFFFFFFFFFFFF0000FFFFFFFF00FF0000FFFFFFFFFFFFFFFFFFFFFFFFFFFFFFFFFFFFFFFFFFFF0000FFFFFFFF00FF0000FFFFFFFFFFFFFFFFFFFFFFFFFFFFFFFFFFFFFFFFFFFF0000FFFFFFFF00000000FFFFFFFFFFFFFFFFFFFFFFFFFFFFFFFFFFFFFFFFFFFF0000
310
FFFFFF00FF000000FFFFFFFFFFFFFFFFFFFFFFFFFFFFFFFFFFFFFFFFFFFF0000FFFFFF00FF000000FFFFFFFFFFFFFFFFFFFFFFFFFFFFFFFFFFFFFFFFFFFF0000FFFFFF00FF000000FFFFFFFFFFFFFFFFFFFFFFFFFFFFFFFFFFFFFFFFFFFF0000FFFF00FF00FF0000FFFFFFFFFFFFFFFFFFFFFFFFFFFFFFFFFFFFFFFFFFFF00
310
00FFFF00FF00FF0000FFFFFFFFFFFFFFFFFFFFFFFFFFFFFFFFFFFFFFFFFFFF0000FFFF00FF00FF0000FFFFFFFFFFFFFFFFFFFFFFFFFFFFFFFFFFFFFFFFFFFF0000FF00FFFF00FF0000FFFFFFFFFFFFFFFFFFFFFFFFFFFFFFFFFFFFFFFFFFFF0000FF00FF00FFFF0000FFFFFFFFFFFFFFFFFFFFFFFFFFFFFFFFFFFFFFFFFFFF
310
0000FF00FF00FFFF0000FFFFFFFFFFFFFFFFFFFFFFFFFFFFFFFFFFFFFFFFFFFF0000FF00FF00FFFF0000FFFFFFFFFFFFFFFFFFFFFFFFFFFFFFFFFFFFFFFFFFFF000000FFFF00FFFF0000FFFFFFFFFFFFFFFFFFFFFFFFFFFFFFFFFFFFFFFFFFFF000000FF00FFFFFF0000FFFFFFFFFFFFFFFFFFFFFFFFFFFFFFFFFFFFFFFFFF
310
FF000000FF00FFFFFF0000FFFFFFFFFFFFFFFFFFFFFFFFFFFFFFFFFFFFFFFFFFFF0000FFFF00FFFFFF0000FFFFFFFFFFFFFFFFFFFFFFFFFFFFFFFFFFFFFFFFFFFF0000FFFF00FFFFFF0000FFFFFFFFFFFFFFFFFFFFFFFFFFFFFFFFFFFFFFFFFFFF00FFFF00FFFFFFFF0000FFFFFFFFFFFFFFFFFFFFFFFFFFFFFFFFFFFFFFFF
310
FFFF00FFFF00FFFFFFFF0000FFFFFFFFFFFFFFFFFFFFFFFFFFFFFFFFFFFFFFFFFFFF00FFFF00FFFFFFFF0000FFFFFFFFFFFFFFFFFFFFFFFFFFFFFFFFFFFFFFFFFFFF00FFFF00FFFFFFFF0000FFFFFFFFFFFFFFFFFFFFFFFFFFFFFFFFFFFFFFFFFFFF00FF00FFFFFFFFFF0000FFFFFFFFFFFFFFFFFFFFFFFFFFFFFFFFFFFFFF
310
FFFFFF000000FFFFFFFFFF0000FFFFFFFFFFFFFFFFFFFFFFFFFFFFFFFFFFFFFFFFFFFFFFFFFFFFFFFFFFFFFFFFFFFFFFFFFFFFFFFFFFFFFF
102
{BLKREFS
331
2D9
102
}
  0
BLOCK_RECORD
  5
2B0
330
1
100
AcDbSymbolTableRecord
100
AcDbBlockTableRecord
  2
AI9-BLK7
340
0
310
2800000020000000200000000100080000000000000400000000000000000000000000000000000000000000000080000080000000808000800000008000800080800000C0C0C000C0DCC000F0CAA6000020400000206000002080000020A0000020C0000020E00000400000004020000040400000406000004080000040A0
310
000040C0000040E00000600000006020000060400000606000006080000060A0000060C0000060E00000800000008020000080400000806000008080000080A0000080C0000080E00000A0000000A0200000A0400000A0600000A0800000A0A00000A0C00000A0E00000C0000000C0200000C0400000C0600000C0800000C0
310
A00000C0C00000C0E00000E0000000E0200000E0400000E0600000E0800000E0A00000E0C00000E0E00040000000400020004000400040006000400080004000A0004000C0004000E00040200000402020004020400040206000402080004020A0004020C0004020E000404000004040200040404000404060004040800040
310
40A0004040C0004040E00040600000406020004060400040606000406080004060A0004060C0004060E00040800000408020004080400040806000408080004080A0004080C0004080E00040A0000040A0200040A0400040A0600040A0800040A0A00040A0C00040A0E00040C0000040C0200040C0400040C0600040C08000
310
40C0A00040C0C00040C0E00040E0000040E0200040E0400040E0600040E0800040E0A00040E0C00040E0E00080000000800020008000400080006000800080008000A0008000C0008000E00080200000802020008020400080206000802080008020A0008020C0008020E00080400000804020008040400080406000804080
310
008040A0008040C0008040E00080600000806020008060400080606000806080008060A0008060C0008060E00080800000808020008080400080806000808080008080A0008080C0008080E00080A0000080A0200080A0400080A0600080A0800080A0A00080A0C00080A0E00080C0000080C0200080C0400080C0600080C0
310
800080C0A00080C0C00080C0E00080E0000080E0200080E0400080E0600080E0800080E0A00080E0C00080E0E000C0000000C0002000C0004000C0006000C0008000C000A000C000C000C000E000C0200000C0202000C0204000C0206000C0208000C020A000C020C000C020E000C0400000C0402000C0404000C0406000C0
310
408000C040A000C040C000C040E000C0600000C0602000C0604000C0606000C0608000C060A000C060C000C060E000C0800000C0802000C0804000C0806000C0808000C080A000C080C000C080E000C0A00000C0A02000C0A04000C0A06000C0A08000C0A0A000C0A0C000C0A0E000C0C00000C0C02000C0C04000C0C06000
310
C0C08000C0C0A000F0FBFF00A4A0A000808080000000FF0000FF000000FFFF00FF000000FF00FF00FFFF0000FFFFFF00FFFFFFFFFFFFFFFFFFFFFFFFFFFFFFFFFFFFFFFFFFFFFFFFFFFFFFFFFFFFFFFFFFFFFFFFFFFFFFFFFFFFFFFFFFFFFF0000FFFFFFFFFFFFFFFFFFFFFFFFFFFFFFFFFFFFFFFFFFFFFFFFFFFFFFFFFFFF
310
0000FFFFFFFFFFFFFFFFFFFFFFFFFFFFFFFFFFFFFFFFFFFFFFFFFFFFFFFFFFFF0000FFFFFFFFFFFFFFFFFFFFFFFFFFFFFFFFFFFFFFFFFFFFFFFFFFFFFFFFFFFF0000FFFFFFFFFFFFFFFFFFFFFFFFFFFFFFFFFFFFFFFFFFFFFFFFFFFFFFFFFFFF0000FFFFFFFFFFFFFFFFFFFFFFFFFFFFFFFFFFFFFFFFFFFFFFFFFFFFFFFFFF
310
FF0000FFFFFFFFFFFFFFFFFFFFFFFFFFFFFFFFFFFFFFFFFFFFFFFFFFFFFFFFFFFF0000FFFFFFFFFFFFFFFFFFFFFFFFFFFFFFFFFFFFFFFFFFFFFFFFFFFFFFFFFFFF0000FFFFFFFFFFFFFFFFFFFFFFFFFFFFFFFFFFFFFFFFFFFFFFFFFFFFFFFFFFFF0000FFFFFFFFFFFFFFFFFFFFFFFFFFFFFFFFFFFFFFFFFFFFFFFFFFFFFFFF
310
FFFF0000FFFFFFFFFFFFFFFFFFFFFFFFFFFFFFFFFFFFFFFFFFFFFFFFFFFFFFFFFFFF0000FFFFFFFFFFFFFFFFFFFFFFFFFFFFFFFFFFFFFFFFFFFFFFFFFFFFFFFFFFFF0000FFFFFFFFFFFFFFFFFFFFFFFFFFFFFFFFFFFFFFFFFFFFFFFFFFFFFFFFFFFF0000FFFFFFFFFFFFFFFFFFFFFFFFFFFFFFFFFFFFFFFFFFFFFFFFFFFFFF
310
FFFFFF0000FFFFFFFFFFFFFFFFFFFFFFFFFFFFFFFFFFFFFFFFFFFFFFFFFFFFFFFFFFFF0000FFFFFFFFFFFFFFFFFFFFFFFFFFFFFFFFFFFFFFFFFFFFFFFFFFFFFFFFFFFF0000FFFFFFFFFFFFFFFFFFFFFFFFFFFFFFFFFFFFFFFFFFFFFFFFFFFFFFFFFFFF0000FFFFFFFFFFFFFFFFFFFFFFFFFFFFFFFFFFFFFFFFFFFFFFFFFFFF
310
FFFFFFFF0000FFFFFFFFFFFFFFFFFFFFFFFFFFFFFFFFFFFFFFFFFFFFFFFFFFFFFFFFFFFF0000FFFFFFFFFFFFFFFFFFFFFFFFFFFFFFFFFFFFFFFFFFFFFFFFFFFFFFFFFFFF0000FFFFFFFFFFFFFFFFFFFFFFFFFFFFFFFFFFFFFFFFFFFFFFFFFFFFFFFFFFFF0000FFFFFFFFFFFFFFFFFFFFFFFFFFFFFFFFFFFFFFFFFFFFFFFFFF
310
FFFFFFFFFF0000FFFFFFFFFFFFFFFFFFFFFFFFFFFFFFFFFFFFFFFFFFFFFFFFFFFFFFFFFFFF0000FFFFFFFFFFFFFFFFFFFFFFFFFFFFFFFFFFFFFFFFFFFFFFFFFFFFFFFFFFFF0000FFFFFFFFFFFFFFFFFFFFFFFFFFFFFFFFFFFFFFFFFFFFFFFFFFFFFFFFFFFF0000FFFFFFFFFFFFFFFFFFFFFFFFFFFFFFFFFFFFFFFFFFFFFFFF
310
FFFFFFFFFFFF0000FFFFFFFFFFFFFFFFFFFFFFFFFFFFFFFFFFFFFFFFFFFFFFFFFFFFFFFFFFFF0000FFFFFFFFFFFFFFFFFFFFFFFFFFFFFFFFFFFFFFFFFFFFFFFFFFFFFFFFFFFF0000FFFFFFFFFFFFFFFFFFFFFFFFFFFFFFFFFFFFFFFFFFFFFFFFFFFFFFFFFFFF0000FFFFFFFFFFFFFFFFFFFFFFFFFFFFFFFFFFFFFFFFFFFFFF
310
FFFFFFFFFFFFFF0000FFFFFFFFFFFFFFFFFFFFFFFFFFFFFFFFFFFFFFFFFFFFFFFFFFFFFFFFFFFFFFFFFFFFFFFFFFFFFFFFFFFFFFFFFFFFFF
102
{BLKREFS
331
2DA
102
}
  0
BLOCK_RECORD
  5
2B5
330
1
100
AcDbSymbolTableRecord
100
AcDbBlockTableRecord
  2
AI9-BLK6
340
0
310
2800000020000000200000000100080000000000000400000000000000000000000000000000000000000000000080000080000000808000800000008000800080800000C0C0C000C0DCC000F0CAA6000020400000206000002080000020A0000020C0000020E00000400000004020000040400000406000004080000040A0
310
000040C0000040E00000600000006020000060400000606000006080000060A0000060C0000060E00000800000008020000080400000806000008080000080A0000080C0000080E00000A0000000A0200000A0400000A0600000A0800000A0A00000A0C00000A0E00000C0000000C0200000C0400000C0600000C0800000C0
310
A00000C0C00000C0E00000E0000000E0200000E0400000E0600000E0800000E0A00000E0C00000E0E00040000000400020004000400040006000400080004000A0004000C0004000E00040200000402020004020400040206000402080004020A0004020C0004020E000404000004040200040404000404060004040800040
310
40A0004040C0004040E00040600000406020004060400040606000406080004060A0004060C0004060E00040800000408020004080400040806000408080004080A0004080C0004080E00040A0000040A0200040A0400040A0600040A0800040A0A00040A0C00040A0E00040C0000040C0200040C0400040C0600040C08000
310
40C0A00040C0C00040C0E00040E0000040E0200040E0400040E0600040E0800040E0A00040E0C00040E0E00080000000800020008000400080006000800080008000A0008000C0008000E00080200000802020008020400080206000802080008020A0008020C0008020E00080400000804020008040400080406000804080
310
008040A0008040C0008040E00080600000806020008060400080606000806080008060A0008060C0008060E00080800000808020008080400080806000808080008080A0008080C0008080E00080A0000080A0200080A0400080A0600080A0800080A0A00080A0C00080A0E00080C0000080C0200080C0400080C0600080C0
310
800080C0A00080C0C00080C0E00080E0000080E0200080E0400080E0600080E0800080E0A00080E0C00080E0E000C0000000C0002000C0004000C0006000C0008000C000A000C000C000C000E000C0200000C0202000C0204000C0206000C0208000C020A000C020C000C020E000C0400000C0402000C0404000C0406000C0
310
408000C040A000C040C000C040E000C0600000C0602000C0604000C0606000C0608000C060A000C060C000C060E000C0800000C0802000C0804000C0806000C0808000C080A000C080C000C080E000C0A00000C0A02000C0A04000C0A06000C0A08000C0A0A000C0A0C000C0A0E000C0C00000C0C02000C0C04000C0C06000
310
C0C08000C0C0A000F0FBFF00A4A0A000808080000000FF0000FF000000FFFF00FF000000FF00FF00FFFF0000FFFFFF00FFFFFFFFFFFFFFFFFFFFFFFF00FFFFFFFFFFFFFF00FFFFFFFFFFFFFFFFFFFFFFFFFFFFFFFFFFFFFFFFFFFFFF00FFFFFFFFFFFFFF00FFFFFFFFFFFFFFFFFFFFFFFFFFFFFFFFFFFFFFFFFFFFFF00FFFF
310
FFFFFFFFFF00FFFFFFFFFFFFFFFFFFFFFFFFFFFFFFFFFFFFFFFFFFFF00FFFFFFFFFFFFFFFF00FFFFFFFFFFFFFFFFFFFFFFFFFFFFFFFFFFFFFFFFFFFF00FFFFFFFFFFFFFF00FFFFFFFFFFFFFFFFFFFFFFFFFFFFFFFFFFFFFFFFFFFFFF00FFFFFFFFFFFFFF00FFFFFFFFFFFFFFFFFFFFFFFFFFFFFFFFFFFFFFFFFFFF00FFFFFF
310
FFFFFFFFFF00FFFFFFFFFFFFFFFFFFFFFFFFFFFFFFFFFFFFFFFFFFFF00FFFFFFFFFFFFFF00FFFFFFFFFFFFFFFFFFFFFFFFFFFFFFFFFFFFFFFFFFFF00FFFFFFFFFFFFFFFF00FFFFFFFFFFFFFFFFFFFFFFFFFFFFFFFFFFFFFFFFFF00FFFFFFFFFFFFFFFFFF00FFFFFFFFFFFFFFFFFFFFFFFFFFFFFFFFFFFFFFFF00FFFFFFFFFF
310
FFFFFFFFFF00FFFFFFFFFFFFFFFFFFFFFFFFFFFFFFFFFFFFFF00FFFFFFFFFFFFFFFFFFFF00FFFFFFFFFFFFFFFFFFFFFFFFFFFFFFFFFFFF0000FFFFFFFFFFFFFFFFFFFFFF00FFFFFFFFFFFFFFFFFFFFFFFFFFFF00000000FFFFFFFFFFFFFFFFFFFFFFFFFF00FFFFFFFFFFFFFFFFFFFFFFFFFFFFFFFFFFFFFFFFFFFFFFFFFFFF
310
FFFFFFFF00FFFFFFFFFFFFFFFFFFFFFFFFFFFFFFFFFFFFFFFFFFFFFFFFFFFFFFFFFFFFFF00FFFFFFFFFFFFFFFFFFFFFFFFFFFFFFFFFFFFFFFFFFFFFFFFFFFFFFFFFFFFFF00FFFFFFFFFFFFFFFFFFFFFFFFFFFFFFFFFFFFFFFFFFFFFFFFFFFFFFFFFFFF00FFFFFFFFFFFFFFFFFFFFFFFFFFFFFFFFFFFFFFFFFFFFFFFFFFFFFF
310
FFFFFFFF00FFFFFFFFFFFFFFFFFFFFFFFFFFFFFFFFFFFFFFFFFFFFFFFFFFFFFFFFFFFF00FFFFFFFFFFFFFFFFFFFFFFFFFFFFFFFFFFFFFFFFFFFFFFFFFFFFFFFFFFFF00FFFFFFFFFFFFFFFFFFFFFFFFFFFFFFFFFFFFFFFFFFFFFFFFFFFFFFFFFFFF00FFFFFFFFFFFFFFFFFFFFFFFFFFFFFFFFFFFFFFFFFFFFFFFFFFFFFFFFFF
310
FF00FFFFFFFFFFFFFFFFFFFFFFFFFFFFFFFFFFFFFFFFFFFFFFFFFFFFFFFFFFFFFF00FFFFFFFFFFFFFFFFFFFFFFFFFFFFFFFFFFFFFFFFFFFFFFFFFFFFFFFFFFFF00FFFFFFFFFFFFFFFFFFFFFFFFFFFFFFFFFFFFFFFFFFFFFFFFFFFFFFFFFF0000FFFFFFFFFFFFFFFFFFFFFFFFFFFFFFFFFFFFFFFFFFFFFFFFFFFFFFFF0000FF
310
FFFFFFFFFFFFFFFFFFFFFFFFFFFFFFFFFFFFFFFFFFFFFFFFFF00000000FFFFFFFFFFFFFFFFFFFFFFFFFFFFFFFFFFFFFFFFFFFFFFFFFFFF0000FFFFFFFFFFFFFFFFFFFFFFFFFFFFFFFFFFFFFFFFFFFFFFFFFFFFFFFFFFFFFFFFFFFFFFFFFFFFFFFFFFFFFFFFFFFFFFFFFFFFFFFFFFFFFFFFFFFFFFFFFFFFFFFFFFFFFFFFFFFF
310
FFFFFFFFFFFFFFFFFFFFFFFFFFFFFFFFFFFFFFFFFFFFFFFFFFFFFFFFFFFFFFFFFFFFFFFFFFFFFFFFFFFFFFFFFFFFFFFFFFFFFFFFFFFFFFFF
102
{BLKREFS
331
2DB
102
}
  0
BLOCK_RECORD
  5
2B9
330
1
100
AcDbSymbolTableRecord
100
AcDbBlockTableRecord
  2
AI9-BLK5
340
0
310
2800000020000000200000000100080000000000000400000000000000000000000000000000000000000000000080000080000000808000800000008000800080800000C0C0C000C0DCC000F0CAA6000020400000206000002080000020A0000020C0000020E00000400000004020000040400000406000004080000040A0
310
000040C0000040E00000600000006020000060400000606000006080000060A0000060C0000060E00000800000008020000080400000806000008080000080A0000080C0000080E00000A0000000A0200000A0400000A0600000A0800000A0A00000A0C00000A0E00000C0000000C0200000C0400000C0600000C0800000C0
310
A00000C0C00000C0E00000E0000000E0200000E0400000E0600000E0800000E0A00000E0C00000E0E00040000000400020004000400040006000400080004000A0004000C0004000E00040200000402020004020400040206000402080004020A0004020C0004020E000404000004040200040404000404060004040800040
310
40A0004040C0004040E00040600000406020004060400040606000406080004060A0004060C0004060E00040800000408020004080400040806000408080004080A0004080C0004080E00040A0000040A0200040A0400040A0600040A0800040A0A00040A0C00040A0E00040C0000040C0200040C0400040C0600040C08000
310
40C0A00040C0C00040C0E00040E0000040E0200040E0400040E0600040E0800040E0A00040E0C00040E0E00080000000800020008000400080006000800080008000A0008000C0008000E00080200000802020008020400080206000802080008020A0008020C0008020E00080400000804020008040400080406000804080
310
008040A0008040C0008040E00080600000806020008060400080606000806080008060A0008060C0008060E00080800000808020008080400080806000808080008080A0008080C0008080E00080A0000080A0200080A0400080A0600080A0800080A0A00080A0C00080A0E00080C0000080C0200080C0400080C0600080C0
310
800080C0A00080C0C00080C0E00080E0000080E0200080E0400080E0600080E0800080E0A00080E0C00080E0E000C0000000C0002000C0004000C0006000C0008000C000A000C000C000C000E000C0200000C0202000C0204000C0206000C0208000C020A000C020C000C020E000C0400000C0402000C0404000C0406000C0
310
408000C040A000C040C000C040E000C0600000C0602000C0604000C0606000C0608000C060A000C060C000C060E000C0800000C0802000C0804000C0806000C0808000C080A000C080C000C080E000C0A00000C0A02000C0A04000C0A06000C0A08000C0A0A000C0A0C000C0A0E000C0C00000C0C02000C0C04000C0C06000
310
C0C08000C0C0A000F0FBFF00A4A0A000808080000000FF0000FF000000FFFF00FF000000FF00FF00FFFF0000FFFFFF00FFFFFFFFFFFFFFFFFFFFFFFFFFFFFFFFFFFFFFFFFFFFFFFFFFFFFFFFFFFFFFFFFFFFFFFFFFFFFFFF000000000000000000000000000000000000000000000000FFFFFFFFFFFFFFFF00FFFFFFFFFFFF
310
FFFFFFFFFFFFFFFFFFFFFFFFFFFFFFFFFFFFFFFFFFFFFFFFFF00FFFFFFFFFFFFFFFFFFFFFFFFFFFFFFFFFFFFFFFFFFFFFFFFFFFFFFFFFFFFFF00FFFFFFFFFFFFFFFFFFFFFFFFFFFFFFFFFFFFFFFFFFFFFFFFFFFFFFFFFFFFFF00FFFFFFFFFFFFFFFFFFFFFFFFFFFFFFFFFFFFFFFFFFFFFFFFFFFFFFFFFFFFFF00FFFFFFFFFF
310
FFFFFFFFFFFFFFFFFFFFFFFFFFFFFFFFFFFFFFFFFFFFFFFFFFFF00FFFFFFFFFFFFFFFFFFFFFFFFFFFFFFFFFFFFFFFFFFFFFFFFFFFFFFFFFFFFFF00FFFFFFFFFFFFFFFFFFFFFFFFFFFFFFFFFFFFFFFFFFFFFFFFFFFFFFFFFFFFFF00FFFFFFFFFFFFFFFFFFFFFFFFFFFFFFFFFFFFFFFFFFFFFFFFFFFFFFFFFFFFFF00FFFFFFFF
310
FFFFFFFFFFFFFFFFFFFFFFFFFFFFFFFFFFFFFFFFFFFFFFFFFFFFFF00FFFFFFFFFFFFFFFFFFFFFFFFFFFFFFFFFFFFFFFFFFFFFFFFFFFFFFFFFFFFFF00FFFFFFFFFFFFFFFFFFFFFFFFFFFFFFFFFFFFFFFFFFFFFFFFFFFFFFFFFFFFFF00FFFFFFFFFFFFFFFFFFFFFFFFFFFFFFFFFFFFFFFFFFFFFFFFFFFFFFFFFFFFFF00FFFFFF
310
FFFFFFFFFFFFFFFFFFFFFFFFFFFFFFFFFFFFFFFFFFFFFFFFFFFFFFFF00FFFFFFFFFFFFFFFFFFFFFFFFFFFFFFFFFFFFFFFFFFFFFFFFFFFFFFFFFFFFFF00FFFFFFFFFFFFFFFFFFFFFFFFFFFFFFFFFFFFFFFFFFFFFFFFFFFFFFFFFFFFFF00FFFFFFFFFFFFFFFFFFFFFFFFFFFFFFFFFFFFFFFFFFFFFFFFFFFFFFFFFFFFFF00FFFF
310
FFFFFFFFFFFFFFFFFFFFFFFFFFFFFFFFFFFFFFFFFFFFFFFFFFFFFFFFFF00FFFFFFFFFFFFFFFFFFFFFFFFFFFFFFFFFFFFFFFFFFFFFFFFFFFFFFFFFFFFFF00FFFFFFFFFFFFFFFFFFFFFFFFFFFFFFFFFFFFFFFFFFFFFFFFFFFFFFFFFFFFFF00FFFFFFFFFFFFFFFFFFFFFFFFFFFFFFFFFFFFFFFFFFFFFFFFFFFFFFFFFFFFFF00FF
310
FFFFFFFFFFFFFFFFFFFFFFFFFFFFFFFFFFFFFFFFFFFFFFFFFFFFFFFFFFFF00FFFFFFFFFFFFFFFFFFFFFFFFFFFFFFFFFFFFFFFFFFFFFFFFFFFFFFFFFFFFFF00FFFFFFFFFFFFFFFFFFFFFFFFFFFFFFFFFFFFFFFFFFFFFFFFFFFFFFFFFFFFFF00FFFFFFFFFFFFFFFFFFFFFFFFFFFFFFFFFFFFFFFFFFFFFFFFFFFFFFFFFFFFFF00
310
FFFFFFFFFFFFFFFFFFFFFFFFFFFFFFFFFFFFFFFFFFFFFFFFFFFFFFFFFFFFFF00FFFFFFFFFFFFFFFFFFFFFFFFFFFFFFFFFFFFFFFFFFFFFFFFFFFFFFFFFFFFFF00FFFFFFFFFFFFFFFFFFFFFFFFFFFFFFFFFFFFFFFFFFFFFFFFFFFFFFFFFFFFFF00FFFFFFFFFFFFFFFFFFFFFFFFFFFFFFFFFFFFFFFFFFFFFFFFFFFFFFFFFFFFFF
310
00FFFFFFFFFFFFFFFFFFFFFFFFFFFF000000000000000000FFFFFFFFFFFFFFFF00FFFFFFFFFFFFFFFFFFFFFFFFFFFF00FFFFFFFFFFFFFFFF
102
{BLKREFS
331
2DC
102
}
  0
BLOCK_RECORD
  5
2BE
330
1
100
AcDbSymbolTableRecord
100
AcDbBlockTableRecord
  2
AI9-BLK4
340
0
310
2800000020000000200000000100080000000000000400000000000000000000000000000000000000000000000080000080000000808000800000008000800080800000C0C0C000C0DCC000F0CAA6000020400000206000002080000020A0000020C0000020E00000400000004020000040400000406000004080000040A0
310
000040C0000040E00000600000006020000060400000606000006080000060A0000060C0000060E00000800000008020000080400000806000008080000080A0000080C0000080E00000A0000000A0200000A0400000A0600000A0800000A0A00000A0C00000A0E00000C0000000C0200000C0400000C0600000C0800000C0
310
A00000C0C00000C0E00000E0000000E0200000E0400000E0600000E0800000E0A00000E0C00000E0E00040000000400020004000400040006000400080004000A0004000C0004000E00040200000402020004020400040206000402080004020A0004020C0004020E000404000004040200040404000404060004040800040
310
40A0004040C0004040E00040600000406020004060400040606000406080004060A0004060C0004060E00040800000408020004080400040806000408080004080A0004080C0004080E00040A0000040A0200040A0400040A0600040A0800040A0A00040A0C00040A0E00040C0000040C0200040C0400040C0600040C08000
310
40C0A00040C0C00040C0E00040E0000040E0200040E0400040E0600040E0800040E0A00040E0C00040E0E00080000000800020008000400080006000800080008000A0008000C0008000E00080200000802020008020400080206000802080008020A0008020C0008020E00080400000804020008040400080406000804080
310
008040A0008040C0008040E00080600000806020008060400080606000806080008060A0008060C0008060E00080800000808020008080400080806000808080008080A0008080C0008080E00080A0000080A0200080A0400080A0600080A0800080A0A00080A0C00080A0E00080C0000080C0200080C0400080C0600080C0
310
800080C0A00080C0C00080C0E00080E0000080E0200080E0400080E0600080E0800080E0A00080E0C00080E0E000C0000000C0002000C0004000C0006000C0008000C000A000C000C000C000E000C0200000C0202000C0204000C0206000C0208000C020A000C020C000C020E000C0400000C0402000C0404000C0406000C0
310
408000C040A000C040C000C040E000C0600000C0602000C0604000C0606000C0608000C060A000C060C000C060E000C0800000C0802000C0804000C0806000C0808000C080A000C080C000C080E000C0A00000C0A02000C0A04000C0A06000C0A08000C0A0A000C0A0C000C0A0E000C0C00000C0C02000C0C04000C0C06000
310
C0C08000C0C0A000F0FBFF00A4A0A000808080000000FF0000FF000000FFFF00FF000000FF00FF00FFFF0000FFFFFF00FFFFFFFFFFFFFFFFFFFFFFFFFFFFFFFFFFFFFFFFFFFFFFFFFFFFFFFFFFFFFFFFFFFFFFFFFFFFFFFFFFFFFFFFFFFF00000000FFFFFFFFFFFFFFFFFFFFFF000000FFFFFFFFFFFFFFFFFFFFFFFFFFFF00
310
FFFF00FFFFFFFFFFFFFFFFFFFFFF00FFFFFFFFFFFFFFFFFFFFFFFFFFFFFFFF00FFFF00FFFFFFFFFFFFFFFFFFFFFF00FFFFFFFFFFFFFFFFFFFFFFFFFFFFFFFF00FFFF00FFFFFFFFFFFFFFFFFFFFFF00FFFFFFFFFFFFFFFFFFFFFFFFFFFFFFFF00FFFF00FFFFFFFFFFFFFFFFFFFFFF00FFFFFFFFFFFFFFFFFFFFFFFFFFFFFFFF
310
00FFFF00FFFFFFFFFFFFFFFFFFFFFF00FFFFFFFFFFFFFFFFFFFFFFFFFFFFFFFF00FFFF00FFFFFFFFFFFFFFFFFFFFFF00FFFFFFFFFFFFFFFFFFFFFFFFFFFFFFFF00FFFF00FFFFFFFFFFFFFFFFFFFFFF00FFFFFFFFFFFFFFFFFFFFFFFFFFFFFFFF00FFFF00FFFFFFFFFFFFFFFFFFFFFF00FFFFFFFFFFFFFFFFFFFFFFFFFFFFFF
310
FF00FFFF00FFFFFFFFFFFFFFFFFFFFFF00FFFFFFFFFFFFFFFFFFFFFFFFFFFFFFFF00FFFF00FFFFFFFFFFFFFFFFFFFFFF00FFFFFFFFFFFFFFFFFFFFFFFFFFFFFFFF00FFFF00FFFFFFFFFFFFFFFFFFFFFF00FFFFFFFFFFFFFFFFFFFFFFFFFFFFFFFF00FFFF00FFFFFFFFFFFFFFFFFFFFFF00FFFFFFFFFFFFFFFFFFFFFFFFFFFF
310
FFFF00FFFF00FFFFFFFFFFFFFFFFFFFFFF00FFFFFFFFFFFFFFFFFFFFFFFFFFFFFFFF00FFFF00FFFFFFFFFFFFFFFFFFFFFF00FFFFFFFFFFFFFFFFFFFFFFFFFFFFFFFF00FFFF00FFFFFFFFFFFFFFFFFFFFFF00FFFFFFFFFFFFFFFFFFFFFFFFFFFFFFFF00FFFF00FFFFFFFFFFFFFFFFFFFF00FFFFFFFFFFFFFFFFFFFFFFFFFFFF
310
FFFFFF00FFFF00FFFFFFFFFFFFFFFFFFFF00FFFFFFFFFFFFFFFFFFFFFFFFFFFFFFFFFF00FFFF00FFFFFFFFFFFFFFFFFFFF00FFFFFFFFFFFFFFFFFFFFFFFFFFFFFFFFFF00FFFF00FFFFFFFFFFFFFFFFFFFF00FFFFFFFFFFFFFFFFFFFFFFFFFFFFFFFFFF00FFFF00FFFFFFFFFFFFFFFFFFFF00FFFFFFFFFFFFFFFFFFFFFFFFFF
310
FFFFFFFF00FFFF00FFFFFFFFFFFFFFFFFF0000FFFF00FFFFFFFFFFFFFFFFFFFFFFFFFFFF00FFFF00FFFFFFFFFFFFFFFF0000FFFFFF00FFFFFFFFFFFFFFFFFFFFFFFFFFFF00FFFF00000000000000000000FFFFFFFF00FFFFFFFFFFFFFFFFFFFFFFFFFFFF00FFFFFFFFFFFFFFFFFFFFFFFFFFFFFF00FFFFFFFFFFFFFFFFFFFF
310
FFFFFFFFFF00FFFFFFFFFFFFFFFFFFFFFFFFFFFF00FFFFFFFFFFFFFFFFFFFFFFFFFFFFFFFF00FFFFFFFFFFFFFFFFFFFFFFFFFFFF00FFFFFFFFFFFFFFFFFFFFFFFFFFFFFFFF00FFFFFFFFFFFFFFFFFFFFFFFFFFFFFF00FFFFFFFFFFFFFFFFFFFFFFFFFFFFFF00FFFFFFFFFFFFFFFFFFFFFFFFFFFFFF00FFFFFFFFFFFFFFFFFF
310
FFFFFFFFFFFF00FFFF00000000000000000000FFFFFFFF00FFFFFFFFFFFFFFFFFFFFFFFFFFFF00FFFF00FFFFFFFFFFFFFFFFFF0000FFFF00
102
{BLKREFS
331
2DD
102
}
  0
BLOCK_RECORD
  5
2C3
330
1
100
AcDbSymbolTableRecord
100
AcDbBlockTableRecord
  2
AI9-BLK3
340
0
310
2800000020000000200000000100080000000000000400000000000000000000000000000000000000000000000080000080000000808000800000008000800080800000C0C0C000C0DCC000F0CAA6000020400000206000002080000020A0000020C0000020E00000400000004020000040400000406000004080000040A0
310
000040C0000040E00000600000006020000060400000606000006080000060A0000060C0000060E00000800000008020000080400000806000008080000080A0000080C0000080E00000A0000000A0200000A0400000A0600000A0800000A0A00000A0C00000A0E00000C0000000C0200000C0400000C0600000C0800000C0
310
A00000C0C00000C0E00000E0000000E0200000E0400000E0600000E0800000E0A00000E0C00000E0E00040000000400020004000400040006000400080004000A0004000C0004000E00040200000402020004020400040206000402080004020A0004020C0004020E000404000004040200040404000404060004040800040
310
40A0004040C0004040E00040600000406020004060400040606000406080004060A0004060C0004060E00040800000408020004080400040806000408080004080A0004080C0004080E00040A0000040A0200040A0400040A0600040A0800040A0A00040A0C00040A0E00040C0000040C0200040C0400040C0600040C08000
310
40C0A00040C0C00040C0E00040E0000040E0200040E0400040E0600040E0800040E0A00040E0C00040E0E00080000000800020008000400080006000800080008000A0008000C0008000E00080200000802020008020400080206000802080008020A0008020C0008020E00080400000804020008040400080406000804080
310
008040A0008040C0008040E00080600000806020008060400080606000806080008060A0008060C0008060E00080800000808020008080400080806000808080008080A0008080C0008080E00080A0000080A0200080A0400080A0600080A0800080A0A00080A0C00080A0E00080C0000080C0200080C0400080C0600080C0
310
800080C0A00080C0C00080C0E00080E0000080E0200080E0400080E0600080E0800080E0A00080E0C00080E0E000C0000000C0002000C0004000C0006000C0008000C000A000C000C000C000E000C0200000C0202000C0204000C0206000C0208000C020A000C020C000C020E000C0400000C0402000C0404000C0406000C0
310
408000C040A000C040C000C040E000C0600000C0602000C0604000C0606000C0608000C060A000C060C000C060E000C0800000C0802000C0804000C0806000C0808000C080A000C080C000C080E000C0A00000C0A02000C0A04000C0A06000C0A08000C0A0A000C0A0C000C0A0E000C0C00000C0C02000C0C04000C0C06000
310
C0C08000C0C0A000F0FBFF00A4A0A000808080000000FF0000FF000000FFFF00FF000000FF00FF00FFFF0000FFFFFF00FFFFFFFFFFFFFFFFFFFFFFFFFFFFFFFFFFFFFFFFFFFFFFFFFFFFFFFFFFFFFFFFFFFFFFFFFFFFFFFFFFFFFFFFFFFFFF0000FFFFFFFFFFFFFFFFFFFFFFFFFFFFFFFFFFFFFFFFFFFFFFFFFFFFFFFFFFFF
310
0000FFFFFFFFFFFFFFFFFFFFFFFFFFFFFFFFFFFFFFFFFFFFFFFFFFFFFFFFFFFF0000FFFFFFFFFFFFFFFFFFFFFFFFFFFFFFFFFFFFFFFFFFFFFFFFFFFFFFFFFFFF0000FFFFFFFFFFFFFFFFFFFFFFFFFFFFFFFFFFFFFFFFFFFFFFFFFFFFFFFFFFFF0000FFFFFFFFFFFFFFFFFFFFFFFFFFFFFFFFFFFFFFFFFFFFFFFFFFFFFFFFFF
310
FF0000FFFFFFFFFFFFFFFFFFFFFFFFFFFFFFFFFFFFFFFFFFFFFFFFFFFFFFFFFFFF0000FFFFFFFFFFFFFFFFFFFFFFFFFFFFFFFFFFFFFFFFFFFFFFFFFFFFFFFFFFFF0000FFFFFFFFFFFFFFFFFFFFFFFFFFFFFFFFFFFFFFFFFFFFFFFFFFFFFFFFFFFF0000FFFFFFFFFFFFFFFFFFFFFFFFFFFFFFFFFFFFFFFFFFFFFFFFFFFFFFFF
310
FFFF0000FFFFFFFFFFFFFFFFFFFFFFFFFFFFFFFFFFFFFFFFFFFFFFFFFFFFFFFFFFFF0000FFFFFFFFFFFFFFFFFFFFFFFFFFFFFFFFFFFFFFFFFFFFFFFFFFFFFFFFFFFF0000FFFFFFFFFFFFFFFFFFFFFFFFFFFFFFFFFFFFFFFFFFFFFFFFFFFFFFFFFFFF0000FFFFFFFFFFFFFFFFFFFFFFFFFFFFFFFFFFFFFFFFFFFFFFFFFFFFFF
310
FFFFFF0000FFFFFFFFFFFFFFFFFFFFFFFFFFFFFFFFFFFFFFFFFFFFFFFFFFFFFFFFFFFF0000FFFFFFFFFFFFFFFFFFFFFFFFFFFFFFFFFFFFFFFFFFFFFFFFFFFFFFFFFFFF0000FFFFFFFFFFFFFFFFFFFFFFFFFFFFFFFFFFFFFFFFFFFFFFFFFFFFFFFFFFFF0000FFFFFFFFFFFFFFFFFFFFFFFFFFFFFFFFFFFFFFFFFFFFFFFFFFFF
310
FFFFFFFF0000FFFFFFFFFFFFFFFFFFFFFFFFFFFFFFFFFFFFFFFFFFFFFFFFFFFFFFFFFFFF0000FFFFFFFFFFFFFFFFFFFFFFFFFFFFFFFFFFFFFFFFFFFFFFFFFFFFFFFFFFFF0000FFFFFFFFFFFFFFFFFFFFFFFFFFFFFFFFFFFFFFFFFFFFFFFFFFFFFFFFFFFF0000FFFFFFFFFFFFFFFFFFFFFFFFFFFFFFFFFFFFFFFFFFFFFFFFFF
310
FFFFFFFFFF0000FFFFFFFFFFFFFFFFFFFFFFFFFFFFFFFFFFFFFFFFFFFFFFFFFFFFFFFFFFFF0000FFFFFFFFFFFFFFFFFFFFFFFFFFFFFFFFFFFFFFFFFFFFFFFFFFFFFFFFFFFF0000FFFFFFFFFFFFFFFFFFFFFFFFFFFFFFFFFFFFFFFFFFFFFFFFFFFFFFFFFFFF0000FFFFFFFFFFFFFFFFFFFFFFFFFFFFFFFFFFFFFFFFFFFFFFFF
310
FFFFFFFFFFFF0000FFFFFFFFFFFFFFFFFFFFFFFFFFFFFFFFFFFFFFFFFFFFFFFFFFFFFFFFFFFF0000FFFFFFFFFFFFFFFFFFFFFFFFFFFFFFFFFFFFFFFFFFFFFFFFFFFFFFFFFFFF0000FFFFFFFFFFFFFFFFFFFFFFFFFFFFFFFFFFFFFFFFFFFFFFFFFFFFFFFFFFFF0000FFFFFFFFFFFFFFFFFFFFFFFFFFFFFFFFFFFFFFFFFFFFFF
310
FFFFFFFFFFFFFF0000FFFFFFFFFFFFFFFFFFFFFFFFFFFFFFFFFFFFFFFFFFFFFFFFFFFFFFFFFFFFFFFFFFFFFFFFFFFFFFFFFFFFFFFFFFFFFF
102
{BLKREFS
331
2DE
102
}
  0
BLOCK_RECORD
  5
2C8
330
1
100
AcDbSymbolTableRecord
100
AcDbBlockTableRecord
  2
AI9-BLK2
340
0
310
2800000020000000200000000100080000000000000400000000000000000000000000000000000000000000000080000080000000808000800000008000800080800000C0C0C000C0DCC000F0CAA6000020400000206000002080000020A0000020C0000020E00000400000004020000040400000406000004080000040A0
310
000040C0000040E00000600000006020000060400000606000006080000060A0000060C0000060E00000800000008020000080400000806000008080000080A0000080C0000080E00000A0000000A0200000A0400000A0600000A0800000A0A00000A0C00000A0E00000C0000000C0200000C0400000C0600000C0800000C0
310
A00000C0C00000C0E00000E0000000E0200000E0400000E0600000E0800000E0A00000E0C00000E0E00040000000400020004000400040006000400080004000A0004000C0004000E00040200000402020004020400040206000402080004020A0004020C0004020E000404000004040200040404000404060004040800040
310
40A0004040C0004040E00040600000406020004060400040606000406080004060A0004060C0004060E00040800000408020004080400040806000408080004080A0004080C0004080E00040A0000040A0200040A0400040A0600040A0800040A0A00040A0C00040A0E00040C0000040C0200040C0400040C0600040C08000
310
40C0A00040C0C00040C0E00040E0000040E0200040E0400040E0600040E0800040E0A00040E0C00040E0E00080000000800020008000400080006000800080008000A0008000C0008000E00080200000802020008020400080206000802080008020A0008020C0008020E00080400000804020008040400080406000804080
310
008040A0008040C0008040E00080600000806020008060400080606000806080008060A0008060C0008060E00080800000808020008080400080806000808080008080A0008080C0008080E00080A0000080A0200080A0400080A0600080A0800080A0A00080A0C00080A0E00080C0000080C0200080C0400080C0600080C0
310
800080C0A00080C0C00080C0E00080E0000080E0200080E0400080E0600080E0800080E0A00080E0C00080E0E000C0000000C0002000C0004000C0006000C0008000C000A000C000C000C000E000C0200000C0202000C0204000C0206000C0208000C020A000C020C000C020E000C0400000C0402000C0404000C0406000C0
310
408000C040A000C040C000C040E000C0600000C0602000C0604000C0606000C0608000C060A000C060C000C060E000C0800000C0802000C0804000C0806000C0808000C080A000C080C000C080E000C0A00000C0A02000C0A04000C0A06000C0A08000C0A0A000C0A0C000C0A0E000C0C00000C0C02000C0C04000C0C06000
310
C0C08000C0C0A000F0FBFF00A4A0A000808080000000FF0000FF000000FFFF00FF000000FF00FF00FFFF0000FFFFFF00FFFFFFFFFFFFFFFFFFFFFFFFFFFFFFFFFFFFFFFFFFFFFFFFFFFFFFFFFFFFFFFFFFFFFFFFFFFFFFFFFFFFFFFFFFFFFF0000FFFFFFFFFFFFFFFFFFFFFFFFFFFFFFFFFFFFFFFFFFFFFFFFFFFFFFFFFFFF
310
0000FFFFFFFFFFFFFFFFFFFFFFFFFFFFFFFFFFFFFFFFFFFFFFFFFFFFFFFFFFFF0000FFFFFFFFFFFFFFFFFFFFFFFFFFFFFFFFFFFFFFFFFFFFFFFFFFFFFFFFFF00FFFF00FFFFFFFFFFFFFFFFFFFFFFFFFFFFFFFFFFFFFFFFFFFFFFFFFFFFFFFF00FFFF00FFFFFFFFFFFFFFFFFFFFFFFFFFFFFFFFFFFFFFFFFFFFFFFFFFFFFFFF
310
00FF0000FFFFFFFFFFFFFFFFFFFFFFFFFFFFFFFFFFFFFFFFFFFFFFFFFFFFFFFF00FF0000FFFFFFFFFFFFFFFFFFFFFFFFFFFFFFFFFFFFFFFFFFFFFFFFFFFFFFFF00FF0000FFFFFFFFFFFFFFFFFFFFFFFFFFFFFFFFFFFFFFFFFFFFFFFFFFFFFFFF00000000FFFFFFFFFFFFFFFFFFFFFFFFFFFFFFFFFFFFFFFFFFFFFFFFFFFFFF
310
00FF00FF0000FFFFFFFFFFFFFFFFFFFFFFFFFFFFFFFFFFFFFFFFFFFFFFFFFFFF00FF00FF0000FFFFFFFFFFFFFFFFFFFFFFFFFFFFFFFFFFFFFFFFFFFFFFFFFFFF00FF00FF0000FFFFFFFFFFFFFFFFFFFFFFFFFFFFFFFFFFFFFFFFFFFFFFFFFFFF00FF00FF0000FFFFFFFFFFFFFFFFFFFFFFFFFFFFFFFFFFFFFFFFFFFFFFFFFF
310
FF00FF00FF0000FFFFFFFFFFFFFFFFFFFFFFFFFFFFFFFFFFFFFFFFFFFFFFFFFFFF0000FFFF0000FFFFFFFFFFFFFFFFFFFFFFFFFFFFFFFFFFFFFFFFFFFFFFFFFF00FF00FFFF00FF00FFFFFFFFFFFFFFFFFFFFFFFFFFFFFFFFFFFFFFFFFFFFFFFF00FF00FFFF00FF00FFFFFFFFFFFFFFFFFFFFFFFFFFFFFFFFFFFFFFFFFFFFFF
310
FF00FF00FFFFFF0000FFFFFFFFFFFFFFFFFFFFFFFFFFFFFFFFFFFFFFFFFFFFFFFF00FF00FFFFFF0000FFFFFFFFFFFFFFFFFFFFFFFFFFFFFFFFFFFFFFFFFFFFFFFF00FF00FFFFFF0000FFFFFFFFFFFFFFFFFFFFFFFFFFFFFFFFFFFFFFFFFFFFFFFF0000FFFFFFFF0000FFFFFFFFFFFFFFFFFFFFFFFFFFFFFFFFFFFFFFFFFFFF
310
FF00FF00FFFFFFFF00FF00FFFFFFFFFFFFFFFFFFFFFFFFFFFFFFFFFFFFFFFFFFFF00FF00FFFFFFFF00FF00FFFFFFFFFFFFFFFFFFFFFFFFFFFFFFFFFFFFFFFFFFFF00FF00FFFFFFFF00FF00FFFFFFFFFFFFFFFFFFFFFFFFFFFFFFFFFFFFFFFFFFFF00FF00FFFFFFFF00FF00FFFFFFFFFFFFFFFFFFFFFFFFFFFFFFFFFFFFFFFF
310
FFFF00FF00FFFFFFFFFF0000FFFFFFFFFFFFFFFFFFFFFFFFFFFFFFFFFFFFFFFFFFFF0000FFFFFFFFFFFF0000FFFFFFFFFFFFFFFFFFFFFFFFFFFFFFFFFFFFFFFFFF00FF00FFFFFFFFFFFF00FF00FFFFFFFFFFFFFFFFFFFFFFFFFFFFFFFFFFFFFFFF00FF00FFFFFFFFFFFF00FF00FFFFFFFFFFFFFFFFFFFFFFFFFFFFFFFFFFFF
310
FFFF000000FFFFFFFFFFFF000000FFFFFFFFFFFFFFFFFFFFFFFFFFFFFFFFFFFFFFFFFFFFFFFFFFFFFFFFFFFFFFFFFFFFFFFFFFFFFFFFFFFF
102
{BLKREFS
331
2DF
102
}
  0
BLOCK_RECORD
  5
2CD
330
1
100
AcDbSymbolTableRecord
100
AcDbBlockTableRecord
  2
AI9-BLK1
340
0
310
2800000020000000200000000100080000000000000400000000000000000000000000000000000000000000000080000080000000808000800000008000800080800000C0C0C000C0DCC000F0CAA6000020400000206000002080000020A0000020C0000020E00000400000004020000040400000406000004080000040A0
310
000040C0000040E00000600000006020000060400000606000006080000060A0000060C0000060E00000800000008020000080400000806000008080000080A0000080C0000080E00000A0000000A0200000A0400000A0600000A0800000A0A00000A0C00000A0E00000C0000000C0200000C0400000C0600000C0800000C0
310
A00000C0C00000C0E00000E0000000E0200000E0400000E0600000E0800000E0A00000E0C00000E0E00040000000400020004000400040006000400080004000A0004000C0004000E00040200000402020004020400040206000402080004020A0004020C0004020E000404000004040200040404000404060004040800040
310
40A0004040C0004040E00040600000406020004060400040606000406080004060A0004060C0004060E00040800000408020004080400040806000408080004080A0004080C0004080E00040A0000040A0200040A0400040A0600040A0800040A0A00040A0C00040A0E00040C0000040C0200040C0400040C0600040C08000
310
40C0A00040C0C00040C0E00040E0000040E0200040E0400040E0600040E0800040E0A00040E0C00040E0E00080000000800020008000400080006000800080008000A0008000C0008000E00080200000802020008020400080206000802080008020A0008020C0008020E00080400000804020008040400080406000804080
310
008040A0008040C0008040E00080600000806020008060400080606000806080008060A0008060C0008060E00080800000808020008080400080806000808080008080A0008080C0008080E00080A0000080A0200080A0400080A0600080A0800080A0A00080A0C00080A0E00080C0000080C0200080C0400080C0600080C0
310
800080C0A00080C0C00080C0E00080E0000080E0200080E0400080E0600080E0800080E0A00080E0C00080E0E000C0000000C0002000C0004000C0006000C0008000C000A000C000C000C000E000C0200000C0202000C0204000C0206000C0208000C020A000C020C000C020E000C0400000C0402000C0404000C0406000C0
310
408000C040A000C040C000C040E000C0600000C0602000C0604000C0606000C0608000C060A000C060C000C060E000C0800000C0802000C0804000C0806000C0808000C080A000C080C000C080E000C0A00000C0A02000C0A04000C0A06000C0A08000C0A0A000C0A0C000C0A0E000C0C00000C0C02000C0C04000C0C06000
310
C0C08000C0C0A000F0FBFF00A4A0A000808080000000FF0000FF000000FFFF00FF000000FF00FF00FFFF0000FFFFFF00FFFFFFFFFFFFFFFFFFFFFFFFFFFFFFFFFFFFFFFFFFFFFFFFFFFFFFFFFFFFFFFFFFFFFFFFFFFFFFFFFFFFFF00000000000000000000FFFFFFFFFFFFFFFFFFFFFFFFFFFFFFFFFFFFFFFFFFFF00FFFFFF
310
FFFFFFFFFF00FFFFFFFFFFFFFFFFFFFFFFFFFFFFFFFFFFFFFFFFFFFF00FFFFFFFFFFFFFFFF00FFFFFFFFFFFFFFFFFFFFFFFFFFFFFFFFFFFFFFFFFFFF00FFFFFFFFFFFFFFFF00FFFFFFFFFFFFFFFFFFFFFFFFFFFFFFFFFFFFFFFFFFFF00FF0000000000000000FFFFFFFFFFFFFFFFFFFFFFFFFFFFFFFFFFFFFFFFFFFF00FF00
310
FFFFFFFFFFFFFFFFFFFFFFFFFFFFFFFFFFFFFFFFFFFFFFFFFFFFFFFFFF00FF00FFFFFFFFFFFFFFFFFFFFFFFFFFFFFFFFFFFFFFFFFFFFFFFFFFFFFFFFFF00FF00FFFFFFFFFFFFFFFFFFFFFFFFFFFFFFFFFFFFFFFFFFFFFFFFFFFFFFFFFF00FF00FFFFFFFFFFFFFFFFFFFFFFFFFFFFFFFFFFFFFFFFFFFFFFFFFFFFFFFFFF00FF
310
00FFFFFFFFFFFFFFFFFFFFFFFFFFFFFFFFFFFFFFFFFFFFFFFFFFFFFFFFFF00FF00FFFFFFFFFFFFFFFFFFFFFFFFFFFFFFFFFFFFFFFFFFFFFFFFFFFFFFFFFF00FF00FFFFFFFFFFFFFFFFFFFFFFFFFFFFFFFFFFFFFFFFFFFFFFFFFFFFFFFFFF00FF00FFFFFFFFFFFFFFFFFFFFFFFFFFFFFFFFFFFFFFFFFFFFFFFFFFFFFFFFFF00
310
FF00000000000000FFFFFFFFFFFFFFFFFFFFFFFFFFFFFFFFFFFFFFFFFFFFFF00FFFFFFFFFFFFFF00FFFFFFFFFFFFFFFFFFFFFFFFFFFFFFFFFFFFFFFFFFFFFF00FFFFFFFFFFFFFF00FFFFFFFFFFFFFFFFFFFFFFFFFFFFFFFFFFFFFFFFFFFFFF00FFFFFFFFFFFFFF00FFFFFFFFFFFFFFFFFFFFFFFFFFFFFFFFFFFFFFFFFFFFFF
310
00FF00000000000000FFFFFFFFFFFFFFFFFFFFFFFFFFFFFFFFFFFFFFFFFFFFFF00FF00FFFFFFFFFFFFFFFFFFFFFFFFFFFFFFFFFFFFFFFFFFFFFFFFFFFFFFFFFF00FF00FFFFFFFFFFFFFFFFFFFFFFFFFFFFFFFFFFFFFFFFFFFFFFFFFFFFFFFFFF00FF00FFFFFFFFFFFFFFFFFFFFFFFFFFFFFFFFFFFFFFFFFFFFFFFFFFFFFFFF
310
FF00FF00FFFFFFFFFFFFFFFFFFFFFFFFFFFFFFFFFFFFFFFFFFFFFFFFFFFFFFFFFF00FF00FFFFFFFFFFFFFFFFFFFFFFFFFFFFFFFFFFFFFFFFFFFFFFFFFFFFFFFFFF00FF00FFFFFFFFFFFFFFFFFFFFFFFFFFFFFFFFFFFFFFFFFFFFFFFFFFFFFFFFFF00FF00FFFFFFFFFFFFFFFFFFFFFFFFFFFFFFFFFFFFFFFFFFFFFFFFFFFFFF
310
FFFF00FF0000000000000000FFFFFFFFFFFFFFFFFFFFFFFFFFFFFFFFFFFFFFFFFFFF00FFFFFFFFFFFFFFFF00FFFFFFFFFFFFFFFFFFFFFFFFFFFFFFFFFFFFFFFFFFFF00FFFFFFFFFFFFFFFF00FFFFFFFFFFFFFFFFFFFFFFFFFFFFFFFFFFFFFFFFFFFF00FFFFFFFFFFFFFFFF00FFFFFFFFFFFFFFFFFFFFFFFFFFFFFFFFFFFFFF
310
FFFFFF00000000000000000000FFFFFFFFFFFFFFFFFFFFFFFFFFFFFFFFFFFFFFFFFFFFFFFFFFFFFFFFFFFFFFFFFFFFFFFFFFFFFFFFFFFFFF
102
{BLKREFS
331
2E0
102
}
  0
BLOCK_RECORD
  5
2D2
330
1
100
AcDbSymbolTableRecord
100
AcDbBlockTableRecord
  2
HD_LLC_logo_OT5
340
0
310
2800000020000000200000000100080000000000000400000000000000000000000000000000000000000000000080000080000000808000800000008000800080800000C0C0C000C0DCC000F0CAA6000020400000206000002080000020A0000020C0000020E00000400000004020000040400000406000004080000040A0
310
000040C0000040E00000600000006020000060400000606000006080000060A0000060C0000060E00000800000008020000080400000806000008080000080A0000080C0000080E00000A0000000A0200000A0400000A0600000A0800000A0A00000A0C00000A0E00000C0000000C0200000C0400000C0600000C0800000C0
310
A00000C0C00000C0E00000E0000000E0200000E0400000E0600000E0800000E0A00000E0C00000E0E00040000000400020004000400040006000400080004000A0004000C0004000E00040200000402020004020400040206000402080004020A0004020C0004020E000404000004040200040404000404060004040800040
310
40A0004040C0004040E00040600000406020004060400040606000406080004060A0004060C0004060E00040800000408020004080400040806000408080004080A0004080C0004080E00040A0000040A0200040A0400040A0600040A0800040A0A00040A0C00040A0E00040C0000040C0200040C0400040C0600040C08000
310
40C0A00040C0C00040C0E00040E0000040E0200040E0400040E0600040E0800040E0A00040E0C00040E0E00080000000800020008000400080006000800080008000A0008000C0008000E00080200000802020008020400080206000802080008020A0008020C0008020E00080400000804020008040400080406000804080
310
008040A0008040C0008040E00080600000806020008060400080606000806080008060A0008060C0008060E00080800000808020008080400080806000808080008080A0008080C0008080E00080A0000080A0200080A0400080A0600080A0800080A0A00080A0C00080A0E00080C0000080C0200080C0400080C0600080C0
310
800080C0A00080C0C00080C0E00080E0000080E0200080E0400080E0600080E0800080E0A00080E0C00080E0E000C0000000C0002000C0004000C0006000C0008000C000A000C000C000C000E000C0200000C0202000C0204000C0206000C0208000C020A000C020C000C020E000C0400000C0402000C0404000C0406000C0
310
408000C040A000C040C000C040E000C0600000C0602000C0604000C0606000C0608000C060A000C060C000C060E000C0800000C0802000C0804000C0806000C0808000C080A000C080C000C080E000C0A00000C0A02000C0A04000C0A06000C0A08000C0A0A000C0A0C000C0A0E000C0C00000C0C02000C0C04000C0C06000
310
C0C08000C0C0A000F0FBFF00A4A0A000808080000000FF0000FF000000FFFF00FF000000FF00FF00FFFF0000FFFFFF00FFFFFFFFFFFFFFFFFFFFFFFFFFFFFFFFFFFFFFFFFFFFFFFFFFFFFFFFFFFFFFFFFFFFFFFFFFFFFFFFFFFFFFFFFFFFFFFFFFFFFFFFFFFFFFFFFFFFFFFFFFFFFFFFFFFFFFFFFFFFFFFFFFFFFFFFFFFFFF
310
FFFFFFFFFFFFFFFFFFFFFFFFFFFFFFFFFFFFFFFFFFFFFFFFFFFFFFFFFFFFFFFFFFFFFFFFFFFFFFFFFFFFFFFFFFFFFFFFFFFFFFFFFFFFFFFFFFFFFFFFFFFFFFFFFFFFFFFFFFFFFFFFFFFFFFFFFFFFFFFFFFFFFFFFFFFFFFFFFFFFFFFFFFFFFFFFFFFFFFFFFFFFFFFFFFFFFFFFFFFFFFFFFFFFFFFFFFFFFFFFFFFFFFFFFFFFFF
310
FFFFFFFFFFFFFFFFFFFFFFFFFFFFFFFFFFFFFFFFFFFFFFFFFFFFFFFFFFFFFFFFFFFFFFFFFFFFFFFFFFFFFFFFFFFFFFFFFFFFFFFFFFFFFFFFFFFFFFFFFFFFFFFFFFFFFFFFFFFFFFFFFFFFFFFFFFFFFFFFFFFFFFFFFFFFFFFFFFFFFFFFFFFFFFFFFFFFFFFFFFFFFFFFFFFFFFFFFFFFFFFFFFFFFFFFFFFFFFFFFFFFFFFFFFFFFF
310
FFFFFFFFFFFFFFFFFFFFFFFFFFFFFFFFFFFFFFFFFFFFFFFFFFFFFFFFFFFFFFFFFFFFFFFFFFFFFFFFFFFFFFFFFFFFFFFFFFFFFFFF0000000000000000000000000000000000000000000000000000000000FFFFFF0000000000000000000000000000000000FFFFFFFFFFFFFFFFFFFF0000FFFFFF0000000000000000000000
310
00000000000000FFFFFFFFFFFFFFFFFFFF0000FFFF000000000000000000000000000000000000FFFFFF00000000FFFFFF0000FFFF00FFFFFFFFFFFF00FFFFFF00FFFFFFFFFF00FFFFFF0000000000FFFF0000FFFF00FFFFFFFFFFFF00FFFFFF00FFFFFFFFFF00FFFFFF00FFFF0000FFFF0000FFFF00FFFFFFFFFFFF00FFFF
310
00FFFFFFFFFFFF00FFFFFF00FFFF0000FFFF0000FFFF0000000000FFFF00000000FFFFFF00000000FFFFFF00000000FFFFFF0000FFFFFFFFFFFF00FFFFFFFFFFFFFFFFFF00FFFFFFFFFFFFFFFFFFFFFFFFFF0000FFFFFFFFFFFF00FFFFFFFFFFFFFFFFFF00FFFFFFFFFFFFFFFFFFFFFFFFFF0000FFFFFFFFFFFF00FFFFFFFF
310
FFFFFFFFFF00FFFFFFFFFFFFFFFFFFFFFFFF0000FFFFFF0000000000FFFF00000000FFFFFF0000000000000000000000000000FFFFFFFF00FFFFFFFFFFFF00FFFF00FFFFFFFFFFFF00FFFFFFFFFFFFFFFFFFFFFFFFFFFF00FFFFFFFFFFFF00FFFFFF00FFFFFFFFFF00FFFFFFFFFFFFFFFFFFFFFFFFFFFF0000000000000000
310
FFFFFF00000000000000FFFFFFFFFFFFFFFFFFFFFFFFFFFFFFFFFFFFFFFFFFFFFFFFFFFFFFFFFFFFFFFFFFFFFFFFFFFFFFFFFFFFFFFFFFFFFFFFFFFFFFFFFFFFFFFFFFFFFFFFFFFFFFFFFFFFFFFFFFFFFFFFFFFFFFFFFFFFFFFFFFFFFFFFFFFFFFFFFFFFFFFFFFFFFFFFFFFFFFFFFFFFFFFFFFFFFFFFFFFFFFFFFFFFFFFFFF
310
FFFFFFFFFFFFFFFFFFFFFFFFFFFFFFFFFFFFFFFFFFFFFFFFFFFFFFFFFFFFFFFFFFFFFFFFFFFFFFFFFFFFFFFFFFFFFFFFFFFFFFFFFFFFFFFF
102
{BLKREFS
331
2F8
102
}
  0
BLOCK_RECORD
  5
2F7
330
1
100
AcDbSymbolTableRecord
100
AcDbBlockTableRecord
  2
HD logo-new
340
0
310
2800000020000000200000000100080000000000000400000000000000000000000000000000000000000000000080000080000000808000800000008000800080800000C0C0C000C0DCC000F0CAA6000020400000206000002080000020A0000020C0000020E00000400000004020000040400000406000004080000040A0
310
000040C0000040E00000600000006020000060400000606000006080000060A0000060C0000060E00000800000008020000080400000806000008080000080A0000080C0000080E00000A0000000A0200000A0400000A0600000A0800000A0A00000A0C00000A0E00000C0000000C0200000C0400000C0600000C0800000C0
310
A00000C0C00000C0E00000E0000000E0200000E0400000E0600000E0800000E0A00000E0C00000E0E00040000000400020004000400040006000400080004000A0004000C0004000E00040200000402020004020400040206000402080004020A0004020C0004020E000404000004040200040404000404060004040800040
310
40A0004040C0004040E00040600000406020004060400040606000406080004060A0004060C0004060E00040800000408020004080400040806000408080004080A0004080C0004080E00040A0000040A0200040A0400040A0600040A0800040A0A00040A0C00040A0E00040C0000040C0200040C0400040C0600040C08000
310
40C0A00040C0C00040C0E00040E0000040E0200040E0400040E0600040E0800040E0A00040E0C00040E0E00080000000800020008000400080006000800080008000A0008000C0008000E00080200000802020008020400080206000802080008020A0008020C0008020E00080400000804020008040400080406000804080
310
008040A0008040C0008040E00080600000806020008060400080606000806080008060A0008060C0008060E00080800000808020008080400080806000808080008080A0008080C0008080E00080A0000080A0200080A0400080A0600080A0800080A0A00080A0C00080A0E00080C0000080C0200080C0400080C0600080C0
310
800080C0A00080C0C00080C0E00080E0000080E0200080E0400080E0600080E0800080E0A00080E0C00080E0E000C0000000C0002000C0004000C0006000C0008000C000A000C000C000C000E000C0200000C0202000C0204000C0206000C0208000C020A000C020C000C020E000C0400000C0402000C0404000C0406000C0
310
408000C040A000C040C000C040E000C0600000C0602000C0604000C0606000C0608000C060A000C060C000C060E000C0800000C0802000C0804000C0806000C0808000C080A000C080C000C080E000C0A00000C0A02000C0A04000C0A06000C0A08000C0A0A000C0A0C000C0A0E000C0C00000C0C02000C0C04000C0C06000
310
C0C08000C0C0A000F0FBFF00A4A0A000808080000000FF0000FF000000FFFF00FF000000FF00FF00FFFF0000FFFFFF00FFFFFFFFFFFFFFFFFFFFFFFFFFFFFFFFFFFFFFFFFFFFFFFFFFFFFFFFFFFFFFFFFFFFFFFFFFFFFFFFFFFFFFFFFFFFFFFFFFFFFFFFFFFFFFFFFFFFFFFFFFFFFFFFFFFFFFFFFFFFFFFFFFFFFFFFFFFFFF
310
FFFFFFFFFFFFFFFFFFFFFFFFFFFFFFFFFFFFFFFFFFFFFFFFFFFFFFFFFFFFFFFFFFFFFFFFFFFFFFFFFFFFFFFFFFFFFFFFFFFFFFFFFFFFFFFFFFFFFFFFFFFFFFFFFFFFFFFFFFFFFFFFFFFFFFFFFFFFFFFFFFFFFFFFFFFFFFFFFFFFFFFFFFFFFFFFFFFFFFFFFFFFFFFFFFFFFFFFFFFFFFFFFFFFFFFFFFFFFFFFFFFFFFFFFFFFFF
310
FFFFFFFFFFFFFFFFFFFFFFFFFFFFFFFFFFFFFFFFFFFFFFFFFFFFFFFFFFFFFFFFFFFFFFFFFFFFFFFFFFFFFFFFFFFFFFFFFFFFFFFFFFFFFFFFFFFFFFFFFFFFFFFFFFFFFFFFFFFFFFFFFFFFFFFFFFFFFFFFFFFFFFFFFFFFFFFFFFFFFFFFFFFFFFFFFFFFFFFFFFFFFFFFFFFFFFFFFFFFFFFFFFFFFFFFFFFFFFFFFFFFFFFFFFFFFF
310
FFFFFFFFFFFFFFFFFFFFFFFFFFFFFFFFFFFFFFFFFFFFFFFFFFFFFFFFFFFFFFFFFFFFFFFFFFFFFFFFFFFFFFFFFFFFFFFFFFFFFFFF0000000000000000000000000000000000000000000000000000000000FFFFFF0000000000000000000000000000000000FFFFFFFFFFFFFFFFFFFF0000FFFFFF0000000000000000000000
310
00000000000000FFFFFFFFFFFFFFFFFFFF0000FFFF000000000000000000000000000000000000FFFFFF00000000FFFFFF0000FFFF00FFFFFFFFFFFF00FFFFFF00FFFFFFFFFF00FFFFFF0000000000FFFF0000FFFF00FFFFFFFFFFFF00FFFFFF00FFFFFFFFFF00FFFFFF00FFFF0000FFFF0000FFFF00FFFFFFFFFFFF00FFFF
310
00FFFFFFFFFFFF00FFFFFF00FFFF0000FFFF0000FFFF0000000000FFFF00000000FFFFFF00000000FFFFFF00000000FFFFFF0000FFFFFFFFFFFF00FFFFFFFFFFFFFFFFFF00FFFFFFFFFFFFFFFFFFFFFFFFFF0000FFFFFFFFFFFF00FFFFFFFFFFFFFFFFFF00FFFFFFFFFFFFFFFFFFFFFFFFFF0000FFFFFFFFFFFF00FFFFFFFF
310
FFFFFFFFFF00FFFFFFFFFFFFFFFFFFFFFFFF0000FFFFFF0000000000FFFF00000000FFFFFF0000000000000000000000000000FFFFFFFF00FFFFFFFFFFFF00FFFF00FFFFFFFFFFFF00FFFFFFFFFFFFFFFFFFFFFFFFFFFF00FFFFFFFFFFFF00FFFFFF00FFFFFFFFFF00FFFFFFFFFFFFFFFFFFFFFFFFFFFF0000000000000000
310
FFFFFF00000000000000FFFFFFFFFFFFFFFFFFFFFFFFFFFFFFFFFFFFFFFFFFFFFFFFFFFFFFFFFFFFFFFFFFFFFFFFFFFFFFFFFFFFFFFFFFFFFFFFFFFFFFFFFFFFFFFFFFFFFFFFFFFFFFFFFFFFFFFFFFFFFFFFFFFFFFFFFFFFFFFFFFFFFFFFFFFFFFFFFFFFFFFFFFFFFFFFFFFFFFFFFFFFFFFFFFFFFFFFFFFFFFFFFFFFFFFFFF
310
FFFFFFFFFFFFFFFFFFFFFFFFFFFFFFFFFFFFFFFFFFFFFFFFFFFFFFFFFFFFFFFFFFFFFFFFFFFFFFFFFFFFFFFFFFFFFFFFFFFFFFFFFFFFFFFF
102
{BLKREFS
331
2FC
102
}
  0
BLOCK_RECORD
  5
2FB
330
1
100
AcDbSymbolTableRecord
100
AcDbBlockTableRecord
  2
HD Logo
340
0
310
2800000020000000200000000100080000000000000400000000000000000000000000000000000000000000000080000080000000808000800000008000800080800000C0C0C000C0DCC000F0CAA6000020400000206000002080000020A0000020C0000020E00000400000004020000040400000406000004080000040A0
310
000040C0000040E00000600000006020000060400000606000006080000060A0000060C0000060E00000800000008020000080400000806000008080000080A0000080C0000080E00000A0000000A0200000A0400000A0600000A0800000A0A00000A0C00000A0E00000C0000000C0200000C0400000C0600000C0800000C0
310
A00000C0C00000C0E00000E0000000E0200000E0400000E0600000E0800000E0A00000E0C00000E0E00040000000400020004000400040006000400080004000A0004000C0004000E00040200000402020004020400040206000402080004020A0004020C0004020E000404000004040200040404000404060004040800040
310
40A0004040C0004040E00040600000406020004060400040606000406080004060A0004060C0004060E00040800000408020004080400040806000408080004080A0004080C0004080E00040A0000040A0200040A0400040A0600040A0800040A0A00040A0C00040A0E00040C0000040C0200040C0400040C0600040C08000
310
40C0A00040C0C00040C0E00040E0000040E0200040E0400040E0600040E0800040E0A00040E0C00040E0E00080000000800020008000400080006000800080008000A0008000C0008000E00080200000802020008020400080206000802080008020A0008020C0008020E00080400000804020008040400080406000804080
310
008040A0008040C0008040E00080600000806020008060400080606000806080008060A0008060C0008060E00080800000808020008080400080806000808080008080A0008080C0008080E00080A0000080A0200080A0400080A0600080A0800080A0A00080A0C00080A0E00080C0000080C0200080C0400080C0600080C0
310
800080C0A00080C0C00080C0E00080E0000080E0200080E0400080E0600080E0800080E0A00080E0C00080E0E000C0000000C0002000C0004000C0006000C0008000C000A000C000C000C000E000C0200000C0202000C0204000C0206000C0208000C020A000C020C000C020E000C0400000C0402000C0404000C0406000C0
310
408000C040A000C040C000C040E000C0600000C0602000C0604000C0606000C0608000C060A000C060C000C060E000C0800000C0802000C0804000C0806000C0808000C080A000C080C000C080E000C0A00000C0A02000C0A04000C0A06000C0A08000C0A0A000C0A0C000C0A0E000C0C00000C0C02000C0C04000C0C06000
310
C0C08000C0C0A000F0FBFF00A4A0A000808080000000FF0000FF000000FFFF00FF000000FF00FF00FFFF0000FFFFFF00FFFFFFFFFFFFFFFFFFFFFFFFFFFFFFFFFFFFFFFFFFFFFFFFFFFFFFFFFFFFFFFFFFFFFFFFFFFFFFFFFFFFFFFFFFFFFFFFFFFFFFFFFFFFFFFFFFFFFFFFFFFFFFFFFFFFFFFFFFFFFFFFFFFFFFFFFFFFFF
310
FFFFFFFFFFFFFFFFFFFFFFFFFFFFFFFFFFFFFFFFFFFFFFFFFFFFFFFFFFFFFFFFFFFFFFFFFFFFFFFFFFFFFFFFFFFFFFFFFFFFFFFFFFFFFFFFFFFFFFFFFFFFFFFFFFFFFFFFFFFFFFFFFFFFFFFFFFFFFFFFFFFFFFFFFFFFFFFFFFFFFFFFFFFFFFFFFFFFFFFFFFFFFFFFFFFFFFFFFFFFFFFFFFFFFFFFFFFFFFFFFFFFFFFFFFFFFF
310
FFFFFFFFFFFFFFFFFFFFFFFFFFFFFFFFFFFFFFFFFFFFFFFFFFFFFFFFFFFFFFFFFFFFFFFFFFFFFFFFFFFFFFFFFFFFFFFFFFFFFFFFFFFFFFFFFFFFFFFFFFFFFFFFFFFFFFFFFFFFFFFFFFFFFFFFFFFFFFFFFFFFFFFFFFFFFFFFFFFFFFFFFFFFFFFFFFFFFFFFFFFFFFFFFFFFFFFFFFFFFFFFFFFFFFFFFFFFFFFFFFFFFFFFFFFFFF
310
FFFFFFFFFFFFFFFFFFFFFFFFFFFFFFFFFFFFFFFFFFFFFFFFFFFFFFFFFFFFFFFFFFFFFFFFFFFFFFFFFFFFFFFFFFFFFFFFFFFFFFFF0000000000000000000000000000000000000000000000000000000000FFFFFF0000000000000000000000000000000000FFFFFFFFFFFFFFFFFFFF0000FFFFFF0000000000000000000000
310
00000000000000FFFFFFFFFFFFFFFFFFFF0000FFFF000000000000000000000000000000000000FFFFFF00000000FFFFFF0000FFFF00FFFFFFFFFFFF00FFFFFF00FFFFFFFFFF00FFFFFF0000000000FFFF0000FFFF00FFFFFFFFFFFF00FFFFFF00FFFFFFFFFF00FFFFFF00FFFF0000FFFF0000FFFF00FFFFFFFFFFFF00FFFF
310
00FFFFFFFFFFFF00FFFFFF00FFFF0000FFFF0000FFFF0000000000FFFF00000000FFFFFF00000000FFFFFF00000000FFFFFF0000FFFFFFFFFFFF00FFFFFFFFFFFFFFFFFF00FFFFFFFFFFFFFFFFFFFFFFFFFF0000FFFFFFFFFFFF00FFFFFFFFFFFFFFFFFF00FFFFFFFFFFFFFFFFFFFFFFFFFF0000FFFFFFFFFFFF00FFFFFFFF
310
FFFFFFFFFF00FFFFFFFFFFFFFFFFFFFFFFFF0000FFFFFF0000000000FFFF00000000FFFFFF0000000000000000000000000000FFFFFFFF00FFFFFFFFFFFF00FFFF00FFFFFFFFFFFF00FFFFFFFFFFFFFFFFFFFFFFFFFFFF00FFFFFFFFFFFF00FFFFFF00FFFFFFFFFF00FFFFFFFFFFFFFFFFFFFFFFFFFFFF0000000000000000
310
FFFFFF00000000000000FFFFFFFFFFFFFFFFFFFFFFFFFFFFFFFFFFFFFFFFFFFFFFFFFFFFFFFFFFFFFFFFFFFFFFFFFFFFFFFFFFFFFFFFFFFFFFFFFFFFFFFFFFFFFFFFFFFFFFFFFFFFFFFFFFFFFFFFFFFFFFFFFFFFFFFFFFFFFFFFFFFFFFFFFFFFFFFFFFFFFFFFFFFFFFFFFFFFFFFFFFFFFFFFFFFFFFFFFFFFFFFFFFFFFFFFFF
310
FFFFFFFFFFFFFFFFFFFFFFFFFFFFFFFFFFFFFFFFFFFFFFFFFFFFFFFFFFFFFFFFFFFFFFFFFFFFFFFFFFFFFFFFFFFFFFFFFFFFFFFFFFFFFFFF
102
{BLKREFS
331
301
331
305
102
}
  0
BLOCK_RECORD
  5
313
330
1
100
AcDbSymbolTableRecord
100
AcDbBlockTableRecord
  2
Harmonic Drive LLC
340
0
310
2800000020000000200000000100080000000000000400000000000000000000000000000000000000000000000080000080000000808000800000008000800080800000C0C0C000C0DCC000F0CAA6000020400000206000002080000020A0000020C0000020E00000400000004020000040400000406000004080000040A0
310
000040C0000040E00000600000006020000060400000606000006080000060A0000060C0000060E00000800000008020000080400000806000008080000080A0000080C0000080E00000A0000000A0200000A0400000A0600000A0800000A0A00000A0C00000A0E00000C0000000C0200000C0400000C0600000C0800000C0
310
A00000C0C00000C0E00000E0000000E0200000E0400000E0600000E0800000E0A00000E0C00000E0E00040000000400020004000400040006000400080004000A0004000C0004000E00040200000402020004020400040206000402080004020A0004020C0004020E000404000004040200040404000404060004040800040
310
40A0004040C0004040E00040600000406020004060400040606000406080004060A0004060C0004060E00040800000408020004080400040806000408080004080A0004080C0004080E00040A0000040A0200040A0400040A0600040A0800040A0A00040A0C00040A0E00040C0000040C0200040C0400040C0600040C08000
310
40C0A00040C0C00040C0E00040E0000040E0200040E0400040E0600040E0800040E0A00040E0C00040E0E00080000000800020008000400080006000800080008000A0008000C0008000E00080200000802020008020400080206000802080008020A0008020C0008020E00080400000804020008040400080406000804080
310
008040A0008040C0008040E00080600000806020008060400080606000806080008060A0008060C0008060E00080800000808020008080400080806000808080008080A0008080C0008080E00080A0000080A0200080A0400080A0600080A0800080A0A00080A0C00080A0E00080C0000080C0200080C0400080C0600080C0
310
800080C0A00080C0C00080C0E00080E0000080E0200080E0400080E0600080E0800080E0A00080E0C00080E0E000C0000000C0002000C0004000C0006000C0008000C000A000C000C000C000E000C0200000C0202000C0204000C0206000C0208000C020A000C020C000C020E000C0400000C0402000C0404000C0406000C0
310
408000C040A000C040C000C040E000C0600000C0602000C0604000C0606000C0608000C060A000C060C000C060E000C0800000C0802000C0804000C0806000C0808000C080A000C080C000C080E000C0A00000C0A02000C0A04000C0A06000C0A08000C0A0A000C0A0C000C0A0E000C0C00000C0C02000C0C04000C0C06000
310
C0C08000C0C0A000F0FBFF00A4A0A000808080000000FF0000FF000000FFFF00FF000000FF00FF00FFFF0000FFFFFF00FFFFFFFFFFFFFFFFFFFFFFFFFFFFFFFFFFFFFFFFFFFFFFFFFFFFFFFFFFFFFFFFFFFFFFFFFFFFFFFFFFFFFFFFFFFFFFFFFFFFFFFFFFFFFFFFFFFFFFFFFFFFFFFFFFFFFFFFFFFFFFFFFFFFFFFFFFFFFF
310
FFFFFFFFFFFFFFFFFFFFFFFFFFFFFFFFFFFFFFFFFFFFFFFFFFFFFFFFFFFFFFFFFFFFFFFFFFFFFFFFFFFFFFFFFFFFFFFFFFFFFFFFFFFFFFFFFFFFFFFFFFFFFFFFFFFFFFFFFFFFFFFFFFFFFFFFFFFFFFFFFFFFFFFFFFFFFFFFFFFFFFFFFFFFFFFFFFFFFFFFFFFFFFFFFFFFFFFFFFFFFFFFFFFFFFFFFFFFFFFFFFFFFFFFFFFFFF
310
FFFFFFFFFFFFFFFFFFFFFFFFFFFFFFFFFFFFFFFFFFFFFFFFFFFFFFFFFFFFFFFFFFFFFFFFFFFFFFFFFFFFFFFFFFFFFFFFFFFFFFFFFFFFFFFFFFFFFFFFFFFFFFFFFFFFFFFFFFFFFFFFFFFFFFFFFFFFFFFFFFFFFFFFFFFFFFFFFFFFFFFFFFFFFFFFFFFFFFFFFFFFFFFFFFFFFFFFFFFFFFFFFFFFFFFFFFFFFFFFFFFFFFFFFFFFFF
310
FFFFFFFFFFFFFFFFFFFFFFFFFFFFFFFFFFFFFFFFFFFFFFFFFFFFFFFFFFFFFFFFFFFFFFFFFFFFFFFFFFFFFFFFFFFFFFFFFFFFFFFFFFFFFFFFFFFFFFFFFFFFFFFFFFFFFFFFFFFFFFFFFFFFFFFFFFFFFFFFFFFFFFFFFFFFFFFFFFFFFFFF0000000000000000000000000000FFFFFFFFFFFFFFFFFFFFFFFFFFFFFFFFFFFF000000
310
0000000000000000000000FFFFFFFFFFFFFFFFFFFFFFFFFFFFFFFFFFFFFFFFFF000000000000000000FFFFFFFFFFFFFFFFFFFFFFFFFFFFFFFFFFFFFFFFFFFFFF000000000000000000FFFFFFFFFFFFFFFFFFFFFFFFFFFFFFFFFFFFFFFFFF000000000000000000000000FFFFFFFFFFFFFFFFFFFFFFFFFFFFFFFFFFFFFFFF00
310
FFFFFF00FF0000FF000000FFFFFFFFFFFFFFFFFFFFFFFFFFFFFFFFFFFFFFFFFFFFFFFFFFFFFFFFFFFFFFFFFFFFFFFFFFFFFFFFFFFFFFFFFFFFFFFFFFFFFFFFFFFFFFFFFFFFFFFFFFFFFFFFFFFFFFFFFFFFFFFFFFFFFFFFFFFFFFFFFFFFFFFFFFFFFFFFFFFFFFFFFFFFFFFFFFFFFFFFFFFFFFFFFFFFFFFFFFFFFFFFFFFFFFFF
310
FFFFFFFFFFFFFFFFFFFFFFFFFFFFFFFFFFFFFFFFFFFFFFFFFFFFFFFFFFFFFFFFFFFFFFFFFFFFFFFFFFFFFFFFFFFFFFFFFFFFFFFFFFFFFFFFFFFFFFFFFFFFFFFFFFFFFFFFFFFFFFFFFFFFFFFFFFFFFFFFFFFFFFFFFFFFFFFFFFFFFFFFFFFFFFFFFFFFFFFFFFFFFFFFFFFFFFFFFFFFFFFFFFFFFFFFFFFFFFFFFFFFFFFFFFFFFF
310
FFFFFFFFFFFFFFFFFFFFFFFFFFFFFFFFFFFFFFFFFFFFFFFFFFFFFFFFFFFFFFFFFFFFFFFFFFFFFFFFFFFFFFFFFFFFFFFFFFFFFFFFFFFFFFFFFFFFFFFFFFFFFFFFFFFFFFFFFFFFFFFFFFFFFFFFFFFFFFFFFFFFFFFFFFFFFFFFFFFFFFFFFFFFFFFFFFFFFFFFFFFFFFFFFFFFFFFFFFFFFFFFFFFFFFFFFFFFFFFFFFFFFFFFFFFFFF
310
FFFFFFFFFFFFFFFFFFFFFFFFFFFFFFFFFFFFFFFFFFFFFFFFFFFFFFFFFFFFFFFFFFFFFFFFFFFFFFFFFFFFFFFFFFFFFFFFFFFFFFFFFFFFFFFF
102
{BLKREFS
331
318
331
31D
102
}
  0
BLOCK_RECORD
  5
328
330
1
100
AcDbSymbolTableRecord
100
AcDbBlockTableRecord
  2
HD LLC
340
0
310
2800000020000000200000000100080000000000000400000000000000000000000000000000000000000000000080000080000000808000800000008000800080800000C0C0C000C0DCC000F0CAA6000020400000206000002080000020A0000020C0000020E00000400000004020000040400000406000004080000040A0
310
000040C0000040E00000600000006020000060400000606000006080000060A0000060C0000060E00000800000008020000080400000806000008080000080A0000080C0000080E00000A0000000A0200000A0400000A0600000A0800000A0A00000A0C00000A0E00000C0000000C0200000C0400000C0600000C0800000C0
310
A00000C0C00000C0E00000E0000000E0200000E0400000E0600000E0800000E0A00000E0C00000E0E00040000000400020004000400040006000400080004000A0004000C0004000E00040200000402020004020400040206000402080004020A0004020C0004020E000404000004040200040404000404060004040800040
310
40A0004040C0004040E00040600000406020004060400040606000406080004060A0004060C0004060E00040800000408020004080400040806000408080004080A0004080C0004080E00040A0000040A0200040A0400040A0600040A0800040A0A00040A0C00040A0E00040C0000040C0200040C0400040C0600040C08000
310
40C0A00040C0C00040C0E00040E0000040E0200040E0400040E0600040E0800040E0A00040E0C00040E0E00080000000800020008000400080006000800080008000A0008000C0008000E00080200000802020008020400080206000802080008020A0008020C0008020E00080400000804020008040400080406000804080
310
008040A0008040C0008040E00080600000806020008060400080606000806080008060A0008060C0008060E00080800000808020008080400080806000808080008080A0008080C0008080E00080A0000080A0200080A0400080A0600080A0800080A0A00080A0C00080A0E00080C0000080C0200080C0400080C0600080C0
310
800080C0A00080C0C00080C0E00080E0000080E0200080E0400080E0600080E0800080E0A00080E0C00080E0E000C0000000C0002000C0004000C0006000C0008000C000A000C000C000C000E000C0200000C0202000C0204000C0206000C0208000C020A000C020C000C020E000C0400000C0402000C0404000C0406000C0
310
408000C040A000C040C000C040E000C0600000C0602000C0604000C0606000C0608000C060A000C060C000C060E000C0800000C0802000C0804000C0806000C0808000C080A000C080C000C080E000C0A00000C0A02000C0A04000C0A06000C0A08000C0A0A000C0A0C000C0A0E000C0C00000C0C02000C0C04000C0C06000
310
C0C08000C0C0A000F0FBFF00A4A0A000808080000000FF0000FF000000FFFF00FF000000FF00FF00FFFF0000FFFFFF00FFFFFFFFFFFFFFFFFFFFFFFFFFFFFFFFFFFFFFFFFFFFFFFFFFFFFFFFFFFFFFFFFFFFFFFFFFFFFFFFFFFFFFFFFFFFFFFFFFFFFFFFFFFFFFFFFFFFFFFFFFFFFFFFFFFFFFFFFFFFFFFFFFFFFFFFFFFFFF
310
FFFFFFFFFFFFFFFFFFFFFFFFFFFFFFFFFFFFFFFFFFFFFFFFFFFFFFFFFFFFFFFFFFFFFFFFFFFFFFFFFFFFFFFFFFFFFFFFFFFFFFFFFFFFFFFFFFFFFFFFFFFFFFFFFFFFFFFFFFFFFFFFFFFFFFFFFFFFFFFFFFFFFFFFFFFFFFFFFFFFFFFFFFFFFFFFFFFFFFFFFFFFFFFFFFFFFFFFFFFFFFFFFFFFFFFFFFFFFFFFFFFFFFFFFFFFFF
310
FFFFFFFFFFFFFFFFFFFFFFFFFFFFFFFFFFFFFFFFFFFFFFFFFFFFFFFFFFFFFFFFFFFFFFFFFFFFFFFFFFFFFFFFFFFFFFFFFFFFFFFFFFFFFFFFFFFFFFFFFFFFFFFFFFFFFFFFFFFFFFFFFFFFFFFFFFFFFFFFFFFFFFFFFFFFFFFFFFFFFFFFFFFFFFFFFFFFFFFFFFFFFFFFFFFFFFFFFFFFFFFFFFFFFFFFFFFFFFFFFFFFFFFFFFFFFF
310
FFFFFFFFFFFFFFFFFFFFFFFFFFFFFFFFFFFFFFFFFFFFFFFFFFFFFFFFFFFFFFFFFFFFFFFFFFFFFFFFFFFFFFFFFFFFFFFFFFFFFFFFFFFFFFFFFFFFFFFFFFFFFFFFFFFFFFFFFFFFFFFFFFFFFFFFFFFFFFFFFFFFFFFFFFFFFFFFFFFFFFFFFFFFFFFFFFFFFFFFFFFFFFFFFFFFFFFFFFFFFFFFFFFFFFFFFFFFFFFFFFFFFFFFFFFF00
310
000000000000000000FFFFFFFFFFFFFFFFFFFFFFFFFFFFFFFFFFFFFFFFFFFF00000000000000000000FFFFFFFFFFFFFFFFFFFFFFFFFFFFFFFFFFFFFFFFFFFF00000000000000000000FFFFFFFFFFFFFFFFFFFFFFFFFFFFFFFFFFFFFFFFFFFF00000000000000000000FFFFFFFFFFFFFFFFFFFFFFFFFFFFFFFFFFFFFFFFFFFF
310
FFFFFFFFFFFFFFFFFFFFFFFFFFFFFFFFFFFFFFFFFFFFFFFFFFFFFFFFFFFFFFFFFFFFFFFFFFFFFFFFFFFFFFFFFFFFFFFFFFFFFFFFFFFFFFFFFFFFFFFFFFFFFFFFFFFFFFFFFFFFFFFFFFFFFFFFFFFFFFFFFFFFFFFFFFFFFFFFFFFFFFFFFFFFFFFFFFFFFFFFFFFFFFFFFFFFFFFFFFFFFFFFFFFFFFFFFFFFFFFFFFFFFFFFFFFFFF
310
FFFFFFFFFFFFFFFFFFFFFFFFFFFFFFFFFFFFFFFFFFFFFFFFFFFFFFFFFFFFFFFFFFFFFFFFFFFFFFFFFFFFFFFFFFFFFFFFFFFFFFFFFFFFFFFFFFFFFFFFFFFFFFFFFFFFFFFFFFFFFFFFFFFFFFFFFFFFFFFFFFFFFFFFFFFFFFFFFFFFFFFFFFFFFFFFFFFFFFFFFFFFFFFFFFFFFFFFFFFFFFFFFFFFFFFFFFFFFFFFFFFFFFFFFFFFFF
310
FFFFFFFFFFFFFFFFFFFFFFFFFFFFFFFFFFFFFFFFFFFFFFFFFFFFFFFFFFFFFFFFFFFFFFFFFFFFFFFFFFFFFFFFFFFFFFFFFFFFFFFFFFFFFFFFFFFFFFFFFFFFFFFFFFFFFFFFFFFFFFFFFFFFFFFFFFFFFFFFFFFFFFFFFFFFFFFFFFFFFFFFFFFFFFFFFFFFFFFFFFFFFFFFFFFFFFFFFFFFFFFFFFFFFFFFFFFFFFFFFFFFFFFFFFFFFF
310
FFFFFFFFFFFFFFFFFFFFFFFFFFFFFFFFFFFFFFFFFFFFFFFFFFFFFFFFFFFFFFFFFFFFFFFFFFFFFFFFFFFFFFFFFFFFFFFFFFFFFFFFFFFFFFFF
102
{BLKREFS
331
32D
331
331
102
}
  0
BLOCK_RECORD
  5
332
330
1
100
AcDbSymbolTableRecord
100
AcDbBlockTableRecord
  2
NTC
340
0
310
2800000020000000200000000100080000000000000400000000000000000000000000000000000000000000000080000080000000808000800000008000800080800000C0C0C000C0DCC000F0CAA6000020400000206000002080000020A0000020C0000020E00000400000004020000040400000406000004080000040A0
310
000040C0000040E00000600000006020000060400000606000006080000060A0000060C0000060E00000800000008020000080400000806000008080000080A0000080C0000080E00000A0000000A0200000A0400000A0600000A0800000A0A00000A0C00000A0E00000C0000000C0200000C0400000C0600000C0800000C0
310
A00000C0C00000C0E00000E0000000E0200000E0400000E0600000E0800000E0A00000E0C00000E0E00040000000400020004000400040006000400080004000A0004000C0004000E00040200000402020004020400040206000402080004020A0004020C0004020E000404000004040200040404000404060004040800040
310
40A0004040C0004040E00040600000406020004060400040606000406080004060A0004060C0004060E00040800000408020004080400040806000408080004080A0004080C0004080E00040A0000040A0200040A0400040A0600040A0800040A0A00040A0C00040A0E00040C0000040C0200040C0400040C0600040C08000
310
40C0A00040C0C00040C0E00040E0000040E0200040E0400040E0600040E0800040E0A00040E0C00040E0E00080000000800020008000400080006000800080008000A0008000C0008000E00080200000802020008020400080206000802080008020A0008020C0008020E00080400000804020008040400080406000804080
310
008040A0008040C0008040E00080600000806020008060400080606000806080008060A0008060C0008060E00080800000808020008080400080806000808080008080A0008080C0008080E00080A0000080A0200080A0400080A0600080A0800080A0A00080A0C00080A0E00080C0000080C0200080C0400080C0600080C0
310
800080C0A00080C0C00080C0E00080E0000080E0200080E0400080E0600080E0800080E0A00080E0C00080E0E000C0000000C0002000C0004000C0006000C0008000C000A000C000C000C000E000C0200000C0202000C0204000C0206000C0208000C020A000C020C000C020E000C0400000C0402000C0404000C0406000C0
310
408000C040A000C040C000C040E000C0600000C0602000C0604000C0606000C0608000C060A000C060C000C060E000C0800000C0802000C0804000C0806000C0808000C080A000C080C000C080E000C0A00000C0A02000C0A04000C0A06000C0A08000C0A0A000C0A0C000C0A0E000C0C00000C0C02000C0C04000C0C06000
310
C0C08000C0C0A000F0FBFF00A4A0A000808080000000FF0000FF000000FFFF00FF000000FF00FF00FFFF0000FFFFFF00FFFFFFFFFFFFFFFFFFFFFFFFFFFFFFFFFFFFFFFFFFFFFFFFFFFFFFFFFFFFFFFFFFFFFFFFFFFFFFFFFFFFFFFFFFFFFFFFFFFFFFFFFFFFFFFFFFFFFFFFFFFFFFFFFFFFFFFFFFFFFFFFFFFFFFFFFFFFFF
310
FFFFFFFFFFFFFFFFFFFFFFFFFFFFFFFFFFFFFFFFFFFFFFFFFFFFFFFFFFFFFFFFFFFFFFFFFFFFFFFFFFFFFFFFFFFFFFFFFFFFFFFFFFFFFFFFFFFFFFFFFFFFFFFFFFFFFFFFFFFFFFFFFFFFFFFFFFFFFFFFFFFFFFFFFFFFFFFFFFFFFFFFFFFFFFFFFFFFFFFFFFFFFFFFFFFFFFFFFFFFFFFFFFFFFFFFFFFFFFFFFFFFFFFFFFFFFF
310
FFFFFFFFFFFFFFFFFFFFFFFFFFFFFFFFFFFFFFFFFFFFFFFFFFFFFFFFFFFFFFFFFFFFFFFFFFFFFFFFFFFFFFFFFFFFFFFFFFFFFFFFFFFFFFFFFFFFFFFFFFFFFFFFFFFFFFFFFFFFFFFFFFFFFFFFFFFFFFFFFFFFFFFFFFFFFFFFFFFFFFFFFFFFFFFFFFFFFFFFFFFFFFFFFFFFFFFFFFFFFFFFFFFFFFFFFFFFFFFFFFFFFFFFFFFFFF
310
FFFFFFFFFFFFFFFFFFFFFFFFFFFFFFFFFFFFFFFF000000000000000000000000000000000000000000000000000000000000FFFF00FF0000000000000000FFFFFFFFFFFFFFFFFFFFFFFFFFFFFFFFFFFFFF00FFFF00FF0000000000000000FFFFFFFFFFFFFFFFFFFFFFFFFFFFFFFFFFFFFF00FFFF00FF000000000000000000
310
00000000000000000000000000FFFFFFFFFF00FFFF00FF0000000000000000000000000000000000000000000000000000FF00FFFF00FF0000000000000000000000000000000000000000000000000000FF00FFFF00FF0000000000000000000000000000000000000000000000000000FF00FFFF00FF0000000000000000
310
00000000000000000000000000000000FFFFFF00FFFF00FF0000000000FFFFFFFFFFFFFFFFFFFFFFFFFFFFFFFFFFFFFFFFFFFF00FFFF000000000000000000000000000000000000000000000000000000000000FFFFFFFFFFFFFFFFFFFFFFFFFFFFFFFFFFFFFFFFFFFFFFFFFFFFFFFFFFFFFFFFFFFFFFFFFFFFFFFFFFFFFF
310
FFFFFFFFFFFFFFFFFFFFFFFFFFFFFFFFFFFFFFFFFFFFFFFFFFFFFFFFFFFFFFFFFFFFFFFFFFFFFFFFFFFFFFFFFFFFFFFFFFFFFFFFFFFFFFFFFFFFFFFFFFFFFFFFFFFFFFFFFFFFFFFFFFFFFFFFFFFFFFFFFFFFFFFFFFFFFFFFFFFFFFFFFFFFFFFFFFFFFFFFFFFFFFFFFFFFFFFFFFFFFFFFFFFFFFFFFFFFFFFFFFFFFFFFFFFFFF
310
FFFFFFFFFFFFFFFFFFFFFFFFFFFFFFFFFFFFFFFFFFFFFFFFFFFFFFFFFFFFFFFFFFFFFFFFFFFFFFFFFFFFFFFFFFFFFFFFFFFFFFFFFFFFFFFFFFFFFFFFFFFFFFFFFFFFFFFFFFFFFFFFFFFFFFFFFFFFFFFFFFFFFFFFFFFFFFFFFFFFFFFFFFFFFFFFFFFFFFFFFFFFFFFFFFFFFFFFFFFFFFFFFFFFFFFFFFFFFFFFFFFFFFFFFFFFFF
310
FFFFFFFFFFFFFFFFFFFFFFFFFFFFFFFFFFFFFFFFFFFFFFFFFFFFFFFFFFFFFFFFFFFFFFFFFFFFFFFFFFFFFFFFFFFFFFFFFFFFFFFFFFFFFFFF
102
{BLKREFS
331
338
331
33D
102
}
  0
ENDTAB
  0
ENDSEC
  0
SECTION
  2
BLOCKS
  0
BLOCK
  5
1F
330
1E
100
AcDbEntity
  8
0
100
AcDbBlockBegin
  2
*Model_Space
 70
     0
 10
0.0
 20
0.0
 30
0.0
  3
*Model_Space
  1

  0
ENDBLK
  5
20
330
1E
100
AcDbEntity
  8
0
100
AcDbBlockEnd
  0
BLOCK
  5
1B
330
1A
100
AcDbEntity
 67
     1
  8
0
100
AcDbBlockBegin
  2
*Paper_Space
 70
     0
 10
0.0
 20
0.0
 30
0.0
  3
*Paper_Space
  1

  0
ENDBLK
  5
1C
330
1A
100
AcDbEntity
 67
     1
  8
0
100
AcDbBlockEnd
  0
BLOCK
  5
296
330
293
100
AcDbEntity
  8
0
 62
     7
100
AcDbBlockBegin
  2
AI9-BLK14
 70
     0
 10
0.0
 20
0.0
 30
0.0
  3
AI9-BLK14
  1

  0
SPLINE
  5
294
330
293
100
AcDbEntity
  8
LAYER_1
 62
     7
100
AcDbSpline
210
0.0
220
0.0
230
1.0
 70
    11
 71
     3
 72
    23
 73
    19
 74
     0
 42
0.0000000001
 43
0.0000000001
 40
0.0
 40
0.0
 40
0.0
 40
0.0
 40
1.0
 40
1.0
 40
1.0
 40
2.0
 40
2.0
 40
2.0
 40
3.0
 40
3.0
 40
3.0
 40
4.0
 40
4.0
 40
4.0
 40
5.0
 40
5.0
 40
5.0
 40
6.0
 40
6.0
 40
6.0
 40
6.0
 10
-10.90321044921874
 20
10.88107571072048
 30
0.0
 10
-10.90321044921874
 20
10.88107571072048
 30
0.0
 10
-10.90321044921874
 20
-10.88107571072048
 30
0.0
 10
-10.90321044921874
 20
-10.88107571072048
 30
0.0
 10
-10.90321044921874
 20
-10.88107571072048
 30
0.0
 10
1.752692328559025
 20
-10.88107571072048
 30
0.0
 10
1.752692328559025
 20
-10.88107571072048
 30
0.0
 10
3.280592176649305
 20
-10.88107571072048
 30
0.0
 10
10.90321044921874
 20
-10.32383151584201
 30
0.0
 10
10.90321044921874
 20
0.6792867024739583
 30
0.0
 10
10.90321044921874
 20
10.61700914171006
 30
0.0
 10
2.773129611545138
 20
10.87952541775172
 30
0.0
 10
2.691136338975693
 20
10.88090345594618
 30
0.0
 10
2.691136338975693
 20
10.88090345594618
 30
0.0
 10
-9.903099229600693
 20
10.88107571072048
 30
0.0
 10
-9.903099229600693
 20
10.88107571072048
 30
0.0
 10
-9.903099229600693
 20
10.88107571072048
 30
0.0
 10
-10.90321044921874
 20
10.88107571072048
 30
0.0
 10
-10.90321044921874
 20
10.88107571072048
 30
0.0
  0
SPLINE
  5
295
330
293
100
AcDbEntity
  8
LAYER_1
 62
     7
100
AcDbSpline
210
0.0
220
0.0
230
1.0
 70
    11
 71
     3
 72
    20
 73
    16
 74
     0
 42
0.0000000001
 43
0.0000000001
 40
0.0
 40
0.0
 40
0.0
 40
0.0
 40
1.0
 40
1.0
 40
1.0
 40
2.0
 40
2.0
 40
2.0
 40
3.0
 40
3.0
 40
3.0
 40
4.0
 40
4.0
 40
4.0
 40
5.0
 40
5.0
 40
5.0
 40
5.0
 10
2.672877332899305
 20
8.881197781032986
 30
0.0
 10
2.905421278211805
 20
8.874307590060762
 30
0.0
 10
8.902988009982637
 20
8.616442192925347
 30
0.0
 10
8.902988009982637
 20
0.6792867024739583
 30
0.0
 10
8.902988009982637
 20
-8.191661919487842
 30
0.0
 10
3.430109320746526
 20
-8.881197781032986
 30
0.0
 10
1.752692328559025
 20
-8.881197781032986
 30
0.0
 10
1.752692328559025
 20
-8.881197781032986
 30
0.0
 10
-7.231427680121528
 20
-8.881197781032986
 30
0.0
 10
-8.902988009982637
 20
-8.881197781032986
 30
0.0
 10
-8.902988009982637
 20
-7.174497477213541
 30
0.0
 10
-8.902988009982637
 20
7.174497477213541
 30
0.0
 10
-8.902988009982637
 20
8.881197781032986
 30
0.0
 10
-7.208690049913191
 20
8.881197781032986
 30
0.0
 10
2.672877332899305
 20
8.881197781032986
 30
0.0
 10
2.672877332899305
 20
8.881197781032986
 30
0.0
  0
ENDBLK
  5
297
330
293
100
AcDbEntity
  8
0
100
AcDbBlockEnd
  0
BLOCK
  5
29B
330
298
100
AcDbEntity
  8
0
 62
     7
100
AcDbBlockBegin
  2
AI9-BLK13
 70
     0
 10
0.0
 20
0.0
 30
0.0
  3
AI9-BLK13
  1

  0
LWPOLYLINE
  5
299
330
298
100
AcDbEntity
  8
LAYER_1
 62
     7
100
AcDbPolyline
 90
       12
 70
     1
 43
0.0
 10
-3.792361111111107
 20
10.7376736111111
 10
-2.469444444444443
 20
10.7376736111111
 10
-2.469444444444443
 20
1.874131944444444
 10
2.469444444444443
 20
1.874131944444444
 10
2.469444444444443
 20
10.7376736111111
 10
3.792361111111107
 20
10.7376736111111
 10
3.792361111111107
 20
-10.7376736111111
 10
2.469444444444443
 20
-10.7376736111111
 10
2.469444444444443
 20
-0.6835069444444444
 10
-2.469444444444443
 20
-0.6835069444444444
 10
-2.469444444444443
 20
-10.7376736111111
 10
-3.792361111111107
 20
-10.7376736111111
  0
HATCH
  5
29A
330
298
100
AcDbEntity
  8
LAYER_1
 62
     7
100
AcDbHatch
 10
0.0
 20
0.0
 30
0.0
210
0.0
220
0.0
230
1.0
  2
SOLID
 70
     1
 71
     0
 91
        1
 92
        3
 72
     0
 73
     1
 93
       12
 10
-3.792361111111107
 20
10.7376736111111
 10
-2.469444444444443
 20
10.7376736111111
 10
-2.469444444444443
 20
1.874131944444444
 10
2.469444444444443
 20
1.874131944444444
 10
2.469444444444443
 20
10.7376736111111
 10
3.792361111111107
 20
10.7376736111111
 10
3.792361111111107
 20
-10.7376736111111
 10
2.469444444444443
 20
-10.7376736111111
 10
2.469444444444443
 20
-0.6835069444444444
 10
-2.469444444444443
 20
-0.6835069444444444
 10
-2.469444444444443
 20
-10.7376736111111
 10
-3.792361111111107
 20
-10.7376736111111
 97
        0
 75
     2
 76
     1
 98
        1
 10
0.0
 20
0.0
  0
ENDBLK
  5
29C
330
298
100
AcDbEntity
  8
0
100
AcDbBlockEnd
  0
BLOCK
  5
2A0
330
29D
100
AcDbEntity
  8
0
 62
     7
100
AcDbBlockBegin
  2
AI9-BLK11
 70
     0
 10
0.0
 20
0.0
 30
0.0
  3
AI9-BLK11
  1

  0
SPLINE
  5
29E
330
29D
100
AcDbEntity
  8
LAYER_1
 62
     7
100
AcDbSpline
210
0.0
220
0.0
230
1.0
 70
    11
 71
     3
 72
    26
 73
    22
 74
     0
 42
0.0000000001
 43
0.0000000001
 40
0.0
 40
0.0
 40
0.0
 40
0.0
 40
1.0
 40
1.0
 40
1.0
 40
2.0
 40
2.0
 40
2.0
 40
3.0
 40
3.0
 40
3.0
 40
4.0
 40
4.0
 40
4.0
 40
5.0
 40
5.0
 40
5.0
 40
6.0
 40
6.0
 40
6.0
 40
7.0
 40
7.0
 40
7.0
 40
7.0
 10
-2.645833333333333
 20
0.9039930555555551
 30
0.0
 10
-2.645833333333333
 20
0.9039930555555551
 30
0.0
 10
-2.645833333333333
 20
8.180034722222217
 30
0.0
 10
-2.645833333333333
 20
8.180034722222217
 30
0.0
 10
-2.645833333333333
 20
8.180034722222217
 30
0.0
 10
0.465087890625
 20
8.180034722222217
 30
0.0
 10
0.465087890625
 20
8.180034722222217
 30
0.0
 10
0.9026150173611108
 20
8.180034722222217
 30
0.0
 10
1.24988064236111
 20
8.034651692708331
 30
0.0
 10
1.506884765625
 20
7.745263671874997
 30
0.0
 10
2.001600477430554
 20
7.194048394097221
 30
0.0
 10
2.248958333333332
 20
6.160519748263887
 30
0.0
 10
2.248958333333332
 20
4.643299696180553
 30
0.0
 10
2.248958333333332
 20
3.232188585069443
 30
0.0
 10
2.072569444444444
 20
2.256537543402775
 30
0.0
 10
1.720480685763888
 20
1.715657552083333
 30
0.0
 10
1.368391927083333
 20
1.174088541666665
 30
0.0
 10
0.8929687499999998
 20
0.9039930555555551
 30
0.0
 10
0.2942111545138888
 20
0.9039930555555551
 30
0.0
 10
0.2942111545138888
 20
0.9039930555555551
 30
0.0
 10
-2.645833333333333
 20
0.9039930555555551
 30
0.0
 10
-2.645833333333333
 20
0.9039930555555551
 30
0.0
  0
SPLINE
  5
29F
330
29D
100
AcDbEntity
  8
LAYER_1
 62
     7
100
AcDbSpline
210
0.0
220
0.0
230
1.0
 70
    11
 71
     3
 72
    68
 73
    64
 74
     0
 42
0.0000000001
 43
0.0000000001
 40
0.0
 40
0.0
 40
0.0
 40
0.0
 40
1.0
 40
1.0
 40
1.0
 40
2.0
 40
2.0
 40
2.0
 40
3.0
 40
3.0
 40
3.0
 40
4.0
 40
4.0
 40
4.0
 40
5.0
 40
5.0
 40
5.0
 40
6.0
 40
6.0
 40
6.0
 40
7.0
 40
7.0
 40
7.0
 40
8.0
 40
8.0
 40
8.0
 40
9.0
 40
9.0
 40
9.0
 40
10.0
 40
10.0
 40
10.0
 40
11.0
 40
11.0
 40
11.0
 40
12.0
 40
12.0
 40
12.0
 40
13.0
 40
13.0
 40
13.0
 40
14.0
 40
14.0
 40
14.0
 40
15.0
 40
15.0
 40
15.0
 40
16.0
 40
16.0
 40
16.0
 40
17.0
 40
17.0
 40
17.0
 40
18.0
 40
18.0
 40
18.0
 40
19.0
 40
19.0
 40
19.0
 40
20.0
 40
20.0
 40
20.0
 40
21.0
 40
21.0
 40
21.0
 40
21.0
 10
-3.968749999999998
 20
-10.7376736111111
 30
0.0
 10
-3.968749999999998
 20
-10.7376736111111
 30
0.0
 10
-2.645833333333333
 20
-10.7376736111111
 30
0.0
 10
-2.645833333333333
 20
-10.7376736111111
 30
0.0
 10
-2.645833333333333
 20
-10.7376736111111
 30
0.0
 10
-2.645833333333333
 20
-1.521354166666665
 30
0.0
 10
-2.645833333333333
 20
-1.521354166666665
 30
0.0
 10
-2.645833333333333
 20
-1.521354166666665
 30
0.0
 10
0.2390896267361111
 20
-1.521354166666665
 30
0.0
 10
0.2390896267361111
 20
-1.521354166666665
 30
0.0
 10
0.7599880642361111
 20
-1.521354166666665
 30
0.0
 10
1.143771701388887
 20
-1.65295681423611
 30
0.0
 10
1.390440538194444
 20
-1.916162109374999
 30
0.0
 10
1.816254340277773
 20
-2.39434136284722
 30
0.0
 10
2.04363064236111
 20
-3.335541449652775
 30
0.0
 10
2.072569444444444
 20
-4.739762369791666
 30
0.0
 10
2.072569444444444
 20
-4.739762369791666
 30
0.0
 10
2.160763888888888
 20
-8.324039713541665
 30
0.0
 10
2.160763888888888
 20
-8.324039713541665
 30
0.0
 10
2.18005642361111
 20
-9.163264973958332
 30
0.0
 10
2.202794053819443
 20
-9.728949652777775
 30
0.0
 10
2.227598741319444
 20
-10.02109374999998
 30
0.0
 10
2.252403428819443
 20
-10.31392686631944
 30
0.0
 10
2.28892144097222
 20
-10.55301649305555
 30
0.0
 10
2.33853081597222
 20
-10.7376736111111
 30
0.0
 10
2.33853081597222
 20
-10.7376736111111
 30
0.0
 10
3.968749999999998
 20
-10.7376736111111
 30
0.0
 10
3.968749999999998
 20
-10.7376736111111
 30
0.0
 10
3.968749999999998
 20
-10.7376736111111
 30
0.0
 10
3.968749999999998
 20
-10.25260416666666
 30
0.0
 10
3.968749999999998
 20
-10.25260416666666
 30
0.0
 10
3.766867404513888
 20
-10.05830078125
 30
0.0
 10
3.625618489583333
 20
-9.621462673611112
 30
0.0
 10
3.545692274305555
 20
-8.942089843749997
 30
0.0
 10
3.49470486111111
 20
-8.543836805555555
 30
0.0
 10
3.459564887152775
 20
-7.937499999999999
 30
0.0
 10
3.439583333333333
 20
-7.121701388888887
 30
0.0
 10
3.439583333333333
 20
-7.121701388888887
 30
0.0
 10
3.395486111111106
 20
-4.232644314236106
 30
0.0
 10
3.395486111111106
 20
-4.232644314236106
 30
0.0
 10
3.375504557291666
 20
-2.981385633680555
 30
0.0
 10
3.26870659722222
 20
-2.077392578125
 30
0.0
 10
3.075781249999999
 20
-1.522043185763888
 30
0.0
 10
2.882166883680555
 20
-0.9666937934027776
 30
0.0
 10
2.592089843749999
 20
-0.5188313802083333
 30
0.0
 10
2.204861111111105
 20
-0.1770779079861111
 30
0.0
 10
2.63618706597222
 20
0.3197048611111111
 30
0.0
 10
2.971739366319443
 20
0.9770290798611107
 30
0.0
 10
3.211518012152775
 20
1.79558376736111
 30
0.0
 10
3.451296657986107
 20
2.613449435763888
 30
0.0
 10
3.571874999999999
 20
3.66558159722222
 30
0.0
 10
3.571874999999999
 20
4.951291232638888
 30
0.0
 10
3.571874999999999
 20
7.415912543402777
 30
0.0
 10
3.124701605902775
 20
9.106076388888887
 30
0.0
 10
2.231043836805555
 20
10.02178276909722
 30
0.0
 10
1.759754774305553
 20
10.498583984375
 30
0.0
 10
1.163753255208332
 20
10.7376736111111
 30
0.0
 10
0.443039279513889
 20
10.7376736111111
 30
0.0
 10
0.443039279513889
 20
10.7376736111111
 30
0.0
 10
-3.968749999999998
 20
10.7376736111111
 30
0.0
 10
-3.968749999999998
 20
10.7376736111111
 30
0.0
 10
-3.968749999999998
 20
10.7376736111111
 30
0.0
 10
-3.968749999999998
 20
-10.7376736111111
 30
0.0
 10
-3.968749999999998
 20
-10.7376736111111
 30
0.0
  0
ENDBLK
  5
2A1
330
29D
100
AcDbEntity
  8
0
100
AcDbBlockEnd
  0
BLOCK
  5
2A4
330
2A2
100
AcDbEntity
  8
0
 62
     7
100
AcDbBlockBegin
  2
AI9-BLK10
 70
     0
 10
0.0
 20
0.0
 30
0.0
  3
AI9-BLK10
  1

  0
SPLINE
  5
2A3
330
2A2
100
AcDbEntity
  8
LAYER_1
 62
     7
100
AcDbSpline
210
0.0
220
0.0
230
1.0
 70
    11
 71
     3
 72
    59
 73
    55
 74
     0
 42
0.0000000001
 43
0.0000000001
 40
0.0
 40
0.0
 40
0.0
 40
0.0
 40
1.0
 40
1.0
 40
1.0
 40
2.0
 40
2.0
 40
2.0
 40
3.0
 40
3.0
 40
3.0
 40
4.0
 40
4.0
 40
4.0
 40
5.0
 40
5.0
 40
5.0
 40
6.0
 40
6.0
 40
6.0
 40
7.0
 40
7.0
 40
7.0
 40
8.0
 40
8.0
 40
8.0
 40
9.0
 40
9.0
 40
9.0
 40
10.0
 40
10.0
 40
10.0
 40
11.0
 40
11.0
 40
11.0
 40
12.0
 40
12.0
 40
12.0
 40
13.0
 40
13.0
 40
13.0
 40
14.0
 40
14.0
 40
14.0
 40
15.0
 40
15.0
 40
15.0
 40
16.0
 40
16.0
 40
16.0
 40
17.0
 40
17.0
 40
17.0
 40
18.0
 40
18.0
 40
18.0
 40
18.0
 10
-4.652256944444443
 20
10.7376736111111
 30
0.0
 10
-4.652256944444443
 20
10.7376736111111
 30
0.0
 10
-2.798795572916666
 20
10.7376736111111
 30
0.0
 10
-2.798795572916666
 20
10.7376736111111
 30
0.0
 10
-2.798795572916666
 20
10.7376736111111
 30
0.0
 10
0.0
 20
-7.419357638888887
 30
0.0
 10
0.0
 20
-7.419357638888887
 30
0.0
 10
0.0
 20
-7.419357638888887
 30
0.0
 10
2.793283420138888
 20
10.7376736111111
 30
0.0
 10
2.793283420138888
 20
10.7376736111111
 30
0.0
 10
2.793283420138888
 20
10.7376736111111
 30
0.0
 10
4.652256944444443
 20
10.7376736111111
 30
0.0
 10
4.652256944444443
 20
10.7376736111111
 30
0.0
 10
4.652256944444443
 20
10.7376736111111
 30
0.0
 10
4.652256944444443
 20
-10.7376736111111
 30
0.0
 10
4.652256944444443
 20
-10.7376736111111
 30
0.0
 10
4.652256944444443
 20
-10.7376736111111
 30
0.0
 10
3.41753472222222
 20
-10.7376736111111
 30
0.0
 10
3.41753472222222
 20
-10.7376736111111
 30
0.0
 10
3.41753472222222
 20
-10.7376736111111
 30
0.0
 10
3.41753472222222
 20
1.936832682291665
 30
0.0
 10
3.41753472222222
 20
1.936832682291665
 30
0.0
 10
3.41753472222222
 20
2.375048828124999
 30
0.0
 10
3.424424913194443
 20
3.101274956597221
 30
0.0
 10
3.439583333333333
 20
4.11482204861111
 30
0.0
 10
3.454052734374998
 20
5.128369140624998
 30
0.0
 10
3.461631944444443
 20
6.214952256944441
 30
0.0
 10
3.461631944444443
 20
7.375260416666666
 30
0.0
 10
3.461631944444443
 20
7.375260416666666
 30
0.0
 10
0.6538791232638889
 20
-10.7376736111111
 30
0.0
 10
0.6538791232638889
 20
-10.7376736111111
 30
0.0
 10
0.6538791232638889
 20
-10.7376736111111
 30
0.0
 10
-0.6628363715277778
 20
-10.7376736111111
 30
0.0
 10
-0.6628363715277778
 20
-10.7376736111111
 30
0.0
 10
-0.6628363715277778
 20
-10.7376736111111
 30
0.0
 10
-3.461631944444443
 20
7.375260416666666
 30
0.0
 10
-3.461631944444443
 20
7.375260416666666
 30
0.0
 10
-3.461631944444443
 20
7.375260416666666
 30
0.0
 10
-3.461631944444443
 20
6.717247178819441
 30
0.0
 10
-3.461631944444443
 20
6.717247178819441
 30
0.0
 10
-3.461631944444443
 20
6.190836588541666
 30
0.0
 10
-3.45474175347222
 20
5.389507378472222
 30
0.0
 10
-3.439583333333333
 20
4.312570529513888
 30
0.0
 10
-3.425113932291666
 20
3.235633680555555
 30
0.0
 10
-3.41753472222222
 20
2.44395073784722
 30
0.0
 10
-3.41753472222222
 20
1.936832682291665
 30
0.0
 10
-3.41753472222222
 20
1.936832682291665
 30
0.0
 10
-3.41753472222222
 20
-10.7376736111111
 30
0.0
 10
-3.41753472222222
 20
-10.7376736111111
 30
0.0
 10
-3.41753472222222
 20
-10.7376736111111
 30
0.0
 10
-4.652256944444443
 20
-10.7376736111111
 30
0.0
 10
-4.652256944444443
 20
-10.7376736111111
 30
0.0
 10
-4.652256944444443
 20
-10.7376736111111
 30
0.0
 10
-4.652256944444443
 20
10.7376736111111
 30
0.0
 10
-4.652256944444443
 20
10.7376736111111
 30
0.0
  0
ENDBLK
  5
2A5
330
2A2
100
AcDbEntity
  8
0
100
AcDbBlockEnd
  0
BLOCK
  5
2A9
330
2A6
100
AcDbEntity
  8
0
 62
     7
100
AcDbBlockBegin
  2
AI9-BLK9
 70
     0
 10
0.0
 20
0.0
 30
0.0
  3
AI9-BLK9
  1

  0
SPLINE
  5
2A7
330
2A6
100
AcDbEntity
  8
LAYER_1
 62
     7
100
AcDbSpline
210
0.0
220
0.0
230
1.0
 70
    11
 71
     3
 72
    29
 73
    25
 74
     0
 42
0.0000000001
 43
0.0000000001
 40
0.0
 40
0.0
 40
0.0
 40
0.0
 40
1.0
 40
1.0
 40
1.0
 40
2.0
 40
2.0
 40
2.0
 40
3.0
 40
3.0
 40
3.0
 40
4.0
 40
4.0
 40
4.0
 40
5.0
 40
5.0
 40
5.0
 40
6.0
 40
6.0
 40
6.0
 40
7.0
 40
7.0
 40
7.0
 40
8.0
 40
8.0
 40
8.0
 40
8.0
 10
0.0668348524305556
 20
-8.753298611111111
 30
0.0
 10
-0.9067491319444444
 20
-8.753298611111111
 30
0.0
 10
-1.60954861111111
 20
-7.936810980902778
 30
0.0
 10
-2.041563585069444
 20
-6.30383572048611
 30
0.0
 10
-2.474267578124999
 20
-4.670860460069443
 30
0.0
 10
-2.689930555555555
 20
-2.664436848958333
 30
0.0
 10
-2.689930555555555
 20
-0.28525390625
 30
0.0
 10
-2.689930555555555
 20
2.68855251736111
 30
0.0
 10
-2.439127604166666
 20
4.938199869791666
 30
0.0
 10
-1.937521701388888
 20
6.464377170138886
 30
0.0
 10
-1.43591579861111
 20
7.989865451388887
 30
0.0
 10
-0.7827256944444444
 20
8.753298611111111
 30
0.0
 10
0.0220486111111111
 20
8.753298611111111
 30
0.0
 10
0.8468044704861108
 20
8.753298611111111
 30
0.0
 10
1.49792751736111
 20
7.982975260416663
 30
0.0
 10
1.974728732638888
 20
6.442328559027776
 30
0.0
 10
2.451529947916665
 20
4.901681857638886
 30
0.0
 10
2.689930555555555
 20
2.868386501736111
 30
0.0
 10
2.689930555555555
 20
0.3438205295138888
 30
0.0
 10
2.689930555555555
 20
-2.045697699652774
 30
0.0
 10
2.483224826388884
 20
-4.15891927083333
 30
0.0
 10
2.071191406249999
 20
-5.996533203124998
 30
0.0
 10
1.65915798611111
 20
-7.834836154513887
 30
0.0
 10
0.9908094618055557
 20
-8.753298611111111
 30
0.0
 10
0.0668348524305556
 20
-8.753298611111111
 30
0.0
  0
SPLINE
  5
2A8
330
2A6
100
AcDbEntity
  8
LAYER_1
 62
     7
100
AcDbSpline
210
0.0
220
0.0
230
1.0
 70
    11
 71
     3
 72
    29
 73
    25
 74
     0
 42
0.0000000001
 43
0.0000000001
 40
0.0
 40
0.0
 40
0.0
 40
0.0
 40
1.0
 40
1.0
 40
1.0
 40
2.0
 40
2.0
 40
2.0
 40
3.0
 40
3.0
 40
3.0
 40
4.0
 40
4.0
 40
4.0
 40
5.0
 40
5.0
 40
5.0
 40
6.0
 40
6.0
 40
6.0
 40
7.0
 40
7.0
 40
7.0
 40
8.0
 40
8.0
 40
8.0
 40
8.0
 10
-0.0289388020833333
 20
11.35503472222222
 30
0.0
 10
-1.317404513888887
 20
11.35503472222222
 30
0.0
 10
-2.28892144097222
 20
10.02798394097222
 30
0.0
 10
-2.94280056423611
 20
7.374571397569441
 30
0.0
 10
-3.450607638888888
 20
5.30613606770833
 30
0.0
 10
-3.704166666666666
 20
2.81877712673611
 30
0.0
 10
-3.704166666666666
 20
-0.0881944444444445
 30
0.0
 10
-3.704166666666666
 20
-3.307291666666666
 30
0.0
 10
-3.406510416666666
 20
-5.97035047743055
 30
0.0
 10
-2.811197916666666
 20
-8.077370876736106
 30
0.0
 10
-2.147672526041664
 20
-10.26293945312499
 30
0.0
 10
-1.229899088541666
 20
-11.35503472222222
 30
0.0
 10
-0.0585666232638889
 20
-11.35503472222222
 30
0.0
 10
1.20027126736111
 20
-11.35503472222222
 30
0.0
 10
2.166276041666665
 20
-10.10653211805555
 30
0.0
 10
2.840136718749998
 20
-7.609526909722221
 30
0.0
 10
3.416156684027776
 20
-5.483213975694441
 30
0.0
 10
3.704166666666666
 20
-2.814643012152775
 30
0.0
 10
3.704166666666666
 20
0.3948079427083333
 30
0.0
 10
3.704166666666666
 20
3.360346137152776
 30
0.0
 10
3.449918619791666
 20
5.793961588541666
 30
0.0
 10
2.94280056423611
 20
7.696343315972222
 30
0.0
 10
2.298567708333333
 20
10.13547092013888
 30
0.0
 10
1.307758246527777
 20
11.35503472222222
 30
0.0
 10
-0.0289388020833333
 20
11.35503472222222
 30
0.0
  0
ENDBLK
  5
2AA
330
2A6
100
AcDbEntity
  8
0
100
AcDbBlockEnd
  0
BLOCK
  5
2AE
330
2AB
100
AcDbEntity
  8
0
 62
     7
100
AcDbBlockBegin
  2
AI9-BLK8
 70
     0
 10
0.0
 20
0.0
 30
0.0
  3
AI9-BLK8
  1

  0
LWPOLYLINE
  5
2AC
330
2AB
100
AcDbEntity
  8
LAYER_1
 62
     7
100
AcDbPolyline
 90
       10
 70
     1
 43
0.0
 10
-3.792361111111107
 20
10.7376736111111
 10
-2.268939887152773
 20
10.7376736111111
 10
2.557638888888888
 20
-6.505718315972222
 10
2.557638888888888
 20
10.7376736111111
 10
3.792361111111107
 20
10.7376736111111
 10
3.792361111111107
 20
-10.7376736111111
 10
2.32612847222222
 20
-10.7376736111111
 10
-2.557638888888888
 20
6.549815538194441
 10
-2.557638888888888
 20
-10.7376736111111
 10
-3.792361111111107
 20
-10.7376736111111
  0
HATCH
  5
2AD
330
2AB
100
AcDbEntity
  8
LAYER_1
 62
     7
100
AcDbHatch
 10
0.0
 20
0.0
 30
0.0
210
0.0
220
0.0
230
1.0
  2
SOLID
 70
     1
 71
     0
 91
        1
 92
        3
 72
     0
 73
     1
 93
       10
 10
-3.792361111111107
 20
10.7376736111111
 10
-2.268939887152773
 20
10.7376736111111
 10
2.557638888888888
 20
-6.505718315972222
 10
2.557638888888888
 20
10.7376736111111
 10
3.792361111111107
 20
10.7376736111111
 10
3.792361111111107
 20
-10.7376736111111
 10
2.32612847222222
 20
-10.7376736111111
 10
-2.557638888888888
 20
6.549815538194441
 10
-2.557638888888888
 20
-10.7376736111111
 10
-3.792361111111107
 20
-10.7376736111111
 97
        0
 75
     2
 76
     1
 98
        1
 10
0.0
 20
0.0
  0
ENDBLK
  5
2AF
330
2AB
100
AcDbEntity
  8
0
100
AcDbBlockEnd
  0
BLOCK
  5
2B3
330
2B0
100
AcDbEntity
  8
0
 62
     7
100
AcDbBlockBegin
  2
AI9-BLK7
 70
     0
 10
0.0
 20
0.0
 30
0.0
  3
AI9-BLK7
  1

  0
LWPOLYLINE
  5
2B1
330
2B0
100
AcDbEntity
  8
LAYER_1
 62
     7
100
AcDbPolyline
 90
        4
 70
     1
 43
0.0
 10
-0.6614583333333333
 20
10.7376736111111
 10
0.6614583333333333
 20
10.7376736111111
 10
0.6614583333333333
 20
-10.7376736111111
 10
-0.6614583333333333
 20
-10.7376736111111
  0
HATCH
  5
2B2
330
2B0
100
AcDbEntity
  8
LAYER_1
 62
     7
100
AcDbHatch
 10
0.0
 20
0.0
 30
0.0
210
0.0
220
0.0
230
1.0
  2
SOLID
 70
     1
 71
     0
 91
        1
 92
        3
 72
     0
 73
     1
 93
        4
 10
-0.6614583333333333
 20
10.7376736111111
 10
0.6614583333333333
 20
10.7376736111111
 10
0.6614583333333333
 20
-10.7376736111111
 10
-0.6614583333333333
 20
-10.7376736111111
 97
        0
 75
     2
 76
     1
 98
        1
 10
0.0
 20
0.0
  0
ENDBLK
  5
2B4
330
2B0
100
AcDbEntity
  8
0
100
AcDbBlockEnd
  0
BLOCK
  5
2B7
330
2B5
100
AcDbEntity
  8
0
 62
     7
100
AcDbBlockBegin
  2
AI9-BLK6
 70
     0
 10
0.0
 20
0.0
 30
0.0
  3
AI9-BLK6
  1

  0
SPLINE
  5
2B6
330
2B5
100
AcDbEntity
  8
LAYER_1
 62
     7
100
AcDbSpline
210
0.0
220
0.0
230
1.0
 70
    11
 71
     3
 72
    59
 73
    55
 74
     0
 42
0.0000000001
 43
0.0000000001
 40
0.0
 40
0.0
 40
0.0
 40
0.0
 40
1.0
 40
1.0
 40
1.0
 40
2.0
 40
2.0
 40
2.0
 40
3.0
 40
3.0
 40
3.0
 40
4.0
 40
4.0
 40
4.0
 40
5.0
 40
5.0
 40
5.0
 40
6.0
 40
6.0
 40
6.0
 40
7.0
 40
7.0
 40
7.0
 40
8.0
 40
8.0
 40
8.0
 40
9.0
 40
9.0
 40
9.0
 40
10.0
 40
10.0
 40
10.0
 40
11.0
 40
11.0
 40
11.0
 40
12.0
 40
12.0
 40
12.0
 40
13.0
 40
13.0
 40
13.0
 40
14.0
 40
14.0
 40
14.0
 40
15.0
 40
15.0
 40
15.0
 40
16.0
 40
16.0
 40
16.0
 40
17.0
 40
17.0
 40
17.0
 40
18.0
 40
18.0
 40
18.0
 40
18.0
 10
3.062689887152775
 20
9.168088107638887
 30
0.0
 10
3.735172526041666
 20
7.739062499999997
 30
0.0
 10
4.110687934027776
 20
6.116422526041666
 30
0.0
 10
4.189236111111108
 20
4.299479166666666
 30
0.0
 10
4.189236111111108
 20
4.299479166666666
 30
0.0
 10
2.866319444444443
 20
4.299479166666666
 30
0.0
 10
2.866319444444443
 20
4.299479166666666
 30
0.0
 10
2.720936414930555
 20
5.667871093749997
 30
0.0
 10
2.435682508680555
 20
6.752387152777776
 30
0.0
 10
2.009868706597218
 20
7.553027343749997
 30
0.0
 10
1.584054904513888
 20
8.352978515624997
 30
0.0
 10
0.9839192708333332
 20
8.753298611111111
 30
0.0
 10
0.2101508246527778
 20
8.753298611111111
 30
0.0
 10
-0.7386284722222222
 20
8.753298611111111
 30
0.0
 10
-1.503439670138888
 20
8.010536024305555
 30
0.0
 10
-2.083593749999999
 20
6.526388888888886
 30
0.0
 10
-2.664436848958333
 20
5.042241753472221
 30
0.0
 10
-2.954513888888888
 20
2.767100694444443
 30
0.0
 10
-2.954513888888888
 20
-0.2990342881944444
 30
0.0
 10
-2.954513888888888
 20
-2.811197916666666
 30
0.0
 10
-2.693375651041666
 20
-4.847938368055555
 30
0.0
 10
-2.17041015625
 20
-6.409944661458332
 30
0.0
 10
-1.648133680555553
 20
-7.972639973958332
 30
0.0
 10
-0.8640299479166666
 20
-8.753298611111111
 30
0.0
 10
0.1812120225694444
 20
-8.753298611111111
 30
0.0
 10
1.138948567708333
 20
-8.753298611111111
 30
0.0
 10
1.865174696180553
 20
-7.927853732638887
 30
0.0
 10
2.359201388888884
 20
-6.275585937499998
 30
0.0
 10
2.62998589409722
 20
-5.406043836805555
 30
0.0
 10
2.828423394097221
 20
-4.262272135416666
 30
0.0
 10
2.954513888888888
 20
-2.844270833333331
 30
0.0
 10
2.954513888888888
 20
-2.844270833333331
 30
0.0
 10
4.277430555555555
 20
-2.844270833333331
 30
0.0
 10
4.277430555555555
 20
-2.844270833333331
 30
0.0
 10
4.169943576388888
 20
-5.109765624999996
 30
0.0
 10
3.795117187499998
 20
-7.009391276041665
 30
0.0
 10
3.151573350694443
 20
-8.542458767361106
 30
0.0
 10
2.381249999999999
 20
-10.38834092881943
 30
0.0
 10
1.347721354166665
 20
-11.3109375
 30
0.0
 10
0.0509874131944445
 20
-11.3109375
 30
0.0
 10
-1.07004665798611
 20
-11.3109375
 30
0.0
 10
-2.010557725694444
 20
-10.55577256944443
 30
0.0
 10
-2.771234809027776
 20
-9.04475368923611
 30
0.0
 10
-3.775824652777775
 20
-7.046598307291666
 30
0.0
 10
-4.277430555555555
 20
-3.961170789930555
 30
0.0
 10
-4.277430555555555
 20
0.2115288628472222
 30
0.0
 10
-4.277430555555555
 20
3.379638671874998
 30
0.0
 10
-3.902604166666666
 20
5.977929687499997
 30
0.0
 10
-3.151573350694443
 20
8.005712890624996
 30
0.0
 10
-2.333018663194443
 20
10.20919596354165
 30
0.0
 10
-1.20647243923611
 20
11.3109375
 30
0.0
 10
0.2266872829861111
 20
11.3109375
 30
0.0
 10
1.444873046875
 20
11.3109375
 30
0.0
 10
2.390207248263884
 20
10.59642469618055
 30
0.0
 10
3.062689887152775
 20
9.168088107638887
 30
0.0
  0
ENDBLK
  5
2B8
330
2B5
100
AcDbEntity
  8
0
100
AcDbBlockEnd
  0
BLOCK
  5
2BC
330
2B9
100
AcDbEntity
  8
0
 62
     7
100
AcDbBlockBegin
  2
AI9-BLK5
 70
     0
 10
0.0
 20
0.0
 30
0.0
  3
AI9-BLK5
  1

  0
SPLINE
  5
2BA
330
2B9
100
AcDbEntity
  8
LAYER_1
 62
     7
100
AcDbSpline
210
0.0
220
0.0
230
1.0
 70
    11
 71
     3
 72
    32
 73
    28
 74
     0
 42
0.0000000001
 43
0.0000000001
 40
0.0
 40
0.0
 40
0.0
 40
0.0
 40
1.0
 40
1.0
 40
1.0
 40
2.0
 40
2.0
 40
2.0
 40
3.0
 40
3.0
 40
3.0
 40
4.0
 40
4.0
 40
4.0
 40
5.0
 40
5.0
 40
5.0
 40
6.0
 40
6.0
 40
6.0
 40
7.0
 40
7.0
 40
7.0
 40
8.0
 40
8.0
 40
8.0
 40
9.0
 40
9.0
 40
9.0
 40
9.0
 10
-2.62378472222222
 20
-8.268229166666666
 30
0.0
 10
-2.62378472222222
 20
-8.268229166666666
 30
0.0
 10
-2.62378472222222
 20
8.180034722222217
 30
0.0
 10
-2.62378472222222
 20
8.180034722222217
 30
0.0
 10
-2.62378472222222
 20
8.180034722222217
 30
0.0
 10
-0.3376193576388888
 20
8.180034722222217
 30
0.0
 10
-0.3376193576388888
 20
8.180034722222217
 30
0.0
 10
0.6972873263888888
 20
8.180034722222217
 30
0.0
 10
1.449007161458333
 20
7.445540364583332
 30
0.0
 10
1.918918185763885
 20
5.977929687499997
 30
0.0
 10
2.388829210069443
 20
4.510319010416666
 30
0.0
 10
2.62378472222222
 20
2.449462890624999
 30
0.0
 10
2.62378472222222
 20
-0.204638671875
 30
0.0
 10
2.62378472222222
 20
-0.8950358072916666
 30
0.0
 10
2.590022786458332
 20
-1.643310546874999
 30
0.0
 10
2.523187934027772
 20
-2.45015190972222
 30
0.0
 10
2.408121744791666
 20
-3.80200737847222
 30
0.0
 10
2.226220703124999
 20
-4.909950086805555
 30
0.0
 10
1.976795789930553
 20
-5.774669053819441
 30
0.0
 10
1.659847005208333
 20
-6.853672960069442
 30
0.0
 10
1.252636718749998
 20
-7.583344184027778
 30
0.0
 10
0.7544759114583333
 20
-7.962304687499997
 30
0.0
 10
0.4664659288194444
 20
-8.166254340277777
 30
0.0
 10
0.1074869791666666
 20
-8.268229166666666
 30
0.0
 10
-0.3231499565972222
 20
-8.268229166666666
 30
0.0
 10
-0.3231499565972222
 20
-8.268229166666666
 30
0.0
 10
-2.62378472222222
 20
-8.268229166666666
 30
0.0
 10
-2.62378472222222
 20
-8.268229166666666
 30
0.0
  0
SPLINE
  5
2BB
330
2B9
100
AcDbEntity
  8
LAYER_1
 62
     7
100
AcDbSpline
210
0.0
220
0.0
230
1.0
 70
    11
 71
     3
 72
    26
 73
    22
 74
     0
 42
0.0000000001
 43
0.0000000001
 40
0.0
 40
0.0
 40
0.0
 40
0.0
 40
1.0
 40
1.0
 40
1.0
 40
2.0
 40
2.0
 40
2.0
 40
3.0
 40
3.0
 40
3.0
 40
4.0
 40
4.0
 40
4.0
 40
5.0
 40
5.0
 40
5.0
 40
6.0
 40
6.0
 40
6.0
 40
7.0
 40
7.0
 40
7.0
 40
7.0
 10
-3.946701388888888
 20
-10.7376736111111
 30
0.0
 10
-3.946701388888888
 20
-10.7376736111111
 30
0.0
 10
-0.0943956163194444
 20
-10.7376736111111
 30
0.0
 10
-0.0943956163194444
 20
-10.7376736111111
 30
0.0
 10
1.546847873263885
 20
-10.7376736111111
 30
0.0
 10
2.705777994791666
 20
-9.11021050347222
 30
0.0
 10
3.381705729166666
 20
-5.854595269097222
 30
0.0
 10
3.757910156249999
 20
-4.01284722222222
 30
0.0
 10
3.946701388888888
 20
-1.951991102430555
 30
0.0
 10
3.946701388888888
 20
0.328662109375
 30
0.0
 10
3.946701388888888
 20
3.281797960069443
 30
0.0
 10
3.622862413194443
 20
5.703700086805552
 30
0.0
 10
2.976562499999998
 20
7.594368489583332
 30
0.0
 10
2.25171440972222
 20
9.689675564236106
 30
0.0
 10
1.233344184027777
 20
10.7376736111111
 30
0.0
 10
-0.0799262152777778
 20
10.7376736111111
 30
0.0
 10
-0.0799262152777778
 20
10.7376736111111
 30
0.0
 10
-3.946701388888888
 20
10.7376736111111
 30
0.0
 10
-3.946701388888888
 20
10.7376736111111
 30
0.0
 10
-3.946701388888888
 20
10.7376736111111
 30
0.0
 10
-3.946701388888888
 20
-10.7376736111111
 30
0.0
 10
-3.946701388888888
 20
-10.7376736111111
 30
0.0
  0
ENDBLK
  5
2BD
330
2B9
100
AcDbEntity
  8
0
100
AcDbBlockEnd
  0
BLOCK
  5
2C1
330
2BE
100
AcDbEntity
  8
0
 62
     7
100
AcDbBlockBegin
  2
AI9-BLK4
 70
     0
 10
0.0
 20
0.0
 30
0.0
  3
AI9-BLK4
  1

  0
SPLINE
  5
2BF
330
2BE
100
AcDbEntity
  8
LAYER_1
 62
     7
100
AcDbSpline
210
0.0
220
0.0
230
1.0
 70
    11
 71
     3
 72
    26
 73
    22
 74
     0
 42
0.0000000001
 43
0.0000000001
 40
0.0
 40
0.0
 40
0.0
 40
0.0
 40
1.0
 40
1.0
 40
1.0
 40
2.0
 40
2.0
 40
2.0
 40
3.0
 40
3.0
 40
3.0
 40
4.0
 40
4.0
 40
4.0
 40
5.0
 40
5.0
 40
5.0
 40
6.0
 40
6.0
 40
6.0
 40
7.0
 40
7.0
 40
7.0
 40
7.0
 10
-2.645833333333333
 20
0.9039930555555551
 30
0.0
 10
-2.645833333333333
 20
0.9039930555555551
 30
0.0
 10
-2.645833333333333
 20
8.180034722222217
 30
0.0
 10
-2.645833333333333
 20
8.180034722222217
 30
0.0
 10
-2.645833333333333
 20
8.180034722222217
 30
0.0
 10
0.465087890625
 20
8.180034722222217
 30
0.0
 10
0.465087890625
 20
8.180034722222217
 30
0.0
 10
0.9026150173611108
 20
8.180034722222217
 30
0.0
 10
1.24988064236111
 20
8.034651692708331
 30
0.0
 10
1.506884765625
 20
7.745263671874997
 30
0.0
 10
2.001600477430554
 20
7.194048394097221
 30
0.0
 10
2.248958333333332
 20
6.160519748263887
 30
0.0
 10
2.248958333333332
 20
4.643299696180553
 30
0.0
 10
2.248958333333332
 20
3.232188585069443
 30
0.0
 10
2.072569444444444
 20
2.256537543402775
 30
0.0
 10
1.720480685763888
 20
1.715657552083333
 30
0.0
 10
1.368391927083333
 20
1.174088541666665
 30
0.0
 10
0.8929687499999998
 20
0.9039930555555551
 30
0.0
 10
0.2942111545138888
 20
0.9039930555555551
 30
0.0
 10
0.2942111545138888
 20
0.9039930555555551
 30
0.0
 10
-2.645833333333333
 20
0.9039930555555551
 30
0.0
 10
-2.645833333333333
 20
0.9039930555555551
 30
0.0
  0
SPLINE
  5
2C0
330
2BE
100
AcDbEntity
  8
LAYER_1
 62
     7
100
AcDbSpline
210
0.0
220
0.0
230
1.0
 70
    11
 71
     3
 72
    68
 73
    64
 74
     0
 42
0.0000000001
 43
0.0000000001
 40
0.0
 40
0.0
 40
0.0
 40
0.0
 40
1.0
 40
1.0
 40
1.0
 40
2.0
 40
2.0
 40
2.0
 40
3.0
 40
3.0
 40
3.0
 40
4.0
 40
4.0
 40
4.0
 40
5.0
 40
5.0
 40
5.0
 40
6.0
 40
6.0
 40
6.0
 40
7.0
 40
7.0
 40
7.0
 40
8.0
 40
8.0
 40
8.0
 40
9.0
 40
9.0
 40
9.0
 40
10.0
 40
10.0
 40
10.0
 40
11.0
 40
11.0
 40
11.0
 40
12.0
 40
12.0
 40
12.0
 40
13.0
 40
13.0
 40
13.0
 40
14.0
 40
14.0
 40
14.0
 40
15.0
 40
15.0
 40
15.0
 40
16.0
 40
16.0
 40
16.0
 40
17.0
 40
17.0
 40
17.0
 40
18.0
 40
18.0
 40
18.0
 40
19.0
 40
19.0
 40
19.0
 40
20.0
 40
20.0
 40
20.0
 40
21.0
 40
21.0
 40
21.0
 40
21.0
 10
-3.968749999999998
 20
-10.7376736111111
 30
0.0
 10
-3.968749999999998
 20
-10.7376736111111
 30
0.0
 10
-2.645833333333333
 20
-10.7376736111111
 30
0.0
 10
-2.645833333333333
 20
-10.7376736111111
 30
0.0
 10
-2.645833333333333
 20
-10.7376736111111
 30
0.0
 10
-2.645833333333333
 20
-1.521354166666665
 30
0.0
 10
-2.645833333333333
 20
-1.521354166666665
 30
0.0
 10
-2.645833333333333
 20
-1.521354166666665
 30
0.0
 10
0.2390896267361111
 20
-1.521354166666665
 30
0.0
 10
0.2390896267361111
 20
-1.521354166666665
 30
0.0
 10
0.7599880642361111
 20
-1.521354166666665
 30
0.0
 10
1.143771701388887
 20
-1.65295681423611
 30
0.0
 10
1.390440538194444
 20
-1.916162109374999
 30
0.0
 10
1.816254340277773
 20
-2.39434136284722
 30
0.0
 10
2.04363064236111
 20
-3.335541449652775
 30
0.0
 10
2.072569444444444
 20
-4.739762369791666
 30
0.0
 10
2.072569444444444
 20
-4.739762369791666
 30
0.0
 10
2.160763888888888
 20
-8.324039713541665
 30
0.0
 10
2.160763888888888
 20
-8.324039713541665
 30
0.0
 10
2.18005642361111
 20
-9.163264973958332
 30
0.0
 10
2.202794053819443
 20
-9.728949652777775
 30
0.0
 10
2.227598741319444
 20
-10.02109374999998
 30
0.0
 10
2.252403428819443
 20
-10.31392686631944
 30
0.0
 10
2.28892144097222
 20
-10.55301649305555
 30
0.0
 10
2.33853081597222
 20
-10.7376736111111
 30
0.0
 10
2.33853081597222
 20
-10.7376736111111
 30
0.0
 10
3.968749999999998
 20
-10.7376736111111
 30
0.0
 10
3.968749999999998
 20
-10.7376736111111
 30
0.0
 10
3.968749999999998
 20
-10.7376736111111
 30
0.0
 10
3.968749999999998
 20
-10.25260416666666
 30
0.0
 10
3.968749999999998
 20
-10.25260416666666
 30
0.0
 10
3.766867404513888
 20
-10.05830078125
 30
0.0
 10
3.625618489583333
 20
-9.621462673611112
 30
0.0
 10
3.545692274305555
 20
-8.942089843749997
 30
0.0
 10
3.49470486111111
 20
-8.543836805555555
 30
0.0
 10
3.459564887152775
 20
-7.937499999999999
 30
0.0
 10
3.439583333333333
 20
-7.121701388888887
 30
0.0
 10
3.439583333333333
 20
-7.121701388888887
 30
0.0
 10
3.395486111111106
 20
-4.232644314236106
 30
0.0
 10
3.395486111111106
 20
-4.232644314236106
 30
0.0
 10
3.375504557291666
 20
-2.981385633680555
 30
0.0
 10
3.26870659722222
 20
-2.077392578125
 30
0.0
 10
3.075781249999999
 20
-1.522043185763888
 30
0.0
 10
2.882166883680555
 20
-0.9666937934027776
 30
0.0
 10
2.592089843749999
 20
-0.5188313802083333
 30
0.0
 10
2.204861111111105
 20
-0.1770779079861111
 30
0.0
 10
2.63618706597222
 20
0.3197048611111111
 30
0.0
 10
2.971739366319443
 20
0.9770290798611107
 30
0.0
 10
3.211518012152775
 20
1.79558376736111
 30
0.0
 10
3.451296657986107
 20
2.613449435763888
 30
0.0
 10
3.571874999999999
 20
3.66558159722222
 30
0.0
 10
3.571874999999999
 20
4.951291232638888
 30
0.0
 10
3.571874999999999
 20
7.415912543402777
 30
0.0
 10
3.124701605902775
 20
9.106076388888887
 30
0.0
 10
2.231043836805555
 20
10.02178276909722
 30
0.0
 10
1.759754774305553
 20
10.498583984375
 30
0.0
 10
1.163753255208332
 20
10.7376736111111
 30
0.0
 10
0.443039279513889
 20
10.7376736111111
 30
0.0
 10
0.443039279513889
 20
10.7376736111111
 30
0.0
 10
-3.968749999999998
 20
10.7376736111111
 30
0.0
 10
-3.968749999999998
 20
10.7376736111111
 30
0.0
 10
-3.968749999999998
 20
10.7376736111111
 30
0.0
 10
-3.968749999999998
 20
-10.7376736111111
 30
0.0
 10
-3.968749999999998
 20
-10.7376736111111
 30
0.0
  0
ENDBLK
  5
2C2
330
2BE
100
AcDbEntity
  8
0
100
AcDbBlockEnd
  0
BLOCK
  5
2C6
330
2C3
100
AcDbEntity
  8
0
 62
     7
100
AcDbBlockBegin
  2
AI9-BLK3
 70
     0
 10
0.0
 20
0.0
 30
0.0
  3
AI9-BLK3
  1

  0
LWPOLYLINE
  5
2C4
330
2C3
100
AcDbEntity
  8
LAYER_1
 62
     7
100
AcDbPolyline
 90
        4
 70
     1
 43
0.0
 10
-0.6613722059461809
 20
10.7376736111111
 10
0.6613722059461809
 20
10.7376736111111
 10
0.6613722059461809
 20
-10.7376736111111
 10
-0.6613722059461809
 20
-10.7376736111111
  0
HATCH
  5
2C5
330
2C3
100
AcDbEntity
  8
LAYER_1
 62
     7
100
AcDbHatch
 10
0.0
 20
0.0
 30
0.0
210
0.0
220
0.0
230
1.0
  2
SOLID
 70
     1
 71
     0
 91
        1
 92
        3
 72
     0
 73
     1
 93
        4
 10
-0.6613722059461809
 20
10.7376736111111
 10
0.6613722059461809
 20
10.7376736111111
 10
0.6613722059461809
 20
-10.7376736111111
 10
-0.6613722059461809
 20
-10.7376736111111
 97
        0
 75
     2
 76
     1
 98
        1
 10
0.0
 20
0.0
  0
ENDBLK
  5
2C7
330
2C3
100
AcDbEntity
  8
0
100
AcDbBlockEnd
  0
BLOCK
  5
2CB
330
2C8
100
AcDbEntity
  8
0
 62
     7
100
AcDbBlockBegin
  2
AI9-BLK2
 70
     0
 10
0.0
 20
0.0
 30
0.0
  3
AI9-BLK2
  1

  0
LWPOLYLINE
  5
2C9
330
2C8
100
AcDbEntity
  8
LAYER_1
 62
     7
100
AcDbPolyline
 90
        7
 70
     1
 43
0.0
 10
-2.785704210069443
 20
10.7376736111111
 10
0.0
 20
-7.550960286458332
 10
2.771234809027776
 20
10.7376736111111
 10
4.233333333333331
 20
10.7376736111111
 10
0.6910861545138888
 20
-10.7376736111111
 10
-0.7055555555555558
 20
-10.7376736111111
 10
-4.233333333333331
 20
10.7376736111111
  0
HATCH
  5
2CA
330
2C8
100
AcDbEntity
  8
LAYER_1
 62
     7
100
AcDbHatch
 10
0.0
 20
0.0
 30
0.0
210
0.0
220
0.0
230
1.0
  2
SOLID
 70
     1
 71
     0
 91
        1
 92
        3
 72
     0
 73
     1
 93
        7
 10
-2.785704210069443
 20
10.7376736111111
 10
0.0
 20
-7.550960286458332
 10
2.771234809027776
 20
10.7376736111111
 10
4.233333333333331
 20
10.7376736111111
 10
0.6910861545138888
 20
-10.7376736111111
 10
-0.7055555555555558
 20
-10.7376736111111
 10
-4.233333333333331
 20
10.7376736111111
 97
        0
 75
     2
 76
     1
 98
        1
 10
0.0
 20
0.0
  0
ENDBLK
  5
2CC
330
2C8
100
AcDbEntity
  8
0
100
AcDbBlockEnd
  0
BLOCK
  5
2D0
330
2CD
100
AcDbEntity
  8
0
 62
     7
100
AcDbBlockBegin
  2
AI9-BLK1
 70
     0
 10
0.0
 20
0.0
 30
0.0
  3
AI9-BLK1
  1

  0
LWPOLYLINE
  5
2CE
330
2CD
100
AcDbEntity
  8
LAYER_1
 62
     7
100
AcDbPolyline
 90
       12
 70
     1
 43
0.0
 10
-3.571874999999999
 20
10.7376736111111
 10
3.483680555555555
 20
10.7376736111111
 10
3.483680555555555
 20
8.091840277777777
 10
-2.248958333333332
 20
8.091840277777777
 10
-2.248958333333332
 20
1.565451388888888
 10
3.042708333333333
 20
1.565451388888888
 10
3.042708333333333
 20
-0.9039930555555551
 10
-2.248958333333332
 20
-0.9039930555555551
 10
-2.248958333333332
 20
-8.180034722222217
 10
3.571874999999999
 20
-8.180034722222217
 10
3.571874999999999
 20
-10.7376736111111
 10
-3.571874999999999
 20
-10.7376736111111
  0
HATCH
  5
2CF
330
2CD
100
AcDbEntity
  8
LAYER_1
 62
     7
100
AcDbHatch
 10
0.0
 20
0.0
 30
0.0
210
0.0
220
0.0
230
1.0
  2
SOLID
 70
     1
 71
     0
 91
        1
 92
        3
 72
     0
 73
     1
 93
       12
 10
-3.571874999999999
 20
10.7376736111111
 10
3.483680555555555
 20
10.7376736111111
 10
3.483680555555555
 20
8.091840277777777
 10
-2.248958333333332
 20
8.091840277777777
 10
-2.248958333333332
 20
1.565451388888888
 10
3.042708333333333
 20
1.565451388888888
 10
3.042708333333333
 20
-0.9039930555555551
 10
-2.248958333333332
 20
-0.9039930555555551
 10
-2.248958333333332
 20
-8.180034722222217
 10
3.571874999999999
 20
-8.180034722222217
 10
3.571874999999999
 20
-10.7376736111111
 10
-3.571874999999999
 20
-10.7376736111111
 97
        0
 75
     2
 76
     1
 98
        1
 10
0.0
 20
0.0
  0
ENDBLK
  5
2D1
330
2CD
100
AcDbEntity
  8
0
100
AcDbBlockEnd
  0
BLOCK
  5
2F5
330
2D2
100
AcDbEntity
  8
0
100
AcDbBlockBegin
  2
HD_LLC_logo_OT5
 70
     0
 10
0.0
 20
0.0
 30
0.0
  3
HD_LLC_logo_OT5
  1

  0
SPLINE
  5
2D3
102
{ACAD_REACTORS
330
2F3
102
}
330
2D2
100
AcDbEntity
  8
LAYER_1
 62
     7
100
AcDbSpline
210
0.0
220
0.0
230
1.0
 70
    11
 71
     3
 72
   113
 73
   109
 74
     0
 42
0.0000000001
 43
0.0000000001
 40
0.0
 40
0.0
 40
0.0
 40
0.0
 40
1.0
 40
1.0
 40
1.0
 40
2.0
 40
2.0
 40
2.0
 40
3.0
 40
3.0
 40
3.0
 40
4.0
 40
4.0
 40
4.0
 40
5.0
 40
5.0
 40
5.0
 40
6.0
 40
6.0
 40
6.0
 40
7.0
 40
7.0
 40
7.0
 40
8.0
 40
8.0
 40
8.0
 40
9.0
 40
9.0
 40
9.0
 40
10.0
 40
10.0
 40
10.0
 40
11.0
 40
11.0
 40
11.0
 40
12.0
 40
12.0
 40
12.0
 40
13.0
 40
13.0
 40
13.0
 40
14.0
 40
14.0
 40
14.0
 40
15.0
 40
15.0
 40
15.0
 40
16.0
 40
16.0
 40
16.0
 40
17.0
 40
17.0
 40
17.0
 40
18.0
 40
18.0
 40
18.0
 40
19.0
 40
19.0
 40
19.0
 40
20.0
 40
20.0
 40
20.0
 40
21.0
 40
21.0
 40
21.0
 40
22.0
 40
22.0
 40
22.0
 40
23.0
 40
23.0
 40
23.0
 40
24.0
 40
24.0
 40
24.0
 40
25.0
 40
25.0
 40
25.0
 40
26.0
 40
26.0
 40
26.0
 40
27.0
 40
27.0
 40
27.0
 40
28.0
 40
28.0
 40
28.0
 40
29.0
 40
29.0
 40
29.0
 40
30.0
 40
30.0
 40
30.0
 40
31.0
 40
31.0
 40
31.0
 40
32.0
 40
32.0
 40
32.0
 40
33.0
 40
33.0
 40
33.0
 40
34.0
 40
34.0
 40
34.0
 40
35.0
 40
35.0
 40
35.0
 40
36.0
 40
36.0
 40
36.0
 40
36.0
 10
193.3039632161458
 20
186.1548733181423
 30
0.0
 10
193.3039632161458
 20
186.1860514322916
 30
0.0
 10
193.3039632161458
 20
219.6932223849826
 30
0.0
 10
193.3039632161458
 20
219.6932223849826
 30
0.0
 10
193.3039632161458
 20
219.6932223849826
 30
0.0
 10
193.2974175347219
 20
219.7488606770833
 30
0.0
 10
193.2974175347219
 20
219.7488606770833
 30
0.0
 10
191.5293945312499
 20
235.455740017361
 30
0.0
 10
175.1458984374999
 20
235.2467949761284
 30
0.0
 10
174.9808783637151
 20
235.2428331163193
 30
0.0
 10
174.9808783637151
 20
235.2428331163193
 30
0.0
 10
125.8827555338541
 20
235.2430053710937
 30
0.0
 10
125.8827555338541
 20
235.2430053710937
 30
0.0
 10
125.8827555338541
 20
235.2430053710937
 30
0.0
 10
125.8827555338541
 20
255.5278998480901
 30
0.0
 10
125.8827555338541
 20
255.5278998480901
 30
0.0
 10
125.8827555338541
 20
255.5278998480901
 30
0.0
 10
84.5626247829861
 20
255.5278998480901
 30
0.0
 10
84.5626247829861
 20
255.5278998480901
 30
0.0
 10
84.5626247829861
 20
255.5278998480901
 30
0.0
 10
84.55711263020829
 20
233.7919311523436
 30
0.0
 10
84.55711263020829
 20
233.7919311523436
 30
0.0
 10
84.55711263020829
 20
233.7919311523436
 30
0.0
 10
64.42052951388888
 20
233.7919311523436
 30
0.0
 10
64.42052951388888
 20
233.7919311523436
 30
0.0
 10
64.42052951388888
 20
233.7919311523436
 30
0.0
 10
64.41501736111111
 20
255.5278998480901
 30
0.0
 10
64.41501736111111
 20
255.5278998480901
 30
0.0
 10
64.41501736111111
 20
255.5278998480901
 30
0.0
 10
23.91757541232637
 20
255.5278998480901
 30
0.0
 10
23.91757541232637
 20
255.5278998480901
 30
0.0
 10
23.91757541232637
 20
255.5278998480901
 30
0.0
 10
23.91757541232637
 20
233.2393378363715
 30
0.0
 10
23.91757541232637
 20
233.2393378363715
 30
0.0
 10
23.91757541232637
 20
233.2393378363715
 30
0.0
 10
43.65624999999999
 20
233.2393378363715
 30
0.0
 10
43.65624999999999
 20
233.2393378363715
 30
0.0
 10
43.65624999999999
 20
233.2393378363715
 30
0.0
 10
43.65624999999999
 20
211.5188720703125
 30
0.0
 10
43.65624999999999
 20
211.5188720703125
 30
0.0
 10
43.65624999999999
 20
211.5188720703125
 30
0.0
 10
23.91757541232637
 20
211.5188720703125
 30
0.0
 10
23.91757541232637
 20
211.5188720703125
 30
0.0
 10
23.91757541232637
 20
211.5188720703125
 30
0.0
 10
23.91757541232637
 20
189.2303100585936
 30
0.0
 10
23.91757541232637
 20
189.2303100585936
 30
0.0
 10
23.91757541232637
 20
189.2303100585936
 30
0.0
 10
64.41501736111111
 20
189.2303100585936
 30
0.0
 10
64.41501736111111
 20
189.2303100585936
 30
0.0
 10
64.41501736111111
 20
189.2303100585936
 30
0.0
 10
64.42052951388888
 20
211.069976128472
 30
0.0
 10
64.42052951388888
 20
211.069976128472
 30
0.0
 10
64.42052951388888
 20
211.069976128472
 30
0.0
 10
84.55711263020829
 20
211.069976128472
 30
0.0
 10
84.55711263020829
 20
211.069976128472
 30
0.0
 10
84.55711263020829
 20
211.069976128472
 30
0.0
 10
84.5626247829861
 20
189.2303100585936
 30
0.0
 10
84.5626247829861
 20
189.2303100585936
 30
0.0
 10
84.5626247829861
 20
189.2303100585936
 30
0.0
 10
125.8827555338541
 20
189.2303100585936
 30
0.0
 10
125.8827555338541
 20
189.2303100585936
 30
0.0
 10
125.8827555338541
 20
189.2303100585936
 30
0.0
 10
125.8827555338541
 20
211.5188720703125
 30
0.0
 10
125.8827555338541
 20
211.5188720703125
 30
0.0
 10
125.8827555338541
 20
211.5188720703125
 30
0.0
 10
105.3213921440971
 20
211.5188720703125
 30
0.0
 10
105.3213921440971
 20
211.5188720703125
 30
0.0
 10
105.3213921440971
 20
211.5188720703125
 30
0.0
 10
105.3213921440971
 20
233.2393378363715
 30
0.0
 10
105.3213921440971
 20
233.2393378363715
 30
0.0
 10
105.3213921440971
 20
233.2393378363715
 30
0.0
 10
175.0046495225693
 20
233.243127441406
 30
0.0
 10
175.0046495225693
 20
233.243127441406
 30
0.0
 10
175.6268337673611
 20
233.2560465494791
 30
0.0
 10
189.7165852864583
 20
233.3962619357638
 30
0.0
 10
191.3037407769094
 20
219.5690266927083
 30
0.0
 10
191.3037407769094
 20
219.4332899305555
 30
0.0
 10
191.3037407769094
 20
186.1142211914062
 30
0.0
 10
191.3037407769094
 20
186.1142211914062
 30
0.0
 10
191.3037407769094
 20
186.1142211914062
 30
0.0
 10
191.3051188151039
 20
186.0880384657115
 30
0.0
 10
191.3051188151039
 20
186.0880384657115
 30
0.0
 10
191.3054633246526
 20
186.0787367078991
 30
0.0
 10
191.3109754774304
 20
185.9566080729166
 30
0.0
 10
191.3109754774304
 20
185.7399115668401
 30
0.0
 10
191.3109754774304
 20
184.2090833875865
 30
0.0
 10
191.0488037109374
 20
177.9643310546874
 30
0.0
 10
186.9866916232638
 20
173.5652886284722
 30
0.0
 10
184.2540418836804
 20
170.6064683702255
 30
0.0
 10
180.3224989149304
 20
169.0308539496526
 30
0.0
 10
175.300927734375
 20
168.8825425889756
 30
0.0
 10
175.300927734375
 20
168.8825425889756
 30
0.0
 10
107.0094889322916
 20
168.8828870985243
 30
0.0
 10
107.0094889322916
 20
168.8828870985243
 30
0.0
 10
107.0094889322916
 20
168.8828870985243
 30
0.0
 10
107.0094889322916
 20
166.8830091688368
 30
0.0
 10
107.0094889322916
 20
166.8830091688368
 30
0.0
 10
107.0094889322916
 20
166.8830091688368
 30
0.0
 10
175.3305555555555
 20
166.8830091688368
 30
0.0
 10
175.3305555555555
 20
166.8830091688368
 30
0.0
 10
180.9467502170138
 20
167.0485460069444
 30
0.0
 10
185.3571614583333
 20
168.8448187934026
 30
0.0
 10
188.4687717013888
 20
172.2223904079861
 30
0.0
 10
192.9649658203124
 20
177.1034016927083
 30
0.0
 10
193.3136094835069
 20
183.7202243381076
 30
0.0
 10
193.3136094835069
 20
185.6520616319443
 30
0.0
 10
193.3136094835069
 20
185.9247409396701
 30
0.0
 10
193.3070638020833
 20
186.0868326822916
 30
0.0
 10
193.3039632161458
 20
186.1548733181423
 30
0.0
  0
INSERT
  5
2D4
102
{ACAD_REACTORS
330
2F4
102
}
330
2D2
100
AcDbEntity
  8
LAYER_1
 62
     7
100
AcDbBlockReference
  2
AI9-BLK14
 10
159.5625257703993
 20
200.5118781195744
 30
0.0
  0
INSERT
  5
2D5
330
2D2
100
AcDbEntity
  8
LAYER_1
 62
     7
100
AcDbBlockReference
  2
AI9-BLK13
 10
27.69615614149305
 20
179.2145562065971
 30
0.0
 42
0.9200000000000001
  0
INSERT
  5
2D6
102
{ACAD_REACTORS
330
2E1
102
}
330
2D2
100
AcDbEntity
  8
LAYER_1
 62
     7
100
AcDbBlockReference
  2
AI9-BLK11
 10
44.76591525607638
 20
179.2145562065971
 30
0.0
 42
0.9200000000000001
  0
INSERT
  5
2D7
102
{ACAD_REACTORS
330
2EF
102
}
330
2D2
100
AcDbEntity
  8
LAYER_1
 62
     7
100
AcDbBlockReference
  2
AI9-BLK10
 10
54.04665798611111
 20
179.2145562065971
 30
0.0
 42
0.9200000000000001
  0
INSERT
  5
2D8
102
{ACAD_REACTORS
330
2EE
102
}
330
2D2
100
AcDbEntity
  8
LAYER_1
 62
     7
100
AcDbBlockReference
  2
AI9-BLK9
 10
62.79013807508679
 20
179.2145562065971
 30
0.0
 42
0.9
  0
INSERT
  5
2D9
330
2D2
100
AcDbEntity
  8
LAYER_1
 62
     7
100
AcDbBlockReference
  2
AI9-BLK8
 10
71.03046196831595
 20
179.2145562065971
 30
0.0
 42
0.9200000000000001
  0
INSERT
  5
2DA
330
2D2
100
AcDbEntity
  8
LAYER_1
 62
     7
100
AcDbBlockReference
  2
AI9-BLK7
 10
76.93793945312498
 20
179.2145562065971
 30
0.0
 42
0.9200000000000001
  0
INSERT
  5
2DB
102
{ACAD_REACTORS
330
2E2
102
}
330
2D2
100
AcDbEntity
  8
LAYER_1
 62
     7
100
AcDbBlockReference
  2
AI9-BLK6
 10
82.55602891710069
 20
179.2145562065971
 30
0.0
 42
0.9
  0
INSERT
  5
2DC
102
{ACAD_REACTORS
330
2F0
102
}
330
2D2
100
AcDbEntity
  8
LAYER_1
 62
     7
100
AcDbBlockReference
  2
AI9-BLK5
 10
94.32430284288193
 20
179.2145562065971
 30
0.0
 42
0.9200000000000001
  0
INSERT
  5
2DD
102
{ACAD_REACTORS
330
2F1
102
}
330
2D2
100
AcDbEntity
  8
LAYER_1
 62
     7
100
AcDbBlockReference
  2
AI9-BLK4
 10
103.2081705729166
 20
179.2145562065971
 30
0.0
 42
0.9200000000000001
  0
INSERT
  5
2DE
330
2D2
100
AcDbEntity
  8
LAYER_1
 62
     7
100
AcDbBlockReference
  2
AI9-BLK3
 10
108.850978597005
 20
179.2145562065971
 30
0.0
 42
0.9200000000000001
  0
INSERT
  5
2DF
330
2D2
100
AcDbEntity
  8
LAYER_1
 62
     7
100
AcDbBlockReference
  2
AI9-BLK2
 10
114.2045708550346
 20
179.2145562065971
 30
0.0
 42
0.9200000000000001
  0
INSERT
  5
2E0
330
2D2
100
AcDbEntity
  8
LAYER_1
 62
     7
100
AcDbBlockReference
  2
AI9-BLK1
 10
122.4125108506944
 20
179.2145562065971
 30
0.0
 42
0.9200000000000001
  0
HATCH
  5
2E1
330
2D2
100
AcDbEntity
  8
0
  6
Continuous
100
AcDbHatch
 10
0.0
 20
0.0
 30
0.0
210
0.0
220
0.0
230
1.0
  2
SOLID
 70
     1
 71
     1
 91
        2
 92
       16
 93
        1
 72
     4
 94
        3
 73
     0
 74
     0
 95
       26
 96
       22
 40
0.0
 40
0.0
 40
0.0
 40
0.0
 40
1.0
 40
1.0
 40
1.0
 40
2.0
 40
2.0
 40
2.0
 40
3.0
 40
3.0
 40
3.0
 40
4.0
 40
4.0
 40
4.0
 40
5.0
 40
5.0
 40
5.0
 40
6.0
 40
6.0
 40
6.0
 40
7.0
 40
7.0
 40
7.0
 40
7.0
 10
42.12008192274304
 20
180.0462298177081
 10
42.12008192274304
 20
180.0462298177081
 10
42.12008192274304
 20
186.7401881510414
 10
42.12008192274304
 20
186.7401881510414
 10
42.12008192274304
 20
186.7401881510414
 10
45.23100314670138
 20
186.7401881510414
 10
45.23100314670138
 20
186.7401881510414
 10
45.66853027343749
 20
186.7401881510414
 10
46.01579589843749
 20
186.6064357638887
 10
46.27280002170138
 20
186.3401987847219
 10
46.76751573350694
 20
185.8330807291664
 10
47.01487358940972
 20
184.8822343749997
 10
47.01487358940972
 20
183.4863919270832
 10
47.01487358940972
 20
182.188169704861
 10
46.83848470052082
 20
181.2905707465276
 10
46.48639594184028
 20
180.7929611545137
 10
46.13430718315971
 20
180.2947176649304
 10
45.65888400607638
 20
180.0462298177081
 10
45.06012641059028
 20
180.0462298177081
 10
45.06012641059028
 20
180.0462298177081
 10
42.12008192274304
 20
180.0462298177081
 10
42.12008192274304
 20
180.0462298177081
 97
        1
330
2D6
 92
        1
 93
        1
 72
     4
 94
        3
 73
     0
 74
     0
 95
       68
 96
       64
 40
0.0
 40
0.0
 40
0.0
 40
0.0
 40
1.0
 40
1.0
 40
1.0
 40
2.0
 40
2.0
 40
2.0
 40
3.0
 40
3.0
 40
3.0
 40
4.0
 40
4.0
 40
4.0
 40
5.0
 40
5.0
 40
5.0
 40
6.0
 40
6.0
 40
6.0
 40
7.0
 40
7.0
 40
7.0
 40
8.0
 40
8.0
 40
8.0
 40
9.0
 40
9.0
 40
9.0
 40
10.0
 40
10.0
 40
10.0
 40
11.0
 40
11.0
 40
11.0
 40
12.0
 40
12.0
 40
12.0
 40
13.0
 40
13.0
 40
13.0
 40
14.0
 40
14.0
 40
14.0
 40
15.0
 40
15.0
 40
15.0
 40
16.0
 40
16.0
 40
16.0
 40
17.0
 40
17.0
 40
17.0
 40
18.0
 40
18.0
 40
18.0
 40
19.0
 40
19.0
 40
19.0
 40
20.0
 40
20.0
 40
20.0
 40
21.0
 40
21.0
 40
21.0
 40
21.0
 10
40.79716525607638
 20
169.3358964843748
 10
40.79716525607638
 20
169.3358964843748
 10
42.12008192274304
 20
169.3358964843748
 10
42.12008192274304
 20
169.3358964843748
 10
42.12008192274304
 20
169.3358964843748
 10
42.12008192274304
 20
177.8149103732637
 10
42.12008192274304
 20
177.8149103732637
 10
42.12008192274304
 20
177.8149103732637
 10
45.00500488281249
 20
177.8149103732637
 10
45.00500488281249
 20
177.8149103732637
 10
45.52590332031249
 20
177.8149103732637
 10
45.90968695746528
 20
177.6938359374998
 10
46.15635579427083
 20
177.451687065972
 10
46.58216959635415
 20
177.0117621527776
 10
46.80954589843749
 20
176.1458580729164
 10
46.83848470052082
 20
174.8539748263887
 10
46.83848470052082
 20
174.8539748263887
 10
46.92667914496527
 20
171.5564396701386
 10
46.92667914496527
 20
171.5564396701386
 10
46.94597167968749
 20
170.7843524305554
 10
46.96870930989581
 20
170.2639225260415
 10
46.99351399739582
 20
169.9951499565971
 10
47.01831868489581
 20
169.7257434895831
 10
47.0548366970486
 20
169.5057810329859
 10
47.10444607204859
 20
169.3358964843748
 10
47.10444607204859
 20
169.3358964843748
 10
48.73466525607638
 20
169.3358964843748
 10
48.73466525607638
 20
169.3358964843748
 10
48.73466525607638
 20
169.3358964843748
 10
48.73466525607638
 20
169.7821603732636
 10
48.73466525607638
 20
169.7821603732636
 10
48.53278266059028
 20
169.9609194878471
 10
48.39153374565971
 20
170.3628105468748
 10
48.31160753038194
 20
170.9878335503471
 10
48.26062011718749
 20
171.3542263454858
 10
48.22548014322915
 20
171.9120562065971
 10
48.20549858940971
 20
172.6625909288193
 10
48.20549858940971
 20
172.6625909288193
 10
48.16140136718749
 20
175.3205234374999
 10
48.16140136718749
 20
175.3205234374999
 10
48.14141981336803
 20
176.4716814236109
 10
48.03462185329859
 20
177.3033550347219
 10
47.84169650607638
 20
177.8142764756942
 10
47.64808213975693
 20
178.3251979166665
 10
47.35800509982638
 20
178.7372313368054
 10
46.97077636718749
 20
179.0516445312498
 10
47.4021023220486
 20
179.5086846788193
 10
47.73765462239582
 20
180.1134229600693
 10
47.97743326822915
 20
180.8664932725692
 10
48.21721191406249
 20
181.6189296874999
 10
48.33779025607638
 20
182.5868912760414
 10
48.33779025607638
 20
183.7697441406248
 10
48.33779025607638
 20
186.0371957465275
 10
47.89061686197914
 20
187.5921464843749
 10
46.99695909288194
 20
188.4345963541665
 10
46.52567003038194
 20
188.8732534722221
 10
45.92966851128472
 20
189.0932159288193
 10
45.20895453559027
 20
189.0932159288193
 10
45.20895453559027
 20
189.0932159288193
 10
40.79716525607638
 20
189.0932159288193
 10
40.79716525607638
 20
189.0932159288193
 10
40.79716525607638
 20
189.0932159288193
 10
40.79716525607638
 20
169.3358964843748
 10
40.79716525607638
 20
169.3358964843748
 97
        0
 75
     0
 76
     1
 98
        0
  0
HATCH
  5
2E2
330
2D2
100
AcDbEntity
  8
0
  6
Continuous
100
AcDbHatch
 10
0.0
 20
0.0
 30
0.0
210
0.0
220
0.0
230
1.0
  2
SOLID
 70
     1
 71
     1
 91
        1
 92
        1
 93
        1
 72
     4
 94
        3
 73
     0
 74
     0
 95
       59
 96
       55
 40
0.0
 40
0.0
 40
0.0
 40
0.0
 40
1.0
 40
1.0
 40
1.0
 40
2.0
 40
2.0
 40
2.0
 40
3.0
 40
3.0
 40
3.0
 40
4.0
 40
4.0
 40
4.0
 40
5.0
 40
5.0
 40
5.0
 40
6.0
 40
6.0
 40
6.0
 40
7.0
 40
7.0
 40
7.0
 40
8.0
 40
8.0
 40
8.0
 40
9.0
 40
9.0
 40
9.0
 40
10.0
 40
10.0
 40
10.0
 40
11.0
 40
11.0
 40
11.0
 40
12.0
 40
12.0
 40
12.0
 40
13.0
 40
13.0
 40
13.0
 40
14.0
 40
14.0
 40
14.0
 40
15.0
 40
15.0
 40
15.0
 40
16.0
 40
16.0
 40
16.0
 40
17.0
 40
17.0
 40
17.0
 40
18.0
 40
18.0
 40
18.0
 40
18.0
 10
85.61871880425345
 20
187.4658355034721
 10
86.29120144314233
 20
186.1797124565971
 10
86.66671685112847
 20
184.7193364800346
 10
86.7452650282118
 20
183.0840874565969
 10
86.7452650282118
 20
183.0840874565969
 10
85.42234836154511
 20
183.0840874565969
 10
85.42234836154511
 20
183.0840874565969
 10
85.27696533203123
 20
184.315640190972
 10
84.99171142578125
 20
185.2917046440971
 10
84.56589762369791
 20
186.0122808159719
 10
84.14008382161458
 20
186.7322368706595
 10
83.53994818793401
 20
187.092524956597
 10
82.76617974175344
 20
187.092524956597
 10
81.81740044487847
 20
187.092524956597
 10
81.05258924696178
 20
186.4240386284721
 10
80.47243516710068
 20
185.0883062065971
 10
79.89159206814234
 20
183.7525737847219
 10
79.6015150282118
 20
181.7049468315971
 10
79.6015150282118
 20
178.9454253472221
 10
79.6015150282118
 20
176.684478081597
 10
79.86265326605901
 20
174.8514116753471
 10
80.38561876085069
 20
173.4456060112846
 10
80.90789523654512
 20
172.0391802300345
 10
81.69199896918403
 20
171.3365874565971
 10
82.73724093967013
 20
171.3365874565971
 10
83.69497748480901
 20
171.3365874565971
 10
84.42120361328125
 20
172.0794878472221
 10
84.91523030598958
 20
173.566528862847
 10
85.18601481119791
 20
174.349116753472
 10
85.38445231119791
 20
175.3785112847221
 10
85.51054280598959
 20
176.6547124565971
 10
85.51054280598959
 20
176.6547124565971
 10
86.83345947265625
 20
176.6547124565971
 10
86.83345947265625
 20
176.6547124565971
 10
86.72597249348957
 20
174.6157671440971
 10
86.35114610460069
 20
172.9061040581596
 10
85.70760226779514
 20
171.526343315972
 10
84.93727891710069
 20
169.8650493706596
 10
83.90375027126735
 20
169.0347124565971
 10
82.60701633029514
 20
169.0347124565971
 10
81.48598225911458
 20
169.0347124565971
 10
80.54547119140625
 20
169.7143608940971
 10
79.78479410807292
 20
171.0742778862845
 10
78.78020426432292
 20
172.8726177300345
 10
78.27859836154512
 20
175.6495024956596
 10
78.27859836154512
 20
179.4049321831595
 10
78.27859836154512
 20
182.2562310112846
 10
78.65342475043402
 20
184.594692925347
 10
79.40445556640622
 20
186.4196978081596
 10
80.22301025390625
 20
188.4028325737846
 10
81.34955647786458
 20
189.3943999565971
 10
82.78271620008679
 20
189.3943999565971
 10
84.00090196397568
 20
189.3943999565971
 10
84.94623616536458
 20
188.7513384331595
 10
85.61871880425345
 20
187.4658355034721
 97
        1
330
2DB
 75
     0
 76
     1
 98
        1
 10
0.0
 20
0.0
  0
LINE
  5
2E3
102
{ACAD_REACTORS
330
2F2
102
}
330
2D2
100
AcDbEntity
  8
LAYER_1
 62
     7
100
AcDbLine
 10
34.65766059027778
 20
177.4497853732638
 30
0.0
 11
36.19830729166666
 21
186.1658769531249
 31
0.0
  0
LINE
  5
2E4
102
{ACAD_REACTORS
330
2F2
102
}
330
2D2
100
AcDbEntity
  8
LAYER_1
 62
     7
100
AcDbLine
 10
36.19830729166666
 20
186.1658769531249
 30
0.0
 11
37.67556423611111
 21
177.4497853732638
 31
0.0
  0
LINE
  5
2E5
102
{ACAD_REACTORS
330
2F2
102
}
330
2D2
100
AcDbEntity
  8
LAYER_1
 62
     7
100
AcDbLine
 10
37.67556423611111
 20
177.4497853732638
 30
0.0
 11
34.65766059027778
 21
177.4497853732638
 31
0.0
  0
LINE
  5
2E6
102
{ACAD_REACTORS
330
2F2
102
}
330
2D2
100
AcDbEntity
  8
LAYER_1
 62
     7
100
AcDbLine
 10
31.83957248263888
 20
169.3358964843748
 30
0.0
 11
33.22450086805555
 21
169.3358964843748
 31
0.0
  0
LINE
  5
2E7
102
{ACAD_REACTORS
330
2F2
102
}
330
2D2
100
AcDbEntity
  8
LAYER_1
 62
     7
100
AcDbLine
 10
33.22450086805555
 20
169.3358964843748
 30
0.0
 11
34.27043185763887
 21
175.2590353732638
 31
0.0
  0
LINE
  5
2E8
102
{ACAD_REACTORS
330
2F2
102
}
330
2D2
100
AcDbEntity
  8
LAYER_1
 62
     7
100
AcDbLine
 10
34.27043185763887
 20
175.2590353732638
 30
0.0
 11
38.04694552951389
 21
175.2590353732638
 31
0.0
  0
LINE
  5
2E9
102
{ACAD_REACTORS
330
2F2
102
}
330
2D2
100
AcDbEntity
  8
LAYER_1
 62
     7
100
AcDbLine
 10
38.04694552951389
 20
175.2590353732638
 30
0.0
 11
39.05015733506942
 21
169.3358964843748
 31
0.0
  0
LINE
  5
2EA
102
{ACAD_REACTORS
330
2F2
102
}
330
2D2
100
AcDbEntity
  8
LAYER_1
 62
     7
100
AcDbLine
 10
39.05015733506942
 20
169.3358964843748
 30
0.0
 11
40.43508572048611
 21
169.3358964843748
 31
0.0
  0
LINE
  5
2EB
102
{ACAD_REACTORS
330
2F2
102
}
330
2D2
100
AcDbEntity
  8
LAYER_1
 62
     7
100
AcDbLine
 10
40.43508572048611
 20
169.3358964843748
 30
0.0
 11
36.952783203125
 21
189.0932159288193
 31
0.0
  0
LINE
  5
2EC
102
{ACAD_REACTORS
330
2F2
102
}
330
2D2
100
AcDbEntity
  8
LAYER_1
 62
     7
100
AcDbLine
 10
36.952783203125
 20
189.0932159288193
 30
0.0
 11
35.47828233506943
 21
189.0932159288193
 31
0.0
  0
LINE
  5
2ED
102
{ACAD_REACTORS
330
2F2
102
}
330
2D2
100
AcDbEntity
  8
LAYER_1
 62
     7
100
AcDbLine
 10
35.47828233506943
 20
189.0932159288193
 30
0.0
 11
31.83957248263888
 21
169.3358964843748
 31
0.0
  0
HATCH
  5
2EE
330
2D2
100
AcDbEntity
  8
0
  6
Continuous
100
AcDbHatch
 10
0.0
 20
0.0
 30
0.0
210
0.0
220
0.0
230
1.0
  2
SOLID
 70
     1
 71
     1
 91
        2
 92
       16
 93
        1
 72
     4
 94
        3
 73
     0
 74
     0
 95
       29
 96
       25
 40
0.0
 40
0.0
 40
0.0
 40
0.0
 40
1.0
 40
1.0
 40
1.0
 40
2.0
 40
2.0
 40
2.0
 40
3.0
 40
3.0
 40
3.0
 40
4.0
 40
4.0
 40
4.0
 40
5.0
 40
5.0
 40
5.0
 40
6.0
 40
6.0
 40
6.0
 40
7.0
 40
7.0
 40
7.0
 40
8.0
 40
8.0
 40
8.0
 40
8.0
 10
62.85697292751734
 20
171.3365874565971
 10
61.88338894314235
 20
171.3365874565971
 10
61.18058946397566
 20
172.0714263237844
 10
60.74857449001735
 20
173.5411040581595
 10
60.31587049696178
 20
175.0107817925344
 10
60.10020751953123
 20
176.8165630425344
 10
60.10020751953123
 20
178.9578276909721
 10
60.10020751953123
 20
181.6342534722221
 10
60.35101047092013
 20
183.6589360894095
 10
60.85261637369789
 20
185.032495659722
 10
61.35422227647566
 20
186.4054351128471
 10
62.00741238064235
 20
187.092524956597
 10
62.81218668619789
 20
187.092524956597
 10
63.6369425455729
 20
187.092524956597
 10
64.28806559244789
 20
186.3992339409721
 10
64.76486680772568
 20
185.0126519097221
 10
65.24166802300347
 20
183.6260698784719
 10
65.48006863064235
 20
181.7961040581595
 10
65.48006863064235
 20
179.5239946831596
 10
65.48006863064235
 20
177.3734282769096
 10
65.27336290147568
 20
175.471528862847
 10
64.86132948133678
 20
173.8176763237846
 10
64.4492960611979
 20
172.1632036675345
 10
63.78094753689235
 20
171.3365874565971
 10
62.85697292751734
 20
171.3365874565971
 97
        1
330
2D8
 92
        1
 93
        1
 72
     4
 94
        3
 73
     0
 74
     0
 95
       29
 96
       25
 40
0.0
 40
0.0
 40
0.0
 40
0.0
 40
1.0
 40
1.0
 40
1.0
 40
2.0
 40
2.0
 40
2.0
 40
3.0
 40
3.0
 40
3.0
 40
4.0
 40
4.0
 40
4.0
 40
5.0
 40
5.0
 40
5.0
 40
6.0
 40
6.0
 40
6.0
 40
7.0
 40
7.0
 40
7.0
 40
8.0
 40
8.0
 40
8.0
 40
8.0
 10
62.76119927300346
 20
189.4340874565971
 10
61.47273356119789
 20
189.4340874565971
 10
60.50121663411457
 20
188.239741753472
 10
59.84733751085068
 20
185.8516704644094
 10
59.3395304361979
 20
183.9900786675345
 10
59.08597140842012
 20
181.7514556206596
 10
59.08597140842012
 20
179.1351812065971
 10
59.08597140842012
 20
176.2379937065971
 10
59.38362765842011
 20
173.8412407769095
 10
59.97894015842011
 20
171.9449224175346
 10
60.64246554904511
 20
169.9779106987846
 10
61.56023898654511
 20
168.9950249565971
 10
62.7315714518229
 20
168.9950249565971
 10
63.9904093424479
 20
168.9950249565971
 10
64.95641411675345
 20
170.118677300347
 10
65.63027479383679
 20
172.3659819878471
 10
66.20629475911457
 20
174.279663628472
 10
66.49430474175345
 20
176.6813774956594
 10
66.49430474175345
 20
179.5698833550345
 10
66.49430474175345
 20
182.2388677300344
 10
66.24005669487845
 20
184.4291216362844
 10
65.73293863932289
 20
186.141265190972
 10
65.08870578342011
 20
188.336480034722
 10
64.09789632161457
 20
189.4340874565971
 10
62.76119927300346
 20
189.4340874565971
 97
        0
 75
     0
 76
     1
 98
        0
  0
HATCH
  5
2EF
330
2D2
100
AcDbEntity
  8
0
  6
Continuous
100
AcDbHatch
 10
0.0
 20
0.0
 30
0.0
210
0.0
220
0.0
230
1.0
  2
SOLID
 70
     1
 71
     1
 91
        1
 92
        1
 93
        1
 72
     4
 94
        3
 73
     0
 74
     0
 95
       59
 96
       55
 40
0.0
 40
0.0
 40
0.0
 40
0.0
 40
1.0
 40
1.0
 40
1.0
 40
2.0
 40
2.0
 40
2.0
 40
3.0
 40
3.0
 40
3.0
 40
4.0
 40
4.0
 40
4.0
 40
5.0
 40
5.0
 40
5.0
 40
6.0
 40
6.0
 40
6.0
 40
7.0
 40
7.0
 40
7.0
 40
8.0
 40
8.0
 40
8.0
 40
9.0
 40
9.0
 40
9.0
 40
10.0
 40
10.0
 40
10.0
 40
11.0
 40
11.0
 40
11.0
 40
12.0
 40
12.0
 40
12.0
 40
13.0
 40
13.0
 40
13.0
 40
14.0
 40
14.0
 40
14.0
 40
15.0
 40
15.0
 40
15.0
 40
16.0
 40
16.0
 40
16.0
 40
17.0
 40
17.0
 40
17.0
 40
18.0
 40
18.0
 40
18.0
 40
18.0
 10
49.39440104166666
 20
189.0932159288193
 10
49.39440104166666
 20
189.0932159288193
 10
51.24786241319444
 20
189.0932159288193
 10
51.24786241319444
 20
189.0932159288193
 10
51.24786241319444
 20
189.0932159288193
 10
54.04665798611111
 20
172.3887471788193
 10
54.04665798611111
 20
172.3887471788193
 10
54.04665798611111
 20
172.3887471788193
 10
56.83994140624999
 20
189.0932159288193
 10
56.83994140624999
 20
189.0932159288193
 10
56.83994140624999
 20
189.0932159288193
 10
58.69891493055554
 20
189.0932159288193
 10
58.69891493055554
 20
189.0932159288193
 10
58.69891493055554
 20
189.0932159288193
 10
58.69891493055554
 20
169.3358964843748
 10
58.69891493055554
 20
169.3358964843748
 10
58.69891493055554
 20
169.3358964843748
 10
57.46419270833333
 20
169.3358964843748
 10
57.46419270833333
 20
169.3358964843748
 10
57.46419270833333
 20
169.3358964843748
 10
57.46419270833333
 20
180.9964422743054
 10
57.46419270833333
 20
180.9964422743054
 10
57.46419270833333
 20
181.3996011284721
 10
57.47108289930555
 20
182.0677291666664
 10
57.48624131944444
 20
183.0001924913193
 10
57.50071072048609
 20
183.9326558159721
 10
57.50828993055554
 20
184.932312282986
 10
57.50828993055554
 20
185.9997957899304
 10
57.50828993055554
 20
185.9997957899304
 10
54.700537109375
 20
169.3358964843748
 10
54.700537109375
 20
169.3358964843748
 10
54.700537109375
 20
169.3358964843748
 10
53.38382161458333
 20
169.3358964843748
 10
53.38382161458333
 20
169.3358964843748
 10
53.38382161458333
 20
169.3358964843748
 10
50.58502604166665
 20
185.9997957899304
 10
50.58502604166665
 20
185.9997957899304
 10
50.58502604166665
 20
185.9997957899304
 10
50.58502604166665
 20
185.3944236111109
 10
50.58502604166665
 20
185.3944236111109
 10
50.58502604166665
 20
184.9101258680554
 10
50.59191623263888
 20
184.1729029947915
 10
50.60707465277777
 20
183.1821210937498
 10
50.62154405381943
 20
182.1913391927082
 10
50.62912326388889
 20
181.4629908854165
 10
50.62912326388889
 20
180.9964422743054
 10
50.62912326388889
 20
180.9964422743054
 10
50.62912326388889
 20
169.3358964843748
 10
50.62912326388889
 20
169.3358964843748
 10
50.62912326388889
 20
169.3358964843748
 10
49.39440104166666
 20
169.3358964843748
 10
49.39440104166666
 20
169.3358964843748
 10
49.39440104166666
 20
169.3358964843748
 10
49.39440104166666
 20
189.0932159288193
 10
49.39440104166666
 20
189.0932159288193
 97
        1
330
2D7
 75
     0
 76
     1
 98
        1
 10
0.0
 20
0.0
  0
HATCH
  5
2F0
330
2D2
100
AcDbEntity
  8
0
  6
Continuous
100
AcDbHatch
 10
0.0
 20
0.0
 30
0.0
210
0.0
220
0.0
230
1.0
  2
SOLID
 70
     1
 71
     1
 91
        2
 92
       16
 93
        1
 72
     4
 94
        3
 73
     0
 74
     0
 95
       32
 96
       28
 40
0.0
 40
0.0
 40
0.0
 40
0.0
 40
1.0
 40
1.0
 40
1.0
 40
2.0
 40
2.0
 40
2.0
 40
3.0
 40
3.0
 40
3.0
 40
4.0
 40
4.0
 40
4.0
 40
5.0
 40
5.0
 40
5.0
 40
6.0
 40
6.0
 40
6.0
 40
7.0
 40
7.0
 40
7.0
 40
8.0
 40
8.0
 40
8.0
 40
9.0
 40
9.0
 40
9.0
 40
9.0
 10
91.70051812065969
 20
171.6077853732636
 10
91.70051812065969
 20
171.6077853732636
 10
91.70051812065969
 20
186.7401881510414
 10
91.70051812065969
 20
186.7401881510414
 10
91.70051812065969
 20
186.7401881510414
 10
93.98668348524305
 20
186.7401881510414
 10
93.98668348524305
 20
186.7401881510414
 10
95.02159016927082
 20
186.7401881510414
 10
95.77331000434028
 20
186.0644533420137
 10
96.24322102864582
 20
184.7142515190969
 10
96.71313205295138
 20
183.3640496961804
 10
96.94808756510417
 20
181.4680620659721
 10
96.94808756510417
 20
179.026288628472
 10
96.94808756510417
 20
178.3911232638887
 10
96.91432562934028
 20
177.7027105034721
 10
96.84749077690971
 20
176.9604164496525
 10
96.7324245876736
 20
175.7167094184025
 10
96.55052354600693
 20
174.6974021267359
 10
96.30109863281248
 20
173.9018606770831
 10
95.98414984809028
 20
172.9091770833332
 10
95.57693956163193
 20
172.2378795572914
 10
95.07877875434026
 20
171.8892358940971
 10
94.79076877170138
 20
171.7016022135415
 10
94.43178982204859
 20
171.6077853732636
 10
94.00115288628471
 20
171.6077853732636
 10
94.00115288628471
 20
171.6077853732636
 10
91.70051812065969
 20
171.6077853732636
 10
91.70051812065969
 20
171.6077853732636
 97
        1
330
2DC
 92
        1
 93
        1
 72
     4
 94
        3
 73
     0
 74
     0
 95
       26
 96
       22
 40
0.0
 40
0.0
 40
0.0
 40
0.0
 40
1.0
 40
1.0
 40
1.0
 40
2.0
 40
2.0
 40
2.0
 40
3.0
 40
3.0
 40
3.0
 40
4.0
 40
4.0
 40
4.0
 40
5.0
 40
5.0
 40
5.0
 40
6.0
 40
6.0
 40
6.0
 40
7.0
 40
7.0
 40
7.0
 40
7.0
 10
90.37760145399305
 20
169.3358964843748
 10
90.37760145399305
 20
169.3358964843748
 10
94.22990722656248
 20
169.3358964843748
 10
94.22990722656248
 20
169.3358964843748
 10
95.87115071614581
 20
169.3358964843748
 10
97.03008083767359
 20
170.8331625434026
 10
97.70600857204859
 20
173.8283285590275
 10
98.08221299913194
 20
175.5227367621525
 10
98.27100423177082
 20
177.4187243923609
 10
98.27100423177082
 20
179.5169253472221
 10
98.27100423177082
 20
182.233810329861
 10
97.94716525607638
 20
184.4619602864582
 10
97.30086534288195
 20
186.2013752170136
 10
96.57601725260416
 20
188.1290577256942
 10
95.5576470269097
 20
189.0932159288193
 10
94.24437662760416
 20
189.0932159288193
 10
94.24437662760416
 20
189.0932159288193
 10
90.37760145399305
 20
189.0932159288193
 10
90.37760145399305
 20
189.0932159288193
 10
90.37760145399305
 20
189.0932159288193
 10
90.37760145399305
 20
169.3358964843748
 10
90.37760145399305
 20
169.3358964843748
 97
        0
 75
     0
 76
     1
 98
        0
  0
HATCH
  5
2F1
330
2D2
100
AcDbEntity
  8
0
  6
Continuous
100
AcDbHatch
 10
0.0
 20
0.0
 30
0.0
210
0.0
220
0.0
230
1.0
  2
SOLID
 70
     1
 71
     1
 91
        2
 92
       16
 93
        1
 72
     4
 94
        3
 73
     0
 74
     0
 95
       26
 96
       22
 40
0.0
 40
0.0
 40
0.0
 40
0.0
 40
1.0
 40
1.0
 40
1.0
 40
2.0
 40
2.0
 40
2.0
 40
3.0
 40
3.0
 40
3.0
 40
4.0
 40
4.0
 40
4.0
 40
5.0
 40
5.0
 40
5.0
 40
6.0
 40
6.0
 40
6.0
 40
7.0
 40
7.0
 40
7.0
 40
7.0
 10
100.5623372395832
 20
180.0462298177081
 10
100.5623372395832
 20
180.0462298177081
 10
100.5623372395832
 20
186.7401881510414
 10
100.5623372395832
 20
186.7401881510414
 10
100.5623372395832
 20
186.7401881510414
 10
103.6732584635416
 20
186.7401881510414
 10
103.6732584635416
 20
186.7401881510414
 10
104.1107855902777
 20
186.7401881510414
 10
104.4580512152777
 20
186.6064357638887
 10
104.7150553385415
 20
186.3401987847219
 10
105.2097710503471
 20
185.8330807291664
 10
105.4571289062498
 20
184.8822343749997
 10
105.4571289062498
 20
183.4863919270832
 10
105.4571289062498
 20
182.188169704861
 10
105.280740017361
 20
181.2905707465276
 10
104.9286512586804
 20
180.7929611545137
 10
104.5765624999999
 20
180.2947176649304
 10
104.1011393229166
 20
180.0462298177081
 10
103.5023817274304
 20
180.0462298177081
 10
103.5023817274304
 20
180.0462298177081
 10
100.5623372395832
 20
180.0462298177081
 10
100.5623372395832
 20
180.0462298177081
 97
        1
330
2DD
 92
        1
 93
        1
 72
     4
 94
        3
 73
     0
 74
     0
 95
       68
 96
       64
 40
0.0
 40
0.0
 40
0.0
 40
0.0
 40
1.0
 40
1.0
 40
1.0
 40
2.0
 40
2.0
 40
2.0
 40
3.0
 40
3.0
 40
3.0
 40
4.0
 40
4.0
 40
4.0
 40
5.0
 40
5.0
 40
5.0
 40
6.0
 40
6.0
 40
6.0
 40
7.0
 40
7.0
 40
7.0
 40
8.0
 40
8.0
 40
8.0
 40
9.0
 40
9.0
 40
9.0
 40
10.0
 40
10.0
 40
10.0
 40
11.0
 40
11.0
 40
11.0
 40
12.0
 40
12.0
 40
12.0
 40
13.0
 40
13.0
 40
13.0
 40
14.0
 40
14.0
 40
14.0
 40
15.0
 40
15.0
 40
15.0
 40
16.0
 40
16.0
 40
16.0
 40
17.0
 40
17.0
 40
17.0
 40
18.0
 40
18.0
 40
18.0
 40
19.0
 40
19.0
 40
19.0
 40
20.0
 40
20.0
 40
20.0
 40
21.0
 40
21.0
 40
21.0
 40
21.0
 10
99.23942057291661
 20
169.3358964843748
 10
99.23942057291661
 20
169.3358964843748
 10
100.5623372395832
 20
169.3358964843748
 10
100.5623372395832
 20
169.3358964843748
 10
100.5623372395832
 20
169.3358964843748
 10
100.5623372395832
 20
177.8149103732637
 10
100.5623372395832
 20
177.8149103732637
 10
100.5623372395832
 20
177.8149103732637
 10
103.4472601996527
 20
177.8149103732637
 10
103.4472601996527
 20
177.8149103732637
 10
103.9681586371527
 20
177.8149103732637
 10
104.3519422743053
 20
177.6938359374998
 10
104.5986111111109
 20
177.451687065972
 10
105.0244249131943
 20
177.0117621527776
 10
105.2518012152777
 20
176.1458580729164
 10
105.280740017361
 20
174.8539748263887
 10
105.280740017361
 20
174.8539748263887
 10
105.3689344618053
 20
171.5564396701386
 10
105.3689344618053
 20
171.5564396701386
 10
105.3882269965277
 20
170.7843524305554
 10
105.4109646267359
 20
170.2639225260415
 10
105.4357693142359
 20
169.9951499565971
 10
105.4605740017359
 20
169.7257434895831
 10
105.4970920138888
 20
169.5057810329859
 10
105.5467013888887
 20
169.3358964843748
 10
105.5467013888887
 20
169.3358964843748
 10
107.1769205729166
 20
169.3358964843748
 10
107.1769205729166
 20
169.3358964843748
 10
107.1769205729166
 20
169.3358964843748
 10
107.1769205729166
 20
169.7821603732636
 10
107.1769205729166
 20
169.7821603732636
 10
106.9750379774303
 20
169.9609194878471
 10
106.8337890624998
 20
170.3628105468748
 10
106.7538628472221
 20
170.9878335503471
 10
106.7028754340275
 20
171.3542263454858
 10
106.6677354600692
 20
171.9120562065971
 10
106.6477539062498
 20
172.6625909288193
 10
106.6477539062498
 20
172.6625909288193
 10
106.6036566840277
 20
175.3205234374999
 10
106.6036566840277
 20
175.3205234374999
 10
106.5836751302082
 20
176.4716814236109
 10
106.4768771701387
 20
177.3033550347219
 10
106.2839518229166
 20
177.8142764756942
 10
106.0903374565971
 20
178.3251979166665
 10
105.8002604166666
 20
178.7372313368054
 10
105.4130316840276
 20
179.0516445312498
 10
105.8443576388887
 20
179.5086846788193
 10
106.179909939236
 20
180.1134229600693
 10
106.4196885850692
 20
180.8664932725692
 10
106.6594672309027
 20
181.6189296874999
 10
106.7800455729166
 20
182.5868912760414
 10
106.7800455729166
 20
183.7697441406248
 10
106.7800455729166
 20
186.0371957465275
 10
106.3328721788193
 20
187.5921464843749
 10
105.4392144097221
 20
188.4345963541665
 10
104.9679253472221
 20
188.8732534722221
 10
104.3719238281249
 20
189.0932159288193
 10
103.6512098524303
 20
189.0932159288193
 10
103.6512098524303
 20
189.0932159288193
 10
99.23942057291661
 20
189.0932159288193
 10
99.23942057291661
 20
189.0932159288193
 10
99.23942057291661
 20
189.0932159288193
 10
99.23942057291661
 20
169.3358964843748
 10
99.23942057291661
 20
169.3358964843748
 97
        0
 75
     0
 76
     1
 98
        0
  0
HATCH
  5
2F2
330
2D2
100
AcDbEntity
  8
0
  6
Continuous
100
AcDbHatch
 10
0.0
 20
0.0
 30
0.0
210
0.0
220
0.0
230
1.0
  2
SOLID
 70
     1
 71
     1
 91
        2
 92
        1
 93
        8
 72
     1
 10
35.47828233506943
 20
189.0932159288193
 11
31.83957248263888
 21
169.3358964843748
 72
     1
 10
31.83957248263888
 20
169.3358964843748
 11
33.22450086805555
 21
169.3358964843748
 72
     1
 10
33.22450086805555
 20
169.3358964843748
 11
34.27043185763887
 21
175.2590353732638
 72
     1
 10
34.27043185763887
 20
175.2590353732638
 11
38.04694552951389
 21
175.2590353732638
 72
     1
 10
38.04694552951389
 20
175.2590353732638
 11
39.05015733506942
 21
169.3358964843748
 72
     1
 10
39.05015733506942
 20
169.3358964843748
 11
40.43508572048611
 21
169.3358964843748
 72
     1
 10
40.43508572048611
 20
169.3358964843748
 11
36.952783203125
 21
189.0932159288193
 72
     1
 10
36.952783203125
 20
189.0932159288193
 11
35.47828233506943
 21
189.0932159288193
 97
        8
330
2ED
330
2E6
330
2E7
330
2E8
330
2E9
330
2EA
330
2EB
330
2EC
 92
       16
 93
        3
 72
     1
 10
37.67556423611111
 20
177.4497853732638
 11
34.65766059027778
 21
177.4497853732638
 72
     1
 10
34.65766059027778
 20
177.4497853732638
 11
36.19830729166666
 21
186.1658769531249
 72
     1
 10
36.19830729166666
 20
186.1658769531249
 11
37.67556423611111
 21
177.4497853732638
 97
        3
330
2E5
330
2E3
330
2E4
 75
     0
 76
     1
 98
        1
 10
0.0
 20
0.0
  0
HATCH
  5
2F3
330
2D2
100
AcDbEntity
  8
0
  6
Continuous
100
AcDbHatch
 10
0.0
 20
0.0
 30
0.0
210
0.0
220
0.0
230
1.0
  2
SOLID
 70
     1
 71
     1
 91
        1
 92
        1
 93
        1
 72
     4
 94
        3
 73
     0
 74
     0
 95
      113
 96
      109
 40
0.0
 40
0.0
 40
0.0
 40
0.0
 40
1.0
 40
1.0
 40
1.0
 40
2.0
 40
2.0
 40
2.0
 40
3.0
 40
3.0
 40
3.0
 40
4.0
 40
4.0
 40
4.0
 40
5.0
 40
5.0
 40
5.0
 40
6.0
 40
6.0
 40
6.0
 40
7.0
 40
7.0
 40
7.0
 40
8.0
 40
8.0
 40
8.0
 40
9.0
 40
9.0
 40
9.0
 40
10.0
 40
10.0
 40
10.0
 40
11.0
 40
11.0
 40
11.0
 40
12.0
 40
12.0
 40
12.0
 40
13.0
 40
13.0
 40
13.0
 40
14.0
 40
14.0
 40
14.0
 40
15.0
 40
15.0
 40
15.0
 40
16.0
 40
16.0
 40
16.0
 40
17.0
 40
17.0
 40
17.0
 40
18.0
 40
18.0
 40
18.0
 40
19.0
 40
19.0
 40
19.0
 40
20.0
 40
20.0
 40
20.0
 40
21.0
 40
21.0
 40
21.0
 40
22.0
 40
22.0
 40
22.0
 40
23.0
 40
23.0
 40
23.0
 40
24.0
 40
24.0
 40
24.0
 40
25.0
 40
25.0
 40
25.0
 40
26.0
 40
26.0
 40
26.0
 40
27.0
 40
27.0
 40
27.0
 40
28.0
 40
28.0
 40
28.0
 40
29.0
 40
29.0
 40
29.0
 40
30.0
 40
30.0
 40
30.0
 40
31.0
 40
31.0
 40
31.0
 40
32.0
 40
32.0
 40
32.0
 40
33.0
 40
33.0
 40
33.0
 40
34.0
 40
34.0
 40
34.0
 40
35.0
 40
35.0
 40
35.0
 40
36.0
 40
36.0
 40
36.0
 40
36.0
 10
193.3039632161458
 20
186.1548733181423
 10
193.3039632161458
 20
186.1860514322916
 10
193.3039632161458
 20
219.6932223849826
 10
193.3039632161458
 20
219.6932223849826
 10
193.3039632161458
 20
219.6932223849826
 10
193.2974175347219
 20
219.7488606770833
 10
193.2974175347219
 20
219.7488606770833
 10
191.5293945312499
 20
235.455740017361
 10
175.1458984374999
 20
235.2467949761284
 10
174.9808783637151
 20
235.2428331163193
 10
174.9808783637151
 20
235.2428331163193
 10
125.8827555338541
 20
235.2430053710937
 10
125.8827555338541
 20
235.2430053710937
 10
125.8827555338541
 20
235.2430053710937
 10
125.8827555338541
 20
255.5278998480901
 10
125.8827555338541
 20
255.5278998480901
 10
125.8827555338541
 20
255.5278998480901
 10
84.5626247829861
 20
255.5278998480901
 10
84.5626247829861
 20
255.5278998480901
 10
84.5626247829861
 20
255.5278998480901
 10
84.55711263020829
 20
233.7919311523436
 10
84.55711263020829
 20
233.7919311523436
 10
84.55711263020829
 20
233.7919311523436
 10
64.42052951388888
 20
233.7919311523436
 10
64.42052951388888
 20
233.7919311523436
 10
64.42052951388888
 20
233.7919311523436
 10
64.41501736111111
 20
255.5278998480901
 10
64.41501736111111
 20
255.5278998480901
 10
64.41501736111111
 20
255.5278998480901
 10
23.91757541232637
 20
255.5278998480901
 10
23.91757541232637
 20
255.5278998480901
 10
23.91757541232637
 20
255.5278998480901
 10
23.91757541232637
 20
233.2393378363715
 10
23.91757541232637
 20
233.2393378363715
 10
23.91757541232637
 20
233.2393378363715
 10
43.65624999999999
 20
233.2393378363715
 10
43.65624999999999
 20
233.2393378363715
 10
43.65624999999999
 20
233.2393378363715
 10
43.65624999999999
 20
211.5188720703125
 10
43.65624999999999
 20
211.5188720703125
 10
43.65624999999999
 20
211.5188720703125
 10
23.91757541232637
 20
211.5188720703125
 10
23.91757541232637
 20
211.5188720703125
 10
23.91757541232637
 20
211.5188720703125
 10
23.91757541232637
 20
189.2303100585936
 10
23.91757541232637
 20
189.2303100585936
 10
23.91757541232637
 20
189.2303100585936
 10
64.41501736111111
 20
189.2303100585936
 10
64.41501736111111
 20
189.2303100585936
 10
64.41501736111111
 20
189.2303100585936
 10
64.42052951388888
 20
211.069976128472
 10
64.42052951388888
 20
211.069976128472
 10
64.42052951388888
 20
211.069976128472
 10
84.55711263020829
 20
211.069976128472
 10
84.55711263020829
 20
211.069976128472
 10
84.55711263020829
 20
211.069976128472
 10
84.5626247829861
 20
189.2303100585936
 10
84.5626247829861
 20
189.2303100585936
 10
84.5626247829861
 20
189.2303100585936
 10
125.8827555338541
 20
189.2303100585936
 10
125.8827555338541
 20
189.2303100585936
 10
125.8827555338541
 20
189.2303100585936
 10
125.8827555338541
 20
211.5188720703125
 10
125.8827555338541
 20
211.5188720703125
 10
125.8827555338541
 20
211.5188720703125
 10
105.3213921440971
 20
211.5188720703125
 10
105.3213921440971
 20
211.5188720703125
 10
105.3213921440971
 20
211.5188720703125
 10
105.3213921440971
 20
233.2393378363715
 10
105.3213921440971
 20
233.2393378363715
 10
105.3213921440971
 20
233.2393378363715
 10
175.0046495225693
 20
233.243127441406
 10
175.0046495225693
 20
233.243127441406
 10
175.6268337673611
 20
233.2560465494791
 10
189.7165852864583
 20
233.3962619357638
 10
191.3037407769094
 20
219.5690266927083
 10
191.3037407769094
 20
219.4332899305555
 10
191.3037407769094
 20
186.1142211914062
 10
191.3037407769094
 20
186.1142211914062
 10
191.3037407769094
 20
186.1142211914062
 10
191.3051188151039
 20
186.0880384657115
 10
191.3051188151039
 20
186.0880384657115
 10
191.3054633246526
 20
186.0787367078991
 10
191.3109754774304
 20
185.9566080729166
 10
191.3109754774304
 20
185.7399115668401
 10
191.3109754774304
 20
184.2090833875865
 10
191.0488037109374
 20
177.9643310546874
 10
186.9866916232638
 20
173.5652886284722
 10
184.2540418836804
 20
170.6064683702255
 10
180.3224989149304
 20
169.0308539496526
 10
175.300927734375
 20
168.8825425889756
 10
175.300927734375
 20
168.8825425889756
 10
107.0094889322916
 20
168.8828870985243
 10
107.0094889322916
 20
168.8828870985243
 10
107.0094889322916
 20
168.8828870985243
 10
107.0094889322916
 20
166.8830091688368
 10
107.0094889322916
 20
166.8830091688368
 10
107.0094889322916
 20
166.8830091688368
 10
175.3305555555555
 20
166.8830091688368
 10
175.3305555555555
 20
166.8830091688368
 10
180.9467502170138
 20
167.0485460069444
 10
185.3571614583333
 20
168.8448187934026
 10
188.4687717013888
 20
172.2223904079861
 10
192.9649658203124
 20
177.1034016927083
 10
193.3136094835069
 20
183.7202243381076
 10
193.3136094835069
 20
185.6520616319443
 10
193.3136094835069
 20
185.9247409396701
 10
193.3070638020833
 20
186.0868326822916
 10
193.3039632161458
 20
186.1548733181423
 97
        1
330
2D3
 75
     0
 76
     1
 98
        1
 10
0.0
 20
0.0
  0
HATCH
  5
2F4
330
2D2
100
AcDbEntity
  8
0
  6
Continuous
100
AcDbHatch
 10
0.0
 20
0.0
 30
0.0
210
0.0
220
0.0
230
1.0
  2
SOLID
 70
     1
 71
     1
 91
        2
 92
        1
 93
        1
 72
     4
 94
        3
 73
     0
 74
     0
 95
       23
 96
       19
 40
0.0
 40
0.0
 40
0.0
 40
0.0
 40
1.0
 40
1.0
 40
1.0
 40
2.0
 40
2.0
 40
2.0
 40
3.0
 40
3.0
 40
3.0
 40
4.0
 40
4.0
 40
4.0
 40
5.0
 40
5.0
 40
5.0
 40
6.0
 40
6.0
 40
6.0
 40
6.0
 10
148.6593153211804
 20
211.3929538302948
 10
148.6593153211804
 20
211.3929538302948
 10
148.6593153211804
 20
189.6308024088539
 10
148.6593153211804
 20
189.6308024088539
 10
148.6593153211804
 20
189.6308024088539
 10
161.3152180989583
 20
189.6308024088539
 10
161.3152180989583
 20
189.6308024088539
 10
162.8431179470484
 20
189.6308024088539
 10
170.4657362196179
 20
190.1880466037322
 10
170.4657362196179
 20
201.1911648220483
 10
170.4657362196179
 20
211.1288872612844
 10
162.3356553819444
 20
211.3914035373261
 10
162.2536621093749
 20
211.3927815755205
 10
162.2536621093749
 20
211.3927815755205
 10
149.6594265407986
 20
211.3929538302948
 10
149.6594265407986
 20
211.3929538302948
 10
149.6594265407986
 20
211.3929538302948
 10
148.6593153211804
 20
211.3929538302948
 10
148.6593153211804
 20
211.3929538302948
 97
        1
330
2D4
 92
       16
 93
        1
 72
     4
 94
        3
 73
     0
 74
     0
 95
       20
 96
       16
 40
0.0
 40
0.0
 40
0.0
 40
0.0
 40
1.0
 40
1.0
 40
1.0
 40
2.0
 40
2.0
 40
2.0
 40
3.0
 40
3.0
 40
3.0
 40
4.0
 40
4.0
 40
4.0
 40
5.0
 40
5.0
 40
5.0
 40
5.0
 10
162.2354031032985
 20
209.3930759006072
 10
162.467947048611
 20
209.3861857096351
 10
168.4655137803819
 20
209.1283203124997
 10
168.4655137803819
 20
201.1911648220483
 10
168.4655137803819
 20
192.3202162000865
 10
162.9926350911458
 20
191.6306803385413
 10
161.3152180989583
 20
191.6306803385413
 10
161.3152180989583
 20
191.6306803385413
 10
152.3310980902776
 20
191.6306803385413
 10
150.6595377604166
 20
191.6306803385413
 10
150.6595377604166
 20
193.3373806423608
 10
150.6595377604166
 20
207.6863755967879
 10
150.6595377604166
 20
209.3930759006072
 10
152.353835720486
 20
209.3930759006072
 10
162.2354031032985
 20
209.3930759006072
 10
162.2354031032985
 20
209.3930759006072
 97
        0
 75
     0
 76
     1
 98
        0
  0
ENDBLK
  5
2F6
330
2D2
100
AcDbEntity
  8
0
100
AcDbBlockEnd
  0
BLOCK
  5
2F9
330
2F7
100
AcDbEntity
  8
0
100
AcDbBlockBegin
  2
HD logo-new
 70
     0
 10
0.0
 20
0.0
 30
0.0
  3
HD logo-new
  1

  0
INSERT
  5
2F8
330
2F7
100
AcDbEntity
  8
0
 62
     3
100
AcDbBlockReference
  2
HD_LLC_logo_OT5
 10
-27.1607188578505
 20
-68.37367811463031
 30
0.0
 41
0.2999999999999971
 42
0.3000000000000007
 43
0.3
  0
ENDBLK
  5
2FA
330
2F7
100
AcDbEntity
  8
0
100
AcDbBlockEnd
  0
BLOCK
  5
2FD
330
2FB
100
AcDbEntity
  8
0
100
AcDbBlockBegin
  2
HD Logo
 70
     0
 10
0.0
 20
0.0
 30
0.0
  3
HD Logo
  1

  0
INSERT
  5
2FC
330
2FB
100
AcDbEntity
  8
0
100
AcDbBlockReference
  2
HD logo-new
 10
0.9700256734946606
 20
7.273795608420527
 30
0.0
  0
ENDBLK
  5
2FE
330
2FB
100
AcDbEntity
  8
0
100
AcDbBlockEnd
  0
BLOCK
  5
315
330
313
100
AcDbEntity
  8
0
100
AcDbBlockBegin
  2
Harmonic Drive LLC
 70
     0
 10
0.0
 20
0.0
 30
0.0
  3
Harmonic Drive LLC
  1

  0
MTEXT
  5
314
330
313
100
AcDbEntity
  8
0
100
AcDbMText
 10
8.730232253264317
 20
-1.454758693481394
 30
0.0
 40
5.25
 41
158.5992
 71
     5
 72
     5
  1
{\fArial|b0|i0|c0|p34;Harmonic Drive LLC\P800-921-3332\Pwww.harmonicdrive.net}
 73
     1
 44
1.0
  0
ENDBLK
  5
316
330
313
100
AcDbEntity
  8
0
100
AcDbBlockEnd
  0
BLOCK
  5
32A
330
328
100
AcDbEntity
  8
0
100
AcDbBlockBegin
  2
HD LLC
 70
     0
 10
0.0
 20
0.0
 30
0.0
  3
HD LLC
  1

  0
MTEXT
  5
329
330
328
100
AcDbEntity
  8
0
100
AcDbMText
 10
-2.314970886968865
 20
1.247205085865914
 30
0.0
 40
5.675387507387601
 41
236.1828726592229
 71
     5
 72
     5
  1
Harmonic Drive LLC\P800-921-3332\Pwww.harmonicdrive.net
 73
     1
 44
1.0
  0
ENDBLK
  5
32B
330
328
100
AcDbEntity
  8
0
100
AcDbBlockEnd
  0
BLOCK
  5
335
330
332
100
AcDbEntity
  8
0
100
AcDbBlockBegin
  2
NTC
 70
     0
 10
0.0
 20
0.0
 30
0.0
  3
NTC
  1

  0
LWPOLYLINE
  5
333
330
332
100
AcDbEntity
  8
0
100
AcDbPolyline
 90
        8
 70
     1
 43
0.0
 10
4.581008201925953
 20
-10.78862239032818
 10
319.3921777697513
 20
-10.78862239032818
 42
-0.4142135623730951
 10
324.9046777697513
 20
-16.30112239032816
 10
324.9046777697513
 20
-117.4075202476924
 42
-0.4142135623730951
 10
319.3921777697513
 20
-122.9200202476925
 10
4.581008201925839
 20
-122.9200202476925
 42
-0.4142135623730951
 10
-0.9314917980741483
 20
-117.4075202476924
 10
-0.9314917980740915
 20
-16.30112239032816
 42
-0.4142135623730951
  0
MTEXT
  5
334
330
332
100
AcDbEntity
  8
0
  6
Continuous
370
    30
100
AcDbMText
 10
21.65307678143926
 20
-17.4535155144544
 30
0.0
 40
8.75
 41
294.5432999999998
 71
     1
 72
     5
  3
{\fTxt|b1|i0|c0|p2;Notice:\P\Ftxt.shx;\H0.5714x;All specifications and dimensions shown in the drawing are subject to change without notice. This drawing is the property of Harmonic Drive LLC.   This data is believed to be accurate, however, Harmonic
  1
 Drive LLC assumes no liability for any errors or omissions in the specifications, models, or drawings.\P\PHarmonic Drive LLC\PTel: 800-921-3332\Pwww.harmonicdrive.net}
 73
     1
 44
1.0
  0
ENDBLK
  5
336
330
332
100
AcDbEntity
  8
0
100
AcDbBlockEnd
  0
ENDSEC
  0
SECTION
  2
ENTITIES
  0
LINE
  5
33
330
1E
100
AcDbEntity
  8
1
 62
     7
100
AcDbLine
 10
7.250000000001136
 20
6.342999999999874
 30
0.0
 11
7.350000000001214
 21
6.242999999999967
 31
0.0
  0
LINE
  5
34
330
1E
100
AcDbEntity
  8
1
 62
     7
100
AcDbLine
 10
7.350000000001214
 20
6.242999999999967
 30
0.0
 11
7.954168967146129
 21
6.242999999999967
 31
0.0
  0
LINE
  5
35
330
1E
100
AcDbEntity
  8
1
 62
     7
100
AcDbLine
 10
9.150000000001114
 20
6.242999999999967
 30
0.0
 11
9.250000000001136
 21
6.342999999999874
 31
0.0
  0
LINE
  5
36
330
1E
100
AcDbEntity
  8
1
 62
     7
100
AcDbLine
 10
8.545831032856026
 20
6.242999999999967
 30
0.0
 11
9.150000000001114
 21
6.242999999999967
 31
0.0
  0
LINE
  5
37
330
1E
100
AcDbEntity
  8
1
 62
     7
100
AcDbLine
 10
9.250000000001136
 20
-6.342999999999817
 30
0.0
 11
9.150000000001114
 21
-6.242999999999824
 31
0.0
  0
LINE
  5
38
330
1E
100
AcDbEntity
  8
1
 62
     7
100
AcDbLine
 10
9.150000000001114
 20
-6.242999999999824
 30
0.0
 11
8.545831032856426
 21
-6.242999999999824
 31
0.0
  0
LINE
  5
39
330
1E
100
AcDbEntity
  8
1
 62
     7
100
AcDbLine
 10
7.954168967145847
 20
-6.242999999999824
 30
0.0
 11
7.350000000001214
 21
-6.242999999999824
 31
0.0
  0
LINE
  5
3A
330
1E
100
AcDbEntity
  8
1
 62
     7
100
AcDbLine
 10
7.350000000001214
 20
-6.242999999999824
 30
0.0
 11
7.250000000001136
 21
-6.342999999999817
 31
0.0
  0
LINE
  5
3B
330
1E
100
AcDbEntity
  8
1
 62
     7
100
AcDbLine
 10
0.1253133848349989
 20
-6.642999999999942
 30
0.0
 11
5.620469645133253
 21
-6.642999999999942
 31
0.0
  0
LINE
  5
3C
330
1E
100
AcDbEntity
  8
1
 62
     7
100
AcDbLine
 10
5.620469645133253
 20
6.645894787433491
 30
0.0
 11
0.1253133848349979
 21
6.645894787433491
 31
0.0
  0
LINE
  5
3D
330
1E
100
AcDbEntity
  8
1
 62
     7
100
AcDbLine
 10
-4.299999999999955
 20
-6.5
 30
0.0
 11
-5.143644702166056
 21
-7.619554333297003
 31
0.0
  0
LINE
  5
3E
330
1E
100
AcDbEntity
  8
1
 62
     7
100
AcDbLine
 10
-5.143644702166056
 20
-7.619554333297003
 30
0.0
 11
-5.419554333296559
 21
-7.3436447021665
 31
0.0
  0
LINE
  5
3F
330
1E
100
AcDbEntity
  8
1
 62
     7
100
AcDbLine
 10
-5.419554333296559
 20
-7.3436447021665
 30
0.0
 11
-4.299999999999955
 21
-6.5
 31
0.0
  0
LINE
  5
40
330
1E
100
AcDbEntity
  8
1
 62
     7
100
AcDbLine
 10
-5.281599517731478
 20
-7.481599517731638
 30
0.0
 11
-6.799999999999953
 21
-9.0
 31
0.0
  0
LINE
  5
41
330
1E
100
AcDbEntity
  8
1
 62
     7
100
AcDbLine
 10
-6.799999999999953
 20
9.0
 30
0.0
 11
-5.281599517731478
 21
7.481599517731579
 31
0.0
  0
LINE
  5
42
330
1E
100
AcDbEntity
  8
1
 62
     7
100
AcDbLine
 10
-4.299999999999955
 20
6.5
 30
0.0
 11
-5.419554333296559
 21
7.343644702166557
 31
0.0
  0
LINE
  5
43
330
1E
100
AcDbEntity
  8
1
 62
     7
100
AcDbLine
 10
-5.143644702166056
 20
7.619554333297003
 30
0.0
 11
-4.299999999999955
 21
6.5
 31
0.0
  0
LINE
  5
44
330
1E
100
AcDbEntity
  8
1
 62
     7
100
AcDbLine
 10
-5.419554333296559
 20
7.343644702166557
 30
0.0
 11
-5.143644702166056
 21
7.619554333297003
 31
0.0
  0
LINE
  5
45
330
1E
100
AcDbEntity
  8
1
 62
     7
100
AcDbLine
 10
-66.86581775689785
 20
1.356465996625104
 30
0.0
 11
-66.86581775689785
 21
-1.356465996624991
 31
0.0
  0
LINE
  5
46
330
1E
100
AcDbEntity
  8
1
  6
CENTER
 62
     3
100
AcDbLine
 10
-74.97893066531325
 20
-3.471672356341401
 30
0.0
 11
-71.71809092200175
 21
-1.589025652756333
 31
0.0
  0
LINE
  5
47
330
1E
100
AcDbEntity
  8
1
  6
CENTER
 62
     3
100
AcDbLine
 10
-62.95270484848248
 20
-3.471672356341401
 30
0.0
 11
-66.21354459179406
 21
-1.589025652756333
 31
0.0
  0
LINE
  5
48
330
1E
100
AcDbEntity
  8
1
  6
CENTER
 62
     3
100
AcDbLine
 10
-76.74399234994979
 20
-7.778174593052026
 30
0.0
 11
-78.86531269351007
 21
-9.899494936611633
 31
0.0
  0
LINE
  5
49
330
1E
100
AcDbEntity
  8
1
  6
CENTER
 62
     3
100
AcDbLine
 10
-76.74399234994979
 20
7.778174593051972
 30
0.0
 11
-78.86531269350887
 21
9.899494936611684
 31
0.0
  0
LINE
  5
4A
330
1E
100
AcDbEntity
  8
1
  6
CENTER
 62
     3
100
AcDbLine
 10
-61.18764316384568
 20
7.778174593051972
 30
0.0
 11
-59.06632282028568
 21
9.899494936611684
 31
0.0
  0
LINE
  5
4B
330
1E
100
AcDbEntity
  8
1
  6
CENTER
 62
     3
100
AcDbLine
 10
-61.18764316384568
 20
-7.778174593052026
 30
0.0
 11
-59.06632282028568
 21
-9.899494936611633
 31
0.0
  0
LINE
  5
4C
330
1E
100
AcDbEntity
  8
1
 62
     7
100
AcDbLine
 10
-4.299999999999955
 20
-9.0
 30
0.0
 11
-6.799999999999953
 21
-9.0
 31
0.0
  0
LINE
  5
4D
330
1E
100
AcDbEntity
  8
1
 62
     7
100
AcDbLine
 10
-4.299999999999955
 20
-6.5
 30
0.0
 11
-4.299999999999955
 21
-9.0
 31
0.0
  0
LINE
  5
4E
330
1E
100
AcDbEntity
  8
1
 62
     7
100
AcDbLine
 10
-6.799999999999953
 20
-6.5
 30
0.0
 11
-4.299999999999955
 21
-6.5
 31
0.0
  0
LINE
  5
4F
330
1E
100
AcDbEntity
  8
1
 62
     7
100
AcDbLine
 10
-6.799999999999953
 20
-9.0
 30
0.0
 11
-6.799999999999953
 21
-6.5
 31
0.0
  0
LINE
  5
50
330
1E
100
AcDbEntity
  8
1
 62
     7
100
AcDbLine
 10
-6.799999999999953
 20
6.5
 30
0.0
 11
-6.799999999999953
 21
9.0
 31
0.0
  0
LINE
  5
51
330
1E
100
AcDbEntity
  8
1
 62
     7
100
AcDbLine
 10
-4.299999999999955
 20
6.5
 30
0.0
 11
-6.799999999999953
 21
6.5
 31
0.0
  0
LINE
  5
52
330
1E
100
AcDbEntity
  8
1
 62
     7
100
AcDbLine
 10
-4.299999999999955
 20
9.0
 30
0.0
 11
-4.299999999999955
 21
6.5
 31
0.0
  0
LINE
  5
53
330
1E
100
AcDbEntity
  8
1
 62
     7
100
AcDbLine
 10
-6.799999999999953
 20
9.0
 30
0.0
 11
-4.299999999999955
 21
9.0
 31
0.0
  0
LINE
  5
54
330
1E
100
AcDbEntity
  8
1
  6
CENTER
 62
     3
100
AcDbLine
 10
-66.40648797151488
 20
2.559329785383055
 30
0.0
 11
-64.46470006714235
 21
4.501117689755574
 31
0.0
  0
LINE
  5
55
330
1E
100
AcDbEntity
  8
1
  6
CENTER
 62
     3
100
AcDbLine
 10
-83.58541117107108
 20
0.0
 30
0.0
 11
-53.92804349821279
 21
0.0
 31
0.0
  0
LINE
  5
56
330
1E
100
AcDbEntity
  8
1
  6
CENTER
 62
     3
100
AcDbLine
 10
-68.96581775689788
 20
14.2682541924612
 30
0.0
 11
-68.96581775689788
 21
-14.42120413759784
 31
0.0
  0
LINE
  5
57
330
1E
100
AcDbEntity
  8
1
 62
     7
100
AcDbLine
 10
-59.51859594305188
 20
-11.0
 30
0.0
 11
-78.41303957074387
 21
-11.0
 31
0.0
  0
LINE
  5
58
330
1E
100
AcDbEntity
  8
1
 62
     7
100
AcDbLine
 10
-57.96581775689787
 20
9.447221813845658
 30
0.0
 11
-57.96581775689787
 21
-9.447221813845599
 31
0.0
  0
LINE
  5
59
330
1E
100
AcDbEntity
  8
1
 62
     7
100
AcDbLine
 10
-78.41303957074387
 20
11.00000000000006
 30
0.0
 11
-59.51859594305188
 21
11.00000000000006
 31
0.0
  0
LINE
  5
5A
330
1E
100
AcDbEntity
  8
1
 62
     7
100
AcDbLine
 10
-79.96581775689787
 20
-9.447221813845599
 30
0.0
 11
-79.96581775689787
 21
9.447221813845658
 31
0.0
  0
LINE
  5
5B
330
1E
100
AcDbEntity
  8
1
 62
     7
100
AcDbLine
 10
8.400000000000147
 20
-9.083500000000015
 30
0.0
 11
8.400000000000147
 21
-14.5
 31
0.0
  0
LINE
  5
5C
330
1E
100
AcDbEntity
  8
1
 62
     7
100
AcDbLine
 10
8.10000000000025
 20
8.783500000000001
 30
0.0
 11
5.0
 21
8.78350000000006
 31
0.0
  0
LINE
  5
5D
330
1E
100
AcDbEntity
  8
1
 62
     7
100
AcDbLine
 10
3.700000000000046
 20
7.300000000000068
 30
0.0
 11
-1.0
 21
7.299999999999953
 31
0.0
  0
LINE
  5
5E
330
1E
100
AcDbEntity
  8
1
 62
     3
100
AcDbLine
 10
5.60000000000025
 20
-8.783499999999889
 30
0.0
 11
5.60000000000025
 21
-8.999999999999943
 31
0.0
  0
LINE
  5
5F
330
1E
100
AcDbEntity
  8
1
 62
     7
100
AcDbLine
 10
5.225011000161146
 20
-8.783499999999889
 30
0.0
 11
8.10000000000025
 21
-8.783500000000001
 31
0.0
  0
LINE
  5
60
330
1E
100
AcDbEntity
  8
1
 62
     3
100
AcDbLine
 10
5.225011000161146
 20
-8.783499999999889
 30
0.0
 11
5.60000000000025
 21
-8.999999999999943
 31
0.0
  0
LINE
  5
61
330
1E
100
AcDbEntity
  8
1
 62
     3
100
AcDbLine
 10
5.60000000000025
 20
9.000000000000056
 30
0.0
 11
5.60000000000025
 21
8.78350000000006
 31
0.0
  0
LINE
  5
62
330
1E
100
AcDbEntity
  8
1
 62
     3
100
AcDbLine
 10
5.60000000000025
 20
9.000000000000056
 30
0.0
 11
5.225011000161146
 21
8.78350000000006
 31
0.0
  0
LINE
  5
63
330
1E
100
AcDbEntity
  8
1
 62
     7
100
AcDbLine
 10
5.0
 20
8.500000000000056
 30
0.0
 11
5.0
 21
8.78350000000006
 31
0.0
  0
LINE
  5
64
330
1E
100
AcDbEntity
  8
1
 62
     3
100
AcDbLine
 10
8.316500000000244
 20
9.0
 30
0.0
 11
5.60000000000025
 21
9.000000000000056
 31
0.0
  0
LINE
  5
65
330
1E
100
AcDbEntity
  8
1
 62
     7
100
AcDbLine
 10
8.10000000000025
 20
8.783500000000001
 30
0.0
 11
8.316500000000244
 21
9.0
 31
0.0
  0
LINE
  5
66
330
1E
100
AcDbEntity
  8
1
 62
     7
100
AcDbLine
 10
8.400000000000147
 20
-9.349999999999909
 30
0.0
 11
7.900000000000147
 21
-9.349999999999909
 31
0.0
  0
LINE
  5
67
330
1E
100
AcDbEntity
  8
1
 62
     3
100
AcDbLine
 10
6.200000000000046
 20
-9.0
 30
0.0
 11
8.316500000000244
 21
-9.0
 31
0.0
  0
LINE
  5
68
330
1E
100
AcDbEntity
  8
1
 62
     7
100
AcDbLine
 10
8.10000000000025
 20
-8.783500000000001
 30
0.0
 11
8.400000000000147
 21
-9.083500000000015
 31
0.0
  0
LINE
  5
69
330
1E
100
AcDbEntity
  8
1
 62
     7
100
AcDbLine
 10
5.0
 20
-8.783499999999889
 30
0.0
 11
5.0
 21
-8.499999999999943
 31
0.0
  0
LINE
  5
6A
330
1E
100
AcDbEntity
  8
1
 62
     7
100
AcDbLine
 10
5.400041096312349
 20
11.00000000000006
 30
0.0
 11
5.400041096312349
 21
10.44999999999999
 31
0.0
  0
LINE
  5
6B
330
1E
100
AcDbEntity
  8
1
 62
     7
100
AcDbLine
 10
5.400041096312349
 20
11.00000000000006
 30
0.0
 11
8.400000000000147
 21
11.00000000000006
 31
0.0
  0
LINE
  5
6C
330
1E
100
AcDbEntity
  8
1
 62
     7
100
AcDbLine
 10
-1.799999999999954
 20
8.999999999992608
 30
0.0
 11
-1.799999999999954
 21
8.750000000000056
 31
0.0
  0
LINE
  5
6D
330
1E
100
AcDbEntity
  8
1
 62
     7
100
AcDbLine
 10
-1.0
 20
8.75
 30
0.0
 11
-1.799999999999954
 21
8.750000000000056
 31
0.0
  0
LINE
  5
6E
330
1E
100
AcDbEntity
  8
1
 62
     7
100
AcDbLine
 10
-2.599999999999852
 20
8.999999999992608
 30
0.0
 11
-1.799999999999954
 21
8.999999999992608
 31
0.0
  0
LINE
  5
6F
330
1E
100
AcDbEntity
  8
1
 62
     7
100
AcDbLine
 10
-2.599999999999852
 20
8.53350000000006
 30
0.0
 11
-2.599999999999852
 21
8.999999999992608
 31
0.0
  0
LINE
  5
70
330
1E
100
AcDbEntity
  8
1
 62
     7
100
AcDbLine
 10
-3.917268639800851
 20
8.53350000000006
 30
0.0
 11
-2.599999999999852
 21
8.53350000000006
 31
0.0
  0
LINE
  5
71
330
1E
100
AcDbEntity
  8
1
 62
     7
100
AcDbLine
 10
-4.099999999999852
 20
8.850000000000193
 30
0.0
 11
-4.099999999999852
 21
8.999999999990905
 31
0.0
  0
LINE
  5
72
330
1E
100
AcDbEntity
  8
1
 62
     7
100
AcDbLine
 10
-4.099999999999852
 20
8.850000000000193
 30
0.0
 11
-3.917268639800851
 21
8.53350000000006
 31
0.0
  0
LINE
  5
73
330
1E
100
AcDbEntity
  8
1
 62
     3
100
AcDbLine
 10
8.316500000000244
 20
9.0
 30
0.0
 11
6.200000000000046
 21
9.0
 31
0.0
  0
LINE
  5
74
330
1E
100
AcDbEntity
  8
1
 62
     7
100
AcDbLine
 10
8.10000000000025
 20
8.783500000000001
 30
0.0
 11
8.400000000000147
 21
9.083499999999956
 31
0.0
  0
LINE
  5
75
330
1E
100
AcDbEntity
  8
1
 62
     7
100
AcDbLine
 10
3.650000000500142
 20
10.25
 30
0.0
 11
3.400000000500142
 21
10.0
 31
0.0
  0
LINE
  5
76
330
1E
100
AcDbEntity
  8
1
 62
     7
100
AcDbLine
 10
5.200041096312248
 20
10.25
 30
0.0
 11
3.650000000500142
 21
10.25
 31
0.0
  0
LINE
  5
77
330
1E
100
AcDbEntity
  8
1
 62
     7
100
AcDbLine
 10
-6.50001142308065
 20
10.0
 30
0.0
 11
3.400000000500142
 21
10.0
 31
0.0
  0
LINE
  5
78
330
1E
100
AcDbEntity
  8
1
 62
     7
100
AcDbLine
 10
-6.50001142308065
 20
10.0
 30
0.0
 11
-6.799999999999953
 21
9.697382039350598
 31
0.0
  0
LINE
  5
79
330
1E
100
AcDbEntity
  8
1
 62
     7
100
AcDbLine
 10
7.900000000000147
 20
9.349999999999962
 30
0.0
 11
8.400000000000147
 21
9.349999999999962
 31
0.0
  0
LINE
  5
7A
330
1E
100
AcDbEntity
  8
1
 62
     7
100
AcDbLine
 10
8.400000000000147
 20
11.00000000000006
 30
0.0
 11
8.400000000000147
 21
9.083499999999956
 31
0.0
  0
LINE
  5
7B
330
1E
100
AcDbEntity
  8
1
 62
     7
100
AcDbLine
 10
7.900000000000147
 20
10.25
 30
0.0
 11
8.400000000000147
 21
10.25
 31
0.0
  0
LINE
  5
7C
330
1E
100
AcDbEntity
  8
1
 62
     7
100
AcDbLine
 10
7.900000000000147
 20
10.25
 30
0.0
 11
7.900000000000147
 21
9.349999999999962
 31
0.0
  0
LINE
  5
7D
330
1E
100
AcDbEntity
  8
1
 62
     3
100
AcDbLine
 10
-2.599999999999852
 20
8.750000000000056
 30
0.0
 11
-4.042264973080648
 21
8.75
 31
0.0
  0
LINE
  5
7E
330
1E
100
AcDbEntity
  8
1
 62
     7
100
AcDbLine
 10
-1.0
 20
7.299999999999953
 30
0.0
 11
-1.0
 21
8.75
 31
0.0
  0
LINE
  5
7F
330
1E
100
AcDbEntity
  8
1
 62
     7
100
AcDbLine
 10
-1.0
 20
-8.75
 30
0.0
 11
-1.0
 21
-7.300000000000013
 31
0.0
  0
LINE
  5
80
330
1E
100
AcDbEntity
  8
1
 62
     3
100
AcDbLine
 10
-4.042264973080648
 20
-8.75
 30
0.0
 11
-2.599999999999852
 21
-8.75
 31
0.0
  0
LINE
  5
81
330
1E
100
AcDbEntity
  8
1
 62
     7
100
AcDbLine
 10
7.900000000000147
 20
-9.349999999999909
 30
0.0
 11
7.900000000000147
 21
-10.25
 31
0.0
  0
LINE
  5
82
330
1E
100
AcDbEntity
  8
1
 62
     7
100
AcDbLine
 10
8.400000000000147
 20
-10.25
 30
0.0
 11
7.900000000000147
 21
-10.25
 31
0.0
  0
LINE
  5
83
330
1E
100
AcDbEntity
  8
1
 62
     7
100
AcDbLine
 10
8.400000000000147
 20
-9.349999999999909
 30
0.0
 11
7.900000000000147
 21
-9.349999999999909
 31
0.0
  0
LINE
  5
84
330
1E
100
AcDbEntity
  8
1
 62
     7
100
AcDbLine
 10
-6.799999999999953
 20
-9.697382039350543
 30
0.0
 11
-6.50001142308065
 21
-10.0
 31
0.0
  0
LINE
  5
85
330
1E
100
AcDbEntity
  8
1
 62
     7
100
AcDbLine
 10
-6.799999999999953
 20
-9.697382039350543
 30
0.0
 11
-6.799999999999953
 21
-9.181985117124613
 31
0.0
  0
LINE
  5
86
330
1E
100
AcDbEntity
  8
1
 62
     7
100
AcDbLine
 10
8.400000000000147
 20
-13.65000000000001
 30
0.0
 11
5.400041096312349
 21
-13.65000000000001
 31
0.0
  0
LINE
  5
87
330
1E
100
AcDbEntity
  8
1
 62
     7
100
AcDbLine
 10
8.400000000000147
 20
-11.3499999999999
 30
0.0
 11
5.400041096312349
 21
-11.3499999999999
 31
0.0
  0
LINE
  5
88
330
1E
100
AcDbEntity
  8
1
  6
CENTER
 62
     3
100
AcDbLine
 10
8.700495890369152
 20
-12.5
 30
0.0
 11
5.099545205943343
 21
-12.5
 31
0.0
  0
LINE
  5
89
330
1E
100
AcDbEntity
  8
1
 62
     7
100
AcDbLine
 10
8.400000000000147
 20
-14.5
 30
0.0
 11
5.400041096312349
 21
-14.5
 31
0.0
  0
LINE
  5
8A
330
1E
100
AcDbEntity
  8
1
 62
     7
100
AcDbLine
 10
5.400041096312349
 20
-10.45000000000005
 30
0.0
 11
5.400041096312349
 21
-14.5
 31
0.0
  0
LINE
  5
8B
330
1E
100
AcDbEntity
  8
1
 62
     7
100
AcDbLine
 10
3.650000000500142
 20
-10.25
 30
0.0
 11
5.200041096312248
 21
-10.25
 31
0.0
  0
LINE
  5
8C
330
1E
100
AcDbEntity
  8
1
 62
     7
100
AcDbLine
 10
3.400000000500142
 20
-10.0
 30
0.0
 11
3.650000000500142
 21
-10.25
 31
0.0
  0
LINE
  5
8D
330
1E
100
AcDbEntity
  8
1
 62
     7
100
AcDbLine
 10
-1.0
 20
-7.300000000000013
 30
0.0
 11
3.700000000000046
 21
-7.299999999999897
 31
0.0
  0
LINE
  5
8E
330
1E
100
AcDbEntity
  8
1
 62
     7
100
AcDbLine
 10
5.0
 20
-8.783499999999889
 30
0.0
 11
8.10000000000025
 21
-8.783500000000001
 31
0.0
  0
LINE
  5
8F
330
1E
100
AcDbEntity
  8
1
 62
     3
100
AcDbLine
 10
5.60000000000025
 20
-8.999999999999943
 30
0.0
 11
8.316500000000244
 21
-9.0
 31
0.0
  0
LINE
  5
90
330
1E
100
AcDbEntity
  8
1
 62
     7
100
AcDbLine
 10
8.10000000000025
 20
-8.783500000000001
 30
0.0
 11
8.400000000000147
 21
-9.083500000000015
 31
0.0
  0
LINE
  5
91
330
1E
100
AcDbEntity
  8
1
 62
     7
100
AcDbLine
 10
-4.299999999999955
 20
-8.999999999991132
 30
0.0
 11
-6.300000000017746
 21
-8.999999999998292
 31
0.0
  0
LINE
  5
92
330
1E
100
AcDbEntity
  8
1
 62
     7
100
AcDbLine
 10
-4.299999999999955
 20
-8.999999999991132
 30
0.0
 11
-4.099999999999852
 21
-8.999999999991132
 31
0.0
  0
LINE
  5
93
330
1E
100
AcDbEntity
  8
1
 62
     7
100
AcDbLine
 10
-4.099999999999852
 20
-8.999999999991132
 30
0.0
 11
-4.099999999999852
 21
-8.850000000000136
 31
0.0
  0
LINE
  5
94
330
1E
100
AcDbEntity
  8
1
 62
     7
100
AcDbLine
 10
-2.599999999999852
 20
-8.533500000000001
 30
0.0
 11
-3.917268639800851
 21
-8.533500000000001
 31
0.0
  0
LINE
  5
95
330
1E
100
AcDbEntity
  8
1
 62
     7
100
AcDbLine
 10
-2.599999999999852
 20
-8.999999999991644
 30
0.0
 11
-2.599999999999852
 21
-8.533500000000001
 31
0.0
  0
LINE
  5
96
330
1E
100
AcDbEntity
  8
1
 62
     7
100
AcDbLine
 10
-1.799999999999954
 20
-8.999999999991644
 30
0.0
 11
-2.599999999999852
 21
-8.999999999991644
 31
0.0
  0
LINE
  5
97
330
1E
100
AcDbEntity
  8
1
 62
     7
100
AcDbLine
 10
-1.799999999999954
 20
-8.75
 30
0.0
 11
-1.0
 21
-8.75
 31
0.0
  0
LINE
  5
98
330
1E
100
AcDbEntity
  8
1
 62
     7
100
AcDbLine
 10
-3.917268639800851
 20
-8.533500000000001
 30
0.0
 11
-4.099999999999852
 21
-8.850000000000136
 31
0.0
  0
LINE
  5
99
330
1E
100
AcDbEntity
  8
1
 62
     7
100
AcDbLine
 10
-1.799999999999954
 20
-8.75
 30
0.0
 11
-1.799999999999954
 21
-8.999999999991644
 31
0.0
  0
LINE
  5
9A
330
1E
100
AcDbEntity
  8
1
 62
     7
100
AcDbLine
 10
-6.299999999999953
 20
8.999999999992608
 30
0.0
 11
-4.099999999999852
 21
8.999999999990905
 31
0.0
  0
LINE
  5
9B
330
1E
100
AcDbEntity
  8
1
 62
     7
100
AcDbLine
 10
-6.799999999999953
 20
9.181985117125805
 30
0.0
 11
-6.299999999999953
 21
8.999999999992608
 31
0.0
  0
LINE
  5
9C
330
1E
100
AcDbEntity
  8
1
 62
     7
100
AcDbLine
 10
-6.799999999999953
 20
9.181985117125805
 30
0.0
 11
-6.799999999999953
 21
9.697382039350598
 31
0.0
  0
LINE
  5
9D
330
1E
100
AcDbEntity
  8
1
 62
     7
100
AcDbLine
 10
-6.300000000017746
 20
-8.999999999998292
 30
0.0
 11
-6.799999999999953
 21
-9.181985117124613
 31
0.0
  0
LINE
  5
9E
330
1E
100
AcDbEntity
  8
1
 62
     7
100
AcDbLine
 10
3.400000000500142
 20
-10.0
 30
0.0
 11
-6.50001142308065
 21
-10.0
 31
0.0
  0
LINE
  5
9F
330
1E
100
AcDbEntity
  8
1
 62
     7
100
AcDbLine
 10
3.700000000000046
 20
7.300000000000068
 30
0.0
 11
4.0
 21
7.600000000000078
 31
0.0
  0
LINE
  5
A0
330
1E
100
AcDbEntity
  8
1
 62
     7
100
AcDbLine
 10
4.0
 20
8.500000000000056
 30
0.0
 11
4.0
 21
7.600000000000078
 31
0.0
  0
LINE
  5
A1
330
1E
100
AcDbEntity
  8
1
 62
     7
100
AcDbLine
 10
5.0
 20
8.500000000000056
 30
0.0
 11
4.0
 21
8.500000000000056
 31
0.0
  0
LINE
  5
A2
330
1E
100
AcDbEntity
  8
1
 62
     7
100
AcDbLine
 10
4.0
 20
-8.499999999999943
 30
0.0
 11
5.0
 21
-8.499999999999943
 31
0.0
  0
LINE
  5
A3
330
1E
100
AcDbEntity
  8
1
 62
     7
100
AcDbLine
 10
4.0
 20
-7.599999999999909
 30
0.0
 11
3.700000000000046
 21
-7.299999999999897
 31
0.0
  0
LINE
  5
A4
330
1E
100
AcDbEntity
  8
1
 62
     7
100
AcDbLine
 10
4.0
 20
-7.599999999999909
 30
0.0
 11
4.0
 21
-8.499999999999943
 31
0.0
  0
LINE
  5
A5
330
1E
100
AcDbEntity
  8
1
  6
CENTER
 62
     3
100
AcDbLine
 10
-18.58315767673975
 20
0.0
 30
0.0
 11
10.89112938085805
 21
0.0
 31
0.0
  0
LINE
  5
A6
330
1E
100
AcDbEntity
  8
1
 62
     7
100
AcDbLine
 10
9.700000000000043
 20
-6.773499999999842
 30
0.0
 11
9.700000000000043
 21
-8.249999999999943
 31
0.0
  0
LINE
  5
A7
330
1E
100
AcDbEntity
  8
1
 62
     3
100
AcDbLine
 10
8.016500000000348
 20
8.78350000000006
 30
0.0
 11
5.983499999999933
 21
8.783500000000287
 31
0.0
  0
LINE
  5
A8
330
1E
100
AcDbEntity
  8
1
 62
     7
100
AcDbLine
 10
6.200000000000046
 20
-9.0
 30
0.0
 11
5.700000000000046
 21
-8.499999999999829
 31
0.0
  0
LINE
  5
A9
330
1E
100
AcDbEntity
  8
1
 62
     7
100
AcDbLine
 10
5.700000000000046
 20
8.50000000000017
 30
0.0
 11
4.25
 21
8.500000000000284
 31
0.0
  0
LINE
  5
AA
330
1E
100
AcDbEntity
  8
1
 62
     7
100
AcDbLine
 10
6.200000000000046
 20
9.0
 30
0.0
 11
5.700000000000046
 21
8.50000000000017
 31
0.0
  0
LINE
  5
AB
330
1E
100
AcDbEntity
  8
1
 62
     7
100
AcDbLine
 10
4.25
 20
-8.499999999999715
 30
0.0
 11
5.700000000000046
 21
-8.499999999999829
 31
0.0
  0
LINE
  5
AC
330
1E
100
AcDbEntity
  8
1
 62
     7
100
AcDbLine
 10
4.0
 20
8.25000000000017
 30
0.0
 11
4.25
 21
8.500000000000284
 31
0.0
  0
LINE
  5
AD
330
1E
100
AcDbEntity
  8
1
  6
CENTER
 62
     3
100
AcDbLine
 10
9.931412672988244
 20
7.699999999999986
 30
0.0
 11
7.461831032865347
 21
7.699999999999986
 31
0.0
  0
LINE
  5
AE
330
1E
100
AcDbEntity
  8
1
 62
     7
100
AcDbLine
 10
8.0
 20
8.199999999999986
 30
0.0
 11
7.711324865406141
 21
7.699999999999986
 31
0.0
  0
LINE
  5
AF
330
1E
100
AcDbEntity
  8
1
 62
     7
100
AcDbLine
 10
7.711324865406141
 20
7.699999999999986
 30
0.0
 11
8.0
 21
7.199999999999986
 31
0.0
  0
LINE
  5
B0
330
1E
100
AcDbEntity
  8
1
 62
     7
100
AcDbLine
 10
8.0
 20
8.199999999999986
 30
0.0
 11
8.0
 21
7.199999999999986
 31
0.0
  0
LINE
  5
B1
330
1E
100
AcDbEntity
  8
1
 62
     7
100
AcDbLine
 10
9.700000000000043
 20
7.199999999999986
 30
0.0
 11
8.0
 21
7.199999999999986
 31
0.0
  0
LINE
  5
B2
330
1E
100
AcDbEntity
  8
1
 62
     7
100
AcDbLine
 10
9.700000000000043
 20
8.199999999999986
 30
0.0
 11
8.0
 21
8.199999999999986
 31
0.0
  0
LINE
  5
B3
330
1E
100
AcDbEntity
  8
1
 62
     7
100
AcDbLine
 10
6.200000000000046
 20
-6.773499999999842
 30
0.0
 11
9.700000000000043
 21
-6.773499999999842
 31
0.0
  0
LINE
  5
B4
330
1E
100
AcDbEntity
  8
1
 62
     7
100
AcDbLine
 10
9.700000000000043
 20
-8.249999999999943
 30
0.0
 11
9.450000000000043
 21
-8.499999999999943
 31
0.0
  0
LINE
  5
B5
330
1E
100
AcDbEntity
  8
1
 62
     7
100
AcDbLine
 10
9.450000000000043
 20
-8.499999999999943
 30
0.0
 11
8.300000000000352
 21
-8.499999999999943
 31
0.0
  0
LINE
  5
B6
330
1E
100
AcDbEntity
  8
1
 62
     7
100
AcDbLine
 10
8.300000000000352
 20
-8.499999999999943
 30
0.0
 11
7.800000000000352
 21
-8.999999999999827
 31
0.0
  0
LINE
  5
B7
330
1E
100
AcDbEntity
  8
1
 62
     7
100
AcDbLine
 10
4.0
 20
-7.5
 30
0.0
 11
6.200000000000046
 21
-7.499999999999943
 31
0.0
  0
LINE
  5
B8
330
1E
100
AcDbEntity
  8
1
 62
     7
100
AcDbLine
 10
6.200000000000046
 20
-6.773499999999842
 30
0.0
 11
6.200000000000046
 21
-7.499999999999943
 31
0.0
  0
LINE
  5
B9
330
1E
100
AcDbEntity
  8
1
 62
     7
100
AcDbLine
 10
6.200000000000046
 20
7.500000000000056
 30
0.0
 11
6.200000000000046
 21
6.773499999999955
 31
0.0
  0
LINE
  5
BA
330
1E
100
AcDbEntity
  8
1
 62
     7
100
AcDbLine
 10
6.200000000000046
 20
7.500000000000056
 30
0.0
 11
4.0
 21
7.500000000000056
 31
0.0
  0
LINE
  5
BB
330
1E
100
AcDbEntity
  8
1
 62
     7
100
AcDbLine
 10
7.800000000000352
 20
9.000000000000056
 30
0.0
 11
8.300000000000352
 21
8.500000000000056
 31
0.0
  0
LINE
  5
BC
330
1E
100
AcDbEntity
  8
1
 62
     7
100
AcDbLine
 10
8.300000000000352
 20
8.500000000000056
 30
0.0
 11
9.450000000000043
 21
8.500000000000056
 31
0.0
  0
LINE
  5
BD
330
1E
100
AcDbEntity
  8
1
 62
     7
100
AcDbLine
 10
9.450000000000043
 20
8.500000000000056
 30
0.0
 11
9.700000000000043
 21
8.25000000000017
 31
0.0
  0
LINE
  5
BE
330
1E
100
AcDbEntity
  8
1
 62
     7
100
AcDbLine
 10
4.0
 20
7.500000000000056
 30
0.0
 11
4.0
 21
8.25000000000017
 31
0.0
  0
LINE
  5
BF
330
1E
100
AcDbEntity
  8
1
 62
     7
100
AcDbLine
 10
9.700000000000043
 20
8.25000000000017
 30
0.0
 11
9.700000000000043
 21
6.77350000000007
 31
0.0
  0
LINE
  5
C0
330
1E
100
AcDbEntity
  8
1
 62
     7
100
AcDbLine
 10
9.700000000000043
 20
6.77350000000007
 30
0.0
 11
6.200000000000046
 21
6.773499999999955
 31
0.0
  0
LINE
  5
C1
330
1E
100
AcDbEntity
  8
1
 62
     7
100
AcDbLine
 10
4.0
 20
-8.249999999999829
 30
0.0
 11
4.25
 21
-8.499999999999715
 31
0.0
  0
LINE
  5
C2
330
1E
100
AcDbEntity
  8
1
 62
     7
100
AcDbLine
 10
4.0
 20
-7.5
 30
0.0
 11
4.0
 21
-8.249999999999829
 31
0.0
  0
LINE
  5
C3
330
1E
100
AcDbEntity
  8
1
 62
     3
100
AcDbLine
 10
5.983500000000105
 20
-8.783499999999831
 30
0.0
 11
8.016500000000348
 21
-8.783499999999831
 31
0.0
  0
LINE
  5
C4
330
1E
100
AcDbEntity
  8
1
 62
     7
100
AcDbLine
 10
-3.5
 20
2.5
 30
0.0
 11
-16.99999999999898
 21
2.5
 31
0.0
  0
LINE
  5
C5
330
1E
100
AcDbEntity
  8
1
 62
     7
100
AcDbLine
 10
-17.29999999999916
 20
2.2000000000001
 30
0.0
 11
-16.99999999999898
 21
2.5
 31
0.0
  0
LINE
  5
C6
330
1E
100
AcDbEntity
  8
1
 62
     7
100
AcDbLine
 10
-16.99999999999898
 20
2.5
 30
0.0
 11
-16.99999999999898
 21
1.356465996625104
 31
0.0
  0
LINE
  5
C7
330
1E
100
AcDbEntity
  8
1
 62
     7
100
AcDbLine
 10
-16.99999999999898
 20
-1.356465996624991
 30
0.0
 11
-16.99999999999898
 21
-2.5
 31
0.0
  0
LINE
  5
C8
330
1E
100
AcDbEntity
  8
1
 62
     7
100
AcDbLine
 10
-8.299999999999156
 20
1.356465996623001
 30
0.0
 11
-8.299999999999156
 21
-1.356465996624991
 31
0.0
  0
LINE
  5
C9
330
1E
100
AcDbEntity
  8
1
 62
     7
100
AcDbLine
 10
-8.299999999999156
 20
-1.356465996624991
 30
0.0
 11
-17.29999999999916
 21
-1.356465996624991
 31
0.0
  0
LINE
  5
CA
330
1E
100
AcDbEntity
  8
1
 62
     7
100
AcDbLine
 10
-17.29999999999916
 20
1.356465996625104
 30
0.0
 11
-8.299999999999156
 21
1.356465996625104
 31
0.0
  0
LINE
  5
CB
330
1E
100
AcDbEntity
  8
1
 62
     3
100
AcDbLine
 10
-17.29999999999916
 20
1.356465996625104
 30
0.0
 11
-8.299999999999156
 21
-1.356465996624991
 31
0.0
  0
LINE
  5
CC
330
1E
100
AcDbEntity
  8
1
 62
     3
100
AcDbLine
 10
-8.299999999999156
 20
1.356465996625104
 30
0.0
 11
-17.29999999999916
 21
-1.356465996624991
 31
0.0
  0
LINE
  5
CD
330
1E
100
AcDbEntity
  8
1
 62
     7
100
AcDbLine
 10
-16.99999999999898
 20
-2.5
 30
0.0
 11
-17.29999999999916
 21
-2.200000000000045
 31
0.0
  0
LINE
  5
CE
330
1E
100
AcDbEntity
  8
1
 62
     7
100
AcDbLine
 10
-17.29999999999916
 20
2.2000000000001
 30
0.0
 11
-17.29999999999916
 21
-2.200000000000045
 31
0.0
  0
LINE
  5
CF
330
1E
100
AcDbEntity
  8
1
 62
     7
100
AcDbLine
 10
-4.916025403784543
 20
0.0000000000000568
 30
0.0
 11
-4.049999999999955
 21
-1.499999999999943
 31
0.0
  0
LINE
  5
D0
330
1E
100
AcDbEntity
  8
1
 62
     7
100
AcDbLine
 10
-4.049999999999955
 20
0.0
 30
0.0
 11
-4.049999999999955
 21
1.719999999999969
 31
0.0
  0
LINE
  5
D1
330
1E
100
AcDbEntity
  8
1
 62
     7
100
AcDbLine
 10
-4.049999999999955
 20
1.500000000000055
 30
0.0
 11
-4.916025403784543
 21
0.0000000000000568
 31
0.0
  0
LINE
  5
D2
330
1E
100
AcDbEntity
  8
1
 62
     7
100
AcDbLine
 10
-4.049999999999955
 20
0.8539745962149821
 30
0.0
 11
-1.75
 21
0.8539745962149821
 31
0.0
  0
LINE
  5
D3
330
1E
100
AcDbEntity
  8
1
 62
     7
100
AcDbLine
 10
-4.049999999999955
 20
1.719999999999969
 30
0.0
 11
-1.59618802153585
 21
1.719999999999969
 31
0.0
  0
LINE
  5
D4
330
1E
100
AcDbEntity
  8
1
 62
     7
100
AcDbLine
 10
-1.75
 20
-0.8539745962150957
 30
0.0
 11
-4.049999999999955
 21
-0.8539745962150957
 31
0.0
  0
LINE
  5
D5
330
1E
100
AcDbEntity
  8
1
 62
     7
100
AcDbLine
 10
0.0
 20
2.5
 30
0.0
 11
-1.55000000000075
 21
2.5
 31
0.0
  0
LINE
  5
D6
330
1E
100
AcDbEntity
  8
1
 62
     7
100
AcDbLine
 10
-1.55000000000075
 20
1.799999999999898
 30
0.0
 11
-1.75
 21
1.453589838485755
 31
0.0
  0
LINE
  5
D7
330
1E
100
AcDbEntity
  8
1
 62
     7
100
AcDbLine
 10
-3.5
 20
2.5
 30
0.0
 11
-3.5
 21
3.199999999998908
 31
0.0
  0
LINE
  5
D8
330
1E
100
AcDbEntity
  8
1
 62
     7
100
AcDbLine
 10
-3.5
 20
3.199999999998908
 30
0.0
 11
-3.199999999999647
 21
3.499999999999203
 31
0.0
  0
LINE
  5
D9
330
1E
100
AcDbEntity
  8
1
 62
     7
100
AcDbLine
 10
9.700000000000043
 20
-6.599999999999909
 30
0.0
 11
9.700000000000043
 21
-6.513000000001142
 31
0.0
  0
LINE
  5
DA
330
1E
100
AcDbEntity
  8
1
 62
     7
100
AcDbLine
 10
9.33500000000015
 20
-6.96500000000111
 30
0.0
 11
9.700000000000043
 21
-6.599999999999909
 31
0.0
  0
LINE
  5
DB
330
1E
100
AcDbEntity
  8
1
 62
     7
100
AcDbLine
 10
0.3000000000003524
 20
-6.513000000001142
 30
0.0
 11
9.700000000000043
 21
-6.513000000001142
 31
0.0
  0
LINE
  5
DC
330
1E
100
AcDbEntity
  8
1
 62
     7
100
AcDbLine
 10
-0.3745750321188552
 20
-4.200000000001011
 30
0.0
 11
-0.5999999999998522
 21
-3.5
 31
0.0
  0
LINE
  5
DD
330
1E
100
AcDbEntity
  8
1
 62
     7
100
AcDbLine
 10
9.33500000000015
 20
-6.96500000000111
 30
0.0
 11
6.972622003414768
 21
-6.96500000000111
 31
0.0
  0
LINE
  5
DE
330
1E
100
AcDbEntity
  8
1
 62
     7
100
AcDbLine
 10
-0.5999999999998522
 20
3.499999999999203
 30
0.0
 11
-0.3745750321188552
 21
4.199999999998907
 31
0.0
  0
LINE
  5
DF
330
1E
100
AcDbEntity
  8
1
 62
     7
100
AcDbLine
 10
9.700000000000043
 20
6.599999999998998
 30
0.0
 11
9.33500000000015
 21
6.964999999999009
 31
0.0
  0
LINE
  5
E0
330
1E
100
AcDbEntity
  8
1
 62
     7
100
AcDbLine
 10
6.966873425098955
 20
6.964999999999009
 30
0.0
 11
9.33500000000015
 21
6.964999999999009
 31
0.0
  0
LINE
  5
E1
330
1E
100
AcDbEntity
  8
1
 62
     7
100
AcDbLine
 10
9.700000000000043
 20
6.51299999999887
 30
0.0
 11
9.700000000000043
 21
6.599999999998998
 31
0.0
  0
LINE
  5
E2
330
1E
100
AcDbEntity
  8
1
 62
     7
100
AcDbLine
 10
0.0
 20
6.212999999998972
 30
0.0
 11
0.0
 21
-6.213000000001132
 31
0.0
  0
LINE
  5
E3
330
1E
100
AcDbEntity
  8
1
 62
     7
100
AcDbLine
 10
9.700000000000043
 20
6.51299999999887
 30
0.0
 11
0.3000000000003524
 21
6.51299999999887
 31
0.0
  0
LINE
  5
E4
330
1E
100
AcDbEntity
  8
1
 62
     7
100
AcDbLine
 10
-16.99999999999898
 20
-2.5
 30
0.0
 11
-3.5
 21
-2.5
 31
0.0
  0
LINE
  5
E5
330
1E
100
AcDbEntity
  8
1
 62
     7
100
AcDbLine
 10
-0.7999999999999547
 20
-3.283500000000004
 30
0.0
 11
-0.7999999999999547
 21
-3.5
 31
0.0
  0
LINE
  5
E6
330
1E
100
AcDbEntity
  8
1
 62
     7
100
AcDbLine
 10
-3.199999999999647
 20
-3.5
 30
0.0
 11
-0.5999999999998522
 21
-3.5
 31
0.0
  0
LINE
  5
E7
330
1E
100
AcDbEntity
  8
1
 62
     7
100
AcDbLine
 10
-0.5999999999998522
 20
-3.5
 30
0.0
 11
-0.7999999999999547
 21
-3.283500000000004
 31
0.0
  0
LINE
  5
E8
330
1E
100
AcDbEntity
  8
1
 62
     7
100
AcDbLine
 10
-0.7999999999999547
 20
3.28349999999881
 30
0.0
 11
-0.5999999999998522
 21
3.499999999999203
 31
0.0
  0
LINE
  5
E9
330
1E
100
AcDbEntity
  8
1
 62
     7
100
AcDbLine
 10
-0.5999999999998522
 20
3.499999999999203
 30
0.0
 11
-3.199999999999647
 21
3.499999999999203
 31
0.0
  0
LINE
  5
EA
330
1E
100
AcDbEntity
  8
1
 62
     7
100
AcDbLine
 10
-3.416499999999758
 20
3.28349999999881
 30
0.0
 11
-0.7999999999999547
 21
3.28349999999881
 31
0.0
  0
LINE
  5
EB
330
1E
100
AcDbEntity
  8
1
 62
     7
100
AcDbLine
 10
-0.7999999999999547
 20
3.499999999999203
 30
0.0
 11
-0.7999999999999547
 21
3.28349999999881
 31
0.0
  0
LINE
  5
EC
330
1E
100
AcDbEntity
  8
1
 62
     7
100
AcDbLine
 10
-4.049999999999955
 20
-1.720000000000139
 30
0.0
 11
-4.049999999999955
 21
1.719999999999969
 31
0.0
  0
LINE
  5
ED
330
1E
100
AcDbEntity
  8
1
 62
     7
100
AcDbLine
 10
-1.55000000000075
 20
-2.5
 30
0.0
 11
0.0
 21
-2.5
 31
0.0
  0
LINE
  5
EE
330
1E
100
AcDbEntity
  8
1
 62
     7
100
AcDbLine
 10
-1.55000000000075
 20
2.5
 30
0.0
 11
-1.55000000000075
 21
-2.5
 31
0.0
  0
LINE
  5
EF
330
1E
100
AcDbEntity
  8
1
 62
     7
100
AcDbLine
 10
-1.75
 20
-1.453589838486094
 30
0.0
 11
-1.55000000000075
 21
-1.800000000000011
 31
0.0
  0
LINE
  5
F0
330
1E
100
AcDbEntity
  8
1
 62
     7
100
AcDbLine
 10
-1.75
 20
1.453589838485755
 30
0.0
 11
-1.75
 21
-1.453589838486094
 31
0.0
  0
LINE
  5
F1
330
1E
100
AcDbEntity
  8
1
 62
     7
100
AcDbLine
 10
-1.59618802153585
 20
-1.720000000000139
 30
0.0
 11
-4.049999999999955
 21
-1.720000000000139
 31
0.0
  0
LINE
  5
F2
330
1E
100
AcDbEntity
  8
1
 62
     7
100
AcDbLine
 10
-3.5
 20
-3.200000000000101
 30
0.0
 11
-3.199999999999647
 21
-3.5
 31
0.0
  0
LINE
  5
F3
330
1E
100
AcDbEntity
  8
1
 62
     7
100
AcDbLine
 10
-3.5
 20
-2.5
 30
0.0
 11
-3.5
 21
-3.200000000000101
 31
0.0
  0
LINE
  5
F4
330
1E
100
AcDbEntity
  8
1
 62
     7
100
AcDbLine
 10
-0.7999999999999547
 20
-3.283500000000004
 30
0.0
 11
-3.416499999999758
 21
-3.283500000000004
 31
0.0
  0
LINE
  5
F5
330
1E
100
AcDbEntity
  8
1
 62
     7
100
AcDbLine
 10
-1.0
 20
6.5
 30
0.0
 11
-1.0
 21
3.583499999999901
 31
0.0
  0
LINE
  5
F6
330
1E
100
AcDbEntity
  8
1
 62
     7
100
AcDbLine
 10
-2.569999999999652
 20
6.005186429978096
 30
0.0
 11
-2.493301270188851
 21
5.872340333069871
 31
0.0
  0
LINE
  5
F7
330
1E
100
AcDbEntity
  8
1
 62
     7
100
AcDbLine
 10
-3.499999980799656
 20
3.999999982000304
 30
0.0
 11
-1.0
 21
3.999999982000304
 31
0.0
  0
LINE
  5
F8
330
1E
100
AcDbEntity
  8
1
 62
     7
100
AcDbLine
 10
-3.499999980799656
 20
3.999999982000304
 30
0.0
 11
-3.499999980799656
 21
4.300000000000068
 31
0.0
  0
LINE
  5
F9
330
1E
100
AcDbEntity
  8
1
 62
     7
100
AcDbLine
 10
-2.406698729810555
 20
5.872340333069871
 30
0.0
 11
-2.329999999999755
 21
6.005186429978096
 31
0.0
  0
LINE
  5
FA
330
1E
100
AcDbEntity
  8
1
 62
     3
100
AcDbLine
 10
-2.049999999999954
 20
4.300000000000068
 30
0.0
 11
-1.0
 21
4.300000000000068
 31
0.0
  0
LINE
  5
FB
330
1E
100
AcDbEntity
  8
1
 62
     7
100
AcDbLine
 10
-2.049999999999954
 20
4.500000000000171
 30
0.0
 11
-1.0
 21
4.500000000000171
 31
0.0
  0
LINE
  5
FC
330
1E
100
AcDbEntity
  8
1
 62
     7
100
AcDbLine
 10
-2.049999999999954
 20
5.50000000000017
 30
0.0
 11
-1.0
 21
5.50000000000017
 31
0.0
  0
LINE
  5
FD
330
1E
100
AcDbEntity
  8
1
 62
     3
100
AcDbLine
 10
-2.049999999999954
 20
5.70000000000016
 30
0.0
 11
-1.0
 21
5.70000000000016
 31
0.0
  0
LINE
  5
FE
330
1E
100
AcDbEntity
  8
1
 62
     7
100
AcDbLine
 10
-2.049999999999954
 20
4.300000000000068
 30
0.0
 11
-2.049999999999954
 21
5.70000000000016
 31
0.0
  0
LINE
  5
FF
330
1E
100
AcDbEntity
  8
1
 62
     7
100
AcDbLine
 10
-7.0
 20
6.5
 30
0.0
 11
-7.299999999999953
 21
6.326794919242956
 31
0.0
  0
LINE
  5
100
330
1E
100
AcDbEntity
  8
1
 62
     7
100
AcDbLine
 10
-6.549999999999953
 20
6.150000000000203
 30
0.0
 11
-7.299999999999953
 21
6.150000000000262
 31
0.0
  0
LINE
  5
101
330
1E
100
AcDbEntity
  8
1
 62
     7
100
AcDbLine
 10
-6.549999999999953
 20
5.75000000000017
 30
0.0
 11
-6.549999999999953
 21
6.150000000000203
 31
0.0
  0
LINE
  5
102
330
1E
100
AcDbEntity
  8
1
 62
     7
100
AcDbLine
 10
-6.549999999999953
 20
3.850000000000193
 30
0.0
 11
-6.549999999999953
 21
4.250000000000171
 31
0.0
  0
LINE
  5
103
330
1E
100
AcDbEntity
  8
1
 62
     7
100
AcDbLine
 10
-6.549999999999953
 20
3.850000000000193
 30
0.0
 11
-7.299999999999953
 21
3.850000000000193
 31
0.0
  0
LINE
  5
104
330
1E
100
AcDbEntity
  8
1
 62
     7
100
AcDbLine
 10
-5.949999999999647
 20
4.500000000000171
 30
0.0
 11
-6.449999999999647
 21
4.500000000000171
 31
0.0
  0
LINE
  5
105
330
1E
100
AcDbEntity
  8
1
 62
     7
100
AcDbLine
 10
-6.296410161513847
 20
4.500000000000171
 30
0.0
 11
-5.949999999999647
 21
4.300000000000068
 31
0.0
  0
LINE
  5
106
330
1E
100
AcDbEntity
  8
1
 62
     7
100
AcDbLine
 10
-6.449999999999647
 20
5.50000000000017
 30
0.0
 11
-5.949999999999647
 21
5.50000000000017
 31
0.0
  0
LINE
  5
107
330
1E
100
AcDbEntity
  8
1
 62
     7
100
AcDbLine
 10
-5.949999999999647
 20
5.70000000000016
 30
0.0
 11
-6.296410161513847
 21
5.50000000000017
 31
0.0
  0
LINE
  5
108
330
1E
100
AcDbEntity
  8
1
 62
     7
100
AcDbLine
 10
-7.049999999999953
 20
4.000000000000171
 30
0.0
 11
-6.549999999999953
 21
4.000000000000171
 31
0.0
  0
LINE
  5
109
330
1E
100
AcDbEntity
  8
1
 62
     7
100
AcDbLine
 10
-7.049999999999953
 20
4.840000000000202
 30
0.0
 11
-7.049999999999953
 21
4.000000000000171
 31
0.0
  0
LINE
  5
10A
330
1E
100
AcDbEntity
  8
1
 62
     7
100
AcDbLine
 10
-6.549999999999953
 20
4.000000000000171
 30
0.0
 11
-6.549999999999953
 21
5.000000000000171
 31
0.0
  0
LINE
  5
10B
330
1E
100
AcDbEntity
  8
1
 62
     7
100
AcDbLine
 10
-5.949999999999647
 20
5.70000000000016
 30
0.0
 11
-5.949999999999647
 21
4.300000000000068
 31
0.0
  0
LINE
  5
10C
330
1E
100
AcDbEntity
  8
1
 62
     7
100
AcDbLine
 10
-7.049999999999953
 20
5.160000000000308
 30
0.0
 11
-6.75
 21
5.160000000000308
 31
0.0
  0
LINE
  5
10D
330
1E
100
AcDbEntity
  8
1
 62
     7
100
AcDbLine
 10
-7.049999999999953
 20
6.00000000000017
 30
0.0
 11
-7.049999999999953
 21
5.160000000000308
 31
0.0
  0
LINE
  5
10E
330
1E
100
AcDbEntity
  8
1
 62
     7
100
AcDbLine
 10
-7.049999999999953
 20
4.840000000000202
 30
0.0
 11
-6.75
 21
4.840000000000202
 31
0.0
  0
LINE
  5
10F
330
1E
100
AcDbEntity
  8
1
 62
     7
100
AcDbLine
 10
-6.75
 20
4.840000000000202
 30
0.0
 11
-6.75
 21
5.160000000000308
 31
0.0
  0
LINE
  5
110
330
1E
100
AcDbEntity
  8
1
 62
     3
100
AcDbLine
 10
-2.049999999999954
 20
5.50000000000017
 30
0.0
 11
-5.949999999999647
 21
5.50000000000017
 31
0.0
  0
LINE
  5
111
330
1E
100
AcDbEntity
  8
1
 62
     3
100
AcDbLine
 10
-2.049999999999954
 20
4.500000000000171
 30
0.0
 11
-5.949999999999647
 21
4.500000000000171
 31
0.0
  0
LINE
  5
112
330
1E
100
AcDbEntity
  8
1
 62
     7
100
AcDbLine
 10
-3.499999980799656
 20
3.999999982000304
 30
0.0
 11
-3.499999980799656
 21
4.300000000000068
 31
0.0
  0
LINE
  5
113
330
1E
100
AcDbEntity
  8
1
 62
     7
100
AcDbLine
 10
-3.499999980799656
 20
4.250000000000171
 30
0.0
 11
-6.549999999999953
 21
4.250000000000171
 31
0.0
  0
LINE
  5
114
330
1E
100
AcDbEntity
  8
1
 62
     7
100
AcDbLine
 10
-3.499999980799656
 20
3.999999982000304
 30
0.0
 11
-3.499999980799656
 21
4.300000000000068
 31
0.0
  0
LINE
  5
115
330
1E
100
AcDbEntity
  8
1
 62
     7
100
AcDbLine
 10
-3.499999980799656
 20
3.999999982000304
 30
0.0
 11
-1.0
 21
3.999999982000304
 31
0.0
  0
LINE
  5
116
330
1E
100
AcDbEntity
  8
1
 62
     7
100
AcDbLine
 10
-5.949999999999647
 20
4.300000000000068
 30
0.0
 11
-2.049999999999954
 21
4.300000000000068
 31
0.0
  0
LINE
  5
117
330
1E
100
AcDbEntity
  8
1
 62
     3
100
AcDbLine
 10
-2.049999999999954
 20
4.300000000000068
 30
0.0
 11
-1.0
 21
4.300000000000068
 31
0.0
  0
LINE
  5
118
330
1E
100
AcDbEntity
  8
1
 62
     7
100
AcDbLine
 10
-2.049999999999954
 20
4.500000000000171
 30
0.0
 11
-1.0
 21
4.500000000000171
 31
0.0
  0
LINE
  5
119
330
1E
100
AcDbEntity
  8
1
 62
     7
100
AcDbLine
 10
-2.049999999999954
 20
5.50000000000017
 30
0.0
 11
-1.0
 21
5.50000000000017
 31
0.0
  0
LINE
  5
11A
330
1E
100
AcDbEntity
  8
1
 62
     3
100
AcDbLine
 10
-2.049999999999954
 20
5.70000000000016
 30
0.0
 11
-1.0
 21
5.70000000000016
 31
0.0
  0
LINE
  5
11B
330
1E
100
AcDbEntity
  8
1
 62
     7
100
AcDbLine
 10
-2.049999999999954
 20
5.70000000000016
 30
0.0
 11
-5.949999999999647
 21
5.70000000000016
 31
0.0
  0
LINE
  5
11C
330
1E
100
AcDbEntity
  8
1
 62
     7
100
AcDbLine
 10
-3.499999980799656
 20
5.70000000000016
 30
0.0
 11
-3.499999980799656
 21
6.5
 31
0.0
  0
LINE
  5
11D
330
1E
100
AcDbEntity
  8
1
 62
     7
100
AcDbLine
 10
-6.549999999999953
 20
5.75000000000017
 30
0.0
 11
-3.499999980799656
 21
5.75000000000017
 31
0.0
  0
LINE
  5
11E
330
1E
100
AcDbEntity
  8
1
 62
     7
100
AcDbLine
 10
-5.949999999999647
 20
5.70000000000016
 30
0.0
 11
-6.296410161513847
 21
5.50000000000017
 31
0.0
  0
LINE
  5
11F
330
1E
100
AcDbEntity
  8
1
 62
     7
100
AcDbLine
 10
-5.949999999999647
 20
5.70000000000016
 30
0.0
 11
-5.949999999999647
 21
4.300000000000068
 31
0.0
  0
LINE
  5
120
330
1E
100
AcDbEntity
  8
1
 62
     7
100
AcDbLine
 10
-5.949999999999647
 20
4.500000000000171
 30
0.0
 11
-6.449999999999647
 21
4.500000000000171
 31
0.0
  0
LINE
  5
121
330
1E
100
AcDbEntity
  8
1
 62
     7
100
AcDbLine
 10
-6.296410161513847
 20
4.500000000000171
 30
0.0
 11
-5.949999999999647
 21
4.300000000000068
 31
0.0
  0
LINE
  5
122
330
1E
100
AcDbEntity
  8
1
 62
     7
100
AcDbLine
 10
-3.499999980799656
 20
4.250000000000171
 30
0.0
 11
-6.549999999999953
 21
4.250000000000171
 31
0.0
  0
LINE
  5
123
330
1E
100
AcDbEntity
  8
1
 62
     7
100
AcDbLine
 10
-5.949999999999647
 20
4.500000000000171
 30
0.0
 11
-6.449999999999647
 21
4.500000000000171
 31
0.0
  0
LINE
  5
124
330
1E
100
AcDbEntity
  8
1
 62
     7
100
AcDbLine
 10
-6.549999999999953
 20
4.000000000000171
 30
0.0
 11
-6.549999999999953
 21
5.000000000000171
 31
0.0
  0
LINE
  5
125
330
1E
100
AcDbEntity
  8
1
 62
     7
100
AcDbLine
 10
-6.549999999999953
 20
4.000000000000171
 30
0.0
 11
-6.549999999999953
 21
6.00000000000017
 31
0.0
  0
LINE
  5
126
330
1E
100
AcDbEntity
  8
1
 62
     7
100
AcDbLine
 10
-6.549999999999953
 20
3.850000000000193
 30
0.0
 11
-7.299999999999953
 21
3.850000000000193
 31
0.0
  0
LINE
  5
127
330
1E
100
AcDbEntity
  8
1
 62
     7
100
AcDbLine
 10
-6.549999999999953
 20
3.850000000000193
 30
0.0
 11
-6.549999999999953
 21
6.150000000000203
 31
0.0
  0
LINE
  5
128
330
1E
100
AcDbEntity
  8
1
 62
     7
100
AcDbLine
 10
-6.549999999999953
 20
6.150000000000203
 30
0.0
 11
-7.299999999999953
 21
6.150000000000262
 31
0.0
  0
LINE
  5
129
330
1E
100
AcDbEntity
  8
1
 62
     7
100
AcDbLine
 10
-6.549999999999953
 20
6.00000000000017
 30
0.0
 11
-7.049999999999953
 21
6.00000000000017
 31
0.0
  0
LINE
  5
12A
330
1E
100
AcDbEntity
  8
1
 62
     7
100
AcDbLine
 10
-7.049999999999953
 20
6.00000000000017
 30
0.0
 11
-7.049999999999953
 21
5.160000000000308
 31
0.0
  0
LINE
  5
12B
330
1E
100
AcDbEntity
  8
1
  6
CENTER
 62
     3
100
AcDbLine
 10
-7.500869218616855
 20
5.000000000000171
 30
0.0
 11
-0.5544656680919502
 21
5.000000000000171
 31
0.0
  0
LINE
  5
12C
330
1E
100
AcDbEntity
  8
1
 62
     7
100
AcDbLine
 10
-7.049999999999953
 20
5.160000000000308
 30
0.0
 11
-6.75
 21
5.160000000000308
 31
0.0
  0
LINE
  5
12D
330
1E
100
AcDbEntity
  8
1
 62
     7
100
AcDbLine
 10
-6.75
 20
4.840000000000202
 30
0.0
 11
-6.75
 21
5.160000000000308
 31
0.0
  0
LINE
  5
12E
330
1E
100
AcDbEntity
  8
1
 62
     7
100
AcDbLine
 10
-7.049999999999953
 20
5.160000000000308
 30
0.0
 11
-6.75
 21
5.160000000000308
 31
0.0
  0
LINE
  5
12F
330
1E
100
AcDbEntity
  8
1
 62
     7
100
AcDbLine
 10
-7.049999999999953
 20
4.840000000000202
 30
0.0
 11
-7.049999999999953
 21
4.000000000000171
 31
0.0
  0
LINE
  5
130
330
1E
100
AcDbEntity
  8
1
 62
     7
100
AcDbLine
 10
-2.569999999999652
 20
-6.005186429978096
 30
0.0
 11
-2.493301270188851
 21
-5.872340333069927
 31
0.0
  0
LINE
  5
131
330
1E
100
AcDbEntity
  8
1
 62
     7
100
AcDbLine
 10
-2.569999999999652
 20
6.005186429978096
 30
0.0
 11
-2.493301270188851
 21
5.872340333069871
 31
0.0
  0
LINE
  5
132
330
1E
100
AcDbEntity
  8
1
 62
     7
100
AcDbLine
 10
-3.5
 20
3.599999999999908
 30
0.0
 11
-3.5
 21
2.799999999999898
 31
0.0
  0
LINE
  5
133
330
1E
100
AcDbEntity
  8
1
 62
     7
100
AcDbLine
 10
-3.5
 20
-2.800000000000125
 30
0.0
 11
-3.5
 21
-3.599999999999793
 31
0.0
  0
LINE
  5
134
330
1E
100
AcDbEntity
  8
1
 62
     7
100
AcDbLine
 10
-3.5
 20
-3.599999999999793
 30
0.0
 11
-2.699999999999647
 21
-3.600000000000136
 31
0.0
  0
LINE
  5
135
330
1E
100
AcDbEntity
  8
1
 62
     3
100
AcDbLine
 10
-1.083499999999957
 20
-3.5
 30
0.0
 11
-2.699999999999647
 21
-3.5
 31
0.0
  0
LINE
  5
136
330
1E
100
AcDbEntity
  8
1
 62
     3
100
AcDbLine
 10
-2.699999999999647
 20
3.5
 30
0.0
 11
-1.083499999999957
 21
3.5
 31
0.0
  0
LINE
  5
137
330
1E
100
AcDbEntity
  8
1
 62
     7
100
AcDbLine
 10
-1.083499999999957
 20
-3.5
 30
0.0
 11
-1.0
 21
-3.583500000000128
 31
0.0
  0
LINE
  5
138
330
1E
100
AcDbEntity
  8
1
 62
     7
100
AcDbLine
 10
-2.699999999999647
 20
-3.283500000000004
 30
0.0
 11
-1.299999999999955
 21
-3.283500000000004
 31
0.0
  0
LINE
  5
139
330
1E
100
AcDbEntity
  8
1
 62
     7
100
AcDbLine
 10
-2.699999999999647
 20
-3.600000000000136
 30
0.0
 11
-2.699999999999647
 21
-3.283500000000004
 31
0.0
  0
LINE
  5
13A
330
1E
100
AcDbEntity
  8
1
 62
     7
100
AcDbLine
 10
-1.299999999999955
 20
-3.283500000000004
 30
0.0
 11
-1.083499999999957
 21
-3.5
 31
0.0
  0
LINE
  5
13B
330
1E
100
AcDbEntity
  8
1
 62
     7
100
AcDbLine
 10
-7.299999999999953
 20
-2.500000000000114
 30
0.0
 11
-7.299999999999953
 21
-6.326794919243241
 31
0.0
  0
LINE
  5
13C
330
1E
100
AcDbEntity
  8
1
 62
     7
100
AcDbLine
 10
-7.299999999999953
 20
-6.326794919243241
 30
0.0
 11
-7.0
 21
-6.5
 31
0.0
  0
LINE
  5
13D
330
1E
100
AcDbEntity
  8
1
 62
     7
100
AcDbLine
 10
-6.799999999999953
 20
-2.5
 30
0.0
 11
-3.799999999999955
 21
-2.5
 31
0.0
  0
LINE
  5
13E
330
1E
100
AcDbEntity
  8
1
 62
     7
100
AcDbLine
 10
-6.799999999999953
 20
-2.5
 30
0.0
 11
-7.299999999999953
 21
-3.0
 31
0.0
  0
LINE
  5
13F
330
1E
100
AcDbEntity
  8
1
 62
     7
100
AcDbLine
 10
-1.299999999999955
 20
3.283500000000004
 30
0.0
 11
-2.699999999999647
 21
3.283500000000004
 31
0.0
  0
LINE
  5
140
330
1E
100
AcDbEntity
  8
1
 62
     7
100
AcDbLine
 10
-2.699999999999647
 20
3.283500000000004
 30
0.0
 11
-2.699999999999647
 21
3.599999999999908
 31
0.0
  0
LINE
  5
141
330
1E
100
AcDbEntity
  8
1
 62
     7
100
AcDbLine
 10
-2.699999999999647
 20
3.599999999999908
 30
0.0
 11
-3.5
 21
3.599999999999908
 31
0.0
  0
LINE
  5
142
330
1E
100
AcDbEntity
  8
1
 62
     7
100
AcDbLine
 10
-1.0
 20
3.583499999999901
 30
0.0
 11
-1.299999999999955
 21
3.283500000000004
 31
0.0
  0
LINE
  5
143
330
1E
100
AcDbEntity
  8
1
 62
     3
100
AcDbLine
 10
-4.299999999999955
 20
-5.900000000000089
 30
0.0
 11
-7.299999999999953
 21
-5.900000000000089
 31
0.0
  0
LINE
  5
144
330
1E
100
AcDbEntity
  8
1
 62
     3
100
AcDbLine
 10
-3.953589838485754
 20
-5.700000000000046
 30
0.0
 11
-4.299999999999955
 21
-5.900000000000089
 31
0.0
  0
LINE
  5
145
330
1E
100
AcDbEntity
  8
1
 62
     3
100
AcDbLine
 10
-4.299999999999955
 20
-3.900000000000091
 30
0.0
 11
-3.953589838485754
 21
-4.100000000000023
 31
0.0
  0
LINE
  5
146
330
1E
100
AcDbEntity
  8
1
 62
     3
100
AcDbLine
 10
-7.299999999999953
 20
-3.900000000000091
 30
0.0
 11
-4.299999999999955
 21
-3.900000000000091
 31
0.0
  0
LINE
  5
147
330
1E
100
AcDbEntity
  8
1
 62
     7
100
AcDbLine
 10
-3.299999999999955
 20
-5.700000000000046
 30
0.0
 11
-7.299999999999953
 21
-5.700000000000046
 31
0.0
  0
LINE
  5
148
330
1E
100
AcDbEntity
  8
1
 62
     7
100
AcDbLine
 10
-3.299999999999955
 20
-4.100000000000023
 30
0.0
 11
-3.299999999999955
 21
-5.700000000000046
 31
0.0
  0
LINE
  5
149
330
1E
100
AcDbEntity
  8
1
 62
     7
100
AcDbLine
 10
-4.299999999999955
 20
-3.900000000000091
 30
0.0
 11
-4.299999999999955
 21
-5.900000000000089
 31
0.0
  0
LINE
  5
14A
330
1E
100
AcDbEntity
  8
1
 62
     7
100
AcDbLine
 10
-7.299999999999953
 20
-4.100000000000023
 30
0.0
 11
-3.299999999999955
 21
-4.100000000000023
 31
0.0
  0
LINE
  5
14B
330
1E
100
AcDbEntity
  8
1
 62
     7
100
AcDbLine
 10
-2.838119784647743
 20
-4.90000000000009
 30
0.0
 11
-3.299999999999955
 21
-5.700000000000046
 31
0.0
  0
LINE
  5
14C
330
1E
100
AcDbEntity
  8
1
 62
     7
100
AcDbLine
 10
-3.299999999999955
 20
-4.100000000000023
 30
0.0
 11
-2.838119784647743
 21
-4.90000000000009
 31
0.0
  0
LINE
  5
14D
330
1E
100
AcDbEntity
  8
1
  6
CENTER
 62
     3
100
AcDbLine
 10
-2.738119784647949
 20
-4.90000000000009
 30
0.0
 11
-7.599999999999852
 21
-4.90000000000009
 31
0.0
  0
LINE
  5
14E
330
1E
100
AcDbEntity
  8
1
 62
     7
100
AcDbLine
 10
-7.0
 20
6.5
 30
0.0
 11
-7.299999999999953
 21
6.326794919242956
 31
0.0
  0
LINE
  5
14F
330
1E
100
AcDbEntity
  8
1
 62
     7
100
AcDbLine
 10
-7.299999999999953
 20
3.0
 30
0.0
 11
-6.799999999999953
 21
2.5
 31
0.0
  0
LINE
  5
150
330
1E
100
AcDbEntity
  8
1
 62
     7
100
AcDbLine
 10
-3.799999999999955
 20
2.5
 30
0.0
 11
-3.5
 21
2.799999999999898
 31
0.0
  0
LINE
  5
151
330
1E
100
AcDbEntity
  8
1
 62
     7
100
AcDbLine
 10
-3.799999999999955
 20
-2.5
 30
0.0
 11
-3.5
 21
-2.800000000000125
 31
0.0
  0
LINE
  5
152
330
1E
100
AcDbEntity
  8
1
 62
     7
100
AcDbLine
 10
-7.0
 20
6.5
 30
0.0
 11
-3.159529759774556
 21
6.5
 31
0.0
  0
LINE
  5
153
330
1E
100
AcDbEntity
  8
1
 62
     7
100
AcDbLine
 10
-1.0
 20
6.5
 30
0.0
 11
-1.740470240225648
 21
6.5
 31
0.0
  0
LINE
  5
154
330
1E
100
AcDbEntity
  8
1
 62
     7
100
AcDbLine
 10
-7.0
 20
-6.5
 30
0.0
 11
-3.159529759774556
 21
-6.5
 31
0.0
  0
LINE
  5
155
330
1E
100
AcDbEntity
  8
1
 62
     7
100
AcDbLine
 10
-1.0
 20
-6.5
 30
0.0
 11
-1.74047024022485
 21
-6.5
 31
0.0
  0
LINE
  5
156
330
1E
100
AcDbEntity
  8
1
 62
     7
100
AcDbLine
 10
-2.406698729810555
 20
5.872340333069871
 30
0.0
 11
-2.329999999999755
 21
6.005186429978096
 31
0.0
  0
LINE
  5
157
330
1E
100
AcDbEntity
  8
1
 62
     7
100
AcDbLine
 10
-2.406698729810555
 20
-5.872340333069927
 30
0.0
 11
-2.329999999999755
 21
-6.005186429978096
 31
0.0
  0
LINE
  5
158
330
1E
100
AcDbEntity
  8
1
 62
     7
100
AcDbLine
 10
-3.386602540377851
 20
-7.300031738818632
 30
0.0
 11
-3.097927405783651
 21
-7.800031738818632
 31
0.0
  0
LINE
  5
159
330
1E
100
AcDbEntity
  8
1
 62
     7
100
AcDbLine
 10
-3.097927405783651
 20
-7.800031738818632
 30
0.0
 11
-3.386602540377851
 21
-8.300031738818631
 31
0.0
  0
LINE
  5
15A
330
1E
100
AcDbEntity
  8
1
 62
     7
100
AcDbLine
 10
-3.386602540377851
 20
-8.300031738818631
 30
0.0
 11
-3.386602540377851
 21
-7.300031738818632
 31
0.0
  0
LINE
  5
15B
330
1E
100
AcDbEntity
  8
1
 62
     7
100
AcDbLine
 10
-3.386602540377851
 20
-7.300031738818632
 30
0.0
 11
-4.099999999999852
 21
-7.300031738818632
 31
0.0
  0
LINE
  5
15C
330
1E
100
AcDbEntity
  8
1
  6
CENTER
 62
     3
100
AcDbLine
 10
-2.955249355245996
 20
-7.800031738818632
 30
0.0
 11
-4.166065755538852
 21
-7.800031738818632
 31
0.0
  0
LINE
  5
15D
330
1E
100
AcDbEntity
  8
1
 62
     7
100
AcDbLine
 10
-3.386602540377851
 20
-8.300031738818631
 30
0.0
 11
-4.099999999999852
 21
-8.300031738818631
 31
0.0
  0
LINE
  5
15E
330
1E
100
AcDbEntity
  8
1
 62
     7
100
AcDbLine
 10
-2.493301270188851
 20
-7.627659666929842
 30
0.0
 11
-2.569999999999652
 21
-7.494813570021618
 31
0.0
  0
LINE
  5
15F
330
1E
100
AcDbEntity
  8
1
 62
     7
100
AcDbLine
 10
-2.406698729810555
 20
-7.627659666929901
 30
0.0
 11
-2.329999999999755
 21
-7.494813570021618
 31
0.0
  0
LINE
  5
160
330
1E
100
AcDbEntity
  8
1
 62
     7
100
AcDbLine
 10
-1.0
 20
7.069999999999878
 30
0.0
 11
-1.199999999999646
 21
6.870000000000003
 31
0.0
  0
LINE
  5
161
330
1E
100
AcDbEntity
  8
1
 62
     7
100
AcDbLine
 10
-4.099999999999852
 20
7.069999999999878
 30
0.0
 11
-3.89999999999975
 21
6.870000000000003
 31
0.0
  0
LINE
  5
162
330
1E
100
AcDbEntity
  8
1
 62
     7
100
AcDbLine
 10
-1.0
 20
-7.069999999999938
 30
0.0
 11
-1.199999999999646
 21
-6.869999999999891
 31
0.0
  0
LINE
  5
163
330
1E
100
AcDbEntity
  8
1
 62
     7
100
AcDbLine
 10
-4.099999999999852
 20
-7.069999999999938
 30
0.0
 11
-3.89999999999975
 21
-6.869999999999891
 31
0.0
  0
LINE
  5
164
330
1E
100
AcDbEntity
  8
1
 62
     7
100
AcDbLine
 10
-1.0
 20
7.069999999999878
 30
0.0
 11
-1.0
 21
8.399999999999861
 31
0.0
  0
LINE
  5
165
330
1E
100
AcDbEntity
  8
1
 62
     7
100
AcDbLine
 10
-1.705186429977857
 20
6.870000000000003
 30
0.0
 11
-1.199999999999646
 21
6.870000000000003
 31
0.0
  0
LINE
  5
166
330
1E
100
AcDbEntity
  8
1
 62
     7
100
AcDbLine
 10
-3.194813570021948
 20
6.870000000000003
 30
0.0
 11
-3.89999999999975
 21
6.870000000000003
 31
0.0
  0
LINE
  5
167
330
1E
100
AcDbEntity
  8
1
 62
     7
100
AcDbLine
 10
-4.099999999999852
 20
7.300031738818459
 30
0.0
 11
-3.386602540377851
 21
7.300031738818459
 31
0.0
  0
LINE
  5
168
330
1E
100
AcDbEntity
  8
1
 62
     7
100
AcDbLine
 10
-4.099999999999852
 20
8.300031738818461
 30
0.0
 11
-3.386602540377851
 21
8.300031738818461
 31
0.0
  0
LINE
  5
169
330
1E
100
AcDbEntity
  8
1
 62
     7
100
AcDbLine
 10
-4.099999999999852
 20
7.069999999999878
 30
0.0
 11
-4.099999999999852
 21
8.399999999999861
 31
0.0
  0
LINE
  5
16A
330
1E
100
AcDbEntity
  8
1
 62
     7
100
AcDbLine
 10
-3.386602540377851
 20
8.300031738818461
 30
0.0
 11
-3.097927405783651
 21
7.800031738818459
 31
0.0
  0
LINE
  5
16B
330
1E
100
AcDbEntity
  8
1
  6
CENTER
 62
     3
100
AcDbLine
 10
-4.166065755538852
 20
7.800031738818459
 30
0.0
 11
-2.955249355245996
 21
7.800031738818459
 31
0.0
  0
LINE
  5
16C
330
1E
100
AcDbEntity
  8
1
 62
     7
100
AcDbLine
 10
-3.097927405783651
 20
7.800031738818459
 30
0.0
 11
-3.386602540377851
 21
7.300031738818459
 31
0.0
  0
LINE
  5
16D
330
1E
100
AcDbEntity
  8
1
 62
     7
100
AcDbLine
 10
-3.386602540377851
 20
7.300031738818459
 30
0.0
 11
-3.386602540377851
 21
8.300031738818461
 31
0.0
  0
LINE
  5
16E
330
1E
100
AcDbEntity
  8
1
 62
     7
100
AcDbLine
 10
-1.199999999999646
 20
-6.869999999999891
 30
0.0
 11
-1.705186429977857
 21
-6.869999999999891
 31
0.0
  0
LINE
  5
16F
330
1E
100
AcDbEntity
  8
1
 62
     7
100
AcDbLine
 10
-3.89999999999975
 20
-6.869999999999891
 30
0.0
 11
-3.194813570021948
 21
-6.869999999999891
 31
0.0
  0
LINE
  5
170
330
1E
100
AcDbEntity
  8
1
 62
     7
100
AcDbLine
 10
-2.569999999999652
 20
7.494813570021563
 30
0.0
 11
-2.493301270188851
 21
7.627659666929901
 31
0.0
  0
LINE
  5
171
330
1E
100
AcDbEntity
  8
1
 62
     7
100
AcDbLine
 10
-4.099999999999852
 20
-8.400000000000089
 30
0.0
 11
-3.799999999999955
 21
-8.700000000000102
 31
0.0
  0
LINE
  5
172
330
1E
100
AcDbEntity
  8
1
 62
     7
100
AcDbLine
 10
-4.099999999999852
 20
-8.400000000000089
 30
0.0
 11
-4.099999999999852
 21
-7.069999999999938
 31
0.0
  0
LINE
  5
173
330
1E
100
AcDbEntity
  8
1
 62
     7
100
AcDbLine
 10
-3.799999999999955
 20
-8.700000000000102
 30
0.0
 11
-1.299999999999955
 21
-8.700000000000102
 31
0.0
  0
LINE
  5
174
330
1E
100
AcDbEntity
  8
1
 62
     3
100
AcDbLine
 10
-3.966499999999996
 20
-8.533500000000001
 30
0.0
 11
-1.133499999999854
 21
-8.533500000000001
 31
0.0
  0
LINE
  5
175
330
1E
100
AcDbEntity
  8
1
 62
     7
100
AcDbLine
 10
-1.299999999999955
 20
-8.700000000000102
 30
0.0
 11
-1.0
 21
-8.400000000000089
 31
0.0
  0
LINE
  5
176
330
1E
100
AcDbEntity
  8
1
 62
     7
100
AcDbLine
 10
-1.0
 20
-8.400000000000089
 30
0.0
 11
-1.0
 21
-7.069999999999938
 31
0.0
  0
LINE
  5
177
330
1E
100
AcDbEntity
  8
1
 62
     7
100
AcDbLine
 10
-4.099999999999852
 20
8.399999999999861
 30
0.0
 11
-3.799999999999955
 21
8.699999999999873
 31
0.0
  0
LINE
  5
178
330
1E
100
AcDbEntity
  8
1
 62
     7
100
AcDbLine
 10
-1.299999999999955
 20
8.699999999999873
 30
0.0
 11
-1.0
 21
8.399999999999861
 31
0.0
  0
LINE
  5
179
330
1E
100
AcDbEntity
  8
1
 62
     7
100
AcDbLine
 10
-1.299999999999955
 20
8.699999999999873
 30
0.0
 11
-3.799999999999955
 21
8.699999999999873
 31
0.0
  0
LINE
  5
17A
330
1E
100
AcDbEntity
  8
1
 62
     3
100
AcDbLine
 10
-3.966499999999996
 20
8.533500000000001
 30
0.0
 11
-1.133499999999854
 21
8.533500000000001
 31
0.0
  0
LINE
  5
17B
330
1E
100
AcDbEntity
  8
1
 62
     7
100
AcDbLine
 10
-7.299999999999953
 20
6.326794919242956
 30
0.0
 11
-7.299999999999953
 21
2.499999999999884
 31
0.0
  0
LINE
  5
17C
330
1E
100
AcDbEntity
  8
1
 62
     7
100
AcDbLine
 10
-3.799999999999955
 20
2.5
 30
0.0
 11
-6.799999999999953
 21
2.5
 31
0.0
  0
LINE
  5
17D
330
1E
100
AcDbEntity
  8
1
 62
     7
100
AcDbLine
 10
-2.406698729810555
 20
7.627659666929957
 30
0.0
 11
-2.329999999999755
 21
7.494813570021563
 31
0.0
  0
LINE
  5
17E
330
1E
100
AcDbEntity
  8
1
  6
CENTER
 62
     3
100
AcDbLine
 10
-3.789265676016555
 20
6.75
 30
0.0
 11
-1.065334540392995
 21
6.75
 31
0.0
  0
LINE
  5
17F
330
1E
100
AcDbEntity
  8
1
  6
CENTER
 62
     3
100
AcDbLine
 10
-2.449999999999648
 20
7.918329503054906
 30
0.0
 11
-2.449999999999648
 21
5.503436889518694
 31
0.0
  0
LINE
  5
180
330
1E
100
AcDbEntity
  8
1
  6
CENTER
 62
     3
100
AcDbLine
 10
-2.449999999999648
 20
-5.503436889518694
 30
0.0
 11
-2.449999999999648
 21
-7.918329503054792
 31
0.0
  0
LINE
  5
181
330
1E
100
AcDbEntity
  8
1
  6
CENTER
 62
     3
100
AcDbLine
 10
-1.065334540392995
 20
-6.749999999999943
 30
0.0
 11
-3.789265676016555
 21
-6.749999999999943
 31
0.0
  0
LINE
  5
182
330
1E
100
AcDbEntity
  8
1
 62
     7
100
AcDbLine
 10
-1.0
 20
-6.5
 30
0.0
 11
-1.0
 21
-3.583500000000128
 31
0.0
  0
LINE
  5
183
330
1E
100
AcDbEntity
  8
1
 62
     7
100
AcDbLine
 10
-65.26434099382235
 20
3.203648191647005
 30
0.0
 11
-65.09839813667935
 21
3.037705334504095
 31
0.0
  0
LINE
  5
184
330
1E
100
AcDbEntity
  8
1
 62
     7
100
AcDbLine
 10
-65.09839813667935
 20
3.037705334504095
 30
0.0
 11
-64.93245527953654
 21
3.203648191646662
 31
0.0
  0
LINE
  5
185
330
1E
100
AcDbEntity
  8
1
 62
     7
100
AcDbLine
 10
-64.93245527953654
 20
3.203648191646662
 30
0.0
 11
-65.09839813667958
 21
3.369591048789798
 31
0.0
  0
LINE
  5
186
330
1E
100
AcDbEntity
  8
1
 62
     7
100
AcDbLine
 10
-65.09839813667969
 20
3.70147676307556
 30
0.0
 11
-64.93245527953678
 21
3.867419620218356
 31
0.0
  0
LINE
  5
187
330
1E
100
AcDbEntity
  8
1
 62
     7
100
AcDbLine
 10
-64.93245527953678
 20
3.867419620218356
 30
0.0
 11
-65.09839813667969
 21
4.033362477361378
 31
0.0
  0
LINE
  5
188
330
1E
100
AcDbEntity
  8
1
 62
     7
100
AcDbLine
 10
-65.09839813667969
 20
4.033362477361378
 30
0.0
 11
-65.2643409938226
 21
3.867419620218582
 31
0.0
  0
LINE
  5
189
330
1E
100
AcDbEntity
  8
1
 62
     7
100
AcDbLine
 10
-65.76216956525097
 20
3.701476763075503
 30
0.0
 11
-65.92811242239378
 21
3.867419620218356
 31
0.0
  0
LINE
  5
18A
330
1E
100
AcDbEntity
  8
1
 62
     7
100
AcDbLine
 10
-65.92811242239378
 20
3.867419620218356
 30
0.0
 11
-65.76216956525097
 21
4.033362477361266
 31
0.0
  0
LINE
  5
18B
330
1E
100
AcDbEntity
  8
1
 62
     7
100
AcDbLine
 10
-65.76216956525097
 20
4.033362477361266
 30
0.0
 11
-65.59622670810819
 21
3.867419620218356
 31
0.0
  0
LINE
  5
18C
330
1E
100
AcDbEntity
  8
1
 62
     7
100
AcDbLine
 10
-65.59622670810824
 20
3.203648191647005
 30
0.0
 11
-65.76216956525097
 21
3.037705334504266
 31
0.0
  0
LINE
  5
18D
330
1E
100
AcDbEntity
  8
1
 62
     7
100
AcDbLine
 10
-65.76216956525097
 20
3.037705334504266
 30
0.0
 11
-65.92811242239389
 21
3.203648191647176
 31
0.0
  0
LINE
  5
18E
330
1E
100
AcDbEntity
  8
1
 62
     7
100
AcDbLine
 10
-65.92811242239389
 20
3.203648191647176
 30
0.0
 11
-65.76216956525115
 21
3.369591048789971
 31
0.0
  0
LINE
  5
18F
330
1E
100
AcDbEntity
  8
1
 62
     7
100
AcDbLine
 10
3.300000000001205
 20
-1.5
 30
0.0
 11
9.300000000001203
 21
-1.5
 31
0.0
  0
LINE
  5
190
330
1E
100
AcDbEntity
  8
1
 62
     7
100
AcDbLine
 10
7.200000000001352
 20
4.899
 30
0.0
 11
9.30000000000132
 21
4.899
 31
0.0
  0
LINE
  5
191
330
1E
100
AcDbEntity
  8
1
 62
     7
100
AcDbLine
 10
6.700000000001013
 20
5.699999999999986
 30
0.0
 11
7.200000000001013
 21
5.699999999999874
 31
0.0
  0
LINE
  5
192
330
1E
100
AcDbEntity
  8
1
 62
     7
100
AcDbLine
 10
6.700000000001637
 20
4.343284287566063
 30
0.0
 11
6.700000000001013
 21
5.699999999999986
 31
0.0
  0
LINE
  5
193
330
1E
100
AcDbEntity
  8
1
 62
     7
100
AcDbLine
 10
7.200000000001352
 20
4.899
 30
0.0
 11
7.200000000001013
 21
5.699999999999874
 31
0.0
  0
LINE
  5
194
330
1E
100
AcDbEntity
  8
1
  6
CENTER
 62
     3
100
AcDbLine
 10
5.300000000001205
 20
4.911941145079368
 30
0.0
 11
5.300000000001205
 21
1.599999999999965
 31
0.0
  0
LINE
  5
195
330
1E
100
AcDbEntity
  8
1
  6
CENTER
 62
     3
100
AcDbLine
 10
5.300000000001205
 20
1.599999999999965
 30
0.0
 11
5.300000000001205
 21
1.931343142486696
 31
0.0
  0
LINE
  5
196
330
1E
100
AcDbEntity
  8
1
 62
     7
100
AcDbLine
 10
4.300000000001205
 20
4.343284287566063
 30
0.0
 11
3.300000000001205
 21
4.343284287566063
 31
0.0
  0
LINE
  5
197
330
1E
100
AcDbEntity
  8
1
 62
     7
100
AcDbLine
 10
6.700000000001637
 20
4.343284287566063
 30
0.0
 11
6.300000000001205
 21
4.343284287566063
 31
0.0
  0
LINE
  5
198
330
1E
100
AcDbEntity
  8
1
 62
     7
100
AcDbLine
 10
3.300000000001205
 20
1.5
 30
0.0
 11
9.300000000001148
 21
1.5
 31
0.0
  0
LINE
  5
199
330
1E
100
AcDbEntity
  8
1
  6
CENTER
 62
     3
100
AcDbLine
 10
5.300000000001205
 20
-1.600000000000023
 30
0.0
 11
5.300000000001205
 21
1.931343142486696
 31
0.0
  0
LINE
  5
19A
330
1E
100
AcDbEntity
  8
1
 62
     7
100
AcDbLine
 10
3.300000000001205
 20
-4.343284287566235
 30
0.0
 11
6.700000000001637
 21
-4.343284287566235
 31
0.0
  0
LINE
  5
19B
330
1E
100
AcDbEntity
  8
1
 62
     7
100
AcDbLine
 10
9.300000000001148
 20
-4.899000000000112
 30
0.0
 11
9.30000000000132
 21
4.899
 31
0.0
  0
LINE
  5
19C
330
1E
100
AcDbEntity
  8
1
 62
     7
100
AcDbLine
 10
3.300000000001205
 20
4.343284287566063
 30
0.0
 11
3.300000000001205
 21
-4.343284287566235
 31
0.0
  0
LINE
  5
19D
330
1E
100
AcDbEntity
  8
1
 62
     7
100
AcDbLine
 10
7.200000000001013
 20
-5.700000000000046
 30
0.0
 11
7.200000000001237
 21
-4.899000000000112
 31
0.0
  0
LINE
  5
19E
330
1E
100
AcDbEntity
  8
1
 62
     7
100
AcDbLine
 10
6.700000000001013
 20
-5.700000000000046
 30
0.0
 11
6.700000000001637
 21
-4.343284287566235
 31
0.0
  0
LINE
  5
19F
330
1E
100
AcDbEntity
  8
1
 62
     7
100
AcDbLine
 10
7.200000000001013
 20
-5.700000000000046
 30
0.0
 11
6.700000000001013
 21
-5.700000000000046
 31
0.0
  0
LINE
  5
1A0
330
1E
100
AcDbEntity
  8
1
 62
     7
100
AcDbLine
 10
9.300000000001148
 20
-4.899000000000112
 30
0.0
 11
7.200000000001237
 21
-4.899000000000112
 31
0.0
  0
LINE
  5
1A1
330
1E
100
AcDbEntity
  8
1
 62
     3
100
AcDbLine
 10
6.100000000001214
 20
1.5
 30
0.0
 11
6.100000000001214
 21
4.5
 31
0.0
  0
LINE
  5
1A2
330
1E
100
AcDbEntity
  8
1
 62
     3
100
AcDbLine
 10
4.500000000001251
 20
1.5
 30
0.0
 11
4.500000000001251
 21
4.5
 31
0.0
  0
LINE
  5
1A3
330
1E
100
AcDbEntity
  8
1
 62
     7
100
AcDbLine
 10
6.300000000001205
 20
4.384529946162103
 30
0.0
 11
6.100000000001214
 21
4.5
 31
0.0
  0
LINE
  5
1A4
330
1E
100
AcDbEntity
  8
1
 62
     7
100
AcDbLine
 10
6.300000000001205
 20
1.699999999999989
 30
0.0
 11
6.300000000001205
 21
4.384529946162103
 31
0.0
  0
LINE
  5
1A5
330
1E
100
AcDbEntity
  8
1
 62
     7
100
AcDbLine
 10
4.300000000001205
 20
4.384529946162103
 30
0.0
 11
6.300000000001205
 21
4.384529946162103
 31
0.0
  0
LINE
  5
1A6
330
1E
100
AcDbEntity
  8
1
 62
     7
100
AcDbLine
 10
4.300000000001205
 20
1.699999999999989
 30
0.0
 11
4.300000000001205
 21
4.384529946162103
 31
0.0
  0
LINE
  5
1A7
330
1E
100
AcDbEntity
  8
1
 62
     7
100
AcDbLine
 10
4.500000000001251
 20
4.5
 30
0.0
 11
4.300000000001205
 21
4.384529946162103
 31
0.0
  0
LINE
  5
1A8
330
1E
100
AcDbEntity
  8
1
 62
     7
100
AcDbLine
 10
6.100000000001214
 20
4.5
 30
0.0
 11
4.500000000001251
 21
4.5
 31
0.0
  0
LINE
  5
1A9
330
1E
100
AcDbEntity
  8
1
 62
     7
100
AcDbLine
 10
6.300000000001205
 20
1.699999999999989
 30
0.0
 11
6.100000000001214
 21
1.5
 31
0.0
  0
LINE
  5
1AA
330
1E
100
AcDbEntity
  8
1
 62
     3
100
AcDbLine
 10
6.300000000001205
 20
1.5
 30
0.0
 11
6.300000000001205
 21
1.699999999999989
 31
0.0
  0
LINE
  5
1AB
330
1E
100
AcDbEntity
  8
1
 62
     7
100
AcDbLine
 10
4.300000000001205
 20
1.699999999999989
 30
0.0
 11
6.300000000001205
 21
1.699999999999989
 31
0.0
  0
LINE
  5
1AC
330
1E
100
AcDbEntity
  8
1
 62
     3
100
AcDbLine
 10
4.300000000001205
 20
1.5
 30
0.0
 11
4.300000000001205
 21
1.699999999999989
 31
0.0
  0
LINE
  5
1AD
330
1E
100
AcDbEntity
  8
1
 62
     7
100
AcDbLine
 10
4.500000000001251
 20
1.5
 30
0.0
 11
4.300000000001205
 21
1.699999999999989
 31
0.0
  0
LINE
  5
1AE
330
1E
100
AcDbEntity
  8
1
 62
     7
100
AcDbLine
 10
6.100000000001214
 20
1.5
 30
0.0
 11
4.500000000001251
 21
1.5
 31
0.0
  0
LINE
  5
1AF
330
1E
100
AcDbEntity
  8
1
 62
     7
100
AcDbLine
 10
7.200000000001237
 20
4.998999999999909
 30
0.0
 11
7.200000000001237
 21
5.100999999999999
 31
0.0
  0
LINE
  5
1B0
330
1E
100
AcDbEntity
  8
1
 62
     7
100
AcDbLine
 10
7.350000000001102
 20
6.513000000000006
 30
0.0
 11
7.250000000001136
 21
6.412999999999868
 31
0.0
  0
LINE
  5
1B1
330
1E
100
AcDbEntity
  8
1
 62
     7
100
AcDbLine
 10
7.300000000001148
 20
4.899
 30
0.0
 11
7.200000000001237
 21
4.998999999999909
 31
0.0
  0
LINE
  5
1B2
330
1E
100
AcDbEntity
  8
1
 62
     7
100
AcDbLine
 10
9.300000000001148
 20
4.998999999999909
 30
0.0
 11
9.200000000001351
 21
4.899
 31
0.0
  0
LINE
  5
1B3
330
1E
100
AcDbEntity
  8
1
 62
     7
100
AcDbLine
 10
9.250000000001136
 20
6.412999999999868
 30
0.0
 11
9.150000000001114
 21
6.513000000000006
 31
0.0
  0
LINE
  5
1B4
330
1E
100
AcDbEntity
  8
1
 62
     7
100
AcDbLine
 10
9.300000000001148
 20
5.121
 30
0.0
 11
9.300000000001148
 21
4.998999999999909
 31
0.0
  0
LINE
  5
1B5
330
1E
100
AcDbEntity
  8
1
 62
     7
100
AcDbLine
 10
7.300000000001148
 20
4.899
 30
0.0
 11
9.200000000001351
 21
4.899
 31
0.0
  0
LINE
  5
1B6
330
1E
100
AcDbEntity
  8
1
 62
     7
100
AcDbLine
 10
7.350000000001102
 20
6.513000000000006
 30
0.0
 11
9.150000000001114
 21
6.513000000000006
 31
0.0
  0
LINE
  5
1B7
330
1E
100
AcDbEntity
  8
1
 62
     7
100
AcDbLine
 10
8.647519603190517
 20
5.271580190600957
 30
0.0
 11
8.970000000001107
 21
5.282841454203606
 31
0.0
  0
LINE
  5
1B8
330
1E
100
AcDbEntity
  8
1
 62
     7
100
AcDbLine
 10
8.970000000001107
 20
5.282841454203606
 30
0.0
 11
8.970000000001107
 21
6.017158545796177
 31
0.0
  0
LINE
  5
1B9
330
1E
100
AcDbEntity
  8
1
 62
     7
100
AcDbLine
 10
8.970000000001107
 20
6.017158545796177
 30
0.0
 11
8.767741913805652
 21
6.024221553802076
 31
0.0
  0
LINE
  5
1BA
330
1E
100
AcDbEntity
  8
1
 62
     7
100
AcDbLine
 10
7.884798675720447
 20
5.244945388906271
 30
0.0
 11
7.600000000001102
 21
5.2349999999999
 31
0.0
  0
LINE
  5
1BB
330
1E
100
AcDbEntity
  8
1
 62
     7
100
AcDbLine
 10
7.600000000001102
 20
6.064999999999884
 30
0.0
 11
7.600000000001102
 21
5.2349999999999
 31
0.0
  0
LINE
  5
1BC
330
1E
100
AcDbEntity
  8
1
 62
     7
100
AcDbLine
 10
7.600000000001102
 20
5.2349999999999
 30
0.0
 11
7.300000000001148
 21
5.2349999999999
 31
0.0
  0
LINE
  5
1BD
330
1E
100
AcDbEntity
  8
1
 62
     7
100
AcDbLine
 10
7.300000000001148
 20
5.2349999999999
 30
0.0
 11
7.300000000001148
 21
6.064999999999884
 31
0.0
  0
LINE
  5
1BE
330
1E
100
AcDbEntity
  8
1
 62
     7
100
AcDbLine
 10
7.754670945833652
 20
6.059598771553397
 30
0.0
 11
7.600000000001102
 21
6.064999999999884
 31
0.0
  0
LINE
  5
1BF
330
1E
100
AcDbEntity
  8
1
 62
     7
100
AcDbLine
 10
7.600000000001102
 20
6.064999999999884
 30
0.0
 11
7.300000000001148
 21
6.064999999999884
 31
0.0
  0
LINE
  5
1C0
330
1E
100
AcDbEntity
  8
1
 62
     7
100
AcDbLine
 10
9.300000000001148
 20
-4.999000000000136
 30
0.0
 11
9.300000000001148
 21
-5.121000000000112
 31
0.0
  0
LINE
  5
1C1
330
1E
100
AcDbEntity
  8
1
 62
     7
100
AcDbLine
 10
9.150000000001114
 20
-6.513000000001142
 30
0.0
 11
9.250000000001136
 21
-6.41300000000112
 31
0.0
  0
LINE
  5
1C2
330
1E
100
AcDbEntity
  8
1
 62
     7
100
AcDbLine
 10
9.200000000001239
 20
-4.899000000000112
 30
0.0
 11
9.300000000001148
 21
-4.999000000000136
 31
0.0
  0
LINE
  5
1C3
330
1E
100
AcDbEntity
  8
1
 62
     7
100
AcDbLine
 10
7.200000000001237
 20
-4.999000000000136
 30
0.0
 11
7.300000000001148
 21
-4.899000000000112
 31
0.0
  0
LINE
  5
1C4
330
1E
100
AcDbEntity
  8
1
 62
     7
100
AcDbLine
 10
7.250000000001136
 20
-6.41300000000112
 30
0.0
 11
7.350000000001102
 21
-6.513000000001142
 31
0.0
  0
LINE
  5
1C5
330
1E
100
AcDbEntity
  8
1
 62
     7
100
AcDbLine
 10
7.200000000001237
 20
-5.101000000000113
 30
0.0
 11
7.200000000001237
 21
-4.999000000000136
 31
0.0
  0
LINE
  5
1C6
330
1E
100
AcDbEntity
  8
1
 62
     7
100
AcDbLine
 10
9.200000000001239
 20
-4.899000000000112
 30
0.0
 11
7.300000000001148
 21
-4.899000000000112
 31
0.0
  0
LINE
  5
1C7
330
1E
100
AcDbEntity
  8
1
 62
     7
100
AcDbLine
 10
9.150000000001114
 20
-6.513000000001142
 30
0.0
 11
7.350000000001102
 21
-6.513000000001142
 31
0.0
  0
LINE
  5
1C8
330
1E
100
AcDbEntity
  8
1
 62
     7
100
AcDbLine
 10
7.300000000001148
 20
-6.06500000000011
 30
0.0
 11
7.600000000001102
 21
-6.06500000000011
 31
0.0
  0
LINE
  5
1C9
330
1E
100
AcDbEntity
  8
1
 62
     7
100
AcDbLine
 10
7.600000000001102
 20
-6.06500000000011
 30
0.0
 11
7.754670945833652
 21
-6.059598771553622
 31
0.0
  0
LINE
  5
1CA
330
1E
100
AcDbEntity
  8
1
 62
     7
100
AcDbLine
 10
7.300000000001148
 20
-6.06500000000011
 30
0.0
 11
7.300000000001148
 21
-5.235000000000127
 31
0.0
  0
LINE
  5
1CB
330
1E
100
AcDbEntity
  8
1
 62
     7
100
AcDbLine
 10
7.300000000001148
 20
-5.235000000000127
 30
0.0
 11
7.600000000001102
 21
-5.235000000000127
 31
0.0
  0
LINE
  5
1CC
330
1E
100
AcDbEntity
  8
1
 62
     7
100
AcDbLine
 10
7.600000000001102
 20
-5.235000000000127
 30
0.0
 11
7.600000000001102
 21
-6.06500000000011
 31
0.0
  0
LINE
  5
1CD
330
1E
100
AcDbEntity
  8
1
 62
     7
100
AcDbLine
 10
7.600000000001102
 20
-5.235000000000127
 30
0.0
 11
7.884798675720447
 21
-5.244945388906443
 31
0.0
  0
LINE
  5
1CE
330
1E
100
AcDbEntity
  8
1
 62
     7
100
AcDbLine
 10
8.767741913805652
 20
-6.024221553802306
 30
0.0
 11
8.970000000001107
 21
-6.017158545796406
 31
0.0
  0
LINE
  5
1CF
330
1E
100
AcDbEntity
  8
1
 62
     7
100
AcDbLine
 10
8.970000000001107
 20
-6.017158545796406
 30
0.0
 11
8.970000000001107
 21
-5.282841454203833
 31
0.0
  0
LINE
  5
1D0
330
1E
100
AcDbEntity
  8
1
 62
     7
100
AcDbLine
 10
8.970000000001107
 20
-5.282841454203833
 30
0.0
 11
8.647519603190517
 21
-5.271580190601242
 31
0.0
  0
LINE
  5
1D5
330
1E
100
AcDbEntity
  8
1
 62
     7
100
AcDbLine
 10
-0.1746866151650011
 20
4.393320122168858
 30
0.0
 11
-0.1746866151650011
 21
6.34589478743349
 31
0.0
  0
LINE
  5
1D6
330
1E
100
AcDbEntity
  8
1
 62
     7
100
AcDbLine
 10
7.200000000001257
 20
5.121000000000018
 30
0.0
 11
7.298000000001253
 21
5.219000000000098
 31
0.0
  0
LINE
  5
1D7
330
1E
100
AcDbEntity
  8
1
 62
     7
100
AcDbLine
 10
7.298000000001253
 20
5.219000000000098
 30
0.0
 11
7.921372551360249
 21
5.219000000000098
 31
0.0
  0
LINE
  5
1D8
330
1E
100
AcDbEntity
  8
1
 62
     7
100
AcDbLine
 10
7.250000000001136
 20
5.170999999999941
 30
0.0
 11
7.250000000001136
 21
6.412999999999868
 31
0.0
  0
LINE
  5
1D9
330
1E
100
AcDbEntity
  8
1
 62
     7
100
AcDbLine
 10
9.250000000001136
 20
6.412999999999868
 30
0.0
 11
9.250000000001136
 21
5.170999999999965
 31
0.0
  0
LINE
  5
1DA
330
1E
100
AcDbEntity
  8
1
 62
     7
100
AcDbLine
 10
8.578627448641647
 20
5.219000000000098
 30
0.0
 11
9.202000000000962
 21
5.219000000000098
 31
0.0
  0
LINE
  5
1DB
330
1E
100
AcDbEntity
  8
1
 62
     7
100
AcDbLine
 10
9.202000000000962
 20
5.219000000000098
 30
0.0
 11
9.300000000001148
 21
5.121
 31
0.0
  0
LINE
  5
1DC
330
1E
100
AcDbEntity
  8
1
 62
     7
100
AcDbLine
 10
-0.1746866151650011
 20
-4.393320122170108
 30
0.0
 11
-0.1746866151650011
 21
-6.342999999999943
 31
0.0
  0
LINE
  5
1DD
330
1E
100
AcDbEntity
  8
1
 62
     7
100
AcDbLine
 10
9.202000000001136
 20
-5.21900000000004
 30
0.0
 11
8.578627448641995
 21
-5.21900000000004
 31
0.0
  0
LINE
  5
1DE
330
1E
100
AcDbEntity
  8
1
 62
     7
100
AcDbLine
 10
9.300000000001148
 20
-5.121000000000112
 30
0.0
 11
9.202000000001136
 21
-5.21900000000004
 31
0.0
  0
LINE
  5
1DF
330
1E
100
AcDbEntity
  8
1
 62
     7
100
AcDbLine
 10
9.250000000001136
 20
-5.17100000000008
 30
0.0
 11
9.250000000001136
 21
-6.413000000000097
 31
0.0
  0
LINE
  5
1E0
330
1E
100
AcDbEntity
  8
1
 62
     7
100
AcDbLine
 10
7.298000000001136
 20
-5.21900000000004
 30
0.0
 11
7.200000000001174
 21
-5.121000000000047
 31
0.0
  0
LINE
  5
1E1
330
1E
100
AcDbEntity
  8
1
 62
     7
100
AcDbLine
 10
7.250000000001136
 20
-6.413000000000097
 30
0.0
 11
7.250000000001136
 21
-5.171000000000023
 31
0.0
  0
LINE
  5
1E2
330
1E
100
AcDbEntity
  8
1
 62
     7
100
AcDbLine
 10
7.921372551360445
 20
-5.21900000000004
 30
0.0
 11
7.298000000001136
 21
-5.21900000000004
 31
0.0
  0
ARC
  5
1E3
330
1E
100
AcDbEntity
  8
1
 62
     7
100
AcDbCircle
 10
-68.96581775689788
 20
0.0
 30
0.0
 40
14.50000000000031
100
AcDbArc
 50
130.6572486379989
 51
139.342751362002
  0
ARC
  5
1E4
330
1E
100
AcDbEntity
  8
1
 62
     7
100
AcDbCircle
 10
-68.96581775689788
 20
0.0
 30
0.0
 40
14.50000000000002
100
AcDbArc
 50
40.65724863799802
 51
49.34275136200112
  0
ARC
  5
1E5
330
1E
100
AcDbEntity
  8
1
 62
     7
100
AcDbCircle
 10
-68.96581775689788
 20
0.0
 30
0.0
 40
14.50000000000027
100
AcDbArc
 50
310.6572486379988
 51
319.3427513620021
  0
ARC
  5
1E6
330
1E
100
AcDbEntity
  8
1
 62
     7
100
AcDbCircle
 10
-68.96581775689788
 20
0.0
 30
0.0
 40
14.5
100
AcDbArc
 50
220.6572486379978
 51
229.3427513620009
  0
ARC
  5
1E7
330
1E
100
AcDbEntity
  8
1
 62
     7
100
AcDbCircle
 10
-68.96581775689788
 20
0.0
 30
0.0
 40
2.499999999999984
100
AcDbArc
 50
327.1401196211123
 51
180.0
  0
ARC
  5
1E8
330
1E
100
AcDbEntity
  8
1
 62
     7
100
AcDbCircle
 10
-68.96581775689788
 20
0.0
 30
0.0
 40
2.500000000000114
100
AcDbArc
 50
180.0
 51
327.1401196211123
  0
ARC
  5
1E9
330
1E
100
AcDbEntity
  8
1
 62
     7
100
AcDbCircle
 10
-0.3745750321188552
 20
-4.400000000001
 30
0.0
 40
0.2000000000003836
100
AcDbArc
 50
1.914000000020805
 51
90.0
  0
ARC
  5
1EA
330
1E
100
AcDbEntity
  8
1
 62
     7
100
AcDbCircle
 10
5.620469645133253
 20
-9.642999999999942
 30
0.0
 40
3.0
100
AcDbArc
 50
63.21027570355493
 51
90.0
  0
ARC
  5
1EB
330
1E
100
AcDbEntity
  8
1
 62
     7
100
AcDbCircle
 10
5.620469645133253
 20
9.645894787433492
 30
0.0
 40
3.0
100
AcDbArc
 50
270.0
 51
296.6668000135766
  0
ARC
  5
1EC
330
1E
100
AcDbEntity
  8
1
 62
     7
100
AcDbCircle
 10
-0.3745750321188552
 20
4.399999999998896
 30
0.0
 40
0.1999999999999886
100
AcDbArc
 50
270.0
 51
358.0860000002231
  0
ARC
  5
1ED
330
1E
100
AcDbEntity
  8
1
 62
     7
100
AcDbCircle
 10
-2.466970562747746
 20
-6.733029437251444
 30
0.0
 40
0.7739999999999401
100
AcDbArc
 50
280.1930031745933
 51
349.8069968253698
  0
ARC
  5
1EE
330
1E
100
AcDbEntity
  8
1
 62
     7
100
AcDbCircle
 10
-2.43302943725166
 20
-6.766970562748213
 30
0.0
 40
0.7739999999998842
100
AcDbArc
 50
100.193003174594
 51
159.8228918495827
  0
ARC
  5
1EF
330
1E
100
AcDbEntity
  8
1
 62
     7
100
AcDbCircle
 10
-2.43302943725166
 20
6.766970562748269
 30
0.0
 40
0.7739999999999993
100
AcDbArc
 50
200.1771081504212
 51
259.8069968254065
  0
ARC
  5
1F0
330
1E
100
AcDbEntity
  8
1
 62
     7
100
AcDbCircle
 10
-2.466970562747746
 20
6.733029437251503
 30
0.0
 40
0.7739999999997515
100
AcDbArc
 50
10.19300317463441
 51
79.80699682540521
  0
ARC
  5
1F1
330
1E
100
AcDbEntity
  8
1
 62
     7
100
AcDbCircle
 10
-2.449999999999648
 20
5.897340333069906
 30
0.0
 40
0.0500000000000015
100
AcDbArc
 50
210.0000000000441
 51
329.9999999998913
  0
ARC
  5
1F2
330
1E
100
AcDbEntity
  8
1
 62
     7
100
AcDbCircle
 10
-6.449999999999647
 20
4.400000000000203
 30
0.0
 40
0.0999999999999668
100
AcDbArc
 50
90.0
 51
180.0
  0
ARC
  5
1F3
330
1E
100
AcDbEntity
  8
1
 62
     7
100
AcDbCircle
 10
-6.449999999999647
 20
5.600000000000193
 30
0.0
 40
0.1000000000003078
100
AcDbArc
 50
180.0
 51
270.0
  0
ARC
  5
1F4
330
1E
100
AcDbEntity
  8
1
 62
     7
100
AcDbCircle
 10
-6.449999999999647
 20
4.400000000000203
 30
0.0
 40
0.0999999999999668
100
AcDbArc
 50
90.0
 51
180.0
  0
ARC
  5
1F5
330
1E
100
AcDbEntity
  8
1
 62
     7
100
AcDbCircle
 10
-2.466970562748654
 20
6.766970562748269
 30
0.0
 40
0.7740000000001009
100
AcDbArc
 50
280.1930031746595
 51
339.8228918495817
  0
ARC
  5
1F6
330
1E
100
AcDbEntity
  8
1
 62
     7
100
AcDbCircle
 10
-2.449999999999648
 20
5.897340333069906
 30
0.0
 40
0.0500000000000015
100
AcDbArc
 50
210.0000000000441
 51
329.9999999998913
  0
ARC
  5
1F7
330
1E
100
AcDbEntity
  8
1
 62
     7
100
AcDbCircle
 10
-2.449999999999648
 20
-5.897340333069792
 30
0.0
 40
0.0499999999998185
100
AcDbArc
 50
29.99999999993956
 51
150.0000000001251
  0
ARC
  5
1F8
330
1E
100
AcDbEntity
  8
1
 62
     7
100
AcDbCircle
 10
-2.449999999999648
 20
-7.60265966692981
 30
0.0
 40
0.0500000000000015
100
AcDbArc
 50
210.0000000000441
 51
329.9999999998348
  0
ARC
  5
1F9
330
1E
100
AcDbEntity
  8
1
 62
     7
100
AcDbCircle
 10
-2.449999999999648
 20
7.602659666929866
 30
0.0
 40
0.0499999999999322
100
AcDbArc
 50
30.0000000001652
 51
149.9999999999558
  0
ARC
  5
1FA
330
1E
100
AcDbEntity
  8
1
 62
     7
100
AcDbCircle
 10
-2.43302943725166
 20
6.733029437251503
 30
0.0
 40
0.7739999999998282
100
AcDbArc
 50
100.1930031745948
 51
169.8069968253708
  0
ARC
  5
1FB
330
1E
100
AcDbEntity
  8
1
 62
     7
100
AcDbCircle
 10
-2.466970562748654
 20
-6.766970562748213
 30
0.0
 40
0.7740000000008326
100
AcDbArc
 50
20.17710815039407
 51
79.8069968253397
  0
ARC
  5
1FC
330
1E
100
AcDbEntity
  8
1
 62
     7
100
AcDbCircle
 10
-2.43302943725166
 20
-6.733029437251444
 30
0.0
 40
0.7740000000001328
100
AcDbArc
 50
190.193003174625
 51
259.8069968254065
  0
ARC
  5
1FD
330
1E
100
AcDbEntity
  8
1
 62
     7
100
AcDbCircle
 10
-64.93245527953668
 20
3.535533905932596
 30
0.0
 40
0.2346786391505628
100
AcDbArc
 50
135.00000000001
 51
224.9999999999804
  0
ARC
  5
1FE
330
1E
100
AcDbEntity
  8
1
 62
     7
100
AcDbCircle
 10
-65.43028385096528
 20
4.033362477361207
 30
0.0
 40
0.2346786391504023
100
AcDbArc
 50
224.99999999999
 51
315.0000000000098
  0
ARC
  5
1FF
330
1E
100
AcDbEntity
  8
1
 62
     7
100
AcDbCircle
 10
-65.92811242239389
 20
3.535533905932596
 30
0.0
 40
0.2346786391501215
100
AcDbArc
 50
315.0000000000196
 51
45.0
  0
ARC
  5
200
330
1E
100
AcDbEntity
  8
1
 62
     7
100
AcDbCircle
 10
-65.43028385096528
 20
3.037705334504095
 30
0.0
 40
0.2346786391504431
100
AcDbArc
 50
45.00000000000006
 51
135.0000000000097
  0
CIRCLE
  5
205
330
1E
100
AcDbEntity
  8
1
 62
     7
100
AcDbCircle
 10
-65.43028385096518
 20
3.535533905932766
 30
0.0
 40
1.149999999999985
  0
CIRCLE
  5
206
330
1E
100
AcDbEntity
  8
1
 62
     3
100
AcDbCircle
 10
-73.20934223544179
 20
-2.4500000000001
 30
0.0
 40
0.999999999999942
  0
CIRCLE
  5
207
330
1E
100
AcDbEntity
  8
1
 62
     7
100
AcDbCircle
 10
-73.20934223544179
 20
-2.4500000000001
 30
0.0
 40
0.7999999999998588
  0
CIRCLE
  5
208
330
1E
100
AcDbEntity
  8
1
 62
     3
100
AcDbCircle
 10
-68.96581775689805
 20
4.900000000000203
 30
0.0
 40
1.00000000000017
  0
CIRCLE
  5
209
330
1E
100
AcDbEntity
  8
1
 62
     7
100
AcDbCircle
 10
-68.96581775689805
 20
4.900000000000203
 30
0.0
 40
0.8000000000002954
  0
CIRCLE
  5
20A
330
1E
100
AcDbEntity
  8
1
 62
     3
100
AcDbCircle
 10
-64.72229327835396
 20
-2.4500000000001
 30
0.0
 40
1.000000000000055
  0
CIRCLE
  5
20B
330
1E
100
AcDbEntity
  8
1
 62
     7
100
AcDbCircle
 10
-64.72229327835396
 20
-2.4500000000001
 30
0.0
 40
0.8000000000002607
  0
CIRCLE
  5
20C
330
1E
100
AcDbEntity
  8
1
  6
CENTER
 62
     3
100
AcDbCircle
 10
-68.96581775689788
 20
0.0
 30
0.0
 40
4.900000000000203
  0
CIRCLE
  5
20D
330
1E
100
AcDbEntity
  8
1
 62
     7
100
AcDbCircle
 10
-68.96581775689788
 20
0.0
 30
0.0
 40
10.25000000000006
  0
CIRCLE
  5
20E
330
1E
100
AcDbEntity
  8
1
 62
     7
100
AcDbCircle
 10
-68.96581775689788
 20
0.0
 30
0.0
 40
10.0
  0
CIRCLE
  5
20F
330
1E
100
AcDbEntity
  8
1
 62
     7
100
AcDbCircle
 10
-68.96581775689788
 20
0.0
 30
0.0
 40
9.000000000000056
  0
CIRCLE
  5
210
330
1E
100
AcDbEntity
  8
1
 62
     7
100
AcDbCircle
 10
-77.80465252172979
 20
8.838834764831803
 30
0.0
 40
1.149999999998784
  0
CIRCLE
  5
211
330
1E
100
AcDbEntity
  8
1
 62
     3
100
AcDbCircle
 10
-60.12698299206568
 20
8.838834764831803
 30
0.0
 40
1.0
  0
CIRCLE
  5
212
330
1E
100
AcDbEntity
  8
1
 62
     7
100
AcDbCircle
 10
-60.12698299206568
 20
8.838834764831803
 30
0.0
 40
0.800000000000409
  0
CIRCLE
  5
213
330
1E
100
AcDbEntity
  8
1
 62
     7
100
AcDbCircle
 10
-60.12698299206568
 20
-8.838834764831803
 30
0.0
 40
1.149999999999699
  0
CIRCLE
  5
214
330
1E
100
AcDbEntity
  8
1
 62
     7
100
AcDbCircle
 10
-77.80465252172979
 20
-8.838834764831803
 30
0.0
 40
0.8000000000000111
  0
CIRCLE
  5
215
330
1E
100
AcDbEntity
  8
1
 62
     3
100
AcDbCircle
 10
-77.80465252172979
 20
-8.838834764831803
 30
0.0
 40
1.0
  0
CIRCLE
  5
216
330
1E
100
AcDbEntity
  8
1
  6
CENTER
 62
     3
100
AcDbCircle
 10
-68.96581775689788
 20
0.0
 30
0.0
 40
12.49999999999976
  0
CIRCLE
  5
217
330
1E
100
AcDbEntity
  8
1
 62
     7
100
AcDbCircle
 10
-68.96581775689788
 20
0.0
 30
0.0
 40
6.5
  0
CIRCLE
  5
218
330
1E
100
AcDbEntity
  8
1
 62
     3
100
AcDbCircle
 10
-2.449999999999648
 20
-6.749999999999943
 30
0.0
 40
0.75
  0
CIRCLE
  5
219
330
1E
100
AcDbEntity
  8
1
 62
     3
100
AcDbCircle
 10
-2.449999999999648
 20
6.75
 30
0.0
 40
0.75
  0
CIRCLE
  5
21A
330
1E
100
AcDbEntity
  8
1
 62
     7
100
AcDbCircle
 10
-65.43028385096518
 20
3.535533905932766
 30
0.0
 40
0.9333809511661172
  0
CIRCLE
  5
21B
330
1E
100
AcDbEntity
  8
1
 62
     7
100
AcDbCircle
 10
8.250000000001136
 20
5.721000000000002
 30
0.0
 40
0.5999999999998522
  0
CIRCLE
  5
21C
330
1E
100
AcDbEntity
  8
1
 62
     7
100
AcDbCircle
 10
8.250000000001136
 20
-5.721000000000002
 30
0.0
 40
0.6000000000001366
  0
CIRCLE
  5
21D
330
1E
100
AcDbEntity
  8
1
 62
     3
100
AcDbCircle
 10
5.300000000001205
 20
0.0
 30
0.0
 40
1.0
  0
CIRCLE
  5
21E
330
1E
100
AcDbEntity
  8
1
 62
     7
100
AcDbCircle
 10
5.300000000001205
 20
0.0
 30
0.0
 40
0.7999999999999538
  0
LWPOLYLINE
  5
21F
330
1E
100
AcDbEntity
  8
1
 62
     3
100
AcDbPolyline
 90
       28
 70
     0
 43
0.0
 10
8.128136250709246
 20
10.14864629008928
 42
0.0598694879034584
 10
8.085095776566824
 20
10.13799002925535
 42
0.055160390003792
 10
8.044081693588271
 20
10.11703102774906
 42
0.0492829945397781
 10
8.006342655850151
 20
10.08644454208156
 42
0.0436385311729399
 10
7.973006384044244
 20
10.04718576635296
 42
0.0389336725407098
 10
7.945061901191952
 20
10.00045569748239
 42
0.0353721771806865
 10
7.923339162194932
 20
9.947670521436489
 42
0.0329269713879201
 10
7.908485768746523
 20
9.890425120431013
 42
0.0315090851765204
 10
7.900946055496027
 20
9.830448307315972
 42
0.0310459077728138
 10
7.900946055495629
 20
9.7695516926843
 42
0.0315109502230193
 10
7.90848576874673
 20
9.709574879569283
 42
0.0329311558248211
 10
7.923339162194857
 20
9.652329478563725
 42
0.0353796976437149
 10
7.945061901191986
 20
9.599544302517786
 42
0.038946247120984
 10
7.973006384044882
 20
9.552814233647225
 42
0.0436583972454436
 10
8.006342655850147
 20
9.513555457918725
 42
0.049311354261694
 10
8.044081693588852
 20
9.482968972251123
 42
0.0551931310117436
 10
8.085095776567385
 20
9.462009970744693
 42
0.0598933140718437
 10
8.128136250709008
 20
9.451353709910824
 42
0.0617189008069816
 10
8.171863749291878
 20
9.451353709910712
 42
0.0598694879070709
 10
8.214904223433737
 20
9.462009970744588
 42
0.0551603899981537
 10
8.255918306412024
 20
9.482968972250988
 42
0.0492829945446379
 10
8.293657344150586
 20
9.513555457918606
 42
0.0436385311710768
 10
8.326993615956066
 20
9.552814233647195
 42
0.0389336725354157
 10
8.354938098808974
 20
9.599544302517832
 42
0.0353721771907423
 10
8.376660837806021
 20
9.652329478563773
 42
0.0329269713778339
 10
8.391514231254365
 20
9.709574879569244
 42
0.0315090851837049
 10
8.399053944505192
 20
9.769551692684316
 42
0.0155098627054391
 10
8.400000000000147
 20
9.800000000956003
  0
LWPOLYLINE
  5
23D
330
1E
100
AcDbEntity
  8
1
 62
     3
100
AcDbPolyline
 90
       54
 70
     1
 43
0.0
 10
8.128136250709012
 20
-10.14864629008908
 42
-0.0190858437579011
 10
8.106587955583702
 20
-10.14468271355408
 42
-0.0399524671571534
 10
8.085095776566824
 20
-10.13799002925525
 42
-0.0013214221621778
 10
8.064002922508326
 20
-10.12864179681729
 42
-0.0518590852193853
 10
8.025000000000487
 20
-10.10310889132431
 42
-0.0493139109249585
 10
8.006342655850151
 20
-10.08644454208132
 42
-0.0012815379623375
 10
7.988812558691171
 20
-10.06753936919857
 42
-0.041240750875899
 10
7.958488889220012
 20
-10.0249756633901
 42
-0.0389474285886556
 10
7.945061901191952
 20
-10.00045569748217
 42
-0.0007438912573679
 10
7.933264737084397
 20
-9.974444930682603
 42
-0.0341898852137029
 10
7.915076844803913
 20
-9.919707050163973
 42
-0.0329316068431153
 10
7.908485768746523
 20
-9.890425120430899
 42
-0.0002333749933759
 10
7.903770082368706
 20
-9.860554711568594
 42
-0.0313336196176519
 10
7.900000000000582
 20
-9.799999999999975
 42
-0.0311029167481864
 10
7.903770082368263
 20
-9.739445288431415
 42
-0.0312758078038173
 10
7.90848576874673
 20
-9.709574879569226
 42
-0.0004789457328078
 10
7.91507684480454
 20
-9.68029294983618
 42
-0.033482674164363
 10
7.933264737083732
 20
-9.62555506931722
 42
-0.0346285433432155
 10
7.945061901191986
 20
-9.599544302517676
 42
-0.0010239274079225
 10
7.958488889220843
 20
-9.575024336609786
 42
-0.0400551218047457
 10
7.988812558691329
 20
-9.532460630801276
 42
-0.0423574469140671
 10
8.006342655850147
 20
-9.513555457918579
 42
-0.0014321975642498
 10
8.025000000000627
 20
-9.49689110867566
 42
-0.0506255545835473
 10
8.064002922509182
 20
-9.47135820318256
 42
-0.0538399433275585
 10
8.085095776567385
 20
-9.462009970744636
 42
-0.00082406664931
 10
8.106587955583831
 20
-9.455317286445811
 42
-0.0599209615078366
 10
8.150000000000236
 20
-9.449999999999892
 42
-0.0599323526012371
 10
8.193412044417517
 20
-9.455317286445671
 42
-0.0598959020227806
 10
8.214904223433737
 20
-9.462009970744528
 42
-0.0013214221621414
 10
8.235997077491662
 20
-9.471358203182498
 42
-0.0518590852167673
 10
8.275000000000321
 20
-9.496891108675457
 42
-0.0493139109326871
 10
8.293657344150586
 20
-9.513555457918462
 42
-0.0012815379622122
 10
8.31118744130924
 20
-9.53246063080124
 42
-0.0412407508720476
 10
8.34151111078045
 20
-9.575024336609756
 42
-0.0389474285832597
 10
8.354938098808974
 20
-9.59954430251772
 42
-0.0007438912577662
 10
8.366735262916874
 20
-9.625555069317332
 42
-0.0341898852143756
 10
8.384923155196702
 20
-9.680292949835973
 42
-0.0329316068336753
 10
8.391514231254365
 20
-9.709574879569073
 42
-0.0002333749933893
 10
8.396229917632531
 20
-9.739445288431378
 42
-0.0313336196200173
 10
8.400000000000208
 20
-9.799999999999927
 42
-0.0311029167449489
 10
8.396229917632528
 20
-9.860554711568493
 42
-0.0312758077997098
 10
8.391514231254362
 20
-9.890425120430775
 42
-0.0004789457328875
 10
8.384923155196707
 20
-9.919707050163816
 42
-0.033482674162998
 10
8.366735262916876
 20
-9.974444930682524
 42
-0.0346285433327532
 10
8.354938098808974
 20
-10.00045569748218
 42
-0.0010239274079878
 10
8.341511110780611
 20
-10.02497566339018
 42
-0.0400551218082252
 10
8.311187441310135
 20
-10.06753936919865
 42
-0.0423574469126932
 10
8.293657344151164
 20
-10.08644454208138
 42
-0.0014321975642119
 10
8.275000000000552
 20
-10.10310889132435
 42
-0.0506255545827176
 10
8.235997077492262
 20
-10.12864179681725
 42
-0.0538399433319785
 10
8.21490422343413
 20
-10.13799002925524
 42
-0.0008240666492492
 10
8.193412044417607
 20
-10.1446827135541
 42
-0.0599209615070077
 10
8.150000000000236
 20
-10.1499999999998
 10
8.128136250709012
 20
-10.14864629008908
  0
LWPOLYLINE
  5
275
330
1E
100
AcDbEntity
  8
1
 62
     3
100
AcDbPolyline
 90
       11
 70
     0
 43
0.0
 10
8.400000000000147
 20
9.800000000956003
 42
0.0155248216947475
 10
8.399053944504892
 20
9.830448307315887
 42
0.0315109502211015
 10
8.391514231254362
 20
9.890425120431004
 42
0.032931155833539
 10
8.376660837806026
 20
9.947670521436492
 42
0.0353796976326809
 10
8.354938098808974
 20
10.00045569748242
 42
0.0389462471278004
 10
8.326993615956682
 20
10.04718576635293
 42
0.0436583972451319
 10
8.293657344151164
 20
10.08644454208144
 42
0.0493113542614874
 10
8.255918306412427
 20
10.11703102774898
 42
0.0551931310097025
 10
8.21490422343413
 20
10.13799002925538
 42
0.059893314076378
 10
8.171863749291874
 20
10.14864629008928
 42
0.0617189008043263
 10
8.128136250709246
 20
10.14864629008928
  0
ARC
  5
282
330
1E
100
AcDbEntity
  8
1
 62
     7
100
AcDbCircle
 10
0.3000000000003524
 20
-6.213000000001132
 30
0.0
 40
0.3000000000003524
100
AcDbArc
 50
180.0
 51
270.0
  0
ARC
  5
283
330
1E
100
AcDbEntity
  8
1
 62
     7
100
AcDbCircle
 10
5.200041096312248
 20
-10.45000000000005
 30
0.0
 40
0.2000000000001023
100
AcDbArc
 50
0.0
 51
90.0
  0
ARC
  5
284
330
1E
100
AcDbEntity
  8
1
 62
     7
100
AcDbCircle
 10
5.200041096312248
 20
10.44999999999999
 30
0.0
 40
0.1999999999999904
100
AcDbArc
 50
270.0
 51
0.0
  0
ARC
  5
285
330
1E
100
AcDbEntity
  8
1
 62
     7
100
AcDbCircle
 10
0.3000000000003524
 20
6.212999999998972
 30
0.0
 40
0.2999999999998986
100
AcDbArc
 50
90.0
 51
180.0
  0
ARC
  5
286
330
1E
100
AcDbEntity
  8
1
 62
     7
100
AcDbCircle
 10
0.1253133848349989
 20
6.34589478743349
 30
0.0
 40
0.2999999999999998
100
AcDbArc
 50
90.0
 51
180.0
  0
ARC
  5
287
330
1E
100
AcDbEntity
  8
1
 62
     7
100
AcDbCircle
 10
0.1253133848349989
 20
-6.342999999999943
 30
0.0
 40
0.3
100
AcDbArc
 50
180.0
 51
270.0
  0
TEXT
  5
288
330
1E
100
AcDbEntity
  8
1
 62
     0
100
AcDbText
 10
-33.33245371588525
 20
-24.19365212530342
 30
0.0
 40
1.317287507709729
  1
CSF-5-XX-2XH-J.dxf
 41
0.9
100
AcDbText
  0
INSERT
  5
305
330
1E
100
AcDbEntity
  8
0
100
AcDbBlockReference
  2
HD Logo
 10
-27.58055606286443
 20
-42.9036473023943
 30
0.0
 41
0.3005812173653143
 42
0.3005812173653143
 43
0.3005812173653143
  0
INSERT
  5
331
330
1E
100
AcDbEntity
  8
0
100
AcDbBlockReference
  2
HD LLC
 10
-0.8110805245323717
 20
-42.36216908763163
 30
0.0
 41
0.2757244603775693
 42
0.2757244603775693
 43
0.2757244603775693
  0
INSERT
  5
33D
330
1E
100
AcDbEntity
  8
0
100
AcDbBlockReference
  2
NTC
 10
-92.42946721531069
 20
-30.05472095085375
 30
0.0
 41
0.1685756551633039
 42
0.1685756551633039
 43
0.1685756551633039
  0
ENDSEC
  0
SECTION
  2
OBJECTS
  0
DICTIONARY
  5
C
330
0
100
AcDbDictionary
281
     1
  3
ACAD_GROUP
350
D
  3
ACAD_LAYOUT
350
19
  3
ACAD_MLINESTYLE
350
16
  3
ACAD_PLOTSETTINGS
350
18
  3
ACAD_PLOTSTYLENAME
350
E
  3
AcDbVariableDictionary
350
31E
  0
DICTIONARY
  5
D
102
{ACAD_REACTORS
330
C
102
}
330
C
100
AcDbDictionary
281
     1
  0
DICTIONARY
  5
19
102
{ACAD_REACTORS
330
C
102
}
330
C
100
AcDbDictionary
281
     1
  3
Layout1
350
1D
  3
Model
350
21
  0
DICTIONARY
  5
16
102
{ACAD_REACTORS
330
C
102
}
330
C
100
AcDbDictionary
281
     1
  3
Standard
350
17
  0
DICTIONARY
  5
18
102
{ACAD_REACTORS
330
C
102
}
330
C
100
AcDbDictionary
281
     1
  0
ACDBDICTIONARYWDFLT
  5
E
102
{ACAD_REACTORS
330
C
102
}
330
C
100
AcDbDictionary
281
     1
  3
Normal
350
F
100
AcDbDictionaryWithDefault
340
F
  0
DICTIONARY
  5
31E
102
{ACAD_REACTORS
330
C
102
}
330
C
100
AcDbDictionary
281
     1
  3
DIMASSOC
350
31F
  0
LAYOUT
  5
1D
102
{ACAD_REACTORS
330
19
102
}
330
19
100
AcDbPlotSettings
  1

  2
\\SERVER9\HP LaserJet 5100 PCL 5e
  4

  6

 40
0.0
 41
0.0
 42
0.0
 43
0.0
 44
0.0
 45
0.0
 46
0.0
 47
0.0
 48
0.0
 49
0.0
140
0.0
141
0.0
142
1.0
143
1.0
 70
   688
 72
     0
 73
     0
 74
     5
  7

 75
    16
147
1.0
148
0.0
149
0.0
100
AcDbLayout
  1
Layout1
 70
     1
 71
     1
 10
0.0
 20
0.0
 11
12.0
 21
9.0
 12
0.0
 22
0.0
 32
0.0
 14
1.000000000000000E+20
 24
1.000000000000000E+20
 34
1.000000000000000E+20
 15
-1.000000000000000E+20
 25
-1.000000000000000E+20
 35
-1.000000000000000E+20
146
0.0
 13
0.0
 23
0.0
 33
0.0
 16
1.0
 26
0.0
 36
0.0
 17
0.0
 27
1.0
 37
0.0
 76
     0
330
1A
  0
LAYOUT
  5
21
102
{ACAD_REACTORS
330
19
102
}
330
19
100
AcDbPlotSettings
  1

  2
\\SERVER9\HP LaserJet 5100 PCL 5e
  4

  6

 40
0.0
 41
0.0
 42
0.0
 43
0.0
 44
0.0
 45
0.0
 46
0.0
 47
0.0
 48
0.0
 49
0.0
140
0.0
141
0.0
142
1.0
143
1.0
 70
  1712
 72
     0
 73
     0
 74
     0
  7

 75
     0
147
1.0
148
0.0
149
0.0
100
AcDbLayout
  1
Model
 70
     1
 71
     0
 10
0.0
 20
0.0
 11
12.0
 21
9.0
 12
0.0
 22
0.0
 32
0.0
 14
0.0
 24
0.0
 34
0.0
 15
0.0
 25
0.0
 35
0.0
146
0.0
 13
0.0
 23
0.0
 33
0.0
 16
1.0
 26
0.0
 36
0.0
 17
0.0
 27
1.0
 37
0.0
 76
     0
330
1E
  0
MLINESTYLE
  5
17
102
{ACAD_REACTORS
330
16
102
}
330
16
100
AcDbMlineStyle
  2
STANDARD
 70
     0
  3

 62
   256
 51
90.0
 52
90.0
 71
     2
 49
0.5
 62
   256
  6
BYLAYER
 49
-0.5
 62
   256
  6
BYLAYER
  0
ACDBPLACEHOLDER
  5
F
102
{ACAD_REACTORS
330
E
102
}
330
E
  0
DICTIONARYVAR
  5
31F
102
{ACAD_REACTORS
330
31E
102
}
330
31E
100
DictionaryVariables
280
     0
  1
1
  0
ENDSEC
  0
EOF
