  0
SECTION
  2
HEADER
  9
$ACADVER
  1
AC1015
  9
$ACADMAINTVER
 70
    13
  9
$DWGCODEPAGE
  3
ANSI_1252
  9
$INSBASE
 10
0.0
 20
0.0
 30
0.0
  9
$EXTMIN
 10
3.373844683549531
 20
10.52578216866618
 30
0.0
  9
$EXTMAX
 10
27.26782919776614
 20
26.66113496241408
 30
0.0
  9
$LIMMIN
 10
0.0
 20
0.0
  9
$LIMMAX
 10
12.0
 20
9.0
  9
$ORTHOMODE
 70
     1
  9
$REGENMODE
 70
     1
  9
$FILLMODE
 70
     1
  9
$QTEXTMODE
 70
     0
  9
$MIRRTEXT
 70
     1
  9
$LTSCALE
 40
1.0
  9
$ATTMODE
 70
     1
  9
$TEXTSIZE
 40
0.75
  9
$TRACEWID
 40
0.05
  9
$TEXTSTYLE
  7
Standard
  9
$CLAYER
  8
0
  9
$CELTYPE
  6
ByLayer
  9
$CECOLOR
 62
   256
  9
$CELTSCALE
 40
1.0
  9
$DISPSILH
 70
     0
  9
$DIMSCALE
 40
1.0
  9
$DIMASZ
 40
0.18
  9
$DIMEXO
 40
0.0625
  9
$DIMDLI
 40
0.38
  9
$DIMRND
 40
0.0
  9
$DIMDLE
 40
0.0
  9
$DIMEXE
 40
0.18
  9
$DIMTP
 40
0.0
  9
$DIMTM
 40
0.0
  9
$DIMTXT
 40
0.18
  9
$DIMCEN
 40
0.09
  9
$DIMTSZ
 40
0.0
  9
$DIMTOL
 70
     0
  9
$DIMLIM
 70
     0
  9
$DIMTIH
 70
     1
  9
$DIMTOH
 70
     1
  9
$DIMSE1
 70
     0
  9
$DIMSE2
 70
     0
  9
$DIMTAD
 70
     0
  9
$DIMZIN
 70
     0
  9
$DIMBLK
  1

  9
$DIMASO
 70
     1
  9
$DIMSHO
 70
     1
  9
$DIMPOST
  1

  9
$DIMAPOST
  1

  9
$DIMALT
 70
     0
  9
$DIMALTD
 70
     2
  9
$DIMALTF
 40
25.4
  9
$DIMLFAC
 40
1.0
  9
$DIMTOFL
 70
     0
  9
$DIMTVP
 40
0.0
  9
$DIMTIX
 70
     0
  9
$DIMSOXD
 70
     0
  9
$DIMSAH
 70
     0
  9
$DIMBLK1
  1

  9
$DIMBLK2
  1

  9
$DIMSTYLE
  2
Standard
  9
$DIMCLRD
 70
     0
  9
$DIMCLRE
 70
     0
  9
$DIMCLRT
 70
     0
  9
$DIMTFAC
 40
1.0
  9
$DIMGAP
 40
0.09
  9
$DIMJUST
 70
     0
  9
$DIMSD1
 70
     0
  9
$DIMSD2
 70
     0
  9
$DIMTOLJ
 70
     1
  9
$DIMTZIN
 70
     0
  9
$DIMALTZ
 70
     0
  9
$DIMALTTZ
 70
     0
  9
$DIMUPT
 70
     0
  9
$DIMDEC
 70
     4
  9
$DIMTDEC
 70
     4
  9
$DIMALTU
 70
     2
  9
$DIMALTTD
 70
     2
  9
$DIMTXSTY
  7
Standard
  9
$DIMAUNIT
 70
     0
  9
$DIMADEC
 70
     0
  9
$DIMALTRND
 40
0.0
  9
$DIMAZIN
 70
     0
  9
$DIMDSEP
 70
    46
  9
$DIMATFIT
 70
     3
  9
$DIMFRAC
 70
     0
  9
$DIMLDRBLK
  1

  9
$DIMLUNIT
 70
     2
  9
$DIMLWD
 70
    -2
  9
$DIMLWE
 70
    -2
  9
$DIMTMOVE
 70
     0
  9
$LUNITS
 70
     2
  9
$LUPREC
 70
     4
  9
$SKETCHINC
 40
0.1
  9
$FILLETRAD
 40
0.5
  9
$AUNITS
 70
     0
  9
$AUPREC
 70
     0
  9
$MENU
  1
.
  9
$ELEVATION
 40
0.0
  9
$PELEVATION
 40
0.0
  9
$THICKNESS
 40
0.0
  9
$LIMCHECK
 70
     0
  9
$CHAMFERA
 40
0.5
  9
$CHAMFERB
 40
0.5
  9
$CHAMFERC
 40
1.0
  9
$CHAMFERD
 40
0.0
  9
$SKPOLY
 70
     0
  9
$TDCREATE
 40
2452597.475497743
  9
$TDUCREATE
 40
2452597.683831077
  9
$TDUPDATE
 40
2454809.600953565
  9
$TDUUPDATE
 40
2454809.809286897
  9
$TDINDWG
 40
0.0059852083
  9
$TDUSRTIMER
 40
0.0059847917
  9
$USRTIMER
 70
     1
  9
$ANGBASE
 50
0.0
  9
$ANGDIR
 70
     0
  9
$PDMODE
 70
     0
  9
$PDSIZE
 40
0.0
  9
$PLINEWID
 40
0.0
  9
$SPLFRAME
 70
     0
  9
$SPLINETYPE
 70
     6
  9
$SPLINESEGS
 70
     8
  9
$HANDSEED
  5
608
  9
$SURFTAB1
 70
     6
  9
$SURFTAB2
 70
     6
  9
$SURFTYPE
 70
     6
  9
$SURFU
 70
     6
  9
$SURFV
 70
     6
  9
$UCSBASE
  2

  9
$UCSNAME
  2

  9
$UCSORG
 10
0.0
 20
0.0
 30
0.0
  9
$UCSXDIR
 10
1.0
 20
0.0
 30
0.0
  9
$UCSYDIR
 10
0.0
 20
1.0
 30
0.0
  9
$UCSORTHOREF
  2

  9
$UCSORTHOVIEW
 70
     0
  9
$UCSORGTOP
 10
0.0
 20
0.0
 30
0.0
  9
$UCSORGBOTTOM
 10
0.0
 20
0.0
 30
0.0
  9
$UCSORGLEFT
 10
0.0
 20
0.0
 30
0.0
  9
$UCSORGRIGHT
 10
0.0
 20
0.0
 30
0.0
  9
$UCSORGFRONT
 10
0.0
 20
0.0
 30
0.0
  9
$UCSORGBACK
 10
0.0
 20
0.0
 30
0.0
  9
$PUCSBASE
  2

  9
$PUCSNAME
  2

  9
$PUCSORG
 10
0.0
 20
0.0
 30
0.0
  9
$PUCSXDIR
 10
1.0
 20
0.0
 30
0.0
  9
$PUCSYDIR
 10
0.0
 20
1.0
 30
0.0
  9
$PUCSORTHOREF
  2

  9
$PUCSORTHOVIEW
 70
     0
  9
$PUCSORGTOP
 10
0.0
 20
0.0
 30
0.0
  9
$PUCSORGBOTTOM
 10
0.0
 20
0.0
 30
0.0
  9
$PUCSORGLEFT
 10
0.0
 20
0.0
 30
0.0
  9
$PUCSORGRIGHT
 10
0.0
 20
0.0
 30
0.0
  9
$PUCSORGFRONT
 10
0.0
 20
0.0
 30
0.0
  9
$PUCSORGBACK
 10
0.0
 20
0.0
 30
0.0
  9
$USERI1
 70
     0
  9
$USERI2
 70
     0
  9
$USERI3
 70
     0
  9
$USERI4
 70
     0
  9
$USERI5
 70
     0
  9
$USERR1
 40
0.0
  9
$USERR2
 40
0.0
  9
$USERR3
 40
0.0
  9
$USERR4
 40
0.0
  9
$USERR5
 40
0.0
  9
$WORLDVIEW
 70
     1
  9
$SHADEDGE
 70
     3
  9
$SHADEDIF
 70
    70
  9
$TILEMODE
 70
     1
  9
$MAXACTVP
 70
    64
  9
$PINSBASE
 10
0.0
 20
0.0
 30
0.0
  9
$PLIMCHECK
 70
     0
  9
$PEXTMIN
 10
1.000000000000000E+20
 20
1.000000000000000E+20
 30
1.000000000000000E+20
  9
$PEXTMAX
 10
-1.000000000000000E+20
 20
-1.000000000000000E+20
 30
-1.000000000000000E+20
  9
$PLIMMIN
 10
0.0
 20
0.0
  9
$PLIMMAX
 10
12.0
 20
9.0
  9
$UNITMODE
 70
     0
  9
$VISRETAIN
 70
     1
  9
$PLINEGEN
 70
     0
  9
$PSLTSCALE
 70
     1
  9
$TREEDEPTH
 70
  3020
  9
$CMLSTYLE
  2
Standard
  9
$CMLJUST
 70
     0
  9
$CMLSCALE
 40
1.0
  9
$PROXYGRAPHICS
 70
     1
  9
$MEASUREMENT
 70
     0
  9
$CELWEIGHT
370
    -1
  9
$ENDCAPS
280
     0
  9
$JOINSTYLE
280
     0
  9
$LWDISPLAY
290
     0
  9
$INSUNITS
 70
     1
  9
$HYPERLINKBASE
  1

  9
$STYLESHEET
  1

  9
$XEDIT
290
     1
  9
$CEPSNTYPE
380
     0
  9
$PSTYLEMODE
290
     1
  9
$FINGERPRINTGUID
  2
{177C1A6B-053B-4684-B45D-DC4B80081273}
  9
$VERSIONGUID
  2
{F0507814-B4FD-4613-88BA-8504283E9099}
  9
$EXTNAMES
290
     1
  9
$PSVPSCALE
 40
0.0
  9
$OLESTARTUP
290
     0
  0
ENDSEC
  0
SECTION
  2
CLASSES
  0
CLASS
  1
ACDBDICTIONARYWDFLT
  2
AcDbDictionaryWithDefault
  3
AutoCAD 2000
 90
        0
280
     0
281
     0
  0
CLASS
  1
ACDBPLACEHOLDER
  2
AcDbPlaceHolder
  3
AutoCAD 2000
 90
        0
280
     0
281
     0
  0
CLASS
  1
LAYOUT
  2
AcDbLayout
  3
AutoCAD 2000
 90
        0
280
     0
281
     0
  0
CLASS
  1
DICTIONARYVAR
  2
AcDbDictionaryVar
  3
AutoCAD 2000
 90
        0
280
     0
281
     0
  0
ENDSEC
  0
SECTION
  2
TABLES
  0
TABLE
  2
VPORT
  5
8
330
0
100
AcDbSymbolTable
 70
     2
  0
VPORT
  5
607
330
8
100
AcDbSymbolTableRecord
100
AcDbViewportTableRecord
  2
*Active
 70
     0
 10
0.0
 20
0.0
 11
1.0
 21
1.0
 12
15.54621317328472
 22
18.87085061595515
 13
0.0
 23
0.0
 14
0.5
 24
0.5
 15
0.5
 25
0.5
 16
0.0
 26
0.0
 36
1.0
 17
0.0
 27
0.0
 37
0.0
 40
22.01110665128929
 41
1.565912117177097
 42
50.0
 43
0.0
 44
0.0
 50
0.0
 51
0.0
 71
     0
 72
   100
 73
     1
 74
     3
 75
     0
 76
     0
 77
     0
 78
     0
281
     0
 65
     1
110
0.0
120
0.0
130
0.0
111
1.0
121
0.0
131
0.0
112
0.0
122
1.0
132
0.0
 79
     0
146
0.0
  0
ENDTAB
  0
TABLE
  2
LTYPE
  5
5
330
0
100
AcDbSymbolTable
 70
     4
  0
LTYPE
  5
14
330
5
100
AcDbSymbolTableRecord
100
AcDbLinetypeTableRecord
  2
ByBlock
 70
     0
  3

 72
    65
 73
     0
 40
0.0
  0
LTYPE
  5
15
330
5
100
AcDbSymbolTableRecord
100
AcDbLinetypeTableRecord
  2
ByLayer
 70
     0
  3

 72
    65
 73
     0
 40
0.0
  0
LTYPE
  5
16
330
5
100
AcDbSymbolTableRecord
100
AcDbLinetypeTableRecord
  2
Continuous
 70
     0
  3
Solid line
 72
    65
 73
     0
 40
0.0
  0
LTYPE
  5
2B
330
5
100
AcDbSymbolTableRecord
100
AcDbLinetypeTableRecord
  2
CENTER
 70
     0
  3
____ _ ____ _ ____ _ ____ _ ____ _ ____ _ ____ 
 72
    65
 73
     4
 40
2.0
 49
1.25
 74
     0
 49
-0.25
 74
     0
 49
0.25
 74
     0
 49
-0.25
 74
     0
  0
LTYPE
  5
2C
330
5
100
AcDbSymbolTableRecord
100
AcDbLinetypeTableRecord
  2
DOT
 70
     0
  3
.   .   .   . 
 72
    65
 73
     2
 40
0.25
 49
0.01
 74
     0
 49
-0.24
 74
     0
  0
LTYPE
  5
2D
330
5
100
AcDbSymbolTableRecord
100
AcDbLinetypeTableRecord
  2
DASHDOT
 70
     0
  3
________ . ___
 72
    65
 73
     4
 40
1.199999999999999
 49
1.0
 74
     0
 49
-0.095
 74
     0
 49
0.01
 74
     0
 49
-0.095
 74
     0
  0
ENDTAB
  0
TABLE
  2
LAYER
  5
2
330
0
100
AcDbSymbolTable
 70
    14
  0
LAYER
  5
10
330
2
100
AcDbSymbolTableRecord
100
AcDbLayerTableRecord
  2
0
 70
     0
 62
     7
  6
Continuous
370
    -3
390
F
  0
LAYER
  5
2E
330
2
100
AcDbSymbolTableRecord
100
AcDbLayerTableRecord
  2
1
 70
     0
 62
     7
  6
Continuous
370
    -3
390
F
  0
LAYER
  5
2F
330
2
100
AcDbSymbolTableRecord
100
AcDbLayerTableRecord
  2
WAVE_GENERATOR
 70
     0
 62
   212
  6
Continuous
370
    -3
390
F
  0
LAYER
  5
30
330
2
100
AcDbSymbolTableRecord
100
AcDbLayerTableRecord
  2
FORMAT
 70
     0
 62
   254
  6
Continuous
370
    -3
390
F
  0
LAYER
  5
31
330
2
100
AcDbSymbolTableRecord
100
AcDbLayerTableRecord
  2
LINE_CENTER
 70
     0
 62
    20
  6
CENTER
370
    -3
390
F
  0
LAYER
  5
32
330
2
100
AcDbSymbolTableRecord
100
AcDbLayerTableRecord
  2
TABLE_TEXT
 70
     0
 62
    32
  6
Continuous
370
    -3
390
F
  0
LAYER
  5
33
330
2
100
AcDbSymbolTableRecord
100
AcDbLayerTableRecord
  2
BEARING_1
 70
     0
 62
    13
  6
Continuous
370
    -3
390
F
  0
LAYER
  5
34
330
2
100
AcDbSymbolTableRecord
100
AcDbLayerTableRecord
  2
RETAINER_BEARING
 70
     0
 62
   170
  6
Continuous
370
    -3
390
F
  0
LAYER
  5
35
330
2
100
AcDbSymbolTableRecord
100
AcDbLayerTableRecord
  2
SPACERS_PANCAKE
 70
     0
 62
   105
  6
Continuous
370
    -3
390
F
  0
LAYER
  5
36
330
2
100
AcDbSymbolTableRecord
100
AcDbLayerTableRecord
  2
SPLINE_CIRCULAR
 70
     0
 62
   142
  6
Continuous
370
    -3
390
F
  0
LAYER
  5
37
330
2
100
AcDbSymbolTableRecord
100
AcDbLayerTableRecord
  2
SPLINE_FLEX
 70
     0
 62
    50
  6
Continuous
370
    -3
390
F
  0
LAYER
  5
38
330
2
100
AcDbSymbolTableRecord
100
AcDbLayerTableRecord
  2
WEAR_WASHER
 70
     0
 62
   243
  6
Continuous
370
    -3
390
F
  0
LAYER
  5
510
330
2
100
AcDbSymbolTableRecord
100
AcDbLayerTableRecord
  2
Defpoints
 70
     0
 62
     7
  6
Continuous
290
     0
370
    -3
390
F
  0
LAYER
  5
5ED
330
2
100
AcDbSymbolTableRecord
100
AcDbLayerTableRecord
  2
LAYER_1
 70
     0
 62
     5
  6
Continuous
370
    -3
390
F
  0
ENDTAB
  0
TABLE
  2
STYLE
  5
3
330
0
100
AcDbSymbolTable
 70
     2
  0
STYLE
  5
11
330
3
100
AcDbSymbolTableRecord
100
AcDbTextStyleTableRecord
  2
Standard
 70
     0
 40
0.0
 41
1.0
 50
0.0
 71
     0
 42
0.75
  3
txt
  4

  0
STYLE
  5
39
330
3
100
AcDbSymbolTableRecord
100
AcDbTextStyleTableRecord
  2
ROMANS
 70
     0
 40
0.0
 41
1.0
 50
0.0
 71
     0
 42
0.15
  3
ROMANS
  4

  0
ENDTAB
  0
TABLE
  2
VIEW
  5
6
330
0
100
AcDbSymbolTable
 70
     0
  0
ENDTAB
  0
TABLE
  2
UCS
  5
7
330
0
100
AcDbSymbolTable
 70
     0
  0
ENDTAB
  0
TABLE
  2
APPID
  5
9
330
0
100
AcDbSymbolTable
 70
     1
  0
APPID
  5
12
330
9
100
AcDbSymbolTableRecord
100
AcDbRegAppTableRecord
  2
ACAD
 70
     0
  0
ENDTAB
  0
TABLE
  2
DIMSTYLE
  5
A
330
0
100
AcDbSymbolTable
 70
     4
100
AcDbDimStyleTable
 71
     0
  0
DIMSTYLE
105
27
330
A
100
AcDbSymbolTableRecord
100
AcDbDimStyleTableRecord
  2
Standard
 70
     0
340
11
  0
DIMSTYLE
105
3A
330
A
100
AcDbSymbolTableRecord
100
AcDbDimStyleTableRecord
  2
METRIC_ENG
 70
     0
 41
4.572
 42
1.588
 43
9.651999999999999
 44
0.762
 78
     4
140
3.81
141
-2.286
144
0.039370079
147
2.279999999999998
171
     0
176
   256
177
   256
178
   256
271
     3
272
     3
274
     1
284
     4
285
     4
288
     1
340
39
  0
DIMSTYLE
105
3B
330
A
100
AcDbSymbolTableRecord
100
AcDbDimStyleTableRecord
  2
METRIC_ONLY
 70
     0
 41
4.572
 42
1.588
 43
9.651999999999999
 44
0.762
 78
     4
140
3.81
141
0.0
143
0.03937
147
2.279999999999998
171
     3
176
   256
177
   256
178
   256
271
     0
272
     2
274
     3
285
     4
286
     4
288
     1
340
39
  0
DIMSTYLE
105
3C
330
A
100
AcDbSymbolTableRecord
100
AcDbDimStyleTableRecord
  2
ENG_METRIC
 70
     0
 43
0.5
 44
0.09
 78
     1
140
0.156
141
0.0
144
25.4
146
0.6666666666
176
   256
177
   256
178
   256
271
     0
272
     0
284
     1
288
     1
289
     2
340
39
371
    -1
372
    -1
  0
ENDTAB
  0
TABLE
  2
BLOCK_RECORD
  5
1
330
0
100
AcDbSymbolTable
 70
    19
  0
BLOCK_RECORD
  5
1F
330
1
100
AcDbSymbolTableRecord
100
AcDbBlockTableRecord
  2
*Model_Space
340
22
  0
BLOCK_RECORD
  5
1B
330
1
100
AcDbSymbolTableRecord
100
AcDbBlockTableRecord
  2
*Paper_Space
340
1E
  0
BLOCK_RECORD
  5
23
330
1
100
AcDbSymbolTableRecord
100
AcDbBlockTableRecord
  2
*Paper_Space0
340
26
  0
BLOCK_RECORD
  5
507
330
1
100
AcDbSymbolTableRecord
100
AcDbBlockTableRecord
  2
NTC
340
0
310
2800000020000000200000000100080000000000000400000000000000000000000000000000000000000000000080000080000000808000800000008000800080800000C0C0C000C0DCC000F0CAA6000020400000206000002080000020A0000020C0000020E00000400000004020000040400000406000004080000040A0
310
000040C0000040E00000600000006020000060400000606000006080000060A0000060C0000060E00000800000008020000080400000806000008080000080A0000080C0000080E00000A0000000A0200000A0400000A0600000A0800000A0A00000A0C00000A0E00000C0000000C0200000C0400000C0600000C0800000C0
310
A00000C0C00000C0E00000E0000000E0200000E0400000E0600000E0800000E0A00000E0C00000E0E00040000000400020004000400040006000400080004000A0004000C0004000E00040200000402020004020400040206000402080004020A0004020C0004020E000404000004040200040404000404060004040800040
310
40A0004040C0004040E00040600000406020004060400040606000406080004060A0004060C0004060E00040800000408020004080400040806000408080004080A0004080C0004080E00040A0000040A0200040A0400040A0600040A0800040A0A00040A0C00040A0E00040C0000040C0200040C0400040C0600040C08000
310
40C0A00040C0C00040C0E00040E0000040E0200040E0400040E0600040E0800040E0A00040E0C00040E0E00080000000800020008000400080006000800080008000A0008000C0008000E00080200000802020008020400080206000802080008020A0008020C0008020E00080400000804020008040400080406000804080
310
008040A0008040C0008040E00080600000806020008060400080606000806080008060A0008060C0008060E00080800000808020008080400080806000808080008080A0008080C0008080E00080A0000080A0200080A0400080A0600080A0800080A0A00080A0C00080A0E00080C0000080C0200080C0400080C0600080C0
310
800080C0A00080C0C00080C0E00080E0000080E0200080E0400080E0600080E0800080E0A00080E0C00080E0E000C0000000C0002000C0004000C0006000C0008000C000A000C000C000C000E000C0200000C0202000C0204000C0206000C0208000C020A000C020C000C020E000C0400000C0402000C0404000C0406000C0
310
408000C040A000C040C000C040E000C0600000C0602000C0604000C0606000C0608000C060A000C060C000C060E000C0800000C0802000C0804000C0806000C0808000C080A000C080C000C080E000C0A00000C0A02000C0A04000C0A06000C0A08000C0A0A000C0A0C000C0A0E000C0C00000C0C02000C0C04000C0C06000
310
C0C08000C0C0A000F0FBFF00A4A0A000808080000000FF0000FF000000FFFF00FF000000FF00FF00FFFF0000FFFFFF00FFFFFFFFFFFFFFFFFFFFFFFFFFFFFFFFFFFFFFFFFFFFFFFFFFFFFFFFFFFFFFFFFFFFFFFFFFFFFFFFFFFFFFFFFFFFFFFFFFFFFFFFFFFFFFFFFFFFFFFFFFFFFFFFFFFFFFFFFFFFFFFFFFFFFFFFFFFFFF
310
FFFFFFFFFFFFFFFFFFFFFFFFFFFFFFFFFFFFFFFFFFFFFFFFFFFFFFFFFFFFFFFFFFFFFFFFFFFFFFFFFFFFFFFFFFFFFFFFFFFFFFFFFFFFFFFFFFFFFFFFFFFFFFFFFFFFFFFFFFFFFFFFFFFFFFFFFFFFFFFFFFFFFFFFFFFFFFFFFFFFFFFFFFFFFFFFFFFFFFFFFFFFFFFFFFFFFFFFFFFFFFFFFFFFFFFFFFFFFFFFFFFFFFFFFFFFFF
310
FFFFFFFFFFFFFFFFFFFFFFFFFFFFFFFFFFFFFFFFFFFFFFFFFFFFFFFFFFFFFFFFFFFFFFFFFFFFFFFFFFFFFFFFFFFFFFFFFFFFFFFFFFFFFFFFFFFFFFFFFFFFFFFFFFFFFFFFFFFFFFFFFFFFFFFFFFFFFFFFFFFFFFFFFFFFFFFFFFFFFFFFFFFFFFFFFFFFFFFFFFFFFFFFFFFFFFFFFFFFFFFFFFFFFFFFFFFFFFFFFFFFFFFFFFFFFF
310
FFFFFFFFFFFFFFFFFFFFFFFFFFFFFFFFFFFFFFFF000000000000000000000000000000000000000000000000000000000000FFFF00FF0000000000000000FFFFFFFFFFFFFFFFFFFFFFFFFFFFFFFFFFFFFF00FFFF00FF0000000000000000FFFFFFFFFFFFFFFFFFFFFFFFFFFFFFFFFFFFFF00FFFF00FF000000000000000000
310
00000000000000000000000000FFFFFFFFFF00FFFF00FF0000000000000000000000000000000000000000000000000000FF00FFFF00FF0000000000000000000000000000000000000000000000000000FF00FFFF00FF0000000000000000000000000000000000000000000000000000FF00FFFF00FF0000000000000000
310
00000000000000000000000000000000FFFFFF00FFFF00FF0000000000FFFFFFFFFFFFFFFFFFFFFFFFFFFFFFFFFFFFFFFFFFFF00FFFF000000000000000000000000000000000000000000000000000000000000FFFFFFFFFFFFFFFFFFFFFFFFFFFFFFFFFFFFFFFFFFFFFFFFFFFFFFFFFFFFFFFFFFFFFFFFFFFFFFFFFFFFFF
310
FFFFFFFFFFFFFFFFFFFFFFFFFFFFFFFFFFFFFFFFFFFFFFFFFFFFFFFFFFFFFFFFFFFFFFFFFFFFFFFFFFFFFFFFFFFFFFFFFFFFFFFFFFFFFFFFFFFFFFFFFFFFFFFFFFFFFFFFFFFFFFFFFFFFFFFFFFFFFFFFFFFFFFFFFFFFFFFFFFFFFFFFFFFFFFFFFFFFFFFFFFFFFFFFFFFFFFFFFFFFFFFFFFFFFFFFFFFFFFFFFFFFFFFFFFFFFF
310
FFFFFFFFFFFFFFFFFFFFFFFFFFFFFFFFFFFFFFFFFFFFFFFFFFFFFFFFFFFFFFFFFFFFFFFFFFFFFFFFFFFFFFFFFFFFFFFFFFFFFFFFFFFFFFFFFFFFFFFFFFFFFFFFFFFFFFFFFFFFFFFFFFFFFFFFFFFFFFFFFFFFFFFFFFFFFFFFFFFFFFFFFFFFFFFFFFFFFFFFFFFFFFFFFFFFFFFFFFFFFFFFFFFFFFFFFFFFFFFFFFFFFFFFFFFFFF
310
FFFFFFFFFFFFFFFFFFFFFFFFFFFFFFFFFFFFFFFFFFFFFFFFFFFFFFFFFFFFFFFFFFFFFFFFFFFFFFFFFFFFFFFFFFFFFFFFFFFFFFFFFFFFFFFF
102
{BLKREFS
331
50D
102
}
  0
BLOCK_RECORD
  5
50C
330
1
100
AcDbSymbolTableRecord
100
AcDbBlockTableRecord
  2
Notice
340
0
310
2800000020000000200000000100080000000000000400000000000000000000000000000000000000000000000080000080000000808000800000008000800080800000C0C0C000C0DCC000F0CAA6000020400000206000002080000020A0000020C0000020E00000400000004020000040400000406000004080000040A0
310
000040C0000040E00000600000006020000060400000606000006080000060A0000060C0000060E00000800000008020000080400000806000008080000080A0000080C0000080E00000A0000000A0200000A0400000A0600000A0800000A0A00000A0C00000A0E00000C0000000C0200000C0400000C0600000C0800000C0
310
A00000C0C00000C0E00000E0000000E0200000E0400000E0600000E0800000E0A00000E0C00000E0E00040000000400020004000400040006000400080004000A0004000C0004000E00040200000402020004020400040206000402080004020A0004020C0004020E000404000004040200040404000404060004040800040
310
40A0004040C0004040E00040600000406020004060400040606000406080004060A0004060C0004060E00040800000408020004080400040806000408080004080A0004080C0004080E00040A0000040A0200040A0400040A0600040A0800040A0A00040A0C00040A0E00040C0000040C0200040C0400040C0600040C08000
310
40C0A00040C0C00040C0E00040E0000040E0200040E0400040E0600040E0800040E0A00040E0C00040E0E00080000000800020008000400080006000800080008000A0008000C0008000E00080200000802020008020400080206000802080008020A0008020C0008020E00080400000804020008040400080406000804080
310
008040A0008040C0008040E00080600000806020008060400080606000806080008060A0008060C0008060E00080800000808020008080400080806000808080008080A0008080C0008080E00080A0000080A0200080A0400080A0600080A0800080A0A00080A0C00080A0E00080C0000080C0200080C0400080C0600080C0
310
800080C0A00080C0C00080C0E00080E0000080E0200080E0400080E0600080E0800080E0A00080E0C00080E0E000C0000000C0002000C0004000C0006000C0008000C000A000C000C000C000E000C0200000C0202000C0204000C0206000C0208000C020A000C020C000C020E000C0400000C0402000C0404000C0406000C0
310
408000C040A000C040C000C040E000C0600000C0602000C0604000C0606000C0608000C060A000C060C000C060E000C0800000C0802000C0804000C0806000C0808000C080A000C080C000C080E000C0A00000C0A02000C0A04000C0A06000C0A08000C0A0A000C0A0C000C0A0E000C0C00000C0C02000C0C04000C0C06000
310
C0C08000C0C0A000F0FBFF00A4A0A000808080000000FF0000FF000000FFFF00FF000000FF00FF00FFFF0000FFFFFF00FFFFFFFFFFFFFFFFFFFFFFFFFFFFFFFFFFFFFFFFFFFFFFFFFFFFFFFFFFFFFFFFFFFFFFFFFFFFFFFFFFFFFFFFFFFFFFFFFFFFFFFFFFFFFFFFFFFFFFFFFFFFFFFFFFFFFFFFFFFFFFFFFFFFFFFFFFFFFF
310
FFFFFFFFFFFFFFFFFFFFFFFFFFFFFFFFFFFFFFFFFFFFFFFFFFFFFFFFFFFFFFFFFFFFFFFFFFFFFFFFFFFFFFFFFFFFFFFFFFFFFFFFFFFFFFFFFFFFFFFFFFFFFFFFFFFFFFFFFFFFFFFFFFFFFFFFFFFFFFFFFFFFFFFFFFFFFFFFFFFFFFFFFFFFFFFFFFFFFFFFFFFFFFFFFFFFFFFFFFFFFFFFFFFFFFFFFFFFFFFFFFFFFFFFFFFFFF
310
FFFFFFFFFFFFFFFFFFFFFFFFFFFFFFFFFFFFFFFFFFFFFFFFFFFFFFFFFFFFFFFFFFFFFFFFFFFFFFFFFFFFFFFFFFFFFFFFFFFFFFFFFFFFFFFFFFFFFFFFFFFFFFFFFFFFFFFFFFFFFFFFFFFFFFFFFFFFFFFFFFFFFFFFFFFFFFFFFFFFFFFFFFFFFFFFFFFFFFFFFFFFFFFFFFFFFFFFFFFFFFFFFFFFFFFFFFFFFFFFFFFFFFFFFFFFFF
310
FFFFFFFFFFFFFFFFFFFFFFFFFFFFFFFFFFFFFFFF000000000000000000000000000000000000000000000000000000000000FFFF00FF0000000000000000FFFFFFFFFFFFFFFFFFFFFFFFFFFFFFFFFFFFFF00FFFF00FF0000000000000000FFFFFFFFFFFFFFFFFFFFFFFFFFFFFFFFFFFFFF00FFFF00FF000000000000000000
310
00000000000000000000000000FFFFFFFFFF00FFFF00FF0000000000000000000000000000000000000000000000000000FF00FFFF00FF0000000000000000000000000000000000000000000000000000FF00FFFF00FF0000000000000000000000000000000000000000000000000000FF00FFFF00FF0000000000000000
310
00000000000000000000000000000000FFFFFF00FFFF00FF000000000000FFFFFFFFFFFFFFFFFFFFFFFFFFFFFFFFFFFFFFFFFF00FFFF000000000000000000000000000000000000000000000000000000000000FFFFFFFFFFFFFFFFFFFFFFFFFFFFFFFFFFFFFFFFFFFFFFFFFFFFFFFFFFFFFFFFFFFFFFFFFFFFFFFFFFFFFF
310
FFFFFFFFFFFFFFFFFFFFFFFFFFFFFFFFFFFFFFFFFFFFFFFFFFFFFFFFFFFFFFFFFFFFFFFFFFFFFFFFFFFFFFFFFFFFFFFFFFFFFFFFFFFFFFFFFFFFFFFFFFFFFFFFFFFFFFFFFFFFFFFFFFFFFFFFFFFFFFFFFFFFFFFFFFFFFFFFFFFFFFFFFFFFFFFFFFFFFFFFFFFFFFFFFFFFFFFFFFFFFFFFFFFFFFFFFFFFFFFFFFFFFFFFFFFFFF
310
FFFFFFFFFFFFFFFFFFFFFFFFFFFFFFFFFFFFFFFFFFFFFFFFFFFFFFFFFFFFFFFFFFFFFFFFFFFFFFFFFFFFFFFFFFFFFFFFFFFFFFFFFFFFFFFFFFFFFFFFFFFFFFFFFFFFFFFFFFFFFFFFFFFFFFFFFFFFFFFFFFFFFFFFFFFFFFFFFFFFFFFFFFFFFFFFFFFFFFFFFFFFFFFFFFFFFFFFFFFFFFFFFFFFFFFFFFFFFFFFFFFFFFFFFFFFFF
310
FFFFFFFFFFFFFFFFFFFFFFFFFFFFFFFFFFFFFFFFFFFFFFFFFFFFFFFFFFFFFFFFFFFFFFFFFFFFFFFFFFFFFFFFFFFFFFFFFFFFFFFFFFFFFFFF
102
{BLKREFS
331
512
331
517
102
}
  0
BLOCK_RECORD
  5
585
330
1
100
AcDbSymbolTableRecord
100
AcDbBlockTableRecord
  2
AI9-BLK14
340
0
310
2800000020000000200000000100080000000000000400000000000000000000000000000000000000000000000080000080000000808000800000008000800080800000C0C0C000C0DCC000F0CAA6000020400000206000002080000020A0000020C0000020E00000400000004020000040400000406000004080000040A0
310
000040C0000040E00000600000006020000060400000606000006080000060A0000060C0000060E00000800000008020000080400000806000008080000080A0000080C0000080E00000A0000000A0200000A0400000A0600000A0800000A0A00000A0C00000A0E00000C0000000C0200000C0400000C0600000C0800000C0
310
A00000C0C00000C0E00000E0000000E0200000E0400000E0600000E0800000E0A00000E0C00000E0E00040000000400020004000400040006000400080004000A0004000C0004000E00040200000402020004020400040206000402080004020A0004020C0004020E000404000004040200040404000404060004040800040
310
40A0004040C0004040E00040600000406020004060400040606000406080004060A0004060C0004060E00040800000408020004080400040806000408080004080A0004080C0004080E00040A0000040A0200040A0400040A0600040A0800040A0A00040A0C00040A0E00040C0000040C0200040C0400040C0600040C08000
310
40C0A00040C0C00040C0E00040E0000040E0200040E0400040E0600040E0800040E0A00040E0C00040E0E00080000000800020008000400080006000800080008000A0008000C0008000E00080200000802020008020400080206000802080008020A0008020C0008020E00080400000804020008040400080406000804080
310
008040A0008040C0008040E00080600000806020008060400080606000806080008060A0008060C0008060E00080800000808020008080400080806000808080008080A0008080C0008080E00080A0000080A0200080A0400080A0600080A0800080A0A00080A0C00080A0E00080C0000080C0200080C0400080C0600080C0
310
800080C0A00080C0C00080C0E00080E0000080E0200080E0400080E0600080E0800080E0A00080E0C00080E0E000C0000000C0002000C0004000C0006000C0008000C000A000C000C000C000E000C0200000C0202000C0204000C0206000C0208000C020A000C020C000C020E000C0400000C0402000C0404000C0406000C0
310
408000C040A000C040C000C040E000C0600000C0602000C0604000C0606000C0608000C060A000C060C000C060E000C0800000C0802000C0804000C0806000C0808000C080A000C080C000C080E000C0A00000C0A02000C0A04000C0A06000C0A08000C0A0A000C0A0C000C0A0E000C0C00000C0C02000C0C04000C0C06000
310
C0C08000C0C0A000F0FBFF00A4A0A000808080000000FF0000FF000000FFFF00FF000000FF00FF00FFFF0000FFFFFF00FF00FFFFFFFF00FFFFFFFFFFFFFFFFFFFFFFFFFFFFFFFFFFFFFFFFFFFFFFFFFFFF00FFFFFFFF00FFFFFFFFFFFFFFFFFFFFFFFFFFFFFFFFFFFFFFFFFFFFFFFFFFFF00FFFFFFFF00FFFFFFFFFFFFFFFF
310
FFFFFFFFFFFFFFFFFFFFFFFFFFFFFFFFFFFF00FFFFFFFF00FFFFFFFFFFFFFFFFFFFFFFFFFFFFFFFFFFFFFFFFFFFFFFFFFFFF00FFFFFFFF00FFFFFFFFFFFFFFFFFFFFFFFFFFFFFFFFFFFFFFFFFFFFFFFFFFFF00FFFFFFFF00FFFFFFFFFFFFFFFFFFFFFFFFFFFFFFFFFFFFFFFFFFFFFFFFFFFF00FFFFFFFF00FFFFFFFFFFFFFF
310
FFFFFFFFFFFFFFFFFFFFFFFFFFFFFFFFFFFFFF00FFFFFFFF00FFFFFFFFFFFFFFFFFFFFFFFFFFFFFFFFFFFFFFFFFFFFFFFFFFFF00FFFFFFFF00FFFFFFFFFFFFFFFFFFFFFFFFFFFFFFFFFFFFFFFFFFFFFFFFFFFF00FFFFFFFF00FFFFFFFFFFFFFFFFFFFFFFFFFFFFFFFFFFFFFFFFFFFFFFFFFFFF00FFFFFFFF00FFFFFFFFFFFF
310
FFFFFFFFFFFFFFFFFFFFFFFFFFFFFFFFFFFFFFFF00FFFFFFFF00FFFFFFFFFFFFFFFFFFFFFFFFFFFFFFFFFFFFFFFFFFFFFFFFFFFF00FFFFFFFF00FFFFFFFFFFFFFFFFFFFFFFFFFFFFFFFFFFFFFFFFFFFFFFFFFFFF00FFFFFFFF0000000000000000000000000000000000000000000000000000FF00FFFFFFFFFFFFFFFFFFFF
310
FFFFFFFFFFFFFFFFFFFFFFFFFFFFFFFFFFFFFFFFFF00FFFFFFFFFFFFFFFFFFFFFFFFFFFFFFFFFFFFFFFFFFFFFFFFFFFFFFFFFFFFFF00FFFFFFFFFFFFFFFFFFFFFFFFFFFFFFFFFFFFFFFFFFFFFFFFFFFFFFFFFFFFFF00FFFFFFFFFFFFFFFFFFFFFFFFFFFFFFFFFFFFFFFFFFFFFFFFFFFFFFFFFF00FF00000000000000000000
310
0000000000000000000000000000000000000000FFFFFFFFFFFFFFFFFFFFFFFFFFFFFFFFFFFFFFFFFFFFFFFFFFFFFFFFFFFFFFFFFFFFFFFFFFFFFFFFFFFFFFFFFFFFFFFFFFFFFFFFFFFFFFFFFFFFFFFFFFFFFFFFFFFFFFFFFFFFFFFFFFFFFFFFFFFFFFFFFFFFFFFFFFFFFFFFFFFFFFFFFFFFFFFFFFFFFFFFFFFFFFFFFFFFFF
310
FFFFFFFFFFFFFFFFFFFFFFFFFFFFFFFFFFFFFFFFFFFFFFFFFFFFFFFFFFFFFFFFFFFFFFFFFFFFFFFFFFFFFFFFFFFFFFFFFFFFFFFFFFFFFFFFFFFFFFFFFFFFFFFFFFFFFFFFFFFFFFFFFFFFFFFFFFFFFFFFFFFFFFFFFFFFFFFFFFFFFFFFFFFFFFFFFFFFFFFFFFFFFFFFFFFFFFFFFFFFFFFFFFFFFFFFFFFFFFFFFFFFFFFFFFFFFF
310
FFFFFFFFFFFFFFFFFFFFFFFFFFFFFFFFFFFFFFFFFFFFFFFFFFFFFFFFFFFFFFFFFFFFFFFFFFFFFFFFFFFFFFFFFFFFFFFFFFFFFFFFFFFFFFFFFFFFFFFFFFFFFFFFFFFFFFFFFFFFFFFFFFFFFFFFFFFFFFFFFFFFFFFFFFFFFFFFFFFFFFFFFFFFFFFFFFFFFFFFFFFFFFFFFFFFFFFFFFFFFFFFFFFFFFFFFFFFFFFFFFFFFFFFFFFFFF
310
FFFFFFFFFFFFFFFFFFFFFFFFFFFFFFFFFFFFFFFFFFFFFFFFFFFFFFFFFFFFFFFFFFFFFFFFFFFFFFFFFFFFFFFFFFFFFFFFFFFFFFFFFFFFFFFF
102
{BLKREFS
331
5C6
102
}
  0
BLOCK_RECORD
  5
58A
330
1
100
AcDbSymbolTableRecord
100
AcDbBlockTableRecord
  2
AI9-BLK13
340
0
310
2800000020000000200000000100080000000000000400000000000000000000000000000000000000000000000080000080000000808000800000008000800080800000C0C0C000C0DCC000F0CAA6000020400000206000002080000020A0000020C0000020E00000400000004020000040400000406000004080000040A0
310
000040C0000040E00000600000006020000060400000606000006080000060A0000060C0000060E00000800000008020000080400000806000008080000080A0000080C0000080E00000A0000000A0200000A0400000A0600000A0800000A0A00000A0C00000A0E00000C0000000C0200000C0400000C0600000C0800000C0
310
A00000C0C00000C0E00000E0000000E0200000E0400000E0600000E0800000E0A00000E0C00000E0E00040000000400020004000400040006000400080004000A0004000C0004000E00040200000402020004020400040206000402080004020A0004020C0004020E000404000004040200040404000404060004040800040
310
40A0004040C0004040E00040600000406020004060400040606000406080004060A0004060C0004060E00040800000408020004080400040806000408080004080A0004080C0004080E00040A0000040A0200040A0400040A0600040A0800040A0A00040A0C00040A0E00040C0000040C0200040C0400040C0600040C08000
310
40C0A00040C0C00040C0E00040E0000040E0200040E0400040E0600040E0800040E0A00040E0C00040E0E00080000000800020008000400080006000800080008000A0008000C0008000E00080200000802020008020400080206000802080008020A0008020C0008020E00080400000804020008040400080406000804080
310
008040A0008040C0008040E00080600000806020008060400080606000806080008060A0008060C0008060E00080800000808020008080400080806000808080008080A0008080C0008080E00080A0000080A0200080A0400080A0600080A0800080A0A00080A0C00080A0E00080C0000080C0200080C0400080C0600080C0
310
800080C0A00080C0C00080C0E00080E0000080E0200080E0400080E0600080E0800080E0A00080E0C00080E0E000C0000000C0002000C0004000C0006000C0008000C000A000C000C000C000E000C0200000C0202000C0204000C0206000C0208000C020A000C020C000C020E000C0400000C0402000C0404000C0406000C0
310
408000C040A000C040C000C040E000C0600000C0602000C0604000C0606000C0608000C060A000C060C000C060E000C0800000C0802000C0804000C0806000C0808000C080A000C080C000C080E000C0A00000C0A02000C0A04000C0A06000C0A08000C0A0A000C0A0C000C0A0E000C0C00000C0C02000C0C04000C0C06000
310
C0C08000C0C0A000F0FBFF00A4A0A000808080000000FF0000FF000000FFFF00FF000000FF00FF00FFFF0000FFFFFF00FFFFFFFFFFFFFFFFFFFFFFFFFFFFFFFFFFFFFFFFFFFFFFFFFFFFFFFFFFFFFFFFFFFFFFFFFFFFFFFFFFFFFF0000FFFFFFFFFFFF0000FFFFFFFFFFFFFFFFFFFFFFFFFFFFFFFFFFFFFFFFFFFF0000FFFF
310
FFFFFFFF0000FFFFFFFFFFFFFFFFFFFFFFFFFFFFFFFFFFFFFFFFFFFF0000FFFFFFFFFFFF0000FFFFFFFFFFFFFFFFFFFFFFFFFFFFFFFFFFFFFFFFFFFF0000FFFFFFFFFFFF0000FFFFFFFFFFFFFFFFFFFFFFFFFFFFFFFFFFFFFFFFFFFF0000FFFFFFFFFFFF0000FFFFFFFFFFFFFFFFFFFFFFFFFFFFFFFFFFFFFFFFFFFF0000FF
310
FFFFFFFFFF0000FFFFFFFFFFFFFFFFFFFFFFFFFFFFFFFFFFFFFFFFFFFF0000FFFFFFFFFFFF0000FFFFFFFFFFFFFFFFFFFFFFFFFFFFFFFFFFFFFFFFFFFF0000FFFFFFFFFFFF0000FFFFFFFFFFFFFFFFFFFFFFFFFFFFFFFFFFFFFFFFFFFF0000FFFFFFFFFFFF0000FFFFFFFFFFFFFFFFFFFFFFFFFFFFFFFFFFFFFFFFFFFF0000
310
FFFFFFFFFFFF0000FFFFFFFFFFFFFFFFFFFFFFFFFFFFFFFFFFFFFFFFFFFF0000FFFFFFFFFFFF0000FFFFFFFFFFFFFFFFFFFFFFFFFFFFFFFFFFFFFFFFFFFF0000FFFFFFFFFFFF0000FFFFFFFFFFFFFFFFFFFFFFFFFFFFFFFFFFFFFFFFFFFF0000FFFFFFFFFFFF0000FFFFFFFFFFFFFFFFFFFFFFFFFFFFFFFFFFFFFFFFFFFF00
310
00FFFFFFFFFFFF0000FFFFFFFFFFFFFFFFFFFFFFFFFFFFFFFFFFFFFFFFFFFF00000000000000000000FFFFFFFFFFFFFFFFFFFFFFFFFFFFFFFFFFFFFFFFFFFF00FFFFFFFFFFFFFFFF00FFFFFFFFFFFFFFFFFFFFFFFFFFFFFFFFFFFFFFFFFFFF00FFFFFFFFFFFFFFFF00FFFFFFFFFFFFFFFFFFFFFFFFFFFFFFFFFFFFFFFFFFFF
310
00000000000000000000FFFFFFFFFFFFFFFFFFFFFFFFFFFFFFFFFFFFFFFFFFFF0000FFFFFFFFFFFF0000FFFFFFFFFFFFFFFFFFFFFFFFFFFFFFFFFFFFFFFFFFFF0000FFFFFFFFFFFF0000FFFFFFFFFFFFFFFFFFFFFFFFFFFFFFFFFFFFFFFFFFFF0000FFFFFFFFFFFF0000FFFFFFFFFFFFFFFFFFFFFFFFFFFFFFFFFFFFFFFFFF
310
FF0000FFFFFFFFFFFF0000FFFFFFFFFFFFFFFFFFFFFFFFFFFFFFFFFFFFFFFFFFFF0000FFFFFFFFFFFF0000FFFFFFFFFFFFFFFFFFFFFFFFFFFFFFFFFFFFFFFFFFFF0000FFFFFFFFFFFF0000FFFFFFFFFFFFFFFFFFFFFFFFFFFFFFFFFFFFFFFFFFFF0000FFFFFFFFFFFF0000FFFFFFFFFFFFFFFFFFFFFFFFFFFFFFFFFFFFFFFF
310
FFFF0000FFFFFFFFFFFF0000FFFFFFFFFFFFFFFFFFFFFFFFFFFFFFFFFFFFFFFFFFFF0000FFFFFFFFFFFF0000FFFFFFFFFFFFFFFFFFFFFFFFFFFFFFFFFFFFFFFFFFFF0000FFFFFFFFFFFF0000FFFFFFFFFFFFFFFFFFFFFFFFFFFFFFFFFFFFFFFFFFFF0000FFFFFFFFFFFF0000FFFFFFFFFFFFFFFFFFFFFFFFFFFFFFFFFFFFFF
310
FFFFFF0000FFFFFFFFFFFF0000FFFFFFFFFFFFFFFFFFFFFFFFFFFFFFFFFFFFFFFFFFFFFFFFFFFFFFFFFFFFFFFFFFFFFFFFFFFFFFFFFFFFFF
102
{BLKREFS
331
5C7
102
}
  0
BLOCK_RECORD
  5
58F
330
1
100
AcDbSymbolTableRecord
100
AcDbBlockTableRecord
  2
AI9-BLK11
340
0
310
2800000020000000200000000100080000000000000400000000000000000000000000000000000000000000000080000080000000808000800000008000800080800000C0C0C000C0DCC000F0CAA6000020400000206000002080000020A0000020C0000020E00000400000004020000040400000406000004080000040A0
310
000040C0000040E00000600000006020000060400000606000006080000060A0000060C0000060E00000800000008020000080400000806000008080000080A0000080C0000080E00000A0000000A0200000A0400000A0600000A0800000A0A00000A0C00000A0E00000C0000000C0200000C0400000C0600000C0800000C0
310
A00000C0C00000C0E00000E0000000E0200000E0400000E0600000E0800000E0A00000E0C00000E0E00040000000400020004000400040006000400080004000A0004000C0004000E00040200000402020004020400040206000402080004020A0004020C0004020E000404000004040200040404000404060004040800040
310
40A0004040C0004040E00040600000406020004060400040606000406080004060A0004060C0004060E00040800000408020004080400040806000408080004080A0004080C0004080E00040A0000040A0200040A0400040A0600040A0800040A0A00040A0C00040A0E00040C0000040C0200040C0400040C0600040C08000
310
40C0A00040C0C00040C0E00040E0000040E0200040E0400040E0600040E0800040E0A00040E0C00040E0E00080000000800020008000400080006000800080008000A0008000C0008000E00080200000802020008020400080206000802080008020A0008020C0008020E00080400000804020008040400080406000804080
310
008040A0008040C0008040E00080600000806020008060400080606000806080008060A0008060C0008060E00080800000808020008080400080806000808080008080A0008080C0008080E00080A0000080A0200080A0400080A0600080A0800080A0A00080A0C00080A0E00080C0000080C0200080C0400080C0600080C0
310
800080C0A00080C0C00080C0E00080E0000080E0200080E0400080E0600080E0800080E0A00080E0C00080E0E000C0000000C0002000C0004000C0006000C0008000C000A000C000C000C000E000C0200000C0202000C0204000C0206000C0208000C020A000C020C000C020E000C0400000C0402000C0404000C0406000C0
310
408000C040A000C040C000C040E000C0600000C0602000C0604000C0606000C0608000C060A000C060C000C060E000C0800000C0802000C0804000C0806000C0808000C080A000C080C000C080E000C0A00000C0A02000C0A04000C0A06000C0A08000C0A0A000C0A0C000C0A0E000C0C00000C0C02000C0C04000C0C06000
310
C0C08000C0C0A000F0FBFF00A4A0A000808080000000FF0000FF000000FFFF00FF000000FF00FF00FFFF0000FFFFFF00FFFFFFFFFFFFFFFFFFFFFFFFFFFFFFFFFFFFFFFFFFFFFFFFFFFFFFFFFFFFFFFFFFFFFFFFFFFFFFFFFFFFFFFFFFFF00000000FFFFFFFFFFFFFFFFFFFFFF000000FFFFFFFFFFFFFFFFFFFFFFFFFFFF00
310
FFFF00FFFFFFFFFFFFFFFFFFFFFF00FFFFFFFFFFFFFFFFFFFFFFFFFFFFFFFF00FFFF00FFFFFFFFFFFFFFFFFFFFFF00FFFFFFFFFFFFFFFFFFFFFFFFFFFFFFFF00FFFF00FFFFFFFFFFFFFFFFFFFFFF00FFFFFFFFFFFFFFFFFFFFFFFFFFFFFFFF00FFFF00FFFFFFFFFFFFFFFFFFFFFF00FFFFFFFFFFFFFFFFFFFFFFFFFFFFFFFF
310
00FFFF00FFFFFFFFFFFFFFFFFFFFFF00FFFFFFFFFFFFFFFFFFFFFFFFFFFFFFFF00FFFF00FFFFFFFFFFFFFFFFFFFFFF00FFFFFFFFFFFFFFFFFFFFFFFFFFFFFFFF00FFFF00FFFFFFFFFFFFFFFFFFFFFF00FFFFFFFFFFFFFFFFFFFFFFFFFFFFFFFF00FFFF00FFFFFFFFFFFFFFFFFFFFFF00FFFFFFFFFFFFFFFFFFFFFFFFFFFFFF
310
FF00FFFF00FFFFFFFFFFFFFFFFFFFFFF00FFFFFFFFFFFFFFFFFFFFFFFFFFFFFFFF00FFFF00FFFFFFFFFFFFFFFFFFFFFF00FFFFFFFFFFFFFFFFFFFFFFFFFFFFFFFF00FFFF00FFFFFFFFFFFFFFFFFFFFFF00FFFFFFFFFFFFFFFFFFFFFFFFFFFFFFFF00FFFF00FFFFFFFFFFFFFFFFFFFFFF00FFFFFFFFFFFFFFFFFFFFFFFFFFFF
310
FFFF00FFFF00FFFFFFFFFFFFFFFFFFFFFF00FFFFFFFFFFFFFFFFFFFFFFFFFFFFFFFF00FFFF00FFFFFFFFFFFFFFFFFFFFFF00FFFFFFFFFFFFFFFFFFFFFFFFFFFFFFFF00FFFF00FFFFFFFFFFFFFFFFFFFFFF00FFFFFFFFFFFFFFFFFFFFFFFFFFFFFFFF00FFFF00FFFFFFFFFFFFFFFFFFFF00FFFFFFFFFFFFFFFFFFFFFFFFFFFF
310
FFFFFF00FFFF00FFFFFFFFFFFFFFFFFFFF00FFFFFFFFFFFFFFFFFFFFFFFFFFFFFFFFFF00FFFF00FFFFFFFFFFFFFFFFFFFF00FFFFFFFFFFFFFFFFFFFFFFFFFFFFFFFFFF00FFFF00FFFFFFFFFFFFFFFFFFFF00FFFFFFFFFFFFFFFFFFFFFFFFFFFFFFFFFF00FFFF00FFFFFFFFFFFFFFFFFFFF00FFFFFFFFFFFFFFFFFFFFFFFFFF
310
FFFFFFFF00FFFF00FFFFFFFFFFFFFFFFFF0000FFFF00FFFFFFFFFFFFFFFFFFFFFFFFFFFF00FFFF00FFFFFFFFFFFFFFFF0000FFFFFF00FFFFFFFFFFFFFFFFFFFFFFFFFFFF00FFFF00000000000000000000FFFFFFFF00FFFFFFFFFFFFFFFFFFFFFFFFFFFF00FFFFFFFFFFFFFFFFFFFFFFFFFFFFFF00FFFFFFFFFFFFFFFFFFFF
310
FFFFFFFFFF00FFFFFFFFFFFFFFFFFFFFFFFFFFFF00FFFFFFFFFFFFFFFFFFFFFFFFFFFFFFFF00FFFFFFFFFFFFFFFFFFFFFFFFFFFF00FFFFFFFFFFFFFFFFFFFFFFFFFFFFFFFF00FFFFFFFFFFFFFFFFFFFFFFFFFFFFFF00FFFFFFFFFFFFFFFFFFFFFFFFFFFFFF00FFFFFFFFFFFFFFFFFFFFFFFFFFFFFF00FFFFFFFFFFFFFFFFFF
310
FFFFFFFFFFFF00FFFF00000000000000000000FFFFFFFF00FFFFFFFFFFFFFFFFFFFFFFFFFFFF00FFFF00FFFFFFFFFFFFFFFFFF0000FFFF00
102
{BLKREFS
331
5C8
102
}
  0
BLOCK_RECORD
  5
594
330
1
100
AcDbSymbolTableRecord
100
AcDbBlockTableRecord
  2
AI9-BLK10
340
0
310
2800000020000000200000000100080000000000000400000000000000000000000000000000000000000000000080000080000000808000800000008000800080800000C0C0C000C0DCC000F0CAA6000020400000206000002080000020A0000020C0000020E00000400000004020000040400000406000004080000040A0
310
000040C0000040E00000600000006020000060400000606000006080000060A0000060C0000060E00000800000008020000080400000806000008080000080A0000080C0000080E00000A0000000A0200000A0400000A0600000A0800000A0A00000A0C00000A0E00000C0000000C0200000C0400000C0600000C0800000C0
310
A00000C0C00000C0E00000E0000000E0200000E0400000E0600000E0800000E0A00000E0C00000E0E00040000000400020004000400040006000400080004000A0004000C0004000E00040200000402020004020400040206000402080004020A0004020C0004020E000404000004040200040404000404060004040800040
310
40A0004040C0004040E00040600000406020004060400040606000406080004060A0004060C0004060E00040800000408020004080400040806000408080004080A0004080C0004080E00040A0000040A0200040A0400040A0600040A0800040A0A00040A0C00040A0E00040C0000040C0200040C0400040C0600040C08000
310
40C0A00040C0C00040C0E00040E0000040E0200040E0400040E0600040E0800040E0A00040E0C00040E0E00080000000800020008000400080006000800080008000A0008000C0008000E00080200000802020008020400080206000802080008020A0008020C0008020E00080400000804020008040400080406000804080
310
008040A0008040C0008040E00080600000806020008060400080606000806080008060A0008060C0008060E00080800000808020008080400080806000808080008080A0008080C0008080E00080A0000080A0200080A0400080A0600080A0800080A0A00080A0C00080A0E00080C0000080C0200080C0400080C0600080C0
310
800080C0A00080C0C00080C0E00080E0000080E0200080E0400080E0600080E0800080E0A00080E0C00080E0E000C0000000C0002000C0004000C0006000C0008000C000A000C000C000C000E000C0200000C0202000C0204000C0206000C0208000C020A000C020C000C020E000C0400000C0402000C0404000C0406000C0
310
408000C040A000C040C000C040E000C0600000C0602000C0604000C0606000C0608000C060A000C060C000C060E000C0800000C0802000C0804000C0806000C0808000C080A000C080C000C080E000C0A00000C0A02000C0A04000C0A06000C0A08000C0A0A000C0A0C000C0A0E000C0C00000C0C02000C0C04000C0C06000
310
C0C08000C0C0A000F0FBFF00A4A0A000808080000000FF0000FF000000FFFF00FF000000FF00FF00FFFF0000FFFFFF00FFFFFFFFFFFFFFFFFFFFFFFFFFFFFFFF00FFFFFFFFFFFFFFFFFFFFFFFF00FFFFFFFFFFFFFFFFFFFFFFFFFFFFFFFFFFFF00FFFFFFFFFFFFFFFFFFFFFF00FFFFFFFFFFFFFFFFFFFFFFFFFFFFFFFFFFFF
310
FF00FFFFFFFFFFFFFFFFFFFFFF00FFFFFFFFFFFFFFFFFFFFFFFFFFFFFFFFFFFFFF00FFFFFFFFFFFFFFFFFFFFFF00FFFFFFFFFFFFFFFFFFFFFFFFFFFFFFFFFFFFFF00FFFFFFFFFFFFFFFFFFFFFF00FFFFFFFFFFFFFFFFFFFFFFFFFFFFFFFFFFFFFF00FFFFFFFFFFFFFFFFFFFFFF00FFFFFFFFFFFFFFFFFFFFFFFFFFFFFFFFFF
310
FFFF00FFFFFFFFFFFFFFFFFFFFFF00FFFFFFFFFFFFFFFFFFFFFFFFFFFFFFFFFFFFFF00FFFFFFFFFFFFFFFFFFFF00FFFFFFFFFFFFFFFFFFFFFFFFFFFFFFFFFFFFFFFF00FFFFFFFFFFFFFFFFFFFF00FFFFFFFFFFFFFFFFFFFFFFFFFFFFFFFFFFFFFFFF00FFFFFFFFFFFFFFFFFFFF00FFFFFFFFFFFFFFFFFFFFFFFFFFFFFFFFFF
310
FFFFFF00FFFFFFFFFFFFFFFFFFFF00FFFFFFFFFFFFFFFFFFFFFFFFFFFFFFFFFFFFFFFF00FFFFFFFFFFFFFFFFFFFF00FFFFFFFFFFFFFFFFFFFFFFFFFFFFFFFFFFFFFFFF00FFFFFFFFFFFFFFFFFFFF00FFFFFFFFFFFFFFFFFFFFFFFFFFFFFFFFFFFFFFFF00FFFFFFFFFFFFFFFFFF00FFFFFFFFFFFFFFFFFFFFFFFFFFFFFFFFFF
310
FFFFFFFF00FFFFFFFFFFFFFFFFFF00FFFFFFFFFFFFFFFFFFFFFFFFFFFFFFFFFFFFFFFFFF00FFFFFFFFFFFFFFFFFF00FFFFFFFFFFFFFFFFFFFFFFFFFFFFFFFFFFFFFFFFFF0000000000000000000000FFFFFFFFFFFFFFFFFFFFFFFFFFFFFFFFFFFFFFFFFFFFFFFFFFFFFFFFFFFFFFFFFFFFFFFFFFFFFFFFFFFFFFFFFFFFFFFF
310
FFFFFFFFFFFFFFFFFFFFFFFFFFFFFFFFFFFFFFFFFFFFFFFFFFFFFFFFFFFFFFFFFFFFFFFFFFFFFFFFFFFFFFFFFFFFFFFFFFFFFFFFFFFFFFFFFFFFFFFFFFFFFFFFFFFFFFFFFFFFFFFFFFFFFFFFFFFFFFFFFFFFFFFFFFFFFFFFFFFFFFFFFFFFFFFFFFFFFFFFFFFFFFFFFFFFFFFFFFFFFFFFFFFFFFFFFFFFFFFFFFFFFFFFFFFFFF
310
FFFFFFFFFFFFFFFFFFFFFFFFFFFFFFFFFFFFFFFFFFFFFFFFFFFFFFFFFFFFFFFFFFFFFFFFFFFFFFFFFFFFFFFFFFFFFFFFFFFFFFFFFFFFFFFFFFFFFFFFFFFFFFFFFFFFFFFFFFFFFFFFFFFFFFFFFFFFFFFFFFFFFFFFFFFFFFFFFFFFFFFFFFFFFFFFFFFFFFFFFFFFFFFFFFFFFFFFFFFFFFFFFFFFFFFFFFFFFFFFFFFFFFFFFFFFFF
310
FFFFFFFFFFFFFFFFFFFFFFFFFFFFFFFFFFFFFFFFFFFFFFFFFFFFFFFFFFFFFFFFFFFFFFFFFFFFFFFFFFFFFFFFFFFFFFFFFFFFFFFFFFFFFFFFFFFFFFFFFFFFFFFFFFFFFFFFFFFFFFFFFFFFFFFFFFFFFFFFFFFFFFFFFFFFFFFFFFFFFFFFFFFFFFFFFFFFFFFFFFFFFFFFFFFFFFFFFFFFFFFFFFFFFFFFFFFFFFFFFFFFFFFFFFFFFF
310
FFFFFFFFFFFFFFFFFFFFFFFFFFFFFFFFFFFFFFFFFFFFFFFFFFFFFFFFFFFFFFFFFFFFFFFFFFFFFFFFFFFFFFFFFFFFFFFFFFFFFFFFFFFFFFFF
102
{BLKREFS
331
5C9
102
}
  0
BLOCK_RECORD
  5
598
330
1
100
AcDbSymbolTableRecord
100
AcDbBlockTableRecord
  2
AI9-BLK9
340
0
310
2800000020000000200000000100080000000000000400000000000000000000000000000000000000000000000080000080000000808000800000008000800080800000C0C0C000C0DCC000F0CAA6000020400000206000002080000020A0000020C0000020E00000400000004020000040400000406000004080000040A0
310
000040C0000040E00000600000006020000060400000606000006080000060A0000060C0000060E00000800000008020000080400000806000008080000080A0000080C0000080E00000A0000000A0200000A0400000A0600000A0800000A0A00000A0C00000A0E00000C0000000C0200000C0400000C0600000C0800000C0
310
A00000C0C00000C0E00000E0000000E0200000E0400000E0600000E0800000E0A00000E0C00000E0E00040000000400020004000400040006000400080004000A0004000C0004000E00040200000402020004020400040206000402080004020A0004020C0004020E000404000004040200040404000404060004040800040
310
40A0004040C0004040E00040600000406020004060400040606000406080004060A0004060C0004060E00040800000408020004080400040806000408080004080A0004080C0004080E00040A0000040A0200040A0400040A0600040A0800040A0A00040A0C00040A0E00040C0000040C0200040C0400040C0600040C08000
310
40C0A00040C0C00040C0E00040E0000040E0200040E0400040E0600040E0800040E0A00040E0C00040E0E00080000000800020008000400080006000800080008000A0008000C0008000E00080200000802020008020400080206000802080008020A0008020C0008020E00080400000804020008040400080406000804080
310
008040A0008040C0008040E00080600000806020008060400080606000806080008060A0008060C0008060E00080800000808020008080400080806000808080008080A0008080C0008080E00080A0000080A0200080A0400080A0600080A0800080A0A00080A0C00080A0E00080C0000080C0200080C0400080C0600080C0
310
800080C0A00080C0C00080C0E00080E0000080E0200080E0400080E0600080E0800080E0A00080E0C00080E0E000C0000000C0002000C0004000C0006000C0008000C000A000C000C000C000E000C0200000C0202000C0204000C0206000C0208000C020A000C020C000C020E000C0400000C0402000C0404000C0406000C0
310
408000C040A000C040C000C040E000C0600000C0602000C0604000C0606000C0608000C060A000C060C000C060E000C0800000C0802000C0804000C0806000C0808000C080A000C080C000C080E000C0A00000C0A02000C0A04000C0A06000C0A08000C0A0A000C0A0C000C0A0E000C0C00000C0C02000C0C04000C0C06000
310
C0C08000C0C0A000F0FBFF00A4A0A000808080000000FF0000FF000000FFFF00FF000000FF00FF00FFFF0000FFFFFF00FFFFFFFFFFFFFFFFFFFFFFFFFFFFFFFFFFFFFFFFFFFFFFFFFFFFFFFFFFFFFFFFFFFFFFFFFFFFFFFFFFFFFFFFFFFFFF0000FFFFFFFFFFFFFFFFFFFFFFFFFFFFFFFFFFFFFFFFFFFFFFFFFFFFFFFF0000
310
FF0000FFFFFFFFFFFFFFFFFFFFFFFFFFFFFFFFFFFFFFFFFFFFFFFFFFFFFF00FFFFFF0000FFFFFFFFFFFFFFFFFFFFFFFFFFFFFFFFFFFFFFFFFFFFFFFFFFFF00FFFFFFFF0000FFFFFFFFFFFFFFFFFFFFFFFFFFFFFFFFFFFFFFFFFFFFFFFF00FF00000000FF00FFFFFFFFFFFFFFFFFFFFFFFFFFFFFFFFFFFFFFFFFFFFFFFF0000
310
00FFFF00FF00FFFFFFFFFFFFFFFFFFFFFFFFFFFFFFFFFFFFFFFFFFFFFFFF0000FFFFFFFF0000FFFFFFFFFFFFFFFFFFFFFFFFFFFFFFFFFFFFFFFFFFFFFFFF0000FFFFFFFF0000FFFFFFFFFFFFFFFFFFFFFFFFFFFFFFFFFFFFFFFFFFFFFF00FF00FFFFFFFF00FF00FFFFFFFFFFFFFFFFFFFFFFFFFFFFFFFFFFFFFFFFFFFF0000
310
FFFFFFFFFF00FF00FFFFFFFFFFFFFFFFFFFFFFFFFFFFFFFFFFFFFFFFFFFF0000FFFFFFFFFFFF0000FFFFFFFFFFFFFFFFFFFFFFFFFFFFFFFFFFFFFFFFFFFF0000FFFFFFFFFFFF0000FFFFFFFFFFFFFFFFFFFFFFFFFFFFFFFFFFFFFFFFFFFF0000FFFFFFFFFFFF0000FFFFFFFFFFFFFFFFFFFFFFFFFFFFFFFFFFFFFFFFFFFF00
310
00FFFFFFFFFFFF0000FFFFFFFFFFFFFFFFFFFFFFFFFFFFFFFFFFFFFFFFFFFF0000FFFFFFFFFFFF0000FFFFFFFFFFFFFFFFFFFFFFFFFFFFFFFFFFFFFFFFFFFF0000FFFFFFFFFFFF0000FFFFFFFFFFFFFFFFFFFFFFFFFFFFFFFFFFFFFFFFFFFF0000FFFFFFFFFFFF0000FFFFFFFFFFFFFFFFFFFFFFFFFFFFFFFFFFFFFFFFFFFF
310
0000FFFFFFFFFFFF0000FFFFFFFFFFFFFFFFFFFFFFFFFFFFFFFFFFFFFFFFFFFF0000FFFFFFFFFFFF0000FFFFFFFFFFFFFFFFFFFFFFFFFFFFFFFFFFFFFFFFFFFF0000FFFFFFFFFFFF0000FFFFFFFFFFFFFFFFFFFFFFFFFFFFFFFFFFFFFFFFFFFF00FF00FFFFFFFF00FF00FFFFFFFFFFFFFFFFFFFFFFFFFFFFFFFFFFFFFFFFFF
310
FF00FF00FFFFFFFF00FF00FFFFFFFFFFFFFFFFFFFFFFFFFFFFFFFFFFFFFFFFFFFF00FF00FFFFFFFF00FF00FFFFFFFFFFFFFFFFFFFFFFFFFFFFFFFFFFFFFFFFFFFFFF0000FFFFFFFF0000FFFFFFFFFFFFFFFFFFFFFFFFFFFFFFFFFFFFFFFFFFFFFFFF00FF00FFFF00FF00FFFFFFFFFFFFFFFFFFFFFFFFFFFFFFFFFFFFFFFFFF
310
FFFFFF00FF00000000FF00FFFFFFFFFFFFFFFFFFFFFFFFFFFFFFFFFFFFFFFFFFFFFFFFFF00FFFFFFFF0000FFFFFFFFFFFFFFFFFFFFFFFFFFFFFFFFFFFFFFFFFFFFFFFFFF00FFFFFFFF00FFFFFFFFFFFFFFFFFFFFFFFFFFFFFFFFFFFFFFFFFFFFFFFFFFFFFF00000000FFFFFFFFFFFFFFFFFFFFFFFFFFFFFFFFFFFFFFFFFFFF
310
FFFFFFFFFFFFFF0000FFFFFFFFFFFFFFFFFFFFFFFFFFFFFFFFFFFFFFFFFFFFFFFFFFFFFFFFFFFFFFFFFFFFFFFFFFFFFFFFFFFFFFFFFFFFFF
102
{BLKREFS
331
5CA
102
}
  0
BLOCK_RECORD
  5
59D
330
1
100
AcDbSymbolTableRecord
100
AcDbBlockTableRecord
  2
AI9-BLK8
340
0
310
2800000020000000200000000100080000000000000400000000000000000000000000000000000000000000000080000080000000808000800000008000800080800000C0C0C000C0DCC000F0CAA6000020400000206000002080000020A0000020C0000020E00000400000004020000040400000406000004080000040A0
310
000040C0000040E00000600000006020000060400000606000006080000060A0000060C0000060E00000800000008020000080400000806000008080000080A0000080C0000080E00000A0000000A0200000A0400000A0600000A0800000A0A00000A0C00000A0E00000C0000000C0200000C0400000C0600000C0800000C0
310
A00000C0C00000C0E00000E0000000E0200000E0400000E0600000E0800000E0A00000E0C00000E0E00040000000400020004000400040006000400080004000A0004000C0004000E00040200000402020004020400040206000402080004020A0004020C0004020E000404000004040200040404000404060004040800040
310
40A0004040C0004040E00040600000406020004060400040606000406080004060A0004060C0004060E00040800000408020004080400040806000408080004080A0004080C0004080E00040A0000040A0200040A0400040A0600040A0800040A0A00040A0C00040A0E00040C0000040C0200040C0400040C0600040C08000
310
40C0A00040C0C00040C0E00040E0000040E0200040E0400040E0600040E0800040E0A00040E0C00040E0E00080000000800020008000400080006000800080008000A0008000C0008000E00080200000802020008020400080206000802080008020A0008020C0008020E00080400000804020008040400080406000804080
310
008040A0008040C0008040E00080600000806020008060400080606000806080008060A0008060C0008060E00080800000808020008080400080806000808080008080A0008080C0008080E00080A0000080A0200080A0400080A0600080A0800080A0A00080A0C00080A0E00080C0000080C0200080C0400080C0600080C0
310
800080C0A00080C0C00080C0E00080E0000080E0200080E0400080E0600080E0800080E0A00080E0C00080E0E000C0000000C0002000C0004000C0006000C0008000C000A000C000C000C000E000C0200000C0202000C0204000C0206000C0208000C020A000C020C000C020E000C0400000C0402000C0404000C0406000C0
310
408000C040A000C040C000C040E000C0600000C0602000C0604000C0606000C0608000C060A000C060C000C060E000C0800000C0802000C0804000C0806000C0808000C080A000C080C000C080E000C0A00000C0A02000C0A04000C0A06000C0A08000C0A0A000C0A0C000C0A0E000C0C00000C0C02000C0C04000C0C06000
310
C0C08000C0C0A000F0FBFF00A4A0A000808080000000FF0000FF000000FFFF00FF000000FF00FF00FFFF0000FFFFFF00FFFFFFFFFFFFFFFFFFFFFFFFFFFFFFFFFFFFFFFFFFFFFFFFFFFFFFFFFFFFFFFFFFFFFFFFFFFFFFFFFFFFFF0000FFFFFFFFFFFF0000FFFFFFFFFFFFFFFFFFFFFFFFFFFFFFFFFFFFFFFFFFFF0000FFFF
310
FFFFFFFF0000FFFFFFFFFFFFFFFFFFFFFFFFFFFFFFFFFFFFFFFFFFFF0000FFFFFFFFFF00FF00FFFFFFFFFFFFFFFFFFFFFFFFFFFFFFFFFFFFFFFFFFFF0000FFFFFFFFFF00FF00FFFFFFFFFFFFFFFFFFFFFFFFFFFFFFFFFFFFFFFFFFFF0000FFFFFFFFFF00FF00FFFFFFFFFFFFFFFFFFFFFFFFFFFFFFFFFFFFFFFFFFFF0000FF
310
FFFFFF00FFFF00FFFFFFFFFFFFFFFFFFFFFFFFFFFFFFFFFFFFFFFFFFFF0000FFFFFFFF00FF0000FFFFFFFFFFFFFFFFFFFFFFFFFFFFFFFFFFFFFFFFFFFF0000FFFFFFFF00FF0000FFFFFFFFFFFFFFFFFFFFFFFFFFFFFFFFFFFFFFFFFFFF0000FFFFFFFF00000000FFFFFFFFFFFFFFFFFFFFFFFFFFFFFFFFFFFFFFFFFFFF0000
310
FFFFFF00FF000000FFFFFFFFFFFFFFFFFFFFFFFFFFFFFFFFFFFFFFFFFFFF0000FFFFFF00FF000000FFFFFFFFFFFFFFFFFFFFFFFFFFFFFFFFFFFFFFFFFFFF0000FFFFFF00FF000000FFFFFFFFFFFFFFFFFFFFFFFFFFFFFFFFFFFFFFFFFFFF0000FFFF00FF00FF0000FFFFFFFFFFFFFFFFFFFFFFFFFFFFFFFFFFFFFFFFFFFF00
310
00FFFF00FF00FF0000FFFFFFFFFFFFFFFFFFFFFFFFFFFFFFFFFFFFFFFFFFFF0000FFFF00FF00FF0000FFFFFFFFFFFFFFFFFFFFFFFFFFFFFFFFFFFFFFFFFFFF0000FF00FFFF00FF0000FFFFFFFFFFFFFFFFFFFFFFFFFFFFFFFFFFFFFFFFFFFF0000FF00FF00FFFF0000FFFFFFFFFFFFFFFFFFFFFFFFFFFFFFFFFFFFFFFFFFFF
310
0000FF00FF00FFFF0000FFFFFFFFFFFFFFFFFFFFFFFFFFFFFFFFFFFFFFFFFFFF0000FF00FF00FFFF0000FFFFFFFFFFFFFFFFFFFFFFFFFFFFFFFFFFFFFFFFFFFF000000FFFF00FFFF0000FFFFFFFFFFFFFFFFFFFFFFFFFFFFFFFFFFFFFFFFFFFF000000FF00FFFFFF0000FFFFFFFFFFFFFFFFFFFFFFFFFFFFFFFFFFFFFFFFFF
310
FF000000FF00FFFFFF0000FFFFFFFFFFFFFFFFFFFFFFFFFFFFFFFFFFFFFFFFFFFF0000FFFF00FFFFFF0000FFFFFFFFFFFFFFFFFFFFFFFFFFFFFFFFFFFFFFFFFFFF0000FFFF00FFFFFF0000FFFFFFFFFFFFFFFFFFFFFFFFFFFFFFFFFFFFFFFFFFFF00FFFF00FFFFFFFF0000FFFFFFFFFFFFFFFFFFFFFFFFFFFFFFFFFFFFFFFF
310
FFFF00FFFF00FFFFFFFF0000FFFFFFFFFFFFFFFFFFFFFFFFFFFFFFFFFFFFFFFFFFFF00FFFF00FFFFFFFF0000FFFFFFFFFFFFFFFFFFFFFFFFFFFFFFFFFFFFFFFFFFFF00FFFF00FFFFFFFF0000FFFFFFFFFFFFFFFFFFFFFFFFFFFFFFFFFFFFFFFFFFFF00FF00FFFFFFFFFF0000FFFFFFFFFFFFFFFFFFFFFFFFFFFFFFFFFFFFFF
310
FFFFFF000000FFFFFFFFFF0000FFFFFFFFFFFFFFFFFFFFFFFFFFFFFFFFFFFFFFFFFFFFFFFFFFFFFFFFFFFFFFFFFFFFFFFFFFFFFFFFFFFFFF
102
{BLKREFS
331
5CB
102
}
  0
BLOCK_RECORD
  5
5A2
330
1
100
AcDbSymbolTableRecord
100
AcDbBlockTableRecord
  2
AI9-BLK7
340
0
310
2800000020000000200000000100080000000000000400000000000000000000000000000000000000000000000080000080000000808000800000008000800080800000C0C0C000C0DCC000F0CAA6000020400000206000002080000020A0000020C0000020E00000400000004020000040400000406000004080000040A0
310
000040C0000040E00000600000006020000060400000606000006080000060A0000060C0000060E00000800000008020000080400000806000008080000080A0000080C0000080E00000A0000000A0200000A0400000A0600000A0800000A0A00000A0C00000A0E00000C0000000C0200000C0400000C0600000C0800000C0
310
A00000C0C00000C0E00000E0000000E0200000E0400000E0600000E0800000E0A00000E0C00000E0E00040000000400020004000400040006000400080004000A0004000C0004000E00040200000402020004020400040206000402080004020A0004020C0004020E000404000004040200040404000404060004040800040
310
40A0004040C0004040E00040600000406020004060400040606000406080004060A0004060C0004060E00040800000408020004080400040806000408080004080A0004080C0004080E00040A0000040A0200040A0400040A0600040A0800040A0A00040A0C00040A0E00040C0000040C0200040C0400040C0600040C08000
310
40C0A00040C0C00040C0E00040E0000040E0200040E0400040E0600040E0800040E0A00040E0C00040E0E00080000000800020008000400080006000800080008000A0008000C0008000E00080200000802020008020400080206000802080008020A0008020C0008020E00080400000804020008040400080406000804080
310
008040A0008040C0008040E00080600000806020008060400080606000806080008060A0008060C0008060E00080800000808020008080400080806000808080008080A0008080C0008080E00080A0000080A0200080A0400080A0600080A0800080A0A00080A0C00080A0E00080C0000080C0200080C0400080C0600080C0
310
800080C0A00080C0C00080C0E00080E0000080E0200080E0400080E0600080E0800080E0A00080E0C00080E0E000C0000000C0002000C0004000C0006000C0008000C000A000C000C000C000E000C0200000C0202000C0204000C0206000C0208000C020A000C020C000C020E000C0400000C0402000C0404000C0406000C0
310
408000C040A000C040C000C040E000C0600000C0602000C0604000C0606000C0608000C060A000C060C000C060E000C0800000C0802000C0804000C0806000C0808000C080A000C080C000C080E000C0A00000C0A02000C0A04000C0A06000C0A08000C0A0A000C0A0C000C0A0E000C0C00000C0C02000C0C04000C0C06000
310
C0C08000C0C0A000F0FBFF00A4A0A000808080000000FF0000FF000000FFFF00FF000000FF00FF00FFFF0000FFFFFF00FFFFFFFFFFFFFFFFFFFFFFFFFFFFFFFFFFFFFFFFFFFFFFFFFFFFFFFFFFFFFFFFFFFFFFFFFFFFFFFFFFFFFFFFFFFFFF0000FFFFFFFFFFFFFFFFFFFFFFFFFFFFFFFFFFFFFFFFFFFFFFFFFFFFFFFFFFFF
310
0000FFFFFFFFFFFFFFFFFFFFFFFFFFFFFFFFFFFFFFFFFFFFFFFFFFFFFFFFFFFF0000FFFFFFFFFFFFFFFFFFFFFFFFFFFFFFFFFFFFFFFFFFFFFFFFFFFFFFFFFFFF0000FFFFFFFFFFFFFFFFFFFFFFFFFFFFFFFFFFFFFFFFFFFFFFFFFFFFFFFFFFFF0000FFFFFFFFFFFFFFFFFFFFFFFFFFFFFFFFFFFFFFFFFFFFFFFFFFFFFFFFFF
310
FF0000FFFFFFFFFFFFFFFFFFFFFFFFFFFFFFFFFFFFFFFFFFFFFFFFFFFFFFFFFFFF0000FFFFFFFFFFFFFFFFFFFFFFFFFFFFFFFFFFFFFFFFFFFFFFFFFFFFFFFFFFFF0000FFFFFFFFFFFFFFFFFFFFFFFFFFFFFFFFFFFFFFFFFFFFFFFFFFFFFFFFFFFF0000FFFFFFFFFFFFFFFFFFFFFFFFFFFFFFFFFFFFFFFFFFFFFFFFFFFFFFFF
310
FFFF0000FFFFFFFFFFFFFFFFFFFFFFFFFFFFFFFFFFFFFFFFFFFFFFFFFFFFFFFFFFFF0000FFFFFFFFFFFFFFFFFFFFFFFFFFFFFFFFFFFFFFFFFFFFFFFFFFFFFFFFFFFF0000FFFFFFFFFFFFFFFFFFFFFFFFFFFFFFFFFFFFFFFFFFFFFFFFFFFFFFFFFFFF0000FFFFFFFFFFFFFFFFFFFFFFFFFFFFFFFFFFFFFFFFFFFFFFFFFFFFFF
310
FFFFFF0000FFFFFFFFFFFFFFFFFFFFFFFFFFFFFFFFFFFFFFFFFFFFFFFFFFFFFFFFFFFF0000FFFFFFFFFFFFFFFFFFFFFFFFFFFFFFFFFFFFFFFFFFFFFFFFFFFFFFFFFFFF0000FFFFFFFFFFFFFFFFFFFFFFFFFFFFFFFFFFFFFFFFFFFFFFFFFFFFFFFFFFFF0000FFFFFFFFFFFFFFFFFFFFFFFFFFFFFFFFFFFFFFFFFFFFFFFFFFFF
310
FFFFFFFF0000FFFFFFFFFFFFFFFFFFFFFFFFFFFFFFFFFFFFFFFFFFFFFFFFFFFFFFFFFFFF0000FFFFFFFFFFFFFFFFFFFFFFFFFFFFFFFFFFFFFFFFFFFFFFFFFFFFFFFFFFFF0000FFFFFFFFFFFFFFFFFFFFFFFFFFFFFFFFFFFFFFFFFFFFFFFFFFFFFFFFFFFF0000FFFFFFFFFFFFFFFFFFFFFFFFFFFFFFFFFFFFFFFFFFFFFFFFFF
310
FFFFFFFFFF0000FFFFFFFFFFFFFFFFFFFFFFFFFFFFFFFFFFFFFFFFFFFFFFFFFFFFFFFFFFFF0000FFFFFFFFFFFFFFFFFFFFFFFFFFFFFFFFFFFFFFFFFFFFFFFFFFFFFFFFFFFF0000FFFFFFFFFFFFFFFFFFFFFFFFFFFFFFFFFFFFFFFFFFFFFFFFFFFFFFFFFFFF0000FFFFFFFFFFFFFFFFFFFFFFFFFFFFFFFFFFFFFFFFFFFFFFFF
310
FFFFFFFFFFFF0000FFFFFFFFFFFFFFFFFFFFFFFFFFFFFFFFFFFFFFFFFFFFFFFFFFFFFFFFFFFF0000FFFFFFFFFFFFFFFFFFFFFFFFFFFFFFFFFFFFFFFFFFFFFFFFFFFFFFFFFFFF0000FFFFFFFFFFFFFFFFFFFFFFFFFFFFFFFFFFFFFFFFFFFFFFFFFFFFFFFFFFFF0000FFFFFFFFFFFFFFFFFFFFFFFFFFFFFFFFFFFFFFFFFFFFFF
310
FFFFFFFFFFFFFF0000FFFFFFFFFFFFFFFFFFFFFFFFFFFFFFFFFFFFFFFFFFFFFFFFFFFFFFFFFFFFFFFFFFFFFFFFFFFFFFFFFFFFFFFFFFFFFF
102
{BLKREFS
331
5CC
102
}
  0
BLOCK_RECORD
  5
5A7
330
1
100
AcDbSymbolTableRecord
100
AcDbBlockTableRecord
  2
AI9-BLK6
340
0
310
2800000020000000200000000100080000000000000400000000000000000000000000000000000000000000000080000080000000808000800000008000800080800000C0C0C000C0DCC000F0CAA6000020400000206000002080000020A0000020C0000020E00000400000004020000040400000406000004080000040A0
310
000040C0000040E00000600000006020000060400000606000006080000060A0000060C0000060E00000800000008020000080400000806000008080000080A0000080C0000080E00000A0000000A0200000A0400000A0600000A0800000A0A00000A0C00000A0E00000C0000000C0200000C0400000C0600000C0800000C0
310
A00000C0C00000C0E00000E0000000E0200000E0400000E0600000E0800000E0A00000E0C00000E0E00040000000400020004000400040006000400080004000A0004000C0004000E00040200000402020004020400040206000402080004020A0004020C0004020E000404000004040200040404000404060004040800040
310
40A0004040C0004040E00040600000406020004060400040606000406080004060A0004060C0004060E00040800000408020004080400040806000408080004080A0004080C0004080E00040A0000040A0200040A0400040A0600040A0800040A0A00040A0C00040A0E00040C0000040C0200040C0400040C0600040C08000
310
40C0A00040C0C00040C0E00040E0000040E0200040E0400040E0600040E0800040E0A00040E0C00040E0E00080000000800020008000400080006000800080008000A0008000C0008000E00080200000802020008020400080206000802080008020A0008020C0008020E00080400000804020008040400080406000804080
310
008040A0008040C0008040E00080600000806020008060400080606000806080008060A0008060C0008060E00080800000808020008080400080806000808080008080A0008080C0008080E00080A0000080A0200080A0400080A0600080A0800080A0A00080A0C00080A0E00080C0000080C0200080C0400080C0600080C0
310
800080C0A00080C0C00080C0E00080E0000080E0200080E0400080E0600080E0800080E0A00080E0C00080E0E000C0000000C0002000C0004000C0006000C0008000C000A000C000C000C000E000C0200000C0202000C0204000C0206000C0208000C020A000C020C000C020E000C0400000C0402000C0404000C0406000C0
310
408000C040A000C040C000C040E000C0600000C0602000C0604000C0606000C0608000C060A000C060C000C060E000C0800000C0802000C0804000C0806000C0808000C080A000C080C000C080E000C0A00000C0A02000C0A04000C0A06000C0A08000C0A0A000C0A0C000C0A0E000C0C00000C0C02000C0C04000C0C06000
310
C0C08000C0C0A000F0FBFF00A4A0A000808080000000FF0000FF000000FFFF00FF000000FF00FF00FFFF0000FFFFFF00FFFFFFFFFFFFFFFFFFFFFFFF00FFFFFFFFFFFFFF00FFFFFFFFFFFFFFFFFFFFFFFFFFFFFFFFFFFFFFFFFFFFFF00FFFFFFFFFFFFFF00FFFFFFFFFFFFFFFFFFFFFFFFFFFFFFFFFFFFFFFFFFFFFF00FFFF
310
FFFFFFFFFF00FFFFFFFFFFFFFFFFFFFFFFFFFFFFFFFFFFFFFFFFFFFF00FFFFFFFFFFFFFFFF00FFFFFFFFFFFFFFFFFFFFFFFFFFFFFFFFFFFFFFFFFFFF00FFFFFFFFFFFFFF00FFFFFFFFFFFFFFFFFFFFFFFFFFFFFFFFFFFFFFFFFFFFFF00FFFFFFFFFFFFFF00FFFFFFFFFFFFFFFFFFFFFFFFFFFFFFFFFFFFFFFFFFFF00FFFFFF
310
FFFFFFFFFF00FFFFFFFFFFFFFFFFFFFFFFFFFFFFFFFFFFFFFFFFFFFF00FFFFFFFFFFFFFF00FFFFFFFFFFFFFFFFFFFFFFFFFFFFFFFFFFFFFFFFFFFF00FFFFFFFFFFFFFFFF00FFFFFFFFFFFFFFFFFFFFFFFFFFFFFFFFFFFFFFFFFF00FFFFFFFFFFFFFFFFFF00FFFFFFFFFFFFFFFFFFFFFFFFFFFFFFFFFFFFFFFF00FFFFFFFFFF
310
FFFFFFFFFF00FFFFFFFFFFFFFFFFFFFFFFFFFFFFFFFFFFFFFF00FFFFFFFFFFFFFFFFFFFF00FFFFFFFFFFFFFFFFFFFFFFFFFFFFFFFFFFFF0000FFFFFFFFFFFFFFFFFFFFFF00FFFFFFFFFFFFFFFFFFFFFFFFFFFF00000000FFFFFFFFFFFFFFFFFFFFFFFFFF00FFFFFFFFFFFFFFFFFFFFFFFFFFFFFFFFFFFFFFFFFFFFFFFFFFFF
310
FFFFFFFF00FFFFFFFFFFFFFFFFFFFFFFFFFFFFFFFFFFFFFFFFFFFFFFFFFFFFFFFFFFFFFF00FFFFFFFFFFFFFFFFFFFFFFFFFFFFFFFFFFFFFFFFFFFFFFFFFFFFFFFFFFFFFF00FFFFFFFFFFFFFFFFFFFFFFFFFFFFFFFFFFFFFFFFFFFFFFFFFFFFFFFFFFFF00FFFFFFFFFFFFFFFFFFFFFFFFFFFFFFFFFFFFFFFFFFFFFFFFFFFFFF
310
FFFFFFFF00FFFFFFFFFFFFFFFFFFFFFFFFFFFFFFFFFFFFFFFFFFFFFFFFFFFFFFFFFFFF00FFFFFFFFFFFFFFFFFFFFFFFFFFFFFFFFFFFFFFFFFFFFFFFFFFFFFFFFFFFF00FFFFFFFFFFFFFFFFFFFFFFFFFFFFFFFFFFFFFFFFFFFFFFFFFFFFFFFFFFFF00FFFFFFFFFFFFFFFFFFFFFFFFFFFFFFFFFFFFFFFFFFFFFFFFFFFFFFFFFF
310
FF00FFFFFFFFFFFFFFFFFFFFFFFFFFFFFFFFFFFFFFFFFFFFFFFFFFFFFFFFFFFFFF00FFFFFFFFFFFFFFFFFFFFFFFFFFFFFFFFFFFFFFFFFFFFFFFFFFFFFFFFFFFF00FFFFFFFFFFFFFFFFFFFFFFFFFFFFFFFFFFFFFFFFFFFFFFFFFFFFFFFFFF0000FFFFFFFFFFFFFFFFFFFFFFFFFFFFFFFFFFFFFFFFFFFFFFFFFFFFFFFF0000FF
310
FFFFFFFFFFFFFFFFFFFFFFFFFFFFFFFFFFFFFFFFFFFFFFFFFF00000000FFFFFFFFFFFFFFFFFFFFFFFFFFFFFFFFFFFFFFFFFFFFFFFFFFFF0000FFFFFFFFFFFFFFFFFFFFFFFFFFFFFFFFFFFFFFFFFFFFFFFFFFFFFFFFFFFFFFFFFFFFFFFFFFFFFFFFFFFFFFFFFFFFFFFFFFFFFFFFFFFFFFFFFFFFFFFFFFFFFFFFFFFFFFFFFFFF
310
FFFFFFFFFFFFFFFFFFFFFFFFFFFFFFFFFFFFFFFFFFFFFFFFFFFFFFFFFFFFFFFFFFFFFFFFFFFFFFFFFFFFFFFFFFFFFFFFFFFFFFFFFFFFFFFF
102
{BLKREFS
331
5CD
102
}
  0
BLOCK_RECORD
  5
5AB
330
1
100
AcDbSymbolTableRecord
100
AcDbBlockTableRecord
  2
AI9-BLK5
340
0
310
2800000020000000200000000100080000000000000400000000000000000000000000000000000000000000000080000080000000808000800000008000800080800000C0C0C000C0DCC000F0CAA6000020400000206000002080000020A0000020C0000020E00000400000004020000040400000406000004080000040A0
310
000040C0000040E00000600000006020000060400000606000006080000060A0000060C0000060E00000800000008020000080400000806000008080000080A0000080C0000080E00000A0000000A0200000A0400000A0600000A0800000A0A00000A0C00000A0E00000C0000000C0200000C0400000C0600000C0800000C0
310
A00000C0C00000C0E00000E0000000E0200000E0400000E0600000E0800000E0A00000E0C00000E0E00040000000400020004000400040006000400080004000A0004000C0004000E00040200000402020004020400040206000402080004020A0004020C0004020E000404000004040200040404000404060004040800040
310
40A0004040C0004040E00040600000406020004060400040606000406080004060A0004060C0004060E00040800000408020004080400040806000408080004080A0004080C0004080E00040A0000040A0200040A0400040A0600040A0800040A0A00040A0C00040A0E00040C0000040C0200040C0400040C0600040C08000
310
40C0A00040C0C00040C0E00040E0000040E0200040E0400040E0600040E0800040E0A00040E0C00040E0E00080000000800020008000400080006000800080008000A0008000C0008000E00080200000802020008020400080206000802080008020A0008020C0008020E00080400000804020008040400080406000804080
310
008040A0008040C0008040E00080600000806020008060400080606000806080008060A0008060C0008060E00080800000808020008080400080806000808080008080A0008080C0008080E00080A0000080A0200080A0400080A0600080A0800080A0A00080A0C00080A0E00080C0000080C0200080C0400080C0600080C0
310
800080C0A00080C0C00080C0E00080E0000080E0200080E0400080E0600080E0800080E0A00080E0C00080E0E000C0000000C0002000C0004000C0006000C0008000C000A000C000C000C000E000C0200000C0202000C0204000C0206000C0208000C020A000C020C000C020E000C0400000C0402000C0404000C0406000C0
310
408000C040A000C040C000C040E000C0600000C0602000C0604000C0606000C0608000C060A000C060C000C060E000C0800000C0802000C0804000C0806000C0808000C080A000C080C000C080E000C0A00000C0A02000C0A04000C0A06000C0A08000C0A0A000C0A0C000C0A0E000C0C00000C0C02000C0C04000C0C06000
310
C0C08000C0C0A000F0FBFF00A4A0A000808080000000FF0000FF000000FFFF00FF000000FF00FF00FFFF0000FFFFFF00FFFFFFFFFFFFFFFFFFFFFFFFFFFFFFFFFFFFFFFFFFFFFFFFFFFFFFFFFFFFFFFFFFFFFFFFFFFFFFFF000000000000000000000000000000000000000000000000FFFFFFFFFFFFFFFF00FFFFFFFFFFFF
310
FFFFFFFFFFFFFFFFFFFFFFFFFFFFFFFFFFFFFFFFFFFFFFFFFF00FFFFFFFFFFFFFFFFFFFFFFFFFFFFFFFFFFFFFFFFFFFFFFFFFFFFFFFFFFFFFF00FFFFFFFFFFFFFFFFFFFFFFFFFFFFFFFFFFFFFFFFFFFFFFFFFFFFFFFFFFFFFF00FFFFFFFFFFFFFFFFFFFFFFFFFFFFFFFFFFFFFFFFFFFFFFFFFFFFFFFFFFFFFF00FFFFFFFFFF
310
FFFFFFFFFFFFFFFFFFFFFFFFFFFFFFFFFFFFFFFFFFFFFFFFFFFF00FFFFFFFFFFFFFFFFFFFFFFFFFFFFFFFFFFFFFFFFFFFFFFFFFFFFFFFFFFFFFF00FFFFFFFFFFFFFFFFFFFFFFFFFFFFFFFFFFFFFFFFFFFFFFFFFFFFFFFFFFFFFF00FFFFFFFFFFFFFFFFFFFFFFFFFFFFFFFFFFFFFFFFFFFFFFFFFFFFFFFFFFFFFF00FFFFFFFF
310
FFFFFFFFFFFFFFFFFFFFFFFFFFFFFFFFFFFFFFFFFFFFFFFFFFFFFF00FFFFFFFFFFFFFFFFFFFFFFFFFFFFFFFFFFFFFFFFFFFFFFFFFFFFFFFFFFFFFF00FFFFFFFFFFFFFFFFFFFFFFFFFFFFFFFFFFFFFFFFFFFFFFFFFFFFFFFFFFFFFF00FFFFFFFFFFFFFFFFFFFFFFFFFFFFFFFFFFFFFFFFFFFFFFFFFFFFFFFFFFFFFF00FFFFFF
310
FFFFFFFFFFFFFFFFFFFFFFFFFFFFFFFFFFFFFFFFFFFFFFFFFFFFFFFF00FFFFFFFFFFFFFFFFFFFFFFFFFFFFFFFFFFFFFFFFFFFFFFFFFFFFFFFFFFFFFF00FFFFFFFFFFFFFFFFFFFFFFFFFFFFFFFFFFFFFFFFFFFFFFFFFFFFFFFFFFFFFF00FFFFFFFFFFFFFFFFFFFFFFFFFFFFFFFFFFFFFFFFFFFFFFFFFFFFFFFFFFFFFF00FFFF
310
FFFFFFFFFFFFFFFFFFFFFFFFFFFFFFFFFFFFFFFFFFFFFFFFFFFFFFFFFF00FFFFFFFFFFFFFFFFFFFFFFFFFFFFFFFFFFFFFFFFFFFFFFFFFFFFFFFFFFFFFF00FFFFFFFFFFFFFFFFFFFFFFFFFFFFFFFFFFFFFFFFFFFFFFFFFFFFFFFFFFFFFF00FFFFFFFFFFFFFFFFFFFFFFFFFFFFFFFFFFFFFFFFFFFFFFFFFFFFFFFFFFFFFF00FF
310
FFFFFFFFFFFFFFFFFFFFFFFFFFFFFFFFFFFFFFFFFFFFFFFFFFFFFFFFFFFF00FFFFFFFFFFFFFFFFFFFFFFFFFFFFFFFFFFFFFFFFFFFFFFFFFFFFFFFFFFFFFF00FFFFFFFFFFFFFFFFFFFFFFFFFFFFFFFFFFFFFFFFFFFFFFFFFFFFFFFFFFFFFF00FFFFFFFFFFFFFFFFFFFFFFFFFFFFFFFFFFFFFFFFFFFFFFFFFFFFFFFFFFFFFF00
310
FFFFFFFFFFFFFFFFFFFFFFFFFFFFFFFFFFFFFFFFFFFFFFFFFFFFFFFFFFFFFF00FFFFFFFFFFFFFFFFFFFFFFFFFFFFFFFFFFFFFFFFFFFFFFFFFFFFFFFFFFFFFF00FFFFFFFFFFFFFFFFFFFFFFFFFFFFFFFFFFFFFFFFFFFFFFFFFFFFFFFFFFFFFF00FFFFFFFFFFFFFFFFFFFFFFFFFFFFFFFFFFFFFFFFFFFFFFFFFFFFFFFFFFFFFF
310
00FFFFFFFFFFFFFFFFFFFFFFFFFFFF000000000000000000FFFFFFFFFFFFFFFF00FFFFFFFFFFFFFFFFFFFFFFFFFFFF00FFFFFFFFFFFFFFFF
102
{BLKREFS
331
5CE
102
}
  0
BLOCK_RECORD
  5
5B0
330
1
100
AcDbSymbolTableRecord
100
AcDbBlockTableRecord
  2
AI9-BLK4
340
0
310
2800000020000000200000000100080000000000000400000000000000000000000000000000000000000000000080000080000000808000800000008000800080800000C0C0C000C0DCC000F0CAA6000020400000206000002080000020A0000020C0000020E00000400000004020000040400000406000004080000040A0
310
000040C0000040E00000600000006020000060400000606000006080000060A0000060C0000060E00000800000008020000080400000806000008080000080A0000080C0000080E00000A0000000A0200000A0400000A0600000A0800000A0A00000A0C00000A0E00000C0000000C0200000C0400000C0600000C0800000C0
310
A00000C0C00000C0E00000E0000000E0200000E0400000E0600000E0800000E0A00000E0C00000E0E00040000000400020004000400040006000400080004000A0004000C0004000E00040200000402020004020400040206000402080004020A0004020C0004020E000404000004040200040404000404060004040800040
310
40A0004040C0004040E00040600000406020004060400040606000406080004060A0004060C0004060E00040800000408020004080400040806000408080004080A0004080C0004080E00040A0000040A0200040A0400040A0600040A0800040A0A00040A0C00040A0E00040C0000040C0200040C0400040C0600040C08000
310
40C0A00040C0C00040C0E00040E0000040E0200040E0400040E0600040E0800040E0A00040E0C00040E0E00080000000800020008000400080006000800080008000A0008000C0008000E00080200000802020008020400080206000802080008020A0008020C0008020E00080400000804020008040400080406000804080
310
008040A0008040C0008040E00080600000806020008060400080606000806080008060A0008060C0008060E00080800000808020008080400080806000808080008080A0008080C0008080E00080A0000080A0200080A0400080A0600080A0800080A0A00080A0C00080A0E00080C0000080C0200080C0400080C0600080C0
310
800080C0A00080C0C00080C0E00080E0000080E0200080E0400080E0600080E0800080E0A00080E0C00080E0E000C0000000C0002000C0004000C0006000C0008000C000A000C000C000C000E000C0200000C0202000C0204000C0206000C0208000C020A000C020C000C020E000C0400000C0402000C0404000C0406000C0
310
408000C040A000C040C000C040E000C0600000C0602000C0604000C0606000C0608000C060A000C060C000C060E000C0800000C0802000C0804000C0806000C0808000C080A000C080C000C080E000C0A00000C0A02000C0A04000C0A06000C0A08000C0A0A000C0A0C000C0A0E000C0C00000C0C02000C0C04000C0C06000
310
C0C08000C0C0A000F0FBFF00A4A0A000808080000000FF0000FF000000FFFF00FF000000FF00FF00FFFF0000FFFFFF00FFFFFFFFFFFFFFFFFFFFFFFFFFFFFFFFFFFFFFFFFFFFFFFFFFFFFFFFFFFFFFFFFFFFFFFFFFFFFFFFFFFFFFFFFFFF00000000FFFFFFFFFFFFFFFFFFFFFF000000FFFFFFFFFFFFFFFFFFFFFFFFFFFF00
310
FFFF00FFFFFFFFFFFFFFFFFFFFFF00FFFFFFFFFFFFFFFFFFFFFFFFFFFFFFFF00FFFF00FFFFFFFFFFFFFFFFFFFFFF00FFFFFFFFFFFFFFFFFFFFFFFFFFFFFFFF00FFFF00FFFFFFFFFFFFFFFFFFFFFF00FFFFFFFFFFFFFFFFFFFFFFFFFFFFFFFF00FFFF00FFFFFFFFFFFFFFFFFFFFFF00FFFFFFFFFFFFFFFFFFFFFFFFFFFFFFFF
310
00FFFF00FFFFFFFFFFFFFFFFFFFFFF00FFFFFFFFFFFFFFFFFFFFFFFFFFFFFFFF00FFFF00FFFFFFFFFFFFFFFFFFFFFF00FFFFFFFFFFFFFFFFFFFFFFFFFFFFFFFF00FFFF00FFFFFFFFFFFFFFFFFFFFFF00FFFFFFFFFFFFFFFFFFFFFFFFFFFFFFFF00FFFF00FFFFFFFFFFFFFFFFFFFFFF00FFFFFFFFFFFFFFFFFFFFFFFFFFFFFF
310
FF00FFFF00FFFFFFFFFFFFFFFFFFFFFF00FFFFFFFFFFFFFFFFFFFFFFFFFFFFFFFF00FFFF00FFFFFFFFFFFFFFFFFFFFFF00FFFFFFFFFFFFFFFFFFFFFFFFFFFFFFFF00FFFF00FFFFFFFFFFFFFFFFFFFFFF00FFFFFFFFFFFFFFFFFFFFFFFFFFFFFFFF00FFFF00FFFFFFFFFFFFFFFFFFFFFF00FFFFFFFFFFFFFFFFFFFFFFFFFFFF
310
FFFF00FFFF00FFFFFFFFFFFFFFFFFFFFFF00FFFFFFFFFFFFFFFFFFFFFFFFFFFFFFFF00FFFF00FFFFFFFFFFFFFFFFFFFFFF00FFFFFFFFFFFFFFFFFFFFFFFFFFFFFFFF00FFFF00FFFFFFFFFFFFFFFFFFFFFF00FFFFFFFFFFFFFFFFFFFFFFFFFFFFFFFF00FFFF00FFFFFFFFFFFFFFFFFFFF00FFFFFFFFFFFFFFFFFFFFFFFFFFFF
310
FFFFFF00FFFF00FFFFFFFFFFFFFFFFFFFF00FFFFFFFFFFFFFFFFFFFFFFFFFFFFFFFFFF00FFFF00FFFFFFFFFFFFFFFFFFFF00FFFFFFFFFFFFFFFFFFFFFFFFFFFFFFFFFF00FFFF00FFFFFFFFFFFFFFFFFFFF00FFFFFFFFFFFFFFFFFFFFFFFFFFFFFFFFFF00FFFF00FFFFFFFFFFFFFFFFFFFF00FFFFFFFFFFFFFFFFFFFFFFFFFF
310
FFFFFFFF00FFFF00FFFFFFFFFFFFFFFFFF0000FFFF00FFFFFFFFFFFFFFFFFFFFFFFFFFFF00FFFF00FFFFFFFFFFFFFFFF0000FFFFFF00FFFFFFFFFFFFFFFFFFFFFFFFFFFF00FFFF00000000000000000000FFFFFFFF00FFFFFFFFFFFFFFFFFFFFFFFFFFFF00FFFFFFFFFFFFFFFFFFFFFFFFFFFFFF00FFFFFFFFFFFFFFFFFFFF
310
FFFFFFFFFF00FFFFFFFFFFFFFFFFFFFFFFFFFFFF00FFFFFFFFFFFFFFFFFFFFFFFFFFFFFFFF00FFFFFFFFFFFFFFFFFFFFFFFFFFFF00FFFFFFFFFFFFFFFFFFFFFFFFFFFFFFFF00FFFFFFFFFFFFFFFFFFFFFFFFFFFFFF00FFFFFFFFFFFFFFFFFFFFFFFFFFFFFF00FFFFFFFFFFFFFFFFFFFFFFFFFFFFFF00FFFFFFFFFFFFFFFFFF
310
FFFFFFFFFFFF00FFFF00000000000000000000FFFFFFFF00FFFFFFFFFFFFFFFFFFFFFFFFFFFF00FFFF00FFFFFFFFFFFFFFFFFF0000FFFF00
102
{BLKREFS
331
5CF
102
}
  0
BLOCK_RECORD
  5
5B5
330
1
100
AcDbSymbolTableRecord
100
AcDbBlockTableRecord
  2
AI9-BLK3
340
0
310
2800000020000000200000000100080000000000000400000000000000000000000000000000000000000000000080000080000000808000800000008000800080800000C0C0C000C0DCC000F0CAA6000020400000206000002080000020A0000020C0000020E00000400000004020000040400000406000004080000040A0
310
000040C0000040E00000600000006020000060400000606000006080000060A0000060C0000060E00000800000008020000080400000806000008080000080A0000080C0000080E00000A0000000A0200000A0400000A0600000A0800000A0A00000A0C00000A0E00000C0000000C0200000C0400000C0600000C0800000C0
310
A00000C0C00000C0E00000E0000000E0200000E0400000E0600000E0800000E0A00000E0C00000E0E00040000000400020004000400040006000400080004000A0004000C0004000E00040200000402020004020400040206000402080004020A0004020C0004020E000404000004040200040404000404060004040800040
310
40A0004040C0004040E00040600000406020004060400040606000406080004060A0004060C0004060E00040800000408020004080400040806000408080004080A0004080C0004080E00040A0000040A0200040A0400040A0600040A0800040A0A00040A0C00040A0E00040C0000040C0200040C0400040C0600040C08000
310
40C0A00040C0C00040C0E00040E0000040E0200040E0400040E0600040E0800040E0A00040E0C00040E0E00080000000800020008000400080006000800080008000A0008000C0008000E00080200000802020008020400080206000802080008020A0008020C0008020E00080400000804020008040400080406000804080
310
008040A0008040C0008040E00080600000806020008060400080606000806080008060A0008060C0008060E00080800000808020008080400080806000808080008080A0008080C0008080E00080A0000080A0200080A0400080A0600080A0800080A0A00080A0C00080A0E00080C0000080C0200080C0400080C0600080C0
310
800080C0A00080C0C00080C0E00080E0000080E0200080E0400080E0600080E0800080E0A00080E0C00080E0E000C0000000C0002000C0004000C0006000C0008000C000A000C000C000C000E000C0200000C0202000C0204000C0206000C0208000C020A000C020C000C020E000C0400000C0402000C0404000C0406000C0
310
408000C040A000C040C000C040E000C0600000C0602000C0604000C0606000C0608000C060A000C060C000C060E000C0800000C0802000C0804000C0806000C0808000C080A000C080C000C080E000C0A00000C0A02000C0A04000C0A06000C0A08000C0A0A000C0A0C000C0A0E000C0C00000C0C02000C0C04000C0C06000
310
C0C08000C0C0A000F0FBFF00A4A0A000808080000000FF0000FF000000FFFF00FF000000FF00FF00FFFF0000FFFFFF00FFFFFFFFFFFFFFFFFFFFFFFFFFFFFFFFFFFFFFFFFFFFFFFFFFFFFFFFFFFFFFFFFFFFFFFFFFFFFFFFFFFFFFFFFFFFFF0000FFFFFFFFFFFFFFFFFFFFFFFFFFFFFFFFFFFFFFFFFFFFFFFFFFFFFFFFFFFF
310
0000FFFFFFFFFFFFFFFFFFFFFFFFFFFFFFFFFFFFFFFFFFFFFFFFFFFFFFFFFFFF0000FFFFFFFFFFFFFFFFFFFFFFFFFFFFFFFFFFFFFFFFFFFFFFFFFFFFFFFFFFFF0000FFFFFFFFFFFFFFFFFFFFFFFFFFFFFFFFFFFFFFFFFFFFFFFFFFFFFFFFFFFF0000FFFFFFFFFFFFFFFFFFFFFFFFFFFFFFFFFFFFFFFFFFFFFFFFFFFFFFFFFF
310
FF0000FFFFFFFFFFFFFFFFFFFFFFFFFFFFFFFFFFFFFFFFFFFFFFFFFFFFFFFFFFFF0000FFFFFFFFFFFFFFFFFFFFFFFFFFFFFFFFFFFFFFFFFFFFFFFFFFFFFFFFFFFF0000FFFFFFFFFFFFFFFFFFFFFFFFFFFFFFFFFFFFFFFFFFFFFFFFFFFFFFFFFFFF0000FFFFFFFFFFFFFFFFFFFFFFFFFFFFFFFFFFFFFFFFFFFFFFFFFFFFFFFF
310
FFFF0000FFFFFFFFFFFFFFFFFFFFFFFFFFFFFFFFFFFFFFFFFFFFFFFFFFFFFFFFFFFF0000FFFFFFFFFFFFFFFFFFFFFFFFFFFFFFFFFFFFFFFFFFFFFFFFFFFFFFFFFFFF0000FFFFFFFFFFFFFFFFFFFFFFFFFFFFFFFFFFFFFFFFFFFFFFFFFFFFFFFFFFFF0000FFFFFFFFFFFFFFFFFFFFFFFFFFFFFFFFFFFFFFFFFFFFFFFFFFFFFF
310
FFFFFF0000FFFFFFFFFFFFFFFFFFFFFFFFFFFFFFFFFFFFFFFFFFFFFFFFFFFFFFFFFFFF0000FFFFFFFFFFFFFFFFFFFFFFFFFFFFFFFFFFFFFFFFFFFFFFFFFFFFFFFFFFFF0000FFFFFFFFFFFFFFFFFFFFFFFFFFFFFFFFFFFFFFFFFFFFFFFFFFFFFFFFFFFF0000FFFFFFFFFFFFFFFFFFFFFFFFFFFFFFFFFFFFFFFFFFFFFFFFFFFF
310
FFFFFFFF0000FFFFFFFFFFFFFFFFFFFFFFFFFFFFFFFFFFFFFFFFFFFFFFFFFFFFFFFFFFFF0000FFFFFFFFFFFFFFFFFFFFFFFFFFFFFFFFFFFFFFFFFFFFFFFFFFFFFFFFFFFF0000FFFFFFFFFFFFFFFFFFFFFFFFFFFFFFFFFFFFFFFFFFFFFFFFFFFFFFFFFFFF0000FFFFFFFFFFFFFFFFFFFFFFFFFFFFFFFFFFFFFFFFFFFFFFFFFF
310
FFFFFFFFFF0000FFFFFFFFFFFFFFFFFFFFFFFFFFFFFFFFFFFFFFFFFFFFFFFFFFFFFFFFFFFF0000FFFFFFFFFFFFFFFFFFFFFFFFFFFFFFFFFFFFFFFFFFFFFFFFFFFFFFFFFFFF0000FFFFFFFFFFFFFFFFFFFFFFFFFFFFFFFFFFFFFFFFFFFFFFFFFFFFFFFFFFFF0000FFFFFFFFFFFFFFFFFFFFFFFFFFFFFFFFFFFFFFFFFFFFFFFF
310
FFFFFFFFFFFF0000FFFFFFFFFFFFFFFFFFFFFFFFFFFFFFFFFFFFFFFFFFFFFFFFFFFFFFFFFFFF0000FFFFFFFFFFFFFFFFFFFFFFFFFFFFFFFFFFFFFFFFFFFFFFFFFFFFFFFFFFFF0000FFFFFFFFFFFFFFFFFFFFFFFFFFFFFFFFFFFFFFFFFFFFFFFFFFFFFFFFFFFF0000FFFFFFFFFFFFFFFFFFFFFFFFFFFFFFFFFFFFFFFFFFFFFF
310
FFFFFFFFFFFFFF0000FFFFFFFFFFFFFFFFFFFFFFFFFFFFFFFFFFFFFFFFFFFFFFFFFFFFFFFFFFFFFFFFFFFFFFFFFFFFFFFFFFFFFFFFFFFFFF
102
{BLKREFS
331
5D0
102
}
  0
BLOCK_RECORD
  5
5BA
330
1
100
AcDbSymbolTableRecord
100
AcDbBlockTableRecord
  2
AI9-BLK2
340
0
310
2800000020000000200000000100080000000000000400000000000000000000000000000000000000000000000080000080000000808000800000008000800080800000C0C0C000C0DCC000F0CAA6000020400000206000002080000020A0000020C0000020E00000400000004020000040400000406000004080000040A0
310
000040C0000040E00000600000006020000060400000606000006080000060A0000060C0000060E00000800000008020000080400000806000008080000080A0000080C0000080E00000A0000000A0200000A0400000A0600000A0800000A0A00000A0C00000A0E00000C0000000C0200000C0400000C0600000C0800000C0
310
A00000C0C00000C0E00000E0000000E0200000E0400000E0600000E0800000E0A00000E0C00000E0E00040000000400020004000400040006000400080004000A0004000C0004000E00040200000402020004020400040206000402080004020A0004020C0004020E000404000004040200040404000404060004040800040
310
40A0004040C0004040E00040600000406020004060400040606000406080004060A0004060C0004060E00040800000408020004080400040806000408080004080A0004080C0004080E00040A0000040A0200040A0400040A0600040A0800040A0A00040A0C00040A0E00040C0000040C0200040C0400040C0600040C08000
310
40C0A00040C0C00040C0E00040E0000040E0200040E0400040E0600040E0800040E0A00040E0C00040E0E00080000000800020008000400080006000800080008000A0008000C0008000E00080200000802020008020400080206000802080008020A0008020C0008020E00080400000804020008040400080406000804080
310
008040A0008040C0008040E00080600000806020008060400080606000806080008060A0008060C0008060E00080800000808020008080400080806000808080008080A0008080C0008080E00080A0000080A0200080A0400080A0600080A0800080A0A00080A0C00080A0E00080C0000080C0200080C0400080C0600080C0
310
800080C0A00080C0C00080C0E00080E0000080E0200080E0400080E0600080E0800080E0A00080E0C00080E0E000C0000000C0002000C0004000C0006000C0008000C000A000C000C000C000E000C0200000C0202000C0204000C0206000C0208000C020A000C020C000C020E000C0400000C0402000C0404000C0406000C0
310
408000C040A000C040C000C040E000C0600000C0602000C0604000C0606000C0608000C060A000C060C000C060E000C0800000C0802000C0804000C0806000C0808000C080A000C080C000C080E000C0A00000C0A02000C0A04000C0A06000C0A08000C0A0A000C0A0C000C0A0E000C0C00000C0C02000C0C04000C0C06000
310
C0C08000C0C0A000F0FBFF00A4A0A000808080000000FF0000FF000000FFFF00FF000000FF00FF00FFFF0000FFFFFF00FFFFFFFFFFFFFFFFFFFFFFFFFFFFFFFFFFFFFFFFFFFFFFFFFFFFFFFFFFFFFFFFFFFFFFFFFFFFFFFFFFFFFFFFFFFFFF0000FFFFFFFFFFFFFFFFFFFFFFFFFFFFFFFFFFFFFFFFFFFFFFFFFFFFFFFFFFFF
310
0000FFFFFFFFFFFFFFFFFFFFFFFFFFFFFFFFFFFFFFFFFFFFFFFFFFFFFFFFFFFF0000FFFFFFFFFFFFFFFFFFFFFFFFFFFFFFFFFFFFFFFFFFFFFFFFFFFFFFFFFF00FFFF00FFFFFFFFFFFFFFFFFFFFFFFFFFFFFFFFFFFFFFFFFFFFFFFFFFFFFFFF00FFFF00FFFFFFFFFFFFFFFFFFFFFFFFFFFFFFFFFFFFFFFFFFFFFFFFFFFFFFFF
310
00FF0000FFFFFFFFFFFFFFFFFFFFFFFFFFFFFFFFFFFFFFFFFFFFFFFFFFFFFFFF00FF0000FFFFFFFFFFFFFFFFFFFFFFFFFFFFFFFFFFFFFFFFFFFFFFFFFFFFFFFF00FF0000FFFFFFFFFFFFFFFFFFFFFFFFFFFFFFFFFFFFFFFFFFFFFFFFFFFFFFFF00000000FFFFFFFFFFFFFFFFFFFFFFFFFFFFFFFFFFFFFFFFFFFFFFFFFFFFFF
310
00FF00FF0000FFFFFFFFFFFFFFFFFFFFFFFFFFFFFFFFFFFFFFFFFFFFFFFFFFFF00FF00FF0000FFFFFFFFFFFFFFFFFFFFFFFFFFFFFFFFFFFFFFFFFFFFFFFFFFFF00FF00FF0000FFFFFFFFFFFFFFFFFFFFFFFFFFFFFFFFFFFFFFFFFFFFFFFFFFFF00FF00FF0000FFFFFFFFFFFFFFFFFFFFFFFFFFFFFFFFFFFFFFFFFFFFFFFFFF
310
FF00FF00FF0000FFFFFFFFFFFFFFFFFFFFFFFFFFFFFFFFFFFFFFFFFFFFFFFFFFFF0000FFFF0000FFFFFFFFFFFFFFFFFFFFFFFFFFFFFFFFFFFFFFFFFFFFFFFFFF00FF00FFFF00FF00FFFFFFFFFFFFFFFFFFFFFFFFFFFFFFFFFFFFFFFFFFFFFFFF00FF00FFFF00FF00FFFFFFFFFFFFFFFFFFFFFFFFFFFFFFFFFFFFFFFFFFFFFF
310
FF00FF00FFFFFF0000FFFFFFFFFFFFFFFFFFFFFFFFFFFFFFFFFFFFFFFFFFFFFFFF00FF00FFFFFF0000FFFFFFFFFFFFFFFFFFFFFFFFFFFFFFFFFFFFFFFFFFFFFFFF00FF00FFFFFF0000FFFFFFFFFFFFFFFFFFFFFFFFFFFFFFFFFFFFFFFFFFFFFFFF0000FFFFFFFF0000FFFFFFFFFFFFFFFFFFFFFFFFFFFFFFFFFFFFFFFFFFFF
310
FF00FF00FFFFFFFF00FF00FFFFFFFFFFFFFFFFFFFFFFFFFFFFFFFFFFFFFFFFFFFF00FF00FFFFFFFF00FF00FFFFFFFFFFFFFFFFFFFFFFFFFFFFFFFFFFFFFFFFFFFF00FF00FFFFFFFF00FF00FFFFFFFFFFFFFFFFFFFFFFFFFFFFFFFFFFFFFFFFFFFF00FF00FFFFFFFF00FF00FFFFFFFFFFFFFFFFFFFFFFFFFFFFFFFFFFFFFFFF
310
FFFF00FF00FFFFFFFFFF0000FFFFFFFFFFFFFFFFFFFFFFFFFFFFFFFFFFFFFFFFFFFF0000FFFFFFFFFFFF0000FFFFFFFFFFFFFFFFFFFFFFFFFFFFFFFFFFFFFFFFFF00FF00FFFFFFFFFFFF00FF00FFFFFFFFFFFFFFFFFFFFFFFFFFFFFFFFFFFFFFFF00FF00FFFFFFFFFFFF00FF00FFFFFFFFFFFFFFFFFFFFFFFFFFFFFFFFFFFF
310
FFFF000000FFFFFFFFFFFF000000FFFFFFFFFFFFFFFFFFFFFFFFFFFFFFFFFFFFFFFFFFFFFFFFFFFFFFFFFFFFFFFFFFFFFFFFFFFFFFFFFFFF
102
{BLKREFS
331
5D1
102
}
  0
BLOCK_RECORD
  5
5BF
330
1
100
AcDbSymbolTableRecord
100
AcDbBlockTableRecord
  2
AI9-BLK1
340
0
310
2800000020000000200000000100080000000000000400000000000000000000000000000000000000000000000080000080000000808000800000008000800080800000C0C0C000C0DCC000F0CAA6000020400000206000002080000020A0000020C0000020E00000400000004020000040400000406000004080000040A0
310
000040C0000040E00000600000006020000060400000606000006080000060A0000060C0000060E00000800000008020000080400000806000008080000080A0000080C0000080E00000A0000000A0200000A0400000A0600000A0800000A0A00000A0C00000A0E00000C0000000C0200000C0400000C0600000C0800000C0
310
A00000C0C00000C0E00000E0000000E0200000E0400000E0600000E0800000E0A00000E0C00000E0E00040000000400020004000400040006000400080004000A0004000C0004000E00040200000402020004020400040206000402080004020A0004020C0004020E000404000004040200040404000404060004040800040
310
40A0004040C0004040E00040600000406020004060400040606000406080004060A0004060C0004060E00040800000408020004080400040806000408080004080A0004080C0004080E00040A0000040A0200040A0400040A0600040A0800040A0A00040A0C00040A0E00040C0000040C0200040C0400040C0600040C08000
310
40C0A00040C0C00040C0E00040E0000040E0200040E0400040E0600040E0800040E0A00040E0C00040E0E00080000000800020008000400080006000800080008000A0008000C0008000E00080200000802020008020400080206000802080008020A0008020C0008020E00080400000804020008040400080406000804080
310
008040A0008040C0008040E00080600000806020008060400080606000806080008060A0008060C0008060E00080800000808020008080400080806000808080008080A0008080C0008080E00080A0000080A0200080A0400080A0600080A0800080A0A00080A0C00080A0E00080C0000080C0200080C0400080C0600080C0
310
800080C0A00080C0C00080C0E00080E0000080E0200080E0400080E0600080E0800080E0A00080E0C00080E0E000C0000000C0002000C0004000C0006000C0008000C000A000C000C000C000E000C0200000C0202000C0204000C0206000C0208000C020A000C020C000C020E000C0400000C0402000C0404000C0406000C0
310
408000C040A000C040C000C040E000C0600000C0602000C0604000C0606000C0608000C060A000C060C000C060E000C0800000C0802000C0804000C0806000C0808000C080A000C080C000C080E000C0A00000C0A02000C0A04000C0A06000C0A08000C0A0A000C0A0C000C0A0E000C0C00000C0C02000C0C04000C0C06000
310
C0C08000C0C0A000F0FBFF00A4A0A000808080000000FF0000FF000000FFFF00FF000000FF00FF00FFFF0000FFFFFF00FFFFFFFFFFFFFFFFFFFFFFFFFFFFFFFFFFFFFFFFFFFFFFFFFFFFFFFFFFFFFFFFFFFFFFFFFFFFFFFFFFFFFF00000000000000000000FFFFFFFFFFFFFFFFFFFFFFFFFFFFFFFFFFFFFFFFFFFF00FFFFFF
310
FFFFFFFFFF00FFFFFFFFFFFFFFFFFFFFFFFFFFFFFFFFFFFFFFFFFFFF00FFFFFFFFFFFFFFFF00FFFFFFFFFFFFFFFFFFFFFFFFFFFFFFFFFFFFFFFFFFFF00FFFFFFFFFFFFFFFF00FFFFFFFFFFFFFFFFFFFFFFFFFFFFFFFFFFFFFFFFFFFF00FF0000000000000000FFFFFFFFFFFFFFFFFFFFFFFFFFFFFFFFFFFFFFFFFFFF00FF00
310
FFFFFFFFFFFFFFFFFFFFFFFFFFFFFFFFFFFFFFFFFFFFFFFFFFFFFFFFFF00FF00FFFFFFFFFFFFFFFFFFFFFFFFFFFFFFFFFFFFFFFFFFFFFFFFFFFFFFFFFF00FF00FFFFFFFFFFFFFFFFFFFFFFFFFFFFFFFFFFFFFFFFFFFFFFFFFFFFFFFFFF00FF00FFFFFFFFFFFFFFFFFFFFFFFFFFFFFFFFFFFFFFFFFFFFFFFFFFFFFFFFFF00FF
310
00FFFFFFFFFFFFFFFFFFFFFFFFFFFFFFFFFFFFFFFFFFFFFFFFFFFFFFFFFF00FF00FFFFFFFFFFFFFFFFFFFFFFFFFFFFFFFFFFFFFFFFFFFFFFFFFFFFFFFFFF00FF00FFFFFFFFFFFFFFFFFFFFFFFFFFFFFFFFFFFFFFFFFFFFFFFFFFFFFFFFFF00FF00FFFFFFFFFFFFFFFFFFFFFFFFFFFFFFFFFFFFFFFFFFFFFFFFFFFFFFFFFF00
310
FF00000000000000FFFFFFFFFFFFFFFFFFFFFFFFFFFFFFFFFFFFFFFFFFFFFF00FFFFFFFFFFFFFF00FFFFFFFFFFFFFFFFFFFFFFFFFFFFFFFFFFFFFFFFFFFFFF00FFFFFFFFFFFFFF00FFFFFFFFFFFFFFFFFFFFFFFFFFFFFFFFFFFFFFFFFFFFFF00FFFFFFFFFFFFFF00FFFFFFFFFFFFFFFFFFFFFFFFFFFFFFFFFFFFFFFFFFFFFF
310
00FF00000000000000FFFFFFFFFFFFFFFFFFFFFFFFFFFFFFFFFFFFFFFFFFFFFF00FF00FFFFFFFFFFFFFFFFFFFFFFFFFFFFFFFFFFFFFFFFFFFFFFFFFFFFFFFFFF00FF00FFFFFFFFFFFFFFFFFFFFFFFFFFFFFFFFFFFFFFFFFFFFFFFFFFFFFFFFFF00FF00FFFFFFFFFFFFFFFFFFFFFFFFFFFFFFFFFFFFFFFFFFFFFFFFFFFFFFFF
310
FF00FF00FFFFFFFFFFFFFFFFFFFFFFFFFFFFFFFFFFFFFFFFFFFFFFFFFFFFFFFFFF00FF00FFFFFFFFFFFFFFFFFFFFFFFFFFFFFFFFFFFFFFFFFFFFFFFFFFFFFFFFFF00FF00FFFFFFFFFFFFFFFFFFFFFFFFFFFFFFFFFFFFFFFFFFFFFFFFFFFFFFFFFF00FF00FFFFFFFFFFFFFFFFFFFFFFFFFFFFFFFFFFFFFFFFFFFFFFFFFFFFFF
310
FFFF00FF0000000000000000FFFFFFFFFFFFFFFFFFFFFFFFFFFFFFFFFFFFFFFFFFFF00FFFFFFFFFFFFFFFF00FFFFFFFFFFFFFFFFFFFFFFFFFFFFFFFFFFFFFFFFFFFF00FFFFFFFFFFFFFFFF00FFFFFFFFFFFFFFFFFFFFFFFFFFFFFFFFFFFFFFFFFFFF00FFFFFFFFFFFFFFFF00FFFFFFFFFFFFFFFFFFFFFFFFFFFFFFFFFFFFFF
310
FFFFFF00000000000000000000FFFFFFFFFFFFFFFFFFFFFFFFFFFFFFFFFFFFFFFFFFFFFFFFFFFFFFFFFFFFFFFFFFFFFFFFFFFFFFFFFFFFFF
102
{BLKREFS
331
5D2
102
}
  0
BLOCK_RECORD
  5
5C4
330
1
100
AcDbSymbolTableRecord
100
AcDbBlockTableRecord
  2
HD_LLC_logo_OT5
340
0
310
2800000020000000200000000100080000000000000400000000000000000000000000000000000000000000000080000080000000808000800000008000800080800000C0C0C000C0DCC000F0CAA6000020400000206000002080000020A0000020C0000020E00000400000004020000040400000406000004080000040A0
310
000040C0000040E00000600000006020000060400000606000006080000060A0000060C0000060E00000800000008020000080400000806000008080000080A0000080C0000080E00000A0000000A0200000A0400000A0600000A0800000A0A00000A0C00000A0E00000C0000000C0200000C0400000C0600000C0800000C0
310
A00000C0C00000C0E00000E0000000E0200000E0400000E0600000E0800000E0A00000E0C00000E0E00040000000400020004000400040006000400080004000A0004000C0004000E00040200000402020004020400040206000402080004020A0004020C0004020E000404000004040200040404000404060004040800040
310
40A0004040C0004040E00040600000406020004060400040606000406080004060A0004060C0004060E00040800000408020004080400040806000408080004080A0004080C0004080E00040A0000040A0200040A0400040A0600040A0800040A0A00040A0C00040A0E00040C0000040C0200040C0400040C0600040C08000
310
40C0A00040C0C00040C0E00040E0000040E0200040E0400040E0600040E0800040E0A00040E0C00040E0E00080000000800020008000400080006000800080008000A0008000C0008000E00080200000802020008020400080206000802080008020A0008020C0008020E00080400000804020008040400080406000804080
310
008040A0008040C0008040E00080600000806020008060400080606000806080008060A0008060C0008060E00080800000808020008080400080806000808080008080A0008080C0008080E00080A0000080A0200080A0400080A0600080A0800080A0A00080A0C00080A0E00080C0000080C0200080C0400080C0600080C0
310
800080C0A00080C0C00080C0E00080E0000080E0200080E0400080E0600080E0800080E0A00080E0C00080E0E000C0000000C0002000C0004000C0006000C0008000C000A000C000C000C000E000C0200000C0202000C0204000C0206000C0208000C020A000C020C000C020E000C0400000C0402000C0404000C0406000C0
310
408000C040A000C040C000C040E000C0600000C0602000C0604000C0606000C0608000C060A000C060C000C060E000C0800000C0802000C0804000C0806000C0808000C080A000C080C000C080E000C0A00000C0A02000C0A04000C0A06000C0A08000C0A0A000C0A0C000C0A0E000C0C00000C0C02000C0C04000C0C06000
310
C0C08000C0C0A000F0FBFF00A4A0A000808080000000FF0000FF000000FFFF00FF000000FF00FF00FFFF0000FFFFFF00FFFFFFFFFFFFFFFFFFFFFFFFFFFFFFFFFFFFFFFFFFFFFFFFFFFFFFFFFFFFFFFFFFFFFFFFFFFFFFFFFFFFFFFFFFFFFFFFFFFFFFFFFFFFFFFFFFFFFFFFFFFFFFFFFFFFFFFFFFFFFFFFFFFFFFFFFFFFFF
310
FFFFFFFFFFFFFFFFFFFFFFFFFFFFFFFFFFFFFFFFFFFFFFFFFFFFFFFFFFFFFFFFFFFFFFFFFFFFFFFFFFFFFFFFFFFFFFFFFFFFFFFFFFFFFFFFFFFFFFFFFFFFFFFFFFFFFFFFFFFFFFFFFFFFFFFFFFFFFFFFFFFFFFFFFFFFFFFFFFFFFFFFFFFFFFFFFFFFFFFFFFFFFFFFFFFFFFFFFFFFFFFFFFFFFFFFFFFFFFFFFFFFFFFFFFFFFF
310
FFFFFFFFFFFFFFFFFFFFFFFFFFFFFFFFFFFFFFFFFFFFFFFFFFFFFFFFFFFFFFFFFFFFFFFFFFFFFFFFFFFFFFFFFFFFFFFFFFFFFFFFFFFFFFFFFFFFFFFFFFFFFFFFFFFFFFFFFFFFFFFFFFFFFFFFFFFFFFFFFFFFFFFFFFFFFFFFFFFFFFFFFFFFFFFFFFFFFFFFFFFFFFFFFFFFFFFFFFFFFFFFFFFFFFFFFFFFFFFFFFFFFFFFFFFFFF
310
FFFFFFFFFFFFFFFFFFFFFFFFFFFFFFFFFFFFFFFFFFFFFFFFFFFFFFFFFFFFFFFFFFFFFFFFFFFFFFFFFFFFFFFFFFFFFFFFFFFFFFFF0000000000000000000000000000000000000000000000000000000000FFFFFF0000000000000000000000000000000000FFFFFFFFFFFFFFFFFFFF0000FFFFFF0000000000000000000000
310
00000000000000FFFFFFFFFFFFFFFFFFFF0000FFFF000000000000000000000000000000000000FFFFFF00000000FFFFFF0000FFFF00FFFFFFFFFFFF00FFFFFF00FFFFFFFFFF00FFFFFF0000000000FFFF0000FFFF00FFFFFFFFFFFF00FFFFFF00FFFFFFFFFF00FFFFFF00FFFF0000FFFF0000FFFF00FFFFFFFFFFFF00FFFF
310
00FFFFFFFFFFFF00FFFFFF00FFFF0000FFFF0000FFFF0000000000FFFF00000000FFFFFF00000000FFFFFF00000000FFFFFF0000FFFFFFFFFFFF00FFFFFFFFFFFFFFFFFF00FFFFFFFFFFFFFFFFFFFFFFFFFF0000FFFFFFFFFFFF00FFFFFFFFFFFFFFFFFF00FFFFFFFFFFFFFFFFFFFFFFFFFF0000FFFFFFFFFFFF00FFFFFFFF
310
FFFFFFFFFF00FFFFFFFFFFFFFFFFFFFFFFFF0000FFFFFF0000000000FFFF00000000FFFFFF0000000000000000000000000000FFFFFFFF00FFFFFFFFFFFF00FFFF00FFFFFFFFFFFF00FFFFFFFFFFFFFFFFFFFFFFFFFFFF00FFFFFFFFFFFF00FFFFFF00FFFFFFFFFF00FFFFFFFFFFFFFFFFFFFFFFFFFFFF0000000000000000
310
FFFFFF00000000000000FFFFFFFFFFFFFFFFFFFFFFFFFFFFFFFFFFFFFFFFFFFFFFFFFFFFFFFFFFFFFFFFFFFFFFFFFFFFFFFFFFFFFFFFFFFFFFFFFFFFFFFFFFFFFFFFFFFFFFFFFFFFFFFFFFFFFFFFFFFFFFFFFFFFFFFFFFFFFFFFFFFFFFFFFFFFFFFFFFFFFFFFFFFFFFFFFFFFFFFFFFFFFFFFFFFFFFFFFFFFFFFFFFFFFFFFFF
310
FFFFFFFFFFFFFFFFFFFFFFFFFFFFFFFFFFFFFFFFFFFFFFFFFFFFFFFFFFFFFFFFFFFFFFFFFFFFFFFFFFFFFFFFFFFFFFFFFFFFFFFFFFFFFFFF
102
{BLKREFS
331
5EA
102
}
  0
BLOCK_RECORD
  5
5E9
330
1
100
AcDbSymbolTableRecord
100
AcDbBlockTableRecord
  2
HD logo-new
340
0
310
2800000020000000200000000100080000000000000400000000000000000000000000000000000000000000000080000080000000808000800000008000800080800000C0C0C000C0DCC000F0CAA6000020400000206000002080000020A0000020C0000020E00000400000004020000040400000406000004080000040A0
310
000040C0000040E00000600000006020000060400000606000006080000060A0000060C0000060E00000800000008020000080400000806000008080000080A0000080C0000080E00000A0000000A0200000A0400000A0600000A0800000A0A00000A0C00000A0E00000C0000000C0200000C0400000C0600000C0800000C0
310
A00000C0C00000C0E00000E0000000E0200000E0400000E0600000E0800000E0A00000E0C00000E0E00040000000400020004000400040006000400080004000A0004000C0004000E00040200000402020004020400040206000402080004020A0004020C0004020E000404000004040200040404000404060004040800040
310
40A0004040C0004040E00040600000406020004060400040606000406080004060A0004060C0004060E00040800000408020004080400040806000408080004080A0004080C0004080E00040A0000040A0200040A0400040A0600040A0800040A0A00040A0C00040A0E00040C0000040C0200040C0400040C0600040C08000
310
40C0A00040C0C00040C0E00040E0000040E0200040E0400040E0600040E0800040E0A00040E0C00040E0E00080000000800020008000400080006000800080008000A0008000C0008000E00080200000802020008020400080206000802080008020A0008020C0008020E00080400000804020008040400080406000804080
310
008040A0008040C0008040E00080600000806020008060400080606000806080008060A0008060C0008060E00080800000808020008080400080806000808080008080A0008080C0008080E00080A0000080A0200080A0400080A0600080A0800080A0A00080A0C00080A0E00080C0000080C0200080C0400080C0600080C0
310
800080C0A00080C0C00080C0E00080E0000080E0200080E0400080E0600080E0800080E0A00080E0C00080E0E000C0000000C0002000C0004000C0006000C0008000C000A000C000C000C000E000C0200000C0202000C0204000C0206000C0208000C020A000C020C000C020E000C0400000C0402000C0404000C0406000C0
310
408000C040A000C040C000C040E000C0600000C0602000C0604000C0606000C0608000C060A000C060C000C060E000C0800000C0802000C0804000C0806000C0808000C080A000C080C000C080E000C0A00000C0A02000C0A04000C0A06000C0A08000C0A0A000C0A0C000C0A0E000C0C00000C0C02000C0C04000C0C06000
310
C0C08000C0C0A000F0FBFF00A4A0A000808080000000FF0000FF000000FFFF00FF000000FF00FF00FFFF0000FFFFFF00FFFFFFFFFFFFFFFFFFFFFFFFFFFFFFFFFFFFFFFFFFFFFFFFFFFFFFFFFFFFFFFFFFFFFFFFFFFFFFFFFFFFFFFFFFFFFFFFFFFFFFFFFFFFFFFFFFFFFFFFFFFFFFFFFFFFFFFFFFFFFFFFFFFFFFFFFFFFFF
310
FFFFFFFFFFFFFFFFFFFFFFFFFFFFFFFFFFFFFFFFFFFFFFFFFFFFFFFFFFFFFFFFFFFFFFFFFFFFFFFFFFFFFFFFFFFFFFFFFFFFFFFFFFFFFFFFFFFFFFFFFFFFFFFFFFFFFFFFFFFFFFFFFFFFFFFFFFFFFFFFFFFFFFFFFFFFFFFFFFFFFFFFFFFFFFFFFFFFFFFFFFFFFFFFFFFFFFFFFFFFFFFFFFFFFFFFFFFFFFFFFFFFFFFFFFFFFF
310
FFFFFFFFFFFFFFFFFFFFFFFFFFFFFFFFFFFFFFFFFFFFFFFFFFFFFFFFFFFFFFFFFFFFFFFFFFFFFFFFFFFFFFFFFFFFFFFFFFFFFFFFFFFFFFFFFFFFFFFFFFFFFFFFFFFFFFFFFFFFFFFFFFFFFFFFFFFFFFFFFFFFFFFFFFFFFFFFFFFFFFFFFFFFFFFFFFFFFFFFFFFFFFFFFFFFFFFFFFFFFFFFFFFFFFFFFFFFFFFFFFFFFFFFFFFFFF
310
FFFFFFFFFFFFFFFFFFFFFFFFFFFFFFFFFFFFFFFFFFFFFFFFFFFFFFFFFFFFFFFFFFFFFFFFFFFFFFFFFFFFFFFFFFFFFFFFFFFFFFFF0000000000000000000000000000000000000000000000000000000000FFFFFF0000000000000000000000000000000000FFFFFFFFFFFFFFFFFFFF0000FFFFFF0000000000000000000000
310
00000000000000FFFFFFFFFFFFFFFFFFFF0000FFFF000000000000000000000000000000000000FFFFFF00000000FFFFFF0000FFFF00FFFFFFFFFFFF00FFFFFF00FFFFFFFFFF00FFFFFF0000000000FFFF0000FFFF00FFFFFFFFFFFF00FFFFFF00FFFFFFFFFF00FFFFFF00FFFF0000FFFF0000FFFF00FFFFFFFFFFFF00FFFF
310
00FFFFFFFFFFFF00FFFFFF00FFFF0000FFFF0000FFFF0000000000FFFF00000000FFFFFF00000000FFFFFF00000000FFFFFF0000FFFFFFFFFFFF00FFFFFFFFFFFFFFFFFF00FFFFFFFFFFFFFFFFFFFFFFFFFF0000FFFFFFFFFFFF00FFFFFFFFFFFFFFFFFF00FFFFFFFFFFFFFFFFFFFFFFFFFF0000FFFFFFFFFFFF00FFFFFFFF
310
FFFFFFFFFF00FFFFFFFFFFFFFFFFFFFFFFFF0000FFFFFF0000000000FFFF00000000FFFFFF0000000000000000000000000000FFFFFFFF00FFFFFFFFFFFF00FFFF00FFFFFFFFFFFF00FFFFFFFFFFFFFFFFFFFFFFFFFFFF00FFFFFFFFFFFF00FFFFFF00FFFFFFFFFF00FFFFFFFFFFFFFFFFFFFFFFFFFFFF0000000000000000
310
FFFFFF00000000000000FFFFFFFFFFFFFFFFFFFFFFFFFFFFFFFFFFFFFFFFFFFFFFFFFFFFFFFFFFFFFFFFFFFFFFFFFFFFFFFFFFFFFFFFFFFFFFFFFFFFFFFFFFFFFFFFFFFFFFFFFFFFFFFFFFFFFFFFFFFFFFFFFFFFFFFFFFFFFFFFFFFFFFFFFFFFFFFFFFFFFFFFFFFFFFFFFFFFFFFFFFFFFFFFFFFFFFFFFFFFFFFFFFFFFFFFFF
310
FFFFFFFFFFFFFFFFFFFFFFFFFFFFFFFFFFFFFFFFFFFFFFFFFFFFFFFFFFFFFFFFFFFFFFFFFFFFFFFFFFFFFFFFFFFFFFFFFFFFFFFFFFFFFFFF
102
{BLKREFS
331
5EF
331
5F3
102
}
  0
BLOCK_RECORD
  5
5F4
330
1
100
AcDbSymbolTableRecord
100
AcDbBlockTableRecord
  2
HD LLC
340
0
310
2800000020000000200000000100080000000000000400000000000000000000000000000000000000000000000080000080000000808000800000008000800080800000C0C0C000C0DCC000F0CAA6000020400000206000002080000020A0000020C0000020E00000400000004020000040400000406000004080000040A0
310
000040C0000040E00000600000006020000060400000606000006080000060A0000060C0000060E00000800000008020000080400000806000008080000080A0000080C0000080E00000A0000000A0200000A0400000A0600000A0800000A0A00000A0C00000A0E00000C0000000C0200000C0400000C0600000C0800000C0
310
A00000C0C00000C0E00000E0000000E0200000E0400000E0600000E0800000E0A00000E0C00000E0E00040000000400020004000400040006000400080004000A0004000C0004000E00040200000402020004020400040206000402080004020A0004020C0004020E000404000004040200040404000404060004040800040
310
40A0004040C0004040E00040600000406020004060400040606000406080004060A0004060C0004060E00040800000408020004080400040806000408080004080A0004080C0004080E00040A0000040A0200040A0400040A0600040A0800040A0A00040A0C00040A0E00040C0000040C0200040C0400040C0600040C08000
310
40C0A00040C0C00040C0E00040E0000040E0200040E0400040E0600040E0800040E0A00040E0C00040E0E00080000000800020008000400080006000800080008000A0008000C0008000E00080200000802020008020400080206000802080008020A0008020C0008020E00080400000804020008040400080406000804080
310
008040A0008040C0008040E00080600000806020008060400080606000806080008060A0008060C0008060E00080800000808020008080400080806000808080008080A0008080C0008080E00080A0000080A0200080A0400080A0600080A0800080A0A00080A0C00080A0E00080C0000080C0200080C0400080C0600080C0
310
800080C0A00080C0C00080C0E00080E0000080E0200080E0400080E0600080E0800080E0A00080E0C00080E0E000C0000000C0002000C0004000C0006000C0008000C000A000C000C000C000E000C0200000C0202000C0204000C0206000C0208000C020A000C020C000C020E000C0400000C0402000C0404000C0406000C0
310
408000C040A000C040C000C040E000C0600000C0602000C0604000C0606000C0608000C060A000C060C000C060E000C0800000C0802000C0804000C0806000C0808000C080A000C080C000C080E000C0A00000C0A02000C0A04000C0A06000C0A08000C0A0A000C0A0C000C0A0E000C0C00000C0C02000C0C04000C0C06000
310
C0C08000C0C0A000F0FBFF00A4A0A000808080000000FF0000FF000000FFFF00FF000000FF00FF00FFFF0000FFFFFF00FFFFFFFFFFFFFFFFFFFFFFFFFFFFFFFFFFFFFFFFFFFFFFFFFFFFFFFFFFFFFFFFFFFFFFFFFFFFFFFFFFFFFFFFFFFFFFFFFFFFFFFFFFFFFFFFFFFFFFFFFFFFFFFFFFFFFFFFFFFFFFFFFFFFFFFFFFFFFF
310
FFFFFFFFFFFFFFFFFFFFFFFFFFFFFFFFFFFFFFFFFFFFFFFFFFFFFFFFFFFFFFFFFFFFFFFFFFFFFFFFFFFFFFFFFFFFFFFFFFFFFFFFFFFFFFFFFFFFFFFFFFFFFFFFFFFFFFFFFFFFFFFFFFFFFFFFFFFFFFFFFFFFFFFFFFFFFFFFFFFFFFFFFFFFFFFFFFFFFFFFFFFFFFFFFFFFFFFFFFFFFFFFFFFFFFFFFFFFFFFFFFFFFFFFFFFFFF
310
FFFFFFFFFFFFFFFFFFFFFFFFFFFFFFFFFFFFFFFFFFFFFFFFFFFFFFFFFFFFFFFFFFFFFFFFFFFFFFFFFFFFFFFFFFFFFFFFFFFFFFFFFFFFFFFFFFFFFFFFFFFFFFFFFFFFFFFFFFFFFFFFFFFFFFFFFFFFFFFFFFFFFFFFFFFFFFFFFFFFFFFFFFFFFFFFFFFFFFFFFFFFFFFFFFFFFFFFFFFFFFFFFFFFFFFFFFFFFFFFFFFFFFFFFFFFFF
310
FFFFFFFFFFFFFFFFFFFFFFFFFFFFFFFFFFFFFFFFFFFFFFFFFFFFFFFFFFFFFFFFFFFFFFFFFFFFFFFFFFFFFFFFFFFFFFFFFFFFFFFFFFFFFFFFFFFFFFFFFFFFFFFFFFFFFFFFFFFFFFFFFFFFFFFFFFFFFFFFFFFFFFFFFFFFFFFFFFFFFFFFFFFFFFFFFFFFFFFFFFFFFFFFFFFFFFFFFFFFFFFFFFFFFFFFFFFFFFFFFFFFFFFFFFFF00
310
000000000000000000FFFFFFFFFFFFFFFFFFFFFFFFFFFFFFFFFFFFFFFFFFFF00000000000000000000FFFFFFFFFFFFFFFFFFFFFFFFFFFFFFFFFFFFFFFFFFFF00000000000000000000FFFFFFFFFFFFFFFFFFFFFFFFFFFFFFFFFFFFFFFFFFFF00000000000000000000FFFFFFFFFFFFFFFFFFFFFFFFFFFFFFFFFFFFFFFFFFFF
310
FFFFFFFFFFFFFFFFFFFFFFFFFFFFFFFFFFFFFFFFFFFFFFFFFFFFFFFFFFFFFFFFFFFFFFFFFFFFFFFFFFFFFFFFFFFFFFFFFFFFFFFFFFFFFFFFFFFFFFFFFFFFFFFFFFFFFFFFFFFFFFFFFFFFFFFFFFFFFFFFFFFFFFFFFFFFFFFFFFFFFFFFFFFFFFFFFFFFFFFFFFFFFFFFFFFFFFFFFFFFFFFFFFFFFFFFFFFFFFFFFFFFFFFFFFFFFF
310
FFFFFFFFFFFFFFFFFFFFFFFFFFFFFFFFFFFFFFFFFFFFFFFFFFFFFFFFFFFFFFFFFFFFFFFFFFFFFFFFFFFFFFFFFFFFFFFFFFFFFFFFFFFFFFFFFFFFFFFFFFFFFFFFFFFFFFFFFFFFFFFFFFFFFFFFFFFFFFFFFFFFFFFFFFFFFFFFFFFFFFFFFFFFFFFFFFFFFFFFFFFFFFFFFFFFFFFFFFFFFFFFFFFFFFFFFFFFFFFFFFFFFFFFFFFFFF
310
FFFFFFFFFFFFFFFFFFFFFFFFFFFFFFFFFFFFFFFFFFFFFFFFFFFFFFFFFFFFFFFFFFFFFFFFFFFFFFFFFFFFFFFFFFFFFFFFFFFFFFFFFFFFFFFFFFFFFFFFFFFFFFFFFFFFFFFFFFFFFFFFFFFFFFFFFFFFFFFFFFFFFFFFFFFFFFFFFFFFFFFFFFFFFFFFFFFFFFFFFFFFFFFFFFFFFFFFFFFFFFFFFFFFFFFFFFFFFFFFFFFFFFFFFFFFFF
310
FFFFFFFFFFFFFFFFFFFFFFFFFFFFFFFFFFFFFFFFFFFFFFFFFFFFFFFFFFFFFFFFFFFFFFFFFFFFFFFFFFFFFFFFFFFFFFFFFFFFFFFFFFFFFFFF
102
{BLKREFS
331
5F9
331
5FD
102
}
  0
ENDTAB
  0
ENDSEC
  0
SECTION
  2
BLOCKS
  0
BLOCK
  5
20
330
1F
100
AcDbEntity
  8
0
100
AcDbBlockBegin
  2
*Model_Space
 70
     0
 10
0.0
 20
0.0
 30
0.0
  3
*Model_Space
  1

  0
ENDBLK
  5
21
330
1F
100
AcDbEntity
  8
0
100
AcDbBlockEnd
  0
BLOCK
  5
1C
330
1B
100
AcDbEntity
 67
     1
  8
0
100
AcDbBlockBegin
  2
*Paper_Space
 70
     0
 10
0.0
 20
0.0
 30
0.0
  3
*Paper_Space
  1

  0
ENDBLK
  5
1D
330
1B
100
AcDbEntity
 67
     1
  8
0
100
AcDbBlockEnd
  0
BLOCK
  5
24
330
23
100
AcDbEntity
  8
0
100
AcDbBlockBegin
  2
*Paper_Space0
 70
     0
 10
0.0
 20
0.0
 30
0.0
  3
*Paper_Space0
  1

  0
ENDBLK
  5
25
330
23
100
AcDbEntity
  8
0
100
AcDbBlockEnd
  0
BLOCK
  5
50A
330
507
100
AcDbEntity
  8
0
100
AcDbBlockBegin
  2
NTC
 70
     0
 10
0.0
 20
0.0
 30
0.0
  3
NTC
  1

  0
LWPOLYLINE
  5
508
330
507
100
AcDbEntity
  8
0
100
AcDbPolyline
 90
        8
 70
     1
 43
0.0
 10
4.581008201925953
 20
-10.78862239032818
 10
319.3921777697513
 20
-10.78862239032818
 42
-0.4142135623730951
 10
324.9046777697513
 20
-16.30112239032816
 10
324.9046777697513
 20
-117.4075202476924
 42
-0.4142135623730951
 10
319.3921777697513
 20
-122.9200202476925
 10
4.581008201925835
 20
-122.9200202476925
 42
-0.4142135623730951
 10
-0.9314917980741483
 20
-117.4075202476924
 10
-0.9314917980740915
 20
-16.30112239032816
 42
-0.4142135623730951
  0
MTEXT
  5
509
330
507
100
AcDbEntity
  8
0
  6
Continuous
370
    30
100
AcDbMText
 10
21.65307678143926
 20
-17.4535155144544
 30
0.0
 40
8.75
 41
294.5432999999998
 71
     1
 72
     5
  3
{\fTxt|b1|i0|c0|p2;Notice:\P\Ftxt.shx;\H0.5714x;All specifications and dimensions shown in the drawing are subject to change without notice. This drawing is the property of Harmonic Drive LLC.   This data is believed to be accurate, however, Harmonic
  1
 Drive LLC assumes no liability for any errors or omissions in the specifications, models, or drawings.\P\PHarmonic Drive LLC\PTel: 800-921-3332\Pwww.harmonicdrive.net}
 73
     1
 44
1.0
  0
ENDBLK
  5
50B
330
507
100
AcDbEntity
  8
0
100
AcDbBlockEnd
  0
BLOCK
  5
50E
330
50C
100
AcDbEntity
  8
0
100
AcDbBlockBegin
  2
Notice
 70
     0
 10
0.0
 20
0.0
 30
0.0
  3
Notice
  1

  0
INSERT
  5
50D
330
50C
100
AcDbEntity
  8
0
100
AcDbBlockReference
  2
NTC
 10
-1.765593945145185
 20
0.8372451854194725
 30
0.0
 41
0.0132641562133813
 42
0.0132641562133813
 43
0.0132641562133813
  0
ENDBLK
  5
50F
330
50C
100
AcDbEntity
  8
0
100
AcDbBlockEnd
  0
BLOCK
  5
588
330
585
100
AcDbEntity
  8
0
 62
     7
100
AcDbBlockBegin
  2
AI9-BLK14
 70
     0
 10
0.0
 20
0.0
 30
0.0
  3
AI9-BLK14
  1

  0
SPLINE
  5
586
330
585
100
AcDbEntity
  8
LAYER_1
 62
     7
100
AcDbSpline
210
0.0
220
0.0
230
1.0
 70
    11
 71
     3
 72
    23
 73
    19
 74
     0
 42
0.0000000001
 43
0.0000000001
 40
0.0
 40
0.0
 40
0.0
 40
0.0
 40
1.0
 40
1.0
 40
1.0
 40
2.0
 40
2.0
 40
2.0
 40
3.0
 40
3.0
 40
3.0
 40
4.0
 40
4.0
 40
4.0
 40
5.0
 40
5.0
 40
5.0
 40
6.0
 40
6.0
 40
6.0
 40
6.0
 10
-10.90321044921874
 20
10.88107571072048
 30
0.0
 10
-10.90321044921874
 20
10.88107571072048
 30
0.0
 10
-10.90321044921874
 20
-10.88107571072048
 30
0.0
 10
-10.90321044921874
 20
-10.88107571072048
 30
0.0
 10
-10.90321044921874
 20
-10.88107571072048
 30
0.0
 10
1.752692328559025
 20
-10.88107571072048
 30
0.0
 10
1.752692328559025
 20
-10.88107571072048
 30
0.0
 10
3.280592176649305
 20
-10.88107571072048
 30
0.0
 10
10.90321044921874
 20
-10.32383151584201
 30
0.0
 10
10.90321044921874
 20
0.6792867024739583
 30
0.0
 10
10.90321044921874
 20
10.61700914171006
 30
0.0
 10
2.773129611545138
 20
10.87952541775172
 30
0.0
 10
2.691136338975693
 20
10.88090345594618
 30
0.0
 10
2.691136338975693
 20
10.88090345594618
 30
0.0
 10
-9.903099229600693
 20
10.88107571072048
 30
0.0
 10
-9.903099229600693
 20
10.88107571072048
 30
0.0
 10
-9.903099229600693
 20
10.88107571072048
 30
0.0
 10
-10.90321044921874
 20
10.88107571072048
 30
0.0
 10
-10.90321044921874
 20
10.88107571072048
 30
0.0
  0
SPLINE
  5
587
330
585
100
AcDbEntity
  8
LAYER_1
 62
     7
100
AcDbSpline
210
0.0
220
0.0
230
1.0
 70
    11
 71
     3
 72
    20
 73
    16
 74
     0
 42
0.0000000001
 43
0.0000000001
 40
0.0
 40
0.0
 40
0.0
 40
0.0
 40
1.0
 40
1.0
 40
1.0
 40
2.0
 40
2.0
 40
2.0
 40
3.0
 40
3.0
 40
3.0
 40
4.0
 40
4.0
 40
4.0
 40
5.0
 40
5.0
 40
5.0
 40
5.0
 10
2.672877332899305
 20
8.881197781032986
 30
0.0
 10
2.905421278211805
 20
8.874307590060762
 30
0.0
 10
8.902988009982637
 20
8.616442192925347
 30
0.0
 10
8.902988009982637
 20
0.6792867024739583
 30
0.0
 10
8.902988009982637
 20
-8.191661919487842
 30
0.0
 10
3.430109320746526
 20
-8.881197781032986
 30
0.0
 10
1.752692328559025
 20
-8.881197781032986
 30
0.0
 10
1.752692328559025
 20
-8.881197781032986
 30
0.0
 10
-7.231427680121528
 20
-8.881197781032986
 30
0.0
 10
-8.902988009982637
 20
-8.881197781032986
 30
0.0
 10
-8.902988009982637
 20
-7.174497477213541
 30
0.0
 10
-8.902988009982637
 20
7.174497477213541
 30
0.0
 10
-8.902988009982637
 20
8.881197781032986
 30
0.0
 10
-7.208690049913191
 20
8.881197781032986
 30
0.0
 10
2.672877332899305
 20
8.881197781032986
 30
0.0
 10
2.672877332899305
 20
8.881197781032986
 30
0.0
  0
ENDBLK
  5
589
330
585
100
AcDbEntity
  8
0
100
AcDbBlockEnd
  0
BLOCK
  5
58D
330
58A
100
AcDbEntity
  8
0
 62
     7
100
AcDbBlockBegin
  2
AI9-BLK13
 70
     0
 10
0.0
 20
0.0
 30
0.0
  3
AI9-BLK13
  1

  0
LWPOLYLINE
  5
58B
330
58A
100
AcDbEntity
  8
LAYER_1
 62
     7
100
AcDbPolyline
 90
       12
 70
     1
 43
0.0
 10
-3.792361111111107
 20
10.7376736111111
 10
-2.469444444444443
 20
10.7376736111111
 10
-2.469444444444443
 20
1.874131944444444
 10
2.469444444444443
 20
1.874131944444444
 10
2.469444444444443
 20
10.7376736111111
 10
3.792361111111107
 20
10.7376736111111
 10
3.792361111111107
 20
-10.7376736111111
 10
2.469444444444443
 20
-10.7376736111111
 10
2.469444444444443
 20
-0.6835069444444444
 10
-2.469444444444443
 20
-0.6835069444444444
 10
-2.469444444444443
 20
-10.7376736111111
 10
-3.792361111111107
 20
-10.7376736111111
  0
HATCH
  5
58C
330
58A
100
AcDbEntity
  8
LAYER_1
 62
     7
100
AcDbHatch
 10
0.0
 20
0.0
 30
0.0
210
0.0
220
0.0
230
1.0
  2
SOLID
 70
     1
 71
     0
 91
        1
 92
        3
 72
     0
 73
     1
 93
       12
 10
-3.792361111111107
 20
10.7376736111111
 10
-2.469444444444443
 20
10.7376736111111
 10
-2.469444444444443
 20
1.874131944444444
 10
2.469444444444443
 20
1.874131944444444
 10
2.469444444444443
 20
10.7376736111111
 10
3.792361111111107
 20
10.7376736111111
 10
3.792361111111107
 20
-10.7376736111111
 10
2.469444444444443
 20
-10.7376736111111
 10
2.469444444444443
 20
-0.6835069444444444
 10
-2.469444444444443
 20
-0.6835069444444444
 10
-2.469444444444443
 20
-10.7376736111111
 10
-3.792361111111107
 20
-10.7376736111111
 97
        0
 75
     2
 76
     1
 98
        1
 10
0.0
 20
0.0
  0
ENDBLK
  5
58E
330
58A
100
AcDbEntity
  8
0
100
AcDbBlockEnd
  0
BLOCK
  5
592
330
58F
100
AcDbEntity
  8
0
 62
     7
100
AcDbBlockBegin
  2
AI9-BLK11
 70
     0
 10
0.0
 20
0.0
 30
0.0
  3
AI9-BLK11
  1

  0
SPLINE
  5
590
330
58F
100
AcDbEntity
  8
LAYER_1
 62
     7
100
AcDbSpline
210
0.0
220
0.0
230
1.0
 70
    11
 71
     3
 72
    26
 73
    22
 74
     0
 42
0.0000000001
 43
0.0000000001
 40
0.0
 40
0.0
 40
0.0
 40
0.0
 40
1.0
 40
1.0
 40
1.0
 40
2.0
 40
2.0
 40
2.0
 40
3.0
 40
3.0
 40
3.0
 40
4.0
 40
4.0
 40
4.0
 40
5.0
 40
5.0
 40
5.0
 40
6.0
 40
6.0
 40
6.0
 40
7.0
 40
7.0
 40
7.0
 40
7.0
 10
-2.645833333333333
 20
0.9039930555555551
 30
0.0
 10
-2.645833333333333
 20
0.9039930555555551
 30
0.0
 10
-2.645833333333333
 20
8.180034722222217
 30
0.0
 10
-2.645833333333333
 20
8.180034722222217
 30
0.0
 10
-2.645833333333333
 20
8.180034722222217
 30
0.0
 10
0.465087890625
 20
8.180034722222217
 30
0.0
 10
0.465087890625
 20
8.180034722222217
 30
0.0
 10
0.9026150173611108
 20
8.180034722222217
 30
0.0
 10
1.24988064236111
 20
8.034651692708331
 30
0.0
 10
1.506884765625
 20
7.745263671874997
 30
0.0
 10
2.001600477430554
 20
7.194048394097221
 30
0.0
 10
2.248958333333332
 20
6.160519748263887
 30
0.0
 10
2.248958333333332
 20
4.643299696180553
 30
0.0
 10
2.248958333333332
 20
3.232188585069443
 30
0.0
 10
2.072569444444444
 20
2.256537543402775
 30
0.0
 10
1.720480685763888
 20
1.715657552083333
 30
0.0
 10
1.368391927083333
 20
1.174088541666665
 30
0.0
 10
0.8929687499999998
 20
0.9039930555555551
 30
0.0
 10
0.2942111545138888
 20
0.9039930555555551
 30
0.0
 10
0.2942111545138888
 20
0.9039930555555551
 30
0.0
 10
-2.645833333333333
 20
0.9039930555555551
 30
0.0
 10
-2.645833333333333
 20
0.9039930555555551
 30
0.0
  0
SPLINE
  5
591
330
58F
100
AcDbEntity
  8
LAYER_1
 62
     7
100
AcDbSpline
210
0.0
220
0.0
230
1.0
 70
    11
 71
     3
 72
    68
 73
    64
 74
     0
 42
0.0000000001
 43
0.0000000001
 40
0.0
 40
0.0
 40
0.0
 40
0.0
 40
1.0
 40
1.0
 40
1.0
 40
2.0
 40
2.0
 40
2.0
 40
3.0
 40
3.0
 40
3.0
 40
4.0
 40
4.0
 40
4.0
 40
5.0
 40
5.0
 40
5.0
 40
6.0
 40
6.0
 40
6.0
 40
7.0
 40
7.0
 40
7.0
 40
8.0
 40
8.0
 40
8.0
 40
9.0
 40
9.0
 40
9.0
 40
10.0
 40
10.0
 40
10.0
 40
11.0
 40
11.0
 40
11.0
 40
12.0
 40
12.0
 40
12.0
 40
13.0
 40
13.0
 40
13.0
 40
14.0
 40
14.0
 40
14.0
 40
15.0
 40
15.0
 40
15.0
 40
16.0
 40
16.0
 40
16.0
 40
17.0
 40
17.0
 40
17.0
 40
18.0
 40
18.0
 40
18.0
 40
19.0
 40
19.0
 40
19.0
 40
20.0
 40
20.0
 40
20.0
 40
21.0
 40
21.0
 40
21.0
 40
21.0
 10
-3.968749999999998
 20
-10.7376736111111
 30
0.0
 10
-3.968749999999998
 20
-10.7376736111111
 30
0.0
 10
-2.645833333333333
 20
-10.7376736111111
 30
0.0
 10
-2.645833333333333
 20
-10.7376736111111
 30
0.0
 10
-2.645833333333333
 20
-10.7376736111111
 30
0.0
 10
-2.645833333333333
 20
-1.521354166666665
 30
0.0
 10
-2.645833333333333
 20
-1.521354166666665
 30
0.0
 10
-2.645833333333333
 20
-1.521354166666665
 30
0.0
 10
0.2390896267361111
 20
-1.521354166666665
 30
0.0
 10
0.2390896267361111
 20
-1.521354166666665
 30
0.0
 10
0.7599880642361111
 20
-1.521354166666665
 30
0.0
 10
1.143771701388887
 20
-1.65295681423611
 30
0.0
 10
1.390440538194444
 20
-1.916162109374999
 30
0.0
 10
1.816254340277773
 20
-2.39434136284722
 30
0.0
 10
2.04363064236111
 20
-3.335541449652775
 30
0.0
 10
2.072569444444444
 20
-4.739762369791666
 30
0.0
 10
2.072569444444444
 20
-4.739762369791666
 30
0.0
 10
2.160763888888888
 20
-8.324039713541665
 30
0.0
 10
2.160763888888888
 20
-8.324039713541665
 30
0.0
 10
2.18005642361111
 20
-9.163264973958332
 30
0.0
 10
2.202794053819443
 20
-9.728949652777775
 30
0.0
 10
2.227598741319444
 20
-10.02109374999998
 30
0.0
 10
2.252403428819443
 20
-10.31392686631944
 30
0.0
 10
2.28892144097222
 20
-10.55301649305555
 30
0.0
 10
2.33853081597222
 20
-10.7376736111111
 30
0.0
 10
2.33853081597222
 20
-10.7376736111111
 30
0.0
 10
3.968749999999998
 20
-10.7376736111111
 30
0.0
 10
3.968749999999998
 20
-10.7376736111111
 30
0.0
 10
3.968749999999998
 20
-10.7376736111111
 30
0.0
 10
3.968749999999998
 20
-10.25260416666666
 30
0.0
 10
3.968749999999998
 20
-10.25260416666666
 30
0.0
 10
3.766867404513888
 20
-10.05830078125
 30
0.0
 10
3.625618489583333
 20
-9.621462673611112
 30
0.0
 10
3.545692274305555
 20
-8.942089843749997
 30
0.0
 10
3.49470486111111
 20
-8.543836805555555
 30
0.0
 10
3.459564887152775
 20
-7.937499999999999
 30
0.0
 10
3.439583333333333
 20
-7.121701388888887
 30
0.0
 10
3.439583333333333
 20
-7.121701388888887
 30
0.0
 10
3.395486111111106
 20
-4.232644314236106
 30
0.0
 10
3.395486111111106
 20
-4.232644314236106
 30
0.0
 10
3.375504557291666
 20
-2.981385633680555
 30
0.0
 10
3.26870659722222
 20
-2.077392578125
 30
0.0
 10
3.075781249999999
 20
-1.522043185763888
 30
0.0
 10
2.882166883680555
 20
-0.9666937934027776
 30
0.0
 10
2.592089843749999
 20
-0.5188313802083333
 30
0.0
 10
2.204861111111104
 20
-0.1770779079861111
 30
0.0
 10
2.63618706597222
 20
0.3197048611111111
 30
0.0
 10
2.971739366319443
 20
0.9770290798611107
 30
0.0
 10
3.211518012152775
 20
1.79558376736111
 30
0.0
 10
3.451296657986107
 20
2.613449435763888
 30
0.0
 10
3.571874999999999
 20
3.66558159722222
 30
0.0
 10
3.571874999999999
 20
4.951291232638888
 30
0.0
 10
3.571874999999999
 20
7.415912543402777
 30
0.0
 10
3.124701605902775
 20
9.106076388888887
 30
0.0
 10
2.231043836805555
 20
10.02178276909722
 30
0.0
 10
1.759754774305553
 20
10.498583984375
 30
0.0
 10
1.163753255208332
 20
10.7376736111111
 30
0.0
 10
0.443039279513889
 20
10.7376736111111
 30
0.0
 10
0.443039279513889
 20
10.7376736111111
 30
0.0
 10
-3.968749999999998
 20
10.7376736111111
 30
0.0
 10
-3.968749999999998
 20
10.7376736111111
 30
0.0
 10
-3.968749999999998
 20
10.7376736111111
 30
0.0
 10
-3.968749999999998
 20
-10.7376736111111
 30
0.0
 10
-3.968749999999998
 20
-10.7376736111111
 30
0.0
  0
ENDBLK
  5
593
330
58F
100
AcDbEntity
  8
0
100
AcDbBlockEnd
  0
BLOCK
  5
596
330
594
100
AcDbEntity
  8
0
 62
     7
100
AcDbBlockBegin
  2
AI9-BLK10
 70
     0
 10
0.0
 20
0.0
 30
0.0
  3
AI9-BLK10
  1

  0
SPLINE
  5
595
330
594
100
AcDbEntity
  8
LAYER_1
 62
     7
100
AcDbSpline
210
0.0
220
0.0
230
1.0
 70
    11
 71
     3
 72
    59
 73
    55
 74
     0
 42
0.0000000001
 43
0.0000000001
 40
0.0
 40
0.0
 40
0.0
 40
0.0
 40
1.0
 40
1.0
 40
1.0
 40
2.0
 40
2.0
 40
2.0
 40
3.0
 40
3.0
 40
3.0
 40
4.0
 40
4.0
 40
4.0
 40
5.0
 40
5.0
 40
5.0
 40
6.0
 40
6.0
 40
6.0
 40
7.0
 40
7.0
 40
7.0
 40
8.0
 40
8.0
 40
8.0
 40
9.0
 40
9.0
 40
9.0
 40
10.0
 40
10.0
 40
10.0
 40
11.0
 40
11.0
 40
11.0
 40
12.0
 40
12.0
 40
12.0
 40
13.0
 40
13.0
 40
13.0
 40
14.0
 40
14.0
 40
14.0
 40
15.0
 40
15.0
 40
15.0
 40
16.0
 40
16.0
 40
16.0
 40
17.0
 40
17.0
 40
17.0
 40
18.0
 40
18.0
 40
18.0
 40
18.0
 10
-4.652256944444443
 20
10.7376736111111
 30
0.0
 10
-4.652256944444443
 20
10.7376736111111
 30
0.0
 10
-2.798795572916666
 20
10.7376736111111
 30
0.0
 10
-2.798795572916666
 20
10.7376736111111
 30
0.0
 10
-2.798795572916666
 20
10.7376736111111
 30
0.0
 10
0.0
 20
-7.419357638888887
 30
0.0
 10
0.0
 20
-7.419357638888887
 30
0.0
 10
0.0
 20
-7.419357638888887
 30
0.0
 10
2.793283420138888
 20
10.7376736111111
 30
0.0
 10
2.793283420138888
 20
10.7376736111111
 30
0.0
 10
2.793283420138888
 20
10.7376736111111
 30
0.0
 10
4.652256944444443
 20
10.7376736111111
 30
0.0
 10
4.652256944444443
 20
10.7376736111111
 30
0.0
 10
4.652256944444443
 20
10.7376736111111
 30
0.0
 10
4.652256944444443
 20
-10.7376736111111
 30
0.0
 10
4.652256944444443
 20
-10.7376736111111
 30
0.0
 10
4.652256944444443
 20
-10.7376736111111
 30
0.0
 10
3.41753472222222
 20
-10.7376736111111
 30
0.0
 10
3.41753472222222
 20
-10.7376736111111
 30
0.0
 10
3.41753472222222
 20
-10.7376736111111
 30
0.0
 10
3.41753472222222
 20
1.936832682291665
 30
0.0
 10
3.41753472222222
 20
1.936832682291665
 30
0.0
 10
3.41753472222222
 20
2.375048828124999
 30
0.0
 10
3.424424913194443
 20
3.101274956597221
 30
0.0
 10
3.439583333333333
 20
4.11482204861111
 30
0.0
 10
3.454052734374998
 20
5.128369140624998
 30
0.0
 10
3.461631944444443
 20
6.214952256944441
 30
0.0
 10
3.461631944444443
 20
7.375260416666666
 30
0.0
 10
3.461631944444443
 20
7.375260416666666
 30
0.0
 10
0.6538791232638889
 20
-10.7376736111111
 30
0.0
 10
0.6538791232638889
 20
-10.7376736111111
 30
0.0
 10
0.6538791232638889
 20
-10.7376736111111
 30
0.0
 10
-0.6628363715277778
 20
-10.7376736111111
 30
0.0
 10
-0.6628363715277778
 20
-10.7376736111111
 30
0.0
 10
-0.6628363715277778
 20
-10.7376736111111
 30
0.0
 10
-3.461631944444443
 20
7.375260416666666
 30
0.0
 10
-3.461631944444443
 20
7.375260416666666
 30
0.0
 10
-3.461631944444443
 20
7.375260416666666
 30
0.0
 10
-3.461631944444443
 20
6.717247178819441
 30
0.0
 10
-3.461631944444443
 20
6.717247178819441
 30
0.0
 10
-3.461631944444443
 20
6.190836588541666
 30
0.0
 10
-3.45474175347222
 20
5.389507378472222
 30
0.0
 10
-3.439583333333333
 20
4.312570529513888
 30
0.0
 10
-3.425113932291666
 20
3.235633680555555
 30
0.0
 10
-3.41753472222222
 20
2.44395073784722
 30
0.0
 10
-3.41753472222222
 20
1.936832682291665
 30
0.0
 10
-3.41753472222222
 20
1.936832682291665
 30
0.0
 10
-3.41753472222222
 20
-10.7376736111111
 30
0.0
 10
-3.41753472222222
 20
-10.7376736111111
 30
0.0
 10
-3.41753472222222
 20
-10.7376736111111
 30
0.0
 10
-4.652256944444443
 20
-10.7376736111111
 30
0.0
 10
-4.652256944444443
 20
-10.7376736111111
 30
0.0
 10
-4.652256944444443
 20
-10.7376736111111
 30
0.0
 10
-4.652256944444443
 20
10.7376736111111
 30
0.0
 10
-4.652256944444443
 20
10.7376736111111
 30
0.0
  0
ENDBLK
  5
597
330
594
100
AcDbEntity
  8
0
100
AcDbBlockEnd
  0
BLOCK
  5
59B
330
598
100
AcDbEntity
  8
0
 62
     7
100
AcDbBlockBegin
  2
AI9-BLK9
 70
     0
 10
0.0
 20
0.0
 30
0.0
  3
AI9-BLK9
  1

  0
SPLINE
  5
599
330
598
100
AcDbEntity
  8
LAYER_1
 62
     7
100
AcDbSpline
210
0.0
220
0.0
230
1.0
 70
    11
 71
     3
 72
    29
 73
    25
 74
     0
 42
0.0000000001
 43
0.0000000001
 40
0.0
 40
0.0
 40
0.0
 40
0.0
 40
1.0
 40
1.0
 40
1.0
 40
2.0
 40
2.0
 40
2.0
 40
3.0
 40
3.0
 40
3.0
 40
4.0
 40
4.0
 40
4.0
 40
5.0
 40
5.0
 40
5.0
 40
6.0
 40
6.0
 40
6.0
 40
7.0
 40
7.0
 40
7.0
 40
8.0
 40
8.0
 40
8.0
 40
8.0
 10
0.0668348524305556
 20
-8.753298611111111
 30
0.0
 10
-0.9067491319444444
 20
-8.753298611111111
 30
0.0
 10
-1.60954861111111
 20
-7.936810980902778
 30
0.0
 10
-2.041563585069444
 20
-6.30383572048611
 30
0.0
 10
-2.474267578124999
 20
-4.670860460069443
 30
0.0
 10
-2.689930555555555
 20
-2.664436848958333
 30
0.0
 10
-2.689930555555555
 20
-0.28525390625
 30
0.0
 10
-2.689930555555555
 20
2.68855251736111
 30
0.0
 10
-2.439127604166666
 20
4.938199869791666
 30
0.0
 10
-1.937521701388888
 20
6.464377170138886
 30
0.0
 10
-1.43591579861111
 20
7.989865451388887
 30
0.0
 10
-0.7827256944444444
 20
8.753298611111111
 30
0.0
 10
0.0220486111111111
 20
8.753298611111111
 30
0.0
 10
0.8468044704861108
 20
8.753298611111111
 30
0.0
 10
1.49792751736111
 20
7.982975260416663
 30
0.0
 10
1.974728732638888
 20
6.442328559027776
 30
0.0
 10
2.451529947916665
 20
4.901681857638886
 30
0.0
 10
2.689930555555555
 20
2.868386501736111
 30
0.0
 10
2.689930555555555
 20
0.3438205295138888
 30
0.0
 10
2.689930555555555
 20
-2.045697699652774
 30
0.0
 10
2.483224826388884
 20
-4.15891927083333
 30
0.0
 10
2.071191406249999
 20
-5.996533203124998
 30
0.0
 10
1.65915798611111
 20
-7.834836154513887
 30
0.0
 10
0.9908094618055557
 20
-8.753298611111111
 30
0.0
 10
0.0668348524305556
 20
-8.753298611111111
 30
0.0
  0
SPLINE
  5
59A
330
598
100
AcDbEntity
  8
LAYER_1
 62
     7
100
AcDbSpline
210
0.0
220
0.0
230
1.0
 70
    11
 71
     3
 72
    29
 73
    25
 74
     0
 42
0.0000000001
 43
0.0000000001
 40
0.0
 40
0.0
 40
0.0
 40
0.0
 40
1.0
 40
1.0
 40
1.0
 40
2.0
 40
2.0
 40
2.0
 40
3.0
 40
3.0
 40
3.0
 40
4.0
 40
4.0
 40
4.0
 40
5.0
 40
5.0
 40
5.0
 40
6.0
 40
6.0
 40
6.0
 40
7.0
 40
7.0
 40
7.0
 40
8.0
 40
8.0
 40
8.0
 40
8.0
 10
-0.0289388020833333
 20
11.35503472222222
 30
0.0
 10
-1.317404513888887
 20
11.35503472222222
 30
0.0
 10
-2.28892144097222
 20
10.02798394097222
 30
0.0
 10
-2.94280056423611
 20
7.374571397569441
 30
0.0
 10
-3.450607638888888
 20
5.30613606770833
 30
0.0
 10
-3.704166666666666
 20
2.81877712673611
 30
0.0
 10
-3.704166666666666
 20
-0.0881944444444445
 30
0.0
 10
-3.704166666666666
 20
-3.307291666666666
 30
0.0
 10
-3.406510416666666
 20
-5.97035047743055
 30
0.0
 10
-2.811197916666666
 20
-8.077370876736106
 30
0.0
 10
-2.147672526041664
 20
-10.26293945312499
 30
0.0
 10
-1.229899088541666
 20
-11.35503472222222
 30
0.0
 10
-0.0585666232638889
 20
-11.35503472222222
 30
0.0
 10
1.20027126736111
 20
-11.35503472222222
 30
0.0
 10
2.166276041666665
 20
-10.10653211805555
 30
0.0
 10
2.840136718749998
 20
-7.609526909722221
 30
0.0
 10
3.416156684027776
 20
-5.483213975694441
 30
0.0
 10
3.704166666666666
 20
-2.814643012152775
 30
0.0
 10
3.704166666666666
 20
0.3948079427083333
 30
0.0
 10
3.704166666666666
 20
3.360346137152776
 30
0.0
 10
3.449918619791666
 20
5.793961588541666
 30
0.0
 10
2.94280056423611
 20
7.696343315972222
 30
0.0
 10
2.298567708333333
 20
10.13547092013888
 30
0.0
 10
1.307758246527777
 20
11.35503472222222
 30
0.0
 10
-0.0289388020833333
 20
11.35503472222222
 30
0.0
  0
ENDBLK
  5
59C
330
598
100
AcDbEntity
  8
0
100
AcDbBlockEnd
  0
BLOCK
  5
5A0
330
59D
100
AcDbEntity
  8
0
 62
     7
100
AcDbBlockBegin
  2
AI9-BLK8
 70
     0
 10
0.0
 20
0.0
 30
0.0
  3
AI9-BLK8
  1

  0
LWPOLYLINE
  5
59E
330
59D
100
AcDbEntity
  8
LAYER_1
 62
     7
100
AcDbPolyline
 90
       10
 70
     1
 43
0.0
 10
-3.792361111111107
 20
10.7376736111111
 10
-2.268939887152773
 20
10.7376736111111
 10
2.557638888888888
 20
-6.505718315972222
 10
2.557638888888888
 20
10.7376736111111
 10
3.792361111111107
 20
10.7376736111111
 10
3.792361111111107
 20
-10.7376736111111
 10
2.32612847222222
 20
-10.7376736111111
 10
-2.557638888888888
 20
6.549815538194441
 10
-2.557638888888888
 20
-10.7376736111111
 10
-3.792361111111107
 20
-10.7376736111111
  0
HATCH
  5
59F
330
59D
100
AcDbEntity
  8
LAYER_1
 62
     7
100
AcDbHatch
 10
0.0
 20
0.0
 30
0.0
210
0.0
220
0.0
230
1.0
  2
SOLID
 70
     1
 71
     0
 91
        1
 92
        3
 72
     0
 73
     1
 93
       10
 10
-3.792361111111107
 20
10.7376736111111
 10
-2.268939887152773
 20
10.7376736111111
 10
2.557638888888888
 20
-6.505718315972222
 10
2.557638888888888
 20
10.7376736111111
 10
3.792361111111107
 20
10.7376736111111
 10
3.792361111111107
 20
-10.7376736111111
 10
2.32612847222222
 20
-10.7376736111111
 10
-2.557638888888888
 20
6.549815538194441
 10
-2.557638888888888
 20
-10.7376736111111
 10
-3.792361111111107
 20
-10.7376736111111
 97
        0
 75
     2
 76
     1
 98
        1
 10
0.0
 20
0.0
  0
ENDBLK
  5
5A1
330
59D
100
AcDbEntity
  8
0
100
AcDbBlockEnd
  0
BLOCK
  5
5A5
330
5A2
100
AcDbEntity
  8
0
 62
     7
100
AcDbBlockBegin
  2
AI9-BLK7
 70
     0
 10
0.0
 20
0.0
 30
0.0
  3
AI9-BLK7
  1

  0
LWPOLYLINE
  5
5A3
330
5A2
100
AcDbEntity
  8
LAYER_1
 62
     7
100
AcDbPolyline
 90
        4
 70
     1
 43
0.0
 10
-0.6614583333333333
 20
10.7376736111111
 10
0.6614583333333333
 20
10.7376736111111
 10
0.6614583333333333
 20
-10.7376736111111
 10
-0.6614583333333333
 20
-10.7376736111111
  0
HATCH
  5
5A4
330
5A2
100
AcDbEntity
  8
LAYER_1
 62
     7
100
AcDbHatch
 10
0.0
 20
0.0
 30
0.0
210
0.0
220
0.0
230
1.0
  2
SOLID
 70
     1
 71
     0
 91
        1
 92
        3
 72
     0
 73
     1
 93
        4
 10
-0.6614583333333333
 20
10.7376736111111
 10
0.6614583333333333
 20
10.7376736111111
 10
0.6614583333333333
 20
-10.7376736111111
 10
-0.6614583333333333
 20
-10.7376736111111
 97
        0
 75
     2
 76
     1
 98
        1
 10
0.0
 20
0.0
  0
ENDBLK
  5
5A6
330
5A2
100
AcDbEntity
  8
0
100
AcDbBlockEnd
  0
BLOCK
  5
5A9
330
5A7
100
AcDbEntity
  8
0
 62
     7
100
AcDbBlockBegin
  2
AI9-BLK6
 70
     0
 10
0.0
 20
0.0
 30
0.0
  3
AI9-BLK6
  1

  0
SPLINE
  5
5A8
330
5A7
100
AcDbEntity
  8
LAYER_1
 62
     7
100
AcDbSpline
210
0.0
220
0.0
230
1.0
 70
    11
 71
     3
 72
    59
 73
    55
 74
     0
 42
0.0000000001
 43
0.0000000001
 40
0.0
 40
0.0
 40
0.0
 40
0.0
 40
1.0
 40
1.0
 40
1.0
 40
2.0
 40
2.0
 40
2.0
 40
3.0
 40
3.0
 40
3.0
 40
4.0
 40
4.0
 40
4.0
 40
5.0
 40
5.0
 40
5.0
 40
6.0
 40
6.0
 40
6.0
 40
7.0
 40
7.0
 40
7.0
 40
8.0
 40
8.0
 40
8.0
 40
9.0
 40
9.0
 40
9.0
 40
10.0
 40
10.0
 40
10.0
 40
11.0
 40
11.0
 40
11.0
 40
12.0
 40
12.0
 40
12.0
 40
13.0
 40
13.0
 40
13.0
 40
14.0
 40
14.0
 40
14.0
 40
15.0
 40
15.0
 40
15.0
 40
16.0
 40
16.0
 40
16.0
 40
17.0
 40
17.0
 40
17.0
 40
18.0
 40
18.0
 40
18.0
 40
18.0
 10
3.062689887152775
 20
9.168088107638887
 30
0.0
 10
3.735172526041666
 20
7.739062499999997
 30
0.0
 10
4.110687934027776
 20
6.116422526041666
 30
0.0
 10
4.189236111111108
 20
4.299479166666666
 30
0.0
 10
4.189236111111108
 20
4.299479166666666
 30
0.0
 10
2.866319444444443
 20
4.299479166666666
 30
0.0
 10
2.866319444444443
 20
4.299479166666666
 30
0.0
 10
2.720936414930555
 20
5.667871093749997
 30
0.0
 10
2.435682508680555
 20
6.752387152777776
 30
0.0
 10
2.009868706597218
 20
7.553027343749997
 30
0.0
 10
1.584054904513888
 20
8.352978515624997
 30
0.0
 10
0.9839192708333332
 20
8.753298611111111
 30
0.0
 10
0.2101508246527778
 20
8.753298611111111
 30
0.0
 10
-0.7386284722222222
 20
8.753298611111111
 30
0.0
 10
-1.503439670138888
 20
8.010536024305555
 30
0.0
 10
-2.083593749999999
 20
6.526388888888886
 30
0.0
 10
-2.664436848958333
 20
5.042241753472221
 30
0.0
 10
-2.954513888888888
 20
2.767100694444443
 30
0.0
 10
-2.954513888888888
 20
-0.2990342881944444
 30
0.0
 10
-2.954513888888888
 20
-2.811197916666666
 30
0.0
 10
-2.693375651041666
 20
-4.847938368055555
 30
0.0
 10
-2.17041015625
 20
-6.409944661458332
 30
0.0
 10
-1.648133680555553
 20
-7.972639973958332
 30
0.0
 10
-0.8640299479166666
 20
-8.753298611111111
 30
0.0
 10
0.1812120225694444
 20
-8.753298611111111
 30
0.0
 10
1.138948567708333
 20
-8.753298611111111
 30
0.0
 10
1.865174696180553
 20
-7.927853732638887
 30
0.0
 10
2.359201388888884
 20
-6.275585937499998
 30
0.0
 10
2.62998589409722
 20
-5.406043836805555
 30
0.0
 10
2.828423394097221
 20
-4.262272135416666
 30
0.0
 10
2.954513888888888
 20
-2.844270833333331
 30
0.0
 10
2.954513888888888
 20
-2.844270833333331
 30
0.0
 10
4.277430555555555
 20
-2.844270833333331
 30
0.0
 10
4.277430555555555
 20
-2.844270833333331
 30
0.0
 10
4.169943576388888
 20
-5.109765624999996
 30
0.0
 10
3.795117187499998
 20
-7.009391276041665
 30
0.0
 10
3.151573350694443
 20
-8.542458767361106
 30
0.0
 10
2.381249999999999
 20
-10.38834092881943
 30
0.0
 10
1.347721354166665
 20
-11.3109375
 30
0.0
 10
0.0509874131944445
 20
-11.3109375
 30
0.0
 10
-1.07004665798611
 20
-11.3109375
 30
0.0
 10
-2.010557725694444
 20
-10.55577256944443
 30
0.0
 10
-2.771234809027776
 20
-9.04475368923611
 30
0.0
 10
-3.775824652777775
 20
-7.046598307291666
 30
0.0
 10
-4.277430555555555
 20
-3.961170789930555
 30
0.0
 10
-4.277430555555555
 20
0.2115288628472222
 30
0.0
 10
-4.277430555555555
 20
3.379638671874998
 30
0.0
 10
-3.902604166666666
 20
5.977929687499997
 30
0.0
 10
-3.151573350694443
 20
8.005712890624996
 30
0.0
 10
-2.333018663194443
 20
10.20919596354165
 30
0.0
 10
-1.20647243923611
 20
11.3109375
 30
0.0
 10
0.2266872829861111
 20
11.3109375
 30
0.0
 10
1.444873046875
 20
11.3109375
 30
0.0
 10
2.390207248263884
 20
10.59642469618055
 30
0.0
 10
3.062689887152775
 20
9.168088107638887
 30
0.0
  0
ENDBLK
  5
5AA
330
5A7
100
AcDbEntity
  8
0
100
AcDbBlockEnd
  0
BLOCK
  5
5AE
330
5AB
100
AcDbEntity
  8
0
 62
     7
100
AcDbBlockBegin
  2
AI9-BLK5
 70
     0
 10
0.0
 20
0.0
 30
0.0
  3
AI9-BLK5
  1

  0
SPLINE
  5
5AC
330
5AB
100
AcDbEntity
  8
LAYER_1
 62
     7
100
AcDbSpline
210
0.0
220
0.0
230
1.0
 70
    11
 71
     3
 72
    32
 73
    28
 74
     0
 42
0.0000000001
 43
0.0000000001
 40
0.0
 40
0.0
 40
0.0
 40
0.0
 40
1.0
 40
1.0
 40
1.0
 40
2.0
 40
2.0
 40
2.0
 40
3.0
 40
3.0
 40
3.0
 40
4.0
 40
4.0
 40
4.0
 40
5.0
 40
5.0
 40
5.0
 40
6.0
 40
6.0
 40
6.0
 40
7.0
 40
7.0
 40
7.0
 40
8.0
 40
8.0
 40
8.0
 40
9.0
 40
9.0
 40
9.0
 40
9.0
 10
-2.62378472222222
 20
-8.268229166666666
 30
0.0
 10
-2.62378472222222
 20
-8.268229166666666
 30
0.0
 10
-2.62378472222222
 20
8.180034722222217
 30
0.0
 10
-2.62378472222222
 20
8.180034722222217
 30
0.0
 10
-2.62378472222222
 20
8.180034722222217
 30
0.0
 10
-0.3376193576388888
 20
8.180034722222217
 30
0.0
 10
-0.3376193576388888
 20
8.180034722222217
 30
0.0
 10
0.6972873263888888
 20
8.180034722222217
 30
0.0
 10
1.449007161458333
 20
7.445540364583332
 30
0.0
 10
1.918918185763885
 20
5.977929687499997
 30
0.0
 10
2.388829210069443
 20
4.510319010416666
 30
0.0
 10
2.62378472222222
 20
2.449462890624999
 30
0.0
 10
2.62378472222222
 20
-0.204638671875
 30
0.0
 10
2.62378472222222
 20
-0.8950358072916666
 30
0.0
 10
2.590022786458332
 20
-1.643310546874999
 30
0.0
 10
2.523187934027772
 20
-2.45015190972222
 30
0.0
 10
2.408121744791666
 20
-3.80200737847222
 30
0.0
 10
2.226220703124999
 20
-4.909950086805555
 30
0.0
 10
1.976795789930553
 20
-5.774669053819441
 30
0.0
 10
1.659847005208333
 20
-6.853672960069442
 30
0.0
 10
1.252636718749998
 20
-7.583344184027778
 30
0.0
 10
0.7544759114583333
 20
-7.962304687499997
 30
0.0
 10
0.4664659288194444
 20
-8.166254340277777
 30
0.0
 10
0.1074869791666666
 20
-8.268229166666666
 30
0.0
 10
-0.3231499565972222
 20
-8.268229166666666
 30
0.0
 10
-0.3231499565972222
 20
-8.268229166666666
 30
0.0
 10
-2.62378472222222
 20
-8.268229166666666
 30
0.0
 10
-2.62378472222222
 20
-8.268229166666666
 30
0.0
  0
SPLINE
  5
5AD
330
5AB
100
AcDbEntity
  8
LAYER_1
 62
     7
100
AcDbSpline
210
0.0
220
0.0
230
1.0
 70
    11
 71
     3
 72
    26
 73
    22
 74
     0
 42
0.0000000001
 43
0.0000000001
 40
0.0
 40
0.0
 40
0.0
 40
0.0
 40
1.0
 40
1.0
 40
1.0
 40
2.0
 40
2.0
 40
2.0
 40
3.0
 40
3.0
 40
3.0
 40
4.0
 40
4.0
 40
4.0
 40
5.0
 40
5.0
 40
5.0
 40
6.0
 40
6.0
 40
6.0
 40
7.0
 40
7.0
 40
7.0
 40
7.0
 10
-3.946701388888888
 20
-10.7376736111111
 30
0.0
 10
-3.946701388888888
 20
-10.7376736111111
 30
0.0
 10
-0.0943956163194444
 20
-10.7376736111111
 30
0.0
 10
-0.0943956163194444
 20
-10.7376736111111
 30
0.0
 10
1.546847873263885
 20
-10.7376736111111
 30
0.0
 10
2.705777994791666
 20
-9.11021050347222
 30
0.0
 10
3.381705729166666
 20
-5.854595269097222
 30
0.0
 10
3.757910156249999
 20
-4.01284722222222
 30
0.0
 10
3.946701388888888
 20
-1.951991102430555
 30
0.0
 10
3.946701388888888
 20
0.328662109375
 30
0.0
 10
3.946701388888888
 20
3.281797960069443
 30
0.0
 10
3.622862413194443
 20
5.703700086805552
 30
0.0
 10
2.976562499999998
 20
7.594368489583332
 30
0.0
 10
2.25171440972222
 20
9.689675564236106
 30
0.0
 10
1.233344184027777
 20
10.7376736111111
 30
0.0
 10
-0.0799262152777778
 20
10.7376736111111
 30
0.0
 10
-0.0799262152777778
 20
10.7376736111111
 30
0.0
 10
-3.946701388888888
 20
10.7376736111111
 30
0.0
 10
-3.946701388888888
 20
10.7376736111111
 30
0.0
 10
-3.946701388888888
 20
10.7376736111111
 30
0.0
 10
-3.946701388888888
 20
-10.7376736111111
 30
0.0
 10
-3.946701388888888
 20
-10.7376736111111
 30
0.0
  0
ENDBLK
  5
5AF
330
5AB
100
AcDbEntity
  8
0
100
AcDbBlockEnd
  0
BLOCK
  5
5B3
330
5B0
100
AcDbEntity
  8
0
 62
     7
100
AcDbBlockBegin
  2
AI9-BLK4
 70
     0
 10
0.0
 20
0.0
 30
0.0
  3
AI9-BLK4
  1

  0
SPLINE
  5
5B1
330
5B0
100
AcDbEntity
  8
LAYER_1
 62
     7
100
AcDbSpline
210
0.0
220
0.0
230
1.0
 70
    11
 71
     3
 72
    26
 73
    22
 74
     0
 42
0.0000000001
 43
0.0000000001
 40
0.0
 40
0.0
 40
0.0
 40
0.0
 40
1.0
 40
1.0
 40
1.0
 40
2.0
 40
2.0
 40
2.0
 40
3.0
 40
3.0
 40
3.0
 40
4.0
 40
4.0
 40
4.0
 40
5.0
 40
5.0
 40
5.0
 40
6.0
 40
6.0
 40
6.0
 40
7.0
 40
7.0
 40
7.0
 40
7.0
 10
-2.645833333333333
 20
0.9039930555555551
 30
0.0
 10
-2.645833333333333
 20
0.9039930555555551
 30
0.0
 10
-2.645833333333333
 20
8.180034722222217
 30
0.0
 10
-2.645833333333333
 20
8.180034722222217
 30
0.0
 10
-2.645833333333333
 20
8.180034722222217
 30
0.0
 10
0.465087890625
 20
8.180034722222217
 30
0.0
 10
0.465087890625
 20
8.180034722222217
 30
0.0
 10
0.9026150173611108
 20
8.180034722222217
 30
0.0
 10
1.24988064236111
 20
8.034651692708331
 30
0.0
 10
1.506884765625
 20
7.745263671874997
 30
0.0
 10
2.001600477430554
 20
7.194048394097221
 30
0.0
 10
2.248958333333332
 20
6.160519748263887
 30
0.0
 10
2.248958333333332
 20
4.643299696180553
 30
0.0
 10
2.248958333333332
 20
3.232188585069443
 30
0.0
 10
2.072569444444444
 20
2.256537543402775
 30
0.0
 10
1.720480685763888
 20
1.715657552083333
 30
0.0
 10
1.368391927083333
 20
1.174088541666665
 30
0.0
 10
0.8929687499999998
 20
0.9039930555555551
 30
0.0
 10
0.2942111545138888
 20
0.9039930555555551
 30
0.0
 10
0.2942111545138888
 20
0.9039930555555551
 30
0.0
 10
-2.645833333333333
 20
0.9039930555555551
 30
0.0
 10
-2.645833333333333
 20
0.9039930555555551
 30
0.0
  0
SPLINE
  5
5B2
330
5B0
100
AcDbEntity
  8
LAYER_1
 62
     7
100
AcDbSpline
210
0.0
220
0.0
230
1.0
 70
    11
 71
     3
 72
    68
 73
    64
 74
     0
 42
0.0000000001
 43
0.0000000001
 40
0.0
 40
0.0
 40
0.0
 40
0.0
 40
1.0
 40
1.0
 40
1.0
 40
2.0
 40
2.0
 40
2.0
 40
3.0
 40
3.0
 40
3.0
 40
4.0
 40
4.0
 40
4.0
 40
5.0
 40
5.0
 40
5.0
 40
6.0
 40
6.0
 40
6.0
 40
7.0
 40
7.0
 40
7.0
 40
8.0
 40
8.0
 40
8.0
 40
9.0
 40
9.0
 40
9.0
 40
10.0
 40
10.0
 40
10.0
 40
11.0
 40
11.0
 40
11.0
 40
12.0
 40
12.0
 40
12.0
 40
13.0
 40
13.0
 40
13.0
 40
14.0
 40
14.0
 40
14.0
 40
15.0
 40
15.0
 40
15.0
 40
16.0
 40
16.0
 40
16.0
 40
17.0
 40
17.0
 40
17.0
 40
18.0
 40
18.0
 40
18.0
 40
19.0
 40
19.0
 40
19.0
 40
20.0
 40
20.0
 40
20.0
 40
21.0
 40
21.0
 40
21.0
 40
21.0
 10
-3.968749999999998
 20
-10.7376736111111
 30
0.0
 10
-3.968749999999998
 20
-10.7376736111111
 30
0.0
 10
-2.645833333333333
 20
-10.7376736111111
 30
0.0
 10
-2.645833333333333
 20
-10.7376736111111
 30
0.0
 10
-2.645833333333333
 20
-10.7376736111111
 30
0.0
 10
-2.645833333333333
 20
-1.521354166666665
 30
0.0
 10
-2.645833333333333
 20
-1.521354166666665
 30
0.0
 10
-2.645833333333333
 20
-1.521354166666665
 30
0.0
 10
0.2390896267361111
 20
-1.521354166666665
 30
0.0
 10
0.2390896267361111
 20
-1.521354166666665
 30
0.0
 10
0.7599880642361111
 20
-1.521354166666665
 30
0.0
 10
1.143771701388887
 20
-1.65295681423611
 30
0.0
 10
1.390440538194444
 20
-1.916162109374999
 30
0.0
 10
1.816254340277773
 20
-2.39434136284722
 30
0.0
 10
2.04363064236111
 20
-3.335541449652775
 30
0.0
 10
2.072569444444444
 20
-4.739762369791666
 30
0.0
 10
2.072569444444444
 20
-4.739762369791666
 30
0.0
 10
2.160763888888888
 20
-8.324039713541665
 30
0.0
 10
2.160763888888888
 20
-8.324039713541665
 30
0.0
 10
2.18005642361111
 20
-9.163264973958332
 30
0.0
 10
2.202794053819443
 20
-9.728949652777775
 30
0.0
 10
2.227598741319444
 20
-10.02109374999998
 30
0.0
 10
2.252403428819443
 20
-10.31392686631944
 30
0.0
 10
2.28892144097222
 20
-10.55301649305555
 30
0.0
 10
2.33853081597222
 20
-10.7376736111111
 30
0.0
 10
2.33853081597222
 20
-10.7376736111111
 30
0.0
 10
3.968749999999998
 20
-10.7376736111111
 30
0.0
 10
3.968749999999998
 20
-10.7376736111111
 30
0.0
 10
3.968749999999998
 20
-10.7376736111111
 30
0.0
 10
3.968749999999998
 20
-10.25260416666666
 30
0.0
 10
3.968749999999998
 20
-10.25260416666666
 30
0.0
 10
3.766867404513888
 20
-10.05830078125
 30
0.0
 10
3.625618489583333
 20
-9.621462673611112
 30
0.0
 10
3.545692274305555
 20
-8.942089843749997
 30
0.0
 10
3.49470486111111
 20
-8.543836805555555
 30
0.0
 10
3.459564887152775
 20
-7.937499999999999
 30
0.0
 10
3.439583333333333
 20
-7.121701388888887
 30
0.0
 10
3.439583333333333
 20
-7.121701388888887
 30
0.0
 10
3.395486111111106
 20
-4.232644314236106
 30
0.0
 10
3.395486111111106
 20
-4.232644314236106
 30
0.0
 10
3.375504557291666
 20
-2.981385633680555
 30
0.0
 10
3.26870659722222
 20
-2.077392578125
 30
0.0
 10
3.075781249999999
 20
-1.522043185763888
 30
0.0
 10
2.882166883680555
 20
-0.9666937934027776
 30
0.0
 10
2.592089843749999
 20
-0.5188313802083333
 30
0.0
 10
2.204861111111104
 20
-0.1770779079861111
 30
0.0
 10
2.63618706597222
 20
0.3197048611111111
 30
0.0
 10
2.971739366319443
 20
0.9770290798611107
 30
0.0
 10
3.211518012152775
 20
1.79558376736111
 30
0.0
 10
3.451296657986107
 20
2.613449435763888
 30
0.0
 10
3.571874999999999
 20
3.66558159722222
 30
0.0
 10
3.571874999999999
 20
4.951291232638888
 30
0.0
 10
3.571874999999999
 20
7.415912543402777
 30
0.0
 10
3.124701605902775
 20
9.106076388888887
 30
0.0
 10
2.231043836805555
 20
10.02178276909722
 30
0.0
 10
1.759754774305553
 20
10.498583984375
 30
0.0
 10
1.163753255208332
 20
10.7376736111111
 30
0.0
 10
0.443039279513889
 20
10.7376736111111
 30
0.0
 10
0.443039279513889
 20
10.7376736111111
 30
0.0
 10
-3.968749999999998
 20
10.7376736111111
 30
0.0
 10
-3.968749999999998
 20
10.7376736111111
 30
0.0
 10
-3.968749999999998
 20
10.7376736111111
 30
0.0
 10
-3.968749999999998
 20
-10.7376736111111
 30
0.0
 10
-3.968749999999998
 20
-10.7376736111111
 30
0.0
  0
ENDBLK
  5
5B4
330
5B0
100
AcDbEntity
  8
0
100
AcDbBlockEnd
  0
BLOCK
  5
5B8
330
5B5
100
AcDbEntity
  8
0
 62
     7
100
AcDbBlockBegin
  2
AI9-BLK3
 70
     0
 10
0.0
 20
0.0
 30
0.0
  3
AI9-BLK3
  1

  0
LWPOLYLINE
  5
5B6
330
5B5
100
AcDbEntity
  8
LAYER_1
 62
     7
100
AcDbPolyline
 90
        4
 70
     1
 43
0.0
 10
-0.6613722059461809
 20
10.7376736111111
 10
0.6613722059461809
 20
10.7376736111111
 10
0.6613722059461809
 20
-10.7376736111111
 10
-0.6613722059461809
 20
-10.7376736111111
  0
HATCH
  5
5B7
330
5B5
100
AcDbEntity
  8
LAYER_1
 62
     7
100
AcDbHatch
 10
0.0
 20
0.0
 30
0.0
210
0.0
220
0.0
230
1.0
  2
SOLID
 70
     1
 71
     0
 91
        1
 92
        3
 72
     0
 73
     1
 93
        4
 10
-0.6613722059461809
 20
10.7376736111111
 10
0.6613722059461809
 20
10.7376736111111
 10
0.6613722059461809
 20
-10.7376736111111
 10
-0.6613722059461809
 20
-10.7376736111111
 97
        0
 75
     2
 76
     1
 98
        1
 10
0.0
 20
0.0
  0
ENDBLK
  5
5B9
330
5B5
100
AcDbEntity
  8
0
100
AcDbBlockEnd
  0
BLOCK
  5
5BD
330
5BA
100
AcDbEntity
  8
0
 62
     7
100
AcDbBlockBegin
  2
AI9-BLK2
 70
     0
 10
0.0
 20
0.0
 30
0.0
  3
AI9-BLK2
  1

  0
LWPOLYLINE
  5
5BB
330
5BA
100
AcDbEntity
  8
LAYER_1
 62
     7
100
AcDbPolyline
 90
        7
 70
     1
 43
0.0
 10
-2.785704210069443
 20
10.7376736111111
 10
0.0
 20
-7.550960286458332
 10
2.771234809027776
 20
10.7376736111111
 10
4.233333333333331
 20
10.7376736111111
 10
0.6910861545138888
 20
-10.7376736111111
 10
-0.7055555555555558
 20
-10.7376736111111
 10
-4.233333333333331
 20
10.7376736111111
  0
HATCH
  5
5BC
330
5BA
100
AcDbEntity
  8
LAYER_1
 62
     7
100
AcDbHatch
 10
0.0
 20
0.0
 30
0.0
210
0.0
220
0.0
230
1.0
  2
SOLID
 70
     1
 71
     0
 91
        1
 92
        3
 72
     0
 73
     1
 93
        7
 10
-2.785704210069443
 20
10.7376736111111
 10
0.0
 20
-7.550960286458332
 10
2.771234809027776
 20
10.7376736111111
 10
4.233333333333331
 20
10.7376736111111
 10
0.6910861545138888
 20
-10.7376736111111
 10
-0.7055555555555558
 20
-10.7376736111111
 10
-4.233333333333331
 20
10.7376736111111
 97
        0
 75
     2
 76
     1
 98
        1
 10
0.0
 20
0.0
  0
ENDBLK
  5
5BE
330
5BA
100
AcDbEntity
  8
0
100
AcDbBlockEnd
  0
BLOCK
  5
5C2
330
5BF
100
AcDbEntity
  8
0
 62
     7
100
AcDbBlockBegin
  2
AI9-BLK1
 70
     0
 10
0.0
 20
0.0
 30
0.0
  3
AI9-BLK1
  1

  0
LWPOLYLINE
  5
5C0
330
5BF
100
AcDbEntity
  8
LAYER_1
 62
     7
100
AcDbPolyline
 90
       12
 70
     1
 43
0.0
 10
-3.571874999999999
 20
10.7376736111111
 10
3.483680555555555
 20
10.7376736111111
 10
3.483680555555555
 20
8.091840277777777
 10
-2.248958333333332
 20
8.091840277777777
 10
-2.248958333333332
 20
1.565451388888888
 10
3.042708333333333
 20
1.565451388888888
 10
3.042708333333333
 20
-0.9039930555555551
 10
-2.248958333333332
 20
-0.9039930555555551
 10
-2.248958333333332
 20
-8.180034722222217
 10
3.571874999999999
 20
-8.180034722222217
 10
3.571874999999999
 20
-10.7376736111111
 10
-3.571874999999999
 20
-10.7376736111111
  0
HATCH
  5
5C1
330
5BF
100
AcDbEntity
  8
LAYER_1
 62
     7
100
AcDbHatch
 10
0.0
 20
0.0
 30
0.0
210
0.0
220
0.0
230
1.0
  2
SOLID
 70
     1
 71
     0
 91
        1
 92
        3
 72
     0
 73
     1
 93
       12
 10
-3.571874999999999
 20
10.7376736111111
 10
3.483680555555555
 20
10.7376736111111
 10
3.483680555555555
 20
8.091840277777777
 10
-2.248958333333332
 20
8.091840277777777
 10
-2.248958333333332
 20
1.565451388888888
 10
3.042708333333333
 20
1.565451388888888
 10
3.042708333333333
 20
-0.9039930555555551
 10
-2.248958333333332
 20
-0.9039930555555551
 10
-2.248958333333332
 20
-8.180034722222217
 10
3.571874999999999
 20
-8.180034722222217
 10
3.571874999999999
 20
-10.7376736111111
 10
-3.571874999999999
 20
-10.7376736111111
 97
        0
 75
     2
 76
     1
 98
        1
 10
0.0
 20
0.0
  0
ENDBLK
  5
5C3
330
5BF
100
AcDbEntity
  8
0
100
AcDbBlockEnd
  0
BLOCK
  5
5E7
330
5C4
100
AcDbEntity
  8
0
100
AcDbBlockBegin
  2
HD_LLC_logo_OT5
 70
     0
 10
0.0
 20
0.0
 30
0.0
  3
HD_LLC_logo_OT5
  1

  0
SPLINE
  5
5C5
102
{ACAD_REACTORS
330
5E5
102
}
330
5C4
100
AcDbEntity
  8
LAYER_1
 62
     7
100
AcDbSpline
210
0.0
220
0.0
230
1.0
 70
    11
 71
     3
 72
   113
 73
   109
 74
     0
 42
0.0000000001
 43
0.0000000001
 40
0.0
 40
0.0
 40
0.0
 40
0.0
 40
1.0
 40
1.0
 40
1.0
 40
2.0
 40
2.0
 40
2.0
 40
3.0
 40
3.0
 40
3.0
 40
4.0
 40
4.0
 40
4.0
 40
5.0
 40
5.0
 40
5.0
 40
6.0
 40
6.0
 40
6.0
 40
7.0
 40
7.0
 40
7.0
 40
8.0
 40
8.0
 40
8.0
 40
9.0
 40
9.0
 40
9.0
 40
10.0
 40
10.0
 40
10.0
 40
11.0
 40
11.0
 40
11.0
 40
12.0
 40
12.0
 40
12.0
 40
13.0
 40
13.0
 40
13.0
 40
14.0
 40
14.0
 40
14.0
 40
15.0
 40
15.0
 40
15.0
 40
16.0
 40
16.0
 40
16.0
 40
17.0
 40
17.0
 40
17.0
 40
18.0
 40
18.0
 40
18.0
 40
19.0
 40
19.0
 40
19.0
 40
20.0
 40
20.0
 40
20.0
 40
21.0
 40
21.0
 40
21.0
 40
22.0
 40
22.0
 40
22.0
 40
23.0
 40
23.0
 40
23.0
 40
24.0
 40
24.0
 40
24.0
 40
25.0
 40
25.0
 40
25.0
 40
26.0
 40
26.0
 40
26.0
 40
27.0
 40
27.0
 40
27.0
 40
28.0
 40
28.0
 40
28.0
 40
29.0
 40
29.0
 40
29.0
 40
30.0
 40
30.0
 40
30.0
 40
31.0
 40
31.0
 40
31.0
 40
32.0
 40
32.0
 40
32.0
 40
33.0
 40
33.0
 40
33.0
 40
34.0
 40
34.0
 40
34.0
 40
35.0
 40
35.0
 40
35.0
 40
36.0
 40
36.0
 40
36.0
 40
36.0
 10
193.3039632161458
 20
186.1548733181423
 30
0.0
 10
193.3039632161458
 20
186.1860514322916
 30
0.0
 10
193.3039632161458
 20
219.6932223849826
 30
0.0
 10
193.3039632161458
 20
219.6932223849826
 30
0.0
 10
193.3039632161458
 20
219.6932223849826
 30
0.0
 10
193.2974175347219
 20
219.7488606770833
 30
0.0
 10
193.2974175347219
 20
219.7488606770833
 30
0.0
 10
191.5293945312499
 20
235.455740017361
 30
0.0
 10
175.1458984374999
 20
235.2467949761284
 30
0.0
 10
174.9808783637151
 20
235.2428331163193
 30
0.0
 10
174.9808783637151
 20
235.2428331163193
 30
0.0
 10
125.8827555338541
 20
235.2430053710937
 30
0.0
 10
125.8827555338541
 20
235.2430053710937
 30
0.0
 10
125.8827555338541
 20
235.2430053710937
 30
0.0
 10
125.8827555338541
 20
255.5278998480901
 30
0.0
 10
125.8827555338541
 20
255.5278998480901
 30
0.0
 10
125.8827555338541
 20
255.5278998480901
 30
0.0
 10
84.5626247829861
 20
255.5278998480901
 30
0.0
 10
84.5626247829861
 20
255.5278998480901
 30
0.0
 10
84.5626247829861
 20
255.5278998480901
 30
0.0
 10
84.55711263020829
 20
233.7919311523436
 30
0.0
 10
84.55711263020829
 20
233.7919311523436
 30
0.0
 10
84.55711263020829
 20
233.7919311523436
 30
0.0
 10
64.42052951388888
 20
233.7919311523436
 30
0.0
 10
64.42052951388888
 20
233.7919311523436
 30
0.0
 10
64.42052951388888
 20
233.7919311523436
 30
0.0
 10
64.41501736111111
 20
255.5278998480901
 30
0.0
 10
64.41501736111111
 20
255.5278998480901
 30
0.0
 10
64.41501736111111
 20
255.5278998480901
 30
0.0
 10
23.91757541232637
 20
255.5278998480901
 30
0.0
 10
23.91757541232637
 20
255.5278998480901
 30
0.0
 10
23.91757541232637
 20
255.5278998480901
 30
0.0
 10
23.91757541232637
 20
233.2393378363715
 30
0.0
 10
23.91757541232637
 20
233.2393378363715
 30
0.0
 10
23.91757541232637
 20
233.2393378363715
 30
0.0
 10
43.65624999999999
 20
233.2393378363715
 30
0.0
 10
43.65624999999999
 20
233.2393378363715
 30
0.0
 10
43.65624999999999
 20
233.2393378363715
 30
0.0
 10
43.65624999999999
 20
211.5188720703125
 30
0.0
 10
43.65624999999999
 20
211.5188720703125
 30
0.0
 10
43.65624999999999
 20
211.5188720703125
 30
0.0
 10
23.91757541232637
 20
211.5188720703125
 30
0.0
 10
23.91757541232637
 20
211.5188720703125
 30
0.0
 10
23.91757541232637
 20
211.5188720703125
 30
0.0
 10
23.91757541232637
 20
189.2303100585936
 30
0.0
 10
23.91757541232637
 20
189.2303100585936
 30
0.0
 10
23.91757541232637
 20
189.2303100585936
 30
0.0
 10
64.41501736111111
 20
189.2303100585936
 30
0.0
 10
64.41501736111111
 20
189.2303100585936
 30
0.0
 10
64.41501736111111
 20
189.2303100585936
 30
0.0
 10
64.42052951388888
 20
211.069976128472
 30
0.0
 10
64.42052951388888
 20
211.069976128472
 30
0.0
 10
64.42052951388888
 20
211.069976128472
 30
0.0
 10
84.55711263020829
 20
211.069976128472
 30
0.0
 10
84.55711263020829
 20
211.069976128472
 30
0.0
 10
84.55711263020829
 20
211.069976128472
 30
0.0
 10
84.5626247829861
 20
189.2303100585936
 30
0.0
 10
84.5626247829861
 20
189.2303100585936
 30
0.0
 10
84.5626247829861
 20
189.2303100585936
 30
0.0
 10
125.8827555338541
 20
189.2303100585936
 30
0.0
 10
125.8827555338541
 20
189.2303100585936
 30
0.0
 10
125.8827555338541
 20
189.2303100585936
 30
0.0
 10
125.8827555338541
 20
211.5188720703125
 30
0.0
 10
125.8827555338541
 20
211.5188720703125
 30
0.0
 10
125.8827555338541
 20
211.5188720703125
 30
0.0
 10
105.3213921440971
 20
211.5188720703125
 30
0.0
 10
105.3213921440971
 20
211.5188720703125
 30
0.0
 10
105.3213921440971
 20
211.5188720703125
 30
0.0
 10
105.3213921440971
 20
233.2393378363715
 30
0.0
 10
105.3213921440971
 20
233.2393378363715
 30
0.0
 10
105.3213921440971
 20
233.2393378363715
 30
0.0
 10
175.0046495225693
 20
233.243127441406
 30
0.0
 10
175.0046495225693
 20
233.243127441406
 30
0.0
 10
175.6268337673611
 20
233.2560465494791
 30
0.0
 10
189.7165852864583
 20
233.3962619357638
 30
0.0
 10
191.3037407769094
 20
219.5690266927083
 30
0.0
 10
191.3037407769094
 20
219.4332899305555
 30
0.0
 10
191.3037407769094
 20
186.1142211914062
 30
0.0
 10
191.3037407769094
 20
186.1142211914062
 30
0.0
 10
191.3037407769094
 20
186.1142211914062
 30
0.0
 10
191.3051188151039
 20
186.0880384657115
 30
0.0
 10
191.3051188151039
 20
186.0880384657115
 30
0.0
 10
191.3054633246526
 20
186.0787367078991
 30
0.0
 10
191.3109754774304
 20
185.9566080729166
 30
0.0
 10
191.3109754774304
 20
185.7399115668401
 30
0.0
 10
191.3109754774304
 20
184.2090833875865
 30
0.0
 10
191.0488037109374
 20
177.9643310546874
 30
0.0
 10
186.9866916232638
 20
173.5652886284722
 30
0.0
 10
184.2540418836804
 20
170.6064683702255
 30
0.0
 10
180.3224989149304
 20
169.0308539496526
 30
0.0
 10
175.300927734375
 20
168.8825425889756
 30
0.0
 10
175.300927734375
 20
168.8825425889756
 30
0.0
 10
107.0094889322916
 20
168.8828870985243
 30
0.0
 10
107.0094889322916
 20
168.8828870985243
 30
0.0
 10
107.0094889322916
 20
168.8828870985243
 30
0.0
 10
107.0094889322916
 20
166.8830091688368
 30
0.0
 10
107.0094889322916
 20
166.8830091688368
 30
0.0
 10
107.0094889322916
 20
166.8830091688368
 30
0.0
 10
175.3305555555555
 20
166.8830091688368
 30
0.0
 10
175.3305555555555
 20
166.8830091688368
 30
0.0
 10
180.9467502170138
 20
167.0485460069444
 30
0.0
 10
185.3571614583333
 20
168.8448187934026
 30
0.0
 10
188.4687717013888
 20
172.2223904079861
 30
0.0
 10
192.9649658203124
 20
177.1034016927083
 30
0.0
 10
193.3136094835069
 20
183.7202243381076
 30
0.0
 10
193.3136094835069
 20
185.6520616319443
 30
0.0
 10
193.3136094835069
 20
185.9247409396701
 30
0.0
 10
193.3070638020833
 20
186.0868326822916
 30
0.0
 10
193.3039632161458
 20
186.1548733181423
 30
0.0
  0
INSERT
  5
5C6
102
{ACAD_REACTORS
330
5E6
102
}
330
5C4
100
AcDbEntity
  8
LAYER_1
 62
     7
100
AcDbBlockReference
  2
AI9-BLK14
 10
159.5625257703993
 20
200.5118781195744
 30
0.0
  0
INSERT
  5
5C7
330
5C4
100
AcDbEntity
  8
LAYER_1
 62
     7
100
AcDbBlockReference
  2
AI9-BLK13
 10
27.69615614149305
 20
179.2145562065971
 30
0.0
 42
0.9200000000000001
  0
INSERT
  5
5C8
102
{ACAD_REACTORS
330
5D3
102
}
330
5C4
100
AcDbEntity
  8
LAYER_1
 62
     7
100
AcDbBlockReference
  2
AI9-BLK11
 10
44.76591525607638
 20
179.2145562065971
 30
0.0
 42
0.9200000000000001
  0
INSERT
  5
5C9
102
{ACAD_REACTORS
330
5E1
102
}
330
5C4
100
AcDbEntity
  8
LAYER_1
 62
     7
100
AcDbBlockReference
  2
AI9-BLK10
 10
54.04665798611111
 20
179.2145562065971
 30
0.0
 42
0.9200000000000001
  0
INSERT
  5
5CA
102
{ACAD_REACTORS
330
5E0
102
}
330
5C4
100
AcDbEntity
  8
LAYER_1
 62
     7
100
AcDbBlockReference
  2
AI9-BLK9
 10
62.79013807508679
 20
179.2145562065971
 30
0.0
 42
0.9
  0
INSERT
  5
5CB
330
5C4
100
AcDbEntity
  8
LAYER_1
 62
     7
100
AcDbBlockReference
  2
AI9-BLK8
 10
71.03046196831595
 20
179.2145562065971
 30
0.0
 42
0.9200000000000001
  0
INSERT
  5
5CC
330
5C4
100
AcDbEntity
  8
LAYER_1
 62
     7
100
AcDbBlockReference
  2
AI9-BLK7
 10
76.93793945312498
 20
179.2145562065971
 30
0.0
 42
0.9200000000000001
  0
INSERT
  5
5CD
102
{ACAD_REACTORS
330
5D4
102
}
330
5C4
100
AcDbEntity
  8
LAYER_1
 62
     7
100
AcDbBlockReference
  2
AI9-BLK6
 10
82.55602891710069
 20
179.2145562065971
 30
0.0
 42
0.9
  0
INSERT
  5
5CE
102
{ACAD_REACTORS
330
5E2
102
}
330
5C4
100
AcDbEntity
  8
LAYER_1
 62
     7
100
AcDbBlockReference
  2
AI9-BLK5
 10
94.32430284288193
 20
179.2145562065971
 30
0.0
 42
0.9200000000000001
  0
INSERT
  5
5CF
102
{ACAD_REACTORS
330
5E3
102
}
330
5C4
100
AcDbEntity
  8
LAYER_1
 62
     7
100
AcDbBlockReference
  2
AI9-BLK4
 10
103.2081705729166
 20
179.2145562065971
 30
0.0
 42
0.9200000000000001
  0
INSERT
  5
5D0
330
5C4
100
AcDbEntity
  8
LAYER_1
 62
     7
100
AcDbBlockReference
  2
AI9-BLK3
 10
108.850978597005
 20
179.2145562065971
 30
0.0
 42
0.9200000000000001
  0
INSERT
  5
5D1
330
5C4
100
AcDbEntity
  8
LAYER_1
 62
     7
100
AcDbBlockReference
  2
AI9-BLK2
 10
114.2045708550346
 20
179.2145562065971
 30
0.0
 42
0.9200000000000001
  0
INSERT
  5
5D2
330
5C4
100
AcDbEntity
  8
LAYER_1
 62
     7
100
AcDbBlockReference
  2
AI9-BLK1
 10
122.4125108506944
 20
179.2145562065971
 30
0.0
 42
0.9200000000000001
  0
HATCH
  5
5D3
330
5C4
100
AcDbEntity
  8
0
  6
Continuous
100
AcDbHatch
 10
0.0
 20
0.0
 30
0.0
210
0.0
220
0.0
230
1.0
  2
SOLID
 70
     1
 71
     1
 91
        2
 92
       16
 93
        1
 72
     4
 94
        3
 73
     0
 74
     0
 95
       26
 96
       22
 40
0.0
 40
0.0
 40
0.0
 40
0.0
 40
1.0
 40
1.0
 40
1.0
 40
2.0
 40
2.0
 40
2.0
 40
3.0
 40
3.0
 40
3.0
 40
4.0
 40
4.0
 40
4.0
 40
5.0
 40
5.0
 40
5.0
 40
6.0
 40
6.0
 40
6.0
 40
7.0
 40
7.0
 40
7.0
 40
7.0
 10
42.12008192274304
 20
180.046229817708
 10
42.12008192274304
 20
180.046229817708
 10
42.12008192274304
 20
186.7401881510414
 10
42.12008192274304
 20
186.7401881510414
 10
42.12008192274304
 20
186.7401881510414
 10
45.23100314670138
 20
186.7401881510414
 10
45.23100314670138
 20
186.7401881510414
 10
45.66853027343749
 20
186.7401881510414
 10
46.01579589843749
 20
186.6064357638887
 10
46.27280002170138
 20
186.3401987847214
 10
46.76751573350694
 20
185.8330807291664
 10
47.01487358940972
 20
184.8822343749995
 10
47.01487358940972
 20
183.4863919270832
 10
47.01487358940972
 20
182.188169704861
 10
46.83848470052082
 20
181.2905707465276
 10
46.48639594184028
 20
180.7929611545137
 10
46.13430718315971
 20
180.2947176649304
 10
45.65888400607638
 20
180.046229817708
 10
45.06012641059028
 20
180.046229817708
 10
45.06012641059028
 20
180.046229817708
 10
42.12008192274304
 20
180.046229817708
 10
42.12008192274304
 20
180.046229817708
 97
        1
330
5C8
 92
        1
 93
        1
 72
     4
 94
        3
 73
     0
 74
     0
 95
       68
 96
       64
 40
0.0
 40
0.0
 40
0.0
 40
0.0
 40
1.0
 40
1.0
 40
1.0
 40
2.0
 40
2.0
 40
2.0
 40
3.0
 40
3.0
 40
3.0
 40
4.0
 40
4.0
 40
4.0
 40
5.0
 40
5.0
 40
5.0
 40
6.0
 40
6.0
 40
6.0
 40
7.0
 40
7.0
 40
7.0
 40
8.0
 40
8.0
 40
8.0
 40
9.0
 40
9.0
 40
9.0
 40
10.0
 40
10.0
 40
10.0
 40
11.0
 40
11.0
 40
11.0
 40
12.0
 40
12.0
 40
12.0
 40
13.0
 40
13.0
 40
13.0
 40
14.0
 40
14.0
 40
14.0
 40
15.0
 40
15.0
 40
15.0
 40
16.0
 40
16.0
 40
16.0
 40
17.0
 40
17.0
 40
17.0
 40
18.0
 40
18.0
 40
18.0
 40
19.0
 40
19.0
 40
19.0
 40
20.0
 40
20.0
 40
20.0
 40
21.0
 40
21.0
 40
21.0
 40
21.0
 10
40.79716525607638
 20
169.3358964843748
 10
40.79716525607638
 20
169.3358964843748
 10
42.12008192274304
 20
169.3358964843748
 10
42.12008192274304
 20
169.3358964843748
 10
42.12008192274304
 20
169.3358964843748
 10
42.12008192274304
 20
177.8149103732637
 10
42.12008192274304
 20
177.8149103732637
 10
42.12008192274304
 20
177.8149103732637
 10
45.00500488281249
 20
177.8149103732637
 10
45.00500488281249
 20
177.8149103732637
 10
45.52590332031249
 20
177.8149103732637
 10
45.90968695746528
 20
177.6938359374998
 10
46.15635579427083
 20
177.4516870659716
 10
46.58216959635415
 20
177.0117621527776
 10
46.80954589843749
 20
176.1458580729164
 10
46.83848470052082
 20
174.8539748263887
 10
46.83848470052082
 20
174.8539748263887
 10
46.92667914496527
 20
171.5564396701385
 10
46.92667914496527
 20
171.5564396701385
 10
46.94597167968749
 20
170.7843524305554
 10
46.96870930989581
 20
170.2639225260415
 10
46.99351399739582
 20
169.9951499565971
 10
47.01831868489581
 20
169.725743489583
 10
47.0548366970486
 20
169.5057810329859
 10
47.10444607204859
 20
169.3358964843748
 10
47.10444607204859
 20
169.3358964843748
 10
48.73466525607638
 20
169.3358964843748
 10
48.73466525607638
 20
169.3358964843748
 10
48.73466525607638
 20
169.3358964843748
 10
48.73466525607638
 20
169.7821603732633
 10
48.73466525607638
 20
169.7821603732633
 10
48.53278266059028
 20
169.9609194878471
 10
48.39153374565971
 20
170.3628105468748
 10
48.31160753038194
 20
170.9878335503471
 10
48.26062011718749
 20
171.3542263454858
 10
48.22548014322915
 20
171.9120562065971
 10
48.20549858940971
 20
172.6625909288193
 10
48.20549858940971
 20
172.6625909288193
 10
48.16140136718749
 20
175.3205234374999
 10
48.16140136718749
 20
175.3205234374999
 10
48.14141981336803
 20
176.4716814236109
 10
48.03462185329859
 20
177.3033550347219
 10
47.84169650607638
 20
177.814276475694
 10
47.64808213975693
 20
178.3251979166665
 10
47.35800509982638
 20
178.7372313368054
 10
46.97077636718749
 20
179.0516445312498
 10
47.4021023220486
 20
179.5086846788193
 10
47.73765462239582
 20
180.1134229600693
 10
47.97743326822915
 20
180.866493272569
 10
48.21721191406249
 20
181.6189296874999
 10
48.33779025607638
 20
182.5868912760411
 10
48.33779025607638
 20
183.7697441406248
 10
48.33779025607638
 20
186.0371957465273
 10
47.89061686197913
 20
187.5921464843749
 10
46.99695909288194
 20
188.4345963541665
 10
46.52567003038194
 20
188.8732534722221
 10
45.92966851128472
 20
189.0932159288193
 10
45.20895453559027
 20
189.0932159288193
 10
45.20895453559027
 20
189.0932159288193
 10
40.79716525607638
 20
189.0932159288193
 10
40.79716525607638
 20
189.0932159288193
 10
40.79716525607638
 20
189.0932159288193
 10
40.79716525607638
 20
169.3358964843748
 10
40.79716525607638
 20
169.3358964843748
 97
        0
 75
     0
 76
     1
 98
        0
  0
HATCH
  5
5D4
330
5C4
100
AcDbEntity
  8
0
  6
Continuous
100
AcDbHatch
 10
0.0
 20
0.0
 30
0.0
210
0.0
220
0.0
230
1.0
  2
SOLID
 70
     1
 71
     1
 91
        1
 92
        1
 93
        1
 72
     4
 94
        3
 73
     0
 74
     0
 95
       59
 96
       55
 40
0.0
 40
0.0
 40
0.0
 40
0.0
 40
1.0
 40
1.0
 40
1.0
 40
2.0
 40
2.0
 40
2.0
 40
3.0
 40
3.0
 40
3.0
 40
4.0
 40
4.0
 40
4.0
 40
5.0
 40
5.0
 40
5.0
 40
6.0
 40
6.0
 40
6.0
 40
7.0
 40
7.0
 40
7.0
 40
8.0
 40
8.0
 40
8.0
 40
9.0
 40
9.0
 40
9.0
 40
10.0
 40
10.0
 40
10.0
 40
11.0
 40
11.0
 40
11.0
 40
12.0
 40
12.0
 40
12.0
 40
13.0
 40
13.0
 40
13.0
 40
14.0
 40
14.0
 40
14.0
 40
15.0
 40
15.0
 40
15.0
 40
16.0
 40
16.0
 40
16.0
 40
17.0
 40
17.0
 40
17.0
 40
18.0
 40
18.0
 40
18.0
 40
18.0
 10
85.61871880425345
 20
187.4658355034721
 10
86.29120144314232
 20
186.1797124565971
 10
86.66671685112847
 20
184.7193364800346
 10
86.7452650282118
 20
183.0840874565969
 10
86.7452650282118
 20
183.0840874565969
 10
85.42234836154511
 20
183.0840874565969
 10
85.42234836154511
 20
183.0840874565969
 10
85.27696533203123
 20
184.3156401909719
 10
84.99171142578125
 20
185.2917046440971
 10
84.56589762369791
 20
186.0122808159719
 10
84.14008382161458
 20
186.7322368706594
 10
83.53994818793401
 20
187.0925249565969
 10
82.76617974175342
 20
187.0925249565969
 10
81.81740044487847
 20
187.0925249565969
 10
81.05258924696178
 20
186.4240386284721
 10
80.47243516710068
 20
185.0883062065971
 10
79.89159206814234
 20
183.7525737847219
 10
79.6015150282118
 20
181.7049468315971
 10
79.6015150282118
 20
178.9454253472221
 10
79.6015150282118
 20
176.6844780815969
 10
79.86265326605901
 20
174.8514116753471
 10
80.38561876085069
 20
173.4456060112846
 10
80.90789523654512
 20
172.0391802300344
 10
81.69199896918403
 20
171.3365874565971
 10
82.73724093967013
 20
171.3365874565971
 10
83.69497748480901
 20
171.3365874565971
 10
84.42120361328125
 20
172.0794878472221
 10
84.91523030598958
 20
173.5665288628469
 10
85.18601481119791
 20
174.3491167534719
 10
85.38445231119791
 20
175.3785112847221
 10
85.51054280598959
 20
176.6547124565971
 10
85.51054280598959
 20
176.6547124565971
 10
86.83345947265625
 20
176.6547124565971
 10
86.83345947265625
 20
176.6547124565971
 10
86.72597249348957
 20
174.6157671440971
 10
86.35114610460069
 20
172.9061040581596
 10
85.70760226779514
 20
171.526343315972
 10
84.93727891710069
 20
169.8650493706596
 10
83.90375027126735
 20
169.0347124565971
 10
82.60701633029514
 20
169.0347124565971
 10
81.48598225911458
 20
169.0347124565971
 10
80.54547119140625
 20
169.7143608940971
 10
79.78479410807292
 20
171.0742778862845
 10
78.78020426432292
 20
172.8726177300344
 10
78.27859836154512
 20
175.6495024956596
 10
78.27859836154512
 20
179.4049321831594
 10
78.27859836154512
 20
182.2562310112846
 10
78.65342475043402
 20
184.5946929253469
 10
79.40445556640622
 20
186.4196978081596
 10
80.22301025390625
 20
188.4028325737846
 10
81.34955647786458
 20
189.3943999565971
 10
82.78271620008679
 20
189.3943999565971
 10
84.00090196397568
 20
189.3943999565971
 10
84.94623616536458
 20
188.7513384331594
 10
85.61871880425345
 20
187.4658355034721
 97
        1
330
5CD
 75
     0
 76
     1
 98
        1
 10
0.0
 20
0.0
  0
LINE
  5
5D5
102
{ACAD_REACTORS
330
5E4
102
}
330
5C4
100
AcDbEntity
  8
LAYER_1
 62
     7
100
AcDbLine
 10
34.65766059027778
 20
177.4497853732638
 30
0.0
 11
36.19830729166666
 21
186.1658769531249
 31
0.0
  0
LINE
  5
5D6
102
{ACAD_REACTORS
330
5E4
102
}
330
5C4
100
AcDbEntity
  8
LAYER_1
 62
     7
100
AcDbLine
 10
36.19830729166666
 20
186.1658769531249
 30
0.0
 11
37.67556423611111
 21
177.4497853732638
 31
0.0
  0
LINE
  5
5D7
102
{ACAD_REACTORS
330
5E4
102
}
330
5C4
100
AcDbEntity
  8
LAYER_1
 62
     7
100
AcDbLine
 10
37.67556423611111
 20
177.4497853732638
 30
0.0
 11
34.65766059027778
 21
177.4497853732638
 31
0.0
  0
LINE
  5
5D8
102
{ACAD_REACTORS
330
5E4
102
}
330
5C4
100
AcDbEntity
  8
LAYER_1
 62
     7
100
AcDbLine
 10
31.83957248263888
 20
169.3358964843748
 30
0.0
 11
33.22450086805555
 21
169.3358964843748
 31
0.0
  0
LINE
  5
5D9
102
{ACAD_REACTORS
330
5E4
102
}
330
5C4
100
AcDbEntity
  8
LAYER_1
 62
     7
100
AcDbLine
 10
33.22450086805555
 20
169.3358964843748
 30
0.0
 11
34.27043185763887
 21
175.2590353732638
 31
0.0
  0
LINE
  5
5DA
102
{ACAD_REACTORS
330
5E4
102
}
330
5C4
100
AcDbEntity
  8
LAYER_1
 62
     7
100
AcDbLine
 10
34.27043185763887
 20
175.2590353732638
 30
0.0
 11
38.04694552951389
 21
175.2590353732638
 31
0.0
  0
LINE
  5
5DB
102
{ACAD_REACTORS
330
5E4
102
}
330
5C4
100
AcDbEntity
  8
LAYER_1
 62
     7
100
AcDbLine
 10
38.04694552951389
 20
175.2590353732638
 30
0.0
 11
39.05015733506942
 21
169.3358964843748
 31
0.0
  0
LINE
  5
5DC
102
{ACAD_REACTORS
330
5E4
102
}
330
5C4
100
AcDbEntity
  8
LAYER_1
 62
     7
100
AcDbLine
 10
39.05015733506942
 20
169.3358964843748
 30
0.0
 11
40.43508572048611
 21
169.3358964843748
 31
0.0
  0
LINE
  5
5DD
102
{ACAD_REACTORS
330
5E4
102
}
330
5C4
100
AcDbEntity
  8
LAYER_1
 62
     7
100
AcDbLine
 10
40.43508572048611
 20
169.3358964843748
 30
0.0
 11
36.952783203125
 21
189.0932159288193
 31
0.0
  0
LINE
  5
5DE
102
{ACAD_REACTORS
330
5E4
102
}
330
5C4
100
AcDbEntity
  8
LAYER_1
 62
     7
100
AcDbLine
 10
36.952783203125
 20
189.0932159288193
 30
0.0
 11
35.47828233506943
 21
189.0932159288193
 31
0.0
  0
LINE
  5
5DF
102
{ACAD_REACTORS
330
5E4
102
}
330
5C4
100
AcDbEntity
  8
LAYER_1
 62
     7
100
AcDbLine
 10
35.47828233506943
 20
189.0932159288193
 30
0.0
 11
31.83957248263888
 21
169.3358964843748
 31
0.0
  0
HATCH
  5
5E0
330
5C4
100
AcDbEntity
  8
0
  6
Continuous
100
AcDbHatch
 10
0.0
 20
0.0
 30
0.0
210
0.0
220
0.0
230
1.0
  2
SOLID
 70
     1
 71
     1
 91
        2
 92
       16
 93
        1
 72
     4
 94
        3
 73
     0
 74
     0
 95
       29
 96
       25
 40
0.0
 40
0.0
 40
0.0
 40
0.0
 40
1.0
 40
1.0
 40
1.0
 40
2.0
 40
2.0
 40
2.0
 40
3.0
 40
3.0
 40
3.0
 40
4.0
 40
4.0
 40
4.0
 40
5.0
 40
5.0
 40
5.0
 40
6.0
 40
6.0
 40
6.0
 40
7.0
 40
7.0
 40
7.0
 40
8.0
 40
8.0
 40
8.0
 40
8.0
 10
62.85697292751734
 20
171.3365874565971
 10
61.88338894314235
 20
171.3365874565971
 10
61.18058946397566
 20
172.0714263237844
 10
60.74857449001735
 20
173.5411040581594
 10
60.31587049696178
 20
175.0107817925344
 10
60.10020751953123
 20
176.8165630425341
 10
60.10020751953123
 20
178.9578276909721
 10
60.10020751953123
 20
181.6342534722221
 10
60.35101047092013
 20
183.6589360894094
 10
60.85261637369789
 20
185.0324956597219
 10
61.35422227647566
 20
186.4054351128471
 10
62.00741238064235
 20
187.0925249565969
 10
62.81218668619789
 20
187.0925249565969
 10
63.6369425455729
 20
187.0925249565969
 10
64.28806559244789
 20
186.3992339409721
 10
64.76486680772568
 20
185.0126519097221
 10
65.24166802300347
 20
183.6260698784719
 10
65.48006863064235
 20
181.7961040581594
 10
65.48006863064235
 20
179.5239946831596
 10
65.48006863064235
 20
177.3734282769096
 10
65.27336290147568
 20
175.4715288628466
 10
64.86132948133678
 20
173.8176763237846
 10
64.4492960611979
 20
172.1632036675344
 10
63.78094753689235
 20
171.3365874565971
 10
62.85697292751734
 20
171.3365874565971
 97
        1
330
5CA
 92
        1
 93
        1
 72
     4
 94
        3
 73
     0
 74
     0
 95
       29
 96
       25
 40
0.0
 40
0.0
 40
0.0
 40
0.0
 40
1.0
 40
1.0
 40
1.0
 40
2.0
 40
2.0
 40
2.0
 40
3.0
 40
3.0
 40
3.0
 40
4.0
 40
4.0
 40
4.0
 40
5.0
 40
5.0
 40
5.0
 40
6.0
 40
6.0
 40
6.0
 40
7.0
 40
7.0
 40
7.0
 40
8.0
 40
8.0
 40
8.0
 40
8.0
 10
62.76119927300346
 20
189.4340874565971
 10
61.47273356119789
 20
189.4340874565971
 10
60.50121663411457
 20
188.2397417534719
 10
59.84733751085068
 20
185.8516704644094
 10
59.3395304361979
 20
183.9900786675344
 10
59.08597140842012
 20
181.7514556206596
 10
59.08597140842012
 20
179.1351812065971
 10
59.08597140842012
 20
176.2379937065971
 10
59.3836276584201
 20
173.8412407769094
 10
59.9789401584201
 20
171.9449224175346
 10
60.6424655490451
 20
169.9779106987846
 10
61.5602389865451
 20
168.9950249565971
 10
62.7315714518229
 20
168.9950249565971
 10
63.9904093424479
 20
168.9950249565971
 10
64.95641411675345
 20
170.1186773003469
 10
65.63027479383679
 20
172.3659819878471
 10
66.20629475911457
 20
174.2796636284719
 10
66.49430474175345
 20
176.6813774956589
 10
66.49430474175345
 20
179.5698833550344
 10
66.49430474175345
 20
182.2388677300341
 10
66.24005669487845
 20
184.4291216362844
 10
65.73293863932289
 20
186.1412651909719
 10
65.08870578342011
 20
188.3364800347219
 10
64.09789632161457
 20
189.4340874565971
 10
62.76119927300346
 20
189.4340874565971
 97
        0
 75
     0
 76
     1
 98
        0
  0
HATCH
  5
5E1
330
5C4
100
AcDbEntity
  8
0
  6
Continuous
100
AcDbHatch
 10
0.0
 20
0.0
 30
0.0
210
0.0
220
0.0
230
1.0
  2
SOLID
 70
     1
 71
     1
 91
        1
 92
        1
 93
        1
 72
     4
 94
        3
 73
     0
 74
     0
 95
       59
 96
       55
 40
0.0
 40
0.0
 40
0.0
 40
0.0
 40
1.0
 40
1.0
 40
1.0
 40
2.0
 40
2.0
 40
2.0
 40
3.0
 40
3.0
 40
3.0
 40
4.0
 40
4.0
 40
4.0
 40
5.0
 40
5.0
 40
5.0
 40
6.0
 40
6.0
 40
6.0
 40
7.0
 40
7.0
 40
7.0
 40
8.0
 40
8.0
 40
8.0
 40
9.0
 40
9.0
 40
9.0
 40
10.0
 40
10.0
 40
10.0
 40
11.0
 40
11.0
 40
11.0
 40
12.0
 40
12.0
 40
12.0
 40
13.0
 40
13.0
 40
13.0
 40
14.0
 40
14.0
 40
14.0
 40
15.0
 40
15.0
 40
15.0
 40
16.0
 40
16.0
 40
16.0
 40
17.0
 40
17.0
 40
17.0
 40
18.0
 40
18.0
 40
18.0
 40
18.0
 10
49.39440104166666
 20
189.0932159288193
 10
49.39440104166666
 20
189.0932159288193
 10
51.24786241319444
 20
189.0932159288193
 10
51.24786241319444
 20
189.0932159288193
 10
51.24786241319444
 20
189.0932159288193
 10
54.04665798611111
 20
172.3887471788193
 10
54.04665798611111
 20
172.3887471788193
 10
54.04665798611111
 20
172.3887471788193
 10
56.83994140624999
 20
189.0932159288193
 10
56.83994140624999
 20
189.0932159288193
 10
56.83994140624999
 20
189.0932159288193
 10
58.69891493055553
 20
189.0932159288193
 10
58.69891493055553
 20
189.0932159288193
 10
58.69891493055553
 20
189.0932159288193
 10
58.69891493055553
 20
169.3358964843748
 10
58.69891493055553
 20
169.3358964843748
 10
58.69891493055553
 20
169.3358964843748
 10
57.46419270833333
 20
169.3358964843748
 10
57.46419270833333
 20
169.3358964843748
 10
57.46419270833333
 20
169.3358964843748
 10
57.46419270833333
 20
180.9964422743054
 10
57.46419270833333
 20
180.9964422743054
 10
57.46419270833333
 20
181.3996011284721
 10
57.47108289930555
 20
182.0677291666664
 10
57.48624131944444
 20
183.0001924913193
 10
57.50071072048609
 20
183.9326558159721
 10
57.50828993055553
 20
184.932312282986
 10
57.50828993055553
 20
185.9997957899304
 10
57.50828993055553
 20
185.9997957899304
 10
54.700537109375
 20
169.3358964843748
 10
54.700537109375
 20
169.3358964843748
 10
54.700537109375
 20
169.3358964843748
 10
53.38382161458333
 20
169.3358964843748
 10
53.38382161458333
 20
169.3358964843748
 10
53.38382161458333
 20
169.3358964843748
 10
50.58502604166665
 20
185.9997957899304
 10
50.58502604166665
 20
185.9997957899304
 10
50.58502604166665
 20
185.9997957899304
 10
50.58502604166665
 20
185.3944236111109
 10
50.58502604166665
 20
185.3944236111109
 10
50.58502604166665
 20
184.9101258680554
 10
50.59191623263888
 20
184.1729029947915
 10
50.60707465277777
 20
183.1821210937498
 10
50.62154405381942
 20
182.1913391927082
 10
50.62912326388889
 20
181.4629908854165
 10
50.62912326388889
 20
180.9964422743054
 10
50.62912326388889
 20
180.9964422743054
 10
50.62912326388889
 20
169.3358964843748
 10
50.62912326388889
 20
169.3358964843748
 10
50.62912326388889
 20
169.3358964843748
 10
49.39440104166666
 20
169.3358964843748
 10
49.39440104166666
 20
169.3358964843748
 10
49.39440104166666
 20
169.3358964843748
 10
49.39440104166666
 20
189.0932159288193
 10
49.39440104166666
 20
189.0932159288193
 97
        1
330
5C9
 75
     0
 76
     1
 98
        1
 10
0.0
 20
0.0
  0
HATCH
  5
5E2
330
5C4
100
AcDbEntity
  8
0
  6
Continuous
100
AcDbHatch
 10
0.0
 20
0.0
 30
0.0
210
0.0
220
0.0
230
1.0
  2
SOLID
 70
     1
 71
     1
 91
        2
 92
       16
 93
        1
 72
     4
 94
        3
 73
     0
 74
     0
 95
       32
 96
       28
 40
0.0
 40
0.0
 40
0.0
 40
0.0
 40
1.0
 40
1.0
 40
1.0
 40
2.0
 40
2.0
 40
2.0
 40
3.0
 40
3.0
 40
3.0
 40
4.0
 40
4.0
 40
4.0
 40
5.0
 40
5.0
 40
5.0
 40
6.0
 40
6.0
 40
6.0
 40
7.0
 40
7.0
 40
7.0
 40
8.0
 40
8.0
 40
8.0
 40
9.0
 40
9.0
 40
9.0
 40
9.0
 10
91.70051812065969
 20
171.6077853732634
 10
91.70051812065969
 20
171.6077853732634
 10
91.70051812065969
 20
186.7401881510414
 10
91.70051812065969
 20
186.7401881510414
 10
91.70051812065969
 20
186.7401881510414
 10
93.98668348524305
 20
186.7401881510414
 10
93.98668348524305
 20
186.7401881510414
 10
95.02159016927082
 20
186.7401881510414
 10
95.77331000434028
 20
186.0644533420137
 10
96.24322102864582
 20
184.7142515190969
 10
96.71313205295138
 20
183.3640496961804
 10
96.94808756510417
 20
181.4680620659721
 10
96.94808756510417
 20
179.0262886284719
 10
96.94808756510417
 20
178.3911232638887
 10
96.91432562934028
 20
177.7027105034721
 10
96.84749077690971
 20
176.9604164496524
 10
96.7324245876736
 20
175.7167094184024
 10
96.55052354600693
 20
174.6974021267359
 10
96.30109863281248
 20
173.901860677083
 10
95.98414984809028
 20
172.9091770833332
 10
95.57693956163193
 20
172.2378795572914
 10
95.07877875434026
 20
171.8892358940971
 10
94.79076877170138
 20
171.7016022135415
 10
94.43178982204859
 20
171.6077853732634
 10
94.00115288628471
 20
171.6077853732634
 10
94.00115288628471
 20
171.6077853732634
 10
91.70051812065969
 20
171.6077853732634
 10
91.70051812065969
 20
171.6077853732634
 97
        1
330
5CE
 92
        1
 93
        1
 72
     4
 94
        3
 73
     0
 74
     0
 95
       26
 96
       22
 40
0.0
 40
0.0
 40
0.0
 40
0.0
 40
1.0
 40
1.0
 40
1.0
 40
2.0
 40
2.0
 40
2.0
 40
3.0
 40
3.0
 40
3.0
 40
4.0
 40
4.0
 40
4.0
 40
5.0
 40
5.0
 40
5.0
 40
6.0
 40
6.0
 40
6.0
 40
7.0
 40
7.0
 40
7.0
 40
7.0
 10
90.37760145399305
 20
169.3358964843748
 10
90.37760145399305
 20
169.3358964843748
 10
94.22990722656248
 20
169.3358964843748
 10
94.22990722656248
 20
169.3358964843748
 10
95.87115071614581
 20
169.3358964843748
 10
97.03008083767359
 20
170.8331625434026
 10
97.70600857204859
 20
173.8283285590274
 10
98.08221299913194
 20
175.5227367621523
 10
98.27100423177082
 20
177.4187243923609
 10
98.27100423177082
 20
179.5169253472221
 10
98.27100423177082
 20
182.233810329861
 10
97.94716525607638
 20
184.4619602864582
 10
97.30086534288195
 20
186.2013752170135
 10
96.57601725260416
 20
188.1290577256938
 10
95.5576470269097
 20
189.0932159288193
 10
94.24437662760416
 20
189.0932159288193
 10
94.24437662760416
 20
189.0932159288193
 10
90.37760145399305
 20
189.0932159288193
 10
90.37760145399305
 20
189.0932159288193
 10
90.37760145399305
 20
189.0932159288193
 10
90.37760145399305
 20
169.3358964843748
 10
90.37760145399305
 20
169.3358964843748
 97
        0
 75
     0
 76
     1
 98
        0
  0
HATCH
  5
5E3
330
5C4
100
AcDbEntity
  8
0
  6
Continuous
100
AcDbHatch
 10
0.0
 20
0.0
 30
0.0
210
0.0
220
0.0
230
1.0
  2
SOLID
 70
     1
 71
     1
 91
        2
 92
       16
 93
        1
 72
     4
 94
        3
 73
     0
 74
     0
 95
       26
 96
       22
 40
0.0
 40
0.0
 40
0.0
 40
0.0
 40
1.0
 40
1.0
 40
1.0
 40
2.0
 40
2.0
 40
2.0
 40
3.0
 40
3.0
 40
3.0
 40
4.0
 40
4.0
 40
4.0
 40
5.0
 40
5.0
 40
5.0
 40
6.0
 40
6.0
 40
6.0
 40
7.0
 40
7.0
 40
7.0
 40
7.0
 10
100.5623372395832
 20
180.046229817708
 10
100.5623372395832
 20
180.046229817708
 10
100.5623372395832
 20
186.7401881510414
 10
100.5623372395832
 20
186.7401881510414
 10
100.5623372395832
 20
186.7401881510414
 10
103.6732584635416
 20
186.7401881510414
 10
103.6732584635416
 20
186.7401881510414
 10
104.1107855902777
 20
186.7401881510414
 10
104.4580512152777
 20
186.6064357638887
 10
104.7150553385415
 20
186.3401987847214
 10
105.2097710503471
 20
185.8330807291664
 10
105.4571289062495
 20
184.8822343749995
 10
105.4571289062495
 20
183.4863919270832
 10
105.4571289062495
 20
182.188169704861
 10
105.280740017361
 20
181.2905707465276
 10
104.9286512586804
 20
180.7929611545137
 10
104.5765624999999
 20
180.2947176649304
 10
104.1011393229166
 20
180.046229817708
 10
103.5023817274304
 20
180.046229817708
 10
103.5023817274304
 20
180.046229817708
 10
100.5623372395832
 20
180.046229817708
 10
100.5623372395832
 20
180.046229817708
 97
        1
330
5CF
 92
        1
 93
        1
 72
     4
 94
        3
 73
     0
 74
     0
 95
       68
 96
       64
 40
0.0
 40
0.0
 40
0.0
 40
0.0
 40
1.0
 40
1.0
 40
1.0
 40
2.0
 40
2.0
 40
2.0
 40
3.0
 40
3.0
 40
3.0
 40
4.0
 40
4.0
 40
4.0
 40
5.0
 40
5.0
 40
5.0
 40
6.0
 40
6.0
 40
6.0
 40
7.0
 40
7.0
 40
7.0
 40
8.0
 40
8.0
 40
8.0
 40
9.0
 40
9.0
 40
9.0
 40
10.0
 40
10.0
 40
10.0
 40
11.0
 40
11.0
 40
11.0
 40
12.0
 40
12.0
 40
12.0
 40
13.0
 40
13.0
 40
13.0
 40
14.0
 40
14.0
 40
14.0
 40
15.0
 40
15.0
 40
15.0
 40
16.0
 40
16.0
 40
16.0
 40
17.0
 40
17.0
 40
17.0
 40
18.0
 40
18.0
 40
18.0
 40
19.0
 40
19.0
 40
19.0
 40
20.0
 40
20.0
 40
20.0
 40
21.0
 40
21.0
 40
21.0
 40
21.0
 10
99.23942057291661
 20
169.3358964843748
 10
99.23942057291661
 20
169.3358964843748
 10
100.5623372395832
 20
169.3358964843748
 10
100.5623372395832
 20
169.3358964843748
 10
100.5623372395832
 20
169.3358964843748
 10
100.5623372395832
 20
177.8149103732637
 10
100.5623372395832
 20
177.8149103732637
 10
100.5623372395832
 20
177.8149103732637
 10
103.4472601996527
 20
177.8149103732637
 10
103.4472601996527
 20
177.8149103732637
 10
103.9681586371527
 20
177.8149103732637
 10
104.3519422743053
 20
177.6938359374998
 10
104.5986111111109
 20
177.4516870659716
 10
105.0244249131943
 20
177.0117621527776
 10
105.2518012152777
 20
176.1458580729164
 10
105.280740017361
 20
174.8539748263887
 10
105.280740017361
 20
174.8539748263887
 10
105.3689344618053
 20
171.5564396701385
 10
105.3689344618053
 20
171.5564396701385
 10
105.3882269965277
 20
170.7843524305554
 10
105.4109646267359
 20
170.2639225260415
 10
105.4357693142359
 20
169.9951499565971
 10
105.4605740017358
 20
169.725743489583
 10
105.4970920138888
 20
169.5057810329859
 10
105.5467013888887
 20
169.3358964843748
 10
105.5467013888887
 20
169.3358964843748
 10
107.1769205729166
 20
169.3358964843748
 10
107.1769205729166
 20
169.3358964843748
 10
107.1769205729166
 20
169.3358964843748
 10
107.1769205729166
 20
169.7821603732633
 10
107.1769205729166
 20
169.7821603732633
 10
106.9750379774303
 20
169.9609194878471
 10
106.8337890624996
 20
170.3628105468748
 10
106.7538628472221
 20
170.9878335503471
 10
106.7028754340274
 20
171.3542263454858
 10
106.6677354600692
 20
171.9120562065971
 10
106.6477539062496
 20
172.6625909288193
 10
106.6477539062496
 20
172.6625909288193
 10
106.6036566840277
 20
175.3205234374999
 10
106.6036566840277
 20
175.3205234374999
 10
106.5836751302082
 20
176.4716814236109
 10
106.4768771701387
 20
177.3033550347219
 10
106.2839518229166
 20
177.814276475694
 10
106.0903374565971
 20
178.3251979166665
 10
105.8002604166666
 20
178.7372313368054
 10
105.4130316840276
 20
179.0516445312498
 10
105.8443576388885
 20
179.5086846788193
 10
106.179909939236
 20
180.1134229600693
 10
106.4196885850692
 20
180.866493272569
 10
106.6594672309027
 20
181.6189296874999
 10
106.7800455729166
 20
182.5868912760411
 10
106.7800455729166
 20
183.7697441406248
 10
106.7800455729166
 20
186.0371957465273
 10
106.3328721788193
 20
187.5921464843749
 10
105.4392144097221
 20
188.4345963541665
 10
104.9679253472221
 20
188.8732534722221
 10
104.3719238281249
 20
189.0932159288193
 10
103.6512098524303
 20
189.0932159288193
 10
103.6512098524303
 20
189.0932159288193
 10
99.23942057291661
 20
189.0932159288193
 10
99.23942057291661
 20
189.0932159288193
 10
99.23942057291661
 20
189.0932159288193
 10
99.23942057291661
 20
169.3358964843748
 10
99.23942057291661
 20
169.3358964843748
 97
        0
 75
     0
 76
     1
 98
        0
  0
HATCH
  5
5E4
330
5C4
100
AcDbEntity
  8
0
  6
Continuous
100
AcDbHatch
 10
0.0
 20
0.0
 30
0.0
210
0.0
220
0.0
230
1.0
  2
SOLID
 70
     1
 71
     1
 91
        2
 92
        1
 93
        8
 72
     1
 10
35.47828233506943
 20
189.0932159288193
 11
31.83957248263888
 21
169.3358964843748
 72
     1
 10
31.83957248263888
 20
169.3358964843748
 11
33.22450086805555
 21
169.3358964843748
 72
     1
 10
33.22450086805555
 20
169.3358964843748
 11
34.27043185763887
 21
175.2590353732638
 72
     1
 10
34.27043185763887
 20
175.2590353732638
 11
38.04694552951389
 21
175.2590353732638
 72
     1
 10
38.04694552951389
 20
175.2590353732638
 11
39.05015733506942
 21
169.3358964843748
 72
     1
 10
39.05015733506942
 20
169.3358964843748
 11
40.43508572048611
 21
169.3358964843748
 72
     1
 10
40.43508572048611
 20
169.3358964843748
 11
36.952783203125
 21
189.0932159288193
 72
     1
 10
36.952783203125
 20
189.0932159288193
 11
35.47828233506943
 21
189.0932159288193
 97
        8
330
5DF
330
5D8
330
5D9
330
5DA
330
5DB
330
5DC
330
5DD
330
5DE
 92
       16
 93
        3
 72
     1
 10
37.67556423611111
 20
177.4497853732638
 11
34.65766059027778
 21
177.4497853732638
 72
     1
 10
34.65766059027778
 20
177.4497853732638
 11
36.19830729166666
 21
186.1658769531249
 72
     1
 10
36.19830729166666
 20
186.1658769531249
 11
37.67556423611111
 21
177.4497853732638
 97
        3
330
5D7
330
5D5
330
5D6
 75
     0
 76
     1
 98
        1
 10
0.0
 20
0.0
  0
HATCH
  5
5E5
330
5C4
100
AcDbEntity
  8
0
  6
Continuous
100
AcDbHatch
 10
0.0
 20
0.0
 30
0.0
210
0.0
220
0.0
230
1.0
  2
SOLID
 70
     1
 71
     1
 91
        1
 92
        1
 93
        1
 72
     4
 94
        3
 73
     0
 74
     0
 95
      113
 96
      109
 40
0.0
 40
0.0
 40
0.0
 40
0.0
 40
1.0
 40
1.0
 40
1.0
 40
2.0
 40
2.0
 40
2.0
 40
3.0
 40
3.0
 40
3.0
 40
4.0
 40
4.0
 40
4.0
 40
5.0
 40
5.0
 40
5.0
 40
6.0
 40
6.0
 40
6.0
 40
7.0
 40
7.0
 40
7.0
 40
8.0
 40
8.0
 40
8.0
 40
9.0
 40
9.0
 40
9.0
 40
10.0
 40
10.0
 40
10.0
 40
11.0
 40
11.0
 40
11.0
 40
12.0
 40
12.0
 40
12.0
 40
13.0
 40
13.0
 40
13.0
 40
14.0
 40
14.0
 40
14.0
 40
15.0
 40
15.0
 40
15.0
 40
16.0
 40
16.0
 40
16.0
 40
17.0
 40
17.0
 40
17.0
 40
18.0
 40
18.0
 40
18.0
 40
19.0
 40
19.0
 40
19.0
 40
20.0
 40
20.0
 40
20.0
 40
21.0
 40
21.0
 40
21.0
 40
22.0
 40
22.0
 40
22.0
 40
23.0
 40
23.0
 40
23.0
 40
24.0
 40
24.0
 40
24.0
 40
25.0
 40
25.0
 40
25.0
 40
26.0
 40
26.0
 40
26.0
 40
27.0
 40
27.0
 40
27.0
 40
28.0
 40
28.0
 40
28.0
 40
29.0
 40
29.0
 40
29.0
 40
30.0
 40
30.0
 40
30.0
 40
31.0
 40
31.0
 40
31.0
 40
32.0
 40
32.0
 40
32.0
 40
33.0
 40
33.0
 40
33.0
 40
34.0
 40
34.0
 40
34.0
 40
35.0
 40
35.0
 40
35.0
 40
36.0
 40
36.0
 40
36.0
 40
36.0
 10
193.3039632161458
 20
186.1548733181423
 10
193.3039632161458
 20
186.1860514322916
 10
193.3039632161458
 20
219.6932223849826
 10
193.3039632161458
 20
219.6932223849826
 10
193.3039632161458
 20
219.6932223849826
 10
193.2974175347219
 20
219.7488606770833
 10
193.2974175347219
 20
219.7488606770833
 10
191.5293945312499
 20
235.455740017361
 10
175.1458984374999
 20
235.2467949761284
 10
174.9808783637151
 20
235.2428331163193
 10
174.9808783637151
 20
235.2428331163193
 10
125.8827555338541
 20
235.2430053710937
 10
125.8827555338541
 20
235.2430053710937
 10
125.8827555338541
 20
235.2430053710937
 10
125.8827555338541
 20
255.5278998480901
 10
125.8827555338541
 20
255.5278998480901
 10
125.8827555338541
 20
255.5278998480901
 10
84.5626247829861
 20
255.5278998480901
 10
84.5626247829861
 20
255.5278998480901
 10
84.5626247829861
 20
255.5278998480901
 10
84.55711263020829
 20
233.7919311523436
 10
84.55711263020829
 20
233.7919311523436
 10
84.55711263020829
 20
233.7919311523436
 10
64.42052951388888
 20
233.7919311523436
 10
64.42052951388888
 20
233.7919311523436
 10
64.42052951388888
 20
233.7919311523436
 10
64.41501736111111
 20
255.5278998480901
 10
64.41501736111111
 20
255.5278998480901
 10
64.41501736111111
 20
255.5278998480901
 10
23.91757541232637
 20
255.5278998480901
 10
23.91757541232637
 20
255.5278998480901
 10
23.91757541232637
 20
255.5278998480901
 10
23.91757541232637
 20
233.2393378363715
 10
23.91757541232637
 20
233.2393378363715
 10
23.91757541232637
 20
233.2393378363715
 10
43.65624999999999
 20
233.2393378363715
 10
43.65624999999999
 20
233.2393378363715
 10
43.65624999999999
 20
233.2393378363715
 10
43.65624999999999
 20
211.5188720703125
 10
43.65624999999999
 20
211.5188720703125
 10
43.65624999999999
 20
211.5188720703125
 10
23.91757541232637
 20
211.5188720703125
 10
23.91757541232637
 20
211.5188720703125
 10
23.91757541232637
 20
211.5188720703125
 10
23.91757541232637
 20
189.2303100585936
 10
23.91757541232637
 20
189.2303100585936
 10
23.91757541232637
 20
189.2303100585936
 10
64.41501736111111
 20
189.2303100585936
 10
64.41501736111111
 20
189.2303100585936
 10
64.41501736111111
 20
189.2303100585936
 10
64.42052951388888
 20
211.069976128472
 10
64.42052951388888
 20
211.069976128472
 10
64.42052951388888
 20
211.069976128472
 10
84.55711263020829
 20
211.069976128472
 10
84.55711263020829
 20
211.069976128472
 10
84.55711263020829
 20
211.069976128472
 10
84.5626247829861
 20
189.2303100585936
 10
84.5626247829861
 20
189.2303100585936
 10
84.5626247829861
 20
189.2303100585936
 10
125.8827555338541
 20
189.2303100585936
 10
125.8827555338541
 20
189.2303100585936
 10
125.8827555338541
 20
189.2303100585936
 10
125.8827555338541
 20
211.5188720703125
 10
125.8827555338541
 20
211.5188720703125
 10
125.8827555338541
 20
211.5188720703125
 10
105.3213921440971
 20
211.5188720703125
 10
105.3213921440971
 20
211.5188720703125
 10
105.3213921440971
 20
211.5188720703125
 10
105.3213921440971
 20
233.2393378363715
 10
105.3213921440971
 20
233.2393378363715
 10
105.3213921440971
 20
233.2393378363715
 10
175.0046495225693
 20
233.243127441406
 10
175.0046495225693
 20
233.243127441406
 10
175.6268337673611
 20
233.2560465494791
 10
189.7165852864583
 20
233.3962619357638
 10
191.3037407769094
 20
219.5690266927083
 10
191.3037407769094
 20
219.4332899305555
 10
191.3037407769094
 20
186.1142211914062
 10
191.3037407769094
 20
186.1142211914062
 10
191.3037407769094
 20
186.1142211914062
 10
191.3051188151039
 20
186.0880384657115
 10
191.3051188151039
 20
186.0880384657115
 10
191.3054633246526
 20
186.0787367078991
 10
191.3109754774304
 20
185.9566080729166
 10
191.3109754774304
 20
185.7399115668401
 10
191.3109754774304
 20
184.2090833875865
 10
191.0488037109374
 20
177.9643310546874
 10
186.9866916232638
 20
173.5652886284722
 10
184.2540418836804
 20
170.6064683702255
 10
180.3224989149304
 20
169.0308539496526
 10
175.300927734375
 20
168.8825425889756
 10
175.300927734375
 20
168.8825425889756
 10
107.0094889322916
 20
168.8828870985243
 10
107.0094889322916
 20
168.8828870985243
 10
107.0094889322916
 20
168.8828870985243
 10
107.0094889322916
 20
166.8830091688368
 10
107.0094889322916
 20
166.8830091688368
 10
107.0094889322916
 20
166.8830091688368
 10
175.3305555555555
 20
166.8830091688368
 10
175.3305555555555
 20
166.8830091688368
 10
180.9467502170138
 20
167.0485460069444
 10
185.3571614583333
 20
168.8448187934026
 10
188.4687717013888
 20
172.2223904079861
 10
192.9649658203124
 20
177.1034016927083
 10
193.3136094835069
 20
183.7202243381076
 10
193.3136094835069
 20
185.6520616319443
 10
193.3136094835069
 20
185.9247409396701
 10
193.3070638020833
 20
186.0868326822916
 10
193.3039632161458
 20
186.1548733181423
 97
        1
330
5C5
 75
     0
 76
     1
 98
        1
 10
0.0
 20
0.0
  0
HATCH
  5
5E6
330
5C4
100
AcDbEntity
  8
0
  6
Continuous
100
AcDbHatch
 10
0.0
 20
0.0
 30
0.0
210
0.0
220
0.0
230
1.0
  2
SOLID
 70
     1
 71
     1
 91
        2
 92
        1
 93
        1
 72
     4
 94
        3
 73
     0
 74
     0
 95
       23
 96
       19
 40
0.0
 40
0.0
 40
0.0
 40
0.0
 40
1.0
 40
1.0
 40
1.0
 40
2.0
 40
2.0
 40
2.0
 40
3.0
 40
3.0
 40
3.0
 40
4.0
 40
4.0
 40
4.0
 40
5.0
 40
5.0
 40
5.0
 40
6.0
 40
6.0
 40
6.0
 40
6.0
 10
148.6593153211804
 20
211.3929538302948
 10
148.6593153211804
 20
211.3929538302948
 10
148.6593153211804
 20
189.6308024088539
 10
148.6593153211804
 20
189.6308024088539
 10
148.6593153211804
 20
189.6308024088539
 10
161.3152180989583
 20
189.6308024088539
 10
161.3152180989583
 20
189.6308024088539
 10
162.8431179470483
 20
189.6308024088539
 10
170.4657362196178
 20
190.1880466037321
 10
170.4657362196178
 20
201.1911648220483
 10
170.4657362196178
 20
211.1288872612844
 10
162.3356553819444
 20
211.3914035373261
 10
162.2536621093749
 20
211.3927815755205
 10
162.2536621093749
 20
211.3927815755205
 10
149.6594265407986
 20
211.3929538302948
 10
149.6594265407986
 20
211.3929538302948
 10
149.6594265407986
 20
211.3929538302948
 10
148.6593153211804
 20
211.3929538302948
 10
148.6593153211804
 20
211.3929538302948
 97
        1
330
5C6
 92
       16
 93
        1
 72
     4
 94
        3
 73
     0
 74
     0
 95
       20
 96
       16
 40
0.0
 40
0.0
 40
0.0
 40
0.0
 40
1.0
 40
1.0
 40
1.0
 40
2.0
 40
2.0
 40
2.0
 40
3.0
 40
3.0
 40
3.0
 40
4.0
 40
4.0
 40
4.0
 40
5.0
 40
5.0
 40
5.0
 40
5.0
 10
162.2354031032983
 20
209.3930759006072
 10
162.467947048611
 20
209.3861857096351
 10
168.4655137803819
 20
209.1283203124997
 10
168.4655137803819
 20
201.1911648220483
 10
168.4655137803819
 20
192.3202162000865
 10
162.9926350911458
 20
191.6306803385413
 10
161.3152180989583
 20
191.6306803385413
 10
161.3152180989583
 20
191.6306803385413
 10
152.3310980902776
 20
191.6306803385413
 10
150.6595377604166
 20
191.6306803385413
 10
150.6595377604166
 20
193.3373806423608
 10
150.6595377604166
 20
207.6863755967879
 10
150.6595377604166
 20
209.3930759006072
 10
152.3538357204859
 20
209.3930759006072
 10
162.2354031032983
 20
209.3930759006072
 10
162.2354031032983
 20
209.3930759006072
 97
        0
 75
     0
 76
     1
 98
        0
  0
ENDBLK
  5
5E8
330
5C4
100
AcDbEntity
  8
0
100
AcDbBlockEnd
  0
BLOCK
  5
5EB
330
5E9
100
AcDbEntity
  8
0
100
AcDbBlockBegin
  2
HD logo-new
 70
     0
 10
0.0
 20
0.0
 30
0.0
  3
HD logo-new
  1

  0
INSERT
  5
5EA
330
5E9
100
AcDbEntity
  8
0
 62
     3
100
AcDbBlockReference
  2
HD_LLC_logo_OT5
 10
-27.1607188578505
 20
-68.37367811463031
 30
0.0
 41
0.2999999999999971
 42
0.3000000000000007
 43
0.3
  0
ENDBLK
  5
5EC
330
5E9
100
AcDbEntity
  8
0
100
AcDbBlockEnd
  0
BLOCK
  5
5F6
330
5F4
100
AcDbEntity
  8
0
100
AcDbBlockBegin
  2
HD LLC
 70
     0
 10
0.0
 20
0.0
 30
0.0
  3
HD LLC
  1

  0
MTEXT
  5
5F5
330
5F4
100
AcDbEntity
  8
0
100
AcDbMText
 10
-2.314970886968865
 20
1.247205085865914
 30
0.0
 40
5.675387507387601
 41
236.1828726592229
 71
     5
 72
     5
  1
Harmonic Drive LLC\P800-921-3332\Pwww.harmonicdrive.net
 73
     1
 44
1.0
  0
ENDBLK
  5
5F7
330
5F4
100
AcDbEntity
  8
0
100
AcDbBlockEnd
  0
ENDSEC
  0
SECTION
  2
ENTITIES
  0
LINE
  5
25B
330
1F
100
AcDbEntity
  8
LINE_CENTER
  6
DASHDOT
100
AcDbLine
 10
17.87495953318318
 20
23.22493496241408
 30
0.0
 11
16.28843953318318
 21
23.22493496241408
 31
0.0
  0
LINE
  5
25C
330
1F
100
AcDbEntity
  8
LINE_CENTER
  6
DASHDOT
100
AcDbLine
 10
17.93442515035239
 20
23.22493496241408
 30
0.0
 11
16.30098515035238
 21
23.22493496241408
 31
0.0
  0
LINE
  5
25D
330
1F
100
AcDbEntity
  8
SPACERS_PANCAKE
  6
Continuous
100
AcDbLine
 10
16.30625077428198
 20
25.74093496241408
 30
0.0
 11
16.48404015035239
 21
25.74093496241408
 31
0.0
  0
LINE
  5
25E
330
1F
100
AcDbEntity
  8
SPACERS_PANCAKE
  6
Continuous
100
AcDbLine
 10
16.30625077428198
 20
20.70893496241406
 30
0.0
 11
16.48404015035239
 21
20.70893496241406
 31
0.0
  0
LINE
  5
25F
330
1F
100
AcDbEntity
  8
LINE_CENTER
  6
DASHDOT
100
AcDbLine
 10
14.85586577428199
 20
23.22493496241408
 30
0.0
 11
16.48930577428198
 21
23.22493496241408
 31
0.0
  0
LINE
  5
260
330
1F
100
AcDbEntity
  8
1
 62
     3
100
AcDbLine
 10
15.73364046231718
 20
26.57138496241408
 30
0.0
 11
17.05664046231719
 21
26.57138496241408
 31
0.0
  0
LINE
  5
261
330
1F
100
AcDbEntity
  8
1
 62
     3
100
AcDbLine
 10
15.71365046231719
 20
25.74443496241408
 30
0.0
 11
17.07664046231718
 21
25.74443496241408
 31
0.0
  0
LINE
  5
262
330
1F
100
AcDbEntity
  8
1
 62
     3
100
AcDbLine
 10
15.73364046231718
 20
19.87848496241407
 30
0.0
 11
17.05664046231719
 21
19.87848496241407
 31
0.0
  0
LINE
  5
263
330
1F
100
AcDbEntity
  8
1
 62
     3
100
AcDbLine
 10
15.71365046231719
 20
20.70543496241409
 30
0.0
 11
17.07664046231718
 21
20.70543496241409
 31
0.0
  0
LINE
  5
264
330
1F
100
AcDbEntity
  8
LINE_CENTER
  6
DASHDOT
100
AcDbLine
 10
14.91533139145118
 20
23.22493496241408
 30
0.0
 11
16.50185139145118
 21
23.22493496241408
 31
0.0
  0
LINE
  5
265
330
1F
100
AcDbEntity
  8
SPLINE_CIRCULAR
100
AcDbLine
 10
15.66171139145119
 20
20.68543496241406
 30
0.0
 11
15.66171139145119
 21
20.46903496241407
 31
0.0
  0
LINE
  5
266
330
1F
100
AcDbEntity
  8
SPLINE_CIRCULAR
100
AcDbLine
 10
15.20971239145118
 20
20.46903396241407
 30
0.0
 11
15.20971239145118
 21
20.56773496241408
 31
0.0
  0
LINE
  5
267
330
1F
100
AcDbEntity
  8
1
 62
     3
100
AcDbLine
 10
15.67364046231718
 20
20.66543396241407
 30
0.0
 11
15.67364046231718
 21
19.93848496241406
 31
0.0
  0
LINE
  5
268
330
1F
100
AcDbEntity
  8
LINE_CENTER
  6
DASHDOT
100
AcDbLine
 10
9.335027931380103
 20
26.66113496241408
 30
0.0
 11
9.335027931380103
 21
19.78873496241408
 31
0.0
  0
CIRCLE
  5
269
330
1F
100
AcDbEntity
  8
SPLINE_CIRCULAR
100
AcDbCircle
 10
9.335027931380103
 20
23.22493496241408
 30
0.0
 40
3.3462
  0
CIRCLE
  5
26A
330
1F
100
AcDbEntity
  8
LINE_CENTER
  6
DASHDOT
100
AcDbCircle
 10
9.335027931380103
 20
23.22493496241408
 30
0.0
 40
2.952749999999998
  0
CIRCLE
  5
26B
330
1F
100
AcDbEntity
  8
SPLINE_CIRCULAR
  6
DOT
100
AcDbCircle
 10
9.335027931380103
 20
20.27218496241407
 30
0.0
 40
0.19685
  0
CIRCLE
  5
26C
330
1F
100
AcDbEntity
  8
SPLINE_CIRCULAR
100
AcDbCircle
 10
9.335027931380103
 20
20.27218496241407
 30
0.0
 40
0.17715
  0
LINE
  5
26D
330
1F
100
AcDbEntity
  8
LINE_CENTER
  6
DASHDOT
100
AcDbLine
 10
14.62912739145117
 20
20.27218496241407
 30
0.0
 11
16.13092839145118
 21
20.27218496241407
 31
0.0
  0
LINE
  5
26E
330
1F
100
AcDbEntity
  8
1
 62
     3
100
AcDbLine
 10
15.73364046231718
 20
19.87848496241407
 30
0.0
 11
15.67364046231718
 21
19.93848496241406
 31
0.0
  0
LINE
  5
26F
330
1F
100
AcDbEntity
  8
SPLINE_CIRCULAR
100
AcDbLine
 10
15.66171139145119
 20
20.07533496241407
 30
0.0
 11
15.66171139145119
 21
19.90873496241406
 31
0.0
  0
LINE
  5
270
330
1F
100
AcDbEntity
  8
SPLINE_CIRCULAR
100
AcDbLine
 10
15.20971239145118
 20
19.90873496241406
 30
0.0
 11
15.20971239145118
 21
20.07533496241407
 31
0.0
  0
LINE
  5
271
330
1F
100
AcDbEntity
  8
SPLINE_CIRCULAR
100
AcDbLine
 10
15.23971239145119
 20
19.87873496241407
 30
0.0
 11
15.63171039145118
 21
19.87873496241407
 31
0.0
  0
LINE
  5
272
330
1F
100
AcDbEntity
  8
SPLINE_CIRCULAR
100
AcDbLine
 10
15.23971239145119
 20
19.87873496241406
 30
0.0
 11
15.20971239145118
 21
19.90873496241406
 31
0.0
  0
LINE
  5
273
330
1F
100
AcDbEntity
  8
SPLINE_CIRCULAR
100
AcDbLine
 10
15.63171039145118
 20
19.87873496241407
 30
0.0
 11
15.66171139145119
 21
19.90873496241406
 31
0.0
  0
LINE
  5
274
330
1F
100
AcDbEntity
  8
SPLINE_CIRCULAR
100
AcDbLine
 10
15.68171139145118
 20
19.99193096241407
 30
0.0
 11
15.68171139145118
 21
19.99193196241408
 31
0.0
  0
LINE
  5
275
330
1F
100
AcDbEntity
  8
SPLINE_CIRCULAR
100
AcDbLine
 10
15.20971239145118
 20
20.44933496241406
 30
0.0
 11
15.66171139145119
 21
20.44933496241406
 31
0.0
  0
LINE
  5
276
330
1F
100
AcDbEntity
  8
SPLINE_CIRCULAR
100
AcDbLine
 10
15.20971239145118
 20
20.46903496241407
 30
0.0
 11
15.66171139145119
 21
20.46903496241407
 31
0.0
  0
LINE
  5
277
330
1F
100
AcDbEntity
  8
SPLINE_CIRCULAR
100
AcDbLine
 10
15.20971239145118
 20
20.07533496241407
 30
0.0
 11
15.66171139145119
 21
20.07533496241407
 31
0.0
  0
LINE
  5
278
330
1F
100
AcDbEntity
  8
SPLINE_CIRCULAR
100
AcDbLine
 10
15.20971239145118
 20
20.09503496241408
 30
0.0
 11
15.66171139145119
 21
20.09503496241408
 31
0.0
  0
LINE
  5
279
330
1F
100
AcDbEntity
  8
SPLINE_CIRCULAR
100
AcDbLine
 10
15.20971239145118
 20
20.07533496241407
 30
0.0
 11
15.20971239145118
 21
20.46903396241407
 31
0.0
  0
LINE
  5
27A
330
1F
100
AcDbEntity
  8
SPLINE_CIRCULAR
100
AcDbLine
 10
15.66171139145119
 20
20.46903496241407
 30
0.0
 11
15.66171139145119
 21
20.07533496241407
 31
0.0
  0
ARC
  5
27B
330
1F
100
AcDbEntity
  8
BEARING_1
  6
Continuous
100
AcDbCircle
 10
-8.504361659054005
 20
21.31254939878285
 30
0.0
 40
0.2343749999990625
210
0.0
220
0.0
230
-1.0
100
AcDbArc
 50
138.3729912822805
 51
265.7196026383469
  0
ARC
  5
27C
330
1F
100
AcDbEntity
  8
BEARING_1
  6
Continuous
100
AcDbCircle
 10
-8.772501663519955
 20
25.23261750652622
 30
0.0
 40
0.2343749999990625
210
0.0
220
0.0
230
-1.0
100
AcDbArc
 50
279.2425564996718
 51
46.58916785573835
  0
CIRCLE
  5
27D
330
1F
100
AcDbEntity
  8
BEARING_1
  6
Continuous
100
AcDbCircle
 10
9.335027931380103
 20
23.22493496241408
 30
0.0
 40
1.874999999992508
  0
CIRCLE
  5
27E
330
1F
100
AcDbEntity
  8
BEARING_1
  6
Continuous
100
AcDbCircle
 10
9.335027931380103
 20
23.22493496241408
 30
0.0
 40
2.294999999990828
  0
CIRCLE
  5
27F
330
1F
100
AcDbEntity
  8
WEAR_WASHER
100
AcDbCircle
 10
9.335027931380103
 20
23.22493496241408
 30
0.0
 40
2.645
  0
CIRCLE
  5
280
330
1F
100
AcDbEntity
  8
WEAR_WASHER
100
AcDbCircle
 10
9.335027931380103
 20
23.22493496241408
 30
0.0
 40
2.342499999999998
  0
CIRCLE
  5
281
330
1F
100
AcDbEntity
  8
WAVE_GENERATOR
100
AcDbCircle
 10
9.335027931380103
 20
23.22493496241408
 30
0.0
 40
0.9839999999999999
  0
CIRCLE
  5
282
330
1F
100
AcDbEntity
  8
WAVE_GENERATOR
100
AcDbCircle
 10
9.335027931380103
 20
23.22493496241408
 30
0.0
 40
1.7846
  0
LINE
  5
283
330
1F
100
AcDbEntity
  8
LINE_CENTER
  6
DASHDOT
100
AcDbLine
 10
5.898827931380102
 20
23.22493496241408
 30
0.0
 11
12.7712279313801
 21
23.22493496241408
 31
0.0
  0
CIRCLE
  5
284
330
1F
100
AcDbEntity
  8
SPLINE_CIRCULAR
100
AcDbCircle
 10
9.335027931380103
 20
23.22493496241408
 30
0.0
 40
2.6572
  0
ARC
  5
285
330
1F
100
AcDbEntity
  8
BEARING_1
  6
Continuous
100
AcDbCircle
 10
-7.483787251018547
 20
24.18417056607969
 30
0.0
 40
0.2343749999990625
210
0.0
220
0.0
230
-1.0
100
AcDbArc
 50
232.2860347605412
 51
359.6326461166078
  0
ARC
  5
286
330
1F
100
AcDbEntity
  8
BEARING_1
  6
Continuous
100
AcDbCircle
 10
-7.631645704460133
 20
22.02255649080937
 30
0.0
 40
0.2343749999990625
210
0.0
220
0.0
230
-1.0
100
AcDbArc
 50
352.5412669268703
 51
119.8878782829366
  0
CIRCLE
  5
287
330
1F
100
AcDbEntity
  8
SPLINE_CIRCULAR
  6
DOT
100
AcDbCircle
 10
6.777870931380102
 20
21.74855996241408
 30
0.0
 40
0.19685
  0
CIRCLE
  5
288
330
1F
100
AcDbEntity
  8
SPLINE_CIRCULAR
100
AcDbCircle
 10
6.777870931380102
 20
21.74855996241408
 30
0.0
 40
0.17715
  0
ARC
  5
289
330
1F
100
AcDbEntity
  8
BEARING_1
  6
Continuous
100
AcDbCircle
 10
-8.504361659054005
 20
21.31254939878285
 30
0.0
 40
0.2343749999990625
210
0.0
220
0.0
230
-1.0
100
AcDbArc
 50
321.2369191007833
 51
88.58353045684962
  0
ARC
  5
28A
330
1F
100
AcDbEntity
  8
BEARING_1
  6
Continuous
100
AcDbCircle
 10
-8.019209567465535
 20
21.60757692130182
 30
0.0
 40
0.2343749999990625
210
0.0
220
0.0
230
-1.0
100
AcDbArc
 50
154.0251651953241
 51
281.3717765513905
  0
ARC
  5
28B
330
1F
100
AcDbEntity
  8
BEARING_1
  6
Continuous
100
AcDbCircle
 10
-8.019209567465535
 20
21.60757692130182
 30
0.0
 40
0.2343749999990625
210
0.0
220
0.0
230
-1.0
100
AcDbArc
 50
336.8890930138268
 51
104.235704369893
  0
ARC
  5
28C
330
1F
100
AcDbEntity
  8
BEARING_1
  6
Continuous
100
AcDbCircle
 10
-7.631645704460133
 20
22.02255649080937
 30
0.0
 40
0.2343749999990625
210
0.0
220
0.0
230
-1.0
100
AcDbArc
 50
169.6773391083675
 51
297.0239504644339
  0
ARC
  5
28D
330
1F
100
AcDbEntity
  8
BEARING_1
  6
Continuous
100
AcDbCircle
 10
-7.370413908770212
 20
22.52671097104035
 30
0.0
 40
0.2343749999990625
210
0.0
220
0.0
230
-1.0
100
AcDbArc
 50
185.329513021411
 51
312.6761243774775
  0
ARC
  5
28E
330
1F
100
AcDbEntity
  8
BEARING_1
  6
Continuous
100
AcDbCircle
 10
-7.370413908770212
 20
22.52671097104035
 30
0.0
 40
0.2343749999990625
210
0.0
220
0.0
230
-1.0
100
AcDbArc
 50
8.193440839913826
 51
135.5400521959799
  0
ARC
  5
28F
330
1F
100
AcDbEntity
  8
BEARING_1
  6
Continuous
100
AcDbCircle
 10
-7.254888547626143
 20
23.0826495305493
 30
0.0
 40
0.2343749999990625
210
0.0
220
0.0
230
-1.0
100
AcDbArc
 50
200.9816869344545
 51
328.3282982905209
  0
ARC
  5
290
330
1F
100
AcDbEntity
  8
BEARING_1
  6
Continuous
100
AcDbCircle
 10
-7.254888547626143
 20
23.0826495305493
 30
0.0
 40
0.2343749999990625
210
0.0
220
0.0
230
-1.0
100
AcDbArc
 50
23.84561475295725
 51
151.1922261090234
  0
ARC
  5
291
330
1F
100
AcDbEntity
  8
BEARING_1
  6
Continuous
100
AcDbCircle
 10
-7.293637608570616
 20
23.64914074962713
 30
0.0
 40
0.2343749999990625
210
0.0
220
0.0
230
-1.0
100
AcDbArc
 50
216.6338608474979
 51
343.9804722035643
  0
ARC
  5
292
330
1F
100
AcDbEntity
  8
BEARING_1
  6
Continuous
100
AcDbCircle
 10
-7.293637608570616
 20
23.64914074962713
 30
0.0
 40
0.2343749999990625
210
0.0
220
0.0
230
-1.0
100
AcDbArc
 50
39.49778866600073
 51
166.8444000220669
  0
CIRCLE
  5
293
330
1F
100
AcDbEntity
  8
WAVE_GENERATOR
100
AcDbCircle
 10
8.306622931380102
 20
22.63118496241407
 30
0.0
 40
0.0625
  0
CIRCLE
  5
294
330
1F
100
AcDbEntity
  8
SPLINE_CIRCULAR
  6
DOT
100
AcDbCircle
 10
6.777870931380102
 20
24.70130996241408
 30
0.0
 40
0.19685
  0
CIRCLE
  5
295
330
1F
100
AcDbEntity
  8
SPLINE_CIRCULAR
100
AcDbCircle
 10
6.777870931380102
 20
24.70130996241408
 30
0.0
 40
0.17715
  0
ARC
  5
296
330
1F
100
AcDbEntity
  8
BEARING_1
  6
Continuous
100
AcDbCircle
 10
-7.811234945866302
 20
24.64805826601928
 30
0.0
 40
0.2343749999990625
210
0.0
220
0.0
230
-1.0
100
AcDbArc
 50
70.80213649208769
 51
198.1487478481539
  0
ARC
  5
297
330
1F
100
AcDbEntity
  8
BEARING_1
  6
Continuous
100
AcDbCircle
 10
-8.251695395560554
 20
25.00639942088639
 30
0.0
 40
0.2343749999990625
210
0.0
220
0.0
230
-1.0
100
AcDbArc
 50
263.5903825866283
 51
30.93699394269489
  0
ARC
  5
298
330
1F
100
AcDbEntity
  8
BEARING_1
  6
Continuous
100
AcDbCircle
 10
-7.483787251018547
 20
24.18417056607969
 30
0.0
 40
0.2343749999990625
210
0.0
220
0.0
230
-1.0
100
AcDbArc
 50
55.14996257904421
 51
182.4965739351105
  0
ARC
  5
299
330
1F
100
AcDbEntity
  8
BEARING_1
  6
Continuous
100
AcDbCircle
 10
-7.811234945866302
 20
24.64805826601928
 30
0.0
 40
0.2343749999990625
210
0.0
220
0.0
230
-1.0
100
AcDbArc
 50
247.9382086735848
 51
15.28482002965139
  0
ARC
  5
29A
330
1F
100
AcDbEntity
  8
BEARING_1
  6
Continuous
100
AcDbCircle
 10
-8.251695395560554
 20
25.00639942088639
 30
0.0
 40
0.2343749999990625
210
0.0
220
0.0
230
-1.0
100
AcDbArc
 50
86.45431040513114
 51
213.8009217611974
  0
ARC
  5
29B
330
1F
100
AcDbEntity
  8
BEARING_1
  6
Continuous
100
AcDbCircle
 10
-11.18626861174164
 20
24.18417056607969
 30
0.0
 40
0.2343749999990625
210
0.0
220
0.0
230
-1.0
100
AcDbArc
 50
180.3673538833919
 51
307.7139652394583
  0
ARC
  5
29C
330
1F
100
AcDbEntity
  8
BEARING_1
  6
Continuous
100
AcDbCircle
 10
-11.37641825418957
 20
23.64914074962713
 30
0.0
 40
0.2343749999990625
210
0.0
220
0.0
230
-1.0
100
AcDbArc
 50
13.15559997793283
 51
140.502211333999
  0
ARC
  5
29D
330
1F
100
AcDbEntity
  8
BEARING_1
  6
Continuous
100
AcDbCircle
 10
-11.37641825418957
 20
23.64914074962713
 30
0.0
 40
0.2343749999990625
210
0.0
220
0.0
230
-1.0
100
AcDbArc
 50
196.0195277964355
 51
323.3661391525018
  0
ARC
  5
29E
330
1F
100
AcDbEntity
  8
BEARING_1
  6
Continuous
100
AcDbCircle
 10
-11.41516731513406
 20
23.0826495305493
 30
0.0
 40
0.2343749999990625
210
0.0
220
0.0
230
-1.0
100
AcDbArc
 50
28.80777389097634
 51
156.1543852470425
  0
ARC
  5
29F
330
1F
100
AcDbEntity
  8
BEARING_1
  6
Continuous
100
AcDbCircle
 10
-11.41516731513406
 20
23.0826495305493
 30
0.0
 40
0.2343749999990625
210
0.0
220
0.0
230
-1.0
100
AcDbArc
 50
211.6717017094789
 51
339.0183130655453
  0
ARC
  5
2A0
330
1F
100
AcDbEntity
  8
BEARING_1
  6
Continuous
100
AcDbCircle
 10
-11.29964195398999
 20
22.52671097104035
 30
0.0
 40
0.2343749999990625
210
0.0
220
0.0
230
-1.0
100
AcDbArc
 50
44.45994780401978
 51
171.8065591600858
  0
ARC
  5
2A1
330
1F
100
AcDbEntity
  8
BEARING_1
  6
Continuous
100
AcDbCircle
 10
-11.29964195398999
 20
22.52671097104035
 30
0.0
 40
0.2343749999990625
210
0.0
220
0.0
230
-1.0
100
AcDbArc
 50
227.3238756225225
 51
354.6704869785887
  0
ARC
  5
2A2
330
1F
100
AcDbEntity
  8
BEARING_1
  6
Continuous
100
AcDbCircle
 10
-11.03841015830006
 20
22.02255649080937
 30
0.0
 40
0.2343749999990625
210
0.0
220
0.0
230
-1.0
100
AcDbArc
 50
60.11212171706325
 51
187.4587330731295
  0
ARC
  5
2A3
330
1F
100
AcDbEntity
  8
BEARING_1
  6
Continuous
100
AcDbCircle
 10
-10.16569420370619
 20
21.31254939878285
 30
0.0
 40
0.2343749999990625
210
0.0
220
0.0
230
-1.0
100
AcDbArc
 50
274.2803973616529
 51
41.62700871771924
  0
ARC
  5
2A4
330
1F
100
AcDbEntity
  8
BEARING_1
  6
Continuous
100
AcDbCircle
 10
-9.61893539474464
 20
21.15935476493657
 30
0.0
 40
0.2343749999990625
210
0.0
220
0.0
230
-1.0
100
AcDbArc
 50
107.0686434561936
 51
234.4152548122601
  0
ARC
  5
2A5
330
1F
100
AcDbEntity
  8
BEARING_1
  6
Continuous
100
AcDbCircle
 10
-9.61893539474464
 20
21.15935476493657
 30
0.0
 40
0.2343749999990625
210
0.0
220
0.0
230
-1.0
100
AcDbArc
 50
289.9325712746963
 51
57.27918263076269
  0
ARC
  5
2A6
330
1F
100
AcDbEntity
  8
BEARING_1
  6
Continuous
100
AcDbCircle
 10
-9.051120468015561
 20
21.15935476493657
 30
0.0
 40
0.2343749999990625
210
0.0
220
0.0
230
-1.0
100
AcDbArc
 50
122.7208173692371
 51
250.0674287253036
  0
ARC
  5
2A7
330
1F
100
AcDbEntity
  8
BEARING_1
  6
Continuous
100
AcDbCircle
 10
-9.051120468015561
 20
21.15935476493657
 30
0.0
 40
0.2343749999990625
210
0.0
220
0.0
230
-1.0
100
AcDbArc
 50
305.5847451877399
 51
72.93135654380617
  0
ARC
  5
2A8
330
1F
100
AcDbEntity
  8
BEARING_1
  6
Continuous
100
AcDbCircle
 10
-10.65084629529466
 20
21.60757692130182
 30
0.0
 40
0.2343749999990625
210
0.0
220
0.0
230
-1.0
100
AcDbArc
 50
258.6282234486095
 51
25.97483480467578
  0
ARC
  5
2A9
330
1F
100
AcDbEntity
  8
BEARING_1
  6
Continuous
100
AcDbCircle
 10
-10.16569420370619
 20
21.31254939878285
 30
0.0
 40
0.2343749999990625
210
0.0
220
0.0
230
-1.0
100
AcDbArc
 50
91.41646954315026
 51
218.7630808992166
  0
ARC
  5
2AA
330
1F
100
AcDbEntity
  8
BEARING_1
  6
Continuous
100
AcDbCircle
 10
-11.03841015830006
 20
22.02255649080937
 30
0.0
 40
0.2343749999990625
210
0.0
220
0.0
230
-1.0
100
AcDbArc
 50
242.9760495355659
 51
10.32266089163228
  0
ARC
  5
2AB
330
1F
100
AcDbEntity
  8
BEARING_1
  6
Continuous
100
AcDbCircle
 10
-10.65084629529466
 20
21.60757692130182
 30
0.0
 40
0.2343749999990625
210
0.0
220
0.0
230
-1.0
100
AcDbArc
 50
75.76429563010673
 51
203.110906986173
  0
ARC
  5
2AC
330
1F
100
AcDbEntity
  8
WAVE_GENERATOR
100
AcDbCircle
 10
9.335027931380103
 20
23.22493496241408
 30
0.0
 40
0.374
100
AcDbArc
 50
108.4075899999997
 51
0.000012806600012
  0
LINE
  5
2AD
330
1F
100
AcDbEntity
  8
WAVE_GENERATOR
100
AcDbLine
 10
9.216927931380102
 20
23.70893396241407
 30
0.0
 11
9.453127931380102
 21
23.70893396241407
 31
0.0
  0
LINE
  5
2AE
330
1F
100
AcDbEntity
  8
WAVE_GENERATOR
100
AcDbLine
 10
9.216927931380102
 20
23.70893396241407
 30
0.0
 11
9.216927931380102
 21
23.57979896241408
 31
0.0
  0
ARC
  5
2AF
330
1F
100
AcDbEntity
  8
WAVE_GENERATOR
100
AcDbCircle
 10
9.335027931380103
 20
23.22493496241408
 30
0.0
 40
0.374
100
AcDbArc
 50
0.0
 51
71.59238000000003
  0
LINE
  5
2B0
330
1F
100
AcDbEntity
  8
WAVE_GENERATOR
100
AcDbLine
 10
9.453127931380102
 20
23.70893396241407
 30
0.0
 11
9.453127931380102
 21
23.57979896241408
 31
0.0
  0
CIRCLE
  5
2B1
330
1F
100
AcDbEntity
  8
WAVE_GENERATOR
100
AcDbCircle
 10
10.3634329313801
 20
22.63118496241407
 30
0.0
 40
0.0625
  0
CIRCLE
  5
2B2
330
1F
100
AcDbEntity
  8
SPLINE_CIRCULAR
  6
DOT
100
AcDbCircle
 10
11.8921839313801
 20
21.74855996241408
 30
0.0
 40
0.19685
  0
CIRCLE
  5
2B3
330
1F
100
AcDbEntity
  8
SPLINE_CIRCULAR
100
AcDbCircle
 10
11.8921839313801
 20
21.74855996241408
 30
0.0
 40
0.17715
  0
ARC
  5
2B4
330
1F
100
AcDbEntity
  8
BEARING_1
  6
Continuous
100
AcDbCircle
 10
-11.18626861174164
 20
24.18417056607969
 30
0.0
 40
0.2343749999990625
210
0.0
220
0.0
230
-1.0
100
AcDbArc
 50
357.5034260648893
 51
124.8500374209557
  0
CIRCLE
  5
2B5
330
1F
100
AcDbEntity
  8
WAVE_GENERATOR
100
AcDbCircle
 10
9.335027931380103
 20
24.41243496241408
 30
0.0
 40
0.0625
  0
CIRCLE
  5
2B6
330
1F
100
AcDbEntity
  8
WAVE_GENERATOR
100
AcDbCircle
 10
9.335027931380103
 20
24.41243496241408
 30
0.0
 40
0.0625
  0
ARC
  5
2B7
330
1F
100
AcDbEntity
  8
BEARING_1
  6
Continuous
100
AcDbCircle
 10
-8.772501663519955
 20
25.23261750652622
 30
0.0
 40
0.2343749999990625
210
0.0
220
0.0
230
-1.0
100
AcDbArc
 50
102.1064843181745
 51
229.4530956742409
  0
ARC
  5
2B8
330
1F
100
AcDbEntity
  8
BEARING_1
  6
Continuous
100
AcDbCircle
 10
-9.335027931380103
 20
25.30993496240574
 30
0.0
 40
0.2343749999990625
210
0.0
220
0.0
230
-1.0
100
AcDbArc
 50
294.8947304127153
 51
62.24134176878183
  0
ARC
  5
2B9
330
1F
100
AcDbEntity
  8
BEARING_1
  6
Continuous
100
AcDbCircle
 10
-9.89755419924025
 20
25.23261750652622
 30
0.0
 40
0.2343749999990625
210
0.0
220
0.0
230
-1.0
100
AcDbArc
 50
310.5469043257588
 51
77.89351568182542
  0
ARC
  5
2BA
330
1F
100
AcDbEntity
  8
BEARING_1
  6
Continuous
100
AcDbCircle
 10
-9.335027931380103
 20
25.30993496240574
 30
0.0
 40
0.2343749999990625
210
0.0
220
0.0
230
-1.0
100
AcDbArc
 50
117.758658231218
 51
245.1052695872843
  0
ARC
  5
2BB
330
1F
100
AcDbEntity
  8
BEARING_1
  6
Continuous
100
AcDbCircle
 10
-10.41836046719964
 20
25.00639942088639
 30
0.0
 40
0.2343749999990625
210
0.0
220
0.0
230
-1.0
100
AcDbArc
 50
149.0630060573049
 51
276.4096174133714
  0
ARC
  5
2BC
330
1F
100
AcDbEntity
  8
BEARING_1
  6
Continuous
100
AcDbCircle
 10
-10.85882091689389
 20
24.64805826601928
 30
0.0
 40
0.2343749999990625
210
0.0
220
0.0
230
-1.0
100
AcDbArc
 50
341.8512521518458
 51
109.1978635079122
  0
ARC
  5
2BD
330
1F
100
AcDbEntity
  8
BEARING_1
  6
Continuous
100
AcDbCircle
 10
-10.85882091689389
 20
24.64805826601928
 30
0.0
 40
0.2343749999990625
210
0.0
220
0.0
230
-1.0
100
AcDbArc
 50
164.7151799703486
 51
292.0617913264146
  0
ARC
  5
2BE
330
1F
100
AcDbEntity
  8
BEARING_1
  6
Continuous
100
AcDbCircle
 10
-9.89755419924025
 20
25.23261750652622
 30
0.0
 40
0.2343749999990625
210
0.0
220
0.0
230
-1.0
100
AcDbArc
 50
133.4108321442615
 51
260.7574435003276
  0
ARC
  5
2BF
330
1F
100
AcDbEntity
  8
BEARING_1
  6
Continuous
100
AcDbCircle
 10
-10.41836046719964
 20
25.00639942088639
 30
0.0
 40
0.2343749999990625
210
0.0
220
0.0
230
-1.0
100
AcDbArc
 50
326.1990782388023
 51
93.54568959486885
  0
CIRCLE
  5
2C0
330
1F
100
AcDbEntity
  8
SPLINE_CIRCULAR
  6
DOT
100
AcDbCircle
 10
9.335027931380103
 20
26.17768496241408
 30
0.0
 40
0.19685
  0
CIRCLE
  5
2C1
330
1F
100
AcDbEntity
  8
SPLINE_CIRCULAR
100
AcDbCircle
 10
9.335027931380103
 20
26.17768496241408
 30
0.0
 40
0.17715
  0
CIRCLE
  5
2C2
330
1F
100
AcDbEntity
  8
SPLINE_CIRCULAR
100
AcDbCircle
 10
9.335027931380103
 20
26.17768396241408
 30
0.0
 40
0.17715
  0
CIRCLE
  5
2C3
330
1F
100
AcDbEntity
  8
SPLINE_CIRCULAR
  6
DOT
100
AcDbCircle
 10
11.8921849313801
 20
24.70130996241408
 30
0.0
 40
0.19685
  0
CIRCLE
  5
2C4
330
1F
100
AcDbEntity
  8
SPLINE_CIRCULAR
100
AcDbCircle
 10
11.8921849313801
 20
24.70130996241408
 30
0.0
 40
0.17715
  0
LINE
  5
2C5
330
1F
100
AcDbEntity
  8
WEAR_WASHER
100
AcDbLine
 10
15.03171239145117
 20
25.86993496241408
 30
0.0
 11
15.03171239145117
 21
20.57993496241409
 31
0.0
  0
LINE
  5
2C6
330
1F
100
AcDbEntity
  8
WEAR_WASHER
100
AcDbLine
 10
14.96971239145119
 20
25.86993496241408
 30
0.0
 11
14.96971239145119
 21
20.57993496241408
 31
0.0
  0
LINE
  5
2C7
330
1F
100
AcDbEntity
  8
SPLINE_CIRCULAR
100
AcDbLine
 10
15.03171239145117
 20
25.76443496241408
 30
0.0
 11
15.03171239145117
 21
20.68543496241406
 31
0.0
  0
LINE
  5
2C8
330
1F
100
AcDbEntity
  8
SPACERS_PANCAKE
  6
Continuous
100
AcDbLine
 10
16.30625077428198
 20
25.74093496241408
 30
0.0
 11
16.30625077428198
 21
20.70893496241406
 31
0.0
  0
LINE
  5
2C9
330
1F
100
AcDbEntity
  8
SPLINE_FLEX
100
AcDbLine
 10
15.04625077428198
 20
25.17378496241406
 30
0.0
 11
15.04625077428198
 21
20.79918496241407
 31
0.0
  0
LINE
  5
2CA
330
1F
100
AcDbEntity
  8
SPLINE_FLEX
100
AcDbLine
 10
16.30625077428198
 20
25.16636396241407
 30
0.0
 11
16.30625077428198
 21
20.79918496241407
 31
0.0
  0
LINE
  5
2CB
330
1F
100
AcDbEntity
  8
SPLINE_FLEX
100
AcDbLine
 10
15.05625077428198
 20
20.80918496241408
 30
0.0
 11
15.05625077428198
 21
25.64068496241407
 31
0.0
  0
LINE
  5
2CC
330
1F
100
AcDbEntity
  8
WAVE_GENERATOR
100
AcDbLine
 10
16.17781239145118
 20
24.20893496241408
 30
0.0
 11
16.17781239145118
 21
23.70893396241407
 31
0.0
  0
LINE
  5
2CD
330
1F
100
AcDbEntity
  8
WAVE_GENERATOR
100
AcDbLine
 10
15.26481239145118
 20
24.20893496241408
 30
0.0
 11
15.26481239145118
 21
23.70893396241407
 31
0.0
  0
LINE
  5
2CE
330
1F
100
AcDbEntity
  8
RETAINER_BEARING
100
AcDbLine
 10
16.05581239145118
 20
21.47993496241408
 30
0.0
 11
16.05581239145118
 21
22.24093496241408
 31
0.0
  0
LINE
  5
2CF
330
1F
100
AcDbEntity
  8
RETAINER_BEARING
100
AcDbLine
 10
15.93081239145118
 20
21.56993496241407
 30
0.0
 11
15.93081239145118
 21
22.24093496241408
 31
0.0
  0
ARC
  5
2D0
330
1F
100
AcDbEntity
  8
WAVE_GENERATOR
100
AcDbCircle
 10
15.92881239145119
 20
22.21093496241408
 30
0.0
 40
0.03
100
AcDbArc
 50
90.0
 51
180.0
  0
ARC
  5
2D1
330
1F
100
AcDbEntity
  8
WAVE_GENERATOR
100
AcDbCircle
 10
-15.36881239145118
 20
22.21093496241408
 30
0.0
 40
0.03
210
0.0
220
0.0
230
-1.0
100
AcDbArc
 50
90.0
 51
180.0
  0
LINE
  5
2D2
330
1F
100
AcDbEntity
  8
SPLINE_CIRCULAR
100
AcDbLine
 10
15.03171239145117
 20
20.68543496241406
 30
0.0
 11
15.05171239145119
 21
20.70543496241407
 31
0.0
  0
LINE
  5
2D3
330
1F
100
AcDbEntity
  8
SPLINE_CIRCULAR
100
AcDbLine
 10
15.06171239145118
 20
20.56773496241409
 30
0.0
 11
15.03171239145117
 21
20.59773496241408
 31
0.0
  0
LINE
  5
2D4
330
1F
100
AcDbEntity
  8
SPLINE_FLEX
100
AcDbLine
 10
15.04625077428198
 20
20.79918496241407
 30
0.0
 11
15.05625077428198
 21
20.80918496241408
 31
0.0
  0
LINE
  5
2D5
330
1F
100
AcDbEntity
  8
SPLINE_FLEX
100
AcDbLine
 10
15.07625077428198
 20
20.69793496241407
 30
0.0
 11
15.04625077428198
 21
20.72793496241406
 31
0.0
  0
LINE
  5
2D6
330
1F
100
AcDbEntity
  8
WEAR_WASHER
100
AcDbLine
 10
14.96971239145119
 20
20.57993496241409
 30
0.0
 11
15.03171239145117
 21
20.57993496241409
 31
0.0
  0
LINE
  5
2D7
330
1F
100
AcDbEntity
  8
WEAR_WASHER
100
AcDbLine
 10
14.96971239145119
 20
20.88243496241406
 30
0.0
 11
15.03171239145117
 21
20.88243496241406
 31
0.0
  0
LINE
  5
2D8
330
1F
100
AcDbEntity
  8
SPLINE_CIRCULAR
100
AcDbLine
 10
15.03171239145117
 20
20.68543496241406
 30
0.0
 11
15.03171239145117
 21
20.59773496241408
 31
0.0
  0
LINE
  5
2D9
330
1F
100
AcDbEntity
  8
SPLINE_FLEX
100
AcDbLine
 10
15.04625077428198
 20
20.79918496241407
 30
0.0
 11
15.04625077428198
 21
20.72793496241406
 31
0.0
  0
LINE
  5
2DA
330
1F
100
AcDbEntity
  8
RETAINER_BEARING
100
AcDbLine
 10
16.05581239145118
 20
21.09993496241406
 30
0.0
 11
16.05581239145118
 21
21.47993496241408
 31
0.0
  0
LINE
  5
2DB
330
1F
100
AcDbEntity
  8
RETAINER_BEARING
100
AcDbLine
 10
16.02381239145118
 20
21.47793496241408
 30
0.0
 11
16.02381239145118
 21
21.09993496241406
 31
0.0
  0
LINE
  5
2DC
330
1F
100
AcDbEntity
  8
BEARING_1
  6
Continuous
100
AcDbLine
 10
15.89881239144918
 20
21.47493496242107
 30
0.0
 11
15.89881239144918
 21
21.34993496242157
 31
0.0
  0
LINE
  5
2DD
330
1F
100
AcDbEntity
  8
BEARING_1
  6
Continuous
100
AcDbLine
 10
15.39881239145118
 20
21.47493496242107
 30
0.0
 11
15.39881239145118
 21
21.34993496242157
 31
0.0
  0
CIRCLE
  5
2DE
330
1F
100
AcDbEntity
  8
BEARING_1
  6
Continuous
100
AcDbCircle
 10
15.64881239145018
 20
21.13993496242242
 30
0.0
 40
0.2343749999990625
  0
LINE
  5
2DF
330
1F
100
AcDbEntity
  8
BEARING_1
  6
Continuous
100
AcDbLine
 10
16.00481239144875
 20
20.80918396242374
 30
0.0
 11
15.29281239145159
 21
20.80918396242374
 31
0.0
  0
LINE
  5
2E0
330
1F
100
AcDbEntity
  8
BEARING_1
  6
Continuous
100
AcDbLine
 10
15.74881439144979
 20
21.13993796242242
 30
0.0
 11
15.54881439145058
 21
21.13993796242242
 31
0.0
  0
LINE
  5
2E1
330
1F
100
AcDbEntity
  8
SPLINE_FLEX
100
AcDbLine
 10
15.07625077428198
 20
20.69793496241407
 30
0.0
 11
16.27625177428198
 21
20.69793496241407
 31
0.0
  0
LINE
  5
2E2
330
1F
100
AcDbEntity
  8
SPLINE_FLEX
100
AcDbLine
 10
15.05625077428198
 20
20.80918496241408
 30
0.0
 11
16.296250774282
 21
20.80918496241408
 31
0.0
  0
LINE
  5
2E3
330
1F
100
AcDbEntity
  8
1
 62
     3
100
AcDbLine
 10
15.71365046231719
 20
20.70543496241409
 30
0.0
 11
15.67364046231718
 21
20.66543396241407
 31
0.0
  0
LINE
  5
2E4
330
1F
100
AcDbEntity
  8
BEARING_1
  6
Continuous
100
AcDbLine
 10
15.29281239145159
 20
20.92993496242324
 30
0.0
 11
15.29281239145159
 21
20.80918396242374
 31
0.0
  0
LINE
  5
2E5
330
1F
100
AcDbEntity
  8
SPLINE_CIRCULAR
100
AcDbLine
 10
15.64171139145118
 20
20.70543496241407
 30
0.0
 11
15.05171239145119
 21
20.70543496241407
 31
0.0
  0
LINE
  5
2E6
330
1F
100
AcDbEntity
  8
SPLINE_CIRCULAR
100
AcDbLine
 10
15.06171239145118
 20
20.56773496241409
 30
0.0
 11
15.20971239145118
 21
20.56773496241408
 31
0.0
  0
LINE
  5
2E7
330
1F
100
AcDbEntity
  8
SPLINE_CIRCULAR
100
AcDbLine
 10
15.64171139145118
 20
20.70543496241407
 30
0.0
 11
15.66171139145119
 21
20.68543496241406
 31
0.0
  0
LINE
  5
2E8
330
1F
100
AcDbEntity
  8
BEARING_1
  6
Continuous
100
AcDbLine
 10
15.5447383914506
 20
20.92993496242324
 30
0.0
 11
15.29281239145159
 21
20.92993496242324
 31
0.0
  0
LINE
  5
2E9
330
1F
100
AcDbEntity
  8
BEARING_1
  6
Continuous
100
AcDbLine
 10
15.5447383914506
 20
21.34993496242157
 30
0.0
 11
15.39881239145118
 21
21.34993496242157
 31
0.0
  0
LINE
  5
2EA
330
1F
100
AcDbEntity
  8
BEARING_1
  6
Continuous
100
AcDbLine
 10
15.64881439145016
 20
21.23993796242201
 30
0.0
 11
15.64881439145016
 21
21.03993796242281
 31
0.0
  0
LINE
  5
2EB
330
1F
100
AcDbEntity
  8
BEARING_1
  6
Continuous
100
AcDbLine
 10
16.00481239144875
 20
20.92993496242324
 30
0.0
 11
16.00481239144875
 21
20.80918396242374
 31
0.0
  0
LINE
  5
2EC
330
1F
100
AcDbEntity
  8
SPLINE_FLEX
100
AcDbLine
 10
16.30625077428198
 20
20.79918496241407
 30
0.0
 11
16.30625077428198
 21
20.72793496241406
 31
0.0
  0
ARC
  5
2ED
330
1F
100
AcDbEntity
  8
SPLINE_FLEX
100
AcDbCircle
 10
-16.296250774282
 20
20.79918496241407
 30
0.0
 40
0.010000001
210
0.0
220
0.0
230
-1.0
100
AcDbArc
 50
90.0
 51
180.0
  0
LINE
  5
2EE
330
1F
100
AcDbEntity
  8
SPLINE_FLEX
100
AcDbLine
 10
16.27625177428198
 20
20.69793496241407
 30
0.0
 11
16.30625077428198
 21
20.72793496241406
 31
0.0
  0
LINE
  5
2EF
330
1F
100
AcDbEntity
  8
RETAINER_BEARING
100
AcDbLine
 10
16.05581239145118
 20
21.09993496241406
 30
0.0
 11
16.02381239145118
 21
21.09993496241406
 31
0.0
  0
LINE
  5
2F0
330
1F
100
AcDbEntity
  8
TABLE_TEXT
100
AcDbLine
 10
15.89533351669795
 20
21.28983942290376
 30
0.0
 11
16.00633351669796
 21
21.28983942290376
 31
0.0
  0
LINE
  5
2F1
330
1F
100
AcDbEntity
  8
TABLE_TEXT
100
AcDbLine
 10
15.89533351669795
 20
20.98283942290377
 30
0.0
 11
15.89533351669795
 21
21.28983942290376
 31
0.0
  0
LINE
  5
2F2
330
1F
100
AcDbEntity
  8
TABLE_TEXT
100
AcDbLine
 10
16.00633351669796
 20
21.28983942290376
 30
0.0
 11
16.00633351669796
 21
20.98283942290377
 31
0.0
  0
LINE
  5
2F3
330
1F
100
AcDbEntity
  8
TABLE_TEXT
100
AcDbLine
 10
16.00633351669796
 20
20.98283942290377
 30
0.0
 11
15.89533351669795
 21
20.98283942290377
 31
0.0
  0
LINE
  5
2F4
330
1F
100
AcDbEntity
  8
BEARING_1
  6
Continuous
100
AcDbLine
 10
15.89881239144918
 20
21.34993496242157
 30
0.0
 11
15.75288739144975
 21
21.34993496242157
 31
0.0
  0
LINE
  5
2F5
330
1F
100
AcDbEntity
  8
BEARING_1
  6
Continuous
100
AcDbLine
 10
16.00481239144875
 20
20.92993496242324
 30
0.0
 11
15.75288739144975
 21
20.92993496242324
 31
0.0
  0
LINE
  5
2F6
330
1F
100
AcDbEntity
  8
BEARING_1
  6
Continuous
100
AcDbLine
 10
15.89881239144918
 20
21.47493496242107
 30
0.0
 11
15.39881239145118
 21
21.47493496242107
 31
0.0
  0
LINE
  5
2F7
330
1F
100
AcDbEntity
  8
WAVE_GENERATOR
100
AcDbLine
 10
15.39881239145118
 20
21.44033496241406
 30
0.0
 11
15.83881239145117
 21
21.44033496241406
 31
0.0
  0
LINE
  5
2F8
330
1F
100
AcDbEntity
  8
WAVE_GENERATOR
100
AcDbLine
 10
15.39881239145118
 20
22.21093496241408
 30
0.0
 11
15.39881239145118
 21
21.44033496241406
 31
0.0
  0
LINE
  5
2F9
330
1F
100
AcDbEntity
  8
RETAINER_BEARING
100
AcDbLine
 10
15.89881239145118
 20
21.56793496241407
 30
0.0
 11
15.89881239145118
 21
22.21093496241408
 31
0.0
  0
LINE
  5
2FA
330
1F
100
AcDbEntity
  8
WAVE_GENERATOR
100
AcDbLine
 10
15.89881239145118
 20
22.21093496241408
 30
0.0
 11
15.89881239145118
 21
21.45641196241407
 31
0.0
  0
ARC
  5
2FB
330
1F
100
AcDbEntity
  8
RETAINER_BEARING
100
AcDbCircle
 10
15.99581239145118
 20
21.47993496241408
 30
0.0
 40
0.06
100
AcDbArc
 50
0.0
 51
90.0
  0
ARC
  5
2FC
330
1F
100
AcDbEntity
  8
RETAINER_BEARING
100
AcDbCircle
 10
-15.95881239145118
 20
21.56793496241407
 30
0.0
 40
0.06
210
0.0
220
0.0
230
-1.0
100
AcDbArc
 50
270.0
 51
0.0
  0
ARC
  5
2FD
330
1F
100
AcDbEntity
  8
RETAINER_BEARING
100
AcDbCircle
 10
-15.96081239145117
 20
21.56993496241407
 30
0.0
 40
0.03
210
0.0
220
0.0
230
-1.0
100
AcDbArc
 50
270.0
 51
0.0
  0
LINE
  5
2FE
330
1F
100
AcDbEntity
  8
RETAINER_BEARING
100
AcDbLine
 10
15.99581239145118
 20
21.53993496241408
 30
0.0
 11
15.96081239145117
 21
21.53993496241408
 31
0.0
  0
ARC
  5
2FF
330
1F
100
AcDbEntity
  8
RETAINER_BEARING
100
AcDbCircle
 10
15.99381239145118
 20
21.47793496241408
 30
0.0
 40
0.03
100
AcDbArc
 50
0.0
 51
90.0
  0
LINE
  5
300
330
1F
100
AcDbEntity
  8
RETAINER_BEARING
100
AcDbLine
 10
15.99381239145118
 20
21.50793496241408
 30
0.0
 11
15.95881239145118
 21
21.50793496241408
 31
0.0
  0
LINE
  5
301
330
1F
100
AcDbEntity
  8
WAVE_GENERATOR
100
AcDbLine
 10
15.83881239145117
 20
21.44033496241406
 30
0.0
 11
15.89881239145118
 21
21.45641196241407
 31
0.0
  0
LINE
  5
302
330
1F
100
AcDbEntity
  8
RETAINER_BEARING
100
AcDbLine
 10
15.93081239145118
 20
22.10168496241408
 30
0.0
 11
15.89881239145118
 21
22.10168496241408
 31
0.0
  0
LINE
  5
303
330
1F
100
AcDbEntity
  8
RETAINER_BEARING
100
AcDbLine
 10
15.93081239145118
 20
21.97318496241407
 30
0.0
 11
15.89881239145118
 21
21.97318496241407
 31
0.0
  0
LINE
  5
304
330
1F
100
AcDbEntity
  8
WAVE_GENERATOR
100
AcDbLine
 10
15.26481239145118
 20
23.70893396241407
 30
0.0
 11
15.26481239145118
 21
22.85093396241407
 31
0.0
  0
LINE
  5
305
330
1F
100
AcDbEntity
  8
WAVE_GENERATOR
100
AcDbLine
 10
16.17781239145118
 20
23.72184896241408
 30
0.0
 11
16.17781239145118
 21
22.85093396241407
 31
0.0
  0
LINE
  5
306
330
1F
100
AcDbEntity
  8
WAVE_GENERATOR
100
AcDbLine
 10
15.26481239145118
 20
22.85093396241407
 30
0.0
 11
16.17781239145118
 21
22.85093396241407
 31
0.0
  0
LINE
  5
307
330
1F
100
AcDbEntity
  8
WAVE_GENERATOR
100
AcDbLine
 10
15.26481239145118
 20
22.85093396241407
 30
0.0
 11
15.26481239145118
 21
22.24093496241408
 31
0.0
  0
LINE
  5
308
330
1F
100
AcDbEntity
  8
WAVE_GENERATOR
100
AcDbLine
 10
15.26481239145118
 20
22.24093496241408
 30
0.0
 11
15.36881239145118
 21
22.24093496241408
 31
0.0
  0
LINE
  5
309
330
1F
100
AcDbEntity
  8
WAVE_GENERATOR
100
AcDbLine
 10
16.17781239145118
 20
22.85093396241407
 30
0.0
 11
16.17781239145118
 21
22.24093496241408
 31
0.0
  0
LINE
  5
30A
330
1F
100
AcDbEntity
  8
WAVE_GENERATOR
100
AcDbLine
 10
15.92881239145119
 20
22.24093496241408
 30
0.0
 11
16.17781239145118
 21
22.24093496241408
 31
0.0
  0
LINE
  5
30B
330
1F
100
AcDbEntity
  8
WAVE_GENERATOR
100
AcDbLine
 10
15.26481239145118
 20
23.70893396241407
 30
0.0
 11
16.17781239145118
 21
23.70893396241407
 31
0.0
  0
LINE
  5
30C
330
1F
100
AcDbEntity
  8
WAVE_GENERATOR
100
AcDbLine
 10
15.26481239145118
 20
23.57979496241408
 30
0.0
 11
16.17781239145118
 21
23.57979496241408
 31
0.0
  0
ARC
  5
30D
330
1F
100
AcDbEntity
  8
SPLINE_FLEX
100
AcDbCircle
 10
16.296250774282
 20
25.65068496241408
 30
0.0
 40
0.010000001
100
AcDbArc
 50
270.0
 51
0.0
  0
LINE
  5
30E
330
1F
100
AcDbEntity
  8
SPLINE_FLEX
100
AcDbLine
 10
16.30625077428198
 20
25.65068496241408
 30
0.0
 11
16.30625077428198
 21
25.16636396241407
 31
0.0
  0
LINE
  5
30F
330
1F
100
AcDbEntity
  8
SPLINE_FLEX
100
AcDbLine
 10
15.05625077428198
 20
25.64068496241407
 30
0.0
 11
15.04625077428198
 21
25.65068496241408
 31
0.0
  0
LINE
  5
310
330
1F
100
AcDbEntity
  8
SPLINE_FLEX
100
AcDbLine
 10
15.04625077428198
 20
25.65068496241408
 30
0.0
 11
15.04625077428198
 21
25.17378496241406
 31
0.0
  0
LINE
  5
311
330
1F
100
AcDbEntity
  8
WEAR_WASHER
100
AcDbLine
 10
14.96971239145119
 20
25.56743496241407
 30
0.0
 11
15.03171239145117
 21
25.56743496241407
 31
0.0
  0
LINE
  5
312
330
1F
100
AcDbEntity
  8
RETAINER_BEARING
100
AcDbLine
 10
15.93081239145118
 20
24.20893496241408
 30
0.0
 11
15.93081239145118
 21
24.87993496241408
 31
0.0
  0
LINE
  5
313
330
1F
100
AcDbEntity
  8
RETAINER_BEARING
100
AcDbLine
 10
15.89881239145118
 20
24.23893496241408
 30
0.0
 11
15.89881239145118
 21
24.88193496241406
 31
0.0
  0
LINE
  5
314
330
1F
100
AcDbEntity
  8
RETAINER_BEARING
100
AcDbLine
 10
16.05581239145118
 20
24.20893496241408
 30
0.0
 11
16.05581239145118
 21
24.96993496241408
 31
0.0
  0
LINE
  5
315
330
1F
100
AcDbEntity
  8
WAVE_GENERATOR
100
AcDbLine
 10
15.89881239145118
 20
24.99345796241408
 30
0.0
 11
15.89881239145118
 21
24.47193496241409
 31
0.0
  0
LINE
  5
316
330
1F
100
AcDbEntity
  8
WAVE_GENERATOR
100
AcDbLine
 10
15.39881239145118
 20
25.00953496241407
 30
0.0
 11
15.39881239145118
 21
24.47193496241409
 31
0.0
  0
LINE
  5
317
330
1F
100
AcDbEntity
  8
LINE_CENTER
  6
DASHDOT
100
AcDbLine
 10
15.19363339145118
 20
24.41193496241409
 30
0.0
 11
16.22371539145118
 21
24.41193496241409
 31
0.0
  0
LINE
  5
318
330
1F
100
AcDbEntity
  8
WAVE_GENERATOR
100
AcDbLine
 10
15.39881239145118
 20
24.47193496241409
 30
0.0
 11
15.89881239145118
 21
24.47193496241409
 31
0.0
  0
LINE
  5
319
330
1F
100
AcDbEntity
  8
WAVE_GENERATOR
100
AcDbLine
 10
15.39881239145118
 20
24.34993496241409
 30
0.0
 11
15.89881239145118
 21
24.34993496241409
 31
0.0
  0
LINE
  5
31A
330
1F
100
AcDbEntity
  8
WAVE_GENERATOR
100
AcDbLine
 10
15.39881239145118
 20
24.47193496241409
 30
0.0
 11
15.39881239145118
 21
24.34993496241409
 31
0.0
  0
ARC
  5
31B
330
1F
100
AcDbEntity
  8
WAVE_GENERATOR
100
AcDbCircle
 10
-15.36881239145118
 20
24.23893496241408
 30
0.0
 40
0.03
210
0.0
220
0.0
230
-1.0
100
AcDbArc
 50
180.0
 51
270.0
  0
LINE
  5
31C
330
1F
100
AcDbEntity
  8
WAVE_GENERATOR
100
AcDbLine
 10
15.26481239145118
 20
24.20893496241408
 30
0.0
 11
15.36881239145118
 21
24.20893496241408
 31
0.0
  0
LINE
  5
31D
330
1F
100
AcDbEntity
  8
WAVE_GENERATOR
100
AcDbLine
 10
15.39881339145118
 20
24.35706396241409
 30
0.0
 11
15.39881339145118
 21
24.23893496241408
 31
0.0
  0
LINE
  5
31E
330
1F
100
AcDbEntity
  8
WAVE_GENERATOR
100
AcDbLine
 10
15.89881239145118
 20
24.47193496241409
 30
0.0
 11
15.89881239145118
 21
24.23893496241408
 31
0.0
  0
LINE
  5
31F
330
1F
100
AcDbEntity
  8
WAVE_GENERATOR
100
AcDbLine
 10
15.92881239145119
 20
24.20893496241408
 30
0.0
 11
16.17781239145118
 21
24.20893496241408
 31
0.0
  0
ARC
  5
320
330
1F
100
AcDbEntity
  8
WAVE_GENERATOR
100
AcDbCircle
 10
15.92881239145119
 20
24.23893496241408
 30
0.0
 40
0.03
100
AcDbArc
 50
180.0
 51
270.0
  0
LINE
  5
321
330
1F
100
AcDbEntity
  8
BEARING_1
  6
Continuous
100
AcDbLine
 10
15.89881239144918
 20
24.97493496240708
 30
0.0
 11
15.39881239145118
 21
24.97493496240708
 31
0.0
  0
CIRCLE
  5
322
330
1F
100
AcDbEntity
  8
BEARING_1
  6
Continuous
100
AcDbCircle
 10
-15.64881239145018
 20
25.30993496240574
 30
0.0
 40
0.2343749999990625
210
0.0
220
0.0
230
-1.0
  0
LINE
  5
323
330
1F
100
AcDbEntity
  8
BEARING_1
  6
Continuous
100
AcDbLine
 10
15.74881439144979
 20
25.30993196240574
 30
0.0
 11
15.54881439145058
 21
25.30993196240574
 31
0.0
  0
LINE
  5
324
330
1F
100
AcDbEntity
  8
BEARING_1
  6
Continuous
100
AcDbLine
 10
16.00481239144875
 20
25.64068596240442
 30
0.0
 11
15.29281239145159
 21
25.64068596240442
 31
0.0
  0
LINE
  5
325
330
1F
100
AcDbEntity
  8
SPLINE_FLEX
100
AcDbLine
 10
15.05625077428198
 20
25.64068496241407
 30
0.0
 11
16.296250774282
 21
25.64068496241407
 31
0.0
  0
LINE
  5
326
330
1F
100
AcDbEntity
  8
WAVE_GENERATOR
100
AcDbLine
 10
15.39881239145118
 20
25.00953496241407
 30
0.0
 11
15.83881239145117
 21
25.00953496241407
 31
0.0
  0
LINE
  5
327
330
1F
100
AcDbEntity
  8
BEARING_1
  6
Continuous
100
AcDbLine
 10
15.64881439145016
 20
25.20993196240613
 30
0.0
 11
15.64881439145016
 21
25.40993196240535
 31
0.0
  0
LINE
  5
328
330
1F
100
AcDbEntity
  8
BEARING_1
  6
Continuous
100
AcDbLine
 10
15.5447383914506
 20
25.09993496240658
 30
0.0
 11
15.39881239145118
 21
25.09993496240658
 31
0.0
  0
LINE
  5
329
330
1F
100
AcDbEntity
  8
BEARING_1
  6
Continuous
100
AcDbLine
 10
15.39881239145118
 20
24.97493496240708
 30
0.0
 11
15.39881239145118
 21
25.09993496240658
 31
0.0
  0
LINE
  5
32A
330
1F
100
AcDbEntity
  8
BEARING_1
  6
Continuous
100
AcDbLine
 10
15.5447383914506
 20
25.51993496240489
 30
0.0
 11
15.29281239145159
 21
25.51993496240489
 31
0.0
  0
LINE
  5
32B
330
1F
100
AcDbEntity
  8
BEARING_1
  6
Continuous
100
AcDbLine
 10
15.29281239145159
 20
25.51993496240489
 30
0.0
 11
15.29281239145159
 21
25.64068596240442
 31
0.0
  0
LINE
  5
32C
330
1F
100
AcDbEntity
  8
TABLE_TEXT
100
AcDbLine
 10
16.00633351669796
 20
25.16003050192439
 30
0.0
 11
16.00633351669796
 21
25.46703050192439
 31
0.0
  0
LINE
  5
32D
330
1F
100
AcDbEntity
  8
TABLE_TEXT
100
AcDbLine
 10
15.89533351669795
 20
25.46703050192439
 30
0.0
 11
15.89533351669795
 21
25.16003050192439
 31
0.0
  0
LINE
  5
32E
330
1F
100
AcDbEntity
  8
RETAINER_BEARING
100
AcDbLine
 10
16.05581239145118
 20
24.96993496241408
 30
0.0
 11
16.05581239145118
 21
25.34993496241408
 31
0.0
  0
LINE
  5
32F
330
1F
100
AcDbEntity
  8
RETAINER_BEARING
100
AcDbLine
 10
16.02381239145118
 20
24.97193496241409
 30
0.0
 11
16.02381239145118
 21
25.34993496241408
 31
0.0
  0
LINE
  5
330
330
1F
100
AcDbEntity
  8
RETAINER_BEARING
100
AcDbLine
 10
16.03823839145118
 20
24.92750896241409
 30
0.0
 11
16.05581239145118
 21
24.96993496241408
 31
0.0
  0
LINE
  5
331
330
1F
100
AcDbEntity
  8
TABLE_TEXT
100
AcDbLine
 10
15.89533351669795
 20
25.16003050192439
 30
0.0
 11
16.00633351669796
 21
25.16003050192439
 31
0.0
  0
LINE
  5
332
330
1F
100
AcDbEntity
  8
RETAINER_BEARING
100
AcDbLine
 10
15.99581239145118
 20
24.90993496241407
 30
0.0
 11
16.03823839145118
 21
24.92750896241409
 31
0.0
  0
LINE
  5
333
330
1F
100
AcDbEntity
  8
RETAINER_BEARING
100
AcDbLine
 10
15.99381239145118
 20
24.94193496241408
 30
0.0
 11
16.01502539145117
 21
24.95072196241409
 31
0.0
  0
LINE
  5
334
330
1F
100
AcDbEntity
  8
RETAINER_BEARING
100
AcDbLine
 10
16.01502539145117
 20
24.95072196241409
 30
0.0
 11
16.02381239145118
 21
24.97193496241409
 31
0.0
  0
POLYLINE
  5
335
330
1F
100
AcDbEntity
  8
RETAINER_BEARING
100
AcDb3dPolyline
 66
     1
 10
0.0
 20
0.0
 30
0.0
 70
     8
  0
VERTEX
  5
336
330
335
100
AcDbEntity
  8
RETAINER_BEARING
100
AcDbVertex
100
AcDb3dPolylineVertex
 10
15.89881239145118
 20
24.88193496241406
 30
0.0
 70
    32
  0
VERTEX
  5
337
330
335
100
AcDbEntity
  8
RETAINER_BEARING
100
AcDbVertex
100
AcDb3dPolylineVertex
 10
15.91638539145118
 20
24.92436096241409
 30
0.0
 70
    32
  0
VERTEX
  5
338
330
335
100
AcDbEntity
  8
RETAINER_BEARING
100
AcDbVertex
100
AcDb3dPolylineVertex
 10
15.95881239145118
 20
24.94193496241408
 30
0.0
 70
    32
  0
SEQEND
  5
339
330
335
100
AcDbEntity
  8
RETAINER_BEARING
  0
POLYLINE
  5
33A
330
1F
100
AcDbEntity
  8
RETAINER_BEARING
100
AcDb3dPolyline
 66
     1
 10
0.0
 20
0.0
 30
0.0
 70
     8
  0
VERTEX
  5
33B
330
33A
100
AcDbEntity
  8
RETAINER_BEARING
100
AcDbVertex
100
AcDb3dPolylineVertex
 10
15.96081239145117
 20
24.90993496241407
 30
0.0
 70
    32
  0
VERTEX
  5
33C
330
33A
100
AcDbEntity
  8
RETAINER_BEARING
100
AcDbVertex
100
AcDb3dPolylineVertex
 10
15.93959839145117
 20
24.90114796241408
 30
0.0
 70
    32
  0
VERTEX
  5
33D
330
33A
100
AcDbEntity
  8
RETAINER_BEARING
100
AcDbVertex
100
AcDb3dPolylineVertex
 10
15.93081239145118
 20
24.87993496241408
 30
0.0
 70
    32
  0
SEQEND
  5
33E
330
33A
100
AcDbEntity
  8
RETAINER_BEARING
  0
LINE
  5
33F
330
1F
100
AcDbEntity
  8
RETAINER_BEARING
100
AcDbLine
 10
15.99381239145118
 20
24.94193496241408
 30
0.0
 11
15.95881239145118
 21
24.94193496241408
 31
0.0
  0
LINE
  5
340
330
1F
100
AcDbEntity
  8
RETAINER_BEARING
100
AcDbLine
 10
15.99581239145118
 20
24.90993496241407
 30
0.0
 11
15.96081239145117
 21
24.90993496241407
 31
0.0
  0
LINE
  5
341
330
1F
100
AcDbEntity
  8
BEARING_1
  6
Continuous
100
AcDbLine
 10
15.89881239144918
 20
24.97493496240708
 30
0.0
 11
15.89881239144918
 21
25.09993496240658
 31
0.0
  0
LINE
  5
342
330
1F
100
AcDbEntity
  8
BEARING_1
  6
Continuous
100
AcDbLine
 10
15.89881239144918
 20
25.09993496240658
 30
0.0
 11
15.75288739144975
 21
25.09993496240658
 31
0.0
  0
LINE
  5
343
330
1F
100
AcDbEntity
  8
WAVE_GENERATOR
100
AcDbLine
 10
15.83881239145117
 20
25.00953496241407
 30
0.0
 11
15.89881239145118
 21
24.99345796241408
 31
0.0
  0
LINE
  5
344
330
1F
100
AcDbEntity
  8
RETAINER_BEARING
100
AcDbLine
 10
16.05581239145118
 20
25.34993496241408
 30
0.0
 11
16.02381239145118
 21
25.34993496241408
 31
0.0
  0
LINE
  5
345
330
1F
100
AcDbEntity
  8
TABLE_TEXT
100
AcDbLine
 10
16.00633351669796
 20
25.46703050192439
 30
0.0
 11
15.89533351669795
 21
25.46703050192439
 31
0.0
  0
LINE
  5
346
330
1F
100
AcDbEntity
  8
BEARING_1
  6
Continuous
100
AcDbLine
 10
16.00481239144875
 20
25.51993496240489
 30
0.0
 11
15.75288739144975
 21
25.51993496240489
 31
0.0
  0
LINE
  5
347
330
1F
100
AcDbEntity
  8
BEARING_1
  6
Continuous
100
AcDbLine
 10
16.00481239144875
 20
25.51993496240489
 30
0.0
 11
16.00481239144875
 21
25.64068596240442
 31
0.0
  0
LINE
  5
348
330
1F
100
AcDbEntity
  8
SPLINE_CIRCULAR
100
AcDbLine
 10
15.06171239145118
 20
25.88213496241408
 30
0.0
 11
15.03171239145117
 21
25.85213396241409
 31
0.0
  0
LINE
  5
349
330
1F
100
AcDbEntity
  8
SPLINE_CIRCULAR
100
AcDbLine
 10
15.05171239145119
 20
25.74443496241409
 30
0.0
 11
15.03171239145117
 21
25.76443496241408
 31
0.0
  0
LINE
  5
34A
330
1F
100
AcDbEntity
  8
SPLINE_FLEX
100
AcDbLine
 10
15.07625077428198
 20
25.75193496241408
 30
0.0
 11
15.04625077428198
 21
25.72193496241409
 31
0.0
  0
LINE
  5
34B
330
1F
100
AcDbEntity
  8
LINE_CENTER
  6
DASHDOT
100
AcDbLine
 10
14.80150139145119
 20
26.17768496241408
 30
0.0
 11
16.07225639145118
 21
26.17768496241408
 31
0.0
  0
LINE
  5
34C
330
1F
100
AcDbEntity
  8
WEAR_WASHER
100
AcDbLine
 10
14.96971239145119
 20
25.86993496241408
 30
0.0
 11
15.03171239145117
 21
25.86993496241408
 31
0.0
  0
LINE
  5
34D
330
1F
100
AcDbEntity
  8
SPLINE_CIRCULAR
100
AcDbLine
 10
15.03171239145117
 20
25.85213396241409
 30
0.0
 11
15.03171239145117
 21
25.76443496241408
 31
0.0
  0
LINE
  5
34E
330
1F
100
AcDbEntity
  8
SPLINE_FLEX
100
AcDbLine
 10
15.04625077428198
 20
25.72193496241409
 30
0.0
 11
15.04625077428198
 21
25.65068496241408
 31
0.0
  0
LINE
  5
34F
330
1F
100
AcDbEntity
  8
SPLINE_CIRCULAR
100
AcDbLine
 10
15.66171139145119
 20
26.54113496241408
 30
0.0
 11
15.66171139145119
 21
26.37453496241409
 31
0.0
  0
LINE
  5
350
330
1F
100
AcDbEntity
  8
SPLINE_CIRCULAR
100
AcDbLine
 10
15.20971239145118
 20
26.54113496241409
 30
0.0
 11
15.20971239145118
 21
26.37453496241409
 31
0.0
  0
LINE
  5
351
330
1F
100
AcDbEntity
  8
1
 62
     3
100
AcDbLine
 10
15.67364046231718
 20
26.51138496241407
 30
0.0
 11
15.67364046231718
 21
25.78443596241409
 31
0.0
  0
LINE
  5
352
330
1F
100
AcDbEntity
  8
SPLINE_FLEX
100
AcDbLine
 10
15.07625077428198
 20
25.75193496241408
 30
0.0
 11
16.27625177428198
 21
25.75193496241408
 31
0.0
  0
LINE
  5
353
330
1F
100
AcDbEntity
  8
1
 62
     3
100
AcDbLine
 10
15.71365046231719
 20
25.74443496241408
 30
0.0
 11
15.67364046231718
 21
25.78443596241409
 31
0.0
  0
LINE
  5
354
330
1F
100
AcDbEntity
  8
SPLINE_CIRCULAR
100
AcDbLine
 10
15.66171139145119
 20
26.37453496241409
 30
0.0
 11
15.66171139145119
 21
25.98083596241408
 31
0.0
  0
LINE
  5
355
330
1F
100
AcDbEntity
  8
SPLINE_CIRCULAR
100
AcDbLine
 10
15.20971239145118
 20
26.37453496241409
 30
0.0
 11
15.20971239145118
 21
25.98083596241408
 31
0.0
  0
LINE
  5
356
330
1F
100
AcDbEntity
  8
SPLINE_CIRCULAR
100
AcDbLine
 10
15.20971239145118
 20
26.00053596241408
 30
0.0
 11
15.66171139145119
 21
26.00053596241408
 31
0.0
  0
LINE
  5
357
330
1F
100
AcDbEntity
  8
SPLINE_CIRCULAR
100
AcDbLine
 10
15.20971239145118
 20
25.98083596241408
 30
0.0
 11
15.66171139145119
 21
25.98083596241408
 31
0.0
  0
LINE
  5
358
330
1F
100
AcDbEntity
  8
SPLINE_CIRCULAR
100
AcDbLine
 10
15.05171239145119
 20
25.74443496241409
 30
0.0
 11
15.64171139145118
 21
25.74443496241409
 31
0.0
  0
LINE
  5
359
330
1F
100
AcDbEntity
  8
SPLINE_CIRCULAR
100
AcDbLine
 10
15.06171239145118
 20
25.88213496241408
 30
0.0
 11
15.20971239145118
 21
25.88213496241408
 31
0.0
  0
LINE
  5
35A
330
1F
100
AcDbEntity
  8
SPLINE_CIRCULAR
100
AcDbLine
 10
15.20971239145118
 20
25.98083596241408
 30
0.0
 11
15.20971239145118
 21
25.88213496241408
 31
0.0
  0
LINE
  5
35B
330
1F
100
AcDbEntity
  8
SPLINE_CIRCULAR
100
AcDbLine
 10
15.05171239145119
 20
25.72739657958329
 30
0.0
 11
15.05171239145119
 21
25.74443496241409
 31
0.0
  0
LINE
  5
35C
330
1F
100
AcDbEntity
  8
SPLINE_CIRCULAR
100
AcDbLine
 10
15.66171139145119
 20
25.98083596241408
 30
0.0
 11
15.66171139145119
 21
25.76443496241408
 31
0.0
  0
LINE
  5
35D
330
1F
100
AcDbEntity
  8
SPLINE_CIRCULAR
100
AcDbLine
 10
15.63624977428198
 20
25.74443496241409
 30
0.0
 11
15.656249774282
 21
25.76443496241408
 31
0.0
  0
LINE
  5
35E
330
1F
100
AcDbEntity
  8
SPLINE_CIRCULAR
100
AcDbLine
 10
15.66171139145119
 20
25.76443496241408
 30
0.0
 11
15.66171139145119
 21
25.75193496241408
 31
0.0
  0
LINE
  5
35F
330
1F
100
AcDbEntity
  8
1
 62
     3
100
AcDbLine
 10
15.67364046231718
 20
25.78443596241409
 30
0.0
 11
15.67364046231718
 21
25.75193496241408
 31
0.0
  0
LINE
  5
360
330
1F
100
AcDbEntity
  8
SPLINE_CIRCULAR
100
AcDbLine
 10
15.20971239145118
 20
26.37453496241407
 30
0.0
 11
15.66171139145119
 21
26.37453496241409
 31
0.0
  0
LINE
  5
361
330
1F
100
AcDbEntity
  8
SPLINE_CIRCULAR
100
AcDbLine
 10
15.20971239145118
 20
26.35483496241409
 30
0.0
 11
15.66171139145119
 21
26.35483496241409
 31
0.0
  0
LINE
  5
362
330
1F
100
AcDbEntity
  8
SPLINE_FLEX
100
AcDbLine
 10
16.30625077428198
 20
25.72193496241409
 30
0.0
 11
16.30625077428198
 21
25.65068496241408
 31
0.0
  0
LINE
  5
363
330
1F
100
AcDbEntity
  8
SPLINE_FLEX
100
AcDbLine
 10
16.30625077428198
 20
25.72193496241409
 30
0.0
 11
16.27625177428198
 21
25.75193496241408
 31
0.0
  0
LINE
  5
364
330
1F
100
AcDbEntity
  8
1
 62
     3
100
AcDbLine
 10
15.73364046231718
 20
26.57138496241408
 30
0.0
 11
15.67364046231718
 21
26.51138496241407
 31
0.0
  0
LINE
  5
365
330
1F
100
AcDbEntity
  8
SPLINE_CIRCULAR
100
AcDbLine
 10
15.23971239145119
 20
26.57113496241407
 30
0.0
 11
15.63171139145118
 21
26.57113496241407
 31
0.0
  0
LINE
  5
366
330
1F
100
AcDbEntity
  8
SPLINE_CIRCULAR
100
AcDbLine
 10
15.23971239145119
 20
26.57113496241409
 30
0.0
 11
15.20971239145118
 21
26.54113496241409
 31
0.0
  0
LINE
  5
367
330
1F
100
AcDbEntity
  8
SPLINE_CIRCULAR
100
AcDbLine
 10
15.63171139145118
 20
26.57113496241407
 30
0.0
 11
15.66171139145119
 21
26.54113496241408
 31
0.0
  0
CIRCLE
  5
368
330
1F
100
AcDbEntity
  8
LINE_CENTER
  6
DASHDOT
100
AcDbCircle
 10
22.88035738762038
 20
23.22493496241406
 30
0.0
 40
2.952749999999998
  0
CIRCLE
  5
369
330
1F
100
AcDbEntity
  8
SPLINE_CIRCULAR
100
AcDbCircle
 10
22.88035738762038
 20
23.22493496241406
 30
0.0
 40
3.3462
  0
LINE
  5
36A
330
1F
100
AcDbEntity
  8
LINE_CENTER
  6
DASHDOT
100
AcDbLine
 10
22.88035738762038
 20
26.66113496241406
 30
0.0
 11
22.88035738762035
 21
19.78873496241406
 31
0.0
  0
LINE
  5
36B
330
1F
100
AcDbEntity
  8
SPLINE_CIRCULAR
100
AcDbLine
 10
17.58057853318319
 20
20.46903396241407
 30
0.0
 11
17.58057853318319
 21
20.56773496241408
 31
0.0
  0
LINE
  5
36C
330
1F
100
AcDbEntity
  8
SPLINE_CIRCULAR
100
AcDbLine
 10
17.12857953318319
 20
20.68543496241406
 30
0.0
 11
17.12857953318319
 21
20.46903496241407
 31
0.0
  0
LINE
  5
36D
330
1F
100
AcDbEntity
  8
1
 62
     3
100
AcDbLine
 10
17.11664046231718
 20
20.66543396241407
 30
0.0
 11
17.11664046231718
 21
19.93848496241406
 31
0.0
  0
LINE
  5
36E
330
1F
100
AcDbEntity
  8
LINE_CENTER
  6
DASHDOT
100
AcDbLine
 10
18.16116353318317
 20
20.27218496241407
 30
0.0
 11
16.65936253318318
 21
20.27218496241407
 31
0.0
  0
LINE
  5
36F
330
1F
100
AcDbEntity
  8
SPLINE_CIRCULAR
100
AcDbLine
 10
17.58057853318319
 20
19.90873496241406
 30
0.0
 11
17.58057853318319
 21
20.07533496241407
 31
0.0
  0
LINE
  5
370
330
1F
100
AcDbEntity
  8
SPLINE_CIRCULAR
100
AcDbLine
 10
17.12857953318319
 20
20.07533496241407
 30
0.0
 11
17.12857953318319
 21
19.90873496241406
 31
0.0
  0
LINE
  5
371
330
1F
100
AcDbEntity
  8
SPLINE_CIRCULAR
100
AcDbLine
 10
17.55057853318318
 20
19.87873496241407
 30
0.0
 11
17.15858053318318
 21
19.87873496241407
 31
0.0
  0
LINE
  5
372
330
1F
100
AcDbEntity
  8
SPLINE_CIRCULAR
100
AcDbLine
 10
17.10857953318319
 20
19.99193096241407
 30
0.0
 11
17.10857953318319
 21
19.99193196241408
 31
0.0
  0
LINE
  5
373
330
1F
100
AcDbEntity
  8
SPLINE_CIRCULAR
100
AcDbLine
 10
17.15858053318318
 20
19.87873496241407
 30
0.0
 11
17.12857953318319
 21
19.90873496241406
 31
0.0
  0
LINE
  5
374
330
1F
100
AcDbEntity
  8
1
 62
     3
100
AcDbLine
 10
17.05664046231719
 20
19.87848496241407
 30
0.0
 11
17.11664046231718
 21
19.93848496241406
 31
0.0
  0
LINE
  5
375
330
1F
100
AcDbEntity
  8
SPLINE_CIRCULAR
100
AcDbLine
 10
17.55057853318318
 20
19.87873496241406
 30
0.0
 11
17.58057853318319
 21
19.90873496241406
 31
0.0
  0
LINE
  5
376
330
1F
100
AcDbEntity
  8
SPLINE_CIRCULAR
100
AcDbLine
 10
17.58057853318319
 20
20.07533496241407
 30
0.0
 11
17.12857953318319
 21
20.07533496241407
 31
0.0
  0
LINE
  5
377
330
1F
100
AcDbEntity
  8
SPLINE_CIRCULAR
100
AcDbLine
 10
17.58057853318319
 20
20.09503496241408
 30
0.0
 11
17.12857953318319
 21
20.09503496241408
 31
0.0
  0
LINE
  5
378
330
1F
100
AcDbEntity
  8
SPLINE_CIRCULAR
100
AcDbLine
 10
17.58057853318319
 20
20.46903496241407
 30
0.0
 11
17.12857953318319
 21
20.46903496241407
 31
0.0
  0
LINE
  5
379
330
1F
100
AcDbEntity
  8
SPLINE_CIRCULAR
100
AcDbLine
 10
17.58057853318319
 20
20.44933496241406
 30
0.0
 11
17.12857953318319
 21
20.44933496241406
 31
0.0
  0
LINE
  5
37A
330
1F
100
AcDbEntity
  8
SPLINE_CIRCULAR
100
AcDbLine
 10
17.12857953318319
 20
20.46903496241407
 30
0.0
 11
17.12857953318319
 21
20.07533496241407
 31
0.0
  0
LINE
  5
37B
330
1F
100
AcDbEntity
  8
SPLINE_CIRCULAR
100
AcDbLine
 10
17.58057853318319
 20
20.07533496241407
 30
0.0
 11
17.58057853318319
 21
20.46903396241407
 31
0.0
  0
CIRCLE
  5
37C
330
1F
100
AcDbEntity
  8
SPLINE_CIRCULAR
100
AcDbCircle
 10
22.88035738762035
 20
20.27218496241406
 30
0.0
 40
0.17715
  0
CIRCLE
  5
37D
330
1F
100
AcDbEntity
  8
SPLINE_CIRCULAR
  6
DOT
100
AcDbCircle
 10
22.88035738762035
 20
20.27218496241406
 30
0.0
 40
0.19685
  0
ARC
  5
37E
330
1F
100
AcDbEntity
  8
BEARING_1
  6
Continuous
100
AcDbCircle
 10
-24.73159806798195
 20
24.18417056607967
 30
0.0
 40
0.2343749999990625
210
0.0
220
0.0
230
-1.0
100
AcDbArc
 50
180.3673538833919
 51
307.7139652394585
  0
ARC
  5
37F
330
1F
100
AcDbEntity
  8
BEARING_1
  6
Continuous
100
AcDbCircle
 10
-24.92174771042987
 20
23.6491407496271
 30
0.0
 40
0.2343749999990625
210
0.0
220
0.0
230
-1.0
100
AcDbArc
 50
13.15559997793291
 51
140.502211333999
  0
ARC
  5
380
330
1F
100
AcDbEntity
  8
BEARING_1
  6
Continuous
100
AcDbCircle
 10
-24.92174771042987
 20
23.6491407496271
 30
0.0
 40
0.2343749999990625
210
0.0
220
0.0
230
-1.0
100
AcDbArc
 50
196.0195277964356
 51
323.3661391525018
  0
ARC
  5
381
330
1F
100
AcDbEntity
  8
BEARING_1
  6
Continuous
100
AcDbCircle
 10
-24.96049677137436
 20
23.08264953054928
 30
0.0
 40
0.2343749999990625
210
0.0
220
0.0
230
-1.0
100
AcDbArc
 50
28.80777389097641
 51
156.1543852470425
  0
ARC
  5
382
330
1F
100
AcDbEntity
  8
BEARING_1
  6
Continuous
100
AcDbCircle
 10
-24.96049677137436
 20
23.08264953054928
 30
0.0
 40
0.2343749999990625
210
0.0
220
0.0
230
-1.0
100
AcDbArc
 50
211.6717017094789
 51
339.0183130655453
  0
ARC
  5
383
330
1F
100
AcDbEntity
  8
BEARING_1
  6
Continuous
100
AcDbCircle
 10
-24.84497141023027
 20
22.52671097104034
 30
0.0
 40
0.2343749999990625
210
0.0
220
0.0
230
-1.0
100
AcDbArc
 50
44.45994780401986
 51
171.8065591600858
  0
ARC
  5
384
330
1F
100
AcDbEntity
  8
BEARING_1
  6
Continuous
100
AcDbCircle
 10
-24.84497141023027
 20
22.52671097104034
 30
0.0
 40
0.2343749999990625
210
0.0
220
0.0
230
-1.0
100
AcDbArc
 50
227.3238756225226
 51
354.6704869785887
  0
CIRCLE
  5
385
330
1F
100
AcDbEntity
  8
BEARING_1
  6
Continuous
100
AcDbCircle
 10
22.88035738762038
 20
23.22493496241406
 30
0.0
 40
2.294999999990828
  0
LINE
  5
386
330
1F
100
AcDbEntity
  8
LINE_CENTER
  6
DASHDOT
100
AcDbLine
 10
26.31655738762038
 20
23.22493496241406
 30
0.0
 11
19.44415738762039
 21
23.22493496241406
 31
0.0
  0
CIRCLE
  5
387
330
1F
100
AcDbEntity
  8
SPLINE_CIRCULAR
100
AcDbCircle
 10
22.88035738762038
 20
23.22493496241406
 30
0.0
 40
2.6572
  0
CIRCLE
  5
388
330
1F
100
AcDbEntity
  8
WEAR_WASHER
100
AcDbCircle
 10
22.88035738762038
 20
23.22493496241406
 30
0.0
 40
2.342499999999998
  0
CIRCLE
  5
389
330
1F
100
AcDbEntity
  8
WEAR_WASHER
100
AcDbCircle
 10
22.88035738762038
 20
23.22493496241406
 30
0.0
 40
2.645
  0
LINE
  5
38A
330
1F
100
AcDbEntity
  8
WAVE_GENERATOR
100
AcDbLine
 10
17.52547853318318
 20
24.20893496241408
 30
0.0
 11
17.52547853318318
 21
23.70893396241407
 31
0.0
  0
LINE
  5
38B
330
1F
100
AcDbEntity
  8
WAVE_GENERATOR
100
AcDbLine
 10
16.61247853318321
 20
24.04398496241408
 30
0.0
 11
16.61247853318321
 21
23.88514496241409
 31
0.0
  0
LINE
  5
38C
330
1F
100
AcDbEntity
  8
WAVE_GENERATOR
100
AcDbLine
 10
17.52547853318318
 20
24.04398496241408
 30
0.0
 11
17.52547853318318
 21
23.88514496241409
 31
0.0
  0
LINE
  5
38D
330
1F
100
AcDbEntity
  8
SPLINE_FLEX
100
AcDbLine
 10
16.48404015035239
 20
25.16636396241407
 30
0.0
 11
16.48404015035239
 21
20.79918496241407
 31
0.0
  0
LINE
  5
38E
330
1F
100
AcDbEntity
  8
SPLINE_FLEX
100
AcDbLine
 10
17.74404015035239
 20
25.17378496241406
 30
0.0
 11
17.74404015035239
 21
20.79918496241407
 31
0.0
  0
LINE
  5
38F
330
1F
100
AcDbEntity
  8
SPLINE_FLEX
100
AcDbLine
 10
17.73404015035239
 20
20.80918496241408
 30
0.0
 11
17.73404015035239
 21
25.64068496241407
 31
0.0
  0
LINE
  5
390
330
1F
100
AcDbEntity
  8
WEAR_WASHER
100
AcDbLine
 10
17.75857853318319
 20
25.86993496241408
 30
0.0
 11
17.75857853318319
 21
20.57993496241409
 31
0.0
  0
LINE
  5
391
330
1F
100
AcDbEntity
  8
WEAR_WASHER
100
AcDbLine
 10
17.82057853318318
 20
25.86993496241408
 30
0.0
 11
17.82057853318318
 21
20.57993496241408
 31
0.0
  0
LINE
  5
392
330
1F
100
AcDbEntity
  8
SPLINE_CIRCULAR
100
AcDbLine
 10
17.75857853318319
 20
25.76443496241408
 30
0.0
 11
17.75857853318319
 21
20.68543496241406
 31
0.0
  0
LINE
  5
393
330
1F
100
AcDbEntity
  8
SPACERS_PANCAKE
  6
Continuous
100
AcDbLine
 10
16.48404015035239
 20
20.70893496241406
 30
0.0
 11
16.48404015035239
 21
25.74093496241408
 31
0.0
  0
LINE
  5
394
330
1F
100
AcDbEntity
  8
RETAINER_BEARING
100
AcDbLine
 10
16.73447853318316
 20
22.24093396241408
 30
0.0
 11
16.73447853318316
 21
21.47993496241408
 31
0.0
  0
LINE
  5
395
330
1F
100
AcDbEntity
  8
RETAINER_BEARING
100
AcDbLine
 10
16.85947853318317
 20
22.24093396241408
 30
0.0
 11
16.85947853318317
 21
21.56993496241407
 31
0.0
  0
ARC
  5
396
330
1F
100
AcDbEntity
  8
WAVE_GENERATOR
100
AcDbCircle
 10
16.8614785331832
 20
22.21093496241408
 30
0.0
 40
0.03
100
AcDbArc
 50
0.0
 51
90.00000000000005
  0
ARC
  5
397
330
1F
100
AcDbEntity
  8
WAVE_GENERATOR
100
AcDbCircle
 10
-17.42147853318318
 20
22.21093496241408
 30
0.0
 40
0.03
210
0.0
220
0.0
230
-1.0
100
AcDbArc
 50
0.0
 51
90.00000000000005
  0
LINE
  5
398
330
1F
100
AcDbEntity
  8
SPLINE_CIRCULAR
100
AcDbLine
 10
17.72857853318317
 20
20.56773496241409
 30
0.0
 11
17.58057853318319
 21
20.56773496241408
 31
0.0
  0
LINE
  5
399
330
1F
100
AcDbEntity
  8
SPLINE_CIRCULAR
100
AcDbLine
 10
17.14857953318317
 20
20.70543496241407
 30
0.0
 11
17.73857853318317
 21
20.70543496241407
 31
0.0
  0
LINE
  5
39A
330
1F
100
AcDbEntity
  8
SPLINE_FLEX
100
AcDbLine
 10
17.7140401503524
 20
20.69793496241407
 30
0.0
 11
16.51403915035238
 21
20.69793496241407
 31
0.0
  0
LINE
  5
39B
330
1F
100
AcDbEntity
  8
SPLINE_FLEX
100
AcDbLine
 10
17.73404015035239
 20
20.80918496241408
 30
0.0
 11
16.49404015035239
 21
20.80918496241408
 31
0.0
  0
LINE
  5
39C
330
1F
100
AcDbEntity
  8
BEARING_1
  6
Continuous
100
AcDbLine
 10
16.89147853318519
 20
21.47493496242107
 30
0.0
 11
16.89147853318519
 21
21.34993496242157
 31
0.0
  0
LINE
  5
39D
330
1F
100
AcDbEntity
  8
BEARING_1
  6
Continuous
100
AcDbLine
 10
17.39147853318319
 20
21.47493496242107
 30
0.0
 11
17.39147853318319
 21
21.34993496242157
 31
0.0
  0
CIRCLE
  5
39E
330
1F
100
AcDbEntity
  8
BEARING_1
  6
Continuous
100
AcDbCircle
 10
17.1414785331842
 20
21.13993496242242
 30
0.0
 40
0.2343749999990625
  0
LINE
  5
39F
330
1F
100
AcDbEntity
  8
RETAINER_BEARING
100
AcDbLine
 10
16.76647853318319
 20
21.47793496241408
 30
0.0
 11
16.76647853318319
 21
21.09993496241406
 31
0.0
  0
LINE
  5
3A0
330
1F
100
AcDbEntity
  8
RETAINER_BEARING
100
AcDbLine
 10
16.73447853318316
 20
21.47993496241408
 30
0.0
 11
16.73447853318316
 21
21.09993496241406
 31
0.0
  0
LINE
  5
3A1
330
1F
100
AcDbEntity
  8
BEARING_1
  6
Continuous
100
AcDbLine
 10
16.7854785331856
 20
20.80918396242374
 30
0.0
 11
17.49747853318276
 21
20.80918396242374
 31
0.0
  0
LINE
  5
3A2
330
1F
100
AcDbEntity
  8
BEARING_1
  6
Continuous
100
AcDbLine
 10
16.7854785331856
 20
20.92993496242324
 30
0.0
 11
16.7854785331856
 21
20.80918396242374
 31
0.0
  0
LINE
  5
3A3
330
1F
100
AcDbEntity
  8
SPLINE_FLEX
100
AcDbLine
 10
16.48404015035239
 20
20.79918496241407
 30
0.0
 11
16.48404015035239
 21
20.72793496241406
 31
0.0
  0
ARC
  5
3A4
330
1F
100
AcDbEntity
  8
SPLINE_FLEX
100
AcDbCircle
 10
-16.49404015035239
 20
20.79918496241407
 30
0.0
 40
0.010000001
210
0.0
220
0.0
230
-1.0
100
AcDbArc
 50
0.0
 51
90.0
  0
LINE
  5
3A5
330
1F
100
AcDbEntity
  8
SPLINE_FLEX
100
AcDbLine
 10
16.51403915035238
 20
20.69793496241407
 30
0.0
 11
16.48404015035239
 21
20.72793496241406
 31
0.0
  0
LINE
  5
3A6
330
1F
100
AcDbEntity
  8
TABLE_TEXT
100
AcDbLine
 10
16.89495740793642
 20
21.28983942290376
 30
0.0
 11
16.78395740793642
 21
21.28983942290376
 31
0.0
  0
LINE
  5
3A7
330
1F
100
AcDbEntity
  8
TABLE_TEXT
100
AcDbLine
 10
16.89495740793642
 20
20.98283942290377
 30
0.0
 11
16.89495740793642
 21
21.28983942290376
 31
0.0
  0
LINE
  5
3A8
330
1F
100
AcDbEntity
  8
TABLE_TEXT
100
AcDbLine
 10
16.78395740793642
 20
21.28983942290376
 30
0.0
 11
16.78395740793642
 21
20.98283942290377
 31
0.0
  0
LINE
  5
3A9
330
1F
100
AcDbEntity
  8
TABLE_TEXT
100
AcDbLine
 10
16.78395740793642
 20
20.98283942290377
 30
0.0
 11
16.89495740793642
 21
20.98283942290377
 31
0.0
  0
LINE
  5
3AA
330
1F
100
AcDbEntity
  8
BEARING_1
  6
Continuous
100
AcDbLine
 10
16.89147853318519
 20
21.34993496242157
 30
0.0
 11
17.03740353318462
 21
21.34993496242157
 31
0.0
  0
LINE
  5
3AB
330
1F
100
AcDbEntity
  8
BEARING_1
  6
Continuous
100
AcDbLine
 10
16.7854785331856
 20
20.92993496242324
 30
0.0
 11
17.03740353318462
 21
20.92993496242324
 31
0.0
  0
LINE
  5
3AC
330
1F
100
AcDbEntity
  8
RETAINER_BEARING
100
AcDbLine
 10
16.73447853318316
 20
21.09993496241406
 30
0.0
 11
16.76647853318319
 21
21.09993496241406
 31
0.0
  0
LINE
  5
3AD
330
1F
100
AcDbEntity
  8
BEARING_1
  6
Continuous
100
AcDbLine
 10
17.49747853318276
 20
20.92993496242324
 30
0.0
 11
17.49747853318276
 21
20.80918396242374
 31
0.0
  0
LINE
  5
3AE
330
1F
100
AcDbEntity
  8
SPLINE_CIRCULAR
100
AcDbLine
 10
17.14857953318317
 20
20.70543496241407
 30
0.0
 11
17.12857953318319
 21
20.68543496241406
 31
0.0
  0
LINE
  5
3AF
330
1F
100
AcDbEntity
  8
1
 62
     3
100
AcDbLine
 10
17.07664046231718
 20
20.70543496241409
 30
0.0
 11
17.11664046231718
 21
20.66543396241407
 31
0.0
  0
LINE
  5
3B0
330
1F
100
AcDbEntity
  8
BEARING_1
  6
Continuous
100
AcDbLine
 10
17.24555253318377
 20
21.34993496242157
 30
0.0
 11
17.39147853318319
 21
21.34993496242157
 31
0.0
  0
LINE
  5
3B1
330
1F
100
AcDbEntity
  8
BEARING_1
  6
Continuous
100
AcDbLine
 10
17.24555253318377
 20
20.92993496242324
 30
0.0
 11
17.49747853318276
 21
20.92993496242324
 31
0.0
  0
LINE
  5
3B2
330
1F
100
AcDbEntity
  8
BEARING_1
  6
Continuous
100
AcDbLine
 10
17.04147653318458
 20
21.13993796242242
 30
0.0
 11
17.2414765331838
 21
21.13993796242242
 31
0.0
  0
LINE
  5
3B3
330
1F
100
AcDbEntity
  8
BEARING_1
  6
Continuous
100
AcDbLine
 10
17.14147653318419
 20
21.23993796242201
 30
0.0
 11
17.14147653318419
 21
21.03993796242281
 31
0.0
  0
LINE
  5
3B4
330
1F
100
AcDbEntity
  8
BEARING_1
  6
Continuous
100
AcDbLine
 10
16.89147853318519
 20
21.47493496242107
 30
0.0
 11
17.39147853318319
 21
21.47493496242107
 31
0.0
  0
LINE
  5
3B5
330
1F
100
AcDbEntity
  8
WAVE_GENERATOR
100
AcDbLine
 10
17.39147853318319
 20
21.44033396241407
 30
0.0
 11
16.95147853318318
 21
21.44033396241407
 31
0.0
  0
LINE
  5
3B6
330
1F
100
AcDbEntity
  8
RETAINER_BEARING
100
AcDbLine
 10
16.89147853318319
 20
22.21093496241408
 30
0.0
 11
16.89147853318319
 21
21.56793496241407
 31
0.0
  0
LINE
  5
3B7
330
1F
100
AcDbEntity
  8
WAVE_GENERATOR
100
AcDbLine
 10
16.89147853318319
 20
22.21093496241408
 30
0.0
 11
16.89147853318319
 21
21.45641096241408
 31
0.0
  0
LINE
  5
3B8
330
1F
100
AcDbEntity
  8
RETAINER_BEARING
100
AcDbLine
 10
16.79447853318317
 20
21.53993496241408
 30
0.0
 11
16.82947853318318
 21
21.53993496241408
 31
0.0
  0
LINE
  5
3B9
330
1F
100
AcDbEntity
  8
RETAINER_BEARING
100
AcDbLine
 10
16.79647853318318
 20
21.50793496241408
 30
0.0
 11
16.83147853318318
 21
21.50793496241408
 31
0.0
  0
LINE
  5
3BA
330
1F
100
AcDbEntity
  8
RETAINER_BEARING
100
AcDbLine
 10
16.79647853318318
 20
21.50793496241408
 30
0.0
 11
16.77526553318318
 21
21.49914796241407
 31
0.0
  0
LINE
  5
3BB
330
1F
100
AcDbEntity
  8
RETAINER_BEARING
100
AcDbLine
 10
16.77526553318318
 20
21.49914796241407
 30
0.0
 11
16.76647853318319
 21
21.47793496241408
 31
0.0
  0
LINE
  5
3BC
330
1F
100
AcDbEntity
  8
RETAINER_BEARING
100
AcDbLine
 10
16.79447853318317
 20
21.53993496241408
 30
0.0
 11
16.75205253318319
 21
21.52236096241408
 31
0.0
  0
LINE
  5
3BD
330
1F
100
AcDbEntity
  8
RETAINER_BEARING
100
AcDbLine
 10
16.75205253318319
 20
21.52236096241408
 30
0.0
 11
16.73447853318316
 21
21.47993496241408
 31
0.0
  0
POLYLINE
  5
3BE
330
1F
100
AcDbEntity
  8
RETAINER_BEARING
100
AcDb3dPolyline
 66
     1
 10
0.0
 20
0.0
 30
0.0
 70
     8
  0
VERTEX
  5
3BF
330
3BE
100
AcDbEntity
  8
RETAINER_BEARING
100
AcDbVertex
100
AcDb3dPolylineVertex
 10
16.82947853318318
 20
21.53993496241408
 30
0.0
 70
    32
  0
VERTEX
  5
3C0
330
3BE
100
AcDbEntity
  8
RETAINER_BEARING
100
AcDbVertex
100
AcDb3dPolylineVertex
 10
16.85069253318317
 20
21.54872196241409
 30
0.0
 70
    32
  0
VERTEX
  5
3C1
330
3BE
100
AcDbEntity
  8
RETAINER_BEARING
100
AcDbVertex
100
AcDb3dPolylineVertex
 10
16.85947853318317
 20
21.56993496241407
 30
0.0
 70
    32
  0
SEQEND
  5
3C2
330
3BE
100
AcDbEntity
  8
RETAINER_BEARING
  0
POLYLINE
  5
3C3
330
1F
100
AcDbEntity
  8
RETAINER_BEARING
100
AcDb3dPolyline
 66
     1
 10
0.0
 20
0.0
 30
0.0
 70
     8
  0
VERTEX
  5
3C4
330
3C3
100
AcDbEntity
  8
RETAINER_BEARING
100
AcDbVertex
100
AcDb3dPolylineVertex
 10
16.89147853318319
 20
21.56793496241407
 30
0.0
 70
    32
  0
VERTEX
  5
3C5
330
3C3
100
AcDbEntity
  8
RETAINER_BEARING
100
AcDbVertex
100
AcDb3dPolylineVertex
 10
16.87390553318318
 20
21.52550896241407
 30
0.0
 70
    32
  0
VERTEX
  5
3C6
330
3C3
100
AcDbEntity
  8
RETAINER_BEARING
100
AcDbVertex
100
AcDb3dPolylineVertex
 10
16.83147853318318
 20
21.50793496241408
 30
0.0
 70
    32
  0
SEQEND
  5
3C7
330
3C3
100
AcDbEntity
  8
RETAINER_BEARING
  0
LINE
  5
3C8
330
1F
100
AcDbEntity
  8
WAVE_GENERATOR
100
AcDbLine
 10
16.95147853318318
 20
21.44033396241407
 30
0.0
 11
16.89147853318319
 21
21.45641096241408
 31
0.0
  0
LINE
  5
3C9
330
1F
100
AcDbEntity
  8
WAVE_GENERATOR
100
AcDbLine
 10
17.39147853318319
 20
22.21093496241408
 30
0.0
 11
17.39147853318319
 21
21.44033396241407
 31
0.0
  0
LINE
  5
3CA
330
1F
100
AcDbEntity
  8
SPLINE_FLEX
100
AcDbLine
 10
17.74404015035239
 20
20.79918496241407
 30
0.0
 11
17.74404015035239
 21
20.72793496241406
 31
0.0
  0
LINE
  5
3CB
330
1F
100
AcDbEntity
  8
SPLINE_FLEX
100
AcDbLine
 10
17.74404015035239
 20
20.79918496241407
 30
0.0
 11
17.73404015035239
 21
20.80918496241408
 31
0.0
  0
LINE
  5
3CC
330
1F
100
AcDbEntity
  8
SPLINE_FLEX
100
AcDbLine
 10
17.7140401503524
 20
20.69793496241407
 30
0.0
 11
17.74404015035239
 21
20.72793496241406
 31
0.0
  0
LINE
  5
3CD
330
1F
100
AcDbEntity
  8
WEAR_WASHER
100
AcDbLine
 10
17.82057853318318
 20
20.57993496241409
 30
0.0
 11
17.75857853318319
 21
20.57993496241409
 31
0.0
  0
LINE
  5
3CE
330
1F
100
AcDbEntity
  8
SPLINE_CIRCULAR
100
AcDbLine
 10
17.75857853318319
 20
20.68543496241406
 30
0.0
 11
17.75857853318319
 21
20.59773496241408
 31
0.0
  0
LINE
  5
3CF
330
1F
100
AcDbEntity
  8
SPLINE_CIRCULAR
100
AcDbLine
 10
17.72857853318317
 20
20.56773496241409
 30
0.0
 11
17.75857853318319
 21
20.59773496241408
 31
0.0
  0
LINE
  5
3D0
330
1F
100
AcDbEntity
  8
WEAR_WASHER
100
AcDbLine
 10
17.82057853318318
 20
20.88243496241406
 30
0.0
 11
17.75857853318319
 21
20.88243496241406
 31
0.0
  0
LINE
  5
3D1
330
1F
100
AcDbEntity
  8
SPLINE_CIRCULAR
100
AcDbLine
 10
17.75857853318319
 20
20.68543496241406
 30
0.0
 11
17.73857853318317
 21
20.70543496241407
 31
0.0
  0
LINE
  5
3D2
330
1F
100
AcDbEntity
  8
WAVE_GENERATOR
100
AcDbLine
 10
17.52547853318318
 20
23.88514496241409
 30
0.0
 11
17.52547853318318
 21
22.53598496241408
 31
0.0
  0
LINE
  5
3D3
330
1F
100
AcDbEntity
  8
WAVE_GENERATOR
100
AcDbLine
 10
16.61247853318321
 20
23.88514496241409
 30
0.0
 11
16.61247853318321
 21
22.53598496241408
 31
0.0
  0
LINE
  5
3D4
330
1F
100
AcDbEntity
  8
WAVE_GENERATOR
100
AcDbLine
 10
17.52547853318318
 20
22.53598496241408
 30
0.0
 11
16.61247853318321
 21
22.53598496241408
 31
0.0
  0
LINE
  5
3D5
330
1F
100
AcDbEntity
  8
WAVE_GENERATOR
100
AcDbLine
 10
16.8614785331832
 20
22.24093396241408
 30
0.0
 11
16.61247853318321
 21
22.24093396241408
 31
0.0
  0
LINE
  5
3D6
330
1F
100
AcDbEntity
  8
WAVE_GENERATOR
100
AcDbLine
 10
16.61247853318321
 20
22.53598496241408
 30
0.0
 11
16.61247853318321
 21
22.24093396241408
 31
0.0
  0
LINE
  5
3D7
330
1F
100
AcDbEntity
  8
WAVE_GENERATOR
100
AcDbLine
 10
17.52547853318318
 20
22.24093396241408
 30
0.0
 11
17.42147853318318
 21
22.24093396241408
 31
0.0
  0
LINE
  5
3D8
330
1F
100
AcDbEntity
  8
WAVE_GENERATOR
100
AcDbLine
 10
17.52547853318318
 20
22.53598496241408
 30
0.0
 11
17.52547853318318
 21
22.24093396241408
 31
0.0
  0
LINE
  5
3D9
330
1F
100
AcDbEntity
  8
WAVE_GENERATOR
100
AcDbLine
 10
17.52547853318318
 20
23.88514496241409
 30
0.0
 11
16.61247853318321
 21
23.88514496241409
 31
0.0
  0
ARC
  5
3DA
330
1F
100
AcDbEntity
  8
SPLINE_FLEX
100
AcDbCircle
 10
16.49404015035239
 20
25.65068496241408
 30
0.0
 40
0.010000001
100
AcDbArc
 50
180.0
 51
270.0
  0
LINE
  5
3DB
330
1F
100
AcDbEntity
  8
SPLINE_FLEX
100
AcDbLine
 10
16.48404015035239
 20
25.65068496241408
 30
0.0
 11
16.48404015035239
 21
25.16636396241407
 31
0.0
  0
LINE
  5
3DC
330
1F
100
AcDbEntity
  8
SPLINE_FLEX
100
AcDbLine
 10
17.73404015035239
 20
25.64068496241407
 30
0.0
 11
17.74404015035239
 21
25.65068496241408
 31
0.0
  0
LINE
  5
3DD
330
1F
100
AcDbEntity
  8
SPLINE_FLEX
100
AcDbLine
 10
17.74404015035239
 20
25.65068496241408
 30
0.0
 11
17.74404015035239
 21
25.17378496241406
 31
0.0
  0
LINE
  5
3DE
330
1F
100
AcDbEntity
  8
SPLINE_FLEX
100
AcDbLine
 10
17.73404015035239
 20
25.64068496241407
 30
0.0
 11
16.49404015035239
 21
25.64068496241407
 31
0.0
  0
LINE
  5
3DF
330
1F
100
AcDbEntity
  8
RETAINER_BEARING
100
AcDbLine
 10
16.89147853318319
 20
24.88193496241406
 30
0.0
 11
16.89147853318319
 21
24.23893496241408
 31
0.0
  0
LINE
  5
3E0
330
1F
100
AcDbEntity
  8
RETAINER_BEARING
100
AcDbLine
 10
16.85947853318317
 20
24.87993496241408
 30
0.0
 11
16.85947853318317
 21
24.20893496241408
 31
0.0
  0
LINE
  5
3E1
330
1F
100
AcDbEntity
  8
RETAINER_BEARING
100
AcDbLine
 10
16.73447853318316
 20
24.96993496241408
 30
0.0
 11
16.73447853318316
 21
24.20893496241408
 31
0.0
  0
LINE
  5
3E2
330
1F
100
AcDbEntity
  8
WAVE_GENERATOR
100
AcDbLine
 10
17.39147853318319
 20
25.00953496241407
 30
0.0
 11
17.39147853318319
 21
24.47193496241409
 31
0.0
  0
LINE
  5
3E3
330
1F
100
AcDbEntity
  8
WAVE_GENERATOR
100
AcDbLine
 10
16.89147853318319
 20
24.99345796241408
 30
0.0
 11
16.89147853318319
 21
24.47193496241409
 31
0.0
  0
LINE
  5
3E4
330
1F
100
AcDbEntity
  8
LINE_CENTER
  6
DASHDOT
100
AcDbLine
 10
16.67620053318318
 20
24.41243496241408
 30
0.0
 11
17.04876253318319
 21
24.41243496241408
 31
0.0
  0
LINE
  5
3E5
330
1F
100
AcDbEntity
  8
LINE_CENTER
  6
DASHDOT
100
AcDbLine
 10
17.59665753318319
 20
24.41193596241408
 30
0.0
 11
16.56657553318318
 21
24.41193596241408
 31
0.0
  0
LINE
  5
3E6
330
1F
100
AcDbEntity
  8
WAVE_GENERATOR
100
AcDbLine
 10
17.39147853318319
 20
24.47193496241409
 30
0.0
 11
16.89147853318319
 21
24.47193496241409
 31
0.0
  0
LINE
  5
3E7
330
1F
100
AcDbEntity
  8
WAVE_GENERATOR
100
AcDbLine
 10
17.39147853318319
 20
24.34993496241409
 30
0.0
 11
16.89147853318319
 21
24.34993496241409
 31
0.0
  0
LINE
  5
3E8
330
1F
100
AcDbEntity
  8
WAVE_GENERATOR
100
AcDbLine
 10
17.52547853318318
 20
24.04398496241408
 30
0.0
 11
16.61247853318321
 21
24.04398496241408
 31
0.0
  0
LINE
  5
3E9
330
1F
100
AcDbEntity
  8
WAVE_GENERATOR
100
AcDbLine
 10
16.89147853318319
 20
24.47193496241409
 30
0.0
 11
16.89147853318319
 21
24.34993496241409
 31
0.0
  0
LINE
  5
3EA
330
1F
100
AcDbEntity
  8
WAVE_GENERATOR
100
AcDbLine
 10
16.8614785331832
 20
24.20893496241408
 30
0.0
 11
16.61247853318321
 21
24.20893496241408
 31
0.0
  0
LINE
  5
3EB
330
1F
100
AcDbEntity
  8
WAVE_GENERATOR
100
AcDbLine
 10
16.61247853318321
 20
24.20893496241408
 30
0.0
 11
16.61247853318321
 21
24.04398496241408
 31
0.0
  0
LINE
  5
3EC
330
1F
100
AcDbEntity
  8
RETAINER_BEARING
100
AcDbLine
 10
16.85947853318317
 20
24.34818496241407
 30
0.0
 11
16.89147853318319
 21
24.34818496241407
 31
0.0
  0
ARC
  5
3ED
330
1F
100
AcDbEntity
  8
WAVE_GENERATOR
100
AcDbCircle
 10
16.8614785331832
 20
24.23893496241408
 30
0.0
 40
0.03
100
AcDbArc
 50
270.0
 51
0.0
  0
LINE
  5
3EE
330
1F
100
AcDbEntity
  8
WAVE_GENERATOR
100
AcDbLine
 10
16.89147853318319
 20
24.34993496241409
 30
0.0
 11
16.89147853318319
 21
24.23893496241408
 31
0.0
  0
LINE
  5
3EF
330
1F
100
AcDbEntity
  8
RETAINER_BEARING
100
AcDbLine
 10
16.85947853318317
 20
24.47668496241409
 30
0.0
 11
16.89147853318319
 21
24.47668496241409
 31
0.0
  0
LINE
  5
3F0
330
1F
100
AcDbEntity
  8
WAVE_GENERATOR
100
AcDbLine
 10
17.39147853318319
 20
24.47193496241409
 30
0.0
 11
17.39147853318319
 21
24.34993496241409
 31
0.0
  0
LINE
  5
3F1
330
1F
100
AcDbEntity
  8
WAVE_GENERATOR
100
AcDbLine
 10
17.39147753318317
 20
24.35706296241407
 30
0.0
 11
17.39147753318317
 21
24.23893496241408
 31
0.0
  0
LINE
  5
3F2
330
1F
100
AcDbEntity
  8
WAVE_GENERATOR
100
AcDbLine
 10
17.52547853318318
 20
24.20893496241408
 30
0.0
 11
17.42147853318318
 21
24.20893496241408
 31
0.0
  0
ARC
  5
3F3
330
1F
100
AcDbEntity
  8
WAVE_GENERATOR
100
AcDbCircle
 10
-17.42147853318318
 20
24.23893496241408
 30
0.0
 40
0.03
210
0.0
220
0.0
230
-1.0
100
AcDbArc
 50
270.0
 51
0.0
  0
LINE
  5
3F4
330
1F
100
AcDbEntity
  8
WAVE_GENERATOR
100
AcDbLine
 10
17.52547853318318
 20
24.20893496241408
 30
0.0
 11
17.52547853318318
 21
24.04398496241408
 31
0.0
  0
LINE
  5
3F5
330
1F
100
AcDbEntity
  8
BEARING_1
  6
Continuous
100
AcDbLine
 10
16.89147853318519
 20
24.97493496240708
 30
0.0
 11
17.39147853318319
 21
24.97493496240708
 31
0.0
  0
CIRCLE
  5
3F6
330
1F
100
AcDbEntity
  8
BEARING_1
  6
Continuous
100
AcDbCircle
 10
-17.1414785331842
 20
25.30993496240574
 30
0.0
 40
0.2343749999990625
210
0.0
220
0.0
230
-1.0
  0
LINE
  5
3F7
330
1F
100
AcDbEntity
  8
BEARING_1
  6
Continuous
100
AcDbLine
 10
16.7854785331856
 20
25.64068596240442
 30
0.0
 11
17.49747853318276
 21
25.64068596240442
 31
0.0
  0
LINE
  5
3F8
330
1F
100
AcDbEntity
  8
WAVE_GENERATOR
100
AcDbLine
 10
17.39147853318319
 20
25.00953496241407
 30
0.0
 11
16.95147853318318
 21
25.00953496241407
 31
0.0
  0
LINE
  5
3F9
330
1F
100
AcDbEntity
  8
TABLE_TEXT
100
AcDbLine
 10
16.89495740793642
 20
25.46703050192439
 30
0.0
 11
16.89495740793642
 21
25.16003050192439
 31
0.0
  0
LINE
  5
3FA
330
1F
100
AcDbEntity
  8
TABLE_TEXT
100
AcDbLine
 10
16.78395740793642
 20
25.16003050192439
 30
0.0
 11
16.78395740793642
 21
25.46703050192439
 31
0.0
  0
LINE
  5
3FB
330
1F
100
AcDbEntity
  8
RETAINER_BEARING
100
AcDbLine
 10
16.76647853318319
 20
24.97193496241409
 30
0.0
 11
16.76647853318319
 21
25.34993496241408
 31
0.0
  0
LINE
  5
3FC
330
1F
100
AcDbEntity
  8
RETAINER_BEARING
100
AcDbLine
 10
16.73447853318316
 20
25.34993496241408
 30
0.0
 11
16.73447853318316
 21
24.96993496241408
 31
0.0
  0
LINE
  5
3FD
330
1F
100
AcDbEntity
  8
TABLE_TEXT
100
AcDbLine
 10
16.89495740793642
 20
25.16003050192439
 30
0.0
 11
16.78395740793642
 21
25.16003050192439
 31
0.0
  0
LINE
  5
3FE
330
1F
100
AcDbEntity
  8
BEARING_1
  6
Continuous
100
AcDbLine
 10
16.89147853318519
 20
24.97493496240708
 30
0.0
 11
16.89147853318519
 21
25.09993496240658
 31
0.0
  0
LINE
  5
3FF
330
1F
100
AcDbEntity
  8
BEARING_1
  6
Continuous
100
AcDbLine
 10
16.89147853318519
 20
25.09993496240658
 30
0.0
 11
17.03740353318462
 21
25.09993496240658
 31
0.0
  0
ARC
  5
400
330
1F
100
AcDbEntity
  8
RETAINER_BEARING
100
AcDbCircle
 10
16.79647853318318
 20
24.97193496241409
 30
0.0
 40
0.03
100
AcDbArc
 50
180.0
 51
270.0
  0
LINE
  5
401
330
1F
100
AcDbEntity
  8
RETAINER_BEARING
100
AcDbLine
 10
16.79647853318318
 20
24.94193496241408
 30
0.0
 11
16.83147853318318
 21
24.94193496241408
 31
0.0
  0
LINE
  5
402
330
1F
100
AcDbEntity
  8
RETAINER_BEARING
100
AcDbLine
 10
16.79447853318317
 20
24.90993496241407
 30
0.0
 11
16.82947853318318
 21
24.90993496241407
 31
0.0
  0
ARC
  5
403
330
1F
100
AcDbEntity
  8
RETAINER_BEARING
100
AcDbCircle
 10
-16.82947853318318
 20
24.87993496241408
 30
0.0
 40
0.03
210
0.0
220
0.0
230
-1.0
100
AcDbArc
 50
90.0
 51
180.0
  0
ARC
  5
404
330
1F
100
AcDbEntity
  8
RETAINER_BEARING
100
AcDbCircle
 10
-16.83147853318318
 20
24.88193496241406
 30
0.0
 40
0.06
210
0.0
220
0.0
230
-1.0
100
AcDbArc
 50
90.0
 51
180.0
  0
ARC
  5
405
330
1F
100
AcDbEntity
  8
RETAINER_BEARING
100
AcDbCircle
 10
16.79447853318317
 20
24.96993496241408
 30
0.0
 40
0.06
100
AcDbArc
 50
180.0
 51
270.0
  0
LINE
  5
406
330
1F
100
AcDbEntity
  8
WAVE_GENERATOR
100
AcDbLine
 10
16.95147853318318
 20
25.00953496241407
 30
0.0
 11
16.89147853318319
 21
24.99345796241408
 31
0.0
  0
LINE
  5
407
330
1F
100
AcDbEntity
  8
TABLE_TEXT
100
AcDbLine
 10
16.78395740793642
 20
25.46703050192439
 30
0.0
 11
16.89495740793642
 21
25.46703050192439
 31
0.0
  0
LINE
  5
408
330
1F
100
AcDbEntity
  8
BEARING_1
  6
Continuous
100
AcDbLine
 10
16.7854785331856
 20
25.51993496240489
 30
0.0
 11
16.7854785331856
 21
25.64068596240442
 31
0.0
  0
LINE
  5
409
330
1F
100
AcDbEntity
  8
BEARING_1
  6
Continuous
100
AcDbLine
 10
16.7854785331856
 20
25.51993496240489
 30
0.0
 11
17.03740353318462
 21
25.51993496240489
 31
0.0
  0
LINE
  5
40A
330
1F
100
AcDbEntity
  8
RETAINER_BEARING
100
AcDbLine
 10
16.73447853318316
 20
25.34993496241408
 30
0.0
 11
16.76647853318319
 21
25.34993496241408
 31
0.0
  0
LINE
  5
40B
330
1F
100
AcDbEntity
  8
BEARING_1
  6
Continuous
100
AcDbLine
 10
17.14147653318419
 20
25.20993196240613
 30
0.0
 11
17.14147653318419
 21
25.40993196240535
 31
0.0
  0
LINE
  5
40C
330
1F
100
AcDbEntity
  8
BEARING_1
  6
Continuous
100
AcDbLine
 10
17.24555253318377
 20
25.09993496240658
 30
0.0
 11
17.39147853318319
 21
25.09993496240658
 31
0.0
  0
LINE
  5
40D
330
1F
100
AcDbEntity
  8
BEARING_1
  6
Continuous
100
AcDbLine
 10
17.39147853318319
 20
24.97493496240708
 30
0.0
 11
17.39147853318319
 21
25.09993496240658
 31
0.0
  0
LINE
  5
40E
330
1F
100
AcDbEntity
  8
BEARING_1
  6
Continuous
100
AcDbLine
 10
17.24555253318377
 20
25.51993496240489
 30
0.0
 11
17.49747853318276
 21
25.51993496240489
 31
0.0
  0
LINE
  5
40F
330
1F
100
AcDbEntity
  8
BEARING_1
  6
Continuous
100
AcDbLine
 10
17.04147653318458
 20
25.30993196240574
 30
0.0
 11
17.2414765331838
 21
25.30993196240574
 31
0.0
  0
LINE
  5
410
330
1F
100
AcDbEntity
  8
BEARING_1
  6
Continuous
100
AcDbLine
 10
17.49747853318276
 20
25.51993496240489
 30
0.0
 11
17.49747853318276
 21
25.64068596240442
 31
0.0
  0
LINE
  5
411
330
1F
100
AcDbEntity
  8
WEAR_WASHER
100
AcDbLine
 10
17.82057853318318
 20
25.56743496241407
 30
0.0
 11
17.75857853318319
 21
25.56743496241407
 31
0.0
  0
LINE
  5
412
330
1F
100
AcDbEntity
  8
SPLINE_CIRCULAR
100
AcDbLine
 10
17.72857853318317
 20
25.88213496241408
 30
0.0
 11
17.58057853318319
 21
25.88213496241408
 31
0.0
  0
LINE
  5
413
330
1F
100
AcDbEntity
  8
LINE_CENTER
  6
DASHDOT
100
AcDbLine
 10
17.9887895331832
 20
26.17768496241408
 30
0.0
 11
16.71803453318321
 21
26.17768496241408
 31
0.0
  0
LINE
  5
414
330
1F
100
AcDbEntity
  8
SPLINE_CIRCULAR
100
AcDbLine
 10
17.73857853318317
 20
25.74443496241409
 30
0.0
 11
17.14857953318317
 21
25.74443496241409
 31
0.0
  0
LINE
  5
415
330
1F
100
AcDbEntity
  8
SPLINE_FLEX
100
AcDbLine
 10
17.7140401503524
 20
25.75193496241408
 30
0.0
 11
16.51403915035238
 21
25.75193496241408
 31
0.0
  0
LINE
  5
416
330
1F
100
AcDbEntity
  8
SPLINE_CIRCULAR
100
AcDbLine
 10
17.12857953318319
 20
26.54113496241408
 30
0.0
 11
17.12857953318319
 21
26.37453496241409
 31
0.0
  0
LINE
  5
417
330
1F
100
AcDbEntity
  8
SPLINE_CIRCULAR
100
AcDbLine
 10
17.58057853318319
 20
26.54113496241409
 30
0.0
 11
17.58057853318319
 21
26.37453496241409
 31
0.0
  0
LINE
  5
418
330
1F
100
AcDbEntity
  8
1
 62
     3
100
AcDbLine
 10
17.11664046231718
 20
26.51138496241407
 30
0.0
 11
17.11664046231718
 21
25.78443596241409
 31
0.0
  0
LINE
  5
419
330
1F
100
AcDbEntity
  8
SPLINE_FLEX
100
AcDbLine
 10
16.48404015035239
 20
25.72193496241409
 30
0.0
 11
16.48404015035239
 21
25.65068496241408
 31
0.0
  0
LINE
  5
41A
330
1F
100
AcDbEntity
  8
SPLINE_FLEX
100
AcDbLine
 10
16.48404015035239
 20
25.72193496241409
 30
0.0
 11
16.51403915035238
 21
25.75193496241408
 31
0.0
  0
LINE
  5
41B
330
1F
100
AcDbEntity
  8
SPLINE_CIRCULAR
100
AcDbLine
 10
17.12857953318319
 20
26.37453496241409
 30
0.0
 11
17.12857953318319
 21
25.98083596241408
 31
0.0
  0
LINE
  5
41C
330
1F
100
AcDbEntity
  8
SPLINE_CIRCULAR
100
AcDbLine
 10
17.58057853318319
 20
26.37453496241409
 30
0.0
 11
17.58057853318319
 21
25.98083596241408
 31
0.0
  0
LINE
  5
41D
330
1F
100
AcDbEntity
  8
SPLINE_CIRCULAR
100
AcDbLine
 10
17.58057853318319
 20
25.98083596241408
 30
0.0
 11
17.12857953318319
 21
25.98083596241408
 31
0.0
  0
LINE
  5
41E
330
1F
100
AcDbEntity
  8
SPLINE_CIRCULAR
100
AcDbLine
 10
17.58057853318319
 20
26.00053596241408
 30
0.0
 11
17.12857953318319
 21
26.00053596241408
 31
0.0
  0
LINE
  5
41F
330
1F
100
AcDbEntity
  8
SPLINE_CIRCULAR
100
AcDbLine
 10
17.14857953318317
 20
25.74443496241409
 30
0.0
 11
17.12857953318319
 21
25.76443496241408
 31
0.0
  0
LINE
  5
420
330
1F
100
AcDbEntity
  8
SPLINE_CIRCULAR
100
AcDbLine
 10
17.12857953318319
 20
25.98083596241408
 30
0.0
 11
17.12857953318319
 21
25.76443496241408
 31
0.0
  0
LINE
  5
421
330
1F
100
AcDbEntity
  8
SPLINE_CIRCULAR
100
AcDbLine
 10
17.12857953318319
 20
25.76443496241408
 30
0.0
 11
17.12857953318319
 21
25.75193496241408
 31
0.0
  0
LINE
  5
422
330
1F
100
AcDbEntity
  8
1
 62
     3
100
AcDbLine
 10
17.07664046231718
 20
25.74443496241408
 30
0.0
 11
17.11664046231718
 21
25.78443596241409
 31
0.0
  0
LINE
  5
423
330
1F
100
AcDbEntity
  8
1
 62
     3
100
AcDbLine
 10
17.11664046231718
 20
25.78443596241409
 30
0.0
 11
17.11664046231718
 21
25.75193496241408
 31
0.0
  0
LINE
  5
424
330
1F
100
AcDbEntity
  8
SPLINE_CIRCULAR
100
AcDbLine
 10
17.58057853318319
 20
25.98083596241408
 30
0.0
 11
17.58057853318319
 21
25.88213496241408
 31
0.0
  0
LINE
  5
425
330
1F
100
AcDbEntity
  8
SPLINE_CIRCULAR
100
AcDbLine
 10
17.58057853318319
 20
26.37453496241407
 30
0.0
 11
17.12857953318319
 21
26.37453496241409
 31
0.0
  0
LINE
  5
426
330
1F
100
AcDbEntity
  8
SPLINE_CIRCULAR
100
AcDbLine
 10
17.58057853318319
 20
26.35483496241409
 30
0.0
 11
17.12857953318319
 21
26.35483496241409
 31
0.0
  0
LINE
  5
427
330
1F
100
AcDbEntity
  8
SPLINE_CIRCULAR
100
AcDbLine
 10
17.55057853318318
 20
26.57113496241407
 30
0.0
 11
17.15857953318319
 21
26.57113496241407
 31
0.0
  0
LINE
  5
428
330
1F
100
AcDbEntity
  8
SPLINE_CIRCULAR
100
AcDbLine
 10
17.15857953318319
 20
26.57113496241407
 30
0.0
 11
17.12857953318319
 21
26.54113496241408
 31
0.0
  0
LINE
  5
429
330
1F
100
AcDbEntity
  8
1
 62
     3
100
AcDbLine
 10
17.05664046231719
 20
26.57138496241408
 30
0.0
 11
17.11664046231718
 21
26.51138496241407
 31
0.0
  0
LINE
  5
42A
330
1F
100
AcDbEntity
  8
SPLINE_CIRCULAR
100
AcDbLine
 10
17.55057853318318
 20
26.57113496241409
 30
0.0
 11
17.58057853318319
 21
26.54113496241409
 31
0.0
  0
LINE
  5
42B
330
1F
100
AcDbEntity
  8
SPLINE_FLEX
100
AcDbLine
 10
17.74404015035239
 20
25.72193496241409
 30
0.0
 11
17.74404015035239
 21
25.65068496241408
 31
0.0
  0
LINE
  5
42C
330
1F
100
AcDbEntity
  8
SPLINE_FLEX
100
AcDbLine
 10
17.7140401503524
 20
25.75193496241408
 30
0.0
 11
17.74404015035239
 21
25.72193496241409
 31
0.0
  0
LINE
  5
42D
330
1F
100
AcDbEntity
  8
WEAR_WASHER
100
AcDbLine
 10
17.82057853318318
 20
25.86993496241408
 30
0.0
 11
17.75857853318319
 21
25.86993496241408
 31
0.0
  0
LINE
  5
42E
330
1F
100
AcDbEntity
  8
SPLINE_CIRCULAR
100
AcDbLine
 10
17.72857853318317
 20
25.88213496241408
 30
0.0
 11
17.75857853318319
 21
25.85213396241409
 31
0.0
  0
LINE
  5
42F
330
1F
100
AcDbEntity
  8
SPLINE_CIRCULAR
100
AcDbLine
 10
17.75857853318319
 20
25.85213396241409
 30
0.0
 11
17.75857853318319
 21
25.76443496241408
 31
0.0
  0
LINE
  5
430
330
1F
100
AcDbEntity
  8
SPLINE_CIRCULAR
100
AcDbLine
 10
17.73857853318317
 20
25.74443496241409
 30
0.0
 11
17.75857853318319
 21
25.76443496241408
 31
0.0
  0
LINE
  5
431
330
1F
100
AcDbEntity
  8
SPLINE_CIRCULAR
100
AcDbLine
 10
17.73857853318317
 20
25.72739657958328
 30
0.0
 11
17.73857853318317
 21
25.74443496241409
 31
0.0
  0
ARC
  5
432
330
1F
100
AcDbEntity
  8
BEARING_1
  6
Continuous
100
AcDbCircle
 10
-21.02911670725883
 20
24.18417056607967
 30
0.0
 40
0.2343749999990625
210
0.0
220
0.0
230
-1.0
100
AcDbArc
 50
232.2860347605414
 51
359.6326461166078
  0
CIRCLE
  5
433
330
1F
100
AcDbEntity
  8
BEARING_1
  6
Continuous
100
AcDbCircle
 10
22.88035738762038
 20
23.22493496241406
 30
0.0
 40
1.874999999992508
  0
LINE
  5
434
330
1F
100
AcDbEntity
  8
WAVE_GENERATOR
100
AcDbLine
 10
23.07725738762039
 20
24.04398496241408
 30
0.0
 11
23.07725738762039
 21
23.88514896241408
 31
0.0
  0
LINE
  5
435
330
1F
100
AcDbEntity
  8
WAVE_GENERATOR
100
AcDbLine
 10
22.68350738762037
 20
24.04398496241408
 30
0.0
 11
22.68350738762037
 21
23.88516396241405
 31
0.0
  0
CIRCLE
  5
436
330
1F
100
AcDbEntity
  8
WAVE_GENERATOR
100
AcDbCircle
 10
22.88035738762038
 20
23.22493496241406
 30
0.0
 40
0.9839999999999999
  0
ARC
  5
437
330
1F
100
AcDbEntity
  8
WAVE_GENERATOR
100
AcDbCircle
 10
22.88035738762038
 20
23.22493496241406
 30
0.0
 40
0.68895
100
AcDbArc
 50
0.0
 51
73.39347000000008
  0
CIRCLE
  5
438
330
1F
100
AcDbEntity
  8
LINE_CENTER
  6
DASHDOT
100
AcDbCircle
 10
22.88035738762038
 20
23.22493496241406
 30
0.0
 40
1.279549999999997
  0
CIRCLE
  5
439
330
1F
100
AcDbEntity
  8
WAVE_GENERATOR
100
AcDbCircle
 10
22.88035738762038
 20
23.22493496241406
 30
0.0
 40
1.7846
  0
ARC
  5
43A
330
1F
100
AcDbEntity
  8
BEARING_1
  6
Continuous
100
AcDbCircle
 10
-22.59644992425585
 20
21.15935476493656
 30
0.0
 40
0.2343749999990625
210
0.0
220
0.0
230
-1.0
100
AcDbArc
 50
305.5847451877399
 51
72.93135654380631
  0
ARC
  5
43B
330
1F
100
AcDbEntity
  8
BEARING_1
  6
Continuous
100
AcDbCircle
 10
-22.04969111529428
 20
21.31254939878285
 30
0.0
 40
0.2343749999990625
210
0.0
220
0.0
230
-1.0
100
AcDbArc
 50
138.3729912822807
 51
265.7196026383469
  0
ARC
  5
43C
330
1F
100
AcDbEntity
  8
WAVE_GENERATOR
100
AcDbCircle
 10
22.88035738762038
 20
23.22493496241406
 30
0.0
 40
0.68895
100
AcDbArc
 50
106.6021799999999
 51
0.000012806600012
  0
ARC
  5
43D
330
1F
100
AcDbEntity
  8
BEARING_1
  6
Continuous
100
AcDbCircle
 10
-21.17697516070042
 20
22.02255649080937
 30
0.0
 40
0.2343749999990625
210
0.0
220
0.0
230
-1.0
100
AcDbArc
 50
352.5412669268703
 51
119.8878782829367
  0
CIRCLE
  5
43E
330
1F
100
AcDbEntity
  8
SPLINE_CIRCULAR
100
AcDbCircle
 10
20.32320138762038
 20
21.74855996241408
 30
0.0
 40
0.17715
  0
CIRCLE
  5
43F
330
1F
100
AcDbEntity
  8
SPLINE_CIRCULAR
  6
DOT
100
AcDbCircle
 10
20.32320138762038
 20
21.74855996241408
 30
0.0
 40
0.19685
  0
ARC
  5
440
330
1F
100
AcDbEntity
  8
BEARING_1
  6
Continuous
100
AcDbCircle
 10
-22.04969111529428
 20
21.31254939878285
 30
0.0
 40
0.2343749999990625
210
0.0
220
0.0
230
-1.0
100
AcDbArc
 50
321.2369191007833
 51
88.58353045684976
  0
ARC
  5
441
330
1F
100
AcDbEntity
  8
BEARING_1
  6
Continuous
100
AcDbCircle
 10
-21.56453902370582
 20
21.60757692130182
 30
0.0
 40
0.2343749999990625
210
0.0
220
0.0
230
-1.0
100
AcDbArc
 50
154.0251651953242
 51
281.3717765513905
  0
ARC
  5
442
330
1F
100
AcDbEntity
  8
BEARING_1
  6
Continuous
100
AcDbCircle
 10
-21.56453902370582
 20
21.60757692130182
 30
0.0
 40
0.2343749999990625
210
0.0
220
0.0
230
-1.0
100
AcDbArc
 50
336.8890930138268
 51
104.2357043698932
  0
ARC
  5
443
330
1F
100
AcDbEntity
  8
BEARING_1
  6
Continuous
100
AcDbCircle
 10
-21.17697516070042
 20
22.02255649080937
 30
0.0
 40
0.2343749999990625
210
0.0
220
0.0
230
-1.0
100
AcDbArc
 50
169.6773391083677
 51
297.0239504644339
  0
ARC
  5
444
330
1F
100
AcDbEntity
  8
BEARING_1
  6
Continuous
100
AcDbCircle
 10
-20.9157433650105
 20
22.52671097104035
 30
0.0
 40
0.2343749999990625
210
0.0
220
0.0
230
-1.0
100
AcDbArc
 50
185.329513021411
 51
312.6761243774775
  0
ARC
  5
445
330
1F
100
AcDbEntity
  8
BEARING_1
  6
Continuous
100
AcDbCircle
 10
-20.9157433650105
 20
22.52671097104035
 30
0.0
 40
0.2343749999990625
210
0.0
220
0.0
230
-1.0
100
AcDbArc
 50
8.193440839913932
 51
135.5400521959799
  0
ARC
  5
446
330
1F
100
AcDbEntity
  8
BEARING_1
  6
Continuous
100
AcDbCircle
 10
-20.80021800386642
 20
23.08264953054928
 30
0.0
 40
0.2343749999990625
210
0.0
220
0.0
230
-1.0
100
AcDbArc
 50
200.9816869344545
 51
328.3282982905209
  0
ARC
  5
447
330
1F
100
AcDbEntity
  8
BEARING_1
  6
Continuous
100
AcDbCircle
 10
-20.83896706481091
 20
23.6491407496271
 30
0.0
 40
0.2343749999990625
210
0.0
220
0.0
230
-1.0
100
AcDbArc
 50
216.633860847498
 51
343.9804722035643
  0
ARC
  5
448
330
1F
100
AcDbEntity
  8
BEARING_1
  6
Continuous
100
AcDbCircle
 10
-20.83896706481091
 20
23.6491407496271
 30
0.0
 40
0.2343749999990625
210
0.0
220
0.0
230
-1.0
100
AcDbArc
 50
39.49778866600086
 51
166.8444000220671
  0
ARC
  5
449
330
1F
100
AcDbEntity
  8
BEARING_1
  6
Continuous
100
AcDbCircle
 10
-20.80021800386642
 20
23.08264953054928
 30
0.0
 40
0.2343749999990625
210
0.0
220
0.0
230
-1.0
100
AcDbArc
 50
23.84561475295737
 51
151.1922261090234
  0
CIRCLE
  5
44A
330
1F
100
AcDbEntity
  8
LINE_CENTER
  6
DASHDOT
100
AcDbCircle
 10
21.60080738762037
 20
23.22493496241406
 30
0.0
 40
0.1575
  0
CIRCLE
  5
44B
330
1F
100
AcDbEntity
  8
WAVE_GENERATOR
100
AcDbCircle
 10
21.85195238762039
 20
22.63118496241407
 30
0.0
 40
0.0625
  0
CIRCLE
  5
44C
330
1F
100
AcDbEntity
  8
WAVE_GENERATOR
100
AcDbCircle
 10
21.60080738762037
 20
23.22493496241406
 30
0.0
 40
0.11800001
  0
ARC
  5
44D
330
1F
100
AcDbEntity
  8
BEARING_1
  6
Continuous
100
AcDbCircle
 10
-24.58373961454034
 20
22.02255649080937
 30
0.0
 40
0.2343749999990625
210
0.0
220
0.0
230
-1.0
100
AcDbArc
 50
60.11212171706333
 51
187.4587330731295
  0
ARC
  5
44E
330
1F
100
AcDbEntity
  8
BEARING_1
  6
Continuous
100
AcDbCircle
 10
-23.71102365994647
 20
21.31254939878285
 30
0.0
 40
0.2343749999990625
210
0.0
220
0.0
230
-1.0
100
AcDbArc
 50
274.2803973616529
 51
41.62700871771937
  0
ARC
  5
44F
330
1F
100
AcDbEntity
  8
BEARING_1
  6
Continuous
100
AcDbCircle
 10
-23.16426485098492
 20
21.15935476493656
 30
0.0
 40
0.2343749999990625
210
0.0
220
0.0
230
-1.0
100
AcDbArc
 50
107.0686434561936
 51
234.4152548122601
  0
ARC
  5
450
330
1F
100
AcDbEntity
  8
BEARING_1
  6
Continuous
100
AcDbCircle
 10
-23.16426485098492
 20
21.15935476493656
 30
0.0
 40
0.2343749999990625
210
0.0
220
0.0
230
-1.0
100
AcDbArc
 50
289.9325712746963
 51
57.27918263076279
  0
ARC
  5
451
330
1F
100
AcDbEntity
  8
BEARING_1
  6
Continuous
100
AcDbCircle
 10
-22.59644992425585
 20
21.15935476493656
 30
0.0
 40
0.2343749999990625
210
0.0
220
0.0
230
-1.0
100
AcDbArc
 50
122.7208173692372
 51
250.0674287253036
  0
ARC
  5
452
330
1F
100
AcDbEntity
  8
BEARING_1
  6
Continuous
100
AcDbCircle
 10
-24.19617575153494
 20
21.6075769213018
 30
0.0
 40
0.2343749999990625
210
0.0
220
0.0
230
-1.0
100
AcDbArc
 50
258.6282234486095
 51
25.97483480467584
  0
ARC
  5
453
330
1F
100
AcDbEntity
  8
BEARING_1
  6
Continuous
100
AcDbCircle
 10
-23.71102365994647
 20
21.31254939878285
 30
0.0
 40
0.2343749999990625
210
0.0
220
0.0
230
-1.0
100
AcDbArc
 50
91.41646954315032
 51
218.7630808992166
  0
ARC
  5
454
330
1F
100
AcDbEntity
  8
BEARING_1
  6
Continuous
100
AcDbCircle
 10
-24.58373961454034
 20
22.02255649080937
 30
0.0
 40
0.2343749999990625
210
0.0
220
0.0
230
-1.0
100
AcDbArc
 50
242.9760495355659
 51
10.32266089163238
  0
ARC
  5
455
330
1F
100
AcDbEntity
  8
BEARING_1
  6
Continuous
100
AcDbCircle
 10
-24.19617575153494
 20
21.6075769213018
 30
0.0
 40
0.2343749999990625
210
0.0
220
0.0
230
-1.0
100
AcDbArc
 50
75.76429563010681
 51
203.110906986173
  0
CIRCLE
  5
456
330
1F
100
AcDbEntity
  8
LINE_CENTER
  6
DASHDOT
100
AcDbCircle
 10
24.15990738762038
 20
23.22493496241406
 30
0.0
 40
0.1575
  0
CIRCLE
  5
457
330
1F
100
AcDbEntity
  8
WAVE_GENERATOR
100
AcDbCircle
 10
23.90876238762039
 20
22.63118496241407
 30
0.0
 40
0.0625
  0
CIRCLE
  5
458
330
1F
100
AcDbEntity
  8
WAVE_GENERATOR
100
AcDbCircle
 10
24.15990738762038
 20
23.22493496241406
 30
0.0
 40
0.11800001
  0
ARC
  5
459
330
1F
100
AcDbEntity
  8
BEARING_1
  6
Continuous
100
AcDbCircle
 10
-21.02911670725883
 20
24.18417056607967
 30
0.0
 40
0.2343749999990625
210
0.0
220
0.0
230
-1.0
100
AcDbArc
 50
55.14996257904432
 51
182.4965739351105
  0
CIRCLE
  5
45A
330
1F
100
AcDbEntity
  8
SPLINE_CIRCULAR
100
AcDbCircle
 10
20.32320038762037
 20
24.70130996241408
 30
0.0
 40
0.17715
  0
CIRCLE
  5
45B
330
1F
100
AcDbEntity
  8
SPLINE_CIRCULAR
  6
DOT
100
AcDbCircle
 10
20.32320038762037
 20
24.70130996241408
 30
0.0
 40
0.19685
  0
ARC
  5
45C
330
1F
100
AcDbEntity
  8
BEARING_1
  6
Continuous
100
AcDbCircle
 10
-21.35656440210659
 20
24.64805826601927
 30
0.0
 40
0.2343749999990625
210
0.0
220
0.0
230
-1.0
100
AcDbArc
 50
70.80213649208779
 51
198.1487478481539
  0
ARC
  5
45D
330
1F
100
AcDbEntity
  8
BEARING_1
  6
Continuous
100
AcDbCircle
 10
-21.79702485180083
 20
25.00639942088636
 30
0.0
 40
0.2343749999990625
210
0.0
220
0.0
230
-1.0
100
AcDbArc
 50
263.5903825866283
 51
30.93699394269482
  0
ARC
  5
45E
330
1F
100
AcDbEntity
  8
BEARING_1
  6
Continuous
100
AcDbCircle
 10
-21.35656440210659
 20
24.64805826601927
 30
0.0
 40
0.2343749999990625
210
0.0
220
0.0
230
-1.0
100
AcDbArc
 50
247.938208673585
 51
15.28482002965133
  0
ARC
  5
45F
330
1F
100
AcDbEntity
  8
BEARING_1
  6
Continuous
100
AcDbCircle
 10
-21.79702485180083
 20
25.00639942088636
 30
0.0
 40
0.2343749999990625
210
0.0
220
0.0
230
-1.0
100
AcDbArc
 50
86.45431040513129
 51
213.8009217611975
  0
ARC
  5
460
330
1F
100
AcDbEntity
  8
BEARING_1
  6
Continuous
100
AcDbCircle
 10
-22.31783111976024
 20
25.23261750652621
 30
0.0
 40
0.2343749999990625
210
0.0
220
0.0
230
-1.0
100
AcDbArc
 50
279.2425564996718
 51
46.58916785573827
  0
ARC
  5
461
330
1F
100
AcDbEntity
  8
BEARING_1
  6
Continuous
100
AcDbCircle
 10
-23.44288365548053
 20
25.23261750652621
 30
0.0
 40
0.2343749999990625
210
0.0
220
0.0
230
-1.0
100
AcDbArc
 50
133.4108321442615
 51
260.757443500328
  0
ARC
  5
462
330
1F
100
AcDbEntity
  8
BEARING_1
  6
Continuous
100
AcDbCircle
 10
-23.96368992343993
 20
25.00639942088636
 30
0.0
 40
0.2343749999990625
210
0.0
220
0.0
230
-1.0
100
AcDbArc
 50
326.1990782388023
 51
93.54568959486885
  0
LINE
  5
463
330
1F
100
AcDbEntity
  8
WAVE_GENERATOR
100
AcDbLine
 10
22.68350738762037
 20
24.04398496241408
 30
0.0
 11
23.07725738762039
 21
24.04398496241408
 31
0.0
  0
CIRCLE
  5
464
330
1F
100
AcDbEntity
  8
WAVE_GENERATOR
100
AcDbCircle
 10
22.88035738762038
 20
24.41243496241408
 30
0.0
 40
0.0625
  0
CIRCLE
  5
465
330
1F
100
AcDbEntity
  8
WAVE_GENERATOR
100
AcDbCircle
 10
22.88035738762038
 20
24.41243496241408
 30
0.0
 40
0.0625
  0
ARC
  5
466
330
1F
100
AcDbEntity
  8
BEARING_1
  6
Continuous
100
AcDbCircle
 10
-22.88035738762038
 20
25.30993496240574
 30
0.0
 40
0.2343749999990625
210
0.0
220
0.0
230
-1.0
100
AcDbArc
 50
117.7586582312182
 51
245.1052695872845
  0
ARC
  5
467
330
1F
100
AcDbEntity
  8
BEARING_1
  6
Continuous
100
AcDbCircle
 10
-22.31783111976024
 20
25.23261750652621
 30
0.0
 40
0.2343749999990625
210
0.0
220
0.0
230
-1.0
100
AcDbArc
 50
102.1064843181747
 51
229.4530956742409
  0
ARC
  5
468
330
1F
100
AcDbEntity
  8
BEARING_1
  6
Continuous
100
AcDbCircle
 10
-22.88035738762038
 20
25.30993496240574
 30
0.0
 40
0.2343749999990625
210
0.0
220
0.0
230
-1.0
100
AcDbArc
 50
294.8947304127155
 51
62.2413417687818
  0
ARC
  5
469
330
1F
100
AcDbEntity
  8
BEARING_1
  6
Continuous
100
AcDbCircle
 10
-23.44288365548053
 20
25.23261750652621
 30
0.0
 40
0.2343749999990625
210
0.0
220
0.0
230
-1.0
100
AcDbArc
 50
310.5469043257588
 51
77.89351568182536
  0
ARC
  5
46A
330
1F
100
AcDbEntity
  8
BEARING_1
  6
Continuous
100
AcDbCircle
 10
-23.96368992343993
 20
25.00639942088636
 30
0.0
 40
0.2343749999990625
210
0.0
220
0.0
230
-1.0
100
AcDbArc
 50
149.0630060573049
 51
276.4096174133715
  0
ARC
  5
46B
330
1F
100
AcDbEntity
  8
BEARING_1
  6
Continuous
100
AcDbCircle
 10
-24.40415037313419
 20
24.64805826601927
 30
0.0
 40
0.2343749999990625
210
0.0
220
0.0
230
-1.0
100
AcDbArc
 50
341.851252151846
 51
109.1978635079122
  0
ARC
  5
46C
330
1F
100
AcDbEntity
  8
BEARING_1
  6
Continuous
100
AcDbCircle
 10
-24.40415037313419
 20
24.64805826601927
 30
0.0
 40
0.2343749999990625
210
0.0
220
0.0
230
-1.0
100
AcDbArc
 50
164.7151799703486
 51
292.061791326415
  0
ARC
  5
46D
330
1F
100
AcDbEntity
  8
BEARING_1
  6
Continuous
100
AcDbCircle
 10
-24.73159806798195
 20
24.18417056607967
 30
0.0
 40
0.2343749999990625
210
0.0
220
0.0
230
-1.0
100
AcDbArc
 50
357.5034260648893
 51
124.8500374209557
  0
CIRCLE
  5
46E
330
1F
100
AcDbEntity
  8
SPLINE_CIRCULAR
100
AcDbCircle
 10
22.88035738762038
 20
26.17768396241408
 30
0.0
 40
0.17715
  0
CIRCLE
  5
46F
330
1F
100
AcDbEntity
  8
SPLINE_CIRCULAR
100
AcDbCircle
 10
22.88035738762038
 20
26.17768496241406
 30
0.0
 40
0.17715
  0
CIRCLE
  5
470
330
1F
100
AcDbEntity
  8
SPLINE_CIRCULAR
  6
DOT
100
AcDbCircle
 10
22.88035738762038
 20
26.17768496241406
 30
0.0
 40
0.19685
  0
CIRCLE
  5
471
330
1F
100
AcDbEntity
  8
SPLINE_CIRCULAR
100
AcDbCircle
 10
25.43751438762039
 20
21.74855996241406
 30
0.0
 40
0.17715
  0
CIRCLE
  5
472
330
1F
100
AcDbEntity
  8
SPLINE_CIRCULAR
  6
DOT
100
AcDbCircle
 10
25.43751438762039
 20
21.74855996241406
 30
0.0
 40
0.19685
  0
CIRCLE
  5
473
330
1F
100
AcDbEntity
  8
SPLINE_CIRCULAR
100
AcDbCircle
 10
25.43751438762039
 20
24.70130996241405
 30
0.0
 40
0.17715
  0
CIRCLE
  5
474
330
1F
100
AcDbEntity
  8
SPLINE_CIRCULAR
  6
DOT
100
AcDbCircle
 10
25.43751438762039
 20
24.70130996241405
 30
0.0
 40
0.19685
  0
INSERT
  5
517
330
1F
100
AcDbEntity
  8
0
100
AcDbBlockReference
  2
Notice
 10
8.366125506568227
 20
12.77630881028605
 30
0.0
 41
2.784173195582316
 42
2.784173195582316
 43
2.784173195582316
  0
INSERT
  5
5F3
330
1F
100
AcDbEntity
  8
0
100
AcDbBlockReference
  2
HD logo-new
 10
18.10020236941533
 20
12.63709915530469
 30
0.0
 41
0.055566270997858
 42
0.055566270997858
 43
0.055566270997858
  0
INSERT
  5
5FD
330
1F
100
AcDbEntity
  8
0
100
AcDbBlockReference
  2
HD LLC
 10
24.51710673406005
 20
12.39093681733899
 30
0.0
 41
0.0564094358039077
 42
0.0564094358039077
 43
0.0564094358039077
  0
MTEXT
  5
606
330
1F
100
AcDbEntity
  8
0
100
AcDbMText
 10
21.37709812443205
 20
17.24729613773465
 30
0.0
 40
0.75
 41
7.8189
 71
     1
 72
     5
  1
FBB-050
 73
     1
 44
1.0
  0
ENDSEC
  0
SECTION
  2
OBJECTS
  0
DICTIONARY
  5
C
330
0
100
AcDbDictionary
281
     1
  3
ACAD_GROUP
350
D
  3
ACAD_LAYOUT
350
1A
  3
ACAD_MLINESTYLE
350
17
  3
ACAD_PLOTSETTINGS
350
19
  3
ACAD_PLOTSTYLENAME
350
E
  3
AcDbVariableDictionary
350
476
  0
DICTIONARY
  5
D
102
{ACAD_REACTORS
330
C
102
}
330
C
100
AcDbDictionary
281
     1
  0
DICTIONARY
  5
1A
102
{ACAD_REACTORS
330
C
102
}
330
C
100
AcDbDictionary
281
     1
  3
Layout1
350
1E
  3
Layout2
350
26
  3
Model
350
22
  0
DICTIONARY
  5
17
102
{ACAD_REACTORS
330
C
102
}
330
C
100
AcDbDictionary
281
     1
  3
Standard
350
18
  0
DICTIONARY
  5
19
102
{ACAD_REACTORS
330
C
102
}
330
C
100
AcDbDictionary
281
     1
  0
ACDBDICTIONARYWDFLT
  5
E
102
{ACAD_REACTORS
330
C
102
}
330
C
100
AcDbDictionary
281
     1
  3
Normal
350
F
100
AcDbDictionaryWithDefault
340
F
  0
DICTIONARY
  5
476
102
{ACAD_REACTORS
330
C
102
}
330
C
100
AcDbDictionary
281
     1
  3
DIMASSOC
350
478
  3
HIDETEXT
350
477
  0
LAYOUT
  5
1E
102
{ACAD_REACTORS
330
1A
102
}
330
1A
100
AcDbPlotSettings
  1

  2
\\HARMONIC-NT2\8100 Engineering
  4

  6

 40
0.0
 41
0.0
 42
0.0
 43
0.0
 44
0.0
 45
0.0
 46
0.0
 47
0.0
 48
0.0
 49
0.0
140
0.0
141
0.0
142
1.0
143
1.0
 70
   688
 72
     0
 73
     0
 74
     5
  7

 75
    16
147
1.0
148
0.0
149
0.0
100
AcDbLayout
  1
Layout1
 70
     1
 71
     1
 10
0.0
 20
0.0
 11
12.0
 21
9.0
 12
0.0
 22
0.0
 32
0.0
 14
1.000000000000000E+20
 24
1.000000000000000E+20
 34
1.000000000000000E+20
 15
-1.000000000000000E+20
 25
-1.000000000000000E+20
 35
-1.000000000000000E+20
146
0.0
 13
0.0
 23
0.0
 33
0.0
 16
1.0
 26
0.0
 36
0.0
 17
0.0
 27
1.0
 37
0.0
 76
     0
330
1B
  0
LAYOUT
  5
26
102
{ACAD_REACTORS
330
1A
102
}
330
1A
100
AcDbPlotSettings
  1

  2
\\HARMONIC-NT2\8100 Engineering
  4

  6

 40
0.0
 41
0.0
 42
0.0
 43
0.0
 44
0.0
 45
0.0
 46
0.0
 47
0.0
 48
0.0
 49
0.0
140
0.0
141
0.0
142
1.0
143
1.0
 70
   688
 72
     0
 73
     0
 74
     5
  7

 75
    16
147
1.0
148
0.0
149
0.0
100
AcDbLayout
  1
Layout2
 70
     1
 71
     2
 10
0.0
 20
0.0
 11
12.0
 21
9.0
 12
0.0
 22
0.0
 32
0.0
 14
0.0
 24
0.0
 34
0.0
 15
0.0
 25
0.0
 35
0.0
146
0.0
 13
0.0
 23
0.0
 33
0.0
 16
1.0
 26
0.0
 36
0.0
 17
0.0
 27
1.0
 37
0.0
 76
     0
330
23
  0
LAYOUT
  5
22
102
{ACAD_REACTORS
330
1A
102
}
330
1A
100
AcDbPlotSettings
  1

  2
\\HARMONIC-NT2\8100 Engineering
  4

  6

 40
0.0
 41
0.0
 42
0.0
 43
0.0
 44
0.0
 45
0.0
 46
0.0
 47
0.0
 48
0.0
 49
0.0
140
0.0
141
0.0
142
1.0
143
1.0
 70
  1712
 72
     0
 73
     0
 74
     0
  7

 75
     0
147
1.0
148
0.0
149
0.0
100
AcDbLayout
  1
Model
 70
     1
 71
     0
 10
0.0
 20
0.0
 11
12.0
 21
9.0
 12
0.0
 22
0.0
 32
0.0
 14
0.0
 24
0.0
 34
0.0
 15
0.0
 25
0.0
 35
0.0
146
0.0
 13
0.0
 23
0.0
 33
0.0
 16
1.0
 26
0.0
 36
0.0
 17
0.0
 27
1.0
 37
0.0
 76
     0
330
1F
  0
MLINESTYLE
  5
18
102
{ACAD_REACTORS
330
17
102
}
330
17
100
AcDbMlineStyle
  2
STANDARD
 70
     0
  3

 62
   256
 51
90.0
 52
90.0
 71
     2
 49
0.5
 62
   256
  6
BYLAYER
 49
-0.5
 62
   256
  6
BYLAYER
  0
ACDBPLACEHOLDER
  5
F
102
{ACAD_REACTORS
330
E
102
}
330
E
  0
DICTIONARYVAR
  5
478
102
{ACAD_REACTORS
330
476
102
}
330
476
100
DictionaryVariables
280
     0
  1
2
  0
DICTIONARYVAR
  5
477
102
{ACAD_REACTORS
330
476
102
}
330
476
100
DictionaryVariables
280
     0
  1
1
  0
ENDSEC
  0
EOF
