  0
SECTION
  2
HEADER
  9
$ACADVER
  1
AC1015
  9
$ACADMAINTVER
 70
     6
  9
$DWGCODEPAGE
  3
DOS932
  9
$INSBASE
 10
0.0
 20
0.0
 30
0.0
  9
$EXTMIN
 10
0.0
 20
0.0
 30
0.0
  9
$EXTMAX
 10
420.0
 20
297.0
 30
0.0
  9
$LIMMIN
 10
0.0
 20
0.0
  9
$LIMMAX
 10
420.0
 20
297.0
  9
$ORTHOMODE
 70
     0
  9
$REGENMODE
 70
     1
  9
$FILLMODE
 70
     1
  9
$QTEXTMODE
 70
     0
  9
$MIRRTEXT
 70
     1
  9
$LTSCALE
 40
1.0
  9
$ATTMODE
 70
     1
  9
$TEXTSIZE
 40
3.5277777778
  9
$TRACEWID
 40
1.0
  9
$TEXTSTYLE
  7
Standard
  9
$CLAYER
  8
0
  9
$CELTYPE
  6
ByLayer
  9
$CECOLOR
 62
   256
  9
$CELTSCALE
 40
1.0
  9
$DISPSILH
 70
     0
  9
$DIMSCALE
 40
1.0
  9
$DIMASZ
 40
2.6975097656
  9
$DIMEXO
 40
1.0
  9
$DIMDLI
 40
3.75
  9
$DIMRND
 40
0.0
  9
$DIMDLE
 40
0.0
  9
$DIMEXE
 40
1.0
  9
$DIMTP
 40
0.0
  9
$DIMTM
 40
0.0
  9
$DIMTXT
 40
3.5277777778
  9
$DIMCEN
 40
2.5
  9
$DIMTSZ
 40
0.0
  9
$DIMTOL
 70
     0
  9
$DIMLIM
 70
     0
  9
$DIMTIH
 70
     1
  9
$DIMTOH
 70
     1
  9
$DIMSE1
 70
     0
  9
$DIMSE2
 70
     0
  9
$DIMTAD
 70
     1
  9
$DIMZIN
 70
     0
  9
$DIMBLK
  1

  9
$DIMASO
 70
     1
  9
$DIMSHO
 70
     1
  9
$DIMPOST
  1

  9
$DIMAPOST
  1

  9
$DIMALT
 70
     0
  9
$DIMALTD
 70
     3
  9
$DIMALTF
 40
0.0393700787
  9
$DIMLFAC
 40
1.0
  9
$DIMTOFL
 70
     1
  9
$DIMTVP
 40
0.0
  9
$DIMTIX
 70
     0
  9
$DIMSOXD
 70
     0
  9
$DIMSAH
 70
     0
  9
$DIMBLK1
  1

  9
$DIMBLK2
  1

  9
$DIMSTYLE
  2
ISO-25
  9
$DIMCLRD
 70
     0
  9
$DIMCLRE
 70
     0
  9
$DIMCLRT
 70
     0
  9
$DIMTFAC
 40
1.0
  9
$DIMGAP
 40
2.0
  9
$DIMJUST
 70
     0
  9
$DIMSD1
 70
     0
  9
$DIMSD2
 70
     0
  9
$DIMTOLJ
 70
     0
  9
$DIMTZIN
 70
     0
  9
$DIMALTZ
 70
     0
  9
$DIMALTTZ
 70
     0
  9
$DIMUPT
 70
     0
  9
$DIMDEC
 70
     3
  9
$DIMTDEC
 70
     3
  9
$DIMALTU
 70
     2
  9
$DIMALTTD
 70
     3
  9
$DIMTXSTY
  7
Standard
  9
$DIMAUNIT
 70
     0
  9
$DIMADEC
 70
     3
  9
$DIMALTRND
 40
0.0
  9
$DIMAZIN
 70
     0
  9
$DIMDSEP
 70
    44
  9
$DIMATFIT
 70
     3
  9
$DIMFRAC
 70
     0
  9
$DIMLDRBLK
  1

  9
$DIMLUNIT
 70
     2
  9
$DIMLWD
 70
    -2
  9
$DIMLWE
 70
    -2
  9
$DIMTMOVE
 70
     0
  9
$LUNITS
 70
     2
  9
$LUPREC
 70
     4
  9
$SKETCHINC
 40
1.0
  9
$FILLETRAD
 40
10.0
  9
$AUNITS
 70
     0
  9
$AUPREC
 70
     0
  9
$MENU
  1
.
  9
$ELEVATION
 40
0.0
  9
$PELEVATION
 40
0.0
  9
$THICKNESS
 40
0.0
  9
$LIMCHECK
 70
     0
  9
$CHAMFERA
 40
0.0
  9
$CHAMFERB
 40
0.0
  9
$CHAMFERC
 40
0.0
  9
$CHAMFERD
 40
0.0
  9
$SKPOLY
 70
     0
  9
$TDCREATE
 40
2458681.681793518
  9
$TDUCREATE
 40
2458681.306793518
  9
$TDUPDATE
 40
2458681.681798982
  9
$TDUUPDATE
 40
2458681.306798982
  9
$TDINDWG
 40
0.0000000116
  9
$TDUSRTIMER
 40
0.0000000116
  9
$USRTIMER
 70
     1
  9
$ANGBASE
 50
0.0
  9
$ANGDIR
 70
     0
  9
$PDMODE
 70
     0
  9
$PDSIZE
 40
-1.0
  9
$PLINEWID
 40
0.0
  9
$SPLFRAME
 70
     0
  9
$SPLINETYPE
 70
     6
  9
$SPLINESEGS
 70
     8
  9
$HANDSEED
  5
429
  9
$SURFTAB1
 70
     6
  9
$SURFTAB2
 70
     6
  9
$SURFTYPE
 70
     6
  9
$SURFU
 70
     6
  9
$SURFV
 70
     6
  9
$UCSBASE
  2

  9
$UCSNAME
  2

  9
$UCSORG
 10
0.0
 20
0.0
 30
0.0
  9
$UCSXDIR
 10
1.0
 20
0.0
 30
0.0
  9
$UCSYDIR
 10
0.0
 20
1.0
 30
0.0
  9
$UCSORTHOREF
  2

  9
$UCSORTHOVIEW
 70
     0
  9
$UCSORGTOP
 10
0.0
 20
0.0
 30
0.0
  9
$UCSORGBOTTOM
 10
0.0
 20
0.0
 30
0.0
  9
$UCSORGLEFT
 10
0.0
 20
0.0
 30
0.0
  9
$UCSORGRIGHT
 10
0.0
 20
0.0
 30
0.0
  9
$UCSORGFRONT
 10
0.0
 20
0.0
 30
0.0
  9
$UCSORGBACK
 10
0.0
 20
0.0
 30
0.0
  9
$PUCSBASE
  2

  9
$PUCSNAME
  2

  9
$PUCSORG
 10
0.0
 20
0.0
 30
0.0
  9
$PUCSXDIR
 10
1.0
 20
0.0
 30
0.0
  9
$PUCSYDIR
 10
0.0
 20
1.0
 30
0.0
  9
$PUCSORTHOREF
  2

  9
$PUCSORTHOVIEW
 70
     0
  9
$PUCSORGTOP
 10
0.0
 20
0.0
 30
0.0
  9
$PUCSORGBOTTOM
 10
0.0
 20
0.0
 30
0.0
  9
$PUCSORGLEFT
 10
0.0
 20
0.0
 30
0.0
  9
$PUCSORGRIGHT
 10
0.0
 20
0.0
 30
0.0
  9
$PUCSORGFRONT
 10
0.0
 20
0.0
 30
0.0
  9
$PUCSORGBACK
 10
0.0
 20
0.0
 30
0.0
  9
$USERI1
 70
     0
  9
$USERI2
 70
     0
  9
$USERI3
 70
     0
  9
$USERI4
 70
     0
  9
$USERI5
 70
     0
  9
$USERR1
 40
0.0
  9
$USERR2
 40
0.0
  9
$USERR3
 40
0.0
  9
$USERR4
 40
0.0
  9
$USERR5
 40
0.0
  9
$WORLDVIEW
 70
     1
  9
$SHADEDGE
 70
     3
  9
$SHADEDIF
 70
    70
  9
$TILEMODE
 70
     1
  9
$MAXACTVP
 70
    64
  9
$PINSBASE
 10
0.0
 20
0.0
 30
0.0
  9
$PLIMCHECK
 70
     0
  9
$PEXTMIN
 10
1.0000000000E+20
 20
1.0000000000E+20
 30
1.0000000000E+20
  9
$PEXTMAX
 10
-1.0000000000E+20
 20
-1.0000000000E+20
 30
-1.0000000000E+20
  9
$PLIMMIN
 10
0.0
 20
0.0
  9
$PLIMMAX
 10
420.0
 20
297.0
  9
$UNITMODE
 70
     0
  9
$VISRETAIN
 70
     1
  9
$PLINEGEN
 70
     0
  9
$PSLTSCALE
 70
     1
  9
$TREEDEPTH
 70
  3020
  9
$CMLSTYLE
  2
Standard
  9
$CMLJUST
 70
     0
  9
$CMLSCALE
 40
20.0
  9
$PROXYGRAPHICS
 70
     1
  9
$MEASUREMENT
 70
     1
  9
$CELWEIGHT
370
    -1
  9
$ENDCAPS
280
     0
  9
$JOINSTYLE
280
     0
  9
$LWDISPLAY
290
     1
  9
$INSUNITS
 70
     4
  9
$HYPERLINKBASE
  1

  9
$STYLESHEET
  1

  9
$XEDIT
290
     1
  9
$CEPSNTYPE
380
     0
  9
$PSTYLEMODE
290
     1
  9
$FINGERPRINTGUID
  2
{C16286FE-4742-4C2C-A30F-2D5A78441E70}
  9
$VERSIONGUID
  2
{FAEB1C32-E019-11D5-929B-00C0DF256EC4}
  9
$EXTNAMES
290
     1
  9
$PSVPSCALE
 40
0.0
  9
$OLESTARTUP
290
     0
  0
ENDSEC
  0
SECTION
  2
CLASSES
  0
CLASS
  1
ACDBDICTIONARYWDFLT
  2
AcDbDictionaryWithDefault
  3
ObjectDBX Classes
 90
        0
280
     0
281
     0
  0
CLASS
  1
VISUALSTYLE
  2
AcDbVisualStyle
  3
ObjectDBX Classes
 90
     4095
280
     0
281
     0
  0
CLASS
  1
MATERIAL
  2
AcDbMaterial
  3
ObjectDBX Classes
 90
     1153
280
     0
281
     0
  0
CLASS
  1
SCALE
  2
AcDbScale
  3
ObjectDBX Classes
 90
     1153
280
     0
281
     0
  0
CLASS
  1
TABLESTYLE
  2
AcDbTableStyle
  3
ObjectDBX Classes
 90
     4095
280
     0
281
     0
  0
CLASS
  1
MLEADERSTYLE
  2
AcDbMLeaderStyle
  3
ACDB_MLEADERSTYLE_CLASS
 90
     4095
280
     0
281
     0
  0
CLASS
  1
SUN
  2
AcDbSun
  3
SCENEOE
 90
     1153
280
     0
281
     0
  0
CLASS
  1
ACDBPLACEHOLDER
  2
AcDbPlaceHolder
  3
ObjectDBX Classes
 90
        0
280
     0
281
     0
  0
CLASS
  1
LAYOUT
  2
AcDbLayout
  3
ObjectDBX Classes
 90
        0
280
     0
281
     0
  0
ENDSEC
  0
SECTION
  2
TABLES
  0
TABLE
  2
VPORT
  5
8
330
0
100
AcDbSymbolTable
 70
     1
  0
VPORT
  5
29
330
8
100
AcDbSymbolTableRecord
100
AcDbViewportTableRecord
  2
*Active
 70
     0
 10
0.0
 20
0.0
 11
1.0
 21
1.0
 12
210.0
 22
148.5
 13
0.0
 23
0.0
 14
10.0
 24
10.0
 15
10.0
 25
10.0
 16
0.0
 26
0.0
 36
1.0
 17
0.0
 27
0.0
 37
0.0
 40
297.0
 41
1.4141414141
 42
50.0
 43
0.0
 44
0.0
 50
0.0
 51
0.0
 71
     0
 72
  2000
 73
     1
 74
     3
 75
     0
 76
     0
 77
     0
 78
     0
281
     0
 65
     1
110
0.0
120
0.0
130
0.0
111
1.0
121
0.0
131
0.0
112
0.0
122
1.0
132
0.0
 79
     0
146
0.0
  0
ENDTAB
  0
TABLE
  2
LTYPE
  5
5
330
0
100
AcDbSymbolTable
 70
     6
  0
LTYPE
  5
14
330
5
100
AcDbSymbolTableRecord
100
AcDbLinetypeTableRecord
  2
ByBlock
 70
     0
  3

 72
    65
 73
     0
 40
0.0
  0
LTYPE
  5
15
330
5
100
AcDbSymbolTableRecord
100
AcDbLinetypeTableRecord
  2
ByLayer
 70
     0
  3

 72
    65
 73
     0
 40
0.0
  0
LTYPE
  5
16
330
5
100
AcDbSymbolTableRecord
100
AcDbLinetypeTableRecord
  2
Continuous
 70
     0
  3
Solid line
 72
    65
 73
     0
 40
0.0
  0
LTYPE
  5
6E
330
5
100
AcDbSymbolTableRecord
100
AcDbLinetypeTableRecord
  2
HIDDEN
 70
     0
  3
Hidden __ __ __ __ __ __ __ __ __ __ __ __ __ __
 72
    65
 73
     2
 40
1.905
 49
1.27
 74
     0
 49
-0.635
 74
     0
  0
LTYPE
  5
6F
330
5
100
AcDbSymbolTableRecord
100
AcDbLinetypeTableRecord
  2
PHANTOM
 70
     0
  3
Phantom ______  __  __  ______  __  __  ______
 72
    65
 73
     6
 40
12.7
 49
6.35
 74
     0
 49
-1.27
 74
     0
 49
1.27
 74
     0
 49
-1.27
 74
     0
 49
1.27
 74
     0
 49
-1.27
 74
     0
  0
LTYPE
  5
70
330
5
100
AcDbSymbolTableRecord
100
AcDbLinetypeTableRecord
  2
CENTER
 70
     0
  3
Center ____ _ ____ _ ____ _ ____ _ ____ _ ____
 72
    65
 73
     4
 40
10.16
 49
6.35
 74
     0
 49
-1.27
 74
     0
 49
1.27
 74
     0
 49
-1.27
 74
     0
  0
LTYPE
  5
71
330
5
100
AcDbSymbolTableRecord
100
AcDbLinetypeTableRecord
  2
CENTERX2
 70
     0
  3
Center (2x) ________  __  ________  __  _____
 72
    65
 73
     4
 40
20.32
 49
12.7
 74
     0
 49
-2.54
 74
     0
 49
2.54
 74
     0
 49
-2.54
 74
     0
  0
LTYPE
  5
72
330
5
100
AcDbSymbolTableRecord
100
AcDbLinetypeTableRecord
  2
DOT2
 70
     0
  3
Dot (.5x) ........................................
 72
    65
 73
     2
 40
0.635
 49
0.0
 74
     0
 49
-0.635
 74
     0
  0
ENDTAB
  0
TABLE
  2
LAYER
  5
2
330
0
100
AcDbSymbolTable
 70
     6
  0
LAYER
  5
10
330
2
100
AcDbSymbolTableRecord
100
AcDbLayerTableRecord
  2
0
 70
     0
 62
     7
  6
Continuous
370
    -3
390
F
  0
LAYER
  5
73
330
2
100
AcDbSymbolTableRecord
100
AcDbLayerTableRecord
  2
SLD-0
 70
     0
 62
   179
  6
Continuous
370
    -3
390
F
  0
LAYER
  5
74
330
2
100
AcDbSymbolTableRecord
100
AcDbLayerTableRecord
  2
1
 70
     0
 62
   179
  6
Continuous
370
    -3
390
F
  0
LAYER
  5
75
330
2
100
AcDbSymbolTableRecord
100
AcDbLayerTableRecord
  2
FORMAT
 70
     0
 62
     7
  6
Continuous
370
    -3
390
F
  0
LAYER
  5
76
330
2
100
AcDbSymbolTableRecord
100
AcDbLayerTableRecord
  2
注記
 70
     0
 62
   190
  6
Continuous
370
    -3
390
F
  0
LAYER
  5
77
330
2
100
AcDbSymbolTableRecord
100
AcDbLayerTableRecord
  2
寸法
 70
     0
 62
    96
  6
Continuous
370
    -3
390
F
  0
ENDTAB
  0
TABLE
  2
STYLE
  5
3
330
0
100
AcDbSymbolTable
 70
     2
  0
STYLE
  5
11
330
3
100
AcDbSymbolTableRecord
100
AcDbTextStyleTableRecord
  2
Standard
 70
     0
 40
0.0
 41
1.0
 50
0.0
 71
     0
 42
3.5277777778
  3
txt
  4
bigfont
  0
STYLE
  5
7F
330
3
100
AcDbSymbolTableRecord
100
AcDbTextStyleTableRecord
  2
SLDTEXTSTYLE0
 70
     0
 40
0.0
 41
0.7
 50
0.0
 71
     0
 42
3.5277777778
  3
TXT
  4
bigfont
  0
ENDTAB
  0
TABLE
  2
VIEW
  5
6
330
0
100
AcDbSymbolTable
 70
     0
  0
ENDTAB
  0
TABLE
  2
UCS
  5
7
330
0
100
AcDbSymbolTable
 70
     0
  0
ENDTAB
  0
TABLE
  2
APPID
  5
9
330
0
100
AcDbSymbolTable
 70
     1
  0
APPID
  5
12
330
9
100
AcDbSymbolTableRecord
100
AcDbRegAppTableRecord
  2
ACAD
 70
     0
  0
ENDTAB
  0
TABLE
  2
DIMSTYLE
  5
A
330
0
100
AcDbSymbolTable
 70
     1
100
AcDbDimStyleTable
  0
DIMSTYLE
105
27
330
A
100
AcDbSymbolTableRecord
100
AcDbDimStyleTableRecord
  2
ISO-25
 70
     0
 41
2.5
 42
0.625
 43
3.75
 44
1.25
 73
     0
 74
     0
 77
     1
 78
     8
140
2.5
141
2.5
143
0.0393700787
147
0.625
171
     3
172
     1
178
     0
271
     2
272
     2
274
     3
278
    44
283
     0
284
     8
340
11
  0
ENDTAB
  0
TABLE
  2
BLOCK_RECORD
  5
1
330
0
100
AcDbSymbolTable
 70
    10
  0
BLOCK_RECORD
  5
1F
330
1
100
AcDbSymbolTableRecord
100
AcDbBlockTableRecord
  2
*Model_Space
340
22
  0
BLOCK_RECORD
  5
1B
330
1
100
AcDbSymbolTableRecord
100
AcDbBlockTableRecord
  2
*Paper_Space
340
1E
  0
BLOCK_RECORD
  5
23
330
1
100
AcDbSymbolTableRecord
100
AcDbBlockTableRecord
  2
*Paper_Space0
340
26
  0
BLOCK_RECORD
  5
78
330
1
100
AcDbSymbolTableRecord
100
AcDbBlockTableRecord
  2
SW_NOTE_0
340
0
102
{BLKREFS
331
89
102
}
  0
BLOCK_RECORD
  5
BD
330
1
100
AcDbSymbolTableRecord
100
AcDbBlockTableRecord
  2
SW_CENTERMARKSYMBOL_0
340
0
102
{BLKREFS
331
11E
102
}
  0
BLOCK_RECORD
  5
11F
330
1
100
AcDbSymbolTableRecord
100
AcDbBlockTableRecord
  2
SW_CENTERMARKSYMBOL_1
340
0
102
{BLKREFS
331
12A
102
}
  0
BLOCK_RECORD
  5
12B
330
1
100
AcDbSymbolTableRecord
100
AcDbBlockTableRecord
  2
SW_CENTERMARKSYMBOL_2
340
0
102
{BLKREFS
331
158
102
}
  0
BLOCK_RECORD
  5
327
330
1
100
AcDbSymbolTableRecord
100
AcDbBlockTableRecord
  2
SW_NOTE_1
340
0
102
{BLKREFS
331
32C
102
}
  0
BLOCK_RECORD
  5
32D
330
1
100
AcDbSymbolTableRecord
100
AcDbBlockTableRecord
  2
SW_CENTERMARKSYMBOL_3
340
0
102
{BLKREFS
331
384
102
}
  0
BLOCK_RECORD
  5
385
330
1
100
AcDbSymbolTableRecord
100
AcDbBlockTableRecord
  2
SW_CENTERMARKSYMBOL_4
340
0
102
{BLKREFS
331
3D0
102
}
  0
BLOCK_RECORD
  5
3D1
330
1
100
AcDbSymbolTableRecord
100
AcDbBlockTableRecord
  2
SW_CENTERMARKSYMBOL_5
340
0
102
{BLKREFS
331
410
102
}
  0
BLOCK_RECORD
  5
411
330
1
100
AcDbSymbolTableRecord
100
AcDbBlockTableRecord
  2
SW_CENTERMARKSYMBOL_6
340
0
102
{BLKREFS
331
41C
102
}
  0
ENDTAB
  0
ENDSEC
  0
SECTION
  2
BLOCKS
  0
BLOCK
  5
20
330
1F
100
AcDbEntity
  8
0
100
AcDbBlockBegin
  2
*Model_Space
 70
     0
 10
0.0
 20
0.0
 30
0.0
  3
*Model_Space
  1

  0
ENDBLK
  5
21
330
1F
100
AcDbEntity
  8
0
100
AcDbBlockEnd
  0
BLOCK
  5
1C
330
1B
100
AcDbEntity
 67
     1
  8
0
100
AcDbBlockBegin
  2
*Paper_Space
 70
     0
 10
0.0
 20
0.0
 30
0.0
  3
*Paper_Space
  1

  0
ENDBLK
  5
1D
330
1B
100
AcDbEntity
 67
     1
  8
0
100
AcDbBlockEnd
  0
BLOCK
  5
24
330
23
100
AcDbEntity
  8
0
100
AcDbBlockBegin
  2
*Paper_Space0
 70
     0
 10
0.0
 20
0.0
 30
0.0
  3
*Paper_Space0
  1

  0
ENDBLK
  5
25
330
23
100
AcDbEntity
  8
0
100
AcDbBlockEnd
  0
BLOCK
  5
79
330
78
100
AcDbEntity
  8
0
100
AcDbBlockBegin
  2
SW_NOTE_0
 70
     0
 10
0.0
 20
0.0
 30
0.0
  3
SW_NOTE_0
  1

  0
ARC
  5
7B
330
78
100
AcDbEntity
  8
注記
 62
     0
100
AcDbCircle
 10
-0.0874095683
 20
-18.0011720423
 30
0.0
 40
22.63710618436406
100
AcDbArc
 50
90.0
 51
270.0
  0
ARC
  5
7C
330
78
100
AcDbEntity
  8
注記
 62
     0
100
AcDbCircle
 10
99.9125904317
 20
-18.0011720423
 30
0.0
 40
22.63710618436406
100
AcDbArc
 50
270.0
 51
90.0
  0
LINE
  5
7D
330
78
100
AcDbEntity
  8
注記
 62
     0
100
AcDbLine
 10
-0.0874095683
 20
4.635934142
 30
0.0
 11
99.9125904317
 21
4.635934142
 31
0.0
  0
LINE
  5
7E
330
78
100
AcDbEntity
  8
注記
 62
     0
100
AcDbLine
 10
99.9125904317
 20
-40.6382782267
 30
0.0
 11
-0.0874095683
 21
-40.6382782267
 31
0.0
  0
MTEXT
  5
80
330
78
100
AcDbEntity
  8
注記
 62
     0
100
AcDbMText
 10
0.0
 20
3.4106583948
 30
0.0
 40
2.6458333333
 41
0.0
 71
     1
 72
     1
  1
The reference drawing
  7
SLDTEXTSTYLE0
 73
     1
 44
1.0
  0
MTEXT
  5
81
330
78
100
AcDbEntity
  8
注記
 62
     0
100
AcDbMText
 10
0.0
 20
-1.1171195042
 30
0.0
 40
2.6458333333
 41
0.0
 71
     1
 72
     1
  1
All speciffcations and dimensions mentioned in the drawing are
  7
SLDTEXTSTYLE0
 73
     1
 44
1.0
  0
MTEXT
  5
82
330
78
100
AcDbEntity
  8
注記
 62
     0
100
AcDbMText
 10
0.0
 20
-5.6448974033
 30
0.0
 40
2.6458333333
 41
0.0
 71
     1
 72
     1
  1
subject to change without notification.
  7
SLDTEXTSTYLE0
 73
     1
 44
1.0
  0
MTEXT
  5
83
330
78
100
AcDbEntity
  8
注記
 62
     0
100
AcDbMText
 10
0.0
 20
-10.1726753024
 30
0.0
 40
2.6458333333
 41
0.0
 71
     1
 72
     1
  1
This drawing itself is also a property of Harmonic Drive systems,Inc.
  7
SLDTEXTSTYLE0
 73
     1
 44
1.0
  0
MTEXT
  5
84
330
78
100
AcDbEntity
  8
注記
 62
     0
100
AcDbMText
 10
0.0
 20
-19.2282311005
 30
0.0
 40
2.6458333333
 41
0.0
 71
     1
 72
     1
  1
Harmonic Drive Systems,Inc.
  7
SLDTEXTSTYLE0
 73
     1
 44
1.0
  0
MTEXT
  5
85
330
78
100
AcDbEntity
  8
注記
 62
     0
100
AcDbMText
 10
0.0
 20
-23.7560089995
 30
0.0
 40
2.6458333333
 41
0.0
 71
     1
 72
     1
  1
Minamiohi 6-25-3 Shinagawa-ku Tokyo 140-0013
  7
SLDTEXTSTYLE0
 73
     1
 44
1.0
  0
MTEXT
  5
86
330
78
100
AcDbEntity
  8
注記
 62
     0
100
AcDbMText
 10
0.0
 20
-28.2837868986
 30
0.0
 40
2.6458333333
 41
0.0
 71
     1
 72
     1
  1
Japan
  7
SLDTEXTSTYLE0
 73
     1
 44
1.0
  0
MTEXT
  5
87
330
78
100
AcDbEntity
  8
注記
 62
     0
100
AcDbMText
 10
0.0
 20
-32.8115647976
 30
0.0
 40
2.6458333333
 41
0.0
 71
     1
 72
     1
  1
Tel. 03-5471-7800 / Fax. 03-5471-7811
  7
SLDTEXTSTYLE0
 73
     1
 44
1.0
  0
MTEXT
  5
88
330
78
100
AcDbEntity
  8
注記
 62
     0
100
AcDbMText
 10
0.0
 20
-37.3393426967
 30
0.0
 40
2.6458333333
 41
0.0
 71
     1
 72
     1
  1
http://www.hds.co.jp
  7
SLDTEXTSTYLE0
 73
     1
 44
1.0
  0
ENDBLK
  5
7A
330
78
100
AcDbEntity
  8
0
100
AcDbBlockEnd
  0
BLOCK
  5
BE
330
BD
100
AcDbEntity
  8
0
100
AcDbBlockBegin
  2
SW_CENTERMARKSYMBOL_0
 70
     0
 10
0.0
 20
0.0
 30
0.0
  3
SW_CENTERMARKSYMBOL_0
  1

  0
ARC
  5
C0
330
BD
100
AcDbEntity
  8
0
  6
Continuous
 62
     0
370
     0
100
AcDbCircle
 10
0.0
 20
-42.0
 30
0.0
 40
41.99999999999967
100
AcDbArc
 50
90.0
 51
95.456740906
  0
ARC
  5
C1
330
BD
100
AcDbEntity
  8
0
  6
Continuous
 62
     0
370
     0
100
AcDbCircle
 10
0.0
 20
-42.0
 30
0.0
 40
41.99999999999967
100
AcDbArc
 50
84.543259094
 51
90.0
  0
ARC
  5
C2
330
BD
100
AcDbEntity
  8
0
  6
Continuous
 62
     0
370
     0
100
AcDbCircle
 10
0.0
 20
-42.0
 30
0.0
 40
41.99999999999968
100
AcDbArc
 50
75.0
 51
80.456740906
  0
ARC
  5
C3
330
BD
100
AcDbEntity
  8
0
  6
Continuous
 62
     0
370
     0
100
AcDbCircle
 10
0.0
 20
-42.0
 30
0.0
 40
41.99999999999968
100
AcDbArc
 50
69.543259094
 51
75.0
  0
ARC
  5
C4
330
BD
100
AcDbEntity
  8
0
  6
Continuous
 62
     0
370
     0
100
AcDbCircle
 10
0.0
 20
-42.0
 30
0.0
 40
41.99999999999969
100
AcDbArc
 50
60.0
 51
65.456740906
  0
ARC
  5
C5
330
BD
100
AcDbEntity
  8
0
  6
Continuous
 62
     0
370
     0
100
AcDbCircle
 10
0.0
 20
-42.0
 30
0.0
 40
41.99999999999969
100
AcDbArc
 50
54.543259094
 51
60.0
  0
ARC
  5
C6
330
BD
100
AcDbEntity
  8
0
  6
Continuous
 62
     0
370
     0
100
AcDbCircle
 10
0.0
 20
-42.0
 30
0.0
 40
41.99999999999978
100
AcDbArc
 50
30.0
 51
35.456740906
  0
ARC
  5
C7
330
BD
100
AcDbEntity
  8
0
  6
Continuous
 62
     0
370
     0
100
AcDbCircle
 10
0.0
 20
-42.0
 30
0.0
 40
41.99999999999981
100
AcDbArc
 50
24.543259094
 51
30.0
  0
ARC
  5
C8
330
BD
100
AcDbEntity
  8
0
  6
Continuous
 62
     0
370
     0
100
AcDbCircle
 10
0.0
 20
-42.0
 30
0.0
 40
41.99999999999992
100
AcDbArc
 50
0.0
 51
5.456740906
  0
ARC
  5
C9
330
BD
100
AcDbEntity
  8
0
  6
Continuous
 62
     0
370
     0
100
AcDbCircle
 10
0.0
 20
-42.0
 30
0.0
 40
41.99999999999996
100
AcDbArc
 50
354.543259094
 51
0.0
  0
ARC
  5
CA
330
BD
100
AcDbEntity
  8
0
  6
Continuous
 62
     0
370
     0
100
AcDbCircle
 10
0.0
 20
-42.0
 30
0.0
 40
42.00000000000012
100
AcDbArc
 50
330.0
 51
335.456740906
  0
ARC
  5
CB
330
BD
100
AcDbEntity
  8
0
  6
Continuous
 62
     0
370
     0
100
AcDbCircle
 10
0.0
 20
-42.0
 30
0.0
 40
42.00000000000014
100
AcDbArc
 50
324.543259094
 51
330.0
  0
ARC
  5
CC
330
BD
100
AcDbEntity
  8
0
  6
Continuous
 62
     0
370
     0
100
AcDbCircle
 10
0.0
 20
-42.0
 30
0.0
 40
42.00000000000029
100
AcDbArc
 50
300.0
 51
305.456740906
  0
ARC
  5
CD
330
BD
100
AcDbEntity
  8
0
  6
Continuous
 62
     0
370
     0
100
AcDbCircle
 10
0.0
 20
-42.0
 30
0.0
 40
42.00000000000029
100
AcDbArc
 50
294.543259094
 51
300.0
  0
ARC
  5
CE
330
BD
100
AcDbEntity
  8
0
  6
Continuous
 62
     0
370
     0
100
AcDbCircle
 10
0.0
 20
-42.0
 30
0.0
 40
42.00000000000036
100
AcDbArc
 50
270.0
 51
275.456740906
  0
ARC
  5
CF
330
BD
100
AcDbEntity
  8
0
  6
Continuous
 62
     0
370
     0
100
AcDbCircle
 10
0.0
 20
-42.0
 30
0.0
 40
42.00000000000034
100
AcDbArc
 50
264.543259094
 51
270.0
  0
ARC
  5
D0
330
BD
100
AcDbEntity
  8
0
  6
Continuous
 62
     0
370
     0
100
AcDbCircle
 10
0.0
 20
-42.0
 30
0.0
 40
42.00000000000036
100
AcDbArc
 50
255.0
 51
260.456740906
  0
ARC
  5
D1
330
BD
100
AcDbEntity
  8
0
  6
Continuous
 62
     0
370
     0
100
AcDbCircle
 10
0.0
 20
-42.0
 30
0.0
 40
42.00000000000036
100
AcDbArc
 50
249.543259094
 51
255.0
  0
ARC
  5
D2
330
BD
100
AcDbEntity
  8
0
  6
Continuous
 62
     0
370
     0
100
AcDbCircle
 10
0.0
 20
-42.0
 30
0.0
 40
42.00000000000033
100
AcDbArc
 50
240.0
 51
245.456740906
  0
ARC
  5
D3
330
BD
100
AcDbEntity
  8
0
  6
Continuous
 62
     0
370
     0
100
AcDbCircle
 10
0.0
 20
-42.0
 30
0.0
 40
42.00000000000033
100
AcDbArc
 50
234.543259094
 51
240.0
  0
ARC
  5
D4
330
BD
100
AcDbEntity
  8
0
  6
Continuous
 62
     0
370
     0
100
AcDbCircle
 10
0.0
 20
-42.0
 30
0.0
 40
42.00000000000024
100
AcDbArc
 50
210.0
 51
215.456740906
  0
ARC
  5
D5
330
BD
100
AcDbEntity
  8
0
  6
Continuous
 62
     0
370
     0
100
AcDbCircle
 10
0.0
 20
-42.0
 30
0.0
 40
42.00000000000024
100
AcDbArc
 50
204.543259094
 51
210.0
  0
ARC
  5
D6
330
BD
100
AcDbEntity
  8
0
  6
Continuous
 62
     0
370
     0
100
AcDbCircle
 10
0.0
 20
-42.0
 30
0.0
 40
42.00000000000007
100
AcDbArc
 50
180.0
 51
185.456740906
  0
ARC
  5
D7
330
BD
100
AcDbEntity
  8
0
  6
Continuous
 62
     0
370
     0
100
AcDbCircle
 10
0.0
 20
-42.0
 30
0.0
 40
42.00000000000004
100
AcDbArc
 50
174.543259094
 51
180.0
  0
ARC
  5
D8
330
BD
100
AcDbEntity
  8
0
  6
Continuous
 62
     0
370
     0
100
AcDbCircle
 10
0.0
 20
-42.0
 30
0.0
 40
41.99999999999989
100
AcDbArc
 50
150.0
 51
155.456740906
  0
ARC
  5
D9
330
BD
100
AcDbEntity
  8
0
  6
Continuous
 62
     0
370
     0
100
AcDbCircle
 10
0.0
 20
-42.0
 30
0.0
 40
41.99999999999989
100
AcDbArc
 50
144.543259094
 51
150.0
  0
ARC
  5
DA
330
BD
100
AcDbEntity
  8
0
  6
Continuous
 62
     0
370
     0
100
AcDbCircle
 10
0.0
 20
-42.0
 30
0.0
 40
41.99999999999974
100
AcDbArc
 50
120.0
 51
125.456740906
  0
ARC
  5
DB
330
BD
100
AcDbEntity
  8
0
  6
Continuous
 62
     0
370
     0
100
AcDbCircle
 10
0.0
 20
-42.0
 30
0.0
 40
41.99999999999973
100
AcDbArc
 50
114.543259094
 51
120.0
  0
ARC
  5
DC
330
BD
100
AcDbEntity
  8
0
  6
CENTERX2
 62
     0
370
     0
100
AcDbCircle
 10
0.0
 20
-42.0
 30
0.0
 40
41.99999999999976
100
AcDbArc
 50
40.913481812
 51
49.086518188
  0
ARC
  5
DD
330
BD
100
AcDbEntity
  8
0
  6
CENTERX2
 62
     0
370
     0
100
AcDbCircle
 10
0.0
 20
-42.0
 30
0.0
 40
41.99999999999992
100
AcDbArc
 50
10.913481812
 51
19.086518188
  0
ARC
  5
DE
330
BD
100
AcDbEntity
  8
0
  6
CENTERX2
 62
     0
370
     0
100
AcDbCircle
 10
0.0
 20
-42.0
 30
0.0
 40
42.00000000000011
100
AcDbArc
 50
340.913481812
 51
349.086518188
  0
ARC
  5
DF
330
BD
100
AcDbEntity
  8
0
  6
CENTERX2
 62
     0
370
     0
100
AcDbCircle
 10
0.0
 20
-42.0
 30
0.0
 40
42.00000000000027
100
AcDbArc
 50
310.913481812
 51
319.086518188
  0
ARC
  5
E0
330
BD
100
AcDbEntity
  8
0
  6
CENTERX2
 62
     0
370
     0
100
AcDbCircle
 10
0.0
 20
-42.0
 30
0.0
 40
42.00000000000032
100
AcDbArc
 50
280.913481812
 51
289.086518188
  0
ARC
  5
E1
330
BD
100
AcDbEntity
  8
0
  6
CENTERX2
 62
     0
370
     0
100
AcDbCircle
 10
0.0
 20
-42.0
 30
0.0
 40
42.00000000000033
100
AcDbArc
 50
220.913481812
 51
229.086518188
  0
ARC
  5
E2
330
BD
100
AcDbEntity
  8
0
  6
CENTERX2
 62
     0
370
     0
100
AcDbCircle
 10
0.0
 20
-42.0
 30
0.0
 40
42.00000000000023
100
AcDbArc
 50
190.913481812
 51
199.086518188
  0
ARC
  5
E3
330
BD
100
AcDbEntity
  8
0
  6
CENTERX2
 62
     0
370
     0
100
AcDbCircle
 10
0.0
 20
-42.0
 30
0.0
 40
42.00000000000003
100
AcDbArc
 50
160.913481812
 51
169.086518188
  0
ARC
  5
E4
330
BD
100
AcDbEntity
  8
0
  6
CENTERX2
 62
     0
370
     0
100
AcDbCircle
 10
0.0
 20
-42.0
 30
0.0
 40
41.99999999999972
100
AcDbArc
 50
100.913481812
 51
109.086518188
  0
ARC
  5
E5
330
BD
100
AcDbEntity
  8
0
  6
CENTERX2
 62
     0
370
     0
100
AcDbCircle
 10
0.0
 20
-42.0
 30
0.0
 40
41.99999999999987
100
AcDbArc
 50
130.913481812
 51
139.086518188
  0
LINE
  5
E6
330
BD
100
AcDbEntity
  8
0
  6
Continuous
 62
     0
370
     0
100
AcDbLine
 10
0.0
 20
0.0
 30
0.0
 11
0.0
 21
4.0
 31
0.0
  0
LINE
  5
E7
330
BD
100
AcDbEntity
  8
0
  6
Continuous
 62
     0
370
     0
100
AcDbLine
 10
0.0
 20
0.0
 30
0.0
 11
0.0
 21
-4.0
 31
0.0
  0
LINE
  5
E8
330
BD
100
AcDbEntity
  8
0
  6
Continuous
 62
     0
370
     0
100
AcDbLine
 10
0.0
 20
4.0
 30
0.0
 11
0.0
 21
5.75
 31
0.0
  0
LINE
  5
E9
330
BD
100
AcDbEntity
  8
0
  6
Continuous
 62
     0
370
     0
100
AcDbLine
 10
0.0
 20
-4.0
 30
0.0
 11
0.0
 21
-5.75
 31
0.0
  0
LINE
  5
EA
330
BD
100
AcDbEntity
  8
0
  6
Continuous
 62
     0
370
     0
100
AcDbLine
 10
10.8703998943
 20
-1.4311152959
 30
0.0
 11
11.9056760747
 21
2.4325880093
 31
0.0
  0
LINE
  5
EB
330
BD
100
AcDbEntity
  8
0
  6
Continuous
 62
     0
370
     0
100
AcDbLine
 10
10.8703998943
 20
-1.4311152959
 30
0.0
 11
9.8351237139
 21
-5.294818601
 31
0.0
  0
LINE
  5
EC
330
BD
100
AcDbEntity
  8
0
  6
Continuous
 62
     0
370
     0
100
AcDbLine
 10
11.9056760747
 20
2.4325880093
 30
0.0
 11
12.5527236875
 21
4.847402575
 31
0.0
  0
LINE
  5
ED
330
BD
100
AcDbEntity
  8
0
  6
Continuous
 62
     0
370
     0
100
AcDbLine
 10
9.8351237139
 20
-5.294818601
 30
0.0
 11
9.1880761011
 21
-7.7096331667
 31
0.0
  0
LINE
  5
EE
330
BD
100
AcDbEntity
  8
0
  6
Continuous
 62
     0
370
     0
100
AcDbLine
 10
21.0
 20
-5.6269330411
 30
0.0
 11
23.0
 21
-2.1628314259
 31
0.0
  0
LINE
  5
EF
330
BD
100
AcDbEntity
  8
0
  6
Continuous
 62
     0
370
     0
100
AcDbLine
 10
21.0
 20
-5.6269330411
 30
0.0
 11
19.0
 21
-9.0910346562
 31
0.0
  0
LINE
  5
F0
330
BD
100
AcDbEntity
  8
0
  6
Continuous
 62
     0
370
     0
100
AcDbLine
 10
23.0
 20
-2.1628314259
 30
0.0
 11
23.875
 21
-0.6472869693
 31
0.0
  0
LINE
  5
F1
330
BD
100
AcDbEntity
  8
0
  6
Continuous
 62
     0
370
     0
100
AcDbLine
 10
19.0
 20
-9.0910346562
 30
0.0
 11
18.125
 21
-10.6065791128
 31
0.0
  0
LINE
  5
F2
330
BD
100
AcDbEntity
  8
0
  6
Continuous
 62
     0
370
     0
100
AcDbLine
 10
36.3730669589
 20
-21.0
 30
0.0
 11
39.8371685741
 21
-19.0
 31
0.0
  0
LINE
  5
F3
330
BD
100
AcDbEntity
  8
0
  6
Continuous
 62
     0
370
     0
100
AcDbLine
 10
36.3730669589
 20
-21.0
 30
0.0
 11
32.9089653438
 21
-23.0
 31
0.0
  0
LINE
  5
F4
330
BD
100
AcDbEntity
  8
0
  6
Continuous
 62
     0
370
     0
100
AcDbLine
 10
39.8371685741
 20
-19.0
 30
0.0
 11
41.3527130307
 21
-18.125
 31
0.0
  0
LINE
  5
F5
330
BD
100
AcDbEntity
  8
0
  6
Continuous
 62
     0
370
     0
100
AcDbLine
 10
32.9089653438
 20
-23.0
 30
0.0
 11
31.3934208872
 21
-23.875
 31
0.0
  0
LINE
  5
F6
330
BD
100
AcDbEntity
  8
0
  6
Continuous
 62
     0
370
     0
100
AcDbLine
 10
42.0
 20
-42.0
 30
0.0
 11
46.0
 21
-42.0
 31
0.0
  0
LINE
  5
F7
330
BD
100
AcDbEntity
  8
0
  6
Continuous
 62
     0
370
     0
100
AcDbLine
 10
42.0
 20
-42.0
 30
0.0
 11
38.0
 21
-42.0
 31
0.0
  0
LINE
  5
F8
330
BD
100
AcDbEntity
  8
0
  6
Continuous
 62
     0
370
     0
100
AcDbLine
 10
46.0
 20
-42.0
 30
0.0
 11
47.75
 21
-42.0
 31
0.0
  0
LINE
  5
F9
330
BD
100
AcDbEntity
  8
0
  6
Continuous
 62
     0
370
     0
100
AcDbLine
 10
38.0
 20
-42.0
 30
0.0
 11
36.25
 21
-42.0
 31
0.0
  0
LINE
  5
FA
330
BD
100
AcDbEntity
  8
0
  6
Continuous
 62
     0
370
     0
100
AcDbLine
 10
36.3730669589
 20
-63.0
 30
0.0
 11
39.8371685741
 21
-65.0
 31
0.0
  0
LINE
  5
FB
330
BD
100
AcDbEntity
  8
0
  6
Continuous
 62
     0
370
     0
100
AcDbLine
 10
36.3730669589
 20
-63.0
 30
0.0
 11
32.9089653438
 21
-61.0
 31
0.0
  0
LINE
  5
FC
330
BD
100
AcDbEntity
  8
0
  6
Continuous
 62
     0
370
     0
100
AcDbLine
 10
39.8371685741
 20
-65.0
 30
0.0
 11
41.3527130307
 21
-65.875
 31
0.0
  0
LINE
  5
FD
330
BD
100
AcDbEntity
  8
0
  6
Continuous
 62
     0
370
     0
100
AcDbLine
 10
32.9089653438
 20
-61.0
 30
0.0
 11
31.3934208872
 21
-60.125
 31
0.0
  0
LINE
  5
FE
330
BD
100
AcDbEntity
  8
0
  6
Continuous
 62
     0
370
     0
100
AcDbLine
 10
21.0
 20
-78.3730669589
 30
0.0
 11
23.0
 21
-81.8371685741
 31
0.0
  0
LINE
  5
FF
330
BD
100
AcDbEntity
  8
0
  6
Continuous
 62
     0
370
     0
100
AcDbLine
 10
21.0
 20
-78.3730669589
 30
0.0
 11
19.0
 21
-74.9089653438
 31
0.0
  0
LINE
  5
100
330
BD
100
AcDbEntity
  8
0
  6
Continuous
 62
     0
370
     0
100
AcDbLine
 10
23.0
 20
-81.8371685741
 30
0.0
 11
23.875
 21
-83.3527130307
 31
0.0
  0
LINE
  5
101
330
BD
100
AcDbEntity
  8
0
  6
Continuous
 62
     0
370
     0
100
AcDbLine
 10
19.0
 20
-74.9089653438
 30
0.0
 11
18.125
 21
-73.3934208872
 31
0.0
  0
LINE
  5
102
330
BD
100
AcDbEntity
  8
0
  6
Continuous
 62
     0
370
     0
100
AcDbLine
 10
0.0
 20
-84.0
 30
0.0
 11
0.0
 21
-88.0
 31
0.0
  0
LINE
  5
103
330
BD
100
AcDbEntity
  8
0
  6
Continuous
 62
     0
370
     0
100
AcDbLine
 10
0.0
 20
-84.0
 30
0.0
 11
0.0
 21
-80.0
 31
0.0
  0
LINE
  5
104
330
BD
100
AcDbEntity
  8
0
  6
Continuous
 62
     0
370
     0
100
AcDbLine
 10
0.0
 20
-88.0
 30
0.0
 11
0.0
 21
-89.75
 31
0.0
  0
LINE
  5
105
330
BD
100
AcDbEntity
  8
0
  6
Continuous
 62
     0
370
     0
100
AcDbLine
 10
0.0
 20
-80.0
 30
0.0
 11
0.0
 21
-78.25
 31
0.0
  0
LINE
  5
106
330
BD
100
AcDbEntity
  8
0
  6
Continuous
 62
     0
370
     0
100
AcDbLine
 10
-10.8703998943
 20
-82.5688847041
 30
0.0
 11
-11.9056760747
 21
-86.4325880093
 31
0.0
  0
LINE
  5
107
330
BD
100
AcDbEntity
  8
0
  6
Continuous
 62
     0
370
     0
100
AcDbLine
 10
-10.8703998943
 20
-82.5688847041
 30
0.0
 11
-9.8351237139
 21
-78.705181399
 31
0.0
  0
LINE
  5
108
330
BD
100
AcDbEntity
  8
0
  6
Continuous
 62
     0
370
     0
100
AcDbLine
 10
-11.9056760747
 20
-86.4325880093
 30
0.0
 11
-12.5527236875
 21
-88.847402575
 31
0.0
  0
LINE
  5
109
330
BD
100
AcDbEntity
  8
0
  6
Continuous
 62
     0
370
     0
100
AcDbLine
 10
-9.8351237139
 20
-78.705181399
 30
0.0
 11
-9.1880761011
 21
-76.2903668333
 31
0.0
  0
LINE
  5
10A
330
BD
100
AcDbEntity
  8
0
  6
Continuous
 62
     0
370
     0
100
AcDbLine
 10
-21.0
 20
-78.3730669589
 30
0.0
 11
-23.0
 21
-81.8371685741
 31
0.0
  0
LINE
  5
10B
330
BD
100
AcDbEntity
  8
0
  6
Continuous
 62
     0
370
     0
100
AcDbLine
 10
-21.0
 20
-78.3730669589
 30
0.0
 11
-19.0
 21
-74.9089653438
 31
0.0
  0
LINE
  5
10C
330
BD
100
AcDbEntity
  8
0
  6
Continuous
 62
     0
370
     0
100
AcDbLine
 10
-23.0
 20
-81.8371685741
 30
0.0
 11
-23.875
 21
-83.3527130307
 31
0.0
  0
LINE
  5
10D
330
BD
100
AcDbEntity
  8
0
  6
Continuous
 62
     0
370
     0
100
AcDbLine
 10
-19.0
 20
-74.9089653438
 30
0.0
 11
-18.125
 21
-73.3934208872
 31
0.0
  0
LINE
  5
10E
330
BD
100
AcDbEntity
  8
0
  6
Continuous
 62
     0
370
     0
100
AcDbLine
 10
-36.3730669589
 20
-63.0
 30
0.0
 11
-39.8371685741
 21
-65.0
 31
0.0
  0
LINE
  5
10F
330
BD
100
AcDbEntity
  8
0
  6
Continuous
 62
     0
370
     0
100
AcDbLine
 10
-36.3730669589
 20
-63.0
 30
0.0
 11
-32.9089653438
 21
-61.0
 31
0.0
  0
LINE
  5
110
330
BD
100
AcDbEntity
  8
0
  6
Continuous
 62
     0
370
     0
100
AcDbLine
 10
-39.8371685741
 20
-65.0
 30
0.0
 11
-41.3527130307
 21
-65.875
 31
0.0
  0
LINE
  5
111
330
BD
100
AcDbEntity
  8
0
  6
Continuous
 62
     0
370
     0
100
AcDbLine
 10
-32.9089653438
 20
-61.0
 30
0.0
 11
-31.3934208872
 21
-60.125
 31
0.0
  0
LINE
  5
112
330
BD
100
AcDbEntity
  8
0
  6
Continuous
 62
     0
370
     0
100
AcDbLine
 10
-42.0
 20
-42.0
 30
0.0
 11
-46.0
 21
-42.0
 31
0.0
  0
LINE
  5
113
330
BD
100
AcDbEntity
  8
0
  6
Continuous
 62
     0
370
     0
100
AcDbLine
 10
-42.0
 20
-42.0
 30
0.0
 11
-38.0
 21
-42.0
 31
0.0
  0
LINE
  5
114
330
BD
100
AcDbEntity
  8
0
  6
Continuous
 62
     0
370
     0
100
AcDbLine
 10
-46.0
 20
-42.0
 30
0.0
 11
-47.75
 21
-42.0
 31
0.0
  0
LINE
  5
115
330
BD
100
AcDbEntity
  8
0
  6
Continuous
 62
     0
370
     0
100
AcDbLine
 10
-38.0
 20
-42.0
 30
0.0
 11
-36.25
 21
-42.0
 31
0.0
  0
LINE
  5
116
330
BD
100
AcDbEntity
  8
0
  6
Continuous
 62
     0
370
     0
100
AcDbLine
 10
-36.3730669589
 20
-21.0
 30
0.0
 11
-39.8371685741
 21
-19.0
 31
0.0
  0
LINE
  5
117
330
BD
100
AcDbEntity
  8
0
  6
Continuous
 62
     0
370
     0
100
AcDbLine
 10
-36.3730669589
 20
-21.0
 30
0.0
 11
-32.9089653438
 21
-23.0
 31
0.0
  0
LINE
  5
118
330
BD
100
AcDbEntity
  8
0
  6
Continuous
 62
     0
370
     0
100
AcDbLine
 10
-39.8371685741
 20
-19.0
 30
0.0
 11
-41.3527130307
 21
-18.125
 31
0.0
  0
LINE
  5
119
330
BD
100
AcDbEntity
  8
0
  6
Continuous
 62
     0
370
     0
100
AcDbLine
 10
-32.9089653438
 20
-23.0
 30
0.0
 11
-31.3934208872
 21
-23.875
 31
0.0
  0
LINE
  5
11A
330
BD
100
AcDbEntity
  8
0
  6
Continuous
 62
     0
370
     0
100
AcDbLine
 10
-21.0
 20
-5.6269330411
 30
0.0
 11
-23.0
 21
-2.1628314259
 31
0.0
  0
LINE
  5
11B
330
BD
100
AcDbEntity
  8
0
  6
Continuous
 62
     0
370
     0
100
AcDbLine
 10
-21.0
 20
-5.6269330411
 30
0.0
 11
-19.0
 21
-9.0910346562
 31
0.0
  0
LINE
  5
11C
330
BD
100
AcDbEntity
  8
0
  6
Continuous
 62
     0
370
     0
100
AcDbLine
 10
-23.0
 20
-2.1628314259
 30
0.0
 11
-23.875
 21
-0.6472869693
 31
0.0
  0
LINE
  5
11D
330
BD
100
AcDbEntity
  8
0
  6
Continuous
 62
     0
370
     0
100
AcDbLine
 10
-19.0
 20
-9.0910346562
 30
0.0
 11
-18.125
 21
-10.6065791128
 31
0.0
  0
ENDBLK
  5
BF
330
BD
100
AcDbEntity
  8
0
100
AcDbBlockEnd
  0
BLOCK
  5
120
330
11F
100
AcDbEntity
  8
0
100
AcDbBlockBegin
  2
SW_CENTERMARKSYMBOL_1
 70
     0
 10
0.0
 20
0.0
 30
0.0
  3
SW_CENTERMARKSYMBOL_1
  1

  0
LINE
  5
122
330
11F
100
AcDbEntity
  8
0
  6
Continuous
 62
     0
370
     0
100
AcDbLine
 10
0.0
 20
0.0
 30
0.0
 11
0.0
 21
4.0
 31
0.0
  0
LINE
  5
123
330
11F
100
AcDbEntity
  8
0
  6
Continuous
 62
     0
370
     0
100
AcDbLine
 10
0.0
 20
0.0
 30
0.0
 11
-4.0
 21
0.0
 31
0.0
  0
LINE
  5
124
330
11F
100
AcDbEntity
  8
0
  6
Continuous
 62
     0
370
     0
100
AcDbLine
 10
0.0
 20
0.0
 30
0.0
 11
0.0
 21
-4.0
 31
0.0
  0
LINE
  5
125
330
11F
100
AcDbEntity
  8
0
  6
Continuous
 62
     0
370
     0
100
AcDbLine
 10
0.0
 20
0.0
 30
0.0
 11
4.0
 21
0.0
 31
0.0
  0
LINE
  5
126
330
11F
100
AcDbEntity
  8
0
  6
Continuous
 62
     0
370
     0
100
AcDbLine
 10
0.0
 20
8.0
 30
0.0
 11
0.0
 21
50.5
 31
0.0
  0
LINE
  5
127
330
11F
100
AcDbEntity
  8
0
  6
Continuous
 62
     0
370
     0
100
AcDbLine
 10
-8.0
 20
0.0
 30
0.0
 11
-50.5
 21
0.0
 31
0.0
  0
LINE
  5
128
330
11F
100
AcDbEntity
  8
0
  6
Continuous
 62
     0
370
     0
100
AcDbLine
 10
0.0
 20
-8.0
 30
0.0
 11
0.0
 21
-50.5
 31
0.0
  0
LINE
  5
129
330
11F
100
AcDbEntity
  8
0
  6
Continuous
 62
     0
370
     0
100
AcDbLine
 10
8.0
 20
0.0
 30
0.0
 11
50.5
 21
0.0
 31
0.0
  0
ENDBLK
  5
121
330
11F
100
AcDbEntity
  8
0
100
AcDbBlockEnd
  0
BLOCK
  5
12C
330
12B
100
AcDbEntity
  8
0
100
AcDbBlockBegin
  2
SW_CENTERMARKSYMBOL_2
 70
     0
 10
0.0
 20
0.0
 30
0.0
  3
SW_CENTERMARKSYMBOL_2
  1

  0
ARC
  5
12E
330
12B
100
AcDbEntity
  8
0
  6
Continuous
 62
     0
370
     0
100
AcDbCircle
 10
0.0
 20
-22.75
 30
0.0
 40
22.75
100
AcDbArc
 50
90.0
 51
95.0369916055
  0
ARC
  5
12F
330
12B
100
AcDbEntity
  8
0
  6
Continuous
 62
     0
370
     0
100
AcDbCircle
 10
0.0
 20
-22.75
 30
0.0
 40
22.75
100
AcDbArc
 50
84.9630083945
 51
90.0
  0
ARC
  5
130
330
12B
100
AcDbEntity
  8
0
  6
Continuous
 62
     0
370
     0
100
AcDbCircle
 10
0.0
 20
-22.75
 30
0.0
 40
22.75000000000002
100
AcDbArc
 50
150.0
 51
155.0369916055
  0
ARC
  5
131
330
12B
100
AcDbEntity
  8
0
  6
Continuous
 62
     0
370
     0
100
AcDbCircle
 10
0.0
 20
-22.75
 30
0.0
 40
22.75000000000002
100
AcDbArc
 50
144.9630083945
 51
150.0
  0
ARC
  5
132
330
12B
100
AcDbEntity
  8
0
  6
Continuous
 62
     0
370
     0
100
AcDbCircle
 10
0.0
 20
-22.75
 30
0.0
 40
22.75
100
AcDbArc
 50
210.0
 51
215.0369916055
  0
ARC
  5
133
330
12B
100
AcDbEntity
  8
0
  6
Continuous
 62
     0
370
     0
100
AcDbCircle
 10
0.0
 20
-22.75
 30
0.0
 40
22.75000000000002
100
AcDbArc
 50
204.9630083945
 51
210.0
  0
ARC
  5
134
330
12B
100
AcDbEntity
  8
0
  6
Continuous
 62
     0
370
     0
100
AcDbCircle
 10
0.0
 20
-22.75
 30
0.0
 40
22.74999999999999
100
AcDbArc
 50
270.0
 51
275.0369916055
  0
ARC
  5
135
330
12B
100
AcDbEntity
  8
0
  6
Continuous
 62
     0
370
     0
100
AcDbCircle
 10
0.0
 20
-22.75
 30
0.0
 40
22.75000000000002
100
AcDbArc
 50
264.9630083945
 51
270.0
  0
ARC
  5
136
330
12B
100
AcDbEntity
  8
0
  6
Continuous
 62
     0
370
     0
100
AcDbCircle
 10
0.0
 20
-22.75
 30
0.0
 40
22.75
100
AcDbArc
 50
330.0
 51
335.0369916055
  0
ARC
  5
137
330
12B
100
AcDbEntity
  8
0
  6
Continuous
 62
     0
370
     0
100
AcDbCircle
 10
0.0
 20
-22.75
 30
0.0
 40
22.75
100
AcDbArc
 50
324.9630083945
 51
330.0
  0
ARC
  5
138
330
12B
100
AcDbEntity
  8
0
  6
Continuous
 62
     0
370
     0
100
AcDbCircle
 10
0.0
 20
-22.75
 30
0.0
 40
22.75
100
AcDbArc
 50
30.0
 51
35.0369916055
  0
ARC
  5
139
330
12B
100
AcDbEntity
  8
0
  6
Continuous
 62
     0
370
     0
100
AcDbCircle
 10
0.0
 20
-22.75
 30
0.0
 40
22.75
100
AcDbArc
 50
24.9630083945
 51
30.0
  0
ARC
  5
13A
330
12B
100
AcDbEntity
  8
0
  6
CENTERX2
 62
     0
370
     0
100
AcDbCircle
 10
0.0
 20
-22.75
 30
0.0
 40
22.75000000000001
100
AcDbArc
 50
40.0739832111
 51
79.9260167889
  0
ARC
  5
13B
330
12B
100
AcDbEntity
  8
0
  6
CENTERX2
 62
     0
370
     0
100
AcDbCircle
 10
0.0
 20
-22.75
 30
0.0
 40
22.75000000000001
100
AcDbArc
 50
100.0739832111
 51
139.9260167889
  0
ARC
  5
13C
330
12B
100
AcDbEntity
  8
0
  6
CENTERX2
 62
     0
370
     0
100
AcDbCircle
 10
0.0
 20
-22.75
 30
0.0
 40
22.75000000000001
100
AcDbArc
 50
160.0739832111
 51
199.9260167889
  0
ARC
  5
13D
330
12B
100
AcDbEntity
  8
0
  6
CENTERX2
 62
     0
370
     0
100
AcDbCircle
 10
0.0
 20
-22.75
 30
0.0
 40
22.75
100
AcDbArc
 50
220.0739832111
 51
259.9260167889
  0
ARC
  5
13E
330
12B
100
AcDbEntity
  8
0
  6
CENTERX2
 62
     0
370
     0
100
AcDbCircle
 10
0.0
 20
-22.75
 30
0.0
 40
22.75000000000001
100
AcDbArc
 50
280.0739832111
 51
319.9260167889
  0
ARC
  5
13F
330
12B
100
AcDbEntity
  8
0
  6
CENTERX2
 62
     0
370
     0
100
AcDbCircle
 10
0.0
 20
-22.75
 30
0.0
 40
22.75000000000001
100
AcDbArc
 50
340.0739832111
 51
19.9260167889
  0
LINE
  5
140
330
12B
100
AcDbEntity
  8
0
  6
Continuous
 62
     0
370
     0
100
AcDbLine
 10
0.0
 20
0.0
 30
0.0
 11
0.0
 21
2.0
 31
0.0
  0
LINE
  5
141
330
12B
100
AcDbEntity
  8
0
  6
Continuous
 62
     0
370
     0
100
AcDbLine
 10
0.0
 20
0.0
 30
0.0
 11
0.0
 21
-2.0
 31
0.0
  0
LINE
  5
142
330
12B
100
AcDbEntity
  8
0
  6
Continuous
 62
     0
370
     0
100
AcDbLine
 10
0.0
 20
2.0
 30
0.0
 11
0.0
 21
3.25
 31
0.0
  0
LINE
  5
143
330
12B
100
AcDbEntity
  8
0
  6
Continuous
 62
     0
370
     0
100
AcDbLine
 10
0.0
 20
-2.0
 30
0.0
 11
0.0
 21
-3.25
 31
0.0
  0
LINE
  5
144
330
12B
100
AcDbEntity
  8
0
  6
Continuous
 62
     0
370
     0
100
AcDbLine
 10
-19.7020779361
 20
-11.375
 30
0.0
 11
-21.4341287437
 21
-10.375
 31
0.0
  0
LINE
  5
145
330
12B
100
AcDbEntity
  8
0
  6
Continuous
 62
     0
370
     0
100
AcDbLine
 10
-19.7020779361
 20
-11.375
 30
0.0
 11
-17.9700271285
 21
-12.375
 31
0.0
  0
LINE
  5
146
330
12B
100
AcDbEntity
  8
0
  6
Continuous
 62
     0
370
     0
100
AcDbLine
 10
-21.4341287437
 20
-10.375
 30
0.0
 11
-22.5166604984
 21
-9.75
 31
0.0
  0
LINE
  5
147
330
12B
100
AcDbEntity
  8
0
  6
Continuous
 62
     0
370
     0
100
AcDbLine
 10
-17.9700271285
 20
-12.375
 30
0.0
 11
-16.8874953738
 21
-13.0
 31
0.0
  0
LINE
  5
148
330
12B
100
AcDbEntity
  8
0
  6
Continuous
 62
     0
370
     0
100
AcDbLine
 10
-19.7020779361
 20
-34.125
 30
0.0
 11
-21.4341287437
 21
-35.125
 31
0.0
  0
LINE
  5
149
330
12B
100
AcDbEntity
  8
0
  6
Continuous
 62
     0
370
     0
100
AcDbLine
 10
-19.7020779361
 20
-34.125
 30
0.0
 11
-17.9700271285
 21
-33.125
 31
0.0
  0
LINE
  5
14A
330
12B
100
AcDbEntity
  8
0
  6
Continuous
 62
     0
370
     0
100
AcDbLine
 10
-21.4341287437
 20
-35.125
 30
0.0
 11
-22.5166604984
 21
-35.75
 31
0.0
  0
LINE
  5
14B
330
12B
100
AcDbEntity
  8
0
  6
Continuous
 62
     0
370
     0
100
AcDbLine
 10
-17.9700271285
 20
-33.125
 30
0.0
 11
-16.8874953738
 21
-32.5
 31
0.0
  0
LINE
  5
14C
330
12B
100
AcDbEntity
  8
0
  6
Continuous
 62
     0
370
     0
100
AcDbLine
 10
0.0
 20
-45.5
 30
0.0
 11
0.0
 21
-47.5
 31
0.0
  0
LINE
  5
14D
330
12B
100
AcDbEntity
  8
0
  6
Continuous
 62
     0
370
     0
100
AcDbLine
 10
0.0
 20
-45.5
 30
0.0
 11
0.0
 21
-43.5
 31
0.0
  0
LINE
  5
14E
330
12B
100
AcDbEntity
  8
0
  6
Continuous
 62
     0
370
     0
100
AcDbLine
 10
0.0
 20
-47.5
 30
0.0
 11
0.0
 21
-48.75
 31
0.0
  0
LINE
  5
14F
330
12B
100
AcDbEntity
  8
0
  6
Continuous
 62
     0
370
     0
100
AcDbLine
 10
0.0
 20
-43.5
 30
0.0
 11
0.0
 21
-42.25
 31
0.0
  0
LINE
  5
150
330
12B
100
AcDbEntity
  8
0
  6
Continuous
 62
     0
370
     0
100
AcDbLine
 10
19.7020779361
 20
-34.125
 30
0.0
 11
21.4341287437
 21
-35.125
 31
0.0
  0
LINE
  5
151
330
12B
100
AcDbEntity
  8
0
  6
Continuous
 62
     0
370
     0
100
AcDbLine
 10
19.7020779361
 20
-34.125
 30
0.0
 11
17.9700271285
 21
-33.125
 31
0.0
  0
LINE
  5
152
330
12B
100
AcDbEntity
  8
0
  6
Continuous
 62
     0
370
     0
100
AcDbLine
 10
21.4341287437
 20
-35.125
 30
0.0
 11
22.5166604984
 21
-35.75
 31
0.0
  0
LINE
  5
153
330
12B
100
AcDbEntity
  8
0
  6
Continuous
 62
     0
370
     0
100
AcDbLine
 10
17.9700271285
 20
-33.125
 30
0.0
 11
16.8874953738
 21
-32.5
 31
0.0
  0
LINE
  5
154
330
12B
100
AcDbEntity
  8
0
  6
Continuous
 62
     0
370
     0
100
AcDbLine
 10
19.7020779361
 20
-11.375
 30
0.0
 11
21.4341287437
 21
-10.375
 31
0.0
  0
LINE
  5
155
330
12B
100
AcDbEntity
  8
0
  6
Continuous
 62
     0
370
     0
100
AcDbLine
 10
19.7020779361
 20
-11.375
 30
0.0
 11
17.9700271285
 21
-12.375
 31
0.0
  0
LINE
  5
156
330
12B
100
AcDbEntity
  8
0
  6
Continuous
 62
     0
370
     0
100
AcDbLine
 10
21.4341287437
 20
-10.375
 30
0.0
 11
22.5166604984
 21
-9.75
 31
0.0
  0
LINE
  5
157
330
12B
100
AcDbEntity
  8
0
  6
Continuous
 62
     0
370
     0
100
AcDbLine
 10
17.9700271285
 20
-12.375
 30
0.0
 11
16.8874953738
 21
-13.0
 31
0.0
  0
ENDBLK
  5
12D
330
12B
100
AcDbEntity
  8
0
100
AcDbBlockEnd
  0
BLOCK
  5
328
330
327
100
AcDbEntity
  8
0
100
AcDbBlockBegin
  2
SW_NOTE_1
 70
     0
 10
0.0
 20
0.0
 30
0.0
  3
SW_NOTE_1
  1

  0
MTEXT
  5
32A
330
327
100
AcDbEntity
  8
注記
 62
     0
100
AcDbMText
 10
24.1928385417
 20
7.5034484686
 30
0.0
 40
5.8208333333
 41
0.0
 71
     2
 72
     1
  1
FBS-25-30-2UH
  7
SLDTEXTSTYLE0
 73
     1
 44
1.0
  0
MTEXT
  5
32B
330
327
100
AcDbEntity
  8
注記
 62
     0
100
AcDbMText
 10
25.8575720345
 20
-1.2576631783
 30
0.0
 40
5.8208333333
 41
0.0
 71
     2
 72
     1
  1
C002715
  7
SLDTEXTSTYLE0
 73
     1
 44
1.0
  0
ENDBLK
  5
329
330
327
100
AcDbEntity
  8
0
100
AcDbBlockEnd
  0
BLOCK
  5
32E
330
32D
100
AcDbEntity
  8
0
100
AcDbBlockBegin
  2
SW_CENTERMARKSYMBOL_3
 70
     0
 10
0.0
 20
0.0
 30
0.0
  3
SW_CENTERMARKSYMBOL_3
  1

  0
ARC
  5
330
330
32D
100
AcDbEntity
  8
0
  6
Continuous
 62
     0
370
     0
100
AcDbCircle
 10
-21.0
 20
-36.3730669589
 30
0.0
 40
42.00000000000001
100
AcDbArc
 50
60.0
 51
65.456740906
  0
ARC
  5
331
330
32D
100
AcDbEntity
  8
0
  6
Continuous
 62
     0
370
     0
100
AcDbCircle
 10
-21.0
 20
-36.3730669589
 30
0.0
 40
42.00000000000001
100
AcDbArc
 50
54.543259094
 51
60.0
  0
ARC
  5
332
330
32D
100
AcDbEntity
  8
0
  6
Continuous
 62
     0
370
     0
100
AcDbCircle
 10
-21.0
 20
-36.3730669589
 30
0.0
 40
42.00000000000004
100
AcDbArc
 50
300.0
 51
305.456740906
  0
ARC
  5
333
330
32D
100
AcDbEntity
  8
0
  6
Continuous
 62
     0
370
     0
100
AcDbCircle
 10
-21.0
 20
-36.3730669589
 30
0.0
 40
42.00000000000004
100
AcDbArc
 50
294.543259094
 51
300.0
  0
ARC
  5
334
330
32D
100
AcDbEntity
  8
0
  6
Continuous
 62
     0
370
     0
100
AcDbCircle
 10
-21.0
 20
-36.3730669589
 30
0.0
 40
42.00000000000002
100
AcDbArc
 50
330.0
 51
335.456740906
  0
ARC
  5
335
330
32D
100
AcDbEntity
  8
0
  6
Continuous
 62
     0
370
     0
100
AcDbCircle
 10
-21.0
 20
-36.3730669589
 30
0.0
 40
42.00000000000002
100
AcDbArc
 50
324.543259094
 51
330.0
  0
ARC
  5
336
330
32D
100
AcDbEntity
  8
0
  6
Continuous
 62
     0
370
     0
100
AcDbCircle
 10
-21.0
 20
-36.3730669589
 30
0.0
 40
42.00000000000001
100
AcDbArc
 50
0.0
 51
5.456740906
  0
ARC
  5
337
330
32D
100
AcDbEntity
  8
0
  6
Continuous
 62
     0
370
     0
100
AcDbCircle
 10
-21.0
 20
-36.3730669589
 30
0.0
 40
42.00000000000001
100
AcDbArc
 50
354.543259094
 51
0.0
  0
ARC
  5
338
330
32D
100
AcDbEntity
  8
0
  6
Continuous
 62
     0
370
     0
100
AcDbCircle
 10
-21.0
 20
-36.3730669589
 30
0.0
 40
42.00000000000004
100
AcDbArc
 50
30.0
 51
35.456740906
  0
ARC
  5
339
330
32D
100
AcDbEntity
  8
0
  6
Continuous
 62
     0
370
     0
100
AcDbCircle
 10
-21.0
 20
-36.3730669589
 30
0.0
 40
42.00000000000004
100
AcDbArc
 50
24.543259094
 51
30.0
  0
ARC
  5
33A
330
32D
100
AcDbEntity
  8
0
  6
Continuous
 62
     0
370
     0
100
AcDbCircle
 10
-21.0
 20
-36.3730669589
 30
0.0
 40
42.00000000000004
100
AcDbArc
 50
90.0
 51
95.456740906
  0
ARC
  5
33B
330
32D
100
AcDbEntity
  8
0
  6
Continuous
 62
     0
370
     0
100
AcDbCircle
 10
-21.0
 20
-36.3730669589
 30
0.0
 40
42.00000000000004
100
AcDbArc
 50
84.543259094
 51
90.0
  0
ARC
  5
33C
330
32D
100
AcDbEntity
  8
0
  6
Continuous
 62
     0
370
     0
100
AcDbCircle
 10
-21.0
 20
-36.3730669589
 30
0.0
 40
42.00000000000001
100
AcDbArc
 50
120.0
 51
125.456740906
  0
ARC
  5
33D
330
32D
100
AcDbEntity
  8
0
  6
Continuous
 62
     0
370
     0
100
AcDbCircle
 10
-21.0
 20
-36.3730669589
 30
0.0
 40
42.00000000000002
100
AcDbArc
 50
114.543259094
 51
120.0
  0
ARC
  5
33E
330
32D
100
AcDbEntity
  8
0
  6
Continuous
 62
     0
370
     0
100
AcDbCircle
 10
-21.0
 20
-36.3730669589
 30
0.0
 40
42.00000000000001
100
AcDbArc
 50
150.0
 51
155.456740906
  0
ARC
  5
33F
330
32D
100
AcDbEntity
  8
0
  6
Continuous
 62
     0
370
     0
100
AcDbCircle
 10
-21.0
 20
-36.3730669589
 30
0.0
 40
42.00000000000002
100
AcDbArc
 50
144.543259094
 51
150.0
  0
ARC
  5
340
330
32D
100
AcDbEntity
  8
0
  6
Continuous
 62
     0
370
     0
100
AcDbCircle
 10
-21.0
 20
-36.3730669589
 30
0.0
 40
42.00000000000001
100
AcDbArc
 50
180.0
 51
185.456740906
  0
ARC
  5
341
330
32D
100
AcDbEntity
  8
0
  6
Continuous
 62
     0
370
     0
100
AcDbCircle
 10
-21.0
 20
-36.3730669589
 30
0.0
 40
42.00000000000001
100
AcDbArc
 50
174.543259094
 51
180.0
  0
ARC
  5
342
330
32D
100
AcDbEntity
  8
0
  6
Continuous
 62
     0
370
     0
100
AcDbCircle
 10
-21.0
 20
-36.3730669589
 30
0.0
 40
42.00000000000002
100
AcDbArc
 50
210.0
 51
215.456740906
  0
ARC
  5
343
330
32D
100
AcDbEntity
  8
0
  6
Continuous
 62
     0
370
     0
100
AcDbCircle
 10
-21.0
 20
-36.3730669589
 30
0.0
 40
42.00000000000002
100
AcDbArc
 50
204.543259094
 51
210.0
  0
ARC
  5
344
330
32D
100
AcDbEntity
  8
0
  6
Continuous
 62
     0
370
     0
100
AcDbCircle
 10
-21.0
 20
-36.3730669589
 30
0.0
 40
42.00000000000002
100
AcDbArc
 50
240.0
 51
245.456740906
  0
ARC
  5
345
330
32D
100
AcDbEntity
  8
0
  6
Continuous
 62
     0
370
     0
100
AcDbCircle
 10
-21.0
 20
-36.3730669589
 30
0.0
 40
42.00000000000002
100
AcDbArc
 50
234.543259094
 51
240.0
  0
ARC
  5
346
330
32D
100
AcDbEntity
  8
0
  6
Continuous
 62
     0
370
     0
100
AcDbCircle
 10
-21.0
 20
-36.3730669589
 30
0.0
 40
42.00000000000002
100
AcDbArc
 50
270.0
 51
275.456740906
  0
ARC
  5
347
330
32D
100
AcDbEntity
  8
0
  6
Continuous
 62
     0
370
     0
100
AcDbCircle
 10
-21.0
 20
-36.3730669589
 30
0.0
 40
42.00000000000003
100
AcDbArc
 50
264.543259094
 51
270.0
  0
ARC
  5
348
330
32D
100
AcDbEntity
  8
0
  6
CENTERX2
 62
     0
370
     0
100
AcDbCircle
 10
-21.0
 20
-36.3730669589
 30
0.0
 40
42.00000000000003
100
AcDbArc
 50
10.913481812
 51
19.086518188
  0
ARC
  5
349
330
32D
100
AcDbEntity
  8
0
  6
CENTERX2
 62
     0
370
     0
100
AcDbCircle
 10
-21.0
 20
-36.3730669589
 30
0.0
 40
42.00000000000002
100
AcDbArc
 50
40.913481812
 51
49.086518188
  0
ARC
  5
34A
330
32D
100
AcDbEntity
  8
0
  6
CENTERX2
 62
     0
370
     0
100
AcDbCircle
 10
-21.0
 20
-36.3730669589
 30
0.0
 40
42.00000000000002
100
AcDbArc
 50
70.913481812
 51
79.086518188
  0
ARC
  5
34B
330
32D
100
AcDbEntity
  8
0
  6
CENTERX2
 62
     0
370
     0
100
AcDbCircle
 10
-21.0
 20
-36.3730669589
 30
0.0
 40
42.00000000000001
100
AcDbArc
 50
100.913481812
 51
109.086518188
  0
ARC
  5
34C
330
32D
100
AcDbEntity
  8
0
  6
CENTERX2
 62
     0
370
     0
100
AcDbCircle
 10
-21.0
 20
-36.3730669589
 30
0.0
 40
42.00000000000003
100
AcDbArc
 50
130.913481812
 51
139.086518188
  0
ARC
  5
34D
330
32D
100
AcDbEntity
  8
0
  6
CENTERX2
 62
     0
370
     0
100
AcDbCircle
 10
-21.0
 20
-36.3730669589
 30
0.0
 40
42.00000000000002
100
AcDbArc
 50
160.913481812
 51
169.086518188
  0
ARC
  5
34E
330
32D
100
AcDbEntity
  8
0
  6
CENTERX2
 62
     0
370
     0
100
AcDbCircle
 10
-21.0
 20
-36.3730669589
 30
0.0
 40
42.00000000000001
100
AcDbArc
 50
190.913481812
 51
199.086518188
  0
ARC
  5
34F
330
32D
100
AcDbEntity
  8
0
  6
CENTERX2
 62
     0
370
     0
100
AcDbCircle
 10
-21.0
 20
-36.3730669589
 30
0.0
 40
42.00000000000001
100
AcDbArc
 50
220.913481812
 51
229.086518188
  0
ARC
  5
350
330
32D
100
AcDbEntity
  8
0
  6
CENTERX2
 62
     0
370
     0
100
AcDbCircle
 10
-21.0
 20
-36.3730669589
 30
0.0
 40
42.00000000000001
100
AcDbArc
 50
250.913481812
 51
259.086518188
  0
ARC
  5
351
330
32D
100
AcDbEntity
  8
0
  6
CENTERX2
 62
     0
370
     0
100
AcDbCircle
 10
-21.0
 20
-36.3730669589
 30
0.0
 40
42.00000000000002
100
AcDbArc
 50
280.913481812
 51
289.086518188
  0
ARC
  5
352
330
32D
100
AcDbEntity
  8
0
  6
CENTERX2
 62
     0
370
     0
100
AcDbCircle
 10
-21.0
 20
-36.3730669589
 30
0.0
 40
42.00000000000002
100
AcDbArc
 50
310.913481812
 51
319.086518188
  0
ARC
  5
353
330
32D
100
AcDbEntity
  8
0
  6
CENTERX2
 62
     0
370
     0
100
AcDbCircle
 10
-21.0
 20
-36.3730669589
 30
0.0
 40
42.00000000000003
100
AcDbArc
 50
340.913481812
 51
349.086518188
  0
LINE
  5
354
330
32D
100
AcDbEntity
  8
0
  6
Continuous
 62
     0
370
     0
100
AcDbLine
 10
0.0
 20
0.0
 30
0.0
 11
2.0
 21
3.4641016151
 31
0.0
  0
LINE
  5
355
330
32D
100
AcDbEntity
  8
0
  6
Continuous
 62
     0
370
     0
100
AcDbLine
 10
0.0
 20
0.0
 30
0.0
 11
-2.0
 21
-3.4641016151
 31
0.0
  0
LINE
  5
356
330
32D
100
AcDbEntity
  8
0
  6
Continuous
 62
     0
370
     0
100
AcDbLine
 10
2.0
 20
3.4641016151
 30
0.0
 11
2.875
 21
4.9796460718
 31
0.0
  0
LINE
  5
357
330
32D
100
AcDbEntity
  8
0
  6
Continuous
 62
     0
370
     0
100
AcDbLine
 10
-2.0
 20
-3.4641016151
 30
0.0
 11
-2.875
 21
-4.9796460718
 31
0.0
  0
LINE
  5
358
330
32D
100
AcDbEntity
  8
0
  6
Continuous
 62
     0
370
     0
100
AcDbLine
 10
0.0
 20
-72.7461339179
 30
0.0
 11
2.0
 21
-76.210235533
 31
0.0
  0
LINE
  5
359
330
32D
100
AcDbEntity
  8
0
  6
Continuous
 62
     0
370
     0
100
AcDbLine
 10
0.0
 20
-72.7461339179
 30
0.0
 11
-2.0
 21
-69.2820323028
 31
0.0
  0
LINE
  5
35A
330
32D
100
AcDbEntity
  8
0
  6
Continuous
 62
     0
370
     0
100
AcDbLine
 10
2.0
 20
-76.210235533
 30
0.0
 11
2.875
 21
-77.7257799897
 31
0.0
  0
LINE
  5
35B
330
32D
100
AcDbEntity
  8
0
  6
Continuous
 62
     0
370
     0
100
AcDbLine
 10
-2.0
 20
-69.2820323028
 30
0.0
 11
-2.875
 21
-67.7664878461
 31
0.0
  0
LINE
  5
35C
330
32D
100
AcDbEntity
  8
0
  6
Continuous
 62
     0
370
     0
100
AcDbLine
 10
15.3730669589
 20
-57.3730669589
 30
0.0
 11
18.8371685741
 21
-59.3730669589
 31
0.0
  0
LINE
  5
35D
330
32D
100
AcDbEntity
  8
0
  6
Continuous
 62
     0
370
     0
100
AcDbLine
 10
15.3730669589
 20
-57.3730669589
 30
0.0
 11
11.9089653438
 21
-55.3730669589
 31
0.0
  0
LINE
  5
35E
330
32D
100
AcDbEntity
  8
0
  6
Continuous
 62
     0
370
     0
100
AcDbLine
 10
18.8371685741
 20
-59.3730669589
 30
0.0
 11
20.3527130307
 21
-60.2480669589
 31
0.0
  0
LINE
  5
35F
330
32D
100
AcDbEntity
  8
0
  6
Continuous
 62
     0
370
     0
100
AcDbLine
 10
11.9089653438
 20
-55.3730669589
 30
0.0
 11
10.3934208872
 21
-54.4980669589
 31
0.0
  0
LINE
  5
360
330
32D
100
AcDbEntity
  8
0
  6
Continuous
 62
     0
370
     0
100
AcDbLine
 10
21.0
 20
-36.3730669589
 30
0.0
 11
25.0
 21
-36.3730669589
 31
0.0
  0
LINE
  5
361
330
32D
100
AcDbEntity
  8
0
  6
Continuous
 62
     0
370
     0
100
AcDbLine
 10
21.0
 20
-36.3730669589
 30
0.0
 11
17.0
 21
-36.3730669589
 31
0.0
  0
LINE
  5
362
330
32D
100
AcDbEntity
  8
0
  6
Continuous
 62
     0
370
     0
100
AcDbLine
 10
25.0
 20
-36.3730669589
 30
0.0
 11
26.75
 21
-36.3730669589
 31
0.0
  0
LINE
  5
363
330
32D
100
AcDbEntity
  8
0
  6
Continuous
 62
     0
370
     0
100
AcDbLine
 10
17.0
 20
-36.3730669589
 30
0.0
 11
15.25
 21
-36.3730669589
 31
0.0
  0
LINE
  5
364
330
32D
100
AcDbEntity
  8
0
  6
Continuous
 62
     0
370
     0
100
AcDbLine
 10
15.3730669589
 20
-15.3730669589
 30
0.0
 11
18.8371685741
 21
-13.3730669589
 31
0.0
  0
LINE
  5
365
330
32D
100
AcDbEntity
  8
0
  6
Continuous
 62
     0
370
     0
100
AcDbLine
 10
15.3730669589
 20
-15.3730669589
 30
0.0
 11
11.9089653438
 21
-17.3730669589
 31
0.0
  0
LINE
  5
366
330
32D
100
AcDbEntity
  8
0
  6
Continuous
 62
     0
370
     0
100
AcDbLine
 10
18.8371685741
 20
-13.3730669589
 30
0.0
 11
20.3527130307
 21
-12.4980669589
 31
0.0
  0
LINE
  5
367
330
32D
100
AcDbEntity
  8
0
  6
Continuous
 62
     0
370
     0
100
AcDbLine
 10
11.9089653438
 20
-17.3730669589
 30
0.0
 11
10.3934208872
 21
-18.2480669589
 31
0.0
  0
LINE
  5
368
330
32D
100
AcDbEntity
  8
0
  6
Continuous
 62
     0
370
     0
100
AcDbLine
 10
-21.0
 20
5.6269330411
 30
0.0
 11
-21.0
 21
9.6269330411
 31
0.0
  0
LINE
  5
369
330
32D
100
AcDbEntity
  8
0
  6
Continuous
 62
     0
370
     0
100
AcDbLine
 10
-21.0
 20
5.6269330411
 30
0.0
 11
-21.0
 21
1.6269330411
 31
0.0
  0
LINE
  5
36A
330
32D
100
AcDbEntity
  8
0
  6
Continuous
 62
     0
370
     0
100
AcDbLine
 10
-21.0
 20
9.6269330411
 30
0.0
 11
-21.0
 21
11.3769330411
 31
0.0
  0
LINE
  5
36B
330
32D
100
AcDbEntity
  8
0
  6
Continuous
 62
     0
370
     0
100
AcDbLine
 10
-21.0
 20
1.6269330411
 30
0.0
 11
-21.0
 21
-0.1230669589
 31
0.0
  0
LINE
  5
36C
330
32D
100
AcDbEntity
  8
0
  6
Continuous
 62
     0
370
     0
100
AcDbLine
 10
-42.0
 20
0.0
 30
0.0
 11
-44.0
 21
3.4641016151
 31
0.0
  0
LINE
  5
36D
330
32D
100
AcDbEntity
  8
0
  6
Continuous
 62
     0
370
     0
100
AcDbLine
 10
-42.0
 20
0.0
 30
0.0
 11
-40.0
 21
-3.4641016151
 31
0.0
  0
LINE
  5
36E
330
32D
100
AcDbEntity
  8
0
  6
Continuous
 62
     0
370
     0
100
AcDbLine
 10
-44.0
 20
3.4641016151
 30
0.0
 11
-44.875
 21
4.9796460718
 31
0.0
  0
LINE
  5
36F
330
32D
100
AcDbEntity
  8
0
  6
Continuous
 62
     0
370
     0
100
AcDbLine
 10
-40.0
 20
-3.4641016151
 30
0.0
 11
-39.125
 21
-4.9796460718
 31
0.0
  0
LINE
  5
370
330
32D
100
AcDbEntity
  8
0
  6
Continuous
 62
     0
370
     0
100
AcDbLine
 10
-57.3730669589
 20
-15.3730669589
 30
0.0
 11
-60.8371685741
 21
-13.3730669589
 31
0.0
  0
LINE
  5
371
330
32D
100
AcDbEntity
  8
0
  6
Continuous
 62
     0
370
     0
100
AcDbLine
 10
-57.3730669589
 20
-15.3730669589
 30
0.0
 11
-53.9089653438
 21
-17.3730669589
 31
0.0
  0
LINE
  5
372
330
32D
100
AcDbEntity
  8
0
  6
Continuous
 62
     0
370
     0
100
AcDbLine
 10
-60.8371685741
 20
-13.3730669589
 30
0.0
 11
-62.3527130307
 21
-12.4980669589
 31
0.0
  0
LINE
  5
373
330
32D
100
AcDbEntity
  8
0
  6
Continuous
 62
     0
370
     0
100
AcDbLine
 10
-53.9089653438
 20
-17.3730669589
 30
0.0
 11
-52.3934208872
 21
-18.2480669589
 31
0.0
  0
LINE
  5
374
330
32D
100
AcDbEntity
  8
0
  6
Continuous
 62
     0
370
     0
100
AcDbLine
 10
-63.0
 20
-36.3730669589
 30
0.0
 11
-67.0
 21
-36.3730669589
 31
0.0
  0
LINE
  5
375
330
32D
100
AcDbEntity
  8
0
  6
Continuous
 62
     0
370
     0
100
AcDbLine
 10
-63.0
 20
-36.3730669589
 30
0.0
 11
-59.0
 21
-36.3730669589
 31
0.0
  0
LINE
  5
376
330
32D
100
AcDbEntity
  8
0
  6
Continuous
 62
     0
370
     0
100
AcDbLine
 10
-67.0
 20
-36.3730669589
 30
0.0
 11
-68.75
 21
-36.3730669589
 31
0.0
  0
LINE
  5
377
330
32D
100
AcDbEntity
  8
0
  6
Continuous
 62
     0
370
     0
100
AcDbLine
 10
-59.0
 20
-36.3730669589
 30
0.0
 11
-57.25
 21
-36.3730669589
 31
0.0
  0
LINE
  5
378
330
32D
100
AcDbEntity
  8
0
  6
Continuous
 62
     0
370
     0
100
AcDbLine
 10
-57.3730669589
 20
-57.3730669589
 30
0.0
 11
-60.8371685741
 21
-59.3730669589
 31
0.0
  0
LINE
  5
379
330
32D
100
AcDbEntity
  8
0
  6
Continuous
 62
     0
370
     0
100
AcDbLine
 10
-57.3730669589
 20
-57.3730669589
 30
0.0
 11
-53.9089653438
 21
-55.3730669589
 31
0.0
  0
LINE
  5
37A
330
32D
100
AcDbEntity
  8
0
  6
Continuous
 62
     0
370
     0
100
AcDbLine
 10
-60.8371685741
 20
-59.3730669589
 30
0.0
 11
-62.3527130307
 21
-60.2480669589
 31
0.0
  0
LINE
  5
37B
330
32D
100
AcDbEntity
  8
0
  6
Continuous
 62
     0
370
     0
100
AcDbLine
 10
-53.9089653438
 20
-55.3730669589
 30
0.0
 11
-52.3934208872
 21
-54.4980669589
 31
0.0
  0
LINE
  5
37C
330
32D
100
AcDbEntity
  8
0
  6
Continuous
 62
     0
370
     0
100
AcDbLine
 10
-42.0
 20
-72.7461339179
 30
0.0
 11
-44.0
 21
-76.210235533
 31
0.0
  0
LINE
  5
37D
330
32D
100
AcDbEntity
  8
0
  6
Continuous
 62
     0
370
     0
100
AcDbLine
 10
-42.0
 20
-72.7461339179
 30
0.0
 11
-40.0
 21
-69.2820323028
 31
0.0
  0
LINE
  5
37E
330
32D
100
AcDbEntity
  8
0
  6
Continuous
 62
     0
370
     0
100
AcDbLine
 10
-44.0
 20
-76.210235533
 30
0.0
 11
-44.875
 21
-77.7257799897
 31
0.0
  0
LINE
  5
37F
330
32D
100
AcDbEntity
  8
0
  6
Continuous
 62
     0
370
     0
100
AcDbLine
 10
-40.0
 20
-69.2820323028
 30
0.0
 11
-39.125
 21
-67.7664878461
 31
0.0
  0
LINE
  5
380
330
32D
100
AcDbEntity
  8
0
  6
Continuous
 62
     0
370
     0
100
AcDbLine
 10
-21.0
 20
-78.3730669589
 30
0.0
 11
-21.0
 21
-82.3730669589
 31
0.0
  0
LINE
  5
381
330
32D
100
AcDbEntity
  8
0
  6
Continuous
 62
     0
370
     0
100
AcDbLine
 10
-21.0
 20
-78.3730669589
 30
0.0
 11
-21.0
 21
-74.3730669589
 31
0.0
  0
LINE
  5
382
330
32D
100
AcDbEntity
  8
0
  6
Continuous
 62
     0
370
     0
100
AcDbLine
 10
-21.0
 20
-82.3730669589
 30
0.0
 11
-21.0
 21
-84.1230669589
 31
0.0
  0
LINE
  5
383
330
32D
100
AcDbEntity
  8
0
  6
Continuous
 62
     0
370
     0
100
AcDbLine
 10
-21.0
 20
-74.3730669589
 30
0.0
 11
-21.0
 21
-72.6230669589
 31
0.0
  0
ENDBLK
  5
32F
330
32D
100
AcDbEntity
  8
0
100
AcDbBlockEnd
  0
BLOCK
  5
386
330
385
100
AcDbEntity
  8
0
100
AcDbBlockBegin
  2
SW_CENTERMARKSYMBOL_4
 70
     0
 10
0.0
 20
0.0
 30
0.0
  3
SW_CENTERMARKSYMBOL_4
  1

  0
ARC
  5
388
330
385
100
AcDbEntity
  8
0
  6
Continuous
 62
     0
370
     0
100
AcDbCircle
 10
0.0
 20
-30.7
 30
0.0
 40
30.70000000000001
100
AcDbArc
 50
90.0
 51
97.465248145
  0
ARC
  5
389
330
385
100
AcDbEntity
  8
0
  6
Continuous
 62
     0
370
     0
100
AcDbCircle
 10
0.0
 20
-30.7
 30
0.0
 40
30.70000000000001
100
AcDbArc
 50
82.534751855
 51
90.0
  0
ARC
  5
38A
330
385
100
AcDbEntity
  8
0
  6
Continuous
 62
     0
370
     0
100
AcDbCircle
 10
0.0
 20
-30.7
 30
0.0
 40
30.7
100
AcDbArc
 50
60.0
 51
67.465248145
  0
ARC
  5
38B
330
385
100
AcDbEntity
  8
0
  6
Continuous
 62
     0
370
     0
100
AcDbCircle
 10
0.0
 20
-30.7
 30
0.0
 40
30.70000000000001
100
AcDbArc
 50
52.534751855
 51
60.0
  0
ARC
  5
38C
330
385
100
AcDbEntity
  8
0
  6
Continuous
 62
     0
370
     0
100
AcDbCircle
 10
0.0
 20
-30.7
 30
0.0
 40
30.70000000000001
100
AcDbArc
 50
30.0
 51
37.465248145
  0
ARC
  5
38D
330
385
100
AcDbEntity
  8
0
  6
Continuous
 62
     0
370
     0
100
AcDbCircle
 10
0.0
 20
-30.7
 30
0.0
 40
30.70000000000001
100
AcDbArc
 50
22.534751855
 51
30.0
  0
ARC
  5
38E
330
385
100
AcDbEntity
  8
0
  6
Continuous
 62
     0
370
     0
100
AcDbCircle
 10
0.0
 20
-30.7
 30
0.0
 40
30.70000000000001
100
AcDbArc
 50
0.0
 51
7.465248145
  0
ARC
  5
38F
330
385
100
AcDbEntity
  8
0
  6
Continuous
 62
     0
370
     0
100
AcDbCircle
 10
0.0
 20
-30.7
 30
0.0
 40
30.70000000000001
100
AcDbArc
 50
352.534751855
 51
0.0
  0
ARC
  5
390
330
385
100
AcDbEntity
  8
0
  6
Continuous
 62
     0
370
     0
100
AcDbCircle
 10
0.0
 20
-30.7
 30
0.0
 40
30.7
100
AcDbArc
 50
330.0
 51
337.465248145
  0
ARC
  5
391
330
385
100
AcDbEntity
  8
0
  6
Continuous
 62
     0
370
     0
100
AcDbCircle
 10
0.0
 20
-30.7
 30
0.0
 40
30.7
100
AcDbArc
 50
322.534751855
 51
330.0
  0
ARC
  5
392
330
385
100
AcDbEntity
  8
0
  6
Continuous
 62
     0
370
     0
100
AcDbCircle
 10
0.0
 20
-30.7
 30
0.0
 40
30.70000000000001
100
AcDbArc
 50
300.0
 51
307.465248145
  0
ARC
  5
393
330
385
100
AcDbEntity
  8
0
  6
Continuous
 62
     0
370
     0
100
AcDbCircle
 10
0.0
 20
-30.7
 30
0.0
 40
30.70000000000001
100
AcDbArc
 50
292.534751855
 51
300.0
  0
ARC
  5
394
330
385
100
AcDbEntity
  8
0
  6
Continuous
 62
     0
370
     0
100
AcDbCircle
 10
0.0
 20
-30.7
 30
0.0
 40
30.70000000000001
100
AcDbArc
 50
270.0
 51
277.465248145
  0
ARC
  5
395
330
385
100
AcDbEntity
  8
0
  6
Continuous
 62
     0
370
     0
100
AcDbCircle
 10
0.0
 20
-30.7
 30
0.0
 40
30.70000000000001
100
AcDbArc
 50
262.534751855
 51
270.0
  0
ARC
  5
396
330
385
100
AcDbEntity
  8
0
  6
Continuous
 62
     0
370
     0
100
AcDbCircle
 10
0.0
 20
-30.7
 30
0.0
 40
30.70000000000001
100
AcDbArc
 50
240.0
 51
247.465248145
  0
ARC
  5
397
330
385
100
AcDbEntity
  8
0
  6
Continuous
 62
     0
370
     0
100
AcDbCircle
 10
0.0
 20
-30.7
 30
0.0
 40
30.7
100
AcDbArc
 50
232.534751855
 51
240.0
  0
ARC
  5
398
330
385
100
AcDbEntity
  8
0
  6
Continuous
 62
     0
370
     0
100
AcDbCircle
 10
0.0
 20
-30.7
 30
0.0
 40
30.7
100
AcDbArc
 50
210.0
 51
217.465248145
  0
ARC
  5
399
330
385
100
AcDbEntity
  8
0
  6
Continuous
 62
     0
370
     0
100
AcDbCircle
 10
0.0
 20
-30.7
 30
0.0
 40
30.7
100
AcDbArc
 50
202.534751855
 51
210.0
  0
ARC
  5
39A
330
385
100
AcDbEntity
  8
0
  6
Continuous
 62
     0
370
     0
100
AcDbCircle
 10
0.0
 20
-30.7
 30
0.0
 40
30.7
100
AcDbArc
 50
180.0
 51
187.465248145
  0
ARC
  5
39B
330
385
100
AcDbEntity
  8
0
  6
Continuous
 62
     0
370
     0
100
AcDbCircle
 10
0.0
 20
-30.7
 30
0.0
 40
30.7
100
AcDbArc
 50
172.534751855
 51
180.0
  0
ARC
  5
39C
330
385
100
AcDbEntity
  8
0
  6
Continuous
 62
     0
370
     0
100
AcDbCircle
 10
0.0
 20
-30.7
 30
0.0
 40
30.7
100
AcDbArc
 50
150.0
 51
157.465248145
  0
ARC
  5
39D
330
385
100
AcDbEntity
  8
0
  6
Continuous
 62
     0
370
     0
100
AcDbCircle
 10
0.0
 20
-30.7
 30
0.0
 40
30.7
100
AcDbArc
 50
142.534751855
 51
150.0
  0
ARC
  5
39E
330
385
100
AcDbEntity
  8
0
  6
Continuous
 62
     0
370
     0
100
AcDbCircle
 10
0.0
 20
-30.7
 30
0.0
 40
30.70000000000001
100
AcDbArc
 50
120.0
 51
127.465248145
  0
ARC
  5
39F
330
385
100
AcDbEntity
  8
0
  6
Continuous
 62
     0
370
     0
100
AcDbCircle
 10
0.0
 20
-30.7
 30
0.0
 40
30.70000000000001
100
AcDbArc
 50
112.534751855
 51
120.0
  0
LINE
  5
3A0
330
385
100
AcDbEntity
  8
0
  6
Continuous
 62
     0
370
     0
100
AcDbLine
 10
0.0
 20
0.0
 30
0.0
 11
0.0
 21
4.0
 31
0.0
  0
LINE
  5
3A1
330
385
100
AcDbEntity
  8
0
  6
Continuous
 62
     0
370
     0
100
AcDbLine
 10
0.0
 20
0.0
 30
0.0
 11
0.0
 21
-4.0
 31
0.0
  0
LINE
  5
3A2
330
385
100
AcDbEntity
  8
0
  6
Continuous
 62
     0
370
     0
100
AcDbLine
 10
0.0
 20
4.0
 30
0.0
 11
0.0
 21
5.25
 31
0.0
  0
LINE
  5
3A3
330
385
100
AcDbEntity
  8
0
  6
Continuous
 62
     0
370
     0
100
AcDbLine
 10
0.0
 20
-4.0
 30
0.0
 11
0.0
 21
-5.25
 31
0.0
  0
LINE
  5
3A4
330
385
100
AcDbEntity
  8
0
  6
Continuous
 62
     0
370
     0
100
AcDbLine
 10
15.35
 20
-4.1130201038
 30
0.0
 11
17.35
 21
-0.6489184887
 31
0.0
  0
LINE
  5
3A5
330
385
100
AcDbEntity
  8
0
  6
Continuous
 62
     0
370
     0
100
AcDbLine
 10
15.35
 20
-4.1130201038
 30
0.0
 11
13.35
 21
-7.577121719
 31
0.0
  0
LINE
  5
3A6
330
385
100
AcDbEntity
  8
0
  6
Continuous
 62
     0
370
     0
100
AcDbLine
 10
17.35
 20
-0.6489184887
 30
0.0
 11
17.975
 21
0.4336132661
 31
0.0
  0
LINE
  5
3A7
330
385
100
AcDbEntity
  8
0
  6
Continuous
 62
     0
370
     0
100
AcDbLine
 10
13.35
 20
-7.577121719
 30
0.0
 11
12.725
 21
-8.6596534737
 31
0.0
  0
LINE
  5
3A8
330
385
100
AcDbEntity
  8
0
  6
Continuous
 62
     0
370
     0
100
AcDbLine
 10
26.5869798962
 20
-15.35
 30
0.0
 11
30.0510815113
 21
-13.35
 31
0.0
  0
LINE
  5
3A9
330
385
100
AcDbEntity
  8
0
  6
Continuous
 62
     0
370
     0
100
AcDbLine
 10
26.5869798962
 20
-15.35
 30
0.0
 11
23.122878281
 21
-17.35
 31
0.0
  0
LINE
  5
3AA
330
385
100
AcDbEntity
  8
0
  6
Continuous
 62
     0
370
     0
100
AcDbLine
 10
30.0510815113
 20
-13.35
 30
0.0
 11
31.1336132661
 21
-12.725
 31
0.0
  0
LINE
  5
3AB
330
385
100
AcDbEntity
  8
0
  6
Continuous
 62
     0
370
     0
100
AcDbLine
 10
23.122878281
 20
-17.35
 30
0.0
 11
22.0403465263
 21
-17.975
 31
0.0
  0
LINE
  5
3AC
330
385
100
AcDbEntity
  8
0
  6
Continuous
 62
     0
370
     0
100
AcDbLine
 10
30.7
 20
-30.7
 30
0.0
 11
34.7
 21
-30.7
 31
0.0
  0
LINE
  5
3AD
330
385
100
AcDbEntity
  8
0
  6
Continuous
 62
     0
370
     0
100
AcDbLine
 10
30.7
 20
-30.7
 30
0.0
 11
26.7
 21
-30.7
 31
0.0
  0
LINE
  5
3AE
330
385
100
AcDbEntity
  8
0
  6
Continuous
 62
     0
370
     0
100
AcDbLine
 10
34.7
 20
-30.7
 30
0.0
 11
35.95
 21
-30.7
 31
0.0
  0
LINE
  5
3AF
330
385
100
AcDbEntity
  8
0
  6
Continuous
 62
     0
370
     0
100
AcDbLine
 10
26.7
 20
-30.7
 30
0.0
 11
25.45
 21
-30.7
 31
0.0
  0
LINE
  5
3B0
330
385
100
AcDbEntity
  8
0
  6
Continuous
 62
     0
370
     0
100
AcDbLine
 10
26.5869798962
 20
-46.05
 30
0.0
 11
30.0510815113
 21
-48.05
 31
0.0
  0
LINE
  5
3B1
330
385
100
AcDbEntity
  8
0
  6
Continuous
 62
     0
370
     0
100
AcDbLine
 10
26.5869798962
 20
-46.05
 30
0.0
 11
23.122878281
 21
-44.05
 31
0.0
  0
LINE
  5
3B2
330
385
100
AcDbEntity
  8
0
  6
Continuous
 62
     0
370
     0
100
AcDbLine
 10
30.0510815113
 20
-48.05
 30
0.0
 11
31.1336132661
 21
-48.675
 31
0.0
  0
LINE
  5
3B3
330
385
100
AcDbEntity
  8
0
  6
Continuous
 62
     0
370
     0
100
AcDbLine
 10
23.122878281
 20
-44.05
 30
0.0
 11
22.0403465263
 21
-43.425
 31
0.0
  0
LINE
  5
3B4
330
385
100
AcDbEntity
  8
0
  6
Continuous
 62
     0
370
     0
100
AcDbLine
 10
15.35
 20
-57.2869798962
 30
0.0
 11
17.35
 21
-60.7510815113
 31
0.0
  0
LINE
  5
3B5
330
385
100
AcDbEntity
  8
0
  6
Continuous
 62
     0
370
     0
100
AcDbLine
 10
15.35
 20
-57.2869798962
 30
0.0
 11
13.35
 21
-53.822878281
 31
0.0
  0
LINE
  5
3B6
330
385
100
AcDbEntity
  8
0
  6
Continuous
 62
     0
370
     0
100
AcDbLine
 10
17.35
 20
-60.7510815113
 30
0.0
 11
17.975
 21
-61.8336132661
 31
0.0
  0
LINE
  5
3B7
330
385
100
AcDbEntity
  8
0
  6
Continuous
 62
     0
370
     0
100
AcDbLine
 10
13.35
 20
-53.822878281
 30
0.0
 11
12.725
 21
-52.7403465263
 31
0.0
  0
LINE
  5
3B8
330
385
100
AcDbEntity
  8
0
  6
Continuous
 62
     0
370
     0
100
AcDbLine
 10
0.0
 20
-61.4
 30
0.0
 11
0.0
 21
-65.4
 31
0.0
  0
LINE
  5
3B9
330
385
100
AcDbEntity
  8
0
  6
Continuous
 62
     0
370
     0
100
AcDbLine
 10
0.0
 20
-61.4
 30
0.0
 11
0.0
 21
-57.4
 31
0.0
  0
LINE
  5
3BA
330
385
100
AcDbEntity
  8
0
  6
Continuous
 62
     0
370
     0
100
AcDbLine
 10
0.0
 20
-65.4
 30
0.0
 11
0.0
 21
-66.65
 31
0.0
  0
LINE
  5
3BB
330
385
100
AcDbEntity
  8
0
  6
Continuous
 62
     0
370
     0
100
AcDbLine
 10
0.0
 20
-57.4
 30
0.0
 11
0.0
 21
-56.15
 31
0.0
  0
LINE
  5
3BC
330
385
100
AcDbEntity
  8
0
  6
Continuous
 62
     0
370
     0
100
AcDbLine
 10
-15.35
 20
-57.2869798962
 30
0.0
 11
-17.35
 21
-60.7510815113
 31
0.0
  0
LINE
  5
3BD
330
385
100
AcDbEntity
  8
0
  6
Continuous
 62
     0
370
     0
100
AcDbLine
 10
-15.35
 20
-57.2869798962
 30
0.0
 11
-13.35
 21
-53.822878281
 31
0.0
  0
LINE
  5
3BE
330
385
100
AcDbEntity
  8
0
  6
Continuous
 62
     0
370
     0
100
AcDbLine
 10
-17.35
 20
-60.7510815113
 30
0.0
 11
-17.975
 21
-61.8336132661
 31
0.0
  0
LINE
  5
3BF
330
385
100
AcDbEntity
  8
0
  6
Continuous
 62
     0
370
     0
100
AcDbLine
 10
-13.35
 20
-53.822878281
 30
0.0
 11
-12.725
 21
-52.7403465263
 31
0.0
  0
LINE
  5
3C0
330
385
100
AcDbEntity
  8
0
  6
Continuous
 62
     0
370
     0
100
AcDbLine
 10
-26.5869798962
 20
-46.05
 30
0.0
 11
-30.0510815113
 21
-48.05
 31
0.0
  0
LINE
  5
3C1
330
385
100
AcDbEntity
  8
0
  6
Continuous
 62
     0
370
     0
100
AcDbLine
 10
-26.5869798962
 20
-46.05
 30
0.0
 11
-23.122878281
 21
-44.05
 31
0.0
  0
LINE
  5
3C2
330
385
100
AcDbEntity
  8
0
  6
Continuous
 62
     0
370
     0
100
AcDbLine
 10
-30.0510815113
 20
-48.05
 30
0.0
 11
-31.1336132661
 21
-48.675
 31
0.0
  0
LINE
  5
3C3
330
385
100
AcDbEntity
  8
0
  6
Continuous
 62
     0
370
     0
100
AcDbLine
 10
-23.122878281
 20
-44.05
 30
0.0
 11
-22.0403465263
 21
-43.425
 31
0.0
  0
LINE
  5
3C4
330
385
100
AcDbEntity
  8
0
  6
Continuous
 62
     0
370
     0
100
AcDbLine
 10
-30.7
 20
-30.7
 30
0.0
 11
-34.7
 21
-30.7
 31
0.0
  0
LINE
  5
3C5
330
385
100
AcDbEntity
  8
0
  6
Continuous
 62
     0
370
     0
100
AcDbLine
 10
-30.7
 20
-30.7
 30
0.0
 11
-26.7
 21
-30.7
 31
0.0
  0
LINE
  5
3C6
330
385
100
AcDbEntity
  8
0
  6
Continuous
 62
     0
370
     0
100
AcDbLine
 10
-34.7
 20
-30.7
 30
0.0
 11
-35.95
 21
-30.7
 31
0.0
  0
LINE
  5
3C7
330
385
100
AcDbEntity
  8
0
  6
Continuous
 62
     0
370
     0
100
AcDbLine
 10
-26.7
 20
-30.7
 30
0.0
 11
-25.45
 21
-30.7
 31
0.0
  0
LINE
  5
3C8
330
385
100
AcDbEntity
  8
0
  6
Continuous
 62
     0
370
     0
100
AcDbLine
 10
-26.5869798962
 20
-15.35
 30
0.0
 11
-30.0510815113
 21
-13.35
 31
0.0
  0
LINE
  5
3C9
330
385
100
AcDbEntity
  8
0
  6
Continuous
 62
     0
370
     0
100
AcDbLine
 10
-26.5869798962
 20
-15.35
 30
0.0
 11
-23.122878281
 21
-17.35
 31
0.0
  0
LINE
  5
3CA
330
385
100
AcDbEntity
  8
0
  6
Continuous
 62
     0
370
     0
100
AcDbLine
 10
-30.0510815113
 20
-13.35
 30
0.0
 11
-31.1336132661
 21
-12.725
 31
0.0
  0
LINE
  5
3CB
330
385
100
AcDbEntity
  8
0
  6
Continuous
 62
     0
370
     0
100
AcDbLine
 10
-23.122878281
 20
-17.35
 30
0.0
 11
-22.0403465263
 21
-17.975
 31
0.0
  0
LINE
  5
3CC
330
385
100
AcDbEntity
  8
0
  6
Continuous
 62
     0
370
     0
100
AcDbLine
 10
-15.35
 20
-4.1130201038
 30
0.0
 11
-17.35
 21
-0.6489184887
 31
0.0
  0
LINE
  5
3CD
330
385
100
AcDbEntity
  8
0
  6
Continuous
 62
     0
370
     0
100
AcDbLine
 10
-15.35
 20
-4.1130201038
 30
0.0
 11
-13.35
 21
-7.577121719
 31
0.0
  0
LINE
  5
3CE
330
385
100
AcDbEntity
  8
0
  6
Continuous
 62
     0
370
     0
100
AcDbLine
 10
-17.35
 20
-0.6489184887
 30
0.0
 11
-17.975
 21
0.4336132661
 31
0.0
  0
LINE
  5
3CF
330
385
100
AcDbEntity
  8
0
  6
Continuous
 62
     0
370
     0
100
AcDbLine
 10
-13.35
 20
-7.577121719
 30
0.0
 11
-12.725
 21
-8.6596534737
 31
0.0
  0
ENDBLK
  5
387
330
385
100
AcDbEntity
  8
0
100
AcDbBlockEnd
  0
BLOCK
  5
3D2
330
3D1
100
AcDbEntity
  8
0
100
AcDbBlockBegin
  2
SW_CENTERMARKSYMBOL_5
 70
     0
 10
0.0
 20
0.0
 30
0.0
  3
SW_CENTERMARKSYMBOL_5
  1

  0
ARC
  5
3D4
330
3D1
100
AcDbEntity
  8
0
  6
Continuous
 62
     0
370
     0
100
AcDbCircle
 10
0.0
 20
-24.0
 30
0.0
 40
23.99999999999999
100
AcDbArc
 50
90.0
 51
99.5492965855
  0
ARC
  5
3D5
330
3D1
100
AcDbEntity
  8
0
  6
Continuous
 62
     0
370
     0
100
AcDbCircle
 10
0.0
 20
-24.0
 30
0.0
 40
23.99999999999999
100
AcDbArc
 50
80.4507034145
 51
90.0
  0
ARC
  5
3D6
330
3D1
100
AcDbEntity
  8
0
  6
Continuous
 62
     0
370
     0
100
AcDbCircle
 10
0.0
 20
-24.0
 30
0.0
 40
24.0
100
AcDbArc
 50
54.0
 51
63.5492965855
  0
ARC
  5
3D7
330
3D1
100
AcDbEntity
  8
0
  6
Continuous
 62
     0
370
     0
100
AcDbCircle
 10
0.0
 20
-24.0
 30
0.0
 40
24.00000000000001
100
AcDbArc
 50
44.4507034145
 51
54.0
  0
ARC
  5
3D8
330
3D1
100
AcDbEntity
  8
0
  6
Continuous
 62
     0
370
     0
100
AcDbCircle
 10
0.0
 20
-24.0
 30
0.0
 40
24.0
100
AcDbArc
 50
18.0
 51
27.5492965855
  0
ARC
  5
3D9
330
3D1
100
AcDbEntity
  8
0
  6
Continuous
 62
     0
370
     0
100
AcDbCircle
 10
0.0
 20
-24.0
 30
0.0
 40
24.00000000000001
100
AcDbArc
 50
8.4507034145
 51
18.0
  0
ARC
  5
3DA
330
3D1
100
AcDbEntity
  8
0
  6
Continuous
 62
     0
370
     0
100
AcDbCircle
 10
0.0
 20
-24.0
 30
0.0
 40
24.00000000000001
100
AcDbArc
 50
342.0
 51
351.5492965855
  0
ARC
  5
3DB
330
3D1
100
AcDbEntity
  8
0
  6
Continuous
 62
     0
370
     0
100
AcDbCircle
 10
0.0
 20
-24.0
 30
0.0
 40
24.0
100
AcDbArc
 50
332.4507034145
 51
342.0
  0
ARC
  5
3DC
330
3D1
100
AcDbEntity
  8
0
  6
Continuous
 62
     0
370
     0
100
AcDbCircle
 10
0.0
 20
-24.0
 30
0.0
 40
24.0
100
AcDbArc
 50
306.0
 51
315.5492965855
  0
ARC
  5
3DD
330
3D1
100
AcDbEntity
  8
0
  6
Continuous
 62
     0
370
     0
100
AcDbCircle
 10
0.0
 20
-24.0
 30
0.0
 40
24.00000000000001
100
AcDbArc
 50
296.4507034145
 51
306.0
  0
ARC
  5
3DE
330
3D1
100
AcDbEntity
  8
0
  6
Continuous
 62
     0
370
     0
100
AcDbCircle
 10
0.0
 20
-24.0
 30
0.0
 40
23.99999999999999
100
AcDbArc
 50
270.0
 51
279.5492965855
  0
ARC
  5
3DF
330
3D1
100
AcDbEntity
  8
0
  6
Continuous
 62
     0
370
     0
100
AcDbCircle
 10
0.0
 20
-24.0
 30
0.0
 40
23.99999999999999
100
AcDbArc
 50
260.4507034145
 51
270.0
  0
ARC
  5
3E0
330
3D1
100
AcDbEntity
  8
0
  6
Continuous
 62
     0
370
     0
100
AcDbCircle
 10
0.0
 20
-24.0
 30
0.0
 40
24.00000000000001
100
AcDbArc
 50
234.0
 51
243.5492965855
  0
ARC
  5
3E1
330
3D1
100
AcDbEntity
  8
0
  6
Continuous
 62
     0
370
     0
100
AcDbCircle
 10
0.0
 20
-24.0
 30
0.0
 40
24.00000000000001
100
AcDbArc
 50
224.4507034145
 51
234.0
  0
ARC
  5
3E2
330
3D1
100
AcDbEntity
  8
0
  6
Continuous
 62
     0
370
     0
100
AcDbCircle
 10
0.0
 20
-24.0
 30
0.0
 40
24.0
100
AcDbArc
 50
198.0
 51
207.5492965855
  0
ARC
  5
3E3
330
3D1
100
AcDbEntity
  8
0
  6
Continuous
 62
     0
370
     0
100
AcDbCircle
 10
0.0
 20
-24.0
 30
0.0
 40
24.0
100
AcDbArc
 50
188.4507034145
 51
198.0
  0
ARC
  5
3E4
330
3D1
100
AcDbEntity
  8
0
  6
Continuous
 62
     0
370
     0
100
AcDbCircle
 10
0.0
 20
-24.0
 30
0.0
 40
24.0
100
AcDbArc
 50
162.0
 51
171.5492965855
  0
ARC
  5
3E5
330
3D1
100
AcDbEntity
  8
0
  6
Continuous
 62
     0
370
     0
100
AcDbCircle
 10
0.0
 20
-24.0
 30
0.0
 40
24.0
100
AcDbArc
 50
152.4507034145
 51
162.0
  0
ARC
  5
3E6
330
3D1
100
AcDbEntity
  8
0
  6
Continuous
 62
     0
370
     0
100
AcDbCircle
 10
0.0
 20
-24.0
 30
0.0
 40
24.00000000000001
100
AcDbArc
 50
126.0
 51
135.5492965855
  0
ARC
  5
3E7
330
3D1
100
AcDbEntity
  8
0
  6
Continuous
 62
     0
370
     0
100
AcDbCircle
 10
0.0
 20
-24.0
 30
0.0
 40
24.00000000000001
100
AcDbArc
 50
116.4507034145
 51
126.0
  0
LINE
  5
3E8
330
3D1
100
AcDbEntity
  8
0
  6
Continuous
 62
     0
370
     0
100
AcDbLine
 10
0.0
 20
0.0
 30
0.0
 11
0.0
 21
4.0
 31
0.0
  0
LINE
  5
3E9
330
3D1
100
AcDbEntity
  8
0
  6
Continuous
 62
     0
370
     0
100
AcDbLine
 10
0.0
 20
0.0
 30
0.0
 11
0.0
 21
-4.0
 31
0.0
  0
LINE
  5
3EA
330
3D1
100
AcDbEntity
  8
0
  6
Continuous
 62
     0
370
     0
100
AcDbLine
 10
0.0
 20
4.0
 30
0.0
 11
0.0
 21
6.84
 31
0.0
  0
LINE
  5
3EB
330
3D1
100
AcDbEntity
  8
0
  6
Continuous
 62
     0
370
     0
100
AcDbLine
 10
0.0
 20
-4.0
 30
0.0
 11
0.0
 21
-6.84
 31
0.0
  0
LINE
  5
3EC
330
3D1
100
AcDbEntity
  8
0
  6
Continuous
 62
     0
370
     0
100
AcDbLine
 10
14.106846055
 20
-4.583592135
 30
0.0
 11
16.4579870642
 21
-1.3475241575
 31
0.0
  0
LINE
  5
3ED
330
3D1
100
AcDbEntity
  8
0
  6
Continuous
 62
     0
370
     0
100
AcDbLine
 10
14.106846055
 20
-4.583592135
 30
0.0
 11
11.7557050458
 21
-7.8196601125
 31
0.0
  0
LINE
  5
3EE
330
3D1
100
AcDbEntity
  8
0
  6
Continuous
 62
     0
370
     0
100
AcDbLine
 10
16.4579870642
 20
-1.3475241575
 30
0.0
 11
18.1272971807
 21
0.9500841065
 31
0.0
  0
LINE
  5
3EF
330
3D1
100
AcDbEntity
  8
0
  6
Continuous
 62
     0
370
     0
100
AcDbLine
 10
11.7557050458
 20
-7.8196601125
 30
0.0
 11
10.0863949293
 21
-10.1172683765
 31
0.0
  0
LINE
  5
3F0
330
3D1
100
AcDbEntity
  8
0
  6
Continuous
 62
     0
370
     0
100
AcDbLine
 10
22.8253563911
 20
-16.583592135
 30
0.0
 11
26.6295824563
 21
-15.3475241575
 31
0.0
  0
LINE
  5
3F1
330
3D1
100
AcDbEntity
  8
0
  6
Continuous
 62
     0
370
     0
100
AcDbLine
 10
22.8253563911
 20
-16.583592135
 30
0.0
 11
19.0211303259
 21
-17.8196601125
 31
0.0
  0
LINE
  5
3F2
330
3D1
100
AcDbEntity
  8
0
  6
Continuous
 62
     0
370
     0
100
AcDbLine
 10
26.6295824563
 20
-15.3475241575
 30
0.0
 11
29.3305829625
 21
-14.4699158935
 31
0.0
  0
LINE
  5
3F3
330
3D1
100
AcDbEntity
  8
0
  6
Continuous
 62
     0
370
     0
100
AcDbLine
 10
19.0211303259
 20
-17.8196601125
 30
0.0
 11
16.3201298196
 21
-18.6972683765
 31
0.0
  0
LINE
  5
3F4
330
3D1
100
AcDbEntity
  8
0
  6
Continuous
 62
     0
370
     0
100
AcDbLine
 10
22.8253563911
 20
-31.416407865
 30
0.0
 11
26.6295824563
 21
-32.6524758425
 31
0.0
  0
LINE
  5
3F5
330
3D1
100
AcDbEntity
  8
0
  6
Continuous
 62
     0
370
     0
100
AcDbLine
 10
22.8253563911
 20
-31.416407865
 30
0.0
 11
19.0211303259
 21
-30.1803398875
 31
0.0
  0
LINE
  5
3F6
330
3D1
100
AcDbEntity
  8
0
  6
Continuous
 62
     0
370
     0
100
AcDbLine
 10
26.6295824563
 20
-32.6524758425
 30
0.0
 11
29.3305829625
 21
-33.5300841065
 31
0.0
  0
LINE
  5
3F7
330
3D1
100
AcDbEntity
  8
0
  6
Continuous
 62
     0
370
     0
100
AcDbLine
 10
19.0211303259
 20
-30.1803398875
 30
0.0
 11
16.3201298196
 21
-29.3027316235
 31
0.0
  0
LINE
  5
3F8
330
3D1
100
AcDbEntity
  8
0
  6
Continuous
 62
     0
370
     0
100
AcDbLine
 10
14.106846055
 20
-43.416407865
 30
0.0
 11
16.4579870642
 21
-46.6524758425
 31
0.0
  0
LINE
  5
3F9
330
3D1
100
AcDbEntity
  8
0
  6
Continuous
 62
     0
370
     0
100
AcDbLine
 10
14.106846055
 20
-43.416407865
 30
0.0
 11
11.7557050458
 21
-40.1803398875
 31
0.0
  0
LINE
  5
3FA
330
3D1
100
AcDbEntity
  8
0
  6
Continuous
 62
     0
370
     0
100
AcDbLine
 10
16.4579870642
 20
-46.6524758425
 30
0.0
 11
18.1272971807
 21
-48.9500841065
 31
0.0
  0
LINE
  5
3FB
330
3D1
100
AcDbEntity
  8
0
  6
Continuous
 62
     0
370
     0
100
AcDbLine
 10
11.7557050458
 20
-40.1803398875
 30
0.0
 11
10.0863949293
 21
-37.8827316235
 31
0.0
  0
LINE
  5
3FC
330
3D1
100
AcDbEntity
  8
0
  6
Continuous
 62
     0
370
     0
100
AcDbLine
 10
0.0
 20
-48.0
 30
0.0
 11
0.0
 21
-52.0
 31
0.0
  0
LINE
  5
3FD
330
3D1
100
AcDbEntity
  8
0
  6
Continuous
 62
     0
370
     0
100
AcDbLine
 10
0.0
 20
-48.0
 30
0.0
 11
0.0
 21
-44.0
 31
0.0
  0
LINE
  5
3FE
330
3D1
100
AcDbEntity
  8
0
  6
Continuous
 62
     0
370
     0
100
AcDbLine
 10
0.0
 20
-52.0
 30
0.0
 11
0.0
 21
-54.84
 31
0.0
  0
LINE
  5
3FF
330
3D1
100
AcDbEntity
  8
0
  6
Continuous
 62
     0
370
     0
100
AcDbLine
 10
0.0
 20
-44.0
 30
0.0
 11
0.0
 21
-41.16
 31
0.0
  0
LINE
  5
400
330
3D1
100
AcDbEntity
  8
0
  6
Continuous
 62
     0
370
     0
100
AcDbLine
 10
-14.106846055
 20
-43.416407865
 30
0.0
 11
-16.4579870642
 21
-46.6524758425
 31
0.0
  0
LINE
  5
401
330
3D1
100
AcDbEntity
  8
0
  6
Continuous
 62
     0
370
     0
100
AcDbLine
 10
-14.106846055
 20
-43.416407865
 30
0.0
 11
-11.7557050458
 21
-40.1803398875
 31
0.0
  0
LINE
  5
402
330
3D1
100
AcDbEntity
  8
0
  6
Continuous
 62
     0
370
     0
100
AcDbLine
 10
-16.4579870642
 20
-46.6524758425
 30
0.0
 11
-18.1272971807
 21
-48.9500841065
 31
0.0
  0
LINE
  5
403
330
3D1
100
AcDbEntity
  8
0
  6
Continuous
 62
     0
370
     0
100
AcDbLine
 10
-11.7557050458
 20
-40.1803398875
 30
0.0
 11
-10.0863949293
 21
-37.8827316235
 31
0.0
  0
LINE
  5
404
330
3D1
100
AcDbEntity
  8
0
  6
Continuous
 62
     0
370
     0
100
AcDbLine
 10
-22.8253563911
 20
-31.416407865
 30
0.0
 11
-26.6295824563
 21
-32.6524758425
 31
0.0
  0
LINE
  5
405
330
3D1
100
AcDbEntity
  8
0
  6
Continuous
 62
     0
370
     0
100
AcDbLine
 10
-22.8253563911
 20
-31.416407865
 30
0.0
 11
-19.0211303259
 21
-30.1803398875
 31
0.0
  0
LINE
  5
406
330
3D1
100
AcDbEntity
  8
0
  6
Continuous
 62
     0
370
     0
100
AcDbLine
 10
-26.6295824563
 20
-32.6524758425
 30
0.0
 11
-29.3305829625
 21
-33.5300841065
 31
0.0
  0
LINE
  5
407
330
3D1
100
AcDbEntity
  8
0
  6
Continuous
 62
     0
370
     0
100
AcDbLine
 10
-19.0211303259
 20
-30.1803398875
 30
0.0
 11
-16.3201298196
 21
-29.3027316235
 31
0.0
  0
LINE
  5
408
330
3D1
100
AcDbEntity
  8
0
  6
Continuous
 62
     0
370
     0
100
AcDbLine
 10
-22.8253563911
 20
-16.583592135
 30
0.0
 11
-26.6295824563
 21
-15.3475241575
 31
0.0
  0
LINE
  5
409
330
3D1
100
AcDbEntity
  8
0
  6
Continuous
 62
     0
370
     0
100
AcDbLine
 10
-22.8253563911
 20
-16.583592135
 30
0.0
 11
-19.0211303259
 21
-17.8196601125
 31
0.0
  0
LINE
  5
40A
330
3D1
100
AcDbEntity
  8
0
  6
Continuous
 62
     0
370
     0
100
AcDbLine
 10
-26.6295824563
 20
-15.3475241575
 30
0.0
 11
-29.3305829625
 21
-14.4699158935
 31
0.0
  0
LINE
  5
40B
330
3D1
100
AcDbEntity
  8
0
  6
Continuous
 62
     0
370
     0
100
AcDbLine
 10
-19.0211303259
 20
-17.8196601125
 30
0.0
 11
-16.3201298196
 21
-18.6972683765
 31
0.0
  0
LINE
  5
40C
330
3D1
100
AcDbEntity
  8
0
  6
Continuous
 62
     0
370
     0
100
AcDbLine
 10
-14.106846055
 20
-4.583592135
 30
0.0
 11
-16.4579870642
 21
-1.3475241575
 31
0.0
  0
LINE
  5
40D
330
3D1
100
AcDbEntity
  8
0
  6
Continuous
 62
     0
370
     0
100
AcDbLine
 10
-14.106846055
 20
-4.583592135
 30
0.0
 11
-11.7557050458
 21
-7.8196601125
 31
0.0
  0
LINE
  5
40E
330
3D1
100
AcDbEntity
  8
0
  6
Continuous
 62
     0
370
     0
100
AcDbLine
 10
-16.4579870642
 20
-1.3475241575
 30
0.0
 11
-18.1272971807
 21
0.9500841065
 31
0.0
  0
LINE
  5
40F
330
3D1
100
AcDbEntity
  8
0
  6
Continuous
 62
     0
370
     0
100
AcDbLine
 10
-11.7557050458
 20
-7.8196601125
 30
0.0
 11
-10.0863949293
 21
-10.1172683765
 31
0.0
  0
ENDBLK
  5
3D3
330
3D1
100
AcDbEntity
  8
0
100
AcDbBlockEnd
  0
BLOCK
  5
412
330
411
100
AcDbEntity
  8
0
100
AcDbBlockBegin
  2
SW_CENTERMARKSYMBOL_6
 70
     0
 10
0.0
 20
0.0
 30
0.0
  3
SW_CENTERMARKSYMBOL_6
  1

  0
LINE
  5
414
330
411
100
AcDbEntity
  8
0
  6
Continuous
 62
     0
370
     0
100
AcDbLine
 10
0.0
 20
0.0
 30
0.0
 11
0.0
 21
4.0
 31
0.0
  0
LINE
  5
415
330
411
100
AcDbEntity
  8
0
  6
Continuous
 62
     0
370
     0
100
AcDbLine
 10
0.0
 20
0.0
 30
0.0
 11
-4.0
 21
0.0
 31
0.0
  0
LINE
  5
416
330
411
100
AcDbEntity
  8
0
  6
Continuous
 62
     0
370
     0
100
AcDbLine
 10
0.0
 20
0.0
 30
0.0
 11
0.0
 21
-4.0
 31
0.0
  0
LINE
  5
417
330
411
100
AcDbEntity
  8
0
  6
Continuous
 62
     0
370
     0
100
AcDbLine
 10
0.0
 20
0.0
 30
0.0
 11
4.0
 21
0.0
 31
0.0
  0
LINE
  5
418
330
411
100
AcDbEntity
  8
0
  6
Continuous
 62
     0
370
     0
100
AcDbLine
 10
0.0
 20
8.0
 30
0.0
 11
0.0
 21
50.5
 31
0.0
  0
LINE
  5
419
330
411
100
AcDbEntity
  8
0
  6
Continuous
 62
     0
370
     0
100
AcDbLine
 10
-8.0
 20
0.0
 30
0.0
 11
-50.5
 21
0.0
 31
0.0
  0
LINE
  5
41A
330
411
100
AcDbEntity
  8
0
  6
Continuous
 62
     0
370
     0
100
AcDbLine
 10
0.0
 20
-8.0
 30
0.0
 11
0.0
 21
-50.5
 31
0.0
  0
LINE
  5
41B
330
411
100
AcDbEntity
  8
0
  6
Continuous
 62
     0
370
     0
100
AcDbLine
 10
8.0
 20
0.0
 30
0.0
 11
50.5
 21
0.0
 31
0.0
  0
ENDBLK
  5
413
330
411
100
AcDbEntity
  8
0
100
AcDbBlockEnd
  0
ENDSEC
  0
SECTION
  2
ENTITIES
  0
INSERT
  5
89
330
1F
100
AcDbEntity
  8
注記
100
AcDbBlockReference
  2
SW_NOTE_0
 10
60.2974445741
 20
95.0140075149
 30
0.0
  0
CIRCLE
  5
8A
330
1F
100
AcDbEntity
  8
0
  6
Continuous
 62
     7
370
    35
100
AcDbCircle
 10
343.5629202422
 20
223.9405457376
 30
0.0
 40
1.249999999999943
  0
CIRCLE
  5
8B
330
1F
100
AcDbEntity
  8
0
  6
Continuous
 62
     7
370
    35
100
AcDbCircle
 10
323.8608423061
 20
212.5655457376
 30
0.0
 40
1.249999999999943
  0
CIRCLE
  5
8C
330
1F
100
AcDbEntity
  8
0
  6
Continuous
 62
     7
370
    35
100
AcDbCircle
 10
323.8608423061
 20
189.8155457376
 30
0.0
 40
1.249999999999943
  0
CIRCLE
  5
8D
330
1F
100
AcDbEntity
  8
0
  6
Continuous
 62
     7
370
    35
100
AcDbCircle
 10
343.5629202422
 20
178.4405457376
 30
0.0
 40
1.249999999999943
  0
CIRCLE
  5
8E
330
1F
100
AcDbEntity
  8
0
  6
Continuous
 62
     7
370
    35
100
AcDbCircle
 10
363.2649981783
 20
189.8155457376
 30
0.0
 40
1.250000000000057
  0
CIRCLE
  5
8F
330
1F
100
AcDbEntity
  8
0
  6
Continuous
 62
     7
370
    35
100
AcDbCircle
 10
343.5629202422
 20
201.1905457376
 30
0.0
 40
20.84999999999997
  0
CIRCLE
  5
90
330
1F
100
AcDbEntity
  8
0
  6
Continuous
 62
     7
370
    35
100
AcDbCircle
 10
343.5629202422
 20
201.1905457376
 30
0.0
 40
24.69999999999999
  0
CIRCLE
  5
91
330
1F
100
AcDbEntity
  8
0
  6
Continuous
 62
     7
370
    35
100
AcDbCircle
 10
363.2649981783
 20
212.5655457376
 30
0.0
 40
1.25
  0
CIRCLE
  5
92
330
1F
100
AcDbEntity
  8
0
  6
Continuous
 62
     7
370
    35
100
AcDbCircle
 10
343.5629202422
 20
201.1905457376
 30
0.0
 40
25.00000000000006
  0
CIRCLE
  5
93
330
1F
100
AcDbEntity
  8
0
  6
Continuous
 62
     7
370
    35
100
AcDbCircle
 10
343.5629202422
 20
201.1905457376
 30
0.0
 40
20.55000000000001
  0
LINE
  5
94
330
1F
100
AcDbEntity
  8
0
  6
Continuous
 62
     7
370
    35
100
AcDbLine
 10
332.6925203479
 20
159.1436443444
 30
0.0
 11
333.9725203479
 21
159.8826526889
 31
0.0
  0
LINE
  5
95
330
1F
100
AcDbEntity
  8
0
  6
Continuous
 62
     7
370
    35
100
AcDbLine
 10
333.9725203479
 20
159.8826526889
 30
0.0
 11
333.9725203479
 21
161.360669378
 31
0.0
  0
LINE
  5
96
330
1F
100
AcDbEntity
  8
0
  6
Continuous
 62
     7
370
    35
100
AcDbLine
 10
333.9725203479
 20
161.360669378
 30
0.0
 11
332.6925203479
 21
162.0996777226
 31
0.0
  0
LINE
  5
97
330
1F
100
AcDbEntity
  8
0
  6
Continuous
 62
     7
370
    35
100
AcDbLine
 10
332.6925203479
 20
162.0996777226
 30
0.0
 11
331.4125203479
 21
161.360669378
 31
0.0
  0
LINE
  5
98
330
1F
100
AcDbEntity
  8
0
  6
Continuous
 62
     7
370
    35
100
AcDbLine
 10
331.4125203479
 20
161.360669378
 30
0.0
 11
331.4125203479
 21
159.8826526889
 31
0.0
  0
LINE
  5
99
330
1F
100
AcDbEntity
  8
0
  6
Continuous
 62
     7
370
    35
100
AcDbLine
 10
331.4125203479
 20
159.8826526889
 30
0.0
 11
332.6925203479
 21
159.1436443444
 31
0.0
  0
CIRCLE
  5
9A
330
1F
100
AcDbEntity
  8
0
  6
Continuous
 62
     7
370
    35
100
AcDbCircle
 10
332.6925203479
 20
160.6216610335
 30
0.0
 40
2.300000000000011
  0
CIRCLE
  5
9B
330
1F
100
AcDbEntity
  8
0
  6
Continuous
 62
     7
370
    35
100
AcDbCircle
 10
354.4333201365
 20
241.7594304418
 30
0.0
 40
2.299999999999955
  0
LINE
  5
9C
330
1F
100
AcDbEntity
  8
0
  6
Continuous
 62
     7
370
    35
100
AcDbLine
 10
353.1533201365
 20
242.4984387863
 30
0.0
 11
353.1533201365
 21
241.0204220972
 31
0.0
  0
LINE
  5
9D
330
1F
100
AcDbEntity
  8
0
  6
Continuous
 62
     7
370
    35
100
AcDbLine
 10
353.1533201365
 20
241.0204220972
 30
0.0
 11
354.4333201365
 21
240.2814137526
 31
0.0
  0
LINE
  5
9E
330
1F
100
AcDbEntity
  8
0
  6
Continuous
 62
     7
370
    35
100
AcDbLine
 10
355.7133201365
 20
242.4984387863
 30
0.0
 11
354.4333201365
 21
243.2374471309
 31
0.0
  0
LINE
  5
9F
330
1F
100
AcDbEntity
  8
0
  6
Continuous
 62
     7
370
    35
100
AcDbLine
 10
354.4333201365
 20
243.2374471309
 30
0.0
 11
353.1533201365
 21
242.4984387863
 31
0.0
  0
LINE
  5
A0
330
1F
100
AcDbEntity
  8
0
  6
Continuous
 62
     7
370
    35
100
AcDbLine
 10
355.7133201365
 20
241.0204220972
 30
0.0
 11
355.7133201365
 21
242.4984387863
 31
0.0
  0
LINE
  5
A1
330
1F
100
AcDbEntity
  8
0
  6
Continuous
 62
     7
370
    35
100
AcDbLine
 10
354.4333201365
 20
240.2814137526
 30
0.0
 11
355.7133201365
 21
241.0204220972
 31
0.0
  0
LINE
  5
A2
330
1F
100
AcDbEntity
  8
0
  6
Continuous
 62
     7
370
    35
100
AcDbLine
 10
316.3408098168
 20
212.4663130723
 30
0.0
 11
314.4884313541
 21
213.2335933542
 31
0.0
  0
ARC
  5
A3
330
1F
100
AcDbEntity
  8
0
  6
Continuous
 62
     7
370
    35
100
AcDbCircle
 10
299.52365755
 20
227.2583449836
 30
0.0
 40
20.50946399286308
100
AcDbArc
 50
316.8572376515
 51
348.4985266109
  0
ARC
  5
A4
330
1F
100
AcDbEntity
  8
0
  6
Continuous
 62
     7
370
    35
100
AcDbCircle
 10
343.5629202422
 20
201.1905457376
 30
0.0
 40
29.46500000000007
100
AcDbArc
 50
202.5
 51
157.5
  0
LINE
  5
A5
330
1F
100
AcDbEntity
  8
0
  6
Continuous
 62
     7
370
    35
100
AcDbLine
 10
313.5368354356
 20
188.7533341858
 30
0.0
 11
316.3408098168
 21
189.914778403
 31
0.0
  0
ARC
  5
A6
330
1F
100
AcDbEntity
  8
0
  6
Continuous
 62
     7
370
    35
100
AcDbCircle
 10
343.5629202422
 20
201.1905457376
 30
0.0
 40
30.35714285714286
100
AcDbArc
 50
157.5
 51
202.5
  0
CIRCLE
  5
A7
330
1F
100
AcDbEntity
  8
0
  6
Continuous
 62
     7
370
    35
100
AcDbCircle
 10
343.5629202422
 20
201.1905457376
 30
0.0
 40
27.14285714285711
  0
CIRCLE
  5
A8
330
1F
100
AcDbEntity
  8
0
  6
Continuous
 62
     7
370
    35
100
AcDbCircle
 10
343.5629202422
 20
201.1905457376
 30
0.0
 40
20.49999999999977
  0
CIRCLE
  5
A9
330
1F
100
AcDbEntity
  8
0
  6
Continuous
 62
     7
370
    35
100
AcDbCircle
 10
343.5629202422
 20
201.1905457376
 30
0.0
 40
32.50000000000006
  0
CIRCLE
  5
AA
330
1F
100
AcDbEntity
  8
0
  6
Continuous
 62
     7
370
    35
100
AcDbCircle
 10
343.5629202422
 20
201.1905457376
 30
0.0
 40
37.74999999999994
  0
CIRCLE
  5
AB
330
1F
100
AcDbEntity
  8
0
  6
Continuous
 62
     7
370
    35
100
AcDbCircle
 10
343.5629202422
 20
201.1905457376
 30
0.0
 40
38.75
  0
CIRCLE
  5
AC
330
1F
100
AcDbEntity
  8
0
  6
Continuous
 62
     7
370
    35
100
AcDbCircle
 10
343.5629202422
 20
201.1905457376
 30
0.0
 40
39.00000000000006
  0
CIRCLE
  5
AD
330
1F
100
AcDbEntity
  8
0
  6
Continuous
 62
     7
370
    35
100
AcDbCircle
 10
343.5629202422
 20
201.1905457376
 30
0.0
 40
46.5
  0
CIRCLE
  5
AE
330
1F
100
AcDbEntity
  8
0
  6
Continuous
 62
     7
370
    35
100
AcDbCircle
 10
343.5629202422
 20
201.1905457376
 30
0.0
 40
46.00000000000006
  0
CIRCLE
  5
AF
330
1F
100
AcDbEntity
  8
0
  6
Continuous
 62
     7
370
    35
100
AcDbCircle
 10
343.5629202422
 20
243.1905457376
 30
0.0
 40
1.75
  0
CIRCLE
  5
B0
330
1F
100
AcDbEntity
  8
0
  6
Continuous
 62
     7
370
    35
100
AcDbCircle
 10
301.5629202422
 20
201.1905457376
 30
0.0
 40
1.750000000000057
  0
CIRCLE
  5
B1
330
1F
100
AcDbEntity
  8
0
  6
Continuous
 62
     7
370
    35
100
AcDbCircle
 10
322.5629202422
 20
164.8174787787
 30
0.0
 40
1.749999999999943
  0
CIRCLE
  5
B2
330
1F
100
AcDbEntity
  8
0
  6
Continuous
 62
     7
370
    35
100
AcDbCircle
 10
364.5629202422
 20
164.8174787787
 30
0.0
 40
1.75
  0
CIRCLE
  5
B3
330
1F
100
AcDbEntity
  8
0
  6
Continuous
 62
     7
370
    35
100
AcDbCircle
 10
364.5629202422
 20
237.5636126966
 30
0.0
 40
1.749999999999943
  0
CIRCLE
  5
B4
330
1F
100
AcDbEntity
  8
0
  6
Continuous
 62
     7
370
    35
100
AcDbCircle
 10
343.5629202422
 20
159.1905457376
 30
0.0
 40
1.75
  0
CIRCLE
  5
B5
330
1F
100
AcDbEntity
  8
0
  6
Continuous
 62
     7
370
    35
100
AcDbCircle
 10
322.5629202422
 20
237.5636126966
 30
0.0
 40
1.75
  0
CIRCLE
  5
B6
330
1F
100
AcDbEntity
  8
0
  6
Continuous
 62
     7
370
    35
100
AcDbCircle
 10
385.5629202422
 20
201.1905457376
 30
0.0
 40
1.749999999999943
  0
CIRCLE
  5
B7
330
1F
100
AcDbEntity
  8
0
  6
Continuous
 62
     7
370
    35
100
AcDbCircle
 10
307.1898532833
 20
180.1905457376
 30
0.0
 40
1.75
  0
CIRCLE
  5
B8
330
1F
100
AcDbEntity
  8
0
  6
Continuous
 62
     7
370
    35
100
AcDbCircle
 10
379.9359872011
 20
180.1905457376
 30
0.0
 40
1.75
  0
CIRCLE
  5
B9
330
1F
100
AcDbEntity
  8
0
  6
Continuous
 62
     7
370
    35
100
AcDbCircle
 10
354.4333201365
 20
241.7594304418
 30
0.0
 40
2.5
  0
CIRCLE
  5
BA
330
1F
100
AcDbEntity
  8
0
  6
Continuous
 62
     7
370
    35
100
AcDbCircle
 10
379.9359872011
 20
222.1905457376
 30
0.0
 40
1.75
  0
CIRCLE
  5
BB
330
1F
100
AcDbEntity
  8
0
  6
Continuous
 62
     7
370
    35
100
AcDbCircle
 10
332.6925203479
 20
160.6216610335
 30
0.0
 40
2.5
  0
CIRCLE
  5
BC
330
1F
100
AcDbEntity
  8
0
  6
Continuous
 62
     7
370
    35
100
AcDbCircle
 10
307.1898532833
 20
222.1905457376
 30
0.0
 40
1.75
  0
INSERT
  5
11E
330
1F
100
AcDbEntity
  8
0
  6
Continuous
 62
     7
370
     0
100
AcDbBlockReference
  2
SW_CENTERMARKSYMBOL_0
 10
343.5629202422
 20
243.1905457376
 30
0.0
  0
INSERT
  5
12A
330
1F
100
AcDbEntity
  8
0
  6
Continuous
 62
     7
370
     0
100
AcDbBlockReference
  2
SW_CENTERMARKSYMBOL_1
 10
343.5629202422
 20
201.1905457376
 30
0.0
  0
INSERT
  5
158
330
1F
100
AcDbEntity
  8
0
  6
Continuous
 62
     7
370
     0
100
AcDbBlockReference
  2
SW_CENTERMARKSYMBOL_2
 10
343.5629202422
 20
223.9405457376
 30
0.0
  0
CIRCLE
  5
159
330
1F
100
AcDbEntity
  8
0
  6
Continuous
 62
     7
370
     0
100
AcDbCircle
 10
343.5629202422
 20
223.9405457376
 30
0.0
 40
1.500000013038573
  0
CIRCLE
  5
15A
330
1F
100
AcDbEntity
  8
0
  6
Continuous
 62
     7
370
     0
100
AcDbCircle
 10
323.8608423061
 20
212.5655457376
 30
0.0
 40
1.500000008301356
  0
CIRCLE
  5
15B
330
1F
100
AcDbEntity
  8
0
  6
Continuous
 62
     7
370
     0
100
AcDbCircle
 10
323.8608423061
 20
189.8155457376
 30
0.0
 40
1.500000507649077
  0
CIRCLE
  5
15C
330
1F
100
AcDbEntity
  8
0
  6
Continuous
 62
     7
370
     0
100
AcDbCircle
 10
343.5629202422
 20
178.4405457376
 30
0.0
 40
1.500000013038573
  0
CIRCLE
  5
15D
330
1F
100
AcDbEntity
  8
0
  6
Continuous
 62
     7
370
     0
100
AcDbCircle
 10
363.2649981783
 20
189.8155457376
 30
0.0
 40
1.500000008301186
  0
CIRCLE
  5
15E
330
1F
100
AcDbEntity
  8
0
  6
Continuous
 62
     7
370
     0
100
AcDbCircle
 10
363.2649981783
 20
212.5655457376
 30
0.0
 40
1.500000507648963
  0
LINE
  5
15F
330
1F
100
AcDbEntity
  8
0
  6
Continuous
 62
     7
370
    35
100
AcDbLine
 10
189.9412221195
 20
156.1905457376
 30
0.0
 11
200.4055659719
 21
156.1905457376
 31
0.0
  0
ARC
  5
160
330
1F
100
AcDbEntity
  8
0
  6
Continuous
 62
     7
370
    35
100
AcDbCircle
 10
190.7555659719
 20
157.4502457376
 30
0.0
 40
1.500000000000011
100
AcDbArc
 50
205.8419327632
 51
237.1190061386
  0
LINE
  5
161
330
1F
100
AcDbEntity
  8
0
  6
Continuous
 62
     7
370
    35
100
AcDbLine
 10
200.4055659719
 20
154.6905457376
 30
0.0
 11
210.4055659719
 21
154.6905457376
 31
0.0
  0
LINE
  5
162
330
1F
100
AcDbEntity
  8
0
  6
Continuous
 62
     7
370
    35
100
AcDbLine
 10
210.4055659719
 20
154.6905457376
 30
0.0
 11
210.9055659719
 21
155.1905457376
 31
0.0
  0
LINE
  5
163
330
1F
100
AcDbEntity
  8
0
  6
Continuous
 62
     7
370
    35
100
AcDbLine
 10
211.1055659719
 20
162.1905457376
 30
0.0
 11
227.0055659719
 21
162.1905457376
 31
0.0
  0
LINE
  5
164
330
1F
100
AcDbEntity
  8
0
  6
Continuous
 62
     7
370
    35
100
AcDbLine
 10
227.0055659719
 20
240.1905457376
 30
0.0
 11
211.1055659719
 21
240.1905457376
 31
0.0
  0
LINE
  5
165
330
1F
100
AcDbEntity
  8
0
  6
Continuous
 62
     7
370
    35
100
AcDbLine
 10
227.0055659719
 20
162.4405457376
 30
0.0
 11
236.5055659719
 21
162.4405457376
 31
0.0
  0
LINE
  5
166
330
1F
100
AcDbEntity
  8
0
  6
Continuous
 62
     7
370
    35
100
AcDbLine
 10
236.5055659719
 20
239.9405457376
 30
0.0
 11
227.0055659719
 21
239.9405457376
 31
0.0
  0
LINE
  5
167
330
1F
100
AcDbEntity
  8
0
  6
Continuous
 62
     7
370
    35
100
AcDbLine
 10
236.5055659719
 20
162.4405457376
 30
0.0
 11
237.5055659719
 21
163.4405457376
 31
0.0
  0
LINE
  5
168
330
1F
100
AcDbEntity
  8
0
  6
Continuous
 62
     7
370
    35
100
AcDbLine
 10
237.5055659719
 20
238.9405457376
 30
0.0
 11
236.5055659719
 21
239.9405457376
 31
0.0
  0
ARC
  5
169
330
1F
100
AcDbEntity
  8
0
  6
Continuous
 62
     7
370
    35
100
AcDbCircle
 10
211.1055659719
 20
161.9905457376
 30
0.0
 40
0.2000000000000171
100
AcDbArc
 50
90.0
 51
180.0
  0
ARC
  5
16A
330
1F
100
AcDbEntity
  8
0
  6
Continuous
 62
     7
370
    35
100
AcDbCircle
 10
211.1055659719
 20
240.3905457376
 30
0.0
 40
0.2000000000000171
100
AcDbArc
 50
180.0
 51
270.0
  0
LINE
  5
16B
330
1F
100
AcDbEntity
  8
0
  6
Continuous
 62
     7
370
    35
100
AcDbLine
 10
237.5055659719
 20
176.1905457376
 30
0.0
 11
240.2055659719
 21
176.1905457376
 31
0.0
  0
LINE
  5
16C
330
1F
100
AcDbEntity
  8
0
  6
Continuous
 62
     7
370
    35
100
AcDbLine
 10
240.2055659719
 20
176.1905457376
 30
0.0
 11
240.5055659719
 21
176.4905457376
 31
0.0
  0
LINE
  5
16D
330
1F
100
AcDbEntity
  8
0
  6
Continuous
 62
     7
370
    35
100
AcDbLine
 10
196.2055659719
 20
180.0305457376
 30
0.0
 11
193.3555659719
 21
180.0305457376
 31
0.0
  0
LINE
  5
16E
330
1F
100
AcDbEntity
  8
0
  6
Continuous
 62
     7
370
    35
100
AcDbLine
 10
193.3555659719
 20
174.3505457376
 30
0.0
 11
195.977801818
 21
174.3505457376
 31
0.0
  0
ARC
  5
16F
330
1F
100
AcDbEntity
  8
0
  6
Continuous
 62
     7
370
    35
100
AcDbCircle
 10
193.3555659719
 20
174.5005457376
 30
0.0
 40
0.1500000000000057
100
AcDbArc
 50
180.0
 51
270.0
  0
ARC
  5
170
330
1F
100
AcDbEntity
  8
0
  6
Continuous
 62
     7
370
    35
100
AcDbCircle
 10
193.3555659719
 20
179.8805457376
 30
0.0
 40
0.1499999999999773
100
AcDbArc
 50
90.0
 51
180.0
  0
ARC
  5
171
330
1F
100
AcDbEntity
  8
0
  6
Continuous
 62
     7
370
    35
100
AcDbCircle
 10
196.3055659719
 20
178.7905457376
 30
0.0
 40
0.1000000000000227
100
AcDbArc
 50
180.0
 51
270.0
  0
ARC
  5
172
330
1F
100
AcDbEntity
  8
0
  6
Continuous
 62
     7
370
    35
100
AcDbCircle
 10
196.3055659719
 20
175.5905457376
 30
0.0
 40
0.0999999999999943
100
AcDbArc
 50
90.0
 51
180.0
  0
LINE
  5
173
330
1F
100
AcDbEntity
  8
0
  6
Continuous
 62
     7
370
    35
100
AcDbLine
 10
197.7473569086
 20
178.6905457376
 30
0.0
 11
196.3055659719
 21
178.6905457376
 31
0.0
  0
LINE
  5
174
330
1F
100
AcDbEntity
  8
0
  6
Continuous
 62
     7
370
    35
100
AcDbLine
 10
196.3055659719
 20
175.6905457376
 30
0.0
 11
196.559819138
 21
175.6905457376
 31
0.0
  0
ARC
  5
175
330
1F
100
AcDbEntity
  8
0
  6
Continuous
 62
     7
370
    35
100
AcDbCircle
 10
193.3555659719
 20
222.5005457376
 30
0.0
 40
0.1499999999999773
100
AcDbArc
 50
180.0
 51
270.0
  0
ARC
  5
176
330
1F
100
AcDbEntity
  8
0
  6
Continuous
 62
     7
370
    35
100
AcDbCircle
 10
193.3555659719
 20
227.8805457376
 30
0.0
 40
0.1500000000000057
100
AcDbArc
 50
90.0
 51
180.0
  0
LINE
  5
177
330
1F
100
AcDbEntity
  8
0
  6
Continuous
 62
     7
370
    35
100
AcDbLine
 10
195.9775724964
 20
228.0305457376
 30
0.0
 11
193.3555659719
 21
228.0305457376
 31
0.0
  0
LINE
  5
178
330
1F
100
AcDbEntity
  8
0
  6
Continuous
 62
     7
370
    35
100
AcDbLine
 10
193.3555659719
 20
222.3505457376
 30
0.0
 11
196.2055659719
 21
222.3505457376
 31
0.0
  0
ARC
  5
179
330
1F
100
AcDbEntity
  8
0
  6
Continuous
 62
     7
370
    35
100
AcDbCircle
 10
196.3055659719
 20
226.7905457376
 30
0.0
 40
0.0999999999999943
100
AcDbArc
 50
180.0
 51
270.0
  0
ARC
  5
17A
330
1F
100
AcDbEntity
  8
0
  6
Continuous
 62
     7
370
    35
100
AcDbCircle
 10
196.3055659719
 20
223.5905457376
 30
0.0
 40
0.1000000000000227
100
AcDbArc
 50
90.0
 51
180.0
  0
LINE
  5
17B
330
1F
100
AcDbEntity
  8
0
  6
Continuous
 62
     7
370
    35
100
AcDbLine
 10
196.5597409923
 20
226.6905457376
 30
0.0
 11
196.3055659719
 21
226.6905457376
 31
0.0
  0
LINE
  5
17C
330
1F
100
AcDbEntity
  8
0
  6
Continuous
 62
     7
370
    35
100
AcDbLine
 10
196.3055659719
 20
223.6905457376
 30
0.0
 11
197.7474205097
 21
223.6905457376
 31
0.0
  0
LINE
  5
17D
330
1F
100
AcDbEntity
  8
0
  6
Continuous
 62
     7
370
    35
100
AcDbLine
 10
196.2055659719
 20
196.6141378726
 30
0.0
 11
193.3555659719
 21
196.6141378726
 31
0.0
  0
LINE
  5
17E
330
1F
100
AcDbEntity
  8
0
  6
Continuous
 62
     7
370
    35
100
AcDbLine
 10
193.3555659719
 20
190.9341378726
 30
0.0
 11
196.2055659719
 21
190.9341378726
 31
0.0
  0
ARC
  5
17F
330
1F
100
AcDbEntity
  8
0
  6
Continuous
 62
     7
370
    35
100
AcDbCircle
 10
193.3555659719
 20
191.0841378726
 30
0.0
 40
0.1500000000000057
100
AcDbArc
 50
180.0
 51
270.0
  0
ARC
  5
180
330
1F
100
AcDbEntity
  8
0
  6
Continuous
 62
     7
370
    35
100
AcDbCircle
 10
193.3555659719
 20
196.4641378726
 30
0.0
 40
0.1499999999999773
100
AcDbArc
 50
90.0
 51
180.0
  0
LINE
  5
181
330
1F
100
AcDbEntity
  8
0
  6
Continuous
 62
     7
370
    35
100
AcDbLine
 10
196.2055659719
 20
184.6141378726
 30
0.0
 11
193.3555659719
 21
184.6141378726
 31
0.0
  0
ARC
  5
182
330
1F
100
AcDbEntity
  8
0
  6
Continuous
 62
     7
370
    35
100
AcDbCircle
 10
193.3555659719
 20
184.4641378726
 30
0.0
 40
0.1500000000000057
100
AcDbArc
 50
90.0
 51
180.0
  0
LINE
  5
183
330
1F
100
AcDbEntity
  8
0
  6
Continuous
 62
     7
370
    35
100
AcDbLine
 10
193.3555659719
 20
217.7669536026
 30
0.0
 11
196.2055659719
 21
217.7669536026
 31
0.0
  0
ARC
  5
184
330
1F
100
AcDbEntity
  8
0
  6
Continuous
 62
     7
370
    35
100
AcDbCircle
 10
193.3555659719
 20
217.9169536026
 30
0.0
 40
0.1500000000000057
100
AcDbArc
 50
180.0
 51
270.0
  0
LINE
  5
185
330
1F
100
AcDbEntity
  8
0
  6
Continuous
 62
     7
370
    35
100
AcDbLine
 10
196.2055659719
 20
211.4469536026
 30
0.0
 11
193.3555659719
 21
211.4469536026
 31
0.0
  0
LINE
  5
186
330
1F
100
AcDbEntity
  8
0
  6
Continuous
 62
     7
370
    35
100
AcDbLine
 10
193.3555659719
 20
205.7669536026
 30
0.0
 11
196.2055659719
 21
205.7669536026
 31
0.0
  0
ARC
  5
187
330
1F
100
AcDbEntity
  8
0
  6
Continuous
 62
     7
370
    35
100
AcDbCircle
 10
193.3555659719
 20
205.9169536026
 30
0.0
 40
0.1500000000000057
100
AcDbArc
 50
180.0
 51
270.0
  0
ARC
  5
188
330
1F
100
AcDbEntity
  8
0
  6
Continuous
 62
     7
370
    35
100
AcDbCircle
 10
193.3555659719
 20
211.2969536026
 30
0.0
 40
0.1499999999999773
100
AcDbArc
 50
90.0
 51
180.0
  0
LINE
  5
189
330
1F
100
AcDbEntity
  8
0
  6
Continuous
 62
     7
370
    35
100
AcDbLine
 10
189.9412221195
 20
164.3900193597
 30
0.0
 11
189.9412221195
 21
156.1905457376
 31
0.0
  0
LINE
  5
18A
330
1F
100
AcDbEntity
  8
0
  6
Continuous
 62
     7
370
    18
100
AcDbLine
 10
200.4401218744
 20
179.8076271688
 30
0.0
 11
198.2232849429
 21
180.0018537512
 31
0.0
  0
LINE
  5
18B
330
1F
100
AcDbEntity
  8
0
  6
Continuous
 62
     7
370
    35
100
AcDbLine
 10
202.8699098244
 20
246.1905457376
 30
0.0
 11
189.9412221195
 21
246.1905457376
 31
0.0
  0
SPLINE
  5
18C
330
1F
100
AcDbEntity
  8
0
  6
Continuous
 62
     7
370
    18
100
AcDbSpline
210
0.0
220
0.0
230
1.0
 70
     8
 71
     3
 72
    17
 73
    13
 74
     0
 42
0.000000001
 43
0.00000001
 40
0.0
 40
0.0
 40
0.0
 40
0.0
 40
0.0985097410794101
 40
0.1972652044961784
 40
0.3021213541689891
 40
0.4070458427030553
 40
0.5119099346341558
 40
0.6190364983721168
 40
0.7262252534206399
 40
0.8333578498693791
 40
0.9166787637102357
 40
1.0
 40
1.0
 40
1.0
 40
1.0
 10
198.2232849429461
 20
180.0018537512293
 30
0.0
 10
198.006610473666
 20
179.3796748738725
 30
0.0
 10
197.5727210631032
 20
178.133765158446
 30
0.0
 10
196.8488361397823
 20
176.3073170800923
 30
0.0
 10
196.0686502395309
 20
174.50919898318
 30
0.0
 10
195.2301587143937
 20
172.754443760364
 30
0.0
 10
194.3486734995993
 20
171.066941712294
 30
0.0
 10
193.4274704587891
 20
169.4515117359239
 30
0.0
 10
192.4718047998575
 20
167.9106144268414
 30
0.0
 10
191.5661383393892
 20
166.5663630423537
 30
0.0
 10
190.7208112840171
 20
165.3929498766634
 30
0.0
 10
190.2010855095619
 20
164.72432996326
 30
0.0
 10
189.9412221195053
 20
164.3900193596759
 30
0.0
  0
ARC
  5
18D
330
1F
100
AcDbEntity
  8
0
  6
Continuous
 62
     7
370
    35
100
AcDbCircle
 10
202.0555659719
 20
244.9308457376
 30
0.0
 40
1.500000000000011
100
AcDbArc
 50
25.8419327632
 51
57.1190061386
  0
ARC
  5
18E
330
1F
100
AcDbEntity
  8
0
  6
Continuous
 62
     7
370
    35
100
AcDbCircle
 10
190.7555659719
 20
244.9308457376
 30
0.0
 40
1.500000000000011
100
AcDbArc
 50
122.8809938614
 51
154.1580672368
  0
SPLINE
  5
18F
330
1F
100
AcDbEntity
  8
0
  6
Continuous
 62
     7
370
    18
100
AcDbSpline
210
0.0
220
0.0
230
1.0
 70
     8
 71
     3
 72
     9
 73
     5
 74
     0
 42
0.000000001
 43
0.00000001
 40
0.0
 40
0.0
 40
0.0
 40
0.0
 40
0.4963979004828225
 40
0.9999999999999999
 40
0.9999999999999999
 40
0.9999999999999999
 40
0.9999999999999999
 10
189.4055659719411
 20
163.7262760274764
 30
0.0
 10
189.4758966976838
 20
163.8117813577705
 30
0.0
 10
189.6175788556347
 20
163.9840329531358
 30
0.0
 10
189.832824141588
 20
164.2540421574794
 30
0.0
 10
189.9412221195053
 20
164.3900193596759
 30
0.0
  0
LINE
  5
190
330
1F
100
AcDbEntity
  8
0
  6
Continuous
 62
     7
370
    35
100
AcDbLine
 10
189.4055659719
 20
156.7964108961
 30
0.0
 11
189.4055659719
 21
163.7262760275
 31
0.0
  0
LINE
  5
191
330
1F
100
AcDbEntity
  8
0
  6
Continuous
 62
     7
370
    18
100
AcDbLine
 10
198.2232849429
 20
222.379237724
 30
0.0
 11
200.4055659719
 21
222.5704367158
 31
0.0
  0
LINE
  5
192
330
1F
100
AcDbEntity
  8
0
  6
Continuous
 62
     7
370
    35
100
AcDbLine
 10
189.9412221195
 20
241.2361992434
 30
0.0
 11
189.9412221195
 21
237.9910721156
 31
0.0
  0
SPLINE
  5
193
330
1F
100
AcDbEntity
  8
0
  6
Continuous
 62
     7
370
    18
100
AcDbSpline
210
0.0
220
0.0
230
1.0
 70
     8
 71
     3
 72
    13
 73
     9
 74
     0
 42
0.000000001
 43
0.00000001
 40
0.0
 40
0.0
 40
0.0
 40
0.0
 40
0.209253978366791
 40
0.403441758517993
 40
0.5988070976438635
 40
0.798455299367271
 40
0.8992304977184753
 40
1.0
 40
1.0
 40
1.0
 40
1.0
 10
200.4055659719409
 20
240.219280796382
 30
0.0
 10
199.654871199115
 20
240.226736477264
 30
0.0
 10
198.2075313605945
 20
240.241111033148
 30
0.0
 10
196.0726799961069
 20
240.369749738954
 30
0.0
 10
193.9969531929338
 20
240.5676708899254
 30
0.0
 10
192.2862430949074
 20
240.8043912240788
 30
0.0
 10
190.9335073548263
 20
241.0355258529845
 30
0.0
 10
190.2719776325467
 20
241.1693093735858
 30
0.0
 10
189.9412221195053
 20
241.236199243387
 30
0.0
  0
SPLINE
  5
194
330
1F
100
AcDbEntity
  8
0
  6
Continuous
 62
     7
370
    18
100
AcDbSpline
210
0.0
220
0.0
230
1.0
 70
     8
 71
     3
 72
    17
 73
    13
 74
     0
 42
0.000000001
 43
0.00000001
 40
0.0
 40
0.0
 40
0.0
 40
0.0
 40
0.0951804849566877
 40
0.1903603901447974
 40
0.286172575015541
 40
0.3819837306432444
 40
0.4838668821101277
 40
0.5858026843654762
 40
0.6876794064918869
 40
0.7917673818628749
 40
0.8959207094054114
 40
1.0
 40
1.0
 40
1.0
 40
1.0
 10
189.9412221195053
 20
237.9910721155683
 30
0.0
 10
190.2380176930976
 20
237.6083287572091
 30
0.0
 10
190.8316070324248
 20
236.842844371878
 30
0.0
 10
191.7131783117558
 20
235.6024703615829
 30
0.0
 10
192.5827844365498
 20
234.2940613190947
 30
0.0
 10
193.4538412127674
 20
232.8822283361118
 30
0.0
 10
194.3187057247154
 20
231.3667220279659
 30
0.0
 10
195.1709157191635
 20
229.7433918969964
 30
0.0
 10
195.9947227857849
 20
228.0328067494185
 30
0.0
 10
196.7829702089975
 20
226.2327699614418
 30
0.0
 10
197.5354064274068
 20
224.3506653472752
 30
0.0
 10
197.9940464608039
 20
223.0362244822872
 30
0.0
 10
198.2232849429461
 20
222.3792377240148
 30
0.0
  0
SPLINE
  5
195
330
1F
100
AcDbEntity
  8
0
  6
Continuous
 62
     7
370
    18
100
AcDbSpline
210
0.0
220
0.0
230
1.0
 70
     8
 71
     3
 72
    10
 73
     6
 74
     0
 42
0.000000001
 43
0.00000001
 40
0.0
 40
0.0
 40
0.0
 40
0.0
 40
0.4943701529339737
 40
0.7461142713715782
 40
1.0
 40
1.0
 40
1.0
 40
1.0
 10
189.4055659719411
 20
241.3524876434787
 30
0.0
 10
189.4659392799962
 20
241.3390016873555
 30
0.0
 10
189.557055999892
 20
241.318648386763
 30
0.0
 10
189.748651597875
 20
241.2769223677486
 30
0.0
 10
189.8768509482469
 20
241.2498118939125
 30
0.0
 10
189.9412221195053
 20
241.236199243387
 30
0.0
  0
SPLINE
  5
196
330
1F
100
AcDbEntity
  8
0
  6
Continuous
 62
     7
370
    18
100
AcDbSpline
210
0.0
220
0.0
230
1.0
 70
     8
 71
     3
 72
     9
 73
     5
 74
     0
 42
0.000000001
 43
0.00000001
 40
0.0
 40
0.0
 40
0.0
 40
0.0
 40
0.4966030008870185
 40
1.0
 40
1.0
 40
1.0
 40
1.0
 10
189.9412221195053
 20
237.9910721155683
 30
0.0
 10
189.8342625939136
 20
238.1252582131097
 30
0.0
 10
189.6188802353682
 20
238.3954662007815
 30
0.0
 10
189.4769920557637
 20
238.5679750238928
 30
0.0
 10
189.4055659719411
 20
238.6548154477676
 30
0.0
  0
LINE
  5
197
330
1F
100
AcDbEntity
  8
0
  6
Continuous
 62
     7
370
    35
100
AcDbLine
 10
189.4055659719
 20
238.6548154478
 30
0.0
 11
189.4055659719
 21
241.3524876435
 31
0.0
  0
LINE
  5
198
330
1F
100
AcDbEntity
  8
0
  6
Continuous
 62
     7
370
    35
100
AcDbLine
 10
189.6200075158
 20
241.3049872814
 30
0.0
 11
189.7555659719
 21
241.4405457376
 31
0.0
  0
LINE
  5
199
330
1F
100
AcDbEntity
  8
0
  6
Continuous
 62
     7
370
    35
100
AcDbLine
 10
189.7555659719
 20
244.9405457376
 30
0.0
 11
189.4055659719
 21
245.2905457376
 31
0.0
  0
LINE
  5
19A
330
1F
100
AcDbEntity
  8
0
  6
Continuous
 62
     7
370
    35
100
AcDbLine
 10
189.7555659719
 20
244.9405457376
 30
0.0
 11
189.7555659719
 21
241.4405457376
 31
0.0
  0
LINE
  5
19B
330
1F
100
AcDbEntity
  8
0
  6
Continuous
 62
     7
370
    35
100
AcDbLine
 10
189.4055659719
 20
241.3524876435
 30
0.0
 11
189.4055659719
 21
245.2905457376
 31
0.0
  0
LINE
  5
19C
330
1F
100
AcDbEntity
  8
0
  6
Continuous
 62
     7
370
    35
100
AcDbLine
 10
203.4055659719
 20
245.2905457376
 30
0.0
 11
203.0555659719
 21
244.9405457376
 31
0.0
  0
LINE
  5
19D
330
1F
100
AcDbEntity
  8
0
  6
Continuous
 62
     7
370
    35
100
AcDbLine
 10
203.0555659719
 20
241.4405457376
 30
0.0
 11
203.4055659719
 21
241.0905457376
 31
0.0
  0
LINE
  5
19E
330
1F
100
AcDbEntity
  8
0
  6
Continuous
 62
     7
370
    35
100
AcDbLine
 10
203.0555659719
 20
241.4405457376
 30
0.0
 11
203.0555659719
 21
244.9405457376
 31
0.0
  0
LINE
  5
19F
330
1F
100
AcDbEntity
  8
0
  6
Continuous
 62
     7
370
    35
100
AcDbLine
 10
189.7555659719
 20
244.9405457376
 30
0.0
 11
203.0555659719
 21
244.9405457376
 31
0.0
  0
LINE
  5
1A0
330
1F
100
AcDbEntity
  8
0
  6
Continuous
 62
     7
370
    35
100
AcDbLine
 10
203.0555659719
 20
241.4405457376
 30
0.0
 11
189.7555659719
 21
241.4405457376
 31
0.0
  0
LINE
  5
1A1
330
1F
100
AcDbEntity
  8
0
  6
Continuous
 62
     7
370
    35
100
AcDbLine
 10
203.4055659719
 20
245.2905457376
 30
0.0
 11
203.4055659719
 21
245.5846805792
 31
0.0
  0
LINE
  5
1A2
330
1F
100
AcDbEntity
  8
0
  6
Continuous
 62
     7
370
    35
100
AcDbLine
 10
189.4055659719
 20
245.5846805792
 30
0.0
 11
189.4055659719
 21
245.2905457376
 31
0.0
  0
LINE
  5
1A3
330
1F
100
AcDbEntity
  8
0
  6
Continuous
 62
     7
370
    35
100
AcDbLine
 10
203.4055659719
 20
240.3905457376
 30
0.0
 11
203.4055659719
 21
241.0905457376
 31
0.0
  0
LINE
  5
1A4
330
1F
100
AcDbEntity
  8
0
  6
Continuous
 62
     7
370
    35
100
AcDbLine
 10
200.4055659719
 20
222.587084767
 30
0.0
 11
200.4055659719
 21
240.217011731
 31
0.0
  0
SPLINE
  5
1A5
330
1F
100
AcDbEntity
  8
0
  6
Continuous
 62
     7
370
    18
100
AcDbSpline
210
0.0
220
0.0
230
1.0
 70
     8
 71
     3
 72
    14
 73
    10
 74
     0
 42
0.000000001
 43
0.00000001
 40
0.0
 40
0.0
 40
0.0
 40
0.0
 40
0.2499999999999995
 40
0.2499999999999995
 40
0.499999999999999
 40
0.499999999999999
 40
0.7499999999999994
 40
0.7499999999999994
 40
1.0
 40
1.0
 40
1.0
 40
1.0
 10
210.4055659719412
 20
241.1416115819508
 30
0.0
 10
209.6106579476902
 20
240.9844781945692
 30
0.0
 10
208.8017571955985
 20
240.8487382457414
 30
0.0
 10
207.1598961544471
 20
240.6170111723539
 30
0.0
 10
206.3259483856628
 20
240.5210198004557
 30
0.0
 10
204.649014471361
 20
240.3684265944492
 30
0.0
 10
203.8032337440398
 20
240.3115245607565
 30
0.0
 10
202.10716777441
 20
240.2358434017175
 30
0.0
 10
201.2572773850949
 20
240.2170117310379
 30
0.0
 10
200.4055659719409
 20
240.2170117310379
 30
0.0
  0
LINE
  5
1A6
330
1F
100
AcDbEntity
  8
0
  6
Continuous
 62
     7
370
    35
100
AcDbLine
 10
210.4055659719
 20
223.1717791678
 30
0.0
 11
210.4055659719
 21
241.141611582
 31
0.0
  0
SPLINE
  5
1A7
330
1F
100
AcDbEntity
  8
0
  6
Continuous
 62
     7
370
    18
100
AcDbSpline
210
0.0
220
0.0
230
1.0
 70
     8
 71
     3
 72
     8
 73
     4
 74
     0
 42
0.000000001
 43
0.00000001
 40
0.0
 40
0.0
 40
0.0
 40
0.0
 40
1.0
 40
1.0
 40
1.0
 40
1.0
 10
200.4055659719409
 20
222.5870847670344
 30
0.0
 10
203.73156961235
 20
222.8811664895447
 30
0.0
 10
207.0650142415303
 20
223.0738455946872
 30
0.0
 10
210.4055659719411
 20
223.1717791678256
 30
0.0
  0
LINE
  5
1A8
330
1F
100
AcDbEntity
  8
0
  6
Continuous
 62
     7
370
    35
100
AcDbLine
 10
200.4055659719
 20
154.6905457376
 30
0.0
 11
200.4055659719
 21
179.7940067082
 31
0.0
  0
SPLINE
  5
1A9
330
1F
100
AcDbEntity
  8
0
  6
Continuous
 62
     7
370
    18
100
AcDbSpline
210
0.0
220
0.0
230
1.0
 70
     8
 71
     3
 72
     8
 73
     4
 74
     0
 42
0.000000001
 43
0.00000001
 40
0.0
 40
0.0
 40
0.0
 40
0.0
 40
1.0
 40
1.0
 40
1.0
 40
1.0
 10
210.4055659719412
 20
179.2093123074186
 30
0.0
 10
207.0650142415303
 20
179.307245880557
 30
0.0
 10
203.73156961235
 20
179.4999249856994
 30
0.0
 10
200.4055659719409
 20
179.7940067082097
 30
0.0
  0
LINE
  5
1AA
330
1F
100
AcDbEntity
  8
0
  6
Continuous
 62
     7
370
    35
100
AcDbLine
 10
210.4055659719
 20
154.6905457376
 30
0.0
 11
210.4055659719
 21
179.2093123074
 31
0.0
  0
LINE
  5
1AB
330
1F
100
AcDbEntity
  8
0
  6
Continuous
 62
     7
370
    35
100
AcDbLine
 10
210.4055659719
 20
247.6905457376
 30
0.0
 11
200.4055659719
 21
247.6905457376
 31
0.0
  0
LINE
  5
1AC
330
1F
100
AcDbEntity
  8
0
  6
Continuous
 62
     7
370
    35
100
AcDbLine
 10
210.9055659719
 20
241.2436974333
 30
0.0
 11
210.9055659719
 21
223.1857236574
 31
0.0
  0
SPLINE
  5
1AD
330
1F
100
AcDbEntity
  8
0
  6
Continuous
 62
     7
370
    18
100
AcDbSpline
210
0.0
220
0.0
230
1.0
 70
     8
 71
     3
 72
     8
 73
     4
 74
     0
 42
0.000000001
 43
0.00000001
 40
0.0
 40
0.0
 40
0.0
 40
0.0
 40
1.0
 40
1.0
 40
1.0
 40
1.0
 10
210.4055659719411
 20
241.1416115819508
 30
0.0
 10
210.5758452061858
 20
241.1752715175173
 30
0.0
 10
210.7425479713591
 20
241.2093382986752
 30
0.0
 10
210.9055659719411
 20
241.2436974332773
 30
0.0
  0
SPLINE
  5
1AE
330
1F
100
AcDbEntity
  8
0
  6
Continuous
 62
     7
370
    18
100
AcDbSpline
210
0.0
220
0.0
230
1.0
 70
     8
 71
     3
 72
     8
 73
     4
 74
     0
 42
0.000000001
 43
0.00000001
 40
0.0
 40
0.0
 40
0.0
 40
0.0
 40
0.0007627769125687
 40
0.0007627769125687
 40
0.0007627769125687
 40
0.0007627769125687
 10
210.9055659719411
 20
223.18572365745
 30
0.0
 10
210.7389994875558
 20
223.1813159289583
 30
0.0
 10
210.5723312935935
 20
223.1766681577718
 30
0.0
 10
210.4055659719412
 20
223.1717791678256
 30
0.0
  0
LINE
  5
1AF
330
1F
100
AcDbEntity
  8
0
  6
Continuous
 62
     7
370
    35
100
AcDbLine
 10
210.9055659719
 20
179.1953678178
 30
0.0
 11
210.9055659719
 21
155.1905457376
 31
0.0
  0
LINE
  5
1B0
330
1F
100
AcDbEntity
  8
0
  6
Continuous
 62
     7
370
    35
100
AcDbLine
 10
210.4055659719
 20
247.6905457376
 30
0.0
 11
210.9055659719
 21
247.1905457376
 31
0.0
  0
SPLINE
  5
1B1
330
1F
100
AcDbEntity
  8
0
  6
Continuous
 62
     7
370
    18
100
AcDbSpline
210
0.0
220
0.0
230
1.0
 70
     8
 71
     3
 72
     8
 73
     4
 74
     0
 42
0.000000001
 43
0.00000001
 40
0.0
 40
0.0
 40
0.0
 40
0.0
 40
0.0007627769125687
 40
0.0007627769125687
 40
0.0007627769125687
 40
0.0007627769125687
 10
210.4055659719412
 20
179.2093123074186
 30
0.0
 10
210.5723312935935
 20
179.2044233174723
 30
0.0
 10
210.7389994875558
 20
179.1997755462858
 30
0.0
 10
210.9055659719411
 20
179.1953678177941
 30
0.0
  0
LINE
  5
1B2
330
1F
100
AcDbEntity
  8
0
  6
Continuous
 62
     7
370
    35
100
AcDbLine
 10
200.9055659719
 20
246.1905457376
 30
0.0
 11
200.4055659719
 21
246.6905457376
 31
0.0
  0
LINE
  5
1B3
330
1F
100
AcDbEntity
  8
0
  6
Continuous
 62
     7
370
    35
100
AcDbLine
 10
200.4055659719
 20
246.1905457376
 30
0.0
 11
200.4055659719
 21
246.6905457376
 31
0.0
  0
ARC
  5
1B4
330
1F
100
AcDbEntity
  8
0
  6
Continuous
 62
     7
370
    35
100
AcDbCircle
 10
203.2055659719
 20
246.0905457376
 30
0.0
 40
0.2000000000000229
100
AcDbArc
 50
0.0
 51
120.0
  0
LINE
  5
1B5
330
1F
100
AcDbEntity
  8
0
  6
Continuous
 62
     7
370
    35
100
AcDbLine
 10
202.9787710527
 20
246.1905457376
 30
0.0
 11
202.9787710527
 21
246.1130861442
 31
0.0
  0
LINE
  5
1B6
330
1F
100
AcDbEntity
  8
0
  6
Continuous
 62
     7
370
    35
100
AcDbLine
 10
200.9055659719
 20
246.1905457376
 30
0.0
 11
202.9787710527
 21
246.1905457376
 31
0.0
  0
LINE
  5
1B7
330
1F
100
AcDbEntity
  8
0
  6
Continuous
 62
     7
370
    35
100
AcDbLine
 10
202.9787710527
 20
246.1905457376
 30
0.0
 11
203.1055659719
 21
246.2637508184
 31
0.0
  0
LINE
  5
1B8
330
1F
100
AcDbEntity
  8
0
  6
Continuous
 62
     7
370
    35
100
AcDbLine
 10
227.0055659719
 20
222.8745169673
 30
0.0
 11
227.0055659719
 21
240.1905457376
 31
0.0
  0
LINE
  5
1B9
330
1F
100
AcDbEntity
  8
0
  6
Continuous
 62
     7
370
    35
100
AcDbLine
 10
227.0055659719
 20
162.1905457376
 30
0.0
 11
227.0055659719
 21
179.506574508
 31
0.0
  0
SPLINE
  5
1BA
330
1F
100
AcDbEntity
  8
0
  6
Continuous
 62
     7
370
    18
100
AcDbSpline
210
0.0
220
0.0
230
1.0
 70
     8
 71
     3
 72
     8
 73
     4
 74
     0
 42
0.000000001
 43
0.00000001
 40
0.0
 40
0.0
 40
0.0
 40
0.0
 40
1.0
 40
1.0
 40
1.0
 40
1.0
 10
227.0055659719411
 20
179.5065745079643
 30
0.0
 10
221.712569287297
 20
179.1584080931388
 30
0.0
 10
216.4125326135179
 20
179.0558062513921
 30
0.0
 10
211.1055659719412
 20
179.1901894008483
 30
0.0
  0
SPLINE
  5
1BB
330
1F
100
AcDbEntity
  8
0
  6
Continuous
 62
     7
370
    18
100
AcDbSpline
210
0.0
220
0.0
230
1.0
 70
     8
 71
     3
 72
     8
 73
     4
 74
     0
 42
0.000000001
 43
0.00000001
 40
0.0
 40
0.0
 40
0.0
 40
0.0
 40
1.0
 40
1.0
 40
1.0
 40
1.0
 10
211.1055659719411
 20
223.1909020743958
 30
0.0
 10
216.4125326135178
 20
223.3252852238521
 30
0.0
 10
221.712569287297
 20
223.2226833821053
 30
0.0
 10
227.0055659719412
 20
222.8745169672798
 30
0.0
  0
LINE
  5
1BC
330
1F
100
AcDbEntity
  8
0
  6
Continuous
 62
     7
370
    35
100
AcDbLine
 10
236.5055659719
 20
226.036850272
 30
0.0
 11
236.5055659719
 21
239.9405457376
 31
0.0
  0
LINE
  5
1BD
330
1F
100
AcDbEntity
  8
0
  6
Continuous
 62
     7
370
    35
100
AcDbLine
 10
236.5055659719
 20
162.4405457376
 30
0.0
 11
236.5055659719
 21
180.4098841176
 31
0.0
  0
SPLINE
  5
1BE
330
1F
100
AcDbEntity
  8
0
  6
Continuous
 62
     7
370
    18
100
AcDbSpline
210
0.0
220
0.0
230
1.0
 70
     8
 71
     3
 72
    14
 73
    10
 74
     0
 42
0.000000001
 43
0.00000001
 40
0.0
 40
0.0
 40
0.0
 40
0.0
 40
0.25
 40
0.25
 40
0.5
 40
0.5
 40
0.75
 40
0.75
 40
1.0
 40
1.0
 40
1.0
 40
1.0
 10
234.033586170687
 20
222.2614820518129
 30
0.0
 10
234.0956626467789
 20
222.6336264616469
 30
0.0
 10
234.1947917476373
 20
222.9982644078622
 30
0.0
 10
234.4689850249095
 20
223.7099251818871
 30
0.0
 10
234.6401856870991
 20
224.0472833929257
 30
0.0
 10
235.0509499498855
 20
224.6869903232381
 30
0.0
 10
235.2915532966627
 20
224.9905745450995
 30
0.0
 10
235.847669144902
 20
225.5548675079353
 30
0.0
 10
236.1576018994179
 20
225.8105393828406
 30
0.0
 10
236.505565971941
 20
226.0368502720477
 30
0.0
  0
SPLINE
  5
1BF
330
1F
100
AcDbEntity
  8
0
  6
Continuous
 62
     7
370
    18
100
AcDbSpline
210
0.0
220
0.0
230
1.0
 70
     8
 71
     3
 72
     8
 73
     4
 74
     0
 42
0.000000001
 43
0.00000001
 40
0.0
 40
0.0
 40
0.0
 40
0.0
 40
1.0
 40
1.0
 40
1.0
 40
1.0
 10
236.5055659719411
 20
180.4098841176438
 30
0.0
 10
233.3513587421006
 20
180.013508560655
 30
0.0
 10
230.1844727184262
 20
179.7156788454371
 30
0.0
 10
227.0055659719411
 20
179.5065745079643
 30
0.0
  0
SPLINE
  5
1C0
330
1F
100
AcDbEntity
  8
0
  6
Continuous
 62
     7
370
    18
100
AcDbSpline
210
0.0
220
0.0
230
1.0
 70
     8
 71
     3
 72
     8
 73
     4
 74
     0
 42
0.000000001
 43
0.00000001
 40
0.0
 40
0.0
 40
0.0
 40
0.0
 40
1.0
 40
1.0
 40
1.0
 40
1.0
 10
227.0055659719412
 20
222.8745169672798
 30
0.0
 10
229.3548957299192
 20
222.7199811215554
 30
0.0
 10
231.6976443514268
 20
222.5168001141575
 30
0.0
 10
234.0335861706871
 20
222.2614820518129
 30
0.0
  0
LINE
  5
1C1
330
1F
100
AcDbEntity
  8
0
  6
Continuous
 62
     7
370
    35
100
AcDbLine
 10
237.5055659719
 20
180.5389520588
 30
0.0
 11
237.5055659719
 21
163.4405457376
 31
0.0
  0
LINE
  5
1C2
330
1F
100
AcDbEntity
  8
0
  6
Continuous
 62
     7
370
    35
100
AcDbLine
 10
237.5055659719
 20
238.9405457376
 30
0.0
 11
237.5055659719
 21
226.5524906636
 31
0.0
  0
SPLINE
  5
1C3
330
1F
100
AcDbEntity
  8
0
  6
Continuous
 62
     7
370
    18
100
AcDbSpline
210
0.0
220
0.0
230
1.0
 70
     8
 71
     3
 72
     8
 73
     4
 74
     0
 42
0.000000001
 43
0.00000001
 40
0.0
 40
0.0
 40
0.0
 40
0.0
 40
1.0
 40
1.0
 40
1.0
 40
1.0
 10
237.5055659719411
 20
226.5524906635744
 30
0.0
 10
237.1579380343796
 20
226.4154476177403
 30
0.0
 10
236.8246353279264
 20
226.2443684481289
 30
0.0
 10
236.5055659719411
 20
226.0368502720477
 30
0.0
  0
SPLINE
  5
1C4
330
1F
100
AcDbEntity
  8
0
  6
Continuous
 62
     7
370
    18
100
AcDbSpline
210
0.0
220
0.0
230
1.0
 70
     8
 71
     3
 72
     8
 73
     4
 74
     0
 42
0.000000001
 43
0.00000001
 40
0.0
 40
0.0
 40
0.0
 40
0.0
 40
0.0014969609321639
 40
0.0014969609321639
 40
0.0014969609321639
 40
0.0014969609321639
 10
236.5055659719411
 20
180.4098841176438
 30
0.0
 10
236.8392143601566
 20
180.4518122650611
 30
0.0
 10
237.1725580323082
 20
180.4948313446001
 30
0.0
 10
237.5055659719412
 20
180.5389520587958
 30
0.0
  0
SPLINE
  5
1C5
330
1F
100
AcDbEntity
  8
0
  6
Continuous
 62
     7
370
    18
100
AcDbSpline
210
0.0
220
0.0
230
1.0
 70
     8
 71
     3
 72
    10
 73
     6
 74
     0
 42
0.000000001
 43
0.00000001
 40
0.0
 40
0.0
 40
0.0
 40
0.0
 40
0.5
 40
0.5
 40
1.0
 40
1.0
 40
1.0
 40
1.0
 10
211.1055659719411
 20
179.1901894008486
 30
0.0
 10
211.046656186259
 20
179.1916811159975
 30
0.0
 10
210.9926038650411
 20
179.1930827283603
 30
0.0
 10
210.9228373571267
 20
179.1949081587497
 30
0.0
 10
210.9055659719411
 20
179.1953678177941
 30
0.0
 10
210.9055659719411
 20
179.1953678177941
 30
0.0
  0
SPLINE
  5
1C6
330
1F
100
AcDbEntity
  8
0
  6
Continuous
 62
     7
370
    18
100
AcDbSpline
210
0.0
220
0.0
230
1.0
 70
     8
 71
     3
 72
    10
 73
     6
 74
     0
 42
0.000000001
 43
0.00000001
 40
0.0
 40
0.0
 40
0.0
 40
0.0
 40
0.5
 40
0.5
 40
1.0
 40
1.0
 40
1.0
 40
1.0
 10
210.9055659719411
 20
223.1857236574501
 30
0.0
 10
210.9055659719411
 20
223.1857236574501
 30
0.0
 10
210.9229411180969
 20
223.1861859800416
 30
0.0
 10
210.9919803810775
 20
223.1879924844761
 30
0.0
 10
211.0464323554019
 20
223.1894046913961
 30
0.0
 10
211.1055659719411
 20
223.1909020743958
 30
0.0
  0
LINE
  5
1C7
330
1F
100
AcDbEntity
  8
0
  6
Continuous
 62
     7
370
    35
100
AcDbLine
 10
237.5055659719
 20
226.5524906636
 30
0.0
 11
237.5055659719
 21
226.1905457376
 31
0.0
  0
LINE
  5
1C8
330
1F
100
AcDbEntity
  8
0
  6
Continuous
 62
     7
370
    35
100
AcDbLine
 10
203.4055659719
 20
244.9405457376
 30
0.0
 11
210.9055659719
 21
244.9405457376
 31
0.0
  0
LINE
  5
1C9
330
1F
100
AcDbEntity
  8
0
  6
Continuous
 62
     7
370
    35
100
AcDbLine
 10
203.4055659719
 20
246.0905457376
 30
0.0
 11
203.4055659719
 21
244.9405457376
 31
0.0
  0
LINE
  5
1CA
330
1F
100
AcDbEntity
  8
0
  6
Continuous
 62
     7
370
    35
100
AcDbLine
 10
210.9055659719
 20
244.9405457376
 30
0.0
 11
210.9055659719
 21
247.1905457376
 31
0.0
  0
LINE
  5
1CB
330
1F
100
AcDbEntity
  8
0
  6
Continuous
 62
     7
370
    35
100
AcDbLine
 10
200.4055659719
 20
247.6905457376
 30
0.0
 11
200.4055659719
 21
246.6905457376
 31
0.0
  0
LINE
  5
1CC
330
1F
100
AcDbEntity
  8
0
  6
Continuous
 62
     7
370
    35
100
AcDbLine
 10
210.9055659719
 20
241.4405457376
 30
0.0
 11
203.4055659719
 21
241.4405457376
 31
0.0
  0
LINE
  5
1CD
330
1F
100
AcDbEntity
  8
0
  6
Continuous
 62
     7
370
    35
100
AcDbLine
 10
203.4055659719
 20
241.4405457376
 30
0.0
 11
203.4055659719
 21
240.295586548
 31
0.0
  0
LINE
  5
1CE
330
1F
100
AcDbEntity
  8
0
  6
Continuous
 62
     7
370
    35
100
AcDbLine
 10
210.9055659719
 20
241.2436974333
 30
0.0
 11
210.9055659719
 21
241.4405457376
 31
0.0
  0
LINE
  5
1CF
330
1F
100
AcDbEntity
  8
0
  6
Continuous
 62
     7
370
    18
100
AcDbLine
 10
203.4055659719
 20
244.9405457376
 30
0.0
 11
203.4055659719
 21
241.4405457376
 31
0.0
  0
LINE
  5
1D0
330
1F
100
AcDbEntity
  8
0
  6
Continuous
 62
     7
370
    18
100
AcDbLine
 10
210.9055659719
 20
244.9405457376
 30
0.0
 11
210.9055659719
 21
241.4405457376
 31
0.0
  0
LINE
  5
1D1
330
1F
100
AcDbEntity
  8
0
  6
Continuous
 62
     7
370
    35
100
AcDbLine
 10
240.2055659719
 20
176.1905457376
 30
0.0
 11
240.2055659719
 21
180.9222535203
 31
0.0
  0
LINE
  5
1D2
330
1F
100
AcDbEntity
  8
0
  6
Continuous
 62
     7
370
    35
100
AcDbLine
 10
240.2055659719
 20
226.1905457376
 30
0.0
 11
236.7560117602
 21
226.1905457376
 31
0.0
  0
LINE
  5
1D3
330
1F
100
AcDbEntity
  8
0
  6
Continuous
 62
     7
370
    18
100
AcDbLine
 10
240.2055659719
 20
180.9222535203
 30
0.0
 11
237.4732894687
 21
180.5466539002
 31
0.0
  0
LINE
  5
1D4
330
1F
100
AcDbEntity
  8
0
  6
Continuous
 62
     7
370
    35
100
AcDbLine
 10
240.5055659719
 20
180.9680666544
 30
0.0
 11
240.5055659719
 21
176.4905457376
 31
0.0
  0
LINE
  5
1D5
330
1F
100
AcDbEntity
  8
0
  6
Continuous
 62
     7
370
    35
100
AcDbLine
 10
240.2055659719
 20
226.1905457376
 30
0.0
 11
240.5055659719
 21
225.8905457376
 31
0.0
  0
LINE
  5
1D6
330
1F
100
AcDbEntity
  8
0
  6
Continuous
 62
     7
370
    18
100
AcDbLine
 10
240.2055659719
 20
180.9222535203
 30
0.0
 11
240.5055659719
 21
180.9680666544
 31
0.0
  0
LINE
  5
1D7
330
1F
100
AcDbEntity
  8
0
  6
Continuous
 62
     7
370
    35
100
AcDbLine
 10
240.5055659719
 20
222.0405457376
 30
0.0
 11
240.2055659719
 21
221.7405457376
 31
0.0
  0
LINE
  5
1D8
330
1F
100
AcDbEntity
  8
0
  6
Continuous
 62
     7
370
    35
100
AcDbLine
 10
240.5055659719
 20
222.0405457376
 30
0.0
 11
240.5055659719
 21
180.9680666544
 31
0.0
  0
LINE
  5
1D9
330
1F
100
AcDbEntity
  8
0
  6
Continuous
 62
     7
370
    35
100
AcDbLine
 10
214.4055659719
 20
180.6405457376
 30
0.0
 11
238.2575824174
 21
180.6405457376
 31
0.0
  0
LINE
  5
1DA
330
1F
100
AcDbEntity
  8
0
  6
Continuous
 62
     7
370
    35
100
AcDbLine
 10
214.4055659719
 20
221.7405457376
 30
0.0
 11
214.4055659719
 21
180.6405457376
 31
0.0
  0
LINE
  5
1DB
330
1F
100
AcDbEntity
  8
0
  6
Continuous
 62
     7
370
    35
100
AcDbLine
 10
233.9715874966
 20
221.7405457376
 30
0.0
 11
214.4055659719
 21
221.7405457376
 31
0.0
  0
LINE
  5
1DC
330
1F
100
AcDbEntity
  8
0
  6
Continuous
 62
     7
370
    35
100
AcDbLine
 10
238.2575824174
 20
221.7405457376
 30
0.0
 11
233.9715874966
 21
221.7405457376
 31
0.0
  0
LINE
  5
1DD
330
1F
100
AcDbEntity
  8
0
  6
Continuous
 62
     7
370
    35
100
AcDbLine
 10
240.2055659719
 20
221.7405457376
 30
0.0
 11
238.2575824174
 21
221.7405457376
 31
0.0
  0
LINE
  5
1DE
330
1F
100
AcDbEntity
  8
0
  6
Continuous
 62
     7
370
    35
100
AcDbLine
 10
235.4902615375
 20
225.1905457376
 30
0.0
 11
240.5055659719
 21
225.1905457376
 31
0.0
  0
LINE
  5
1DF
330
1F
100
AcDbEntity
  8
0
  6
Continuous
 62
     7
370
    35
100
AcDbLine
 10
240.5055659719
 20
222.6905457376
 30
0.0
 11
234.1225268773
 21
222.6905457376
 31
0.0
  0
LINE
  5
1E0
330
1F
100
AcDbEntity
  8
0
  6
Continuous
 62
     7
370
    35
100
AcDbLine
 10
240.5055659719
 20
222.6905457376
 30
0.0
 11
240.5055659719
 21
225.1905457376
 31
0.0
  0
LINE
  5
1E1
330
1F
100
AcDbEntity
  8
0
  6
Continuous
 62
     7
370
    35
100
AcDbLine
 10
214.5055659719
 20
222.6905457376
 30
0.0
 11
214.2055659719
 21
222.3905457376
 31
0.0
  0
LINE
  5
1E2
330
1F
100
AcDbEntity
  8
0
  6
Continuous
 62
     7
370
    35
100
AcDbLine
 10
214.2055659719
 20
179.9905457376
 30
0.0
 11
214.5055659719
 21
179.6905457376
 31
0.0
  0
LINE
  5
1E3
330
1F
100
AcDbEntity
  8
0
  6
Continuous
 62
     7
370
    35
100
AcDbLine
 10
217.4305659719
 20
222.6905457376
 30
0.0
 11
214.5055659719
 21
222.6905457376
 31
0.0
  0
LINE
  5
1E4
330
1F
100
AcDbEntity
  8
0
  6
Continuous
 62
     7
370
    35
100
AcDbLine
 10
214.5055659719
 20
179.6905457376
 30
0.0
 11
217.4305659719
 21
179.6905457376
 31
0.0
  0
LINE
  5
1E5
330
1F
100
AcDbEntity
  8
0
  6
Continuous
 62
     7
370
    35
100
AcDbLine
 10
240.5055659719
 20
222.6905457376
 30
0.0
 11
240.5055659719
 21
222.0405457376
 31
0.0
  0
LINE
  5
1E6
330
1F
100
AcDbEntity
  8
0
  6
Continuous
 62
     7
370
    35
100
AcDbLine
 10
240.5055659719
 20
225.8905457376
 30
0.0
 11
240.5055659719
 21
225.1905457376
 31
0.0
  0
LINE
  5
1E7
330
1F
100
AcDbEntity
  8
0
  6
Continuous
 62
     7
370
    35
100
AcDbLine
 10
214.2055659719
 20
180.4405457376
 30
0.0
 11
214.4055659719
 21
180.6405457376
 31
0.0
  0
LINE
  5
1E8
330
1F
100
AcDbEntity
  8
0
  6
Continuous
 62
     7
370
    35
100
AcDbLine
 10
214.2055659719
 20
180.4405457376
 30
0.0
 11
214.2055659719
 21
221.9405457376
 31
0.0
  0
LINE
  5
1E9
330
1F
100
AcDbEntity
  8
0
  6
Continuous
 62
     7
370
    35
100
AcDbLine
 10
214.4055659719
 20
221.7405457376
 30
0.0
 11
214.2055659719
 21
221.9405457376
 31
0.0
  0
LINE
  5
1EA
330
1F
100
AcDbEntity
  8
0
  6
Continuous
 62
     7
370
    35
100
AcDbLine
 10
214.2055659719
 20
221.9405457376
 30
0.0
 11
214.2055659719
 21
222.3905457376
 31
0.0
  0
LINE
  5
1EB
330
1F
100
AcDbEntity
  8
0
  6
Continuous
 62
     7
370
    35
100
AcDbLine
 10
217.4305659719
 20
222.6905457376
 30
0.0
 11
217.4305659719
 21
223.2375961729
 31
0.0
  0
LINE
  5
1EC
330
1F
100
AcDbEntity
  8
0
  6
Continuous
 62
     7
370
    35
100
AcDbLine
 10
214.2055659719
 20
179.9905457376
 30
0.0
 11
214.2055659719
 21
180.4405457376
 31
0.0
  0
LINE
  5
1ED
330
1F
100
AcDbEntity
  8
0
  6
Continuous
 62
     7
370
    35
100
AcDbLine
 10
217.4305659719
 20
179.1434953023
 30
0.0
 11
217.4305659719
 21
179.6905457376
 31
0.0
  0
LINE
  5
1EE
330
1F
100
AcDbEntity
  8
0
  6
Continuous
 62
     7
370
    18
100
AcDbLine
 10
196.2055659719
 20
177.1905457376
 30
0.0
 11
196.2055659719
 21
174.8409795573
 31
0.0
  0
LINE
  5
1EF
330
1F
100
AcDbEntity
  8
0
  6
Continuous
 62
     7
370
    18
100
AcDbLine
 10
196.2055659719
 20
180.0305457376
 30
0.0
 11
196.2055659719
 21
177.1905457376
 31
0.0
  0
LINE
  5
1F0
330
1F
100
AcDbEntity
  8
0
  6
Continuous
 62
     7
370
    35
100
AcDbLine
 10
193.2055659719
 20
174.5005457376
 30
0.0
 11
193.2055659719
 21
179.8805457376
 31
0.0
  0
LINE
  5
1F1
330
1F
100
AcDbEntity
  8
0
  6
Continuous
 62
     7
370
    35
100
AcDbLine
 10
193.2055659719
 20
225.1905457376
 30
0.0
 11
193.2055659719
 21
227.8805457376
 31
0.0
  0
LINE
  5
1F2
330
1F
100
AcDbEntity
  8
0
  6
Continuous
 62
     7
370
    35
100
AcDbLine
 10
193.2055659719
 20
222.5005457376
 30
0.0
 11
193.2055659719
 21
225.1905457376
 31
0.0
  0
LINE
  5
1F3
330
1F
100
AcDbEntity
  8
0
  6
Continuous
 62
     7
370
    18
100
AcDbLine
 10
196.2055659719
 20
227.5229358488
 30
0.0
 11
196.2055659719
 21
222.3505457376
 31
0.0
  0
LINE
  5
1F4
330
1F
100
AcDbEntity
  8
0
  6
Continuous
 62
     7
370
    35
100
AcDbLine
 10
189.4055659719
 20
238.6548154478
 30
0.0
 11
189.4055659719
 21
237.7622266289
 31
0.0
  0
LINE
  5
1F5
330
1F
100
AcDbEntity
  8
0
  6
Continuous
 62
     7
370
    35
100
AcDbLine
 10
189.4055659719
 20
164.6188648463
 30
0.0
 11
189.4055659719
 21
163.7262760275
 31
0.0
  0
LINE
  5
1F6
330
1F
100
AcDbEntity
  8
0
  6
Continuous
 62
     7
370
    35
100
AcDbLine
 10
190.4055659719
 20
165.9492652534
 30
0.0
 11
191.1867226091
 21
166.0435041792
 31
0.0
  0
LINE
  5
1F7
330
1F
100
AcDbEntity
  8
0
  6
Continuous
 62
     7
370
    35
100
AcDbLine
 10
190.4055659719
 20
236.4318262219
 30
0.0
 11
190.4055659719
 21
235.6905457376
 31
0.0
  0
LINE
  5
1F8
330
1F
100
AcDbEntity
  8
0
  6
Continuous
 62
     7
370
    35
100
AcDbLine
 10
190.4055659719
 20
166.6905457376
 30
0.0
 11
190.4055659719
 21
165.9492652534
 31
0.0
  0
LINE
  5
1F9
330
1F
100
AcDbEntity
  8
0
  6
Continuous
 62
     7
370
    35
100
AcDbLine
 10
191.1867226091
 20
236.337587296
 30
0.0
 11
190.4055659719
 21
236.4318262219
 31
0.0
  0
LINE
  5
1FA
330
1F
100
AcDbEntity
  8
0
  6
Continuous
 62
     7
370
    35
100
AcDbLine
 10
190.4055659719
 20
236.4318262219
 30
0.0
 11
189.5722326386
 21
235.6905457376
 31
0.0
  0
LINE
  5
1FB
330
1F
100
AcDbEntity
  8
0
  6
Continuous
 62
     7
370
    35
100
AcDbLine
 10
189.5722326386
 20
166.6905457376
 30
0.0
 11
190.4055659719
 21
165.9492652534
 31
0.0
  0
LINE
  5
1FC
330
1F
100
AcDbEntity
  8
0
  6
Continuous
 62
     7
370
    35
100
AcDbLine
 10
189.4055659719
 20
166.523879071
 30
0.0
 11
189.5722326386
 21
166.6905457376
 31
0.0
  0
LINE
  5
1FD
330
1F
100
AcDbEntity
  8
0
  6
Continuous
 62
     7
370
    35
100
AcDbLine
 10
189.4055659719
 20
235.8572124043
 30
0.0
 11
189.4055659719
 21
235.6905457376
 31
0.0
  0
LINE
  5
1FE
330
1F
100
AcDbEntity
  8
0
  6
Continuous
 62
     7
370
    35
100
AcDbLine
 10
189.4055659719
 20
166.6905457376
 30
0.0
 11
189.4055659719
 21
166.523879071
 31
0.0
  0
LINE
  5
1FF
330
1F
100
AcDbEntity
  8
0
  6
Continuous
 62
     7
370
    35
100
AcDbLine
 10
189.5722326386
 20
235.6905457376
 30
0.0
 11
189.4055659719
 21
235.8572124043
 31
0.0
  0
ARC
  5
200
330
1F
100
AcDbEntity
  8
0
  6
Continuous
 62
     7
370
    35
100
AcDbCircle
 10
189.8055659719
 20
165.8595853744
 30
0.0
 40
0.0999999999999943
100
AcDbArc
 50
270.0
 51
0.0
  0
ARC
  5
201
330
1F
100
AcDbEntity
  8
0
  6
Continuous
 62
     7
370
    35
100
AcDbCircle
 10
189.8055659719
 20
236.5215061008
 30
0.0
 40
0.0999999999999943
100
AcDbArc
 50
0.0
 51
90.0
  0
ARC
  5
202
330
1F
100
AcDbEntity
  8
0
  6
Continuous
 62
     7
370
    35
100
AcDbCircle
 10
189.8055659719
 20
166.0256310421
 30
0.0
 40
0.0999999999999943
100
AcDbArc
 50
360.0
 51
47.7622112206
  0
ARC
  5
203
330
1F
100
AcDbEntity
  8
0
  6
Continuous
 62
     7
370
    35
100
AcDbCircle
 10
189.8055659719
 20
236.3554604332
 30
0.0
 40
0.0999999999999943
100
AcDbArc
 50
312.2377887794
 51
0.0
  0
LINE
  5
204
330
1F
100
AcDbEntity
  8
0
  6
Continuous
 62
     7
370
    35
100
AcDbLine
 10
189.9055659719
 20
164.6188648463
 30
0.0
 11
189.4055659719
 21
164.6188648463
 31
0.0
  0
LINE
  5
205
330
1F
100
AcDbEntity
  8
0
  6
Continuous
 62
     7
370
    35
100
AcDbLine
 10
189.4055659719
 20
237.7622266289
 30
0.0
 11
189.9055659719
 21
237.7622266289
 31
0.0
  0
LINE
  5
206
330
1F
100
AcDbEntity
  8
0
  6
Continuous
 62
     7
370
    35
100
AcDbLine
 10
190.4055659719
 20
165.4492652534
 30
0.0
 11
189.9055659719
 21
165.4492652534
 31
0.0
  0
LINE
  5
207
330
1F
100
AcDbEntity
  8
0
  6
Continuous
 62
     7
370
    35
100
AcDbLine
 10
189.9055659719
 20
236.9318262219
 30
0.0
 11
190.4055659719
 21
236.9318262219
 31
0.0
  0
LINE
  5
208
330
1F
100
AcDbEntity
  8
0
  6
Continuous
 62
     7
370
    35
100
AcDbLine
 10
189.4055659719
 20
235.8572124043
 30
0.0
 11
189.8727868752
 21
236.2814242922
 31
0.0
  0
LINE
  5
209
330
1F
100
AcDbEntity
  8
0
  6
Continuous
 62
     7
370
    35
100
AcDbLine
 10
189.8727868752
 20
166.099667183
 30
0.0
 11
189.4055659719
 21
166.523879071
 31
0.0
  0
LINE
  5
20A
330
1F
100
AcDbEntity
  8
0
  6
Continuous
 62
     7
370
    35
100
AcDbLine
 10
189.5055659719
 20
165.7595853744
 30
0.0
 11
189.8055659719
 21
165.7595853744
 31
0.0
  0
LINE
  5
20B
330
1F
100
AcDbEntity
  8
0
  6
Continuous
 62
     7
370
    35
100
AcDbLine
 10
189.8055659719
 20
236.6215061008
 30
0.0
 11
189.5055659719
 21
236.6215061008
 31
0.0
  0
ARC
  5
20C
330
1F
100
AcDbEntity
  8
0
  6
Continuous
 62
     7
370
    18
100
AcDbCircle
 10
189.5055659719
 20
165.6595853744
 30
0.0
 40
0.1000000000000227
100
AcDbArc
 50
90.0
 51
180.0
  0
ARC
  5
20D
330
1F
100
AcDbEntity
  8
0
  6
Continuous
 62
     7
370
    18
100
AcDbCircle
 10
189.5055659719
 20
236.7215061008
 30
0.0
 40
0.1000000000000227
100
AcDbArc
 50
180.0
 51
270.0
  0
LINE
  5
20E
330
1F
100
AcDbEntity
  8
0
  6
Continuous
 62
     7
370
    35
100
AcDbLine
 10
189.4055659719
 20
165.6595853744
 30
0.0
 11
189.4055659719
 21
166.523879071
 31
0.0
  0
LINE
  5
20F
330
1F
100
AcDbEntity
  8
0
  6
Continuous
 62
     7
370
    35
100
AcDbLine
 10
189.4055659719
 20
235.8572124043
 30
0.0
 11
189.4055659719
 21
236.7215061008
 31
0.0
  0
LINE
  5
210
330
1F
100
AcDbEntity
  8
0
  6
Continuous
 62
     7
370
    35
100
AcDbLine
 10
189.9055659719
 20
237.7622266289
 30
0.0
 11
189.9055659719
 21
236.9318262219
 31
0.0
  0
LINE
  5
211
330
1F
100
AcDbEntity
  8
0
  6
Continuous
 62
     7
370
    35
100
AcDbLine
 10
189.4055659719
 20
236.7215061008
 30
0.0
 11
189.4055659719
 21
237.7622266289
 31
0.0
  0
LINE
  5
212
330
1F
100
AcDbEntity
  8
0
  6
Continuous
 62
     7
370
    35
100
AcDbLine
 10
189.9055659719
 20
236.3554604332
 30
0.0
 11
189.9055659719
 21
236.5215061008
 31
0.0
  0
LINE
  5
213
330
1F
100
AcDbEntity
  8
0
  6
Continuous
 62
     7
370
    35
100
AcDbLine
 10
190.4055659719
 20
236.9318262219
 30
0.0
 11
190.4055659719
 21
237.393280332
 31
0.0
  0
LINE
  5
214
330
1F
100
AcDbEntity
  8
0
  6
Continuous
 62
     7
370
    35
100
AcDbLine
 10
189.9055659719
 20
165.4492652534
 30
0.0
 11
189.9055659719
 21
164.6188648463
 31
0.0
  0
LINE
  5
215
330
1F
100
AcDbEntity
  8
0
  6
Continuous
 62
     7
370
    35
100
AcDbLine
 10
189.4055659719
 20
164.6188648463
 30
0.0
 11
189.4055659719
 21
165.6595853744
 31
0.0
  0
LINE
  5
216
330
1F
100
AcDbEntity
  8
0
  6
Continuous
 62
     7
370
    35
100
AcDbLine
 10
189.9055659719
 20
165.8595853744
 30
0.0
 11
189.9055659719
 21
166.0256310421
 31
0.0
  0
LINE
  5
217
330
1F
100
AcDbEntity
  8
0
  6
Continuous
 62
     7
370
    35
100
AcDbLine
 10
190.4055659719
 20
164.9878111432
 30
0.0
 11
190.4055659719
 21
165.4492652534
 31
0.0
  0
LINE
  5
218
330
1F
100
AcDbEntity
  8
0
  6
Continuous
 62
     7
370
    18
100
AcDbLine
 10
189.9055659719
 20
238.0361002226
 30
0.0
 11
189.9055659719
 21
236.9318262219
 31
0.0
  0
LINE
  5
219
330
1F
100
AcDbEntity
  8
0
  6
Continuous
 62
     7
370
    35
100
AcDbLine
 10
189.9055659719
 20
165.4492652534
 30
0.0
 11
189.9055659719
 21
164.3449912527
 31
0.0
  0
LINE
  5
21A
330
1F
100
AcDbEntity
  8
0
  6
Continuous
 62
     7
370
    35
100
AcDbLine
 10
187.7055659719
 20
235.6905457376
 30
0.0
 11
191.6426067907
 21
235.6905457376
 31
0.0
  0
LINE
  5
21B
330
1F
100
AcDbEntity
  8
0
  6
Continuous
 62
     7
370
    35
100
AcDbLine
 10
191.6426067907
 20
166.6905457376
 30
0.0
 11
187.7055659719
 21
166.6905457376
 31
0.0
  0
LINE
  5
21C
330
1F
100
AcDbEntity
  8
0
  6
Continuous
 62
     7
370
    35
100
AcDbLine
 10
187.7055659719
 20
173.6905457376
 30
0.0
 11
195.6742351488
 21
173.6905457376
 31
0.0
  0
LINE
  5
21D
330
1F
100
AcDbEntity
  8
0
  6
Continuous
 62
     7
370
    35
100
AcDbLine
 10
195.6742351488
 20
228.6905457376
 30
0.0
 11
187.7055659719
 21
228.6905457376
 31
0.0
  0
LINE
  5
21E
330
1F
100
AcDbEntity
  8
0
  6
Continuous
 62
     7
370
    35
100
AcDbLine
 10
196.5555659719
 20
178.9405457376
 30
0.0
 11
197.8539501911
 21
178.9405457376
 31
0.0
  0
LINE
  5
21F
330
1F
100
AcDbEntity
  8
0
  6
Continuous
 62
     7
370
    35
100
AcDbLine
 10
196.5555659719
 20
178.9405457376
 30
0.0
 11
196.5555659719
 21
178.6905457376
 31
0.0
  0
LINE
  5
220
330
1F
100
AcDbEntity
  8
0
  6
Continuous
 62
     7
370
    35
100
AcDbLine
 10
196.5555659719
 20
223.6905457376
 30
0.0
 11
196.5555659719
 21
223.4405457376
 31
0.0
  0
LINE
  5
221
330
1F
100
AcDbEntity
  8
0
  6
Continuous
 62
     7
370
    35
100
AcDbLine
 10
197.8539501911
 20
223.4405457376
 30
0.0
 11
196.5555659719
 21
223.4405457376
 31
0.0
  0
LINE
  5
222
330
1F
100
AcDbEntity
  8
0
  6
Continuous
 62
     7
370
    35
100
AcDbLine
 10
194.1555659719
 20
171.7405457376
 30
0.0
 11
194.1555659719
 21
170.7512845609
 31
0.0
  0
LINE
  5
223
330
1F
100
AcDbEntity
  8
0
  6
Continuous
 62
     7
370
    35
100
AcDbLine
 10
193.2881936384
 20
169.2405457376
 30
0.0
 11
188.0055659719
 21
169.2405457376
 31
0.0
  0
LINE
  5
224
330
1F
100
AcDbEntity
  8
0
  6
Continuous
 62
     7
370
    35
100
AcDbLine
 10
188.0055659719
 20
171.7405457376
 30
0.0
 11
188.0055659719
 21
169.2405457376
 31
0.0
  0
LINE
  5
225
330
1F
100
AcDbEntity
  8
0
  6
Continuous
 62
     7
370
    35
100
AcDbLine
 10
188.0055659719
 20
171.7405457376
 30
0.0
 11
194.1555659719
 21
171.7405457376
 31
0.0
  0
LINE
  5
226
330
1F
100
AcDbEntity
  8
0
  6
Continuous
 62
     7
370
    35
100
AcDbLine
 10
194.1555659719
 20
230.6405457376
 30
0.0
 11
188.0055659719
 21
230.6405457376
 31
0.0
  0
LINE
  5
227
330
1F
100
AcDbEntity
  8
0
  6
Continuous
 62
     7
370
    35
100
AcDbLine
 10
188.0055659719
 20
233.1405457376
 30
0.0
 11
188.0055659719
 21
230.6405457376
 31
0.0
  0
LINE
  5
228
330
1F
100
AcDbEntity
  8
0
  6
Continuous
 62
     7
370
    35
100
AcDbLine
 10
188.0055659719
 20
233.1405457376
 30
0.0
 11
193.2881936384
 21
233.1405457376
 31
0.0
  0
LINE
  5
229
330
1F
100
AcDbEntity
  8
0
  6
Continuous
 62
     7
370
    35
100
AcDbLine
 10
194.1555659719
 20
231.6357591172
 30
0.0
 11
194.1555659719
 21
230.6405457376
 31
0.0
  0
LINE
  5
22A
330
1F
100
AcDbEntity
  8
0
  6
Continuous
 62
     7
370
    35
100
AcDbLine
 10
194.442255919
 20
231.1176779342
 30
0.0
 11
194.1555659719
 21
230.6405457376
 31
0.0
  0
LINE
  5
22B
330
1F
100
AcDbEntity
  8
0
  6
Continuous
 62
     7
370
    35
100
AcDbLine
 10
194.1555659719
 20
171.7405457376
 30
0.0
 11
194.442255919
 21
171.263413541
 31
0.0
  0
LINE
  5
22C
330
1F
100
AcDbEntity
  8
0
  6
Continuous
 62
     7
370
    35
100
AcDbLine
 10
196.3777274785
 20
175.2627072442
 30
0.0
 11
196.2055659719
 21
175.0905457376
 31
0.0
  0
LINE
  5
22D
330
1F
100
AcDbEntity
  8
0
  6
Continuous
 62
     7
370
    35
100
AcDbLine
 10
196.2055659719
 20
179.2905457376
 30
0.0
 11
196.5555659719
 21
178.9405457376
 31
0.0
  0
LINE
  5
22E
330
1F
100
AcDbEntity
  8
0
  6
Continuous
 62
     7
370
    35
100
AcDbLine
 10
196.5555659719
 20
223.4405457376
 30
0.0
 11
196.2055659719
 21
223.0905457376
 31
0.0
  0
LINE
  5
22F
330
1F
100
AcDbEntity
  8
0
  6
Continuous
 62
     7
370
    35
100
AcDbLine
 10
196.2055659719
 20
227.2905457376
 30
0.0
 11
196.377642764
 21
227.1184689455
 31
0.0
  0
LINE
  5
230
330
1F
100
AcDbEntity
  8
0
  6
Continuous
 62
     7
370
    35
100
AcDbLine
 10
187.4055659719
 20
173.3905457376
 30
0.0
 11
187.7055659719
 21
173.6905457376
 31
0.0
  0
LINE
  5
231
330
1F
100
AcDbEntity
  8
0
  6
Continuous
 62
     7
370
    35
100
AcDbLine
 10
187.4055659719
 20
228.9905457376
 30
0.0
 11
187.4055659719
 21
173.3905457376
 31
0.0
  0
LINE
  5
232
330
1F
100
AcDbEntity
  8
0
  6
Continuous
 62
     7
370
    35
100
AcDbLine
 10
187.7055659719
 20
228.6905457376
 30
0.0
 11
187.4055659719
 21
228.9905457376
 31
0.0
  0
LINE
  5
233
330
1F
100
AcDbEntity
  8
0
  6
Continuous
 62
     7
370
    35
100
AcDbLine
 10
198.4511567439
 20
180.6905457376
 30
0.0
 11
202.1055659719
 21
180.6905457376
 31
0.0
  0
LINE
  5
234
330
1F
100
AcDbEntity
  8
0
  6
Continuous
 62
     7
370
    35
100
AcDbLine
 10
196.5055659719
 20
180.6905457376
 30
0.0
 11
198.4511567439
 21
180.6905457376
 31
0.0
  0
LINE
  5
235
330
1F
100
AcDbEntity
  8
0
  6
Continuous
 62
     7
370
    35
100
AcDbLine
 10
198.4511567439
 20
221.6905457376
 30
0.0
 11
196.5055659719
 21
221.6905457376
 31
0.0
  0
LINE
  5
236
330
1F
100
AcDbEntity
  8
0
  6
Continuous
 62
     7
370
    35
100
AcDbLine
 10
202.1055659719
 20
221.6905457376
 30
0.0
 11
198.4511567439
 21
221.6905457376
 31
0.0
  0
LINE
  5
237
330
1F
100
AcDbEntity
  8
0
  6
Continuous
 62
     7
370
    35
100
AcDbLine
 10
202.1055659719
 20
221.6905457376
 30
0.0
 11
202.1055659719
 21
180.6905457376
 31
0.0
  0
LINE
  5
238
330
1F
100
AcDbEntity
  8
0
  6
Continuous
 62
     7
370
    35
100
AcDbLine
 10
196.2055659719
 20
180.3905457376
 30
0.0
 11
196.5055659719
 21
180.6905457376
 31
0.0
  0
LINE
  5
239
330
1F
100
AcDbEntity
  8
0
  6
Continuous
 62
     7
370
    35
100
AcDbLine
 10
196.5055659719
 20
221.6905457376
 30
0.0
 11
196.2055659719
 21
221.9905457376
 31
0.0
  0
LINE
  5
23A
330
1F
100
AcDbEntity
  8
0
  6
Continuous
 62
     7
370
    35
100
AcDbLine
 10
196.2055659719
 20
221.9905457376
 30
0.0
 11
196.2055659719
 21
180.3905457376
 31
0.0
  0
LINE
  5
23B
330
1F
100
AcDbEntity
  8
0
  6
Continuous
 62
     7
370
    35
100
AcDbLine
 10
202.4055659719
 20
221.9905457376
 30
0.0
 11
202.1055659719
 21
221.6905457376
 31
0.0
  0
LINE
  5
23C
330
1F
100
AcDbEntity
  8
0
  6
Continuous
 62
     7
370
    35
100
AcDbLine
 10
202.1055659719
 20
180.6905457376
 30
0.0
 11
202.4055659719
 21
180.3905457376
 31
0.0
  0
LINE
  5
23D
330
1F
100
AcDbEntity
  8
0
  6
Continuous
 62
     7
370
    35
100
AcDbLine
 10
202.4055659719
 20
221.9905457376
 30
0.0
 11
202.4055659719
 21
180.3905457376
 31
0.0
  0
LINE
  5
23E
330
1F
100
AcDbEntity
  8
0
  6
Continuous
 62
     7
370
    35
100
AcDbLine
 10
188.0055659719
 20
169.2405457376
 30
0.0
 11
187.4055659719
 21
168.6405457376
 31
0.0
  0
LINE
  5
23F
330
1F
100
AcDbEntity
  8
0
  6
Continuous
 62
     7
370
    35
100
AcDbLine
 10
187.4055659719
 20
168.6405457376
 30
0.0
 11
187.4055659719
 21
172.3405457376
 31
0.0
  0
LINE
  5
240
330
1F
100
AcDbEntity
  8
0
  6
Continuous
 62
     7
370
    35
100
AcDbLine
 10
187.4055659719
 20
172.3405457376
 30
0.0
 11
188.0055659719
 21
171.7405457376
 31
0.0
  0
LINE
  5
241
330
1F
100
AcDbEntity
  8
0
  6
Continuous
 62
     7
370
    35
100
AcDbLine
 10
188.0055659719
 20
230.6405457376
 30
0.0
 11
187.4055659719
 21
230.0405457376
 31
0.0
  0
LINE
  5
242
330
1F
100
AcDbEntity
  8
0
  6
Continuous
 62
     7
370
    35
100
AcDbLine
 10
187.4055659719
 20
230.0405457376
 30
0.0
 11
187.4055659719
 21
233.7405457376
 31
0.0
  0
LINE
  5
243
330
1F
100
AcDbEntity
  8
0
  6
Continuous
 62
     7
370
    35
100
AcDbLine
 10
187.4055659719
 20
233.7405457376
 30
0.0
 11
188.0055659719
 21
233.1405457376
 31
0.0
  0
LINE
  5
244
330
1F
100
AcDbEntity
  8
0
  6
Continuous
 62
     7
370
    35
100
AcDbLine
 10
187.4055659719
 20
235.3905457376
 30
0.0
 11
187.7055659719
 21
235.6905457376
 31
0.0
  0
LINE
  5
245
330
1F
100
AcDbEntity
  8
0
  6
Continuous
 62
     7
370
    35
100
AcDbLine
 10
187.7055659719
 20
166.6905457376
 30
0.0
 11
187.4055659719
 21
166.9905457376
 31
0.0
  0
LINE
  5
246
330
1F
100
AcDbEntity
  8
0
  6
Continuous
 62
     7
370
    18
100
AcDbLine
 10
196.2055659719
 20
180.2210495186
 30
0.0
 11
196.2055659719
 21
180.3905457376
 31
0.0
  0
LINE
  5
247
330
1F
100
AcDbEntity
  8
0
  6
Continuous
 62
     7
370
    35
100
AcDbLine
 10
196.2055659719
 20
221.9905457376
 30
0.0
 11
196.2055659719
 21
222.1600419566
 31
0.0
  0
LINE
  5
248
330
1F
100
AcDbEntity
  8
0
  6
Continuous
 62
     7
370
    35
100
AcDbLine
 10
196.2055659719
 20
180.0305457376
 30
0.0
 11
196.2055659719
 21
180.2210495186
 31
0.0
  0
LINE
  5
249
330
1F
100
AcDbEntity
  8
0
  6
Continuous
 62
     7
370
    18
100
AcDbLine
 10
196.2055659719
 20
222.1600419566
 30
0.0
 11
196.2055659719
 21
222.3505457376
 31
0.0
  0
LINE
  5
24A
330
1F
100
AcDbEntity
  8
0
  6
Continuous
 62
     7
370
    35
100
AcDbLine
 10
187.4055659719
 20
166.9905457376
 30
0.0
 11
187.4055659719
 21
168.6405457376
 31
0.0
  0
LINE
  5
24B
330
1F
100
AcDbEntity
  8
0
  6
Continuous
 62
     7
370
    35
100
AcDbLine
 10
187.4055659719
 20
228.9905457376
 30
0.0
 11
187.4055659719
 21
230.0405457376
 31
0.0
  0
LINE
  5
24C
330
1F
100
AcDbEntity
  8
0
  6
Continuous
 62
     7
370
    35
100
AcDbLine
 10
187.4055659719
 20
172.3405457376
 30
0.0
 11
187.4055659719
 21
173.3905457376
 31
0.0
  0
LINE
  5
24D
330
1F
100
AcDbEntity
  8
0
  6
Continuous
 62
     7
370
    35
100
AcDbLine
 10
187.4055659719
 20
233.7405457376
 30
0.0
 11
187.4055659719
 21
235.3905457376
 31
0.0
  0
LINE
  5
24E
330
1F
100
AcDbEntity
  8
0
  6
Continuous
 62
     7
370
    35
100
AcDbLine
 10
202.4055659719
 20
222.7516297074
 30
0.0
 11
202.4055659719
 21
221.9905457376
 31
0.0
  0
LINE
  5
24F
330
1F
100
AcDbEntity
  8
0
  6
Continuous
 62
     7
370
    35
100
AcDbLine
 10
202.4055659719
 20
180.3905457376
 30
0.0
 11
202.4055659719
 21
179.6294617678
 31
0.0
  0
LINE
  5
250
330
1F
100
AcDbEntity
  8
0
  6
Continuous
 62
     7
370
    35
100
AcDbLine
 10
217.2305659719
 20
222.9905457376
 30
0.0
 11
216.9305659719
 21
222.6905457376
 31
0.0
  0
LINE
  5
251
330
1F
100
AcDbEntity
  8
0
  6
Continuous
 62
     7
370
    35
100
AcDbLine
 10
216.9305659719
 20
179.6905457376
 30
0.0
 11
217.2305659719
 21
179.3905457376
 31
0.0
  0
LINE
  5
252
330
1F
100
AcDbEntity
  8
0
  6
Continuous
 62
     7
370
    35
100
AcDbLine
 10
217.2305659719
 20
222.9905457376
 30
0.0
 11
217.2305659719
 21
222.6905457376
 31
0.0
  0
LINE
  5
253
330
1F
100
AcDbEntity
  8
0
  6
Continuous
 62
     7
370
    35
100
AcDbLine
 10
217.2305659719
 20
179.6905457376
 30
0.0
 11
217.2305659719
 21
179.3905457376
 31
0.0
  0
LINE
  5
254
330
1F
100
AcDbEntity
  8
0
  6
Continuous
 62
     7
370
    35
100
AcDbLine
 10
207.1055659719
 20
180.3905457376
 30
0.0
 11
207.4055659719
 21
180.6905457376
 31
0.0
  0
LINE
  5
255
330
1F
100
AcDbEntity
  8
0
  6
Continuous
 62
     7
370
    35
100
AcDbLine
 10
207.4055659719
 20
221.6905457376
 30
0.0
 11
207.1055659719
 21
221.9905457376
 31
0.0
  0
LINE
  5
256
330
1F
100
AcDbEntity
  8
0
  6
Continuous
 62
     7
370
    35
100
AcDbLine
 10
207.1055659719
 20
180.3905457376
 30
0.0
 11
207.1055659719
 21
221.9905457376
 31
0.0
  0
ARC
  5
257
330
1F
100
AcDbEntity
  8
0
  6
Continuous
 62
     7
370
    35
100
AcDbCircle
 10
213.9305659719
 20
179.8905457376
 30
0.0
 40
0.2000000000000171
100
AcDbArc
 50
180.0
 51
270.0
  0
ARC
  5
258
330
1F
100
AcDbEntity
  8
0
  6
Continuous
 62
     7
370
    35
100
AcDbCircle
 10
213.9305659719
 20
222.4905457376
 30
0.0
 40
0.2000000000000171
100
AcDbArc
 50
90.0
 51
180.0
  0
LINE
  5
259
330
1F
100
AcDbEntity
  8
0
  6
Continuous
 62
     7
370
    35
100
AcDbLine
 10
213.7305659719
 20
221.6905457376
 30
0.0
 11
213.7305659719
 21
180.6905457376
 31
0.0
  0
LINE
  5
25A
330
1F
100
AcDbEntity
  8
0
  6
Continuous
 62
     7
370
    35
100
AcDbLine
 10
213.7305659719
 20
180.6905457376
 30
0.0
 11
207.4055659719
 21
180.6905457376
 31
0.0
  0
LINE
  5
25B
330
1F
100
AcDbEntity
  8
0
  6
Continuous
 62
     7
370
    35
100
AcDbLine
 10
207.4055659719
 20
221.6905457376
 30
0.0
 11
213.7305659719
 21
221.6905457376
 31
0.0
  0
LINE
  5
25C
330
1F
100
AcDbEntity
  8
0
  6
Continuous
 62
     7
370
    35
100
AcDbLine
 10
216.9305659719
 20
179.6905457376
 30
0.0
 11
213.9305659719
 21
179.6905457376
 31
0.0
  0
LINE
  5
25D
330
1F
100
AcDbEntity
  8
0
  6
Continuous
 62
     7
370
    35
100
AcDbLine
 10
213.9305659719
 20
222.6905457376
 30
0.0
 11
216.9305659719
 21
222.6905457376
 31
0.0
  0
LINE
  5
25E
330
1F
100
AcDbEntity
  8
0
  6
Continuous
 62
     7
370
    35
100
AcDbLine
 10
213.7305659719
 20
221.6905457376
 30
0.0
 11
213.7305659719
 21
222.4905457376
 31
0.0
  0
LINE
  5
25F
330
1F
100
AcDbEntity
  8
0
  6
Continuous
 62
     7
370
    35
100
AcDbLine
 10
207.1055659719
 20
223.0437610326
 30
0.0
 11
207.1055659719
 21
221.9905457376
 31
0.0
  0
LINE
  5
260
330
1F
100
AcDbEntity
  8
0
  6
Continuous
 62
     7
370
    35
100
AcDbLine
 10
217.2305659719
 20
222.9905457376
 30
0.0
 11
217.2305659719
 21
223.2395867409
 31
0.0
  0
LINE
  5
261
330
1F
100
AcDbEntity
  8
0
  6
Continuous
 62
     7
370
    18
100
AcDbLine
 10
213.7305659719
 20
179.8905457376
 30
0.0
 11
213.7305659719
 21
180.6905457376
 31
0.0
  0
LINE
  5
262
330
1F
100
AcDbEntity
  8
0
  6
Continuous
 62
     7
370
    18
100
AcDbLine
 10
207.1055659719
 20
180.3905457376
 30
0.0
 11
207.1055659719
 21
179.3373304426
 31
0.0
  0
LINE
  5
263
330
1F
100
AcDbEntity
  8
0
  6
Continuous
 62
     7
370
    35
100
AcDbLine
 10
217.2305659719
 20
179.1415047343
 30
0.0
 11
217.2305659719
 21
179.3905457376
 31
0.0
  0
LINE
  5
264
330
1F
100
AcDbEntity
  8
0
  6
Continuous
 62
     7
370
    35
100
AcDbLine
 10
205.9055659719
 20
180.6905457376
 30
0.0
 11
202.9055659719
 21
180.6905457376
 31
0.0
  0
LINE
  5
265
330
1F
100
AcDbEntity
  8
0
  6
Continuous
 62
     7
370
    35
100
AcDbLine
 10
202.9055659719
 20
221.6905457376
 30
0.0
 11
202.9055659719
 21
180.6905457376
 31
0.0
  0
LINE
  5
266
330
1F
100
AcDbEntity
  8
0
  6
Continuous
 62
     7
370
    35
100
AcDbLine
 10
202.9055659719
 20
221.6905457376
 30
0.0
 11
205.9055659719
 21
221.6905457376
 31
0.0
  0
LINE
  5
267
330
1F
100
AcDbEntity
  8
0
  6
Continuous
 62
     7
370
    35
100
AcDbLine
 10
206.4055659719
 20
222.1905457376
 30
0.0
 11
205.9055659719
 21
221.6905457376
 31
0.0
  0
LINE
  5
268
330
1F
100
AcDbEntity
  8
0
  6
Continuous
 62
     7
370
    35
100
AcDbLine
 10
205.9055659719
 20
180.6905457376
 30
0.0
 11
206.4055659719
 21
180.1905457376
 31
0.0
  0
LINE
  5
269
330
1F
100
AcDbEntity
  8
0
  6
Continuous
 62
     7
370
    35
100
AcDbLine
 10
206.4055659719
 20
222.1905457376
 30
0.0
 11
206.4055659719
 21
180.1905457376
 31
0.0
  0
LINE
  5
26A
330
1F
100
AcDbEntity
  8
0
  6
Continuous
 62
     7
370
    35
100
AcDbLine
 10
202.4055659719
 20
180.1905457376
 30
0.0
 11
202.9055659719
 21
180.6905457376
 31
0.0
  0
LINE
  5
26B
330
1F
100
AcDbEntity
  8
0
  6
Continuous
 62
     7
370
    35
100
AcDbLine
 10
202.9055659719
 20
221.6905457376
 30
0.0
 11
202.4055659719
 21
222.1905457376
 31
0.0
  0
LINE
  5
26C
330
1F
100
AcDbEntity
  8
0
  6
Continuous
 62
     7
370
    35
100
AcDbLine
 10
206.4055659719
 20
179.3725853858
 30
0.0
 11
206.4055659719
 21
180.1905457376
 31
0.0
  0
LINE
  5
26D
330
1F
100
AcDbEntity
  8
0
  6
Continuous
 62
     7
370
    35
100
AcDbLine
 10
202.4055659719
 20
180.1905457376
 30
0.0
 11
202.4055659719
 21
179.6294617678
 31
0.0
  0
LINE
  5
26E
330
1F
100
AcDbEntity
  8
0
  6
Continuous
 62
     7
370
    35
100
AcDbLine
 10
206.4055659719
 20
222.1905457376
 30
0.0
 11
206.4055659719
 21
223.0085060895
 31
0.0
  0
LINE
  5
26F
330
1F
100
AcDbEntity
  8
0
  6
Continuous
 62
     7
370
    35
100
AcDbLine
 10
202.4055659719
 20
222.7516297074
 30
0.0
 11
202.4055659719
 21
222.1905457376
 31
0.0
  0
LINE
  5
270
330
1F
100
AcDbEntity
  8
0
  6
Continuous
 62
     7
370
    35
100
AcDbLine
 10
193.2055659719
 20
191.0841378726
 30
0.0
 11
193.2055659719
 21
196.4641378726
 31
0.0
  0
LINE
  5
271
330
1F
100
AcDbEntity
  8
0
  6
Continuous
 62
     7
370
    35
100
AcDbLine
 10
193.2055659719
 20
179.8805457376
 30
0.0
 11
193.2055659719
 21
184.4641378726
 31
0.0
  0
LINE
  5
272
330
1F
100
AcDbEntity
  8
0
  6
Continuous
 62
     7
370
    35
100
AcDbLine
 10
193.2055659719
 20
222.1880959313
 30
0.0
 11
193.2055659719
 21
222.5005457376
 31
0.0
  0
LINE
  5
273
330
1F
100
AcDbEntity
  8
0
  6
Continuous
 62
     7
370
    35
100
AcDbLine
 10
193.2055659719
 20
217.9169536026
 30
0.0
 11
193.2055659719
 21
222.1880959313
 31
0.0
  0
LINE
  5
274
330
1F
100
AcDbEntity
  8
0
  6
Continuous
 62
     7
370
    35
100
AcDbLine
 10
193.2055659719
 20
211.1652956315
 30
0.0
 11
193.2055659719
 21
211.2969536026
 31
0.0
  0
LINE
  5
275
330
1F
100
AcDbEntity
  8
0
  6
Continuous
 62
     7
370
    35
100
AcDbLine
 10
193.2055659719
 20
205.9169536026
 30
0.0
 11
193.2055659719
 21
211.1652956315
 31
0.0
  0
HATCH
  5
276
330
1F
100
AcDbEntity
  8
0
  6
Continuous
 62
     7
370
    18
100
AcDbHatch
 10
0.0
 20
0.0
 30
0.0
210
0.0
220
0.0
230
1.0
  2
ANSI32
 70
     0
 71
     0
 91
        1
 92
        0
 93
        4
 72
     1
 10
190.4055659719411
 20
164.9878111432332
 11
190.4055659719411
 21
165.4492652533657
 72
     1
 10
190.4055659719411
 20
165.4492652533657
 11
189.9055659719411
 21
165.4492652533657
 72
     1
 10
189.9055659719411
 20
165.4492652533657
 11
189.9055659719411
 21
164.3449912526778
 72
     3
 10
166.2046536124545
 20
201.1905457376221
 11
0.0
 21
-49.58729077497487
 40
0.7141860341001147
 50
32.75116079162382
 51
33.76205408424506
 73
     1
 97
        0
 75
     0
 76
     1
 52
0.0
 41
1.0
 77
     0
 78
     2
 53
45.0
 43
0.0
 44
0.0
 45
-6.735192090801866
 46
6.735192090801866
 79
     0
 53
45.0
 43
4.49013
 44
0.0
 45
-6.735192090801866
 46
6.735192090801866
 79
     0
 98
        1
 10
0.0
 20
0.0
  0
HATCH
  5
277
330
1F
100
AcDbEntity
  8
0
  6
Continuous
 62
     7
370
    18
100
AcDbHatch
 10
0.0
 20
0.0
 30
0.0
210
0.0
220
0.0
230
1.0
  2
ANSI32
 70
     0
 71
     0
 91
        1
 92
        0
 93
        3
 72
     3
 10
166.2046536124545
 20
201.1905457376221
 11
0.0
 21
-49.58729077497487
 40
0.7141860341001147
 50
326.2379459157557
 51
327.2488392083769
 73
     0
 72
     4
 94
        3
 73
     1
 74
     0
 95
        8
 96
        4
 40
0.0
 40
0.0
 40
0.0
 40
0.0
 40
0.0119344690280526
 40
0.0119344690280526
 40
0.0119344690280526
 40
0.0119344690280526
 10
189.9055659719412
 20
164.3449912526779
 42
1.0
 10
190.8541461449305
 20
165.5412670162437
 42
1.0
 10
192.1206989902272
 20
167.2787821090502
 42
1.0
 10
193.4055659719412
 20
169.4366343597977
 42
1.0
 72
     4
 94
        3
 73
     1
 74
     0
 95
        8
 96
        4
 40
0.0
 40
0.0
 40
0.0
 40
0.0
 40
0.010460028847695
 40
0.010460028847695
 40
0.010460028847695
 40
0.010460028847695
 10
193.4055659719409
 20
169.4366343597972
 42
1.0
 10
192.3070584627262
 20
167.5917609721567
 42
1.0
 10
191.2393491849912
 20
166.0805611122767
 42
1.0
 10
190.4055659719412
 20
164.9878111432332
 42
1.0
 97
        0
 75
     0
 76
     1
 52
0.0
 41
1.0
 77
     0
 78
     2
 53
45.0
 43
0.0
 44
0.0
 45
-6.735192090801866
 46
6.735192090801866
 79
     0
 53
45.0
 43
4.49013
 44
0.0
 45
-6.735192090801866
 46
6.735192090801866
 79
     0
 98
        1
 10
0.0
 20
0.0
  0
HATCH
  5
278
330
1F
100
AcDbEntity
  8
0
  6
Continuous
 62
     7
370
    18
100
AcDbHatch
 10
0.0
 20
0.0
 30
0.0
210
0.0
220
0.0
230
1.0
  2
ANSI32
 70
     0
 71
     0
 91
        1
 92
        0
 93
        3
 72
     4
 94
        3
 73
     1
 74
     0
 95
        8
 96
        4
 40
0.0
 40
0.0
 40
0.0
 40
0.0
 40
0.0104600288476959
 40
0.0104600288476959
 40
0.0104600288476959
 40
0.0104600288476959
 10
190.4055659719412
 20
237.3932803320109
 42
1.0
 10
191.2393491849913
 20
236.3005303629673
 42
1.0
 10
192.3070584627263
 20
234.7893305030871
 42
1.0
 10
193.4055659719412
 20
232.9444571154464
 42
1.0
 72
     4
 94
        3
 73
     1
 74
     0
 95
        8
 96
        4
 40
0.0
 40
0.0
 40
0.0
 40
0.0
 40
0.0119344690280527
 40
0.0119344690280527
 40
0.0119344690280527
 40
0.0119344690280527
 10
193.4055659719413
 20
232.9444571154464
 42
1.0
 10
192.1206989902272
 20
235.1023093661939
 42
1.0
 10
190.8541461449305
 20
236.8398244590005
 42
1.0
 10
189.9055659719412
 20
238.0361002225663
 42
1.0
 72
     3
 10
166.2046536124545
 20
201.1905457376221
 11
0.0
 21
-49.58729077497487
 40
0.7141860341001147
 50
212.7511607916246
 51
213.7620540842458
 73
     0
 97
        0
 75
     0
 76
     1
 52
0.0
 41
1.0
 77
     0
 78
     2
 53
45.0
 43
0.0
 44
0.0
 45
-6.735192090801866
 46
6.735192090801866
 79
     0
 53
45.0
 43
4.49013
 44
0.0
 45
-6.735192090801866
 46
6.735192090801866
 79
     0
 98
        1
 10
0.0
 20
0.0
  0
HATCH
  5
279
330
1F
100
AcDbEntity
  8
0
  6
Continuous
 62
     7
370
    18
100
AcDbHatch
 10
0.0
 20
0.0
 30
0.0
210
0.0
220
0.0
230
1.0
  2
ANSI32
 70
     0
 71
     0
 91
        1
 92
        0
 93
        4
 72
     1
 10
190.4055659719411
 20
236.9318262218785
 11
190.4055659719411
 21
237.393280332011
 72
     3
 10
166.2046536124545
 20
201.1905457376221
 11
0.0
 21
-49.58729077497487
 40
0.7141860341001147
 50
146.237945915755
 51
147.2488392083762
 73
     1
 72
     1
 10
189.9055659719411
 20
238.0361002225664
 11
189.9055659719411
 21
236.9318262218785
 72
     1
 10
189.9055659719411
 20
236.9318262218785
 11
190.4055659719411
 21
236.9318262218785
 97
        0
 75
     0
 76
     1
 52
0.0
 41
1.0
 77
     0
 78
     2
 53
45.0
 43
0.0
 44
0.0
 45
-6.735192090801866
 46
6.735192090801866
 79
     0
 53
45.0
 43
4.49013
 44
0.0
 45
-6.735192090801866
 46
6.735192090801866
 79
     0
 98
        1
 10
0.0
 20
0.0
  0
HATCH
  5
27A
330
1F
100
AcDbEntity
  8
0
  6
Continuous
 62
     7
370
    18
100
AcDbHatch
 10
0.0
 20
0.0
 30
0.0
210
0.0
220
0.0
230
1.0
  2
ANSI31
 70
     0
 71
     0
 91
        1
 92
        0
 93
        3
 72
     4
 94
        3
 73
     1
 74
     0
 95
       38
 96
       34
 40
0.0000007938375228
 40
0.0000007938375228
 40
0.0000007938375228
 40
0.0000007938375228
 40
0.0003003502774628
 40
0.0003003502774628
 40
0.0003003502774628
 40
0.0004506968329306
 40
0.0004506968329306
 40
0.0004506968329306
 40
0.0005260307677095
 40
0.0005260307677095
 40
0.0005260307677095
 40
0.0005579588373958
 40
0.0005579588373958
 40
0.0005579588373958
 40
0.0005905258361578
 40
0.0005905258361578
 40
0.0005905258361578
 40
0.0006105705811463
 40
0.0006105705811463
 40
0.0006105705811463
 40
0.0006305907108415
 40
0.0006305907108415
 40
0.0006305907108415
 40
0.0006595785657557
 40
0.0006595785657557
 40
0.0006595785657557
 40
0.0007138299961412
 40
0.0007138299961412
 40
0.0007138299961412
 40
0.0008958874706486
 40
0.0008958874706486
 40
0.0008958874706486
 40
0.0010394214927558
 40
0.0010394214927558
 40
0.0010394214927558
 40
0.0010394214927558
 10
235.2055659719409
 20
224.8653824857097
 42
1.0
 10
235.230699883136
 20
224.8964274402014
 42
1.0
 10
235.2578786849535
 20
224.9293866150587
 42
1.0
 10
235.2903845331016
 20
224.9676456303201
 42
1.0
 10
235.3066989803268
 20
224.9868475500031
 42
1.0
 10
235.3243556767109
 20
225.007392919505
 42
1.0
 10
235.3453854924577
 20
225.0314040133094
 42
1.0
 10
235.3559238857319
 20
225.0434363750049
 42
1.0
 10
235.3674093310288
 20
225.0564531542593
 42
1.0
 10
235.3806802736872
 20
225.0713178652192
 42
1.0
 10
235.3863281453056
 20
225.0776440156146
 42
1.0
 10
235.3923638413578
 20
225.0843758940758
 42
1.0
 10
235.3988219384137
 20
225.0915393615217
 42
1.0
 10
235.4053512227588
 20
225.0987817915202
 42
1.0
 10
235.4125364996887
 20
225.106711630246
 42
1.0
 10
235.4198045038115
 20
225.1146836443299
 42
1.0
 10
235.424318586397
 20
225.1196349802592
 42
1.0
 10
235.4289534962026
 20
225.1246999842242
 42
1.0
 10
235.4333163758265
 20
225.129451269552
 42
1.0
 10
235.4376787966744
 20
225.1342020552612
 42
1.0
 10
235.4418670220306
 20
225.1387461500561
 42
1.0
 10
235.4456305094684
 20
225.1428180925313
 42
1.0
 10
235.4510639780661
 20
225.1486968876479
 42
1.0
 10
235.4557865842612
 20
225.1537818117104
 42
1.0
 10
235.4598247607897
 20
225.1581184399643
 42
1.0
 10
235.4673590340183
 20
225.1662095528528
 42
1.0
 10
235.4729087830194
 20
225.1721270654982
 42
1.0
 10
235.4774297711403
 20
225.1769376374651
 42
1.0
 10
235.4924745812032
 20
225.1929461160545
 42
1.0
 10
235.4980589659049
 20
225.1987741859095
 42
1.0
 10
235.5016658242029
 20
225.2025639867203
 42
1.0
 10
235.5045077454811
 20
225.2055500523415
 42
1.0
 10
235.5055659719412
 20
225.2066578148148
 42
1.0
 10
235.5055659719412
 20
225.2066578148148
 42
1.0
 72
     4
 94
        3
 73
     1
 74
     0
 95
       11
 96
        7
 40
0.0
 40
0.0
 40
0.0
 40
0.0
 40
0.0020848498085844
 40
0.0020848498085844
 40
0.0020848498085844
 40
0.0055970218813534
 40
0.0055970218813534
 40
0.0055970218813534
 40
0.0055970218813534
 10
235.5055659719411
 20
225.2066578148148
 42
1.0
 10
235.2233611611861
 20
224.9107378832285
 42
1.0
 10
234.9759812867455
 20
224.5870166150668
 42
1.0
 10
234.764674896471
 20
224.2372926735596
 42
1.0
 10
234.4118073077514
 20
223.6532769994623
 42
1.0
 10
234.1549456328642
 20
222.9890240817873
 42
1.0
 10
234.0335861706873
 20
222.2614820518128
 42
1.0
 72
     4
 94
        3
 73
     1
 74
     0
 95
       11
 96
        7
 40
0.0008833767919195
 40
0.0008833767919195
 40
0.0008833767919195
 40
0.0008833767919195
 40
0.0056743811547489
 40
0.0056743811547489
 40
0.0056743811547489
 40
0.0070087944113821
 40
0.0070087944113821
 40
0.0070087944113821
 40
0.0070087944113821
 10
234.0335861706873
 20
222.2614820518128
 42
1.0
 10
234.1764182052755
 20
223.1177507475178
 42
1.0
 10
234.4987749211467
 20
223.8392121092896
 42
1.0
 10
234.8759518897383
 20
224.4139414835846
 42
1.0
 10
234.9819035628009
 20
224.5753870219804
 42
1.0
 10
235.0926123238126
 20
224.7258641736333
 42
1.0
 10
235.2055659719412
 20
224.86538248571
 42
1.0
 97
        0
 75
     0
 76
     1
 52
0.0
 41
1.0
 77
     0
 78
     1
 53
45.0
 43
0.0
 44
0.0
 45
-2.245064030267288
 46
2.245064030267288
 79
     0
 98
        1
 10
0.0
 20
0.0
  0
HATCH
  5
27B
330
1F
100
AcDbEntity
  8
0
  6
Continuous
 62
     7
370
    18
100
AcDbHatch
 10
0.0
 20
0.0
 30
0.0
210
0.0
220
0.0
230
1.0
  2
ANSI31
 70
     0
 71
     0
 91
        1
 92
        0
 93
        3
 72
     4
 94
        3
 73
     1
 74
     0
 95
       17
 96
       13
 40
0.0006351380839851
 40
0.0006351380839851
 40
0.0006351380839851
 40
0.0006351380839851
 40
0.0007042811851516
 40
0.0007042811851516
 40
0.0007042811851516
 40
0.0009747594503815
 40
0.0009747594503815
 40
0.0009747594503815
 40
0.0014361939266555
 40
0.0014361939266555
 40
0.0014361939266555
 40
0.0015967966932879
 40
0.0015967966932879
 40
0.0015967966932879
 40
0.0015967966932879
 10
235.5055659719412
 20
225.2066578148149
 42
1.0
 10
235.5055659719412
 20
225.2066578148149
 42
1.0
 10
235.5043922290952
 20
225.2054277629421
 42
1.0
 10
235.5023732368122
 20
225.2033071435636
 42
1.0
 10
235.4945336322845
 20
225.1950729281974
 42
1.0
 10
235.4745352362547
 20
225.1740330239016
 42
1.0
 10
235.4494549998787
 20
225.1469518683818
 42
1.0
 10
235.4069104324239
 20
225.101013064995
 42
1.0
 10
235.3475904136304
 20
225.0353942900627
 42
1.0
 10
235.2802287882243
 20
224.9556584169731
 42
1.0
 10
235.2565151325415
 20
224.9275885919264
 42
1.0
 10
235.2315722828664
 20
224.8975050126381
 42
1.0
 10
235.2055659719416
 20
224.8653824857107
 42
1.0
 72
     4
 94
        3
 73
     1
 74
     0
 95
       11
 96
        7
 40
0.0
 40
0.0
 40
0.0
 40
0.0
 40
0.0020846898048502
 40
0.0020846898048502
 40
0.0020846898048502
 40
0.0038048436353237
 40
0.0038048436353237
 40
0.0038048436353237
 40
0.0038048436353237
 10
235.2055659719412
 20
224.8653824857099
 42
1.0
 10
234.8685155559678
 20
224.4490638815706
 42
1.0
 10
234.5971232900005
 20
223.9921482955063
 42
1.0
 10
234.3942465848563
 20
223.5090214226184
 42
1.0
 10
234.2274150530388
 20
223.1117318658465
 42
1.0
 10
234.1055797695251
 20
222.6930789632038
 42
1.0
 10
234.0335861706873
 20
222.2614820518128
 42
1.0
 72
     4
 94
        3
 73
     1
 74
     0
 95
       11
 96
        7
 40
0.0010954305088048
 40
0.0010954305088048
 40
0.0010954305088048
 40
0.0010954305088048
 40
0.0035254919338151
 40
0.0035254919338151
 40
0.0035254919338151
 40
0.0057515938249006
 40
0.0057515938249006
 40
0.0057515938249006
 40
0.0057515938249006
 10
234.0335861706873
 20
222.2614820518128
 42
1.0
 10
234.1302916447912
 20
222.841225037462
 42
1.0
 10
234.316016144142
 20
223.3938689667897
 42
1.0
 10
234.5780707938105
 20
223.9031828417474
 42
1.0
 10
234.8197230151426
 20
224.3728437670336
 42
1.0
 10
235.1286946882958
 20
224.8114706308162
 42
1.0
 10
235.5055659719412
 20
225.2066578148149
 42
1.0
 97
        0
 75
     0
 76
     1
 52
0.0
 41
1.0
 77
     0
 78
     1
 53
45.0
 43
0.0
 44
0.0
 45
-2.245064030267288
 46
2.245064030267288
 79
     0
 98
        1
 10
0.0
 20
0.0
  0
HATCH
  5
27C
330
1F
100
AcDbEntity
  8
0
  6
Continuous
 62
     7
370
    18
100
AcDbHatch
 10
0.0
 20
0.0
 30
0.0
210
0.0
220
0.0
230
1.0
  2
ANSI31
 70
     0
 71
     0
 91
        1
 92
        0
 93
        5
 72
     4
 94
        3
 73
     1
 74
     0
 95
        8
 96
        4
 40
0.0002010756033159
 40
0.0002010756033159
 40
0.0002010756033159
 40
0.0002010756033159
 40
0.0023022861096423
 40
0.0023022861096423
 40
0.0023022861096423
 40
0.0023022861096423
 10
237.5055659719412
 20
226.5524906635744
 42
1.0
 10
237.1584527278412
 20
226.4156505219147
 42
1.0
 10
236.8241665027718
 20
226.2440635309089
 42
1.0
 10
236.5055659719411
 20
226.0368502720477
 42
1.0
 72
     4
 94
        3
 73
     1
 74
     0
 95
       14
 96
       10
 40
0.0
 40
0.0
 40
0.0
 40
0.0
 40
0.0014769900551842
 40
0.0014769900551842
 40
0.0014769900551842
 40
0.0041070757490711
 40
0.0041070757490711
 40
0.0041070757490711
 40
0.0054359303760805
 40
0.0054359303760805
 40
0.0054359303760805
 40
0.0054359303760805
 10
236.5055659719411
 20
226.0368502720477
 42
1.0
 10
236.1299853635729
 20
225.792577980278
 42
1.0
 10
235.7921939741537
 20
225.5084272859274
 42
1.0
 10
235.497908290575
 20
225.1986120192854
 42
1.0
 10
234.9786770067485
 20
224.6519806755813
 42
1.0
 10
234.5815018922439
 20
224.0109681468188
 42
1.0
 10
234.322821229834
 20
223.3304015180044
 42
1.0
 10
234.1918112866901
 20
222.9857255978333
 42
1.0
 10
234.0945783332469
 20
222.6271260730149
 42
1.0
 10
234.0335861706872
 20
222.2614820518129
 42
1.0
 72
     4
 94
        3
 73
     1
 74
     0
 95
       11
 96
        7
 40
0.0011417450162135
 40
0.0011417450162135
 40
0.0011417450162135
 40
0.0011417450162135
 40
0.0023026503466589
 40
0.0023026503466589
 40
0.0023026503466589
 40
0.0051455069185975
 40
0.0051455069185975
 40
0.0051455069185975
 40
0.0051455069185975
 10
234.0335861706873
 20
222.2614820518128
 42
1.0
 10
234.0824303028648
 20
222.5542994262416
 42
1.0
 10
234.1541788834679
 20
222.8409672617631
 42
1.0
 10
234.2471971971282
 20
223.1187549687974
 42
1.0
 10
234.4738110037381
 20
223.7955091179898
 42
1.0
 10
234.8294788283067
 20
224.429806500624
 42
1.0
 10
235.3055659719411
 20
224.985438619336
 42
1.0
 72
     4
 94
        3
 73
     1
 74
     0
 95
        8
 96
        4
 40
0.0
 40
0.0
 40
0.0
 40
0.0
 40
0.0016478432289585
 40
0.0016478432289585
 40
0.0016478432289585
 40
0.0016478432289585
 10
235.305565971941
 20
224.9854386193359
 42
1.0
 10
235.5890928768682
 20
225.3163373991136
 42
1.0
 10
235.9190956814527
 20
225.623458587336
 42
1.0
 10
236.2955659719412
 20
225.8933842141266
 42
1.0
 72
     4
 94
        3
 73
     1
 74
     0
 95
        8
 96
        4
 40
0.0
 40
0.0
 40
0.0
 40
0.0
 40
0.0015913909755657
 40
0.0015913909755657
 40
0.0015913909755657
 40
0.0015913909755657
 10
236.2955659719411
 20
225.8933842141266
 42
1.0
 10
236.6517971532929
 20
226.1487985916701
 42
1.0
 10
237.0568329069982
 20
226.3755896169623
 42
1.0
 10
237.5055659719411
 20
226.5524906635744
 42
1.0
 97
        0
 75
     0
 76
     1
 52
0.0
 41
1.0
 77
     0
 78
     1
 53
45.0
 43
0.0
 44
0.0
 45
-2.245064030267288
 46
2.245064030267288
 79
     0
 98
        1
 10
0.0
 20
0.0
  0
HATCH
  5
27D
330
1F
100
AcDbEntity
  8
0
  6
Continuous
 62
     7
370
    18
100
AcDbHatch
 10
0.0
 20
0.0
 30
0.0
210
0.0
220
0.0
230
1.0
  2
ANSI31
 70
     0
 71
     0
 91
        1
 92
        0
 93
       10
 72
     2
 10
203.2055659719412
 20
246.0905457376224
 40
0.2000000000000011
 50
239.9999999999971
 51
360.0000000000008
 73
     0
 72
     1
 10
203.4055659719411
 20
246.0905457376224
 11
203.4055659719411
 21
244.9405457376221
 72
     1
 10
203.4055659719411
 20
244.9405457376221
 11
210.9055659719411
 21
244.9405457376221
 72
     1
 10
210.9055659719411
 20
244.9405457376221
 11
210.9055659719411
 21
247.1905457376221
 72
     1
 10
210.9055659719411
 20
247.1905457376221
 11
210.4055659719412
 21
247.690545737622
 72
     1
 10
210.4055659719412
 20
247.690545737622
 11
200.405565971941
 21
247.690545737622
 72
     1
 10
200.405565971941
 20
247.690545737622
 11
200.405565971941
 21
246.6905457376224
 72
     1
 10
200.405565971941
 20
246.6905457376224
 11
200.905565971941
 21
246.1905457376224
 72
     1
 10
200.905565971941
 20
246.1905457376224
 11
202.978771052698
 21
246.1905457376224
 72
     1
 10
202.978771052698
 20
246.1905457376224
 11
203.1055659719411
 21
246.2637508183793
 97
        0
 75
     0
 76
     1
 52
0.0
 41
0.25
 77
     0
 78
     1
 53
45.0
 43
0.0
 44
0.0
 45
-0.5612660075668221
 46
0.5612660075668221
 79
     0
 98
        1
 10
0.0
 20
0.0
  0
HATCH
  5
27E
330
1F
100
AcDbEntity
  8
0
  6
Continuous
 62
     7
370
    18
100
AcDbHatch
 10
0.0
 20
0.0
 30
0.0
210
0.0
220
0.0
230
1.0
  2
ANSI31
 70
     0
 71
     0
 91
        1
 92
        0
 93
        7
 72
     4
 94
        3
 73
     1
 74
     0
 95
       29
 96
       25
 40
0.0
 40
0.0
 40
0.0
 40
0.0
 40
0.0001286904264703
 40
0.0001286904264703
 40
0.0001286904264703
 40
0.0003074486583544
 40
0.0003074486583544
 40
0.0003074486583544
 40
0.0004002340886622
 40
0.0004002340886622
 40
0.0004002340886622
 40
0.000454186918258
 40
0.000454186918258
 40
0.000454186918258
 40
0.0004877067786937
 40
0.0004877067786937
 40
0.0004877067786937
 40
0.0005268298394119
 40
0.0005268298394119
 40
0.0005268298394119
 40
0.0005703470192188
 40
0.0005703470192188
 40
0.0005703470192188
 40
0.0006131957326167
 40
0.0006131957326167
 40
0.0006131957326167
 40
0.0006131957326167
 10
203.4055659719421
 20
240.2955865480453
 42
1.0
 10
203.4055659719421
 20
240.2955865480453
 42
1.0
 10
203.402278096047
 20
240.2954131046183
 42
1.0
 10
203.3954768878512
 20
240.2950562106595
 42
1.0
 10
203.3860862006917
 20
240.2945634335794
 42
1.0
 10
203.3701123255852
 20
240.2937247729415
 42
1.0
 10
203.3438085120176
 20
240.2923688136287
 42
1.0
 10
203.3300906378629
 20
240.2916616584033
 42
1.0
 10
203.3132341196182
 20
240.2907970183614
 42
1.0
 10
203.291947417138
 20
240.2897194369944
 42
1.0
 10
203.2795275140648
 20
240.2890907132104
 42
1.0
 10
203.2652860654432
 20
240.2883738854704
 42
1.0
 10
203.249428953422
 20
240.2875832106164
 42
1.0
 10
203.2395256076607
 20
240.2870894052846
 42
1.0
 10
203.2288139446831
 20
240.2865580091655
 42
1.0
 10
203.2178085414436
 20
240.2860154666112
 42
1.0
 10
203.205061779306
 20
240.285387078833
 42
1.0
 10
203.1915481439635
 20
240.2847255785884
 42
1.0
 10
203.1787479962843
 20
240.2841034809188
 42
1.0
 10
203.1645169842798
 20
240.2834118420701
 42
1.0
 10
203.1507105028809
 20
240.282746509166
 42
1.0
 10
203.1384650767413
 20
240.2821601670425
 42
1.0
 10
203.1263277190906
 20
240.2815789995128
 42
1.0
 10
203.1153345960521
 20
240.2810565382743
 42
1.0
 10
203.1055659719412
 20
240.2805945181985
 42
1.0
 72
     4
 94
        3
 73
     1
 74
     0
 95
        8
 96
        4
 40
0.0
 40
0.0
 40
0.0
 40
0.0
 40
0.0001868669786681
 40
0.0001868669786681
 40
0.0001868669786681
 40
0.0001868669786681
 10
203.1055659719412
 20
240.2805945181986
 42
1.0
 10
203.0632106794465
 20
240.2785912682808
 42
1.0
 10
203.0209453716164
 20
240.2766402079109
 42
1.0
 10
202.9787710526981
 20
240.2747406604013
 42
1.0
 72
     4
 94
        3
 73
     1
 74
     0
 95
        8
 96
        4
 40
0.0
 40
0.0
 40
0.0
 40
0.0
 40
0.0020762201760021
 40
0.0020762201760021
 40
0.0020762201760021
 40
0.0020762201760021
 10
202.9787710526981
 20
240.2747406604013
 42
1.0
 10
202.2895378238393
 20
240.2436973312627
 42
1.0
 10
201.5975339760881
 20
240.2251952746983
 42
1.0
 10
200.9055659719411
 20
240.2191834310314
 42
1.0
 72
     4
 94
        3
 73
     1
 74
     0
 95
        8
 96
        4
 40
0.0
 40
0.0
 40
0.0
 40
0.0
 40
0.001110764438938
 40
0.001110764438938
 40
0.001110764438938
 40
0.001110764438938
 10
200.9055659719411
 20
240.2191834310314
 42
1.0
 10
200.741564130627
 20
240.2177585769556
 42
1.0
 10
200.574855399585
 20
240.2170117310379
 42
1.0
 10
200.4055659719409
 20
240.2170117310379
 42
1.0
 72
     4
 94
        3
 73
     1
 74
     0
 95
       14
 96
       10
 40
0.0
 40
0.0
 40
0.0
 40
0.0
 40
0.0032719909225041
 40
0.0032719909225041
 40
0.0032719909225041
 40
0.0065047430579015
 40
0.0065047430579015
 40
0.0065047430579015
 40
0.0102063903309599
 40
0.0102063903309599
 40
0.0102063903309599
 40
0.0102063903309599
 10
200.4055659719409
 20
240.2170117310379
 42
1.0
 10
201.4962296127757
 20
240.2170117310379
 42
1.0
 10
202.5884742010781
 20
240.2479910515756
 42
1.0
 10
203.673028009617
 20
240.31031215073
 42
1.0
 10
204.7444591957717
 20
240.3718791920919
 42
1.0
 10
205.8116808228519
 20
240.464245435617
 42
1.0
 10
206.8635388488885
 20
240.5882832566556
 42
1.0
 10
208.0667608643195
 20
240.7301703111111
 42
1.0
 10
209.2558557180728
 20
240.9143426889641
 42
1.0
 10
210.4055659719413
 20
241.1416115819508
 42
1.0
 72
     4
 94
        3
 73
     1
 74
     0
 95
        8
 96
        4
 40
0.0
 40
0.0
 40
0.0
 40
0.0
 40
0.00127863400672
 40
0.00127863400672
 40
0.00127863400672
 40
0.00127863400672
 10
210.4055659719412
 20
241.1416115819508
 42
1.0
 10
210.5758379596355
 20
241.175270085056
 42
1.0
 10
210.7425550400155
 20
241.2093397885285
 42
1.0
 10
210.9055659719412
 20
241.2436974332773
 42
1.0
 72
     3
 10
200.405565971941
 20
247.8439842504923
 11
20.95376648382984
 21
0.0
 40
0.3639905276858073
 50
32.15341697174429
 51
68.32537851101189
 73
     0
 97
        0
 75
     0
 76
     1
 52
0.0
 41
0.25
 77
     0
 78
     1
 53
45.0
 43
0.0
 44
0.0
 45
-0.5612660075668221
 46
0.5612660075668221
 79
     0
 98
        1
 10
0.0
 20
0.0
  0
HATCH
  5
27F
330
1F
100
AcDbEntity
  8
0
  6
Continuous
 62
     7
370
    18
100
AcDbHatch
 10
0.0
 20
0.0
 30
0.0
210
0.0
220
0.0
230
1.0
  2
ANSI31
 70
     0
 71
     0
 91
        1
 92
        0
 93
        4
 72
     1
 10
210.9055659719411
 20
241.2436974332773
 11
210.9055659719411
 21
241.4405457376221
 72
     1
 10
210.9055659719411
 20
241.4405457376221
 11
203.4055659719411
 21
241.4405457376221
 72
     1
 10
203.4055659719411
 20
241.4405457376221
 11
203.4055659719411
 21
240.2955865480453
 72
     3
 10
200.405565971941
 20
247.8439842504923
 11
20.95376648382984
 21
0.0
 40
0.3639905276858073
 50
291.6746214889889
 51
327.8465830282565
 73
     1
 97
        0
 75
     0
 76
     1
 52
0.0
 41
0.25
 77
     0
 78
     1
 53
45.0
 43
0.0
 44
0.0
 45
-0.5612660075668221
 46
0.5612660075668221
 79
     0
 98
        1
 10
0.0
 20
0.0
  0
HATCH
  5
280
330
1F
100
AcDbEntity
  8
0
  6
Continuous
 62
     7
370
    18
100
AcDbHatch
 10
0.0
 20
0.0
 30
0.0
210
0.0
220
0.0
230
1.0
  2
ANSI31
 70
     0
 71
     0
 91
        1
 92
        0
 93
        8
 72
     1
 10
189.4055659719411
 20
245.5846805791531
 11
189.4055659719411
 21
245.290545737622
 72
     1
 10
189.4055659719411
 20
245.290545737622
 11
189.7555659719412
 21
244.940545737622
 72
     1
 10
189.7555659719412
 20
244.940545737622
 11
203.0555659719411
 21
244.940545737622
 72
     1
 10
203.0555659719411
 20
244.940545737622
 11
203.4055659719411
 21
245.2905457376221
 72
     1
 10
203.4055659719411
 20
245.2905457376221
 11
203.4055659719411
 21
245.5846805791532
 72
     2
 10
202.0555659719411
 20
244.9308457376221
 40
1.5
 50
25.84193276316698
 51
57.11900613861467
 73
     1
 72
     1
 10
202.8699098243769
 20
246.190545737622
 11
189.9412221195053
 21
246.190545737622
 72
     2
 10
190.7555659719411
 20
244.9308457376221
 40
1.5
 50
122.8809938613853
 51
154.1580672368335
 73
     1
 97
        0
 75
     0
 76
     1
 52
0.0
 41
0.25
 77
     0
 78
     1
 53
45.0
 43
0.0
 44
0.0
 45
-0.5612660075668221
 46
0.5612660075668221
 79
     0
 98
        1
 10
0.0
 20
0.0
  0
HATCH
  5
281
330
1F
100
AcDbEntity
  8
0
  6
Continuous
 62
     7
370
    18
100
AcDbHatch
 10
0.0
 20
0.0
 30
0.0
210
0.0
220
0.0
230
1.0
  2
ANSI31
 70
     0
 71
     0
 91
        1
 92
        0
 93
        6
 72
     4
 94
        3
 73
     1
 74
     0
 95
       11
 96
        7
 40
0.0
 40
0.0
 40
0.0
 40
0.0
 40
0.0007968007393895
 40
0.0007968007393895
 40
0.0007968007393895
 40
0.0010398331150693
 40
0.0010398331150693
 40
0.0010398331150693
 40
0.0010398331150693
 10
189.6200075157573
 20
241.3049872814382
 42
1.0
 10
189.6200075157572
 20
241.3049872814382
 42
1.0
 10
189.5710020234458
 20
241.3156370069582
 42
1.0
 10
189.4894557430393
 20
241.3337527352963
 42
1.0
 10
189.4643132936822
 20
241.3393381989132
 42
1.0
 10
189.4361467473525
 20
241.3456220749275
 42
1.0
 10
189.4055659719412
 20
241.3524876434787
 42
1.0
 72
     4
 94
        3
 73
     1
 74
     0
 95
        8
 96
        4
 40
0.0
 40
0.0
 40
0.0
 40
0.0
 40
0.0017003524824572
 40
0.0017003524824572
 40
0.0017003524824572
 40
0.0017003524824572
 10
189.4055659719412
 20
241.3524876434787
 42
1.0
 10
189.5101407348014
 20
241.329009978394
 42
1.0
 10
189.6704103207674
 20
241.2930195853758
 42
1.0
 10
189.9412221195054
 20
241.236199243387
 42
1.0
 72
     4
 94
        3
 73
     1
 74
     0
 95
       14
 96
       10
 40
0.0
 40
0.0
 40
0.0
 40
0.0
 40
0.0043103657707524
 40
0.0043103657707524
 40
0.0043103657707524
 40
0.0084932410267448
 40
0.0084932410267448
 40
0.0084932410267448
 40
0.0132040116136709
 40
0.0132040116136709
 40
0.0132040116136709
 40
0.0132040116136709
 10
189.9412221195054
 20
241.236199243387
 42
1.0
 10
191.2465456937193
 20
240.9623229490805
 42
1.0
 10
192.6222126793648
 20
240.742616772294
 42
1.0
 10
194.0190436260471
 20
240.57990906792
 42
1.0
 10
195.3761362366088
 20
240.4218302225079
 42
1.0
 10
196.7643492645817
 20
240.3157935706391
 42
1.0
 10
198.1559028020783
 20
240.2610966391865
 42
1.0
 10
199.7223418135029
 20
240.1995255929249
 42
1.0
 10
201.3044685228415
 20
240.2024603363794
 42
1.0
 10
202.869909824377
 20
240.2699427451414
 42
1.0
 72
     4
 94
        3
 73
     1
 74
     0
 95
       11
 96
        7
 40
0.0
 40
0.0
 40
0.0
 40
0.0
 40
0.0009636232817971
 40
0.0009636232817971
 40
0.0009636232817971
 40
0.001404369613383
 40
0.001404369613383
 40
0.001404369613383
 40
0.001404369613383
 10
202.869909824377
 20
240.2699427451414
 42
1.0
 10
203.0583846582884
 20
240.2780674418457
 42
1.0
 10
203.1906283023721
 20
240.2845952413234
 42
1.0
 10
203.2892568384263
 20
240.2895832984798
 42
1.0
 10
203.3347514865133
 20
240.2918841529186
 42
1.0
 10
203.3731503005963
 20
240.2938796732504
 42
1.0
 10
203.4055659719412
 20
240.2955865480453
 42
1.0
 72
     4
 94
        3
 73
     1
 74
     0
 95
        8
 96
        4
 40
0.0000000000000003
 40
0.0000000000000003
 40
0.0000000000000003
 40
0.0000000000000003
 40
0.0027287063967406
 40
0.0027287063967406
 40
0.0027287063967406
 40
0.0027287063967406
 10
203.4055659719411
 20
240.2955865480453
 42
1.0
 10
203.3389657002412
 20
240.2920796539912
 42
1.0
 10
203.3054234839803
 20
240.2904032496612
 42
1.0
 10
203.3054234839803
 20
240.2904032496612
 42
1.0
 72
     3
 10
200.405565971941
 20
247.8439842504923
 11
20.95376648382984
 21
-2.066200899527963E-29
 40
0.3639905276858073
 50
68.99795435714489
 51
148.7726820346851
 73
     0
 97
        0
 75
     0
 76
     1
 52
0.0
 41
0.25
 77
     0
 78
     1
 53
45.0
 43
0.0
 44
0.0
 45
-0.5612660075668221
 46
0.5612660075668221
 79
     0
 98
        1
 10
0.0
 20
0.0
  0
HATCH
  5
282
330
1F
100
AcDbEntity
  8
0
  6
Continuous
 62
     7
370
    18
100
AcDbHatch
 10
0.0
 20
0.0
 30
0.0
210
0.0
220
0.0
230
1.0
  2
ANSI31
 70
     0
 71
     0
 91
        1
 92
        0
 93
        6
 72
     1
 10
203.4055659719411
 20
240.3905457376221
 11
203.4055659719411
 21
241.0905457376221
 72
     1
 10
203.4055659719411
 20
241.0905457376221
 11
203.0555659719411
 21
241.4405457376221
 72
     1
 10
203.0555659719411
 20
241.4405457376221
 11
189.7555659719412
 21
241.4405457376221
 72
     1
 10
189.7555659719412
 20
241.4405457376221
 11
189.6200075157573
 21
241.3049872814382
 72
     3
 10
200.405565971941
 20
247.8439842504923
 11
20.95376648382984
 21
-2.066200899527963E-29
 40
0.3639905276858073
 50
211.2273179653157
 51
291.0020456428559
 73
     1
 72
     1
 10
203.3054234839804
 20
240.2904032496613
 11
203.4055659719411
 21
240.3905457376221
 97
        0
 75
     0
 76
     1
 52
0.0
 41
0.25
 77
     0
 78
     1
 53
45.0
 43
0.0
 44
0.0
 45
-0.5612660075668221
 46
0.5612660075668221
 79
     0
 98
        1
 10
0.0
 20
0.0
  0
LINE
  5
283
330
1F
100
AcDbEntity
  8
0
  6
Continuous
 62
     7
370
     0
100
AcDbLine
 10
187.7555657335
 20
233.3905469178
 30
0.0
 11
191.6555646964
 21
233.3905469178
 31
0.0
  0
LINE
  5
284
330
1F
100
AcDbEntity
  8
0
  6
Continuous
 62
     7
370
     0
100
AcDbLine
 10
191.6555646964
 20
230.3905464261
 30
0.0
 11
187.7555657335
 21
230.3905464261
 31
0.0
  0
LINE
  5
285
330
1F
100
AcDbEntity
  8
0
  6
Continuous
 62
     7
370
     0
100
AcDbLine
 10
191.6555646964
 20
233.3905469178
 30
0.0
 11
191.6555646964
 21
233.1405464112
 31
0.0
  0
LINE
  5
286
330
1F
100
AcDbEntity
  8
0
  6
Continuous
 62
     7
370
     0
100
AcDbLine
 10
191.6555646964
 20
230.6405450701
 30
0.0
 11
191.6555646964
 21
230.3905464261
 31
0.0
  0
LINE
  5
287
330
1F
100
AcDbEntity
  8
0
  6
Continuous
 62
     7
370
     0
100
AcDbLine
 10
191.6555646964
 20
168.9905445575
 30
0.0
 11
187.7555657335
 21
168.9905445575
 31
0.0
  0
LINE
  5
288
330
1F
100
AcDbEntity
  8
0
  6
Continuous
 62
     7
370
     0
100
AcDbLine
 10
187.7555657335
 20
171.9905450492
 30
0.0
 11
191.6555646964
 21
171.9905450492
 31
0.0
  0
LINE
  5
289
330
1F
100
AcDbEntity
  8
0
  6
Continuous
 62
     7
370
     0
100
AcDbLine
 10
191.6555646964
 20
169.2405450641
 30
0.0
 11
191.6555646964
 21
168.9905445575
 31
0.0
  0
LINE
  5
28A
330
1F
100
AcDbEntity
  8
0
  6
Continuous
 62
     7
370
     0
100
AcDbLine
 10
191.6555646964
 20
171.9905450492
 30
0.0
 11
191.6555646964
 21
171.7405464052
 31
0.0
  0
LWPOLYLINE
  5
28B
330
1F
100
AcDbEntity
  8
0
  6
Continuous
 62
     7
370
     0
100
AcDbPolyline
 90
       10
 70
   128
 43
0.0
 10
191.6555166245
 20
230.6405450701
 10
191.6555646964
 20
230.7159300445
 10
191.6555646964
 20
230.9329896717
 10
191.6555646964
 20
231.2655463366
 10
191.6555646964
 20
231.6734861134
 10
191.6555646964
 20
232.1076053678
 10
191.6555646964
 20
232.5155470072
 10
191.6555646964
 20
232.8480999469
 10
191.6555646964
 20
233.0651614367
 10
191.6555646964
 20
233.1405464112
  0
LWPOLYLINE
  5
28C
330
1F
100
AcDbEntity
  8
0
  6
Continuous
 62
     7
370
     0
100
AcDbPolyline
 90
       10
 70
   128
 43
0.0
 10
191.6555166245
 20
169.2405450641
 10
191.6555646964
 20
169.3159300386
 10
191.6555646964
 20
169.5329915284
 10
191.6555646964
 20
169.865544468
 10
191.6555646964
 20
170.2734861075
 10
191.6555646964
 20
170.7076053618
 10
191.6555646964
 20
171.1155451386
 10
191.6555646964
 20
171.4481018035
 10
191.6555646964
 20
171.6651614307
 10
191.6555646964
 20
171.7405464052
  0
LINE
  5
28D
330
1F
100
AcDbEntity
  8
0
  6
Continuous
 62
     7
370
     0
100
AcDbLine
 10
196.2055672117
 20
223.9610455482
 30
0.0
 11
197.6429704734
 21
223.9610455482
 31
0.0
  0
LINE
  5
28E
330
1F
100
AcDbEntity
  8
0
  6
Continuous
 62
     7
370
     0
100
AcDbLine
 10
196.6718580731
 20
226.4200463443
 30
0.0
 11
196.2055672117
 21
226.4200463443
 31
0.0
  0
LINE
  5
28F
330
1F
100
AcDbEntity
  8
0
  6
Continuous
 62
     7
370
     0
100
AcDbLine
 10
196.2055672117
 20
175.961045131
 30
0.0
 11
196.6749463387
 21
175.961045131
 31
0.0
  0
LINE
  5
290
330
1F
100
AcDbEntity
  8
0
  6
Continuous
 62
     7
370
     0
100
AcDbLine
 10
197.6471949526
 20
178.420045927
 30
0.0
 11
196.2055672117
 21
178.420045927
 31
0.0
  0
LINE
  5
291
330
1F
100
AcDbEntity
  8
0
  6
Continuous
 62
     7
370
     0
100
AcDbLine
 10
235.7422672136
 20
225.4405464529
 30
0.0
 11
240.505565998
 21
225.4405464529
 31
0.0
  0
LINE
  5
292
330
1F
100
AcDbEntity
  8
0
  6
Continuous
 62
     7
370
     0
100
AcDbLine
 10
240.505565998
 20
222.4405459611
 30
0.0
 11
235.5055658769
 21
222.4405459611
 31
0.0
  0
LINE
  5
293
330
1F
100
AcDbEntity
  8
0
  6
Continuous
 62
     7
370
     0
100
AcDbLine
 10
235.5055658769
 20
222.4405459611
 30
0.0
 11
235.5055658769
 21
222.6905464678
 31
0.0
  0
LWPOLYLINE
  5
294
330
1F
100
AcDbEntity
  8
0
  6
Continuous
 62
     7
370
     0
100
AcDbPolyline
 90
       10
 70
   128
 43
0.0
 10
235.5054616928
 20
225.1905459462
 10
235.5055658769
 20
225.1151609718
 10
235.5055658769
 20
224.8981013446
 10
235.5055658769
 20
224.5655465423
 10
235.5055658769
 20
224.1576067655
 10
235.5055658769
 20
223.7234856485
 10
235.5055658769
 20
223.3155458717
 10
235.5055658769
 20
222.9829910694
 10
235.5055658769
 20
222.7659295796
 10
235.5055658769
 20
222.6905464678
  0
LINE
  5
295
330
1F
100
AcDbEntity
  8
0
  6
CENTERX2
 62
     7
370
    18
100
AcDbLine
 10
183.4498373834
 20
201.1905457376
 30
0.0
 11
243.8697735478
 21
201.1905457376
 31
0.0
  0
LINE
  5
296
330
1F
100
AcDbEntity
  8
0
  6
CENTERX2
 62
     7
370
    18
100
AcDbLine
 10
195.3486183562
 20
231.8905457376
 30
0.0
 11
185.9178160875
 21
231.8905457376
 31
0.0
  0
LINE
  5
297
330
1F
100
AcDbEntity
  8
0
  6
CENTERX2
 62
     7
370
    18
100
AcDbLine
 10
191.2440517822
 20
225.1905457376
 30
0.0
 11
198.46014666
 21
225.1905457376
 31
0.0
  0
LINE
  5
298
330
1F
100
AcDbEntity
  8
0
  6
CENTERX2
 62
     7
370
    18
100
AcDbLine
 10
191.4244541542
 20
208.6069536026
 30
0.0
 11
198.369945474
 21
208.6069536026
 31
0.0
  0
LINE
  5
299
330
1F
100
AcDbEntity
  8
0
  6
CENTERX2
 62
     7
370
    18
100
AcDbLine
 10
191.6048565261
 20
193.7741378726
 30
0.0
 11
198.1895431021
 21
193.7741378726
 31
0.0
  0
LINE
  5
29A
330
1F
100
AcDbEntity
  8
0
  6
CENTERX2
 62
     7
370
    18
100
AcDbLine
 10
191.5146553401
 20
220.0587496701
 30
0.0
 11
198.0993419161
 21
220.0587496701
 31
0.0
  0
LINE
  5
29B
330
1F
100
AcDbEntity
  8
0
  6
CENTERX2
 62
     7
370
    18
100
AcDbLine
 10
197.7385371722
 20
182.3223418051
 30
0.0
 11
191.5146553401
 21
182.3223418051
 31
0.0
  0
LINE
  5
29C
330
1F
100
AcDbEntity
  8
0
  6
CENTERX2
 62
     7
370
    18
100
AcDbLine
 10
198.369945474
 20
177.1905457376
 30
0.0
 11
191.5146553401
 21
177.1905457376
 31
0.0
  0
LINE
  5
29D
330
1F
100
AcDbEntity
  8
0
  6
CENTERX2
 62
     7
370
    18
100
AcDbLine
 10
195.5737087089
 20
170.4905457376
 30
0.0
 11
186.3731877397
 21
170.4905457376
 31
0.0
  0
LINE
  5
29E
330
1F
100
AcDbEntity
  8
0
  6
CENTERX2
 62
     7
370
    18
100
AcDbLine
 10
212.384501302
 20
243.1905457376
 30
0.0
 11
187.7994010191
 21
243.1905457376
 31
0.0
  0
LINE
  5
29F
330
1F
100
AcDbEntity
  8
0
  6
CENTERX2
 62
     7
370
    18
100
AcDbLine
 10
241.4454216525
 20
223.9405457376
 30
0.0
 11
234.3518375212
 21
223.9405457376
 31
0.0
  0
CIRCLE
  5
2A0
330
1F
100
AcDbEntity
  8
0
  6
Continuous
 62
     7
370
    35
100
AcDbCircle
 10
62.444652688
 20
164.8174787787
 30
0.0
 40
1.750000000000004
  0
CIRCLE
  5
2A1
330
1F
100
AcDbEntity
  8
0
  6
Continuous
 62
     7
370
    35
100
AcDbCircle
 10
62.444652688
 20
164.8174787787
 30
0.0
 40
2.099999999999969
  0
CIRCLE
  5
2A2
330
1F
100
AcDbEntity
  8
0
  6
Continuous
 62
     7
370
    35
100
AcDbCircle
 10
47.0715857291
 20
180.1905457376
 30
0.0
 40
1.75000000000001
  0
CIRCLE
  5
2A3
330
1F
100
AcDbEntity
  8
0
  6
Continuous
 62
     7
370
    35
100
AcDbCircle
 10
47.0715857291
 20
180.1905457376
 30
0.0
 40
2.099999999999983
  0
CIRCLE
  5
2A4
330
1F
100
AcDbEntity
  8
0
  6
Continuous
 62
     7
370
    35
100
AcDbCircle
 10
104.444652688
 20
237.5636126966
 30
0.0
 40
1.749999999999984
  0
CIRCLE
  5
2A5
330
1F
100
AcDbEntity
  8
0
  6
Continuous
 62
     7
370
    35
100
AcDbCircle
 10
104.444652688
 20
237.5636126966
 30
0.0
 40
2.100000000000028
  0
CIRCLE
  5
2A6
330
1F
100
AcDbEntity
  8
0
  6
Continuous
 62
     7
370
    35
100
AcDbCircle
 10
41.444652688
 20
201.1905457376
 30
0.0
 40
1.749999999999976
  0
CIRCLE
  5
2A7
330
1F
100
AcDbEntity
  8
0
  6
Continuous
 62
     7
370
    35
100
AcDbCircle
 10
41.444652688
 20
201.1905457376
 30
0.0
 40
2.100000000000003
  0
CIRCLE
  5
2A8
330
1F
100
AcDbEntity
  8
0
  6
Continuous
 62
     7
370
    35
100
AcDbCircle
 10
125.444652688
 20
201.1905457376
 30
0.0
 40
1.749999999999971
  0
CIRCLE
  5
2A9
330
1F
100
AcDbEntity
  8
0
  6
Continuous
 62
     7
370
    35
100
AcDbCircle
 10
125.444652688
 20
201.1905457376
 30
0.0
 40
2.100000000000028
  0
CIRCLE
  5
2AA
330
1F
100
AcDbEntity
  8
0
  6
Continuous
 62
     7
370
    35
100
AcDbCircle
 10
47.0715857291
 20
222.1905457376
 30
0.0
 40
1.74999999999999
  0
CIRCLE
  5
2AB
330
1F
100
AcDbEntity
  8
0
  6
Continuous
 62
     7
370
    35
100
AcDbCircle
 10
47.0715857291
 20
222.1905457376
 30
0.0
 40
2.100000000000009
  0
CIRCLE
  5
2AC
330
1F
100
AcDbEntity
  8
0
  6
Continuous
 62
     7
370
    35
100
AcDbCircle
 10
104.444652688
 20
164.8174787787
 30
0.0
 40
1.75000000000001
  0
CIRCLE
  5
2AD
330
1F
100
AcDbEntity
  8
0
  6
Continuous
 62
     7
370
    35
100
AcDbCircle
 10
104.444652688
 20
164.8174787787
 30
0.0
 40
2.099999999999975
  0
CIRCLE
  5
2AE
330
1F
100
AcDbEntity
  8
0
  6
Continuous
 62
     7
370
    35
100
AcDbCircle
 10
62.444652688
 20
237.5636126966
 30
0.0
 40
1.749999999999982
  0
CIRCLE
  5
2AF
330
1F
100
AcDbEntity
  8
0
  6
Continuous
 62
     7
370
    35
100
AcDbCircle
 10
62.444652688
 20
237.5636126966
 30
0.0
 40
2.099999999999985
  0
CIRCLE
  5
2B0
330
1F
100
AcDbEntity
  8
0
  6
Continuous
 62
     7
370
    35
100
AcDbCircle
 10
83.444652688
 20
243.1905457376
 30
0.0
 40
1.749999999999982
  0
CIRCLE
  5
2B1
330
1F
100
AcDbEntity
  8
0
  6
Continuous
 62
     7
370
    35
100
AcDbCircle
 10
83.444652688
 20
243.1905457376
 30
0.0
 40
2.100000000000003
  0
CIRCLE
  5
2B2
330
1F
100
AcDbEntity
  8
0
  6
Continuous
 62
     7
370
    35
100
AcDbCircle
 10
83.444652688
 20
159.1905457376
 30
0.0
 40
1.75000000000001
  0
CIRCLE
  5
2B3
330
1F
100
AcDbEntity
  8
0
  6
Continuous
 62
     7
370
    35
100
AcDbCircle
 10
83.444652688
 20
159.1905457376
 30
0.0
 40
2.099999999999989
  0
CIRCLE
  5
2B4
330
1F
100
AcDbEntity
  8
0
  6
Continuous
 62
     7
370
    35
100
AcDbCircle
 10
83.444652688
 20
201.1905457376
 30
0.0
 40
39.50000000000004
  0
CIRCLE
  5
2B5
330
1F
100
AcDbEntity
  8
0
  6
Continuous
 62
     7
370
    35
100
AcDbCircle
 10
119.817719647
 20
222.1905457376
 30
0.0
 40
1.749999999999984
  0
CIRCLE
  5
2B6
330
1F
100
AcDbEntity
  8
0
  6
Continuous
 62
     7
370
    35
100
AcDbCircle
 10
119.817719647
 20
222.1905457376
 30
0.0
 40
2.10000000000004
  0
CIRCLE
  5
2B7
330
1F
100
AcDbEntity
  8
0
  6
Continuous
 62
     7
370
    35
100
AcDbCircle
 10
83.444652688
 20
201.1905457376
 30
0.0
 40
45.00000000000003
  0
CIRCLE
  5
2B8
330
1F
100
AcDbEntity
  8
0
  6
Continuous
 62
     7
370
    35
100
AcDbCircle
 10
83.444652688
 20
201.1905457376
 30
0.0
 40
44.39413484153111
  0
CIRCLE
  5
2B9
330
1F
100
AcDbEntity
  8
0
  6
Continuous
 62
     7
370
    35
100
AcDbCircle
 10
119.817719647
 20
180.1905457376
 30
0.0
 40
2.100000000000003
  0
CIRCLE
  5
2BA
330
1F
100
AcDbEntity
  8
0
  6
Continuous
 62
     7
370
    35
100
AcDbCircle
 10
119.817719647
 20
180.1905457376
 30
0.0
 40
1.749999999999982
  0
CIRCLE
  5
2BB
330
1F
100
AcDbEntity
  8
0
  6
Continuous
 62
     7
370
    35
100
AcDbCircle
 10
68.094652688
 20
174.6035658414
 30
0.0
 40
1.849999999999994
  0
CIRCLE
  5
2BC
330
1F
100
AcDbEntity
  8
0
  6
Continuous
 62
     7
370
    35
100
AcDbCircle
 10
68.094652688
 20
174.6035658414
 30
0.0
 40
1.25
  0
CIRCLE
  5
2BD
330
1F
100
AcDbEntity
  8
0
  6
Continuous
 62
     7
370
    35
100
AcDbCircle
 10
98.794652688
 20
174.6035658414
 30
0.0
 40
1.84999999999998
  0
CIRCLE
  5
2BE
330
1F
100
AcDbEntity
  8
0
  6
Continuous
 62
     7
370
    35
100
AcDbCircle
 10
98.794652688
 20
174.6035658414
 30
0.0
 40
1.249999999999986
  0
CIRCLE
  5
2BF
330
1F
100
AcDbEntity
  8
0
  6
Continuous
 62
     7
370
    35
100
AcDbCircle
 10
52.744652688
 20
201.1905457376
 30
0.0
 40
1.850000000000001
  0
CIRCLE
  5
2C0
330
1F
100
AcDbEntity
  8
0
  6
Continuous
 62
     7
370
    35
100
AcDbCircle
 10
52.744652688
 20
201.1905457376
 30
0.0
 40
1.249999999999993
  0
CIRCLE
  5
2C1
330
1F
100
AcDbEntity
  8
0
  6
Continuous
 62
     7
370
    35
100
AcDbCircle
 10
110.0316325842
 20
185.8405457376
 30
0.0
 40
1.850000000000009
  0
CIRCLE
  5
2C2
330
1F
100
AcDbEntity
  8
0
  6
Continuous
 62
     7
370
    35
100
AcDbCircle
 10
110.0316325842
 20
185.8405457376
 30
0.0
 40
1.25
  0
CIRCLE
  5
2C3
330
1F
100
AcDbEntity
  8
0
  6
Continuous
 62
     7
370
    35
100
AcDbCircle
 10
56.8576727918
 20
185.8405457376
 30
0.0
 40
1.849999999999994
  0
CIRCLE
  5
2C4
330
1F
100
AcDbEntity
  8
0
  6
Continuous
 62
     7
370
    35
100
AcDbCircle
 10
56.8576727918
 20
185.8405457376
 30
0.0
 40
1.249999999999993
  0
CIRCLE
  5
2C5
330
1F
100
AcDbEntity
  8
0
  6
Continuous
 62
     7
370
    35
100
AcDbCircle
 10
83.444652688
 20
201.1905457376
 30
0.0
 40
27.8
  0
CIRCLE
  5
2C6
330
1F
100
AcDbEntity
  8
0
  6
Continuous
 62
     7
370
    35
100
AcDbCircle
 10
68.094652688
 20
227.7775256338
 30
0.0
 40
1.849999999999994
  0
CIRCLE
  5
2C7
330
1F
100
AcDbEntity
  8
0
  6
Continuous
 62
     7
370
    35
100
AcDbCircle
 10
56.8576727918
 20
216.5405457376
 30
0.0
 40
1.849999999999994
  0
CIRCLE
  5
2C8
330
1F
100
AcDbEntity
  8
0
  6
Continuous
 62
     7
370
    35
100
AcDbCircle
 10
83.444652688
 20
170.4905457376
 30
0.0
 40
1.849999999999994
  0
CIRCLE
  5
2C9
330
1F
100
AcDbEntity
  8
0
  6
Continuous
 62
     7
370
    35
100
AcDbCircle
 10
114.144652688
 20
201.1905457376
 30
0.0
 40
1.849999999999994
  0
CIRCLE
  5
2CA
330
1F
100
AcDbEntity
  8
0
  6
Continuous
 62
     7
370
    35
100
AcDbCircle
 10
110.0316325842
 20
216.5405457376
 30
0.0
 40
1.849999999999994
  0
CIRCLE
  5
2CB
330
1F
100
AcDbEntity
  8
0
  6
Continuous
 62
     7
370
    35
100
AcDbCircle
 10
98.794652688
 20
227.7775256338
 30
0.0
 40
1.850000000000009
  0
CIRCLE
  5
2CC
330
1F
100
AcDbEntity
  8
0
  6
Continuous
 62
     7
370
    35
100
AcDbCircle
 10
83.444652688
 20
231.8905457376
 30
0.0
 40
1.849999999999994
  0
CIRCLE
  5
2CD
330
1F
100
AcDbEntity
  8
0
  6
Continuous
 62
     7
370
    35
100
AcDbCircle
 10
83.444652688
 20
201.1905457376
 30
0.0
 40
34.19999999999999
  0
CIRCLE
  5
2CE
330
1F
100
AcDbEntity
  8
0
  6
Continuous
 62
     7
370
    35
100
AcDbCircle
 10
68.094652688
 20
227.7775256338
 30
0.0
 40
1.25
  0
CIRCLE
  5
2CF
330
1F
100
AcDbEntity
  8
0
  6
Continuous
 62
     7
370
    35
100
AcDbCircle
 10
110.0316325842
 20
216.5405457376
 30
0.0
 40
1.25
  0
CIRCLE
  5
2D0
330
1F
100
AcDbEntity
  8
0
  6
Continuous
 62
     7
370
    35
100
AcDbCircle
 10
56.8576727918
 20
216.5405457376
 30
0.0
 40
1.249999999999993
  0
CIRCLE
  5
2D1
330
1F
100
AcDbEntity
  8
0
  6
Continuous
 62
     7
370
    35
100
AcDbCircle
 10
83.444652688
 20
201.1905457376
 30
0.0
 40
27.5
  0
CIRCLE
  5
2D2
330
1F
100
AcDbEntity
  8
0
  6
Continuous
 62
     7
370
    35
100
AcDbCircle
 10
98.794652688
 20
227.7775256338
 30
0.0
 40
1.25
  0
CIRCLE
  5
2D3
330
1F
100
AcDbEntity
  8
0
  6
Continuous
 62
     7
370
    35
100
AcDbCircle
 10
83.444652688
 20
231.8905457376
 30
0.0
 40
1.25
  0
CIRCLE
  5
2D4
330
1F
100
AcDbEntity
  8
0
  6
Continuous
 62
     7
370
    35
100
AcDbCircle
 10
83.444652688
 20
170.4905457376
 30
0.0
 40
1.25
  0
CIRCLE
  5
2D5
330
1F
100
AcDbEntity
  8
0
  6
Continuous
 62
     7
370
    35
100
AcDbCircle
 10
83.444652688
 20
201.1905457376
 30
0.0
 40
34.5
  0
CIRCLE
  5
2D6
330
1F
100
AcDbEntity
  8
0
  6
Continuous
 62
     7
370
    35
100
AcDbCircle
 10
114.144652688
 20
201.1905457376
 30
0.0
 40
1.25
  0
CIRCLE
  5
2D7
330
1F
100
AcDbEntity
  8
0
  6
Continuous
 62
     7
370
    35
100
AcDbCircle
 10
83.444652688
 20
201.1905457376
 30
0.0
 40
20.49999999999999
  0
CIRCLE
  5
2D8
330
1F
100
AcDbEntity
  8
0
  6
Continuous
 62
     7
370
    35
100
AcDbCircle
 10
83.444652688
 20
201.1905457376
 30
0.0
 40
20.8
  0
CIRCLE
  5
2D9
330
1F
100
AcDbEntity
  8
0
  6
Continuous
 62
     7
370
    35
100
AcDbCircle
 10
83.444652688
 20
177.1905457376
 30
0.0
 40
2.840000000000003
  0
LINE
  5
2DA
330
1F
100
AcDbEntity
  8
0
  6
Continuous
 62
     7
370
    35
100
AcDbLine
 10
82.164652688
 20
177.9295540822
 30
0.0
 11
82.164652688
 21
176.4515373931
 31
0.0
  0
LINE
  5
2DB
330
1F
100
AcDbEntity
  8
0
  6
Continuous
 62
     7
370
    35
100
AcDbLine
 10
84.724652688
 20
176.4515373931
 30
0.0
 11
84.724652688
 21
177.9295540822
 31
0.0
  0
LINE
  5
2DC
330
1F
100
AcDbEntity
  8
0
  6
Continuous
 62
     7
370
    35
100
AcDbLine
 10
84.724652688
 20
177.9295540822
 30
0.0
 11
83.444652688
 21
178.6685624267
 31
0.0
  0
LINE
  5
2DD
330
1F
100
AcDbEntity
  8
0
  6
Continuous
 62
     7
370
    35
100
AcDbLine
 10
82.164652688
 20
176.4515373931
 30
0.0
 11
83.444652688
 21
175.7125290485
 31
0.0
  0
LINE
  5
2DE
330
1F
100
AcDbEntity
  8
0
  6
Continuous
 62
     7
370
    35
100
AcDbLine
 10
83.444652688
 20
178.6685624267
 30
0.0
 11
82.164652688
 21
177.9295540822
 31
0.0
  0
LINE
  5
2DF
330
1F
100
AcDbEntity
  8
0
  6
Continuous
 62
     7
370
    35
100
AcDbLine
 10
83.444652688
 20
175.7125290485
 30
0.0
 11
84.724652688
 21
176.4515373931
 31
0.0
  0
CIRCLE
  5
2E0
330
1F
100
AcDbEntity
  8
0
  6
Continuous
 62
     7
370
    35
100
AcDbCircle
 10
106.2700090791
 20
193.7741378726
 30
0.0
 40
2.840000000000031
  0
LINE
  5
2E1
330
1F
100
AcDbEntity
  8
0
  6
Continuous
 62
     7
370
    35
100
AcDbLine
 10
107.6756864825
 20
193.3174055977
 30
0.0
 11
107.3683895336
 21
194.763124076
 31
0.0
  0
LINE
  5
2E2
330
1F
100
AcDbEntity
  8
0
  6
Continuous
 62
     7
370
    35
100
AcDbLine
 10
107.3683895336
 20
194.763124076
 30
0.0
 11
105.9627121302
 21
195.2198563509
 31
0.0
  0
LINE
  5
2E3
330
1F
100
AcDbEntity
  8
0
  6
Continuous
 62
     7
370
    35
100
AcDbLine
 10
106.577306028
 20
192.3284193943
 30
0.0
 11
107.6756864825
 21
193.3174055977
 31
0.0
  0
LINE
  5
2E4
330
1F
100
AcDbEntity
  8
0
  6
Continuous
 62
     7
370
    35
100
AcDbLine
 10
105.1716286246
 20
192.7851516692
 30
0.0
 11
106.577306028
 21
192.3284193943
 31
0.0
  0
LINE
  5
2E5
330
1F
100
AcDbEntity
  8
0
  6
Continuous
 62
     7
370
    35
100
AcDbLine
 10
104.8643316757
 20
194.2308701475
 30
0.0
 11
105.1716286246
 21
192.7851516692
 31
0.0
  0
LINE
  5
2E6
330
1F
100
AcDbEntity
  8
0
  6
Continuous
 62
     7
370
    35
100
AcDbLine
 10
105.9627121302
 20
195.2198563509
 30
0.0
 11
104.8643316757
 21
194.2308701475
 31
0.0
  0
LINE
  5
2E7
330
1F
100
AcDbEntity
  8
0
  6
Continuous
 62
     7
370
    35
100
AcDbLine
 10
98.4202551555
 20
221.8026942221
 30
0.0
 11
96.9503351965
 21
221.9571890353
 31
0.0
  0
LINE
  5
2E8
330
1F
100
AcDbEntity
  8
0
  6
Continuous
 62
     7
370
    35
100
AcDbLine
 10
96.081578784
 20
220.7614484158
 30
0.0
 11
96.6827423305
 21
219.4112129831
 31
0.0
  0
LINE
  5
2E9
330
1F
100
AcDbEntity
  8
0
  6
Continuous
 62
     7
370
    35
100
AcDbLine
 10
96.6827423305
 20
219.4112129831
 30
0.0
 11
98.1526622896
 21
219.25671817
 31
0.0
  0
LINE
  5
2EA
330
1F
100
AcDbEntity
  8
0
  6
Continuous
 62
     7
370
    35
100
AcDbLine
 10
99.0214187021
 20
220.4524587894
 30
0.0
 11
98.4202551555
 21
221.8026942221
 31
0.0
  0
LINE
  5
2EB
330
1F
100
AcDbEntity
  8
0
  6
Continuous
 62
     7
370
    35
100
AcDbLine
 10
96.9503351965
 20
221.9571890353
 30
0.0
 11
96.081578784
 21
220.7614484158
 31
0.0
  0
LINE
  5
2EC
330
1F
100
AcDbEntity
  8
0
  6
Continuous
 62
     7
370
    35
100
AcDbLine
 10
98.1526622896
 20
219.25671817
 30
0.0
 11
99.0214187021
 21
220.4524587894
 31
0.0
  0
CIRCLE
  5
2ED
330
1F
100
AcDbEntity
  8
0
  6
Continuous
 62
     7
370
    35
100
AcDbCircle
 10
97.551498743
 20
220.6069536026
 30
0.0
 40
2.840000000000002
  0
CIRCLE
  5
2EE
330
1F
100
AcDbEntity
  8
0
  6
Continuous
 62
     7
370
    35
100
AcDbCircle
 10
60.6192962969
 20
208.6069536026
 30
0.0
 40
2.840000000000009
  0
LINE
  5
2EF
330
1F
100
AcDbEntity
  8
0
  6
Continuous
 62
     7
370
    35
100
AcDbLine
 10
59.2136188935
 20
209.0636858775
 30
0.0
 11
59.5209158424
 21
207.6179673992
 31
0.0
  0
LINE
  5
2F0
330
1F
100
AcDbEntity
  8
0
  6
Continuous
 62
     7
370
    35
100
AcDbLine
 10
60.9265932458
 20
207.1612351243
 30
0.0
 11
62.0249737003
 21
208.1502213277
 31
0.0
  0
LINE
  5
2F1
330
1F
100
AcDbEntity
  8
0
  6
Continuous
 62
     7
370
    35
100
AcDbLine
 10
60.311999348
 20
210.0526720809
 30
0.0
 11
59.2136188935
 21
209.0636858775
 31
0.0
  0
LINE
  5
2F2
330
1F
100
AcDbEntity
  8
0
  6
Continuous
 62
     7
370
    35
100
AcDbLine
 10
59.5209158424
 20
207.6179673992
 30
0.0
 11
60.9265932458
 21
207.1612351243
 31
0.0
  0
LINE
  5
2F3
330
1F
100
AcDbEntity
  8
0
  6
Continuous
 62
     7
370
    35
100
AcDbLine
 10
62.0249737003
 20
208.1502213277
 30
0.0
 11
61.7176767514
 21
209.595939806
 31
0.0
  0
LINE
  5
2F4
330
1F
100
AcDbEntity
  8
0
  6
Continuous
 62
     7
370
    35
100
AcDbLine
 10
61.7176767514
 20
209.595939806
 30
0.0
 11
60.311999348
 21
210.0526720809
 31
0.0
  0
CIRCLE
  5
2F5
330
1F
100
AcDbEntity
  8
0
  6
Continuous
 62
     7
370
    35
100
AcDbCircle
 10
60.6192962969
 20
193.7741378726
 30
0.0
 40
2.839999999999991
  0
LINE
  5
2F6
330
1F
100
AcDbEntity
  8
0
  6
Continuous
 62
     7
370
    35
100
AcDbLine
 10
61.7176767514
 20
192.7851516692
 30
0.0
 11
62.0249737003
 21
194.2308701475
 31
0.0
  0
LINE
  5
2F7
330
1F
100
AcDbEntity
  8
0
  6
Continuous
 62
     7
370
    35
100
AcDbLine
 10
59.2136188935
 20
193.3174055977
 30
0.0
 11
60.311999348
 21
192.3284193943
 31
0.0
  0
LINE
  5
2F8
330
1F
100
AcDbEntity
  8
0
  6
Continuous
 62
     7
370
    35
100
AcDbLine
 10
60.9265932458
 20
195.2198563509
 30
0.0
 11
59.5209158424
 21
194.763124076
 31
0.0
  0
LINE
  5
2F9
330
1F
100
AcDbEntity
  8
0
  6
Continuous
 62
     7
370
    35
100
AcDbLine
 10
60.311999348
 20
192.3284193943
 30
0.0
 11
61.7176767514
 21
192.7851516692
 31
0.0
  0
LINE
  5
2FA
330
1F
100
AcDbEntity
  8
0
  6
Continuous
 62
     7
370
    35
100
AcDbLine
 10
59.5209158424
 20
194.763124076
 30
0.0
 11
59.2136188935
 21
193.3174055977
 31
0.0
  0
LINE
  5
2FB
330
1F
100
AcDbEntity
  8
0
  6
Continuous
 62
     7
370
    35
100
AcDbLine
 10
62.0249737003
 20
194.2308701475
 30
0.0
 11
60.9265932458
 21
195.2198563509
 31
0.0
  0
LINE
  5
2FC
330
1F
100
AcDbEntity
  8
0
  6
Continuous
 62
     7
370
    35
100
AcDbLine
 10
68.4690502205
 20
180.5783972532
 30
0.0
 11
69.9389701795
 21
180.42390244
 31
0.0
  0
LINE
  5
2FD
330
1F
100
AcDbEntity
  8
0
  6
Continuous
 62
     7
370
    35
100
AcDbLine
 10
69.9389701795
 20
180.42390244
 30
0.0
 11
70.807726592
 21
181.6196430594
 31
0.0
  0
LINE
  5
2FE
330
1F
100
AcDbEntity
  8
0
  6
Continuous
 62
     7
370
    35
100
AcDbLine
 10
70.2065630455
 20
182.9698784921
 30
0.0
 11
68.7366430864
 21
183.1243733053
 31
0.0
  0
LINE
  5
2FF
330
1F
100
AcDbEntity
  8
0
  6
Continuous
 62
     7
370
    35
100
AcDbLine
 10
68.7366430864
 20
183.1243733053
 30
0.0
 11
67.8678866739
 21
181.9286326858
 31
0.0
  0
LINE
  5
300
330
1F
100
AcDbEntity
  8
0
  6
Continuous
 62
     7
370
    35
100
AcDbLine
 10
67.8678866739
 20
181.9286326858
 30
0.0
 11
68.4690502205
 21
180.5783972532
 31
0.0
  0
LINE
  5
301
330
1F
100
AcDbEntity
  8
0
  6
Continuous
 62
     7
370
    35
100
AcDbLine
 10
70.807726592
 20
181.6196430594
 30
0.0
 11
70.2065630455
 21
182.9698784921
 31
0.0
  0
CIRCLE
  5
302
330
1F
100
AcDbEntity
  8
0
  6
Continuous
 62
     7
370
    35
100
AcDbCircle
 10
69.337806633
 20
181.7741378726
 30
0.0
 40
2.840000000000012
  0
LINE
  5
303
330
1F
100
AcDbEntity
  8
0
  6
Continuous
 62
     7
370
    35
100
AcDbLine
 10
98.4202551555
 20
180.5783972532
 30
0.0
 11
99.0214187021
 21
181.9286326858
 31
0.0
  0
LINE
  5
304
330
1F
100
AcDbEntity
  8
0
  6
Continuous
 62
     7
370
    35
100
AcDbLine
 10
99.0214187021
 20
181.9286326858
 30
0.0
 11
98.1526622896
 21
183.1243733053
 31
0.0
  0
LINE
  5
305
330
1F
100
AcDbEntity
  8
0
  6
Continuous
 62
     7
370
    35
100
AcDbLine
 10
96.6827423305
 20
182.9698784921
 30
0.0
 11
96.081578784
 21
181.6196430594
 31
0.0
  0
LINE
  5
306
330
1F
100
AcDbEntity
  8
0
  6
Continuous
 62
     7
370
    35
100
AcDbLine
 10
96.081578784
 20
181.6196430594
 30
0.0
 11
96.9503351965
 21
180.42390244
 31
0.0
  0
LINE
  5
307
330
1F
100
AcDbEntity
  8
0
  6
Continuous
 62
     7
370
    35
100
AcDbLine
 10
96.9503351965
 20
180.42390244
 30
0.0
 11
98.4202551555
 21
180.5783972532
 31
0.0
  0
LINE
  5
308
330
1F
100
AcDbEntity
  8
0
  6
Continuous
 62
     7
370
    35
100
AcDbLine
 10
98.1526622896
 20
183.1243733053
 30
0.0
 11
96.6827423305
 21
182.9698784921
 31
0.0
  0
CIRCLE
  5
309
330
1F
100
AcDbEntity
  8
0
  6
Continuous
 62
     7
370
    35
100
AcDbCircle
 10
97.551498743
 20
181.7741378726
 30
0.0
 40
2.840000000000014
  0
LINE
  5
30A
330
1F
100
AcDbEntity
  8
0
  6
Continuous
 62
     7
370
    35
100
AcDbLine
 10
107.6756864825
 20
209.0636858775
 30
0.0
 11
106.577306028
 21
210.0526720809
 31
0.0
  0
LINE
  5
30B
330
1F
100
AcDbEntity
  8
0
  6
Continuous
 62
     7
370
    35
100
AcDbLine
 10
106.577306028
 20
210.0526720809
 30
0.0
 11
105.1716286246
 21
209.595939806
 31
0.0
  0
LINE
  5
30C
330
1F
100
AcDbEntity
  8
0
  6
Continuous
 62
     7
370
    35
100
AcDbLine
 10
105.1716286246
 20
209.595939806
 30
0.0
 11
104.8643316757
 21
208.1502213277
 31
0.0
  0
LINE
  5
30D
330
1F
100
AcDbEntity
  8
0
  6
Continuous
 62
     7
370
    35
100
AcDbLine
 10
104.8643316757
 20
208.1502213277
 30
0.0
 11
105.9627121302
 21
207.1612351243
 31
0.0
  0
LINE
  5
30E
330
1F
100
AcDbEntity
  8
0
  6
Continuous
 62
     7
370
    35
100
AcDbLine
 10
105.9627121302
 20
207.1612351243
 30
0.0
 11
107.3683895336
 21
207.6179673992
 31
0.0
  0
LINE
  5
30F
330
1F
100
AcDbEntity
  8
0
  6
Continuous
 62
     7
370
    35
100
AcDbLine
 10
107.3683895336
 20
207.6179673992
 30
0.0
 11
107.6756864825
 21
209.0636858775
 31
0.0
  0
CIRCLE
  5
310
330
1F
100
AcDbEntity
  8
0
  6
Continuous
 62
     7
370
    35
100
AcDbCircle
 10
106.2700090791
 20
208.6069536026
 30
0.0
 40
2.839999999999995
  0
LINE
  5
311
330
1F
100
AcDbEntity
  8
0
  6
Continuous
 62
     7
370
    35
100
AcDbLine
 10
84.724652688
 20
225.9295540822
 30
0.0
 11
83.444652688
 21
226.6685624267
 31
0.0
  0
LINE
  5
312
330
1F
100
AcDbEntity
  8
0
  6
Continuous
 62
     7
370
    35
100
AcDbLine
 10
83.444652688
 20
226.6685624267
 30
0.0
 11
82.164652688
 21
225.9295540822
 31
0.0
  0
LINE
  5
313
330
1F
100
AcDbEntity
  8
0
  6
Continuous
 62
     7
370
    35
100
AcDbLine
 10
84.724652688
 20
224.4515373931
 30
0.0
 11
84.724652688
 21
225.9295540822
 31
0.0
  0
LINE
  5
314
330
1F
100
AcDbEntity
  8
0
  6
Continuous
 62
     7
370
    35
100
AcDbLine
 10
82.164652688
 20
225.9295540822
 30
0.0
 11
82.164652688
 21
224.4515373931
 31
0.0
  0
LINE
  5
315
330
1F
100
AcDbEntity
  8
0
  6
Continuous
 62
     7
370
    35
100
AcDbLine
 10
82.164652688
 20
224.4515373931
 30
0.0
 11
83.444652688
 21
223.7125290485
 31
0.0
  0
LINE
  5
316
330
1F
100
AcDbEntity
  8
0
  6
Continuous
 62
     7
370
    35
100
AcDbLine
 10
83.444652688
 20
223.7125290485
 30
0.0
 11
84.724652688
 21
224.4515373931
 31
0.0
  0
CIRCLE
  5
317
330
1F
100
AcDbEntity
  8
0
  6
Continuous
 62
     7
370
    35
100
AcDbCircle
 10
83.444652688
 20
225.1905457376
 30
0.0
 40
2.840000000000003
  0
CIRCLE
  5
318
330
1F
100
AcDbEntity
  8
0
  6
Continuous
 62
     7
370
    35
100
AcDbCircle
 10
69.337806633
 20
220.6069536026
 30
0.0
 40
2.840000000000008
  0
LINE
  5
319
330
1F
100
AcDbEntity
  8
0
  6
Continuous
 62
     7
370
    35
100
AcDbLine
 10
67.8678866739
 20
220.4524587894
 30
0.0
 11
68.7366430864
 21
219.25671817
 31
0.0
  0
LINE
  5
31A
330
1F
100
AcDbEntity
  8
0
  6
Continuous
 62
     7
370
    35
100
AcDbLine
 10
68.7366430864
 20
219.25671817
 30
0.0
 11
70.2065630455
 21
219.4112129831
 31
0.0
  0
LINE
  5
31B
330
1F
100
AcDbEntity
  8
0
  6
Continuous
 62
     7
370
    35
100
AcDbLine
 10
70.807726592
 20
220.7614484158
 30
0.0
 11
69.9389701795
 21
221.9571890353
 31
0.0
  0
LINE
  5
31C
330
1F
100
AcDbEntity
  8
0
  6
Continuous
 62
     7
370
    35
100
AcDbLine
 10
69.9389701795
 20
221.9571890353
 30
0.0
 11
68.4690502205
 21
221.8026942221
 31
0.0
  0
LINE
  5
31D
330
1F
100
AcDbEntity
  8
0
  6
Continuous
 62
     7
370
    35
100
AcDbLine
 10
68.4690502205
 20
221.8026942221
 30
0.0
 11
67.8678866739
 21
220.4524587894
 31
0.0
  0
LINE
  5
31E
330
1F
100
AcDbEntity
  8
0
  6
Continuous
 62
     7
370
    35
100
AcDbLine
 10
70.2065630455
 20
219.4112129831
 30
0.0
 11
70.807726592
 21
220.7614484158
 31
0.0
  0
CIRCLE
  5
31F
330
1F
100
AcDbEntity
  8
0
  6
Continuous
 62
     7
370
    35
100
AcDbCircle
 10
83.444652688
 20
201.1905457376
 30
0.0
 40
38.0716808912932
  0
CIRCLE
  5
320
330
1F
100
AcDbEntity
  8
0
  6
Continuous
 62
     7
370
    35
100
AcDbCircle
 10
83.444652688
 20
201.1905457376
 30
0.0
 40
38.59999999999997
  0
CIRCLE
  5
321
330
1F
100
AcDbEntity
  8
0
  6
Continuous
 62
     7
370
    35
100
AcDbCircle
 10
83.444652688
 20
201.1905457376
 30
0.0
 40
39.0
  0
CIRCLE
  5
322
330
1F
100
AcDbEntity
  8
0
  6
Continuous
 62
     7
370
    35
100
AcDbCircle
 10
83.444652688
 20
201.1905457376
 30
0.0
 40
34.66666666666666
  0
CIRCLE
  5
323
330
1F
100
AcDbEntity
  8
0
  6
Continuous
 62
     7
370
    35
100
AcDbCircle
 10
83.444652688
 20
201.1905457376
 30
0.0
 40
35.43096036319227
  0
CIRCLE
  5
324
330
1F
100
AcDbEntity
  8
0
  6
Continuous
 62
     7
370
    35
100
AcDbCircle
 10
83.444652688
 20
201.1905457376
 30
0.0
 40
36.5716808912932
  0
CIRCLE
  5
325
330
1F
100
AcDbEntity
  8
0
  6
Continuous
 62
     7
370
    35
100
AcDbCircle
 10
83.444652688
 20
201.1905457376
 30
0.0
 40
45.50000000000039
  0
CIRCLE
  5
326
330
1F
100
AcDbEntity
  8
0
  6
Continuous
 62
     7
370
    35
100
AcDbCircle
 10
83.444652688
 20
201.1905457376
 30
0.0
 40
46.49999999999997
  0
INSERT
  5
32C
330
1F
100
AcDbEntity
  8
注記
100
AcDbBlockReference
  2
SW_NOTE_1
 10
58.7571191298
 20
131.1758494401
 30
0.0
  0
INSERT
  5
384
330
1F
100
AcDbEntity
  8
0
  6
Continuous
 62
     7
370
     0
100
AcDbBlockReference
  2
SW_CENTERMARKSYMBOL_3
 10
104.444652688
 20
237.5636126966
 30
0.0
  0
INSERT
  5
3D0
330
1F
100
AcDbEntity
  8
0
  6
Continuous
 62
     7
370
     0
100
AcDbBlockReference
  2
SW_CENTERMARKSYMBOL_4
 10
83.444652688
 20
231.8905457376
 30
0.0
  0
INSERT
  5
410
330
1F
100
AcDbEntity
  8
0
  6
Continuous
 62
     7
370
     0
100
AcDbBlockReference
  2
SW_CENTERMARKSYMBOL_5
 10
83.444652688
 20
225.1905457376
 30
0.0
  0
INSERT
  5
41C
330
1F
100
AcDbEntity
  8
0
  6
Continuous
 62
     7
370
     0
100
AcDbBlockReference
  2
SW_CENTERMARKSYMBOL_6
 10
83.444652688
 20
201.1905457376
 30
0.0
  0
CIRCLE
  5
41D
330
1F
100
AcDbEntity
  8
0
  6
Continuous
 62
     7
370
     0
100
AcDbCircle
 10
83.444652688
 20
231.8905457376
 30
0.0
 40
1.500000013038516
  0
CIRCLE
  5
41E
330
1F
100
AcDbEntity
  8
0
  6
Continuous
 62
     7
370
     0
100
AcDbCircle
 10
98.794652688
 20
227.7775256338
 30
0.0
 40
1.500000247359282
  0
CIRCLE
  5
41F
330
1F
100
AcDbEntity
  8
0
  6
Continuous
 62
     7
370
     0
100
AcDbCircle
 10
110.0316325842
 20
216.5405457376
 30
0.0
 40
1.500000908618688
  0
CIRCLE
  5
420
330
1F
100
AcDbEntity
  8
0
  6
Continuous
 62
     7
370
     0
100
AcDbCircle
 10
114.144652688
 20
201.1905457376
 30
0.0
 40
1.500001180171964
  0
CIRCLE
  5
421
330
1F
100
AcDbEntity
  8
0
  6
Continuous
 62
     7
370
     0
100
AcDbCircle
 10
110.0316325842
 20
185.8405457376
 30
0.0
 40
1.500000908618802
  0
CIRCLE
  5
422
330
1F
100
AcDbEntity
  8
0
  6
Continuous
 62
     7
370
     0
100
AcDbCircle
 10
98.794652688
 20
174.6035658414
 30
0.0
 40
1.500000247359452
  0
CIRCLE
  5
423
330
1F
100
AcDbEntity
  8
0
  6
Continuous
 62
     7
370
     0
100
AcDbCircle
 10
83.444652688
 20
170.4905457376
 30
0.0
 40
1.500000013038516
  0
CIRCLE
  5
424
330
1F
100
AcDbEntity
  8
0
  6
Continuous
 62
     7
370
     0
100
AcDbCircle
 10
68.094652688
 20
174.6035658414
 30
0.0
 40
1.500000244379294
  0
CIRCLE
  5
425
330
1F
100
AcDbEntity
  8
0
  6
Continuous
 62
     7
370
     0
100
AcDbCircle
 10
56.8576727918
 20
185.8405457376
 30
0.0
 40
1.499999583119738
  0
CIRCLE
  5
426
330
1F
100
AcDbEntity
  8
0
  6
Continuous
 62
     7
370
     0
100
AcDbCircle
 10
52.744652688
 20
201.1905457376
 30
0.0
 40
1.499999311566356
  0
CIRCLE
  5
427
330
1F
100
AcDbEntity
  8
0
  6
Continuous
 62
     7
370
     0
100
AcDbCircle
 10
56.8576727918
 20
216.5405457376
 30
0.0
 40
1.499999583119418
  0
CIRCLE
  5
428
330
1F
100
AcDbEntity
  8
0
  6
Continuous
 62
     7
370
     0
100
AcDbCircle
 10
68.094652688
 20
227.7775256338
 30
0.0
 40
1.500000244378725
  0
ENDSEC
  0
SECTION
  2
OBJECTS
  0
DICTIONARY
  5
C
330
0
100
AcDbDictionary
281
     1
  3
ACAD_GROUP
350
D
  3
ACAD_LAYOUT
350
1A
  3
ACAD_MLINESTYLE
350
17
  3
ACAD_PLOTSETTINGS
350
19
  3
ACAD_PLOTSTYLENAME
350
E
  3
ACAD_SCALELIST
350
47
  0
DICTIONARY
  5
D
102
{ACAD_REACTORS
330
C
102
}
330
C
100
AcDbDictionary
281
     1
  0
DICTIONARY
  5
1A
102
{ACAD_REACTORS
330
C
102
}
330
C
100
AcDbDictionary
281
     1
  3
Layout1
350
1E
  3
Layout2
350
26
  3
Model
350
22
  0
DICTIONARY
  5
17
102
{ACAD_REACTORS
330
C
102
}
330
C
100
AcDbDictionary
281
     1
  3
Standard
350
18
  0
DICTIONARY
  5
19
102
{ACAD_REACTORS
330
C
102
}
330
C
100
AcDbDictionary
281
     1
  0
ACDBDICTIONARYWDFLT
  5
E
102
{ACAD_REACTORS
330
C
102
}
330
C
100
AcDbDictionary
281
     1
  3
Normal
350
F
100
AcDbDictionaryWithDefault
340
F
  0
DICTIONARY
  5
47
102
{ACAD_REACTORS
330
C
102
}
330
C
100
AcDbDictionary
281
     1
  3
A0
350
48
  3
A1
350
49
  3
A2
350
4A
  3
A3
350
4B
  3
A4
350
4C
  3
A5
350
4D
  3
A6
350
4E
  3
A7
350
4F
  3
A8
350
50
  3
A9
350
51
  3
B0
350
52
  3
B1
350
53
  3
B2
350
54
  3
B3
350
55
  3
B4
350
56
  3
B5
350
57
  3
B6
350
58
  3
B7
350
59
  3
B8
350
5A
  3
B9
350
5B
  3
C0
350
5C
  3
C1
350
5D
  3
C2
350
5E
  3
C3
350
5F
  3
C4
350
60
  3
C5
350
61
  3
C6
350
62
  3
C7
350
63
  3
C8
350
64
  3
C9
350
65
  3
D0
350
66
  3
D1
350
67
  3
D2
350
68
  0
LAYOUT
  5
1E
102
{ACAD_REACTORS
330
1A
102
}
330
1A
100
AcDbPlotSettings
  1

  2
none_device
  4

  6

 40
0.0
 41
0.0
 42
0.0
 43
0.0
 44
0.0
 45
0.0
 46
0.0
 47
0.0
 48
0.0
 49
0.0
140
0.0
141
0.0
142
1.0
143
1.0
 70
   688
 72
     1
 73
     0
 74
     5
  7

 75
    16
147
1.0
148
0.0
149
0.0
100
AcDbLayout
  1
Layout1
 70
     1
 71
     1
 10
0.0
 20
0.0
 11
420.0
 21
297.0
 12
0.0
 22
0.0
 32
0.0
 14
1.0000000000E+20
 24
1.0000000000E+20
 34
1.0000000000E+20
 15
-1.0000000000E+20
 25
-1.0000000000E+20
 35
-1.0000000000E+20
146
0.0
 13
0.0
 23
0.0
 33
0.0
 16
1.0
 26
0.0
 36
0.0
 17
0.0
 27
1.0
 37
0.0
 76
     0
330
1B
  0
LAYOUT
  5
26
102
{ACAD_REACTORS
330
1A
102
}
330
1A
100
AcDbPlotSettings
  1

  2
none_device
  4

  6

 40
0.0
 41
0.0
 42
0.0
 43
0.0
 44
0.0
 45
0.0
 46
0.0
 47
0.0
 48
0.0
 49
0.0
140
0.0
141
0.0
142
1.0
143
1.0
 70
   688
 72
     1
 73
     0
 74
     5
  7

 75
    16
147
1.0
148
0.0
149
0.0
100
AcDbLayout
  1
Layout2
 70
     1
 71
     2
 10
0.0
 20
0.0
 11
0.0
 21
0.0
 12
0.0
 22
0.0
 32
0.0
 14
0.0
 24
0.0
 34
0.0
 15
0.0
 25
0.0
 35
0.0
146
0.0
 13
0.0
 23
0.0
 33
0.0
 16
1.0
 26
0.0
 36
0.0
 17
0.0
 27
1.0
 37
0.0
 76
     0
330
23
  0
LAYOUT
  5
22
102
{ACAD_REACTORS
330
1A
102
}
330
1A
100
AcDbPlotSettings
  1

  2
none_device
  4
Letter_(8.50_x_11.00_Inches)
  6

 40
6.35
 41
6.35
 42
6.35000508
 43
6.35000508
 44
215.9
 45
279.4
 46
0.0
 47
0.0
 48
0.0
 49
0.0
140
0.0
141
0.0
142
1.0
143
1.0
 70
  1712
 72
     1
 73
     0
 74
     0
  7

 75
     0
147
1.0
148
0.0
149
0.0
100
AcDbLayout
  1
Model
 70
     1
 71
     0
 10
0.0
 20
0.0
 11
420.0
 21
297.0
 12
0.0
 22
0.0
 32
0.0
 14
0.0
 24
0.0
 34
0.0
 15
420.0
 25
297.0
 35
0.0
146
0.0
 13
0.0
 23
0.0
 33
0.0
 16
1.0
 26
0.0
 36
0.0
 17
0.0
 27
1.0
 37
0.0
 76
     0
330
1F
331
29
  0
MLINESTYLE
  5
18
102
{ACAD_REACTORS
330
17
102
}
330
17
100
AcDbMlineStyle
  2
Standard
 70
     0
  3

 62
   256
 51
90.0
 52
90.0
 71
     2
 49
0.5
 62
   256
  6
BYLAYER
 49
-0.5
 62
   256
  6
BYLAYER
  0
ACDBPLACEHOLDER
  5
F
102
{ACAD_REACTORS
330
E
102
}
330
E
  0
SCALE
  5
48
102
{ACAD_REACTORS
330
47
102
}
330
47
100
AcDbScale
 70
     0
300
1:1
140
1.0
141
1.0
290
     1
  0
SCALE
  5
49
102
{ACAD_REACTORS
330
47
102
}
330
47
100
AcDbScale
 70
     0
300
1:2
140
1.0
141
2.0
290
     0
  0
SCALE
  5
4A
102
{ACAD_REACTORS
330
47
102
}
330
47
100
AcDbScale
 70
     0
300
1:4
140
1.0
141
4.0
290
     0
  0
SCALE
  5
4B
102
{ACAD_REACTORS
330
47
102
}
330
47
100
AcDbScale
 70
     0
300
1:5
140
1.0
141
5.0
290
     0
  0
SCALE
  5
4C
102
{ACAD_REACTORS
330
47
102
}
330
47
100
AcDbScale
 70
     0
300
1:8
140
1.0
141
8.0
290
     0
  0
SCALE
  5
4D
102
{ACAD_REACTORS
330
47
102
}
330
47
100
AcDbScale
 70
     0
300
1:10
140
1.0
141
10.0
290
     0
  0
SCALE
  5
4E
102
{ACAD_REACTORS
330
47
102
}
330
47
100
AcDbScale
 70
     0
300
1:16
140
1.0
141
16.0
290
     0
  0
SCALE
  5
4F
102
{ACAD_REACTORS
330
47
102
}
330
47
100
AcDbScale
 70
     0
300
1:20
140
1.0
141
20.0
290
     0
  0
SCALE
  5
50
102
{ACAD_REACTORS
330
47
102
}
330
47
100
AcDbScale
 70
     0
300
1:30
140
1.0
141
30.0
290
     0
  0
SCALE
  5
51
102
{ACAD_REACTORS
330
47
102
}
330
47
100
AcDbScale
 70
     0
300
1:40
140
1.0
141
40.0
290
     0
  0
SCALE
  5
52
102
{ACAD_REACTORS
330
47
102
}
330
47
100
AcDbScale
 70
     0
300
1:50
140
1.0
141
50.0
290
     0
  0
SCALE
  5
53
102
{ACAD_REACTORS
330
47
102
}
330
47
100
AcDbScale
 70
     0
300
1:100
140
1.0
141
100.0
290
     0
  0
SCALE
  5
54
102
{ACAD_REACTORS
330
47
102
}
330
47
100
AcDbScale
 70
     0
300
2:1
140
2.0
141
1.0
290
     0
  0
SCALE
  5
55
102
{ACAD_REACTORS
330
47
102
}
330
47
100
AcDbScale
 70
     0
300
4:1
140
4.0
141
1.0
290
     0
  0
SCALE
  5
56
102
{ACAD_REACTORS
330
47
102
}
330
47
100
AcDbScale
 70
     0
300
8:1
140
8.0
141
1.0
290
     0
  0
SCALE
  5
57
102
{ACAD_REACTORS
330
47
102
}
330
47
100
AcDbScale
 70
     0
300
10:1
140
10.0
141
1.0
290
     0
  0
SCALE
  5
58
102
{ACAD_REACTORS
330
47
102
}
330
47
100
AcDbScale
 70
     0
300
100:1
140
100.0
141
1.0
290
     0
  0
SCALE
  5
59
102
{ACAD_REACTORS
330
47
102
}
330
47
100
AcDbScale
 70
     0
300
1/128" = 1'-0"
140
0.0078125
141
12.0
290
     0
  0
SCALE
  5
5A
102
{ACAD_REACTORS
330
47
102
}
330
47
100
AcDbScale
 70
     0
300
1/64" = 1'-0"
140
0.015625
141
12.0
290
     0
  0
SCALE
  5
5B
102
{ACAD_REACTORS
330
47
102
}
330
47
100
AcDbScale
 70
     0
300
1/32" = 1'-0"
140
0.03125
141
12.0
290
     0
  0
SCALE
  5
5C
102
{ACAD_REACTORS
330
47
102
}
330
47
100
AcDbScale
 70
     0
300
1/16" = 1'-0"
140
0.0625
141
12.0
290
     0
  0
SCALE
  5
5D
102
{ACAD_REACTORS
330
47
102
}
330
47
100
AcDbScale
 70
     0
300
3/32" = 1'-0"
140
0.09375
141
12.0
290
     0
  0
SCALE
  5
5E
102
{ACAD_REACTORS
330
47
102
}
330
47
100
AcDbScale
 70
     0
300
1/8" = 1'-0"
140
0.125
141
12.0
290
     0
  0
SCALE
  5
5F
102
{ACAD_REACTORS
330
47
102
}
330
47
100
AcDbScale
 70
     0
300
3/16" = 1'-0"
140
0.1875
141
12.0
290
     0
  0
SCALE
  5
60
102
{ACAD_REACTORS
330
47
102
}
330
47
100
AcDbScale
 70
     0
300
1/4" = 1'-0"
140
0.25
141
12.0
290
     0
  0
SCALE
  5
61
102
{ACAD_REACTORS
330
47
102
}
330
47
100
AcDbScale
 70
     0
300
3/8" = 1'-0"
140
0.375
141
12.0
290
     0
  0
SCALE
  5
62
102
{ACAD_REACTORS
330
47
102
}
330
47
100
AcDbScale
 70
     0
300
1/2" = 1'-0"
140
0.5
141
12.0
290
     0
  0
SCALE
  5
63
102
{ACAD_REACTORS
330
47
102
}
330
47
100
AcDbScale
 70
     0
300
3/4" = 1'-0"
140
0.75
141
12.0
290
     0
  0
SCALE
  5
64
102
{ACAD_REACTORS
330
47
102
}
330
47
100
AcDbScale
 70
     0
300
1" = 1'-0"
140
1.0
141
12.0
290
     0
  0
SCALE
  5
65
102
{ACAD_REACTORS
330
47
102
}
330
47
100
AcDbScale
 70
     0
300
1-1/2" = 1'-0"
140
1.5
141
12.0
290
     0
  0
SCALE
  5
66
102
{ACAD_REACTORS
330
47
102
}
330
47
100
AcDbScale
 70
     0
300
3" = 1'-0"
140
3.0
141
12.0
290
     0
  0
SCALE
  5
67
102
{ACAD_REACTORS
330
47
102
}
330
47
100
AcDbScale
 70
     0
300
6" = 1'-0"
140
6.0
141
12.0
290
     0
  0
SCALE
  5
68
102
{ACAD_REACTORS
330
47
102
}
330
47
100
AcDbScale
 70
     0
300
1'-0" = 1'-0"
140
12.0
141
12.0
290
     0
  0
ENDSEC
  0
EOF
