  0
SECTION
  2
HEADER
  9
$ACADVER
  1
AC1015
  9
$ACADMAINTVER
 70
    13
  9
$DWGCODEPAGE
  3
ANSI_1252
  9
$INSBASE
 10
0.0
 20
0.0
 30
0.0
  9
$EXTMIN
 10
-36.54955438108958
 20
-9.510236199841799
 30
0.0
  9
$EXTMAX
 10
65.60742075188723
 20
24.23401373495955
 30
0.0
  9
$LIMMIN
 10
0.0
 20
0.0
  9
$LIMMAX
 10
12.0
 20
9.0
  9
$ORTHOMODE
 70
     1
  9
$REGENMODE
 70
     1
  9
$FILLMODE
 70
     1
  9
$QTEXTMODE
 70
     0
  9
$MIRRTEXT
 70
     1
  9
$LTSCALE
 40
1.0
  9
$ATTMODE
 70
     1
  9
$TEXTSIZE
 40
0.5
  9
$TRACEWID
 40
0.05
  9
$TEXTSTYLE
  7
Standard
  9
$CLAYER
  8
0
  9
$CELTYPE
  6
ByLayer
  9
$CECOLOR
 62
   256
  9
$CELTSCALE
 40
1.0
  9
$DISPSILH
 70
     0
  9
$DIMSCALE
 40
1.0
  9
$DIMASZ
 40
0.18
  9
$DIMEXO
 40
0.0625
  9
$DIMDLI
 40
0.38
  9
$DIMRND
 40
0.0
  9
$DIMDLE
 40
0.0
  9
$DIMEXE
 40
0.18
  9
$DIMTP
 40
0.0
  9
$DIMTM
 40
0.0
  9
$DIMTXT
 40
0.18
  9
$DIMCEN
 40
0.09
  9
$DIMTSZ
 40
0.0
  9
$DIMTOL
 70
     0
  9
$DIMLIM
 70
     0
  9
$DIMTIH
 70
     1
  9
$DIMTOH
 70
     1
  9
$DIMSE1
 70
     0
  9
$DIMSE2
 70
     0
  9
$DIMTAD
 70
     0
  9
$DIMZIN
 70
     0
  9
$DIMBLK
  1

  9
$DIMASO
 70
     1
  9
$DIMSHO
 70
     1
  9
$DIMPOST
  1

  9
$DIMAPOST
  1

  9
$DIMALT
 70
     0
  9
$DIMALTD
 70
     2
  9
$DIMALTF
 40
25.4
  9
$DIMLFAC
 40
1.0
  9
$DIMTOFL
 70
     0
  9
$DIMTVP
 40
0.0
  9
$DIMTIX
 70
     0
  9
$DIMSOXD
 70
     0
  9
$DIMSAH
 70
     0
  9
$DIMBLK1
  1

  9
$DIMBLK2
  1

  9
$DIMSTYLE
  2
Standard
  9
$DIMCLRD
 70
     0
  9
$DIMCLRE
 70
     0
  9
$DIMCLRT
 70
     0
  9
$DIMTFAC
 40
1.0
  9
$DIMGAP
 40
0.09
  9
$DIMJUST
 70
     0
  9
$DIMSD1
 70
     0
  9
$DIMSD2
 70
     0
  9
$DIMTOLJ
 70
     1
  9
$DIMTZIN
 70
     0
  9
$DIMALTZ
 70
     0
  9
$DIMALTTZ
 70
     0
  9
$DIMUPT
 70
     0
  9
$DIMDEC
 70
     4
  9
$DIMTDEC
 70
     4
  9
$DIMALTU
 70
     2
  9
$DIMALTTD
 70
     2
  9
$DIMTXSTY
  7
Standard
  9
$DIMAUNIT
 70
     0
  9
$DIMADEC
 70
     0
  9
$DIMALTRND
 40
0.0
  9
$DIMAZIN
 70
     0
  9
$DIMDSEP
 70
    46
  9
$DIMATFIT
 70
     3
  9
$DIMFRAC
 70
     0
  9
$DIMLDRBLK
  1

  9
$DIMLUNIT
 70
     2
  9
$DIMLWD
 70
    -2
  9
$DIMLWE
 70
    -2
  9
$DIMTMOVE
 70
     0
  9
$LUNITS
 70
     2
  9
$LUPREC
 70
     4
  9
$SKETCHINC
 40
0.1
  9
$FILLETRAD
 40
0.5
  9
$AUNITS
 70
     0
  9
$AUPREC
 70
     0
  9
$MENU
  1
.
  9
$ELEVATION
 40
0.0
  9
$PELEVATION
 40
0.0
  9
$THICKNESS
 40
0.0
  9
$LIMCHECK
 70
     0
  9
$CHAMFERA
 40
0.5
  9
$CHAMFERB
 40
0.5
  9
$CHAMFERC
 40
1.0
  9
$CHAMFERD
 40
0.0
  9
$SKPOLY
 70
     0
  9
$TDCREATE
 40
2452597.523136076
  9
$TDUCREATE
 40
2452597.689802743
  9
$TDUPDATE
 40
2453871.563271655
  9
$TDUUPDATE
 40
2453871.729938322
  9
$TDINDWG
 40
0.0037686343
  9
$TDUSRTIMER
 40
0.0037686343
  9
$USRTIMER
 70
     1
  9
$ANGBASE
 50
0.0
  9
$ANGDIR
 70
     0
  9
$PDMODE
 70
     0
  9
$PDSIZE
 40
0.0
  9
$PLINEWID
 40
0.0
  9
$SPLFRAME
 70
     0
  9
$SPLINETYPE
 70
     6
  9
$SPLINESEGS
 70
     8
  9
$HANDSEED
  5
672
  9
$SURFTAB1
 70
     6
  9
$SURFTAB2
 70
     6
  9
$SURFTYPE
 70
     6
  9
$SURFU
 70
     6
  9
$SURFV
 70
     6
  9
$UCSBASE
  2

  9
$UCSNAME
  2

  9
$UCSORG
 10
0.0
 20
0.0
 30
0.0
  9
$UCSXDIR
 10
1.0
 20
0.0
 30
0.0
  9
$UCSYDIR
 10
0.0
 20
1.0
 30
0.0
  9
$UCSORTHOREF
  2

  9
$UCSORTHOVIEW
 70
     0
  9
$UCSORGTOP
 10
0.0
 20
0.0
 30
0.0
  9
$UCSORGBOTTOM
 10
0.0
 20
0.0
 30
0.0
  9
$UCSORGLEFT
 10
0.0
 20
0.0
 30
0.0
  9
$UCSORGRIGHT
 10
0.0
 20
0.0
 30
0.0
  9
$UCSORGFRONT
 10
0.0
 20
0.0
 30
0.0
  9
$UCSORGBACK
 10
0.0
 20
0.0
 30
0.0
  9
$PUCSBASE
  2

  9
$PUCSNAME
  2

  9
$PUCSORG
 10
0.0
 20
0.0
 30
0.0
  9
$PUCSXDIR
 10
1.0
 20
0.0
 30
0.0
  9
$PUCSYDIR
 10
0.0
 20
1.0
 30
0.0
  9
$PUCSORTHOREF
  2

  9
$PUCSORTHOVIEW
 70
     0
  9
$PUCSORGTOP
 10
0.0
 20
0.0
 30
0.0
  9
$PUCSORGBOTTOM
 10
0.0
 20
0.0
 30
0.0
  9
$PUCSORGLEFT
 10
0.0
 20
0.0
 30
0.0
  9
$PUCSORGRIGHT
 10
0.0
 20
0.0
 30
0.0
  9
$PUCSORGFRONT
 10
0.0
 20
0.0
 30
0.0
  9
$PUCSORGBACK
 10
0.0
 20
0.0
 30
0.0
  9
$USERI1
 70
     0
  9
$USERI2
 70
     0
  9
$USERI3
 70
     0
  9
$USERI4
 70
     0
  9
$USERI5
 70
     0
  9
$USERR1
 40
0.0
  9
$USERR2
 40
0.0
  9
$USERR3
 40
0.0
  9
$USERR4
 40
0.0
  9
$USERR5
 40
0.0
  9
$WORLDVIEW
 70
     1
  9
$SHADEDGE
 70
     3
  9
$SHADEDIF
 70
    70
  9
$TILEMODE
 70
     1
  9
$MAXACTVP
 70
    64
  9
$PINSBASE
 10
0.0
 20
0.0
 30
0.0
  9
$PLIMCHECK
 70
     0
  9
$PEXTMIN
 10
1.000000000000000E+20
 20
1.000000000000000E+20
 30
1.000000000000000E+20
  9
$PEXTMAX
 10
-1.000000000000000E+20
 20
-1.000000000000000E+20
 30
-1.000000000000000E+20
  9
$PLIMMIN
 10
0.0
 20
0.0
  9
$PLIMMAX
 10
12.0
 20
9.0
  9
$UNITMODE
 70
     0
  9
$VISRETAIN
 70
     1
  9
$PLINEGEN
 70
     0
  9
$PSLTSCALE
 70
     1
  9
$TREEDEPTH
 70
  3020
  9
$CMLSTYLE
  2
Standard
  9
$CMLJUST
 70
     0
  9
$CMLSCALE
 40
1.0
  9
$PROXYGRAPHICS
 70
     1
  9
$MEASUREMENT
 70
     0
  9
$CELWEIGHT
370
    -1
  9
$ENDCAPS
280
     0
  9
$JOINSTYLE
280
     0
  9
$LWDISPLAY
290
     0
  9
$INSUNITS
 70
     1
  9
$HYPERLINKBASE
  1

  9
$STYLESHEET
  1

  9
$XEDIT
290
     1
  9
$CEPSNTYPE
380
     0
  9
$PSTYLEMODE
290
     1
  9
$FINGERPRINTGUID
  2
{6659F1EF-6BF3-4106-93FF-F6CAA871E9C5}
  9
$VERSIONGUID
  2
{5F399188-3A2A-4AB4-8BA7-B84A93B7CCA9}
  9
$EXTNAMES
290
     1
  9
$PSVPSCALE
 40
0.0
  9
$OLESTARTUP
290
     0
  0
ENDSEC
  0
SECTION
  2
CLASSES
  0
CLASS
  1
ACDBDICTIONARYWDFLT
  2
AcDbDictionaryWithDefault
  3
AutoCAD 2000
 90
        0
280
     0
281
     0
  0
CLASS
  1
ACDBPLACEHOLDER
  2
AcDbPlaceHolder
  3
AutoCAD 2000
 90
        0
280
     0
281
     0
  0
CLASS
  1
LAYOUT
  2
AcDbLayout
  3
AutoCAD 2000
 90
        0
280
     0
281
     0
  0
CLASS
  1
DICTIONARYVAR
  2
AcDbDictionaryVar
  3
AutoCAD 2000
 90
        0
280
     0
281
     0
  0
ENDSEC
  0
SECTION
  2
TABLES
  0
TABLE
  2
VPORT
  5
8
330
0
100
AcDbSymbolTable
 70
     3
  0
VPORT
  5
671
330
8
100
AcDbSymbolTableRecord
100
AcDbViewportTableRecord
  2
*Active
 70
     0
 10
0.0
 20
0.0
 11
1.0
 21
1.0
 12
12.157619179079
 22
12.1000757074081
 13
0.0
 23
0.0
 14
0.5
 24
0.5
 15
0.5
 25
0.5
 16
0.0
 26
0.0
 36
1.0
 17
0.0
 27
0.0
 37
0.0
 40
13.48638262136186
 41
1.215864759427828
 42
50.0
 43
0.0
 44
0.0
 50
0.0
 51
0.0
 71
     0
 72
   100
 73
     1
 74
     3
 75
     0
 76
     0
 77
     0
 78
     0
281
     0
 65
     1
110
0.0
120
0.0
130
0.0
111
1.0
121
0.0
131
0.0
112
0.0
122
1.0
132
0.0
 79
     0
146
0.0
  0
ENDTAB
  0
TABLE
  2
LTYPE
  5
5
330
0
100
AcDbSymbolTable
 70
     3
  0
LTYPE
  5
14
330
5
100
AcDbSymbolTableRecord
100
AcDbLinetypeTableRecord
  2
ByBlock
 70
     0
  3

 72
    65
 73
     0
 40
0.0
  0
LTYPE
  5
15
330
5
100
AcDbSymbolTableRecord
100
AcDbLinetypeTableRecord
  2
ByLayer
 70
     0
  3

 72
    65
 73
     0
 40
0.0
  0
LTYPE
  5
16
330
5
100
AcDbSymbolTableRecord
100
AcDbLinetypeTableRecord
  2
Continuous
 70
     0
  3
Solid line
 72
    65
 73
     0
 40
0.0
  0
LTYPE
  5
36
330
5
100
AcDbSymbolTableRecord
100
AcDbLinetypeTableRecord
  2
CENTER
 70
     0
  3
____ _ ____ _ ____ _ ____ _ ____ _ ____ _ ____ 
 72
    65
 73
     4
 40
2.0
 49
1.25
 74
     0
 49
-0.25
 74
     0
 49
0.25
 74
     0
 49
-0.25
 74
     0
  0
LTYPE
  5
37
330
5
100
AcDbSymbolTableRecord
100
AcDbLinetypeTableRecord
  2
HIDDEN
 70
     0
  3
__ __ __ __ __ __ __ __ __ __ __ __ __ __ __ __
 72
    65
 73
     2
 40
0.375
 49
0.25
 74
     0
 49
-0.125
 74
     0
  0
ENDTAB
  0
TABLE
  2
LAYER
  5
2
330
0
100
AcDbSymbolTable
 70
    15
  0
LAYER
  5
10
330
2
100
AcDbSymbolTableRecord
100
AcDbLayerTableRecord
  2
0
 70
     0
 62
     7
  6
Continuous
370
    -3
390
F
  0
LAYER
  5
38
330
2
100
AcDbSymbolTableRecord
100
AcDbLayerTableRecord
  2
WAVE_GENERATOR
 70
     0
 62
   212
  6
Continuous
370
    -3
390
F
  0
LAYER
  5
39
330
2
100
AcDbSymbolTableRecord
100
AcDbLayerTableRecord
  2
FORMAT
 70
     0
 62
   254
  6
Continuous
370
    -3
390
F
  0
LAYER
  5
3A
330
2
100
AcDbSymbolTableRecord
100
AcDbLayerTableRecord
  2
LINE_CENTER
 70
     0
 62
    20
  6
CENTER
370
    -3
390
F
  0
LAYER
  5
3B
330
2
100
AcDbSymbolTableRecord
100
AcDbLayerTableRecord
  2
BEARING_WAVE_GEN
 70
     0
 62
   254
  6
Continuous
370
    -3
390
F
  0
LAYER
  5
3C
330
2
100
AcDbSymbolTableRecord
100
AcDbLayerTableRecord
  2
LINE_HIDDEN
 70
     0
 62
   122
  6
HIDDEN
370
    -3
390
F
  0
LAYER
  5
3D
330
2
100
AcDbSymbolTableRecord
100
AcDbLayerTableRecord
  2
RETAINER_BEARING
 70
     0
 62
   170
  6
Continuous
370
    -3
390
F
  0
LAYER
  5
3E
330
2
100
AcDbSymbolTableRecord
100
AcDbLayerTableRecord
  2
SEPARATOR_BEARING
 70
     0
 62
   163
  6
Continuous
370
    -3
390
F
  0
LAYER
  5
3F
330
2
100
AcDbSymbolTableRecord
100
AcDbLayerTableRecord
  2
SPACERS_PANCAKE
 70
     0
 62
   105
  6
Continuous
370
    -3
390
F
  0
LAYER
  5
40
330
2
100
AcDbSymbolTableRecord
100
AcDbLayerTableRecord
  2
SPLINE_DYNAMIC
 70
     0
 62
   100
  6
Continuous
370
    -3
390
F
  0
LAYER
  5
41
330
2
100
AcDbSymbolTableRecord
100
AcDbLayerTableRecord
  2
SPLINE_FLEX
 70
     0
 62
    50
  6
Continuous
370
    -3
390
F
  0
LAYER
  5
42
330
2
100
AcDbSymbolTableRecord
100
AcDbLayerTableRecord
  2
SPLINE_STATIC
 70
     0
 62
   150
  6
Continuous
370
    -3
390
F
  0
LAYER
  5
43
330
2
100
AcDbSymbolTableRecord
100
AcDbLayerTableRecord
  2
WEAR_WASHER
 70
     0
 62
   243
  6
Continuous
370
    -3
390
F
  0
LAYER
  5
5F0
330
2
100
AcDbSymbolTableRecord
100
AcDbLayerTableRecord
  2
Defpoints
 70
     0
 62
     7
  6
Continuous
290
     0
370
    -3
390
F
  0
LAYER
  5
660
330
2
100
AcDbSymbolTableRecord
100
AcDbLayerTableRecord
  2
LAYER_1
 70
     0
 62
     5
  6
Continuous
370
    -3
390
F
  0
ENDTAB
  0
TABLE
  2
STYLE
  5
3
330
0
100
AcDbSymbolTable
 70
     2
  0
STYLE
  5
11
330
3
100
AcDbSymbolTableRecord
100
AcDbTextStyleTableRecord
  2
Standard
 70
     0
 40
0.0
 41
1.0
 50
0.0
 71
     0
 42
0.5
  3
txt
  4

  0
STYLE
  5
44
330
3
100
AcDbSymbolTableRecord
100
AcDbTextStyleTableRecord
  2
ROMANS
 70
     0
 40
0.0
 41
1.0
 50
0.0
 71
     0
 42
0.15
  3
ROMANS
  4

  0
ENDTAB
  0
TABLE
  2
VIEW
  5
6
330
0
100
AcDbSymbolTable
 70
     0
  0
ENDTAB
  0
TABLE
  2
UCS
  5
7
330
0
100
AcDbSymbolTable
 70
     0
  0
ENDTAB
  0
TABLE
  2
APPID
  5
9
330
0
100
AcDbSymbolTable
 70
     1
  0
APPID
  5
12
330
9
100
AcDbSymbolTableRecord
100
AcDbRegAppTableRecord
  2
ACAD
 70
     0
  0
ENDTAB
  0
TABLE
  2
DIMSTYLE
  5
A
330
0
100
AcDbSymbolTable
 70
     2
100
AcDbDimStyleTable
 71
     0
  0
DIMSTYLE
105
27
330
A
100
AcDbSymbolTableRecord
100
AcDbDimStyleTableRecord
  2
Standard
 70
     0
340
11
  0
DIMSTYLE
105
45
330
A
100
AcDbSymbolTableRecord
100
AcDbDimStyleTableRecord
  2
ENG_METRIC
 70
     0
 43
0.5
 44
0.09
 78
     1
140
0.156
141
0.0
144
25.4
146
0.6666666666
176
   256
177
   256
178
   256
271
     0
272
     0
284
     1
288
     1
289
     2
340
44
371
    -1
372
    -1
  0
ENDTAB
  0
TABLE
  2
BLOCK_RECORD
  5
1
330
0
100
AcDbSymbolTable
 70
    24
  0
BLOCK_RECORD
  5
1F
330
1
100
AcDbSymbolTableRecord
100
AcDbBlockTableRecord
  2
*Model_Space
340
22
  0
BLOCK_RECORD
  5
1B
330
1
100
AcDbSymbolTableRecord
100
AcDbBlockTableRecord
  2
*Paper_Space
340
1E
  0
BLOCK_RECORD
  5
23
330
1
100
AcDbSymbolTableRecord
100
AcDbBlockTableRecord
  2
*Paper_Space0
340
26
  0
BLOCK_RECORD
  5
2B
330
1
100
AcDbSymbolTableRecord
100
AcDbBlockTableRecord
  2
WG BEARING
340
0
310
2800000020000000200000000100080000000000000400000000000000000000000000000000000000000000000080000080000000808000800000008000800080800000C0C0C000C0DCC000F0CAA6000020400000206000002080000020A0000020C0000020E00000400000004020000040400000406000004080000040A0
310
000040C0000040E00000600000006020000060400000606000006080000060A0000060C0000060E00000800000008020000080400000806000008080000080A0000080C0000080E00000A0000000A0200000A0400000A0600000A0800000A0A00000A0C00000A0E00000C0000000C0200000C0400000C0600000C0800000C0
310
A00000C0C00000C0E00000E0000000E0200000E0400000E0600000E0800000E0A00000E0C00000E0E00040000000400020004000400040006000400080004000A0004000C0004000E00040200000402020004020400040206000402080004020A0004020C0004020E000404000004040200040404000404060004040800040
310
40A0004040C0004040E00040600000406020004060400040606000406080004060A0004060C0004060E00040800000408020004080400040806000408080004080A0004080C0004080E00040A0000040A0200040A0400040A0600040A0800040A0A00040A0C00040A0E00040C0000040C0200040C0400040C0600040C08000
310
40C0A00040C0C00040C0E00040E0000040E0200040E0400040E0600040E0800040E0A00040E0C00040E0E00080000000800020008000400080006000800080008000A0008000C0008000E00080200000802020008020400080206000802080008020A0008020C0008020E00080400000804020008040400080406000804080
310
008040A0008040C0008040E00080600000806020008060400080606000806080008060A0008060C0008060E00080800000808020008080400080806000808080008080A0008080C0008080E00080A0000080A0200080A0400080A0600080A0800080A0A00080A0C00080A0E00080C0000080C0200080C0400080C0600080C0
310
800080C0A00080C0C00080C0E00080E0000080E0200080E0400080E0600080E0800080E0A00080E0C00080E0E000C0000000C0002000C0004000C0006000C0008000C000A000C000C000C000E000C0200000C0202000C0204000C0206000C0208000C020A000C020C000C020E000C0400000C0402000C0404000C0406000C0
310
408000C040A000C040C000C040E000C0600000C0602000C0604000C0606000C0608000C060A000C060C000C060E000C0800000C0802000C0804000C0806000C0808000C080A000C080C000C080E000C0A00000C0A02000C0A04000C0A06000C0A08000C0A0A000C0A0C000C0A0E000C0C00000C0C02000C0C04000C0C06000
310
C0C08000C0C0A000F0FBFF00A4A0A000808080000000FF0000FF000000FFFF00FF000000FF00FF00FFFF0000FFFFFF0000000000000000000000000000000000000000000000000000000000000000000000000000000000000000000000000000000000000000000000000000000000000000000000000000000000000000
310
00000000000000000000000000000000000000000000080808080808080808080808080808080808080808080000000000000000000008000000000000000000000000000000000000000008000000000000000000000800000000000000000000000000000000000000000800000000000000000000080000000000000000
310
0000000000000000000000000800000000000000000000080000000000000008080808080800000000000000080000000000000000000008080808080808080000000000000808080808080808000000000000000000000000000000080000000000000000000800000000000000000000000000E3E3E3E3E3E30008000000
310
000000000000000008080000000000000000000000E300000000E30008000000000000000000000000000800000000000000000000E300000000E30800000000000000000000000000000800000000000000000000E300000000E30000000000000000000000000000000008000000000000000000E300000000E300000000
310
00000000000000000000000008000000000000000000E300000000E30000000000000000000000000000000008000000000000000000E300000000E30000000000000000000000000000000008000000000000000000E300000000E30000000000000000000000000000000008000000000000000000E300000000E3000000
310
0000000000000000000000000008000000000000000000E300000000E30800000000000000000000000000000800000000000000000000E300000000E30008000000000000000000000000000800000000000000000000E3E3E3E3E3E300080000000000000000000000000800000000000000000000000000000000000000
310
08000000000000000000080800000000000000000000000008080808080808080808080000000000000808080808080808080808000000080000000000000000000008080808080808000000000000000000000008000008000000000000000000000000000000000000000000000000000000000800000800000000000000
310
00000000000000000000000000000000000000000008000000080000000000000000000000000000000000000000000000000000080000000008080808080808080808080808080808080808080808080808080808000000000000000000000000000000000000000000000000000000000000000000000000000000000000
310
0000000000000000000000000000000000000000000000000000000000000000000000000000000000000000000000000000000000000000
102
{BLKREFS
331
33
102
}
  0
BLOCK_RECORD
  5
32
330
1
100
AcDbSymbolTableRecord
100
AcDbBlockTableRecord
  2
BEARING WG 32 1423140-20
340
0
102
{BLKREFS
331
51
331
50
331
168
331
162
331
41E
331
424
331
30C
331
30D
102
}
  0
BLOCK_RECORD
  5
5E7
330
1
100
AcDbSymbolTableRecord
100
AcDbBlockTableRecord
  2
NTC
340
0
310
2800000020000000200000000100080000000000000400000000000000000000000000000000000000000000000080000080000000808000800000008000800080800000C0C0C000C0DCC000F0CAA6000020400000206000002080000020A0000020C0000020E00000400000004020000040400000406000004080000040A0
310
000040C0000040E00000600000006020000060400000606000006080000060A0000060C0000060E00000800000008020000080400000806000008080000080A0000080C0000080E00000A0000000A0200000A0400000A0600000A0800000A0A00000A0C00000A0E00000C0000000C0200000C0400000C0600000C0800000C0
310
A00000C0C00000C0E00000E0000000E0200000E0400000E0600000E0800000E0A00000E0C00000E0E00040000000400020004000400040006000400080004000A0004000C0004000E00040200000402020004020400040206000402080004020A0004020C0004020E000404000004040200040404000404060004040800040
310
40A0004040C0004040E00040600000406020004060400040606000406080004060A0004060C0004060E00040800000408020004080400040806000408080004080A0004080C0004080E00040A0000040A0200040A0400040A0600040A0800040A0A00040A0C00040A0E00040C0000040C0200040C0400040C0600040C08000
310
40C0A00040C0C00040C0E00040E0000040E0200040E0400040E0600040E0800040E0A00040E0C00040E0E00080000000800020008000400080006000800080008000A0008000C0008000E00080200000802020008020400080206000802080008020A0008020C0008020E00080400000804020008040400080406000804080
310
008040A0008040C0008040E00080600000806020008060400080606000806080008060A0008060C0008060E00080800000808020008080400080806000808080008080A0008080C0008080E00080A0000080A0200080A0400080A0600080A0800080A0A00080A0C00080A0E00080C0000080C0200080C0400080C0600080C0
310
800080C0A00080C0C00080C0E00080E0000080E0200080E0400080E0600080E0800080E0A00080E0C00080E0E000C0000000C0002000C0004000C0006000C0008000C000A000C000C000C000E000C0200000C0202000C0204000C0206000C0208000C020A000C020C000C020E000C0400000C0402000C0404000C0406000C0
310
408000C040A000C040C000C040E000C0600000C0602000C0604000C0606000C0608000C060A000C060C000C060E000C0800000C0802000C0804000C0806000C0808000C080A000C080C000C080E000C0A00000C0A02000C0A04000C0A06000C0A08000C0A0A000C0A0C000C0A0E000C0C00000C0C02000C0C04000C0C06000
310
C0C08000C0C0A000F0FBFF00A4A0A000808080000000FF0000FF000000FFFF00FF000000FF00FF00FFFF0000FFFFFF00FFFFFFFFFFFFFFFFFFFFFFFFFFFFFFFFFFFFFFFFFFFFFFFFFFFFFFFFFFFFFFFFFFFFFFFFFFFFFFFFFFFFFFFFFFFFFFFFFFFFFFFFFFFFFFFFFFFFFFFFFFFFFFFFFFFFFFFFFFFFFFFFFFFFFFFFFFFFFF
310
FFFFFFFFFFFFFFFFFFFFFFFFFFFFFFFFFFFFFFFFFFFFFFFFFFFFFFFFFFFFFFFFFFFFFFFFFFFFFFFFFFFFFFFFFFFFFFFFFFFFFFFFFFFFFFFFFFFFFFFFFFFFFFFFFFFFFFFFFFFFFFFFFFFFFFFFFFFFFFFFFFFFFFFFFFFFFFFFFFFFFFFFFFFFFFFFFFFFFFFFFFFFFFFFFFFFFFFFFFFFFFFFFFFFFFFFFFFFFFFFFFFFFFFFFFFFFF
310
FFFFFFFFFFFFFFFFFFFFFFFFFFFFFFFFFFFFFFFFFFFFFFFFFFFFFFFFFFFFFFFFFFFFFFFFFFFFFFFFFFFFFFFFFFFFFFFFFFFFFFFFFFFFFFFFFFFFFFFFFFFFFFFFFFFFFFFFFFFFFFFFFFFFFFFFFFFFFFFFFFFFFFFFFFFFFFFFFFFFFFFFFFFFFFFFFFFFFFFFFFFFFFFFFFFFFFFFFFFFFFFFFFFFFFFFFFFFFFFFFFFFFFFFFFFFFF
310
FFFFFFFFFFFFFFFFFFFFFFFFFFFFFFFFFFFFFFFF000000000000000000000000000000000000000000000000000000000000FFFF00FF0000000000000000FFFFFFFFFFFFFFFFFFFFFFFFFFFFFFFFFFFFFF00FFFF00FF0000000000000000FFFFFFFFFFFFFFFFFFFFFFFFFFFFFFFFFFFFFF00FFFF00FF000000000000000000
310
00000000000000000000000000FFFFFFFFFF00FFFF00FF0000000000000000000000000000000000000000000000000000FF00FFFF00FF0000000000000000000000000000000000000000000000000000FF00FFFF00FF0000000000000000000000000000000000000000000000000000FF00FFFF00FF0000000000000000
310
00000000000000000000000000000000FFFFFF00FFFF00FF0000000000FFFFFFFFFFFFFFFFFFFFFFFFFFFFFFFFFFFFFFFFFFFF00FFFF000000000000000000000000000000000000000000000000000000000000FFFFFFFFFFFFFFFFFFFFFFFFFFFFFFFFFFFFFFFFFFFFFFFFFFFFFFFFFFFFFFFFFFFFFFFFFFFFFFFFFFFFFF
310
FFFFFFFFFFFFFFFFFFFFFFFFFFFFFFFFFFFFFFFFFFFFFFFFFFFFFFFFFFFFFFFFFFFFFFFFFFFFFFFFFFFFFFFFFFFFFFFFFFFFFFFFFFFFFFFFFFFFFFFFFFFFFFFFFFFFFFFFFFFFFFFFFFFFFFFFFFFFFFFFFFFFFFFFFFFFFFFFFFFFFFFFFFFFFFFFFFFFFFFFFFFFFFFFFFFFFFFFFFFFFFFFFFFFFFFFFFFFFFFFFFFFFFFFFFFFFF
310
FFFFFFFFFFFFFFFFFFFFFFFFFFFFFFFFFFFFFFFFFFFFFFFFFFFFFFFFFFFFFFFFFFFFFFFFFFFFFFFFFFFFFFFFFFFFFFFFFFFFFFFFFFFFFFFFFFFFFFFFFFFFFFFFFFFFFFFFFFFFFFFFFFFFFFFFFFFFFFFFFFFFFFFFFFFFFFFFFFFFFFFFFFFFFFFFFFFFFFFFFFFFFFFFFFFFFFFFFFFFFFFFFFFFFFFFFFFFFFFFFFFFFFFFFFFFFF
310
FFFFFFFFFFFFFFFFFFFFFFFFFFFFFFFFFFFFFFFFFFFFFFFFFFFFFFFFFFFFFFFFFFFFFFFFFFFFFFFFFFFFFFFFFFFFFFFFFFFFFFFFFFFFFFFF
102
{BLKREFS
331
5ED
102
}
  0
BLOCK_RECORD
  5
5EC
330
1
100
AcDbSymbolTableRecord
100
AcDbBlockTableRecord
  2
Notice
340
0
310
2800000020000000200000000100080000000000000400000000000000000000000000000000000000000000000080000080000000808000800000008000800080800000C0C0C000C0DCC000F0CAA6000020400000206000002080000020A0000020C0000020E00000400000004020000040400000406000004080000040A0
310
000040C0000040E00000600000006020000060400000606000006080000060A0000060C0000060E00000800000008020000080400000806000008080000080A0000080C0000080E00000A0000000A0200000A0400000A0600000A0800000A0A00000A0C00000A0E00000C0000000C0200000C0400000C0600000C0800000C0
310
A00000C0C00000C0E00000E0000000E0200000E0400000E0600000E0800000E0A00000E0C00000E0E00040000000400020004000400040006000400080004000A0004000C0004000E00040200000402020004020400040206000402080004020A0004020C0004020E000404000004040200040404000404060004040800040
310
40A0004040C0004040E00040600000406020004060400040606000406080004060A0004060C0004060E00040800000408020004080400040806000408080004080A0004080C0004080E00040A0000040A0200040A0400040A0600040A0800040A0A00040A0C00040A0E00040C0000040C0200040C0400040C0600040C08000
310
40C0A00040C0C00040C0E00040E0000040E0200040E0400040E0600040E0800040E0A00040E0C00040E0E00080000000800020008000400080006000800080008000A0008000C0008000E00080200000802020008020400080206000802080008020A0008020C0008020E00080400000804020008040400080406000804080
310
008040A0008040C0008040E00080600000806020008060400080606000806080008060A0008060C0008060E00080800000808020008080400080806000808080008080A0008080C0008080E00080A0000080A0200080A0400080A0600080A0800080A0A00080A0C00080A0E00080C0000080C0200080C0400080C0600080C0
310
800080C0A00080C0C00080C0E00080E0000080E0200080E0400080E0600080E0800080E0A00080E0C00080E0E000C0000000C0002000C0004000C0006000C0008000C000A000C000C000C000E000C0200000C0202000C0204000C0206000C0208000C020A000C020C000C020E000C0400000C0402000C0404000C0406000C0
310
408000C040A000C040C000C040E000C0600000C0602000C0604000C0606000C0608000C060A000C060C000C060E000C0800000C0802000C0804000C0806000C0808000C080A000C080C000C080E000C0A00000C0A02000C0A04000C0A06000C0A08000C0A0A000C0A0C000C0A0E000C0C00000C0C02000C0C04000C0C06000
310
C0C08000C0C0A000F0FBFF00A4A0A000808080000000FF0000FF000000FFFF00FF000000FF00FF00FFFF0000FFFFFF00FFFFFFFFFFFFFFFFFFFFFFFFFFFFFFFFFFFFFFFFFFFFFFFFFFFFFFFFFFFFFFFFFFFFFFFFFFFFFFFFFFFFFFFFFFFFFFFFFFFFFFFFFFFFFFFFFFFFFFFFFFFFFFFFFFFFFFFFFFFFFFFFFFFFFFFFFFFFFF
310
FFFFFFFFFFFFFFFFFFFFFFFFFFFFFFFFFFFFFFFFFFFFFFFFFFFFFFFFFFFFFFFFFFFFFFFFFFFFFFFFFFFFFFFFFFFFFFFFFFFFFFFFFFFFFFFFFFFFFFFFFFFFFFFFFFFFFFFFFFFFFFFFFFFFFFFFFFFFFFFFFFFFFFFFFFFFFFFFFFFFFFFFFFFFFFFFFFFFFFFFFFFFFFFFFFFFFFFFFFFFFFFFFFFFFFFFFFFFFFFFFFFFFFFFFFFFFF
310
FFFFFFFFFFFFFFFFFFFFFFFFFFFFFFFFFFFFFFFFFFFFFFFFFFFFFFFFFFFFFFFFFFFFFFFFFFFFFFFFFFFFFFFFFFFFFFFFFFFFFFFFFFFFFFFFFFFFFFFFFFFFFFFFFFFFFFFFFFFFFFFFFFFFFFFFFFFFFFFFFFFFFFFFFFFFFFFFFFFFFFFFFFFFFFFFFFFFFFFFFFFFFFFFFFFFFFFFFFFFFFFFFFFFFFFFFFFFFFFFFFFFFFFFFFFFFF
310
FFFFFFFFFFFFFFFFFFFFFFFFFFFFFFFFFFFFFFFF000000000000000000000000000000000000000000000000000000000000FFFF00FF0000000000000000FFFFFFFFFFFFFFFFFFFFFFFFFFFFFFFFFFFFFF00FFFF00FF0000000000000000FFFFFFFFFFFFFFFFFFFFFFFFFFFFFFFFFFFFFF00FFFF00FF000000000000000000
310
00000000000000000000000000FFFFFFFFFF00FFFF00FF0000000000000000000000000000000000000000000000000000FF00FFFF00FF0000000000000000000000000000000000000000000000000000FF00FFFF00FF0000000000000000000000000000000000000000000000000000FF00FFFF00FF0000000000000000
310
00000000000000000000000000000000FFFFFF00FFFF00FF000000000000FFFFFFFFFFFFFFFFFFFFFFFFFFFFFFFFFFFFFFFFFF00FFFF000000000000000000000000000000000000000000000000000000000000FFFFFFFFFFFFFFFFFFFFFFFFFFFFFFFFFFFFFFFFFFFFFFFFFFFFFFFFFFFFFFFFFFFFFFFFFFFFFFFFFFFFFF
310
FFFFFFFFFFFFFFFFFFFFFFFFFFFFFFFFFFFFFFFFFFFFFFFFFFFFFFFFFFFFFFFFFFFFFFFFFFFFFFFFFFFFFFFFFFFFFFFFFFFFFFFFFFFFFFFFFFFFFFFFFFFFFFFFFFFFFFFFFFFFFFFFFFFFFFFFFFFFFFFFFFFFFFFFFFFFFFFFFFFFFFFFFFFFFFFFFFFFFFFFFFFFFFFFFFFFFFFFFFFFFFFFFFFFFFFFFFFFFFFFFFFFFFFFFFFFFF
310
FFFFFFFFFFFFFFFFFFFFFFFFFFFFFFFFFFFFFFFFFFFFFFFFFFFFFFFFFFFFFFFFFFFFFFFFFFFFFFFFFFFFFFFFFFFFFFFFFFFFFFFFFFFFFFFFFFFFFFFFFFFFFFFFFFFFFFFFFFFFFFFFFFFFFFFFFFFFFFFFFFFFFFFFFFFFFFFFFFFFFFFFFFFFFFFFFFFFFFFFFFFFFFFFFFFFFFFFFFFFFFFFFFFFFFFFFFFFFFFFFFFFFFFFFFFFFF
310
FFFFFFFFFFFFFFFFFFFFFFFFFFFFFFFFFFFFFFFFFFFFFFFFFFFFFFFFFFFFFFFFFFFFFFFFFFFFFFFFFFFFFFFFFFFFFFFFFFFFFFFFFFFFFFFF
102
{BLKREFS
331
5F2
331
5F7
102
}
  0
BLOCK_RECORD
  5
5F8
330
1
100
AcDbSymbolTableRecord
100
AcDbBlockTableRecord
  2
AI9-BLK14
340
0
310
2800000020000000200000000100080000000000000400000000000000000000000000000000000000000000000080000080000000808000800000008000800080800000C0C0C000C0DCC000F0CAA6000020400000206000002080000020A0000020C0000020E00000400000004020000040400000406000004080000040A0
310
000040C0000040E00000600000006020000060400000606000006080000060A0000060C0000060E00000800000008020000080400000806000008080000080A0000080C0000080E00000A0000000A0200000A0400000A0600000A0800000A0A00000A0C00000A0E00000C0000000C0200000C0400000C0600000C0800000C0
310
A00000C0C00000C0E00000E0000000E0200000E0400000E0600000E0800000E0A00000E0C00000E0E00040000000400020004000400040006000400080004000A0004000C0004000E00040200000402020004020400040206000402080004020A0004020C0004020E000404000004040200040404000404060004040800040
310
40A0004040C0004040E00040600000406020004060400040606000406080004060A0004060C0004060E00040800000408020004080400040806000408080004080A0004080C0004080E00040A0000040A0200040A0400040A0600040A0800040A0A00040A0C00040A0E00040C0000040C0200040C0400040C0600040C08000
310
40C0A00040C0C00040C0E00040E0000040E0200040E0400040E0600040E0800040E0A00040E0C00040E0E00080000000800020008000400080006000800080008000A0008000C0008000E00080200000802020008020400080206000802080008020A0008020C0008020E00080400000804020008040400080406000804080
310
008040A0008040C0008040E00080600000806020008060400080606000806080008060A0008060C0008060E00080800000808020008080400080806000808080008080A0008080C0008080E00080A0000080A0200080A0400080A0600080A0800080A0A00080A0C00080A0E00080C0000080C0200080C0400080C0600080C0
310
800080C0A00080C0C00080C0E00080E0000080E0200080E0400080E0600080E0800080E0A00080E0C00080E0E000C0000000C0002000C0004000C0006000C0008000C000A000C000C000C000E000C0200000C0202000C0204000C0206000C0208000C020A000C020C000C020E000C0400000C0402000C0404000C0406000C0
310
408000C040A000C040C000C040E000C0600000C0602000C0604000C0606000C0608000C060A000C060C000C060E000C0800000C0802000C0804000C0806000C0808000C080A000C080C000C080E000C0A00000C0A02000C0A04000C0A06000C0A08000C0A0A000C0A0C000C0A0E000C0C00000C0C02000C0C04000C0C06000
310
C0C08000C0C0A000F0FBFF00A4A0A000808080000000FF0000FF000000FFFF00FF000000FF00FF00FFFF0000FFFFFF00FF00FFFFFFFF00FFFFFFFFFFFFFFFFFFFFFFFFFFFFFFFFFFFFFFFFFFFFFFFFFFFF00FFFFFFFF00FFFFFFFFFFFFFFFFFFFFFFFFFFFFFFFFFFFFFFFFFFFFFFFFFFFF00FFFFFFFF00FFFFFFFFFFFFFFFF
310
FFFFFFFFFFFFFFFFFFFFFFFFFFFFFFFFFFFF00FFFFFFFF00FFFFFFFFFFFFFFFFFFFFFFFFFFFFFFFFFFFFFFFFFFFFFFFFFFFF00FFFFFFFF00FFFFFFFFFFFFFFFFFFFFFFFFFFFFFFFFFFFFFFFFFFFFFFFFFFFF00FFFFFFFF00FFFFFFFFFFFFFFFFFFFFFFFFFFFFFFFFFFFFFFFFFFFFFFFFFFFF00FFFFFFFF00FFFFFFFFFFFFFF
310
FFFFFFFFFFFFFFFFFFFFFFFFFFFFFFFFFFFFFF00FFFFFFFF00FFFFFFFFFFFFFFFFFFFFFFFFFFFFFFFFFFFFFFFFFFFFFFFFFFFF00FFFFFFFF00FFFFFFFFFFFFFFFFFFFFFFFFFFFFFFFFFFFFFFFFFFFFFFFFFFFF00FFFFFFFF00FFFFFFFFFFFFFFFFFFFFFFFFFFFFFFFFFFFFFFFFFFFFFFFFFFFF00FFFFFFFF00FFFFFFFFFFFF
310
FFFFFFFFFFFFFFFFFFFFFFFFFFFFFFFFFFFFFFFF00FFFFFFFF00FFFFFFFFFFFFFFFFFFFFFFFFFFFFFFFFFFFFFFFFFFFFFFFFFFFF00FFFFFFFF00FFFFFFFFFFFFFFFFFFFFFFFFFFFFFFFFFFFFFFFFFFFFFFFFFFFF00FFFFFFFF0000000000000000000000000000000000000000000000000000FF00FFFFFFFFFFFFFFFFFFFF
310
FFFFFFFFFFFFFFFFFFFFFFFFFFFFFFFFFFFFFFFFFF00FFFFFFFFFFFFFFFFFFFFFFFFFFFFFFFFFFFFFFFFFFFFFFFFFFFFFFFFFFFFFF00FFFFFFFFFFFFFFFFFFFFFFFFFFFFFFFFFFFFFFFFFFFFFFFFFFFFFFFFFFFFFF00FFFFFFFFFFFFFFFFFFFFFFFFFFFFFFFFFFFFFFFFFFFFFFFFFFFFFFFFFF00FF00000000000000000000
310
0000000000000000000000000000000000000000FFFFFFFFFFFFFFFFFFFFFFFFFFFFFFFFFFFFFFFFFFFFFFFFFFFFFFFFFFFFFFFFFFFFFFFFFFFFFFFFFFFFFFFFFFFFFFFFFFFFFFFFFFFFFFFFFFFFFFFFFFFFFFFFFFFFFFFFFFFFFFFFFFFFFFFFFFFFFFFFFFFFFFFFFFFFFFFFFFFFFFFFFFFFFFFFFFFFFFFFFFFFFFFFFFFFFF
310
FFFFFFFFFFFFFFFFFFFFFFFFFFFFFFFFFFFFFFFFFFFFFFFFFFFFFFFFFFFFFFFFFFFFFFFFFFFFFFFFFFFFFFFFFFFFFFFFFFFFFFFFFFFFFFFFFFFFFFFFFFFFFFFFFFFFFFFFFFFFFFFFFFFFFFFFFFFFFFFFFFFFFFFFFFFFFFFFFFFFFFFFFFFFFFFFFFFFFFFFFFFFFFFFFFFFFFFFFFFFFFFFFFFFFFFFFFFFFFFFFFFFFFFFFFFFFF
310
FFFFFFFFFFFFFFFFFFFFFFFFFFFFFFFFFFFFFFFFFFFFFFFFFFFFFFFFFFFFFFFFFFFFFFFFFFFFFFFFFFFFFFFFFFFFFFFFFFFFFFFFFFFFFFFFFFFFFFFFFFFFFFFFFFFFFFFFFFFFFFFFFFFFFFFFFFFFFFFFFFFFFFFFFFFFFFFFFFFFFFFFFFFFFFFFFFFFFFFFFFFFFFFFFFFFFFFFFFFFFFFFFFFFFFFFFFFFFFFFFFFFFFFFFFFFFF
310
FFFFFFFFFFFFFFFFFFFFFFFFFFFFFFFFFFFFFFFFFFFFFFFFFFFFFFFFFFFFFFFFFFFFFFFFFFFFFFFFFFFFFFFFFFFFFFFFFFFFFFFFFFFFFFFF
102
{BLKREFS
331
639
102
}
  0
BLOCK_RECORD
  5
5FD
330
1
100
AcDbSymbolTableRecord
100
AcDbBlockTableRecord
  2
AI9-BLK13
340
0
310
2800000020000000200000000100080000000000000400000000000000000000000000000000000000000000000080000080000000808000800000008000800080800000C0C0C000C0DCC000F0CAA6000020400000206000002080000020A0000020C0000020E00000400000004020000040400000406000004080000040A0
310
000040C0000040E00000600000006020000060400000606000006080000060A0000060C0000060E00000800000008020000080400000806000008080000080A0000080C0000080E00000A0000000A0200000A0400000A0600000A0800000A0A00000A0C00000A0E00000C0000000C0200000C0400000C0600000C0800000C0
310
A00000C0C00000C0E00000E0000000E0200000E0400000E0600000E0800000E0A00000E0C00000E0E00040000000400020004000400040006000400080004000A0004000C0004000E00040200000402020004020400040206000402080004020A0004020C0004020E000404000004040200040404000404060004040800040
310
40A0004040C0004040E00040600000406020004060400040606000406080004060A0004060C0004060E00040800000408020004080400040806000408080004080A0004080C0004080E00040A0000040A0200040A0400040A0600040A0800040A0A00040A0C00040A0E00040C0000040C0200040C0400040C0600040C08000
310
40C0A00040C0C00040C0E00040E0000040E0200040E0400040E0600040E0800040E0A00040E0C00040E0E00080000000800020008000400080006000800080008000A0008000C0008000E00080200000802020008020400080206000802080008020A0008020C0008020E00080400000804020008040400080406000804080
310
008040A0008040C0008040E00080600000806020008060400080606000806080008060A0008060C0008060E00080800000808020008080400080806000808080008080A0008080C0008080E00080A0000080A0200080A0400080A0600080A0800080A0A00080A0C00080A0E00080C0000080C0200080C0400080C0600080C0
310
800080C0A00080C0C00080C0E00080E0000080E0200080E0400080E0600080E0800080E0A00080E0C00080E0E000C0000000C0002000C0004000C0006000C0008000C000A000C000C000C000E000C0200000C0202000C0204000C0206000C0208000C020A000C020C000C020E000C0400000C0402000C0404000C0406000C0
310
408000C040A000C040C000C040E000C0600000C0602000C0604000C0606000C0608000C060A000C060C000C060E000C0800000C0802000C0804000C0806000C0808000C080A000C080C000C080E000C0A00000C0A02000C0A04000C0A06000C0A08000C0A0A000C0A0C000C0A0E000C0C00000C0C02000C0C04000C0C06000
310
C0C08000C0C0A000F0FBFF00A4A0A000808080000000FF0000FF000000FFFF00FF000000FF00FF00FFFF0000FFFFFF00FFFFFFFFFFFFFFFFFFFFFFFFFFFFFFFFFFFFFFFFFFFFFFFFFFFFFFFFFFFFFFFFFFFFFFFFFFFFFFFFFFFFFF0000FFFFFFFFFFFF0000FFFFFFFFFFFFFFFFFFFFFFFFFFFFFFFFFFFFFFFFFFFF0000FFFF
310
FFFFFFFF0000FFFFFFFFFFFFFFFFFFFFFFFFFFFFFFFFFFFFFFFFFFFF0000FFFFFFFFFFFF0000FFFFFFFFFFFFFFFFFFFFFFFFFFFFFFFFFFFFFFFFFFFF0000FFFFFFFFFFFF0000FFFFFFFFFFFFFFFFFFFFFFFFFFFFFFFFFFFFFFFFFFFF0000FFFFFFFFFFFF0000FFFFFFFFFFFFFFFFFFFFFFFFFFFFFFFFFFFFFFFFFFFF0000FF
310
FFFFFFFFFF0000FFFFFFFFFFFFFFFFFFFFFFFFFFFFFFFFFFFFFFFFFFFF0000FFFFFFFFFFFF0000FFFFFFFFFFFFFFFFFFFFFFFFFFFFFFFFFFFFFFFFFFFF0000FFFFFFFFFFFF0000FFFFFFFFFFFFFFFFFFFFFFFFFFFFFFFFFFFFFFFFFFFF0000FFFFFFFFFFFF0000FFFFFFFFFFFFFFFFFFFFFFFFFFFFFFFFFFFFFFFFFFFF0000
310
FFFFFFFFFFFF0000FFFFFFFFFFFFFFFFFFFFFFFFFFFFFFFFFFFFFFFFFFFF0000FFFFFFFFFFFF0000FFFFFFFFFFFFFFFFFFFFFFFFFFFFFFFFFFFFFFFFFFFF0000FFFFFFFFFFFF0000FFFFFFFFFFFFFFFFFFFFFFFFFFFFFFFFFFFFFFFFFFFF0000FFFFFFFFFFFF0000FFFFFFFFFFFFFFFFFFFFFFFFFFFFFFFFFFFFFFFFFFFF00
310
00FFFFFFFFFFFF0000FFFFFFFFFFFFFFFFFFFFFFFFFFFFFFFFFFFFFFFFFFFF00000000000000000000FFFFFFFFFFFFFFFFFFFFFFFFFFFFFFFFFFFFFFFFFFFF00FFFFFFFFFFFFFFFF00FFFFFFFFFFFFFFFFFFFFFFFFFFFFFFFFFFFFFFFFFFFF00FFFFFFFFFFFFFFFF00FFFFFFFFFFFFFFFFFFFFFFFFFFFFFFFFFFFFFFFFFFFF
310
00000000000000000000FFFFFFFFFFFFFFFFFFFFFFFFFFFFFFFFFFFFFFFFFFFF0000FFFFFFFFFFFF0000FFFFFFFFFFFFFFFFFFFFFFFFFFFFFFFFFFFFFFFFFFFF0000FFFFFFFFFFFF0000FFFFFFFFFFFFFFFFFFFFFFFFFFFFFFFFFFFFFFFFFFFF0000FFFFFFFFFFFF0000FFFFFFFFFFFFFFFFFFFFFFFFFFFFFFFFFFFFFFFFFF
310
FF0000FFFFFFFFFFFF0000FFFFFFFFFFFFFFFFFFFFFFFFFFFFFFFFFFFFFFFFFFFF0000FFFFFFFFFFFF0000FFFFFFFFFFFFFFFFFFFFFFFFFFFFFFFFFFFFFFFFFFFF0000FFFFFFFFFFFF0000FFFFFFFFFFFFFFFFFFFFFFFFFFFFFFFFFFFFFFFFFFFF0000FFFFFFFFFFFF0000FFFFFFFFFFFFFFFFFFFFFFFFFFFFFFFFFFFFFFFF
310
FFFF0000FFFFFFFFFFFF0000FFFFFFFFFFFFFFFFFFFFFFFFFFFFFFFFFFFFFFFFFFFF0000FFFFFFFFFFFF0000FFFFFFFFFFFFFFFFFFFFFFFFFFFFFFFFFFFFFFFFFFFF0000FFFFFFFFFFFF0000FFFFFFFFFFFFFFFFFFFFFFFFFFFFFFFFFFFFFFFFFFFF0000FFFFFFFFFFFF0000FFFFFFFFFFFFFFFFFFFFFFFFFFFFFFFFFFFFFF
310
FFFFFF0000FFFFFFFFFFFF0000FFFFFFFFFFFFFFFFFFFFFFFFFFFFFFFFFFFFFFFFFFFFFFFFFFFFFFFFFFFFFFFFFFFFFFFFFFFFFFFFFFFFFF
102
{BLKREFS
331
63A
102
}
  0
BLOCK_RECORD
  5
602
330
1
100
AcDbSymbolTableRecord
100
AcDbBlockTableRecord
  2
AI9-BLK11
340
0
310
2800000020000000200000000100080000000000000400000000000000000000000000000000000000000000000080000080000000808000800000008000800080800000C0C0C000C0DCC000F0CAA6000020400000206000002080000020A0000020C0000020E00000400000004020000040400000406000004080000040A0
310
000040C0000040E00000600000006020000060400000606000006080000060A0000060C0000060E00000800000008020000080400000806000008080000080A0000080C0000080E00000A0000000A0200000A0400000A0600000A0800000A0A00000A0C00000A0E00000C0000000C0200000C0400000C0600000C0800000C0
310
A00000C0C00000C0E00000E0000000E0200000E0400000E0600000E0800000E0A00000E0C00000E0E00040000000400020004000400040006000400080004000A0004000C0004000E00040200000402020004020400040206000402080004020A0004020C0004020E000404000004040200040404000404060004040800040
310
40A0004040C0004040E00040600000406020004060400040606000406080004060A0004060C0004060E00040800000408020004080400040806000408080004080A0004080C0004080E00040A0000040A0200040A0400040A0600040A0800040A0A00040A0C00040A0E00040C0000040C0200040C0400040C0600040C08000
310
40C0A00040C0C00040C0E00040E0000040E0200040E0400040E0600040E0800040E0A00040E0C00040E0E00080000000800020008000400080006000800080008000A0008000C0008000E00080200000802020008020400080206000802080008020A0008020C0008020E00080400000804020008040400080406000804080
310
008040A0008040C0008040E00080600000806020008060400080606000806080008060A0008060C0008060E00080800000808020008080400080806000808080008080A0008080C0008080E00080A0000080A0200080A0400080A0600080A0800080A0A00080A0C00080A0E00080C0000080C0200080C0400080C0600080C0
310
800080C0A00080C0C00080C0E00080E0000080E0200080E0400080E0600080E0800080E0A00080E0C00080E0E000C0000000C0002000C0004000C0006000C0008000C000A000C000C000C000E000C0200000C0202000C0204000C0206000C0208000C020A000C020C000C020E000C0400000C0402000C0404000C0406000C0
310
408000C040A000C040C000C040E000C0600000C0602000C0604000C0606000C0608000C060A000C060C000C060E000C0800000C0802000C0804000C0806000C0808000C080A000C080C000C080E000C0A00000C0A02000C0A04000C0A06000C0A08000C0A0A000C0A0C000C0A0E000C0C00000C0C02000C0C04000C0C06000
310
C0C08000C0C0A000F0FBFF00A4A0A000808080000000FF0000FF000000FFFF00FF000000FF00FF00FFFF0000FFFFFF00FFFFFFFFFFFFFFFFFFFFFFFFFFFFFFFFFFFFFFFFFFFFFFFFFFFFFFFFFFFFFFFFFFFFFFFFFFFFFFFFFFFFFFFFFFFF00000000FFFFFFFFFFFFFFFFFFFFFF000000FFFFFFFFFFFFFFFFFFFFFFFFFFFF00
310
FFFF00FFFFFFFFFFFFFFFFFFFFFF00FFFFFFFFFFFFFFFFFFFFFFFFFFFFFFFF00FFFF00FFFFFFFFFFFFFFFFFFFFFF00FFFFFFFFFFFFFFFFFFFFFFFFFFFFFFFF00FFFF00FFFFFFFFFFFFFFFFFFFFFF00FFFFFFFFFFFFFFFFFFFFFFFFFFFFFFFF00FFFF00FFFFFFFFFFFFFFFFFFFFFF00FFFFFFFFFFFFFFFFFFFFFFFFFFFFFFFF
310
00FFFF00FFFFFFFFFFFFFFFFFFFFFF00FFFFFFFFFFFFFFFFFFFFFFFFFFFFFFFF00FFFF00FFFFFFFFFFFFFFFFFFFFFF00FFFFFFFFFFFFFFFFFFFFFFFFFFFFFFFF00FFFF00FFFFFFFFFFFFFFFFFFFFFF00FFFFFFFFFFFFFFFFFFFFFFFFFFFFFFFF00FFFF00FFFFFFFFFFFFFFFFFFFFFF00FFFFFFFFFFFFFFFFFFFFFFFFFFFFFF
310
FF00FFFF00FFFFFFFFFFFFFFFFFFFFFF00FFFFFFFFFFFFFFFFFFFFFFFFFFFFFFFF00FFFF00FFFFFFFFFFFFFFFFFFFFFF00FFFFFFFFFFFFFFFFFFFFFFFFFFFFFFFF00FFFF00FFFFFFFFFFFFFFFFFFFFFF00FFFFFFFFFFFFFFFFFFFFFFFFFFFFFFFF00FFFF00FFFFFFFFFFFFFFFFFFFFFF00FFFFFFFFFFFFFFFFFFFFFFFFFFFF
310
FFFF00FFFF00FFFFFFFFFFFFFFFFFFFFFF00FFFFFFFFFFFFFFFFFFFFFFFFFFFFFFFF00FFFF00FFFFFFFFFFFFFFFFFFFFFF00FFFFFFFFFFFFFFFFFFFFFFFFFFFFFFFF00FFFF00FFFFFFFFFFFFFFFFFFFFFF00FFFFFFFFFFFFFFFFFFFFFFFFFFFFFFFF00FFFF00FFFFFFFFFFFFFFFFFFFF00FFFFFFFFFFFFFFFFFFFFFFFFFFFF
310
FFFFFF00FFFF00FFFFFFFFFFFFFFFFFFFF00FFFFFFFFFFFFFFFFFFFFFFFFFFFFFFFFFF00FFFF00FFFFFFFFFFFFFFFFFFFF00FFFFFFFFFFFFFFFFFFFFFFFFFFFFFFFFFF00FFFF00FFFFFFFFFFFFFFFFFFFF00FFFFFFFFFFFFFFFFFFFFFFFFFFFFFFFFFF00FFFF00FFFFFFFFFFFFFFFFFFFF00FFFFFFFFFFFFFFFFFFFFFFFFFF
310
FFFFFFFF00FFFF00FFFFFFFFFFFFFFFFFF0000FFFF00FFFFFFFFFFFFFFFFFFFFFFFFFFFF00FFFF00FFFFFFFFFFFFFFFF0000FFFFFF00FFFFFFFFFFFFFFFFFFFFFFFFFFFF00FFFF00000000000000000000FFFFFFFF00FFFFFFFFFFFFFFFFFFFFFFFFFFFF00FFFFFFFFFFFFFFFFFFFFFFFFFFFFFF00FFFFFFFFFFFFFFFFFFFF
310
FFFFFFFFFF00FFFFFFFFFFFFFFFFFFFFFFFFFFFF00FFFFFFFFFFFFFFFFFFFFFFFFFFFFFFFF00FFFFFFFFFFFFFFFFFFFFFFFFFFFF00FFFFFFFFFFFFFFFFFFFFFFFFFFFFFFFF00FFFFFFFFFFFFFFFFFFFFFFFFFFFFFF00FFFFFFFFFFFFFFFFFFFFFFFFFFFFFF00FFFFFFFFFFFFFFFFFFFFFFFFFFFFFF00FFFFFFFFFFFFFFFFFF
310
FFFFFFFFFFFF00FFFF00000000000000000000FFFFFFFF00FFFFFFFFFFFFFFFFFFFFFFFFFFFF00FFFF00FFFFFFFFFFFFFFFFFF0000FFFF00
102
{BLKREFS
331
63B
102
}
  0
BLOCK_RECORD
  5
607
330
1
100
AcDbSymbolTableRecord
100
AcDbBlockTableRecord
  2
AI9-BLK10
340
0
310
2800000020000000200000000100080000000000000400000000000000000000000000000000000000000000000080000080000000808000800000008000800080800000C0C0C000C0DCC000F0CAA6000020400000206000002080000020A0000020C0000020E00000400000004020000040400000406000004080000040A0
310
000040C0000040E00000600000006020000060400000606000006080000060A0000060C0000060E00000800000008020000080400000806000008080000080A0000080C0000080E00000A0000000A0200000A0400000A0600000A0800000A0A00000A0C00000A0E00000C0000000C0200000C0400000C0600000C0800000C0
310
A00000C0C00000C0E00000E0000000E0200000E0400000E0600000E0800000E0A00000E0C00000E0E00040000000400020004000400040006000400080004000A0004000C0004000E00040200000402020004020400040206000402080004020A0004020C0004020E000404000004040200040404000404060004040800040
310
40A0004040C0004040E00040600000406020004060400040606000406080004060A0004060C0004060E00040800000408020004080400040806000408080004080A0004080C0004080E00040A0000040A0200040A0400040A0600040A0800040A0A00040A0C00040A0E00040C0000040C0200040C0400040C0600040C08000
310
40C0A00040C0C00040C0E00040E0000040E0200040E0400040E0600040E0800040E0A00040E0C00040E0E00080000000800020008000400080006000800080008000A0008000C0008000E00080200000802020008020400080206000802080008020A0008020C0008020E00080400000804020008040400080406000804080
310
008040A0008040C0008040E00080600000806020008060400080606000806080008060A0008060C0008060E00080800000808020008080400080806000808080008080A0008080C0008080E00080A0000080A0200080A0400080A0600080A0800080A0A00080A0C00080A0E00080C0000080C0200080C0400080C0600080C0
310
800080C0A00080C0C00080C0E00080E0000080E0200080E0400080E0600080E0800080E0A00080E0C00080E0E000C0000000C0002000C0004000C0006000C0008000C000A000C000C000C000E000C0200000C0202000C0204000C0206000C0208000C020A000C020C000C020E000C0400000C0402000C0404000C0406000C0
310
408000C040A000C040C000C040E000C0600000C0602000C0604000C0606000C0608000C060A000C060C000C060E000C0800000C0802000C0804000C0806000C0808000C080A000C080C000C080E000C0A00000C0A02000C0A04000C0A06000C0A08000C0A0A000C0A0C000C0A0E000C0C00000C0C02000C0C04000C0C06000
310
C0C08000C0C0A000F0FBFF00A4A0A000808080000000FF0000FF000000FFFF00FF000000FF00FF00FFFF0000FFFFFF00FFFFFFFFFFFFFFFFFFFFFFFFFFFFFFFF00FFFFFFFFFFFFFFFFFFFFFFFF00FFFFFFFFFFFFFFFFFFFFFFFFFFFFFFFFFFFF00FFFFFFFFFFFFFFFFFFFFFF00FFFFFFFFFFFFFFFFFFFFFFFFFFFFFFFFFFFF
310
FF00FFFFFFFFFFFFFFFFFFFFFF00FFFFFFFFFFFFFFFFFFFFFFFFFFFFFFFFFFFFFF00FFFFFFFFFFFFFFFFFFFFFF00FFFFFFFFFFFFFFFFFFFFFFFFFFFFFFFFFFFFFF00FFFFFFFFFFFFFFFFFFFFFF00FFFFFFFFFFFFFFFFFFFFFFFFFFFFFFFFFFFFFF00FFFFFFFFFFFFFFFFFFFFFF00FFFFFFFFFFFFFFFFFFFFFFFFFFFFFFFFFF
310
FFFF00FFFFFFFFFFFFFFFFFFFFFF00FFFFFFFFFFFFFFFFFFFFFFFFFFFFFFFFFFFFFF00FFFFFFFFFFFFFFFFFFFF00FFFFFFFFFFFFFFFFFFFFFFFFFFFFFFFFFFFFFFFF00FFFFFFFFFFFFFFFFFFFF00FFFFFFFFFFFFFFFFFFFFFFFFFFFFFFFFFFFFFFFF00FFFFFFFFFFFFFFFFFFFF00FFFFFFFFFFFFFFFFFFFFFFFFFFFFFFFFFF
310
FFFFFF00FFFFFFFFFFFFFFFFFFFF00FFFFFFFFFFFFFFFFFFFFFFFFFFFFFFFFFFFFFFFF00FFFFFFFFFFFFFFFFFFFF00FFFFFFFFFFFFFFFFFFFFFFFFFFFFFFFFFFFFFFFF00FFFFFFFFFFFFFFFFFFFF00FFFFFFFFFFFFFFFFFFFFFFFFFFFFFFFFFFFFFFFF00FFFFFFFFFFFFFFFFFF00FFFFFFFFFFFFFFFFFFFFFFFFFFFFFFFFFF
310
FFFFFFFF00FFFFFFFFFFFFFFFFFF00FFFFFFFFFFFFFFFFFFFFFFFFFFFFFFFFFFFFFFFFFF00FFFFFFFFFFFFFFFFFF00FFFFFFFFFFFFFFFFFFFFFFFFFFFFFFFFFFFFFFFFFF0000000000000000000000FFFFFFFFFFFFFFFFFFFFFFFFFFFFFFFFFFFFFFFFFFFFFFFFFFFFFFFFFFFFFFFFFFFFFFFFFFFFFFFFFFFFFFFFFFFFFFFF
310
FFFFFFFFFFFFFFFFFFFFFFFFFFFFFFFFFFFFFFFFFFFFFFFFFFFFFFFFFFFFFFFFFFFFFFFFFFFFFFFFFFFFFFFFFFFFFFFFFFFFFFFFFFFFFFFFFFFFFFFFFFFFFFFFFFFFFFFFFFFFFFFFFFFFFFFFFFFFFFFFFFFFFFFFFFFFFFFFFFFFFFFFFFFFFFFFFFFFFFFFFFFFFFFFFFFFFFFFFFFFFFFFFFFFFFFFFFFFFFFFFFFFFFFFFFFFFF
310
FFFFFFFFFFFFFFFFFFFFFFFFFFFFFFFFFFFFFFFFFFFFFFFFFFFFFFFFFFFFFFFFFFFFFFFFFFFFFFFFFFFFFFFFFFFFFFFFFFFFFFFFFFFFFFFFFFFFFFFFFFFFFFFFFFFFFFFFFFFFFFFFFFFFFFFFFFFFFFFFFFFFFFFFFFFFFFFFFFFFFFFFFFFFFFFFFFFFFFFFFFFFFFFFFFFFFFFFFFFFFFFFFFFFFFFFFFFFFFFFFFFFFFFFFFFFFF
310
FFFFFFFFFFFFFFFFFFFFFFFFFFFFFFFFFFFFFFFFFFFFFFFFFFFFFFFFFFFFFFFFFFFFFFFFFFFFFFFFFFFFFFFFFFFFFFFFFFFFFFFFFFFFFFFFFFFFFFFFFFFFFFFFFFFFFFFFFFFFFFFFFFFFFFFFFFFFFFFFFFFFFFFFFFFFFFFFFFFFFFFFFFFFFFFFFFFFFFFFFFFFFFFFFFFFFFFFFFFFFFFFFFFFFFFFFFFFFFFFFFFFFFFFFFFFFF
310
FFFFFFFFFFFFFFFFFFFFFFFFFFFFFFFFFFFFFFFFFFFFFFFFFFFFFFFFFFFFFFFFFFFFFFFFFFFFFFFFFFFFFFFFFFFFFFFFFFFFFFFFFFFFFFFF
102
{BLKREFS
331
63C
102
}
  0
BLOCK_RECORD
  5
60B
330
1
100
AcDbSymbolTableRecord
100
AcDbBlockTableRecord
  2
AI9-BLK9
340
0
310
2800000020000000200000000100080000000000000400000000000000000000000000000000000000000000000080000080000000808000800000008000800080800000C0C0C000C0DCC000F0CAA6000020400000206000002080000020A0000020C0000020E00000400000004020000040400000406000004080000040A0
310
000040C0000040E00000600000006020000060400000606000006080000060A0000060C0000060E00000800000008020000080400000806000008080000080A0000080C0000080E00000A0000000A0200000A0400000A0600000A0800000A0A00000A0C00000A0E00000C0000000C0200000C0400000C0600000C0800000C0
310
A00000C0C00000C0E00000E0000000E0200000E0400000E0600000E0800000E0A00000E0C00000E0E00040000000400020004000400040006000400080004000A0004000C0004000E00040200000402020004020400040206000402080004020A0004020C0004020E000404000004040200040404000404060004040800040
310
40A0004040C0004040E00040600000406020004060400040606000406080004060A0004060C0004060E00040800000408020004080400040806000408080004080A0004080C0004080E00040A0000040A0200040A0400040A0600040A0800040A0A00040A0C00040A0E00040C0000040C0200040C0400040C0600040C08000
310
40C0A00040C0C00040C0E00040E0000040E0200040E0400040E0600040E0800040E0A00040E0C00040E0E00080000000800020008000400080006000800080008000A0008000C0008000E00080200000802020008020400080206000802080008020A0008020C0008020E00080400000804020008040400080406000804080
310
008040A0008040C0008040E00080600000806020008060400080606000806080008060A0008060C0008060E00080800000808020008080400080806000808080008080A0008080C0008080E00080A0000080A0200080A0400080A0600080A0800080A0A00080A0C00080A0E00080C0000080C0200080C0400080C0600080C0
310
800080C0A00080C0C00080C0E00080E0000080E0200080E0400080E0600080E0800080E0A00080E0C00080E0E000C0000000C0002000C0004000C0006000C0008000C000A000C000C000C000E000C0200000C0202000C0204000C0206000C0208000C020A000C020C000C020E000C0400000C0402000C0404000C0406000C0
310
408000C040A000C040C000C040E000C0600000C0602000C0604000C0606000C0608000C060A000C060C000C060E000C0800000C0802000C0804000C0806000C0808000C080A000C080C000C080E000C0A00000C0A02000C0A04000C0A06000C0A08000C0A0A000C0A0C000C0A0E000C0C00000C0C02000C0C04000C0C06000
310
C0C08000C0C0A000F0FBFF00A4A0A000808080000000FF0000FF000000FFFF00FF000000FF00FF00FFFF0000FFFFFF00FFFFFFFFFFFFFFFFFFFFFFFFFFFFFFFFFFFFFFFFFFFFFFFFFFFFFFFFFFFFFFFFFFFFFFFFFFFFFFFFFFFFFFFFFFFFFF0000FFFFFFFFFFFFFFFFFFFFFFFFFFFFFFFFFFFFFFFFFFFFFFFFFFFFFFFF0000
310
FF0000FFFFFFFFFFFFFFFFFFFFFFFFFFFFFFFFFFFFFFFFFFFFFFFFFFFFFF00FFFFFF0000FFFFFFFFFFFFFFFFFFFFFFFFFFFFFFFFFFFFFFFFFFFFFFFFFFFF00FFFFFFFF0000FFFFFFFFFFFFFFFFFFFFFFFFFFFFFFFFFFFFFFFFFFFFFFFF00FF00000000FF00FFFFFFFFFFFFFFFFFFFFFFFFFFFFFFFFFFFFFFFFFFFFFFFF0000
310
00FFFF00FF00FFFFFFFFFFFFFFFFFFFFFFFFFFFFFFFFFFFFFFFFFFFFFFFF0000FFFFFFFF0000FFFFFFFFFFFFFFFFFFFFFFFFFFFFFFFFFFFFFFFFFFFFFFFF0000FFFFFFFF0000FFFFFFFFFFFFFFFFFFFFFFFFFFFFFFFFFFFFFFFFFFFFFF00FF00FFFFFFFF00FF00FFFFFFFFFFFFFFFFFFFFFFFFFFFFFFFFFFFFFFFFFFFF0000
310
FFFFFFFFFF00FF00FFFFFFFFFFFFFFFFFFFFFFFFFFFFFFFFFFFFFFFFFFFF0000FFFFFFFFFFFF0000FFFFFFFFFFFFFFFFFFFFFFFFFFFFFFFFFFFFFFFFFFFF0000FFFFFFFFFFFF0000FFFFFFFFFFFFFFFFFFFFFFFFFFFFFFFFFFFFFFFFFFFF0000FFFFFFFFFFFF0000FFFFFFFFFFFFFFFFFFFFFFFFFFFFFFFFFFFFFFFFFFFF00
310
00FFFFFFFFFFFF0000FFFFFFFFFFFFFFFFFFFFFFFFFFFFFFFFFFFFFFFFFFFF0000FFFFFFFFFFFF0000FFFFFFFFFFFFFFFFFFFFFFFFFFFFFFFFFFFFFFFFFFFF0000FFFFFFFFFFFF0000FFFFFFFFFFFFFFFFFFFFFFFFFFFFFFFFFFFFFFFFFFFF0000FFFFFFFFFFFF0000FFFFFFFFFFFFFFFFFFFFFFFFFFFFFFFFFFFFFFFFFFFF
310
0000FFFFFFFFFFFF0000FFFFFFFFFFFFFFFFFFFFFFFFFFFFFFFFFFFFFFFFFFFF0000FFFFFFFFFFFF0000FFFFFFFFFFFFFFFFFFFFFFFFFFFFFFFFFFFFFFFFFFFF0000FFFFFFFFFFFF0000FFFFFFFFFFFFFFFFFFFFFFFFFFFFFFFFFFFFFFFFFFFF00FF00FFFFFFFF00FF00FFFFFFFFFFFFFFFFFFFFFFFFFFFFFFFFFFFFFFFFFF
310
FF00FF00FFFFFFFF00FF00FFFFFFFFFFFFFFFFFFFFFFFFFFFFFFFFFFFFFFFFFFFF00FF00FFFFFFFF00FF00FFFFFFFFFFFFFFFFFFFFFFFFFFFFFFFFFFFFFFFFFFFFFF0000FFFFFFFF0000FFFFFFFFFFFFFFFFFFFFFFFFFFFFFFFFFFFFFFFFFFFFFFFF00FF00FFFF00FF00FFFFFFFFFFFFFFFFFFFFFFFFFFFFFFFFFFFFFFFFFF
310
FFFFFF00FF00000000FF00FFFFFFFFFFFFFFFFFFFFFFFFFFFFFFFFFFFFFFFFFFFFFFFFFF00FFFFFFFF0000FFFFFFFFFFFFFFFFFFFFFFFFFFFFFFFFFFFFFFFFFFFFFFFFFF00FFFFFFFF00FFFFFFFFFFFFFFFFFFFFFFFFFFFFFFFFFFFFFFFFFFFFFFFFFFFFFF00000000FFFFFFFFFFFFFFFFFFFFFFFFFFFFFFFFFFFFFFFFFFFF
310
FFFFFFFFFFFFFF0000FFFFFFFFFFFFFFFFFFFFFFFFFFFFFFFFFFFFFFFFFFFFFFFFFFFFFFFFFFFFFFFFFFFFFFFFFFFFFFFFFFFFFFFFFFFFFF
102
{BLKREFS
331
63D
102
}
  0
BLOCK_RECORD
  5
610
330
1
100
AcDbSymbolTableRecord
100
AcDbBlockTableRecord
  2
AI9-BLK8
340
0
310
2800000020000000200000000100080000000000000400000000000000000000000000000000000000000000000080000080000000808000800000008000800080800000C0C0C000C0DCC000F0CAA6000020400000206000002080000020A0000020C0000020E00000400000004020000040400000406000004080000040A0
310
000040C0000040E00000600000006020000060400000606000006080000060A0000060C0000060E00000800000008020000080400000806000008080000080A0000080C0000080E00000A0000000A0200000A0400000A0600000A0800000A0A00000A0C00000A0E00000C0000000C0200000C0400000C0600000C0800000C0
310
A00000C0C00000C0E00000E0000000E0200000E0400000E0600000E0800000E0A00000E0C00000E0E00040000000400020004000400040006000400080004000A0004000C0004000E00040200000402020004020400040206000402080004020A0004020C0004020E000404000004040200040404000404060004040800040
310
40A0004040C0004040E00040600000406020004060400040606000406080004060A0004060C0004060E00040800000408020004080400040806000408080004080A0004080C0004080E00040A0000040A0200040A0400040A0600040A0800040A0A00040A0C00040A0E00040C0000040C0200040C0400040C0600040C08000
310
40C0A00040C0C00040C0E00040E0000040E0200040E0400040E0600040E0800040E0A00040E0C00040E0E00080000000800020008000400080006000800080008000A0008000C0008000E00080200000802020008020400080206000802080008020A0008020C0008020E00080400000804020008040400080406000804080
310
008040A0008040C0008040E00080600000806020008060400080606000806080008060A0008060C0008060E00080800000808020008080400080806000808080008080A0008080C0008080E00080A0000080A0200080A0400080A0600080A0800080A0A00080A0C00080A0E00080C0000080C0200080C0400080C0600080C0
310
800080C0A00080C0C00080C0E00080E0000080E0200080E0400080E0600080E0800080E0A00080E0C00080E0E000C0000000C0002000C0004000C0006000C0008000C000A000C000C000C000E000C0200000C0202000C0204000C0206000C0208000C020A000C020C000C020E000C0400000C0402000C0404000C0406000C0
310
408000C040A000C040C000C040E000C0600000C0602000C0604000C0606000C0608000C060A000C060C000C060E000C0800000C0802000C0804000C0806000C0808000C080A000C080C000C080E000C0A00000C0A02000C0A04000C0A06000C0A08000C0A0A000C0A0C000C0A0E000C0C00000C0C02000C0C04000C0C06000
310
C0C08000C0C0A000F0FBFF00A4A0A000808080000000FF0000FF000000FFFF00FF000000FF00FF00FFFF0000FFFFFF00FFFFFFFFFFFFFFFFFFFFFFFFFFFFFFFFFFFFFFFFFFFFFFFFFFFFFFFFFFFFFFFFFFFFFFFFFFFFFFFFFFFFFF0000FFFFFFFFFFFF0000FFFFFFFFFFFFFFFFFFFFFFFFFFFFFFFFFFFFFFFFFFFF0000FFFF
310
FFFFFFFF0000FFFFFFFFFFFFFFFFFFFFFFFFFFFFFFFFFFFFFFFFFFFF0000FFFFFFFFFF00FF00FFFFFFFFFFFFFFFFFFFFFFFFFFFFFFFFFFFFFFFFFFFF0000FFFFFFFFFF00FF00FFFFFFFFFFFFFFFFFFFFFFFFFFFFFFFFFFFFFFFFFFFF0000FFFFFFFFFF00FF00FFFFFFFFFFFFFFFFFFFFFFFFFFFFFFFFFFFFFFFFFFFF0000FF
310
FFFFFF00FFFF00FFFFFFFFFFFFFFFFFFFFFFFFFFFFFFFFFFFFFFFFFFFF0000FFFFFFFF00FF0000FFFFFFFFFFFFFFFFFFFFFFFFFFFFFFFFFFFFFFFFFFFF0000FFFFFFFF00FF0000FFFFFFFFFFFFFFFFFFFFFFFFFFFFFFFFFFFFFFFFFFFF0000FFFFFFFF00000000FFFFFFFFFFFFFFFFFFFFFFFFFFFFFFFFFFFFFFFFFFFF0000
310
FFFFFF00FF000000FFFFFFFFFFFFFFFFFFFFFFFFFFFFFFFFFFFFFFFFFFFF0000FFFFFF00FF000000FFFFFFFFFFFFFFFFFFFFFFFFFFFFFFFFFFFFFFFFFFFF0000FFFFFF00FF000000FFFFFFFFFFFFFFFFFFFFFFFFFFFFFFFFFFFFFFFFFFFF0000FFFF00FF00FF0000FFFFFFFFFFFFFFFFFFFFFFFFFFFFFFFFFFFFFFFFFFFF00
310
00FFFF00FF00FF0000FFFFFFFFFFFFFFFFFFFFFFFFFFFFFFFFFFFFFFFFFFFF0000FFFF00FF00FF0000FFFFFFFFFFFFFFFFFFFFFFFFFFFFFFFFFFFFFFFFFFFF0000FF00FFFF00FF0000FFFFFFFFFFFFFFFFFFFFFFFFFFFFFFFFFFFFFFFFFFFF0000FF00FF00FFFF0000FFFFFFFFFFFFFFFFFFFFFFFFFFFFFFFFFFFFFFFFFFFF
310
0000FF00FF00FFFF0000FFFFFFFFFFFFFFFFFFFFFFFFFFFFFFFFFFFFFFFFFFFF0000FF00FF00FFFF0000FFFFFFFFFFFFFFFFFFFFFFFFFFFFFFFFFFFFFFFFFFFF000000FFFF00FFFF0000FFFFFFFFFFFFFFFFFFFFFFFFFFFFFFFFFFFFFFFFFFFF000000FF00FFFFFF0000FFFFFFFFFFFFFFFFFFFFFFFFFFFFFFFFFFFFFFFFFF
310
FF000000FF00FFFFFF0000FFFFFFFFFFFFFFFFFFFFFFFFFFFFFFFFFFFFFFFFFFFF0000FFFF00FFFFFF0000FFFFFFFFFFFFFFFFFFFFFFFFFFFFFFFFFFFFFFFFFFFF0000FFFF00FFFFFF0000FFFFFFFFFFFFFFFFFFFFFFFFFFFFFFFFFFFFFFFFFFFF00FFFF00FFFFFFFF0000FFFFFFFFFFFFFFFFFFFFFFFFFFFFFFFFFFFFFFFF
310
FFFF00FFFF00FFFFFFFF0000FFFFFFFFFFFFFFFFFFFFFFFFFFFFFFFFFFFFFFFFFFFF00FFFF00FFFFFFFF0000FFFFFFFFFFFFFFFFFFFFFFFFFFFFFFFFFFFFFFFFFFFF00FFFF00FFFFFFFF0000FFFFFFFFFFFFFFFFFFFFFFFFFFFFFFFFFFFFFFFFFFFF00FF00FFFFFFFFFF0000FFFFFFFFFFFFFFFFFFFFFFFFFFFFFFFFFFFFFF
310
FFFFFF000000FFFFFFFFFF0000FFFFFFFFFFFFFFFFFFFFFFFFFFFFFFFFFFFFFFFFFFFFFFFFFFFFFFFFFFFFFFFFFFFFFFFFFFFFFFFFFFFFFF
102
{BLKREFS
331
63E
102
}
  0
BLOCK_RECORD
  5
615
330
1
100
AcDbSymbolTableRecord
100
AcDbBlockTableRecord
  2
AI9-BLK7
340
0
310
2800000020000000200000000100080000000000000400000000000000000000000000000000000000000000000080000080000000808000800000008000800080800000C0C0C000C0DCC000F0CAA6000020400000206000002080000020A0000020C0000020E00000400000004020000040400000406000004080000040A0
310
000040C0000040E00000600000006020000060400000606000006080000060A0000060C0000060E00000800000008020000080400000806000008080000080A0000080C0000080E00000A0000000A0200000A0400000A0600000A0800000A0A00000A0C00000A0E00000C0000000C0200000C0400000C0600000C0800000C0
310
A00000C0C00000C0E00000E0000000E0200000E0400000E0600000E0800000E0A00000E0C00000E0E00040000000400020004000400040006000400080004000A0004000C0004000E00040200000402020004020400040206000402080004020A0004020C0004020E000404000004040200040404000404060004040800040
310
40A0004040C0004040E00040600000406020004060400040606000406080004060A0004060C0004060E00040800000408020004080400040806000408080004080A0004080C0004080E00040A0000040A0200040A0400040A0600040A0800040A0A00040A0C00040A0E00040C0000040C0200040C0400040C0600040C08000
310
40C0A00040C0C00040C0E00040E0000040E0200040E0400040E0600040E0800040E0A00040E0C00040E0E00080000000800020008000400080006000800080008000A0008000C0008000E00080200000802020008020400080206000802080008020A0008020C0008020E00080400000804020008040400080406000804080
310
008040A0008040C0008040E00080600000806020008060400080606000806080008060A0008060C0008060E00080800000808020008080400080806000808080008080A0008080C0008080E00080A0000080A0200080A0400080A0600080A0800080A0A00080A0C00080A0E00080C0000080C0200080C0400080C0600080C0
310
800080C0A00080C0C00080C0E00080E0000080E0200080E0400080E0600080E0800080E0A00080E0C00080E0E000C0000000C0002000C0004000C0006000C0008000C000A000C000C000C000E000C0200000C0202000C0204000C0206000C0208000C020A000C020C000C020E000C0400000C0402000C0404000C0406000C0
310
408000C040A000C040C000C040E000C0600000C0602000C0604000C0606000C0608000C060A000C060C000C060E000C0800000C0802000C0804000C0806000C0808000C080A000C080C000C080E000C0A00000C0A02000C0A04000C0A06000C0A08000C0A0A000C0A0C000C0A0E000C0C00000C0C02000C0C04000C0C06000
310
C0C08000C0C0A000F0FBFF00A4A0A000808080000000FF0000FF000000FFFF00FF000000FF00FF00FFFF0000FFFFFF00FFFFFFFFFFFFFFFFFFFFFFFFFFFFFFFFFFFFFFFFFFFFFFFFFFFFFFFFFFFFFFFFFFFFFFFFFFFFFFFFFFFFFFFFFFFFFF0000FFFFFFFFFFFFFFFFFFFFFFFFFFFFFFFFFFFFFFFFFFFFFFFFFFFFFFFFFFFF
310
0000FFFFFFFFFFFFFFFFFFFFFFFFFFFFFFFFFFFFFFFFFFFFFFFFFFFFFFFFFFFF0000FFFFFFFFFFFFFFFFFFFFFFFFFFFFFFFFFFFFFFFFFFFFFFFFFFFFFFFFFFFF0000FFFFFFFFFFFFFFFFFFFFFFFFFFFFFFFFFFFFFFFFFFFFFFFFFFFFFFFFFFFF0000FFFFFFFFFFFFFFFFFFFFFFFFFFFFFFFFFFFFFFFFFFFFFFFFFFFFFFFFFF
310
FF0000FFFFFFFFFFFFFFFFFFFFFFFFFFFFFFFFFFFFFFFFFFFFFFFFFFFFFFFFFFFF0000FFFFFFFFFFFFFFFFFFFFFFFFFFFFFFFFFFFFFFFFFFFFFFFFFFFFFFFFFFFF0000FFFFFFFFFFFFFFFFFFFFFFFFFFFFFFFFFFFFFFFFFFFFFFFFFFFFFFFFFFFF0000FFFFFFFFFFFFFFFFFFFFFFFFFFFFFFFFFFFFFFFFFFFFFFFFFFFFFFFF
310
FFFF0000FFFFFFFFFFFFFFFFFFFFFFFFFFFFFFFFFFFFFFFFFFFFFFFFFFFFFFFFFFFF0000FFFFFFFFFFFFFFFFFFFFFFFFFFFFFFFFFFFFFFFFFFFFFFFFFFFFFFFFFFFF0000FFFFFFFFFFFFFFFFFFFFFFFFFFFFFFFFFFFFFFFFFFFFFFFFFFFFFFFFFFFF0000FFFFFFFFFFFFFFFFFFFFFFFFFFFFFFFFFFFFFFFFFFFFFFFFFFFFFF
310
FFFFFF0000FFFFFFFFFFFFFFFFFFFFFFFFFFFFFFFFFFFFFFFFFFFFFFFFFFFFFFFFFFFF0000FFFFFFFFFFFFFFFFFFFFFFFFFFFFFFFFFFFFFFFFFFFFFFFFFFFFFFFFFFFF0000FFFFFFFFFFFFFFFFFFFFFFFFFFFFFFFFFFFFFFFFFFFFFFFFFFFFFFFFFFFF0000FFFFFFFFFFFFFFFFFFFFFFFFFFFFFFFFFFFFFFFFFFFFFFFFFFFF
310
FFFFFFFF0000FFFFFFFFFFFFFFFFFFFFFFFFFFFFFFFFFFFFFFFFFFFFFFFFFFFFFFFFFFFF0000FFFFFFFFFFFFFFFFFFFFFFFFFFFFFFFFFFFFFFFFFFFFFFFFFFFFFFFFFFFF0000FFFFFFFFFFFFFFFFFFFFFFFFFFFFFFFFFFFFFFFFFFFFFFFFFFFFFFFFFFFF0000FFFFFFFFFFFFFFFFFFFFFFFFFFFFFFFFFFFFFFFFFFFFFFFFFF
310
FFFFFFFFFF0000FFFFFFFFFFFFFFFFFFFFFFFFFFFFFFFFFFFFFFFFFFFFFFFFFFFFFFFFFFFF0000FFFFFFFFFFFFFFFFFFFFFFFFFFFFFFFFFFFFFFFFFFFFFFFFFFFFFFFFFFFF0000FFFFFFFFFFFFFFFFFFFFFFFFFFFFFFFFFFFFFFFFFFFFFFFFFFFFFFFFFFFF0000FFFFFFFFFFFFFFFFFFFFFFFFFFFFFFFFFFFFFFFFFFFFFFFF
310
FFFFFFFFFFFF0000FFFFFFFFFFFFFFFFFFFFFFFFFFFFFFFFFFFFFFFFFFFFFFFFFFFFFFFFFFFF0000FFFFFFFFFFFFFFFFFFFFFFFFFFFFFFFFFFFFFFFFFFFFFFFFFFFFFFFFFFFF0000FFFFFFFFFFFFFFFFFFFFFFFFFFFFFFFFFFFFFFFFFFFFFFFFFFFFFFFFFFFF0000FFFFFFFFFFFFFFFFFFFFFFFFFFFFFFFFFFFFFFFFFFFFFF
310
FFFFFFFFFFFFFF0000FFFFFFFFFFFFFFFFFFFFFFFFFFFFFFFFFFFFFFFFFFFFFFFFFFFFFFFFFFFFFFFFFFFFFFFFFFFFFFFFFFFFFFFFFFFFFF
102
{BLKREFS
331
63F
102
}
  0
BLOCK_RECORD
  5
61A
330
1
100
AcDbSymbolTableRecord
100
AcDbBlockTableRecord
  2
AI9-BLK6
340
0
310
2800000020000000200000000100080000000000000400000000000000000000000000000000000000000000000080000080000000808000800000008000800080800000C0C0C000C0DCC000F0CAA6000020400000206000002080000020A0000020C0000020E00000400000004020000040400000406000004080000040A0
310
000040C0000040E00000600000006020000060400000606000006080000060A0000060C0000060E00000800000008020000080400000806000008080000080A0000080C0000080E00000A0000000A0200000A0400000A0600000A0800000A0A00000A0C00000A0E00000C0000000C0200000C0400000C0600000C0800000C0
310
A00000C0C00000C0E00000E0000000E0200000E0400000E0600000E0800000E0A00000E0C00000E0E00040000000400020004000400040006000400080004000A0004000C0004000E00040200000402020004020400040206000402080004020A0004020C0004020E000404000004040200040404000404060004040800040
310
40A0004040C0004040E00040600000406020004060400040606000406080004060A0004060C0004060E00040800000408020004080400040806000408080004080A0004080C0004080E00040A0000040A0200040A0400040A0600040A0800040A0A00040A0C00040A0E00040C0000040C0200040C0400040C0600040C08000
310
40C0A00040C0C00040C0E00040E0000040E0200040E0400040E0600040E0800040E0A00040E0C00040E0E00080000000800020008000400080006000800080008000A0008000C0008000E00080200000802020008020400080206000802080008020A0008020C0008020E00080400000804020008040400080406000804080
310
008040A0008040C0008040E00080600000806020008060400080606000806080008060A0008060C0008060E00080800000808020008080400080806000808080008080A0008080C0008080E00080A0000080A0200080A0400080A0600080A0800080A0A00080A0C00080A0E00080C0000080C0200080C0400080C0600080C0
310
800080C0A00080C0C00080C0E00080E0000080E0200080E0400080E0600080E0800080E0A00080E0C00080E0E000C0000000C0002000C0004000C0006000C0008000C000A000C000C000C000E000C0200000C0202000C0204000C0206000C0208000C020A000C020C000C020E000C0400000C0402000C0404000C0406000C0
310
408000C040A000C040C000C040E000C0600000C0602000C0604000C0606000C0608000C060A000C060C000C060E000C0800000C0802000C0804000C0806000C0808000C080A000C080C000C080E000C0A00000C0A02000C0A04000C0A06000C0A08000C0A0A000C0A0C000C0A0E000C0C00000C0C02000C0C04000C0C06000
310
C0C08000C0C0A000F0FBFF00A4A0A000808080000000FF0000FF000000FFFF00FF000000FF00FF00FFFF0000FFFFFF00FFFFFFFFFFFFFFFFFFFFFFFF00FFFFFFFFFFFFFF00FFFFFFFFFFFFFFFFFFFFFFFFFFFFFFFFFFFFFFFFFFFFFF00FFFFFFFFFFFFFF00FFFFFFFFFFFFFFFFFFFFFFFFFFFFFFFFFFFFFFFFFFFFFF00FFFF
310
FFFFFFFFFF00FFFFFFFFFFFFFFFFFFFFFFFFFFFFFFFFFFFFFFFFFFFF00FFFFFFFFFFFFFFFF00FFFFFFFFFFFFFFFFFFFFFFFFFFFFFFFFFFFFFFFFFFFF00FFFFFFFFFFFFFF00FFFFFFFFFFFFFFFFFFFFFFFFFFFFFFFFFFFFFFFFFFFFFF00FFFFFFFFFFFFFF00FFFFFFFFFFFFFFFFFFFFFFFFFFFFFFFFFFFFFFFFFFFF00FFFFFF
310
FFFFFFFFFF00FFFFFFFFFFFFFFFFFFFFFFFFFFFFFFFFFFFFFFFFFFFF00FFFFFFFFFFFFFF00FFFFFFFFFFFFFFFFFFFFFFFFFFFFFFFFFFFFFFFFFFFF00FFFFFFFFFFFFFFFF00FFFFFFFFFFFFFFFFFFFFFFFFFFFFFFFFFFFFFFFFFF00FFFFFFFFFFFFFFFFFF00FFFFFFFFFFFFFFFFFFFFFFFFFFFFFFFFFFFFFFFF00FFFFFFFFFF
310
FFFFFFFFFF00FFFFFFFFFFFFFFFFFFFFFFFFFFFFFFFFFFFFFF00FFFFFFFFFFFFFFFFFFFF00FFFFFFFFFFFFFFFFFFFFFFFFFFFFFFFFFFFF0000FFFFFFFFFFFFFFFFFFFFFF00FFFFFFFFFFFFFFFFFFFFFFFFFFFF00000000FFFFFFFFFFFFFFFFFFFFFFFFFF00FFFFFFFFFFFFFFFFFFFFFFFFFFFFFFFFFFFFFFFFFFFFFFFFFFFF
310
FFFFFFFF00FFFFFFFFFFFFFFFFFFFFFFFFFFFFFFFFFFFFFFFFFFFFFFFFFFFFFFFFFFFFFF00FFFFFFFFFFFFFFFFFFFFFFFFFFFFFFFFFFFFFFFFFFFFFFFFFFFFFFFFFFFFFF00FFFFFFFFFFFFFFFFFFFFFFFFFFFFFFFFFFFFFFFFFFFFFFFFFFFFFFFFFFFF00FFFFFFFFFFFFFFFFFFFFFFFFFFFFFFFFFFFFFFFFFFFFFFFFFFFFFF
310
FFFFFFFF00FFFFFFFFFFFFFFFFFFFFFFFFFFFFFFFFFFFFFFFFFFFFFFFFFFFFFFFFFFFF00FFFFFFFFFFFFFFFFFFFFFFFFFFFFFFFFFFFFFFFFFFFFFFFFFFFFFFFFFFFF00FFFFFFFFFFFFFFFFFFFFFFFFFFFFFFFFFFFFFFFFFFFFFFFFFFFFFFFFFFFF00FFFFFFFFFFFFFFFFFFFFFFFFFFFFFFFFFFFFFFFFFFFFFFFFFFFFFFFFFF
310
FF00FFFFFFFFFFFFFFFFFFFFFFFFFFFFFFFFFFFFFFFFFFFFFFFFFFFFFFFFFFFFFF00FFFFFFFFFFFFFFFFFFFFFFFFFFFFFFFFFFFFFFFFFFFFFFFFFFFFFFFFFFFF00FFFFFFFFFFFFFFFFFFFFFFFFFFFFFFFFFFFFFFFFFFFFFFFFFFFFFFFFFF0000FFFFFFFFFFFFFFFFFFFFFFFFFFFFFFFFFFFFFFFFFFFFFFFFFFFFFFFF0000FF
310
FFFFFFFFFFFFFFFFFFFFFFFFFFFFFFFFFFFFFFFFFFFFFFFFFF00000000FFFFFFFFFFFFFFFFFFFFFFFFFFFFFFFFFFFFFFFFFFFFFFFFFFFF0000FFFFFFFFFFFFFFFFFFFFFFFFFFFFFFFFFFFFFFFFFFFFFFFFFFFFFFFFFFFFFFFFFFFFFFFFFFFFFFFFFFFFFFFFFFFFFFFFFFFFFFFFFFFFFFFFFFFFFFFFFFFFFFFFFFFFFFFFFFFF
310
FFFFFFFFFFFFFFFFFFFFFFFFFFFFFFFFFFFFFFFFFFFFFFFFFFFFFFFFFFFFFFFFFFFFFFFFFFFFFFFFFFFFFFFFFFFFFFFFFFFFFFFFFFFFFFFF
102
{BLKREFS
331
640
102
}
  0
BLOCK_RECORD
  5
61E
330
1
100
AcDbSymbolTableRecord
100
AcDbBlockTableRecord
  2
AI9-BLK5
340
0
310
2800000020000000200000000100080000000000000400000000000000000000000000000000000000000000000080000080000000808000800000008000800080800000C0C0C000C0DCC000F0CAA6000020400000206000002080000020A0000020C0000020E00000400000004020000040400000406000004080000040A0
310
000040C0000040E00000600000006020000060400000606000006080000060A0000060C0000060E00000800000008020000080400000806000008080000080A0000080C0000080E00000A0000000A0200000A0400000A0600000A0800000A0A00000A0C00000A0E00000C0000000C0200000C0400000C0600000C0800000C0
310
A00000C0C00000C0E00000E0000000E0200000E0400000E0600000E0800000E0A00000E0C00000E0E00040000000400020004000400040006000400080004000A0004000C0004000E00040200000402020004020400040206000402080004020A0004020C0004020E000404000004040200040404000404060004040800040
310
40A0004040C0004040E00040600000406020004060400040606000406080004060A0004060C0004060E00040800000408020004080400040806000408080004080A0004080C0004080E00040A0000040A0200040A0400040A0600040A0800040A0A00040A0C00040A0E00040C0000040C0200040C0400040C0600040C08000
310
40C0A00040C0C00040C0E00040E0000040E0200040E0400040E0600040E0800040E0A00040E0C00040E0E00080000000800020008000400080006000800080008000A0008000C0008000E00080200000802020008020400080206000802080008020A0008020C0008020E00080400000804020008040400080406000804080
310
008040A0008040C0008040E00080600000806020008060400080606000806080008060A0008060C0008060E00080800000808020008080400080806000808080008080A0008080C0008080E00080A0000080A0200080A0400080A0600080A0800080A0A00080A0C00080A0E00080C0000080C0200080C0400080C0600080C0
310
800080C0A00080C0C00080C0E00080E0000080E0200080E0400080E0600080E0800080E0A00080E0C00080E0E000C0000000C0002000C0004000C0006000C0008000C000A000C000C000C000E000C0200000C0202000C0204000C0206000C0208000C020A000C020C000C020E000C0400000C0402000C0404000C0406000C0
310
408000C040A000C040C000C040E000C0600000C0602000C0604000C0606000C0608000C060A000C060C000C060E000C0800000C0802000C0804000C0806000C0808000C080A000C080C000C080E000C0A00000C0A02000C0A04000C0A06000C0A08000C0A0A000C0A0C000C0A0E000C0C00000C0C02000C0C04000C0C06000
310
C0C08000C0C0A000F0FBFF00A4A0A000808080000000FF0000FF000000FFFF00FF000000FF00FF00FFFF0000FFFFFF00FFFFFFFFFFFFFFFFFFFFFFFFFFFFFFFFFFFFFFFFFFFFFFFFFFFFFFFFFFFFFFFFFFFFFFFFFFFFFFFF000000000000000000000000000000000000000000000000FFFFFFFFFFFFFFFF00FFFFFFFFFFFF
310
FFFFFFFFFFFFFFFFFFFFFFFFFFFFFFFFFFFFFFFFFFFFFFFFFF00FFFFFFFFFFFFFFFFFFFFFFFFFFFFFFFFFFFFFFFFFFFFFFFFFFFFFFFFFFFFFF00FFFFFFFFFFFFFFFFFFFFFFFFFFFFFFFFFFFFFFFFFFFFFFFFFFFFFFFFFFFFFF00FFFFFFFFFFFFFFFFFFFFFFFFFFFFFFFFFFFFFFFFFFFFFFFFFFFFFFFFFFFFFF00FFFFFFFFFF
310
FFFFFFFFFFFFFFFFFFFFFFFFFFFFFFFFFFFFFFFFFFFFFFFFFFFF00FFFFFFFFFFFFFFFFFFFFFFFFFFFFFFFFFFFFFFFFFFFFFFFFFFFFFFFFFFFFFF00FFFFFFFFFFFFFFFFFFFFFFFFFFFFFFFFFFFFFFFFFFFFFFFFFFFFFFFFFFFFFF00FFFFFFFFFFFFFFFFFFFFFFFFFFFFFFFFFFFFFFFFFFFFFFFFFFFFFFFFFFFFFF00FFFFFFFF
310
FFFFFFFFFFFFFFFFFFFFFFFFFFFFFFFFFFFFFFFFFFFFFFFFFFFFFF00FFFFFFFFFFFFFFFFFFFFFFFFFFFFFFFFFFFFFFFFFFFFFFFFFFFFFFFFFFFFFF00FFFFFFFFFFFFFFFFFFFFFFFFFFFFFFFFFFFFFFFFFFFFFFFFFFFFFFFFFFFFFF00FFFFFFFFFFFFFFFFFFFFFFFFFFFFFFFFFFFFFFFFFFFFFFFFFFFFFFFFFFFFFF00FFFFFF
310
FFFFFFFFFFFFFFFFFFFFFFFFFFFFFFFFFFFFFFFFFFFFFFFFFFFFFFFF00FFFFFFFFFFFFFFFFFFFFFFFFFFFFFFFFFFFFFFFFFFFFFFFFFFFFFFFFFFFFFF00FFFFFFFFFFFFFFFFFFFFFFFFFFFFFFFFFFFFFFFFFFFFFFFFFFFFFFFFFFFFFF00FFFFFFFFFFFFFFFFFFFFFFFFFFFFFFFFFFFFFFFFFFFFFFFFFFFFFFFFFFFFFF00FFFF
310
FFFFFFFFFFFFFFFFFFFFFFFFFFFFFFFFFFFFFFFFFFFFFFFFFFFFFFFFFF00FFFFFFFFFFFFFFFFFFFFFFFFFFFFFFFFFFFFFFFFFFFFFFFFFFFFFFFFFFFFFF00FFFFFFFFFFFFFFFFFFFFFFFFFFFFFFFFFFFFFFFFFFFFFFFFFFFFFFFFFFFFFF00FFFFFFFFFFFFFFFFFFFFFFFFFFFFFFFFFFFFFFFFFFFFFFFFFFFFFFFFFFFFFF00FF
310
FFFFFFFFFFFFFFFFFFFFFFFFFFFFFFFFFFFFFFFFFFFFFFFFFFFFFFFFFFFF00FFFFFFFFFFFFFFFFFFFFFFFFFFFFFFFFFFFFFFFFFFFFFFFFFFFFFFFFFFFFFF00FFFFFFFFFFFFFFFFFFFFFFFFFFFFFFFFFFFFFFFFFFFFFFFFFFFFFFFFFFFFFF00FFFFFFFFFFFFFFFFFFFFFFFFFFFFFFFFFFFFFFFFFFFFFFFFFFFFFFFFFFFFFF00
310
FFFFFFFFFFFFFFFFFFFFFFFFFFFFFFFFFFFFFFFFFFFFFFFFFFFFFFFFFFFFFF00FFFFFFFFFFFFFFFFFFFFFFFFFFFFFFFFFFFFFFFFFFFFFFFFFFFFFFFFFFFFFF00FFFFFFFFFFFFFFFFFFFFFFFFFFFFFFFFFFFFFFFFFFFFFFFFFFFFFFFFFFFFFF00FFFFFFFFFFFFFFFFFFFFFFFFFFFFFFFFFFFFFFFFFFFFFFFFFFFFFFFFFFFFFF
310
00FFFFFFFFFFFFFFFFFFFFFFFFFFFF000000000000000000FFFFFFFFFFFFFFFF00FFFFFFFFFFFFFFFFFFFFFFFFFFFF00FFFFFFFFFFFFFFFF
102
{BLKREFS
331
641
102
}
  0
BLOCK_RECORD
  5
623
330
1
100
AcDbSymbolTableRecord
100
AcDbBlockTableRecord
  2
AI9-BLK4
340
0
310
2800000020000000200000000100080000000000000400000000000000000000000000000000000000000000000080000080000000808000800000008000800080800000C0C0C000C0DCC000F0CAA6000020400000206000002080000020A0000020C0000020E00000400000004020000040400000406000004080000040A0
310
000040C0000040E00000600000006020000060400000606000006080000060A0000060C0000060E00000800000008020000080400000806000008080000080A0000080C0000080E00000A0000000A0200000A0400000A0600000A0800000A0A00000A0C00000A0E00000C0000000C0200000C0400000C0600000C0800000C0
310
A00000C0C00000C0E00000E0000000E0200000E0400000E0600000E0800000E0A00000E0C00000E0E00040000000400020004000400040006000400080004000A0004000C0004000E00040200000402020004020400040206000402080004020A0004020C0004020E000404000004040200040404000404060004040800040
310
40A0004040C0004040E00040600000406020004060400040606000406080004060A0004060C0004060E00040800000408020004080400040806000408080004080A0004080C0004080E00040A0000040A0200040A0400040A0600040A0800040A0A00040A0C00040A0E00040C0000040C0200040C0400040C0600040C08000
310
40C0A00040C0C00040C0E00040E0000040E0200040E0400040E0600040E0800040E0A00040E0C00040E0E00080000000800020008000400080006000800080008000A0008000C0008000E00080200000802020008020400080206000802080008020A0008020C0008020E00080400000804020008040400080406000804080
310
008040A0008040C0008040E00080600000806020008060400080606000806080008060A0008060C0008060E00080800000808020008080400080806000808080008080A0008080C0008080E00080A0000080A0200080A0400080A0600080A0800080A0A00080A0C00080A0E00080C0000080C0200080C0400080C0600080C0
310
800080C0A00080C0C00080C0E00080E0000080E0200080E0400080E0600080E0800080E0A00080E0C00080E0E000C0000000C0002000C0004000C0006000C0008000C000A000C000C000C000E000C0200000C0202000C0204000C0206000C0208000C020A000C020C000C020E000C0400000C0402000C0404000C0406000C0
310
408000C040A000C040C000C040E000C0600000C0602000C0604000C0606000C0608000C060A000C060C000C060E000C0800000C0802000C0804000C0806000C0808000C080A000C080C000C080E000C0A00000C0A02000C0A04000C0A06000C0A08000C0A0A000C0A0C000C0A0E000C0C00000C0C02000C0C04000C0C06000
310
C0C08000C0C0A000F0FBFF00A4A0A000808080000000FF0000FF000000FFFF00FF000000FF00FF00FFFF0000FFFFFF00FFFFFFFFFFFFFFFFFFFFFFFFFFFFFFFFFFFFFFFFFFFFFFFFFFFFFFFFFFFFFFFFFFFFFFFFFFFFFFFFFFFFFFFFFFFF00000000FFFFFFFFFFFFFFFFFFFFFF000000FFFFFFFFFFFFFFFFFFFFFFFFFFFF00
310
FFFF00FFFFFFFFFFFFFFFFFFFFFF00FFFFFFFFFFFFFFFFFFFFFFFFFFFFFFFF00FFFF00FFFFFFFFFFFFFFFFFFFFFF00FFFFFFFFFFFFFFFFFFFFFFFFFFFFFFFF00FFFF00FFFFFFFFFFFFFFFFFFFFFF00FFFFFFFFFFFFFFFFFFFFFFFFFFFFFFFF00FFFF00FFFFFFFFFFFFFFFFFFFFFF00FFFFFFFFFFFFFFFFFFFFFFFFFFFFFFFF
310
00FFFF00FFFFFFFFFFFFFFFFFFFFFF00FFFFFFFFFFFFFFFFFFFFFFFFFFFFFFFF00FFFF00FFFFFFFFFFFFFFFFFFFFFF00FFFFFFFFFFFFFFFFFFFFFFFFFFFFFFFF00FFFF00FFFFFFFFFFFFFFFFFFFFFF00FFFFFFFFFFFFFFFFFFFFFFFFFFFFFFFF00FFFF00FFFFFFFFFFFFFFFFFFFFFF00FFFFFFFFFFFFFFFFFFFFFFFFFFFFFF
310
FF00FFFF00FFFFFFFFFFFFFFFFFFFFFF00FFFFFFFFFFFFFFFFFFFFFFFFFFFFFFFF00FFFF00FFFFFFFFFFFFFFFFFFFFFF00FFFFFFFFFFFFFFFFFFFFFFFFFFFFFFFF00FFFF00FFFFFFFFFFFFFFFFFFFFFF00FFFFFFFFFFFFFFFFFFFFFFFFFFFFFFFF00FFFF00FFFFFFFFFFFFFFFFFFFFFF00FFFFFFFFFFFFFFFFFFFFFFFFFFFF
310
FFFF00FFFF00FFFFFFFFFFFFFFFFFFFFFF00FFFFFFFFFFFFFFFFFFFFFFFFFFFFFFFF00FFFF00FFFFFFFFFFFFFFFFFFFFFF00FFFFFFFFFFFFFFFFFFFFFFFFFFFFFFFF00FFFF00FFFFFFFFFFFFFFFFFFFFFF00FFFFFFFFFFFFFFFFFFFFFFFFFFFFFFFF00FFFF00FFFFFFFFFFFFFFFFFFFF00FFFFFFFFFFFFFFFFFFFFFFFFFFFF
310
FFFFFF00FFFF00FFFFFFFFFFFFFFFFFFFF00FFFFFFFFFFFFFFFFFFFFFFFFFFFFFFFFFF00FFFF00FFFFFFFFFFFFFFFFFFFF00FFFFFFFFFFFFFFFFFFFFFFFFFFFFFFFFFF00FFFF00FFFFFFFFFFFFFFFFFFFF00FFFFFFFFFFFFFFFFFFFFFFFFFFFFFFFFFF00FFFF00FFFFFFFFFFFFFFFFFFFF00FFFFFFFFFFFFFFFFFFFFFFFFFF
310
FFFFFFFF00FFFF00FFFFFFFFFFFFFFFFFF0000FFFF00FFFFFFFFFFFFFFFFFFFFFFFFFFFF00FFFF00FFFFFFFFFFFFFFFF0000FFFFFF00FFFFFFFFFFFFFFFFFFFFFFFFFFFF00FFFF00000000000000000000FFFFFFFF00FFFFFFFFFFFFFFFFFFFFFFFFFFFF00FFFFFFFFFFFFFFFFFFFFFFFFFFFFFF00FFFFFFFFFFFFFFFFFFFF
310
FFFFFFFFFF00FFFFFFFFFFFFFFFFFFFFFFFFFFFF00FFFFFFFFFFFFFFFFFFFFFFFFFFFFFFFF00FFFFFFFFFFFFFFFFFFFFFFFFFFFF00FFFFFFFFFFFFFFFFFFFFFFFFFFFFFFFF00FFFFFFFFFFFFFFFFFFFFFFFFFFFFFF00FFFFFFFFFFFFFFFFFFFFFFFFFFFFFF00FFFFFFFFFFFFFFFFFFFFFFFFFFFFFF00FFFFFFFFFFFFFFFFFF
310
FFFFFFFFFFFF00FFFF00000000000000000000FFFFFFFF00FFFFFFFFFFFFFFFFFFFFFFFFFFFF00FFFF00FFFFFFFFFFFFFFFFFF0000FFFF00
102
{BLKREFS
331
642
102
}
  0
BLOCK_RECORD
  5
628
330
1
100
AcDbSymbolTableRecord
100
AcDbBlockTableRecord
  2
AI9-BLK3
340
0
310
2800000020000000200000000100080000000000000400000000000000000000000000000000000000000000000080000080000000808000800000008000800080800000C0C0C000C0DCC000F0CAA6000020400000206000002080000020A0000020C0000020E00000400000004020000040400000406000004080000040A0
310
000040C0000040E00000600000006020000060400000606000006080000060A0000060C0000060E00000800000008020000080400000806000008080000080A0000080C0000080E00000A0000000A0200000A0400000A0600000A0800000A0A00000A0C00000A0E00000C0000000C0200000C0400000C0600000C0800000C0
310
A00000C0C00000C0E00000E0000000E0200000E0400000E0600000E0800000E0A00000E0C00000E0E00040000000400020004000400040006000400080004000A0004000C0004000E00040200000402020004020400040206000402080004020A0004020C0004020E000404000004040200040404000404060004040800040
310
40A0004040C0004040E00040600000406020004060400040606000406080004060A0004060C0004060E00040800000408020004080400040806000408080004080A0004080C0004080E00040A0000040A0200040A0400040A0600040A0800040A0A00040A0C00040A0E00040C0000040C0200040C0400040C0600040C08000
310
40C0A00040C0C00040C0E00040E0000040E0200040E0400040E0600040E0800040E0A00040E0C00040E0E00080000000800020008000400080006000800080008000A0008000C0008000E00080200000802020008020400080206000802080008020A0008020C0008020E00080400000804020008040400080406000804080
310
008040A0008040C0008040E00080600000806020008060400080606000806080008060A0008060C0008060E00080800000808020008080400080806000808080008080A0008080C0008080E00080A0000080A0200080A0400080A0600080A0800080A0A00080A0C00080A0E00080C0000080C0200080C0400080C0600080C0
310
800080C0A00080C0C00080C0E00080E0000080E0200080E0400080E0600080E0800080E0A00080E0C00080E0E000C0000000C0002000C0004000C0006000C0008000C000A000C000C000C000E000C0200000C0202000C0204000C0206000C0208000C020A000C020C000C020E000C0400000C0402000C0404000C0406000C0
310
408000C040A000C040C000C040E000C0600000C0602000C0604000C0606000C0608000C060A000C060C000C060E000C0800000C0802000C0804000C0806000C0808000C080A000C080C000C080E000C0A00000C0A02000C0A04000C0A06000C0A08000C0A0A000C0A0C000C0A0E000C0C00000C0C02000C0C04000C0C06000
310
C0C08000C0C0A000F0FBFF00A4A0A000808080000000FF0000FF000000FFFF00FF000000FF00FF00FFFF0000FFFFFF00FFFFFFFFFFFFFFFFFFFFFFFFFFFFFFFFFFFFFFFFFFFFFFFFFFFFFFFFFFFFFFFFFFFFFFFFFFFFFFFFFFFFFFFFFFFFFF0000FFFFFFFFFFFFFFFFFFFFFFFFFFFFFFFFFFFFFFFFFFFFFFFFFFFFFFFFFFFF
310
0000FFFFFFFFFFFFFFFFFFFFFFFFFFFFFFFFFFFFFFFFFFFFFFFFFFFFFFFFFFFF0000FFFFFFFFFFFFFFFFFFFFFFFFFFFFFFFFFFFFFFFFFFFFFFFFFFFFFFFFFFFF0000FFFFFFFFFFFFFFFFFFFFFFFFFFFFFFFFFFFFFFFFFFFFFFFFFFFFFFFFFFFF0000FFFFFFFFFFFFFFFFFFFFFFFFFFFFFFFFFFFFFFFFFFFFFFFFFFFFFFFFFF
310
FF0000FFFFFFFFFFFFFFFFFFFFFFFFFFFFFFFFFFFFFFFFFFFFFFFFFFFFFFFFFFFF0000FFFFFFFFFFFFFFFFFFFFFFFFFFFFFFFFFFFFFFFFFFFFFFFFFFFFFFFFFFFF0000FFFFFFFFFFFFFFFFFFFFFFFFFFFFFFFFFFFFFFFFFFFFFFFFFFFFFFFFFFFF0000FFFFFFFFFFFFFFFFFFFFFFFFFFFFFFFFFFFFFFFFFFFFFFFFFFFFFFFF
310
FFFF0000FFFFFFFFFFFFFFFFFFFFFFFFFFFFFFFFFFFFFFFFFFFFFFFFFFFFFFFFFFFF0000FFFFFFFFFFFFFFFFFFFFFFFFFFFFFFFFFFFFFFFFFFFFFFFFFFFFFFFFFFFF0000FFFFFFFFFFFFFFFFFFFFFFFFFFFFFFFFFFFFFFFFFFFFFFFFFFFFFFFFFFFF0000FFFFFFFFFFFFFFFFFFFFFFFFFFFFFFFFFFFFFFFFFFFFFFFFFFFFFF
310
FFFFFF0000FFFFFFFFFFFFFFFFFFFFFFFFFFFFFFFFFFFFFFFFFFFFFFFFFFFFFFFFFFFF0000FFFFFFFFFFFFFFFFFFFFFFFFFFFFFFFFFFFFFFFFFFFFFFFFFFFFFFFFFFFF0000FFFFFFFFFFFFFFFFFFFFFFFFFFFFFFFFFFFFFFFFFFFFFFFFFFFFFFFFFFFF0000FFFFFFFFFFFFFFFFFFFFFFFFFFFFFFFFFFFFFFFFFFFFFFFFFFFF
310
FFFFFFFF0000FFFFFFFFFFFFFFFFFFFFFFFFFFFFFFFFFFFFFFFFFFFFFFFFFFFFFFFFFFFF0000FFFFFFFFFFFFFFFFFFFFFFFFFFFFFFFFFFFFFFFFFFFFFFFFFFFFFFFFFFFF0000FFFFFFFFFFFFFFFFFFFFFFFFFFFFFFFFFFFFFFFFFFFFFFFFFFFFFFFFFFFF0000FFFFFFFFFFFFFFFFFFFFFFFFFFFFFFFFFFFFFFFFFFFFFFFFFF
310
FFFFFFFFFF0000FFFFFFFFFFFFFFFFFFFFFFFFFFFFFFFFFFFFFFFFFFFFFFFFFFFFFFFFFFFF0000FFFFFFFFFFFFFFFFFFFFFFFFFFFFFFFFFFFFFFFFFFFFFFFFFFFFFFFFFFFF0000FFFFFFFFFFFFFFFFFFFFFFFFFFFFFFFFFFFFFFFFFFFFFFFFFFFFFFFFFFFF0000FFFFFFFFFFFFFFFFFFFFFFFFFFFFFFFFFFFFFFFFFFFFFFFF
310
FFFFFFFFFFFF0000FFFFFFFFFFFFFFFFFFFFFFFFFFFFFFFFFFFFFFFFFFFFFFFFFFFFFFFFFFFF0000FFFFFFFFFFFFFFFFFFFFFFFFFFFFFFFFFFFFFFFFFFFFFFFFFFFFFFFFFFFF0000FFFFFFFFFFFFFFFFFFFFFFFFFFFFFFFFFFFFFFFFFFFFFFFFFFFFFFFFFFFF0000FFFFFFFFFFFFFFFFFFFFFFFFFFFFFFFFFFFFFFFFFFFFFF
310
FFFFFFFFFFFFFF0000FFFFFFFFFFFFFFFFFFFFFFFFFFFFFFFFFFFFFFFFFFFFFFFFFFFFFFFFFFFFFFFFFFFFFFFFFFFFFFFFFFFFFFFFFFFFFF
102
{BLKREFS
331
643
102
}
  0
BLOCK_RECORD
  5
62D
330
1
100
AcDbSymbolTableRecord
100
AcDbBlockTableRecord
  2
AI9-BLK2
340
0
310
2800000020000000200000000100080000000000000400000000000000000000000000000000000000000000000080000080000000808000800000008000800080800000C0C0C000C0DCC000F0CAA6000020400000206000002080000020A0000020C0000020E00000400000004020000040400000406000004080000040A0
310
000040C0000040E00000600000006020000060400000606000006080000060A0000060C0000060E00000800000008020000080400000806000008080000080A0000080C0000080E00000A0000000A0200000A0400000A0600000A0800000A0A00000A0C00000A0E00000C0000000C0200000C0400000C0600000C0800000C0
310
A00000C0C00000C0E00000E0000000E0200000E0400000E0600000E0800000E0A00000E0C00000E0E00040000000400020004000400040006000400080004000A0004000C0004000E00040200000402020004020400040206000402080004020A0004020C0004020E000404000004040200040404000404060004040800040
310
40A0004040C0004040E00040600000406020004060400040606000406080004060A0004060C0004060E00040800000408020004080400040806000408080004080A0004080C0004080E00040A0000040A0200040A0400040A0600040A0800040A0A00040A0C00040A0E00040C0000040C0200040C0400040C0600040C08000
310
40C0A00040C0C00040C0E00040E0000040E0200040E0400040E0600040E0800040E0A00040E0C00040E0E00080000000800020008000400080006000800080008000A0008000C0008000E00080200000802020008020400080206000802080008020A0008020C0008020E00080400000804020008040400080406000804080
310
008040A0008040C0008040E00080600000806020008060400080606000806080008060A0008060C0008060E00080800000808020008080400080806000808080008080A0008080C0008080E00080A0000080A0200080A0400080A0600080A0800080A0A00080A0C00080A0E00080C0000080C0200080C0400080C0600080C0
310
800080C0A00080C0C00080C0E00080E0000080E0200080E0400080E0600080E0800080E0A00080E0C00080E0E000C0000000C0002000C0004000C0006000C0008000C000A000C000C000C000E000C0200000C0202000C0204000C0206000C0208000C020A000C020C000C020E000C0400000C0402000C0404000C0406000C0
310
408000C040A000C040C000C040E000C0600000C0602000C0604000C0606000C0608000C060A000C060C000C060E000C0800000C0802000C0804000C0806000C0808000C080A000C080C000C080E000C0A00000C0A02000C0A04000C0A06000C0A08000C0A0A000C0A0C000C0A0E000C0C00000C0C02000C0C04000C0C06000
310
C0C08000C0C0A000F0FBFF00A4A0A000808080000000FF0000FF000000FFFF00FF000000FF00FF00FFFF0000FFFFFF00FFFFFFFFFFFFFFFFFFFFFFFFFFFFFFFFFFFFFFFFFFFFFFFFFFFFFFFFFFFFFFFFFFFFFFFFFFFFFFFFFFFFFFFFFFFFFF0000FFFFFFFFFFFFFFFFFFFFFFFFFFFFFFFFFFFFFFFFFFFFFFFFFFFFFFFFFFFF
310
0000FFFFFFFFFFFFFFFFFFFFFFFFFFFFFFFFFFFFFFFFFFFFFFFFFFFFFFFFFFFF0000FFFFFFFFFFFFFFFFFFFFFFFFFFFFFFFFFFFFFFFFFFFFFFFFFFFFFFFFFF00FFFF00FFFFFFFFFFFFFFFFFFFFFFFFFFFFFFFFFFFFFFFFFFFFFFFFFFFFFFFF00FFFF00FFFFFFFFFFFFFFFFFFFFFFFFFFFFFFFFFFFFFFFFFFFFFFFFFFFFFFFF
310
00FF0000FFFFFFFFFFFFFFFFFFFFFFFFFFFFFFFFFFFFFFFFFFFFFFFFFFFFFFFF00FF0000FFFFFFFFFFFFFFFFFFFFFFFFFFFFFFFFFFFFFFFFFFFFFFFFFFFFFFFF00FF0000FFFFFFFFFFFFFFFFFFFFFFFFFFFFFFFFFFFFFFFFFFFFFFFFFFFFFFFF00000000FFFFFFFFFFFFFFFFFFFFFFFFFFFFFFFFFFFFFFFFFFFFFFFFFFFFFF
310
00FF00FF0000FFFFFFFFFFFFFFFFFFFFFFFFFFFFFFFFFFFFFFFFFFFFFFFFFFFF00FF00FF0000FFFFFFFFFFFFFFFFFFFFFFFFFFFFFFFFFFFFFFFFFFFFFFFFFFFF00FF00FF0000FFFFFFFFFFFFFFFFFFFFFFFFFFFFFFFFFFFFFFFFFFFFFFFFFFFF00FF00FF0000FFFFFFFFFFFFFFFFFFFFFFFFFFFFFFFFFFFFFFFFFFFFFFFFFF
310
FF00FF00FF0000FFFFFFFFFFFFFFFFFFFFFFFFFFFFFFFFFFFFFFFFFFFFFFFFFFFF0000FFFF0000FFFFFFFFFFFFFFFFFFFFFFFFFFFFFFFFFFFFFFFFFFFFFFFFFF00FF00FFFF00FF00FFFFFFFFFFFFFFFFFFFFFFFFFFFFFFFFFFFFFFFFFFFFFFFF00FF00FFFF00FF00FFFFFFFFFFFFFFFFFFFFFFFFFFFFFFFFFFFFFFFFFFFFFF
310
FF00FF00FFFFFF0000FFFFFFFFFFFFFFFFFFFFFFFFFFFFFFFFFFFFFFFFFFFFFFFF00FF00FFFFFF0000FFFFFFFFFFFFFFFFFFFFFFFFFFFFFFFFFFFFFFFFFFFFFFFF00FF00FFFFFF0000FFFFFFFFFFFFFFFFFFFFFFFFFFFFFFFFFFFFFFFFFFFFFFFF0000FFFFFFFF0000FFFFFFFFFFFFFFFFFFFFFFFFFFFFFFFFFFFFFFFFFFFF
310
FF00FF00FFFFFFFF00FF00FFFFFFFFFFFFFFFFFFFFFFFFFFFFFFFFFFFFFFFFFFFF00FF00FFFFFFFF00FF00FFFFFFFFFFFFFFFFFFFFFFFFFFFFFFFFFFFFFFFFFFFF00FF00FFFFFFFF00FF00FFFFFFFFFFFFFFFFFFFFFFFFFFFFFFFFFFFFFFFFFFFF00FF00FFFFFFFF00FF00FFFFFFFFFFFFFFFFFFFFFFFFFFFFFFFFFFFFFFFF
310
FFFF00FF00FFFFFFFFFF0000FFFFFFFFFFFFFFFFFFFFFFFFFFFFFFFFFFFFFFFFFFFF0000FFFFFFFFFFFF0000FFFFFFFFFFFFFFFFFFFFFFFFFFFFFFFFFFFFFFFFFF00FF00FFFFFFFFFFFF00FF00FFFFFFFFFFFFFFFFFFFFFFFFFFFFFFFFFFFFFFFF00FF00FFFFFFFFFFFF00FF00FFFFFFFFFFFFFFFFFFFFFFFFFFFFFFFFFFFF
310
FFFF000000FFFFFFFFFFFF000000FFFFFFFFFFFFFFFFFFFFFFFFFFFFFFFFFFFFFFFFFFFFFFFFFFFFFFFFFFFFFFFFFFFFFFFFFFFFFFFFFFFF
102
{BLKREFS
331
644
102
}
  0
BLOCK_RECORD
  5
632
330
1
100
AcDbSymbolTableRecord
100
AcDbBlockTableRecord
  2
AI9-BLK1
340
0
310
2800000020000000200000000100080000000000000400000000000000000000000000000000000000000000000080000080000000808000800000008000800080800000C0C0C000C0DCC000F0CAA6000020400000206000002080000020A0000020C0000020E00000400000004020000040400000406000004080000040A0
310
000040C0000040E00000600000006020000060400000606000006080000060A0000060C0000060E00000800000008020000080400000806000008080000080A0000080C0000080E00000A0000000A0200000A0400000A0600000A0800000A0A00000A0C00000A0E00000C0000000C0200000C0400000C0600000C0800000C0
310
A00000C0C00000C0E00000E0000000E0200000E0400000E0600000E0800000E0A00000E0C00000E0E00040000000400020004000400040006000400080004000A0004000C0004000E00040200000402020004020400040206000402080004020A0004020C0004020E000404000004040200040404000404060004040800040
310
40A0004040C0004040E00040600000406020004060400040606000406080004060A0004060C0004060E00040800000408020004080400040806000408080004080A0004080C0004080E00040A0000040A0200040A0400040A0600040A0800040A0A00040A0C00040A0E00040C0000040C0200040C0400040C0600040C08000
310
40C0A00040C0C00040C0E00040E0000040E0200040E0400040E0600040E0800040E0A00040E0C00040E0E00080000000800020008000400080006000800080008000A0008000C0008000E00080200000802020008020400080206000802080008020A0008020C0008020E00080400000804020008040400080406000804080
310
008040A0008040C0008040E00080600000806020008060400080606000806080008060A0008060C0008060E00080800000808020008080400080806000808080008080A0008080C0008080E00080A0000080A0200080A0400080A0600080A0800080A0A00080A0C00080A0E00080C0000080C0200080C0400080C0600080C0
310
800080C0A00080C0C00080C0E00080E0000080E0200080E0400080E0600080E0800080E0A00080E0C00080E0E000C0000000C0002000C0004000C0006000C0008000C000A000C000C000C000E000C0200000C0202000C0204000C0206000C0208000C020A000C020C000C020E000C0400000C0402000C0404000C0406000C0
310
408000C040A000C040C000C040E000C0600000C0602000C0604000C0606000C0608000C060A000C060C000C060E000C0800000C0802000C0804000C0806000C0808000C080A000C080C000C080E000C0A00000C0A02000C0A04000C0A06000C0A08000C0A0A000C0A0C000C0A0E000C0C00000C0C02000C0C04000C0C06000
310
C0C08000C0C0A000F0FBFF00A4A0A000808080000000FF0000FF000000FFFF00FF000000FF00FF00FFFF0000FFFFFF00FFFFFFFFFFFFFFFFFFFFFFFFFFFFFFFFFFFFFFFFFFFFFFFFFFFFFFFFFFFFFFFFFFFFFFFFFFFFFFFFFFFFFF00000000000000000000FFFFFFFFFFFFFFFFFFFFFFFFFFFFFFFFFFFFFFFFFFFF00FFFFFF
310
FFFFFFFFFF00FFFFFFFFFFFFFFFFFFFFFFFFFFFFFFFFFFFFFFFFFFFF00FFFFFFFFFFFFFFFF00FFFFFFFFFFFFFFFFFFFFFFFFFFFFFFFFFFFFFFFFFFFF00FFFFFFFFFFFFFFFF00FFFFFFFFFFFFFFFFFFFFFFFFFFFFFFFFFFFFFFFFFFFF00FF0000000000000000FFFFFFFFFFFFFFFFFFFFFFFFFFFFFFFFFFFFFFFFFFFF00FF00
310
FFFFFFFFFFFFFFFFFFFFFFFFFFFFFFFFFFFFFFFFFFFFFFFFFFFFFFFFFF00FF00FFFFFFFFFFFFFFFFFFFFFFFFFFFFFFFFFFFFFFFFFFFFFFFFFFFFFFFFFF00FF00FFFFFFFFFFFFFFFFFFFFFFFFFFFFFFFFFFFFFFFFFFFFFFFFFFFFFFFFFF00FF00FFFFFFFFFFFFFFFFFFFFFFFFFFFFFFFFFFFFFFFFFFFFFFFFFFFFFFFFFF00FF
310
00FFFFFFFFFFFFFFFFFFFFFFFFFFFFFFFFFFFFFFFFFFFFFFFFFFFFFFFFFF00FF00FFFFFFFFFFFFFFFFFFFFFFFFFFFFFFFFFFFFFFFFFFFFFFFFFFFFFFFFFF00FF00FFFFFFFFFFFFFFFFFFFFFFFFFFFFFFFFFFFFFFFFFFFFFFFFFFFFFFFFFF00FF00FFFFFFFFFFFFFFFFFFFFFFFFFFFFFFFFFFFFFFFFFFFFFFFFFFFFFFFFFF00
310
FF00000000000000FFFFFFFFFFFFFFFFFFFFFFFFFFFFFFFFFFFFFFFFFFFFFF00FFFFFFFFFFFFFF00FFFFFFFFFFFFFFFFFFFFFFFFFFFFFFFFFFFFFFFFFFFFFF00FFFFFFFFFFFFFF00FFFFFFFFFFFFFFFFFFFFFFFFFFFFFFFFFFFFFFFFFFFFFF00FFFFFFFFFFFFFF00FFFFFFFFFFFFFFFFFFFFFFFFFFFFFFFFFFFFFFFFFFFFFF
310
00FF00000000000000FFFFFFFFFFFFFFFFFFFFFFFFFFFFFFFFFFFFFFFFFFFFFF00FF00FFFFFFFFFFFFFFFFFFFFFFFFFFFFFFFFFFFFFFFFFFFFFFFFFFFFFFFFFF00FF00FFFFFFFFFFFFFFFFFFFFFFFFFFFFFFFFFFFFFFFFFFFFFFFFFFFFFFFFFF00FF00FFFFFFFFFFFFFFFFFFFFFFFFFFFFFFFFFFFFFFFFFFFFFFFFFFFFFFFF
310
FF00FF00FFFFFFFFFFFFFFFFFFFFFFFFFFFFFFFFFFFFFFFFFFFFFFFFFFFFFFFFFF00FF00FFFFFFFFFFFFFFFFFFFFFFFFFFFFFFFFFFFFFFFFFFFFFFFFFFFFFFFFFF00FF00FFFFFFFFFFFFFFFFFFFFFFFFFFFFFFFFFFFFFFFFFFFFFFFFFFFFFFFFFF00FF00FFFFFFFFFFFFFFFFFFFFFFFFFFFFFFFFFFFFFFFFFFFFFFFFFFFFFF
310
FFFF00FF0000000000000000FFFFFFFFFFFFFFFFFFFFFFFFFFFFFFFFFFFFFFFFFFFF00FFFFFFFFFFFFFFFF00FFFFFFFFFFFFFFFFFFFFFFFFFFFFFFFFFFFFFFFFFFFF00FFFFFFFFFFFFFFFF00FFFFFFFFFFFFFFFFFFFFFFFFFFFFFFFFFFFFFFFFFFFF00FFFFFFFFFFFFFFFF00FFFFFFFFFFFFFFFFFFFFFFFFFFFFFFFFFFFFFF
310
FFFFFF00000000000000000000FFFFFFFFFFFFFFFFFFFFFFFFFFFFFFFFFFFFFFFFFFFFFFFFFFFFFFFFFFFFFFFFFFFFFFFFFFFFFFFFFFFFFF
102
{BLKREFS
331
645
102
}
  0
BLOCK_RECORD
  5
637
330
1
100
AcDbSymbolTableRecord
100
AcDbBlockTableRecord
  2
HD_LLC_logo_OT5
340
0
310
2800000020000000200000000100080000000000000400000000000000000000000000000000000000000000000080000080000000808000800000008000800080800000C0C0C000C0DCC000F0CAA6000020400000206000002080000020A0000020C0000020E00000400000004020000040400000406000004080000040A0
310
000040C0000040E00000600000006020000060400000606000006080000060A0000060C0000060E00000800000008020000080400000806000008080000080A0000080C0000080E00000A0000000A0200000A0400000A0600000A0800000A0A00000A0C00000A0E00000C0000000C0200000C0400000C0600000C0800000C0
310
A00000C0C00000C0E00000E0000000E0200000E0400000E0600000E0800000E0A00000E0C00000E0E00040000000400020004000400040006000400080004000A0004000C0004000E00040200000402020004020400040206000402080004020A0004020C0004020E000404000004040200040404000404060004040800040
310
40A0004040C0004040E00040600000406020004060400040606000406080004060A0004060C0004060E00040800000408020004080400040806000408080004080A0004080C0004080E00040A0000040A0200040A0400040A0600040A0800040A0A00040A0C00040A0E00040C0000040C0200040C0400040C0600040C08000
310
40C0A00040C0C00040C0E00040E0000040E0200040E0400040E0600040E0800040E0A00040E0C00040E0E00080000000800020008000400080006000800080008000A0008000C0008000E00080200000802020008020400080206000802080008020A0008020C0008020E00080400000804020008040400080406000804080
310
008040A0008040C0008040E00080600000806020008060400080606000806080008060A0008060C0008060E00080800000808020008080400080806000808080008080A0008080C0008080E00080A0000080A0200080A0400080A0600080A0800080A0A00080A0C00080A0E00080C0000080C0200080C0400080C0600080C0
310
800080C0A00080C0C00080C0E00080E0000080E0200080E0400080E0600080E0800080E0A00080E0C00080E0E000C0000000C0002000C0004000C0006000C0008000C000A000C000C000C000E000C0200000C0202000C0204000C0206000C0208000C020A000C020C000C020E000C0400000C0402000C0404000C0406000C0
310
408000C040A000C040C000C040E000C0600000C0602000C0604000C0606000C0608000C060A000C060C000C060E000C0800000C0802000C0804000C0806000C0808000C080A000C080C000C080E000C0A00000C0A02000C0A04000C0A06000C0A08000C0A0A000C0A0C000C0A0E000C0C00000C0C02000C0C04000C0C06000
310
C0C08000C0C0A000F0FBFF00A4A0A000808080000000FF0000FF000000FFFF00FF000000FF00FF00FFFF0000FFFFFF00FFFFFFFFFFFFFFFFFFFFFFFFFFFFFFFFFFFFFFFFFFFFFFFFFFFFFFFFFFFFFFFFFFFFFFFFFFFFFFFFFFFFFFFFFFFFFFFFFFFFFFFFFFFFFFFFFFFFFFFFFFFFFFFFFFFFFFFFFFFFFFFFFFFFFFFFFFFFFF
310
FFFFFFFFFFFFFFFFFFFFFFFFFFFFFFFFFFFFFFFFFFFFFFFFFFFFFFFFFFFFFFFFFFFFFFFFFFFFFFFFFFFFFFFFFFFFFFFFFFFFFFFFFFFFFFFFFFFFFFFFFFFFFFFFFFFFFFFFFFFFFFFFFFFFFFFFFFFFFFFFFFFFFFFFFFFFFFFFFFFFFFFFFFFFFFFFFFFFFFFFFFFFFFFFFFFFFFFFFFFFFFFFFFFFFFFFFFFFFFFFFFFFFFFFFFFFFF
310
FFFFFFFFFFFFFFFFFFFFFFFFFFFFFFFFFFFFFFFFFFFFFFFFFFFFFFFFFFFFFFFFFFFFFFFFFFFFFFFFFFFFFFFFFFFFFFFFFFFFFFFFFFFFFFFFFFFFFFFFFFFFFFFFFFFFFFFFFFFFFFFFFFFFFFFFFFFFFFFFFFFFFFFFFFFFFFFFFFFFFFFFFFFFFFFFFFFFFFFFFFFFFFFFFFFFFFFFFFFFFFFFFFFFFFFFFFFFFFFFFFFFFFFFFFFFFF
310
FFFFFFFFFFFFFFFFFFFFFFFFFFFFFFFFFFFFFFFFFFFFFFFFFFFFFFFFFFFFFFFFFFFFFFFFFFFFFFFFFFFFFFFFFFFFFFFFFFFFFFFF0000000000000000000000000000000000000000000000000000000000FFFFFF0000000000000000000000000000000000FFFFFFFFFFFFFFFFFFFF0000FFFFFF0000000000000000000000
310
00000000000000FFFFFFFFFFFFFFFFFFFF0000FFFF000000000000000000000000000000000000FFFFFF00000000FFFFFF0000FFFF00FFFFFFFFFFFF00FFFFFF00FFFFFFFFFF00FFFFFF0000000000FFFF0000FFFF00FFFFFFFFFFFF00FFFFFF00FFFFFFFFFF00FFFFFF00FFFF0000FFFF0000FFFF00FFFFFFFFFFFF00FFFF
310
00FFFFFFFFFFFF00FFFFFF00FFFF0000FFFF0000FFFF0000000000FFFF00000000FFFFFF00000000FFFFFF00000000FFFFFF0000FFFFFFFFFFFF00FFFFFFFFFFFFFFFFFF00FFFFFFFFFFFFFFFFFFFFFFFFFF0000FFFFFFFFFFFF00FFFFFFFFFFFFFFFFFF00FFFFFFFFFFFFFFFFFFFFFFFFFF0000FFFFFFFFFFFF00FFFFFFFF
310
FFFFFFFFFF00FFFFFFFFFFFFFFFFFFFFFFFF0000FFFFFF0000000000FFFF00000000FFFFFF0000000000000000000000000000FFFFFFFF00FFFFFFFFFFFF00FFFF00FFFFFFFFFFFF00FFFFFFFFFFFFFFFFFFFFFFFFFFFF00FFFFFFFFFFFF00FFFFFF00FFFFFFFFFF00FFFFFFFFFFFFFFFFFFFFFFFFFFFF0000000000000000
310
FFFFFF00000000000000FFFFFFFFFFFFFFFFFFFFFFFFFFFFFFFFFFFFFFFFFFFFFFFFFFFFFFFFFFFFFFFFFFFFFFFFFFFFFFFFFFFFFFFFFFFFFFFFFFFFFFFFFFFFFFFFFFFFFFFFFFFFFFFFFFFFFFFFFFFFFFFFFFFFFFFFFFFFFFFFFFFFFFFFFFFFFFFFFFFFFFFFFFFFFFFFFFFFFFFFFFFFFFFFFFFFFFFFFFFFFFFFFFFFFFFFFF
310
FFFFFFFFFFFFFFFFFFFFFFFFFFFFFFFFFFFFFFFFFFFFFFFFFFFFFFFFFFFFFFFFFFFFFFFFFFFFFFFFFFFFFFFFFFFFFFFFFFFFFFFFFFFFFFFF
102
{BLKREFS
331
65D
102
}
  0
BLOCK_RECORD
  5
65C
330
1
100
AcDbSymbolTableRecord
100
AcDbBlockTableRecord
  2
HD logo-new
340
0
310
2800000020000000200000000100080000000000000400000000000000000000000000000000000000000000000080000080000000808000800000008000800080800000C0C0C000C0DCC000F0CAA6000020400000206000002080000020A0000020C0000020E00000400000004020000040400000406000004080000040A0
310
000040C0000040E00000600000006020000060400000606000006080000060A0000060C0000060E00000800000008020000080400000806000008080000080A0000080C0000080E00000A0000000A0200000A0400000A0600000A0800000A0A00000A0C00000A0E00000C0000000C0200000C0400000C0600000C0800000C0
310
A00000C0C00000C0E00000E0000000E0200000E0400000E0600000E0800000E0A00000E0C00000E0E00040000000400020004000400040006000400080004000A0004000C0004000E00040200000402020004020400040206000402080004020A0004020C0004020E000404000004040200040404000404060004040800040
310
40A0004040C0004040E00040600000406020004060400040606000406080004060A0004060C0004060E00040800000408020004080400040806000408080004080A0004080C0004080E00040A0000040A0200040A0400040A0600040A0800040A0A00040A0C00040A0E00040C0000040C0200040C0400040C0600040C08000
310
40C0A00040C0C00040C0E00040E0000040E0200040E0400040E0600040E0800040E0A00040E0C00040E0E00080000000800020008000400080006000800080008000A0008000C0008000E00080200000802020008020400080206000802080008020A0008020C0008020E00080400000804020008040400080406000804080
310
008040A0008040C0008040E00080600000806020008060400080606000806080008060A0008060C0008060E00080800000808020008080400080806000808080008080A0008080C0008080E00080A0000080A0200080A0400080A0600080A0800080A0A00080A0C00080A0E00080C0000080C0200080C0400080C0600080C0
310
800080C0A00080C0C00080C0E00080E0000080E0200080E0400080E0600080E0800080E0A00080E0C00080E0E000C0000000C0002000C0004000C0006000C0008000C000A000C000C000C000E000C0200000C0202000C0204000C0206000C0208000C020A000C020C000C020E000C0400000C0402000C0404000C0406000C0
310
408000C040A000C040C000C040E000C0600000C0602000C0604000C0606000C0608000C060A000C060C000C060E000C0800000C0802000C0804000C0806000C0808000C080A000C080C000C080E000C0A00000C0A02000C0A04000C0A06000C0A08000C0A0A000C0A0C000C0A0E000C0C00000C0C02000C0C04000C0C06000
310
C0C08000C0C0A000F0FBFF00A4A0A000808080000000FF0000FF000000FFFF00FF000000FF00FF00FFFF0000FFFFFF00FFFFFFFFFFFFFFFFFFFFFFFFFFFFFFFFFFFFFFFFFFFFFFFFFFFFFFFFFFFFFFFFFFFFFFFFFFFFFFFFFFFFFFFFFFFFFFFFFFFFFFFFFFFFFFFFFFFFFFFFFFFFFFFFFFFFFFFFFFFFFFFFFFFFFFFFFFFFFF
310
FFFFFFFFFFFFFFFFFFFFFFFFFFFFFFFFFFFFFFFFFFFFFFFFFFFFFFFFFFFFFFFFFFFFFFFFFFFFFFFFFFFFFFFFFFFFFFFFFFFFFFFFFFFFFFFFFFFFFFFFFFFFFFFFFFFFFFFFFFFFFFFFFFFFFFFFFFFFFFFFFFFFFFFFFFFFFFFFFFFFFFFFFFFFFFFFFFFFFFFFFFFFFFFFFFFFFFFFFFFFFFFFFFFFFFFFFFFFFFFFFFFFFFFFFFFFFF
310
FFFFFFFFFFFFFFFFFFFFFFFFFFFFFFFFFFFFFFFFFFFFFFFFFFFFFFFFFFFFFFFFFFFFFFFFFFFFFFFFFFFFFFFFFFFFFFFFFFFFFFFFFFFFFFFFFFFFFFFFFFFFFFFFFFFFFFFFFFFFFFFFFFFFFFFFFFFFFFFFFFFFFFFFFFFFFFFFFFFFFFFFFFFFFFFFFFFFFFFFFFFFFFFFFFFFFFFFFFFFFFFFFFFFFFFFFFFFFFFFFFFFFFFFFFFFFF
310
FFFFFFFFFFFFFFFFFFFFFFFFFFFFFFFFFFFFFFFFFFFFFFFFFFFFFFFFFFFFFFFFFFFFFFFFFFFFFFFFFFFFFFFFFFFFFFFFFFFFFFFF0000000000000000000000000000000000000000000000000000000000FFFFFF0000000000000000000000000000000000FFFFFFFFFFFFFFFFFFFF0000FFFFFF0000000000000000000000
310
00000000000000FFFFFFFFFFFFFFFFFFFF0000FFFF000000000000000000000000000000000000FFFFFF00000000FFFFFF0000FFFF00FFFFFFFFFFFF00FFFFFF00FFFFFFFFFF00FFFFFF0000000000FFFF0000FFFF00FFFFFFFFFFFF00FFFFFF00FFFFFFFFFF00FFFFFF00FFFF0000FFFF0000FFFF00FFFFFFFFFFFF00FFFF
310
00FFFFFFFFFFFF00FFFFFF00FFFF0000FFFF0000FFFF0000000000FFFF00000000FFFFFF00000000FFFFFF00000000FFFFFF0000FFFFFFFFFFFF00FFFFFFFFFFFFFFFFFF00FFFFFFFFFFFFFFFFFFFFFFFFFF0000FFFFFFFFFFFF00FFFFFFFFFFFFFFFFFF00FFFFFFFFFFFFFFFFFFFFFFFFFF0000FFFFFFFFFFFF00FFFFFFFF
310
FFFFFFFFFF00FFFFFFFFFFFFFFFFFFFFFFFF0000FFFFFF0000000000FFFF00000000FFFFFF0000000000000000000000000000FFFFFFFF00FFFFFFFFFFFF00FFFF00FFFFFFFFFFFF00FFFFFFFFFFFFFFFFFFFFFFFFFFFF00FFFFFFFFFFFF00FFFFFF00FFFFFFFFFF00FFFFFFFFFFFFFFFFFFFFFFFFFFFF0000000000000000
310
FFFFFF00000000000000FFFFFFFFFFFFFFFFFFFFFFFFFFFFFFFFFFFFFFFFFFFFFFFFFFFFFFFFFFFFFFFFFFFFFFFFFFFFFFFFFFFFFFFFFFFFFFFFFFFFFFFFFFFFFFFFFFFFFFFFFFFFFFFFFFFFFFFFFFFFFFFFFFFFFFFFFFFFFFFFFFFFFFFFFFFFFFFFFFFFFFFFFFFFFFFFFFFFFFFFFFFFFFFFFFFFFFFFFFFFFFFFFFFFFFFFFF
310
FFFFFFFFFFFFFFFFFFFFFFFFFFFFFFFFFFFFFFFFFFFFFFFFFFFFFFFFFFFFFFFFFFFFFFFFFFFFFFFFFFFFFFFFFFFFFFFFFFFFFFFFFFFFFFFF
102
{BLKREFS
331
662
331
666
102
}
  0
BLOCK_RECORD
  5
667
330
1
100
AcDbSymbolTableRecord
100
AcDbBlockTableRecord
  2
HD LLC
340
0
310
2800000020000000200000000100080000000000000400000000000000000000000000000000000000000000000080000080000000808000800000008000800080800000C0C0C000C0DCC000F0CAA6000020400000206000002080000020A0000020C0000020E00000400000004020000040400000406000004080000040A0
310
000040C0000040E00000600000006020000060400000606000006080000060A0000060C0000060E00000800000008020000080400000806000008080000080A0000080C0000080E00000A0000000A0200000A0400000A0600000A0800000A0A00000A0C00000A0E00000C0000000C0200000C0400000C0600000C0800000C0
310
A00000C0C00000C0E00000E0000000E0200000E0400000E0600000E0800000E0A00000E0C00000E0E00040000000400020004000400040006000400080004000A0004000C0004000E00040200000402020004020400040206000402080004020A0004020C0004020E000404000004040200040404000404060004040800040
310
40A0004040C0004040E00040600000406020004060400040606000406080004060A0004060C0004060E00040800000408020004080400040806000408080004080A0004080C0004080E00040A0000040A0200040A0400040A0600040A0800040A0A00040A0C00040A0E00040C0000040C0200040C0400040C0600040C08000
310
40C0A00040C0C00040C0E00040E0000040E0200040E0400040E0600040E0800040E0A00040E0C00040E0E00080000000800020008000400080006000800080008000A0008000C0008000E00080200000802020008020400080206000802080008020A0008020C0008020E00080400000804020008040400080406000804080
310
008040A0008040C0008040E00080600000806020008060400080606000806080008060A0008060C0008060E00080800000808020008080400080806000808080008080A0008080C0008080E00080A0000080A0200080A0400080A0600080A0800080A0A00080A0C00080A0E00080C0000080C0200080C0400080C0600080C0
310
800080C0A00080C0C00080C0E00080E0000080E0200080E0400080E0600080E0800080E0A00080E0C00080E0E000C0000000C0002000C0004000C0006000C0008000C000A000C000C000C000E000C0200000C0202000C0204000C0206000C0208000C020A000C020C000C020E000C0400000C0402000C0404000C0406000C0
310
408000C040A000C040C000C040E000C0600000C0602000C0604000C0606000C0608000C060A000C060C000C060E000C0800000C0802000C0804000C0806000C0808000C080A000C080C000C080E000C0A00000C0A02000C0A04000C0A06000C0A08000C0A0A000C0A0C000C0A0E000C0C00000C0C02000C0C04000C0C06000
310
C0C08000C0C0A000F0FBFF00A4A0A000808080000000FF0000FF000000FFFF00FF000000FF00FF00FFFF0000FFFFFF00FFFFFFFFFFFFFFFFFFFFFFFFFFFFFFFFFFFFFFFFFFFFFFFFFFFFFFFFFFFFFFFFFFFFFFFFFFFFFFFFFFFFFFFFFFFFFFFFFFFFFFFFFFFFFFFFFFFFFFFFFFFFFFFFFFFFFFFFFFFFFFFFFFFFFFFFFFFFFF
310
FFFFFFFFFFFFFFFFFFFFFFFFFFFFFFFFFFFFFFFFFFFFFFFFFFFFFFFFFFFFFFFFFFFFFFFFFFFFFFFFFFFFFFFFFFFFFFFFFFFFFFFFFFFFFFFFFFFFFFFFFFFFFFFFFFFFFFFFFFFFFFFFFFFFFFFFFFFFFFFFFFFFFFFFFFFFFFFFFFFFFFFFFFFFFFFFFFFFFFFFFFFFFFFFFFFFFFFFFFFFFFFFFFFFFFFFFFFFFFFFFFFFFFFFFFFFFF
310
FFFFFFFFFFFFFFFFFFFFFFFFFFFFFFFFFFFFFFFFFFFFFFFFFFFFFFFFFFFFFFFFFFFFFFFFFFFFFFFFFFFFFFFFFFFFFFFFFFFFFFFFFFFFFFFFFFFFFFFFFFFFFFFFFFFFFFFFFFFFFFFFFFFFFFFFFFFFFFFFFFFFFFFFFFFFFFFFFFFFFFFFFFFFFFFFFFFFFFFFFFFFFFFFFFFFFFFFFFFFFFFFFFFFFFFFFFFFFFFFFFFFFFFFFFFFFF
310
FFFFFFFFFFFFFFFFFFFFFFFFFFFFFFFFFFFFFFFFFFFFFFFFFFFFFFFFFFFFFFFFFFFFFFFFFFFFFFFFFFFFFFFFFFFFFFFFFFFFFFFFFFFFFFFFFFFFFFFFFFFFFFFFFFFFFFFFFFFFFFFFFFFFFFFFFFFFFFFFFFFFFFFFFFFFFFFFFFFFFFFFFFFFFFFFFFFFFFFFFFFFFFFFFFFFFFFFFFFFFFFFFFFFFFFFFFFFFFFFFFFFFFFFFFFF00
310
000000000000000000FFFFFFFFFFFFFFFFFFFFFFFFFFFFFFFFFFFFFFFFFFFF00000000000000000000FFFFFFFFFFFFFFFFFFFFFFFFFFFFFFFFFFFFFFFFFFFF00000000000000000000FFFFFFFFFFFFFFFFFFFFFFFFFFFFFFFFFFFFFFFFFFFF00000000000000000000FFFFFFFFFFFFFFFFFFFFFFFFFFFFFFFFFFFFFFFFFFFF
310
FFFFFFFFFFFFFFFFFFFFFFFFFFFFFFFFFFFFFFFFFFFFFFFFFFFFFFFFFFFFFFFFFFFFFFFFFFFFFFFFFFFFFFFFFFFFFFFFFFFFFFFFFFFFFFFFFFFFFFFFFFFFFFFFFFFFFFFFFFFFFFFFFFFFFFFFFFFFFFFFFFFFFFFFFFFFFFFFFFFFFFFFFFFFFFFFFFFFFFFFFFFFFFFFFFFFFFFFFFFFFFFFFFFFFFFFFFFFFFFFFFFFFFFFFFFFFF
310
FFFFFFFFFFFFFFFFFFFFFFFFFFFFFFFFFFFFFFFFFFFFFFFFFFFFFFFFFFFFFFFFFFFFFFFFFFFFFFFFFFFFFFFFFFFFFFFFFFFFFFFFFFFFFFFFFFFFFFFFFFFFFFFFFFFFFFFFFFFFFFFFFFFFFFFFFFFFFFFFFFFFFFFFFFFFFFFFFFFFFFFFFFFFFFFFFFFFFFFFFFFFFFFFFFFFFFFFFFFFFFFFFFFFFFFFFFFFFFFFFFFFFFFFFFFFFF
310
FFFFFFFFFFFFFFFFFFFFFFFFFFFFFFFFFFFFFFFFFFFFFFFFFFFFFFFFFFFFFFFFFFFFFFFFFFFFFFFFFFFFFFFFFFFFFFFFFFFFFFFFFFFFFFFFFFFFFFFFFFFFFFFFFFFFFFFFFFFFFFFFFFFFFFFFFFFFFFFFFFFFFFFFFFFFFFFFFFFFFFFFFFFFFFFFFFFFFFFFFFFFFFFFFFFFFFFFFFFFFFFFFFFFFFFFFFFFFFFFFFFFFFFFFFFFFF
310
FFFFFFFFFFFFFFFFFFFFFFFFFFFFFFFFFFFFFFFFFFFFFFFFFFFFFFFFFFFFFFFFFFFFFFFFFFFFFFFFFFFFFFFFFFFFFFFFFFFFFFFFFFFFFFFF
102
{BLKREFS
331
66C
331
670
102
}
  0
ENDTAB
  0
ENDSEC
  0
SECTION
  2
BLOCKS
  0
BLOCK
  5
20
330
1F
100
AcDbEntity
  8
0
100
AcDbBlockBegin
  2
*Model_Space
 70
     0
 10
0.0
 20
0.0
 30
0.0
  3
*Model_Space
  1

  0
ENDBLK
  5
21
330
1F
100
AcDbEntity
  8
0
100
AcDbBlockEnd
  0
BLOCK
  5
1C
330
1B
100
AcDbEntity
 67
     1
  8
0
100
AcDbBlockBegin
  2
*Paper_Space
 70
     0
 10
0.0
 20
0.0
 30
0.0
  3
*Paper_Space
  1

  0
ENDBLK
  5
1D
330
1B
100
AcDbEntity
 67
     1
  8
0
100
AcDbBlockEnd
  0
BLOCK
  5
24
330
23
100
AcDbEntity
  8
0
100
AcDbBlockBegin
  2
*Paper_Space0
 70
     0
 10
0.0
 20
0.0
 30
0.0
  3
*Paper_Space0
  1

  0
ENDBLK
  5
25
330
23
100
AcDbEntity
  8
0
100
AcDbBlockEnd
  0
BLOCK
  5
30
330
2B
100
AcDbEntity
  8
0
100
AcDbBlockBegin
  2
WG BEARING
 70
     0
 10
0.0
 20
0.0
 30
0.0
  3
WG BEARING
  1

  0
LWPOLYLINE
  5
2C
330
2B
100
AcDbEntity
  8
BEARING_WAVE_GEN
100
AcDbPolyline
 90
       10
 70
     0
 43
0.0
 10
-0.0653845595305178
 20
1.240999999999998
 10
-0.1600000000000001
 20
1.240999999999998
 42
0.4142135623730951
 10
-0.1700000000000017
 20
1.230999999999998
 10
-0.1700000000000017
 20
1.170000000000004
 42
0.4142135623730951
 10
-0.1600000000000001
 20
1.160000000000003
 10
0.1600000000000001
 20
1.159999999999999
 42
0.4142135623731096
 10
0.1700000000000017
 20
1.170000000000001
 10
0.1699999999999981
 20
1.230999999999998
 42
0.4142135623730951
 10
0.1599999999999966
 20
1.240999999999998
 10
0.0653845595305178
 20
1.240999999999998
  0
LWPOLYLINE
  5
2D
330
2B
100
AcDbEntity
  8
BEARING_WAVE_GEN
100
AcDbPolyline
 90
       10
 70
     0
 43
0.0
 10
0.0603853510795496
 20
1.492499999999999
 10
0.2225000000000001
 20
1.492499999999999
 42
0.4142135623730951
 10
0.2325000000000017
 20
1.502499999999999
 10
0.2325000000000017
 20
1.539999999999999
 42
0.4142135623730951
 10
0.2025000000000006
 20
1.57
 10
-0.2025000000000006
 20
1.57
 42
0.4142135623730951
 10
-0.2325000000000017
 20
1.539999999999999
 10
-0.2325000000000017
 20
1.502499999999999
 42
0.4142135623730951
 10
-0.2225000000000001
 20
1.492499999999999
 10
-0.0603853510795496
 20
1.492499999999999
  0
CIRCLE
  5
2E
330
2B
100
AcDbEntity
  8
BEARING_WAVE_GEN
100
AcDbCircle
 10
0.0
 20
1.365499999999999
 30
0.0
 40
0.140625
  0
LWPOLYLINE
  5
2F
330
2B
100
AcDbEntity
  8
SEPARATOR_BEARING
100
AcDbPolyline
 90
        4
 70
     1
 43
0.0
 10
-0.2206249999999983
 20
1.268
 10
-0.140625
 20
1.268
 10
-0.140625
 20
1.458999999999999
 10
-0.2206249999999983
 20
1.458999999999999
  0
ENDBLK
  5
31
330
2B
100
AcDbEntity
  8
0
100
AcDbBlockEnd
  0
BLOCK
  5
34
330
32
100
AcDbEntity
  8
0
100
AcDbBlockBegin
  2
BEARING WG 32 1423140-20
 70
     0
 10
0.0
 20
0.0
 30
0.0
  3
BEARING WG 32 1423140-20
  1

  0
INSERT
  5
33
330
32
100
AcDbEntity
  8
SEPARATOR_BEARING
100
AcDbBlockReference
  2
WG BEARING
 10
0.0
 20
0.0
 30
0.0
  0
ENDBLK
  5
35
330
32
100
AcDbEntity
  8
0
100
AcDbBlockEnd
  0
BLOCK
  5
5EA
330
5E7
100
AcDbEntity
  8
0
100
AcDbBlockBegin
  2
NTC
 70
     0
 10
0.0
 20
0.0
 30
0.0
  3
NTC
  1

  0
LWPOLYLINE
  5
5E8
330
5E7
100
AcDbEntity
  8
0
100
AcDbPolyline
 90
        8
 70
     1
 43
0.0
 10
4.581008201925953
 20
-10.78862239032818
 10
319.3921777697513
 20
-10.78862239032818
 42
-0.4142135623730951
 10
324.9046777697513
 20
-16.30112239032816
 10
324.9046777697513
 20
-117.4075202476924
 42
-0.4142135623730951
 10
319.3921777697513
 20
-122.9200202476925
 10
4.581008201925836
 20
-122.9200202476925
 42
-0.4142135623730951
 10
-0.9314917980741483
 20
-117.4075202476924
 10
-0.9314917980740915
 20
-16.30112239032816
 42
-0.4142135623730951
  0
MTEXT
  5
5E9
330
5E7
100
AcDbEntity
  8
0
  6
Continuous
370
    30
100
AcDbMText
 10
21.65307678143926
 20
-17.4535155144544
 30
0.0
 40
8.75
 41
294.5432999999998
 71
     1
 72
     5
  3
{\fTxt|b1|i0|c0|p2;Notice:\P\Ftxt.shx;\H0.5714x;All specifications and dimensions shown in the drawing are subject to change without notice. This drawing is the property of Harmonic Drive LLC.   This data is believed to be accurate, however, Harmonic
  1
 Drive LLC assumes no liability for any errors or omissions in the specifications, models, or drawings.\P\PHarmonic Drive LLC\PTel: 800-921-3332\Pwww.harmonicdrive.net}
 73
     1
 44
1.0
  0
ENDBLK
  5
5EB
330
5E7
100
AcDbEntity
  8
0
100
AcDbBlockEnd
  0
BLOCK
  5
5EE
330
5EC
100
AcDbEntity
  8
0
100
AcDbBlockBegin
  2
Notice
 70
     0
 10
0.0
 20
0.0
 30
0.0
  3
Notice
  1

  0
INSERT
  5
5ED
330
5EC
100
AcDbEntity
  8
0
100
AcDbBlockReference
  2
NTC
 10
-1.765593945145185
 20
0.8372451854194725
 30
0.0
 41
0.0132641562133813
 42
0.0132641562133813
 43
0.0132641562133813
  0
ENDBLK
  5
5EF
330
5EC
100
AcDbEntity
  8
0
100
AcDbBlockEnd
  0
BLOCK
  5
5FB
330
5F8
100
AcDbEntity
  8
0
 62
     7
100
AcDbBlockBegin
  2
AI9-BLK14
 70
     0
 10
0.0
 20
0.0
 30
0.0
  3
AI9-BLK14
  1

  0
SPLINE
  5
5F9
330
5F8
100
AcDbEntity
  8
LAYER_1
 62
     7
100
AcDbSpline
210
0.0
220
0.0
230
1.0
 70
    11
 71
     3
 72
    23
 73
    19
 74
     0
 42
0.0000000001
 43
0.0000000001
 40
0.0
 40
0.0
 40
0.0
 40
0.0
 40
1.0
 40
1.0
 40
1.0
 40
2.0
 40
2.0
 40
2.0
 40
3.0
 40
3.0
 40
3.0
 40
4.0
 40
4.0
 40
4.0
 40
5.0
 40
5.0
 40
5.0
 40
6.0
 40
6.0
 40
6.0
 40
6.0
 10
-10.90321044921874
 20
10.88107571072048
 30
0.0
 10
-10.90321044921874
 20
10.88107571072048
 30
0.0
 10
-10.90321044921874
 20
-10.88107571072048
 30
0.0
 10
-10.90321044921874
 20
-10.88107571072048
 30
0.0
 10
-10.90321044921874
 20
-10.88107571072048
 30
0.0
 10
1.752692328559025
 20
-10.88107571072048
 30
0.0
 10
1.752692328559025
 20
-10.88107571072048
 30
0.0
 10
3.280592176649305
 20
-10.88107571072048
 30
0.0
 10
10.90321044921874
 20
-10.32383151584201
 30
0.0
 10
10.90321044921874
 20
0.6792867024739583
 30
0.0
 10
10.90321044921874
 20
10.61700914171006
 30
0.0
 10
2.773129611545138
 20
10.87952541775172
 30
0.0
 10
2.691136338975693
 20
10.88090345594618
 30
0.0
 10
2.691136338975693
 20
10.88090345594618
 30
0.0
 10
-9.903099229600693
 20
10.88107571072048
 30
0.0
 10
-9.903099229600693
 20
10.88107571072048
 30
0.0
 10
-9.903099229600693
 20
10.88107571072048
 30
0.0
 10
-10.90321044921874
 20
10.88107571072048
 30
0.0
 10
-10.90321044921874
 20
10.88107571072048
 30
0.0
  0
SPLINE
  5
5FA
330
5F8
100
AcDbEntity
  8
LAYER_1
 62
     7
100
AcDbSpline
210
0.0
220
0.0
230
1.0
 70
    11
 71
     3
 72
    20
 73
    16
 74
     0
 42
0.0000000001
 43
0.0000000001
 40
0.0
 40
0.0
 40
0.0
 40
0.0
 40
1.0
 40
1.0
 40
1.0
 40
2.0
 40
2.0
 40
2.0
 40
3.0
 40
3.0
 40
3.0
 40
4.0
 40
4.0
 40
4.0
 40
5.0
 40
5.0
 40
5.0
 40
5.0
 10
2.672877332899305
 20
8.881197781032986
 30
0.0
 10
2.905421278211805
 20
8.874307590060762
 30
0.0
 10
8.902988009982637
 20
8.616442192925347
 30
0.0
 10
8.902988009982637
 20
0.6792867024739583
 30
0.0
 10
8.902988009982637
 20
-8.191661919487842
 30
0.0
 10
3.430109320746526
 20
-8.881197781032986
 30
0.0
 10
1.752692328559025
 20
-8.881197781032986
 30
0.0
 10
1.752692328559025
 20
-8.881197781032986
 30
0.0
 10
-7.231427680121528
 20
-8.881197781032986
 30
0.0
 10
-8.902988009982637
 20
-8.881197781032986
 30
0.0
 10
-8.902988009982637
 20
-7.174497477213541
 30
0.0
 10
-8.902988009982637
 20
7.174497477213541
 30
0.0
 10
-8.902988009982637
 20
8.881197781032986
 30
0.0
 10
-7.208690049913191
 20
8.881197781032986
 30
0.0
 10
2.672877332899305
 20
8.881197781032986
 30
0.0
 10
2.672877332899305
 20
8.881197781032986
 30
0.0
  0
ENDBLK
  5
5FC
330
5F8
100
AcDbEntity
  8
0
100
AcDbBlockEnd
  0
BLOCK
  5
600
330
5FD
100
AcDbEntity
  8
0
 62
     7
100
AcDbBlockBegin
  2
AI9-BLK13
 70
     0
 10
0.0
 20
0.0
 30
0.0
  3
AI9-BLK13
  1

  0
LWPOLYLINE
  5
5FE
330
5FD
100
AcDbEntity
  8
LAYER_1
 62
     7
100
AcDbPolyline
 90
       12
 70
     1
 43
0.0
 10
-3.792361111111107
 20
10.7376736111111
 10
-2.469444444444443
 20
10.7376736111111
 10
-2.469444444444443
 20
1.874131944444444
 10
2.469444444444443
 20
1.874131944444444
 10
2.469444444444443
 20
10.7376736111111
 10
3.792361111111107
 20
10.7376736111111
 10
3.792361111111107
 20
-10.7376736111111
 10
2.469444444444443
 20
-10.7376736111111
 10
2.469444444444443
 20
-0.6835069444444444
 10
-2.469444444444443
 20
-0.6835069444444444
 10
-2.469444444444443
 20
-10.7376736111111
 10
-3.792361111111107
 20
-10.7376736111111
  0
HATCH
  5
5FF
330
5FD
100
AcDbEntity
  8
LAYER_1
 62
     7
100
AcDbHatch
 10
0.0
 20
0.0
 30
0.0
210
0.0
220
0.0
230
1.0
  2
SOLID
 70
     1
 71
     0
 91
        1
 92
        3
 72
     0
 73
     1
 93
       12
 10
-3.792361111111107
 20
10.7376736111111
 10
-2.469444444444443
 20
10.7376736111111
 10
-2.469444444444443
 20
1.874131944444444
 10
2.469444444444443
 20
1.874131944444444
 10
2.469444444444443
 20
10.7376736111111
 10
3.792361111111107
 20
10.7376736111111
 10
3.792361111111107
 20
-10.7376736111111
 10
2.469444444444443
 20
-10.7376736111111
 10
2.469444444444443
 20
-0.6835069444444444
 10
-2.469444444444443
 20
-0.6835069444444444
 10
-2.469444444444443
 20
-10.7376736111111
 10
-3.792361111111107
 20
-10.7376736111111
 97
        0
 75
     2
 76
     1
 98
        1
 10
0.0
 20
0.0
  0
ENDBLK
  5
601
330
5FD
100
AcDbEntity
  8
0
100
AcDbBlockEnd
  0
BLOCK
  5
605
330
602
100
AcDbEntity
  8
0
 62
     7
100
AcDbBlockBegin
  2
AI9-BLK11
 70
     0
 10
0.0
 20
0.0
 30
0.0
  3
AI9-BLK11
  1

  0
SPLINE
  5
603
330
602
100
AcDbEntity
  8
LAYER_1
 62
     7
100
AcDbSpline
210
0.0
220
0.0
230
1.0
 70
    11
 71
     3
 72
    26
 73
    22
 74
     0
 42
0.0000000001
 43
0.0000000001
 40
0.0
 40
0.0
 40
0.0
 40
0.0
 40
1.0
 40
1.0
 40
1.0
 40
2.0
 40
2.0
 40
2.0
 40
3.0
 40
3.0
 40
3.0
 40
4.0
 40
4.0
 40
4.0
 40
5.0
 40
5.0
 40
5.0
 40
6.0
 40
6.0
 40
6.0
 40
7.0
 40
7.0
 40
7.0
 40
7.0
 10
-2.645833333333333
 20
0.9039930555555551
 30
0.0
 10
-2.645833333333333
 20
0.9039930555555551
 30
0.0
 10
-2.645833333333333
 20
8.180034722222217
 30
0.0
 10
-2.645833333333333
 20
8.180034722222217
 30
0.0
 10
-2.645833333333333
 20
8.180034722222217
 30
0.0
 10
0.465087890625
 20
8.180034722222217
 30
0.0
 10
0.465087890625
 20
8.180034722222217
 30
0.0
 10
0.9026150173611108
 20
8.180034722222217
 30
0.0
 10
1.24988064236111
 20
8.034651692708331
 30
0.0
 10
1.506884765625
 20
7.745263671874997
 30
0.0
 10
2.001600477430554
 20
7.194048394097221
 30
0.0
 10
2.248958333333332
 20
6.160519748263887
 30
0.0
 10
2.248958333333332
 20
4.643299696180553
 30
0.0
 10
2.248958333333332
 20
3.232188585069443
 30
0.0
 10
2.072569444444444
 20
2.256537543402775
 30
0.0
 10
1.720480685763888
 20
1.715657552083333
 30
0.0
 10
1.368391927083333
 20
1.174088541666665
 30
0.0
 10
0.8929687499999998
 20
0.9039930555555551
 30
0.0
 10
0.2942111545138888
 20
0.9039930555555551
 30
0.0
 10
0.2942111545138888
 20
0.9039930555555551
 30
0.0
 10
-2.645833333333333
 20
0.9039930555555551
 30
0.0
 10
-2.645833333333333
 20
0.9039930555555551
 30
0.0
  0
SPLINE
  5
604
330
602
100
AcDbEntity
  8
LAYER_1
 62
     7
100
AcDbSpline
210
0.0
220
0.0
230
1.0
 70
    11
 71
     3
 72
    68
 73
    64
 74
     0
 42
0.0000000001
 43
0.0000000001
 40
0.0
 40
0.0
 40
0.0
 40
0.0
 40
1.0
 40
1.0
 40
1.0
 40
2.0
 40
2.0
 40
2.0
 40
3.0
 40
3.0
 40
3.0
 40
4.0
 40
4.0
 40
4.0
 40
5.0
 40
5.0
 40
5.0
 40
6.0
 40
6.0
 40
6.0
 40
7.0
 40
7.0
 40
7.0
 40
8.0
 40
8.0
 40
8.0
 40
9.0
 40
9.0
 40
9.0
 40
10.0
 40
10.0
 40
10.0
 40
11.0
 40
11.0
 40
11.0
 40
12.0
 40
12.0
 40
12.0
 40
13.0
 40
13.0
 40
13.0
 40
14.0
 40
14.0
 40
14.0
 40
15.0
 40
15.0
 40
15.0
 40
16.0
 40
16.0
 40
16.0
 40
17.0
 40
17.0
 40
17.0
 40
18.0
 40
18.0
 40
18.0
 40
19.0
 40
19.0
 40
19.0
 40
20.0
 40
20.0
 40
20.0
 40
21.0
 40
21.0
 40
21.0
 40
21.0
 10
-3.968749999999998
 20
-10.7376736111111
 30
0.0
 10
-3.968749999999998
 20
-10.7376736111111
 30
0.0
 10
-2.645833333333333
 20
-10.7376736111111
 30
0.0
 10
-2.645833333333333
 20
-10.7376736111111
 30
0.0
 10
-2.645833333333333
 20
-10.7376736111111
 30
0.0
 10
-2.645833333333333
 20
-1.521354166666665
 30
0.0
 10
-2.645833333333333
 20
-1.521354166666665
 30
0.0
 10
-2.645833333333333
 20
-1.521354166666665
 30
0.0
 10
0.2390896267361111
 20
-1.521354166666665
 30
0.0
 10
0.2390896267361111
 20
-1.521354166666665
 30
0.0
 10
0.7599880642361111
 20
-1.521354166666665
 30
0.0
 10
1.143771701388887
 20
-1.65295681423611
 30
0.0
 10
1.390440538194444
 20
-1.916162109374999
 30
0.0
 10
1.816254340277773
 20
-2.39434136284722
 30
0.0
 10
2.04363064236111
 20
-3.335541449652775
 30
0.0
 10
2.072569444444444
 20
-4.739762369791666
 30
0.0
 10
2.072569444444444
 20
-4.739762369791666
 30
0.0
 10
2.160763888888888
 20
-8.324039713541665
 30
0.0
 10
2.160763888888888
 20
-8.324039713541665
 30
0.0
 10
2.18005642361111
 20
-9.163264973958332
 30
0.0
 10
2.202794053819443
 20
-9.728949652777775
 30
0.0
 10
2.227598741319444
 20
-10.02109374999998
 30
0.0
 10
2.252403428819443
 20
-10.31392686631944
 30
0.0
 10
2.28892144097222
 20
-10.55301649305555
 30
0.0
 10
2.33853081597222
 20
-10.7376736111111
 30
0.0
 10
2.33853081597222
 20
-10.7376736111111
 30
0.0
 10
3.968749999999998
 20
-10.7376736111111
 30
0.0
 10
3.968749999999998
 20
-10.7376736111111
 30
0.0
 10
3.968749999999998
 20
-10.7376736111111
 30
0.0
 10
3.968749999999998
 20
-10.25260416666666
 30
0.0
 10
3.968749999999998
 20
-10.25260416666666
 30
0.0
 10
3.766867404513888
 20
-10.05830078125
 30
0.0
 10
3.625618489583333
 20
-9.621462673611112
 30
0.0
 10
3.545692274305555
 20
-8.942089843749997
 30
0.0
 10
3.49470486111111
 20
-8.543836805555555
 30
0.0
 10
3.459564887152775
 20
-7.937499999999999
 30
0.0
 10
3.439583333333333
 20
-7.121701388888887
 30
0.0
 10
3.439583333333333
 20
-7.121701388888887
 30
0.0
 10
3.395486111111106
 20
-4.232644314236106
 30
0.0
 10
3.395486111111106
 20
-4.232644314236106
 30
0.0
 10
3.375504557291666
 20
-2.981385633680555
 30
0.0
 10
3.26870659722222
 20
-2.077392578125
 30
0.0
 10
3.075781249999999
 20
-1.522043185763888
 30
0.0
 10
2.882166883680555
 20
-0.9666937934027776
 30
0.0
 10
2.592089843749999
 20
-0.5188313802083333
 30
0.0
 10
2.204861111111104
 20
-0.1770779079861111
 30
0.0
 10
2.63618706597222
 20
0.3197048611111111
 30
0.0
 10
2.971739366319443
 20
0.9770290798611107
 30
0.0
 10
3.211518012152775
 20
1.79558376736111
 30
0.0
 10
3.451296657986107
 20
2.613449435763888
 30
0.0
 10
3.571874999999999
 20
3.66558159722222
 30
0.0
 10
3.571874999999999
 20
4.951291232638888
 30
0.0
 10
3.571874999999999
 20
7.415912543402777
 30
0.0
 10
3.124701605902775
 20
9.106076388888887
 30
0.0
 10
2.231043836805555
 20
10.02178276909722
 30
0.0
 10
1.759754774305553
 20
10.498583984375
 30
0.0
 10
1.163753255208332
 20
10.7376736111111
 30
0.0
 10
0.443039279513889
 20
10.7376736111111
 30
0.0
 10
0.443039279513889
 20
10.7376736111111
 30
0.0
 10
-3.968749999999998
 20
10.7376736111111
 30
0.0
 10
-3.968749999999998
 20
10.7376736111111
 30
0.0
 10
-3.968749999999998
 20
10.7376736111111
 30
0.0
 10
-3.968749999999998
 20
-10.7376736111111
 30
0.0
 10
-3.968749999999998
 20
-10.7376736111111
 30
0.0
  0
ENDBLK
  5
606
330
602
100
AcDbEntity
  8
0
100
AcDbBlockEnd
  0
BLOCK
  5
609
330
607
100
AcDbEntity
  8
0
 62
     7
100
AcDbBlockBegin
  2
AI9-BLK10
 70
     0
 10
0.0
 20
0.0
 30
0.0
  3
AI9-BLK10
  1

  0
SPLINE
  5
608
330
607
100
AcDbEntity
  8
LAYER_1
 62
     7
100
AcDbSpline
210
0.0
220
0.0
230
1.0
 70
    11
 71
     3
 72
    59
 73
    55
 74
     0
 42
0.0000000001
 43
0.0000000001
 40
0.0
 40
0.0
 40
0.0
 40
0.0
 40
1.0
 40
1.0
 40
1.0
 40
2.0
 40
2.0
 40
2.0
 40
3.0
 40
3.0
 40
3.0
 40
4.0
 40
4.0
 40
4.0
 40
5.0
 40
5.0
 40
5.0
 40
6.0
 40
6.0
 40
6.0
 40
7.0
 40
7.0
 40
7.0
 40
8.0
 40
8.0
 40
8.0
 40
9.0
 40
9.0
 40
9.0
 40
10.0
 40
10.0
 40
10.0
 40
11.0
 40
11.0
 40
11.0
 40
12.0
 40
12.0
 40
12.0
 40
13.0
 40
13.0
 40
13.0
 40
14.0
 40
14.0
 40
14.0
 40
15.0
 40
15.0
 40
15.0
 40
16.0
 40
16.0
 40
16.0
 40
17.0
 40
17.0
 40
17.0
 40
18.0
 40
18.0
 40
18.0
 40
18.0
 10
-4.652256944444443
 20
10.7376736111111
 30
0.0
 10
-4.652256944444443
 20
10.7376736111111
 30
0.0
 10
-2.798795572916666
 20
10.7376736111111
 30
0.0
 10
-2.798795572916666
 20
10.7376736111111
 30
0.0
 10
-2.798795572916666
 20
10.7376736111111
 30
0.0
 10
0.0
 20
-7.419357638888887
 30
0.0
 10
0.0
 20
-7.419357638888887
 30
0.0
 10
0.0
 20
-7.419357638888887
 30
0.0
 10
2.793283420138888
 20
10.7376736111111
 30
0.0
 10
2.793283420138888
 20
10.7376736111111
 30
0.0
 10
2.793283420138888
 20
10.7376736111111
 30
0.0
 10
4.652256944444443
 20
10.7376736111111
 30
0.0
 10
4.652256944444443
 20
10.7376736111111
 30
0.0
 10
4.652256944444443
 20
10.7376736111111
 30
0.0
 10
4.652256944444443
 20
-10.7376736111111
 30
0.0
 10
4.652256944444443
 20
-10.7376736111111
 30
0.0
 10
4.652256944444443
 20
-10.7376736111111
 30
0.0
 10
3.41753472222222
 20
-10.7376736111111
 30
0.0
 10
3.41753472222222
 20
-10.7376736111111
 30
0.0
 10
3.41753472222222
 20
-10.7376736111111
 30
0.0
 10
3.41753472222222
 20
1.936832682291665
 30
0.0
 10
3.41753472222222
 20
1.936832682291665
 30
0.0
 10
3.41753472222222
 20
2.375048828124999
 30
0.0
 10
3.424424913194443
 20
3.101274956597221
 30
0.0
 10
3.439583333333333
 20
4.11482204861111
 30
0.0
 10
3.454052734374998
 20
5.128369140624998
 30
0.0
 10
3.461631944444443
 20
6.214952256944441
 30
0.0
 10
3.461631944444443
 20
7.375260416666666
 30
0.0
 10
3.461631944444443
 20
7.375260416666666
 30
0.0
 10
0.6538791232638889
 20
-10.7376736111111
 30
0.0
 10
0.6538791232638889
 20
-10.7376736111111
 30
0.0
 10
0.6538791232638889
 20
-10.7376736111111
 30
0.0
 10
-0.6628363715277778
 20
-10.7376736111111
 30
0.0
 10
-0.6628363715277778
 20
-10.7376736111111
 30
0.0
 10
-0.6628363715277778
 20
-10.7376736111111
 30
0.0
 10
-3.461631944444443
 20
7.375260416666666
 30
0.0
 10
-3.461631944444443
 20
7.375260416666666
 30
0.0
 10
-3.461631944444443
 20
7.375260416666666
 30
0.0
 10
-3.461631944444443
 20
6.717247178819441
 30
0.0
 10
-3.461631944444443
 20
6.717247178819441
 30
0.0
 10
-3.461631944444443
 20
6.190836588541666
 30
0.0
 10
-3.45474175347222
 20
5.389507378472222
 30
0.0
 10
-3.439583333333333
 20
4.312570529513888
 30
0.0
 10
-3.425113932291666
 20
3.235633680555555
 30
0.0
 10
-3.41753472222222
 20
2.44395073784722
 30
0.0
 10
-3.41753472222222
 20
1.936832682291665
 30
0.0
 10
-3.41753472222222
 20
1.936832682291665
 30
0.0
 10
-3.41753472222222
 20
-10.7376736111111
 30
0.0
 10
-3.41753472222222
 20
-10.7376736111111
 30
0.0
 10
-3.41753472222222
 20
-10.7376736111111
 30
0.0
 10
-4.652256944444443
 20
-10.7376736111111
 30
0.0
 10
-4.652256944444443
 20
-10.7376736111111
 30
0.0
 10
-4.652256944444443
 20
-10.7376736111111
 30
0.0
 10
-4.652256944444443
 20
10.7376736111111
 30
0.0
 10
-4.652256944444443
 20
10.7376736111111
 30
0.0
  0
ENDBLK
  5
60A
330
607
100
AcDbEntity
  8
0
100
AcDbBlockEnd
  0
BLOCK
  5
60E
330
60B
100
AcDbEntity
  8
0
 62
     7
100
AcDbBlockBegin
  2
AI9-BLK9
 70
     0
 10
0.0
 20
0.0
 30
0.0
  3
AI9-BLK9
  1

  0
SPLINE
  5
60C
330
60B
100
AcDbEntity
  8
LAYER_1
 62
     7
100
AcDbSpline
210
0.0
220
0.0
230
1.0
 70
    11
 71
     3
 72
    29
 73
    25
 74
     0
 42
0.0000000001
 43
0.0000000001
 40
0.0
 40
0.0
 40
0.0
 40
0.0
 40
1.0
 40
1.0
 40
1.0
 40
2.0
 40
2.0
 40
2.0
 40
3.0
 40
3.0
 40
3.0
 40
4.0
 40
4.0
 40
4.0
 40
5.0
 40
5.0
 40
5.0
 40
6.0
 40
6.0
 40
6.0
 40
7.0
 40
7.0
 40
7.0
 40
8.0
 40
8.0
 40
8.0
 40
8.0
 10
0.0668348524305556
 20
-8.753298611111111
 30
0.0
 10
-0.9067491319444444
 20
-8.753298611111111
 30
0.0
 10
-1.60954861111111
 20
-7.936810980902778
 30
0.0
 10
-2.041563585069444
 20
-6.30383572048611
 30
0.0
 10
-2.474267578124999
 20
-4.670860460069443
 30
0.0
 10
-2.689930555555555
 20
-2.664436848958333
 30
0.0
 10
-2.689930555555555
 20
-0.28525390625
 30
0.0
 10
-2.689930555555555
 20
2.68855251736111
 30
0.0
 10
-2.439127604166666
 20
4.938199869791666
 30
0.0
 10
-1.937521701388888
 20
6.464377170138886
 30
0.0
 10
-1.43591579861111
 20
7.989865451388887
 30
0.0
 10
-0.7827256944444444
 20
8.753298611111111
 30
0.0
 10
0.0220486111111111
 20
8.753298611111111
 30
0.0
 10
0.8468044704861108
 20
8.753298611111111
 30
0.0
 10
1.49792751736111
 20
7.982975260416663
 30
0.0
 10
1.974728732638888
 20
6.442328559027776
 30
0.0
 10
2.451529947916665
 20
4.901681857638886
 30
0.0
 10
2.689930555555555
 20
2.868386501736111
 30
0.0
 10
2.689930555555555
 20
0.3438205295138888
 30
0.0
 10
2.689930555555555
 20
-2.045697699652774
 30
0.0
 10
2.483224826388884
 20
-4.15891927083333
 30
0.0
 10
2.071191406249999
 20
-5.996533203124998
 30
0.0
 10
1.65915798611111
 20
-7.834836154513887
 30
0.0
 10
0.9908094618055557
 20
-8.753298611111111
 30
0.0
 10
0.0668348524305556
 20
-8.753298611111111
 30
0.0
  0
SPLINE
  5
60D
330
60B
100
AcDbEntity
  8
LAYER_1
 62
     7
100
AcDbSpline
210
0.0
220
0.0
230
1.0
 70
    11
 71
     3
 72
    29
 73
    25
 74
     0
 42
0.0000000001
 43
0.0000000001
 40
0.0
 40
0.0
 40
0.0
 40
0.0
 40
1.0
 40
1.0
 40
1.0
 40
2.0
 40
2.0
 40
2.0
 40
3.0
 40
3.0
 40
3.0
 40
4.0
 40
4.0
 40
4.0
 40
5.0
 40
5.0
 40
5.0
 40
6.0
 40
6.0
 40
6.0
 40
7.0
 40
7.0
 40
7.0
 40
8.0
 40
8.0
 40
8.0
 40
8.0
 10
-0.0289388020833333
 20
11.35503472222222
 30
0.0
 10
-1.317404513888887
 20
11.35503472222222
 30
0.0
 10
-2.28892144097222
 20
10.02798394097222
 30
0.0
 10
-2.94280056423611
 20
7.374571397569441
 30
0.0
 10
-3.450607638888888
 20
5.30613606770833
 30
0.0
 10
-3.704166666666666
 20
2.81877712673611
 30
0.0
 10
-3.704166666666666
 20
-0.0881944444444445
 30
0.0
 10
-3.704166666666666
 20
-3.307291666666666
 30
0.0
 10
-3.406510416666666
 20
-5.97035047743055
 30
0.0
 10
-2.811197916666666
 20
-8.077370876736106
 30
0.0
 10
-2.147672526041664
 20
-10.26293945312499
 30
0.0
 10
-1.229899088541666
 20
-11.35503472222222
 30
0.0
 10
-0.0585666232638889
 20
-11.35503472222222
 30
0.0
 10
1.20027126736111
 20
-11.35503472222222
 30
0.0
 10
2.166276041666665
 20
-10.10653211805555
 30
0.0
 10
2.840136718749998
 20
-7.609526909722221
 30
0.0
 10
3.416156684027776
 20
-5.483213975694441
 30
0.0
 10
3.704166666666666
 20
-2.814643012152775
 30
0.0
 10
3.704166666666666
 20
0.3948079427083333
 30
0.0
 10
3.704166666666666
 20
3.360346137152776
 30
0.0
 10
3.449918619791666
 20
5.793961588541666
 30
0.0
 10
2.94280056423611
 20
7.696343315972222
 30
0.0
 10
2.298567708333333
 20
10.13547092013888
 30
0.0
 10
1.307758246527777
 20
11.35503472222222
 30
0.0
 10
-0.0289388020833333
 20
11.35503472222222
 30
0.0
  0
ENDBLK
  5
60F
330
60B
100
AcDbEntity
  8
0
100
AcDbBlockEnd
  0
BLOCK
  5
613
330
610
100
AcDbEntity
  8
0
 62
     7
100
AcDbBlockBegin
  2
AI9-BLK8
 70
     0
 10
0.0
 20
0.0
 30
0.0
  3
AI9-BLK8
  1

  0
LWPOLYLINE
  5
611
330
610
100
AcDbEntity
  8
LAYER_1
 62
     7
100
AcDbPolyline
 90
       10
 70
     1
 43
0.0
 10
-3.792361111111107
 20
10.7376736111111
 10
-2.268939887152773
 20
10.7376736111111
 10
2.557638888888888
 20
-6.505718315972222
 10
2.557638888888888
 20
10.7376736111111
 10
3.792361111111107
 20
10.7376736111111
 10
3.792361111111107
 20
-10.7376736111111
 10
2.32612847222222
 20
-10.7376736111111
 10
-2.557638888888888
 20
6.549815538194441
 10
-2.557638888888888
 20
-10.7376736111111
 10
-3.792361111111107
 20
-10.7376736111111
  0
HATCH
  5
612
330
610
100
AcDbEntity
  8
LAYER_1
 62
     7
100
AcDbHatch
 10
0.0
 20
0.0
 30
0.0
210
0.0
220
0.0
230
1.0
  2
SOLID
 70
     1
 71
     0
 91
        1
 92
        3
 72
     0
 73
     1
 93
       10
 10
-3.792361111111107
 20
10.7376736111111
 10
-2.268939887152773
 20
10.7376736111111
 10
2.557638888888888
 20
-6.505718315972222
 10
2.557638888888888
 20
10.7376736111111
 10
3.792361111111107
 20
10.7376736111111
 10
3.792361111111107
 20
-10.7376736111111
 10
2.32612847222222
 20
-10.7376736111111
 10
-2.557638888888888
 20
6.549815538194441
 10
-2.557638888888888
 20
-10.7376736111111
 10
-3.792361111111107
 20
-10.7376736111111
 97
        0
 75
     2
 76
     1
 98
        1
 10
0.0
 20
0.0
  0
ENDBLK
  5
614
330
610
100
AcDbEntity
  8
0
100
AcDbBlockEnd
  0
BLOCK
  5
618
330
615
100
AcDbEntity
  8
0
 62
     7
100
AcDbBlockBegin
  2
AI9-BLK7
 70
     0
 10
0.0
 20
0.0
 30
0.0
  3
AI9-BLK7
  1

  0
LWPOLYLINE
  5
616
330
615
100
AcDbEntity
  8
LAYER_1
 62
     7
100
AcDbPolyline
 90
        4
 70
     1
 43
0.0
 10
-0.6614583333333333
 20
10.7376736111111
 10
0.6614583333333333
 20
10.7376736111111
 10
0.6614583333333333
 20
-10.7376736111111
 10
-0.6614583333333333
 20
-10.7376736111111
  0
HATCH
  5
617
330
615
100
AcDbEntity
  8
LAYER_1
 62
     7
100
AcDbHatch
 10
0.0
 20
0.0
 30
0.0
210
0.0
220
0.0
230
1.0
  2
SOLID
 70
     1
 71
     0
 91
        1
 92
        3
 72
     0
 73
     1
 93
        4
 10
-0.6614583333333333
 20
10.7376736111111
 10
0.6614583333333333
 20
10.7376736111111
 10
0.6614583333333333
 20
-10.7376736111111
 10
-0.6614583333333333
 20
-10.7376736111111
 97
        0
 75
     2
 76
     1
 98
        1
 10
0.0
 20
0.0
  0
ENDBLK
  5
619
330
615
100
AcDbEntity
  8
0
100
AcDbBlockEnd
  0
BLOCK
  5
61C
330
61A
100
AcDbEntity
  8
0
 62
     7
100
AcDbBlockBegin
  2
AI9-BLK6
 70
     0
 10
0.0
 20
0.0
 30
0.0
  3
AI9-BLK6
  1

  0
SPLINE
  5
61B
330
61A
100
AcDbEntity
  8
LAYER_1
 62
     7
100
AcDbSpline
210
0.0
220
0.0
230
1.0
 70
    11
 71
     3
 72
    59
 73
    55
 74
     0
 42
0.0000000001
 43
0.0000000001
 40
0.0
 40
0.0
 40
0.0
 40
0.0
 40
1.0
 40
1.0
 40
1.0
 40
2.0
 40
2.0
 40
2.0
 40
3.0
 40
3.0
 40
3.0
 40
4.0
 40
4.0
 40
4.0
 40
5.0
 40
5.0
 40
5.0
 40
6.0
 40
6.0
 40
6.0
 40
7.0
 40
7.0
 40
7.0
 40
8.0
 40
8.0
 40
8.0
 40
9.0
 40
9.0
 40
9.0
 40
10.0
 40
10.0
 40
10.0
 40
11.0
 40
11.0
 40
11.0
 40
12.0
 40
12.0
 40
12.0
 40
13.0
 40
13.0
 40
13.0
 40
14.0
 40
14.0
 40
14.0
 40
15.0
 40
15.0
 40
15.0
 40
16.0
 40
16.0
 40
16.0
 40
17.0
 40
17.0
 40
17.0
 40
18.0
 40
18.0
 40
18.0
 40
18.0
 10
3.062689887152775
 20
9.168088107638887
 30
0.0
 10
3.735172526041666
 20
7.739062499999997
 30
0.0
 10
4.110687934027776
 20
6.116422526041666
 30
0.0
 10
4.189236111111108
 20
4.299479166666666
 30
0.0
 10
4.189236111111108
 20
4.299479166666666
 30
0.0
 10
2.866319444444443
 20
4.299479166666666
 30
0.0
 10
2.866319444444443
 20
4.299479166666666
 30
0.0
 10
2.720936414930555
 20
5.667871093749997
 30
0.0
 10
2.435682508680555
 20
6.752387152777776
 30
0.0
 10
2.009868706597218
 20
7.553027343749997
 30
0.0
 10
1.584054904513888
 20
8.352978515624997
 30
0.0
 10
0.9839192708333332
 20
8.753298611111111
 30
0.0
 10
0.2101508246527778
 20
8.753298611111111
 30
0.0
 10
-0.7386284722222222
 20
8.753298611111111
 30
0.0
 10
-1.503439670138888
 20
8.010536024305555
 30
0.0
 10
-2.083593749999999
 20
6.526388888888886
 30
0.0
 10
-2.664436848958333
 20
5.042241753472221
 30
0.0
 10
-2.954513888888888
 20
2.767100694444443
 30
0.0
 10
-2.954513888888888
 20
-0.2990342881944444
 30
0.0
 10
-2.954513888888888
 20
-2.811197916666666
 30
0.0
 10
-2.693375651041666
 20
-4.847938368055555
 30
0.0
 10
-2.17041015625
 20
-6.409944661458332
 30
0.0
 10
-1.648133680555553
 20
-7.972639973958332
 30
0.0
 10
-0.8640299479166666
 20
-8.753298611111111
 30
0.0
 10
0.1812120225694444
 20
-8.753298611111111
 30
0.0
 10
1.138948567708333
 20
-8.753298611111111
 30
0.0
 10
1.865174696180553
 20
-7.927853732638887
 30
0.0
 10
2.359201388888884
 20
-6.275585937499998
 30
0.0
 10
2.62998589409722
 20
-5.406043836805555
 30
0.0
 10
2.828423394097221
 20
-4.262272135416666
 30
0.0
 10
2.954513888888888
 20
-2.844270833333331
 30
0.0
 10
2.954513888888888
 20
-2.844270833333331
 30
0.0
 10
4.277430555555555
 20
-2.844270833333331
 30
0.0
 10
4.277430555555555
 20
-2.844270833333331
 30
0.0
 10
4.169943576388888
 20
-5.109765624999996
 30
0.0
 10
3.795117187499998
 20
-7.009391276041665
 30
0.0
 10
3.151573350694443
 20
-8.542458767361106
 30
0.0
 10
2.381249999999999
 20
-10.38834092881943
 30
0.0
 10
1.347721354166665
 20
-11.3109375
 30
0.0
 10
0.0509874131944445
 20
-11.3109375
 30
0.0
 10
-1.07004665798611
 20
-11.3109375
 30
0.0
 10
-2.010557725694444
 20
-10.55577256944443
 30
0.0
 10
-2.771234809027776
 20
-9.04475368923611
 30
0.0
 10
-3.775824652777775
 20
-7.046598307291666
 30
0.0
 10
-4.277430555555555
 20
-3.961170789930555
 30
0.0
 10
-4.277430555555555
 20
0.2115288628472222
 30
0.0
 10
-4.277430555555555
 20
3.379638671874998
 30
0.0
 10
-3.902604166666666
 20
5.977929687499997
 30
0.0
 10
-3.151573350694443
 20
8.005712890624996
 30
0.0
 10
-2.333018663194443
 20
10.20919596354165
 30
0.0
 10
-1.20647243923611
 20
11.3109375
 30
0.0
 10
0.2266872829861111
 20
11.3109375
 30
0.0
 10
1.444873046875
 20
11.3109375
 30
0.0
 10
2.390207248263884
 20
10.59642469618055
 30
0.0
 10
3.062689887152775
 20
9.168088107638887
 30
0.0
  0
ENDBLK
  5
61D
330
61A
100
AcDbEntity
  8
0
100
AcDbBlockEnd
  0
BLOCK
  5
621
330
61E
100
AcDbEntity
  8
0
 62
     7
100
AcDbBlockBegin
  2
AI9-BLK5
 70
     0
 10
0.0
 20
0.0
 30
0.0
  3
AI9-BLK5
  1

  0
SPLINE
  5
61F
330
61E
100
AcDbEntity
  8
LAYER_1
 62
     7
100
AcDbSpline
210
0.0
220
0.0
230
1.0
 70
    11
 71
     3
 72
    32
 73
    28
 74
     0
 42
0.0000000001
 43
0.0000000001
 40
0.0
 40
0.0
 40
0.0
 40
0.0
 40
1.0
 40
1.0
 40
1.0
 40
2.0
 40
2.0
 40
2.0
 40
3.0
 40
3.0
 40
3.0
 40
4.0
 40
4.0
 40
4.0
 40
5.0
 40
5.0
 40
5.0
 40
6.0
 40
6.0
 40
6.0
 40
7.0
 40
7.0
 40
7.0
 40
8.0
 40
8.0
 40
8.0
 40
9.0
 40
9.0
 40
9.0
 40
9.0
 10
-2.62378472222222
 20
-8.268229166666666
 30
0.0
 10
-2.62378472222222
 20
-8.268229166666666
 30
0.0
 10
-2.62378472222222
 20
8.180034722222217
 30
0.0
 10
-2.62378472222222
 20
8.180034722222217
 30
0.0
 10
-2.62378472222222
 20
8.180034722222217
 30
0.0
 10
-0.3376193576388888
 20
8.180034722222217
 30
0.0
 10
-0.3376193576388888
 20
8.180034722222217
 30
0.0
 10
0.6972873263888888
 20
8.180034722222217
 30
0.0
 10
1.449007161458333
 20
7.445540364583332
 30
0.0
 10
1.918918185763885
 20
5.977929687499997
 30
0.0
 10
2.388829210069443
 20
4.510319010416666
 30
0.0
 10
2.62378472222222
 20
2.449462890624999
 30
0.0
 10
2.62378472222222
 20
-0.204638671875
 30
0.0
 10
2.62378472222222
 20
-0.8950358072916666
 30
0.0
 10
2.590022786458332
 20
-1.643310546874999
 30
0.0
 10
2.523187934027772
 20
-2.45015190972222
 30
0.0
 10
2.408121744791666
 20
-3.80200737847222
 30
0.0
 10
2.226220703124999
 20
-4.909950086805555
 30
0.0
 10
1.976795789930553
 20
-5.774669053819441
 30
0.0
 10
1.659847005208333
 20
-6.853672960069442
 30
0.0
 10
1.252636718749998
 20
-7.583344184027778
 30
0.0
 10
0.7544759114583333
 20
-7.962304687499997
 30
0.0
 10
0.4664659288194444
 20
-8.166254340277777
 30
0.0
 10
0.1074869791666666
 20
-8.268229166666666
 30
0.0
 10
-0.3231499565972222
 20
-8.268229166666666
 30
0.0
 10
-0.3231499565972222
 20
-8.268229166666666
 30
0.0
 10
-2.62378472222222
 20
-8.268229166666666
 30
0.0
 10
-2.62378472222222
 20
-8.268229166666666
 30
0.0
  0
SPLINE
  5
620
330
61E
100
AcDbEntity
  8
LAYER_1
 62
     7
100
AcDbSpline
210
0.0
220
0.0
230
1.0
 70
    11
 71
     3
 72
    26
 73
    22
 74
     0
 42
0.0000000001
 43
0.0000000001
 40
0.0
 40
0.0
 40
0.0
 40
0.0
 40
1.0
 40
1.0
 40
1.0
 40
2.0
 40
2.0
 40
2.0
 40
3.0
 40
3.0
 40
3.0
 40
4.0
 40
4.0
 40
4.0
 40
5.0
 40
5.0
 40
5.0
 40
6.0
 40
6.0
 40
6.0
 40
7.0
 40
7.0
 40
7.0
 40
7.0
 10
-3.946701388888888
 20
-10.7376736111111
 30
0.0
 10
-3.946701388888888
 20
-10.7376736111111
 30
0.0
 10
-0.0943956163194444
 20
-10.7376736111111
 30
0.0
 10
-0.0943956163194444
 20
-10.7376736111111
 30
0.0
 10
1.546847873263885
 20
-10.7376736111111
 30
0.0
 10
2.705777994791666
 20
-9.11021050347222
 30
0.0
 10
3.381705729166666
 20
-5.854595269097222
 30
0.0
 10
3.757910156249999
 20
-4.01284722222222
 30
0.0
 10
3.946701388888888
 20
-1.951991102430555
 30
0.0
 10
3.946701388888888
 20
0.328662109375
 30
0.0
 10
3.946701388888888
 20
3.281797960069443
 30
0.0
 10
3.622862413194443
 20
5.703700086805552
 30
0.0
 10
2.976562499999998
 20
7.594368489583332
 30
0.0
 10
2.25171440972222
 20
9.689675564236106
 30
0.0
 10
1.233344184027777
 20
10.7376736111111
 30
0.0
 10
-0.0799262152777778
 20
10.7376736111111
 30
0.0
 10
-0.0799262152777778
 20
10.7376736111111
 30
0.0
 10
-3.946701388888888
 20
10.7376736111111
 30
0.0
 10
-3.946701388888888
 20
10.7376736111111
 30
0.0
 10
-3.946701388888888
 20
10.7376736111111
 30
0.0
 10
-3.946701388888888
 20
-10.7376736111111
 30
0.0
 10
-3.946701388888888
 20
-10.7376736111111
 30
0.0
  0
ENDBLK
  5
622
330
61E
100
AcDbEntity
  8
0
100
AcDbBlockEnd
  0
BLOCK
  5
626
330
623
100
AcDbEntity
  8
0
 62
     7
100
AcDbBlockBegin
  2
AI9-BLK4
 70
     0
 10
0.0
 20
0.0
 30
0.0
  3
AI9-BLK4
  1

  0
SPLINE
  5
624
330
623
100
AcDbEntity
  8
LAYER_1
 62
     7
100
AcDbSpline
210
0.0
220
0.0
230
1.0
 70
    11
 71
     3
 72
    26
 73
    22
 74
     0
 42
0.0000000001
 43
0.0000000001
 40
0.0
 40
0.0
 40
0.0
 40
0.0
 40
1.0
 40
1.0
 40
1.0
 40
2.0
 40
2.0
 40
2.0
 40
3.0
 40
3.0
 40
3.0
 40
4.0
 40
4.0
 40
4.0
 40
5.0
 40
5.0
 40
5.0
 40
6.0
 40
6.0
 40
6.0
 40
7.0
 40
7.0
 40
7.0
 40
7.0
 10
-2.645833333333333
 20
0.9039930555555551
 30
0.0
 10
-2.645833333333333
 20
0.9039930555555551
 30
0.0
 10
-2.645833333333333
 20
8.180034722222217
 30
0.0
 10
-2.645833333333333
 20
8.180034722222217
 30
0.0
 10
-2.645833333333333
 20
8.180034722222217
 30
0.0
 10
0.465087890625
 20
8.180034722222217
 30
0.0
 10
0.465087890625
 20
8.180034722222217
 30
0.0
 10
0.9026150173611108
 20
8.180034722222217
 30
0.0
 10
1.24988064236111
 20
8.034651692708331
 30
0.0
 10
1.506884765625
 20
7.745263671874997
 30
0.0
 10
2.001600477430554
 20
7.194048394097221
 30
0.0
 10
2.248958333333332
 20
6.160519748263887
 30
0.0
 10
2.248958333333332
 20
4.643299696180553
 30
0.0
 10
2.248958333333332
 20
3.232188585069443
 30
0.0
 10
2.072569444444444
 20
2.256537543402775
 30
0.0
 10
1.720480685763888
 20
1.715657552083333
 30
0.0
 10
1.368391927083333
 20
1.174088541666665
 30
0.0
 10
0.8929687499999998
 20
0.9039930555555551
 30
0.0
 10
0.2942111545138888
 20
0.9039930555555551
 30
0.0
 10
0.2942111545138888
 20
0.9039930555555551
 30
0.0
 10
-2.645833333333333
 20
0.9039930555555551
 30
0.0
 10
-2.645833333333333
 20
0.9039930555555551
 30
0.0
  0
SPLINE
  5
625
330
623
100
AcDbEntity
  8
LAYER_1
 62
     7
100
AcDbSpline
210
0.0
220
0.0
230
1.0
 70
    11
 71
     3
 72
    68
 73
    64
 74
     0
 42
0.0000000001
 43
0.0000000001
 40
0.0
 40
0.0
 40
0.0
 40
0.0
 40
1.0
 40
1.0
 40
1.0
 40
2.0
 40
2.0
 40
2.0
 40
3.0
 40
3.0
 40
3.0
 40
4.0
 40
4.0
 40
4.0
 40
5.0
 40
5.0
 40
5.0
 40
6.0
 40
6.0
 40
6.0
 40
7.0
 40
7.0
 40
7.0
 40
8.0
 40
8.0
 40
8.0
 40
9.0
 40
9.0
 40
9.0
 40
10.0
 40
10.0
 40
10.0
 40
11.0
 40
11.0
 40
11.0
 40
12.0
 40
12.0
 40
12.0
 40
13.0
 40
13.0
 40
13.0
 40
14.0
 40
14.0
 40
14.0
 40
15.0
 40
15.0
 40
15.0
 40
16.0
 40
16.0
 40
16.0
 40
17.0
 40
17.0
 40
17.0
 40
18.0
 40
18.0
 40
18.0
 40
19.0
 40
19.0
 40
19.0
 40
20.0
 40
20.0
 40
20.0
 40
21.0
 40
21.0
 40
21.0
 40
21.0
 10
-3.968749999999998
 20
-10.7376736111111
 30
0.0
 10
-3.968749999999998
 20
-10.7376736111111
 30
0.0
 10
-2.645833333333333
 20
-10.7376736111111
 30
0.0
 10
-2.645833333333333
 20
-10.7376736111111
 30
0.0
 10
-2.645833333333333
 20
-10.7376736111111
 30
0.0
 10
-2.645833333333333
 20
-1.521354166666665
 30
0.0
 10
-2.645833333333333
 20
-1.521354166666665
 30
0.0
 10
-2.645833333333333
 20
-1.521354166666665
 30
0.0
 10
0.2390896267361111
 20
-1.521354166666665
 30
0.0
 10
0.2390896267361111
 20
-1.521354166666665
 30
0.0
 10
0.7599880642361111
 20
-1.521354166666665
 30
0.0
 10
1.143771701388887
 20
-1.65295681423611
 30
0.0
 10
1.390440538194444
 20
-1.916162109374999
 30
0.0
 10
1.816254340277773
 20
-2.39434136284722
 30
0.0
 10
2.04363064236111
 20
-3.335541449652775
 30
0.0
 10
2.072569444444444
 20
-4.739762369791666
 30
0.0
 10
2.072569444444444
 20
-4.739762369791666
 30
0.0
 10
2.160763888888888
 20
-8.324039713541665
 30
0.0
 10
2.160763888888888
 20
-8.324039713541665
 30
0.0
 10
2.18005642361111
 20
-9.163264973958332
 30
0.0
 10
2.202794053819443
 20
-9.728949652777775
 30
0.0
 10
2.227598741319444
 20
-10.02109374999998
 30
0.0
 10
2.252403428819443
 20
-10.31392686631944
 30
0.0
 10
2.28892144097222
 20
-10.55301649305555
 30
0.0
 10
2.33853081597222
 20
-10.7376736111111
 30
0.0
 10
2.33853081597222
 20
-10.7376736111111
 30
0.0
 10
3.968749999999998
 20
-10.7376736111111
 30
0.0
 10
3.968749999999998
 20
-10.7376736111111
 30
0.0
 10
3.968749999999998
 20
-10.7376736111111
 30
0.0
 10
3.968749999999998
 20
-10.25260416666666
 30
0.0
 10
3.968749999999998
 20
-10.25260416666666
 30
0.0
 10
3.766867404513888
 20
-10.05830078125
 30
0.0
 10
3.625618489583333
 20
-9.621462673611112
 30
0.0
 10
3.545692274305555
 20
-8.942089843749997
 30
0.0
 10
3.49470486111111
 20
-8.543836805555555
 30
0.0
 10
3.459564887152775
 20
-7.937499999999999
 30
0.0
 10
3.439583333333333
 20
-7.121701388888887
 30
0.0
 10
3.439583333333333
 20
-7.121701388888887
 30
0.0
 10
3.395486111111106
 20
-4.232644314236106
 30
0.0
 10
3.395486111111106
 20
-4.232644314236106
 30
0.0
 10
3.375504557291666
 20
-2.981385633680555
 30
0.0
 10
3.26870659722222
 20
-2.077392578125
 30
0.0
 10
3.075781249999999
 20
-1.522043185763888
 30
0.0
 10
2.882166883680555
 20
-0.9666937934027776
 30
0.0
 10
2.592089843749999
 20
-0.5188313802083333
 30
0.0
 10
2.204861111111104
 20
-0.1770779079861111
 30
0.0
 10
2.63618706597222
 20
0.3197048611111111
 30
0.0
 10
2.971739366319443
 20
0.9770290798611107
 30
0.0
 10
3.211518012152775
 20
1.79558376736111
 30
0.0
 10
3.451296657986107
 20
2.613449435763888
 30
0.0
 10
3.571874999999999
 20
3.66558159722222
 30
0.0
 10
3.571874999999999
 20
4.951291232638888
 30
0.0
 10
3.571874999999999
 20
7.415912543402777
 30
0.0
 10
3.124701605902775
 20
9.106076388888887
 30
0.0
 10
2.231043836805555
 20
10.02178276909722
 30
0.0
 10
1.759754774305553
 20
10.498583984375
 30
0.0
 10
1.163753255208332
 20
10.7376736111111
 30
0.0
 10
0.443039279513889
 20
10.7376736111111
 30
0.0
 10
0.443039279513889
 20
10.7376736111111
 30
0.0
 10
-3.968749999999998
 20
10.7376736111111
 30
0.0
 10
-3.968749999999998
 20
10.7376736111111
 30
0.0
 10
-3.968749999999998
 20
10.7376736111111
 30
0.0
 10
-3.968749999999998
 20
-10.7376736111111
 30
0.0
 10
-3.968749999999998
 20
-10.7376736111111
 30
0.0
  0
ENDBLK
  5
627
330
623
100
AcDbEntity
  8
0
100
AcDbBlockEnd
  0
BLOCK
  5
62B
330
628
100
AcDbEntity
  8
0
 62
     7
100
AcDbBlockBegin
  2
AI9-BLK3
 70
     0
 10
0.0
 20
0.0
 30
0.0
  3
AI9-BLK3
  1

  0
LWPOLYLINE
  5
629
330
628
100
AcDbEntity
  8
LAYER_1
 62
     7
100
AcDbPolyline
 90
        4
 70
     1
 43
0.0
 10
-0.6613722059461809
 20
10.7376736111111
 10
0.6613722059461809
 20
10.7376736111111
 10
0.6613722059461809
 20
-10.7376736111111
 10
-0.6613722059461809
 20
-10.7376736111111
  0
HATCH
  5
62A
330
628
100
AcDbEntity
  8
LAYER_1
 62
     7
100
AcDbHatch
 10
0.0
 20
0.0
 30
0.0
210
0.0
220
0.0
230
1.0
  2
SOLID
 70
     1
 71
     0
 91
        1
 92
        3
 72
     0
 73
     1
 93
        4
 10
-0.6613722059461809
 20
10.7376736111111
 10
0.6613722059461809
 20
10.7376736111111
 10
0.6613722059461809
 20
-10.7376736111111
 10
-0.6613722059461809
 20
-10.7376736111111
 97
        0
 75
     2
 76
     1
 98
        1
 10
0.0
 20
0.0
  0
ENDBLK
  5
62C
330
628
100
AcDbEntity
  8
0
100
AcDbBlockEnd
  0
BLOCK
  5
630
330
62D
100
AcDbEntity
  8
0
 62
     7
100
AcDbBlockBegin
  2
AI9-BLK2
 70
     0
 10
0.0
 20
0.0
 30
0.0
  3
AI9-BLK2
  1

  0
LWPOLYLINE
  5
62E
330
62D
100
AcDbEntity
  8
LAYER_1
 62
     7
100
AcDbPolyline
 90
        7
 70
     1
 43
0.0
 10
-2.785704210069443
 20
10.7376736111111
 10
0.0
 20
-7.550960286458332
 10
2.771234809027776
 20
10.7376736111111
 10
4.233333333333331
 20
10.7376736111111
 10
0.6910861545138888
 20
-10.7376736111111
 10
-0.7055555555555558
 20
-10.7376736111111
 10
-4.233333333333331
 20
10.7376736111111
  0
HATCH
  5
62F
330
62D
100
AcDbEntity
  8
LAYER_1
 62
     7
100
AcDbHatch
 10
0.0
 20
0.0
 30
0.0
210
0.0
220
0.0
230
1.0
  2
SOLID
 70
     1
 71
     0
 91
        1
 92
        3
 72
     0
 73
     1
 93
        7
 10
-2.785704210069443
 20
10.7376736111111
 10
0.0
 20
-7.550960286458332
 10
2.771234809027776
 20
10.7376736111111
 10
4.233333333333331
 20
10.7376736111111
 10
0.6910861545138888
 20
-10.7376736111111
 10
-0.7055555555555558
 20
-10.7376736111111
 10
-4.233333333333331
 20
10.7376736111111
 97
        0
 75
     2
 76
     1
 98
        1
 10
0.0
 20
0.0
  0
ENDBLK
  5
631
330
62D
100
AcDbEntity
  8
0
100
AcDbBlockEnd
  0
BLOCK
  5
635
330
632
100
AcDbEntity
  8
0
 62
     7
100
AcDbBlockBegin
  2
AI9-BLK1
 70
     0
 10
0.0
 20
0.0
 30
0.0
  3
AI9-BLK1
  1

  0
LWPOLYLINE
  5
633
330
632
100
AcDbEntity
  8
LAYER_1
 62
     7
100
AcDbPolyline
 90
       12
 70
     1
 43
0.0
 10
-3.571874999999999
 20
10.7376736111111
 10
3.483680555555555
 20
10.7376736111111
 10
3.483680555555555
 20
8.091840277777777
 10
-2.248958333333332
 20
8.091840277777777
 10
-2.248958333333332
 20
1.565451388888888
 10
3.042708333333333
 20
1.565451388888888
 10
3.042708333333333
 20
-0.9039930555555551
 10
-2.248958333333332
 20
-0.9039930555555551
 10
-2.248958333333332
 20
-8.180034722222217
 10
3.571874999999999
 20
-8.180034722222217
 10
3.571874999999999
 20
-10.7376736111111
 10
-3.571874999999999
 20
-10.7376736111111
  0
HATCH
  5
634
330
632
100
AcDbEntity
  8
LAYER_1
 62
     7
100
AcDbHatch
 10
0.0
 20
0.0
 30
0.0
210
0.0
220
0.0
230
1.0
  2
SOLID
 70
     1
 71
     0
 91
        1
 92
        3
 72
     0
 73
     1
 93
       12
 10
-3.571874999999999
 20
10.7376736111111
 10
3.483680555555555
 20
10.7376736111111
 10
3.483680555555555
 20
8.091840277777777
 10
-2.248958333333332
 20
8.091840277777777
 10
-2.248958333333332
 20
1.565451388888888
 10
3.042708333333333
 20
1.565451388888888
 10
3.042708333333333
 20
-0.9039930555555551
 10
-2.248958333333332
 20
-0.9039930555555551
 10
-2.248958333333332
 20
-8.180034722222217
 10
3.571874999999999
 20
-8.180034722222217
 10
3.571874999999999
 20
-10.7376736111111
 10
-3.571874999999999
 20
-10.7376736111111
 97
        0
 75
     2
 76
     1
 98
        1
 10
0.0
 20
0.0
  0
ENDBLK
  5
636
330
632
100
AcDbEntity
  8
0
100
AcDbBlockEnd
  0
BLOCK
  5
65A
330
637
100
AcDbEntity
  8
0
100
AcDbBlockBegin
  2
HD_LLC_logo_OT5
 70
     0
 10
0.0
 20
0.0
 30
0.0
  3
HD_LLC_logo_OT5
  1

  0
SPLINE
  5
638
102
{ACAD_REACTORS
330
658
102
}
330
637
100
AcDbEntity
  8
LAYER_1
 62
     7
100
AcDbSpline
210
0.0
220
0.0
230
1.0
 70
    11
 71
     3
 72
   113
 73
   109
 74
     0
 42
0.0000000001
 43
0.0000000001
 40
0.0
 40
0.0
 40
0.0
 40
0.0
 40
1.0
 40
1.0
 40
1.0
 40
2.0
 40
2.0
 40
2.0
 40
3.0
 40
3.0
 40
3.0
 40
4.0
 40
4.0
 40
4.0
 40
5.0
 40
5.0
 40
5.0
 40
6.0
 40
6.0
 40
6.0
 40
7.0
 40
7.0
 40
7.0
 40
8.0
 40
8.0
 40
8.0
 40
9.0
 40
9.0
 40
9.0
 40
10.0
 40
10.0
 40
10.0
 40
11.0
 40
11.0
 40
11.0
 40
12.0
 40
12.0
 40
12.0
 40
13.0
 40
13.0
 40
13.0
 40
14.0
 40
14.0
 40
14.0
 40
15.0
 40
15.0
 40
15.0
 40
16.0
 40
16.0
 40
16.0
 40
17.0
 40
17.0
 40
17.0
 40
18.0
 40
18.0
 40
18.0
 40
19.0
 40
19.0
 40
19.0
 40
20.0
 40
20.0
 40
20.0
 40
21.0
 40
21.0
 40
21.0
 40
22.0
 40
22.0
 40
22.0
 40
23.0
 40
23.0
 40
23.0
 40
24.0
 40
24.0
 40
24.0
 40
25.0
 40
25.0
 40
25.0
 40
26.0
 40
26.0
 40
26.0
 40
27.0
 40
27.0
 40
27.0
 40
28.0
 40
28.0
 40
28.0
 40
29.0
 40
29.0
 40
29.0
 40
30.0
 40
30.0
 40
30.0
 40
31.0
 40
31.0
 40
31.0
 40
32.0
 40
32.0
 40
32.0
 40
33.0
 40
33.0
 40
33.0
 40
34.0
 40
34.0
 40
34.0
 40
35.0
 40
35.0
 40
35.0
 40
36.0
 40
36.0
 40
36.0
 40
36.0
 10
193.3039632161458
 20
186.1548733181423
 30
0.0
 10
193.3039632161458
 20
186.1860514322916
 30
0.0
 10
193.3039632161458
 20
219.6932223849826
 30
0.0
 10
193.3039632161458
 20
219.6932223849826
 30
0.0
 10
193.3039632161458
 20
219.6932223849826
 30
0.0
 10
193.2974175347219
 20
219.7488606770833
 30
0.0
 10
193.2974175347219
 20
219.7488606770833
 30
0.0
 10
191.5293945312499
 20
235.455740017361
 30
0.0
 10
175.1458984374999
 20
235.2467949761284
 30
0.0
 10
174.9808783637151
 20
235.2428331163193
 30
0.0
 10
174.9808783637151
 20
235.2428331163193
 30
0.0
 10
125.8827555338541
 20
235.2430053710937
 30
0.0
 10
125.8827555338541
 20
235.2430053710937
 30
0.0
 10
125.8827555338541
 20
235.2430053710937
 30
0.0
 10
125.8827555338541
 20
255.5278998480901
 30
0.0
 10
125.8827555338541
 20
255.5278998480901
 30
0.0
 10
125.8827555338541
 20
255.5278998480901
 30
0.0
 10
84.5626247829861
 20
255.5278998480901
 30
0.0
 10
84.5626247829861
 20
255.5278998480901
 30
0.0
 10
84.5626247829861
 20
255.5278998480901
 30
0.0
 10
84.55711263020829
 20
233.7919311523436
 30
0.0
 10
84.55711263020829
 20
233.7919311523436
 30
0.0
 10
84.55711263020829
 20
233.7919311523436
 30
0.0
 10
64.42052951388888
 20
233.7919311523436
 30
0.0
 10
64.42052951388888
 20
233.7919311523436
 30
0.0
 10
64.42052951388888
 20
233.7919311523436
 30
0.0
 10
64.41501736111111
 20
255.5278998480901
 30
0.0
 10
64.41501736111111
 20
255.5278998480901
 30
0.0
 10
64.41501736111111
 20
255.5278998480901
 30
0.0
 10
23.91757541232637
 20
255.5278998480901
 30
0.0
 10
23.91757541232637
 20
255.5278998480901
 30
0.0
 10
23.91757541232637
 20
255.5278998480901
 30
0.0
 10
23.91757541232637
 20
233.2393378363715
 30
0.0
 10
23.91757541232637
 20
233.2393378363715
 30
0.0
 10
23.91757541232637
 20
233.2393378363715
 30
0.0
 10
43.65624999999999
 20
233.2393378363715
 30
0.0
 10
43.65624999999999
 20
233.2393378363715
 30
0.0
 10
43.65624999999999
 20
233.2393378363715
 30
0.0
 10
43.65624999999999
 20
211.5188720703125
 30
0.0
 10
43.65624999999999
 20
211.5188720703125
 30
0.0
 10
43.65624999999999
 20
211.5188720703125
 30
0.0
 10
23.91757541232637
 20
211.5188720703125
 30
0.0
 10
23.91757541232637
 20
211.5188720703125
 30
0.0
 10
23.91757541232637
 20
211.5188720703125
 30
0.0
 10
23.91757541232637
 20
189.2303100585936
 30
0.0
 10
23.91757541232637
 20
189.2303100585936
 30
0.0
 10
23.91757541232637
 20
189.2303100585936
 30
0.0
 10
64.41501736111111
 20
189.2303100585936
 30
0.0
 10
64.41501736111111
 20
189.2303100585936
 30
0.0
 10
64.41501736111111
 20
189.2303100585936
 30
0.0
 10
64.42052951388888
 20
211.069976128472
 30
0.0
 10
64.42052951388888
 20
211.069976128472
 30
0.0
 10
64.42052951388888
 20
211.069976128472
 30
0.0
 10
84.55711263020829
 20
211.069976128472
 30
0.0
 10
84.55711263020829
 20
211.069976128472
 30
0.0
 10
84.55711263020829
 20
211.069976128472
 30
0.0
 10
84.5626247829861
 20
189.2303100585936
 30
0.0
 10
84.5626247829861
 20
189.2303100585936
 30
0.0
 10
84.5626247829861
 20
189.2303100585936
 30
0.0
 10
125.8827555338541
 20
189.2303100585936
 30
0.0
 10
125.8827555338541
 20
189.2303100585936
 30
0.0
 10
125.8827555338541
 20
189.2303100585936
 30
0.0
 10
125.8827555338541
 20
211.5188720703125
 30
0.0
 10
125.8827555338541
 20
211.5188720703125
 30
0.0
 10
125.8827555338541
 20
211.5188720703125
 30
0.0
 10
105.3213921440971
 20
211.5188720703125
 30
0.0
 10
105.3213921440971
 20
211.5188720703125
 30
0.0
 10
105.3213921440971
 20
211.5188720703125
 30
0.0
 10
105.3213921440971
 20
233.2393378363715
 30
0.0
 10
105.3213921440971
 20
233.2393378363715
 30
0.0
 10
105.3213921440971
 20
233.2393378363715
 30
0.0
 10
175.0046495225693
 20
233.243127441406
 30
0.0
 10
175.0046495225693
 20
233.243127441406
 30
0.0
 10
175.6268337673611
 20
233.2560465494791
 30
0.0
 10
189.7165852864583
 20
233.3962619357638
 30
0.0
 10
191.3037407769094
 20
219.5690266927083
 30
0.0
 10
191.3037407769094
 20
219.4332899305555
 30
0.0
 10
191.3037407769094
 20
186.1142211914062
 30
0.0
 10
191.3037407769094
 20
186.1142211914062
 30
0.0
 10
191.3037407769094
 20
186.1142211914062
 30
0.0
 10
191.3051188151039
 20
186.0880384657115
 30
0.0
 10
191.3051188151039
 20
186.0880384657115
 30
0.0
 10
191.3054633246526
 20
186.0787367078991
 30
0.0
 10
191.3109754774304
 20
185.9566080729166
 30
0.0
 10
191.3109754774304
 20
185.7399115668401
 30
0.0
 10
191.3109754774304
 20
184.2090833875865
 30
0.0
 10
191.0488037109374
 20
177.9643310546874
 30
0.0
 10
186.9866916232638
 20
173.5652886284722
 30
0.0
 10
184.2540418836804
 20
170.6064683702255
 30
0.0
 10
180.3224989149304
 20
169.0308539496526
 30
0.0
 10
175.300927734375
 20
168.8825425889756
 30
0.0
 10
175.300927734375
 20
168.8825425889756
 30
0.0
 10
107.0094889322916
 20
168.8828870985243
 30
0.0
 10
107.0094889322916
 20
168.8828870985243
 30
0.0
 10
107.0094889322916
 20
168.8828870985243
 30
0.0
 10
107.0094889322916
 20
166.8830091688368
 30
0.0
 10
107.0094889322916
 20
166.8830091688368
 30
0.0
 10
107.0094889322916
 20
166.8830091688368
 30
0.0
 10
175.3305555555555
 20
166.8830091688368
 30
0.0
 10
175.3305555555555
 20
166.8830091688368
 30
0.0
 10
180.9467502170138
 20
167.0485460069444
 30
0.0
 10
185.3571614583333
 20
168.8448187934026
 30
0.0
 10
188.4687717013888
 20
172.2223904079861
 30
0.0
 10
192.9649658203124
 20
177.1034016927083
 30
0.0
 10
193.3136094835069
 20
183.7202243381076
 30
0.0
 10
193.3136094835069
 20
185.6520616319443
 30
0.0
 10
193.3136094835069
 20
185.9247409396701
 30
0.0
 10
193.3070638020833
 20
186.0868326822916
 30
0.0
 10
193.3039632161458
 20
186.1548733181423
 30
0.0
  0
INSERT
  5
639
102
{ACAD_REACTORS
330
659
102
}
330
637
100
AcDbEntity
  8
LAYER_1
 62
     7
100
AcDbBlockReference
  2
AI9-BLK14
 10
159.5625257703993
 20
200.5118781195744
 30
0.0
  0
INSERT
  5
63A
330
637
100
AcDbEntity
  8
LAYER_1
 62
     7
100
AcDbBlockReference
  2
AI9-BLK13
 10
27.69615614149305
 20
179.2145562065971
 30
0.0
 42
0.9200000000000001
  0
INSERT
  5
63B
102
{ACAD_REACTORS
330
646
102
}
330
637
100
AcDbEntity
  8
LAYER_1
 62
     7
100
AcDbBlockReference
  2
AI9-BLK11
 10
44.76591525607638
 20
179.2145562065971
 30
0.0
 42
0.9200000000000001
  0
INSERT
  5
63C
102
{ACAD_REACTORS
330
654
102
}
330
637
100
AcDbEntity
  8
LAYER_1
 62
     7
100
AcDbBlockReference
  2
AI9-BLK10
 10
54.04665798611111
 20
179.2145562065971
 30
0.0
 42
0.9200000000000001
  0
INSERT
  5
63D
102
{ACAD_REACTORS
330
653
102
}
330
637
100
AcDbEntity
  8
LAYER_1
 62
     7
100
AcDbBlockReference
  2
AI9-BLK9
 10
62.79013807508679
 20
179.2145562065971
 30
0.0
 42
0.9
  0
INSERT
  5
63E
330
637
100
AcDbEntity
  8
LAYER_1
 62
     7
100
AcDbBlockReference
  2
AI9-BLK8
 10
71.03046196831595
 20
179.2145562065971
 30
0.0
 42
0.9200000000000001
  0
INSERT
  5
63F
330
637
100
AcDbEntity
  8
LAYER_1
 62
     7
100
AcDbBlockReference
  2
AI9-BLK7
 10
76.93793945312498
 20
179.2145562065971
 30
0.0
 42
0.9200000000000001
  0
INSERT
  5
640
102
{ACAD_REACTORS
330
647
102
}
330
637
100
AcDbEntity
  8
LAYER_1
 62
     7
100
AcDbBlockReference
  2
AI9-BLK6
 10
82.55602891710069
 20
179.2145562065971
 30
0.0
 42
0.9
  0
INSERT
  5
641
102
{ACAD_REACTORS
330
655
102
}
330
637
100
AcDbEntity
  8
LAYER_1
 62
     7
100
AcDbBlockReference
  2
AI9-BLK5
 10
94.32430284288193
 20
179.2145562065971
 30
0.0
 42
0.9200000000000001
  0
INSERT
  5
642
102
{ACAD_REACTORS
330
656
102
}
330
637
100
AcDbEntity
  8
LAYER_1
 62
     7
100
AcDbBlockReference
  2
AI9-BLK4
 10
103.2081705729166
 20
179.2145562065971
 30
0.0
 42
0.9200000000000001
  0
INSERT
  5
643
330
637
100
AcDbEntity
  8
LAYER_1
 62
     7
100
AcDbBlockReference
  2
AI9-BLK3
 10
108.850978597005
 20
179.2145562065971
 30
0.0
 42
0.9200000000000001
  0
INSERT
  5
644
330
637
100
AcDbEntity
  8
LAYER_1
 62
     7
100
AcDbBlockReference
  2
AI9-BLK2
 10
114.2045708550346
 20
179.2145562065971
 30
0.0
 42
0.9200000000000001
  0
INSERT
  5
645
330
637
100
AcDbEntity
  8
LAYER_1
 62
     7
100
AcDbBlockReference
  2
AI9-BLK1
 10
122.4125108506944
 20
179.2145562065971
 30
0.0
 42
0.9200000000000001
  0
HATCH
  5
646
330
637
100
AcDbEntity
  8
0
  6
Continuous
100
AcDbHatch
 10
0.0
 20
0.0
 30
0.0
210
0.0
220
0.0
230
1.0
  2
SOLID
 70
     1
 71
     1
 91
        2
 92
       16
 93
        1
 72
     4
 94
        3
 73
     0
 74
     0
 95
       26
 96
       22
 40
0.0
 40
0.0
 40
0.0
 40
0.0
 40
1.0
 40
1.0
 40
1.0
 40
2.0
 40
2.0
 40
2.0
 40
3.0
 40
3.0
 40
3.0
 40
4.0
 40
4.0
 40
4.0
 40
5.0
 40
5.0
 40
5.0
 40
6.0
 40
6.0
 40
6.0
 40
7.0
 40
7.0
 40
7.0
 40
7.0
 10
42.12008192274304
 20
180.046229817708
 10
42.12008192274304
 20
180.046229817708
 10
42.12008192274304
 20
186.7401881510414
 10
42.12008192274304
 20
186.7401881510414
 10
42.12008192274304
 20
186.7401881510414
 10
45.23100314670138
 20
186.7401881510414
 10
45.23100314670138
 20
186.7401881510414
 10
45.66853027343749
 20
186.7401881510414
 10
46.01579589843749
 20
186.6064357638887
 10
46.27280002170138
 20
186.3401987847214
 10
46.76751573350694
 20
185.8330807291664
 10
47.01487358940972
 20
184.8822343749995
 10
47.01487358940972
 20
183.4863919270832
 10
47.01487358940972
 20
182.188169704861
 10
46.83848470052082
 20
181.2905707465276
 10
46.48639594184028
 20
180.7929611545137
 10
46.13430718315971
 20
180.2947176649304
 10
45.65888400607638
 20
180.046229817708
 10
45.06012641059028
 20
180.046229817708
 10
45.06012641059028
 20
180.046229817708
 10
42.12008192274304
 20
180.046229817708
 10
42.12008192274304
 20
180.046229817708
 97
        1
330
63B
 92
        1
 93
        1
 72
     4
 94
        3
 73
     0
 74
     0
 95
       68
 96
       64
 40
0.0
 40
0.0
 40
0.0
 40
0.0
 40
1.0
 40
1.0
 40
1.0
 40
2.0
 40
2.0
 40
2.0
 40
3.0
 40
3.0
 40
3.0
 40
4.0
 40
4.0
 40
4.0
 40
5.0
 40
5.0
 40
5.0
 40
6.0
 40
6.0
 40
6.0
 40
7.0
 40
7.0
 40
7.0
 40
8.0
 40
8.0
 40
8.0
 40
9.0
 40
9.0
 40
9.0
 40
10.0
 40
10.0
 40
10.0
 40
11.0
 40
11.0
 40
11.0
 40
12.0
 40
12.0
 40
12.0
 40
13.0
 40
13.0
 40
13.0
 40
14.0
 40
14.0
 40
14.0
 40
15.0
 40
15.0
 40
15.0
 40
16.0
 40
16.0
 40
16.0
 40
17.0
 40
17.0
 40
17.0
 40
18.0
 40
18.0
 40
18.0
 40
19.0
 40
19.0
 40
19.0
 40
20.0
 40
20.0
 40
20.0
 40
21.0
 40
21.0
 40
21.0
 40
21.0
 10
40.79716525607638
 20
169.3358964843748
 10
40.79716525607638
 20
169.3358964843748
 10
42.12008192274304
 20
169.3358964843748
 10
42.12008192274304
 20
169.3358964843748
 10
42.12008192274304
 20
169.3358964843748
 10
42.12008192274304
 20
177.8149103732637
 10
42.12008192274304
 20
177.8149103732637
 10
42.12008192274304
 20
177.8149103732637
 10
45.00500488281249
 20
177.8149103732637
 10
45.00500488281249
 20
177.8149103732637
 10
45.52590332031249
 20
177.8149103732637
 10
45.90968695746528
 20
177.6938359374998
 10
46.15635579427083
 20
177.4516870659716
 10
46.58216959635415
 20
177.0117621527776
 10
46.80954589843749
 20
176.1458580729164
 10
46.83848470052082
 20
174.8539748263887
 10
46.83848470052082
 20
174.8539748263887
 10
46.92667914496527
 20
171.5564396701385
 10
46.92667914496527
 20
171.5564396701385
 10
46.94597167968749
 20
170.7843524305554
 10
46.96870930989581
 20
170.2639225260415
 10
46.99351399739582
 20
169.9951499565971
 10
47.01831868489581
 20
169.725743489583
 10
47.0548366970486
 20
169.5057810329859
 10
47.10444607204859
 20
169.3358964843748
 10
47.10444607204859
 20
169.3358964843748
 10
48.73466525607638
 20
169.3358964843748
 10
48.73466525607638
 20
169.3358964843748
 10
48.73466525607638
 20
169.3358964843748
 10
48.73466525607638
 20
169.7821603732633
 10
48.73466525607638
 20
169.7821603732633
 10
48.53278266059028
 20
169.9609194878471
 10
48.39153374565971
 20
170.3628105468748
 10
48.31160753038194
 20
170.9878335503471
 10
48.26062011718749
 20
171.3542263454858
 10
48.22548014322915
 20
171.9120562065971
 10
48.20549858940971
 20
172.6625909288193
 10
48.20549858940971
 20
172.6625909288193
 10
48.16140136718749
 20
175.3205234374999
 10
48.16140136718749
 20
175.3205234374999
 10
48.14141981336803
 20
176.4716814236109
 10
48.03462185329859
 20
177.3033550347219
 10
47.84169650607638
 20
177.814276475694
 10
47.64808213975693
 20
178.3251979166665
 10
47.35800509982638
 20
178.7372313368054
 10
46.97077636718749
 20
179.0516445312498
 10
47.4021023220486
 20
179.5086846788193
 10
47.73765462239582
 20
180.1134229600693
 10
47.97743326822915
 20
180.866493272569
 10
48.21721191406249
 20
181.6189296874999
 10
48.33779025607638
 20
182.5868912760411
 10
48.33779025607638
 20
183.7697441406248
 10
48.33779025607638
 20
186.0371957465273
 10
47.89061686197913
 20
187.5921464843749
 10
46.99695909288194
 20
188.4345963541665
 10
46.52567003038194
 20
188.8732534722221
 10
45.92966851128472
 20
189.0932159288193
 10
45.20895453559027
 20
189.0932159288193
 10
45.20895453559027
 20
189.0932159288193
 10
40.79716525607638
 20
189.0932159288193
 10
40.79716525607638
 20
189.0932159288193
 10
40.79716525607638
 20
189.0932159288193
 10
40.79716525607638
 20
169.3358964843748
 10
40.79716525607638
 20
169.3358964843748
 97
        0
 75
     0
 76
     1
 98
        0
  0
HATCH
  5
647
330
637
100
AcDbEntity
  8
0
  6
Continuous
100
AcDbHatch
 10
0.0
 20
0.0
 30
0.0
210
0.0
220
0.0
230
1.0
  2
SOLID
 70
     1
 71
     1
 91
        1
 92
        1
 93
        1
 72
     4
 94
        3
 73
     0
 74
     0
 95
       59
 96
       55
 40
0.0
 40
0.0
 40
0.0
 40
0.0
 40
1.0
 40
1.0
 40
1.0
 40
2.0
 40
2.0
 40
2.0
 40
3.0
 40
3.0
 40
3.0
 40
4.0
 40
4.0
 40
4.0
 40
5.0
 40
5.0
 40
5.0
 40
6.0
 40
6.0
 40
6.0
 40
7.0
 40
7.0
 40
7.0
 40
8.0
 40
8.0
 40
8.0
 40
9.0
 40
9.0
 40
9.0
 40
10.0
 40
10.0
 40
10.0
 40
11.0
 40
11.0
 40
11.0
 40
12.0
 40
12.0
 40
12.0
 40
13.0
 40
13.0
 40
13.0
 40
14.0
 40
14.0
 40
14.0
 40
15.0
 40
15.0
 40
15.0
 40
16.0
 40
16.0
 40
16.0
 40
17.0
 40
17.0
 40
17.0
 40
18.0
 40
18.0
 40
18.0
 40
18.0
 10
85.61871880425345
 20
187.4658355034721
 10
86.29120144314232
 20
186.1797124565971
 10
86.66671685112847
 20
184.7193364800346
 10
86.7452650282118
 20
183.0840874565969
 10
86.7452650282118
 20
183.0840874565969
 10
85.42234836154511
 20
183.0840874565969
 10
85.42234836154511
 20
183.0840874565969
 10
85.27696533203123
 20
184.3156401909719
 10
84.99171142578125
 20
185.2917046440971
 10
84.56589762369791
 20
186.0122808159719
 10
84.14008382161458
 20
186.7322368706594
 10
83.53994818793401
 20
187.0925249565969
 10
82.76617974175342
 20
187.0925249565969
 10
81.81740044487847
 20
187.0925249565969
 10
81.05258924696178
 20
186.4240386284721
 10
80.47243516710068
 20
185.0883062065971
 10
79.89159206814234
 20
183.7525737847219
 10
79.6015150282118
 20
181.7049468315971
 10
79.6015150282118
 20
178.9454253472221
 10
79.6015150282118
 20
176.6844780815969
 10
79.86265326605901
 20
174.8514116753471
 10
80.38561876085069
 20
173.4456060112846
 10
80.90789523654512
 20
172.0391802300344
 10
81.69199896918403
 20
171.3365874565971
 10
82.73724093967013
 20
171.3365874565971
 10
83.69497748480901
 20
171.3365874565971
 10
84.42120361328125
 20
172.0794878472221
 10
84.91523030598958
 20
173.5665288628469
 10
85.18601481119791
 20
174.3491167534719
 10
85.38445231119791
 20
175.3785112847221
 10
85.51054280598959
 20
176.6547124565971
 10
85.51054280598959
 20
176.6547124565971
 10
86.83345947265625
 20
176.6547124565971
 10
86.83345947265625
 20
176.6547124565971
 10
86.72597249348957
 20
174.6157671440971
 10
86.35114610460069
 20
172.9061040581596
 10
85.70760226779514
 20
171.526343315972
 10
84.93727891710069
 20
169.8650493706596
 10
83.90375027126735
 20
169.0347124565971
 10
82.60701633029514
 20
169.0347124565971
 10
81.48598225911458
 20
169.0347124565971
 10
80.54547119140625
 20
169.7143608940971
 10
79.78479410807292
 20
171.0742778862845
 10
78.78020426432292
 20
172.8726177300344
 10
78.27859836154512
 20
175.6495024956596
 10
78.27859836154512
 20
179.4049321831594
 10
78.27859836154512
 20
182.2562310112846
 10
78.65342475043402
 20
184.5946929253469
 10
79.40445556640622
 20
186.4196978081596
 10
80.22301025390625
 20
188.4028325737846
 10
81.34955647786458
 20
189.3943999565971
 10
82.78271620008679
 20
189.3943999565971
 10
84.00090196397568
 20
189.3943999565971
 10
84.94623616536458
 20
188.7513384331594
 10
85.61871880425345
 20
187.4658355034721
 97
        1
330
640
 75
     0
 76
     1
 98
        1
 10
0.0
 20
0.0
  0
LINE
  5
648
102
{ACAD_REACTORS
330
657
102
}
330
637
100
AcDbEntity
  8
LAYER_1
 62
     7
100
AcDbLine
 10
34.65766059027778
 20
177.4497853732638
 30
0.0
 11
36.19830729166666
 21
186.1658769531249
 31
0.0
  0
LINE
  5
649
102
{ACAD_REACTORS
330
657
102
}
330
637
100
AcDbEntity
  8
LAYER_1
 62
     7
100
AcDbLine
 10
36.19830729166666
 20
186.1658769531249
 30
0.0
 11
37.67556423611111
 21
177.4497853732638
 31
0.0
  0
LINE
  5
64A
102
{ACAD_REACTORS
330
657
102
}
330
637
100
AcDbEntity
  8
LAYER_1
 62
     7
100
AcDbLine
 10
37.67556423611111
 20
177.4497853732638
 30
0.0
 11
34.65766059027778
 21
177.4497853732638
 31
0.0
  0
LINE
  5
64B
102
{ACAD_REACTORS
330
657
102
}
330
637
100
AcDbEntity
  8
LAYER_1
 62
     7
100
AcDbLine
 10
31.83957248263888
 20
169.3358964843748
 30
0.0
 11
33.22450086805555
 21
169.3358964843748
 31
0.0
  0
LINE
  5
64C
102
{ACAD_REACTORS
330
657
102
}
330
637
100
AcDbEntity
  8
LAYER_1
 62
     7
100
AcDbLine
 10
33.22450086805555
 20
169.3358964843748
 30
0.0
 11
34.27043185763887
 21
175.2590353732638
 31
0.0
  0
LINE
  5
64D
102
{ACAD_REACTORS
330
657
102
}
330
637
100
AcDbEntity
  8
LAYER_1
 62
     7
100
AcDbLine
 10
34.27043185763887
 20
175.2590353732638
 30
0.0
 11
38.04694552951389
 21
175.2590353732638
 31
0.0
  0
LINE
  5
64E
102
{ACAD_REACTORS
330
657
102
}
330
637
100
AcDbEntity
  8
LAYER_1
 62
     7
100
AcDbLine
 10
38.04694552951389
 20
175.2590353732638
 30
0.0
 11
39.05015733506942
 21
169.3358964843748
 31
0.0
  0
LINE
  5
64F
102
{ACAD_REACTORS
330
657
102
}
330
637
100
AcDbEntity
  8
LAYER_1
 62
     7
100
AcDbLine
 10
39.05015733506942
 20
169.3358964843748
 30
0.0
 11
40.43508572048611
 21
169.3358964843748
 31
0.0
  0
LINE
  5
650
102
{ACAD_REACTORS
330
657
102
}
330
637
100
AcDbEntity
  8
LAYER_1
 62
     7
100
AcDbLine
 10
40.43508572048611
 20
169.3358964843748
 30
0.0
 11
36.952783203125
 21
189.0932159288193
 31
0.0
  0
LINE
  5
651
102
{ACAD_REACTORS
330
657
102
}
330
637
100
AcDbEntity
  8
LAYER_1
 62
     7
100
AcDbLine
 10
36.952783203125
 20
189.0932159288193
 30
0.0
 11
35.47828233506943
 21
189.0932159288193
 31
0.0
  0
LINE
  5
652
102
{ACAD_REACTORS
330
657
102
}
330
637
100
AcDbEntity
  8
LAYER_1
 62
     7
100
AcDbLine
 10
35.47828233506943
 20
189.0932159288193
 30
0.0
 11
31.83957248263888
 21
169.3358964843748
 31
0.0
  0
HATCH
  5
653
330
637
100
AcDbEntity
  8
0
  6
Continuous
100
AcDbHatch
 10
0.0
 20
0.0
 30
0.0
210
0.0
220
0.0
230
1.0
  2
SOLID
 70
     1
 71
     1
 91
        2
 92
       16
 93
        1
 72
     4
 94
        3
 73
     0
 74
     0
 95
       29
 96
       25
 40
0.0
 40
0.0
 40
0.0
 40
0.0
 40
1.0
 40
1.0
 40
1.0
 40
2.0
 40
2.0
 40
2.0
 40
3.0
 40
3.0
 40
3.0
 40
4.0
 40
4.0
 40
4.0
 40
5.0
 40
5.0
 40
5.0
 40
6.0
 40
6.0
 40
6.0
 40
7.0
 40
7.0
 40
7.0
 40
8.0
 40
8.0
 40
8.0
 40
8.0
 10
62.85697292751734
 20
171.3365874565971
 10
61.88338894314235
 20
171.3365874565971
 10
61.18058946397566
 20
172.0714263237844
 10
60.74857449001735
 20
173.5411040581594
 10
60.31587049696178
 20
175.0107817925344
 10
60.10020751953123
 20
176.8165630425341
 10
60.10020751953123
 20
178.9578276909721
 10
60.10020751953123
 20
181.6342534722221
 10
60.35101047092013
 20
183.6589360894094
 10
60.85261637369789
 20
185.0324956597219
 10
61.35422227647566
 20
186.4054351128471
 10
62.00741238064235
 20
187.0925249565969
 10
62.81218668619789
 20
187.0925249565969
 10
63.6369425455729
 20
187.0925249565969
 10
64.28806559244789
 20
186.3992339409721
 10
64.76486680772568
 20
185.0126519097221
 10
65.24166802300347
 20
183.6260698784719
 10
65.48006863064235
 20
181.7961040581594
 10
65.48006863064235
 20
179.5239946831596
 10
65.48006863064235
 20
177.3734282769096
 10
65.27336290147568
 20
175.4715288628466
 10
64.86132948133678
 20
173.8176763237846
 10
64.4492960611979
 20
172.1632036675344
 10
63.78094753689235
 20
171.3365874565971
 10
62.85697292751734
 20
171.3365874565971
 97
        1
330
63D
 92
        1
 93
        1
 72
     4
 94
        3
 73
     0
 74
     0
 95
       29
 96
       25
 40
0.0
 40
0.0
 40
0.0
 40
0.0
 40
1.0
 40
1.0
 40
1.0
 40
2.0
 40
2.0
 40
2.0
 40
3.0
 40
3.0
 40
3.0
 40
4.0
 40
4.0
 40
4.0
 40
5.0
 40
5.0
 40
5.0
 40
6.0
 40
6.0
 40
6.0
 40
7.0
 40
7.0
 40
7.0
 40
8.0
 40
8.0
 40
8.0
 40
8.0
 10
62.76119927300346
 20
189.4340874565971
 10
61.47273356119789
 20
189.4340874565971
 10
60.50121663411457
 20
188.2397417534719
 10
59.84733751085068
 20
185.8516704644094
 10
59.3395304361979
 20
183.9900786675344
 10
59.08597140842012
 20
181.7514556206596
 10
59.08597140842012
 20
179.1351812065971
 10
59.08597140842012
 20
176.2379937065971
 10
59.3836276584201
 20
173.8412407769094
 10
59.9789401584201
 20
171.9449224175346
 10
60.6424655490451
 20
169.9779106987846
 10
61.5602389865451
 20
168.9950249565971
 10
62.7315714518229
 20
168.9950249565971
 10
63.9904093424479
 20
168.9950249565971
 10
64.95641411675345
 20
170.1186773003469
 10
65.63027479383679
 20
172.3659819878471
 10
66.20629475911457
 20
174.2796636284719
 10
66.49430474175345
 20
176.6813774956589
 10
66.49430474175345
 20
179.5698833550344
 10
66.49430474175345
 20
182.2388677300341
 10
66.24005669487845
 20
184.4291216362844
 10
65.73293863932289
 20
186.1412651909719
 10
65.08870578342011
 20
188.3364800347219
 10
64.09789632161457
 20
189.4340874565971
 10
62.76119927300346
 20
189.4340874565971
 97
        0
 75
     0
 76
     1
 98
        0
  0
HATCH
  5
654
330
637
100
AcDbEntity
  8
0
  6
Continuous
100
AcDbHatch
 10
0.0
 20
0.0
 30
0.0
210
0.0
220
0.0
230
1.0
  2
SOLID
 70
     1
 71
     1
 91
        1
 92
        1
 93
        1
 72
     4
 94
        3
 73
     0
 74
     0
 95
       59
 96
       55
 40
0.0
 40
0.0
 40
0.0
 40
0.0
 40
1.0
 40
1.0
 40
1.0
 40
2.0
 40
2.0
 40
2.0
 40
3.0
 40
3.0
 40
3.0
 40
4.0
 40
4.0
 40
4.0
 40
5.0
 40
5.0
 40
5.0
 40
6.0
 40
6.0
 40
6.0
 40
7.0
 40
7.0
 40
7.0
 40
8.0
 40
8.0
 40
8.0
 40
9.0
 40
9.0
 40
9.0
 40
10.0
 40
10.0
 40
10.0
 40
11.0
 40
11.0
 40
11.0
 40
12.0
 40
12.0
 40
12.0
 40
13.0
 40
13.0
 40
13.0
 40
14.0
 40
14.0
 40
14.0
 40
15.0
 40
15.0
 40
15.0
 40
16.0
 40
16.0
 40
16.0
 40
17.0
 40
17.0
 40
17.0
 40
18.0
 40
18.0
 40
18.0
 40
18.0
 10
49.39440104166666
 20
189.0932159288193
 10
49.39440104166666
 20
189.0932159288193
 10
51.24786241319444
 20
189.0932159288193
 10
51.24786241319444
 20
189.0932159288193
 10
51.24786241319444
 20
189.0932159288193
 10
54.04665798611111
 20
172.3887471788193
 10
54.04665798611111
 20
172.3887471788193
 10
54.04665798611111
 20
172.3887471788193
 10
56.83994140624999
 20
189.0932159288193
 10
56.83994140624999
 20
189.0932159288193
 10
56.83994140624999
 20
189.0932159288193
 10
58.69891493055553
 20
189.0932159288193
 10
58.69891493055553
 20
189.0932159288193
 10
58.69891493055553
 20
189.0932159288193
 10
58.69891493055553
 20
169.3358964843748
 10
58.69891493055553
 20
169.3358964843748
 10
58.69891493055553
 20
169.3358964843748
 10
57.46419270833333
 20
169.3358964843748
 10
57.46419270833333
 20
169.3358964843748
 10
57.46419270833333
 20
169.3358964843748
 10
57.46419270833333
 20
180.9964422743054
 10
57.46419270833333
 20
180.9964422743054
 10
57.46419270833333
 20
181.3996011284721
 10
57.47108289930555
 20
182.0677291666664
 10
57.48624131944444
 20
183.0001924913193
 10
57.50071072048609
 20
183.9326558159721
 10
57.50828993055553
 20
184.932312282986
 10
57.50828993055553
 20
185.9997957899304
 10
57.50828993055553
 20
185.9997957899304
 10
54.700537109375
 20
169.3358964843748
 10
54.700537109375
 20
169.3358964843748
 10
54.700537109375
 20
169.3358964843748
 10
53.38382161458333
 20
169.3358964843748
 10
53.38382161458333
 20
169.3358964843748
 10
53.38382161458333
 20
169.3358964843748
 10
50.58502604166665
 20
185.9997957899304
 10
50.58502604166665
 20
185.9997957899304
 10
50.58502604166665
 20
185.9997957899304
 10
50.58502604166665
 20
185.3944236111109
 10
50.58502604166665
 20
185.3944236111109
 10
50.58502604166665
 20
184.9101258680554
 10
50.59191623263888
 20
184.1729029947915
 10
50.60707465277777
 20
183.1821210937498
 10
50.62154405381942
 20
182.1913391927082
 10
50.62912326388889
 20
181.4629908854165
 10
50.62912326388889
 20
180.9964422743054
 10
50.62912326388889
 20
180.9964422743054
 10
50.62912326388889
 20
169.3358964843748
 10
50.62912326388889
 20
169.3358964843748
 10
50.62912326388889
 20
169.3358964843748
 10
49.39440104166666
 20
169.3358964843748
 10
49.39440104166666
 20
169.3358964843748
 10
49.39440104166666
 20
169.3358964843748
 10
49.39440104166666
 20
189.0932159288193
 10
49.39440104166666
 20
189.0932159288193
 97
        1
330
63C
 75
     0
 76
     1
 98
        1
 10
0.0
 20
0.0
  0
HATCH
  5
655
330
637
100
AcDbEntity
  8
0
  6
Continuous
100
AcDbHatch
 10
0.0
 20
0.0
 30
0.0
210
0.0
220
0.0
230
1.0
  2
SOLID
 70
     1
 71
     1
 91
        2
 92
       16
 93
        1
 72
     4
 94
        3
 73
     0
 74
     0
 95
       32
 96
       28
 40
0.0
 40
0.0
 40
0.0
 40
0.0
 40
1.0
 40
1.0
 40
1.0
 40
2.0
 40
2.0
 40
2.0
 40
3.0
 40
3.0
 40
3.0
 40
4.0
 40
4.0
 40
4.0
 40
5.0
 40
5.0
 40
5.0
 40
6.0
 40
6.0
 40
6.0
 40
7.0
 40
7.0
 40
7.0
 40
8.0
 40
8.0
 40
8.0
 40
9.0
 40
9.0
 40
9.0
 40
9.0
 10
91.70051812065969
 20
171.6077853732634
 10
91.70051812065969
 20
171.6077853732634
 10
91.70051812065969
 20
186.7401881510414
 10
91.70051812065969
 20
186.7401881510414
 10
91.70051812065969
 20
186.7401881510414
 10
93.98668348524305
 20
186.7401881510414
 10
93.98668348524305
 20
186.7401881510414
 10
95.02159016927082
 20
186.7401881510414
 10
95.77331000434028
 20
186.0644533420137
 10
96.24322102864582
 20
184.7142515190969
 10
96.71313205295138
 20
183.3640496961804
 10
96.94808756510417
 20
181.4680620659721
 10
96.94808756510417
 20
179.0262886284719
 10
96.94808756510417
 20
178.3911232638887
 10
96.91432562934028
 20
177.7027105034721
 10
96.84749077690971
 20
176.9604164496524
 10
96.7324245876736
 20
175.7167094184024
 10
96.55052354600693
 20
174.6974021267359
 10
96.30109863281248
 20
173.901860677083
 10
95.98414984809028
 20
172.9091770833332
 10
95.57693956163193
 20
172.2378795572914
 10
95.07877875434026
 20
171.8892358940971
 10
94.79076877170138
 20
171.7016022135415
 10
94.43178982204859
 20
171.6077853732634
 10
94.00115288628471
 20
171.6077853732634
 10
94.00115288628471
 20
171.6077853732634
 10
91.70051812065969
 20
171.6077853732634
 10
91.70051812065969
 20
171.6077853732634
 97
        1
330
641
 92
        1
 93
        1
 72
     4
 94
        3
 73
     0
 74
     0
 95
       26
 96
       22
 40
0.0
 40
0.0
 40
0.0
 40
0.0
 40
1.0
 40
1.0
 40
1.0
 40
2.0
 40
2.0
 40
2.0
 40
3.0
 40
3.0
 40
3.0
 40
4.0
 40
4.0
 40
4.0
 40
5.0
 40
5.0
 40
5.0
 40
6.0
 40
6.0
 40
6.0
 40
7.0
 40
7.0
 40
7.0
 40
7.0
 10
90.37760145399305
 20
169.3358964843748
 10
90.37760145399305
 20
169.3358964843748
 10
94.22990722656248
 20
169.3358964843748
 10
94.22990722656248
 20
169.3358964843748
 10
95.87115071614581
 20
169.3358964843748
 10
97.03008083767359
 20
170.8331625434026
 10
97.70600857204859
 20
173.8283285590274
 10
98.08221299913194
 20
175.5227367621523
 10
98.27100423177082
 20
177.4187243923609
 10
98.27100423177082
 20
179.5169253472221
 10
98.27100423177082
 20
182.233810329861
 10
97.94716525607638
 20
184.4619602864582
 10
97.30086534288195
 20
186.2013752170135
 10
96.57601725260416
 20
188.1290577256938
 10
95.5576470269097
 20
189.0932159288193
 10
94.24437662760416
 20
189.0932159288193
 10
94.24437662760416
 20
189.0932159288193
 10
90.37760145399305
 20
189.0932159288193
 10
90.37760145399305
 20
189.0932159288193
 10
90.37760145399305
 20
189.0932159288193
 10
90.37760145399305
 20
169.3358964843748
 10
90.37760145399305
 20
169.3358964843748
 97
        0
 75
     0
 76
     1
 98
        0
  0
HATCH
  5
656
330
637
100
AcDbEntity
  8
0
  6
Continuous
100
AcDbHatch
 10
0.0
 20
0.0
 30
0.0
210
0.0
220
0.0
230
1.0
  2
SOLID
 70
     1
 71
     1
 91
        2
 92
       16
 93
        1
 72
     4
 94
        3
 73
     0
 74
     0
 95
       26
 96
       22
 40
0.0
 40
0.0
 40
0.0
 40
0.0
 40
1.0
 40
1.0
 40
1.0
 40
2.0
 40
2.0
 40
2.0
 40
3.0
 40
3.0
 40
3.0
 40
4.0
 40
4.0
 40
4.0
 40
5.0
 40
5.0
 40
5.0
 40
6.0
 40
6.0
 40
6.0
 40
7.0
 40
7.0
 40
7.0
 40
7.0
 10
100.5623372395832
 20
180.046229817708
 10
100.5623372395832
 20
180.046229817708
 10
100.5623372395832
 20
186.7401881510414
 10
100.5623372395832
 20
186.7401881510414
 10
100.5623372395832
 20
186.7401881510414
 10
103.6732584635416
 20
186.7401881510414
 10
103.6732584635416
 20
186.7401881510414
 10
104.1107855902777
 20
186.7401881510414
 10
104.4580512152777
 20
186.6064357638887
 10
104.7150553385415
 20
186.3401987847214
 10
105.2097710503471
 20
185.8330807291664
 10
105.4571289062495
 20
184.8822343749995
 10
105.4571289062495
 20
183.4863919270832
 10
105.4571289062495
 20
182.188169704861
 10
105.280740017361
 20
181.2905707465276
 10
104.9286512586804
 20
180.7929611545137
 10
104.5765624999999
 20
180.2947176649304
 10
104.1011393229166
 20
180.046229817708
 10
103.5023817274304
 20
180.046229817708
 10
103.5023817274304
 20
180.046229817708
 10
100.5623372395832
 20
180.046229817708
 10
100.5623372395832
 20
180.046229817708
 97
        1
330
642
 92
        1
 93
        1
 72
     4
 94
        3
 73
     0
 74
     0
 95
       68
 96
       64
 40
0.0
 40
0.0
 40
0.0
 40
0.0
 40
1.0
 40
1.0
 40
1.0
 40
2.0
 40
2.0
 40
2.0
 40
3.0
 40
3.0
 40
3.0
 40
4.0
 40
4.0
 40
4.0
 40
5.0
 40
5.0
 40
5.0
 40
6.0
 40
6.0
 40
6.0
 40
7.0
 40
7.0
 40
7.0
 40
8.0
 40
8.0
 40
8.0
 40
9.0
 40
9.0
 40
9.0
 40
10.0
 40
10.0
 40
10.0
 40
11.0
 40
11.0
 40
11.0
 40
12.0
 40
12.0
 40
12.0
 40
13.0
 40
13.0
 40
13.0
 40
14.0
 40
14.0
 40
14.0
 40
15.0
 40
15.0
 40
15.0
 40
16.0
 40
16.0
 40
16.0
 40
17.0
 40
17.0
 40
17.0
 40
18.0
 40
18.0
 40
18.0
 40
19.0
 40
19.0
 40
19.0
 40
20.0
 40
20.0
 40
20.0
 40
21.0
 40
21.0
 40
21.0
 40
21.0
 10
99.23942057291661
 20
169.3358964843748
 10
99.23942057291661
 20
169.3358964843748
 10
100.5623372395832
 20
169.3358964843748
 10
100.5623372395832
 20
169.3358964843748
 10
100.5623372395832
 20
169.3358964843748
 10
100.5623372395832
 20
177.8149103732637
 10
100.5623372395832
 20
177.8149103732637
 10
100.5623372395832
 20
177.8149103732637
 10
103.4472601996527
 20
177.8149103732637
 10
103.4472601996527
 20
177.8149103732637
 10
103.9681586371527
 20
177.8149103732637
 10
104.3519422743053
 20
177.6938359374998
 10
104.5986111111109
 20
177.4516870659716
 10
105.0244249131943
 20
177.0117621527776
 10
105.2518012152777
 20
176.1458580729164
 10
105.280740017361
 20
174.8539748263887
 10
105.280740017361
 20
174.8539748263887
 10
105.3689344618053
 20
171.5564396701385
 10
105.3689344618053
 20
171.5564396701385
 10
105.3882269965277
 20
170.7843524305554
 10
105.4109646267359
 20
170.2639225260415
 10
105.4357693142359
 20
169.9951499565971
 10
105.4605740017358
 20
169.725743489583
 10
105.4970920138888
 20
169.5057810329859
 10
105.5467013888887
 20
169.3358964843748
 10
105.5467013888887
 20
169.3358964843748
 10
107.1769205729166
 20
169.3358964843748
 10
107.1769205729166
 20
169.3358964843748
 10
107.1769205729166
 20
169.3358964843748
 10
107.1769205729166
 20
169.7821603732633
 10
107.1769205729166
 20
169.7821603732633
 10
106.9750379774303
 20
169.9609194878471
 10
106.8337890624996
 20
170.3628105468748
 10
106.7538628472221
 20
170.9878335503471
 10
106.7028754340274
 20
171.3542263454858
 10
106.6677354600692
 20
171.9120562065971
 10
106.6477539062496
 20
172.6625909288193
 10
106.6477539062496
 20
172.6625909288193
 10
106.6036566840277
 20
175.3205234374999
 10
106.6036566840277
 20
175.3205234374999
 10
106.5836751302082
 20
176.4716814236109
 10
106.4768771701387
 20
177.3033550347219
 10
106.2839518229166
 20
177.814276475694
 10
106.0903374565971
 20
178.3251979166665
 10
105.8002604166666
 20
178.7372313368054
 10
105.4130316840276
 20
179.0516445312498
 10
105.8443576388885
 20
179.5086846788193
 10
106.179909939236
 20
180.1134229600693
 10
106.4196885850692
 20
180.866493272569
 10
106.6594672309027
 20
181.6189296874999
 10
106.7800455729166
 20
182.5868912760411
 10
106.7800455729166
 20
183.7697441406248
 10
106.7800455729166
 20
186.0371957465273
 10
106.3328721788193
 20
187.5921464843749
 10
105.4392144097221
 20
188.4345963541665
 10
104.9679253472221
 20
188.8732534722221
 10
104.3719238281249
 20
189.0932159288193
 10
103.6512098524303
 20
189.0932159288193
 10
103.6512098524303
 20
189.0932159288193
 10
99.23942057291661
 20
189.0932159288193
 10
99.23942057291661
 20
189.0932159288193
 10
99.23942057291661
 20
189.0932159288193
 10
99.23942057291661
 20
169.3358964843748
 10
99.23942057291661
 20
169.3358964843748
 97
        0
 75
     0
 76
     1
 98
        0
  0
HATCH
  5
657
330
637
100
AcDbEntity
  8
0
  6
Continuous
100
AcDbHatch
 10
0.0
 20
0.0
 30
0.0
210
0.0
220
0.0
230
1.0
  2
SOLID
 70
     1
 71
     1
 91
        2
 92
        1
 93
        8
 72
     1
 10
35.47828233506943
 20
189.0932159288193
 11
31.83957248263888
 21
169.3358964843748
 72
     1
 10
31.83957248263888
 20
169.3358964843748
 11
33.22450086805555
 21
169.3358964843748
 72
     1
 10
33.22450086805555
 20
169.3358964843748
 11
34.27043185763887
 21
175.2590353732638
 72
     1
 10
34.27043185763887
 20
175.2590353732638
 11
38.04694552951389
 21
175.2590353732638
 72
     1
 10
38.04694552951389
 20
175.2590353732638
 11
39.05015733506942
 21
169.3358964843748
 72
     1
 10
39.05015733506942
 20
169.3358964843748
 11
40.43508572048611
 21
169.3358964843748
 72
     1
 10
40.43508572048611
 20
169.3358964843748
 11
36.952783203125
 21
189.0932159288193
 72
     1
 10
36.952783203125
 20
189.0932159288193
 11
35.47828233506943
 21
189.0932159288193
 97
        8
330
652
330
64B
330
64C
330
64D
330
64E
330
64F
330
650
330
651
 92
       16
 93
        3
 72
     1
 10
37.67556423611111
 20
177.4497853732638
 11
34.65766059027778
 21
177.4497853732638
 72
     1
 10
34.65766059027778
 20
177.4497853732638
 11
36.19830729166666
 21
186.1658769531249
 72
     1
 10
36.19830729166666
 20
186.1658769531249
 11
37.67556423611111
 21
177.4497853732638
 97
        3
330
64A
330
648
330
649
 75
     0
 76
     1
 98
        1
 10
0.0
 20
0.0
  0
HATCH
  5
658
330
637
100
AcDbEntity
  8
0
  6
Continuous
100
AcDbHatch
 10
0.0
 20
0.0
 30
0.0
210
0.0
220
0.0
230
1.0
  2
SOLID
 70
     1
 71
     1
 91
        1
 92
        1
 93
        1
 72
     4
 94
        3
 73
     0
 74
     0
 95
      113
 96
      109
 40
0.0
 40
0.0
 40
0.0
 40
0.0
 40
1.0
 40
1.0
 40
1.0
 40
2.0
 40
2.0
 40
2.0
 40
3.0
 40
3.0
 40
3.0
 40
4.0
 40
4.0
 40
4.0
 40
5.0
 40
5.0
 40
5.0
 40
6.0
 40
6.0
 40
6.0
 40
7.0
 40
7.0
 40
7.0
 40
8.0
 40
8.0
 40
8.0
 40
9.0
 40
9.0
 40
9.0
 40
10.0
 40
10.0
 40
10.0
 40
11.0
 40
11.0
 40
11.0
 40
12.0
 40
12.0
 40
12.0
 40
13.0
 40
13.0
 40
13.0
 40
14.0
 40
14.0
 40
14.0
 40
15.0
 40
15.0
 40
15.0
 40
16.0
 40
16.0
 40
16.0
 40
17.0
 40
17.0
 40
17.0
 40
18.0
 40
18.0
 40
18.0
 40
19.0
 40
19.0
 40
19.0
 40
20.0
 40
20.0
 40
20.0
 40
21.0
 40
21.0
 40
21.0
 40
22.0
 40
22.0
 40
22.0
 40
23.0
 40
23.0
 40
23.0
 40
24.0
 40
24.0
 40
24.0
 40
25.0
 40
25.0
 40
25.0
 40
26.0
 40
26.0
 40
26.0
 40
27.0
 40
27.0
 40
27.0
 40
28.0
 40
28.0
 40
28.0
 40
29.0
 40
29.0
 40
29.0
 40
30.0
 40
30.0
 40
30.0
 40
31.0
 40
31.0
 40
31.0
 40
32.0
 40
32.0
 40
32.0
 40
33.0
 40
33.0
 40
33.0
 40
34.0
 40
34.0
 40
34.0
 40
35.0
 40
35.0
 40
35.0
 40
36.0
 40
36.0
 40
36.0
 40
36.0
 10
193.3039632161458
 20
186.1548733181423
 10
193.3039632161458
 20
186.1860514322916
 10
193.3039632161458
 20
219.6932223849826
 10
193.3039632161458
 20
219.6932223849826
 10
193.3039632161458
 20
219.6932223849826
 10
193.2974175347219
 20
219.7488606770833
 10
193.2974175347219
 20
219.7488606770833
 10
191.5293945312499
 20
235.455740017361
 10
175.1458984374999
 20
235.2467949761284
 10
174.9808783637151
 20
235.2428331163193
 10
174.9808783637151
 20
235.2428331163193
 10
125.8827555338541
 20
235.2430053710937
 10
125.8827555338541
 20
235.2430053710937
 10
125.8827555338541
 20
235.2430053710937
 10
125.8827555338541
 20
255.5278998480901
 10
125.8827555338541
 20
255.5278998480901
 10
125.8827555338541
 20
255.5278998480901
 10
84.5626247829861
 20
255.5278998480901
 10
84.5626247829861
 20
255.5278998480901
 10
84.5626247829861
 20
255.5278998480901
 10
84.55711263020829
 20
233.7919311523436
 10
84.55711263020829
 20
233.7919311523436
 10
84.55711263020829
 20
233.7919311523436
 10
64.42052951388888
 20
233.7919311523436
 10
64.42052951388888
 20
233.7919311523436
 10
64.42052951388888
 20
233.7919311523436
 10
64.41501736111111
 20
255.5278998480901
 10
64.41501736111111
 20
255.5278998480901
 10
64.41501736111111
 20
255.5278998480901
 10
23.91757541232637
 20
255.5278998480901
 10
23.91757541232637
 20
255.5278998480901
 10
23.91757541232637
 20
255.5278998480901
 10
23.91757541232637
 20
233.2393378363715
 10
23.91757541232637
 20
233.2393378363715
 10
23.91757541232637
 20
233.2393378363715
 10
43.65624999999999
 20
233.2393378363715
 10
43.65624999999999
 20
233.2393378363715
 10
43.65624999999999
 20
233.2393378363715
 10
43.65624999999999
 20
211.5188720703125
 10
43.65624999999999
 20
211.5188720703125
 10
43.65624999999999
 20
211.5188720703125
 10
23.91757541232637
 20
211.5188720703125
 10
23.91757541232637
 20
211.5188720703125
 10
23.91757541232637
 20
211.5188720703125
 10
23.91757541232637
 20
189.2303100585936
 10
23.91757541232637
 20
189.2303100585936
 10
23.91757541232637
 20
189.2303100585936
 10
64.41501736111111
 20
189.2303100585936
 10
64.41501736111111
 20
189.2303100585936
 10
64.41501736111111
 20
189.2303100585936
 10
64.42052951388888
 20
211.069976128472
 10
64.42052951388888
 20
211.069976128472
 10
64.42052951388888
 20
211.069976128472
 10
84.55711263020829
 20
211.069976128472
 10
84.55711263020829
 20
211.069976128472
 10
84.55711263020829
 20
211.069976128472
 10
84.5626247829861
 20
189.2303100585936
 10
84.5626247829861
 20
189.2303100585936
 10
84.5626247829861
 20
189.2303100585936
 10
125.8827555338541
 20
189.2303100585936
 10
125.8827555338541
 20
189.2303100585936
 10
125.8827555338541
 20
189.2303100585936
 10
125.8827555338541
 20
211.5188720703125
 10
125.8827555338541
 20
211.5188720703125
 10
125.8827555338541
 20
211.5188720703125
 10
105.3213921440971
 20
211.5188720703125
 10
105.3213921440971
 20
211.5188720703125
 10
105.3213921440971
 20
211.5188720703125
 10
105.3213921440971
 20
233.2393378363715
 10
105.3213921440971
 20
233.2393378363715
 10
105.3213921440971
 20
233.2393378363715
 10
175.0046495225693
 20
233.243127441406
 10
175.0046495225693
 20
233.243127441406
 10
175.6268337673611
 20
233.2560465494791
 10
189.7165852864583
 20
233.3962619357638
 10
191.3037407769094
 20
219.5690266927083
 10
191.3037407769094
 20
219.4332899305555
 10
191.3037407769094
 20
186.1142211914062
 10
191.3037407769094
 20
186.1142211914062
 10
191.3037407769094
 20
186.1142211914062
 10
191.3051188151039
 20
186.0880384657115
 10
191.3051188151039
 20
186.0880384657115
 10
191.3054633246526
 20
186.0787367078991
 10
191.3109754774304
 20
185.9566080729166
 10
191.3109754774304
 20
185.7399115668401
 10
191.3109754774304
 20
184.2090833875865
 10
191.0488037109374
 20
177.9643310546874
 10
186.9866916232638
 20
173.5652886284722
 10
184.2540418836804
 20
170.6064683702255
 10
180.3224989149304
 20
169.0308539496526
 10
175.300927734375
 20
168.8825425889756
 10
175.300927734375
 20
168.8825425889756
 10
107.0094889322916
 20
168.8828870985243
 10
107.0094889322916
 20
168.8828870985243
 10
107.0094889322916
 20
168.8828870985243
 10
107.0094889322916
 20
166.8830091688368
 10
107.0094889322916
 20
166.8830091688368
 10
107.0094889322916
 20
166.8830091688368
 10
175.3305555555555
 20
166.8830091688368
 10
175.3305555555555
 20
166.8830091688368
 10
180.9467502170138
 20
167.0485460069444
 10
185.3571614583333
 20
168.8448187934026
 10
188.4687717013888
 20
172.2223904079861
 10
192.9649658203124
 20
177.1034016927083
 10
193.3136094835069
 20
183.7202243381076
 10
193.3136094835069
 20
185.6520616319443
 10
193.3136094835069
 20
185.9247409396701
 10
193.3070638020833
 20
186.0868326822916
 10
193.3039632161458
 20
186.1548733181423
 97
        1
330
638
 75
     0
 76
     1
 98
        1
 10
0.0
 20
0.0
  0
HATCH
  5
659
330
637
100
AcDbEntity
  8
0
  6
Continuous
100
AcDbHatch
 10
0.0
 20
0.0
 30
0.0
210
0.0
220
0.0
230
1.0
  2
SOLID
 70
     1
 71
     1
 91
        2
 92
        1
 93
        1
 72
     4
 94
        3
 73
     0
 74
     0
 95
       23
 96
       19
 40
0.0
 40
0.0
 40
0.0
 40
0.0
 40
1.0
 40
1.0
 40
1.0
 40
2.0
 40
2.0
 40
2.0
 40
3.0
 40
3.0
 40
3.0
 40
4.0
 40
4.0
 40
4.0
 40
5.0
 40
5.0
 40
5.0
 40
6.0
 40
6.0
 40
6.0
 40
6.0
 10
148.6593153211804
 20
211.3929538302948
 10
148.6593153211804
 20
211.3929538302948
 10
148.6593153211804
 20
189.6308024088539
 10
148.6593153211804
 20
189.6308024088539
 10
148.6593153211804
 20
189.6308024088539
 10
161.3152180989583
 20
189.6308024088539
 10
161.3152180989583
 20
189.6308024088539
 10
162.8431179470483
 20
189.6308024088539
 10
170.4657362196178
 20
190.1880466037321
 10
170.4657362196178
 20
201.1911648220483
 10
170.4657362196178
 20
211.1288872612844
 10
162.3356553819444
 20
211.3914035373261
 10
162.2536621093749
 20
211.3927815755205
 10
162.2536621093749
 20
211.3927815755205
 10
149.6594265407986
 20
211.3929538302948
 10
149.6594265407986
 20
211.3929538302948
 10
149.6594265407986
 20
211.3929538302948
 10
148.6593153211804
 20
211.3929538302948
 10
148.6593153211804
 20
211.3929538302948
 97
        1
330
639
 92
       16
 93
        1
 72
     4
 94
        3
 73
     0
 74
     0
 95
       20
 96
       16
 40
0.0
 40
0.0
 40
0.0
 40
0.0
 40
1.0
 40
1.0
 40
1.0
 40
2.0
 40
2.0
 40
2.0
 40
3.0
 40
3.0
 40
3.0
 40
4.0
 40
4.0
 40
4.0
 40
5.0
 40
5.0
 40
5.0
 40
5.0
 10
162.2354031032983
 20
209.3930759006072
 10
162.467947048611
 20
209.3861857096351
 10
168.4655137803819
 20
209.1283203124997
 10
168.4655137803819
 20
201.1911648220483
 10
168.4655137803819
 20
192.3202162000865
 10
162.9926350911458
 20
191.6306803385413
 10
161.3152180989583
 20
191.6306803385413
 10
161.3152180989583
 20
191.6306803385413
 10
152.3310980902776
 20
191.6306803385413
 10
150.6595377604166
 20
191.6306803385413
 10
150.6595377604166
 20
193.3373806423608
 10
150.6595377604166
 20
207.6863755967879
 10
150.6595377604166
 20
209.3930759006072
 10
152.3538357204859
 20
209.3930759006072
 10
162.2354031032983
 20
209.3930759006072
 10
162.2354031032983
 20
209.3930759006072
 97
        0
 75
     0
 76
     1
 98
        0
  0
ENDBLK
  5
65B
330
637
100
AcDbEntity
  8
0
100
AcDbBlockEnd
  0
BLOCK
  5
65E
330
65C
100
AcDbEntity
  8
0
100
AcDbBlockBegin
  2
HD logo-new
 70
     0
 10
0.0
 20
0.0
 30
0.0
  3
HD logo-new
  1

  0
INSERT
  5
65D
330
65C
100
AcDbEntity
  8
0
 62
     3
100
AcDbBlockReference
  2
HD_LLC_logo_OT5
 10
-27.1607188578505
 20
-68.37367811463031
 30
0.0
 41
0.2999999999999971
 42
0.3000000000000007
 43
0.3
  0
ENDBLK
  5
65F
330
65C
100
AcDbEntity
  8
0
100
AcDbBlockEnd
  0
BLOCK
  5
669
330
667
100
AcDbEntity
  8
0
100
AcDbBlockBegin
  2
HD LLC
 70
     0
 10
0.0
 20
0.0
 30
0.0
  3
HD LLC
  1

  0
MTEXT
  5
668
330
667
100
AcDbEntity
  8
0
100
AcDbMText
 10
-2.314970886968865
 20
1.247205085865914
 30
0.0
 40
5.675387507387601
 41
236.1828726592229
 71
     5
 72
     5
  1
Harmonic Drive LLC\P800-921-3332\Pwww.harmonicdrive.net
 73
     1
 44
1.0
  0
ENDBLK
  5
66A
330
667
100
AcDbEntity
  8
0
100
AcDbBlockEnd
  0
ENDSEC
  0
SECTION
  2
ENTITIES
  0
LINE
  5
303
330
1F
100
AcDbEntity
  8
LINE_CENTER
100
AcDbLine
 10
7.642543442253352
 20
14.98211539451487
 30
0.0
 11
7.642543442253352
 21
17.05746539451487
 31
0.0
  0
LINE
  5
304
330
1F
100
AcDbEntity
  8
SPLINE_FLEX
100
AcDbLine
 10
13.40997593532304
 20
16.37226539451487
 30
0.0
 11
13.40997593532304
 21
13.23196539451487
 31
0.0
  0
LINE
  5
305
330
1F
100
AcDbEntity
  8
WEAR_WASHER
100
AcDbLine
 10
13.41622593532304
 20
16.31761539451486
 30
0.0
 11
13.41622593532304
 21
13.28661539451487
 31
0.0
  0
LINE
  5
306
330
1F
100
AcDbEntity
  8
WEAR_WASHER
100
AcDbLine
 10
13.44822593532304
 20
13.28661539451487
 30
0.0
 11
13.44822593532304
 21
16.31761539451486
 31
0.0
  0
LINE
  5
307
330
1F
100
AcDbEntity
  8
SPLINE_FLEX
100
AcDbLine
 10
12.62297593532304
 20
13.23196539451487
 30
0.0
 11
12.62297593532304
 21
16.37226539451487
 31
0.0
  0
LINE
  5
308
330
1F
100
AcDbEntity
  8
SPLINE_FLEX
100
AcDbLine
 10
12.54947593532305
 20
13.23196539451487
 30
0.0
 11
12.54947593532305
 21
16.37226539451487
 31
0.0
  0
LINE
  5
309
330
1F
100
AcDbEntity
  8
SPLINE_FLEX
100
AcDbLine
 10
11.76247593532305
 20
16.37226539451487
 30
0.0
 11
11.76247593532305
 21
13.23196539451487
 31
0.0
  0
LINE
  5
30A
330
1F
100
AcDbEntity
  8
WEAR_WASHER
100
AcDbLine
 10
11.72422593532305
 20
13.28661539451487
 30
0.0
 11
11.72422593532305
 21
16.31761539451486
 31
0.0
  0
LINE
  5
30B
330
1F
100
AcDbEntity
  8
WEAR_WASHER
100
AcDbLine
 10
11.75622593532305
 20
16.31761539451486
 30
0.0
 11
11.75622593532305
 21
13.28661539451487
 31
0.0
  0
INSERT
  5
30C
330
1F
100
AcDbEntity
  8
WAVE_GENERATOR
100
AcDbBlockReference
  2
BEARING WG 32 1423140-20
 10
13.01571412429942
 20
14.80211539451487
 30
0.0
  0
INSERT
  5
30D
330
1F
100
AcDbEntity
  8
WAVE_GENERATOR
100
AcDbBlockReference
  2
BEARING WG 32 1423140-20
 10
12.15673774634667
 20
14.80211539451487
 30
0.0
 41
-1.0
  0
CIRCLE
  5
30E
330
1F
100
AcDbEntity
  8
WEAR_WASHER
100
AcDbCircle
 10
7.642543442253352
 20
14.80211539451487
 30
0.0
 40
1.5155
  0
CIRCLE
  5
30F
330
1F
100
AcDbEntity
  8
WEAR_WASHER
100
AcDbCircle
 10
7.642543442253352
 20
14.80211539451487
 30
0.0
 40
1.8125
  0
LWPOLYLINE
  5
310
330
1F
100
AcDbEntity
  8
SPACERS_PANCAKE
100
AcDbPolyline
 90
        4
 70
     1
 43
0.0
 10
12.55572593532305
 20
16.17711539451487
 10
12.61672593532305
 20
16.17711539451487
 10
12.61672593532305
 20
16.42711539451486
 10
12.55572593532305
 20
16.42711539451486
  0
CIRCLE
  5
311
330
1F
100
AcDbEntity
  8
LINE_CENTER
100
AcDbCircle
 10
7.642543442253352
 20
14.80211539451487
 30
0.0
 40
1.968499999999997
  0
CIRCLE
  5
312
330
1F
100
AcDbEntity
  8
SPLINE_STATIC
100
AcDbCircle
 10
7.642543442253352
 20
14.80211539451487
 30
0.0
 40
2.16535
  0
LINE
  5
313
330
1F
100
AcDbEntity
  8
LINE_CENTER
100
AcDbLine
 10
7.822543442253351
 20
14.80211539451487
 30
0.0
 11
9.89789344225335
 21
14.80211539451487
 31
0.0
  0
ARC
  5
314
330
1F
100
AcDbEntity
  8
SEPARATOR_BEARING
100
AcDbCircle
 10
8.012299928956258
 20
16.12179357905473
 30
0.0
 40
0.1580000050560003
100
AcDbArc
 50
304.827661204431
 51
12.27883468080432
  0
ARC
  5
315
330
1F
100
AcDbEntity
  8
SEPARATOR_BEARING
100
AcDbCircle
 10
8.354633268563782
 20
15.97309722591726
 30
0.0
 40
0.1580000050560003
100
AcDbArc
 50
120.7646435800617
 51
188.2158170564395
  0
ARC
  5
316
330
1F
100
AcDbEntity
  8
SEPARATOR_BEARING
100
AcDbCircle
 10
7.642543442253352
 20
14.80211539451487
 30
0.0
 40
1.268000040576001
100
AcDbArc
 50
64.364183609888
 51
68.67929465098224
  0
ARC
  5
317
330
1F
100
AcDbEntity
  8
SEPARATOR_BEARING
100
AcDbCircle
 10
7.642543442253352
 20
14.80211539451487
 30
0.0
 40
1.459000046688003
100
AcDbArc
 50
64.37987445199436
 51
68.6636038088702
  0
ARC
  5
318
330
1F
100
AcDbEntity
  8
BEARING_WAVE_GEN
100
AcDbCircle
 10
8.010950945057304
 20
16.11697899246393
 30
0.0
 40
0.1406250045000003
100
AcDbArc
 50
280.6505774162832
 51
47.67909399353531
  0
ARC
  5
319
330
1F
100
AcDbEntity
  8
BEARING_WAVE_GEN
100
AcDbCircle
 10
8.352035348730481
 20
15.96882512875781
 30
0.0
 40
0.1406250045000003
100
AcDbArc
 50
85.36438426733278
 51
212.3929008445863
  0
CIRCLE
  5
31A
330
1F
100
AcDbEntity
  8
BEARING_WAVE_GEN
100
AcDbCircle
 10
7.642543442253352
 20
14.80211539451487
 30
0.0
 40
1.492500047760002
  0
CIRCLE
  5
31B
330
1F
100
AcDbEntity
  8
BEARING_WAVE_GEN
100
AcDbCircle
 10
7.642543442253352
 20
14.80211539451487
 30
0.0
 40
1.241000039712002
  0
CIRCLE
  5
31C
330
1F
100
AcDbEntity
  8
BEARING_WAVE_GEN
100
AcDbCircle
 10
7.642543442253352
 20
14.80211539451487
 30
0.0
 40
1.16000003712
  0
ARC
  5
31D
330
1F
100
AcDbEntity
  8
BEARING_WAVE_GEN
100
AcDbCircle
 10
8.186560147846899
 20
13.54966332223069
 30
0.0
 40
0.1406250045000003
100
AcDbArc
 50
139.7810121988915
 51
266.8095287761397
  0
CIRCLE
  5
31E
330
1F
100
AcDbEntity
  8
WAVE_GENERATOR
100
AcDbCircle
 10
7.642543442253352
 20
14.80211539451487
 30
0.0
 40
0.7084999999999999
  0
LINE
  5
31F
330
1F
100
AcDbEntity
  8
LINE_CENTER
100
AcDbLine
 10
7.642543442253352
 20
14.62211539451487
 30
0.0
 11
7.642543442253352
 21
12.54676539451487
 31
0.0
  0
ARC
  5
320
330
1F
100
AcDbEntity
  8
BEARING_WAVE_GEN
100
AcDbCircle
 10
6.355886111927054
 20
14.34483726946249
 30
0.0
 40
0.1406250045000003
100
AcDbArc
 50
45.86796872063341
 51
172.896485297882
  0
ARC
  5
321
330
1F
100
AcDbEntity
  8
SEPARATOR_BEARING
100
AcDbCircle
 10
7.642543442253376
 20
14.80211539451488
 30
0.0
 40
1.268000040576001
100
AcDbArc
 50
220.8859227403193
 51
225.2010337814158
  0
ARC
  5
322
330
1F
100
AcDbEntity
  8
SEPARATOR_BEARING
100
AcDbCircle
 10
6.777637386877525
 20
13.73900303658487
 30
0.0
 40
0.1580000050560003
100
AcDbArc
 50
101.3494003348624
 51
168.8005738112394
  0
ARC
  5
323
330
1F
100
AcDbEntity
  8
BEARING_WAVE_GEN
100
AcDbCircle
 10
6.780792826700126
 20
13.74288159316251
 30
0.0
 40
0.1406250045000003
100
AcDbArc
 50
77.17231654671735
 51
204.2008331239685
  0
CIRCLE
  5
324
330
1F
100
AcDbEntity
  8
SPLINE_STATIC
100
AcDbCircle
 10
5.937772434903686
 20
13.81786539451487
 30
0.0
 40
0.0985
  0
CIRCLE
  5
325
330
1F
100
AcDbEntity
  8
LINE_HIDDEN
100
AcDbCircle
 10
5.937772434903686
 20
13.81786539451487
 30
0.0
 40
0.118
  0
ARC
  5
326
330
1F
100
AcDbEntity
  8
SEPARATOR_BEARING
100
AcDbCircle
 10
6.680137191530108
 20
13.96886674478141
 30
0.0
 40
0.00500000016
100
AcDbArc
 50
40.88592274031384
 51
164.737556186914
  0
ARC
  5
327
330
1F
100
AcDbEntity
  8
BEARING_WAVE_GEN
100
AcDbCircle
 10
6.526971017649277
 20
14.01465838946839
 30
0.0
 40
0.1406250045000003
100
AcDbArc
 50
241.8861233977691
 51
8.914639975021602
  0
ARC
  5
328
330
1F
100
AcDbEntity
  8
SEPARATOR_BEARING
100
AcDbCircle
 10
6.617741374373365
 20
13.7706616355066
 30
0.0
 40
0.00500000016
100
AcDbArc
 50
225.1853429392974
 51
348.8005738112183
  0
ARC
  5
329
330
1F
100
AcDbEntity
  8
SEPARATOR_BEARING
100
AcDbCircle
 10
6.543559273693397
 20
13.8500912705779
 30
0.0
 40
0.00500000016
100
AcDbArc
 50
97.28638271048458
 51
220.9016135824038
  0
ARC
  5
32A
330
1F
100
AcDbEntity
  8
SEPARATOR_BEARING
100
AcDbCircle
 10
6.522886168053529
 20
14.01177498776555
 30
0.0
 40
0.1580000050560003
100
AcDbArc
 50
277.2863827104973
 51
344.737556186874
  0
ARC
  5
32B
330
1F
100
AcDbEntity
  8
SEPARATOR_BEARING
100
AcDbCircle
 10
7.642543442253376
 20
14.80211539451488
 30
0.0
 40
1.459000046688003
100
AcDbArc
 50
220.9016135824334
 51
225.1853429393054
  0
ARC
  5
32C
330
1F
100
AcDbEntity
  8
SEPARATOR_BEARING
100
AcDbCircle
 10
6.377460921203724
 20
14.085399027855
 30
0.0
 40
0.00500000016
100
AcDbArc
 50
209.5331690262556
 51
333.1483998981722
  0
ARC
  5
32D
330
1F
100
AcDbEntity
  8
SEPARATOR_BEARING
100
AcDbCircle
 10
6.522886168053512
 20
14.01177498776555
 30
0.0
 40
0.1580000050560003
100
AcDbArc
 50
85.69722642181934
 51
153.1483998981954
  0
ARC
  5
32E
330
1F
100
AcDbEntity
  8
BEARING_WAVE_GEN
100
AcDbCircle
 10
6.526971017649277
 20
14.01465838946839
 30
0.0
 40
0.1406250045000003
100
AcDbArc
 50
61.52014263367494
 51
188.5486592109249
  0
ARC
  5
32F
330
1F
100
AcDbEntity
  8
SEPARATOR_BEARING
100
AcDbCircle
 10
6.35117480716572
 20
14.34316287134805
 30
0.0
 40
0.1580000050560003
100
AcDbArc
 50
261.634208797454
 51
329.0853822738308
  0
ARC
  5
330
330
1F
100
AcDbEntity
  8
BEARING_WAVE_GEN
100
AcDbCircle
 10
6.355886111927054
 20
14.34483726946249
 30
0.0
 40
0.1406250045000003
100
AcDbArc
 50
226.2339494847275
 51
353.2624660619763
  0
ARC
  5
331
330
1F
100
AcDbEntity
  8
SEPARATOR_BEARING
100
AcDbCircle
 10
7.642543442253352
 20
14.80211539451487
 30
0.0
 40
1.459000046688003
100
AcDbArc
 50
205.2494396693915
 51
209.5331690262642
  0
ARC
  5
332
330
1F
100
AcDbEntity
  8
SEPARATOR_BEARING
100
AcDbCircle
 10
6.32745955312361
 20
14.18189728783397
 30
0.0
 40
0.00500000016
100
AcDbArc
 50
81.63420879744085
 51
205.2494396693603
  0
ARC
  5
333
330
1F
100
AcDbEntity
  8
SEPARATOR_BEARING
100
AcDbCircle
 10
6.491018030711304
 20
14.25941996401378
 30
0.0
 40
0.00500000016
100
AcDbArc
 50
25.23374882727155
 51
149.0853822738676
  0
ARC
  5
334
330
1F
100
AcDbEntity
  8
SEPARATOR_BEARING
100
AcDbCircle
 10
6.535115569208099
 20
14.17431557792019
 30
0.0
 40
0.00500000016
100
AcDbArc
 50
265.697226421806
 51
29.54885986841079
  0
ARC
  5
335
330
1F
100
AcDbEntity
  8
SEPARATOR_BEARING
100
AcDbCircle
 10
7.642543442253352
 20
14.80211539451487
 30
0.0
 40
1.268000040576001
100
AcDbArc
 50
205.233748827275
 51
209.5488598683749
  0
ARC
  5
336
330
1F
100
AcDbEntity
  8
SEPARATOR_BEARING
100
AcDbCircle
 10
7.829159840811456
 20
13.44438026202455
 30
0.0
 40
0.1580000050560003
100
AcDbArc
 50
339.8950783626701
 51
47.34625183904916
  0
ARC
  5
337
330
1F
100
AcDbEntity
  8
BEARING_WAVE_GEN
100
AcDbCircle
 10
7.828479007544236
 20
13.44933369191324
 30
0.0
 40
0.1406250045000003
100
AcDbArc
 50
304.494819049942
 51
71.5233356271917
  0
ARC
  5
338
330
1F
100
AcDbEntity
  8
SEPARATOR_BEARING
100
AcDbCircle
 10
7.829159840811508
 20
13.44438026202455
 30
0.0
 40
0.1580000050560003
100
AcDbArc
 50
148.3059220739928
 51
215.7570955503683
  0
ARC
  5
339
330
1F
100
AcDbEntity
  8
SEPARATOR_BEARING
100
AcDbCircle
 10
7.455927043695253
 20
13.44438026202456
 30
0.0
 40
0.1580000050560003
100
AcDbArc
 50
324.2429044496258
 51
31.69407792600349
  0
ARC
  5
33A
330
1F
100
AcDbEntity
  8
BEARING_WAVE_GEN
100
AcDbCircle
 10
7.456607876962496
 20
13.44933369191324
 30
0.0
 40
0.1406250045000003
100
AcDbArc
 50
288.8426451368977
 51
55.87116171415029
  0
ARC
  5
33B
330
1F
100
AcDbEntity
  8
BEARING_WAVE_GEN
100
AcDbCircle
 10
7.828479007544236
 20
13.44933369191324
 30
0.0
 40
0.1406250045000003
100
AcDbArc
 50
124.1288382858495
 51
251.1573548630963
  0
ARC
  5
33C
330
1F
100
AcDbEntity
  8
SEPARATOR_BEARING
100
AcDbCircle
 10
7.455927043695226
 20
13.44438026202455
 30
0.0
 40
0.1580000050560003
100
AcDbArc
 50
132.6537481609507
 51
200.1049216373241
  0
ARC
  5
33D
330
1F
100
AcDbEntity
  8
SEPARATOR_BEARING
100
AcDbCircle
 10
7.096534731146807
 20
13.54507726557643
 30
0.0
 40
0.1580000050560003
100
AcDbArc
 50
308.5907305365866
 51
16.0419040129593
  0
ARC
  5
33E
330
1F
100
AcDbEntity
  8
BEARING_WAVE_GEN
100
AcDbCircle
 10
7.098526736659748
 20
13.54966332223071
 30
0.0
 40
0.1406250045000003
100
AcDbArc
 50
273.19047122386
 51
40.21898780110833
  0
ARC
  5
33F
330
1F
100
AcDbEntity
  8
BEARING_WAVE_GEN
100
AcDbCircle
 10
7.456607876962496
 20
13.44933369191324
 30
0.0
 40
0.1406250045000003
100
AcDbArc
 50
108.476664372808
 51
235.5051809500579
  0
ARC
  5
340
330
1F
100
AcDbEntity
  8
BEARING_WAVE_GEN
100
AcDbCircle
 10
7.098526736659748
 20
13.54966332223071
 30
0.0
 40
0.1406250045000003
100
AcDbArc
 50
92.8244904597642
 51
219.8530070370138
  0
ARC
  5
341
330
1F
100
AcDbEntity
  8
SEPARATOR_BEARING
100
AcDbCircle
 10
8.188552153359877
 20
13.54507726557641
 30
0.0
 40
0.1580000050560003
100
AcDbArc
 50
163.9580959870382
 51
231.4092694634115
  0
ARC
  5
342
330
1F
100
AcDbEntity
  8
SEPARATOR_BEARING
100
AcDbCircle
 10
7.302859488021731
 20
13.38835058149221
 30
0.0
 40
0.00500000016
100
AcDbArc
 50
256.4896907653889
 51
20.10492163730517
  0
ARC
  5
343
330
1F
100
AcDbEntity
  8
SEPARATOR_BEARING
100
AcDbCircle
 10
7.19820649819052
 20
13.41767297409995
 30
0.0
 40
0.00500000016
100
AcDbArc
 50
128.5907305365728
 51
252.2059614084911
  0
ARC
  5
344
330
1F
100
AcDbEntity
  8
SEPARATOR_BEARING
100
AcDbCircle
 10
7.642543442253359
 20
14.80211539451487
 30
0.0
 40
1.459000046688003
100
AcDbArc
 50
252.2059614085194
 51
256.4896907653953
  0
CIRCLE
  5
345
330
1F
100
AcDbEntity
  8
SPLINE_STATIC
100
AcDbCircle
 10
7.64254344225335
 20
12.83361539451487
 30
0.0
 40
0.0985
  0
CIRCLE
  5
346
330
1F
100
AcDbEntity
  8
LINE_HIDDEN
100
AcDbCircle
 10
7.64254344225335
 20
12.83361539451487
 30
0.0
 40
0.118
  0
ARC
  5
347
330
1F
100
AcDbEntity
  8
SEPARATOR_BEARING
100
AcDbCircle
 10
7.696885072218009
 20
13.34913118174578
 30
0.0
 40
0.00500000016
100
AcDbArc
 50
272.1418646784263
 51
35.7570955503519
  0
ARC
  5
348
330
1F
100
AcDbEntity
  8
SEPARATOR_BEARING
100
AcDbCircle
 10
7.58820181228874
 20
13.34913118174578
 30
0.0
 40
0.00500000016
100
AcDbArc
 50
144.2429044496157
 51
267.8581353215347
  0
ARC
  5
349
330
1F
100
AcDbEntity
  8
SEPARATOR_BEARING
100
AcDbCircle
 10
7.642543442253376
 20
14.80211539451487
 30
0.0
 40
1.459000046688003
100
AcDbArc
 50
267.8581353215605
 51
272.1418646784392
  0
ARC
  5
34A
330
1F
100
AcDbEntity
  8
SEPARATOR_BEARING
100
AcDbCircle
 10
8.086880386316153
 20
13.41767297409993
 30
0.0
 40
0.00500000016
100
AcDbArc
 50
287.7940385914736
 51
51.4092694633941
  0
ARC
  5
34B
330
1F
100
AcDbEntity
  8
SEPARATOR_BEARING
100
AcDbCircle
 10
7.982227396484954
 20
13.3883505814922
 30
0.0
 40
0.00500000016
100
AcDbArc
 50
159.8950783626591
 51
283.5103092345777
  0
ARC
  5
34C
330
1F
100
AcDbEntity
  8
SEPARATOR_BEARING
100
AcDbCircle
 10
7.642543442253324
 20
14.80211539451486
 30
0.0
 40
1.459000046688003
100
AcDbArc
 50
283.5103092346045
 51
287.7940385914818
  0
ARC
  5
34D
330
1F
100
AcDbEntity
  8
SEPARATOR_BEARING
100
AcDbCircle
 10
6.940633621249352
 20
13.74011176604084
 30
0.0
 40
0.00500000016
100
AcDbArc
 50
56.53809665335916
 51
180.3897300999578
  0
ARC
  5
34E
330
1F
100
AcDbEntity
  8
SEPARATOR_BEARING
100
AcDbCircle
 10
6.934026708760105
 20
13.53242244987688
 30
0.0
 40
0.00500000016
100
AcDbArc
 50
240.8375168523426
 51
4.45274772426301
  0
ARC
  5
34F
330
1F
100
AcDbEntity
  8
SEPARATOR_BEARING
100
AcDbCircle
 10
6.841165622527173
 20
13.58889252737365
 30
0.0
 40
0.00500000016
100
AcDbArc
 50
112.9385566235294
 51
236.5537874954477
  0
ARC
  5
350
330
1F
100
AcDbEntity
  8
SEPARATOR_BEARING
100
AcDbCircle
 10
7.022530286925604
 20
13.69030930038946
 30
0.0
 40
0.00500000016
100
AcDbArc
 50
297.0015742478959
 51
60.85320769449768
  0
ARC
  5
351
330
1F
100
AcDbEntity
  8
SEPARATOR_BEARING
100
AcDbCircle
 10
7.09653473114678
 20
13.54507726557643
 30
0.0
 40
0.1580000050560003
100
AcDbArc
 50
117.0015742479097
 51
184.4527477242834
  0
ARC
  5
352
330
1F
100
AcDbEntity
  8
SEPARATOR_BEARING
100
AcDbCircle
 10
7.642543442253334
 20
14.80211539451488
 30
0.0
 40
1.459000046688003
100
AcDbArc
 50
236.5537874954794
 51
240.8375168523495
  0
ARC
  5
353
330
1F
100
AcDbEntity
  8
SEPARATOR_BEARING
100
AcDbCircle
 10
7.642543442253334
 20
14.80211539451488
 30
0.0
 40
1.268000040576001
100
AcDbArc
 50
236.5380966533674
 51
240.8532076944605
  0
ARC
  5
354
330
1F
100
AcDbEntity
  8
SEPARATOR_BEARING
100
AcDbCircle
 10
6.777637386877485
 20
13.73900303658487
 30
0.0
 40
0.1580000050560003
100
AcDbArc
 50
292.9385566235434
 51
0.3897300999191635
  0
ARC
  5
355
330
1F
100
AcDbEntity
  8
SEPARATOR_BEARING
100
AcDbCircle
 10
6.745560362257512
 20
13.89881563368518
 30
0.0
 40
0.00500000016
100
AcDbArc
 50
281.3494003348562
 51
45.20103378145333
  0
ARC
  5
356
330
1F
100
AcDbEntity
  8
BEARING_WAVE_GEN
100
AcDbCircle
 10
6.780792826700126
 20
13.74288159316251
 30
0.0
 40
0.1406250045000003
100
AcDbArc
 50
257.5382973108121
 51
24.56681388806314
  0
ARC
  5
357
330
1F
100
AcDbEntity
  8
SEPARATOR_BEARING
100
AcDbCircle
 10
7.253187491368771
 20
13.59012073808085
 30
0.0
 40
0.00500000016
100
AcDbArc
 50
72.19027056640431
 51
196.0419040129994
  0
ARC
  5
358
330
1F
100
AcDbEntity
  8
SEPARATOR_BEARING
100
AcDbCircle
 10
7.345483750952972
 20
13.56426053892057
 30
0.0
 40
0.00500000016
100
AcDbArc
 50
312.6537481609398
 51
76.50538160754344
  0
ARC
  5
359
330
1F
100
AcDbEntity
  8
SEPARATOR_BEARING
100
AcDbCircle
 10
7.642543442253359
 20
14.80211539451487
 30
0.0
 40
1.268000040576001
100
AcDbArc
 50
252.1902705664043
 51
256.5053816075038
  0
CIRCLE
  5
35A
330
1F
100
AcDbEntity
  8
WAVE_GENERATOR
100
AcDbCircle
 10
6.830644626205442
 20
14.33336539451487
 30
0.0
 40
0.06425
  0
ARC
  5
35B
330
1F
100
AcDbEntity
  8
SEPARATOR_BEARING
100
AcDbCircle
 10
7.59461811118034
 20
13.53001780928196
 30
0.0
 40
0.00500000016
100
AcDbArc
 50
87.84244447944166
 51
211.6940779260456
  0
ARC
  5
35C
330
1F
100
AcDbEntity
  8
SEPARATOR_BEARING
100
AcDbCircle
 10
7.690468773326429
 20
13.53001780928196
 30
0.0
 40
0.00500000016
100
AcDbArc
 50
328.3059220739843
 51
92.15755552058423
  0
ARC
  5
35D
330
1F
100
AcDbEntity
  8
SEPARATOR_BEARING
100
AcDbCircle
 10
7.642543442253376
 20
14.80211539451487
 30
0.0
 40
1.268000040576001
100
AcDbArc
 50
267.842444479448
 51
272.1575555205518
  0
ARC
  5
35E
330
1F
100
AcDbEntity
  8
SEPARATOR_BEARING
100
AcDbCircle
 10
7.939603133553712
 20
13.56426053892056
 30
0.0
 40
0.00500000016
100
AcDbArc
 50
103.4946183924897
 51
227.3462518390866
  0
ARC
  5
35F
330
1F
100
AcDbEntity
  8
SEPARATOR_BEARING
100
AcDbCircle
 10
7.642543442253324
 20
14.80211539451486
 30
0.0
 40
1.268000040576001
100
AcDbArc
 50
283.4946183924898
 51
287.8097294335887
  0
ARC
  5
360
330
1F
100
AcDbEntity
  8
SEPARATOR_BEARING
100
AcDbCircle
 10
8.031899393137912
 20
13.59012073808083
 30
0.0
 40
0.00500000016
100
AcDbArc
 50
343.9580959870247
 51
107.8097294336294
  0
LINE
  5
361
330
1F
100
AcDbEntity
  8
LINE_CENTER
100
AcDbLine
 10
7.46254344225335
 20
14.80211539451487
 30
0.0
 11
5.387193442253351
 21
14.80211539451487
 31
0.0
  0
ARC
  5
362
330
1F
100
AcDbEntity
  8
SEPARATOR_BEARING
100
AcDbCircle
 10
7.642543442253352
 20
14.80211539451488
 30
0.0
 40
1.459000046688003
100
AcDbArc
 50
126.9885701041684
 51
131.2722994610435
  0
ARC
  5
363
330
1F
100
AcDbEntity
  8
SEPARATOR_BEARING
100
AcDbCircle
 10
6.640932721158637
 20
15.7375545072301
 30
0.0
 40
0.1580000050560003
100
AcDbArc
 50
7.436356856603892
 51
74.88753033297611
  0
ARC
  5
364
330
1F
100
AcDbEntity
  8
BEARING_WAVE_GEN
100
AcDbCircle
 10
6.644586901096959
 20
15.73414174140479
 30
0.0
 40
0.1406250045000003
100
AcDbArc
 50
343.2592730684583
 51
110.2877896457072
  0
ARC
  5
365
330
1F
100
AcDbEntity
  8
BEARING_WAVE_GEN
100
AcDbCircle
 10
6.430136137727864
 20
15.43033422363977
 30
0.0
 40
0.1406250045000003
100
AcDbArc
 50
179.2774277455969
 51
306.305944322849
  0
ARC
  5
366
330
1F
100
AcDbEntity
  8
SEPARATOR_BEARING
100
AcDbCircle
 10
7.642543442253352
 20
14.80211539451487
 30
0.0
 40
1.268000040576001
100
AcDbArc
 50
173.9294010011894
 51
178.2445120422889
  0
ARC
  5
367
330
1F
100
AcDbEntity
  8
SEPARATOR_BEARING
100
AcDbCircle
 10
7.642543442253352
 20
14.80211539451487
 30
0.0
 40
1.459000046688003
100
AcDbArc
 50
173.9450918433034
 51
178.2288212001756
  0
ARC
  5
368
330
1F
100
AcDbEntity
  8
BEARING_WAVE_GEN
100
AcDbCircle
 10
6.280226694329538
 20
14.70893037608349
 30
0.0
 40
0.1406250045000003
100
AcDbArc
 50
30.21579480758901
 51
157.2443113848365
  0
ARC
  5
369
330
1F
100
AcDbEntity
  8
SEPARATOR_BEARING
100
AcDbCircle
 10
6.351174807165698
 20
14.34316287134805
 30
0.0
 40
0.1580000050560003
100
AcDbArc
 50
70.04505250877783
 51
137.4962259851535
  0
ARC
  5
36A
330
1F
100
AcDbEntity
  8
SEPARATOR_BEARING
100
AcDbCircle
 10
6.275238350323942
 20
14.70858916400575
 30
0.0
 40
0.1580000050560003
100
AcDbArc
 50
245.9820348844113
 51
313.4332083607862
  0
ARC
  5
36B
330
1F
100
AcDbEntity
  8
BEARING_WAVE_GEN
100
AcDbCircle
 10
6.280226694329538
 20
14.70893037608349
 30
0.0
 40
0.1406250045000003
100
AcDbArc
 50
210.5817755716825
 51
337.6102921489333
  0
ARC
  5
36C
330
1F
100
AcDbEntity
  8
SEPARATOR_BEARING
100
AcDbCircle
 10
6.189238067071776
 20
14.84705559669238
 30
0.0
 40
0.00500000016
100
AcDbArc
 50
178.2288212001678
 51
301.8440520720898
  0
ARC
  5
36D
330
1F
100
AcDbEntity
  8
SEPARATOR_BEARING
100
AcDbCircle
 10
6.370140869850049
 20
14.84111279770184
 30
0.0
 40
0.00500000016
100
AcDbArc
 50
234.3928785957234
 51
358.2445120423252
  0
ARC
  5
36E
330
1F
100
AcDbEntity
  8
SEPARATOR_BEARING
100
AcDbCircle
 10
6.275238350323959
 20
14.70858916400575
 30
0.0
 40
0.1580000050560003
100
AcDbArc
 50
54.39287859573284
 51
121.844052072106
  0
ARC
  5
36F
330
1F
100
AcDbEntity
  8
SEPARATOR_BEARING
100
AcDbCircle
 10
7.642543442253343
 20
14.80211539451487
 30
0.0
 40
1.459000046688003
100
AcDbArc
 50
189.5972657563453
 51
193.8809951132189
  0
ARC
  5
370
330
1F
100
AcDbEntity
  8
SEPARATOR_BEARING
100
AcDbCircle
 10
6.231005851252887
 20
14.45329199435936
 30
0.0
 40
0.00500000016
100
AcDbArc
 50
193.8809951132111
 51
317.4962259851334
  0
ARC
  5
371
330
1F
100
AcDbEntity
  8
SEPARATOR_BEARING
100
AcDbCircle
 10
6.208893588502113
 20
14.55970204475354
 30
0.0
 40
0.00500000016
100
AcDbArc
 50
65.98203488439745
 51
189.5972657563165
  0
ARC
  5
372
330
1F
100
AcDbEntity
  8
SEPARATOR_BEARING
100
AcDbCircle
 10
6.406803635357042
 20
14.49637656255897
 30
0.0
 40
0.00500000016
100
AcDbArc
 50
250.0450525087658
 51
13.89668595536844
  0
ARC
  5
373
330
1F
100
AcDbEntity
  8
SEPARATOR_BEARING
100
AcDbCircle
 10
6.387302241788347
 20
14.59022242066002
 30
0.0
 40
0.00500000016
100
AcDbArc
 50
9.581574914227052
 51
133.4332083608282
  0
ARC
  5
374
330
1F
100
AcDbEntity
  8
SEPARATOR_BEARING
100
AcDbCircle
 10
7.642543442253343
 20
14.80211539451487
 30
0.0
 40
1.268000040576001
100
AcDbArc
 50
189.5815749142324
 51
193.8966859553335
  0
ARC
  5
375
330
1F
100
AcDbEntity
  8
SEPARATOR_BEARING
100
AcDbCircle
 10
6.425696711493805
 20
15.43263454890203
 30
0.0
 40
0.1580000050560003
100
AcDbArc
 50
214.6776870583248
 51
282.1288605346992
  0
ARC
  5
376
330
1F
100
AcDbEntity
  8
SEPARATOR_BEARING
100
AcDbCircle
 10
6.376681950357506
 20
14.93674000983123
 30
0.0
 40
0.00500000016
100
AcDbArc
 50
353.9294010011844
 51
117.7810344477843
  0
ARC
  5
377
330
1F
100
AcDbEntity
  8
BEARING_WAVE_GEN
100
AcDbCircle
 10
6.305604077741078
 20
15.07993458922847
 30
0.0
 40
0.1406250045000003
100
AcDbArc
 50
194.9296016586391
 51
321.958118235892
  0
ARC
  5
378
330
1F
100
AcDbEntity
  8
SEPARATOR_BEARING
100
AcDbCircle
 10
6.300708657146016
 20
15.08095186932628
 30
0.0
 40
0.1580000050560003
100
AcDbArc
 50
38.74070468268835
 51
106.1918781590627
  0
ARC
  5
379
330
1F
100
AcDbEntity
  8
BEARING_WAVE_GEN
100
AcDbCircle
 10
6.305604077741078
 20
15.07993458922847
 30
0.0
 40
0.1406250045000003
100
AcDbArc
 50
14.56362089454364
 51
141.5921374717964
  0
ARC
  5
37A
330
1F
100
AcDbEntity
  8
SEPARATOR_BEARING
100
AcDbCircle
 10
7.642543442253352
 20
14.80211539451487
 30
0.0
 40
1.459000046688003
100
AcDbArc
 50
158.29291793026
 51
162.576647287133
  0
ARC
  5
37B
330
1F
100
AcDbEntity
  8
SEPARATOR_BEARING
100
AcDbCircle
 10
6.255255294138167
 20
15.23748618981764
 30
0.0
 40
0.00500000016
100
AcDbArc
 50
162.5766472871251
 51
286.1918781590426
  0
ARC
  5
37C
330
1F
100
AcDbEntity
  8
SEPARATOR_BEARING
100
AcDbCircle
 10
6.291651102072755
 20
15.33989417853748
 30
0.0
 40
0.00500000016
100
AcDbArc
 50
34.67768705831261
 51
158.2929179302294
  0
ARC
  5
37D
330
1F
100
AcDbEntity
  8
SEPARATOR_BEARING
100
AcDbCircle
 10
6.196654875021689
 20
14.95548549085762
 30
0.0
 40
0.00500000016
100
AcDbArc
 50
50.32986097135712
 51
173.9450918432723
  0
ARC
  5
37E
330
1F
100
AcDbEntity
  8
SEPARATOR_BEARING
100
AcDbCircle
 10
6.300708657146025
 20
15.08095186932627
 30
0.0
 40
0.1580000050560003
100
AcDbArc
 50
230.3298609713653
 51
297.7810344477403
  0
ARC
  5
37F
330
1F
100
AcDbEntity
  8
SEPARATOR_BEARING
100
AcDbCircle
 10
6.459944814849577
 20
15.27327310715106
 30
0.0
 40
0.00500000016
100
AcDbArc
 50
338.2772270881382
 51
102.1288605347393
  0
ARC
  5
380
330
1F
100
AcDbEntity
  8
SEPARATOR_BEARING
100
AcDbCircle
 10
6.427846382283763
 20
15.18295677385158
 30
0.0
 40
0.00500000016
100
AcDbArc
 50
218.740704682678
 51
342.5923381292806
  0
ARC
  5
381
330
1F
100
AcDbEntity
  8
SEPARATOR_BEARING
100
AcDbCircle
 10
7.642543442253352
 20
14.80211539451487
 30
0.0
 40
1.268000040576001
100
AcDbArc
 50
158.2772270881469
 51
162.592338129243
  0
CIRCLE
  5
382
330
1F
100
AcDbEntity
  8
SPLINE_STATIC
100
AcDbCircle
 10
5.937772434903685
 20
15.78636539451487
 30
0.0
 40
0.0985
  0
CIRCLE
  5
383
330
1F
100
AcDbEntity
  8
LINE_HIDDEN
100
AcDbCircle
 10
5.937772434903685
 20
15.78636539451487
 30
0.0
 40
0.118
  0
ARC
  5
384
330
1F
100
AcDbEntity
  8
BEARING_WAVE_GEN
100
AcDbCircle
 10
6.430136137727864
 20
15.43033422363977
 30
0.0
 40
0.1406250045000003
100
AcDbArc
 50
358.9114469815007
 51
125.9399635587534
  0
ARC
  5
385
330
1F
100
AcDbEntity
  8
SEPARATOR_BEARING
100
AcDbCircle
 10
6.640932721158632
 20
15.73755450723009
 30
0.0
 40
0.1580000050560003
100
AcDbArc
 50
199.0255131452816
 51
266.4766866216559
  0
ARC
  5
386
330
1F
100
AcDbEntity
  8
SEPARATOR_BEARING
100
AcDbCircle
 10
6.630915609507437
 20
15.57486259232777
 30
0.0
 40
0.00500000016
100
AcDbArc
 50
322.6250531750955
 51
86.47668662169605
  0
ARC
  5
387
330
1F
100
AcDbEntity
  8
SEPARATOR_BEARING
100
AcDbCircle
 10
6.575640418786101
 20
15.4965554871293
 30
0.0
 40
0.00500000016
100
AcDbArc
 50
203.088530769636
 51
326.940164216236
  0
ARC
  5
388
330
1F
100
AcDbEntity
  8
SEPARATOR_BEARING
100
AcDbCircle
 10
7.642543442253343
 20
14.80211539451487
 30
0.0
 40
1.268000040576001
100
AcDbArc
 50
142.625053175104
 51
146.9401642161994
  0
ARC
  5
389
330
1F
100
AcDbEntity
  8
SEPARATOR_BEARING
100
AcDbCircle
 10
6.486836834073769
 20
15.6844182739806
 30
0.0
 40
0.00500000016
100
AcDbArc
 50
19.02551314526828
 51
142.6407440171848
  0
ARC
  5
38A
330
1F
100
AcDbEntity
  8
SEPARATOR_BEARING
100
AcDbCircle
 10
6.424161336729261
 20
15.59562732274415
 30
0.0
 40
0.00500000016
100
AcDbArc
 50
146.9244733740825
 51
270.5397042459998
  0
ARC
  5
38B
330
1F
100
AcDbEntity
  8
SEPARATOR_BEARING
100
AcDbCircle
 10
7.642543442253343
 20
14.80211539451487
 30
0.0
 40
1.459000046688003
100
AcDbArc
 50
142.6407440172143
 51
146.9244733740885
  0
ARC
  5
38C
330
1F
100
AcDbEntity
  8
SEPARATOR_BEARING
100
AcDbCircle
 10
6.425696711493792
 20
15.43263454890203
 30
0.0
 40
0.1580000050560003
100
AcDbArc
 50
23.08853076964486
 51
90.53970424602059
  0
ARC
  5
38D
330
1F
100
AcDbEntity
  8
BEARING_WAVE_GEN
100
AcDbCircle
 10
6.644586901096959
 20
15.73414174140479
 30
0.0
 40
0.1406250045000003
100
AcDbArc
 50
163.6252538325529
 51
290.6537704098028
  0
ARC
  5
38E
330
1F
100
AcDbEntity
  8
SEPARATOR_BEARING
100
AcDbCircle
 10
6.683429206359852
 20
15.89491730602943
 30
0.0
 40
0.00500000016
100
AcDbArc
 50
131.2722994610397
 51
254.8875303329559
  0
ARC
  5
38F
330
1F
100
AcDbEntity
  8
WAVE_GENERATOR
100
AcDbCircle
 10
7.642543442253352
 20
14.80211539451487
 30
0.0
 40
0.2756
100
AcDbArc
 50
110.9184733205123
 51
69.08152667948764
  0
LINE
  5
390
330
1F
100
AcDbEntity
  8
LINE_CENTER
100
AcDbLine
 10
7.642543442253352
 20
14.71211539451487
 30
0.0
 11
7.642543442253352
 21
14.89211539451487
 31
0.0
  0
LINE
  5
391
330
1F
100
AcDbEntity
  8
LINE_CENTER
100
AcDbLine
 10
7.552543442253351
 20
14.80211539451487
 30
0.0
 11
7.73254344225335
 21
14.80211539451487
 31
0.0
  0
LINE
  5
392
330
1F
100
AcDbEntity
  8
WAVE_GENERATOR
100
AcDbLine
 10
7.544143442253351
 20
15.16821539451487
 30
0.0
 11
7.544143442253351
 21
15.05955043486486
 31
0.0
  0
LINE
  5
393
330
1F
100
AcDbEntity
  8
WAVE_GENERATOR
100
AcDbLine
 10
7.74094344225335
 20
15.16821539451487
 30
0.0
 11
7.74094344225335
 21
15.05955043486486
 31
0.0
  0
LINE
  5
394
330
1F
100
AcDbEntity
  8
WAVE_GENERATOR
100
AcDbLine
 10
7.544143442253351
 20
15.16821539451487
 30
0.0
 11
7.74094344225335
 21
15.16821539451487
 31
0.0
  0
ARC
  5
395
330
1F
100
AcDbEntity
  8
SEPARATOR_BEARING
100
AcDbCircle
 10
7.642543442253359
 20
14.80211539451487
 30
0.0
 40
1.268000040576001
100
AcDbArc
 50
95.66853143597167
 51
99.98364247707122
  0
ARC
  5
396
330
1F
100
AcDbEntity
  8
SEPARATOR_BEARING
100
AcDbCircle
 10
7.642543442253359
 20
14.80211539451487
 30
0.0
 40
1.459000046688003
100
AcDbArc
 50
95.68422227808753
 51
99.96795163496106
  0
ARC
  5
397
330
1F
100
AcDbEntity
  8
SEPARATOR_BEARING
100
AcDbCircle
 10
6.930453615942915
 20
15.97309722591726
 30
0.0
 40
0.1580000050560003
100
AcDbArc
 50
183.3733392322368
 51
250.8245127086111
  0
ARC
  5
398
330
1F
100
AcDbEntity
  8
BEARING_WAVE_GEN
100
AcDbCircle
 10
6.933051535776228
 20
15.96882512875781
 30
0.0
 40
0.1406250045000003
100
AcDbArc
 50
147.9730799195093
 51
275.0015964967579
  0
ARC
  5
399
330
1F
100
AcDbEntity
  8
SEPARATOR_BEARING
100
AcDbCircle
 10
6.876914212630686
 20
15.81914095292591
 30
0.0
 40
0.00500000016
100
AcDbArc
 50
306.9728792620529
 51
70.82451270865195
  0
ARC
  5
39A
330
1F
100
AcDbEntity
  8
SEPARATOR_BEARING
100
AcDbCircle
 10
6.802561771782473
 20
15.75865075558984
 30
0.0
 40
0.00500000016
100
AcDbArc
 50
187.4363568565909
 51
311.287990303195
  0
ARC
  5
39B
330
1F
100
AcDbEntity
  8
SEPARATOR_BEARING
100
AcDbCircle
 10
7.642543442253352
 20
14.80211539451488
 30
0.0
 40
1.268000040576001
100
AcDbArc
 50
126.9728792620612
 51
131.2879903031602
  0
ARC
  5
39C
330
1F
100
AcDbEntity
  8
SEPARATOR_BEARING
100
AcDbCircle
 10
7.272786955550444
 20
16.12179357905473
 30
0.0
 40
0.1580000050560003
100
AcDbArc
 50
167.721165319193
 51
235.172338795569
  0
ARC
  5
39D
330
1F
100
AcDbEntity
  8
SEPARATOR_BEARING
100
AcDbCircle
 10
7.642543442253359
 20
14.80211539451487
 30
0.0
 40
1.268000040576001
100
AcDbArc
 50
111.3207053490177
 51
115.635816390112
  0
ARC
  5
39E
330
1F
100
AcDbEntity
  8
SEPARATOR_BEARING
100
AcDbCircle
 10
6.930453615942925
 20
15.97309722591726
 30
0.0
 40
0.1580000050560003
100
AcDbArc
 50
351.7841829435603
 51
59.23535641993253
  0
ARC
  5
39F
330
1F
100
AcDbEntity
  8
SEPARATOR_BEARING
100
AcDbCircle
 10
7.642543442253359
 20
14.80211539451487
 30
0.0
 40
1.459000046688003
100
AcDbArc
 50
111.3363961911298
 51
115.6201255479986
  0
ARC
  5
3A0
330
1F
100
AcDbEntity
  8
BEARING_WAVE_GEN
100
AcDbCircle
 10
6.933051535776228
 20
15.96882512875781
 30
0.0
 40
0.1406250045000003
100
AcDbArc
 50
327.6070991554135
 51
94.63561573266723
  0
ARC
  5
3A1
330
1F
100
AcDbEntity
  8
SEPARATOR_BEARING
100
AcDbCircle
 10
7.013830191210974
 20
16.11315917077375
 30
0.0
 40
0.00500000016
100
AcDbArc
 50
115.6201255479964
 51
239.235356419915
  0
ARC
  5
3A2
330
1F
100
AcDbEntity
  8
SEPARATOR_BEARING
100
AcDbCircle
 10
7.091780722617205
 20
15.94980417217755
 30
0.0
 40
0.00500000016
100
AcDbArc
 50
171.7841829435498
 51
295.6358163901476
  0
ARC
  5
3A3
330
1F
100
AcDbEntity
  8
SEPARATOR_BEARING
100
AcDbCircle
 10
6.76773603819755
 20
15.96350600112085
 30
0.0
 40
0.00500000016
100
AcDbArc
 50
3.373339232226466
 51
126.9885701041436
  0
ARC
  5
3A4
330
1F
100
AcDbEntity
  8
SEPARATOR_BEARING
100
AcDbCircle
 10
7.421847224795559
 20
16.05583876245282
 30
0.0
 40
0.00500000016
100
AcDbArc
 50
156.1320090305054
 51
279.9836424771039
  0
ARC
  5
3A5
330
1F
100
AcDbEntity
  8
SEPARATOR_BEARING
100
AcDbCircle
 10
7.39085996172017
 20
16.23416691625916
 30
0.0
 40
0.00500000016
100
AcDbArc
 50
99.96795163495425
 51
223.5831825068725
  0
ARC
  5
3A6
330
1F
100
AcDbEntity
  8
SEPARATOR_BEARING
100
AcDbCircle
 10
7.179696033194382
 20
15.98799118043904
 30
0.0
 40
0.00500000016
100
AcDbArc
 50
291.3207053490117
 51
55.17233879560881
  0
ARC
  5
3A7
330
1F
100
AcDbEntity
  8
SEPARATOR_BEARING
100
AcDbCircle
 10
7.113515705502551
 20
16.15645869997762
 30
0.0
 40
0.00500000016
100
AcDbArc
 50
347.7211653191825
 51
111.3363961911026
  0
ARC
  5
3A8
330
1F
100
AcDbEntity
  8
BEARING_WAVE_GEN
100
AcDbCircle
 10
7.274135939449397
 20
16.11697899246393
 30
0.0
 40
0.1406250045000003
100
AcDbArc
 50
132.3209060064644
 51
259.3494225837165
  0
ARC
  5
3A9
330
1F
100
AcDbEntity
  8
SEPARATOR_BEARING
100
AcDbCircle
 10
7.272786955550444
 20
16.12179357905473
 30
0.0
 40
0.1580000050560003
100
AcDbArc
 50
336.132009030517
 51
43.58318250689188
  0
ARC
  5
3AA
330
1F
100
AcDbEntity
  8
BEARING_WAVE_GEN
100
AcDbCircle
 10
7.274135939449397
 20
16.11697899246393
 30
0.0
 40
0.1406250045000003
100
AcDbArc
 50
311.9549252423711
 51
78.98344181961779
  0
CIRCLE
  5
3AB
330
1F
100
AcDbEntity
  8
WAVE_GENERATOR
100
AcDbCircle
 10
7.642543442253352
 20
15.73961539451487
 30
0.0
 40
0.06425
  0
ARC
  5
3AC
330
1F
100
AcDbEntity
  8
SEPARATOR_BEARING
100
AcDbCircle
 10
7.642543442253352
 20
14.80211539451487
 30
0.0
 40
1.459000046688003
100
AcDbArc
 50
80.03204836503892
 51
84.31577772191245
  0
ARC
  5
3AD
330
1F
100
AcDbEntity
  8
SEPARATOR_BEARING
100
AcDbCircle
 10
7.642543442253352
 20
14.80211539451487
 30
0.0
 40
1.268000040576001
100
AcDbArc
 50
80.01635752292875
 51
84.33146856402833
  0
ARC
  5
3AE
330
1F
100
AcDbEntity
  8
SEPARATOR_BEARING
100
AcDbCircle
 10
7.786555944605199
 20
16.24896595157658
 30
0.0
 40
0.00500000016
100
AcDbArc
 50
84.31577772190605
 51
207.9310085938264
  0
ARC
  5
3AF
330
1F
100
AcDbEntity
  8
SEPARATOR_BEARING
100
AcDbCircle
 10
7.498530939901511
 20
16.24896595157658
 30
0.0
 40
0.00500000016
100
AcDbArc
 50
332.0689914061375
 51
95.68422227805513
  0
ARC
  5
3B0
330
1F
100
AcDbEntity
  8
SEPARATOR_BEARING
100
AcDbCircle
 10
7.76828175580474
 20
16.06889042593091
 30
0.0
 40
0.00500000016
100
AcDbArc
 50
140.4798351174617
 51
264.331468564061
  0
ARC
  5
3B1
330
1F
100
AcDbEntity
  8
SEPARATOR_BEARING
100
AcDbCircle
 10
7.516805128701966
 20
16.06889042593091
 30
0.0
 40
0.00500000016
100
AcDbArc
 50
275.6685314359649
 51
39.52016488256759
  0
ARC
  5
3B2
330
1F
100
AcDbEntity
  8
SEPARATOR_BEARING
100
AcDbCircle
 10
7.642543442253352
 20
16.17261543837087
 30
0.0
 40
0.1580000050560003
100
AcDbArc
 50
152.0689914061495
 51
219.5201648825272
  0
ARC
  5
3B3
330
1F
100
AcDbEntity
  8
SEPARATOR_BEARING
100
AcDbCircle
 10
7.642543442253352
 20
16.17261543837087
 30
0.0
 40
0.1580000050560003
100
AcDbArc
 50
320.4798351174719
 51
27.93100859385034
  0
ARC
  5
3B4
330
1F
100
AcDbEntity
  8
BEARING_WAVE_GEN
100
AcDbCircle
 10
7.642543442253352
 20
16.16761543821088
 30
0.0
 40
0.1406250045000003
100
AcDbArc
 50
116.6687320934224
 51
243.6972486706729
  0
ARC
  5
3B5
330
1F
100
AcDbEntity
  8
BEARING_WAVE_GEN
100
AcDbCircle
 10
7.642543442253352
 20
16.16761543821088
 30
0.0
 40
0.1406250045000003
100
AcDbArc
 50
296.3027513293268
 51
63.33126790657752
  0
ARC
  5
3B6
330
1F
100
AcDbEntity
  8
SEPARATOR_BEARING
100
AcDbCircle
 10
8.105390851312332
 20
15.98799118043904
 30
0.0
 40
0.00500000016
100
AcDbArc
 50
124.8276612044169
 51
248.679294651017
  0
ARC
  5
3B7
330
1F
100
AcDbEntity
  8
SEPARATOR_BEARING
100
AcDbCircle
 10
8.171571179004153
 20
16.15645869997762
 30
0.0
 40
0.00500000016
100
AcDbArc
 50
68.66360380886232
 51
192.278834680783
  0
ARC
  5
3B8
330
1F
100
AcDbEntity
  8
SEPARATOR_BEARING
100
AcDbCircle
 10
7.894226922786539
 20
16.23416691625916
 30
0.0
 40
0.00500000016
100
AcDbArc
 50
316.4168174930971
 51
80.032048365013
  0
ARC
  5
3B9
330
1F
100
AcDbEntity
  8
SEPARATOR_BEARING
100
AcDbCircle
 10
7.863239659711146
 20
16.05583876245282
 30
0.0
 40
0.00500000016
100
AcDbArc
 50
260.0163575229224
 51
23.86799096952285
  0
ARC
  5
3BA
330
1F
100
AcDbEntity
  8
SEPARATOR_BEARING
100
AcDbCircle
 10
8.012299928956258
 20
16.12179357905473
 30
0.0
 40
0.1580000050560003
100
AcDbArc
 50
136.4168174931081
 51
203.8679909694805
  0
ARC
  5
3BB
330
1F
100
AcDbEntity
  8
BEARING_WAVE_GEN
100
AcDbCircle
 10
8.010950945057304
 20
16.11697899246393
 30
0.0
 40
0.1406250045000003
100
AcDbArc
 50
101.0165581803819
 51
228.0450747576288
  0
ARC
  5
3BC
330
1F
100
AcDbEntity
  8
BEARING_WAVE_GEN
100
AcDbCircle
 10
8.929200772579633
 20
14.34483726946248
 30
0.0
 40
0.1406250045000003
100
AcDbArc
 50
7.10351470211799
 51
134.1320312793664
  0
ARC
  5
3BD
330
1F
100
AcDbEntity
  8
BEARING_WAVE_GEN
100
AcDbCircle
 10
8.186560147846899
 20
13.54966332223069
 30
0.0
 40
0.1406250045000003
100
AcDbArc
 50
320.1469929629859
 51
87.17550954023581
  0
ARC
  5
3BE
330
1F
100
AcDbEntity
  8
SEPARATOR_BEARING
100
AcDbCircle
 10
8.76220071645319
 20
14.01177498776555
 30
0.0
 40
0.1580000050560003
100
AcDbArc
 50
26.85160010180173
 51
94.30277357818063
  0
ARC
  5
3BF
330
1F
100
AcDbEntity
  8
BEARING_WAVE_GEN
100
AcDbCircle
 10
8.758115866857423
 20
14.0146583894684
 30
0.0
 40
0.1406250045000003
100
AcDbArc
 50
351.451340789075
 51
118.479857366325
  0
ARC
  5
3C0
330
1F
100
AcDbEntity
  8
SEPARATOR_BEARING
100
AcDbCircle
 10
8.933912077340986
 20
14.34316287134805
 30
0.0
 40
0.1580000050560003
100
AcDbArc
 50
210.9146177261687
 51
278.3657912025458
  0
ARC
  5
3C1
330
1F
100
AcDbEntity
  8
BEARING_WAVE_GEN
100
AcDbCircle
 10
8.929200772579633
 20
14.34483726946248
 30
0.0
 40
0.1406250045000003
100
AcDbArc
 50
186.7375339380235
 51
313.7660505152711
  0
ARC
  5
3C2
330
1F
100
AcDbEntity
  8
SEPARATOR_BEARING
100
AcDbCircle
 10
8.604949692976614
 20
13.96886674478141
 30
0.0
 40
0.00500000016
100
AcDbArc
 50
15.26244381311521
 51
139.1140772597134
  0
ARC
  5
3C3
330
1F
100
AcDbEntity
  8
SEPARATOR_BEARING
100
AcDbCircle
 10
7.642543442253343
 20
14.80211539451487
 30
0.0
 40
1.268000040576001
100
AcDbArc
 50
314.7989662185841
 51
319.1140772596803
  0
ARC
  5
3C4
330
1F
100
AcDbEntity
  8
BEARING_WAVE_GEN
100
AcDbCircle
 10
8.758115866857423
 20
14.0146583894684
 30
0.0
 40
0.1406250045000003
100
AcDbArc
 50
171.0853600249784
 51
298.1138766022306
  0
ARC
  5
3C5
330
1F
100
AcDbEntity
  8
SEPARATOR_BEARING
100
AcDbCircle
 10
8.539526522249214
 20
13.89881563368517
 30
0.0
 40
0.00500000016
100
AcDbArc
 50
134.7989662185758
 51
258.6505996651769
  0
ARC
  5
3C6
330
1F
100
AcDbEntity
  8
BEARING_WAVE_GEN
100
AcDbCircle
 10
8.504294057806628
 20
13.74288159316252
 30
0.0
 40
0.1406250045000003
100
AcDbArc
 50
335.7991668760311
 51
102.8276834532825
  0
ARC
  5
3C7
330
1F
100
AcDbEntity
  8
SEPARATOR_BEARING
100
AcDbCircle
 10
8.344453263257364
 20
13.74011176604085
 30
0.0
 40
0.00500000016
100
AcDbArc
 50
359.6102699000705
 51
123.4619033466709
  0
ARC
  5
3C8
330
1F
100
AcDbEntity
  8
SEPARATOR_BEARING
100
AcDbCircle
 10
8.443921261979545
 20
13.58889252737367
 30
0.0
 40
0.00500000016
100
AcDbArc
 50
303.4462125045195
 51
67.06144337643568
  0
ARC
  5
3C9
330
1F
100
AcDbEntity
  8
SEPARATOR_BEARING
100
AcDbCircle
 10
8.351060175746603
 20
13.53242244987689
 30
0.0
 40
0.00500000016
100
AcDbArc
 50
175.5472522757058
 51
299.1624831476201
  0
ARC
  5
3CA
330
1F
100
AcDbEntity
  8
SEPARATOR_BEARING
100
AcDbCircle
 10
7.642543442253376
 20
14.80211539451489
 30
0.0
 40
1.459000046688003
100
AcDbArc
 50
299.1624831476501
 51
303.4462125045203
  0
ARC
  5
3CB
330
1F
100
AcDbEntity
  8
SEPARATOR_BEARING
100
AcDbCircle
 10
8.262556597581106
 20
13.69030930038948
 30
0.0
 40
0.00500000016
100
AcDbArc
 50
119.1467923055324
 51
242.9984257521329
  0
ARC
  5
3CC
330
1F
100
AcDbEntity
  8
SEPARATOR_BEARING
100
AcDbCircle
 10
8.188552153359939
 20
13.54507726557645
 30
0.0
 40
0.1580000050560003
100
AcDbArc
 50
355.5472522757161
 51
62.99842575209023
  0
ARC
  5
3CD
330
1F
100
AcDbEntity
  8
SEPARATOR_BEARING
100
AcDbCircle
 10
7.642543442253376
 20
14.80211539451489
 30
0.0
 40
1.268000040576001
100
AcDbArc
 50
299.1467923055393
 51
303.4619033466396
  0
ARC
  5
3CE
330
1F
100
AcDbEntity
  8
SEPARATOR_BEARING
100
AcDbCircle
 10
8.507449497629231
 20
13.73900303658489
 30
0.0
 40
0.1580000050560003
100
AcDbArc
 50
179.6102699000806
 51
247.0614433764565
  0
ARC
  5
3CF
330
1F
100
AcDbEntity
  8
BEARING_WAVE_GEN
100
AcDbCircle
 10
8.504294057806628
 20
13.74288159316252
 30
0.0
 40
0.1406250045000003
100
AcDbArc
 50
155.4331861119367
 51
282.4617026891877
  0
ARC
  5
3D0
330
1F
100
AcDbEntity
  8
SEPARATOR_BEARING
100
AcDbCircle
 10
8.741527610813321
 20
13.8500912705779
 30
0.0
 40
0.00500000016
100
AcDbArc
 50
319.0983864175592
 51
82.71361728947661
  0
ARC
  5
3D1
330
1F
100
AcDbEntity
  8
SEPARATOR_BEARING
100
AcDbCircle
 10
8.667345510133351
 20
13.7706616355066
 30
0.0
 40
0.00500000016
100
AcDbArc
 50
191.1994261887473
 51
314.8146570606658
  0
ARC
  5
3D2
330
1F
100
AcDbEntity
  8
SEPARATOR_BEARING
100
AcDbCircle
 10
7.642543442253343
 20
14.80211539451487
 30
0.0
 40
1.459000046688003
100
AcDbArc
 50
314.8146570606944
 51
319.0983864175665
  0
ARC
  5
3D3
330
1F
100
AcDbEntity
  8
SEPARATOR_BEARING
100
AcDbCircle
 10
8.76220071645319
 20
14.01177498776555
 30
0.0
 40
0.1580000050560003
100
AcDbArc
 50
195.2624438131233
 51
262.7136172895026
  0
ARC
  5
3D4
330
1F
100
AcDbEntity
  8
SEPARATOR_BEARING
100
AcDbCircle
 10
8.507449497629199
 20
13.73900303658487
 30
0.0
 40
0.1580000050560003
100
AcDbArc
 50
11.1994261887604
 51
78.65059966513742
  0
CIRCLE
  5
3D5
330
1F
100
AcDbEntity
  8
WAVE_GENERATOR
100
AcDbCircle
 10
8.454442258301263
 20
14.33336539451487
 30
0.0
 40
0.06425
  0
ARC
  5
3D6
330
1F
100
AcDbEntity
  8
SEPARATOR_BEARING
100
AcDbCircle
 10
8.794068853795403
 20
14.25941996401377
 30
0.0
 40
0.00500000016
100
AcDbArc
 50
30.91461772615738
 51
154.7662511727595
  0
ARC
  5
3D7
330
1F
100
AcDbEntity
  8
SEPARATOR_BEARING
100
AcDbCircle
 10
8.749971315298601
 20
14.17431557792018
 30
0.0
 40
0.00500000016
100
AcDbArc
 50
150.4511401316187
 51
274.3027735782195
  0
ARC
  5
3D8
330
1F
100
AcDbEntity
  8
SEPARATOR_BEARING
100
AcDbCircle
 10
7.642543442253343
 20
14.80211539451486
 30
0.0
 40
1.268000040576001
100
AcDbArc
 50
330.4511401316251
 51
334.766251172725
  0
CIRCLE
  5
3D9
330
1F
100
AcDbEntity
  8
SPLINE_STATIC
100
AcDbCircle
 10
9.347314449603018
 20
13.81786539451487
 30
0.0
 40
0.0985
  0
CIRCLE
  5
3DA
330
1F
100
AcDbEntity
  8
LINE_HIDDEN
100
AcDbCircle
 10
9.347314449603018
 20
13.81786539451487
 30
0.0
 40
0.118
  0
ARC
  5
3DB
330
1F
100
AcDbEntity
  8
SEPARATOR_BEARING
100
AcDbCircle
 10
7.642543442253343
 20
14.80211539451486
 30
0.0
 40
1.459000046688003
100
AcDbArc
 50
330.4668309737357
 51
334.7505603306083
  0
ARC
  5
3DC
330
1F
100
AcDbEntity
  8
SEPARATOR_BEARING
100
AcDbCircle
 10
8.907625963302987
 20
14.08539902785499
 30
0.0
 40
0.00500000016
100
AcDbArc
 50
206.8516001017901
 51
330.4668309737081
  0
ARC
  5
3DD
330
1F
100
AcDbEntity
  8
SEPARATOR_BEARING
100
AcDbCircle
 10
8.957627331383088
 20
14.18189728783397
 30
0.0
 40
0.00500000016
100
AcDbArc
 50
334.7505603306024
 51
98.36579120252515
  0
ARC
  5
3DE
330
1F
100
AcDbEntity
  8
BEARING_WAVE_GEN
100
AcDbCircle
 10
8.854950746778833
 20
15.43033422363977
 30
0.0
 40
0.1406250045000003
100
AcDbArc
 50
233.6940556771509
 51
0.7225722544030598
  0
ARC
  5
3DF
330
1F
100
AcDbEntity
  8
SEPARATOR_BEARING
100
AcDbCircle
 10
8.859390173012897
 20
15.43263454890204
 30
0.0
 40
0.1580000050560003
100
AcDbArc
 50
257.8711394653004
 51
325.3223129416752
  0
ARC
  5
3E0
330
1F
100
AcDbEntity
  8
BEARING_WAVE_GEN
100
AcDbCircle
 10
9.004860190177172
 20
14.70893037608349
 30
0.0
 40
0.1406250045000003
100
AcDbArc
 50
22.75568861516343
 51
149.7842051924108
  0
ARC
  5
3E1
330
1F
100
AcDbEntity
  8
BEARING_WAVE_GEN
100
AcDbCircle
 10
8.979482806765622
 20
15.07993458922847
 30
0.0
 40
0.1406250045000003
100
AcDbArc
 50
218.0418817641079
 51
345.0703983413605
  0
ARC
  5
3E2
330
1F
100
AcDbEntity
  8
SEPARATOR_BEARING
100
AcDbCircle
 10
8.984378227360682
 20
15.08095186932628
 30
0.0
 40
0.1580000050560003
100
AcDbArc
 50
73.80812184093148
 51
141.259295317305
  0
ARC
  5
3E3
330
1F
100
AcDbEntity
  8
BEARING_WAVE_GEN
100
AcDbCircle
 10
8.979482806765622
 20
15.07993458922847
 30
0.0
 40
0.1406250045000003
100
AcDbArc
 50
38.40786252820336
 51
165.4363791054563
  0
ARC
  5
3E4
330
1F
100
AcDbEntity
  8
SEPARATOR_BEARING
100
AcDbCircle
 10
8.897784642718354
 20
14.59022242066002
 30
0.0
 40
0.00500000016
100
AcDbArc
 50
46.56679163919915
 51
170.4184250858018
  0
ARC
  5
3E5
330
1F
100
AcDbEntity
  8
SEPARATOR_BEARING
100
AcDbCircle
 10
8.933912077341
 20
14.34316287134805
 30
0.0
 40
0.1580000050560003
100
AcDbArc
 50
42.50377401484628
 51
109.9549474912207
  0
ARC
  5
3E6
330
1F
100
AcDbEntity
  8
SEPARATOR_BEARING
100
AcDbCircle
 10
9.009848534182754
 20
14.70858916400574
 30
0.0
 40
0.1580000050560003
100
AcDbArc
 50
226.5667916392127
 51
294.0179651155886
  0
ARC
  5
3E7
330
1F
100
AcDbEntity
  8
BEARING_WAVE_GEN
100
AcDbCircle
 10
9.004860190177172
 20
14.70893037608349
 30
0.0
 40
0.1406250045000003
100
AcDbArc
 50
202.3897078510664
 51
329.4182244283171
  0
ARC
  5
3E8
330
1F
100
AcDbEntity
  8
SEPARATOR_BEARING
100
AcDbCircle
 10
8.878283249149655
 20
14.49637656255897
 30
0.0
 40
0.00500000016
100
AcDbArc
 50
166.1033140446634
 51
289.954947491263
  0
ARC
  5
3E9
330
1F
100
AcDbEntity
  8
SEPARATOR_BEARING
100
AcDbCircle
 10
7.642543442253352
 20
14.80211539451486
 30
0.0
 40
1.268000040576001
100
AcDbArc
 50
346.1033140446662
 51
350.4184250857675
  0
ARC
  5
3EA
330
1F
100
AcDbEntity
  8
SEPARATOR_BEARING
100
AcDbCircle
 10
8.825142069657129
 20
15.27327310715106
 30
0.0
 40
0.00500000016
100
AcDbArc
 50
77.87113946528863
 51
201.7227729118896
  0
ARC
  5
3EB
330
1F
100
AcDbEntity
  8
SEPARATOR_BEARING
100
AcDbCircle
 10
8.857240502222943
 20
15.18295677385158
 30
0.0
 40
0.00500000016
100
AcDbArc
 50
197.4076618707485
 51
321.2592953173455
  0
ARC
  5
3EC
330
1F
100
AcDbEntity
  8
SEPARATOR_BEARING
100
AcDbCircle
 10
7.642543442253352
 20
14.80211539451487
 30
0.0
 40
1.268000040576001
100
AcDbArc
 50
17.40766187075672
 51
21.72277291185308
  0
ARC
  5
3ED
330
1F
100
AcDbEntity
  8
SEPARATOR_BEARING
100
AcDbCircle
 10
7.642543442253352
 20
14.80211539451488
 30
0.0
 40
1.459000046688003
100
AcDbArc
 50
1.77117879982434
 51
6.054908156696519
  0
ARC
  5
3EE
330
1F
100
AcDbEntity
  8
SEPARATOR_BEARING
100
AcDbCircle
 10
7.642543442253352
 20
14.80211539451488
 30
0.0
 40
1.268000040576001
100
AcDbArc
 50
1.755487957710996
 51
6.070598998810329
  0
ARC
  5
3EF
330
1F
100
AcDbEntity
  8
SEPARATOR_BEARING
100
AcDbCircle
 10
9.095848817434934
 20
14.84705559669238
 30
0.0
 40
0.00500000016
100
AcDbArc
 50
238.1559479278798
 51
1.77117879979593
  0
ARC
  5
3F0
330
1F
100
AcDbEntity
  8
SEPARATOR_BEARING
100
AcDbCircle
 10
8.914946014656642
 20
14.84111279770185
 30
0.0
 40
0.00500000016
100
AcDbArc
 50
181.7554879577058
 51
305.607121404307
  0
ARC
  5
3F1
330
1F
100
AcDbEntity
  8
SEPARATOR_BEARING
100
AcDbCircle
 10
9.009848534182747
 20
14.70858916400576
 30
0.0
 40
0.1580000050560003
100
AcDbArc
 50
58.1559479278881
 51
125.6071214042661
  0
ARC
  5
3F2
330
1F
100
AcDbEntity
  8
SEPARATOR_BEARING
100
AcDbCircle
 10
7.642543442253352
 20
14.80211539451486
 30
0.0
 40
1.459000046688003
100
AcDbArc
 50
346.1190048867809
 51
350.4027342436546
  0
ARC
  5
3F3
330
1F
100
AcDbEntity
  8
SEPARATOR_BEARING
100
AcDbCircle
 10
9.054081033253813
 20
14.45329199435935
 30
0.0
 40
0.00500000016
100
AcDbArc
 50
222.5037740148353
 51
346.1190048867516
  0
ARC
  5
3F4
330
1F
100
AcDbEntity
  8
SEPARATOR_BEARING
100
AcDbCircle
 10
9.07619329600458
 20
14.55970204475354
 30
0.0
 40
0.00500000016
100
AcDbArc
 50
350.4027342436466
 51
114.0179651155667
  0
ARC
  5
3F5
330
1F
100
AcDbEntity
  8
SEPARATOR_BEARING
100
AcDbCircle
 10
7.642543442253352
 20
14.80211539451487
 30
0.0
 40
1.459000046688003
100
AcDbArc
 50
17.42335271286697
 51
21.70708206973985
  0
ARC
  5
3F6
330
1F
100
AcDbEntity
  8
SEPARATOR_BEARING
100
AcDbCircle
 10
9.029831590368537
 20
15.23748618981763
 30
0.0
 40
0.00500000016
100
AcDbArc
 50
253.8081218409232
 51
17.42335271283955
  0
ARC
  5
3F7
330
1F
100
AcDbEntity
  8
SEPARATOR_BEARING
100
AcDbCircle
 10
8.993435782433952
 20
15.33989417853747
 30
0.0
 40
0.00500000016
100
AcDbArc
 50
21.70708206973409
 51
145.3223129416535
  0
ARC
  5
3F8
330
1F
100
AcDbEntity
  8
SEPARATOR_BEARING
100
AcDbCircle
 10
9.088432009485027
 20
14.95548549085763
 30
0.0
 40
0.00500000016
100
AcDbArc
 50
6.054908156691199
 51
129.6701390286107
  0
ARC
  5
3F9
330
1F
100
AcDbEntity
  8
SEPARATOR_BEARING
100
AcDbCircle
 10
8.908404934149196
 20
14.93674000983124
 30
0.0
 40
0.00500000016
100
AcDbArc
 50
62.21896555224579
 51
186.0705989988466
  0
ARC
  5
3FA
330
1F
100
AcDbEntity
  8
SEPARATOR_BEARING
100
AcDbCircle
 10
8.984378227360693
 20
15.08095186932628
 30
0.0
 40
0.1580000050560003
100
AcDbArc
 50
242.2189655522525
 51
309.6701390286273
  0
ARC
  5
3FB
330
1F
100
AcDbEntity
  8
BEARING_WAVE_GEN
100
AcDbCircle
 10
8.854950746778833
 20
15.43033422363977
 30
0.0
 40
0.1406250045000003
100
AcDbArc
 50
54.0600364412464
 51
181.0885530184965
  0
ARC
  5
3FC
330
1F
100
AcDbEntity
  8
SEPARATOR_BEARING
100
AcDbCircle
 10
8.354633268563794
 20
15.97309722591726
 30
0.0
 40
0.1580000050560003
100
AcDbArc
 50
289.1754872913831
 51
356.6266607677606
  0
ARC
  5
3FD
330
1F
100
AcDbEntity
  8
SEPARATOR_BEARING
100
AcDbCircle
 10
8.644154163348073
 20
15.7375545072301
 30
0.0
 40
0.1580000050560003
100
AcDbArc
 50
105.1124696670167
 51
172.563643143396
  0
ARC
  5
3FE
330
1F
100
AcDbEntity
  8
BEARING_WAVE_GEN
100
AcDbCircle
 10
8.352035348730481
 20
15.96882512875781
 30
0.0
 40
0.1406250045000003
100
AcDbArc
 50
264.9984035032419
 51
32.02692008049053
  0
ARC
  5
3FF
330
1F
100
AcDbEntity
  8
BEARING_WAVE_GEN
100
AcDbCircle
 10
8.640499983409743
 20
15.73414174140478
 30
0.0
 40
0.1406250045000003
100
AcDbArc
 50
69.71221035429159
 51
196.7407269315413
  0
ARC
  5
400
330
1F
100
AcDbEntity
  8
SEPARATOR_BEARING
100
AcDbCircle
 10
8.482525112724237
 20
15.75865075558984
 30
0.0
 40
0.00500000016
100
AcDbArc
 50
228.712009696837
 51
352.5636431434352
  0
ARC
  5
401
330
1F
100
AcDbEntity
  8
SEPARATOR_BEARING
100
AcDbCircle
 10
8.408172671876023
 20
15.8191409529259
 30
0.0
 40
0.00500000016
100
AcDbArc
 50
109.1754872913762
 51
233.0271207379774
  0
ARC
  5
402
330
1F
100
AcDbEntity
  8
SEPARATOR_BEARING
100
AcDbCircle
 10
7.642543442253352
 20
14.80211539451487
 30
0.0
 40
1.268000040576001
100
AcDbArc
 50
48.71200969683982
 51
53.02712073793864
  0
ARC
  5
403
330
1F
100
AcDbEntity
  8
SEPARATOR_BEARING
100
AcDbCircle
 10
7.642543442253352
 20
14.80211539451487
 30
0.0
 40
1.459000046688003
100
AcDbArc
 50
33.07552662591148
 51
37.35925598278567
  0
ARC
  5
404
330
1F
100
AcDbEntity
  8
SEPARATOR_BEARING
100
AcDbCircle
 10
8.860925547777441
 20
15.59562732274414
 30
0.0
 40
0.00500000016
100
AcDbArc
 50
269.4602957539664
 51
33.07552662587996
  0
ARC
  5
405
330
1F
100
AcDbEntity
  8
SEPARATOR_BEARING
100
AcDbCircle
 10
8.709446465720587
 20
15.49655548712929
 30
0.0
 40
0.00500000016
100
AcDbArc
 50
213.0598357837917
 51
336.9114692303916
  0
ARC
  5
406
330
1F
100
AcDbEntity
  8
SEPARATOR_BEARING
100
AcDbCircle
 10
8.859390173012897
 20
15.43263454890202
 30
0.0
 40
0.1580000050560003
100
AcDbArc
 50
89.4602957539794
 51
156.9114692303521
  0
ARC
  5
407
330
1F
100
AcDbEntity
  8
SEPARATOR_BEARING
100
AcDbCircle
 10
8.798250050432923
 20
15.68441827398058
 30
0.0
 40
0.00500000016
100
AcDbArc
 50
37.3592559827756
 51
160.9744868546961
  0
ARC
  5
408
330
1F
100
AcDbEntity
  8
SEPARATOR_BEARING
100
AcDbCircle
 10
8.654171274999269
 20
15.57486259232776
 30
0.0
 40
0.00500000016
100
AcDbArc
 50
93.52331337832977
 51
217.3749468249309
  0
ARC
  5
409
330
1F
100
AcDbEntity
  8
SEPARATOR_BEARING
100
AcDbCircle
 10
7.642543442253352
 20
14.80211539451487
 30
0.0
 40
1.268000040576001
100
AcDbArc
 50
33.05983578380033
 51
37.37494682489593
  0
ARC
  5
40A
330
1F
100
AcDbEntity
  8
SEPARATOR_BEARING
100
AcDbCircle
 10
8.644154163348066
 20
15.73755450723008
 30
0.0
 40
0.1580000050560003
100
AcDbArc
 50
273.523313378344
 51
340.9744868547154
  0
ARC
  5
40B
330
1F
100
AcDbEntity
  8
BEARING_WAVE_GEN
100
AcDbCircle
 10
8.640499983409743
 20
15.73414174140478
 30
0.0
 40
0.1406250045000003
100
AcDbArc
 50
249.346229590197
 51
16.37474616744679
  0
ARC
  5
40C
330
1F
100
AcDbEntity
  8
SEPARATOR_BEARING
100
AcDbCircle
 10
7.642543442253352
 20
14.80211539451487
 30
0.0
 40
1.459000046688003
100
AcDbArc
 50
48.72770053895174
 51
53.01142989582564
  0
ARC
  5
40D
330
1F
100
AcDbEntity
  8
SEPARATOR_BEARING
100
AcDbCircle
 10
8.51735084630917
 20
15.96350600112083
 30
0.0
 40
0.00500000016
100
AcDbArc
 50
53.01142989582306
 51
176.6266607677398
  0
ARC
  5
40E
330
1F
100
AcDbEntity
  8
SEPARATOR_BEARING
100
AcDbCircle
 10
8.193306161889497
 20
15.94980417217755
 30
0.0
 40
0.00500000016
100
AcDbArc
 50
244.3641836098799
 51
8.215817056478798
  0
ARC
  5
40F
330
1F
100
AcDbEntity
  8
SEPARATOR_BEARING
100
AcDbCircle
 10
8.271256693295731
 20
16.11315917077376
 30
0.0
 40
0.00500000016
100
AcDbArc
 50
300.7646435800533
 51
64.37987445196654
  0
ARC
  5
410
330
1F
100
AcDbEntity
  8
SEPARATOR_BEARING
100
AcDbCircle
 10
8.601657678146862
 20
15.89491730602942
 30
0.0
 40
0.00500000016
100
AcDbArc
 50
285.1124696670107
 51
48.72770053892424
  0
CIRCLE
  5
411
330
1F
100
AcDbEntity
  8
SPLINE_STATIC
100
AcDbCircle
 10
9.347314449603022
 20
15.78636539451487
 30
0.0
 40
0.0985
  0
CIRCLE
  5
412
330
1F
100
AcDbEntity
  8
LINE_HIDDEN
100
AcDbCircle
 10
9.347314449603022
 20
15.78636539451487
 30
0.0
 40
0.118
  0
LINE
  5
413
330
1F
100
AcDbEntity
  8
SPACERS_PANCAKE
100
AcDbLine
 10
12.61672593532305
 20
16.17711539451487
 30
0.0
 11
12.61672593532305
 21
13.42711539451487
 31
0.0
  0
LINE
  5
414
330
1F
100
AcDbEntity
  8
SPACERS_PANCAKE
100
AcDbLine
 10
12.55572593532305
 20
16.17711539451487
 30
0.0
 11
12.55572593532305
 21
13.42711539451487
 31
0.0
  0
LINE
  5
415
330
1F
100
AcDbEntity
  8
WAVE_GENERATOR
100
AcDbLine
 10
12.64671412429942
 20
14.31001539451487
 30
0.0
 11
12.64671412429942
 21
15.38501539451487
 31
0.0
  0
LINE
  5
416
330
1F
100
AcDbEntity
  8
WAVE_GENERATOR
100
AcDbLine
 10
13.26071412429942
 20
15.38501539451487
 30
0.0
 11
13.26071412429942
 21
14.31001539451487
 31
0.0
  0
LINE
  5
417
330
1F
100
AcDbEntity
  8
WAVE_GENERATOR
100
AcDbLine
 10
11.91173774634667
 20
14.09361539451487
 30
0.0
 11
11.91173774634667
 21
14.52651539451487
 31
0.0
  0
LINE
  5
418
330
1F
100
AcDbEntity
  8
WAVE_GENERATOR
100
AcDbLine
 10
12.52573774634667
 20
14.09361539451487
 30
0.0
 11
12.52573774634667
 21
14.52651539451487
 31
0.0
  0
ARC
  5
419
330
1F
100
AcDbEntity
  8
RETAINER_BEARING
100
AcDbCircle
 10
12.80971412429942
 20
13.67511539451487
 30
0.0
 40
0.03
100
AcDbArc
 50
270.0
 51
0.0
  0
LINE
  5
41A
330
1F
100
AcDbEntity
  8
RETAINER_BEARING
100
AcDbLine
 10
12.80771412429942
 20
14.05211539451487
 30
0.0
 11
12.83971412429942
 21
14.05211539451487
 31
0.0
  0
LINE
  5
41B
330
1F
100
AcDbEntity
  8
WAVE_GENERATOR
100
AcDbLine
 10
13.26071412429942
 20
14.31001539451487
 30
0.0
 11
12.64671412429942
 21
14.31001539451487
 31
0.0
  0
REGION
  5
41C
330
1F
100
AcDbEntity
  8
SPLINE_FLEX
100
AcDbModelerGeometry
 70
     1
  1
koo li n o          
  1
h J1410(1 nl ^ \VL kqoqm QK mk R01 R>& nj nlelneoi mooi 
  1
rn fqfffffffffffffffj:rooh n:rono 
  1
=0;& {rn {n {rn {rn |
  1
3*2/ {rn {rn {m {o |
  1
,7:33 {rn {rn {rn {l {rn {n |
  1
9><: {rn {rn {k {m {rn {j 90-(>-; ;0*=3: 0*+ |
  1
300/ {rn {rn {i {l |
  1
/3>1:r,*-9><: {rn nlqonikhjfljlmlojn nlqmonoijlfkjnkghi o o o n rn o o 90-(>-;@) V V V V |
  1
<0:;8: {rn {h {g {rn {f -:):-,:; {k {rn |
  1
<0:;8: {rn {no {i {rn {nn -:):-,:; {k {rn |
  1
<0:;8: {rn {i {nm {rn {nl 90-(>-; {k {rn |
  1
:;8: {rn {nk {nj {i {ni 90-(>-; |
  1
<0:;8: {rn {nh {h {rn {ng -:):-,:; {k {rn |
  1
:;8: {rn {nf {nk {h {mo 90-(>-; |
  1
<0:;8: {rn {g {nh {rn {mn 90-(>-; {k {rn |
  1
:;8: {rn {mm {nj {g {ml 90-(>-; |
  1
):-+:' {rn {f {mk |
  1
):-+:' {rn {f {mj |
  1
,+->687+r<*-): {rn nmqimmfhjfljlmlojn nlqmlnfijlfkjnkghh o n o o V V |
  1
<0:;8: {rn {nm {no {rn {mi -:):-,:; {k {rn |
  1
:;8: {rn {mh {nf {no {mg 90-(>-; |
  1
):-+:' {rn {ng {mf |
  1
,+->687+r<*-): {rn nmqimmfhjfljlmlojn nlqmnoinjlfkjnkghh o o n o V V |
  1
:;8: {rn {lo {mm {nm {ln 90-(>-; |
  1
):-+:' {rn {nl {lm |
  1
,+->687+r<*-): {rn nlqkoffhjfljlmloj nlqmnoinjlfkjnkghh o o n o V V |
  1
/061+ {rn nmqimmfhjfljlmlojn nlqmlnfijlfkjnkghh o |
  1
/061+ {rn nlqkoffhjfljlmloj nlqmlnfijlfkjnkghh o |
  1
:;8: {rn {lo {mh {nh {ll 90-(>-; |
  1
):-+:' {rn {mi {lk |
  1
,+->687+r<*-): {rn nmqihmfhjfljlmlojm nlqnioinjlfkjnkghi o roqhohnoihgnngijkhki oqhohnoihgnngijkhki o V V |
  1
/061+ {rn nmqimmfhjfljlmlojn nlqmnoinjlfkjnkghh o |
  1
):-+:' {rn {mn {lj |
  1
,+->687+r<*-): {rn nlqljffhjfljlmloj nlqnioinjlfkjnkghi o oqhohnoihgnngijkhki oqhohnoihgnngijkhki o V V |
  1
/061+ {rn nlqkoffhjfljlmloj nlqmnoinjlfkjnkghh o |
  1
,+->687+r<*-): {rn nlqljffhjfljlmloj nlqnioinjlfkjnkghi o rn o o V V |
  1
/061+ {rn nmqihmfhjfljlmlojm nlqnioinjlfkjnkghi o |
  1
/061+ {rn nlqljffhjfljlmloj nlqnioinjlfkjnkghi o |
  0
ARC
  5
41D
330
1F
100
AcDbEntity
  8
WAVE_GENERATOR
100
AcDbCircle
 10
12.80971412429942
 20
14.06361539451487
 30
0.0
 40
0.03
100
AcDbArc
 50
0.0000000000101778
 51
89.99999999999323
  0
INSERT
  5
41E
330
1F
100
AcDbEntity
  8
WAVE_GENERATOR
100
AcDbBlockReference
  2
BEARING WG 32 1423140-20
 10
13.01571412429942
 20
14.80211539451487
 30
0.0
 41
-1.0
 50
180.0
  0
REGION
  5
41F
330
1F
100
AcDbEntity
  8
SPLINE_DYNAMIC
100
AcDbModelerGeometry
 70
     1
  1
koo ki n o          
  1
h J1410(1 nl ^ \VL kqoqm QK mk R01 R>& nj nlelneoi mooi 
  1
rn fqfffffffffffffffj:rooh n:rono 
  1
=0;& {rn {n {rn {rn |
  1
3*2/ {rn {rn {m {o |
  1
,7:33 {rn {rn {rn {l {rn {n |
  1
9><: {rn {rn {k {m {rn {j 90-(>-; ;0*=3: 0*+ |
  1
300/ {rn {rn {i {l |
  1
/3>1:r,*-9><: {rn nmqjgimmjfljlmlojl nmqfogifolfkjnkghg o o o n n o o -:):-,:@) V V V V |
  1
<0:;8: {rn {h {g {rn {f 90-(>-; {k {rn |
  1
<0:;8: {rn {no {i {rn {nn 90-(>-; {k {rn |
  1
<0:;8: {rn {i {nm {rn {nl 90-(>-; {k {rn |
  1
:;8: {rn {nk {nj {i {ni 90-(>-; |
  1
<0:;8: {rn {nh {h {rn {ng -:):-,:; {k {rn |
  1
:;8: {rn {nj {nf {h {mo 90-(>-; |
  1
<0:;8: {rn {g {mn {rn {mm 90-(>-; {k {rn |
  1
:;8: {rn {ml {nk {g {mk 90-(>-; |
  1
):-+:' {rn {f {mj |
  1
):-+:' {rn {f {mi |
  1
,+->687+r<*-): {rn nmqmlkhmjfljlmlojk nmqilihijlfkjnkghi o n o o V V |
  1
<0:;8: {rn {mh {no {rn {mg -:):-,:; {k {rn |
  1
:;8: {rn {mf {nf {no {lo 90-(>-; |
  1
):-+:' {rn {nn {ln |
  1
,+->687+r<*-): {rn nmqflhhmjfljlmlojl nmqilihijlfkjnkghi o oqhohnoihgnngijkhjh oqhohnoihgnngijkhjh o V V |
  1
<0:;8: {rn {nm {mh {rn {lm -:):-,:; {k {rn |
  1
:;8: {rn {ll {ml {nm {lk 90-(>-; |
  1
):-+:' {rn {mm {lj |
  1
,+->687+r<*-): {rn nmqnhkhmjfljlmlojl nmqifihijlfkjnkghh o oqhohnoihgnngijkhjh roqhohnoihgnngijkhjh o V V |
  1
/061+ {rn nmqmlkhmjfljlmlojk nmqilihijlfkjnkghi o |
  1
/061+ {rn nmqflhhmjfljlmlojl nmqilihijlfkjnkghi o |
  1
<0:;8: {rn {mn {nh {rn {li -:):-,:; {k {rn |
  1
:;8: {rn {lh {mf {nh {lg 90-(>-; |
  1
):-+:' {rn {ng {lf |
  1
,+->687+r<*-): {rn nmqffhhmjfljlmlojk nlqnljinjlfkjnkghh o o rn o V V |
  1
/061+ {rn nmqffhhmjfljlmlojk nmqifihijlfkjnkghh o |
  1
:;8: {rn {ll {ko {mn {kn 90-(>-; |
  1
):-+:' {rn {lm {km |
  1
,+->687+r<*-): {rn nmqnhkhmjfljlmlojl nlqnljinjlfkjnkghh o o rn o V V |
  1
/061+ {rn nmqnhkhmjfljlmlojl nmqifihijlfkjnkghh o |
  1
:;8: {rn {ko {lh {mh {kl 90-(>-; |
  1
):-+:' {rn {mg {kk |
  1
,+->687+r<*-): {rn nmqfihhmjfljlmlojk nlqnijinjlfkjnkghh o oqhohnoihgnngijkhjh roqhohnoihgnngijkhjh o V V |
  1
/061+ {rn nmqffhhmjfljlmlojk nlqnljinjlfkjnkghh o |
  1
):-+:' {rn {li {kj |
  1
,+->687+r<*-): {rn nmqnhkhmjfljlmlojl nlqnljinjlfkjnkghh o oqhohnoihgnngijkhjh oqhohnoihgnngijkhjh o V V |
  1
/061+ {rn nmqnhkhmjfljlmlojl nlqnljinjlfkjnkghh o |
  1
,+->687+r<*-): {rn nmqmokhmjfljlmlojl nlqnijinjlfkjnkghh o n o o V V |
  1
/061+ {rn nmqfihhmjfljlmlojk nlqnijinjlfkjnkghh o |
  1
/061+ {rn nmqmokhmjfljlmlojl nlqnijinjlfkjnkghh o |
  0
LINE
  5
420
330
1F
100
AcDbEntity
  8
RETAINER_BEARING
100
AcDbLine
 10
12.72271412429942
 20
13.64711539451487
 30
0.0
 11
12.72271412429942
 21
13.42711539451487
 31
0.0
  0
LINE
  5
421
330
1F
100
AcDbEntity
  8
RETAINER_BEARING
100
AcDbLine
 10
12.75471412429942
 20
13.61511539451487
 30
0.0
 11
12.75471412429942
 21
13.42711539451487
 31
0.0
  0
LINE
  5
422
330
1F
100
AcDbEntity
  8
RETAINER_BEARING
100
AcDbLine
 10
12.41773774634667
 20
13.61511539451487
 30
0.0
 11
12.41773774634667
 21
13.42711539451487
 31
0.0
  0
LINE
  5
423
330
1F
100
AcDbEntity
  8
RETAINER_BEARING
100
AcDbLine
 10
12.44973774634667
 20
13.64711539451487
 30
0.0
 11
12.44973774634667
 21
13.42711539451487
 31
0.0
  0
INSERT
  5
424
330
1F
100
AcDbEntity
  8
WAVE_GENERATOR
100
AcDbBlockReference
  2
BEARING WG 32 1423140-20
 10
12.15673774634667
 20
14.80211539451487
 30
0.0
 50
180.0
  0
LINE
  5
425
330
1F
100
AcDbEntity
  8
SPLINE_STATIC
100
AcDbLine
 10
12.15022593532305
 20
12.73511539451487
 30
0.0
 11
11.75622593532305
 21
12.73511539451487
 31
0.0
  0
LINE
  5
426
330
1F
100
AcDbEntity
  8
LINE_HIDDEN
100
AcDbLine
 10
12.15022593532305
 20
12.71561539451487
 30
0.0
 11
11.75622593532305
 21
12.71561539451487
 31
0.0
  0
LINE
  5
427
330
1F
100
AcDbEntity
  8
SPLINE_STATIC
100
AcDbLine
 10
12.15022593532305
 20
12.93211539451487
 30
0.0
 11
11.75622593532305
 21
12.93211539451487
 31
0.0
  0
LINE
  5
428
330
1F
100
AcDbEntity
  8
LINE_HIDDEN
100
AcDbLine
 10
12.15022593532305
 20
12.95161539451487
 30
0.0
 11
11.75622593532305
 21
12.95161539451487
 31
0.0
  0
REGION
  5
429
330
1F
100
AcDbEntity
  8
SPLINE_FLEX
100
AcDbModelerGeometry
 70
     1
  1
koo li n o          
  1
h J1410(1 nl ^ \VL kqoqm QK mk R01 R>& nj nlelneoi mooi 
  1
rn fqfffffffffffffffj:rooh n:rono 
  1
=0;& {rn {n {rn {rn |
  1
3*2/ {rn {rn {m {o |
  1
,7:33 {rn {rn {rn {l {rn {n |
  1
9><: {rn {rn {k {m {rn {j 90-(>-; ;0*=3: 0*+ |
  1
300/ {rn {rn {i {l |
  1
/3>1:r,*-9><: {rn nmqnjjfhjfljlmloji nlqmonoijlfkjnkghi o o o n n o o -:):-,:@) V V V V |
  1
<0:;8: {rn {h {g {rn {f 90-(>-; {k {rn |
  1
<0:;8: {rn {no {i {rn {nn -:):-,:; {k {rn |
  1
<0:;8: {rn {i {nm {rn {nl 90-(>-; {k {rn |
  1
:;8: {rn {nk {nj {i {ni 90-(>-; |
  1
<0:;8: {rn {nh {h {rn {ng -:):-,:; {k {rn |
  1
:;8: {rn {nf {nj {h {mo 90-(>-; |
  1
<0:;8: {rn {g {nh {rn {mn 90-(>-; {k {rn |
  1
:;8: {rn {mm {nk {g {ml 90-(>-; |
  1
):-+:' {rn {f {mk |
  1
):-+:' {rn {f {mj |
  1
,+->687+r<*-): {rn nmqjkfkhjfljlmloji nlqmlnfijlfkjnkghh o rn o o V V |
  1
<0:;8: {rn {nm {no {rn {mi 90-(>-; {k {rn |
  1
:;8: {rn {mh {nf {no {mg 90-(>-; |
  1
):-+:' {rn {nn {mf |
  1
,+->687+r<*-): {rn nnqhimkhjfljlmlojh nlqmnoinjlfkjnkghh o o n o V V |
  1
:;8: {rn {lo {mm {nm {ln 90-(>-; |
  1
):-+:' {rn {mn {lm |
  1
,+->687+r<*-): {rn nmqjkfkhjfljlmloji nlqmnoinjlfkjnkghh o o n o V V |
  1
/061+ {rn nmqjkfkhjfljlmloji nlqmlnfijlfkjnkghh o |
  1
/061+ {rn nnqhimkhjfljlmlojh nlqmlnfijlfkjnkghh o |
  1
:;8: {rn {mh {lo {nh {ll 90-(>-; |
  1
):-+:' {rn {ng {lk |
  1
,+->687+r<*-): {rn nnqgnmkhjfljlmlojh nlqnioinjlfkjnkghi o roqhohnoihgnngijkhki oqhohnoihgnngijkhki o V V |
  1
/061+ {rn nnqhimkhjfljlmlojh nlqmnoinjlfkjnkghh o |
  1
):-+:' {rn {mi {lj |
  1
,+->687+r<*-): {rn nmqkffkhjfljlmlojj nlqnioinjlfkjnkghi o oqhohnoihgnngijkhki oqhohnoihgnngijkhki o V V |
  1
/061+ {rn nmqjkfkhjfljlmloji nlqmnoinjlfkjnkghh o |
  1
,+->687+r<*-): {rn nnqgnmkhjfljlmlojh nlqnioinjlfkjnkghi o n o o V V |
  1
/061+ {rn nnqgnmkhjfljlmlojh nlqnioinjlfkjnkghi o |
  1
/061+ {rn nmqkffkhjfljlmlojj nlqnioinjlfkjnkghi o |
  0
REGION
  5
42A
330
1F
100
AcDbEntity
  8
SPLINE_STATIC
100
AcDbModelerGeometry
 70
     1
  1
koo ki n o          
  1
h J1410(1 nl ^ \VL kqoqm QK mk R01 R>& nj nlelneoi mooi 
  1
rn fqfffffffffffffffj:rooh n:rono 
  1
=0;& {rn {n {rn {rn |
  1
3*2/ {rn {rn {m {o |
  1
,7:33 {rn {rn {rn {l {rn {n |
  1
9><: {rn {rn {k {m {rn {j 90-(>-; ;0*=3: 0*+ |
  1
300/ {rn {rn {i {l |
  1
/3>1:r,*-9><: {rn nnqfjlmmjfljlmlojk nmqgfgifolfkjnkghg o o o n n o o -:):-,:@) V V V V |
  1
<0:;8: {rn {h {g {rn {f 90-(>-; {k {rn |
  1
<0:;8: {rn {no {i {rn {nn 90-(>-; {k {rn |
  1
<0:;8: {rn {i {nm {rn {nl 90-(>-; {k {rn |
  1
:;8: {rn {nk {nj {i {ni 90-(>-; |
  1
<0:;8: {rn {nh {h {rn {ng 90-(>-; {k {rn |
  1
:;8: {rn {nj {nf {h {mo 90-(>-; |
  1
<0:;8: {rn {g {mn {rn {mm -:):-,:; {k {rn |
  1
:;8: {rn {ml {nk {g {mk 90-(>-; |
  1
):-+:' {rn {f {mj |
  1
):-+:' {rn {f {mi |
  1
,+->687+r<*-): {rn nnqhhimmjfljlmlojl nmqilihijlfkjnkghi o n o o V V |
  1
<0:;8: {rn {mh {no {rn {mg -:):-,:; {k {rn |
  1
:;8: {rn {nf {mf {no {lo 90-(>-; |
  1
):-+:' {rn {nn {ln |
  1
,+->687+r<*-): {rn nmqnlommjfljlmlojk nmqilihijlfkjnkghi o oqhohnoihgnngijkhjh oqhohnoihgnngijkhjh o V V |
  1
<0:;8: {rn {nm {mh {rn {lm -:):-,:; {k {rn |
  1
:;8: {rn {ml {ll {nm {lk 90-(>-; |
  1
):-+:' {rn {mm {lj |
  1
,+->687+r<*-): {rn nnqhjimmjfljlmlojl nmqijihijlfkjnkghi o oqhohnoihgnngijkhjh roqhohnoihgnngijkhjh o V V |
  1
/061+ {rn nnqhhimmjfljlmlojl nmqilihijlfkjnkghi o |
  1
/061+ {rn nmqnlommjfljlmlojk nmqilihijlfkjnkghi o |
  1
<0:;8: {rn {mn {nh {rn {li 90-(>-; {k {rn |
  1
:;8: {rn {lh {mf {nh {lg 90-(>-; |
  1
):-+:' {rn {ng {lf |
  1
,+->687+r<*-): {rn nmqnjommjfljlmlojk nmqijihijlfkjnkghi o o n o V V |
  1
/061+ {rn nmqnjommjfljlmlojk nmqijihijlfkjnkghi o |
  1
:;8: {rn {ll {ko {mn {kn 90-(>-; |
  1
):-+:' {rn {lm {km |
  1
,+->687+r<*-): {rn nnqhjimmjfljlmlojl nmqijihijlfkjnkghi o lqhofilnohlnfihnmm:ronj n o V V |
  1
/061+ {rn nnqhjimmjfljlmlojl nmqijihijlfkjnkghi o |
  1
:;8: {rn {lh {ko {mh {kl 90-(>-; |
  1
):-+:' {rn {mg {kk |
  1
,+->687+r<*-): {rn nmqnmommjfljlmlojk nlqnijinjlfkjnkghh o oqhohnoihgnngijkhjh roqhohnoihgnngijkhjh o V V |
  1
/061+ {rn nmqnjommjfljlmlojk nlqnljinjlfkjnkghh o |
  1
):-+:' {rn {li {kj |
  1
,+->687+r<*-): {rn nnqhjimmjfljlmlojj nlqnljinjlfkjnkghh o oqhohnoihgnngijkhjh oqhohnoihgnngijkhjh o V V |
  1
/061+ {rn nnqhjimmjfljlmlojj nlqnljinjlfkjnkghh o |
  1
,+->687+r<*-): {rn nmqnmommjfljlmlojk nlqnijinjlfkjnkghh o rn o o V V |
  1
/061+ {rn nmqnmommjfljlmlojk nlqnijinjlfkjnkghh o |
  1
/061+ {rn nnqhgimmjfljlmlojj nlqnijinjlfkjnkghh o |
  0
LINE
  5
42B
330
1F
100
AcDbEntity
  8
LINE_CENTER
100
AcDbLine
 10
12.25022593532305
 20
12.83361539451487
 30
0.0
 11
11.65622593532305
 21
12.83361539451487
 31
0.0
  0
LWPOLYLINE
  5
42C
330
1F
100
AcDbEntity
  8
WEAR_WASHER
100
AcDbPolyline
 90
        4
 70
     1
 43
0.0
 10
11.75622593532305
 20
12.98961539451487
 10
11.72422593532305
 20
12.98961539451487
 10
11.72422593532305
 20
13.28661539451487
 10
11.75622593532305
 20
13.28661539451487
  0
LINE
  5
42D
330
1F
100
AcDbEntity
  8
RETAINER_BEARING
100
AcDbLine
 10
12.44973774634667
 20
13.42711539451487
 30
0.0
 11
12.41773774634667
 21
13.42711539451487
 31
0.0
  0
LINE
  5
42E
330
1F
100
AcDbEntity
  8
RETAINER_BEARING
100
AcDbLine
 10
12.72271412429942
 20
13.42711539451487
 30
0.0
 11
12.75471412429942
 21
13.42711539451487
 31
0.0
  0
LWPOLYLINE
  5
42F
330
1F
100
AcDbEntity
  8
SPACERS_PANCAKE
100
AcDbPolyline
 90
        4
 70
     1
 43
0.0
 10
12.55572593532305
 20
13.42711539451487
 10
12.61672593532305
 20
13.42711539451487
 10
12.61672593532305
 20
13.17711539451487
 10
12.55572593532305
 20
13.17711539451487
  0
LINE
  5
430
330
1F
100
AcDbEntity
  8
WAVE_GENERATOR
100
AcDbLine
 10
11.98673774634667
 20
13.64211539451487
 30
0.0
 11
12.33273774634667
 21
13.64211539451487
 31
0.0
  0
LINE
  5
431
330
1F
100
AcDbEntity
  8
WAVE_GENERATOR
100
AcDbLine
 10
11.98673774634667
 20
13.64211539451487
 30
0.0
 11
11.98673774634667
 21
14.06361539451487
 31
0.0
  0
ARC
  5
432
330
1F
100
AcDbEntity
  8
WAVE_GENERATOR
100
AcDbCircle
 10
11.95673774634667
 20
14.06361539451487
 30
0.0
 40
0.03
100
AcDbArc
 50
0.0000000000034096
 51
90.00000000000005
  0
LINE
  5
433
330
1F
100
AcDbEntity
  8
WAVE_GENERATOR
100
AcDbLine
 10
11.95673774634667
 20
14.09361539451487
 30
0.0
 11
11.91173774634667
 21
14.09361539451487
 31
0.0
  0
LINE
  5
434
330
1F
100
AcDbEntity
  8
RETAINER_BEARING
100
AcDbLine
 10
12.72271412429942
 20
13.64711539451487
 30
0.0
 11
12.72271412429942
 21
14.09361539451487
 31
0.0
  0
LINE
  5
435
330
1F
100
AcDbEntity
  8
RETAINER_BEARING
100
AcDbLine
 10
12.44973774634667
 20
13.64711539451487
 30
0.0
 11
12.44973774634667
 21
14.09361539451487
 31
0.0
  0
LINE
  5
436
330
1F
100
AcDbEntity
  8
RETAINER_BEARING
100
AcDbLine
 10
12.80771412429942
 20
13.70711539451487
 30
0.0
 11
12.80771412429942
 21
14.05211539451487
 31
0.0
  0
LINE
  5
437
330
1F
100
AcDbEntity
  8
RETAINER_BEARING
100
AcDbLine
 10
12.33273774634667
 20
13.67511539451487
 30
0.0
 11
12.33273774634667
 21
14.05211539451487
 31
0.0
  0
LINE
  5
438
330
1F
100
AcDbEntity
  8
RETAINER_BEARING
100
AcDbLine
 10
12.36473774634667
 20
13.70711539451487
 30
0.0
 11
12.36473774634667
 21
14.05211539451487
 31
0.0
  0
LINE
  5
439
330
1F
100
AcDbEntity
  8
WAVE_GENERATOR
100
AcDbLine
 10
12.33273774634667
 20
13.64211539451487
 30
0.0
 11
12.33273774634667
 21
14.06361539451487
 31
0.0
  0
LINE
  5
43A
330
1F
100
AcDbEntity
  8
RETAINER_BEARING
100
AcDbLine
 10
12.41973774634667
 20
13.67711539451487
 30
0.0
 11
12.39473774634667
 21
13.67711539451487
 31
0.0
  0
ARC
  5
43B
330
1F
100
AcDbEntity
  8
RETAINER_BEARING
100
AcDbCircle
 10
12.41973774634666
 20
13.64711539451487
 30
0.0
 40
0.03
100
AcDbArc
 50
0.0000000000034096
 51
89.99999999998983
  0
ARC
  5
43C
330
1F
100
AcDbEntity
  8
RETAINER_BEARING
100
AcDbCircle
 10
12.38773774634667
 20
13.61511539451487
 30
0.0
 40
0.03
100
AcDbArc
 50
0.0000000000034096
 51
89.99999999998983
  0
ARC
  5
43D
330
1F
100
AcDbEntity
  8
RETAINER_BEARING
100
AcDbCircle
 10
12.36273774634667
 20
13.67511539451487
 30
0.0
 40
0.03
100
AcDbArc
 50
180.0
 51
270.0
  0
ARC
  5
43E
330
1F
100
AcDbEntity
  8
RETAINER_BEARING
100
AcDbCircle
 10
12.39473774634667
 20
13.70711539451487
 30
0.0
 40
0.03
100
AcDbArc
 50
180.0
 51
269.9999999999964
  0
LINE
  5
43F
330
1F
100
AcDbEntity
  8
RETAINER_BEARING
100
AcDbLine
 10
12.38773774634667
 20
13.64511539451487
 30
0.0
 11
12.36273774634667
 21
13.64511539451487
 31
0.0
  0
ARC
  5
440
330
1F
100
AcDbEntity
  8
RETAINER_BEARING
100
AcDbCircle
 10
12.78471412429943
 20
13.61511539451487
 30
0.0
 40
0.03
100
AcDbArc
 50
90.00000000001017
 51
179.9999999999964
  0
ARC
  5
441
330
1F
100
AcDbEntity
  8
RETAINER_BEARING
100
AcDbCircle
 10
12.75271412429943
 20
13.64711539451487
 30
0.0
 40
0.03
100
AcDbArc
 50
90.00000000001017
 51
179.9999999999964
  0
LINE
  5
442
330
1F
100
AcDbEntity
  8
RETAINER_BEARING
100
AcDbLine
 10
12.75271412429942
 20
13.67711539451487
 30
0.0
 11
12.77771412429942
 21
13.67711539451487
 31
0.0
  0
LINE
  5
443
330
1F
100
AcDbEntity
  8
RETAINER_BEARING
100
AcDbLine
 10
12.78471412429942
 20
13.64511539451487
 30
0.0
 11
12.80971412429942
 21
13.64511539451487
 31
0.0
  0
ARC
  5
444
330
1F
100
AcDbEntity
  8
RETAINER_BEARING
100
AcDbCircle
 10
12.77771412429942
 20
13.70711539451487
 30
0.0
 40
0.03
100
AcDbArc
 50
270.0000000000033
 51
0.0
  0
LINE
  5
445
330
1F
100
AcDbEntity
  8
WAVE_GENERATOR
100
AcDbLine
 10
12.36273774634667
 20
14.09361539451487
 30
0.0
 11
12.52573774634667
 21
14.09361539451487
 31
0.0
  0
LINE
  5
446
330
1F
100
AcDbEntity
  8
RETAINER_BEARING
100
AcDbLine
 10
12.36473774634667
 20
14.05211539451487
 30
0.0
 11
12.36473774634667
 21
14.09361539451487
 31
0.0
  0
LINE
  5
447
330
1F
100
AcDbEntity
  8
RETAINER_BEARING
100
AcDbLine
 10
12.36473774634667
 20
14.05211539451487
 30
0.0
 11
12.33273774634667
 21
14.05211539451487
 31
0.0
  0
ARC
  5
448
330
1F
100
AcDbEntity
  8
WAVE_GENERATOR
100
AcDbCircle
 10
12.36273774634667
 20
14.06361539451487
 30
0.0
 40
0.03
100
AcDbArc
 50
90.00000000000673
 51
179.9999999999897
  0
LINE
  5
449
330
1F
100
AcDbEntity
  8
RETAINER_BEARING
100
AcDbLine
 10
12.80771412429942
 20
14.05211539451487
 30
0.0
 11
12.80771412429942
 21
14.09361539451487
 31
0.0
  0
LINE
  5
44A
330
1F
100
AcDbEntity
  8
WAVE_GENERATOR
100
AcDbLine
 10
12.80971412429942
 20
14.09361539451487
 30
0.0
 11
12.64671412429942
 21
14.09361539451487
 31
0.0
  0
LINE
  5
44B
330
1F
100
AcDbEntity
  8
WAVE_GENERATOR
100
AcDbLine
 10
12.64671412429942
 20
14.09361539451487
 30
0.0
 11
12.64671412429942
 21
14.31001539451487
 31
0.0
  0
REGION
  5
44C
330
1F
100
AcDbEntity
  8
SPLINE_STATIC
100
AcDbModelerGeometry
 70
     1
  1
koo ki n o          
  1
h J1410(1 nl ^ \VL kqoqm QK mk R01 R>& nj nlelneoi mooi 
  1
rn fqfffffffffffffffj:rooh n:rono 
  1
=0;& {rn {n {rn {rn |
  1
3*2/ {rn {rn {m {o |
  1
,7:33 {rn {rn {rn {l {rn {n |
  1
9><: {rn {rn {k {m {rn {j 90-(>-; ;0*=3: 0*+ |
  1
300/ {rn {rn {i {l |
  1
/3>1:r,*-9><: {rn nlqmnfmmjfljlmlojk nmqgfgifolfkjnkghi o o o n n o o -:):-,:@) V V V V |
  1
<0:;8: {rn {h {g {rn {f 90-(>-; {k {rn |
  1
<0:;8: {rn {no {i {rn {nn -:):-,:; {k {rn |
  1
<0:;8: {rn {i {nm {rn {nl -:):-,:; {k {rn |
  1
:;8: {rn {nk {nj {i {ni 90-(>-; |
  1
<0:;8: {rn {nh {h {rn {ng -:):-,:; {k {rn |
  1
:;8: {rn {nf {nj {h {mo 90-(>-; |
  1
<0:;8: {rn {g {mn {rn {mm -:):-,:; {k {rn |
  1
:;8: {rn {nk {ml {g {mk 90-(>-; |
  1
):-+:' {rn {f {mj |
  1
):-+:' {rn {f {mi |
  1
,+->687+r<*-): {rn nlqknimmjfljlmlojk nmqijihijlfkjnkghi o o n o V V |
  1
<0:;8: {rn {mh {no {rn {mg -:):-,:; {k {rn |
  1
:;8: {rn {mf {nf {no {lo 90-(>-; |
  1
):-+:' {rn {nn {ln |
  1
,+->687+r<*-): {rn nlqlgimmjfljlmlojk nlqnijinjlfkjnkghh o oqhohnoihgnngijkhjh roqhohnoihgnngijkhjh o V V |
  1
<0:;8: {rn {nm {mh {rn {lm -:):-,:; {k {rn |
  1
:;8: {rn {ml {ll {nm {lk 90-(>-; |
  1
):-+:' {rn {mm {lj |
  1
,+->687+r<*-): {rn nlqknimmjfljlmlojk nmqijihijlfkjnkghi o roqhohnoihgnngijkhjh roqhohnoihgnngijkhjh o V V |
  1
/061+ {rn nlqknimmjfljlmlojk nmqijihijlfkjnkghi o |
  1
/061+ {rn nlqknimmjfljlmlojk nlqnljinjlfkjnkghh o |
  1
<0:;8: {rn {mn {nh {rn {li -:):-,:; {k {rn |
  1
:;8: {rn {lh {mf {nh {lg 90-(>-; |
  1
):-+:' {rn {ng {lf |
  1
,+->687+r<*-): {rn nlqojmmmjfljlmlojl nlqnijinjlfkjnkghh o n o o V V |
  1
/061+ {rn nlqlgimmjfljlmlojk nlqnijinjlfkjnkghh o |
  1
:;8: {rn {ll {ko {mn {kn 90-(>-; |
  1
):-+:' {rn {lm {km |
  1
,+->687+r<*-): {rn nlqlfimmjfljlmlojk nmqilihijlfkjnkghi o rn o o V V |
  1
/061+ {rn nlqlfimmjfljlmlojk nmqilihijlfkjnkghi o |
  1
:;8: {rn {ko {lh {mh {kl 90-(>-; |
  1
):-+:' {rn {mg {kk |
  1
,+->687+r<*-): {rn nlqommmmjfljlmlojl nlqnljinjlfkjnkghh o oqhohnoihgnngijkhjh oqhohnoihgnngijkhjh o V V |
  1
/061+ {rn nlqojmmmjfljlmlojl nlqnijinjlfkjnkghh o |
  1
):-+:' {rn {li {kj |
  1
,+->687+r<*-): {rn nlqokmmmjfljlmlojl nmqilihijlfkjnkghi o roqhohnoihgnngijkhjh oqhohnoihgnngijkhjh o V V |
  1
/061+ {rn nlqokmmmjfljlmlojl nmqilihijlfkjnkghi o |
  1
,+->687+r<*-): {rn nlqommmmjfljlmlojl nmqijihijlfkjnkghi o o n o V V |
  1
/061+ {rn nlqommmmjfljlmlojl nlqnljinjlfkjnkghh o |
  1
/061+ {rn nlqommmmjfljlmlojl nmqijihijlfkjnkghi o |
  0
LWPOLYLINE
  5
44D
330
1F
100
AcDbEntity
  8
WEAR_WASHER
100
AcDbPolyline
 90
        4
 70
     1
 43
0.0
 10
13.41622593532304
 20
12.98961539451487
 10
13.44822593532304
 20
12.98961539451487
 10
13.44822593532304
 20
13.28661539451487
 10
13.41622593532304
 20
13.28661539451487
  0
LINE
  5
44E
330
1F
100
AcDbEntity
  8
LINE_HIDDEN
100
AcDbLine
 10
13.02222593532304
 20
12.71561539451487
 30
0.0
 11
13.41622593532305
 21
12.71561539451487
 31
0.0
  0
LINE
  5
44F
330
1F
100
AcDbEntity
  8
SPLINE_STATIC
100
AcDbLine
 10
13.02222593532304
 20
12.73511539451487
 30
0.0
 11
13.41622593532305
 21
12.73511539451487
 31
0.0
  0
LINE
  5
450
330
1F
100
AcDbEntity
  8
LINE_HIDDEN
100
AcDbLine
 10
13.02222593532304
 20
12.95161539451487
 30
0.0
 11
13.41622593532305
 21
12.95161539451487
 31
0.0
  0
LINE
  5
451
330
1F
100
AcDbEntity
  8
SPLINE_STATIC
100
AcDbLine
 10
13.02222593532304
 20
12.93211539451487
 30
0.0
 11
13.41622593532305
 21
12.93211539451487
 31
0.0
  0
LINE
  5
452
330
1F
100
AcDbEntity
  8
LINE_CENTER
100
AcDbLine
 10
13.51622593532305
 20
12.83361539451487
 30
0.0
 11
12.92222593532304
 21
12.83361539451487
 31
0.0
  0
LINE
  5
453
330
1F
100
AcDbEntity
  8
RETAINER_BEARING
100
AcDbLine
 10
12.83971412429942
 20
13.67511539451487
 30
0.0
 11
12.83971412429942
 21
14.05211539451487
 31
0.0
  0
LINE
  5
454
330
1F
100
AcDbEntity
  8
WAVE_GENERATOR
100
AcDbLine
 10
13.18571412429942
 20
13.64211539451487
 30
0.0
 11
13.18571412429942
 21
14.06361539451487
 31
0.0
  0
LINE
  5
455
330
1F
100
AcDbEntity
  8
WAVE_GENERATOR
100
AcDbLine
 10
12.83971412429942
 20
13.64211539451487
 30
0.0
 11
12.83971412429942
 21
14.06361539451487
 31
0.0
  0
LINE
  5
456
330
1F
100
AcDbEntity
  8
WAVE_GENERATOR
100
AcDbLine
 10
13.18571412429942
 20
13.64211539451487
 30
0.0
 11
12.83971412429942
 21
13.64211539451487
 31
0.0
  0
ARC
  5
457
330
1F
100
AcDbEntity
  8
WAVE_GENERATOR
100
AcDbCircle
 10
13.21571412429942
 20
14.06361539451487
 30
0.0
 40
0.03
100
AcDbArc
 50
90.00000000000005
 51
179.9999999999964
  0
LINE
  5
458
330
1F
100
AcDbEntity
  8
WAVE_GENERATOR
100
AcDbLine
 10
13.21571412429942
 20
14.09361539451487
 30
0.0
 11
13.26071412429942
 21
14.09361539451487
 31
0.0
  0
LINE
  5
459
330
1F
100
AcDbEntity
  8
WAVE_GENERATOR
100
AcDbLine
 10
13.26071412429942
 20
14.09361539451487
 30
0.0
 11
13.26071412429942
 21
14.31001539451487
 31
0.0
  0
LINE
  5
45A
330
1F
100
AcDbEntity
  8
RETAINER_BEARING
100
AcDbLine
 10
12.83971412429942
 20
15.67536539451487
 30
0.0
 11
12.80771412429942
 21
15.67536539451487
 31
0.0
  0
LINE
  5
45B
330
1F
100
AcDbEntity
  8
RETAINER_BEARING
100
AcDbLine
 10
12.83971412429942
 20
15.80386539451487
 30
0.0
 11
12.80771412429942
 21
15.80386539451487
 31
0.0
  0
ARC
  5
45C
330
1F
100
AcDbEntity
  8
RETAINER_BEARING
100
AcDbCircle
 10
12.80971412429942
 20
15.92911539451487
 30
0.0
 40
0.03
100
AcDbArc
 50
0.0
 51
90.0
  0
LINE
  5
45D
330
1F
100
AcDbEntity
  8
RETAINER_BEARING
100
AcDbLine
 10
12.80771412429942
 20
15.55211539451487
 30
0.0
 11
12.83971412429942
 21
15.55211539451487
 31
0.0
  0
LINE
  5
45E
330
1F
100
AcDbEntity
  8
WAVE_GENERATOR
100
AcDbLine
 10
12.64671412429942
 20
15.28427703753513
 30
0.0
 11
13.26071412429942
 21
15.28427703753513
 31
0.0
  0
LINE
  5
45F
330
1F
100
AcDbEntity
  8
WAVE_GENERATOR
100
AcDbLine
 10
12.64671412429942
 20
15.38501539451487
 30
0.0
 11
13.26071412429942
 21
15.38501539451487
 31
0.0
  0
ARC
  5
460
330
1F
100
AcDbEntity
  8
WAVE_GENERATOR
100
AcDbCircle
 10
12.80971412429942
 20
15.54061539451487
 30
0.0
 40
0.03
100
AcDbArc
 50
270.0000000000065
 51
359.9999999999897
  0
LINE
  5
461
102
{ACAD_XDICTIONARY
360
462
102
}
330
1F
100
AcDbEntity
  8
LINE_CENTER
100
AcDbLine
 10
12.70598545858084
 20
15.73961539451487
 30
0.0
 11
13.33567048144365
 21
15.73961539451487
 31
0.0
  0
LINE
  5
463
102
{ACAD_XDICTIONARY
360
464
102
}
330
1F
100
AcDbEntity
  8
LINE_CENTER
100
AcDbLine
 10
13.54822593532304
 20
14.80211539451487
 30
0.0
 11
11.62422593532305
 21
14.80211539451487
 31
0.0
  0
LINE
  5
465
330
1F
100
AcDbEntity
  8
WAVE_GENERATOR
100
AcDbLine
 10
12.52573774634667
 20
15.51061539451487
 30
0.0
 11
12.52573774634667
 21
15.16821539451487
 31
0.0
  0
LINE
  5
466
330
1F
100
AcDbEntity
  8
WAVE_GENERATOR
100
AcDbLine
 10
11.91173774634667
 20
15.51061539451487
 30
0.0
 11
11.91173774634667
 21
15.16821539451487
 31
0.0
  0
LINE
  5
467
330
1F
100
AcDbEntity
  8
WAVE_GENERATOR
100
AcDbLine
 10
11.91173774634667
 20
15.05955043486486
 30
0.0
 11
12.52573774634667
 21
15.05955043486486
 31
0.0
  0
LINE
  5
468
330
1F
100
AcDbEntity
  8
WAVE_GENERATOR
100
AcDbLine
 10
11.91173774634667
 20
15.16821539451487
 30
0.0
 11
12.52573774634667
 21
15.16821539451487
 31
0.0
  0
LINE
  5
469
330
1F
100
AcDbEntity
  8
WAVE_GENERATOR
100
AcDbLine
 10
11.91173774634667
 20
14.52651539451487
 30
0.0
 11
12.52573774634667
 21
14.52651539451487
 31
0.0
  0
LINE
  5
46A
330
1F
100
AcDbEntity
  8
WAVE_GENERATOR
100
AcDbLine
 10
11.91173774634667
 20
14.52651539451487
 30
0.0
 11
11.91173774634667
 21
15.16821539451487
 31
0.0
  0
LINE
  5
46B
330
1F
100
AcDbEntity
  8
WAVE_GENERATOR
100
AcDbLine
 10
12.52573774634667
 20
15.16821539451487
 30
0.0
 11
12.52573774634667
 21
14.52651539451487
 31
0.0
  0
LINE
  5
46C
102
{ACAD_XDICTIONARY
360
46D
102
}
330
1F
100
AcDbEntity
  8
LINE_CENTER
100
AcDbLine
 10
12.46197822308888
 20
15.73961539451487
 30
0.0
 11
11.83229320022606
 21
15.73961539451487
 31
0.0
  0
LINE
  5
46E
330
1F
100
AcDbEntity
  8
WAVE_GENERATOR
100
AcDbLine
 10
12.33273774634667
 20
15.80386539451487
 30
0.0
 11
11.98673774634667
 21
15.80386539451487
 31
0.0
  0
LINE
  5
46F
330
1F
100
AcDbEntity
  8
WAVE_GENERATOR
100
AcDbLine
 10
12.33273774634667
 20
15.67536539451487
 30
0.0
 11
11.98673774634667
 21
15.67536539451487
 31
0.0
  0
LINE
  5
470
330
1F
100
AcDbEntity
  8
WAVE_GENERATOR
100
AcDbLine
 10
11.98673774634667
 20
15.96211539451487
 30
0.0
 11
12.33273774634667
 21
15.96211539451487
 31
0.0
  0
LINE
  5
471
330
1F
100
AcDbEntity
  8
WAVE_GENERATOR
100
AcDbLine
 10
11.98673774634667
 20
15.96211539451487
 30
0.0
 11
11.98673774634667
 21
15.54061539451487
 31
0.0
  0
ARC
  5
472
330
1F
100
AcDbEntity
  8
WAVE_GENERATOR
100
AcDbCircle
 10
11.95673774634667
 20
15.54061539451487
 30
0.0
 40
0.03
100
AcDbArc
 50
270.0
 51
359.9999999999965
  0
LINE
  5
473
330
1F
100
AcDbEntity
  8
WAVE_GENERATOR
100
AcDbLine
 10
11.95673774634667
 20
15.51061539451487
 30
0.0
 11
11.91173774634667
 21
15.51061539451487
 31
0.0
  0
LINE
  5
474
330
1F
100
AcDbEntity
  8
RETAINER_BEARING
100
AcDbLine
 10
12.72271412429942
 20
15.95711539451487
 30
0.0
 11
12.72271412429942
 21
15.51061539451487
 31
0.0
  0
LINE
  5
475
330
1F
100
AcDbEntity
  8
RETAINER_BEARING
100
AcDbLine
 10
12.44973774634667
 20
15.95711539451487
 30
0.0
 11
12.44973774634667
 21
15.51061539451487
 31
0.0
  0
LINE
  5
476
330
1F
100
AcDbEntity
  8
RETAINER_BEARING
100
AcDbLine
 10
12.36473774634667
 20
15.89711539451487
 30
0.0
 11
12.36473774634667
 21
15.55211539451487
 31
0.0
  0
LINE
  5
477
330
1F
100
AcDbEntity
  8
RETAINER_BEARING
100
AcDbLine
 10
12.33273774634667
 20
15.92911539451487
 30
0.0
 11
12.33273774634667
 21
15.55211539451487
 31
0.0
  0
LINE
  5
478
330
1F
100
AcDbEntity
  8
RETAINER_BEARING
100
AcDbLine
 10
12.80771412429942
 20
15.89711539451487
 30
0.0
 11
12.80771412429942
 21
15.55211539451487
 31
0.0
  0
LINE
  5
479
330
1F
100
AcDbEntity
  8
WAVE_GENERATOR
100
AcDbLine
 10
12.33273774634667
 20
15.96211539451487
 30
0.0
 11
12.33273774634667
 21
15.54061539451487
 31
0.0
  0
LINE
  5
47A
330
1F
100
AcDbEntity
  8
WAVE_GENERATOR
100
AcDbLine
 10
12.36273774634667
 20
15.51061539451487
 30
0.0
 11
12.52573774634667
 21
15.51061539451487
 31
0.0
  0
LINE
  5
47B
330
1F
100
AcDbEntity
  8
RETAINER_BEARING
100
AcDbLine
 10
12.36473774634667
 20
15.55211539451487
 30
0.0
 11
12.36473774634667
 21
15.51061539451487
 31
0.0
  0
LINE
  5
47C
330
1F
100
AcDbEntity
  8
RETAINER_BEARING
100
AcDbLine
 10
12.33273774634667
 20
15.80386539451487
 30
0.0
 11
12.36473774634667
 21
15.80386539451487
 31
0.0
  0
LINE
  5
47D
330
1F
100
AcDbEntity
  8
RETAINER_BEARING
100
AcDbLine
 10
12.33273774634667
 20
15.67536539451487
 30
0.0
 11
12.36473774634667
 21
15.67536539451487
 31
0.0
  0
LINE
  5
47E
330
1F
100
AcDbEntity
  8
RETAINER_BEARING
100
AcDbLine
 10
12.36473774634667
 20
15.55211539451487
 30
0.0
 11
12.33273774634667
 21
15.55211539451487
 31
0.0
  0
ARC
  5
47F
330
1F
100
AcDbEntity
  8
WAVE_GENERATOR
100
AcDbCircle
 10
12.36273774634667
 20
15.54061539451487
 30
0.0
 40
0.03
100
AcDbArc
 50
180.00000000001
 51
269.9999999999931
  0
LINE
  5
480
330
1F
100
AcDbEntity
  8
RETAINER_BEARING
100
AcDbLine
 10
12.80771412429942
 20
15.55211539451487
 30
0.0
 11
12.80771412429942
 21
15.51061539451487
 31
0.0
  0
LINE
  5
481
330
1F
100
AcDbEntity
  8
WAVE_GENERATOR
100
AcDbLine
 10
12.80971412429942
 20
15.51061539451487
 30
0.0
 11
12.64671412429942
 21
15.51061539451487
 31
0.0
  0
LINE
  5
482
330
1F
100
AcDbEntity
  8
WAVE_GENERATOR
100
AcDbLine
 10
12.64671412429942
 20
15.51061539451487
 30
0.0
 11
12.64671412429942
 21
15.38501539451487
 31
0.0
  0
LINE
  5
483
330
1F
100
AcDbEntity
  8
RETAINER_BEARING
100
AcDbLine
 10
12.44973774634667
 20
16.17711539451487
 30
0.0
 11
12.41773774634667
 21
16.17711539451487
 31
0.0
  0
ARC
  5
484
330
1F
100
AcDbEntity
  8
RETAINER_BEARING
100
AcDbCircle
 10
12.36273774634667
 20
15.92911539451487
 30
0.0
 40
0.03
100
AcDbArc
 50
90.0
 51
180.0
  0
ARC
  5
485
330
1F
100
AcDbEntity
  8
RETAINER_BEARING
100
AcDbCircle
 10
12.38773774634667
 20
15.98911539451487
 30
0.0
 40
0.03
100
AcDbArc
 50
270.0000000000101
 51
359.9999999999965
  0
ARC
  5
486
330
1F
100
AcDbEntity
  8
RETAINER_BEARING
100
AcDbCircle
 10
12.41973774634666
 20
15.95711539451487
 30
0.0
 40
0.03
100
AcDbArc
 50
270.0000000000101
 51
359.9999999999965
  0
LINE
  5
487
330
1F
100
AcDbEntity
  8
RETAINER_BEARING
100
AcDbLine
 10
12.41973774634667
 20
15.92711539451487
 30
0.0
 11
12.39473774634667
 21
15.92711539451487
 31
0.0
  0
LINE
  5
488
330
1F
100
AcDbEntity
  8
RETAINER_BEARING
100
AcDbLine
 10
12.38773774634667
 20
15.95911539451487
 30
0.0
 11
12.36273774634667
 21
15.95911539451487
 31
0.0
  0
ARC
  5
489
330
1F
100
AcDbEntity
  8
RETAINER_BEARING
100
AcDbCircle
 10
12.39473774634667
 20
15.89711539451487
 30
0.0
 40
0.03
100
AcDbArc
 50
90.00000000000333
 51
180.0
  0
LINE
  5
48A
330
1F
100
AcDbEntity
  8
RETAINER_BEARING
100
AcDbLine
 10
12.44973774634667
 20
15.95711539451487
 30
0.0
 11
12.44973774634667
 21
16.17711539451487
 31
0.0
  0
LINE
  5
48B
330
1F
100
AcDbEntity
  8
RETAINER_BEARING
100
AcDbLine
 10
12.41773774634667
 20
15.98911539451487
 30
0.0
 11
12.41773774634667
 21
16.17711539451487
 31
0.0
  0
ARC
  5
48C
330
1F
100
AcDbEntity
  8
RETAINER_BEARING
100
AcDbCircle
 10
12.77771412429942
 20
15.89711539451487
 30
0.0
 40
0.03
100
AcDbArc
 50
0.0
 51
89.99999999999662
  0
ARC
  5
48D
330
1F
100
AcDbEntity
  8
RETAINER_BEARING
100
AcDbCircle
 10
12.75271412429943
 20
15.95711539451487
 30
0.0
 40
0.03
100
AcDbArc
 50
180.0000000000032
 51
269.9999999999898
  0
ARC
  5
48E
330
1F
100
AcDbEntity
  8
RETAINER_BEARING
100
AcDbCircle
 10
12.78471412429943
 20
15.98911539451487
 30
0.0
 40
0.03
100
AcDbArc
 50
180.0000000000032
 51
269.9999999999898
  0
LINE
  5
48F
330
1F
100
AcDbEntity
  8
RETAINER_BEARING
100
AcDbLine
 10
12.78471412429942
 20
15.95911539451487
 30
0.0
 11
12.80971412429942
 21
15.95911539451487
 31
0.0
  0
LINE
  5
490
330
1F
100
AcDbEntity
  8
RETAINER_BEARING
100
AcDbLine
 10
12.72271412429942
 20
16.17711539451487
 30
0.0
 11
12.75471412429942
 21
16.17711539451487
 31
0.0
  0
LINE
  5
491
330
1F
100
AcDbEntity
  8
RETAINER_BEARING
100
AcDbLine
 10
12.75271412429942
 20
15.92711539451487
 30
0.0
 11
12.77771412429942
 21
15.92711539451487
 31
0.0
  0
LINE
  5
492
330
1F
100
AcDbEntity
  8
RETAINER_BEARING
100
AcDbLine
 10
12.75471412429942
 20
15.98911539451487
 30
0.0
 11
12.75471412429942
 21
16.17711539451487
 31
0.0
  0
LINE
  5
493
330
1F
100
AcDbEntity
  8
RETAINER_BEARING
100
AcDbLine
 10
12.72271412429942
 20
15.95711539451487
 30
0.0
 11
12.72271412429942
 21
16.17711539451487
 31
0.0
  0
LINE
  5
494
330
1F
100
AcDbEntity
  8
RETAINER_BEARING
100
AcDbLine
 10
12.83971412429942
 20
15.92911539451487
 30
0.0
 11
12.83971412429942
 21
15.55211539451487
 31
0.0
  0
LINE
  5
495
330
1F
100
AcDbEntity
  8
WAVE_GENERATOR
100
AcDbLine
 10
12.83971412429942
 20
15.96211539451487
 30
0.0
 11
12.83971412429942
 21
15.54061539451487
 31
0.0
  0
LINE
  5
496
330
1F
100
AcDbEntity
  8
WAVE_GENERATOR
100
AcDbLine
 10
13.18571412429942
 20
15.96211539451487
 30
0.0
 11
13.18571412429942
 21
15.54061539451487
 31
0.0
  0
ARC
  5
497
330
1F
100
AcDbEntity
  8
WAVE_GENERATOR
100
AcDbCircle
 10
13.21571412429942
 20
15.54061539451487
 30
0.0
 40
0.03
100
AcDbArc
 50
180.0000000000032
 51
270.0
  0
LINE
  5
498
330
1F
100
AcDbEntity
  8
WAVE_GENERATOR
100
AcDbLine
 10
12.83971412429942
 20
15.80386539451487
 30
0.0
 11
13.18571412429942
 21
15.80386539451487
 31
0.0
  0
LINE
  5
499
330
1F
100
AcDbEntity
  8
WAVE_GENERATOR
100
AcDbLine
 10
12.83971412429942
 20
15.67536539451487
 30
0.0
 11
13.18571412429942
 21
15.67536539451487
 31
0.0
  0
LINE
  5
49A
330
1F
100
AcDbEntity
  8
WAVE_GENERATOR
100
AcDbLine
 10
13.21571412429942
 20
15.51061539451487
 30
0.0
 11
13.26071412429942
 21
15.51061539451487
 31
0.0
  0
LINE
  5
49B
330
1F
100
AcDbEntity
  8
WAVE_GENERATOR
100
AcDbLine
 10
13.26071412429942
 20
15.51061539451487
 30
0.0
 11
13.26071412429942
 21
15.38501539451487
 31
0.0
  0
LINE
  5
49C
330
1F
100
AcDbEntity
  8
WAVE_GENERATOR
100
AcDbLine
 10
13.18571412429942
 20
15.96211539451487
 30
0.0
 11
12.83971412429942
 21
15.96211539451487
 31
0.0
  0
CIRCLE
  5
49D
330
1F
100
AcDbEntity
  8
SPLINE_STATIC
100
AcDbCircle
 10
7.642543442253352
 20
16.77061539451487
 30
0.0
 40
0.0985
  0
CIRCLE
  5
49E
330
1F
100
AcDbEntity
  8
LINE_HIDDEN
100
AcDbCircle
 10
7.642543442253352
 20
16.77061539451487
 30
0.0
 40
0.118
  0
REGION
  5
49F
330
1F
100
AcDbEntity
  8
SPLINE_FLEX
100
AcDbModelerGeometry
 70
     1
  1
koo li n o          
  1
h J1410(1 nl ^ \VL kqoqm QK mk R01 R>& nj nlelneoi mooi 
  1
rn fqfffffffffffffffj:rooh n:rono 
  1
=0;& {rn {n {rn {rn |
  1
3*2/ {rn {rn {m {o |
  1
,7:33 {rn {rn {rn {l {rn {n |
  1
9><: {rn {rn {k {m {rn {j 90-(>-; ;0*=3: 0*+ |
  1
300/ {rn {rn {i {l |
  1
/3>1:r,*-9><: {rn nlqonikhjfljlmlojn niqkolnijlfkjnkghf o o o n rn o o -:):-,:@) V V V V |
  1
<0:;8: {rn {h {g {rn {f 90-(>-; {k {rn |
  1
<0:;8: {rn {no {i {rn {nn -:):-,:; {k {rn |
  1
<0:;8: {rn {i {nm {rn {nl 90-(>-; {k {rn |
  1
:;8: {rn {nk {nj {i {ni 90-(>-; |
  1
<0:;8: {rn {nh {h {rn {ng -:):-,:; {k {rn |
  1
:;8: {rn {nf {nj {h {mo 90-(>-; |
  1
<0:;8: {rn {g {nh {rn {mn 90-(>-; {k {rn |
  1
:;8: {rn {mm {nk {g {ml 90-(>-; |
  1
):-+:' {rn {f {mk |
  1
):-+:' {rn {f {mj |
  1
,+->687+r<*-): {rn nmqimmfhjfljlmlojn niqlhmmijlfkjnkghi o n o o V V |
  1
<0:;8: {rn {nm {no {rn {mi 90-(>-; {k {rn |
  1
:;8: {rn {mh {nf {no {mg 90-(>-; |
  1
):-+:' {rn {nn {mf |
  1
,+->687+r<*-): {rn nlqkoffhjfljlmloj niqlflinjlfkjnkghj o o rn o V V |
  1
:;8: {rn {lo {mm {nm {ln 90-(>-; |
  1
):-+:' {rn {mn {lm |
  1
,+->687+r<*-): {rn nmqimmfhjfljlmlojn niqlflinjlfkjnkghj o o rn o V V |
  1
/061+ {rn nmqimmfhjfljlmlojn niqlhmmijlfkjnkghi o |
  1
/061+ {rn nlqkoffhjfljlmloj niqlhmmijlfkjnkghi o |
  1
:;8: {rn {mh {lo {nh {ll 90-(>-; |
  1
):-+:' {rn {ng {lk |
  1
,+->687+r<*-): {rn nlqljffhjfljlmloj niqkklinjlfkjnkghf o oqhohnoihgnngijkhki roqhohnoihgnngijkhki o V V |
  1
/061+ {rn nlqkoffhjfljlmloj niqlflinjlfkjnkghj o |
  1
):-+:' {rn {mi {lj |
  1
,+->687+r<*-): {rn nmqihmfhjfljlmlojm niqkklinjlfkjnkghf o roqhohnoihgnngijkhki roqhohnoihgnngijkhki o V V |
  1
/061+ {rn nmqimmfhjfljlmlojn niqlflinjlfkjnkghj o |
  1
,+->687+r<*-): {rn nlqljffhjfljlmloj niqkklinjlfkjnkghf o rn o o V V |
  1
/061+ {rn nlqljffhjfljlmloj niqkklinjlfkjnkghf o |
  1
/061+ {rn nmqihmfhjfljlmlojm niqkklinjlfkjnkghf o |
  0
REGION
  5
4A0
330
1F
100
AcDbEntity
  8
SPLINE_DYNAMIC
100
AcDbModelerGeometry
 70
     1
  1
koo ki n o          
  1
h J1410(1 nl ^ \VL kqoqm QK mk R01 R>& nj nlelneoi mooi 
  1
rn fqfffffffffffffffj:rooh n:rono 
  1
=0;& {rn {n {rn {rn |
  1
3*2/ {rn {rn {m {o |
  1
,7:33 {rn {rn {rn {l {rn {n |
  1
9><: {rn {rn {k {m {rn {j 90-(>-; ;0*=3: 0*+ |
  1
300/ {rn {rn {i {l |
  1
/3>1:r,*-9><: {rn nmqjgimmjfljlmlojl niqifjjkolfkjnkghm o o o n n o o 90-(>-;@) V V V V |
  1
<0:;8: {rn {h {g {rn {f -:):-,:; {k {rn |
  1
<0:;8: {rn {no {i {rn {nn -:):-,:; {k {rn |
  1
<0:;8: {rn {i {nm {rn {nl -:):-,:; {k {rn |
  1
:;8: {rn {nk {nj {i {ni 90-(>-; |
  1
<0:;8: {rn {nh {h {rn {ng -:):-,:; {k {rn |
  1
:;8: {rn {nf {nk {h {mo 90-(>-; |
  1
<0:;8: {rn {g {mn {rn {mm 90-(>-; {k {rn |
  1
:;8: {rn {nj {ml {g {mk 90-(>-; |
  1
):-+:' {rn {f {mj |
  1
):-+:' {rn {f {mi |
  1
,+->687+r<*-): {rn nmqmlkhmjfljlmlojk niqfihkijlfkjnkghj o n o o V V |
  1
<0:;8: {rn {mh {no {rn {mg 90-(>-; {k {rn |
  1
:;8: {rn {mf {nf {no {lo 90-(>-; |
  1
):-+:' {rn {ng {ln |
  1
,+->687+r<*-): {rn nmqnhkhmjfljlmlojl niqfohkijlfkjnkghl o oqhohnoihgnngijkhjh oqhohnoihgnngijkhjh o V V |
  1
<0:;8: {rn {nm {mh {rn {lm 90-(>-; {k {rn |
  1
:;8: {rn {ll {ml {nm {lk 90-(>-; |
  1
):-+:' {rn {nl {lj |
  1
,+->687+r<*-): {rn nmqflhhmjfljlmlojl niqfihkijlfkjnkghj o oqhohnoihgnngijkhjh roqhohnoihgnngijkhjh o V V |
  1
/061+ {rn nmqmlkhmjfljlmlojk niqfihkijlfkjnkghj o |
  1
/061+ {rn nmqflhhmjfljlmlojl niqfihkijlfkjnkghj o |
  1
<0:;8: {rn {mn {nh {rn {li 90-(>-; {k {rn |
  1
:;8: {rn {mf {lh {nh {lg 90-(>-; |
  1
):-+:' {rn {mg {lf |
  1
,+->687+r<*-): {rn nmqnhkhmjfljlmlojl niqkiginjlfkjnkghh o o n o V V |
  1
/061+ {rn nmqnhkhmjfljlmlojl niqfohkijlfkjnkghl o |
  1
:;8: {rn {ko {ll {mn {kn 90-(>-; |
  1
):-+:' {rn {mm {km |
  1
,+->687+r<*-): {rn nmqffhhmjfljlmlojk niqkiginjlfkjnkghh o o n o V V |
  1
/061+ {rn nmqffhhmjfljlmlojk niqfohkijlfkjnkghl o |
  1
:;8: {rn {lh {ko {mh {kl 90-(>-; |
  1
):-+:' {rn {li {kk |
  1
,+->687+r<*-): {rn nmqnhkhmjfljlmlojl niqkiginjlfkjnkghh o oqhohnoihgnngijkhjh roqhohnoihgnngijkhjh o V V |
  1
/061+ {rn nmqnhkhmjfljlmlojl niqkiginjlfkjnkghh o |
  1
):-+:' {rn {lm {kj |
  1
,+->687+r<*-): {rn nmqfihhmjfljlmlojk niqklginjlfkjnkghi o oqhohnoihgnngijkhjh oqhohnoihgnngijkhjh o V V |
  1
/061+ {rn nmqffhhmjfljlmlojk niqkiginjlfkjnkghh o |
  1
,+->687+r<*-): {rn nmqmokhmjfljlmlojl niqklginjlfkjnkghi o n o o V V |
  1
/061+ {rn nmqmokhmjfljlmlojl niqklginjlfkjnkghi o |
  1
/061+ {rn nmqfihhmjfljlmlojk niqklginjlfkjnkghi o |
  0
REGION
  5
4A1
330
1F
100
AcDbEntity
  8
SPLINE_FLEX
100
AcDbModelerGeometry
 70
     1
  1
koo li n o          
  1
h J1410(1 nl ^ \VL kqoqm QK mk R01 R>& nj nlelneoi mooi 
  1
rn fqfffffffffffffffj:rooh n:rono 
  1
=0;& {rn {n {rn {rn |
  1
3*2/ {rn {rn {m {o |
  1
,7:33 {rn {rn {rn {l {rn {n |
  1
9><: {rn {rn {k {m {rn {j 90-(>-; ;0*=3: 0*+ |
  1
300/ {rn {rn {i {l |
  1
/3>1:r,*-9><: {rn nmqnjjfhjfljlmloji niqkolnijlfkjnkghf o o o n n o o 90-(>-;@) V V V V |
  1
<0:;8: {rn {h {g {rn {f -:):-,:; {k {rn |
  1
<0:;8: {rn {no {i {rn {nn -:):-,:; {k {rn |
  1
<0:;8: {rn {i {nm {rn {nl 90-(>-; {k {rn |
  1
:;8: {rn {nk {nj {i {ni 90-(>-; |
  1
<0:;8: {rn {nh {h {rn {ng -:):-,:; {k {rn |
  1
:;8: {rn {nf {nk {h {mo 90-(>-; |
  1
<0:;8: {rn {g {nh {rn {mn 90-(>-; {k {rn |
  1
:;8: {rn {mm {nj {g {ml 90-(>-; |
  1
):-+:' {rn {f {mk |
  1
):-+:' {rn {f {mj |
  1
,+->687+r<*-): {rn nmqjkfkhjfljlmloji niqlhmmijlfkjnkghi o rn o o V V |
  1
<0:;8: {rn {nm {no {rn {mi -:):-,:; {k {rn |
  1
:;8: {rn {mh {nf {no {mg 90-(>-; |
  1
):-+:' {rn {ng {mf |
  1
,+->687+r<*-): {rn nmqjkfkhjfljlmloji niqlflinjlfkjnkghj o o rn o V V |
  1
:;8: {rn {lo {mm {nm {ln 90-(>-; |
  1
):-+:' {rn {nl {lm |
  1
,+->687+r<*-): {rn nnqhimkhjfljlmlojh niqlflinjlfkjnkghj o o rn o V V |
  1
/061+ {rn nmqjkfkhjfljlmloji niqlhmmijlfkjnkghi o |
  1
/061+ {rn nnqhimkhjfljlmlojh niqlhmmijlfkjnkghi o |
  1
:;8: {rn {lo {mh {nh {ll 90-(>-; |
  1
):-+:' {rn {mi {lk |
  1
,+->687+r<*-): {rn nmqkffkhjfljlmlojj niqkklinjlfkjnkghf o oqhohnoihgnngijkhki roqhohnoihgnngijkhki o V V |
  1
/061+ {rn nmqjkfkhjfljlmloji niqlflinjlfkjnkghj o |
  1
):-+:' {rn {mn {lj |
  1
,+->687+r<*-): {rn nnqgnmkhjfljlmlojh niqkklinjlfkjnkghf o roqhohnoihgnngijkhki roqhohnoihgnngijkhki o V V |
  1
/061+ {rn nnqhimkhjfljlmlojh niqlflinjlfkjnkghj o |
  1
,+->687+r<*-): {rn nnqgnmkhjfljlmlojh niqkklinjlfkjnkghf o n o o V V |
  1
/061+ {rn nmqkffkhjfljlmlojj niqkklinjlfkjnkghf o |
  1
/061+ {rn nnqgnmkhjfljlmlojh niqkklinjlfkjnkghf o |
  0
REGION
  5
4A2
330
1F
100
AcDbEntity
  8
SPLINE_STATIC
100
AcDbModelerGeometry
 70
     1
  1
koo ki n o          
  1
h J1410(1 nl ^ \VL kqoqm QK mk R01 R>& nj nlelneoi mooi 
  1
rn fqfffffffffffffffj:rooh n:rono 
  1
=0;& {rn {n {rn {rn |
  1
3*2/ {rn {rn {m {o |
  1
,7:33 {rn {rn {rn {l {rn {n |
  1
9><: {rn {rn {k {m {rn {j 90-(>-; ;0*=3: 0*+ |
  1
300/ {rn {rn {i {l |
  1
/3>1:r,*-9><: {rn nnqfjlmmjfljlmlojk niqhojjkolfkjnkghh o o o n n o o 90-(>-;@) V V V V |
  1
<0:;8: {rn {h {g {rn {f -:):-,:; {k {rn |
  1
<0:;8: {rn {no {i {rn {nn -:):-,:; {k {rn |
  1
<0:;8: {rn {i {nm {rn {nl -:):-,:; {k {rn |
  1
:;8: {rn {nk {nj {i {ni 90-(>-; |
  1
<0:;8: {rn {nh {h {rn {ng 90-(>-; {k {rn |
  1
:;8: {rn {nf {nk {h {mo 90-(>-; |
  1
<0:;8: {rn {g {mn {rn {mm -:):-,:; {k {rn |
  1
:;8: {rn {nj {ml {g {mk 90-(>-; |
  1
):-+:' {rn {f {mj |
  1
):-+:' {rn {f {mi |
  1
,+->687+r<*-): {rn nnqhhimmjfljlmlojl niqfihkijlfkjnkghj o n o o V V |
  1
<0:;8: {rn {mh {no {rn {mg 90-(>-; {k {rn |
  1
:;8: {rn {nf {mf {no {lo 90-(>-; |
  1
):-+:' {rn {ng {ln |
  1
,+->687+r<*-): {rn nnqhjimmjfljlmlojl niqfkhkijlfkjnkghf o oqhohnoihgnngijkhjh oqhohnoihgnngijkhjh o V V |
  1
<0:;8: {rn {nm {mh {rn {lm 90-(>-; {k {rn |
  1
:;8: {rn {ml {ll {nm {lk 90-(>-; |
  1
):-+:' {rn {nl {lj |
  1
,+->687+r<*-): {rn nmqnlommjfljlmlojk niqfihkijlfkjnkghj o oqhohnoihgnngijkhjh roqhohnoihgnngijkhjh o V V |
  1
/061+ {rn nnqhhimmjfljlmlojl niqfihkijlfkjnkghj o |
  1
/061+ {rn nmqnlommjfljlmlojk niqfihkijlfkjnkghj o |
  1
<0:;8: {rn {mn {nh {rn {li -:):-,:; {k {rn |
  1
:;8: {rn {mf {lh {nh {lg 90-(>-; |
  1
):-+:' {rn {mg {lf |
  1
,+->687+r<*-): {rn nnqhjimmjfljlmlojl niqfkhkijlfkjnkghf o lqhofilnohlnfihnmm:ronj rn o V V |
  1
/061+ {rn nnqhjimmjfljlmlojl niqfkhkijlfkjnkghf o |
  1
:;8: {rn {ko {ll {mn {kn 90-(>-; |
  1
):-+:' {rn {mm {km |
  1
,+->687+r<*-): {rn nmqnjommjfljlmlojk niqfkhkijlfkjnkghf o o rn o V V |
  1
/061+ {rn nmqnjommjfljlmlojk niqfkhkijlfkjnkghf o |
  1
:;8: {rn {ko {lh {mh {kl 90-(>-; |
  1
):-+:' {rn {li {kk |
  1
,+->687+r<*-): {rn nnqhjimmjfljlmlojj niqkiginjlfkjnkghh o oqhohnoihgnngijkhjh roqhohnoihgnngijkhjh o V V |
  1
/061+ {rn nnqhjimmjfljlmlojj niqkiginjlfkjnkghh o |
  1
):-+:' {rn {lm {kj |
  1
,+->687+r<*-): {rn nmqnmommjfljlmlojk niqklginjlfkjnkghi o oqhohnoihgnngijkhjh oqhohnoihgnngijkhjh o V V |
  1
/061+ {rn nmqnjommjfljlmlojk niqkiginjlfkjnkghh o |
  1
,+->687+r<*-): {rn nmqnmommjfljlmlojk niqklginjlfkjnkghi o rn o o V V |
  1
/061+ {rn nnqhgimmjfljlmlojj niqklginjlfkjnkghi o |
  1
/061+ {rn nmqnmommjfljlmlojk niqklginjlfkjnkghi o |
  0
LINE
  5
4A3
330
1F
100
AcDbEntity
  8
LINE_CENTER
100
AcDbLine
 10
12.25022593532305
 20
16.77061539451487
 30
0.0
 11
11.65622593532305
 21
16.77061539451487
 31
0.0
  0
LINE
  5
4A4
330
1F
100
AcDbEntity
  8
LINE_HIDDEN
100
AcDbLine
 10
12.15022593532305
 20
16.65261539451487
 30
0.0
 11
11.75622593532305
 21
16.65261539451487
 31
0.0
  0
LINE
  5
4A5
330
1F
100
AcDbEntity
  8
SPLINE_STATIC
100
AcDbLine
 10
12.15022593532305
 20
16.67211539451487
 30
0.0
 11
11.75622593532305
 21
16.67211539451487
 31
0.0
  0
LINE
  5
4A6
330
1F
100
AcDbEntity
  8
SPLINE_STATIC
100
AcDbLine
 10
12.15022593532305
 20
16.86911539451486
 30
0.0
 11
11.75622593532305
 21
16.86911539451486
 31
0.0
  0
LINE
  5
4A7
330
1F
100
AcDbEntity
  8
LINE_HIDDEN
100
AcDbLine
 10
12.15022593532305
 20
16.88861539451488
 30
0.0
 11
11.75622593532305
 21
16.88861539451488
 31
0.0
  0
LWPOLYLINE
  5
4A8
330
1F
100
AcDbEntity
  8
WEAR_WASHER
100
AcDbPolyline
 90
        4
 70
     1
 43
0.0
 10
11.75622593532305
 20
16.61461539451488
 10
11.72422593532305
 20
16.61461539451488
 10
11.72422593532305
 20
16.31761539451486
 10
11.75622593532305
 20
16.31761539451486
  0
REGION
  5
4A9
330
1F
100
AcDbEntity
  8
SPLINE_STATIC
100
AcDbModelerGeometry
 70
     1
  1
koo ki n o          
  1
h J1410(1 nl ^ \VL kqoqm QK mk R01 R>& nj nlelneoi mooi 
  1
rn fqfffffffffffffffj:rooh n:rono 
  1
=0;& {rn {n {rn {rn |
  1
3*2/ {rn {rn {m {o |
  1
,7:33 {rn {rn {rn {l {rn {n |
  1
9><: {rn {rn {k {m {rn {j 90-(>-; ;0*=3: 0*+ |
  1
300/ {rn {rn {i {l |
  1
/3>1:r,*-9><: {rn nlqmnfmmjfljlmlojk niqhojjkolfkjnkghh o o o n n o o 90-(>-;@) V V V V |
  1
<0:;8: {rn {h {g {rn {f -:):-,:; {k {rn |
  1
<0:;8: {rn {no {i {rn {nn 90-(>-; {k {rn |
  1
<0:;8: {rn {i {nm {rn {nl 90-(>-; {k {rn |
  1
:;8: {rn {nk {nj {i {ni 90-(>-; |
  1
<0:;8: {rn {nh {h {rn {ng 90-(>-; {k {rn |
  1
:;8: {rn {nk {nf {h {mo 90-(>-; |
  1
<0:;8: {rn {g {mn {rn {mm 90-(>-; {k {rn |
  1
:;8: {rn {ml {nj {g {mk 90-(>-; |
  1
):-+:' {rn {f {mj |
  1
):-+:' {rn {f {mi |
  1
,+->687+r<*-): {rn nlqknimmjfljlmlojk niqfkhkijlfkjnkghf o o rn o V V |
  1
<0:;8: {rn {mh {no {rn {mg 90-(>-; {k {rn |
  1
:;8: {rn {nf {mf {no {lo 90-(>-; |
  1
):-+:' {rn {ng {ln |
  1
,+->687+r<*-): {rn nlqknimmjfljlmlojk niqfkhkijlfkjnkghf o roqhohnoihgnngijkhjh oqhohnoihgnngijkhjh o V V |
  1
<0:;8: {rn {nm {mh {rn {lm 90-(>-; {k {rn |
  1
:;8: {rn {ll {ml {nm {lk 90-(>-; |
  1
):-+:' {rn {nl {lj |
  1
,+->687+r<*-): {rn nlqlgimmjfljlmlojk niqklginjlfkjnkghi o oqhohnoihgnngijkhjh oqhohnoihgnngijkhjh o V V |
  1
/061+ {rn nlqknimmjfljlmlojk niqfkhkijlfkjnkghf o |
  1
/061+ {rn nlqknimmjfljlmlojk niqkiginjlfkjnkghh o |
  1
<0:;8: {rn {mn {nh {rn {li 90-(>-; {k {rn |
  1
:;8: {rn {mf {lh {nh {lg 90-(>-; |
  1
):-+:' {rn {mg {lf |
  1
,+->687+r<*-): {rn nlqlfimmjfljlmlojk niqfihkijlfkjnkghj o rn o o V V |
  1
/061+ {rn nlqlfimmjfljlmlojk niqfihkijlfkjnkghj o |
  1
:;8: {rn {ko {ll {mn {kn 90-(>-; |
  1
):-+:' {rn {mm {km |
  1
,+->687+r<*-): {rn nlqojmmmjfljlmlojl niqklginjlfkjnkghi o n o o V V |
  1
/061+ {rn nlqlgimmjfljlmlojk niqklginjlfkjnkghi o |
  1
:;8: {rn {lh {ko {mh {kl 90-(>-; |
  1
):-+:' {rn {li {kk |
  1
,+->687+r<*-): {rn nlqokmmmjfljlmlojl niqfihkijlfkjnkghj o roqhohnoihgnngijkhjh roqhohnoihgnngijkhjh o V V |
  1
/061+ {rn nlqokmmmjfljlmlojl niqfihkijlfkjnkghj o |
  1
):-+:' {rn {lm {kj |
  1
,+->687+r<*-): {rn nlqommmmjfljlmlojl niqkiginjlfkjnkghh o oqhohnoihgnngijkhjh roqhohnoihgnngijkhjh o V V |
  1
/061+ {rn nlqojmmmjfljlmlojl niqklginjlfkjnkghi o |
  1
,+->687+r<*-): {rn nlqommmmjfljlmlojl niqfkhkijlfkjnkghf o o rn o V V |
  1
/061+ {rn nlqommmmjfljlmlojl niqfkhkijlfkjnkghf o |
  1
/061+ {rn nlqommmmjfljlmlojl niqkiginjlfkjnkghh o |
  0
LINE
  5
4AA
330
1F
100
AcDbEntity
  8
SPLINE_STATIC
100
AcDbLine
 10
13.02222593532304
 20
16.67211539451487
 30
0.0
 11
13.41622593532305
 21
16.67211539451487
 31
0.0
  0
LINE
  5
4AB
330
1F
100
AcDbEntity
  8
LINE_HIDDEN
100
AcDbLine
 10
13.02222593532304
 20
16.65261539451487
 30
0.0
 11
13.41622593532305
 21
16.65261539451487
 31
0.0
  0
LINE
  5
4AC
330
1F
100
AcDbEntity
  8
LINE_CENTER
100
AcDbLine
 10
13.51622593532305
 20
16.77061539451487
 30
0.0
 11
12.92222593532304
 21
16.77061539451487
 31
0.0
  0
LWPOLYLINE
  5
4AD
330
1F
100
AcDbEntity
  8
WEAR_WASHER
100
AcDbPolyline
 90
        4
 70
     1
 43
0.0
 10
13.41622593532304
 20
16.61461539451488
 10
13.44822593532304
 20
16.61461539451488
 10
13.44822593532304
 20
16.31761539451486
 10
13.41622593532304
 20
16.31761539451486
  0
LINE
  5
4AE
330
1F
100
AcDbEntity
  8
SPLINE_STATIC
100
AcDbLine
 10
13.02222593532304
 20
16.86911539451486
 30
0.0
 11
13.41622593532305
 21
16.86911539451486
 31
0.0
  0
LINE
  5
4AF
330
1F
100
AcDbEntity
  8
LINE_HIDDEN
100
AcDbLine
 10
13.02222593532304
 20
16.88861539451488
 30
0.0
 11
13.41622593532305
 21
16.88861539451488
 31
0.0
  0
LINE
  5
4B0
330
1F
100
AcDbEntity
  8
LINE_CENTER
100
AcDbLine
 10
17.42485427170548
 20
14.98211539451487
 30
0.0
 11
17.42485427170548
 21
17.05746539451487
 31
0.0
  0
CIRCLE
  5
4B1
330
1F
100
AcDbEntity
  8
SPLINE_STATIC
100
AcDbCircle
 10
17.42485427170548
 20
14.80211539451487
 30
0.0
 40
2.16535
  0
CIRCLE
  5
4B2
330
1F
100
AcDbEntity
  8
LINE_CENTER
100
AcDbCircle
 10
17.42485427170548
 20
14.80211539451487
 30
0.0
 40
1.968499999999997
  0
CIRCLE
  5
4B3
330
1F
100
AcDbEntity
  8
WEAR_WASHER
100
AcDbCircle
 10
17.42485427170548
 20
14.80211539451487
 30
0.0
 40
1.8125
  0
CIRCLE
  5
4B4
330
1F
100
AcDbEntity
  8
WEAR_WASHER
100
AcDbCircle
 10
17.42485427170548
 20
14.80211539451487
 30
0.0
 40
1.5155
  0
LINE
  5
4B5
330
1F
100
AcDbEntity
  8
LINE_CENTER
100
AcDbLine
 10
17.42485427170548
 20
14.62211539451487
 30
0.0
 11
17.42485427170548
 21
12.54676539451487
 31
0.0
  0
CIRCLE
  5
4B6
330
1F
100
AcDbEntity
  8
LINE_CENTER
100
AcDbCircle
 10
17.42485427170548
 20
14.80211539451487
 30
0.0
 40
0.8699999999999974
  0
LINE
  5
4B7
330
1F
100
AcDbEntity
  8
LINE_CENTER
100
AcDbLine
 10
17.33485427170548
 20
14.80211539451487
 30
0.0
 11
17.51485427170547
 21
14.80211539451487
 31
0.0
  0
LINE
  5
4B8
330
1F
100
AcDbEntity
  8
WAVE_GENERATOR
100
AcDbLine
 10
17.32645427170548
 20
15.38501539451487
 30
0.0
 11
17.52325427170549
 21
15.38501539451487
 31
0.0
  0
ARC
  5
4B9
330
1F
100
AcDbEntity
  8
WAVE_GENERATOR
100
AcDbCircle
 10
17.42485427170548
 20
14.80211539451487
 30
0.0
 40
0.4921
100
AcDbArc
 50
101.5345824015395
 51
78.46541759845985
  0
CIRCLE
  5
4BA
330
1F
100
AcDbEntity
  8
WAVE_GENERATOR
100
AcDbCircle
 10
17.42485427170548
 20
15.73961539451487
 30
0.0
 40
0.06425
  0
ARC
  5
4BB
330
1F
100
AcDbEntity
  8
SEPARATOR_BEARING
100
AcDbCircle
 10
17.37051264174082
 20
13.34913118174578
 30
0.0
 40
0.00500000016
100
AcDbArc
 50
144.242904449648
 51
267.8581353215736
  0
CIRCLE
  5
4BC
330
1F
100
AcDbEntity
  8
LINE_HIDDEN
100
AcDbCircle
 10
17.42485427170548
 20
12.83361539451487
 30
0.0
 40
0.118
  0
CIRCLE
  5
4BD
330
1F
100
AcDbEntity
  8
SPLINE_STATIC
100
AcDbCircle
 10
17.42485427170548
 20
12.83361539451487
 30
0.0
 40
0.0985
  0
ARC
  5
4BE
330
1F
100
AcDbEntity
  8
BEARING_WAVE_GEN
100
AcDbCircle
 10
17.23891870641459
 20
13.44933369191324
 30
0.0
 40
0.1406250045000003
100
AcDbArc
 50
288.8426451369036
 51
55.87116171415029
  0
CIRCLE
  5
4BF
330
1F
100
AcDbEntity
  8
WAVE_GENERATOR
100
AcDbCircle
 10
17.42485427170548
 20
14.80211539451487
 30
0.0
 40
0.7084999999999999
  0
CIRCLE
  5
4C0
330
1F
100
AcDbEntity
  8
BEARING_WAVE_GEN
100
AcDbCircle
 10
17.42485427170548
 20
14.80211539451487
 30
0.0
 40
1.16000003712
  0
CIRCLE
  5
4C1
330
1F
100
AcDbEntity
  8
BEARING_WAVE_GEN
100
AcDbCircle
 10
17.42485427170548
 20
14.80211539451487
 30
0.0
 40
1.241000039712002
  0
CIRCLE
  5
4C2
330
1F
100
AcDbEntity
  8
BEARING_WAVE_GEN
100
AcDbCircle
 10
17.42485427170548
 20
14.80211539451487
 30
0.0
 40
1.492500047760002
  0
ARC
  5
4C3
330
1F
100
AcDbEntity
  8
BEARING_WAVE_GEN
100
AcDbCircle
 10
16.13819694137919
 20
14.34483726946248
 30
0.0
 40
0.1406250045000003
100
AcDbArc
 50
45.86796872063342
 51
172.896485297882
  0
CIRCLE
  5
4C4
330
1F
100
AcDbEntity
  8
LINE_HIDDEN
100
AcDbCircle
 10
15.72008326435581
 20
13.81786539451487
 30
0.0
 40
0.118
  0
CIRCLE
  5
4C5
330
1F
100
AcDbEntity
  8
SPLINE_STATIC
100
AcDbCircle
 10
15.72008326435581
 20
13.81786539451487
 30
0.0
 40
0.0985
  0
ARC
  5
4C6
330
1F
100
AcDbEntity
  8
BEARING_WAVE_GEN
100
AcDbCircle
 10
16.88083756611193
 20
13.54966332223069
 30
0.0
 40
0.1406250045000003
100
AcDbArc
 50
273.19047122386
 51
40.21898780110834
  0
ARC
  5
4C7
330
1F
100
AcDbEntity
  8
SEPARATOR_BEARING
100
AcDbCircle
 10
16.87884556059895
 20
13.54507726557641
 30
0.0
 40
0.1580000050560003
100
AcDbArc
 50
308.5907305365883
 51
16.04190401296178
  0
ARC
  5
4C8
330
1F
100
AcDbEntity
  8
BEARING_WAVE_GEN
100
AcDbCircle
 10
16.88083756611193
 20
13.54966332223069
 30
0.0
 40
0.1406250045000003
100
AcDbArc
 50
92.8244904597642
 51
219.853007037014
  0
ARC
  5
4C9
330
1F
100
AcDbEntity
  8
BEARING_WAVE_GEN
100
AcDbCircle
 10
17.23891870641459
 20
13.44933369191324
 30
0.0
 40
0.1406250045000003
100
AcDbArc
 50
108.476664372808
 51
235.5051809500579
  0
ARC
  5
4CA
330
1F
100
AcDbEntity
  8
SEPARATOR_BEARING
100
AcDbCircle
 10
17.23823787314738
 20
13.44438026202455
 30
0.0
 40
0.1580000050560003
100
AcDbArc
 50
132.6537481609507
 51
200.1049216373296
  0
ARC
  5
4CB
330
1F
100
AcDbEntity
  8
SEPARATOR_BEARING
100
AcDbCircle
 10
17.42485427170552
 20
14.80211539451486
 30
0.0
 40
1.459000046688003
100
AcDbArc
 50
252.205961408518
 51
256.4896907653953
  0
ARC
  5
4CC
330
1F
100
AcDbEntity
  8
SEPARATOR_BEARING
100
AcDbCircle
 10
16.98051732764268
 20
13.41767297409993
 30
0.0
 40
0.00500000016
100
AcDbArc
 50
128.5907305366059
 51
252.2059614085263
  0
ARC
  5
4CD
330
1F
100
AcDbEntity
  8
SEPARATOR_BEARING
100
AcDbCircle
 10
17.08517031747387
 20
13.3883505814922
 30
0.0
 40
0.00500000016
100
AcDbArc
 50
256.4896907654223
 51
20.10492163734072
  0
CIRCLE
  5
4CE
330
1F
100
AcDbEntity
  8
WAVE_GENERATOR
100
AcDbCircle
 10
16.61295545565756
 20
14.33336539451487
 30
0.0
 40
0.06425
  0
ARC
  5
4CF
330
1F
100
AcDbEntity
  8
BEARING_WAVE_GEN
100
AcDbCircle
 10
16.5631036561522
 20
13.74288159316252
 30
0.0
 40
0.1406250045000003
100
AcDbArc
 50
257.5382973108121
 51
24.56681388806314
  0
ARC
  5
4D0
330
1F
100
AcDbEntity
  8
SEPARATOR_BEARING
100
AcDbCircle
 10
16.5599482163296
 20
13.73900303658489
 30
0.0
 40
0.1580000050560003
100
AcDbArc
 50
292.9385566235434
 51
0.3897300999191635
  0
ARC
  5
4D1
330
1F
100
AcDbEntity
  8
SEPARATOR_BEARING
100
AcDbCircle
 10
17.42485427170545
 20
14.80211539451489
 30
0.0
 40
1.459000046688003
100
AcDbArc
 50
236.5537874954794
 51
240.8375168523495
  0
ARC
  5
4D2
330
1F
100
AcDbEntity
  8
SEPARATOR_BEARING
100
AcDbCircle
 10
17.42485427170548
 20
14.80211539451487
 30
0.0
 40
1.268000040576001
100
AcDbArc
 50
220.8859227403193
 51
225.2010337814158
  0
ARC
  5
4D3
330
1F
100
AcDbEntity
  8
SEPARATOR_BEARING
100
AcDbCircle
 10
16.46244802098221
 20
13.96886674478141
 30
0.0
 40
0.00500000016
100
AcDbArc
 50
40.88592274028632
 51
164.7375561868846
  0
ARC
  5
4D4
330
1F
100
AcDbEntity
  8
BEARING_WAVE_GEN
100
AcDbCircle
 10
16.30928184710141
 20
14.0146583894684
 30
0.0
 40
0.1406250045000003
100
AcDbArc
 50
241.8861233977691
 51
8.914639975021602
  0
ARC
  5
4D5
330
1F
100
AcDbEntity
  8
SEPARATOR_BEARING
100
AcDbCircle
 10
16.32587010314549
 20
13.8500912705779
 30
0.0
 40
0.00500000016
100
AcDbArc
 50
97.28638271052341
 51
220.9016135824406
  0
ARC
  5
4D6
330
1F
100
AcDbEntity
  8
SEPARATOR_BEARING
100
AcDbCircle
 10
16.52787119170961
 20
13.89881563368517
 30
0.0
 40
0.00500000016
100
AcDbArc
 50
281.3494003348229
 51
45.20103378142407
  0
ARC
  5
4D7
330
1F
100
AcDbEntity
  8
SEPARATOR_BEARING
100
AcDbCircle
 10
16.30519699750563
 20
14.01177498776555
 30
0.0
 40
0.1580000050560003
100
AcDbArc
 50
277.2863827104973
 51
344.7375561868765
  0
ARC
  5
4D8
330
1F
100
AcDbEntity
  8
SEPARATOR_BEARING
100
AcDbCircle
 10
16.40005220382548
 20
13.7706616355066
 30
0.0
 40
0.00500000016
100
AcDbArc
 50
225.185342939334
 51
348.8005738112525
  0
ARC
  5
4D9
330
1F
100
AcDbEntity
  8
SEPARATOR_BEARING
100
AcDbCircle
 10
16.62347645197929
 20
13.58889252737367
 30
0.0
 40
0.00500000016
100
AcDbArc
 50
112.9385566235642
 51
236.5537874954804
  0
ARC
  5
4DA
330
1F
100
AcDbEntity
  8
BEARING_WAVE_GEN
100
AcDbCircle
 10
16.5631036561522
 20
13.74288159316252
 30
0.0
 40
0.1406250045000003
100
AcDbArc
 50
77.17231654671738
 51
204.2008331239685
  0
ARC
  5
4DB
330
1F
100
AcDbEntity
  8
SEPARATOR_BEARING
100
AcDbCircle
 10
16.55994821632963
 20
13.73900303658487
 30
0.0
 40
0.1580000050560003
100
AcDbArc
 50
101.3494003348624
 51
168.8005738112394
  0
ARC
  5
4DC
330
1F
100
AcDbEntity
  8
SEPARATOR_BEARING
100
AcDbCircle
 10
17.42485427170548
 20
14.80211539451487
 30
0.0
 40
1.459000046688003
100
AcDbArc
 50
220.9016135824334
 51
225.1853429393054
  0
ARC
  5
4DD
330
1F
100
AcDbEntity
  8
SEPARATOR_BEARING
100
AcDbCircle
 10
17.42485427170548
 20
14.80211539451486
 30
0.0
 40
1.268000040576001
100
AcDbArc
 50
205.233748827275
 51
209.5488598683749
  0
ARC
  5
4DE
330
1F
100
AcDbEntity
  8
BEARING_WAVE_GEN
100
AcDbCircle
 10
16.13819694137919
 20
14.34483726946248
 30
0.0
 40
0.1406250045000003
100
AcDbArc
 50
226.2339494847287
 51
353.2624660619765
  0
ARC
  5
4DF
330
1F
100
AcDbEntity
  8
BEARING_WAVE_GEN
100
AcDbCircle
 10
16.30928184710141
 20
14.0146583894684
 30
0.0
 40
0.1406250045000003
100
AcDbArc
 50
61.52014263367497
 51
188.5486592109249
  0
ARC
  5
4E0
330
1F
100
AcDbEntity
  8
SEPARATOR_BEARING
100
AcDbCircle
 10
16.30519699750563
 20
14.01177498776555
 30
0.0
 40
0.1580000050560003
100
AcDbArc
 50
85.69722642181934
 51
153.148399898198
  0
ARC
  5
4E1
330
1F
100
AcDbEntity
  8
SEPARATOR_BEARING
100
AcDbCircle
 10
16.10977038257574
 20
14.18189728783397
 30
0.0
 40
0.00500000016
100
AcDbArc
 50
81.63420879747489
 51
205.2494396693973
  0
ARC
  5
4E2
330
1F
100
AcDbEntity
  8
SEPARATOR_BEARING
100
AcDbCircle
 10
16.15977175065584
 20
14.08539902785499
 30
0.0
 40
0.00500000016
100
AcDbArc
 50
209.5331690262915
 51
333.1483998982097
  0
ARC
  5
4E3
330
1F
100
AcDbEntity
  8
SEPARATOR_BEARING
100
AcDbCircle
 10
17.42485427170548
 20
14.80211539451486
 30
0.0
 40
1.459000046688003
100
AcDbArc
 50
205.2494396693915
 51
209.5331690262641
  0
ARC
  5
4E4
330
1F
100
AcDbEntity
  8
SEPARATOR_BEARING
100
AcDbCircle
 10
16.27332886016342
 20
14.25941996401377
 30
0.0
 40
0.00500000016
100
AcDbArc
 50
25.23374882724032
 51
149.0853822738426
  0
ARC
  5
4E5
330
1F
100
AcDbEntity
  8
SEPARATOR_BEARING
100
AcDbCircle
 10
16.13348563661784
 20
14.34316287134805
 30
0.0
 40
0.1580000050560003
100
AcDbArc
 50
261.634208797454
 51
329.0853822738311
  0
ARC
  5
4E6
330
1F
100
AcDbEntity
  8
SEPARATOR_BEARING
100
AcDbCircle
 10
16.31742639866021
 20
14.17431557792018
 30
0.0
 40
0.00500000016
100
AcDbArc
 50
265.6972264217804
 51
29.54885986838132
  0
ARC
  5
4E7
330
1F
100
AcDbEntity
  8
SEPARATOR_BEARING
100
AcDbCircle
 10
17.42485427170545
 20
14.80211539451489
 30
0.0
 40
1.268000040576001
100
AcDbArc
 50
236.5380966533602
 51
240.8532076944605
  0
ARC
  5
4E8
330
1F
100
AcDbEntity
  8
SEPARATOR_BEARING
100
AcDbCircle
 10
16.8788455605989
 20
13.54507726557645
 30
0.0
 40
0.1580000050560003
100
AcDbArc
 50
117.0015742479097
 51
184.4527477242835
  0
ARC
  5
4E9
330
1F
100
AcDbEntity
  8
SEPARATOR_BEARING
100
AcDbCircle
 10
16.80484111637771
 20
13.69030930038948
 30
0.0
 40
0.00500000016
100
AcDbArc
 50
297.0015742478669
 51
60.85320769446759
  0
ARC
  5
4EA
330
1F
100
AcDbEntity
  8
SEPARATOR_BEARING
100
AcDbCircle
 10
16.71633753821222
 20
13.53242244987689
 30
0.0
 40
0.00500000016
100
AcDbArc
 50
240.8375168523796
 51
4.452747724294143
  0
ARC
  5
4EB
330
1F
100
AcDbEntity
  8
SEPARATOR_BEARING
100
AcDbCircle
 10
16.72294445070146
 20
13.74011176604085
 30
0.0
 40
0.00500000016
100
AcDbArc
 50
56.53809665332903
 51
180.3897300999293
  0
ARC
  5
4EC
330
1F
100
AcDbEntity
  8
SEPARATOR_BEARING
100
AcDbCircle
 10
17.03549832082092
 20
13.59012073808083
 30
0.0
 40
0.00500000016
100
AcDbArc
 50
72.19027056637037
 51
196.0419040129752
  0
ARC
  5
4ED
330
1F
100
AcDbEntity
  8
SEPARATOR_BEARING
100
AcDbCircle
 10
17.12779458040511
 20
13.56426053892056
 30
0.0
 40
0.00500000016
100
AcDbArc
 50
312.6537481609133
 51
76.50538160751023
  0
ARC
  5
4EE
330
1F
100
AcDbEntity
  8
SEPARATOR_BEARING
100
AcDbCircle
 10
17.42485427170552
 20
14.80211539451486
 30
0.0
 40
1.268000040576001
100
AcDbArc
 50
252.1902705664111
 51
256.50538160751
  0
LINE
  5
4EF
330
1F
100
AcDbEntity
  8
LINE_CENTER
100
AcDbLine
 10
17.24485427170547
 20
14.80211539451487
 30
0.0
 11
15.16950427170548
 21
14.80211539451487
 31
0.0
  0
CIRCLE
  5
4F0
330
1F
100
AcDbEntity
  8
LINE_HIDDEN
100
AcDbCircle
 10
15.72008326435581
 20
15.78636539451487
 30
0.0
 40
0.118
  0
CIRCLE
  5
4F1
330
1F
100
AcDbEntity
  8
SPLINE_STATIC
100
AcDbCircle
 10
15.72008326435581
 20
15.78636539451487
 30
0.0
 40
0.0985
  0
LINE
  5
4F2
330
1F
100
AcDbEntity
  8
WAVE_GENERATOR
100
AcDbLine
 10
17.32645427170548
 20
15.38501539451487
 30
0.0
 11
17.32645427170548
 21
15.28427703753513
 31
0.0
  0
ARC
  5
4F3
330
1F
100
AcDbEntity
  8
BEARING_WAVE_GEN
100
AcDbCircle
 10
16.21244696718
 20
15.43033422363977
 30
0.0
 40
0.1406250045000003
100
AcDbArc
 50
179.2774277455969
 51
306.305944322849
  0
CIRCLE
  5
4F4
330
1F
100
AcDbEntity
  8
WAVE_GENERATOR
100
AcDbCircle
 10
16.55485427170548
 20
14.80211539451487
 30
0.0
 40
0.0985
  0
CIRCLE
  5
4F5
330
1F
100
AcDbEntity
  8
LINE_HIDDEN
100
AcDbCircle
 10
16.55485427170548
 20
14.80211539451487
 30
0.0
 40
0.118
  0
ARC
  5
4F6
330
1F
100
AcDbEntity
  8
SEPARATOR_BEARING
100
AcDbCircle
 10
17.42485427170548
 20
14.80211539451488
 30
0.0
 40
1.459000046688003
100
AcDbArc
 50
173.9450918433034
 51
178.2288212001756
  0
ARC
  5
4F7
330
1F
100
AcDbEntity
  8
SEPARATOR_BEARING
100
AcDbCircle
 10
17.42485427170548
 20
14.80211539451488
 30
0.0
 40
1.268000040576001
100
AcDbArc
 50
173.9294010011894
 51
178.2445120422889
  0
ARC
  5
4F8
330
1F
100
AcDbEntity
  8
SEPARATOR_BEARING
100
AcDbCircle
 10
15.97154889652389
 20
14.84705559669238
 30
0.0
 40
0.00500000016
100
AcDbArc
 50
178.228821200204
 51
301.8440520721201
  0
ARC
  5
4F9
330
1F
100
AcDbEntity
  8
SEPARATOR_BEARING
100
AcDbCircle
 10
16.15245169930218
 20
14.84111279770185
 30
0.0
 40
0.00500000016
100
AcDbArc
 50
234.392878595693
 51
358.2445120422941
  0
ARC
  5
4FA
330
1F
100
AcDbEntity
  8
SEPARATOR_BEARING
100
AcDbCircle
 10
16.05754917977608
 20
14.70858916400576
 30
0.0
 40
0.1580000050560003
100
AcDbArc
 50
54.39287859573388
 51
121.8440520721117
  0
ARC
  5
4FB
330
1F
100
AcDbEntity
  8
SEPARATOR_BEARING
100
AcDbCircle
 10
15.99120441795425
 20
14.55970204475354
 30
0.0
 40
0.00500000016
100
AcDbArc
 50
65.9820348844333
 51
189.5972657563531
  0
ARC
  5
4FC
330
1F
100
AcDbEntity
  8
SEPARATOR_BEARING
100
AcDbCircle
 10
17.42485427170548
 20
14.80211539451486
 30
0.0
 40
1.268000040576001
100
AcDbArc
 50
189.5815749142324
 51
193.8966859553336
  0
ARC
  5
4FD
330
1F
100
AcDbEntity
  8
SEPARATOR_BEARING
100
AcDbCircle
 10
16.16961307124048
 20
14.59022242066002
 30
0.0
 40
0.00500000016
100
AcDbArc
 50
9.581574914198151
 51
133.4332083608007
  0
ARC
  5
4FE
330
1F
100
AcDbEntity
  8
SEPARATOR_BEARING
100
AcDbCircle
 10
16.18911446480917
 20
14.49637656255897
 30
0.0
 40
0.00500000016
100
AcDbArc
 50
250.0450525087369
 51
13.89668595533646
  0
ARC
  5
4FF
330
1F
100
AcDbEntity
  8
BEARING_WAVE_GEN
100
AcDbCircle
 10
16.06253752378166
 20
14.70893037608349
 30
0.0
 40
0.1406250045000003
100
AcDbArc
 50
210.5817755716825
 51
337.6102921489333
  0
ARC
  5
500
330
1F
100
AcDbEntity
  8
SEPARATOR_BEARING
100
AcDbCircle
 10
16.05754917977607
 20
14.70858916400574
 30
0.0
 40
0.1580000050560003
100
AcDbArc
 50
245.9820348844114
 51
313.4332083607872
  0
ARC
  5
501
330
1F
100
AcDbEntity
  8
SEPARATOR_BEARING
100
AcDbCircle
 10
16.01331668070501
 20
14.45329199435935
 30
0.0
 40
0.00500000016
100
AcDbArc
 50
193.8809951132483
 51
317.4962259851646
  0
ARC
  5
502
330
1F
100
AcDbEntity
  8
SEPARATOR_BEARING
100
AcDbCircle
 10
16.13348563661782
 20
14.34316287134805
 30
0.0
 40
0.1580000050560003
100
AcDbArc
 50
70.04505250877906
 51
137.4962259851535
  0
ARC
  5
503
330
1F
100
AcDbEntity
  8
SEPARATOR_BEARING
100
AcDbCircle
 10
17.42485427170548
 20
14.80211539451486
 30
0.0
 40
1.459000046688003
100
AcDbArc
 50
189.5972657563453
 51
193.8809951132189
  0
ARC
  5
504
330
1F
100
AcDbEntity
  8
BEARING_WAVE_GEN
100
AcDbCircle
 10
16.06253752378166
 20
14.70893037608349
 30
0.0
 40
0.1406250045000003
100
AcDbArc
 50
30.21579480758901
 51
157.2443113848365
  0
ARC
  5
505
330
1F
100
AcDbEntity
  8
SEPARATOR_BEARING
100
AcDbCircle
 10
16.08301948659816
 20
15.08095186932628
 30
0.0
 40
0.1580000050560003
100
AcDbArc
 50
38.74070468269485
 51
106.1918781590685
  0
ARC
  5
506
330
1F
100
AcDbEntity
  8
SEPARATOR_BEARING
100
AcDbCircle
 10
16.21015721173588
 20
15.18295677385158
 30
0.0
 40
0.00500000016
100
AcDbArc
 50
218.7407046826542
 51
342.5923381292514
  0
ARC
  5
507
330
1F
100
AcDbEntity
  8
SEPARATOR_BEARING
100
AcDbCircle
 10
16.07396193152487
 20
15.33989417853747
 30
0.0
 40
0.00500000016
100
AcDbArc
 50
34.67768705834632
 51
158.2929179302657
  0
ARC
  5
508
330
1F
100
AcDbEntity
  8
SEPARATOR_BEARING
100
AcDbCircle
 10
16.03756612359029
 20
15.23748618981763
 30
0.0
 40
0.00500000016
100
AcDbArc
 50
162.5766472871604
 51
286.1918781590766
  0
ARC
  5
509
330
1F
100
AcDbEntity
  8
SEPARATOR_BEARING
100
AcDbCircle
 10
17.42485427170548
 20
14.80211539451487
 30
0.0
 40
1.459000046688003
100
AcDbArc
 50
158.29291793026
 51
162.576647287133
  0
ARC
  5
50A
330
1F
100
AcDbEntity
  8
SEPARATOR_BEARING
100
AcDbCircle
 10
15.9789657044738
 20
14.95548549085763
 30
0.0
 40
0.00500000016
100
AcDbArc
 50
50.32986097138921
 51
173.9450918433087
  0
ARC
  5
50B
330
1F
100
AcDbEntity
  8
SEPARATOR_BEARING
100
AcDbCircle
 10
16.15899277980963
 20
14.93674000983124
 30
0.0
 40
0.00500000016
100
AcDbArc
 50
353.9294010011531
 51
117.7810344477542
  0
ARC
  5
50C
330
1F
100
AcDbEntity
  8
BEARING_WAVE_GEN
100
AcDbCircle
 10
16.0879149071932
 20
15.07993458922847
 30
0.0
 40
0.1406250045000003
100
AcDbArc
 50
194.9296016586391
 51
321.958118235892
  0
ARC
  5
50D
330
1F
100
AcDbEntity
  8
SEPARATOR_BEARING
100
AcDbCircle
 10
16.08301948659813
 20
15.08095186932628
 30
0.0
 40
0.1580000050560003
100
AcDbArc
 50
230.3298609713724
 51
297.7810344477473
  0
ARC
  5
50E
330
1F
100
AcDbEntity
  8
SEPARATOR_BEARING
100
AcDbCircle
 10
16.24225564430171
 20
15.27327310715106
 30
0.0
 40
0.00500000016
100
AcDbArc
 50
338.2772270881102
 51
102.1288605347113
  0
ARC
  5
50F
330
1F
100
AcDbEntity
  8
BEARING_WAVE_GEN
100
AcDbCircle
 10
16.0879149071932
 20
15.07993458922847
 30
0.0
 40
0.1406250045000003
100
AcDbArc
 50
14.56362089454368
 51
141.5921374717964
  0
ARC
  5
510
330
1F
100
AcDbEntity
  8
SEPARATOR_BEARING
100
AcDbCircle
 10
17.42485427170548
 20
14.80211539451487
 30
0.0
 40
1.268000040576001
100
AcDbArc
 50
158.2772270881469
 51
162.592338129243
  0
ARC
  5
511
330
1F
100
AcDbEntity
  8
SEPARATOR_BEARING
100
AcDbCircle
 10
16.20800754094593
 20
15.43263454890204
 30
0.0
 40
0.1580000050560003
100
AcDbArc
 50
214.6776870583248
 51
282.1288605346992
  0
ARC
  5
512
330
1F
100
AcDbEntity
  8
BEARING_WAVE_GEN
100
AcDbCircle
 10
16.71536236522833
 20
15.96882512875781
 30
0.0
 40
0.1406250045000003
100
AcDbArc
 50
147.9730799195093
 51
275.0015964967579
  0
ARC
  5
513
330
1F
100
AcDbEntity
  8
SEPARATOR_BEARING
100
AcDbCircle
 10
16.71276444539503
 20
15.97309722591726
 30
0.0
 40
0.1580000050560003
100
AcDbArc
 50
183.3733392322392
 51
250.8245127086166
  0
ARC
  5
514
330
1F
100
AcDbEntity
  8
SEPARATOR_BEARING
100
AcDbCircle
 10
17.42485427170548
 20
14.80211539451487
 30
0.0
 40
1.268000040576001
100
AcDbArc
 50
126.9728792620612
 51
131.2879903031602
  0
ARC
  5
515
330
1F
100
AcDbEntity
  8
BEARING_WAVE_GEN
100
AcDbCircle
 10
16.42689773054908
 20
15.73414174140478
 30
0.0
 40
0.1406250045000003
100
AcDbArc
 50
343.2592730684583
 51
110.2877896457084
  0
ARC
  5
516
330
1F
100
AcDbEntity
  8
SEPARATOR_BEARING
100
AcDbCircle
 10
16.42324355061075
 20
15.7375545072301
 30
0.0
 40
0.1580000050560003
100
AcDbArc
 50
7.436356856603892
 51
74.88753033298303
  0
ARC
  5
517
330
1F
100
AcDbEntity
  8
SEPARATOR_BEARING
100
AcDbCircle
 10
16.42324355061076
 20
15.73755450723008
 30
0.0
 40
0.1580000050560003
100
AcDbArc
 50
199.0255131452844
 51
266.4766866216559
  0
ARC
  5
518
330
1F
100
AcDbEntity
  8
BEARING_WAVE_GEN
100
AcDbCircle
 10
16.42689773054908
 20
15.73414174140478
 30
0.0
 40
0.1406250045000003
100
AcDbArc
 50
163.6252538325529
 51
290.6537704098028
  0
ARC
  5
519
330
1F
100
AcDbEntity
  8
BEARING_WAVE_GEN
100
AcDbCircle
 10
16.21244696718
 20
15.43033422363977
 30
0.0
 40
0.1406250045000003
100
AcDbArc
 50
358.9114469815033
 51
125.9399635587534
  0
ARC
  5
51A
330
1F
100
AcDbEntity
  8
SEPARATOR_BEARING
100
AcDbCircle
 10
16.20800754094593
 20
15.43263454890202
 30
0.0
 40
0.1580000050560003
100
AcDbArc
 50
23.08853076964775
 51
90.53970424602059
  0
ARC
  5
51B
330
1F
100
AcDbEntity
  8
SEPARATOR_BEARING
100
AcDbCircle
 10
16.20647216618139
 20
15.59562732274414
 30
0.0
 40
0.00500000016
100
AcDbArc
 50
146.9244733741199
 51
270.5397042460335
  0
ARC
  5
51C
330
1F
100
AcDbEntity
  8
SEPARATOR_BEARING
100
AcDbCircle
 10
16.2691476635259
 20
15.68441827398058
 30
0.0
 40
0.00500000016
100
AcDbArc
 50
19.02551314530385
 51
142.6407440172243
  0
ARC
  5
51D
330
1F
100
AcDbEntity
  8
SEPARATOR_BEARING
100
AcDbCircle
 10
17.42485427170548
 20
14.80211539451487
 30
0.0
 40
1.459000046688003
100
AcDbArc
 50
142.6407440172143
 51
146.9244733740885
  0
ARC
  5
51E
330
1F
100
AcDbEntity
  8
SEPARATOR_BEARING
100
AcDbCircle
 10
17.42485427170548
 20
14.80211539451487
 30
0.0
 40
1.268000040576001
100
AcDbArc
 50
142.625053175104
 51
146.9401642161994
  0
ARC
  5
51F
330
1F
100
AcDbEntity
  8
SEPARATOR_BEARING
100
AcDbCircle
 10
16.41322643895956
 20
15.57486259232776
 30
0.0
 40
0.00500000016
100
AcDbArc
 50
322.6250531750689
 51
86.47668662167026
  0
ARC
  5
520
330
1F
100
AcDbEntity
  8
SEPARATOR_BEARING
100
AcDbCircle
 10
16.35795124823824
 20
15.49655548712929
 30
0.0
 40
0.00500000016
100
AcDbArc
 50
203.0885307696081
 51
326.9401642162081
  0
ARC
  5
521
330
1F
100
AcDbEntity
  8
SEPARATOR_BEARING
100
AcDbCircle
 10
16.58487260123458
 20
15.75865075558984
 30
0.0
 40
0.00500000016
100
AcDbArc
 50
187.4363568565648
 51
311.2879903031628
  0
ARC
  5
522
330
1F
100
AcDbEntity
  8
SEPARATOR_BEARING
100
AcDbCircle
 10
17.42485427170548
 20
14.80211539451487
 30
0.0
 40
1.459000046688003
100
AcDbArc
 50
126.9885701041741
 51
131.272299461048
  0
ARC
  5
523
330
1F
100
AcDbEntity
  8
SEPARATOR_BEARING
100
AcDbCircle
 10
16.46574003581196
 20
15.89491730602942
 30
0.0
 40
0.00500000016
100
AcDbArc
 50
131.2722994610757
 51
254.8875303329892
  0
ARC
  5
524
330
1F
100
AcDbEntity
  8
SEPARATOR_BEARING
100
AcDbCircle
 10
16.55004686764966
 20
15.96350600112083
 30
0.0
 40
0.00500000016
100
AcDbArc
 50
3.373339232260162
 51
126.9885701041767
  0
ARC
  5
525
330
1F
100
AcDbEntity
  8
SEPARATOR_BEARING
100
AcDbCircle
 10
16.6592250420828
 20
15.8191409529259
 30
0.0
 40
0.00500000016
100
AcDbArc
 50
306.9728792620226
 51
70.82451270862378
  0
ARC
  5
526
330
1F
100
AcDbEntity
  8
BEARING_WAVE_GEN
100
AcDbCircle
 10
17.05644676890152
 20
16.11697899246393
 30
0.0
 40
0.1406250045000003
100
AcDbArc
 50
132.3209060064644
 51
259.3494225837165
  0
ARC
  5
527
330
1F
100
AcDbEntity
  8
SEPARATOR_BEARING
100
AcDbCircle
 10
16.89582653495467
 20
16.15645869997762
 30
0.0
 40
0.00500000016
100
AcDbArc
 50
347.7211653192168
 51
111.3363961911376
  0
ARC
  5
528
330
1F
100
AcDbEntity
  8
SEPARATOR_BEARING
100
AcDbCircle
 10
16.79614102066309
 20
16.11315917077376
 30
0.0
 40
0.00500000016
100
AcDbArc
 50
115.6201255480334
 51
239.2353564199465
  0
ARC
  5
529
330
1F
100
AcDbEntity
  8
SEPARATOR_BEARING
100
AcDbCircle
 10
17.42485427170548
 20
14.80211539451487
 30
0.0
 40
1.268000040576001
100
AcDbArc
 50
111.3207053490177
 51
115.635816390112
  0
ARC
  5
52A
330
1F
100
AcDbEntity
  8
SEPARATOR_BEARING
100
AcDbCircle
 10
16.96200686264649
 20
15.98799118043904
 30
0.0
 40
0.00500000016
100
AcDbArc
 50
291.3207053489827
 51
55.17233879558296
  0
ARC
  5
52B
330
1F
100
AcDbEntity
  8
SEPARATOR_BEARING
100
AcDbCircle
 10
16.87409155206933
 20
15.94980417217755
 30
0.0
 40
0.00500000016
100
AcDbArc
 50
171.7841829435212
 51
295.6358163901199
  0
ARC
  5
52C
330
1F
100
AcDbEntity
  8
SEPARATOR_BEARING
100
AcDbCircle
 10
16.71276444539504
 20
15.97309722591726
 30
0.0
 40
0.1580000050560003
100
AcDbArc
 50
351.7841829435603
 51
59.23535641993829
  0
ARC
  5
52D
330
1F
100
AcDbEntity
  8
BEARING_WAVE_GEN
100
AcDbCircle
 10
16.71536236522833
 20
15.96882512875781
 30
0.0
 40
0.1406250045000003
100
AcDbArc
 50
327.6070991554135
 51
94.63561573266723
  0
ARC
  5
52E
330
1F
100
AcDbEntity
  8
SEPARATOR_BEARING
100
AcDbCircle
 10
17.42485427170548
 20
14.80211539451487
 30
0.0
 40
1.459000046688003
100
AcDbArc
 50
111.3363961911298
 51
115.6201255480056
  0
ARC
  5
52F
330
1F
100
AcDbEntity
  8
SEPARATOR_BEARING
100
AcDbCircle
 10
17.05509778500258
 20
16.12179357905473
 30
0.0
 40
0.1580000050560003
100
AcDbArc
 50
167.7211653191955
 51
235.172338795569
  0
ARC
  5
530
330
1F
100
AcDbEntity
  8
SEPARATOR_BEARING
100
AcDbCircle
 10
17.17317079117228
 20
16.23416691625916
 30
0.0
 40
0.00500000016
100
AcDbArc
 50
99.96795163498699
 51
223.5831825069027
  0
ARC
  5
531
330
1F
100
AcDbEntity
  8
SEPARATOR_BEARING
100
AcDbCircle
 10
17.28084176935363
 20
16.24896595157658
 30
0.0
 40
0.00500000016
100
AcDbArc
 50
332.0689914061734
 51
95.68422227809394
  0
ARC
  5
532
330
1F
100
AcDbEntity
  8
SEPARATOR_BEARING
100
AcDbCircle
 10
17.42485427170548
 20
14.80211539451487
 30
0.0
 40
1.459000046688003
100
AcDbArc
 50
95.68422227808753
 51
99.96795163496106
  0
ARC
  5
533
330
1F
100
AcDbEntity
  8
SEPARATOR_BEARING
100
AcDbCircle
 10
17.20415805424767
 20
16.05583876245282
 30
0.0
 40
0.00500000016
100
AcDbArc
 50
156.1320090304771
 51
279.9836424770774
  0
ARC
  5
534
330
1F
100
AcDbEntity
  8
SEPARATOR_BEARING
100
AcDbCircle
 10
17.29911595815408
 20
16.06889042593091
 30
0.0
 40
0.00500000016
100
AcDbArc
 50
275.6685314359389
 51
39.52016488253815
  0
ARC
  5
535
330
1F
100
AcDbEntity
  8
SEPARATOR_BEARING
100
AcDbCircle
 10
17.42485427170548
 20
14.80211539451487
 30
0.0
 40
1.268000040576001
100
AcDbArc
 50
95.66853143597167
 51
99.98364247707122
  0
ARC
  5
536
330
1F
100
AcDbEntity
  8
BEARING_WAVE_GEN
100
AcDbCircle
 10
17.05644676890152
 20
16.11697899246393
 30
0.0
 40
0.1406250045000003
100
AcDbArc
 50
311.9549252423711
 51
78.98344181961781
  0
ARC
  5
537
330
1F
100
AcDbEntity
  8
BEARING_WAVE_GEN
100
AcDbCircle
 10
17.42485427170548
 20
16.16761543821088
 30
0.0
 40
0.1406250045000003
100
AcDbArc
 50
116.6687320934224
 51
243.6972486706729
  0
ARC
  5
538
330
1F
100
AcDbEntity
  8
SEPARATOR_BEARING
100
AcDbCircle
 10
17.05509778500258
 20
16.12179357905473
 30
0.0
 40
0.1580000050560003
100
AcDbArc
 50
336.1320090305194
 51
43.58318250689188
  0
ARC
  5
539
330
1F
100
AcDbEntity
  8
SEPARATOR_BEARING
100
AcDbCircle
 10
17.42485427170548
 20
16.17261543837087
 30
0.0
 40
0.1580000050560003
100
AcDbArc
 50
152.0689914061495
 51
219.520164882528
  0
ARC
  5
53A
330
1F
100
AcDbEntity
  8
BEARING_WAVE_GEN
100
AcDbCircle
 10
18.71151160203177
 20
14.34483726946249
 30
0.0
 40
0.1406250045000003
100
AcDbArc
 50
7.10351470211799
 51
134.1320312793664
  0
ARC
  5
53B
330
1F
100
AcDbEntity
  8
BEARING_WAVE_GEN
100
AcDbCircle
 10
18.71151160203177
 20
14.34483726946249
 30
0.0
 40
0.1406250045000003
100
AcDbArc
 50
186.7375339380236
 51
313.7660505152723
  0
ARC
  5
53C
330
1F
100
AcDbEntity
  8
BEARING_WAVE_GEN
100
AcDbCircle
 10
17.96887097729909
 20
13.54966332223071
 30
0.0
 40
0.1406250045000003
100
AcDbArc
 50
320.1469929629859
 51
87.17550954023581
  0
ARC
  5
53D
330
1F
100
AcDbEntity
  8
BEARING_WAVE_GEN
100
AcDbCircle
 10
17.61078983699634
 20
13.44933369191324
 30
0.0
 40
0.1406250045000003
100
AcDbArc
 50
304.494819049942
 51
71.5233356271917
  0
ARC
  5
53E
330
1F
100
AcDbEntity
  8
BEARING_WAVE_GEN
100
AcDbCircle
 10
17.96887097729909
 20
13.54966332223071
 30
0.0
 40
0.1406250045000003
100
AcDbArc
 50
139.7810121988915
 51
266.8095287761397
  0
ARC
  5
53F
330
1F
100
AcDbEntity
  8
SEPARATOR_BEARING
100
AcDbCircle
 10
17.97086298281202
 20
13.54507726557643
 30
0.0
 40
0.1580000050560003
100
AcDbArc
 50
163.9580959870406
 51
231.4092694634132
  0
ARC
  5
540
330
1F
100
AcDbEntity
  8
SEPARATOR_BEARING
100
AcDbCircle
 10
17.61147067026361
 20
13.44438026202455
 30
0.0
 40
0.1580000050560003
100
AcDbArc
 50
339.8950783626755
 51
47.34625183904916
  0
ARC
  5
541
330
1F
100
AcDbEntity
  8
BEARING_WAVE_GEN
100
AcDbCircle
 10
17.61078983699634
 20
13.44933369191324
 30
0.0
 40
0.1406250045000003
100
AcDbArc
 50
124.1288382858495
 51
251.1573548631021
  0
ARC
  5
542
330
1F
100
AcDbEntity
  8
SEPARATOR_BEARING
100
AcDbCircle
 10
17.61147067026357
 20
13.44438026202456
 30
0.0
 40
0.1580000050560003
100
AcDbArc
 50
148.3059220739965
 51
215.7570955503741
  0
ARC
  5
543
330
1F
100
AcDbEntity
  8
SEPARATOR_BEARING
100
AcDbCircle
 10
17.23823787314731
 20
13.44438026202455
 30
0.0
 40
0.1580000050560003
100
AcDbArc
 50
324.2429044496314
 51
31.69407792600709
  0
ARC
  5
544
330
1F
100
AcDbEntity
  8
SEPARATOR_BEARING
100
AcDbCircle
 10
17.42485427170545
 20
14.80211539451487
 30
0.0
 40
1.459000046688003
100
AcDbArc
 50
267.8581353215605
 51
272.1418646784392
  0
ARC
  5
545
330
1F
100
AcDbEntity
  8
SEPARATOR_BEARING
100
AcDbCircle
 10
17.47919590167009
 20
13.34913118174578
 30
0.0
 40
0.00500000016
100
AcDbArc
 50
272.1418646784651
 51
35.7570955503842
  0
ARC
  5
546
330
1F
100
AcDbEntity
  8
SEPARATOR_BEARING
100
AcDbCircle
 10
17.42485427170547
 20
14.80211539451487
 30
0.0
 40
1.459000046688003
100
AcDbArc
 50
283.5103092346045
 51
287.7940385914805
  0
ARC
  5
547
330
1F
100
AcDbEntity
  8
SEPARATOR_BEARING
100
AcDbCircle
 10
17.8691912157683
 20
13.41767297409995
 30
0.0
 40
0.00500000016
100
AcDbArc
 50
287.7940385915088
 51
51.40926946342722
  0
ARC
  5
548
330
1F
100
AcDbEntity
  8
SEPARATOR_BEARING
100
AcDbCircle
 10
17.7645382259371
 20
13.38835058149221
 30
0.0
 40
0.00500000016
100
AcDbArc
 50
159.8950783626946
 51
283.5103092346108
  0
ARC
  5
549
330
1F
100
AcDbEntity
  8
SEPARATOR_BEARING
100
AcDbCircle
 10
17.42485427170549
 20
14.80211539451488
 30
0.0
 40
1.268000040576001
100
AcDbArc
 50
299.1467923055393
 51
303.4619033466323
  0
ARC
  5
54A
330
1F
100
AcDbEntity
  8
SEPARATOR_BEARING
100
AcDbCircle
 10
17.97086298281204
 20
13.54507726557643
 30
0.0
 40
0.1580000050560003
100
AcDbArc
 50
355.5472522757161
 51
62.99842575209027
  0
ARC
  5
54B
330
1F
100
AcDbEntity
  8
SEPARATOR_BEARING
100
AcDbCircle
 10
17.42485427170547
 20
14.80211539451487
 30
0.0
 40
1.268000040576001
100
AcDbArc
 50
283.4946183924961
 51
287.8097294335956
  0
ARC
  5
54C
330
1F
100
AcDbEntity
  8
SEPARATOR_BEARING
100
AcDbCircle
 10
17.42485427170545
 20
14.80211539451487
 30
0.0
 40
1.268000040576001
100
AcDbArc
 50
267.842444479448
 51
272.1575555205518
  0
ARC
  5
54D
330
1F
100
AcDbEntity
  8
SEPARATOR_BEARING
100
AcDbCircle
 10
17.37692894063241
 20
13.53001780928196
 30
0.0
 40
0.00500000016
100
AcDbArc
 50
87.84244447941576
 51
211.6940779260156
  0
ARC
  5
54E
330
1F
100
AcDbEntity
  8
SEPARATOR_BEARING
100
AcDbCircle
 10
17.4727796027785
 20
13.53001780928196
 30
0.0
 40
0.00500000016
100
AcDbArc
 50
328.3059220739541
 51
92.1575555205583
  0
ARC
  5
54F
330
1F
100
AcDbEntity
  8
SEPARATOR_BEARING
100
AcDbCircle
 10
17.72191396300586
 20
13.56426053892057
 30
0.0
 40
0.00500000016
100
AcDbArc
 50
103.4946183924564
 51
227.34625183906
  0
ARC
  5
550
330
1F
100
AcDbEntity
  8
SEPARATOR_BEARING
100
AcDbCircle
 10
17.81421022259006
 20
13.59012073808085
 30
0.0
 40
0.00500000016
100
AcDbArc
 50
343.9580959870005
 51
107.8097294335957
  0
ARC
  5
551
330
1F
100
AcDbEntity
  8
SEPARATOR_BEARING
100
AcDbCircle
 10
18.04486742703321
 20
13.69030930038946
 30
0.0
 40
0.00500000016
100
AcDbArc
 50
119.1467923055022
 51
242.9984257521041
  0
ARC
  5
552
330
1F
100
AcDbEntity
  8
SEPARATOR_BEARING
100
AcDbCircle
 10
18.38726052242871
 20
13.96886674478141
 30
0.0
 40
0.00500000016
100
AcDbArc
 50
15.26244381308577
 51
139.1140772596859
  0
ARC
  5
553
330
1F
100
AcDbEntity
  8
BEARING_WAVE_GEN
100
AcDbCircle
 10
18.54042669630955
 20
14.01465838946839
 30
0.0
 40
0.1406250045000003
100
AcDbArc
 50
171.0853600249784
 51
298.1138766022306
  0
ARC
  5
554
330
1F
100
AcDbEntity
  8
SEPARATOR_BEARING
100
AcDbCircle
 10
17.42485427170545
 20
14.80211539451488
 30
0.0
 40
1.268000040576001
100
AcDbArc
 50
314.7989662185841
 51
319.1140772596803
  0
ARC
  5
555
330
1F
100
AcDbEntity
  8
SEPARATOR_BEARING
100
AcDbCircle
 10
18.5445115459053
 20
14.01177498776555
 30
0.0
 40
0.1580000050560003
100
AcDbArc
 50
195.2624438131259
 51
262.7136172895026
  0
ARC
  5
556
330
1F
100
AcDbEntity
  8
SEPARATOR_BEARING
100
AcDbCircle
 10
18.44965633958546
 20
13.7706616355066
 30
0.0
 40
0.00500000016
100
AcDbArc
 50
191.1994261887814
 51
314.8146570607025
  0
ARC
  5
557
330
1F
100
AcDbEntity
  8
BEARING_WAVE_GEN
100
AcDbCircle
 10
18.28660488725869
 20
13.74288159316251
 30
0.0
 40
0.1406250045000003
100
AcDbArc
 50
335.7991668760311
 51
102.8276834532825
  0
ARC
  5
558
330
1F
100
AcDbEntity
  8
SEPARATOR_BEARING
100
AcDbCircle
 10
18.2897603270813
 20
13.73900303658487
 30
0.0
 40
0.1580000050560003
100
AcDbArc
 50
11.1994261887604
 51
78.65059966513744
  0
ARC
  5
559
330
1F
100
AcDbEntity
  8
SEPARATOR_BEARING
100
AcDbCircle
 10
18.32183735170131
 20
13.89881563368518
 30
0.0
 40
0.00500000016
100
AcDbArc
 50
134.7989662185466
 51
258.6505996651437
  0
ARC
  5
55A
330
1F
100
AcDbEntity
  8
SEPARATOR_BEARING
100
AcDbCircle
 10
18.13337100519872
 20
13.53242244987688
 30
0.0
 40
0.00500000016
100
AcDbArc
 50
175.5472522757369
 51
299.1624831476572
  0
ARC
  5
55B
330
1F
100
AcDbEntity
  8
SEPARATOR_BEARING
100
AcDbCircle
 10
18.12676409270947
 20
13.74011176604084
 30
0.0
 40
0.00500000016
100
AcDbArc
 50
359.6102699000421
 51
123.4619033466406
  0
ARC
  5
55C
330
1F
100
AcDbEntity
  8
SEPARATOR_BEARING
100
AcDbCircle
 10
18.22623209143164
 20
13.58889252737365
 30
0.0
 40
0.00500000016
100
AcDbArc
 50
303.4462125045521
 51
67.06144337647049
  0
ARC
  5
55D
330
1F
100
AcDbEntity
  8
BEARING_WAVE_GEN
100
AcDbCircle
 10
18.28660488725869
 20
13.74288159316251
 30
0.0
 40
0.1406250045000003
100
AcDbArc
 50
155.4331861119367
 51
282.4617026891877
  0
ARC
  5
55E
330
1F
100
AcDbEntity
  8
SEPARATOR_BEARING
100
AcDbCircle
 10
18.28976032708133
 20
13.73900303658487
 30
0.0
 40
0.1580000050560003
100
AcDbArc
 50
179.6102699000806
 51
247.0614433764565
  0
ARC
  5
55F
330
1F
100
AcDbEntity
  8
SEPARATOR_BEARING
100
AcDbCircle
 10
17.42485427170549
 20
14.80211539451488
 30
0.0
 40
1.459000046688003
100
AcDbArc
 50
299.1624831476501
 51
303.4462125045203
  0
ARC
  5
560
330
1F
100
AcDbEntity
  8
SEPARATOR_BEARING
100
AcDbCircle
 10
18.52383844026543
 20
13.8500912705779
 30
0.0
 40
0.00500000016
100
AcDbArc
 50
319.0983864175958
 51
82.71361728951545
  0
ARC
  5
561
330
1F
100
AcDbEntity
  8
SEPARATOR_BEARING
100
AcDbCircle
 10
17.42485427170545
 20
14.80211539451488
 30
0.0
 40
1.459000046688003
100
AcDbArc
 50
314.8146570606944
 51
319.0983864175665
  0
CIRCLE
  5
562
330
1F
100
AcDbEntity
  8
WAVE_GENERATOR
100
AcDbCircle
 10
18.23675308775337
 20
14.33336539451487
 30
0.0
 40
0.06425
  0
ARC
  5
563
330
1F
100
AcDbEntity
  8
SEPARATOR_BEARING
100
AcDbCircle
 10
17.42485427170548
 20
14.80211539451487
 30
0.0
 40
1.268000040576001
100
AcDbArc
 50
330.4511401316251
 51
334.766251172725
  0
ARC
  5
564
330
1F
100
AcDbEntity
  8
SEPARATOR_BEARING
100
AcDbCircle
 10
18.53228214475073
 20
14.17431557792019
 30
0.0
 40
0.00500000016
100
AcDbArc
 50
150.451140131589
 51
274.3027735781935
  0
ARC
  5
565
330
1F
100
AcDbEntity
  8
SEPARATOR_BEARING
100
AcDbCircle
 10
18.57637968324752
 20
14.25941996401378
 30
0.0
 40
0.00500000016
100
AcDbArc
 50
30.91461772613234
 51
154.7662511727283
  0
ARC
  5
566
330
1F
100
AcDbEntity
  8
SEPARATOR_BEARING
100
AcDbCircle
 10
18.73993816083522
 20
14.18189728783397
 30
0.0
 40
0.00500000016
100
AcDbArc
 50
334.7505603306397
 51
98.36579120255915
  0
ARC
  5
567
330
1F
100
AcDbEntity
  8
SEPARATOR_BEARING
100
AcDbCircle
 10
18.71622290679311
 20
14.34316287134805
 30
0.0
 40
0.1580000050560003
100
AcDbArc
 50
210.9146177261687
 51
278.3657912025458
  0
ARC
  5
568
330
1F
100
AcDbEntity
  8
SEPARATOR_BEARING
100
AcDbCircle
 10
18.68993679275511
 20
14.085399027855
 30
0.0
 40
0.00500000016
100
AcDbArc
 50
206.8516001018277
 51
330.4668309737442
  0
ARC
  5
569
330
1F
100
AcDbEntity
  8
BEARING_WAVE_GEN
100
AcDbCircle
 10
18.54042669630955
 20
14.01465838946839
 30
0.0
 40
0.1406250045000003
100
AcDbArc
 50
351.451340789075
 51
118.479857366325
  0
ARC
  5
56A
330
1F
100
AcDbEntity
  8
SEPARATOR_BEARING
100
AcDbCircle
 10
18.5445115459053
 20
14.01177498776555
 30
0.0
 40
0.1580000050560003
100
AcDbArc
 50
26.85160010180458
 51
94.30277357818063
  0
ARC
  5
56B
330
1F
100
AcDbEntity
  8
SEPARATOR_BEARING
100
AcDbCircle
 10
17.42485427170548
 20
14.80211539451487
 30
0.0
 40
1.459000046688003
100
AcDbArc
 50
330.4668309737357
 51
334.7505603306085
  0
CIRCLE
  5
56C
330
1F
100
AcDbEntity
  8
SPLINE_STATIC
100
AcDbCircle
 10
19.12962527905514
 20
13.81786539451487
 30
0.0
 40
0.0985
  0
CIRCLE
  5
56D
330
1F
100
AcDbEntity
  8
LINE_HIDDEN
100
AcDbCircle
 10
19.12962527905514
 20
13.81786539451487
 30
0.0
 40
0.118
  0
LINE
  5
56E
330
1F
100
AcDbEntity
  8
LINE_CENTER
100
AcDbLine
 10
17.60485427170548
 20
14.80211539451487
 30
0.0
 11
19.68020427170547
 21
14.80211539451487
 31
0.0
  0
ARC
  5
56F
330
1F
100
AcDbEntity
  8
BEARING_WAVE_GEN
100
AcDbCircle
 10
18.76179363621774
 20
15.07993458922847
 30
0.0
 40
0.1406250045000003
100
AcDbArc
 50
38.40786252820336
 51
165.4363791054563
  0
ARC
  5
570
330
1F
100
AcDbEntity
  8
SEPARATOR_BEARING
100
AcDbCircle
 10
18.7666890568128
 20
15.08095186932628
 30
0.0
 40
0.1580000050560003
100
AcDbArc
 50
73.80812184093717
 51
141.2592953173116
  0
ARC
  5
571
330
1F
100
AcDbEntity
  8
BEARING_WAVE_GEN
100
AcDbCircle
 10
18.76179363621774
 20
15.07993458922847
 30
0.0
 40
0.1406250045000003
100
AcDbArc
 50
218.0418817641079
 51
345.0703983413605
  0
ARC
  5
572
330
1F
100
AcDbEntity
  8
SEPARATOR_BEARING
100
AcDbCircle
 10
18.7666890568128
 20
15.08095186932627
 30
0.0
 40
0.1580000050560003
100
AcDbArc
 50
242.2189655522596
 51
309.6701390286344
  0
ARC
  5
573
330
1F
100
AcDbEntity
  8
SEPARATOR_BEARING
100
AcDbCircle
 10
18.79215936363488
 20
14.70858916400575
 30
0.0
 40
0.1580000050560003
100
AcDbArc
 50
58.15594792789386
 51
125.6071214042669
  0
ARC
  5
574
330
1F
100
AcDbEntity
  8
BEARING_WAVE_GEN
100
AcDbCircle
 10
18.63726157623096
 20
15.43033422363977
 30
0.0
 40
0.1406250045000003
100
AcDbArc
 50
233.6940556771509
 51
0.7225722544030598
  0
ARC
  5
575
330
1F
100
AcDbEntity
  8
SEPARATOR_BEARING
100
AcDbCircle
 10
17.42485427170548
 20
14.80211539451487
 30
0.0
 40
1.459000046688003
100
AcDbArc
 50
17.42335271286697
 51
21.70708206973988
  0
ARC
  5
576
330
1F
100
AcDbEntity
  8
BEARING_WAVE_GEN
100
AcDbCircle
 10
18.78717101962929
 20
14.70893037608349
 30
0.0
 40
0.1406250045000003
100
AcDbArc
 50
202.3897078510666
 51
329.4182244283171
  0
ARC
  5
577
330
1F
100
AcDbEntity
  8
SEPARATOR_BEARING
100
AcDbCircle
 10
18.79215936363488
 20
14.70858916400575
 30
0.0
 40
0.1580000050560003
100
AcDbArc
 50
226.5667916392136
 51
294.0179651155886
  0
ARC
  5
578
330
1F
100
AcDbEntity
  8
SEPARATOR_BEARING
100
AcDbCircle
 10
18.71622290679312
 20
14.34316287134805
 30
0.0
 40
0.1580000050560003
100
AcDbArc
 50
42.50377401484628
 51
109.9549474912221
  0
ARC
  5
579
330
1F
100
AcDbEntity
  8
BEARING_WAVE_GEN
100
AcDbCircle
 10
18.78717101962929
 20
14.70893037608349
 30
0.0
 40
0.1406250045000003
100
AcDbArc
 50
22.75568861516343
 51
149.7842051924108
  0
LINE
  5
57A
330
1F
100
AcDbEntity
  8
WAVE_GENERATOR
100
AcDbLine
 10
17.52325427170549
 20
15.38501539451487
 30
0.0
 11
17.52325427170549
 21
15.28427703753513
 31
0.0
  0
LINE
  5
57B
330
1F
100
AcDbEntity
  8
LINE_CENTER
100
AcDbLine
 10
17.42485427170548
 20
14.71211539451487
 30
0.0
 11
17.42485427170548
 21
14.89211539451487
 31
0.0
  0
CIRCLE
  5
57C
330
1F
100
AcDbEntity
  8
LINE_HIDDEN
100
AcDbCircle
 10
18.29485427170547
 20
14.80211539451487
 30
0.0
 40
0.118
  0
ARC
  5
57D
330
1F
100
AcDbEntity
  8
SEPARATOR_BEARING
100
AcDbCircle
 10
17.42485427170548
 20
14.80211539451487
 30
0.0
 40
1.268000040576001
100
AcDbArc
 50
1.755487957710996
 51
6.070598998810329
  0
CIRCLE
  5
57E
330
1F
100
AcDbEntity
  8
WAVE_GENERATOR
100
AcDbCircle
 10
18.29485427170547
 20
14.80211539451487
 30
0.0
 40
0.0985
  0
ARC
  5
57F
330
1F
100
AcDbEntity
  8
SEPARATOR_BEARING
100
AcDbCircle
 10
18.69725684410878
 20
14.84111279770184
 30
0.0
 40
0.00500000016
100
AcDbArc
 50
181.7554879576748
 51
305.6071214042763
  0
ARC
  5
580
330
1F
100
AcDbEntity
  8
SEPARATOR_BEARING
100
AcDbCircle
 10
17.42485427170548
 20
14.80211539451487
 30
0.0
 40
1.268000040576001
100
AcDbArc
 50
346.1033140446662
 51
350.4184250857675
  0
ARC
  5
581
330
1F
100
AcDbEntity
  8
SEPARATOR_BEARING
100
AcDbCircle
 10
18.68009547217047
 20
14.59022242066002
 30
0.0
 40
0.00500000016
100
AcDbArc
 50
46.56679163917163
 51
170.4184250857729
  0
ARC
  5
582
330
1F
100
AcDbEntity
  8
SEPARATOR_BEARING
100
AcDbCircle
 10
18.66059407860179
 20
14.49637656255897
 30
0.0
 40
0.00500000016
100
AcDbArc
 50
166.1033140446314
 51
289.9549474912338
  0
ARC
  5
583
330
1F
100
AcDbEntity
  8
SEPARATOR_BEARING
100
AcDbCircle
 10
17.42485427170548
 20
14.80211539451487
 30
0.0
 40
1.268000040576001
100
AcDbArc
 50
17.40766187075672
 51
21.72277291185308
  0
ARC
  5
584
330
1F
100
AcDbEntity
  8
SEPARATOR_BEARING
100
AcDbCircle
 10
18.63955133167505
 20
15.18295677385158
 30
0.0
 40
0.00500000016
100
AcDbArc
 50
197.4076618707192
 51
321.2592953173217
  0
ARC
  5
585
330
1F
100
AcDbEntity
  8
SEPARATOR_BEARING
100
AcDbCircle
 10
18.60745289910924
 20
15.27327310715106
 30
0.0
 40
0.00500000016
100
AcDbArc
 50
77.87113946526048
 51
201.7227729118615
  0
ARC
  5
586
330
1F
100
AcDbEntity
  8
SEPARATOR_BEARING
100
AcDbCircle
 10
18.77574661188607
 20
15.33989417853748
 30
0.0
 40
0.00500000016
100
AcDbArc
 50
21.70708206977058
 51
145.3223129416873
  0
ARC
  5
587
330
1F
100
AcDbEntity
  8
SEPARATOR_BEARING
100
AcDbCircle
 10
18.64170100246502
 20
15.43263454890203
 30
0.0
 40
0.1580000050560003
100
AcDbArc
 50
257.8711394653004
 51
325.3223129416752
  0
ARC
  5
588
330
1F
100
AcDbEntity
  8
SEPARATOR_BEARING
100
AcDbCircle
 10
18.69071576360131
 20
14.93674000983123
 30
0.0
 40
0.00500000016
100
AcDbArc
 50
62.21896555221571
 51
186.0705989988155
  0
ARC
  5
589
330
1F
100
AcDbEntity
  8
BEARING_WAVE_GEN
100
AcDbCircle
 10
18.1343461781826
 20
15.96882512875781
 30
0.0
 40
0.1406250045000003
100
AcDbArc
 50
85.36438426733278
 51
212.3929008445863
  0
ARC
  5
58A
330
1F
100
AcDbEntity
  8
BEARING_WAVE_GEN
100
AcDbCircle
 10
17.79326177450943
 20
16.11697899246393
 30
0.0
 40
0.1406250045000003
100
AcDbArc
 50
101.0165581803819
 51
228.0450747576288
  0
ARC
  5
58B
330
1F
100
AcDbEntity
  8
SEPARATOR_BEARING
100
AcDbCircle
 10
17.42485427170547
 20
14.80211539451487
 30
0.0
 40
1.459000046688003
100
AcDbArc
 50
80.03204836503893
 51
84.31577772191248
  0
ARC
  5
58C
330
1F
100
AcDbEntity
  8
SEPARATOR_BEARING
100
AcDbCircle
 10
17.67653775223865
 20
16.23416691625916
 30
0.0
 40
0.00500000016
100
AcDbArc
 50
316.4168174931271
 51
80.03204836504577
  0
ARC
  5
58D
330
1F
100
AcDbEntity
  8
SEPARATOR_BEARING
100
AcDbCircle
 10
17.56886677405731
 20
16.24896595157658
 30
0.0
 40
0.00500000016
100
AcDbArc
 50
84.3157777219449
 51
207.9310085938625
  0
ARC
  5
58E
330
1F
100
AcDbEntity
  8
SEPARATOR_BEARING
100
AcDbCircle
 10
17.42485427170547
 20
14.80211539451487
 30
0.0
 40
1.268000040576001
100
AcDbArc
 50
80.0163575229288
 51
84.33146856402833
  0
ARC
  5
58F
330
1F
100
AcDbEntity
  8
SEPARATOR_BEARING
100
AcDbCircle
 10
17.64555048916327
 20
16.05583876245282
 30
0.0
 40
0.00500000016
100
AcDbArc
 50
260.0163575228958
 51
23.86799096949452
  0
ARC
  5
590
330
1F
100
AcDbEntity
  8
SEPARATOR_BEARING
100
AcDbCircle
 10
17.55059258525686
 20
16.06889042593091
 30
0.0
 40
0.00500000016
100
AcDbArc
 50
140.4798351174324
 51
264.3314685640349
  0
ARC
  5
591
330
1F
100
AcDbEntity
  8
SEPARATOR_BEARING
100
AcDbCircle
 10
17.79461075840838
 20
16.12179357905473
 30
0.0
 40
0.1580000050560003
100
AcDbArc
 50
136.4168174931081
 51
203.867990969483
  0
ARC
  5
592
330
1F
100
AcDbEntity
  8
BEARING_WAVE_GEN
100
AcDbCircle
 10
17.42485427170548
 20
16.16761543821088
 30
0.0
 40
0.1406250045000003
100
AcDbArc
 50
296.3027513293268
 51
63.33126790657752
  0
ARC
  5
593
330
1F
100
AcDbEntity
  8
SEPARATOR_BEARING
100
AcDbCircle
 10
17.42485427170548
 20
16.17261543837087
 30
0.0
 40
0.1580000050560003
100
AcDbArc
 50
320.4798351174728
 51
27.93100859385034
  0
ARC
  5
594
330
1F
100
AcDbEntity
  8
SEPARATOR_BEARING
100
AcDbCircle
 10
17.95388200845627
 20
16.15645869997762
 30
0.0
 40
0.00500000016
100
AcDbArc
 50
68.66360380889712
 51
192.2788346808174
  0
ARC
  5
595
330
1F
100
AcDbEntity
  8
SEPARATOR_BEARING
100
AcDbCircle
 10
17.88770168076445
 20
15.98799118043904
 30
0.0
 40
0.00500000016
100
AcDbArc
 50
124.8276612043911
 51
248.679294650988
  0
ARC
  5
596
330
1F
100
AcDbEntity
  8
SEPARATOR_BEARING
100
AcDbCircle
 10
17.97561699134162
 20
15.94980417217755
 30
0.0
 40
0.00500000016
100
AcDbArc
 50
244.3641836098521
 51
8.215817056450106
  0
ARC
  5
597
330
1F
100
AcDbEntity
  8
SEPARATOR_BEARING
100
AcDbCircle
 10
18.1369440980159
 20
15.97309722591726
 30
0.0
 40
0.1580000050560003
100
AcDbArc
 50
120.7646435800674
 51
188.2158170564395
  0
ARC
  5
598
330
1F
100
AcDbEntity
  8
SEPARATOR_BEARING
100
AcDbCircle
 10
18.05356752274785
 20
16.11315917077375
 30
0.0
 40
0.00500000016
100
AcDbArc
 50
300.7646435800848
 51
64.37987445200358
  0
ARC
  5
599
330
1F
100
AcDbEntity
  8
SEPARATOR_BEARING
100
AcDbCircle
 10
17.42485427170547
 20
14.80211539451487
 30
0.0
 40
1.268000040576001
100
AcDbArc
 50
64.364183609888
 51
68.67929465098228
  0
ARC
  5
59A
330
1F
100
AcDbEntity
  8
SEPARATOR_BEARING
100
AcDbCircle
 10
17.42485427170547
 20
14.80211539451487
 30
0.0
 40
1.459000046688003
100
AcDbArc
 50
64.37987445200128
 51
68.6636038088702
  0
ARC
  5
59B
330
1F
100
AcDbEntity
  8
BEARING_WAVE_GEN
100
AcDbCircle
 10
17.79326177450943
 20
16.11697899246393
 30
0.0
 40
0.1406250045000003
100
AcDbArc
 50
280.6505774162832
 51
47.67909399353531
  0
ARC
  5
59C
330
1F
100
AcDbEntity
  8
SEPARATOR_BEARING
100
AcDbCircle
 10
17.79461075840838
 20
16.12179357905473
 30
0.0
 40
0.1580000050560003
100
AcDbArc
 50
304.827661204431
 51
12.27883468080688
  0
ARC
  5
59D
330
1F
100
AcDbEntity
  8
SEPARATOR_BEARING
100
AcDbCircle
 10
18.1369440980159
 20
15.97309722591726
 30
0.0
 40
0.1580000050560003
100
AcDbArc
 50
289.1754872913887
 51
356.6266607677631
  0
ARC
  5
59E
330
1F
100
AcDbEntity
  8
BEARING_WAVE_GEN
100
AcDbCircle
 10
18.1343461781826
 20
15.96882512875781
 30
0.0
 40
0.1406250045000003
100
AcDbArc
 50
264.9984035032419
 51
32.02692008049053
  0
ARC
  5
59F
330
1F
100
AcDbEntity
  8
BEARING_WAVE_GEN
100
AcDbCircle
 10
18.42281081286188
 20
15.73414174140479
 30
0.0
 40
0.1406250045000003
100
AcDbArc
 50
69.7122103542928
 51
196.7407269315413
  0
ARC
  5
5A0
330
1F
100
AcDbEntity
  8
SEPARATOR_BEARING
100
AcDbCircle
 10
18.42646499280019
 20
15.7375545072301
 30
0.0
 40
0.1580000050560003
100
AcDbArc
 50
105.1124696670239
 51
172.563643143396
  0
ARC
  5
5A1
330
1F
100
AcDbEntity
  8
SEPARATOR_BEARING
100
AcDbCircle
 10
17.42485427170548
 20
14.80211539451487
 30
0.0
 40
1.268000040576001
100
AcDbArc
 50
33.05983578380033
 51
37.37494682489593
  0
ARC
  5
5A2
330
1F
100
AcDbEntity
  8
BEARING_WAVE_GEN
100
AcDbCircle
 10
18.42281081286188
 20
15.73414174140479
 30
0.0
 40
0.1406250045000003
100
AcDbArc
 50
249.346229590197
 51
16.37474616744685
  0
ARC
  5
5A3
330
1F
100
AcDbEntity
  8
SEPARATOR_BEARING
100
AcDbCircle
 10
18.42646499280019
 20
15.73755450723009
 30
0.0
 40
0.1580000050560003
100
AcDbArc
 50
273.523313378344
 51
340.9744868547181
  0
ARC
  5
5A4
330
1F
100
AcDbEntity
  8
SEPARATOR_BEARING
100
AcDbCircle
 10
18.19048350132813
 20
15.81914095292591
 30
0.0
 40
0.00500000016
100
AcDbArc
 50
109.1754872913479
 51
233.0271207379468
  0
ARC
  5
5A5
330
1F
100
AcDbEntity
  8
SEPARATOR_BEARING
100
AcDbCircle
 10
18.26483594217636
 20
15.75865075558984
 30
0.0
 40
0.00500000016
100
AcDbArc
 50
228.712009696805
 51
352.5636431434089
  0
ARC
  5
5A6
330
1F
100
AcDbEntity
  8
SEPARATOR_BEARING
100
AcDbCircle
 10
17.42485427170548
 20
14.80211539451488
 30
0.0
 40
1.268000040576001
100
AcDbArc
 50
48.71200969683982
 51
53.02712073793864
  0
ARC
  5
5A7
330
1F
100
AcDbEntity
  8
SEPARATOR_BEARING
100
AcDbCircle
 10
18.43648210445138
 20
15.57486259232777
 30
0.0
 40
0.00500000016
100
AcDbArc
 50
93.52331337830392
 51
217.3749468249043
  0
ARC
  5
5A8
330
1F
100
AcDbEntity
  8
SEPARATOR_BEARING
100
AcDbCircle
 10
18.58056087988505
 20
15.6844182739806
 30
0.0
 40
0.00500000016
100
AcDbArc
 50
37.35925598281515
 51
160.9744868547315
  0
ARC
  5
5A9
330
1F
100
AcDbEntity
  8
SEPARATOR_BEARING
100
AcDbCircle
 10
18.49175729517272
 20
15.4965554871293
 30
0.0
 40
0.00500000016
100
AcDbArc
 50
213.0598357837635
 51
336.9114692303639
  0
ARC
  5
5AA
330
1F
100
AcDbEntity
  8
SEPARATOR_BEARING
100
AcDbCircle
 10
18.64323637722957
 20
15.59562732274415
 30
0.0
 40
0.00500000016
100
AcDbArc
 50
269.460295754
 51
33.07552662591724
  0
ARC
  5
5AB
330
1F
100
AcDbEntity
  8
SEPARATOR_BEARING
100
AcDbCircle
 10
18.64170100246504
 20
15.43263454890203
 30
0.0
 40
0.1580000050560003
100
AcDbArc
 50
89.4602957539794
 51
156.9114692303551
  0
ARC
  5
5AC
330
1F
100
AcDbEntity
  8
SEPARATOR_BEARING
100
AcDbCircle
 10
17.42485427170548
 20
14.80211539451487
 30
0.0
 40
1.459000046688003
100
AcDbArc
 50
33.07552662591152
 51
37.35925598278567
  0
ARC
  5
5AD
330
1F
100
AcDbEntity
  8
BEARING_WAVE_GEN
100
AcDbCircle
 10
18.63726157623096
 20
15.43033422363977
 30
0.0
 40
0.1406250045000003
100
AcDbArc
 50
54.0600364412464
 51
181.0885530184991
  0
ARC
  5
5AE
330
1F
100
AcDbEntity
  8
SEPARATOR_BEARING
100
AcDbCircle
 10
18.29966167576127
 20
15.96350600112085
 30
0.0
 40
0.00500000016
100
AcDbArc
 50
53.01142989585617
 51
176.6266607677735
  0
ARC
  5
5AF
330
1F
100
AcDbEntity
  8
SEPARATOR_BEARING
100
AcDbCircle
 10
18.38396850759897
 20
15.89491730602943
 30
0.0
 40
0.00500000016
100
AcDbArc
 50
285.1124696670439
 51
48.72770053895998
  0
ARC
  5
5B0
330
1F
100
AcDbEntity
  8
SEPARATOR_BEARING
100
AcDbCircle
 10
17.42485427170548
 20
14.80211539451488
 30
0.0
 40
1.459000046688003
100
AcDbArc
 50
48.72770053895635
 51
53.01142989583135
  0
ARC
  5
5B1
330
1F
100
AcDbEntity
  8
SEPARATOR_BEARING
100
AcDbCircle
 10
17.42485427170548
 20
14.80211539451487
 30
0.0
 40
1.459000046688003
100
AcDbArc
 50
1.77117879982434
 51
6.054908156696471
  0
ARC
  5
5B2
330
1F
100
AcDbEntity
  8
SEPARATOR_BEARING
100
AcDbCircle
 10
18.87815964688704
 20
14.84705559669238
 30
0.0
 40
0.00500000016
100
AcDbArc
 50
238.15594792791
 51
1.77117879983218
  0
ARC
  5
5B3
330
1F
100
AcDbEntity
  8
SEPARATOR_BEARING
100
AcDbCircle
 10
18.85850412545671
 20
14.55970204475354
 30
0.0
 40
0.00500000016
100
AcDbArc
 50
350.4027342436835
 51
114.0179651156024
  0
ARC
  5
5B4
330
1F
100
AcDbEntity
  8
SEPARATOR_BEARING
100
AcDbCircle
 10
18.83639186270594
 20
14.45329199435936
 30
0.0
 40
0.00500000016
100
AcDbArc
 50
222.5037740148664
 51
346.1190048867887
  0
ARC
  5
5B5
330
1F
100
AcDbEntity
  8
SEPARATOR_BEARING
100
AcDbCircle
 10
17.42485427170548
 20
14.80211539451487
 30
0.0
 40
1.459000046688003
100
AcDbArc
 50
346.1190048867809
 51
350.4027342436546
  0
ARC
  5
5B6
330
1F
100
AcDbEntity
  8
SEPARATOR_BEARING
100
AcDbCircle
 10
18.81214241982066
 20
15.23748618981764
 30
0.0
 40
0.00500000016
100
AcDbArc
 50
253.8081218409572
 51
17.42335271287475
  0
ARC
  5
5B7
330
1F
100
AcDbEntity
  8
SEPARATOR_BEARING
100
AcDbCircle
 10
18.87074283893714
 20
14.95548549085762
 30
0.0
 40
0.00500000016
100
AcDbArc
 50
6.054908156727638
 51
129.6701390286429
  0
CIRCLE
  5
5B8
330
1F
100
AcDbEntity
  8
SPLINE_STATIC
100
AcDbCircle
 10
19.12962527905514
 20
15.78636539451487
 30
0.0
 40
0.0985
  0
CIRCLE
  5
5B9
330
1F
100
AcDbEntity
  8
LINE_HIDDEN
100
AcDbCircle
 10
19.12962527905514
 20
15.78636539451487
 30
0.0
 40
0.118
  0
CIRCLE
  5
5BA
330
1F
100
AcDbEntity
  8
SPLINE_STATIC
100
AcDbCircle
 10
17.42485427170548
 20
16.77061539451487
 30
0.0
 40
0.0985
  0
CIRCLE
  5
5BB
330
1F
100
AcDbEntity
  8
LINE_HIDDEN
100
AcDbCircle
 10
17.42485427170548
 20
16.77061539451487
 30
0.0
 40
0.118
  0
TEXT
  5
5BC
330
1F
100
AcDbEntity
  8
0
100
AcDbText
 10
11.20233393816298
 20
10.79748075227086
 30
0.0
 40
0.3503764410982448
  1
HDB-032
100
AcDbText
  0
INSERT
  5
5F7
330
1F
100
AcDbEntity
  8
0
100
AcDbBlockReference
  2
Notice
 10
7.707561232791224
 20
8.178678250850362
 30
0.0
 41
1.734363401357214
 42
1.734363401357214
 43
1.734363401357214
  0
INSERT
  5
666
330
1F
100
AcDbEntity
  8
0
100
AcDbBlockReference
  2
HD logo-new
 10
13.75473411968787
 20
8.413249646660656
 30
0.0
 41
0.0362404172952104
 42
0.0362404172952104
 43
0.0362404172952104
  0
INSERT
  5
670
330
1F
100
AcDbEntity
  8
0
100
AcDbBlockReference
  2
HD LLC
 10
17.4023294315781
 20
8.127119828342394
 30
0.0
 41
0.0350295665628693
 42
0.0350295665628693
 43
0.0350295665628693
  0
ENDSEC
  0
SECTION
  2
OBJECTS
  0
DICTIONARY
  5
C
330
0
100
AcDbDictionary
281
     1
  3
ACAD_GROUP
350
D
  3
ACAD_LAYOUT
350
1A
  3
ACAD_MLINESTYLE
350
17
  3
ACAD_PLOTSETTINGS
350
19
  3
ACAD_PLOTSTYLENAME
350
E
  3
AcDbVariableDictionary
350
5BD
  0
DICTIONARY
  5
462
330
461
100
AcDbDictionary
280
     1
281
     1
  0
DICTIONARY
  5
464
330
463
100
AcDbDictionary
280
     1
281
     1
  0
DICTIONARY
  5
46D
330
46C
100
AcDbDictionary
280
     1
281
     1
  0
DICTIONARY
  5
D
102
{ACAD_REACTORS
330
C
102
}
330
C
100
AcDbDictionary
281
     1
  0
DICTIONARY
  5
1A
102
{ACAD_REACTORS
330
C
102
}
330
C
100
AcDbDictionary
281
     1
  3
Layout1
350
1E
  3
Layout2
350
26
  3
Model
350
22
  0
DICTIONARY
  5
17
102
{ACAD_REACTORS
330
C
102
}
330
C
100
AcDbDictionary
281
     1
  3
Standard
350
18
  0
DICTIONARY
  5
19
102
{ACAD_REACTORS
330
C
102
}
330
C
100
AcDbDictionary
281
     1
  0
ACDBDICTIONARYWDFLT
  5
E
102
{ACAD_REACTORS
330
C
102
}
330
C
100
AcDbDictionary
281
     1
  3
Normal
350
F
100
AcDbDictionaryWithDefault
340
F
  0
DICTIONARY
  5
5BD
102
{ACAD_REACTORS
330
C
102
}
330
C
100
AcDbDictionary
281
     1
  3
DIMASSOC
350
5BF
  3
HIDETEXT
350
5BE
  0
LAYOUT
  5
1E
102
{ACAD_REACTORS
330
1A
102
}
330
1A
100
AcDbPlotSettings
  1

  2
\\HARMONIC-NT2\8100 Engineering
  4

  6

 40
0.0
 41
0.0
 42
0.0
 43
0.0
 44
0.0
 45
0.0
 46
0.0
 47
0.0
 48
0.0
 49
0.0
140
0.0
141
0.0
142
1.0
143
1.0
 70
   688
 72
     0
 73
     0
 74
     5
  7

 75
    16
147
1.0
148
0.0
149
0.0
100
AcDbLayout
  1
Layout1
 70
     1
 71
     1
 10
0.0
 20
0.0
 11
12.0
 21
9.0
 12
0.0
 22
0.0
 32
0.0
 14
1.000000000000000E+20
 24
1.000000000000000E+20
 34
1.000000000000000E+20
 15
-1.000000000000000E+20
 25
-1.000000000000000E+20
 35
-1.000000000000000E+20
146
0.0
 13
0.0
 23
0.0
 33
0.0
 16
1.0
 26
0.0
 36
0.0
 17
0.0
 27
1.0
 37
0.0
 76
     0
330
1B
  0
LAYOUT
  5
26
102
{ACAD_REACTORS
330
1A
102
}
330
1A
100
AcDbPlotSettings
  1

  2
\\HARMONIC-NT2\8100 Engineering
  4

  6

 40
0.0
 41
0.0
 42
0.0
 43
0.0
 44
0.0
 45
0.0
 46
0.0
 47
0.0
 48
0.0
 49
0.0
140
0.0
141
0.0
142
1.0
143
1.0
 70
   688
 72
     0
 73
     0
 74
     5
  7

 75
    16
147
1.0
148
0.0
149
0.0
100
AcDbLayout
  1
Layout2
 70
     1
 71
     2
 10
0.0
 20
0.0
 11
12.0
 21
9.0
 12
0.0
 22
0.0
 32
0.0
 14
0.0
 24
0.0
 34
0.0
 15
0.0
 25
0.0
 35
0.0
146
0.0
 13
0.0
 23
0.0
 33
0.0
 16
1.0
 26
0.0
 36
0.0
 17
0.0
 27
1.0
 37
0.0
 76
     0
330
23
  0
LAYOUT
  5
22
102
{ACAD_REACTORS
330
1A
102
}
330
1A
100
AcDbPlotSettings
  1

  2
\\HARMONIC-NT2\8100 Engineering
  4

  6

 40
0.0
 41
0.0
 42
0.0
 43
0.0
 44
0.0
 45
0.0
 46
0.0
 47
0.0
 48
0.0
 49
0.0
140
0.0
141
0.0
142
1.0
143
1.0
 70
  1712
 72
     0
 73
     0
 74
     0
  7

 75
     0
147
1.0
148
0.0
149
0.0
100
AcDbLayout
  1
Model
 70
     1
 71
     0
 10
0.0
 20
0.0
 11
12.0
 21
9.0
 12
0.0
 22
0.0
 32
0.0
 14
0.0
 24
0.0
 34
0.0
 15
0.0
 25
0.0
 35
0.0
146
0.0
 13
0.0
 23
0.0
 33
0.0
 16
1.0
 26
0.0
 36
0.0
 17
0.0
 27
1.0
 37
0.0
 76
     0
330
1F
  0
MLINESTYLE
  5
18
102
{ACAD_REACTORS
330
17
102
}
330
17
100
AcDbMlineStyle
  2
STANDARD
 70
     0
  3

 62
   256
 51
90.0
 52
90.0
 71
     2
 49
0.5
 62
   256
  6
BYLAYER
 49
-0.5
 62
   256
  6
BYLAYER
  0
ACDBPLACEHOLDER
  5
F
102
{ACAD_REACTORS
330
E
102
}
330
E
  0
DICTIONARYVAR
  5
5BF
102
{ACAD_REACTORS
330
5BD
102
}
330
5BD
100
DictionaryVariables
280
     0
  1
2
  0
DICTIONARYVAR
  5
5BE
102
{ACAD_REACTORS
330
5BD
102
}
330
5BD
100
DictionaryVariables
280
     0
  1
1
  0
ENDSEC
  0
EOF
