  0
SECTION
  2
HEADER
  9
$ACADVER
  1
AC1015
  9
$ACADMAINTVER
 70
    13
  9
$DWGCODEPAGE
  3
ANSI_1252
  9
$INSBASE
 10
0.0
 20
0.0
 30
0.0
  9
$EXTMIN
 10
-34.01397074913479
 20
-2.478473119121645
 30
0.0
  9
$EXTMAX
 10
68.14300438384204
 20
32.13027831224776
 30
0.0
  9
$LIMMIN
 10
0.0
 20
0.0
  9
$LIMMAX
 10
12.0
 20
9.0
  9
$ORTHOMODE
 70
     1
  9
$REGENMODE
 70
     1
  9
$FILLMODE
 70
     1
  9
$QTEXTMODE
 70
     0
  9
$MIRRTEXT
 70
     1
  9
$LTSCALE
 40
1.0
  9
$ATTMODE
 70
     1
  9
$TEXTSIZE
 40
0.75
  9
$TRACEWID
 40
0.05
  9
$TEXTSTYLE
  7
Standard
  9
$CLAYER
  8
0
  9
$CELTYPE
  6
ByLayer
  9
$CECOLOR
 62
   256
  9
$CELTSCALE
 40
1.0
  9
$DISPSILH
 70
     0
  9
$DIMSCALE
 40
1.0
  9
$DIMASZ
 40
0.18
  9
$DIMEXO
 40
0.0625
  9
$DIMDLI
 40
0.38
  9
$DIMRND
 40
0.0
  9
$DIMDLE
 40
0.0
  9
$DIMEXE
 40
0.18
  9
$DIMTP
 40
0.0
  9
$DIMTM
 40
0.0
  9
$DIMTXT
 40
0.18
  9
$DIMCEN
 40
0.09
  9
$DIMTSZ
 40
0.0
  9
$DIMTOL
 70
     0
  9
$DIMLIM
 70
     0
  9
$DIMTIH
 70
     1
  9
$DIMTOH
 70
     1
  9
$DIMSE1
 70
     0
  9
$DIMSE2
 70
     0
  9
$DIMTAD
 70
     0
  9
$DIMZIN
 70
     0
  9
$DIMBLK
  1

  9
$DIMASO
 70
     1
  9
$DIMSHO
 70
     1
  9
$DIMPOST
  1

  9
$DIMAPOST
  1

  9
$DIMALT
 70
     0
  9
$DIMALTD
 70
     2
  9
$DIMALTF
 40
25.4
  9
$DIMLFAC
 40
1.0
  9
$DIMTOFL
 70
     0
  9
$DIMTVP
 40
0.0
  9
$DIMTIX
 70
     0
  9
$DIMSOXD
 70
     0
  9
$DIMSAH
 70
     0
  9
$DIMBLK1
  1

  9
$DIMBLK2
  1

  9
$DIMSTYLE
  2
Standard
  9
$DIMCLRD
 70
     0
  9
$DIMCLRE
 70
     0
  9
$DIMCLRT
 70
     0
  9
$DIMTFAC
 40
1.0
  9
$DIMGAP
 40
0.09
  9
$DIMJUST
 70
     0
  9
$DIMSD1
 70
     0
  9
$DIMSD2
 70
     0
  9
$DIMTOLJ
 70
     1
  9
$DIMTZIN
 70
     0
  9
$DIMALTZ
 70
     0
  9
$DIMALTTZ
 70
     0
  9
$DIMUPT
 70
     0
  9
$DIMDEC
 70
     4
  9
$DIMTDEC
 70
     4
  9
$DIMALTU
 70
     2
  9
$DIMALTTD
 70
     2
  9
$DIMTXSTY
  7
Standard
  9
$DIMAUNIT
 70
     0
  9
$DIMADEC
 70
     0
  9
$DIMALTRND
 40
0.0
  9
$DIMAZIN
 70
     0
  9
$DIMDSEP
 70
    46
  9
$DIMATFIT
 70
     3
  9
$DIMFRAC
 70
     0
  9
$DIMLDRBLK
  1

  9
$DIMLUNIT
 70
     2
  9
$DIMLWD
 70
    -2
  9
$DIMLWE
 70
    -2
  9
$DIMTMOVE
 70
     0
  9
$LUNITS
 70
     2
  9
$LUPREC
 70
     4
  9
$SKETCHINC
 40
0.1
  9
$FILLETRAD
 40
0.5
  9
$AUNITS
 70
     0
  9
$AUPREC
 70
     0
  9
$MENU
  1
.
  9
$ELEVATION
 40
0.0
  9
$PELEVATION
 40
0.0
  9
$THICKNESS
 40
0.0
  9
$LIMCHECK
 70
     0
  9
$CHAMFERA
 40
0.5
  9
$CHAMFERB
 40
0.5
  9
$CHAMFERC
 40
1.0
  9
$CHAMFERD
 40
0.0
  9
$SKPOLY
 70
     0
  9
$TDCREATE
 40
2452597.520022685
  9
$TDUCREATE
 40
2452597.686689351
  9
$TDUPDATE
 40
2453871.579049294
  9
$TDUUPDATE
 40
2453871.745715960
  9
$TDINDWG
 40
0.0164918056
  9
$TDUSRTIMER
 40
0.0164918056
  9
$USRTIMER
 70
     1
  9
$ANGBASE
 50
0.0
  9
$ANGDIR
 70
     0
  9
$PDMODE
 70
     0
  9
$PDSIZE
 40
0.0
  9
$PLINEWID
 40
0.0
  9
$SPLFRAME
 70
     0
  9
$SPLINETYPE
 70
     6
  9
$SPLINESEGS
 70
     8
  9
$HANDSEED
  5
70D
  9
$SURFTAB1
 70
     6
  9
$SURFTAB2
 70
     6
  9
$SURFTYPE
 70
     6
  9
$SURFU
 70
     6
  9
$SURFV
 70
     6
  9
$UCSBASE
  2

  9
$UCSNAME
  2

  9
$UCSORG
 10
0.0
 20
0.0
 30
0.0
  9
$UCSXDIR
 10
1.0
 20
0.0
 30
0.0
  9
$UCSYDIR
 10
0.0
 20
1.0
 30
0.0
  9
$UCSORTHOREF
  2

  9
$UCSORTHOVIEW
 70
     0
  9
$UCSORGTOP
 10
0.0
 20
0.0
 30
0.0
  9
$UCSORGBOTTOM
 10
0.0
 20
0.0
 30
0.0
  9
$UCSORGLEFT
 10
0.0
 20
0.0
 30
0.0
  9
$UCSORGRIGHT
 10
0.0
 20
0.0
 30
0.0
  9
$UCSORGFRONT
 10
0.0
 20
0.0
 30
0.0
  9
$UCSORGBACK
 10
0.0
 20
0.0
 30
0.0
  9
$PUCSBASE
  2

  9
$PUCSNAME
  2

  9
$PUCSORG
 10
0.0
 20
0.0
 30
0.0
  9
$PUCSXDIR
 10
1.0
 20
0.0
 30
0.0
  9
$PUCSYDIR
 10
0.0
 20
1.0
 30
0.0
  9
$PUCSORTHOREF
  2

  9
$PUCSORTHOVIEW
 70
     0
  9
$PUCSORGTOP
 10
0.0
 20
0.0
 30
0.0
  9
$PUCSORGBOTTOM
 10
0.0
 20
0.0
 30
0.0
  9
$PUCSORGLEFT
 10
0.0
 20
0.0
 30
0.0
  9
$PUCSORGRIGHT
 10
0.0
 20
0.0
 30
0.0
  9
$PUCSORGFRONT
 10
0.0
 20
0.0
 30
0.0
  9
$PUCSORGBACK
 10
0.0
 20
0.0
 30
0.0
  9
$USERI1
 70
     0
  9
$USERI2
 70
     0
  9
$USERI3
 70
     0
  9
$USERI4
 70
     0
  9
$USERI5
 70
     0
  9
$USERR1
 40
0.0
  9
$USERR2
 40
0.0
  9
$USERR3
 40
0.0
  9
$USERR4
 40
0.0
  9
$USERR5
 40
0.0
  9
$WORLDVIEW
 70
     1
  9
$SHADEDGE
 70
     3
  9
$SHADEDIF
 70
    70
  9
$TILEMODE
 70
     1
  9
$MAXACTVP
 70
    64
  9
$PINSBASE
 10
0.0
 20
0.0
 30
0.0
  9
$PLIMCHECK
 70
     0
  9
$PEXTMIN
 10
1.000000000000000E+20
 20
1.000000000000000E+20
 30
1.000000000000000E+20
  9
$PEXTMAX
 10
-1.000000000000000E+20
 20
-1.000000000000000E+20
 30
-1.000000000000000E+20
  9
$PLIMMIN
 10
0.0
 20
0.0
  9
$PLIMMAX
 10
12.0
 20
9.0
  9
$UNITMODE
 70
     0
  9
$VISRETAIN
 70
     1
  9
$PLINEGEN
 70
     0
  9
$PSLTSCALE
 70
     1
  9
$TREEDEPTH
 70
  3020
  9
$CMLSTYLE
  2
Standard
  9
$CMLJUST
 70
     0
  9
$CMLSCALE
 40
1.0
  9
$PROXYGRAPHICS
 70
     1
  9
$MEASUREMENT
 70
     0
  9
$CELWEIGHT
370
    -1
  9
$ENDCAPS
280
     0
  9
$JOINSTYLE
280
     0
  9
$LWDISPLAY
290
     0
  9
$INSUNITS
 70
     1
  9
$HYPERLINKBASE
  1

  9
$STYLESHEET
  1

  9
$XEDIT
290
     1
  9
$CEPSNTYPE
380
     0
  9
$PSTYLEMODE
290
     1
  9
$FINGERPRINTGUID
  2
{939CAFDA-32F5-4437-96BE-B08A5329399F}
  9
$VERSIONGUID
  2
{ED9E7F8D-AAD2-469D-991C-7F2A3A8DCA0E}
  9
$EXTNAMES
290
     1
  9
$PSVPSCALE
 40
0.0
  9
$OLESTARTUP
290
     0
  0
ENDSEC
  0
SECTION
  2
CLASSES
  0
CLASS
  1
ACDBDICTIONARYWDFLT
  2
AcDbDictionaryWithDefault
  3
AutoCAD 2000
 90
        0
280
     0
281
     0
  0
CLASS
  1
ACDBPLACEHOLDER
  2
AcDbPlaceHolder
  3
AutoCAD 2000
 90
        0
280
     0
281
     0
  0
CLASS
  1
LAYOUT
  2
AcDbLayout
  3
AutoCAD 2000
 90
        0
280
     0
281
     0
  0
CLASS
  1
DICTIONARYVAR
  2
AcDbDictionaryVar
  3
AutoCAD 2000
 90
        0
280
     0
281
     0
  0
ENDSEC
  0
SECTION
  2
TABLES
  0
TABLE
  2
VPORT
  5
8
330
0
100
AcDbSymbolTable
 70
     5
  0
VPORT
  5
70C
330
8
100
AcDbSymbolTableRecord
100
AcDbViewportTableRecord
  2
*Active
 70
     0
 10
0.0
 20
0.0
 11
1.0
 21
1.0
 12
14.47739265814849
 22
18.819779588815
 13
0.0
 23
0.0
 14
0.5
 24
0.5
 15
0.5
 25
0.5
 16
0.0
 26
0.0
 36
1.0
 17
0.0
 27
0.0
 37
0.0
 40
17.1144800160601
 41
1.215864759427828
 42
50.0
 43
0.0
 44
0.0
 50
0.0
 51
0.0
 71
     0
 72
   100
 73
     1
 74
     3
 75
     0
 76
     0
 77
     0
 78
     0
281
     0
 65
     1
110
0.0
120
0.0
130
0.0
111
1.0
121
0.0
131
0.0
112
0.0
122
1.0
132
0.0
 79
     0
146
0.0
  0
ENDTAB
  0
TABLE
  2
LTYPE
  5
5
330
0
100
AcDbSymbolTable
 70
     3
  0
LTYPE
  5
14
330
5
100
AcDbSymbolTableRecord
100
AcDbLinetypeTableRecord
  2
ByBlock
 70
     0
  3

 72
    65
 73
     0
 40
0.0
  0
LTYPE
  5
15
330
5
100
AcDbSymbolTableRecord
100
AcDbLinetypeTableRecord
  2
ByLayer
 70
     0
  3

 72
    65
 73
     0
 40
0.0
  0
LTYPE
  5
16
330
5
100
AcDbSymbolTableRecord
100
AcDbLinetypeTableRecord
  2
Continuous
 70
     0
  3
Solid line
 72
    65
 73
     0
 40
0.0
  0
LTYPE
  5
2B
330
5
100
AcDbSymbolTableRecord
100
AcDbLinetypeTableRecord
  2
CENTER
 70
     0
  3
____ _ ____ _ ____ _ ____ _ ____ _ ____ _ ____ 
 72
    65
 73
     4
 40
2.0
 49
1.25
 74
     0
 49
-0.25
 74
     0
 49
0.25
 74
     0
 49
-0.25
 74
     0
  0
LTYPE
  5
2C
330
5
100
AcDbSymbolTableRecord
100
AcDbLinetypeTableRecord
  2
HIDDEN
 70
     0
  3
__ __ __ __ __ __ __ __ __ __ __ __ __ __ __ __
 72
    65
 73
     2
 40
0.375
 49
0.25
 74
     0
 49
-0.125
 74
     0
  0
ENDTAB
  0
TABLE
  2
LAYER
  5
2
330
0
100
AcDbSymbolTable
 70
    14
  0
LAYER
  5
10
330
2
100
AcDbSymbolTableRecord
100
AcDbLayerTableRecord
  2
0
 70
     0
 62
     7
  6
Continuous
370
    -3
390
F
  0
LAYER
  5
2D
330
2
100
AcDbSymbolTableRecord
100
AcDbLayerTableRecord
  2
WAVE_GENERATOR
 70
     0
 62
   212
  6
Continuous
370
    -3
390
F
  0
LAYER
  5
2E
330
2
100
AcDbSymbolTableRecord
100
AcDbLayerTableRecord
  2
FORMAT
 70
     0
 62
   254
  6
Continuous
370
    -3
390
F
  0
LAYER
  5
2F
330
2
100
AcDbSymbolTableRecord
100
AcDbLayerTableRecord
  2
LINE_CENTER
 70
     0
 62
    20
  6
CENTER
370
    -3
390
F
  0
LAYER
  5
30
330
2
100
AcDbSymbolTableRecord
100
AcDbLayerTableRecord
  2
BEARING_WAVE_GEN
 70
     0
 62
   254
  6
Continuous
370
    -3
390
F
  0
LAYER
  5
31
330
2
100
AcDbSymbolTableRecord
100
AcDbLayerTableRecord
  2
LINE_HIDDEN
 70
     0
 62
   122
  6
HIDDEN
370
    -3
390
F
  0
LAYER
  5
32
330
2
100
AcDbSymbolTableRecord
100
AcDbLayerTableRecord
  2
SEPARATOR_BEARING
 70
     0
 62
   163
  6
Continuous
370
    -3
390
F
  0
LAYER
  5
33
330
2
100
AcDbSymbolTableRecord
100
AcDbLayerTableRecord
  2
SPACERS_PANCAKE
 70
     0
 62
   105
  6
Continuous
370
    -3
390
F
  0
LAYER
  5
34
330
2
100
AcDbSymbolTableRecord
100
AcDbLayerTableRecord
  2
SPLINE_DYNAMIC
 70
     0
 62
   100
  6
Continuous
370
    -3
390
F
  0
LAYER
  5
35
330
2
100
AcDbSymbolTableRecord
100
AcDbLayerTableRecord
  2
SPLINE_FLEX
 70
     0
 62
    50
  6
Continuous
370
    -3
390
F
  0
LAYER
  5
36
330
2
100
AcDbSymbolTableRecord
100
AcDbLayerTableRecord
  2
SPLINE_STATIC
 70
     0
 62
   150
  6
Continuous
370
    -3
390
F
  0
LAYER
  5
37
330
2
100
AcDbSymbolTableRecord
100
AcDbLayerTableRecord
  2
WEAR_WASHER
 70
     0
 62
   243
  6
Continuous
370
    -3
390
F
  0
LAYER
  5
688
330
2
100
AcDbSymbolTableRecord
100
AcDbLayerTableRecord
  2
Defpoints
 70
     0
 62
     7
  6
Continuous
290
     0
370
    -3
390
F
  0
LAYER
  5
6F8
330
2
100
AcDbSymbolTableRecord
100
AcDbLayerTableRecord
  2
LAYER_1
 70
     0
 62
     5
  6
Continuous
370
    -3
390
F
  0
ENDTAB
  0
TABLE
  2
STYLE
  5
3
330
0
100
AcDbSymbolTable
 70
     2
  0
STYLE
  5
11
330
3
100
AcDbSymbolTableRecord
100
AcDbTextStyleTableRecord
  2
Standard
 70
     0
 40
0.0
 41
1.0
 50
0.0
 71
     0
 42
0.75
  3
txt
  4

  0
STYLE
  5
38
330
3
100
AcDbSymbolTableRecord
100
AcDbTextStyleTableRecord
  2
ROMANS
 70
     0
 40
0.0
 41
1.0
 50
0.0
 71
     0
 42
0.15
  3
ROMANS
  4

  0
ENDTAB
  0
TABLE
  2
VIEW
  5
6
330
0
100
AcDbSymbolTable
 70
     0
  0
ENDTAB
  0
TABLE
  2
UCS
  5
7
330
0
100
AcDbSymbolTable
 70
     0
  0
ENDTAB
  0
TABLE
  2
APPID
  5
9
330
0
100
AcDbSymbolTable
 70
     1
  0
APPID
  5
12
330
9
100
AcDbSymbolTableRecord
100
AcDbRegAppTableRecord
  2
ACAD
 70
     0
  0
ENDTAB
  0
TABLE
  2
DIMSTYLE
  5
A
330
0
100
AcDbSymbolTable
 70
     4
100
AcDbDimStyleTable
 71
     0
  0
DIMSTYLE
105
27
330
A
100
AcDbSymbolTableRecord
100
AcDbDimStyleTableRecord
  2
Standard
 70
     0
340
11
  0
DIMSTYLE
105
39
330
A
100
AcDbSymbolTableRecord
100
AcDbDimStyleTableRecord
  2
METRIC_ENG
 70
     0
 41
4.572
 42
1.588
 43
9.651999999999999
 44
0.762
 78
     4
140
3.81
141
-2.286
144
0.039370079
147
2.279999999999998
171
     0
176
   256
177
   256
178
   256
271
     3
272
     3
274
     1
284
     4
285
     4
288
     1
340
38
  0
DIMSTYLE
105
3A
330
A
100
AcDbSymbolTableRecord
100
AcDbDimStyleTableRecord
  2
METRIC_ONLY
 70
     0
 41
4.572
 42
1.588
 43
9.651999999999999
 44
0.762
 78
     4
140
3.81
141
0.0
143
0.03937
147
2.279999999999998
171
     3
176
   256
177
   256
178
   256
271
     0
272
     2
274
     3
285
     4
286
     4
288
     1
340
38
  0
DIMSTYLE
105
3B
330
A
100
AcDbSymbolTableRecord
100
AcDbDimStyleTableRecord
  2
ENG_METRIC
 70
     0
 43
0.5
 44
0.09
 78
     1
140
0.156
141
0.0
144
25.4
146
0.6666666666
176
   256
177
   256
178
   256
271
     0
272
     0
284
     1
288
     1
289
     2
340
38
371
    -1
372
    -1
  0
ENDTAB
  0
TABLE
  2
BLOCK_RECORD
  5
1
330
0
100
AcDbSymbolTable
 70
    22
  0
BLOCK_RECORD
  5
1F
330
1
100
AcDbSymbolTableRecord
100
AcDbBlockTableRecord
  2
*Model_Space
340
22
  0
BLOCK_RECORD
  5
1B
330
1
100
AcDbSymbolTableRecord
100
AcDbBlockTableRecord
  2
*Paper_Space
340
1E
  0
BLOCK_RECORD
  5
23
330
1
100
AcDbSymbolTableRecord
100
AcDbBlockTableRecord
  2
*Paper_Space0
340
26
  0
BLOCK_RECORD
  5
67F
330
1
100
AcDbSymbolTableRecord
100
AcDbBlockTableRecord
  2
NTC
340
0
310
2800000020000000200000000100080000000000000400000000000000000000000000000000000000000000000080000080000000808000800000008000800080800000C0C0C000C0DCC000F0CAA6000020400000206000002080000020A0000020C0000020E00000400000004020000040400000406000004080000040A0
310
000040C0000040E00000600000006020000060400000606000006080000060A0000060C0000060E00000800000008020000080400000806000008080000080A0000080C0000080E00000A0000000A0200000A0400000A0600000A0800000A0A00000A0C00000A0E00000C0000000C0200000C0400000C0600000C0800000C0
310
A00000C0C00000C0E00000E0000000E0200000E0400000E0600000E0800000E0A00000E0C00000E0E00040000000400020004000400040006000400080004000A0004000C0004000E00040200000402020004020400040206000402080004020A0004020C0004020E000404000004040200040404000404060004040800040
310
40A0004040C0004040E00040600000406020004060400040606000406080004060A0004060C0004060E00040800000408020004080400040806000408080004080A0004080C0004080E00040A0000040A0200040A0400040A0600040A0800040A0A00040A0C00040A0E00040C0000040C0200040C0400040C0600040C08000
310
40C0A00040C0C00040C0E00040E0000040E0200040E0400040E0600040E0800040E0A00040E0C00040E0E00080000000800020008000400080006000800080008000A0008000C0008000E00080200000802020008020400080206000802080008020A0008020C0008020E00080400000804020008040400080406000804080
310
008040A0008040C0008040E00080600000806020008060400080606000806080008060A0008060C0008060E00080800000808020008080400080806000808080008080A0008080C0008080E00080A0000080A0200080A0400080A0600080A0800080A0A00080A0C00080A0E00080C0000080C0200080C0400080C0600080C0
310
800080C0A00080C0C00080C0E00080E0000080E0200080E0400080E0600080E0800080E0A00080E0C00080E0E000C0000000C0002000C0004000C0006000C0008000C000A000C000C000C000E000C0200000C0202000C0204000C0206000C0208000C020A000C020C000C020E000C0400000C0402000C0404000C0406000C0
310
408000C040A000C040C000C040E000C0600000C0602000C0604000C0606000C0608000C060A000C060C000C060E000C0800000C0802000C0804000C0806000C0808000C080A000C080C000C080E000C0A00000C0A02000C0A04000C0A06000C0A08000C0A0A000C0A0C000C0A0E000C0C00000C0C02000C0C04000C0C06000
310
C0C08000C0C0A000F0FBFF00A4A0A000808080000000FF0000FF000000FFFF00FF000000FF00FF00FFFF0000FFFFFF00FFFFFFFFFFFFFFFFFFFFFFFFFFFFFFFFFFFFFFFFFFFFFFFFFFFFFFFFFFFFFFFFFFFFFFFFFFFFFFFFFFFFFFFFFFFFFFFFFFFFFFFFFFFFFFFFFFFFFFFFFFFFFFFFFFFFFFFFFFFFFFFFFFFFFFFFFFFFFF
310
FFFFFFFFFFFFFFFFFFFFFFFFFFFFFFFFFFFFFFFFFFFFFFFFFFFFFFFFFFFFFFFFFFFFFFFFFFFFFFFFFFFFFFFFFFFFFFFFFFFFFFFFFFFFFFFFFFFFFFFFFFFFFFFFFFFFFFFFFFFFFFFFFFFFFFFFFFFFFFFFFFFFFFFFFFFFFFFFFFFFFFFFFFFFFFFFFFFFFFFFFFFFFFFFFFFFFFFFFFFFFFFFFFFFFFFFFFFFFFFFFFFFFFFFFFFFFF
310
FFFFFFFFFFFFFFFFFFFFFFFFFFFFFFFFFFFFFFFFFFFFFFFFFFFFFFFFFFFFFFFFFFFFFFFFFFFFFFFFFFFFFFFFFFFFFFFFFFFFFFFFFFFFFFFFFFFFFFFFFFFFFFFFFFFFFFFFFFFFFFFFFFFFFFFFFFFFFFFFFFFFFFFFFFFFFFFFFFFFFFFFFFFFFFFFFFFFFFFFFFFFFFFFFFFFFFFFFFFFFFFFFFFFFFFFFFFFFFFFFFFFFFFFFFFFFF
310
FFFFFFFFFFFFFFFFFFFFFFFFFFFFFFFFFFFFFFFF000000000000000000000000000000000000000000000000000000000000FFFF00FF0000000000000000FFFFFFFFFFFFFFFFFFFFFFFFFFFFFFFFFFFFFF00FFFF00FF0000000000000000FFFFFFFFFFFFFFFFFFFFFFFFFFFFFFFFFFFFFF00FFFF00FF000000000000000000
310
00000000000000000000000000FFFFFFFFFF00FFFF00FF0000000000000000000000000000000000000000000000000000FF00FFFF00FF0000000000000000000000000000000000000000000000000000FF00FFFF00FF0000000000000000000000000000000000000000000000000000FF00FFFF00FF0000000000000000
310
00000000000000000000000000000000FFFFFF00FFFF00FF0000000000FFFFFFFFFFFFFFFFFFFFFFFFFFFFFFFFFFFFFFFFFFFF00FFFF000000000000000000000000000000000000000000000000000000000000FFFFFFFFFFFFFFFFFFFFFFFFFFFFFFFFFFFFFFFFFFFFFFFFFFFFFFFFFFFFFFFFFFFFFFFFFFFFFFFFFFFFFF
310
FFFFFFFFFFFFFFFFFFFFFFFFFFFFFFFFFFFFFFFFFFFFFFFFFFFFFFFFFFFFFFFFFFFFFFFFFFFFFFFFFFFFFFFFFFFFFFFFFFFFFFFFFFFFFFFFFFFFFFFFFFFFFFFFFFFFFFFFFFFFFFFFFFFFFFFFFFFFFFFFFFFFFFFFFFFFFFFFFFFFFFFFFFFFFFFFFFFFFFFFFFFFFFFFFFFFFFFFFFFFFFFFFFFFFFFFFFFFFFFFFFFFFFFFFFFFFF
310
FFFFFFFFFFFFFFFFFFFFFFFFFFFFFFFFFFFFFFFFFFFFFFFFFFFFFFFFFFFFFFFFFFFFFFFFFFFFFFFFFFFFFFFFFFFFFFFFFFFFFFFFFFFFFFFFFFFFFFFFFFFFFFFFFFFFFFFFFFFFFFFFFFFFFFFFFFFFFFFFFFFFFFFFFFFFFFFFFFFFFFFFFFFFFFFFFFFFFFFFFFFFFFFFFFFFFFFFFFFFFFFFFFFFFFFFFFFFFFFFFFFFFFFFFFFFFF
310
FFFFFFFFFFFFFFFFFFFFFFFFFFFFFFFFFFFFFFFFFFFFFFFFFFFFFFFFFFFFFFFFFFFFFFFFFFFFFFFFFFFFFFFFFFFFFFFFFFFFFFFFFFFFFFFF
102
{BLKREFS
331
685
102
}
  0
BLOCK_RECORD
  5
684
330
1
100
AcDbSymbolTableRecord
100
AcDbBlockTableRecord
  2
Notice
340
0
310
2800000020000000200000000100080000000000000400000000000000000000000000000000000000000000000080000080000000808000800000008000800080800000C0C0C000C0DCC000F0CAA6000020400000206000002080000020A0000020C0000020E00000400000004020000040400000406000004080000040A0
310
000040C0000040E00000600000006020000060400000606000006080000060A0000060C0000060E00000800000008020000080400000806000008080000080A0000080C0000080E00000A0000000A0200000A0400000A0600000A0800000A0A00000A0C00000A0E00000C0000000C0200000C0400000C0600000C0800000C0
310
A00000C0C00000C0E00000E0000000E0200000E0400000E0600000E0800000E0A00000E0C00000E0E00040000000400020004000400040006000400080004000A0004000C0004000E00040200000402020004020400040206000402080004020A0004020C0004020E000404000004040200040404000404060004040800040
310
40A0004040C0004040E00040600000406020004060400040606000406080004060A0004060C0004060E00040800000408020004080400040806000408080004080A0004080C0004080E00040A0000040A0200040A0400040A0600040A0800040A0A00040A0C00040A0E00040C0000040C0200040C0400040C0600040C08000
310
40C0A00040C0C00040C0E00040E0000040E0200040E0400040E0600040E0800040E0A00040E0C00040E0E00080000000800020008000400080006000800080008000A0008000C0008000E00080200000802020008020400080206000802080008020A0008020C0008020E00080400000804020008040400080406000804080
310
008040A0008040C0008040E00080600000806020008060400080606000806080008060A0008060C0008060E00080800000808020008080400080806000808080008080A0008080C0008080E00080A0000080A0200080A0400080A0600080A0800080A0A00080A0C00080A0E00080C0000080C0200080C0400080C0600080C0
310
800080C0A00080C0C00080C0E00080E0000080E0200080E0400080E0600080E0800080E0A00080E0C00080E0E000C0000000C0002000C0004000C0006000C0008000C000A000C000C000C000E000C0200000C0202000C0204000C0206000C0208000C020A000C020C000C020E000C0400000C0402000C0404000C0406000C0
310
408000C040A000C040C000C040E000C0600000C0602000C0604000C0606000C0608000C060A000C060C000C060E000C0800000C0802000C0804000C0806000C0808000C080A000C080C000C080E000C0A00000C0A02000C0A04000C0A06000C0A08000C0A0A000C0A0C000C0A0E000C0C00000C0C02000C0C04000C0C06000
310
C0C08000C0C0A000F0FBFF00A4A0A000808080000000FF0000FF000000FFFF00FF000000FF00FF00FFFF0000FFFFFF00FFFFFFFFFFFFFFFFFFFFFFFFFFFFFFFFFFFFFFFFFFFFFFFFFFFFFFFFFFFFFFFFFFFFFFFFFFFFFFFFFFFFFFFFFFFFFFFFFFFFFFFFFFFFFFFFFFFFFFFFFFFFFFFFFFFFFFFFFFFFFFFFFFFFFFFFFFFFFF
310
FFFFFFFFFFFFFFFFFFFFFFFFFFFFFFFFFFFFFFFFFFFFFFFFFFFFFFFFFFFFFFFFFFFFFFFFFFFFFFFFFFFFFFFFFFFFFFFFFFFFFFFFFFFFFFFFFFFFFFFFFFFFFFFFFFFFFFFFFFFFFFFFFFFFFFFFFFFFFFFFFFFFFFFFFFFFFFFFFFFFFFFFFFFFFFFFFFFFFFFFFFFFFFFFFFFFFFFFFFFFFFFFFFFFFFFFFFFFFFFFFFFFFFFFFFFFFF
310
FFFFFFFFFFFFFFFFFFFFFFFFFFFFFFFFFFFFFFFFFFFFFFFFFFFFFFFFFFFFFFFFFFFFFFFFFFFFFFFFFFFFFFFFFFFFFFFFFFFFFFFFFFFFFFFFFFFFFFFFFFFFFFFFFFFFFFFFFFFFFFFFFFFFFFFFFFFFFFFFFFFFFFFFFFFFFFFFFFFFFFFFFFFFFFFFFFFFFFFFFFFFFFFFFFFFFFFFFFFFFFFFFFFFFFFFFFFFFFFFFFFFFFFFFFFFFF
310
FFFFFFFFFFFFFFFFFFFFFFFFFFFFFFFFFFFFFFFF000000000000000000000000000000000000000000000000000000000000FFFF00FF0000000000000000FFFFFFFFFFFFFFFFFFFFFFFFFFFFFFFFFFFFFF00FFFF00FF0000000000000000FFFFFFFFFFFFFFFFFFFFFFFFFFFFFFFFFFFFFF00FFFF00FF000000000000000000
310
00000000000000000000000000FFFFFFFFFF00FFFF00FF0000000000000000000000000000000000000000000000000000FF00FFFF00FF0000000000000000000000000000000000000000000000000000FF00FFFF00FF0000000000000000000000000000000000000000000000000000FF00FFFF00FF0000000000000000
310
00000000000000000000000000000000FFFFFF00FFFF00FF000000000000FFFFFFFFFFFFFFFFFFFFFFFFFFFFFFFFFFFFFFFFFF00FFFF000000000000000000000000000000000000000000000000000000000000FFFFFFFFFFFFFFFFFFFFFFFFFFFFFFFFFFFFFFFFFFFFFFFFFFFFFFFFFFFFFFFFFFFFFFFFFFFFFFFFFFFFFF
310
FFFFFFFFFFFFFFFFFFFFFFFFFFFFFFFFFFFFFFFFFFFFFFFFFFFFFFFFFFFFFFFFFFFFFFFFFFFFFFFFFFFFFFFFFFFFFFFFFFFFFFFFFFFFFFFFFFFFFFFFFFFFFFFFFFFFFFFFFFFFFFFFFFFFFFFFFFFFFFFFFFFFFFFFFFFFFFFFFFFFFFFFFFFFFFFFFFFFFFFFFFFFFFFFFFFFFFFFFFFFFFFFFFFFFFFFFFFFFFFFFFFFFFFFFFFFFF
310
FFFFFFFFFFFFFFFFFFFFFFFFFFFFFFFFFFFFFFFFFFFFFFFFFFFFFFFFFFFFFFFFFFFFFFFFFFFFFFFFFFFFFFFFFFFFFFFFFFFFFFFFFFFFFFFFFFFFFFFFFFFFFFFFFFFFFFFFFFFFFFFFFFFFFFFFFFFFFFFFFFFFFFFFFFFFFFFFFFFFFFFFFFFFFFFFFFFFFFFFFFFFFFFFFFFFFFFFFFFFFFFFFFFFFFFFFFFFFFFFFFFFFFFFFFFFFF
310
FFFFFFFFFFFFFFFFFFFFFFFFFFFFFFFFFFFFFFFFFFFFFFFFFFFFFFFFFFFFFFFFFFFFFFFFFFFFFFFFFFFFFFFFFFFFFFFFFFFFFFFFFFFFFFFF
102
{BLKREFS
331
68A
331
68F
102
}
  0
BLOCK_RECORD
  5
690
330
1
100
AcDbSymbolTableRecord
100
AcDbBlockTableRecord
  2
AI9-BLK14
340
0
310
2800000020000000200000000100080000000000000400000000000000000000000000000000000000000000000080000080000000808000800000008000800080800000C0C0C000C0DCC000F0CAA6000020400000206000002080000020A0000020C0000020E00000400000004020000040400000406000004080000040A0
310
000040C0000040E00000600000006020000060400000606000006080000060A0000060C0000060E00000800000008020000080400000806000008080000080A0000080C0000080E00000A0000000A0200000A0400000A0600000A0800000A0A00000A0C00000A0E00000C0000000C0200000C0400000C0600000C0800000C0
310
A00000C0C00000C0E00000E0000000E0200000E0400000E0600000E0800000E0A00000E0C00000E0E00040000000400020004000400040006000400080004000A0004000C0004000E00040200000402020004020400040206000402080004020A0004020C0004020E000404000004040200040404000404060004040800040
310
40A0004040C0004040E00040600000406020004060400040606000406080004060A0004060C0004060E00040800000408020004080400040806000408080004080A0004080C0004080E00040A0000040A0200040A0400040A0600040A0800040A0A00040A0C00040A0E00040C0000040C0200040C0400040C0600040C08000
310
40C0A00040C0C00040C0E00040E0000040E0200040E0400040E0600040E0800040E0A00040E0C00040E0E00080000000800020008000400080006000800080008000A0008000C0008000E00080200000802020008020400080206000802080008020A0008020C0008020E00080400000804020008040400080406000804080
310
008040A0008040C0008040E00080600000806020008060400080606000806080008060A0008060C0008060E00080800000808020008080400080806000808080008080A0008080C0008080E00080A0000080A0200080A0400080A0600080A0800080A0A00080A0C00080A0E00080C0000080C0200080C0400080C0600080C0
310
800080C0A00080C0C00080C0E00080E0000080E0200080E0400080E0600080E0800080E0A00080E0C00080E0E000C0000000C0002000C0004000C0006000C0008000C000A000C000C000C000E000C0200000C0202000C0204000C0206000C0208000C020A000C020C000C020E000C0400000C0402000C0404000C0406000C0
310
408000C040A000C040C000C040E000C0600000C0602000C0604000C0606000C0608000C060A000C060C000C060E000C0800000C0802000C0804000C0806000C0808000C080A000C080C000C080E000C0A00000C0A02000C0A04000C0A06000C0A08000C0A0A000C0A0C000C0A0E000C0C00000C0C02000C0C04000C0C06000
310
C0C08000C0C0A000F0FBFF00A4A0A000808080000000FF0000FF000000FFFF00FF000000FF00FF00FFFF0000FFFFFF00FF00FFFFFFFF00FFFFFFFFFFFFFFFFFFFFFFFFFFFFFFFFFFFFFFFFFFFFFFFFFFFF00FFFFFFFF00FFFFFFFFFFFFFFFFFFFFFFFFFFFFFFFFFFFFFFFFFFFFFFFFFFFF00FFFFFFFF00FFFFFFFFFFFFFFFF
310
FFFFFFFFFFFFFFFFFFFFFFFFFFFFFFFFFFFF00FFFFFFFF00FFFFFFFFFFFFFFFFFFFFFFFFFFFFFFFFFFFFFFFFFFFFFFFFFFFF00FFFFFFFF00FFFFFFFFFFFFFFFFFFFFFFFFFFFFFFFFFFFFFFFFFFFFFFFFFFFF00FFFFFFFF00FFFFFFFFFFFFFFFFFFFFFFFFFFFFFFFFFFFFFFFFFFFFFFFFFFFF00FFFFFFFF00FFFFFFFFFFFFFF
310
FFFFFFFFFFFFFFFFFFFFFFFFFFFFFFFFFFFFFF00FFFFFFFF00FFFFFFFFFFFFFFFFFFFFFFFFFFFFFFFFFFFFFFFFFFFFFFFFFFFF00FFFFFFFF00FFFFFFFFFFFFFFFFFFFFFFFFFFFFFFFFFFFFFFFFFFFFFFFFFFFF00FFFFFFFF00FFFFFFFFFFFFFFFFFFFFFFFFFFFFFFFFFFFFFFFFFFFFFFFFFFFF00FFFFFFFF00FFFFFFFFFFFF
310
FFFFFFFFFFFFFFFFFFFFFFFFFFFFFFFFFFFFFFFF00FFFFFFFF00FFFFFFFFFFFFFFFFFFFFFFFFFFFFFFFFFFFFFFFFFFFFFFFFFFFF00FFFFFFFF00FFFFFFFFFFFFFFFFFFFFFFFFFFFFFFFFFFFFFFFFFFFFFFFFFFFF00FFFFFFFF0000000000000000000000000000000000000000000000000000FF00FFFFFFFFFFFFFFFFFFFF
310
FFFFFFFFFFFFFFFFFFFFFFFFFFFFFFFFFFFFFFFFFF00FFFFFFFFFFFFFFFFFFFFFFFFFFFFFFFFFFFFFFFFFFFFFFFFFFFFFFFFFFFFFF00FFFFFFFFFFFFFFFFFFFFFFFFFFFFFFFFFFFFFFFFFFFFFFFFFFFFFFFFFFFFFF00FFFFFFFFFFFFFFFFFFFFFFFFFFFFFFFFFFFFFFFFFFFFFFFFFFFFFFFFFF00FF00000000000000000000
310
0000000000000000000000000000000000000000FFFFFFFFFFFFFFFFFFFFFFFFFFFFFFFFFFFFFFFFFFFFFFFFFFFFFFFFFFFFFFFFFFFFFFFFFFFFFFFFFFFFFFFFFFFFFFFFFFFFFFFFFFFFFFFFFFFFFFFFFFFFFFFFFFFFFFFFFFFFFFFFFFFFFFFFFFFFFFFFFFFFFFFFFFFFFFFFFFFFFFFFFFFFFFFFFFFFFFFFFFFFFFFFFFFFFF
310
FFFFFFFFFFFFFFFFFFFFFFFFFFFFFFFFFFFFFFFFFFFFFFFFFFFFFFFFFFFFFFFFFFFFFFFFFFFFFFFFFFFFFFFFFFFFFFFFFFFFFFFFFFFFFFFFFFFFFFFFFFFFFFFFFFFFFFFFFFFFFFFFFFFFFFFFFFFFFFFFFFFFFFFFFFFFFFFFFFFFFFFFFFFFFFFFFFFFFFFFFFFFFFFFFFFFFFFFFFFFFFFFFFFFFFFFFFFFFFFFFFFFFFFFFFFFFF
310
FFFFFFFFFFFFFFFFFFFFFFFFFFFFFFFFFFFFFFFFFFFFFFFFFFFFFFFFFFFFFFFFFFFFFFFFFFFFFFFFFFFFFFFFFFFFFFFFFFFFFFFFFFFFFFFFFFFFFFFFFFFFFFFFFFFFFFFFFFFFFFFFFFFFFFFFFFFFFFFFFFFFFFFFFFFFFFFFFFFFFFFFFFFFFFFFFFFFFFFFFFFFFFFFFFFFFFFFFFFFFFFFFFFFFFFFFFFFFFFFFFFFFFFFFFFFFF
310
FFFFFFFFFFFFFFFFFFFFFFFFFFFFFFFFFFFFFFFFFFFFFFFFFFFFFFFFFFFFFFFFFFFFFFFFFFFFFFFFFFFFFFFFFFFFFFFFFFFFFFFFFFFFFFFF
102
{BLKREFS
331
6D1
102
}
  0
BLOCK_RECORD
  5
695
330
1
100
AcDbSymbolTableRecord
100
AcDbBlockTableRecord
  2
AI9-BLK13
340
0
310
2800000020000000200000000100080000000000000400000000000000000000000000000000000000000000000080000080000000808000800000008000800080800000C0C0C000C0DCC000F0CAA6000020400000206000002080000020A0000020C0000020E00000400000004020000040400000406000004080000040A0
310
000040C0000040E00000600000006020000060400000606000006080000060A0000060C0000060E00000800000008020000080400000806000008080000080A0000080C0000080E00000A0000000A0200000A0400000A0600000A0800000A0A00000A0C00000A0E00000C0000000C0200000C0400000C0600000C0800000C0
310
A00000C0C00000C0E00000E0000000E0200000E0400000E0600000E0800000E0A00000E0C00000E0E00040000000400020004000400040006000400080004000A0004000C0004000E00040200000402020004020400040206000402080004020A0004020C0004020E000404000004040200040404000404060004040800040
310
40A0004040C0004040E00040600000406020004060400040606000406080004060A0004060C0004060E00040800000408020004080400040806000408080004080A0004080C0004080E00040A0000040A0200040A0400040A0600040A0800040A0A00040A0C00040A0E00040C0000040C0200040C0400040C0600040C08000
310
40C0A00040C0C00040C0E00040E0000040E0200040E0400040E0600040E0800040E0A00040E0C00040E0E00080000000800020008000400080006000800080008000A0008000C0008000E00080200000802020008020400080206000802080008020A0008020C0008020E00080400000804020008040400080406000804080
310
008040A0008040C0008040E00080600000806020008060400080606000806080008060A0008060C0008060E00080800000808020008080400080806000808080008080A0008080C0008080E00080A0000080A0200080A0400080A0600080A0800080A0A00080A0C00080A0E00080C0000080C0200080C0400080C0600080C0
310
800080C0A00080C0C00080C0E00080E0000080E0200080E0400080E0600080E0800080E0A00080E0C00080E0E000C0000000C0002000C0004000C0006000C0008000C000A000C000C000C000E000C0200000C0202000C0204000C0206000C0208000C020A000C020C000C020E000C0400000C0402000C0404000C0406000C0
310
408000C040A000C040C000C040E000C0600000C0602000C0604000C0606000C0608000C060A000C060C000C060E000C0800000C0802000C0804000C0806000C0808000C080A000C080C000C080E000C0A00000C0A02000C0A04000C0A06000C0A08000C0A0A000C0A0C000C0A0E000C0C00000C0C02000C0C04000C0C06000
310
C0C08000C0C0A000F0FBFF00A4A0A000808080000000FF0000FF000000FFFF00FF000000FF00FF00FFFF0000FFFFFF00FFFFFFFFFFFFFFFFFFFFFFFFFFFFFFFFFFFFFFFFFFFFFFFFFFFFFFFFFFFFFFFFFFFFFFFFFFFFFFFFFFFFFF0000FFFFFFFFFFFF0000FFFFFFFFFFFFFFFFFFFFFFFFFFFFFFFFFFFFFFFFFFFF0000FFFF
310
FFFFFFFF0000FFFFFFFFFFFFFFFFFFFFFFFFFFFFFFFFFFFFFFFFFFFF0000FFFFFFFFFFFF0000FFFFFFFFFFFFFFFFFFFFFFFFFFFFFFFFFFFFFFFFFFFF0000FFFFFFFFFFFF0000FFFFFFFFFFFFFFFFFFFFFFFFFFFFFFFFFFFFFFFFFFFF0000FFFFFFFFFFFF0000FFFFFFFFFFFFFFFFFFFFFFFFFFFFFFFFFFFFFFFFFFFF0000FF
310
FFFFFFFFFF0000FFFFFFFFFFFFFFFFFFFFFFFFFFFFFFFFFFFFFFFFFFFF0000FFFFFFFFFFFF0000FFFFFFFFFFFFFFFFFFFFFFFFFFFFFFFFFFFFFFFFFFFF0000FFFFFFFFFFFF0000FFFFFFFFFFFFFFFFFFFFFFFFFFFFFFFFFFFFFFFFFFFF0000FFFFFFFFFFFF0000FFFFFFFFFFFFFFFFFFFFFFFFFFFFFFFFFFFFFFFFFFFF0000
310
FFFFFFFFFFFF0000FFFFFFFFFFFFFFFFFFFFFFFFFFFFFFFFFFFFFFFFFFFF0000FFFFFFFFFFFF0000FFFFFFFFFFFFFFFFFFFFFFFFFFFFFFFFFFFFFFFFFFFF0000FFFFFFFFFFFF0000FFFFFFFFFFFFFFFFFFFFFFFFFFFFFFFFFFFFFFFFFFFF0000FFFFFFFFFFFF0000FFFFFFFFFFFFFFFFFFFFFFFFFFFFFFFFFFFFFFFFFFFF00
310
00FFFFFFFFFFFF0000FFFFFFFFFFFFFFFFFFFFFFFFFFFFFFFFFFFFFFFFFFFF00000000000000000000FFFFFFFFFFFFFFFFFFFFFFFFFFFFFFFFFFFFFFFFFFFF00FFFFFFFFFFFFFFFF00FFFFFFFFFFFFFFFFFFFFFFFFFFFFFFFFFFFFFFFFFFFF00FFFFFFFFFFFFFFFF00FFFFFFFFFFFFFFFFFFFFFFFFFFFFFFFFFFFFFFFFFFFF
310
00000000000000000000FFFFFFFFFFFFFFFFFFFFFFFFFFFFFFFFFFFFFFFFFFFF0000FFFFFFFFFFFF0000FFFFFFFFFFFFFFFFFFFFFFFFFFFFFFFFFFFFFFFFFFFF0000FFFFFFFFFFFF0000FFFFFFFFFFFFFFFFFFFFFFFFFFFFFFFFFFFFFFFFFFFF0000FFFFFFFFFFFF0000FFFFFFFFFFFFFFFFFFFFFFFFFFFFFFFFFFFFFFFFFF
310
FF0000FFFFFFFFFFFF0000FFFFFFFFFFFFFFFFFFFFFFFFFFFFFFFFFFFFFFFFFFFF0000FFFFFFFFFFFF0000FFFFFFFFFFFFFFFFFFFFFFFFFFFFFFFFFFFFFFFFFFFF0000FFFFFFFFFFFF0000FFFFFFFFFFFFFFFFFFFFFFFFFFFFFFFFFFFFFFFFFFFF0000FFFFFFFFFFFF0000FFFFFFFFFFFFFFFFFFFFFFFFFFFFFFFFFFFFFFFF
310
FFFF0000FFFFFFFFFFFF0000FFFFFFFFFFFFFFFFFFFFFFFFFFFFFFFFFFFFFFFFFFFF0000FFFFFFFFFFFF0000FFFFFFFFFFFFFFFFFFFFFFFFFFFFFFFFFFFFFFFFFFFF0000FFFFFFFFFFFF0000FFFFFFFFFFFFFFFFFFFFFFFFFFFFFFFFFFFFFFFFFFFF0000FFFFFFFFFFFF0000FFFFFFFFFFFFFFFFFFFFFFFFFFFFFFFFFFFFFF
310
FFFFFF0000FFFFFFFFFFFF0000FFFFFFFFFFFFFFFFFFFFFFFFFFFFFFFFFFFFFFFFFFFFFFFFFFFFFFFFFFFFFFFFFFFFFFFFFFFFFFFFFFFFFF
102
{BLKREFS
331
6D2
102
}
  0
BLOCK_RECORD
  5
69A
330
1
100
AcDbSymbolTableRecord
100
AcDbBlockTableRecord
  2
AI9-BLK11
340
0
310
2800000020000000200000000100080000000000000400000000000000000000000000000000000000000000000080000080000000808000800000008000800080800000C0C0C000C0DCC000F0CAA6000020400000206000002080000020A0000020C0000020E00000400000004020000040400000406000004080000040A0
310
000040C0000040E00000600000006020000060400000606000006080000060A0000060C0000060E00000800000008020000080400000806000008080000080A0000080C0000080E00000A0000000A0200000A0400000A0600000A0800000A0A00000A0C00000A0E00000C0000000C0200000C0400000C0600000C0800000C0
310
A00000C0C00000C0E00000E0000000E0200000E0400000E0600000E0800000E0A00000E0C00000E0E00040000000400020004000400040006000400080004000A0004000C0004000E00040200000402020004020400040206000402080004020A0004020C0004020E000404000004040200040404000404060004040800040
310
40A0004040C0004040E00040600000406020004060400040606000406080004060A0004060C0004060E00040800000408020004080400040806000408080004080A0004080C0004080E00040A0000040A0200040A0400040A0600040A0800040A0A00040A0C00040A0E00040C0000040C0200040C0400040C0600040C08000
310
40C0A00040C0C00040C0E00040E0000040E0200040E0400040E0600040E0800040E0A00040E0C00040E0E00080000000800020008000400080006000800080008000A0008000C0008000E00080200000802020008020400080206000802080008020A0008020C0008020E00080400000804020008040400080406000804080
310
008040A0008040C0008040E00080600000806020008060400080606000806080008060A0008060C0008060E00080800000808020008080400080806000808080008080A0008080C0008080E00080A0000080A0200080A0400080A0600080A0800080A0A00080A0C00080A0E00080C0000080C0200080C0400080C0600080C0
310
800080C0A00080C0C00080C0E00080E0000080E0200080E0400080E0600080E0800080E0A00080E0C00080E0E000C0000000C0002000C0004000C0006000C0008000C000A000C000C000C000E000C0200000C0202000C0204000C0206000C0208000C020A000C020C000C020E000C0400000C0402000C0404000C0406000C0
310
408000C040A000C040C000C040E000C0600000C0602000C0604000C0606000C0608000C060A000C060C000C060E000C0800000C0802000C0804000C0806000C0808000C080A000C080C000C080E000C0A00000C0A02000C0A04000C0A06000C0A08000C0A0A000C0A0C000C0A0E000C0C00000C0C02000C0C04000C0C06000
310
C0C08000C0C0A000F0FBFF00A4A0A000808080000000FF0000FF000000FFFF00FF000000FF00FF00FFFF0000FFFFFF00FFFFFFFFFFFFFFFFFFFFFFFFFFFFFFFFFFFFFFFFFFFFFFFFFFFFFFFFFFFFFFFFFFFFFFFFFFFFFFFFFFFFFFFFFFFF00000000FFFFFFFFFFFFFFFFFFFFFF000000FFFFFFFFFFFFFFFFFFFFFFFFFFFF00
310
FFFF00FFFFFFFFFFFFFFFFFFFFFF00FFFFFFFFFFFFFFFFFFFFFFFFFFFFFFFF00FFFF00FFFFFFFFFFFFFFFFFFFFFF00FFFFFFFFFFFFFFFFFFFFFFFFFFFFFFFF00FFFF00FFFFFFFFFFFFFFFFFFFFFF00FFFFFFFFFFFFFFFFFFFFFFFFFFFFFFFF00FFFF00FFFFFFFFFFFFFFFFFFFFFF00FFFFFFFFFFFFFFFFFFFFFFFFFFFFFFFF
310
00FFFF00FFFFFFFFFFFFFFFFFFFFFF00FFFFFFFFFFFFFFFFFFFFFFFFFFFFFFFF00FFFF00FFFFFFFFFFFFFFFFFFFFFF00FFFFFFFFFFFFFFFFFFFFFFFFFFFFFFFF00FFFF00FFFFFFFFFFFFFFFFFFFFFF00FFFFFFFFFFFFFFFFFFFFFFFFFFFFFFFF00FFFF00FFFFFFFFFFFFFFFFFFFFFF00FFFFFFFFFFFFFFFFFFFFFFFFFFFFFF
310
FF00FFFF00FFFFFFFFFFFFFFFFFFFFFF00FFFFFFFFFFFFFFFFFFFFFFFFFFFFFFFF00FFFF00FFFFFFFFFFFFFFFFFFFFFF00FFFFFFFFFFFFFFFFFFFFFFFFFFFFFFFF00FFFF00FFFFFFFFFFFFFFFFFFFFFF00FFFFFFFFFFFFFFFFFFFFFFFFFFFFFFFF00FFFF00FFFFFFFFFFFFFFFFFFFFFF00FFFFFFFFFFFFFFFFFFFFFFFFFFFF
310
FFFF00FFFF00FFFFFFFFFFFFFFFFFFFFFF00FFFFFFFFFFFFFFFFFFFFFFFFFFFFFFFF00FFFF00FFFFFFFFFFFFFFFFFFFFFF00FFFFFFFFFFFFFFFFFFFFFFFFFFFFFFFF00FFFF00FFFFFFFFFFFFFFFFFFFFFF00FFFFFFFFFFFFFFFFFFFFFFFFFFFFFFFF00FFFF00FFFFFFFFFFFFFFFFFFFF00FFFFFFFFFFFFFFFFFFFFFFFFFFFF
310
FFFFFF00FFFF00FFFFFFFFFFFFFFFFFFFF00FFFFFFFFFFFFFFFFFFFFFFFFFFFFFFFFFF00FFFF00FFFFFFFFFFFFFFFFFFFF00FFFFFFFFFFFFFFFFFFFFFFFFFFFFFFFFFF00FFFF00FFFFFFFFFFFFFFFFFFFF00FFFFFFFFFFFFFFFFFFFFFFFFFFFFFFFFFF00FFFF00FFFFFFFFFFFFFFFFFFFF00FFFFFFFFFFFFFFFFFFFFFFFFFF
310
FFFFFFFF00FFFF00FFFFFFFFFFFFFFFFFF0000FFFF00FFFFFFFFFFFFFFFFFFFFFFFFFFFF00FFFF00FFFFFFFFFFFFFFFF0000FFFFFF00FFFFFFFFFFFFFFFFFFFFFFFFFFFF00FFFF00000000000000000000FFFFFFFF00FFFFFFFFFFFFFFFFFFFFFFFFFFFF00FFFFFFFFFFFFFFFFFFFFFFFFFFFFFF00FFFFFFFFFFFFFFFFFFFF
310
FFFFFFFFFF00FFFFFFFFFFFFFFFFFFFFFFFFFFFF00FFFFFFFFFFFFFFFFFFFFFFFFFFFFFFFF00FFFFFFFFFFFFFFFFFFFFFFFFFFFF00FFFFFFFFFFFFFFFFFFFFFFFFFFFFFFFF00FFFFFFFFFFFFFFFFFFFFFFFFFFFFFF00FFFFFFFFFFFFFFFFFFFFFFFFFFFFFF00FFFFFFFFFFFFFFFFFFFFFFFFFFFFFF00FFFFFFFFFFFFFFFFFF
310
FFFFFFFFFFFF00FFFF00000000000000000000FFFFFFFF00FFFFFFFFFFFFFFFFFFFFFFFFFFFF00FFFF00FFFFFFFFFFFFFFFFFF0000FFFF00
102
{BLKREFS
331
6D3
102
}
  0
BLOCK_RECORD
  5
69F
330
1
100
AcDbSymbolTableRecord
100
AcDbBlockTableRecord
  2
AI9-BLK10
340
0
310
2800000020000000200000000100080000000000000400000000000000000000000000000000000000000000000080000080000000808000800000008000800080800000C0C0C000C0DCC000F0CAA6000020400000206000002080000020A0000020C0000020E00000400000004020000040400000406000004080000040A0
310
000040C0000040E00000600000006020000060400000606000006080000060A0000060C0000060E00000800000008020000080400000806000008080000080A0000080C0000080E00000A0000000A0200000A0400000A0600000A0800000A0A00000A0C00000A0E00000C0000000C0200000C0400000C0600000C0800000C0
310
A00000C0C00000C0E00000E0000000E0200000E0400000E0600000E0800000E0A00000E0C00000E0E00040000000400020004000400040006000400080004000A0004000C0004000E00040200000402020004020400040206000402080004020A0004020C0004020E000404000004040200040404000404060004040800040
310
40A0004040C0004040E00040600000406020004060400040606000406080004060A0004060C0004060E00040800000408020004080400040806000408080004080A0004080C0004080E00040A0000040A0200040A0400040A0600040A0800040A0A00040A0C00040A0E00040C0000040C0200040C0400040C0600040C08000
310
40C0A00040C0C00040C0E00040E0000040E0200040E0400040E0600040E0800040E0A00040E0C00040E0E00080000000800020008000400080006000800080008000A0008000C0008000E00080200000802020008020400080206000802080008020A0008020C0008020E00080400000804020008040400080406000804080
310
008040A0008040C0008040E00080600000806020008060400080606000806080008060A0008060C0008060E00080800000808020008080400080806000808080008080A0008080C0008080E00080A0000080A0200080A0400080A0600080A0800080A0A00080A0C00080A0E00080C0000080C0200080C0400080C0600080C0
310
800080C0A00080C0C00080C0E00080E0000080E0200080E0400080E0600080E0800080E0A00080E0C00080E0E000C0000000C0002000C0004000C0006000C0008000C000A000C000C000C000E000C0200000C0202000C0204000C0206000C0208000C020A000C020C000C020E000C0400000C0402000C0404000C0406000C0
310
408000C040A000C040C000C040E000C0600000C0602000C0604000C0606000C0608000C060A000C060C000C060E000C0800000C0802000C0804000C0806000C0808000C080A000C080C000C080E000C0A00000C0A02000C0A04000C0A06000C0A08000C0A0A000C0A0C000C0A0E000C0C00000C0C02000C0C04000C0C06000
310
C0C08000C0C0A000F0FBFF00A4A0A000808080000000FF0000FF000000FFFF00FF000000FF00FF00FFFF0000FFFFFF00FFFFFFFFFFFFFFFFFFFFFFFFFFFFFFFF00FFFFFFFFFFFFFFFFFFFFFFFF00FFFFFFFFFFFFFFFFFFFFFFFFFFFFFFFFFFFF00FFFFFFFFFFFFFFFFFFFFFF00FFFFFFFFFFFFFFFFFFFFFFFFFFFFFFFFFFFF
310
FF00FFFFFFFFFFFFFFFFFFFFFF00FFFFFFFFFFFFFFFFFFFFFFFFFFFFFFFFFFFFFF00FFFFFFFFFFFFFFFFFFFFFF00FFFFFFFFFFFFFFFFFFFFFFFFFFFFFFFFFFFFFF00FFFFFFFFFFFFFFFFFFFFFF00FFFFFFFFFFFFFFFFFFFFFFFFFFFFFFFFFFFFFF00FFFFFFFFFFFFFFFFFFFFFF00FFFFFFFFFFFFFFFFFFFFFFFFFFFFFFFFFF
310
FFFF00FFFFFFFFFFFFFFFFFFFFFF00FFFFFFFFFFFFFFFFFFFFFFFFFFFFFFFFFFFFFF00FFFFFFFFFFFFFFFFFFFF00FFFFFFFFFFFFFFFFFFFFFFFFFFFFFFFFFFFFFFFF00FFFFFFFFFFFFFFFFFFFF00FFFFFFFFFFFFFFFFFFFFFFFFFFFFFFFFFFFFFFFF00FFFFFFFFFFFFFFFFFFFF00FFFFFFFFFFFFFFFFFFFFFFFFFFFFFFFFFF
310
FFFFFF00FFFFFFFFFFFFFFFFFFFF00FFFFFFFFFFFFFFFFFFFFFFFFFFFFFFFFFFFFFFFF00FFFFFFFFFFFFFFFFFFFF00FFFFFFFFFFFFFFFFFFFFFFFFFFFFFFFFFFFFFFFF00FFFFFFFFFFFFFFFFFFFF00FFFFFFFFFFFFFFFFFFFFFFFFFFFFFFFFFFFFFFFF00FFFFFFFFFFFFFFFFFF00FFFFFFFFFFFFFFFFFFFFFFFFFFFFFFFFFF
310
FFFFFFFF00FFFFFFFFFFFFFFFFFF00FFFFFFFFFFFFFFFFFFFFFFFFFFFFFFFFFFFFFFFFFF00FFFFFFFFFFFFFFFFFF00FFFFFFFFFFFFFFFFFFFFFFFFFFFFFFFFFFFFFFFFFF0000000000000000000000FFFFFFFFFFFFFFFFFFFFFFFFFFFFFFFFFFFFFFFFFFFFFFFFFFFFFFFFFFFFFFFFFFFFFFFFFFFFFFFFFFFFFFFFFFFFFFFF
310
FFFFFFFFFFFFFFFFFFFFFFFFFFFFFFFFFFFFFFFFFFFFFFFFFFFFFFFFFFFFFFFFFFFFFFFFFFFFFFFFFFFFFFFFFFFFFFFFFFFFFFFFFFFFFFFFFFFFFFFFFFFFFFFFFFFFFFFFFFFFFFFFFFFFFFFFFFFFFFFFFFFFFFFFFFFFFFFFFFFFFFFFFFFFFFFFFFFFFFFFFFFFFFFFFFFFFFFFFFFFFFFFFFFFFFFFFFFFFFFFFFFFFFFFFFFFFF
310
FFFFFFFFFFFFFFFFFFFFFFFFFFFFFFFFFFFFFFFFFFFFFFFFFFFFFFFFFFFFFFFFFFFFFFFFFFFFFFFFFFFFFFFFFFFFFFFFFFFFFFFFFFFFFFFFFFFFFFFFFFFFFFFFFFFFFFFFFFFFFFFFFFFFFFFFFFFFFFFFFFFFFFFFFFFFFFFFFFFFFFFFFFFFFFFFFFFFFFFFFFFFFFFFFFFFFFFFFFFFFFFFFFFFFFFFFFFFFFFFFFFFFFFFFFFFFF
310
FFFFFFFFFFFFFFFFFFFFFFFFFFFFFFFFFFFFFFFFFFFFFFFFFFFFFFFFFFFFFFFFFFFFFFFFFFFFFFFFFFFFFFFFFFFFFFFFFFFFFFFFFFFFFFFFFFFFFFFFFFFFFFFFFFFFFFFFFFFFFFFFFFFFFFFFFFFFFFFFFFFFFFFFFFFFFFFFFFFFFFFFFFFFFFFFFFFFFFFFFFFFFFFFFFFFFFFFFFFFFFFFFFFFFFFFFFFFFFFFFFFFFFFFFFFFFF
310
FFFFFFFFFFFFFFFFFFFFFFFFFFFFFFFFFFFFFFFFFFFFFFFFFFFFFFFFFFFFFFFFFFFFFFFFFFFFFFFFFFFFFFFFFFFFFFFFFFFFFFFFFFFFFFFF
102
{BLKREFS
331
6D4
102
}
  0
BLOCK_RECORD
  5
6A3
330
1
100
AcDbSymbolTableRecord
100
AcDbBlockTableRecord
  2
AI9-BLK9
340
0
310
2800000020000000200000000100080000000000000400000000000000000000000000000000000000000000000080000080000000808000800000008000800080800000C0C0C000C0DCC000F0CAA6000020400000206000002080000020A0000020C0000020E00000400000004020000040400000406000004080000040A0
310
000040C0000040E00000600000006020000060400000606000006080000060A0000060C0000060E00000800000008020000080400000806000008080000080A0000080C0000080E00000A0000000A0200000A0400000A0600000A0800000A0A00000A0C00000A0E00000C0000000C0200000C0400000C0600000C0800000C0
310
A00000C0C00000C0E00000E0000000E0200000E0400000E0600000E0800000E0A00000E0C00000E0E00040000000400020004000400040006000400080004000A0004000C0004000E00040200000402020004020400040206000402080004020A0004020C0004020E000404000004040200040404000404060004040800040
310
40A0004040C0004040E00040600000406020004060400040606000406080004060A0004060C0004060E00040800000408020004080400040806000408080004080A0004080C0004080E00040A0000040A0200040A0400040A0600040A0800040A0A00040A0C00040A0E00040C0000040C0200040C0400040C0600040C08000
310
40C0A00040C0C00040C0E00040E0000040E0200040E0400040E0600040E0800040E0A00040E0C00040E0E00080000000800020008000400080006000800080008000A0008000C0008000E00080200000802020008020400080206000802080008020A0008020C0008020E00080400000804020008040400080406000804080
310
008040A0008040C0008040E00080600000806020008060400080606000806080008060A0008060C0008060E00080800000808020008080400080806000808080008080A0008080C0008080E00080A0000080A0200080A0400080A0600080A0800080A0A00080A0C00080A0E00080C0000080C0200080C0400080C0600080C0
310
800080C0A00080C0C00080C0E00080E0000080E0200080E0400080E0600080E0800080E0A00080E0C00080E0E000C0000000C0002000C0004000C0006000C0008000C000A000C000C000C000E000C0200000C0202000C0204000C0206000C0208000C020A000C020C000C020E000C0400000C0402000C0404000C0406000C0
310
408000C040A000C040C000C040E000C0600000C0602000C0604000C0606000C0608000C060A000C060C000C060E000C0800000C0802000C0804000C0806000C0808000C080A000C080C000C080E000C0A00000C0A02000C0A04000C0A06000C0A08000C0A0A000C0A0C000C0A0E000C0C00000C0C02000C0C04000C0C06000
310
C0C08000C0C0A000F0FBFF00A4A0A000808080000000FF0000FF000000FFFF00FF000000FF00FF00FFFF0000FFFFFF00FFFFFFFFFFFFFFFFFFFFFFFFFFFFFFFFFFFFFFFFFFFFFFFFFFFFFFFFFFFFFFFFFFFFFFFFFFFFFFFFFFFFFFFFFFFFFF0000FFFFFFFFFFFFFFFFFFFFFFFFFFFFFFFFFFFFFFFFFFFFFFFFFFFFFFFF0000
310
FF0000FFFFFFFFFFFFFFFFFFFFFFFFFFFFFFFFFFFFFFFFFFFFFFFFFFFFFF00FFFFFF0000FFFFFFFFFFFFFFFFFFFFFFFFFFFFFFFFFFFFFFFFFFFFFFFFFFFF00FFFFFFFF0000FFFFFFFFFFFFFFFFFFFFFFFFFFFFFFFFFFFFFFFFFFFFFFFF00FF00000000FF00FFFFFFFFFFFFFFFFFFFFFFFFFFFFFFFFFFFFFFFFFFFFFFFF0000
310
00FFFF00FF00FFFFFFFFFFFFFFFFFFFFFFFFFFFFFFFFFFFFFFFFFFFFFFFF0000FFFFFFFF0000FFFFFFFFFFFFFFFFFFFFFFFFFFFFFFFFFFFFFFFFFFFFFFFF0000FFFFFFFF0000FFFFFFFFFFFFFFFFFFFFFFFFFFFFFFFFFFFFFFFFFFFFFF00FF00FFFFFFFF00FF00FFFFFFFFFFFFFFFFFFFFFFFFFFFFFFFFFFFFFFFFFFFF0000
310
FFFFFFFFFF00FF00FFFFFFFFFFFFFFFFFFFFFFFFFFFFFFFFFFFFFFFFFFFF0000FFFFFFFFFFFF0000FFFFFFFFFFFFFFFFFFFFFFFFFFFFFFFFFFFFFFFFFFFF0000FFFFFFFFFFFF0000FFFFFFFFFFFFFFFFFFFFFFFFFFFFFFFFFFFFFFFFFFFF0000FFFFFFFFFFFF0000FFFFFFFFFFFFFFFFFFFFFFFFFFFFFFFFFFFFFFFFFFFF00
310
00FFFFFFFFFFFF0000FFFFFFFFFFFFFFFFFFFFFFFFFFFFFFFFFFFFFFFFFFFF0000FFFFFFFFFFFF0000FFFFFFFFFFFFFFFFFFFFFFFFFFFFFFFFFFFFFFFFFFFF0000FFFFFFFFFFFF0000FFFFFFFFFFFFFFFFFFFFFFFFFFFFFFFFFFFFFFFFFFFF0000FFFFFFFFFFFF0000FFFFFFFFFFFFFFFFFFFFFFFFFFFFFFFFFFFFFFFFFFFF
310
0000FFFFFFFFFFFF0000FFFFFFFFFFFFFFFFFFFFFFFFFFFFFFFFFFFFFFFFFFFF0000FFFFFFFFFFFF0000FFFFFFFFFFFFFFFFFFFFFFFFFFFFFFFFFFFFFFFFFFFF0000FFFFFFFFFFFF0000FFFFFFFFFFFFFFFFFFFFFFFFFFFFFFFFFFFFFFFFFFFF00FF00FFFFFFFF00FF00FFFFFFFFFFFFFFFFFFFFFFFFFFFFFFFFFFFFFFFFFF
310
FF00FF00FFFFFFFF00FF00FFFFFFFFFFFFFFFFFFFFFFFFFFFFFFFFFFFFFFFFFFFF00FF00FFFFFFFF00FF00FFFFFFFFFFFFFFFFFFFFFFFFFFFFFFFFFFFFFFFFFFFFFF0000FFFFFFFF0000FFFFFFFFFFFFFFFFFFFFFFFFFFFFFFFFFFFFFFFFFFFFFFFF00FF00FFFF00FF00FFFFFFFFFFFFFFFFFFFFFFFFFFFFFFFFFFFFFFFFFF
310
FFFFFF00FF00000000FF00FFFFFFFFFFFFFFFFFFFFFFFFFFFFFFFFFFFFFFFFFFFFFFFFFF00FFFFFFFF0000FFFFFFFFFFFFFFFFFFFFFFFFFFFFFFFFFFFFFFFFFFFFFFFFFF00FFFFFFFF00FFFFFFFFFFFFFFFFFFFFFFFFFFFFFFFFFFFFFFFFFFFFFFFFFFFFFF00000000FFFFFFFFFFFFFFFFFFFFFFFFFFFFFFFFFFFFFFFFFFFF
310
FFFFFFFFFFFFFF0000FFFFFFFFFFFFFFFFFFFFFFFFFFFFFFFFFFFFFFFFFFFFFFFFFFFFFFFFFFFFFFFFFFFFFFFFFFFFFFFFFFFFFFFFFFFFFF
102
{BLKREFS
331
6D5
102
}
  0
BLOCK_RECORD
  5
6A8
330
1
100
AcDbSymbolTableRecord
100
AcDbBlockTableRecord
  2
AI9-BLK8
340
0
310
2800000020000000200000000100080000000000000400000000000000000000000000000000000000000000000080000080000000808000800000008000800080800000C0C0C000C0DCC000F0CAA6000020400000206000002080000020A0000020C0000020E00000400000004020000040400000406000004080000040A0
310
000040C0000040E00000600000006020000060400000606000006080000060A0000060C0000060E00000800000008020000080400000806000008080000080A0000080C0000080E00000A0000000A0200000A0400000A0600000A0800000A0A00000A0C00000A0E00000C0000000C0200000C0400000C0600000C0800000C0
310
A00000C0C00000C0E00000E0000000E0200000E0400000E0600000E0800000E0A00000E0C00000E0E00040000000400020004000400040006000400080004000A0004000C0004000E00040200000402020004020400040206000402080004020A0004020C0004020E000404000004040200040404000404060004040800040
310
40A0004040C0004040E00040600000406020004060400040606000406080004060A0004060C0004060E00040800000408020004080400040806000408080004080A0004080C0004080E00040A0000040A0200040A0400040A0600040A0800040A0A00040A0C00040A0E00040C0000040C0200040C0400040C0600040C08000
310
40C0A00040C0C00040C0E00040E0000040E0200040E0400040E0600040E0800040E0A00040E0C00040E0E00080000000800020008000400080006000800080008000A0008000C0008000E00080200000802020008020400080206000802080008020A0008020C0008020E00080400000804020008040400080406000804080
310
008040A0008040C0008040E00080600000806020008060400080606000806080008060A0008060C0008060E00080800000808020008080400080806000808080008080A0008080C0008080E00080A0000080A0200080A0400080A0600080A0800080A0A00080A0C00080A0E00080C0000080C0200080C0400080C0600080C0
310
800080C0A00080C0C00080C0E00080E0000080E0200080E0400080E0600080E0800080E0A00080E0C00080E0E000C0000000C0002000C0004000C0006000C0008000C000A000C000C000C000E000C0200000C0202000C0204000C0206000C0208000C020A000C020C000C020E000C0400000C0402000C0404000C0406000C0
310
408000C040A000C040C000C040E000C0600000C0602000C0604000C0606000C0608000C060A000C060C000C060E000C0800000C0802000C0804000C0806000C0808000C080A000C080C000C080E000C0A00000C0A02000C0A04000C0A06000C0A08000C0A0A000C0A0C000C0A0E000C0C00000C0C02000C0C04000C0C06000
310
C0C08000C0C0A000F0FBFF00A4A0A000808080000000FF0000FF000000FFFF00FF000000FF00FF00FFFF0000FFFFFF00FFFFFFFFFFFFFFFFFFFFFFFFFFFFFFFFFFFFFFFFFFFFFFFFFFFFFFFFFFFFFFFFFFFFFFFFFFFFFFFFFFFFFF0000FFFFFFFFFFFF0000FFFFFFFFFFFFFFFFFFFFFFFFFFFFFFFFFFFFFFFFFFFF0000FFFF
310
FFFFFFFF0000FFFFFFFFFFFFFFFFFFFFFFFFFFFFFFFFFFFFFFFFFFFF0000FFFFFFFFFF00FF00FFFFFFFFFFFFFFFFFFFFFFFFFFFFFFFFFFFFFFFFFFFF0000FFFFFFFFFF00FF00FFFFFFFFFFFFFFFFFFFFFFFFFFFFFFFFFFFFFFFFFFFF0000FFFFFFFFFF00FF00FFFFFFFFFFFFFFFFFFFFFFFFFFFFFFFFFFFFFFFFFFFF0000FF
310
FFFFFF00FFFF00FFFFFFFFFFFFFFFFFFFFFFFFFFFFFFFFFFFFFFFFFFFF0000FFFFFFFF00FF0000FFFFFFFFFFFFFFFFFFFFFFFFFFFFFFFFFFFFFFFFFFFF0000FFFFFFFF00FF0000FFFFFFFFFFFFFFFFFFFFFFFFFFFFFFFFFFFFFFFFFFFF0000FFFFFFFF00000000FFFFFFFFFFFFFFFFFFFFFFFFFFFFFFFFFFFFFFFFFFFF0000
310
FFFFFF00FF000000FFFFFFFFFFFFFFFFFFFFFFFFFFFFFFFFFFFFFFFFFFFF0000FFFFFF00FF000000FFFFFFFFFFFFFFFFFFFFFFFFFFFFFFFFFFFFFFFFFFFF0000FFFFFF00FF000000FFFFFFFFFFFFFFFFFFFFFFFFFFFFFFFFFFFFFFFFFFFF0000FFFF00FF00FF0000FFFFFFFFFFFFFFFFFFFFFFFFFFFFFFFFFFFFFFFFFFFF00
310
00FFFF00FF00FF0000FFFFFFFFFFFFFFFFFFFFFFFFFFFFFFFFFFFFFFFFFFFF0000FFFF00FF00FF0000FFFFFFFFFFFFFFFFFFFFFFFFFFFFFFFFFFFFFFFFFFFF0000FF00FFFF00FF0000FFFFFFFFFFFFFFFFFFFFFFFFFFFFFFFFFFFFFFFFFFFF0000FF00FF00FFFF0000FFFFFFFFFFFFFFFFFFFFFFFFFFFFFFFFFFFFFFFFFFFF
310
0000FF00FF00FFFF0000FFFFFFFFFFFFFFFFFFFFFFFFFFFFFFFFFFFFFFFFFFFF0000FF00FF00FFFF0000FFFFFFFFFFFFFFFFFFFFFFFFFFFFFFFFFFFFFFFFFFFF000000FFFF00FFFF0000FFFFFFFFFFFFFFFFFFFFFFFFFFFFFFFFFFFFFFFFFFFF000000FF00FFFFFF0000FFFFFFFFFFFFFFFFFFFFFFFFFFFFFFFFFFFFFFFFFF
310
FF000000FF00FFFFFF0000FFFFFFFFFFFFFFFFFFFFFFFFFFFFFFFFFFFFFFFFFFFF0000FFFF00FFFFFF0000FFFFFFFFFFFFFFFFFFFFFFFFFFFFFFFFFFFFFFFFFFFF0000FFFF00FFFFFF0000FFFFFFFFFFFFFFFFFFFFFFFFFFFFFFFFFFFFFFFFFFFF00FFFF00FFFFFFFF0000FFFFFFFFFFFFFFFFFFFFFFFFFFFFFFFFFFFFFFFF
310
FFFF00FFFF00FFFFFFFF0000FFFFFFFFFFFFFFFFFFFFFFFFFFFFFFFFFFFFFFFFFFFF00FFFF00FFFFFFFF0000FFFFFFFFFFFFFFFFFFFFFFFFFFFFFFFFFFFFFFFFFFFF00FFFF00FFFFFFFF0000FFFFFFFFFFFFFFFFFFFFFFFFFFFFFFFFFFFFFFFFFFFF00FF00FFFFFFFFFF0000FFFFFFFFFFFFFFFFFFFFFFFFFFFFFFFFFFFFFF
310
FFFFFF000000FFFFFFFFFF0000FFFFFFFFFFFFFFFFFFFFFFFFFFFFFFFFFFFFFFFFFFFFFFFFFFFFFFFFFFFFFFFFFFFFFFFFFFFFFFFFFFFFFF
102
{BLKREFS
331
6D6
102
}
  0
BLOCK_RECORD
  5
6AD
330
1
100
AcDbSymbolTableRecord
100
AcDbBlockTableRecord
  2
AI9-BLK7
340
0
310
2800000020000000200000000100080000000000000400000000000000000000000000000000000000000000000080000080000000808000800000008000800080800000C0C0C000C0DCC000F0CAA6000020400000206000002080000020A0000020C0000020E00000400000004020000040400000406000004080000040A0
310
000040C0000040E00000600000006020000060400000606000006080000060A0000060C0000060E00000800000008020000080400000806000008080000080A0000080C0000080E00000A0000000A0200000A0400000A0600000A0800000A0A00000A0C00000A0E00000C0000000C0200000C0400000C0600000C0800000C0
310
A00000C0C00000C0E00000E0000000E0200000E0400000E0600000E0800000E0A00000E0C00000E0E00040000000400020004000400040006000400080004000A0004000C0004000E00040200000402020004020400040206000402080004020A0004020C0004020E000404000004040200040404000404060004040800040
310
40A0004040C0004040E00040600000406020004060400040606000406080004060A0004060C0004060E00040800000408020004080400040806000408080004080A0004080C0004080E00040A0000040A0200040A0400040A0600040A0800040A0A00040A0C00040A0E00040C0000040C0200040C0400040C0600040C08000
310
40C0A00040C0C00040C0E00040E0000040E0200040E0400040E0600040E0800040E0A00040E0C00040E0E00080000000800020008000400080006000800080008000A0008000C0008000E00080200000802020008020400080206000802080008020A0008020C0008020E00080400000804020008040400080406000804080
310
008040A0008040C0008040E00080600000806020008060400080606000806080008060A0008060C0008060E00080800000808020008080400080806000808080008080A0008080C0008080E00080A0000080A0200080A0400080A0600080A0800080A0A00080A0C00080A0E00080C0000080C0200080C0400080C0600080C0
310
800080C0A00080C0C00080C0E00080E0000080E0200080E0400080E0600080E0800080E0A00080E0C00080E0E000C0000000C0002000C0004000C0006000C0008000C000A000C000C000C000E000C0200000C0202000C0204000C0206000C0208000C020A000C020C000C020E000C0400000C0402000C0404000C0406000C0
310
408000C040A000C040C000C040E000C0600000C0602000C0604000C0606000C0608000C060A000C060C000C060E000C0800000C0802000C0804000C0806000C0808000C080A000C080C000C080E000C0A00000C0A02000C0A04000C0A06000C0A08000C0A0A000C0A0C000C0A0E000C0C00000C0C02000C0C04000C0C06000
310
C0C08000C0C0A000F0FBFF00A4A0A000808080000000FF0000FF000000FFFF00FF000000FF00FF00FFFF0000FFFFFF00FFFFFFFFFFFFFFFFFFFFFFFFFFFFFFFFFFFFFFFFFFFFFFFFFFFFFFFFFFFFFFFFFFFFFFFFFFFFFFFFFFFFFFFFFFFFFF0000FFFFFFFFFFFFFFFFFFFFFFFFFFFFFFFFFFFFFFFFFFFFFFFFFFFFFFFFFFFF
310
0000FFFFFFFFFFFFFFFFFFFFFFFFFFFFFFFFFFFFFFFFFFFFFFFFFFFFFFFFFFFF0000FFFFFFFFFFFFFFFFFFFFFFFFFFFFFFFFFFFFFFFFFFFFFFFFFFFFFFFFFFFF0000FFFFFFFFFFFFFFFFFFFFFFFFFFFFFFFFFFFFFFFFFFFFFFFFFFFFFFFFFFFF0000FFFFFFFFFFFFFFFFFFFFFFFFFFFFFFFFFFFFFFFFFFFFFFFFFFFFFFFFFF
310
FF0000FFFFFFFFFFFFFFFFFFFFFFFFFFFFFFFFFFFFFFFFFFFFFFFFFFFFFFFFFFFF0000FFFFFFFFFFFFFFFFFFFFFFFFFFFFFFFFFFFFFFFFFFFFFFFFFFFFFFFFFFFF0000FFFFFFFFFFFFFFFFFFFFFFFFFFFFFFFFFFFFFFFFFFFFFFFFFFFFFFFFFFFF0000FFFFFFFFFFFFFFFFFFFFFFFFFFFFFFFFFFFFFFFFFFFFFFFFFFFFFFFF
310
FFFF0000FFFFFFFFFFFFFFFFFFFFFFFFFFFFFFFFFFFFFFFFFFFFFFFFFFFFFFFFFFFF0000FFFFFFFFFFFFFFFFFFFFFFFFFFFFFFFFFFFFFFFFFFFFFFFFFFFFFFFFFFFF0000FFFFFFFFFFFFFFFFFFFFFFFFFFFFFFFFFFFFFFFFFFFFFFFFFFFFFFFFFFFF0000FFFFFFFFFFFFFFFFFFFFFFFFFFFFFFFFFFFFFFFFFFFFFFFFFFFFFF
310
FFFFFF0000FFFFFFFFFFFFFFFFFFFFFFFFFFFFFFFFFFFFFFFFFFFFFFFFFFFFFFFFFFFF0000FFFFFFFFFFFFFFFFFFFFFFFFFFFFFFFFFFFFFFFFFFFFFFFFFFFFFFFFFFFF0000FFFFFFFFFFFFFFFFFFFFFFFFFFFFFFFFFFFFFFFFFFFFFFFFFFFFFFFFFFFF0000FFFFFFFFFFFFFFFFFFFFFFFFFFFFFFFFFFFFFFFFFFFFFFFFFFFF
310
FFFFFFFF0000FFFFFFFFFFFFFFFFFFFFFFFFFFFFFFFFFFFFFFFFFFFFFFFFFFFFFFFFFFFF0000FFFFFFFFFFFFFFFFFFFFFFFFFFFFFFFFFFFFFFFFFFFFFFFFFFFFFFFFFFFF0000FFFFFFFFFFFFFFFFFFFFFFFFFFFFFFFFFFFFFFFFFFFFFFFFFFFFFFFFFFFF0000FFFFFFFFFFFFFFFFFFFFFFFFFFFFFFFFFFFFFFFFFFFFFFFFFF
310
FFFFFFFFFF0000FFFFFFFFFFFFFFFFFFFFFFFFFFFFFFFFFFFFFFFFFFFFFFFFFFFFFFFFFFFF0000FFFFFFFFFFFFFFFFFFFFFFFFFFFFFFFFFFFFFFFFFFFFFFFFFFFFFFFFFFFF0000FFFFFFFFFFFFFFFFFFFFFFFFFFFFFFFFFFFFFFFFFFFFFFFFFFFFFFFFFFFF0000FFFFFFFFFFFFFFFFFFFFFFFFFFFFFFFFFFFFFFFFFFFFFFFF
310
FFFFFFFFFFFF0000FFFFFFFFFFFFFFFFFFFFFFFFFFFFFFFFFFFFFFFFFFFFFFFFFFFFFFFFFFFF0000FFFFFFFFFFFFFFFFFFFFFFFFFFFFFFFFFFFFFFFFFFFFFFFFFFFFFFFFFFFF0000FFFFFFFFFFFFFFFFFFFFFFFFFFFFFFFFFFFFFFFFFFFFFFFFFFFFFFFFFFFF0000FFFFFFFFFFFFFFFFFFFFFFFFFFFFFFFFFFFFFFFFFFFFFF
310
FFFFFFFFFFFFFF0000FFFFFFFFFFFFFFFFFFFFFFFFFFFFFFFFFFFFFFFFFFFFFFFFFFFFFFFFFFFFFFFFFFFFFFFFFFFFFFFFFFFFFFFFFFFFFF
102
{BLKREFS
331
6D7
102
}
  0
BLOCK_RECORD
  5
6B2
330
1
100
AcDbSymbolTableRecord
100
AcDbBlockTableRecord
  2
AI9-BLK6
340
0
310
2800000020000000200000000100080000000000000400000000000000000000000000000000000000000000000080000080000000808000800000008000800080800000C0C0C000C0DCC000F0CAA6000020400000206000002080000020A0000020C0000020E00000400000004020000040400000406000004080000040A0
310
000040C0000040E00000600000006020000060400000606000006080000060A0000060C0000060E00000800000008020000080400000806000008080000080A0000080C0000080E00000A0000000A0200000A0400000A0600000A0800000A0A00000A0C00000A0E00000C0000000C0200000C0400000C0600000C0800000C0
310
A00000C0C00000C0E00000E0000000E0200000E0400000E0600000E0800000E0A00000E0C00000E0E00040000000400020004000400040006000400080004000A0004000C0004000E00040200000402020004020400040206000402080004020A0004020C0004020E000404000004040200040404000404060004040800040
310
40A0004040C0004040E00040600000406020004060400040606000406080004060A0004060C0004060E00040800000408020004080400040806000408080004080A0004080C0004080E00040A0000040A0200040A0400040A0600040A0800040A0A00040A0C00040A0E00040C0000040C0200040C0400040C0600040C08000
310
40C0A00040C0C00040C0E00040E0000040E0200040E0400040E0600040E0800040E0A00040E0C00040E0E00080000000800020008000400080006000800080008000A0008000C0008000E00080200000802020008020400080206000802080008020A0008020C0008020E00080400000804020008040400080406000804080
310
008040A0008040C0008040E00080600000806020008060400080606000806080008060A0008060C0008060E00080800000808020008080400080806000808080008080A0008080C0008080E00080A0000080A0200080A0400080A0600080A0800080A0A00080A0C00080A0E00080C0000080C0200080C0400080C0600080C0
310
800080C0A00080C0C00080C0E00080E0000080E0200080E0400080E0600080E0800080E0A00080E0C00080E0E000C0000000C0002000C0004000C0006000C0008000C000A000C000C000C000E000C0200000C0202000C0204000C0206000C0208000C020A000C020C000C020E000C0400000C0402000C0404000C0406000C0
310
408000C040A000C040C000C040E000C0600000C0602000C0604000C0606000C0608000C060A000C060C000C060E000C0800000C0802000C0804000C0806000C0808000C080A000C080C000C080E000C0A00000C0A02000C0A04000C0A06000C0A08000C0A0A000C0A0C000C0A0E000C0C00000C0C02000C0C04000C0C06000
310
C0C08000C0C0A000F0FBFF00A4A0A000808080000000FF0000FF000000FFFF00FF000000FF00FF00FFFF0000FFFFFF00FFFFFFFFFFFFFFFFFFFFFFFF00FFFFFFFFFFFFFF00FFFFFFFFFFFFFFFFFFFFFFFFFFFFFFFFFFFFFFFFFFFFFF00FFFFFFFFFFFFFF00FFFFFFFFFFFFFFFFFFFFFFFFFFFFFFFFFFFFFFFFFFFFFF00FFFF
310
FFFFFFFFFF00FFFFFFFFFFFFFFFFFFFFFFFFFFFFFFFFFFFFFFFFFFFF00FFFFFFFFFFFFFFFF00FFFFFFFFFFFFFFFFFFFFFFFFFFFFFFFFFFFFFFFFFFFF00FFFFFFFFFFFFFF00FFFFFFFFFFFFFFFFFFFFFFFFFFFFFFFFFFFFFFFFFFFFFF00FFFFFFFFFFFFFF00FFFFFFFFFFFFFFFFFFFFFFFFFFFFFFFFFFFFFFFFFFFF00FFFFFF
310
FFFFFFFFFF00FFFFFFFFFFFFFFFFFFFFFFFFFFFFFFFFFFFFFFFFFFFF00FFFFFFFFFFFFFF00FFFFFFFFFFFFFFFFFFFFFFFFFFFFFFFFFFFFFFFFFFFF00FFFFFFFFFFFFFFFF00FFFFFFFFFFFFFFFFFFFFFFFFFFFFFFFFFFFFFFFFFF00FFFFFFFFFFFFFFFFFF00FFFFFFFFFFFFFFFFFFFFFFFFFFFFFFFFFFFFFFFF00FFFFFFFFFF
310
FFFFFFFFFF00FFFFFFFFFFFFFFFFFFFFFFFFFFFFFFFFFFFFFF00FFFFFFFFFFFFFFFFFFFF00FFFFFFFFFFFFFFFFFFFFFFFFFFFFFFFFFFFF0000FFFFFFFFFFFFFFFFFFFFFF00FFFFFFFFFFFFFFFFFFFFFFFFFFFF00000000FFFFFFFFFFFFFFFFFFFFFFFFFF00FFFFFFFFFFFFFFFFFFFFFFFFFFFFFFFFFFFFFFFFFFFFFFFFFFFF
310
FFFFFFFF00FFFFFFFFFFFFFFFFFFFFFFFFFFFFFFFFFFFFFFFFFFFFFFFFFFFFFFFFFFFFFF00FFFFFFFFFFFFFFFFFFFFFFFFFFFFFFFFFFFFFFFFFFFFFFFFFFFFFFFFFFFFFF00FFFFFFFFFFFFFFFFFFFFFFFFFFFFFFFFFFFFFFFFFFFFFFFFFFFFFFFFFFFF00FFFFFFFFFFFFFFFFFFFFFFFFFFFFFFFFFFFFFFFFFFFFFFFFFFFFFF
310
FFFFFFFF00FFFFFFFFFFFFFFFFFFFFFFFFFFFFFFFFFFFFFFFFFFFFFFFFFFFFFFFFFFFF00FFFFFFFFFFFFFFFFFFFFFFFFFFFFFFFFFFFFFFFFFFFFFFFFFFFFFFFFFFFF00FFFFFFFFFFFFFFFFFFFFFFFFFFFFFFFFFFFFFFFFFFFFFFFFFFFFFFFFFFFF00FFFFFFFFFFFFFFFFFFFFFFFFFFFFFFFFFFFFFFFFFFFFFFFFFFFFFFFFFF
310
FF00FFFFFFFFFFFFFFFFFFFFFFFFFFFFFFFFFFFFFFFFFFFFFFFFFFFFFFFFFFFFFF00FFFFFFFFFFFFFFFFFFFFFFFFFFFFFFFFFFFFFFFFFFFFFFFFFFFFFFFFFFFF00FFFFFFFFFFFFFFFFFFFFFFFFFFFFFFFFFFFFFFFFFFFFFFFFFFFFFFFFFF0000FFFFFFFFFFFFFFFFFFFFFFFFFFFFFFFFFFFFFFFFFFFFFFFFFFFFFFFF0000FF
310
FFFFFFFFFFFFFFFFFFFFFFFFFFFFFFFFFFFFFFFFFFFFFFFFFF00000000FFFFFFFFFFFFFFFFFFFFFFFFFFFFFFFFFFFFFFFFFFFFFFFFFFFF0000FFFFFFFFFFFFFFFFFFFFFFFFFFFFFFFFFFFFFFFFFFFFFFFFFFFFFFFFFFFFFFFFFFFFFFFFFFFFFFFFFFFFFFFFFFFFFFFFFFFFFFFFFFFFFFFFFFFFFFFFFFFFFFFFFFFFFFFFFFFF
310
FFFFFFFFFFFFFFFFFFFFFFFFFFFFFFFFFFFFFFFFFFFFFFFFFFFFFFFFFFFFFFFFFFFFFFFFFFFFFFFFFFFFFFFFFFFFFFFFFFFFFFFFFFFFFFFF
102
{BLKREFS
331
6D8
102
}
  0
BLOCK_RECORD
  5
6B6
330
1
100
AcDbSymbolTableRecord
100
AcDbBlockTableRecord
  2
AI9-BLK5
340
0
310
2800000020000000200000000100080000000000000400000000000000000000000000000000000000000000000080000080000000808000800000008000800080800000C0C0C000C0DCC000F0CAA6000020400000206000002080000020A0000020C0000020E00000400000004020000040400000406000004080000040A0
310
000040C0000040E00000600000006020000060400000606000006080000060A0000060C0000060E00000800000008020000080400000806000008080000080A0000080C0000080E00000A0000000A0200000A0400000A0600000A0800000A0A00000A0C00000A0E00000C0000000C0200000C0400000C0600000C0800000C0
310
A00000C0C00000C0E00000E0000000E0200000E0400000E0600000E0800000E0A00000E0C00000E0E00040000000400020004000400040006000400080004000A0004000C0004000E00040200000402020004020400040206000402080004020A0004020C0004020E000404000004040200040404000404060004040800040
310
40A0004040C0004040E00040600000406020004060400040606000406080004060A0004060C0004060E00040800000408020004080400040806000408080004080A0004080C0004080E00040A0000040A0200040A0400040A0600040A0800040A0A00040A0C00040A0E00040C0000040C0200040C0400040C0600040C08000
310
40C0A00040C0C00040C0E00040E0000040E0200040E0400040E0600040E0800040E0A00040E0C00040E0E00080000000800020008000400080006000800080008000A0008000C0008000E00080200000802020008020400080206000802080008020A0008020C0008020E00080400000804020008040400080406000804080
310
008040A0008040C0008040E00080600000806020008060400080606000806080008060A0008060C0008060E00080800000808020008080400080806000808080008080A0008080C0008080E00080A0000080A0200080A0400080A0600080A0800080A0A00080A0C00080A0E00080C0000080C0200080C0400080C0600080C0
310
800080C0A00080C0C00080C0E00080E0000080E0200080E0400080E0600080E0800080E0A00080E0C00080E0E000C0000000C0002000C0004000C0006000C0008000C000A000C000C000C000E000C0200000C0202000C0204000C0206000C0208000C020A000C020C000C020E000C0400000C0402000C0404000C0406000C0
310
408000C040A000C040C000C040E000C0600000C0602000C0604000C0606000C0608000C060A000C060C000C060E000C0800000C0802000C0804000C0806000C0808000C080A000C080C000C080E000C0A00000C0A02000C0A04000C0A06000C0A08000C0A0A000C0A0C000C0A0E000C0C00000C0C02000C0C04000C0C06000
310
C0C08000C0C0A000F0FBFF00A4A0A000808080000000FF0000FF000000FFFF00FF000000FF00FF00FFFF0000FFFFFF00FFFFFFFFFFFFFFFFFFFFFFFFFFFFFFFFFFFFFFFFFFFFFFFFFFFFFFFFFFFFFFFFFFFFFFFFFFFFFFFF000000000000000000000000000000000000000000000000FFFFFFFFFFFFFFFF00FFFFFFFFFFFF
310
FFFFFFFFFFFFFFFFFFFFFFFFFFFFFFFFFFFFFFFFFFFFFFFFFF00FFFFFFFFFFFFFFFFFFFFFFFFFFFFFFFFFFFFFFFFFFFFFFFFFFFFFFFFFFFFFF00FFFFFFFFFFFFFFFFFFFFFFFFFFFFFFFFFFFFFFFFFFFFFFFFFFFFFFFFFFFFFF00FFFFFFFFFFFFFFFFFFFFFFFFFFFFFFFFFFFFFFFFFFFFFFFFFFFFFFFFFFFFFF00FFFFFFFFFF
310
FFFFFFFFFFFFFFFFFFFFFFFFFFFFFFFFFFFFFFFFFFFFFFFFFFFF00FFFFFFFFFFFFFFFFFFFFFFFFFFFFFFFFFFFFFFFFFFFFFFFFFFFFFFFFFFFFFF00FFFFFFFFFFFFFFFFFFFFFFFFFFFFFFFFFFFFFFFFFFFFFFFFFFFFFFFFFFFFFF00FFFFFFFFFFFFFFFFFFFFFFFFFFFFFFFFFFFFFFFFFFFFFFFFFFFFFFFFFFFFFF00FFFFFFFF
310
FFFFFFFFFFFFFFFFFFFFFFFFFFFFFFFFFFFFFFFFFFFFFFFFFFFFFF00FFFFFFFFFFFFFFFFFFFFFFFFFFFFFFFFFFFFFFFFFFFFFFFFFFFFFFFFFFFFFF00FFFFFFFFFFFFFFFFFFFFFFFFFFFFFFFFFFFFFFFFFFFFFFFFFFFFFFFFFFFFFF00FFFFFFFFFFFFFFFFFFFFFFFFFFFFFFFFFFFFFFFFFFFFFFFFFFFFFFFFFFFFFF00FFFFFF
310
FFFFFFFFFFFFFFFFFFFFFFFFFFFFFFFFFFFFFFFFFFFFFFFFFFFFFFFF00FFFFFFFFFFFFFFFFFFFFFFFFFFFFFFFFFFFFFFFFFFFFFFFFFFFFFFFFFFFFFF00FFFFFFFFFFFFFFFFFFFFFFFFFFFFFFFFFFFFFFFFFFFFFFFFFFFFFFFFFFFFFF00FFFFFFFFFFFFFFFFFFFFFFFFFFFFFFFFFFFFFFFFFFFFFFFFFFFFFFFFFFFFFF00FFFF
310
FFFFFFFFFFFFFFFFFFFFFFFFFFFFFFFFFFFFFFFFFFFFFFFFFFFFFFFFFF00FFFFFFFFFFFFFFFFFFFFFFFFFFFFFFFFFFFFFFFFFFFFFFFFFFFFFFFFFFFFFF00FFFFFFFFFFFFFFFFFFFFFFFFFFFFFFFFFFFFFFFFFFFFFFFFFFFFFFFFFFFFFF00FFFFFFFFFFFFFFFFFFFFFFFFFFFFFFFFFFFFFFFFFFFFFFFFFFFFFFFFFFFFFF00FF
310
FFFFFFFFFFFFFFFFFFFFFFFFFFFFFFFFFFFFFFFFFFFFFFFFFFFFFFFFFFFF00FFFFFFFFFFFFFFFFFFFFFFFFFFFFFFFFFFFFFFFFFFFFFFFFFFFFFFFFFFFFFF00FFFFFFFFFFFFFFFFFFFFFFFFFFFFFFFFFFFFFFFFFFFFFFFFFFFFFFFFFFFFFF00FFFFFFFFFFFFFFFFFFFFFFFFFFFFFFFFFFFFFFFFFFFFFFFFFFFFFFFFFFFFFF00
310
FFFFFFFFFFFFFFFFFFFFFFFFFFFFFFFFFFFFFFFFFFFFFFFFFFFFFFFFFFFFFF00FFFFFFFFFFFFFFFFFFFFFFFFFFFFFFFFFFFFFFFFFFFFFFFFFFFFFFFFFFFFFF00FFFFFFFFFFFFFFFFFFFFFFFFFFFFFFFFFFFFFFFFFFFFFFFFFFFFFFFFFFFFFF00FFFFFFFFFFFFFFFFFFFFFFFFFFFFFFFFFFFFFFFFFFFFFFFFFFFFFFFFFFFFFF
310
00FFFFFFFFFFFFFFFFFFFFFFFFFFFF000000000000000000FFFFFFFFFFFFFFFF00FFFFFFFFFFFFFFFFFFFFFFFFFFFF00FFFFFFFFFFFFFFFF
102
{BLKREFS
331
6D9
102
}
  0
BLOCK_RECORD
  5
6BB
330
1
100
AcDbSymbolTableRecord
100
AcDbBlockTableRecord
  2
AI9-BLK4
340
0
310
2800000020000000200000000100080000000000000400000000000000000000000000000000000000000000000080000080000000808000800000008000800080800000C0C0C000C0DCC000F0CAA6000020400000206000002080000020A0000020C0000020E00000400000004020000040400000406000004080000040A0
310
000040C0000040E00000600000006020000060400000606000006080000060A0000060C0000060E00000800000008020000080400000806000008080000080A0000080C0000080E00000A0000000A0200000A0400000A0600000A0800000A0A00000A0C00000A0E00000C0000000C0200000C0400000C0600000C0800000C0
310
A00000C0C00000C0E00000E0000000E0200000E0400000E0600000E0800000E0A00000E0C00000E0E00040000000400020004000400040006000400080004000A0004000C0004000E00040200000402020004020400040206000402080004020A0004020C0004020E000404000004040200040404000404060004040800040
310
40A0004040C0004040E00040600000406020004060400040606000406080004060A0004060C0004060E00040800000408020004080400040806000408080004080A0004080C0004080E00040A0000040A0200040A0400040A0600040A0800040A0A00040A0C00040A0E00040C0000040C0200040C0400040C0600040C08000
310
40C0A00040C0C00040C0E00040E0000040E0200040E0400040E0600040E0800040E0A00040E0C00040E0E00080000000800020008000400080006000800080008000A0008000C0008000E00080200000802020008020400080206000802080008020A0008020C0008020E00080400000804020008040400080406000804080
310
008040A0008040C0008040E00080600000806020008060400080606000806080008060A0008060C0008060E00080800000808020008080400080806000808080008080A0008080C0008080E00080A0000080A0200080A0400080A0600080A0800080A0A00080A0C00080A0E00080C0000080C0200080C0400080C0600080C0
310
800080C0A00080C0C00080C0E00080E0000080E0200080E0400080E0600080E0800080E0A00080E0C00080E0E000C0000000C0002000C0004000C0006000C0008000C000A000C000C000C000E000C0200000C0202000C0204000C0206000C0208000C020A000C020C000C020E000C0400000C0402000C0404000C0406000C0
310
408000C040A000C040C000C040E000C0600000C0602000C0604000C0606000C0608000C060A000C060C000C060E000C0800000C0802000C0804000C0806000C0808000C080A000C080C000C080E000C0A00000C0A02000C0A04000C0A06000C0A08000C0A0A000C0A0C000C0A0E000C0C00000C0C02000C0C04000C0C06000
310
C0C08000C0C0A000F0FBFF00A4A0A000808080000000FF0000FF000000FFFF00FF000000FF00FF00FFFF0000FFFFFF00FFFFFFFFFFFFFFFFFFFFFFFFFFFFFFFFFFFFFFFFFFFFFFFFFFFFFFFFFFFFFFFFFFFFFFFFFFFFFFFFFFFFFFFFFFFF00000000FFFFFFFFFFFFFFFFFFFFFF000000FFFFFFFFFFFFFFFFFFFFFFFFFFFF00
310
FFFF00FFFFFFFFFFFFFFFFFFFFFF00FFFFFFFFFFFFFFFFFFFFFFFFFFFFFFFF00FFFF00FFFFFFFFFFFFFFFFFFFFFF00FFFFFFFFFFFFFFFFFFFFFFFFFFFFFFFF00FFFF00FFFFFFFFFFFFFFFFFFFFFF00FFFFFFFFFFFFFFFFFFFFFFFFFFFFFFFF00FFFF00FFFFFFFFFFFFFFFFFFFFFF00FFFFFFFFFFFFFFFFFFFFFFFFFFFFFFFF
310
00FFFF00FFFFFFFFFFFFFFFFFFFFFF00FFFFFFFFFFFFFFFFFFFFFFFFFFFFFFFF00FFFF00FFFFFFFFFFFFFFFFFFFFFF00FFFFFFFFFFFFFFFFFFFFFFFFFFFFFFFF00FFFF00FFFFFFFFFFFFFFFFFFFFFF00FFFFFFFFFFFFFFFFFFFFFFFFFFFFFFFF00FFFF00FFFFFFFFFFFFFFFFFFFFFF00FFFFFFFFFFFFFFFFFFFFFFFFFFFFFF
310
FF00FFFF00FFFFFFFFFFFFFFFFFFFFFF00FFFFFFFFFFFFFFFFFFFFFFFFFFFFFFFF00FFFF00FFFFFFFFFFFFFFFFFFFFFF00FFFFFFFFFFFFFFFFFFFFFFFFFFFFFFFF00FFFF00FFFFFFFFFFFFFFFFFFFFFF00FFFFFFFFFFFFFFFFFFFFFFFFFFFFFFFF00FFFF00FFFFFFFFFFFFFFFFFFFFFF00FFFFFFFFFFFFFFFFFFFFFFFFFFFF
310
FFFF00FFFF00FFFFFFFFFFFFFFFFFFFFFF00FFFFFFFFFFFFFFFFFFFFFFFFFFFFFFFF00FFFF00FFFFFFFFFFFFFFFFFFFFFF00FFFFFFFFFFFFFFFFFFFFFFFFFFFFFFFF00FFFF00FFFFFFFFFFFFFFFFFFFFFF00FFFFFFFFFFFFFFFFFFFFFFFFFFFFFFFF00FFFF00FFFFFFFFFFFFFFFFFFFF00FFFFFFFFFFFFFFFFFFFFFFFFFFFF
310
FFFFFF00FFFF00FFFFFFFFFFFFFFFFFFFF00FFFFFFFFFFFFFFFFFFFFFFFFFFFFFFFFFF00FFFF00FFFFFFFFFFFFFFFFFFFF00FFFFFFFFFFFFFFFFFFFFFFFFFFFFFFFFFF00FFFF00FFFFFFFFFFFFFFFFFFFF00FFFFFFFFFFFFFFFFFFFFFFFFFFFFFFFFFF00FFFF00FFFFFFFFFFFFFFFFFFFF00FFFFFFFFFFFFFFFFFFFFFFFFFF
310
FFFFFFFF00FFFF00FFFFFFFFFFFFFFFFFF0000FFFF00FFFFFFFFFFFFFFFFFFFFFFFFFFFF00FFFF00FFFFFFFFFFFFFFFF0000FFFFFF00FFFFFFFFFFFFFFFFFFFFFFFFFFFF00FFFF00000000000000000000FFFFFFFF00FFFFFFFFFFFFFFFFFFFFFFFFFFFF00FFFFFFFFFFFFFFFFFFFFFFFFFFFFFF00FFFFFFFFFFFFFFFFFFFF
310
FFFFFFFFFF00FFFFFFFFFFFFFFFFFFFFFFFFFFFF00FFFFFFFFFFFFFFFFFFFFFFFFFFFFFFFF00FFFFFFFFFFFFFFFFFFFFFFFFFFFF00FFFFFFFFFFFFFFFFFFFFFFFFFFFFFFFF00FFFFFFFFFFFFFFFFFFFFFFFFFFFFFF00FFFFFFFFFFFFFFFFFFFFFFFFFFFFFF00FFFFFFFFFFFFFFFFFFFFFFFFFFFFFF00FFFFFFFFFFFFFFFFFF
310
FFFFFFFFFFFF00FFFF00000000000000000000FFFFFFFF00FFFFFFFFFFFFFFFFFFFFFFFFFFFF00FFFF00FFFFFFFFFFFFFFFFFF0000FFFF00
102
{BLKREFS
331
6DA
102
}
  0
BLOCK_RECORD
  5
6C0
330
1
100
AcDbSymbolTableRecord
100
AcDbBlockTableRecord
  2
AI9-BLK3
340
0
310
2800000020000000200000000100080000000000000400000000000000000000000000000000000000000000000080000080000000808000800000008000800080800000C0C0C000C0DCC000F0CAA6000020400000206000002080000020A0000020C0000020E00000400000004020000040400000406000004080000040A0
310
000040C0000040E00000600000006020000060400000606000006080000060A0000060C0000060E00000800000008020000080400000806000008080000080A0000080C0000080E00000A0000000A0200000A0400000A0600000A0800000A0A00000A0C00000A0E00000C0000000C0200000C0400000C0600000C0800000C0
310
A00000C0C00000C0E00000E0000000E0200000E0400000E0600000E0800000E0A00000E0C00000E0E00040000000400020004000400040006000400080004000A0004000C0004000E00040200000402020004020400040206000402080004020A0004020C0004020E000404000004040200040404000404060004040800040
310
40A0004040C0004040E00040600000406020004060400040606000406080004060A0004060C0004060E00040800000408020004080400040806000408080004080A0004080C0004080E00040A0000040A0200040A0400040A0600040A0800040A0A00040A0C00040A0E00040C0000040C0200040C0400040C0600040C08000
310
40C0A00040C0C00040C0E00040E0000040E0200040E0400040E0600040E0800040E0A00040E0C00040E0E00080000000800020008000400080006000800080008000A0008000C0008000E00080200000802020008020400080206000802080008020A0008020C0008020E00080400000804020008040400080406000804080
310
008040A0008040C0008040E00080600000806020008060400080606000806080008060A0008060C0008060E00080800000808020008080400080806000808080008080A0008080C0008080E00080A0000080A0200080A0400080A0600080A0800080A0A00080A0C00080A0E00080C0000080C0200080C0400080C0600080C0
310
800080C0A00080C0C00080C0E00080E0000080E0200080E0400080E0600080E0800080E0A00080E0C00080E0E000C0000000C0002000C0004000C0006000C0008000C000A000C000C000C000E000C0200000C0202000C0204000C0206000C0208000C020A000C020C000C020E000C0400000C0402000C0404000C0406000C0
310
408000C040A000C040C000C040E000C0600000C0602000C0604000C0606000C0608000C060A000C060C000C060E000C0800000C0802000C0804000C0806000C0808000C080A000C080C000C080E000C0A00000C0A02000C0A04000C0A06000C0A08000C0A0A000C0A0C000C0A0E000C0C00000C0C02000C0C04000C0C06000
310
C0C08000C0C0A000F0FBFF00A4A0A000808080000000FF0000FF000000FFFF00FF000000FF00FF00FFFF0000FFFFFF00FFFFFFFFFFFFFFFFFFFFFFFFFFFFFFFFFFFFFFFFFFFFFFFFFFFFFFFFFFFFFFFFFFFFFFFFFFFFFFFFFFFFFFFFFFFFFF0000FFFFFFFFFFFFFFFFFFFFFFFFFFFFFFFFFFFFFFFFFFFFFFFFFFFFFFFFFFFF
310
0000FFFFFFFFFFFFFFFFFFFFFFFFFFFFFFFFFFFFFFFFFFFFFFFFFFFFFFFFFFFF0000FFFFFFFFFFFFFFFFFFFFFFFFFFFFFFFFFFFFFFFFFFFFFFFFFFFFFFFFFFFF0000FFFFFFFFFFFFFFFFFFFFFFFFFFFFFFFFFFFFFFFFFFFFFFFFFFFFFFFFFFFF0000FFFFFFFFFFFFFFFFFFFFFFFFFFFFFFFFFFFFFFFFFFFFFFFFFFFFFFFFFF
310
FF0000FFFFFFFFFFFFFFFFFFFFFFFFFFFFFFFFFFFFFFFFFFFFFFFFFFFFFFFFFFFF0000FFFFFFFFFFFFFFFFFFFFFFFFFFFFFFFFFFFFFFFFFFFFFFFFFFFFFFFFFFFF0000FFFFFFFFFFFFFFFFFFFFFFFFFFFFFFFFFFFFFFFFFFFFFFFFFFFFFFFFFFFF0000FFFFFFFFFFFFFFFFFFFFFFFFFFFFFFFFFFFFFFFFFFFFFFFFFFFFFFFF
310
FFFF0000FFFFFFFFFFFFFFFFFFFFFFFFFFFFFFFFFFFFFFFFFFFFFFFFFFFFFFFFFFFF0000FFFFFFFFFFFFFFFFFFFFFFFFFFFFFFFFFFFFFFFFFFFFFFFFFFFFFFFFFFFF0000FFFFFFFFFFFFFFFFFFFFFFFFFFFFFFFFFFFFFFFFFFFFFFFFFFFFFFFFFFFF0000FFFFFFFFFFFFFFFFFFFFFFFFFFFFFFFFFFFFFFFFFFFFFFFFFFFFFF
310
FFFFFF0000FFFFFFFFFFFFFFFFFFFFFFFFFFFFFFFFFFFFFFFFFFFFFFFFFFFFFFFFFFFF0000FFFFFFFFFFFFFFFFFFFFFFFFFFFFFFFFFFFFFFFFFFFFFFFFFFFFFFFFFFFF0000FFFFFFFFFFFFFFFFFFFFFFFFFFFFFFFFFFFFFFFFFFFFFFFFFFFFFFFFFFFF0000FFFFFFFFFFFFFFFFFFFFFFFFFFFFFFFFFFFFFFFFFFFFFFFFFFFF
310
FFFFFFFF0000FFFFFFFFFFFFFFFFFFFFFFFFFFFFFFFFFFFFFFFFFFFFFFFFFFFFFFFFFFFF0000FFFFFFFFFFFFFFFFFFFFFFFFFFFFFFFFFFFFFFFFFFFFFFFFFFFFFFFFFFFF0000FFFFFFFFFFFFFFFFFFFFFFFFFFFFFFFFFFFFFFFFFFFFFFFFFFFFFFFFFFFF0000FFFFFFFFFFFFFFFFFFFFFFFFFFFFFFFFFFFFFFFFFFFFFFFFFF
310
FFFFFFFFFF0000FFFFFFFFFFFFFFFFFFFFFFFFFFFFFFFFFFFFFFFFFFFFFFFFFFFFFFFFFFFF0000FFFFFFFFFFFFFFFFFFFFFFFFFFFFFFFFFFFFFFFFFFFFFFFFFFFFFFFFFFFF0000FFFFFFFFFFFFFFFFFFFFFFFFFFFFFFFFFFFFFFFFFFFFFFFFFFFFFFFFFFFF0000FFFFFFFFFFFFFFFFFFFFFFFFFFFFFFFFFFFFFFFFFFFFFFFF
310
FFFFFFFFFFFF0000FFFFFFFFFFFFFFFFFFFFFFFFFFFFFFFFFFFFFFFFFFFFFFFFFFFFFFFFFFFF0000FFFFFFFFFFFFFFFFFFFFFFFFFFFFFFFFFFFFFFFFFFFFFFFFFFFFFFFFFFFF0000FFFFFFFFFFFFFFFFFFFFFFFFFFFFFFFFFFFFFFFFFFFFFFFFFFFFFFFFFFFF0000FFFFFFFFFFFFFFFFFFFFFFFFFFFFFFFFFFFFFFFFFFFFFF
310
FFFFFFFFFFFFFF0000FFFFFFFFFFFFFFFFFFFFFFFFFFFFFFFFFFFFFFFFFFFFFFFFFFFFFFFFFFFFFFFFFFFFFFFFFFFFFFFFFFFFFFFFFFFFFF
102
{BLKREFS
331
6DB
102
}
  0
BLOCK_RECORD
  5
6C5
330
1
100
AcDbSymbolTableRecord
100
AcDbBlockTableRecord
  2
AI9-BLK2
340
0
310
2800000020000000200000000100080000000000000400000000000000000000000000000000000000000000000080000080000000808000800000008000800080800000C0C0C000C0DCC000F0CAA6000020400000206000002080000020A0000020C0000020E00000400000004020000040400000406000004080000040A0
310
000040C0000040E00000600000006020000060400000606000006080000060A0000060C0000060E00000800000008020000080400000806000008080000080A0000080C0000080E00000A0000000A0200000A0400000A0600000A0800000A0A00000A0C00000A0E00000C0000000C0200000C0400000C0600000C0800000C0
310
A00000C0C00000C0E00000E0000000E0200000E0400000E0600000E0800000E0A00000E0C00000E0E00040000000400020004000400040006000400080004000A0004000C0004000E00040200000402020004020400040206000402080004020A0004020C0004020E000404000004040200040404000404060004040800040
310
40A0004040C0004040E00040600000406020004060400040606000406080004060A0004060C0004060E00040800000408020004080400040806000408080004080A0004080C0004080E00040A0000040A0200040A0400040A0600040A0800040A0A00040A0C00040A0E00040C0000040C0200040C0400040C0600040C08000
310
40C0A00040C0C00040C0E00040E0000040E0200040E0400040E0600040E0800040E0A00040E0C00040E0E00080000000800020008000400080006000800080008000A0008000C0008000E00080200000802020008020400080206000802080008020A0008020C0008020E00080400000804020008040400080406000804080
310
008040A0008040C0008040E00080600000806020008060400080606000806080008060A0008060C0008060E00080800000808020008080400080806000808080008080A0008080C0008080E00080A0000080A0200080A0400080A0600080A0800080A0A00080A0C00080A0E00080C0000080C0200080C0400080C0600080C0
310
800080C0A00080C0C00080C0E00080E0000080E0200080E0400080E0600080E0800080E0A00080E0C00080E0E000C0000000C0002000C0004000C0006000C0008000C000A000C000C000C000E000C0200000C0202000C0204000C0206000C0208000C020A000C020C000C020E000C0400000C0402000C0404000C0406000C0
310
408000C040A000C040C000C040E000C0600000C0602000C0604000C0606000C0608000C060A000C060C000C060E000C0800000C0802000C0804000C0806000C0808000C080A000C080C000C080E000C0A00000C0A02000C0A04000C0A06000C0A08000C0A0A000C0A0C000C0A0E000C0C00000C0C02000C0C04000C0C06000
310
C0C08000C0C0A000F0FBFF00A4A0A000808080000000FF0000FF000000FFFF00FF000000FF00FF00FFFF0000FFFFFF00FFFFFFFFFFFFFFFFFFFFFFFFFFFFFFFFFFFFFFFFFFFFFFFFFFFFFFFFFFFFFFFFFFFFFFFFFFFFFFFFFFFFFFFFFFFFFF0000FFFFFFFFFFFFFFFFFFFFFFFFFFFFFFFFFFFFFFFFFFFFFFFFFFFFFFFFFFFF
310
0000FFFFFFFFFFFFFFFFFFFFFFFFFFFFFFFFFFFFFFFFFFFFFFFFFFFFFFFFFFFF0000FFFFFFFFFFFFFFFFFFFFFFFFFFFFFFFFFFFFFFFFFFFFFFFFFFFFFFFFFF00FFFF00FFFFFFFFFFFFFFFFFFFFFFFFFFFFFFFFFFFFFFFFFFFFFFFFFFFFFFFF00FFFF00FFFFFFFFFFFFFFFFFFFFFFFFFFFFFFFFFFFFFFFFFFFFFFFFFFFFFFFF
310
00FF0000FFFFFFFFFFFFFFFFFFFFFFFFFFFFFFFFFFFFFFFFFFFFFFFFFFFFFFFF00FF0000FFFFFFFFFFFFFFFFFFFFFFFFFFFFFFFFFFFFFFFFFFFFFFFFFFFFFFFF00FF0000FFFFFFFFFFFFFFFFFFFFFFFFFFFFFFFFFFFFFFFFFFFFFFFFFFFFFFFF00000000FFFFFFFFFFFFFFFFFFFFFFFFFFFFFFFFFFFFFFFFFFFFFFFFFFFFFF
310
00FF00FF0000FFFFFFFFFFFFFFFFFFFFFFFFFFFFFFFFFFFFFFFFFFFFFFFFFFFF00FF00FF0000FFFFFFFFFFFFFFFFFFFFFFFFFFFFFFFFFFFFFFFFFFFFFFFFFFFF00FF00FF0000FFFFFFFFFFFFFFFFFFFFFFFFFFFFFFFFFFFFFFFFFFFFFFFFFFFF00FF00FF0000FFFFFFFFFFFFFFFFFFFFFFFFFFFFFFFFFFFFFFFFFFFFFFFFFF
310
FF00FF00FF0000FFFFFFFFFFFFFFFFFFFFFFFFFFFFFFFFFFFFFFFFFFFFFFFFFFFF0000FFFF0000FFFFFFFFFFFFFFFFFFFFFFFFFFFFFFFFFFFFFFFFFFFFFFFFFF00FF00FFFF00FF00FFFFFFFFFFFFFFFFFFFFFFFFFFFFFFFFFFFFFFFFFFFFFFFF00FF00FFFF00FF00FFFFFFFFFFFFFFFFFFFFFFFFFFFFFFFFFFFFFFFFFFFFFF
310
FF00FF00FFFFFF0000FFFFFFFFFFFFFFFFFFFFFFFFFFFFFFFFFFFFFFFFFFFFFFFF00FF00FFFFFF0000FFFFFFFFFFFFFFFFFFFFFFFFFFFFFFFFFFFFFFFFFFFFFFFF00FF00FFFFFF0000FFFFFFFFFFFFFFFFFFFFFFFFFFFFFFFFFFFFFFFFFFFFFFFF0000FFFFFFFF0000FFFFFFFFFFFFFFFFFFFFFFFFFFFFFFFFFFFFFFFFFFFF
310
FF00FF00FFFFFFFF00FF00FFFFFFFFFFFFFFFFFFFFFFFFFFFFFFFFFFFFFFFFFFFF00FF00FFFFFFFF00FF00FFFFFFFFFFFFFFFFFFFFFFFFFFFFFFFFFFFFFFFFFFFF00FF00FFFFFFFF00FF00FFFFFFFFFFFFFFFFFFFFFFFFFFFFFFFFFFFFFFFFFFFF00FF00FFFFFFFF00FF00FFFFFFFFFFFFFFFFFFFFFFFFFFFFFFFFFFFFFFFF
310
FFFF00FF00FFFFFFFFFF0000FFFFFFFFFFFFFFFFFFFFFFFFFFFFFFFFFFFFFFFFFFFF0000FFFFFFFFFFFF0000FFFFFFFFFFFFFFFFFFFFFFFFFFFFFFFFFFFFFFFFFF00FF00FFFFFFFFFFFF00FF00FFFFFFFFFFFFFFFFFFFFFFFFFFFFFFFFFFFFFFFF00FF00FFFFFFFFFFFF00FF00FFFFFFFFFFFFFFFFFFFFFFFFFFFFFFFFFFFF
310
FFFF000000FFFFFFFFFFFF000000FFFFFFFFFFFFFFFFFFFFFFFFFFFFFFFFFFFFFFFFFFFFFFFFFFFFFFFFFFFFFFFFFFFFFFFFFFFFFFFFFFFF
102
{BLKREFS
331
6DC
102
}
  0
BLOCK_RECORD
  5
6CA
330
1
100
AcDbSymbolTableRecord
100
AcDbBlockTableRecord
  2
AI9-BLK1
340
0
310
2800000020000000200000000100080000000000000400000000000000000000000000000000000000000000000080000080000000808000800000008000800080800000C0C0C000C0DCC000F0CAA6000020400000206000002080000020A0000020C0000020E00000400000004020000040400000406000004080000040A0
310
000040C0000040E00000600000006020000060400000606000006080000060A0000060C0000060E00000800000008020000080400000806000008080000080A0000080C0000080E00000A0000000A0200000A0400000A0600000A0800000A0A00000A0C00000A0E00000C0000000C0200000C0400000C0600000C0800000C0
310
A00000C0C00000C0E00000E0000000E0200000E0400000E0600000E0800000E0A00000E0C00000E0E00040000000400020004000400040006000400080004000A0004000C0004000E00040200000402020004020400040206000402080004020A0004020C0004020E000404000004040200040404000404060004040800040
310
40A0004040C0004040E00040600000406020004060400040606000406080004060A0004060C0004060E00040800000408020004080400040806000408080004080A0004080C0004080E00040A0000040A0200040A0400040A0600040A0800040A0A00040A0C00040A0E00040C0000040C0200040C0400040C0600040C08000
310
40C0A00040C0C00040C0E00040E0000040E0200040E0400040E0600040E0800040E0A00040E0C00040E0E00080000000800020008000400080006000800080008000A0008000C0008000E00080200000802020008020400080206000802080008020A0008020C0008020E00080400000804020008040400080406000804080
310
008040A0008040C0008040E00080600000806020008060400080606000806080008060A0008060C0008060E00080800000808020008080400080806000808080008080A0008080C0008080E00080A0000080A0200080A0400080A0600080A0800080A0A00080A0C00080A0E00080C0000080C0200080C0400080C0600080C0
310
800080C0A00080C0C00080C0E00080E0000080E0200080E0400080E0600080E0800080E0A00080E0C00080E0E000C0000000C0002000C0004000C0006000C0008000C000A000C000C000C000E000C0200000C0202000C0204000C0206000C0208000C020A000C020C000C020E000C0400000C0402000C0404000C0406000C0
310
408000C040A000C040C000C040E000C0600000C0602000C0604000C0606000C0608000C060A000C060C000C060E000C0800000C0802000C0804000C0806000C0808000C080A000C080C000C080E000C0A00000C0A02000C0A04000C0A06000C0A08000C0A0A000C0A0C000C0A0E000C0C00000C0C02000C0C04000C0C06000
310
C0C08000C0C0A000F0FBFF00A4A0A000808080000000FF0000FF000000FFFF00FF000000FF00FF00FFFF0000FFFFFF00FFFFFFFFFFFFFFFFFFFFFFFFFFFFFFFFFFFFFFFFFFFFFFFFFFFFFFFFFFFFFFFFFFFFFFFFFFFFFFFFFFFFFF00000000000000000000FFFFFFFFFFFFFFFFFFFFFFFFFFFFFFFFFFFFFFFFFFFF00FFFFFF
310
FFFFFFFFFF00FFFFFFFFFFFFFFFFFFFFFFFFFFFFFFFFFFFFFFFFFFFF00FFFFFFFFFFFFFFFF00FFFFFFFFFFFFFFFFFFFFFFFFFFFFFFFFFFFFFFFFFFFF00FFFFFFFFFFFFFFFF00FFFFFFFFFFFFFFFFFFFFFFFFFFFFFFFFFFFFFFFFFFFF00FF0000000000000000FFFFFFFFFFFFFFFFFFFFFFFFFFFFFFFFFFFFFFFFFFFF00FF00
310
FFFFFFFFFFFFFFFFFFFFFFFFFFFFFFFFFFFFFFFFFFFFFFFFFFFFFFFFFF00FF00FFFFFFFFFFFFFFFFFFFFFFFFFFFFFFFFFFFFFFFFFFFFFFFFFFFFFFFFFF00FF00FFFFFFFFFFFFFFFFFFFFFFFFFFFFFFFFFFFFFFFFFFFFFFFFFFFFFFFFFF00FF00FFFFFFFFFFFFFFFFFFFFFFFFFFFFFFFFFFFFFFFFFFFFFFFFFFFFFFFFFF00FF
310
00FFFFFFFFFFFFFFFFFFFFFFFFFFFFFFFFFFFFFFFFFFFFFFFFFFFFFFFFFF00FF00FFFFFFFFFFFFFFFFFFFFFFFFFFFFFFFFFFFFFFFFFFFFFFFFFFFFFFFFFF00FF00FFFFFFFFFFFFFFFFFFFFFFFFFFFFFFFFFFFFFFFFFFFFFFFFFFFFFFFFFF00FF00FFFFFFFFFFFFFFFFFFFFFFFFFFFFFFFFFFFFFFFFFFFFFFFFFFFFFFFFFF00
310
FF00000000000000FFFFFFFFFFFFFFFFFFFFFFFFFFFFFFFFFFFFFFFFFFFFFF00FFFFFFFFFFFFFF00FFFFFFFFFFFFFFFFFFFFFFFFFFFFFFFFFFFFFFFFFFFFFF00FFFFFFFFFFFFFF00FFFFFFFFFFFFFFFFFFFFFFFFFFFFFFFFFFFFFFFFFFFFFF00FFFFFFFFFFFFFF00FFFFFFFFFFFFFFFFFFFFFFFFFFFFFFFFFFFFFFFFFFFFFF
310
00FF00000000000000FFFFFFFFFFFFFFFFFFFFFFFFFFFFFFFFFFFFFFFFFFFFFF00FF00FFFFFFFFFFFFFFFFFFFFFFFFFFFFFFFFFFFFFFFFFFFFFFFFFFFFFFFFFF00FF00FFFFFFFFFFFFFFFFFFFFFFFFFFFFFFFFFFFFFFFFFFFFFFFFFFFFFFFFFF00FF00FFFFFFFFFFFFFFFFFFFFFFFFFFFFFFFFFFFFFFFFFFFFFFFFFFFFFFFF
310
FF00FF00FFFFFFFFFFFFFFFFFFFFFFFFFFFFFFFFFFFFFFFFFFFFFFFFFFFFFFFFFF00FF00FFFFFFFFFFFFFFFFFFFFFFFFFFFFFFFFFFFFFFFFFFFFFFFFFFFFFFFFFF00FF00FFFFFFFFFFFFFFFFFFFFFFFFFFFFFFFFFFFFFFFFFFFFFFFFFFFFFFFFFF00FF00FFFFFFFFFFFFFFFFFFFFFFFFFFFFFFFFFFFFFFFFFFFFFFFFFFFFFF
310
FFFF00FF0000000000000000FFFFFFFFFFFFFFFFFFFFFFFFFFFFFFFFFFFFFFFFFFFF00FFFFFFFFFFFFFFFF00FFFFFFFFFFFFFFFFFFFFFFFFFFFFFFFFFFFFFFFFFFFF00FFFFFFFFFFFFFFFF00FFFFFFFFFFFFFFFFFFFFFFFFFFFFFFFFFFFFFFFFFFFF00FFFFFFFFFFFFFFFF00FFFFFFFFFFFFFFFFFFFFFFFFFFFFFFFFFFFFFF
310
FFFFFF00000000000000000000FFFFFFFFFFFFFFFFFFFFFFFFFFFFFFFFFFFFFFFFFFFFFFFFFFFFFFFFFFFFFFFFFFFFFFFFFFFFFFFFFFFFFF
102
{BLKREFS
331
6DD
102
}
  0
BLOCK_RECORD
  5
6CF
330
1
100
AcDbSymbolTableRecord
100
AcDbBlockTableRecord
  2
HD_LLC_logo_OT5
340
0
310
2800000020000000200000000100080000000000000400000000000000000000000000000000000000000000000080000080000000808000800000008000800080800000C0C0C000C0DCC000F0CAA6000020400000206000002080000020A0000020C0000020E00000400000004020000040400000406000004080000040A0
310
000040C0000040E00000600000006020000060400000606000006080000060A0000060C0000060E00000800000008020000080400000806000008080000080A0000080C0000080E00000A0000000A0200000A0400000A0600000A0800000A0A00000A0C00000A0E00000C0000000C0200000C0400000C0600000C0800000C0
310
A00000C0C00000C0E00000E0000000E0200000E0400000E0600000E0800000E0A00000E0C00000E0E00040000000400020004000400040006000400080004000A0004000C0004000E00040200000402020004020400040206000402080004020A0004020C0004020E000404000004040200040404000404060004040800040
310
40A0004040C0004040E00040600000406020004060400040606000406080004060A0004060C0004060E00040800000408020004080400040806000408080004080A0004080C0004080E00040A0000040A0200040A0400040A0600040A0800040A0A00040A0C00040A0E00040C0000040C0200040C0400040C0600040C08000
310
40C0A00040C0C00040C0E00040E0000040E0200040E0400040E0600040E0800040E0A00040E0C00040E0E00080000000800020008000400080006000800080008000A0008000C0008000E00080200000802020008020400080206000802080008020A0008020C0008020E00080400000804020008040400080406000804080
310
008040A0008040C0008040E00080600000806020008060400080606000806080008060A0008060C0008060E00080800000808020008080400080806000808080008080A0008080C0008080E00080A0000080A0200080A0400080A0600080A0800080A0A00080A0C00080A0E00080C0000080C0200080C0400080C0600080C0
310
800080C0A00080C0C00080C0E00080E0000080E0200080E0400080E0600080E0800080E0A00080E0C00080E0E000C0000000C0002000C0004000C0006000C0008000C000A000C000C000C000E000C0200000C0202000C0204000C0206000C0208000C020A000C020C000C020E000C0400000C0402000C0404000C0406000C0
310
408000C040A000C040C000C040E000C0600000C0602000C0604000C0606000C0608000C060A000C060C000C060E000C0800000C0802000C0804000C0806000C0808000C080A000C080C000C080E000C0A00000C0A02000C0A04000C0A06000C0A08000C0A0A000C0A0C000C0A0E000C0C00000C0C02000C0C04000C0C06000
310
C0C08000C0C0A000F0FBFF00A4A0A000808080000000FF0000FF000000FFFF00FF000000FF00FF00FFFF0000FFFFFF00FFFFFFFFFFFFFFFFFFFFFFFFFFFFFFFFFFFFFFFFFFFFFFFFFFFFFFFFFFFFFFFFFFFFFFFFFFFFFFFFFFFFFFFFFFFFFFFFFFFFFFFFFFFFFFFFFFFFFFFFFFFFFFFFFFFFFFFFFFFFFFFFFFFFFFFFFFFFFF
310
FFFFFFFFFFFFFFFFFFFFFFFFFFFFFFFFFFFFFFFFFFFFFFFFFFFFFFFFFFFFFFFFFFFFFFFFFFFFFFFFFFFFFFFFFFFFFFFFFFFFFFFFFFFFFFFFFFFFFFFFFFFFFFFFFFFFFFFFFFFFFFFFFFFFFFFFFFFFFFFFFFFFFFFFFFFFFFFFFFFFFFFFFFFFFFFFFFFFFFFFFFFFFFFFFFFFFFFFFFFFFFFFFFFFFFFFFFFFFFFFFFFFFFFFFFFFFF
310
FFFFFFFFFFFFFFFFFFFFFFFFFFFFFFFFFFFFFFFFFFFFFFFFFFFFFFFFFFFFFFFFFFFFFFFFFFFFFFFFFFFFFFFFFFFFFFFFFFFFFFFFFFFFFFFFFFFFFFFFFFFFFFFFFFFFFFFFFFFFFFFFFFFFFFFFFFFFFFFFFFFFFFFFFFFFFFFFFFFFFFFFFFFFFFFFFFFFFFFFFFFFFFFFFFFFFFFFFFFFFFFFFFFFFFFFFFFFFFFFFFFFFFFFFFFFFF
310
FFFFFFFFFFFFFFFFFFFFFFFFFFFFFFFFFFFFFFFFFFFFFFFFFFFFFFFFFFFFFFFFFFFFFFFFFFFFFFFFFFFFFFFFFFFFFFFFFFFFFFFF0000000000000000000000000000000000000000000000000000000000FFFFFF0000000000000000000000000000000000FFFFFFFFFFFFFFFFFFFF0000FFFFFF0000000000000000000000
310
00000000000000FFFFFFFFFFFFFFFFFFFF0000FFFF000000000000000000000000000000000000FFFFFF00000000FFFFFF0000FFFF00FFFFFFFFFFFF00FFFFFF00FFFFFFFFFF00FFFFFF0000000000FFFF0000FFFF00FFFFFFFFFFFF00FFFFFF00FFFFFFFFFF00FFFFFF00FFFF0000FFFF0000FFFF00FFFFFFFFFFFF00FFFF
310
00FFFFFFFFFFFF00FFFFFF00FFFF0000FFFF0000FFFF0000000000FFFF00000000FFFFFF00000000FFFFFF00000000FFFFFF0000FFFFFFFFFFFF00FFFFFFFFFFFFFFFFFF00FFFFFFFFFFFFFFFFFFFFFFFFFF0000FFFFFFFFFFFF00FFFFFFFFFFFFFFFFFF00FFFFFFFFFFFFFFFFFFFFFFFFFF0000FFFFFFFFFFFF00FFFFFFFF
310
FFFFFFFFFF00FFFFFFFFFFFFFFFFFFFFFFFF0000FFFFFF0000000000FFFF00000000FFFFFF0000000000000000000000000000FFFFFFFF00FFFFFFFFFFFF00FFFF00FFFFFFFFFFFF00FFFFFFFFFFFFFFFFFFFFFFFFFFFF00FFFFFFFFFFFF00FFFFFF00FFFFFFFFFF00FFFFFFFFFFFFFFFFFFFFFFFFFFFF0000000000000000
310
FFFFFF00000000000000FFFFFFFFFFFFFFFFFFFFFFFFFFFFFFFFFFFFFFFFFFFFFFFFFFFFFFFFFFFFFFFFFFFFFFFFFFFFFFFFFFFFFFFFFFFFFFFFFFFFFFFFFFFFFFFFFFFFFFFFFFFFFFFFFFFFFFFFFFFFFFFFFFFFFFFFFFFFFFFFFFFFFFFFFFFFFFFFFFFFFFFFFFFFFFFFFFFFFFFFFFFFFFFFFFFFFFFFFFFFFFFFFFFFFFFFFF
310
FFFFFFFFFFFFFFFFFFFFFFFFFFFFFFFFFFFFFFFFFFFFFFFFFFFFFFFFFFFFFFFFFFFFFFFFFFFFFFFFFFFFFFFFFFFFFFFFFFFFFFFFFFFFFFFF
102
{BLKREFS
331
6F5
102
}
  0
BLOCK_RECORD
  5
6F4
330
1
100
AcDbSymbolTableRecord
100
AcDbBlockTableRecord
  2
HD logo-new
340
0
310
2800000020000000200000000100080000000000000400000000000000000000000000000000000000000000000080000080000000808000800000008000800080800000C0C0C000C0DCC000F0CAA6000020400000206000002080000020A0000020C0000020E00000400000004020000040400000406000004080000040A0
310
000040C0000040E00000600000006020000060400000606000006080000060A0000060C0000060E00000800000008020000080400000806000008080000080A0000080C0000080E00000A0000000A0200000A0400000A0600000A0800000A0A00000A0C00000A0E00000C0000000C0200000C0400000C0600000C0800000C0
310
A00000C0C00000C0E00000E0000000E0200000E0400000E0600000E0800000E0A00000E0C00000E0E00040000000400020004000400040006000400080004000A0004000C0004000E00040200000402020004020400040206000402080004020A0004020C0004020E000404000004040200040404000404060004040800040
310
40A0004040C0004040E00040600000406020004060400040606000406080004060A0004060C0004060E00040800000408020004080400040806000408080004080A0004080C0004080E00040A0000040A0200040A0400040A0600040A0800040A0A00040A0C00040A0E00040C0000040C0200040C0400040C0600040C08000
310
40C0A00040C0C00040C0E00040E0000040E0200040E0400040E0600040E0800040E0A00040E0C00040E0E00080000000800020008000400080006000800080008000A0008000C0008000E00080200000802020008020400080206000802080008020A0008020C0008020E00080400000804020008040400080406000804080
310
008040A0008040C0008040E00080600000806020008060400080606000806080008060A0008060C0008060E00080800000808020008080400080806000808080008080A0008080C0008080E00080A0000080A0200080A0400080A0600080A0800080A0A00080A0C00080A0E00080C0000080C0200080C0400080C0600080C0
310
800080C0A00080C0C00080C0E00080E0000080E0200080E0400080E0600080E0800080E0A00080E0C00080E0E000C0000000C0002000C0004000C0006000C0008000C000A000C000C000C000E000C0200000C0202000C0204000C0206000C0208000C020A000C020C000C020E000C0400000C0402000C0404000C0406000C0
310
408000C040A000C040C000C040E000C0600000C0602000C0604000C0606000C0608000C060A000C060C000C060E000C0800000C0802000C0804000C0806000C0808000C080A000C080C000C080E000C0A00000C0A02000C0A04000C0A06000C0A08000C0A0A000C0A0C000C0A0E000C0C00000C0C02000C0C04000C0C06000
310
C0C08000C0C0A000F0FBFF00A4A0A000808080000000FF0000FF000000FFFF00FF000000FF00FF00FFFF0000FFFFFF00FFFFFFFFFFFFFFFFFFFFFFFFFFFFFFFFFFFFFFFFFFFFFFFFFFFFFFFFFFFFFFFFFFFFFFFFFFFFFFFFFFFFFFFFFFFFFFFFFFFFFFFFFFFFFFFFFFFFFFFFFFFFFFFFFFFFFFFFFFFFFFFFFFFFFFFFFFFFFF
310
FFFFFFFFFFFFFFFFFFFFFFFFFFFFFFFFFFFFFFFFFFFFFFFFFFFFFFFFFFFFFFFFFFFFFFFFFFFFFFFFFFFFFFFFFFFFFFFFFFFFFFFFFFFFFFFFFFFFFFFFFFFFFFFFFFFFFFFFFFFFFFFFFFFFFFFFFFFFFFFFFFFFFFFFFFFFFFFFFFFFFFFFFFFFFFFFFFFFFFFFFFFFFFFFFFFFFFFFFFFFFFFFFFFFFFFFFFFFFFFFFFFFFFFFFFFFFF
310
FFFFFFFFFFFFFFFFFFFFFFFFFFFFFFFFFFFFFFFFFFFFFFFFFFFFFFFFFFFFFFFFFFFFFFFFFFFFFFFFFFFFFFFFFFFFFFFFFFFFFFFFFFFFFFFFFFFFFFFFFFFFFFFFFFFFFFFFFFFFFFFFFFFFFFFFFFFFFFFFFFFFFFFFFFFFFFFFFFFFFFFFFFFFFFFFFFFFFFFFFFFFFFFFFFFFFFFFFFFFFFFFFFFFFFFFFFFFFFFFFFFFFFFFFFFFFF
310
FFFFFFFFFFFFFFFFFFFFFFFFFFFFFFFFFFFFFFFFFFFFFFFFFFFFFFFFFFFFFFFFFFFFFFFFFFFFFFFFFFFFFFFFFFFFFFFFFFFFFFFF0000000000000000000000000000000000000000000000000000000000FFFFFF0000000000000000000000000000000000FFFFFFFFFFFFFFFFFFFF0000FFFFFF0000000000000000000000
310
00000000000000FFFFFFFFFFFFFFFFFFFF0000FFFF000000000000000000000000000000000000FFFFFF00000000FFFFFF0000FFFF00FFFFFFFFFFFF00FFFFFF00FFFFFFFFFF00FFFFFF0000000000FFFF0000FFFF00FFFFFFFFFFFF00FFFFFF00FFFFFFFFFF00FFFFFF00FFFF0000FFFF0000FFFF00FFFFFFFFFFFF00FFFF
310
00FFFFFFFFFFFF00FFFFFF00FFFF0000FFFF0000FFFF0000000000FFFF00000000FFFFFF00000000FFFFFF00000000FFFFFF0000FFFFFFFFFFFF00FFFFFFFFFFFFFFFFFF00FFFFFFFFFFFFFFFFFFFFFFFFFF0000FFFFFFFFFFFF00FFFFFFFFFFFFFFFFFF00FFFFFFFFFFFFFFFFFFFFFFFFFF0000FFFFFFFFFFFF00FFFFFFFF
310
FFFFFFFFFF00FFFFFFFFFFFFFFFFFFFFFFFF0000FFFFFF0000000000FFFF00000000FFFFFF0000000000000000000000000000FFFFFFFF00FFFFFFFFFFFF00FFFF00FFFFFFFFFFFF00FFFFFFFFFFFFFFFFFFFFFFFFFFFF00FFFFFFFFFFFF00FFFFFF00FFFFFFFFFF00FFFFFFFFFFFFFFFFFFFFFFFFFFFF0000000000000000
310
FFFFFF00000000000000FFFFFFFFFFFFFFFFFFFFFFFFFFFFFFFFFFFFFFFFFFFFFFFFFFFFFFFFFFFFFFFFFFFFFFFFFFFFFFFFFFFFFFFFFFFFFFFFFFFFFFFFFFFFFFFFFFFFFFFFFFFFFFFFFFFFFFFFFFFFFFFFFFFFFFFFFFFFFFFFFFFFFFFFFFFFFFFFFFFFFFFFFFFFFFFFFFFFFFFFFFFFFFFFFFFFFFFFFFFFFFFFFFFFFFFFFF
310
FFFFFFFFFFFFFFFFFFFFFFFFFFFFFFFFFFFFFFFFFFFFFFFFFFFFFFFFFFFFFFFFFFFFFFFFFFFFFFFFFFFFFFFFFFFFFFFFFFFFFFFFFFFFFFFF
102
{BLKREFS
331
6FA
331
6FE
102
}
  0
BLOCK_RECORD
  5
6FF
330
1
100
AcDbSymbolTableRecord
100
AcDbBlockTableRecord
  2
HD LLC
340
0
310
2800000020000000200000000100080000000000000400000000000000000000000000000000000000000000000080000080000000808000800000008000800080800000C0C0C000C0DCC000F0CAA6000020400000206000002080000020A0000020C0000020E00000400000004020000040400000406000004080000040A0
310
000040C0000040E00000600000006020000060400000606000006080000060A0000060C0000060E00000800000008020000080400000806000008080000080A0000080C0000080E00000A0000000A0200000A0400000A0600000A0800000A0A00000A0C00000A0E00000C0000000C0200000C0400000C0600000C0800000C0
310
A00000C0C00000C0E00000E0000000E0200000E0400000E0600000E0800000E0A00000E0C00000E0E00040000000400020004000400040006000400080004000A0004000C0004000E00040200000402020004020400040206000402080004020A0004020C0004020E000404000004040200040404000404060004040800040
310
40A0004040C0004040E00040600000406020004060400040606000406080004060A0004060C0004060E00040800000408020004080400040806000408080004080A0004080C0004080E00040A0000040A0200040A0400040A0600040A0800040A0A00040A0C00040A0E00040C0000040C0200040C0400040C0600040C08000
310
40C0A00040C0C00040C0E00040E0000040E0200040E0400040E0600040E0800040E0A00040E0C00040E0E00080000000800020008000400080006000800080008000A0008000C0008000E00080200000802020008020400080206000802080008020A0008020C0008020E00080400000804020008040400080406000804080
310
008040A0008040C0008040E00080600000806020008060400080606000806080008060A0008060C0008060E00080800000808020008080400080806000808080008080A0008080C0008080E00080A0000080A0200080A0400080A0600080A0800080A0A00080A0C00080A0E00080C0000080C0200080C0400080C0600080C0
310
800080C0A00080C0C00080C0E00080E0000080E0200080E0400080E0600080E0800080E0A00080E0C00080E0E000C0000000C0002000C0004000C0006000C0008000C000A000C000C000C000E000C0200000C0202000C0204000C0206000C0208000C020A000C020C000C020E000C0400000C0402000C0404000C0406000C0
310
408000C040A000C040C000C040E000C0600000C0602000C0604000C0606000C0608000C060A000C060C000C060E000C0800000C0802000C0804000C0806000C0808000C080A000C080C000C080E000C0A00000C0A02000C0A04000C0A06000C0A08000C0A0A000C0A0C000C0A0E000C0C00000C0C02000C0C04000C0C06000
310
C0C08000C0C0A000F0FBFF00A4A0A000808080000000FF0000FF000000FFFF00FF000000FF00FF00FFFF0000FFFFFF00FFFFFFFFFFFFFFFFFFFFFFFFFFFFFFFFFFFFFFFFFFFFFFFFFFFFFFFFFFFFFFFFFFFFFFFFFFFFFFFFFFFFFFFFFFFFFFFFFFFFFFFFFFFFFFFFFFFFFFFFFFFFFFFFFFFFFFFFFFFFFFFFFFFFFFFFFFFFFF
310
FFFFFFFFFFFFFFFFFFFFFFFFFFFFFFFFFFFFFFFFFFFFFFFFFFFFFFFFFFFFFFFFFFFFFFFFFFFFFFFFFFFFFFFFFFFFFFFFFFFFFFFFFFFFFFFFFFFFFFFFFFFFFFFFFFFFFFFFFFFFFFFFFFFFFFFFFFFFFFFFFFFFFFFFFFFFFFFFFFFFFFFFFFFFFFFFFFFFFFFFFFFFFFFFFFFFFFFFFFFFFFFFFFFFFFFFFFFFFFFFFFFFFFFFFFFFFF
310
FFFFFFFFFFFFFFFFFFFFFFFFFFFFFFFFFFFFFFFFFFFFFFFFFFFFFFFFFFFFFFFFFFFFFFFFFFFFFFFFFFFFFFFFFFFFFFFFFFFFFFFFFFFFFFFFFFFFFFFFFFFFFFFFFFFFFFFFFFFFFFFFFFFFFFFFFFFFFFFFFFFFFFFFFFFFFFFFFFFFFFFFFFFFFFFFFFFFFFFFFFFFFFFFFFFFFFFFFFFFFFFFFFFFFFFFFFFFFFFFFFFFFFFFFFFFFF
310
FFFFFFFFFFFFFFFFFFFFFFFFFFFFFFFFFFFFFFFFFFFFFFFFFFFFFFFFFFFFFFFFFFFFFFFFFFFFFFFFFFFFFFFFFFFFFFFFFFFFFFFFFFFFFFFFFFFFFFFFFFFFFFFFFFFFFFFFFFFFFFFFFFFFFFFFFFFFFFFFFFFFFFFFFFFFFFFFFFFFFFFFFFFFFFFFFFFFFFFFFFFFFFFFFFFFFFFFFFFFFFFFFFFFFFFFFFFFFFFFFFFFFFFFFFFF00
310
000000000000000000FFFFFFFFFFFFFFFFFFFFFFFFFFFFFFFFFFFFFFFFFFFF00000000000000000000FFFFFFFFFFFFFFFFFFFFFFFFFFFFFFFFFFFFFFFFFFFF00000000000000000000FFFFFFFFFFFFFFFFFFFFFFFFFFFFFFFFFFFFFFFFFFFF00000000000000000000FFFFFFFFFFFFFFFFFFFFFFFFFFFFFFFFFFFFFFFFFFFF
310
FFFFFFFFFFFFFFFFFFFFFFFFFFFFFFFFFFFFFFFFFFFFFFFFFFFFFFFFFFFFFFFFFFFFFFFFFFFFFFFFFFFFFFFFFFFFFFFFFFFFFFFFFFFFFFFFFFFFFFFFFFFFFFFFFFFFFFFFFFFFFFFFFFFFFFFFFFFFFFFFFFFFFFFFFFFFFFFFFFFFFFFFFFFFFFFFFFFFFFFFFFFFFFFFFFFFFFFFFFFFFFFFFFFFFFFFFFFFFFFFFFFFFFFFFFFFFF
310
FFFFFFFFFFFFFFFFFFFFFFFFFFFFFFFFFFFFFFFFFFFFFFFFFFFFFFFFFFFFFFFFFFFFFFFFFFFFFFFFFFFFFFFFFFFFFFFFFFFFFFFFFFFFFFFFFFFFFFFFFFFFFFFFFFFFFFFFFFFFFFFFFFFFFFFFFFFFFFFFFFFFFFFFFFFFFFFFFFFFFFFFFFFFFFFFFFFFFFFFFFFFFFFFFFFFFFFFFFFFFFFFFFFFFFFFFFFFFFFFFFFFFFFFFFFFFF
310
FFFFFFFFFFFFFFFFFFFFFFFFFFFFFFFFFFFFFFFFFFFFFFFFFFFFFFFFFFFFFFFFFFFFFFFFFFFFFFFFFFFFFFFFFFFFFFFFFFFFFFFFFFFFFFFFFFFFFFFFFFFFFFFFFFFFFFFFFFFFFFFFFFFFFFFFFFFFFFFFFFFFFFFFFFFFFFFFFFFFFFFFFFFFFFFFFFFFFFFFFFFFFFFFFFFFFFFFFFFFFFFFFFFFFFFFFFFFFFFFFFFFFFFFFFFFFF
310
FFFFFFFFFFFFFFFFFFFFFFFFFFFFFFFFFFFFFFFFFFFFFFFFFFFFFFFFFFFFFFFFFFFFFFFFFFFFFFFFFFFFFFFFFFFFFFFFFFFFFFFFFFFFFFFF
102
{BLKREFS
331
704
331
708
102
}
  0
ENDTAB
  0
ENDSEC
  0
SECTION
  2
BLOCKS
  0
BLOCK
  5
20
330
1F
100
AcDbEntity
  8
0
100
AcDbBlockBegin
  2
*Model_Space
 70
     0
 10
0.0
 20
0.0
 30
0.0
  3
*Model_Space
  1

  0
ENDBLK
  5
21
330
1F
100
AcDbEntity
  8
0
100
AcDbBlockEnd
  0
BLOCK
  5
1C
330
1B
100
AcDbEntity
 67
     1
  8
0
100
AcDbBlockBegin
  2
*Paper_Space
 70
     0
 10
0.0
 20
0.0
 30
0.0
  3
*Paper_Space
  1

  0
ENDBLK
  5
1D
330
1B
100
AcDbEntity
 67
     1
  8
0
100
AcDbBlockEnd
  0
BLOCK
  5
24
330
23
100
AcDbEntity
  8
0
100
AcDbBlockBegin
  2
*Paper_Space0
 70
     0
 10
0.0
 20
0.0
 30
0.0
  3
*Paper_Space0
  1

  0
ENDBLK
  5
25
330
23
100
AcDbEntity
  8
0
100
AcDbBlockEnd
  0
BLOCK
  5
682
330
67F
100
AcDbEntity
  8
0
100
AcDbBlockBegin
  2
NTC
 70
     0
 10
0.0
 20
0.0
 30
0.0
  3
NTC
  1

  0
LWPOLYLINE
  5
680
330
67F
100
AcDbEntity
  8
0
100
AcDbPolyline
 90
        8
 70
     1
 43
0.0
 10
4.581008201925953
 20
-10.78862239032818
 10
319.3921777697513
 20
-10.78862239032818
 42
-0.4142135623730951
 10
324.9046777697513
 20
-16.30112239032816
 10
324.9046777697513
 20
-117.4075202476924
 42
-0.4142135623730951
 10
319.3921777697513
 20
-122.9200202476925
 10
4.581008201925836
 20
-122.9200202476925
 42
-0.4142135623730951
 10
-0.9314917980741483
 20
-117.4075202476924
 10
-0.9314917980740915
 20
-16.30112239032816
 42
-0.4142135623730951
  0
MTEXT
  5
681
330
67F
100
AcDbEntity
  8
0
  6
Continuous
370
    30
100
AcDbMText
 10
21.65307678143926
 20
-17.4535155144544
 30
0.0
 40
8.75
 41
294.5432999999998
 71
     1
 72
     5
  3
{\fTxt|b1|i0|c0|p2;Notice:\P\Ftxt.shx;\H0.5714x;All specifications and dimensions shown in the drawing are subject to change without notice. This drawing is the property of Harmonic Drive LLC.   This data is believed to be accurate, however, Harmonic
  1
 Drive LLC assumes no liability for any errors or omissions in the specifications, models, or drawings.\P\PHarmonic Drive LLC\PTel: 800-921-3332\Pwww.harmonicdrive.net}
 73
     1
 44
1.0
  0
ENDBLK
  5
683
330
67F
100
AcDbEntity
  8
0
100
AcDbBlockEnd
  0
BLOCK
  5
686
330
684
100
AcDbEntity
  8
0
100
AcDbBlockBegin
  2
Notice
 70
     0
 10
0.0
 20
0.0
 30
0.0
  3
Notice
  1

  0
INSERT
  5
685
330
684
100
AcDbEntity
  8
0
100
AcDbBlockReference
  2
NTC
 10
-1.765593945145185
 20
0.8372451854194725
 30
0.0
 41
0.0132641562133813
 42
0.0132641562133813
 43
0.0132641562133813
  0
ENDBLK
  5
687
330
684
100
AcDbEntity
  8
0
100
AcDbBlockEnd
  0
BLOCK
  5
693
330
690
100
AcDbEntity
  8
0
 62
     7
100
AcDbBlockBegin
  2
AI9-BLK14
 70
     0
 10
0.0
 20
0.0
 30
0.0
  3
AI9-BLK14
  1

  0
SPLINE
  5
691
330
690
100
AcDbEntity
  8
LAYER_1
 62
     7
100
AcDbSpline
210
0.0
220
0.0
230
1.0
 70
    11
 71
     3
 72
    23
 73
    19
 74
     0
 42
0.0000000001
 43
0.0000000001
 40
0.0
 40
0.0
 40
0.0
 40
0.0
 40
1.0
 40
1.0
 40
1.0
 40
2.0
 40
2.0
 40
2.0
 40
3.0
 40
3.0
 40
3.0
 40
4.0
 40
4.0
 40
4.0
 40
5.0
 40
5.0
 40
5.0
 40
6.0
 40
6.0
 40
6.0
 40
6.0
 10
-10.90321044921874
 20
10.88107571072048
 30
0.0
 10
-10.90321044921874
 20
10.88107571072048
 30
0.0
 10
-10.90321044921874
 20
-10.88107571072048
 30
0.0
 10
-10.90321044921874
 20
-10.88107571072048
 30
0.0
 10
-10.90321044921874
 20
-10.88107571072048
 30
0.0
 10
1.752692328559025
 20
-10.88107571072048
 30
0.0
 10
1.752692328559025
 20
-10.88107571072048
 30
0.0
 10
3.280592176649305
 20
-10.88107571072048
 30
0.0
 10
10.90321044921874
 20
-10.32383151584201
 30
0.0
 10
10.90321044921874
 20
0.6792867024739583
 30
0.0
 10
10.90321044921874
 20
10.61700914171006
 30
0.0
 10
2.773129611545138
 20
10.87952541775172
 30
0.0
 10
2.691136338975693
 20
10.88090345594618
 30
0.0
 10
2.691136338975693
 20
10.88090345594618
 30
0.0
 10
-9.903099229600693
 20
10.88107571072048
 30
0.0
 10
-9.903099229600693
 20
10.88107571072048
 30
0.0
 10
-9.903099229600693
 20
10.88107571072048
 30
0.0
 10
-10.90321044921874
 20
10.88107571072048
 30
0.0
 10
-10.90321044921874
 20
10.88107571072048
 30
0.0
  0
SPLINE
  5
692
330
690
100
AcDbEntity
  8
LAYER_1
 62
     7
100
AcDbSpline
210
0.0
220
0.0
230
1.0
 70
    11
 71
     3
 72
    20
 73
    16
 74
     0
 42
0.0000000001
 43
0.0000000001
 40
0.0
 40
0.0
 40
0.0
 40
0.0
 40
1.0
 40
1.0
 40
1.0
 40
2.0
 40
2.0
 40
2.0
 40
3.0
 40
3.0
 40
3.0
 40
4.0
 40
4.0
 40
4.0
 40
5.0
 40
5.0
 40
5.0
 40
5.0
 10
2.672877332899305
 20
8.881197781032986
 30
0.0
 10
2.905421278211805
 20
8.874307590060762
 30
0.0
 10
8.902988009982637
 20
8.616442192925347
 30
0.0
 10
8.902988009982637
 20
0.6792867024739583
 30
0.0
 10
8.902988009982637
 20
-8.191661919487842
 30
0.0
 10
3.430109320746526
 20
-8.881197781032986
 30
0.0
 10
1.752692328559025
 20
-8.881197781032986
 30
0.0
 10
1.752692328559025
 20
-8.881197781032986
 30
0.0
 10
-7.231427680121528
 20
-8.881197781032986
 30
0.0
 10
-8.902988009982637
 20
-8.881197781032986
 30
0.0
 10
-8.902988009982637
 20
-7.174497477213541
 30
0.0
 10
-8.902988009982637
 20
7.174497477213541
 30
0.0
 10
-8.902988009982637
 20
8.881197781032986
 30
0.0
 10
-7.208690049913191
 20
8.881197781032986
 30
0.0
 10
2.672877332899305
 20
8.881197781032986
 30
0.0
 10
2.672877332899305
 20
8.881197781032986
 30
0.0
  0
ENDBLK
  5
694
330
690
100
AcDbEntity
  8
0
100
AcDbBlockEnd
  0
BLOCK
  5
698
330
695
100
AcDbEntity
  8
0
 62
     7
100
AcDbBlockBegin
  2
AI9-BLK13
 70
     0
 10
0.0
 20
0.0
 30
0.0
  3
AI9-BLK13
  1

  0
LWPOLYLINE
  5
696
330
695
100
AcDbEntity
  8
LAYER_1
 62
     7
100
AcDbPolyline
 90
       12
 70
     1
 43
0.0
 10
-3.792361111111107
 20
10.7376736111111
 10
-2.469444444444443
 20
10.7376736111111
 10
-2.469444444444443
 20
1.874131944444444
 10
2.469444444444443
 20
1.874131944444444
 10
2.469444444444443
 20
10.7376736111111
 10
3.792361111111107
 20
10.7376736111111
 10
3.792361111111107
 20
-10.7376736111111
 10
2.469444444444443
 20
-10.7376736111111
 10
2.469444444444443
 20
-0.6835069444444444
 10
-2.469444444444443
 20
-0.6835069444444444
 10
-2.469444444444443
 20
-10.7376736111111
 10
-3.792361111111107
 20
-10.7376736111111
  0
HATCH
  5
697
330
695
100
AcDbEntity
  8
LAYER_1
 62
     7
100
AcDbHatch
 10
0.0
 20
0.0
 30
0.0
210
0.0
220
0.0
230
1.0
  2
SOLID
 70
     1
 71
     0
 91
        1
 92
        3
 72
     0
 73
     1
 93
       12
 10
-3.792361111111107
 20
10.7376736111111
 10
-2.469444444444443
 20
10.7376736111111
 10
-2.469444444444443
 20
1.874131944444444
 10
2.469444444444443
 20
1.874131944444444
 10
2.469444444444443
 20
10.7376736111111
 10
3.792361111111107
 20
10.7376736111111
 10
3.792361111111107
 20
-10.7376736111111
 10
2.469444444444443
 20
-10.7376736111111
 10
2.469444444444443
 20
-0.6835069444444444
 10
-2.469444444444443
 20
-0.6835069444444444
 10
-2.469444444444443
 20
-10.7376736111111
 10
-3.792361111111107
 20
-10.7376736111111
 97
        0
 75
     2
 76
     1
 98
        1
 10
0.0
 20
0.0
  0
ENDBLK
  5
699
330
695
100
AcDbEntity
  8
0
100
AcDbBlockEnd
  0
BLOCK
  5
69D
330
69A
100
AcDbEntity
  8
0
 62
     7
100
AcDbBlockBegin
  2
AI9-BLK11
 70
     0
 10
0.0
 20
0.0
 30
0.0
  3
AI9-BLK11
  1

  0
SPLINE
  5
69B
330
69A
100
AcDbEntity
  8
LAYER_1
 62
     7
100
AcDbSpline
210
0.0
220
0.0
230
1.0
 70
    11
 71
     3
 72
    26
 73
    22
 74
     0
 42
0.0000000001
 43
0.0000000001
 40
0.0
 40
0.0
 40
0.0
 40
0.0
 40
1.0
 40
1.0
 40
1.0
 40
2.0
 40
2.0
 40
2.0
 40
3.0
 40
3.0
 40
3.0
 40
4.0
 40
4.0
 40
4.0
 40
5.0
 40
5.0
 40
5.0
 40
6.0
 40
6.0
 40
6.0
 40
7.0
 40
7.0
 40
7.0
 40
7.0
 10
-2.645833333333333
 20
0.9039930555555551
 30
0.0
 10
-2.645833333333333
 20
0.9039930555555551
 30
0.0
 10
-2.645833333333333
 20
8.180034722222217
 30
0.0
 10
-2.645833333333333
 20
8.180034722222217
 30
0.0
 10
-2.645833333333333
 20
8.180034722222217
 30
0.0
 10
0.465087890625
 20
8.180034722222217
 30
0.0
 10
0.465087890625
 20
8.180034722222217
 30
0.0
 10
0.9026150173611108
 20
8.180034722222217
 30
0.0
 10
1.24988064236111
 20
8.034651692708331
 30
0.0
 10
1.506884765625
 20
7.745263671874997
 30
0.0
 10
2.001600477430554
 20
7.194048394097221
 30
0.0
 10
2.248958333333332
 20
6.160519748263887
 30
0.0
 10
2.248958333333332
 20
4.643299696180553
 30
0.0
 10
2.248958333333332
 20
3.232188585069443
 30
0.0
 10
2.072569444444444
 20
2.256537543402775
 30
0.0
 10
1.720480685763888
 20
1.715657552083333
 30
0.0
 10
1.368391927083333
 20
1.174088541666665
 30
0.0
 10
0.8929687499999998
 20
0.9039930555555551
 30
0.0
 10
0.2942111545138888
 20
0.9039930555555551
 30
0.0
 10
0.2942111545138888
 20
0.9039930555555551
 30
0.0
 10
-2.645833333333333
 20
0.9039930555555551
 30
0.0
 10
-2.645833333333333
 20
0.9039930555555551
 30
0.0
  0
SPLINE
  5
69C
330
69A
100
AcDbEntity
  8
LAYER_1
 62
     7
100
AcDbSpline
210
0.0
220
0.0
230
1.0
 70
    11
 71
     3
 72
    68
 73
    64
 74
     0
 42
0.0000000001
 43
0.0000000001
 40
0.0
 40
0.0
 40
0.0
 40
0.0
 40
1.0
 40
1.0
 40
1.0
 40
2.0
 40
2.0
 40
2.0
 40
3.0
 40
3.0
 40
3.0
 40
4.0
 40
4.0
 40
4.0
 40
5.0
 40
5.0
 40
5.0
 40
6.0
 40
6.0
 40
6.0
 40
7.0
 40
7.0
 40
7.0
 40
8.0
 40
8.0
 40
8.0
 40
9.0
 40
9.0
 40
9.0
 40
10.0
 40
10.0
 40
10.0
 40
11.0
 40
11.0
 40
11.0
 40
12.0
 40
12.0
 40
12.0
 40
13.0
 40
13.0
 40
13.0
 40
14.0
 40
14.0
 40
14.0
 40
15.0
 40
15.0
 40
15.0
 40
16.0
 40
16.0
 40
16.0
 40
17.0
 40
17.0
 40
17.0
 40
18.0
 40
18.0
 40
18.0
 40
19.0
 40
19.0
 40
19.0
 40
20.0
 40
20.0
 40
20.0
 40
21.0
 40
21.0
 40
21.0
 40
21.0
 10
-3.968749999999998
 20
-10.7376736111111
 30
0.0
 10
-3.968749999999998
 20
-10.7376736111111
 30
0.0
 10
-2.645833333333333
 20
-10.7376736111111
 30
0.0
 10
-2.645833333333333
 20
-10.7376736111111
 30
0.0
 10
-2.645833333333333
 20
-10.7376736111111
 30
0.0
 10
-2.645833333333333
 20
-1.521354166666665
 30
0.0
 10
-2.645833333333333
 20
-1.521354166666665
 30
0.0
 10
-2.645833333333333
 20
-1.521354166666665
 30
0.0
 10
0.2390896267361111
 20
-1.521354166666665
 30
0.0
 10
0.2390896267361111
 20
-1.521354166666665
 30
0.0
 10
0.7599880642361111
 20
-1.521354166666665
 30
0.0
 10
1.143771701388887
 20
-1.65295681423611
 30
0.0
 10
1.390440538194444
 20
-1.916162109374999
 30
0.0
 10
1.816254340277773
 20
-2.39434136284722
 30
0.0
 10
2.04363064236111
 20
-3.335541449652775
 30
0.0
 10
2.072569444444444
 20
-4.739762369791666
 30
0.0
 10
2.072569444444444
 20
-4.739762369791666
 30
0.0
 10
2.160763888888888
 20
-8.324039713541665
 30
0.0
 10
2.160763888888888
 20
-8.324039713541665
 30
0.0
 10
2.18005642361111
 20
-9.163264973958332
 30
0.0
 10
2.202794053819443
 20
-9.728949652777775
 30
0.0
 10
2.227598741319444
 20
-10.02109374999998
 30
0.0
 10
2.252403428819443
 20
-10.31392686631944
 30
0.0
 10
2.28892144097222
 20
-10.55301649305555
 30
0.0
 10
2.33853081597222
 20
-10.7376736111111
 30
0.0
 10
2.33853081597222
 20
-10.7376736111111
 30
0.0
 10
3.968749999999998
 20
-10.7376736111111
 30
0.0
 10
3.968749999999998
 20
-10.7376736111111
 30
0.0
 10
3.968749999999998
 20
-10.7376736111111
 30
0.0
 10
3.968749999999998
 20
-10.25260416666666
 30
0.0
 10
3.968749999999998
 20
-10.25260416666666
 30
0.0
 10
3.766867404513888
 20
-10.05830078125
 30
0.0
 10
3.625618489583333
 20
-9.621462673611112
 30
0.0
 10
3.545692274305555
 20
-8.942089843749997
 30
0.0
 10
3.49470486111111
 20
-8.543836805555555
 30
0.0
 10
3.459564887152775
 20
-7.937499999999999
 30
0.0
 10
3.439583333333333
 20
-7.121701388888887
 30
0.0
 10
3.439583333333333
 20
-7.121701388888887
 30
0.0
 10
3.395486111111106
 20
-4.232644314236106
 30
0.0
 10
3.395486111111106
 20
-4.232644314236106
 30
0.0
 10
3.375504557291666
 20
-2.981385633680555
 30
0.0
 10
3.26870659722222
 20
-2.077392578125
 30
0.0
 10
3.075781249999999
 20
-1.522043185763888
 30
0.0
 10
2.882166883680555
 20
-0.9666937934027776
 30
0.0
 10
2.592089843749999
 20
-0.5188313802083333
 30
0.0
 10
2.204861111111104
 20
-0.1770779079861111
 30
0.0
 10
2.63618706597222
 20
0.3197048611111111
 30
0.0
 10
2.971739366319443
 20
0.9770290798611107
 30
0.0
 10
3.211518012152775
 20
1.79558376736111
 30
0.0
 10
3.451296657986107
 20
2.613449435763888
 30
0.0
 10
3.571874999999999
 20
3.66558159722222
 30
0.0
 10
3.571874999999999
 20
4.951291232638888
 30
0.0
 10
3.571874999999999
 20
7.415912543402777
 30
0.0
 10
3.124701605902775
 20
9.106076388888887
 30
0.0
 10
2.231043836805555
 20
10.02178276909722
 30
0.0
 10
1.759754774305553
 20
10.498583984375
 30
0.0
 10
1.163753255208332
 20
10.7376736111111
 30
0.0
 10
0.443039279513889
 20
10.7376736111111
 30
0.0
 10
0.443039279513889
 20
10.7376736111111
 30
0.0
 10
-3.968749999999998
 20
10.7376736111111
 30
0.0
 10
-3.968749999999998
 20
10.7376736111111
 30
0.0
 10
-3.968749999999998
 20
10.7376736111111
 30
0.0
 10
-3.968749999999998
 20
-10.7376736111111
 30
0.0
 10
-3.968749999999998
 20
-10.7376736111111
 30
0.0
  0
ENDBLK
  5
69E
330
69A
100
AcDbEntity
  8
0
100
AcDbBlockEnd
  0
BLOCK
  5
6A1
330
69F
100
AcDbEntity
  8
0
 62
     7
100
AcDbBlockBegin
  2
AI9-BLK10
 70
     0
 10
0.0
 20
0.0
 30
0.0
  3
AI9-BLK10
  1

  0
SPLINE
  5
6A0
330
69F
100
AcDbEntity
  8
LAYER_1
 62
     7
100
AcDbSpline
210
0.0
220
0.0
230
1.0
 70
    11
 71
     3
 72
    59
 73
    55
 74
     0
 42
0.0000000001
 43
0.0000000001
 40
0.0
 40
0.0
 40
0.0
 40
0.0
 40
1.0
 40
1.0
 40
1.0
 40
2.0
 40
2.0
 40
2.0
 40
3.0
 40
3.0
 40
3.0
 40
4.0
 40
4.0
 40
4.0
 40
5.0
 40
5.0
 40
5.0
 40
6.0
 40
6.0
 40
6.0
 40
7.0
 40
7.0
 40
7.0
 40
8.0
 40
8.0
 40
8.0
 40
9.0
 40
9.0
 40
9.0
 40
10.0
 40
10.0
 40
10.0
 40
11.0
 40
11.0
 40
11.0
 40
12.0
 40
12.0
 40
12.0
 40
13.0
 40
13.0
 40
13.0
 40
14.0
 40
14.0
 40
14.0
 40
15.0
 40
15.0
 40
15.0
 40
16.0
 40
16.0
 40
16.0
 40
17.0
 40
17.0
 40
17.0
 40
18.0
 40
18.0
 40
18.0
 40
18.0
 10
-4.652256944444443
 20
10.7376736111111
 30
0.0
 10
-4.652256944444443
 20
10.7376736111111
 30
0.0
 10
-2.798795572916666
 20
10.7376736111111
 30
0.0
 10
-2.798795572916666
 20
10.7376736111111
 30
0.0
 10
-2.798795572916666
 20
10.7376736111111
 30
0.0
 10
0.0
 20
-7.419357638888887
 30
0.0
 10
0.0
 20
-7.419357638888887
 30
0.0
 10
0.0
 20
-7.419357638888887
 30
0.0
 10
2.793283420138888
 20
10.7376736111111
 30
0.0
 10
2.793283420138888
 20
10.7376736111111
 30
0.0
 10
2.793283420138888
 20
10.7376736111111
 30
0.0
 10
4.652256944444443
 20
10.7376736111111
 30
0.0
 10
4.652256944444443
 20
10.7376736111111
 30
0.0
 10
4.652256944444443
 20
10.7376736111111
 30
0.0
 10
4.652256944444443
 20
-10.7376736111111
 30
0.0
 10
4.652256944444443
 20
-10.7376736111111
 30
0.0
 10
4.652256944444443
 20
-10.7376736111111
 30
0.0
 10
3.41753472222222
 20
-10.7376736111111
 30
0.0
 10
3.41753472222222
 20
-10.7376736111111
 30
0.0
 10
3.41753472222222
 20
-10.7376736111111
 30
0.0
 10
3.41753472222222
 20
1.936832682291665
 30
0.0
 10
3.41753472222222
 20
1.936832682291665
 30
0.0
 10
3.41753472222222
 20
2.375048828124999
 30
0.0
 10
3.424424913194443
 20
3.101274956597221
 30
0.0
 10
3.439583333333333
 20
4.11482204861111
 30
0.0
 10
3.454052734374998
 20
5.128369140624998
 30
0.0
 10
3.461631944444443
 20
6.214952256944441
 30
0.0
 10
3.461631944444443
 20
7.375260416666666
 30
0.0
 10
3.461631944444443
 20
7.375260416666666
 30
0.0
 10
0.6538791232638889
 20
-10.7376736111111
 30
0.0
 10
0.6538791232638889
 20
-10.7376736111111
 30
0.0
 10
0.6538791232638889
 20
-10.7376736111111
 30
0.0
 10
-0.6628363715277778
 20
-10.7376736111111
 30
0.0
 10
-0.6628363715277778
 20
-10.7376736111111
 30
0.0
 10
-0.6628363715277778
 20
-10.7376736111111
 30
0.0
 10
-3.461631944444443
 20
7.375260416666666
 30
0.0
 10
-3.461631944444443
 20
7.375260416666666
 30
0.0
 10
-3.461631944444443
 20
7.375260416666666
 30
0.0
 10
-3.461631944444443
 20
6.717247178819441
 30
0.0
 10
-3.461631944444443
 20
6.717247178819441
 30
0.0
 10
-3.461631944444443
 20
6.190836588541666
 30
0.0
 10
-3.45474175347222
 20
5.389507378472222
 30
0.0
 10
-3.439583333333333
 20
4.312570529513888
 30
0.0
 10
-3.425113932291666
 20
3.235633680555555
 30
0.0
 10
-3.41753472222222
 20
2.44395073784722
 30
0.0
 10
-3.41753472222222
 20
1.936832682291665
 30
0.0
 10
-3.41753472222222
 20
1.936832682291665
 30
0.0
 10
-3.41753472222222
 20
-10.7376736111111
 30
0.0
 10
-3.41753472222222
 20
-10.7376736111111
 30
0.0
 10
-3.41753472222222
 20
-10.7376736111111
 30
0.0
 10
-4.652256944444443
 20
-10.7376736111111
 30
0.0
 10
-4.652256944444443
 20
-10.7376736111111
 30
0.0
 10
-4.652256944444443
 20
-10.7376736111111
 30
0.0
 10
-4.652256944444443
 20
10.7376736111111
 30
0.0
 10
-4.652256944444443
 20
10.7376736111111
 30
0.0
  0
ENDBLK
  5
6A2
330
69F
100
AcDbEntity
  8
0
100
AcDbBlockEnd
  0
BLOCK
  5
6A6
330
6A3
100
AcDbEntity
  8
0
 62
     7
100
AcDbBlockBegin
  2
AI9-BLK9
 70
     0
 10
0.0
 20
0.0
 30
0.0
  3
AI9-BLK9
  1

  0
SPLINE
  5
6A4
330
6A3
100
AcDbEntity
  8
LAYER_1
 62
     7
100
AcDbSpline
210
0.0
220
0.0
230
1.0
 70
    11
 71
     3
 72
    29
 73
    25
 74
     0
 42
0.0000000001
 43
0.0000000001
 40
0.0
 40
0.0
 40
0.0
 40
0.0
 40
1.0
 40
1.0
 40
1.0
 40
2.0
 40
2.0
 40
2.0
 40
3.0
 40
3.0
 40
3.0
 40
4.0
 40
4.0
 40
4.0
 40
5.0
 40
5.0
 40
5.0
 40
6.0
 40
6.0
 40
6.0
 40
7.0
 40
7.0
 40
7.0
 40
8.0
 40
8.0
 40
8.0
 40
8.0
 10
0.0668348524305556
 20
-8.753298611111111
 30
0.0
 10
-0.9067491319444444
 20
-8.753298611111111
 30
0.0
 10
-1.60954861111111
 20
-7.936810980902778
 30
0.0
 10
-2.041563585069444
 20
-6.30383572048611
 30
0.0
 10
-2.474267578124999
 20
-4.670860460069443
 30
0.0
 10
-2.689930555555555
 20
-2.664436848958333
 30
0.0
 10
-2.689930555555555
 20
-0.28525390625
 30
0.0
 10
-2.689930555555555
 20
2.68855251736111
 30
0.0
 10
-2.439127604166666
 20
4.938199869791666
 30
0.0
 10
-1.937521701388888
 20
6.464377170138886
 30
0.0
 10
-1.43591579861111
 20
7.989865451388887
 30
0.0
 10
-0.7827256944444444
 20
8.753298611111111
 30
0.0
 10
0.0220486111111111
 20
8.753298611111111
 30
0.0
 10
0.8468044704861108
 20
8.753298611111111
 30
0.0
 10
1.49792751736111
 20
7.982975260416663
 30
0.0
 10
1.974728732638888
 20
6.442328559027776
 30
0.0
 10
2.451529947916665
 20
4.901681857638886
 30
0.0
 10
2.689930555555555
 20
2.868386501736111
 30
0.0
 10
2.689930555555555
 20
0.3438205295138888
 30
0.0
 10
2.689930555555555
 20
-2.045697699652774
 30
0.0
 10
2.483224826388884
 20
-4.15891927083333
 30
0.0
 10
2.071191406249999
 20
-5.996533203124998
 30
0.0
 10
1.65915798611111
 20
-7.834836154513887
 30
0.0
 10
0.9908094618055557
 20
-8.753298611111111
 30
0.0
 10
0.0668348524305556
 20
-8.753298611111111
 30
0.0
  0
SPLINE
  5
6A5
330
6A3
100
AcDbEntity
  8
LAYER_1
 62
     7
100
AcDbSpline
210
0.0
220
0.0
230
1.0
 70
    11
 71
     3
 72
    29
 73
    25
 74
     0
 42
0.0000000001
 43
0.0000000001
 40
0.0
 40
0.0
 40
0.0
 40
0.0
 40
1.0
 40
1.0
 40
1.0
 40
2.0
 40
2.0
 40
2.0
 40
3.0
 40
3.0
 40
3.0
 40
4.0
 40
4.0
 40
4.0
 40
5.0
 40
5.0
 40
5.0
 40
6.0
 40
6.0
 40
6.0
 40
7.0
 40
7.0
 40
7.0
 40
8.0
 40
8.0
 40
8.0
 40
8.0
 10
-0.0289388020833333
 20
11.35503472222222
 30
0.0
 10
-1.317404513888887
 20
11.35503472222222
 30
0.0
 10
-2.28892144097222
 20
10.02798394097222
 30
0.0
 10
-2.94280056423611
 20
7.374571397569441
 30
0.0
 10
-3.450607638888888
 20
5.30613606770833
 30
0.0
 10
-3.704166666666666
 20
2.81877712673611
 30
0.0
 10
-3.704166666666666
 20
-0.0881944444444445
 30
0.0
 10
-3.704166666666666
 20
-3.307291666666666
 30
0.0
 10
-3.406510416666666
 20
-5.97035047743055
 30
0.0
 10
-2.811197916666666
 20
-8.077370876736106
 30
0.0
 10
-2.147672526041664
 20
-10.26293945312499
 30
0.0
 10
-1.229899088541666
 20
-11.35503472222222
 30
0.0
 10
-0.0585666232638889
 20
-11.35503472222222
 30
0.0
 10
1.20027126736111
 20
-11.35503472222222
 30
0.0
 10
2.166276041666665
 20
-10.10653211805555
 30
0.0
 10
2.840136718749998
 20
-7.609526909722221
 30
0.0
 10
3.416156684027776
 20
-5.483213975694441
 30
0.0
 10
3.704166666666666
 20
-2.814643012152775
 30
0.0
 10
3.704166666666666
 20
0.3948079427083333
 30
0.0
 10
3.704166666666666
 20
3.360346137152776
 30
0.0
 10
3.449918619791666
 20
5.793961588541666
 30
0.0
 10
2.94280056423611
 20
7.696343315972222
 30
0.0
 10
2.298567708333333
 20
10.13547092013888
 30
0.0
 10
1.307758246527777
 20
11.35503472222222
 30
0.0
 10
-0.0289388020833333
 20
11.35503472222222
 30
0.0
  0
ENDBLK
  5
6A7
330
6A3
100
AcDbEntity
  8
0
100
AcDbBlockEnd
  0
BLOCK
  5
6AB
330
6A8
100
AcDbEntity
  8
0
 62
     7
100
AcDbBlockBegin
  2
AI9-BLK8
 70
     0
 10
0.0
 20
0.0
 30
0.0
  3
AI9-BLK8
  1

  0
LWPOLYLINE
  5
6A9
330
6A8
100
AcDbEntity
  8
LAYER_1
 62
     7
100
AcDbPolyline
 90
       10
 70
     1
 43
0.0
 10
-3.792361111111107
 20
10.7376736111111
 10
-2.268939887152773
 20
10.7376736111111
 10
2.557638888888888
 20
-6.505718315972222
 10
2.557638888888888
 20
10.7376736111111
 10
3.792361111111107
 20
10.7376736111111
 10
3.792361111111107
 20
-10.7376736111111
 10
2.32612847222222
 20
-10.7376736111111
 10
-2.557638888888888
 20
6.549815538194441
 10
-2.557638888888888
 20
-10.7376736111111
 10
-3.792361111111107
 20
-10.7376736111111
  0
HATCH
  5
6AA
330
6A8
100
AcDbEntity
  8
LAYER_1
 62
     7
100
AcDbHatch
 10
0.0
 20
0.0
 30
0.0
210
0.0
220
0.0
230
1.0
  2
SOLID
 70
     1
 71
     0
 91
        1
 92
        3
 72
     0
 73
     1
 93
       10
 10
-3.792361111111107
 20
10.7376736111111
 10
-2.268939887152773
 20
10.7376736111111
 10
2.557638888888888
 20
-6.505718315972222
 10
2.557638888888888
 20
10.7376736111111
 10
3.792361111111107
 20
10.7376736111111
 10
3.792361111111107
 20
-10.7376736111111
 10
2.32612847222222
 20
-10.7376736111111
 10
-2.557638888888888
 20
6.549815538194441
 10
-2.557638888888888
 20
-10.7376736111111
 10
-3.792361111111107
 20
-10.7376736111111
 97
        0
 75
     2
 76
     1
 98
        1
 10
0.0
 20
0.0
  0
ENDBLK
  5
6AC
330
6A8
100
AcDbEntity
  8
0
100
AcDbBlockEnd
  0
BLOCK
  5
6B0
330
6AD
100
AcDbEntity
  8
0
 62
     7
100
AcDbBlockBegin
  2
AI9-BLK7
 70
     0
 10
0.0
 20
0.0
 30
0.0
  3
AI9-BLK7
  1

  0
LWPOLYLINE
  5
6AE
330
6AD
100
AcDbEntity
  8
LAYER_1
 62
     7
100
AcDbPolyline
 90
        4
 70
     1
 43
0.0
 10
-0.6614583333333333
 20
10.7376736111111
 10
0.6614583333333333
 20
10.7376736111111
 10
0.6614583333333333
 20
-10.7376736111111
 10
-0.6614583333333333
 20
-10.7376736111111
  0
HATCH
  5
6AF
330
6AD
100
AcDbEntity
  8
LAYER_1
 62
     7
100
AcDbHatch
 10
0.0
 20
0.0
 30
0.0
210
0.0
220
0.0
230
1.0
  2
SOLID
 70
     1
 71
     0
 91
        1
 92
        3
 72
     0
 73
     1
 93
        4
 10
-0.6614583333333333
 20
10.7376736111111
 10
0.6614583333333333
 20
10.7376736111111
 10
0.6614583333333333
 20
-10.7376736111111
 10
-0.6614583333333333
 20
-10.7376736111111
 97
        0
 75
     2
 76
     1
 98
        1
 10
0.0
 20
0.0
  0
ENDBLK
  5
6B1
330
6AD
100
AcDbEntity
  8
0
100
AcDbBlockEnd
  0
BLOCK
  5
6B4
330
6B2
100
AcDbEntity
  8
0
 62
     7
100
AcDbBlockBegin
  2
AI9-BLK6
 70
     0
 10
0.0
 20
0.0
 30
0.0
  3
AI9-BLK6
  1

  0
SPLINE
  5
6B3
330
6B2
100
AcDbEntity
  8
LAYER_1
 62
     7
100
AcDbSpline
210
0.0
220
0.0
230
1.0
 70
    11
 71
     3
 72
    59
 73
    55
 74
     0
 42
0.0000000001
 43
0.0000000001
 40
0.0
 40
0.0
 40
0.0
 40
0.0
 40
1.0
 40
1.0
 40
1.0
 40
2.0
 40
2.0
 40
2.0
 40
3.0
 40
3.0
 40
3.0
 40
4.0
 40
4.0
 40
4.0
 40
5.0
 40
5.0
 40
5.0
 40
6.0
 40
6.0
 40
6.0
 40
7.0
 40
7.0
 40
7.0
 40
8.0
 40
8.0
 40
8.0
 40
9.0
 40
9.0
 40
9.0
 40
10.0
 40
10.0
 40
10.0
 40
11.0
 40
11.0
 40
11.0
 40
12.0
 40
12.0
 40
12.0
 40
13.0
 40
13.0
 40
13.0
 40
14.0
 40
14.0
 40
14.0
 40
15.0
 40
15.0
 40
15.0
 40
16.0
 40
16.0
 40
16.0
 40
17.0
 40
17.0
 40
17.0
 40
18.0
 40
18.0
 40
18.0
 40
18.0
 10
3.062689887152775
 20
9.168088107638887
 30
0.0
 10
3.735172526041666
 20
7.739062499999997
 30
0.0
 10
4.110687934027776
 20
6.116422526041666
 30
0.0
 10
4.189236111111108
 20
4.299479166666666
 30
0.0
 10
4.189236111111108
 20
4.299479166666666
 30
0.0
 10
2.866319444444443
 20
4.299479166666666
 30
0.0
 10
2.866319444444443
 20
4.299479166666666
 30
0.0
 10
2.720936414930555
 20
5.667871093749997
 30
0.0
 10
2.435682508680555
 20
6.752387152777776
 30
0.0
 10
2.009868706597218
 20
7.553027343749997
 30
0.0
 10
1.584054904513888
 20
8.352978515624997
 30
0.0
 10
0.9839192708333332
 20
8.753298611111111
 30
0.0
 10
0.2101508246527778
 20
8.753298611111111
 30
0.0
 10
-0.7386284722222222
 20
8.753298611111111
 30
0.0
 10
-1.503439670138888
 20
8.010536024305555
 30
0.0
 10
-2.083593749999999
 20
6.526388888888886
 30
0.0
 10
-2.664436848958333
 20
5.042241753472221
 30
0.0
 10
-2.954513888888888
 20
2.767100694444443
 30
0.0
 10
-2.954513888888888
 20
-0.2990342881944444
 30
0.0
 10
-2.954513888888888
 20
-2.811197916666666
 30
0.0
 10
-2.693375651041666
 20
-4.847938368055555
 30
0.0
 10
-2.17041015625
 20
-6.409944661458332
 30
0.0
 10
-1.648133680555553
 20
-7.972639973958332
 30
0.0
 10
-0.8640299479166666
 20
-8.753298611111111
 30
0.0
 10
0.1812120225694444
 20
-8.753298611111111
 30
0.0
 10
1.138948567708333
 20
-8.753298611111111
 30
0.0
 10
1.865174696180553
 20
-7.927853732638887
 30
0.0
 10
2.359201388888884
 20
-6.275585937499998
 30
0.0
 10
2.62998589409722
 20
-5.406043836805555
 30
0.0
 10
2.828423394097221
 20
-4.262272135416666
 30
0.0
 10
2.954513888888888
 20
-2.844270833333331
 30
0.0
 10
2.954513888888888
 20
-2.844270833333331
 30
0.0
 10
4.277430555555555
 20
-2.844270833333331
 30
0.0
 10
4.277430555555555
 20
-2.844270833333331
 30
0.0
 10
4.169943576388888
 20
-5.109765624999996
 30
0.0
 10
3.795117187499998
 20
-7.009391276041665
 30
0.0
 10
3.151573350694443
 20
-8.542458767361106
 30
0.0
 10
2.381249999999999
 20
-10.38834092881943
 30
0.0
 10
1.347721354166665
 20
-11.3109375
 30
0.0
 10
0.0509874131944445
 20
-11.3109375
 30
0.0
 10
-1.07004665798611
 20
-11.3109375
 30
0.0
 10
-2.010557725694444
 20
-10.55577256944443
 30
0.0
 10
-2.771234809027776
 20
-9.04475368923611
 30
0.0
 10
-3.775824652777775
 20
-7.046598307291666
 30
0.0
 10
-4.277430555555555
 20
-3.961170789930555
 30
0.0
 10
-4.277430555555555
 20
0.2115288628472222
 30
0.0
 10
-4.277430555555555
 20
3.379638671874998
 30
0.0
 10
-3.902604166666666
 20
5.977929687499997
 30
0.0
 10
-3.151573350694443
 20
8.005712890624996
 30
0.0
 10
-2.333018663194443
 20
10.20919596354165
 30
0.0
 10
-1.20647243923611
 20
11.3109375
 30
0.0
 10
0.2266872829861111
 20
11.3109375
 30
0.0
 10
1.444873046875
 20
11.3109375
 30
0.0
 10
2.390207248263884
 20
10.59642469618055
 30
0.0
 10
3.062689887152775
 20
9.168088107638887
 30
0.0
  0
ENDBLK
  5
6B5
330
6B2
100
AcDbEntity
  8
0
100
AcDbBlockEnd
  0
BLOCK
  5
6B9
330
6B6
100
AcDbEntity
  8
0
 62
     7
100
AcDbBlockBegin
  2
AI9-BLK5
 70
     0
 10
0.0
 20
0.0
 30
0.0
  3
AI9-BLK5
  1

  0
SPLINE
  5
6B7
330
6B6
100
AcDbEntity
  8
LAYER_1
 62
     7
100
AcDbSpline
210
0.0
220
0.0
230
1.0
 70
    11
 71
     3
 72
    32
 73
    28
 74
     0
 42
0.0000000001
 43
0.0000000001
 40
0.0
 40
0.0
 40
0.0
 40
0.0
 40
1.0
 40
1.0
 40
1.0
 40
2.0
 40
2.0
 40
2.0
 40
3.0
 40
3.0
 40
3.0
 40
4.0
 40
4.0
 40
4.0
 40
5.0
 40
5.0
 40
5.0
 40
6.0
 40
6.0
 40
6.0
 40
7.0
 40
7.0
 40
7.0
 40
8.0
 40
8.0
 40
8.0
 40
9.0
 40
9.0
 40
9.0
 40
9.0
 10
-2.62378472222222
 20
-8.268229166666666
 30
0.0
 10
-2.62378472222222
 20
-8.268229166666666
 30
0.0
 10
-2.62378472222222
 20
8.180034722222217
 30
0.0
 10
-2.62378472222222
 20
8.180034722222217
 30
0.0
 10
-2.62378472222222
 20
8.180034722222217
 30
0.0
 10
-0.3376193576388888
 20
8.180034722222217
 30
0.0
 10
-0.3376193576388888
 20
8.180034722222217
 30
0.0
 10
0.6972873263888888
 20
8.180034722222217
 30
0.0
 10
1.449007161458333
 20
7.445540364583332
 30
0.0
 10
1.918918185763885
 20
5.977929687499997
 30
0.0
 10
2.388829210069443
 20
4.510319010416666
 30
0.0
 10
2.62378472222222
 20
2.449462890624999
 30
0.0
 10
2.62378472222222
 20
-0.204638671875
 30
0.0
 10
2.62378472222222
 20
-0.8950358072916666
 30
0.0
 10
2.590022786458332
 20
-1.643310546874999
 30
0.0
 10
2.523187934027772
 20
-2.45015190972222
 30
0.0
 10
2.408121744791666
 20
-3.80200737847222
 30
0.0
 10
2.226220703124999
 20
-4.909950086805555
 30
0.0
 10
1.976795789930553
 20
-5.774669053819441
 30
0.0
 10
1.659847005208333
 20
-6.853672960069442
 30
0.0
 10
1.252636718749998
 20
-7.583344184027778
 30
0.0
 10
0.7544759114583333
 20
-7.962304687499997
 30
0.0
 10
0.4664659288194444
 20
-8.166254340277777
 30
0.0
 10
0.1074869791666666
 20
-8.268229166666666
 30
0.0
 10
-0.3231499565972222
 20
-8.268229166666666
 30
0.0
 10
-0.3231499565972222
 20
-8.268229166666666
 30
0.0
 10
-2.62378472222222
 20
-8.268229166666666
 30
0.0
 10
-2.62378472222222
 20
-8.268229166666666
 30
0.0
  0
SPLINE
  5
6B8
330
6B6
100
AcDbEntity
  8
LAYER_1
 62
     7
100
AcDbSpline
210
0.0
220
0.0
230
1.0
 70
    11
 71
     3
 72
    26
 73
    22
 74
     0
 42
0.0000000001
 43
0.0000000001
 40
0.0
 40
0.0
 40
0.0
 40
0.0
 40
1.0
 40
1.0
 40
1.0
 40
2.0
 40
2.0
 40
2.0
 40
3.0
 40
3.0
 40
3.0
 40
4.0
 40
4.0
 40
4.0
 40
5.0
 40
5.0
 40
5.0
 40
6.0
 40
6.0
 40
6.0
 40
7.0
 40
7.0
 40
7.0
 40
7.0
 10
-3.946701388888888
 20
-10.7376736111111
 30
0.0
 10
-3.946701388888888
 20
-10.7376736111111
 30
0.0
 10
-0.0943956163194444
 20
-10.7376736111111
 30
0.0
 10
-0.0943956163194444
 20
-10.7376736111111
 30
0.0
 10
1.546847873263885
 20
-10.7376736111111
 30
0.0
 10
2.705777994791666
 20
-9.11021050347222
 30
0.0
 10
3.381705729166666
 20
-5.854595269097222
 30
0.0
 10
3.757910156249999
 20
-4.01284722222222
 30
0.0
 10
3.946701388888888
 20
-1.951991102430555
 30
0.0
 10
3.946701388888888
 20
0.328662109375
 30
0.0
 10
3.946701388888888
 20
3.281797960069443
 30
0.0
 10
3.622862413194443
 20
5.703700086805552
 30
0.0
 10
2.976562499999998
 20
7.594368489583332
 30
0.0
 10
2.25171440972222
 20
9.689675564236106
 30
0.0
 10
1.233344184027777
 20
10.7376736111111
 30
0.0
 10
-0.0799262152777778
 20
10.7376736111111
 30
0.0
 10
-0.0799262152777778
 20
10.7376736111111
 30
0.0
 10
-3.946701388888888
 20
10.7376736111111
 30
0.0
 10
-3.946701388888888
 20
10.7376736111111
 30
0.0
 10
-3.946701388888888
 20
10.7376736111111
 30
0.0
 10
-3.946701388888888
 20
-10.7376736111111
 30
0.0
 10
-3.946701388888888
 20
-10.7376736111111
 30
0.0
  0
ENDBLK
  5
6BA
330
6B6
100
AcDbEntity
  8
0
100
AcDbBlockEnd
  0
BLOCK
  5
6BE
330
6BB
100
AcDbEntity
  8
0
 62
     7
100
AcDbBlockBegin
  2
AI9-BLK4
 70
     0
 10
0.0
 20
0.0
 30
0.0
  3
AI9-BLK4
  1

  0
SPLINE
  5
6BC
330
6BB
100
AcDbEntity
  8
LAYER_1
 62
     7
100
AcDbSpline
210
0.0
220
0.0
230
1.0
 70
    11
 71
     3
 72
    26
 73
    22
 74
     0
 42
0.0000000001
 43
0.0000000001
 40
0.0
 40
0.0
 40
0.0
 40
0.0
 40
1.0
 40
1.0
 40
1.0
 40
2.0
 40
2.0
 40
2.0
 40
3.0
 40
3.0
 40
3.0
 40
4.0
 40
4.0
 40
4.0
 40
5.0
 40
5.0
 40
5.0
 40
6.0
 40
6.0
 40
6.0
 40
7.0
 40
7.0
 40
7.0
 40
7.0
 10
-2.645833333333333
 20
0.9039930555555551
 30
0.0
 10
-2.645833333333333
 20
0.9039930555555551
 30
0.0
 10
-2.645833333333333
 20
8.180034722222217
 30
0.0
 10
-2.645833333333333
 20
8.180034722222217
 30
0.0
 10
-2.645833333333333
 20
8.180034722222217
 30
0.0
 10
0.465087890625
 20
8.180034722222217
 30
0.0
 10
0.465087890625
 20
8.180034722222217
 30
0.0
 10
0.9026150173611108
 20
8.180034722222217
 30
0.0
 10
1.24988064236111
 20
8.034651692708331
 30
0.0
 10
1.506884765625
 20
7.745263671874997
 30
0.0
 10
2.001600477430554
 20
7.194048394097221
 30
0.0
 10
2.248958333333332
 20
6.160519748263887
 30
0.0
 10
2.248958333333332
 20
4.643299696180553
 30
0.0
 10
2.248958333333332
 20
3.232188585069443
 30
0.0
 10
2.072569444444444
 20
2.256537543402775
 30
0.0
 10
1.720480685763888
 20
1.715657552083333
 30
0.0
 10
1.368391927083333
 20
1.174088541666665
 30
0.0
 10
0.8929687499999998
 20
0.9039930555555551
 30
0.0
 10
0.2942111545138888
 20
0.9039930555555551
 30
0.0
 10
0.2942111545138888
 20
0.9039930555555551
 30
0.0
 10
-2.645833333333333
 20
0.9039930555555551
 30
0.0
 10
-2.645833333333333
 20
0.9039930555555551
 30
0.0
  0
SPLINE
  5
6BD
330
6BB
100
AcDbEntity
  8
LAYER_1
 62
     7
100
AcDbSpline
210
0.0
220
0.0
230
1.0
 70
    11
 71
     3
 72
    68
 73
    64
 74
     0
 42
0.0000000001
 43
0.0000000001
 40
0.0
 40
0.0
 40
0.0
 40
0.0
 40
1.0
 40
1.0
 40
1.0
 40
2.0
 40
2.0
 40
2.0
 40
3.0
 40
3.0
 40
3.0
 40
4.0
 40
4.0
 40
4.0
 40
5.0
 40
5.0
 40
5.0
 40
6.0
 40
6.0
 40
6.0
 40
7.0
 40
7.0
 40
7.0
 40
8.0
 40
8.0
 40
8.0
 40
9.0
 40
9.0
 40
9.0
 40
10.0
 40
10.0
 40
10.0
 40
11.0
 40
11.0
 40
11.0
 40
12.0
 40
12.0
 40
12.0
 40
13.0
 40
13.0
 40
13.0
 40
14.0
 40
14.0
 40
14.0
 40
15.0
 40
15.0
 40
15.0
 40
16.0
 40
16.0
 40
16.0
 40
17.0
 40
17.0
 40
17.0
 40
18.0
 40
18.0
 40
18.0
 40
19.0
 40
19.0
 40
19.0
 40
20.0
 40
20.0
 40
20.0
 40
21.0
 40
21.0
 40
21.0
 40
21.0
 10
-3.968749999999998
 20
-10.7376736111111
 30
0.0
 10
-3.968749999999998
 20
-10.7376736111111
 30
0.0
 10
-2.645833333333333
 20
-10.7376736111111
 30
0.0
 10
-2.645833333333333
 20
-10.7376736111111
 30
0.0
 10
-2.645833333333333
 20
-10.7376736111111
 30
0.0
 10
-2.645833333333333
 20
-1.521354166666665
 30
0.0
 10
-2.645833333333333
 20
-1.521354166666665
 30
0.0
 10
-2.645833333333333
 20
-1.521354166666665
 30
0.0
 10
0.2390896267361111
 20
-1.521354166666665
 30
0.0
 10
0.2390896267361111
 20
-1.521354166666665
 30
0.0
 10
0.7599880642361111
 20
-1.521354166666665
 30
0.0
 10
1.143771701388887
 20
-1.65295681423611
 30
0.0
 10
1.390440538194444
 20
-1.916162109374999
 30
0.0
 10
1.816254340277773
 20
-2.39434136284722
 30
0.0
 10
2.04363064236111
 20
-3.335541449652775
 30
0.0
 10
2.072569444444444
 20
-4.739762369791666
 30
0.0
 10
2.072569444444444
 20
-4.739762369791666
 30
0.0
 10
2.160763888888888
 20
-8.324039713541665
 30
0.0
 10
2.160763888888888
 20
-8.324039713541665
 30
0.0
 10
2.18005642361111
 20
-9.163264973958332
 30
0.0
 10
2.202794053819443
 20
-9.728949652777775
 30
0.0
 10
2.227598741319444
 20
-10.02109374999998
 30
0.0
 10
2.252403428819443
 20
-10.31392686631944
 30
0.0
 10
2.28892144097222
 20
-10.55301649305555
 30
0.0
 10
2.33853081597222
 20
-10.7376736111111
 30
0.0
 10
2.33853081597222
 20
-10.7376736111111
 30
0.0
 10
3.968749999999998
 20
-10.7376736111111
 30
0.0
 10
3.968749999999998
 20
-10.7376736111111
 30
0.0
 10
3.968749999999998
 20
-10.7376736111111
 30
0.0
 10
3.968749999999998
 20
-10.25260416666666
 30
0.0
 10
3.968749999999998
 20
-10.25260416666666
 30
0.0
 10
3.766867404513888
 20
-10.05830078125
 30
0.0
 10
3.625618489583333
 20
-9.621462673611112
 30
0.0
 10
3.545692274305555
 20
-8.942089843749997
 30
0.0
 10
3.49470486111111
 20
-8.543836805555555
 30
0.0
 10
3.459564887152775
 20
-7.937499999999999
 30
0.0
 10
3.439583333333333
 20
-7.121701388888887
 30
0.0
 10
3.439583333333333
 20
-7.121701388888887
 30
0.0
 10
3.395486111111106
 20
-4.232644314236106
 30
0.0
 10
3.395486111111106
 20
-4.232644314236106
 30
0.0
 10
3.375504557291666
 20
-2.981385633680555
 30
0.0
 10
3.26870659722222
 20
-2.077392578125
 30
0.0
 10
3.075781249999999
 20
-1.522043185763888
 30
0.0
 10
2.882166883680555
 20
-0.9666937934027776
 30
0.0
 10
2.592089843749999
 20
-0.5188313802083333
 30
0.0
 10
2.204861111111104
 20
-0.1770779079861111
 30
0.0
 10
2.63618706597222
 20
0.3197048611111111
 30
0.0
 10
2.971739366319443
 20
0.9770290798611107
 30
0.0
 10
3.211518012152775
 20
1.79558376736111
 30
0.0
 10
3.451296657986107
 20
2.613449435763888
 30
0.0
 10
3.571874999999999
 20
3.66558159722222
 30
0.0
 10
3.571874999999999
 20
4.951291232638888
 30
0.0
 10
3.571874999999999
 20
7.415912543402777
 30
0.0
 10
3.124701605902775
 20
9.106076388888887
 30
0.0
 10
2.231043836805555
 20
10.02178276909722
 30
0.0
 10
1.759754774305553
 20
10.498583984375
 30
0.0
 10
1.163753255208332
 20
10.7376736111111
 30
0.0
 10
0.443039279513889
 20
10.7376736111111
 30
0.0
 10
0.443039279513889
 20
10.7376736111111
 30
0.0
 10
-3.968749999999998
 20
10.7376736111111
 30
0.0
 10
-3.968749999999998
 20
10.7376736111111
 30
0.0
 10
-3.968749999999998
 20
10.7376736111111
 30
0.0
 10
-3.968749999999998
 20
-10.7376736111111
 30
0.0
 10
-3.968749999999998
 20
-10.7376736111111
 30
0.0
  0
ENDBLK
  5
6BF
330
6BB
100
AcDbEntity
  8
0
100
AcDbBlockEnd
  0
BLOCK
  5
6C3
330
6C0
100
AcDbEntity
  8
0
 62
     7
100
AcDbBlockBegin
  2
AI9-BLK3
 70
     0
 10
0.0
 20
0.0
 30
0.0
  3
AI9-BLK3
  1

  0
LWPOLYLINE
  5
6C1
330
6C0
100
AcDbEntity
  8
LAYER_1
 62
     7
100
AcDbPolyline
 90
        4
 70
     1
 43
0.0
 10
-0.6613722059461809
 20
10.7376736111111
 10
0.6613722059461809
 20
10.7376736111111
 10
0.6613722059461809
 20
-10.7376736111111
 10
-0.6613722059461809
 20
-10.7376736111111
  0
HATCH
  5
6C2
330
6C0
100
AcDbEntity
  8
LAYER_1
 62
     7
100
AcDbHatch
 10
0.0
 20
0.0
 30
0.0
210
0.0
220
0.0
230
1.0
  2
SOLID
 70
     1
 71
     0
 91
        1
 92
        3
 72
     0
 73
     1
 93
        4
 10
-0.6613722059461809
 20
10.7376736111111
 10
0.6613722059461809
 20
10.7376736111111
 10
0.6613722059461809
 20
-10.7376736111111
 10
-0.6613722059461809
 20
-10.7376736111111
 97
        0
 75
     2
 76
     1
 98
        1
 10
0.0
 20
0.0
  0
ENDBLK
  5
6C4
330
6C0
100
AcDbEntity
  8
0
100
AcDbBlockEnd
  0
BLOCK
  5
6C8
330
6C5
100
AcDbEntity
  8
0
 62
     7
100
AcDbBlockBegin
  2
AI9-BLK2
 70
     0
 10
0.0
 20
0.0
 30
0.0
  3
AI9-BLK2
  1

  0
LWPOLYLINE
  5
6C6
330
6C5
100
AcDbEntity
  8
LAYER_1
 62
     7
100
AcDbPolyline
 90
        7
 70
     1
 43
0.0
 10
-2.785704210069443
 20
10.7376736111111
 10
0.0
 20
-7.550960286458332
 10
2.771234809027776
 20
10.7376736111111
 10
4.233333333333331
 20
10.7376736111111
 10
0.6910861545138888
 20
-10.7376736111111
 10
-0.7055555555555558
 20
-10.7376736111111
 10
-4.233333333333331
 20
10.7376736111111
  0
HATCH
  5
6C7
330
6C5
100
AcDbEntity
  8
LAYER_1
 62
     7
100
AcDbHatch
 10
0.0
 20
0.0
 30
0.0
210
0.0
220
0.0
230
1.0
  2
SOLID
 70
     1
 71
     0
 91
        1
 92
        3
 72
     0
 73
     1
 93
        7
 10
-2.785704210069443
 20
10.7376736111111
 10
0.0
 20
-7.550960286458332
 10
2.771234809027776
 20
10.7376736111111
 10
4.233333333333331
 20
10.7376736111111
 10
0.6910861545138888
 20
-10.7376736111111
 10
-0.7055555555555558
 20
-10.7376736111111
 10
-4.233333333333331
 20
10.7376736111111
 97
        0
 75
     2
 76
     1
 98
        1
 10
0.0
 20
0.0
  0
ENDBLK
  5
6C9
330
6C5
100
AcDbEntity
  8
0
100
AcDbBlockEnd
  0
BLOCK
  5
6CD
330
6CA
100
AcDbEntity
  8
0
 62
     7
100
AcDbBlockBegin
  2
AI9-BLK1
 70
     0
 10
0.0
 20
0.0
 30
0.0
  3
AI9-BLK1
  1

  0
LWPOLYLINE
  5
6CB
330
6CA
100
AcDbEntity
  8
LAYER_1
 62
     7
100
AcDbPolyline
 90
       12
 70
     1
 43
0.0
 10
-3.571874999999999
 20
10.7376736111111
 10
3.483680555555555
 20
10.7376736111111
 10
3.483680555555555
 20
8.091840277777777
 10
-2.248958333333332
 20
8.091840277777777
 10
-2.248958333333332
 20
1.565451388888888
 10
3.042708333333333
 20
1.565451388888888
 10
3.042708333333333
 20
-0.9039930555555551
 10
-2.248958333333332
 20
-0.9039930555555551
 10
-2.248958333333332
 20
-8.180034722222217
 10
3.571874999999999
 20
-8.180034722222217
 10
3.571874999999999
 20
-10.7376736111111
 10
-3.571874999999999
 20
-10.7376736111111
  0
HATCH
  5
6CC
330
6CA
100
AcDbEntity
  8
LAYER_1
 62
     7
100
AcDbHatch
 10
0.0
 20
0.0
 30
0.0
210
0.0
220
0.0
230
1.0
  2
SOLID
 70
     1
 71
     0
 91
        1
 92
        3
 72
     0
 73
     1
 93
       12
 10
-3.571874999999999
 20
10.7376736111111
 10
3.483680555555555
 20
10.7376736111111
 10
3.483680555555555
 20
8.091840277777777
 10
-2.248958333333332
 20
8.091840277777777
 10
-2.248958333333332
 20
1.565451388888888
 10
3.042708333333333
 20
1.565451388888888
 10
3.042708333333333
 20
-0.9039930555555551
 10
-2.248958333333332
 20
-0.9039930555555551
 10
-2.248958333333332
 20
-8.180034722222217
 10
3.571874999999999
 20
-8.180034722222217
 10
3.571874999999999
 20
-10.7376736111111
 10
-3.571874999999999
 20
-10.7376736111111
 97
        0
 75
     2
 76
     1
 98
        1
 10
0.0
 20
0.0
  0
ENDBLK
  5
6CE
330
6CA
100
AcDbEntity
  8
0
100
AcDbBlockEnd
  0
BLOCK
  5
6F2
330
6CF
100
AcDbEntity
  8
0
100
AcDbBlockBegin
  2
HD_LLC_logo_OT5
 70
     0
 10
0.0
 20
0.0
 30
0.0
  3
HD_LLC_logo_OT5
  1

  0
SPLINE
  5
6D0
102
{ACAD_REACTORS
330
6F0
102
}
330
6CF
100
AcDbEntity
  8
LAYER_1
 62
     7
100
AcDbSpline
210
0.0
220
0.0
230
1.0
 70
    11
 71
     3
 72
   113
 73
   109
 74
     0
 42
0.0000000001
 43
0.0000000001
 40
0.0
 40
0.0
 40
0.0
 40
0.0
 40
1.0
 40
1.0
 40
1.0
 40
2.0
 40
2.0
 40
2.0
 40
3.0
 40
3.0
 40
3.0
 40
4.0
 40
4.0
 40
4.0
 40
5.0
 40
5.0
 40
5.0
 40
6.0
 40
6.0
 40
6.0
 40
7.0
 40
7.0
 40
7.0
 40
8.0
 40
8.0
 40
8.0
 40
9.0
 40
9.0
 40
9.0
 40
10.0
 40
10.0
 40
10.0
 40
11.0
 40
11.0
 40
11.0
 40
12.0
 40
12.0
 40
12.0
 40
13.0
 40
13.0
 40
13.0
 40
14.0
 40
14.0
 40
14.0
 40
15.0
 40
15.0
 40
15.0
 40
16.0
 40
16.0
 40
16.0
 40
17.0
 40
17.0
 40
17.0
 40
18.0
 40
18.0
 40
18.0
 40
19.0
 40
19.0
 40
19.0
 40
20.0
 40
20.0
 40
20.0
 40
21.0
 40
21.0
 40
21.0
 40
22.0
 40
22.0
 40
22.0
 40
23.0
 40
23.0
 40
23.0
 40
24.0
 40
24.0
 40
24.0
 40
25.0
 40
25.0
 40
25.0
 40
26.0
 40
26.0
 40
26.0
 40
27.0
 40
27.0
 40
27.0
 40
28.0
 40
28.0
 40
28.0
 40
29.0
 40
29.0
 40
29.0
 40
30.0
 40
30.0
 40
30.0
 40
31.0
 40
31.0
 40
31.0
 40
32.0
 40
32.0
 40
32.0
 40
33.0
 40
33.0
 40
33.0
 40
34.0
 40
34.0
 40
34.0
 40
35.0
 40
35.0
 40
35.0
 40
36.0
 40
36.0
 40
36.0
 40
36.0
 10
193.3039632161458
 20
186.1548733181423
 30
0.0
 10
193.3039632161458
 20
186.1860514322916
 30
0.0
 10
193.3039632161458
 20
219.6932223849826
 30
0.0
 10
193.3039632161458
 20
219.6932223849826
 30
0.0
 10
193.3039632161458
 20
219.6932223849826
 30
0.0
 10
193.2974175347219
 20
219.7488606770833
 30
0.0
 10
193.2974175347219
 20
219.7488606770833
 30
0.0
 10
191.5293945312499
 20
235.455740017361
 30
0.0
 10
175.1458984374999
 20
235.2467949761284
 30
0.0
 10
174.9808783637151
 20
235.2428331163193
 30
0.0
 10
174.9808783637151
 20
235.2428331163193
 30
0.0
 10
125.8827555338541
 20
235.2430053710937
 30
0.0
 10
125.8827555338541
 20
235.2430053710937
 30
0.0
 10
125.8827555338541
 20
235.2430053710937
 30
0.0
 10
125.8827555338541
 20
255.5278998480901
 30
0.0
 10
125.8827555338541
 20
255.5278998480901
 30
0.0
 10
125.8827555338541
 20
255.5278998480901
 30
0.0
 10
84.5626247829861
 20
255.5278998480901
 30
0.0
 10
84.5626247829861
 20
255.5278998480901
 30
0.0
 10
84.5626247829861
 20
255.5278998480901
 30
0.0
 10
84.55711263020829
 20
233.7919311523436
 30
0.0
 10
84.55711263020829
 20
233.7919311523436
 30
0.0
 10
84.55711263020829
 20
233.7919311523436
 30
0.0
 10
64.42052951388888
 20
233.7919311523436
 30
0.0
 10
64.42052951388888
 20
233.7919311523436
 30
0.0
 10
64.42052951388888
 20
233.7919311523436
 30
0.0
 10
64.41501736111111
 20
255.5278998480901
 30
0.0
 10
64.41501736111111
 20
255.5278998480901
 30
0.0
 10
64.41501736111111
 20
255.5278998480901
 30
0.0
 10
23.91757541232637
 20
255.5278998480901
 30
0.0
 10
23.91757541232637
 20
255.5278998480901
 30
0.0
 10
23.91757541232637
 20
255.5278998480901
 30
0.0
 10
23.91757541232637
 20
233.2393378363715
 30
0.0
 10
23.91757541232637
 20
233.2393378363715
 30
0.0
 10
23.91757541232637
 20
233.2393378363715
 30
0.0
 10
43.65624999999999
 20
233.2393378363715
 30
0.0
 10
43.65624999999999
 20
233.2393378363715
 30
0.0
 10
43.65624999999999
 20
233.2393378363715
 30
0.0
 10
43.65624999999999
 20
211.5188720703125
 30
0.0
 10
43.65624999999999
 20
211.5188720703125
 30
0.0
 10
43.65624999999999
 20
211.5188720703125
 30
0.0
 10
23.91757541232637
 20
211.5188720703125
 30
0.0
 10
23.91757541232637
 20
211.5188720703125
 30
0.0
 10
23.91757541232637
 20
211.5188720703125
 30
0.0
 10
23.91757541232637
 20
189.2303100585936
 30
0.0
 10
23.91757541232637
 20
189.2303100585936
 30
0.0
 10
23.91757541232637
 20
189.2303100585936
 30
0.0
 10
64.41501736111111
 20
189.2303100585936
 30
0.0
 10
64.41501736111111
 20
189.2303100585936
 30
0.0
 10
64.41501736111111
 20
189.2303100585936
 30
0.0
 10
64.42052951388888
 20
211.069976128472
 30
0.0
 10
64.42052951388888
 20
211.069976128472
 30
0.0
 10
64.42052951388888
 20
211.069976128472
 30
0.0
 10
84.55711263020829
 20
211.069976128472
 30
0.0
 10
84.55711263020829
 20
211.069976128472
 30
0.0
 10
84.55711263020829
 20
211.069976128472
 30
0.0
 10
84.5626247829861
 20
189.2303100585936
 30
0.0
 10
84.5626247829861
 20
189.2303100585936
 30
0.0
 10
84.5626247829861
 20
189.2303100585936
 30
0.0
 10
125.8827555338541
 20
189.2303100585936
 30
0.0
 10
125.8827555338541
 20
189.2303100585936
 30
0.0
 10
125.8827555338541
 20
189.2303100585936
 30
0.0
 10
125.8827555338541
 20
211.5188720703125
 30
0.0
 10
125.8827555338541
 20
211.5188720703125
 30
0.0
 10
125.8827555338541
 20
211.5188720703125
 30
0.0
 10
105.3213921440971
 20
211.5188720703125
 30
0.0
 10
105.3213921440971
 20
211.5188720703125
 30
0.0
 10
105.3213921440971
 20
211.5188720703125
 30
0.0
 10
105.3213921440971
 20
233.2393378363715
 30
0.0
 10
105.3213921440971
 20
233.2393378363715
 30
0.0
 10
105.3213921440971
 20
233.2393378363715
 30
0.0
 10
175.0046495225693
 20
233.243127441406
 30
0.0
 10
175.0046495225693
 20
233.243127441406
 30
0.0
 10
175.6268337673611
 20
233.2560465494791
 30
0.0
 10
189.7165852864583
 20
233.3962619357638
 30
0.0
 10
191.3037407769094
 20
219.5690266927083
 30
0.0
 10
191.3037407769094
 20
219.4332899305555
 30
0.0
 10
191.3037407769094
 20
186.1142211914062
 30
0.0
 10
191.3037407769094
 20
186.1142211914062
 30
0.0
 10
191.3037407769094
 20
186.1142211914062
 30
0.0
 10
191.3051188151039
 20
186.0880384657115
 30
0.0
 10
191.3051188151039
 20
186.0880384657115
 30
0.0
 10
191.3054633246526
 20
186.0787367078991
 30
0.0
 10
191.3109754774304
 20
185.9566080729166
 30
0.0
 10
191.3109754774304
 20
185.7399115668401
 30
0.0
 10
191.3109754774304
 20
184.2090833875865
 30
0.0
 10
191.0488037109374
 20
177.9643310546874
 30
0.0
 10
186.9866916232638
 20
173.5652886284722
 30
0.0
 10
184.2540418836804
 20
170.6064683702255
 30
0.0
 10
180.3224989149304
 20
169.0308539496526
 30
0.0
 10
175.300927734375
 20
168.8825425889756
 30
0.0
 10
175.300927734375
 20
168.8825425889756
 30
0.0
 10
107.0094889322916
 20
168.8828870985243
 30
0.0
 10
107.0094889322916
 20
168.8828870985243
 30
0.0
 10
107.0094889322916
 20
168.8828870985243
 30
0.0
 10
107.0094889322916
 20
166.8830091688368
 30
0.0
 10
107.0094889322916
 20
166.8830091688368
 30
0.0
 10
107.0094889322916
 20
166.8830091688368
 30
0.0
 10
175.3305555555555
 20
166.8830091688368
 30
0.0
 10
175.3305555555555
 20
166.8830091688368
 30
0.0
 10
180.9467502170138
 20
167.0485460069444
 30
0.0
 10
185.3571614583333
 20
168.8448187934026
 30
0.0
 10
188.4687717013888
 20
172.2223904079861
 30
0.0
 10
192.9649658203124
 20
177.1034016927083
 30
0.0
 10
193.3136094835069
 20
183.7202243381076
 30
0.0
 10
193.3136094835069
 20
185.6520616319443
 30
0.0
 10
193.3136094835069
 20
185.9247409396701
 30
0.0
 10
193.3070638020833
 20
186.0868326822916
 30
0.0
 10
193.3039632161458
 20
186.1548733181423
 30
0.0
  0
INSERT
  5
6D1
102
{ACAD_REACTORS
330
6F1
102
}
330
6CF
100
AcDbEntity
  8
LAYER_1
 62
     7
100
AcDbBlockReference
  2
AI9-BLK14
 10
159.5625257703993
 20
200.5118781195744
 30
0.0
  0
INSERT
  5
6D2
330
6CF
100
AcDbEntity
  8
LAYER_1
 62
     7
100
AcDbBlockReference
  2
AI9-BLK13
 10
27.69615614149305
 20
179.2145562065971
 30
0.0
 42
0.9200000000000001
  0
INSERT
  5
6D3
102
{ACAD_REACTORS
330
6DE
102
}
330
6CF
100
AcDbEntity
  8
LAYER_1
 62
     7
100
AcDbBlockReference
  2
AI9-BLK11
 10
44.76591525607638
 20
179.2145562065971
 30
0.0
 42
0.9200000000000001
  0
INSERT
  5
6D4
102
{ACAD_REACTORS
330
6EC
102
}
330
6CF
100
AcDbEntity
  8
LAYER_1
 62
     7
100
AcDbBlockReference
  2
AI9-BLK10
 10
54.04665798611111
 20
179.2145562065971
 30
0.0
 42
0.9200000000000001
  0
INSERT
  5
6D5
102
{ACAD_REACTORS
330
6EB
102
}
330
6CF
100
AcDbEntity
  8
LAYER_1
 62
     7
100
AcDbBlockReference
  2
AI9-BLK9
 10
62.79013807508679
 20
179.2145562065971
 30
0.0
 42
0.9
  0
INSERT
  5
6D6
330
6CF
100
AcDbEntity
  8
LAYER_1
 62
     7
100
AcDbBlockReference
  2
AI9-BLK8
 10
71.03046196831595
 20
179.2145562065971
 30
0.0
 42
0.9200000000000001
  0
INSERT
  5
6D7
330
6CF
100
AcDbEntity
  8
LAYER_1
 62
     7
100
AcDbBlockReference
  2
AI9-BLK7
 10
76.93793945312498
 20
179.2145562065971
 30
0.0
 42
0.9200000000000001
  0
INSERT
  5
6D8
102
{ACAD_REACTORS
330
6DF
102
}
330
6CF
100
AcDbEntity
  8
LAYER_1
 62
     7
100
AcDbBlockReference
  2
AI9-BLK6
 10
82.55602891710069
 20
179.2145562065971
 30
0.0
 42
0.9
  0
INSERT
  5
6D9
102
{ACAD_REACTORS
330
6ED
102
}
330
6CF
100
AcDbEntity
  8
LAYER_1
 62
     7
100
AcDbBlockReference
  2
AI9-BLK5
 10
94.32430284288193
 20
179.2145562065971
 30
0.0
 42
0.9200000000000001
  0
INSERT
  5
6DA
102
{ACAD_REACTORS
330
6EE
102
}
330
6CF
100
AcDbEntity
  8
LAYER_1
 62
     7
100
AcDbBlockReference
  2
AI9-BLK4
 10
103.2081705729166
 20
179.2145562065971
 30
0.0
 42
0.9200000000000001
  0
INSERT
  5
6DB
330
6CF
100
AcDbEntity
  8
LAYER_1
 62
     7
100
AcDbBlockReference
  2
AI9-BLK3
 10
108.850978597005
 20
179.2145562065971
 30
0.0
 42
0.9200000000000001
  0
INSERT
  5
6DC
330
6CF
100
AcDbEntity
  8
LAYER_1
 62
     7
100
AcDbBlockReference
  2
AI9-BLK2
 10
114.2045708550346
 20
179.2145562065971
 30
0.0
 42
0.9200000000000001
  0
INSERT
  5
6DD
330
6CF
100
AcDbEntity
  8
LAYER_1
 62
     7
100
AcDbBlockReference
  2
AI9-BLK1
 10
122.4125108506944
 20
179.2145562065971
 30
0.0
 42
0.9200000000000001
  0
HATCH
  5
6DE
330
6CF
100
AcDbEntity
  8
0
  6
Continuous
100
AcDbHatch
 10
0.0
 20
0.0
 30
0.0
210
0.0
220
0.0
230
1.0
  2
SOLID
 70
     1
 71
     1
 91
        2
 92
       16
 93
        1
 72
     4
 94
        3
 73
     0
 74
     0
 95
       26
 96
       22
 40
0.0
 40
0.0
 40
0.0
 40
0.0
 40
1.0
 40
1.0
 40
1.0
 40
2.0
 40
2.0
 40
2.0
 40
3.0
 40
3.0
 40
3.0
 40
4.0
 40
4.0
 40
4.0
 40
5.0
 40
5.0
 40
5.0
 40
6.0
 40
6.0
 40
6.0
 40
7.0
 40
7.0
 40
7.0
 40
7.0
 10
42.12008192274304
 20
180.046229817708
 10
42.12008192274304
 20
180.046229817708
 10
42.12008192274304
 20
186.7401881510414
 10
42.12008192274304
 20
186.7401881510414
 10
42.12008192274304
 20
186.7401881510414
 10
45.23100314670138
 20
186.7401881510414
 10
45.23100314670138
 20
186.7401881510414
 10
45.66853027343749
 20
186.7401881510414
 10
46.01579589843749
 20
186.6064357638887
 10
46.27280002170138
 20
186.3401987847214
 10
46.76751573350694
 20
185.8330807291664
 10
47.01487358940972
 20
184.8822343749995
 10
47.01487358940972
 20
183.4863919270832
 10
47.01487358940972
 20
182.188169704861
 10
46.83848470052082
 20
181.2905707465276
 10
46.48639594184028
 20
180.7929611545137
 10
46.13430718315971
 20
180.2947176649304
 10
45.65888400607638
 20
180.046229817708
 10
45.06012641059028
 20
180.046229817708
 10
45.06012641059028
 20
180.046229817708
 10
42.12008192274304
 20
180.046229817708
 10
42.12008192274304
 20
180.046229817708
 97
        1
330
6D3
 92
        1
 93
        1
 72
     4
 94
        3
 73
     0
 74
     0
 95
       68
 96
       64
 40
0.0
 40
0.0
 40
0.0
 40
0.0
 40
1.0
 40
1.0
 40
1.0
 40
2.0
 40
2.0
 40
2.0
 40
3.0
 40
3.0
 40
3.0
 40
4.0
 40
4.0
 40
4.0
 40
5.0
 40
5.0
 40
5.0
 40
6.0
 40
6.0
 40
6.0
 40
7.0
 40
7.0
 40
7.0
 40
8.0
 40
8.0
 40
8.0
 40
9.0
 40
9.0
 40
9.0
 40
10.0
 40
10.0
 40
10.0
 40
11.0
 40
11.0
 40
11.0
 40
12.0
 40
12.0
 40
12.0
 40
13.0
 40
13.0
 40
13.0
 40
14.0
 40
14.0
 40
14.0
 40
15.0
 40
15.0
 40
15.0
 40
16.0
 40
16.0
 40
16.0
 40
17.0
 40
17.0
 40
17.0
 40
18.0
 40
18.0
 40
18.0
 40
19.0
 40
19.0
 40
19.0
 40
20.0
 40
20.0
 40
20.0
 40
21.0
 40
21.0
 40
21.0
 40
21.0
 10
40.79716525607638
 20
169.3358964843748
 10
40.79716525607638
 20
169.3358964843748
 10
42.12008192274304
 20
169.3358964843748
 10
42.12008192274304
 20
169.3358964843748
 10
42.12008192274304
 20
169.3358964843748
 10
42.12008192274304
 20
177.8149103732637
 10
42.12008192274304
 20
177.8149103732637
 10
42.12008192274304
 20
177.8149103732637
 10
45.00500488281249
 20
177.8149103732637
 10
45.00500488281249
 20
177.8149103732637
 10
45.52590332031249
 20
177.8149103732637
 10
45.90968695746528
 20
177.6938359374998
 10
46.15635579427083
 20
177.4516870659716
 10
46.58216959635415
 20
177.0117621527776
 10
46.80954589843749
 20
176.1458580729164
 10
46.83848470052082
 20
174.8539748263887
 10
46.83848470052082
 20
174.8539748263887
 10
46.92667914496527
 20
171.5564396701385
 10
46.92667914496527
 20
171.5564396701385
 10
46.94597167968749
 20
170.7843524305554
 10
46.96870930989581
 20
170.2639225260415
 10
46.99351399739582
 20
169.9951499565971
 10
47.01831868489581
 20
169.725743489583
 10
47.0548366970486
 20
169.5057810329859
 10
47.10444607204859
 20
169.3358964843748
 10
47.10444607204859
 20
169.3358964843748
 10
48.73466525607638
 20
169.3358964843748
 10
48.73466525607638
 20
169.3358964843748
 10
48.73466525607638
 20
169.3358964843748
 10
48.73466525607638
 20
169.7821603732633
 10
48.73466525607638
 20
169.7821603732633
 10
48.53278266059028
 20
169.9609194878471
 10
48.39153374565971
 20
170.3628105468748
 10
48.31160753038194
 20
170.9878335503471
 10
48.26062011718749
 20
171.3542263454858
 10
48.22548014322915
 20
171.9120562065971
 10
48.20549858940971
 20
172.6625909288193
 10
48.20549858940971
 20
172.6625909288193
 10
48.16140136718749
 20
175.3205234374999
 10
48.16140136718749
 20
175.3205234374999
 10
48.14141981336803
 20
176.4716814236109
 10
48.03462185329859
 20
177.3033550347219
 10
47.84169650607638
 20
177.814276475694
 10
47.64808213975693
 20
178.3251979166665
 10
47.35800509982638
 20
178.7372313368054
 10
46.97077636718749
 20
179.0516445312498
 10
47.4021023220486
 20
179.5086846788193
 10
47.73765462239582
 20
180.1134229600693
 10
47.97743326822915
 20
180.866493272569
 10
48.21721191406249
 20
181.6189296874999
 10
48.33779025607638
 20
182.5868912760411
 10
48.33779025607638
 20
183.7697441406248
 10
48.33779025607638
 20
186.0371957465273
 10
47.89061686197913
 20
187.5921464843749
 10
46.99695909288194
 20
188.4345963541665
 10
46.52567003038194
 20
188.8732534722221
 10
45.92966851128472
 20
189.0932159288193
 10
45.20895453559027
 20
189.0932159288193
 10
45.20895453559027
 20
189.0932159288193
 10
40.79716525607638
 20
189.0932159288193
 10
40.79716525607638
 20
189.0932159288193
 10
40.79716525607638
 20
189.0932159288193
 10
40.79716525607638
 20
169.3358964843748
 10
40.79716525607638
 20
169.3358964843748
 97
        0
 75
     0
 76
     1
 98
        0
  0
HATCH
  5
6DF
330
6CF
100
AcDbEntity
  8
0
  6
Continuous
100
AcDbHatch
 10
0.0
 20
0.0
 30
0.0
210
0.0
220
0.0
230
1.0
  2
SOLID
 70
     1
 71
     1
 91
        1
 92
        1
 93
        1
 72
     4
 94
        3
 73
     0
 74
     0
 95
       59
 96
       55
 40
0.0
 40
0.0
 40
0.0
 40
0.0
 40
1.0
 40
1.0
 40
1.0
 40
2.0
 40
2.0
 40
2.0
 40
3.0
 40
3.0
 40
3.0
 40
4.0
 40
4.0
 40
4.0
 40
5.0
 40
5.0
 40
5.0
 40
6.0
 40
6.0
 40
6.0
 40
7.0
 40
7.0
 40
7.0
 40
8.0
 40
8.0
 40
8.0
 40
9.0
 40
9.0
 40
9.0
 40
10.0
 40
10.0
 40
10.0
 40
11.0
 40
11.0
 40
11.0
 40
12.0
 40
12.0
 40
12.0
 40
13.0
 40
13.0
 40
13.0
 40
14.0
 40
14.0
 40
14.0
 40
15.0
 40
15.0
 40
15.0
 40
16.0
 40
16.0
 40
16.0
 40
17.0
 40
17.0
 40
17.0
 40
18.0
 40
18.0
 40
18.0
 40
18.0
 10
85.61871880425345
 20
187.4658355034721
 10
86.29120144314232
 20
186.1797124565971
 10
86.66671685112847
 20
184.7193364800346
 10
86.7452650282118
 20
183.0840874565969
 10
86.7452650282118
 20
183.0840874565969
 10
85.42234836154511
 20
183.0840874565969
 10
85.42234836154511
 20
183.0840874565969
 10
85.27696533203123
 20
184.3156401909719
 10
84.99171142578125
 20
185.2917046440971
 10
84.56589762369791
 20
186.0122808159719
 10
84.14008382161458
 20
186.7322368706594
 10
83.53994818793401
 20
187.0925249565969
 10
82.76617974175342
 20
187.0925249565969
 10
81.81740044487847
 20
187.0925249565969
 10
81.05258924696178
 20
186.4240386284721
 10
80.47243516710068
 20
185.0883062065971
 10
79.89159206814234
 20
183.7525737847219
 10
79.6015150282118
 20
181.7049468315971
 10
79.6015150282118
 20
178.9454253472221
 10
79.6015150282118
 20
176.6844780815969
 10
79.86265326605901
 20
174.8514116753471
 10
80.38561876085069
 20
173.4456060112846
 10
80.90789523654512
 20
172.0391802300344
 10
81.69199896918403
 20
171.3365874565971
 10
82.73724093967013
 20
171.3365874565971
 10
83.69497748480901
 20
171.3365874565971
 10
84.42120361328125
 20
172.0794878472221
 10
84.91523030598958
 20
173.5665288628469
 10
85.18601481119791
 20
174.3491167534719
 10
85.38445231119791
 20
175.3785112847221
 10
85.51054280598959
 20
176.6547124565971
 10
85.51054280598959
 20
176.6547124565971
 10
86.83345947265625
 20
176.6547124565971
 10
86.83345947265625
 20
176.6547124565971
 10
86.72597249348957
 20
174.6157671440971
 10
86.35114610460069
 20
172.9061040581596
 10
85.70760226779514
 20
171.526343315972
 10
84.93727891710069
 20
169.8650493706596
 10
83.90375027126735
 20
169.0347124565971
 10
82.60701633029514
 20
169.0347124565971
 10
81.48598225911458
 20
169.0347124565971
 10
80.54547119140625
 20
169.7143608940971
 10
79.78479410807292
 20
171.0742778862845
 10
78.78020426432292
 20
172.8726177300344
 10
78.27859836154512
 20
175.6495024956596
 10
78.27859836154512
 20
179.4049321831594
 10
78.27859836154512
 20
182.2562310112846
 10
78.65342475043402
 20
184.5946929253469
 10
79.40445556640622
 20
186.4196978081596
 10
80.22301025390625
 20
188.4028325737846
 10
81.34955647786458
 20
189.3943999565971
 10
82.78271620008679
 20
189.3943999565971
 10
84.00090196397568
 20
189.3943999565971
 10
84.94623616536458
 20
188.7513384331594
 10
85.61871880425345
 20
187.4658355034721
 97
        1
330
6D8
 75
     0
 76
     1
 98
        1
 10
0.0
 20
0.0
  0
LINE
  5
6E0
102
{ACAD_REACTORS
330
6EF
102
}
330
6CF
100
AcDbEntity
  8
LAYER_1
 62
     7
100
AcDbLine
 10
34.65766059027778
 20
177.4497853732638
 30
0.0
 11
36.19830729166666
 21
186.1658769531249
 31
0.0
  0
LINE
  5
6E1
102
{ACAD_REACTORS
330
6EF
102
}
330
6CF
100
AcDbEntity
  8
LAYER_1
 62
     7
100
AcDbLine
 10
36.19830729166666
 20
186.1658769531249
 30
0.0
 11
37.67556423611111
 21
177.4497853732638
 31
0.0
  0
LINE
  5
6E2
102
{ACAD_REACTORS
330
6EF
102
}
330
6CF
100
AcDbEntity
  8
LAYER_1
 62
     7
100
AcDbLine
 10
37.67556423611111
 20
177.4497853732638
 30
0.0
 11
34.65766059027778
 21
177.4497853732638
 31
0.0
  0
LINE
  5
6E3
102
{ACAD_REACTORS
330
6EF
102
}
330
6CF
100
AcDbEntity
  8
LAYER_1
 62
     7
100
AcDbLine
 10
31.83957248263888
 20
169.3358964843748
 30
0.0
 11
33.22450086805555
 21
169.3358964843748
 31
0.0
  0
LINE
  5
6E4
102
{ACAD_REACTORS
330
6EF
102
}
330
6CF
100
AcDbEntity
  8
LAYER_1
 62
     7
100
AcDbLine
 10
33.22450086805555
 20
169.3358964843748
 30
0.0
 11
34.27043185763887
 21
175.2590353732638
 31
0.0
  0
LINE
  5
6E5
102
{ACAD_REACTORS
330
6EF
102
}
330
6CF
100
AcDbEntity
  8
LAYER_1
 62
     7
100
AcDbLine
 10
34.27043185763887
 20
175.2590353732638
 30
0.0
 11
38.04694552951389
 21
175.2590353732638
 31
0.0
  0
LINE
  5
6E6
102
{ACAD_REACTORS
330
6EF
102
}
330
6CF
100
AcDbEntity
  8
LAYER_1
 62
     7
100
AcDbLine
 10
38.04694552951389
 20
175.2590353732638
 30
0.0
 11
39.05015733506942
 21
169.3358964843748
 31
0.0
  0
LINE
  5
6E7
102
{ACAD_REACTORS
330
6EF
102
}
330
6CF
100
AcDbEntity
  8
LAYER_1
 62
     7
100
AcDbLine
 10
39.05015733506942
 20
169.3358964843748
 30
0.0
 11
40.43508572048611
 21
169.3358964843748
 31
0.0
  0
LINE
  5
6E8
102
{ACAD_REACTORS
330
6EF
102
}
330
6CF
100
AcDbEntity
  8
LAYER_1
 62
     7
100
AcDbLine
 10
40.43508572048611
 20
169.3358964843748
 30
0.0
 11
36.952783203125
 21
189.0932159288193
 31
0.0
  0
LINE
  5
6E9
102
{ACAD_REACTORS
330
6EF
102
}
330
6CF
100
AcDbEntity
  8
LAYER_1
 62
     7
100
AcDbLine
 10
36.952783203125
 20
189.0932159288193
 30
0.0
 11
35.47828233506943
 21
189.0932159288193
 31
0.0
  0
LINE
  5
6EA
102
{ACAD_REACTORS
330
6EF
102
}
330
6CF
100
AcDbEntity
  8
LAYER_1
 62
     7
100
AcDbLine
 10
35.47828233506943
 20
189.0932159288193
 30
0.0
 11
31.83957248263888
 21
169.3358964843748
 31
0.0
  0
HATCH
  5
6EB
330
6CF
100
AcDbEntity
  8
0
  6
Continuous
100
AcDbHatch
 10
0.0
 20
0.0
 30
0.0
210
0.0
220
0.0
230
1.0
  2
SOLID
 70
     1
 71
     1
 91
        2
 92
       16
 93
        1
 72
     4
 94
        3
 73
     0
 74
     0
 95
       29
 96
       25
 40
0.0
 40
0.0
 40
0.0
 40
0.0
 40
1.0
 40
1.0
 40
1.0
 40
2.0
 40
2.0
 40
2.0
 40
3.0
 40
3.0
 40
3.0
 40
4.0
 40
4.0
 40
4.0
 40
5.0
 40
5.0
 40
5.0
 40
6.0
 40
6.0
 40
6.0
 40
7.0
 40
7.0
 40
7.0
 40
8.0
 40
8.0
 40
8.0
 40
8.0
 10
62.85697292751734
 20
171.3365874565971
 10
61.88338894314235
 20
171.3365874565971
 10
61.18058946397566
 20
172.0714263237844
 10
60.74857449001735
 20
173.5411040581594
 10
60.31587049696178
 20
175.0107817925344
 10
60.10020751953123
 20
176.8165630425341
 10
60.10020751953123
 20
178.9578276909721
 10
60.10020751953123
 20
181.6342534722221
 10
60.35101047092013
 20
183.6589360894094
 10
60.85261637369789
 20
185.0324956597219
 10
61.35422227647566
 20
186.4054351128471
 10
62.00741238064235
 20
187.0925249565969
 10
62.81218668619789
 20
187.0925249565969
 10
63.6369425455729
 20
187.0925249565969
 10
64.28806559244789
 20
186.3992339409721
 10
64.76486680772568
 20
185.0126519097221
 10
65.24166802300347
 20
183.6260698784719
 10
65.48006863064235
 20
181.7961040581594
 10
65.48006863064235
 20
179.5239946831596
 10
65.48006863064235
 20
177.3734282769096
 10
65.27336290147568
 20
175.4715288628466
 10
64.86132948133678
 20
173.8176763237846
 10
64.4492960611979
 20
172.1632036675344
 10
63.78094753689235
 20
171.3365874565971
 10
62.85697292751734
 20
171.3365874565971
 97
        1
330
6D5
 92
        1
 93
        1
 72
     4
 94
        3
 73
     0
 74
     0
 95
       29
 96
       25
 40
0.0
 40
0.0
 40
0.0
 40
0.0
 40
1.0
 40
1.0
 40
1.0
 40
2.0
 40
2.0
 40
2.0
 40
3.0
 40
3.0
 40
3.0
 40
4.0
 40
4.0
 40
4.0
 40
5.0
 40
5.0
 40
5.0
 40
6.0
 40
6.0
 40
6.0
 40
7.0
 40
7.0
 40
7.0
 40
8.0
 40
8.0
 40
8.0
 40
8.0
 10
62.76119927300346
 20
189.4340874565971
 10
61.47273356119789
 20
189.4340874565971
 10
60.50121663411457
 20
188.2397417534719
 10
59.84733751085068
 20
185.8516704644094
 10
59.3395304361979
 20
183.9900786675344
 10
59.08597140842012
 20
181.7514556206596
 10
59.08597140842012
 20
179.1351812065971
 10
59.08597140842012
 20
176.2379937065971
 10
59.3836276584201
 20
173.8412407769094
 10
59.9789401584201
 20
171.9449224175346
 10
60.6424655490451
 20
169.9779106987846
 10
61.5602389865451
 20
168.9950249565971
 10
62.7315714518229
 20
168.9950249565971
 10
63.9904093424479
 20
168.9950249565971
 10
64.95641411675345
 20
170.1186773003469
 10
65.63027479383679
 20
172.3659819878471
 10
66.20629475911457
 20
174.2796636284719
 10
66.49430474175345
 20
176.6813774956589
 10
66.49430474175345
 20
179.5698833550344
 10
66.49430474175345
 20
182.2388677300341
 10
66.24005669487845
 20
184.4291216362844
 10
65.73293863932289
 20
186.1412651909719
 10
65.08870578342011
 20
188.3364800347219
 10
64.09789632161457
 20
189.4340874565971
 10
62.76119927300346
 20
189.4340874565971
 97
        0
 75
     0
 76
     1
 98
        0
  0
HATCH
  5
6EC
330
6CF
100
AcDbEntity
  8
0
  6
Continuous
100
AcDbHatch
 10
0.0
 20
0.0
 30
0.0
210
0.0
220
0.0
230
1.0
  2
SOLID
 70
     1
 71
     1
 91
        1
 92
        1
 93
        1
 72
     4
 94
        3
 73
     0
 74
     0
 95
       59
 96
       55
 40
0.0
 40
0.0
 40
0.0
 40
0.0
 40
1.0
 40
1.0
 40
1.0
 40
2.0
 40
2.0
 40
2.0
 40
3.0
 40
3.0
 40
3.0
 40
4.0
 40
4.0
 40
4.0
 40
5.0
 40
5.0
 40
5.0
 40
6.0
 40
6.0
 40
6.0
 40
7.0
 40
7.0
 40
7.0
 40
8.0
 40
8.0
 40
8.0
 40
9.0
 40
9.0
 40
9.0
 40
10.0
 40
10.0
 40
10.0
 40
11.0
 40
11.0
 40
11.0
 40
12.0
 40
12.0
 40
12.0
 40
13.0
 40
13.0
 40
13.0
 40
14.0
 40
14.0
 40
14.0
 40
15.0
 40
15.0
 40
15.0
 40
16.0
 40
16.0
 40
16.0
 40
17.0
 40
17.0
 40
17.0
 40
18.0
 40
18.0
 40
18.0
 40
18.0
 10
49.39440104166666
 20
189.0932159288193
 10
49.39440104166666
 20
189.0932159288193
 10
51.24786241319444
 20
189.0932159288193
 10
51.24786241319444
 20
189.0932159288193
 10
51.24786241319444
 20
189.0932159288193
 10
54.04665798611111
 20
172.3887471788193
 10
54.04665798611111
 20
172.3887471788193
 10
54.04665798611111
 20
172.3887471788193
 10
56.83994140624999
 20
189.0932159288193
 10
56.83994140624999
 20
189.0932159288193
 10
56.83994140624999
 20
189.0932159288193
 10
58.69891493055553
 20
189.0932159288193
 10
58.69891493055553
 20
189.0932159288193
 10
58.69891493055553
 20
189.0932159288193
 10
58.69891493055553
 20
169.3358964843748
 10
58.69891493055553
 20
169.3358964843748
 10
58.69891493055553
 20
169.3358964843748
 10
57.46419270833333
 20
169.3358964843748
 10
57.46419270833333
 20
169.3358964843748
 10
57.46419270833333
 20
169.3358964843748
 10
57.46419270833333
 20
180.9964422743054
 10
57.46419270833333
 20
180.9964422743054
 10
57.46419270833333
 20
181.3996011284721
 10
57.47108289930555
 20
182.0677291666664
 10
57.48624131944444
 20
183.0001924913193
 10
57.50071072048609
 20
183.9326558159721
 10
57.50828993055553
 20
184.932312282986
 10
57.50828993055553
 20
185.9997957899304
 10
57.50828993055553
 20
185.9997957899304
 10
54.700537109375
 20
169.3358964843748
 10
54.700537109375
 20
169.3358964843748
 10
54.700537109375
 20
169.3358964843748
 10
53.38382161458333
 20
169.3358964843748
 10
53.38382161458333
 20
169.3358964843748
 10
53.38382161458333
 20
169.3358964843748
 10
50.58502604166665
 20
185.9997957899304
 10
50.58502604166665
 20
185.9997957899304
 10
50.58502604166665
 20
185.9997957899304
 10
50.58502604166665
 20
185.3944236111109
 10
50.58502604166665
 20
185.3944236111109
 10
50.58502604166665
 20
184.9101258680554
 10
50.59191623263888
 20
184.1729029947915
 10
50.60707465277777
 20
183.1821210937498
 10
50.62154405381942
 20
182.1913391927082
 10
50.62912326388889
 20
181.4629908854165
 10
50.62912326388889
 20
180.9964422743054
 10
50.62912326388889
 20
180.9964422743054
 10
50.62912326388889
 20
169.3358964843748
 10
50.62912326388889
 20
169.3358964843748
 10
50.62912326388889
 20
169.3358964843748
 10
49.39440104166666
 20
169.3358964843748
 10
49.39440104166666
 20
169.3358964843748
 10
49.39440104166666
 20
169.3358964843748
 10
49.39440104166666
 20
189.0932159288193
 10
49.39440104166666
 20
189.0932159288193
 97
        1
330
6D4
 75
     0
 76
     1
 98
        1
 10
0.0
 20
0.0
  0
HATCH
  5
6ED
330
6CF
100
AcDbEntity
  8
0
  6
Continuous
100
AcDbHatch
 10
0.0
 20
0.0
 30
0.0
210
0.0
220
0.0
230
1.0
  2
SOLID
 70
     1
 71
     1
 91
        2
 92
       16
 93
        1
 72
     4
 94
        3
 73
     0
 74
     0
 95
       32
 96
       28
 40
0.0
 40
0.0
 40
0.0
 40
0.0
 40
1.0
 40
1.0
 40
1.0
 40
2.0
 40
2.0
 40
2.0
 40
3.0
 40
3.0
 40
3.0
 40
4.0
 40
4.0
 40
4.0
 40
5.0
 40
5.0
 40
5.0
 40
6.0
 40
6.0
 40
6.0
 40
7.0
 40
7.0
 40
7.0
 40
8.0
 40
8.0
 40
8.0
 40
9.0
 40
9.0
 40
9.0
 40
9.0
 10
91.70051812065969
 20
171.6077853732634
 10
91.70051812065969
 20
171.6077853732634
 10
91.70051812065969
 20
186.7401881510414
 10
91.70051812065969
 20
186.7401881510414
 10
91.70051812065969
 20
186.7401881510414
 10
93.98668348524305
 20
186.7401881510414
 10
93.98668348524305
 20
186.7401881510414
 10
95.02159016927082
 20
186.7401881510414
 10
95.77331000434028
 20
186.0644533420137
 10
96.24322102864582
 20
184.7142515190969
 10
96.71313205295138
 20
183.3640496961804
 10
96.94808756510417
 20
181.4680620659721
 10
96.94808756510417
 20
179.0262886284719
 10
96.94808756510417
 20
178.3911232638887
 10
96.91432562934028
 20
177.7027105034721
 10
96.84749077690971
 20
176.9604164496524
 10
96.7324245876736
 20
175.7167094184024
 10
96.55052354600693
 20
174.6974021267359
 10
96.30109863281248
 20
173.901860677083
 10
95.98414984809028
 20
172.9091770833332
 10
95.57693956163193
 20
172.2378795572914
 10
95.07877875434026
 20
171.8892358940971
 10
94.79076877170138
 20
171.7016022135415
 10
94.43178982204859
 20
171.6077853732634
 10
94.00115288628471
 20
171.6077853732634
 10
94.00115288628471
 20
171.6077853732634
 10
91.70051812065969
 20
171.6077853732634
 10
91.70051812065969
 20
171.6077853732634
 97
        1
330
6D9
 92
        1
 93
        1
 72
     4
 94
        3
 73
     0
 74
     0
 95
       26
 96
       22
 40
0.0
 40
0.0
 40
0.0
 40
0.0
 40
1.0
 40
1.0
 40
1.0
 40
2.0
 40
2.0
 40
2.0
 40
3.0
 40
3.0
 40
3.0
 40
4.0
 40
4.0
 40
4.0
 40
5.0
 40
5.0
 40
5.0
 40
6.0
 40
6.0
 40
6.0
 40
7.0
 40
7.0
 40
7.0
 40
7.0
 10
90.37760145399305
 20
169.3358964843748
 10
90.37760145399305
 20
169.3358964843748
 10
94.22990722656248
 20
169.3358964843748
 10
94.22990722656248
 20
169.3358964843748
 10
95.87115071614581
 20
169.3358964843748
 10
97.03008083767359
 20
170.8331625434026
 10
97.70600857204859
 20
173.8283285590274
 10
98.08221299913194
 20
175.5227367621523
 10
98.27100423177082
 20
177.4187243923609
 10
98.27100423177082
 20
179.5169253472221
 10
98.27100423177082
 20
182.233810329861
 10
97.94716525607638
 20
184.4619602864582
 10
97.30086534288195
 20
186.2013752170135
 10
96.57601725260416
 20
188.1290577256938
 10
95.5576470269097
 20
189.0932159288193
 10
94.24437662760416
 20
189.0932159288193
 10
94.24437662760416
 20
189.0932159288193
 10
90.37760145399305
 20
189.0932159288193
 10
90.37760145399305
 20
189.0932159288193
 10
90.37760145399305
 20
189.0932159288193
 10
90.37760145399305
 20
169.3358964843748
 10
90.37760145399305
 20
169.3358964843748
 97
        0
 75
     0
 76
     1
 98
        0
  0
HATCH
  5
6EE
330
6CF
100
AcDbEntity
  8
0
  6
Continuous
100
AcDbHatch
 10
0.0
 20
0.0
 30
0.0
210
0.0
220
0.0
230
1.0
  2
SOLID
 70
     1
 71
     1
 91
        2
 92
       16
 93
        1
 72
     4
 94
        3
 73
     0
 74
     0
 95
       26
 96
       22
 40
0.0
 40
0.0
 40
0.0
 40
0.0
 40
1.0
 40
1.0
 40
1.0
 40
2.0
 40
2.0
 40
2.0
 40
3.0
 40
3.0
 40
3.0
 40
4.0
 40
4.0
 40
4.0
 40
5.0
 40
5.0
 40
5.0
 40
6.0
 40
6.0
 40
6.0
 40
7.0
 40
7.0
 40
7.0
 40
7.0
 10
100.5623372395832
 20
180.046229817708
 10
100.5623372395832
 20
180.046229817708
 10
100.5623372395832
 20
186.7401881510414
 10
100.5623372395832
 20
186.7401881510414
 10
100.5623372395832
 20
186.7401881510414
 10
103.6732584635416
 20
186.7401881510414
 10
103.6732584635416
 20
186.7401881510414
 10
104.1107855902777
 20
186.7401881510414
 10
104.4580512152777
 20
186.6064357638887
 10
104.7150553385415
 20
186.3401987847214
 10
105.2097710503471
 20
185.8330807291664
 10
105.4571289062495
 20
184.8822343749995
 10
105.4571289062495
 20
183.4863919270832
 10
105.4571289062495
 20
182.188169704861
 10
105.280740017361
 20
181.2905707465276
 10
104.9286512586804
 20
180.7929611545137
 10
104.5765624999999
 20
180.2947176649304
 10
104.1011393229166
 20
180.046229817708
 10
103.5023817274304
 20
180.046229817708
 10
103.5023817274304
 20
180.046229817708
 10
100.5623372395832
 20
180.046229817708
 10
100.5623372395832
 20
180.046229817708
 97
        1
330
6DA
 92
        1
 93
        1
 72
     4
 94
        3
 73
     0
 74
     0
 95
       68
 96
       64
 40
0.0
 40
0.0
 40
0.0
 40
0.0
 40
1.0
 40
1.0
 40
1.0
 40
2.0
 40
2.0
 40
2.0
 40
3.0
 40
3.0
 40
3.0
 40
4.0
 40
4.0
 40
4.0
 40
5.0
 40
5.0
 40
5.0
 40
6.0
 40
6.0
 40
6.0
 40
7.0
 40
7.0
 40
7.0
 40
8.0
 40
8.0
 40
8.0
 40
9.0
 40
9.0
 40
9.0
 40
10.0
 40
10.0
 40
10.0
 40
11.0
 40
11.0
 40
11.0
 40
12.0
 40
12.0
 40
12.0
 40
13.0
 40
13.0
 40
13.0
 40
14.0
 40
14.0
 40
14.0
 40
15.0
 40
15.0
 40
15.0
 40
16.0
 40
16.0
 40
16.0
 40
17.0
 40
17.0
 40
17.0
 40
18.0
 40
18.0
 40
18.0
 40
19.0
 40
19.0
 40
19.0
 40
20.0
 40
20.0
 40
20.0
 40
21.0
 40
21.0
 40
21.0
 40
21.0
 10
99.23942057291661
 20
169.3358964843748
 10
99.23942057291661
 20
169.3358964843748
 10
100.5623372395832
 20
169.3358964843748
 10
100.5623372395832
 20
169.3358964843748
 10
100.5623372395832
 20
169.3358964843748
 10
100.5623372395832
 20
177.8149103732637
 10
100.5623372395832
 20
177.8149103732637
 10
100.5623372395832
 20
177.8149103732637
 10
103.4472601996527
 20
177.8149103732637
 10
103.4472601996527
 20
177.8149103732637
 10
103.9681586371527
 20
177.8149103732637
 10
104.3519422743053
 20
177.6938359374998
 10
104.5986111111109
 20
177.4516870659716
 10
105.0244249131943
 20
177.0117621527776
 10
105.2518012152777
 20
176.1458580729164
 10
105.280740017361
 20
174.8539748263887
 10
105.280740017361
 20
174.8539748263887
 10
105.3689344618053
 20
171.5564396701385
 10
105.3689344618053
 20
171.5564396701385
 10
105.3882269965277
 20
170.7843524305554
 10
105.4109646267359
 20
170.2639225260415
 10
105.4357693142359
 20
169.9951499565971
 10
105.4605740017358
 20
169.725743489583
 10
105.4970920138888
 20
169.5057810329859
 10
105.5467013888887
 20
169.3358964843748
 10
105.5467013888887
 20
169.3358964843748
 10
107.1769205729166
 20
169.3358964843748
 10
107.1769205729166
 20
169.3358964843748
 10
107.1769205729166
 20
169.3358964843748
 10
107.1769205729166
 20
169.7821603732633
 10
107.1769205729166
 20
169.7821603732633
 10
106.9750379774303
 20
169.9609194878471
 10
106.8337890624996
 20
170.3628105468748
 10
106.7538628472221
 20
170.9878335503471
 10
106.7028754340274
 20
171.3542263454858
 10
106.6677354600692
 20
171.9120562065971
 10
106.6477539062496
 20
172.6625909288193
 10
106.6477539062496
 20
172.6625909288193
 10
106.6036566840277
 20
175.3205234374999
 10
106.6036566840277
 20
175.3205234374999
 10
106.5836751302082
 20
176.4716814236109
 10
106.4768771701387
 20
177.3033550347219
 10
106.2839518229166
 20
177.814276475694
 10
106.0903374565971
 20
178.3251979166665
 10
105.8002604166666
 20
178.7372313368054
 10
105.4130316840276
 20
179.0516445312498
 10
105.8443576388885
 20
179.5086846788193
 10
106.179909939236
 20
180.1134229600693
 10
106.4196885850692
 20
180.866493272569
 10
106.6594672309027
 20
181.6189296874999
 10
106.7800455729166
 20
182.5868912760411
 10
106.7800455729166
 20
183.7697441406248
 10
106.7800455729166
 20
186.0371957465273
 10
106.3328721788193
 20
187.5921464843749
 10
105.4392144097221
 20
188.4345963541665
 10
104.9679253472221
 20
188.8732534722221
 10
104.3719238281249
 20
189.0932159288193
 10
103.6512098524303
 20
189.0932159288193
 10
103.6512098524303
 20
189.0932159288193
 10
99.23942057291661
 20
189.0932159288193
 10
99.23942057291661
 20
189.0932159288193
 10
99.23942057291661
 20
189.0932159288193
 10
99.23942057291661
 20
169.3358964843748
 10
99.23942057291661
 20
169.3358964843748
 97
        0
 75
     0
 76
     1
 98
        0
  0
HATCH
  5
6EF
330
6CF
100
AcDbEntity
  8
0
  6
Continuous
100
AcDbHatch
 10
0.0
 20
0.0
 30
0.0
210
0.0
220
0.0
230
1.0
  2
SOLID
 70
     1
 71
     1
 91
        2
 92
        1
 93
        8
 72
     1
 10
35.47828233506943
 20
189.0932159288193
 11
31.83957248263888
 21
169.3358964843748
 72
     1
 10
31.83957248263888
 20
169.3358964843748
 11
33.22450086805555
 21
169.3358964843748
 72
     1
 10
33.22450086805555
 20
169.3358964843748
 11
34.27043185763887
 21
175.2590353732638
 72
     1
 10
34.27043185763887
 20
175.2590353732638
 11
38.04694552951389
 21
175.2590353732638
 72
     1
 10
38.04694552951389
 20
175.2590353732638
 11
39.05015733506942
 21
169.3358964843748
 72
     1
 10
39.05015733506942
 20
169.3358964843748
 11
40.43508572048611
 21
169.3358964843748
 72
     1
 10
40.43508572048611
 20
169.3358964843748
 11
36.952783203125
 21
189.0932159288193
 72
     1
 10
36.952783203125
 20
189.0932159288193
 11
35.47828233506943
 21
189.0932159288193
 97
        8
330
6EA
330
6E3
330
6E4
330
6E5
330
6E6
330
6E7
330
6E8
330
6E9
 92
       16
 93
        3
 72
     1
 10
37.67556423611111
 20
177.4497853732638
 11
34.65766059027778
 21
177.4497853732638
 72
     1
 10
34.65766059027778
 20
177.4497853732638
 11
36.19830729166666
 21
186.1658769531249
 72
     1
 10
36.19830729166666
 20
186.1658769531249
 11
37.67556423611111
 21
177.4497853732638
 97
        3
330
6E2
330
6E0
330
6E1
 75
     0
 76
     1
 98
        1
 10
0.0
 20
0.0
  0
HATCH
  5
6F0
330
6CF
100
AcDbEntity
  8
0
  6
Continuous
100
AcDbHatch
 10
0.0
 20
0.0
 30
0.0
210
0.0
220
0.0
230
1.0
  2
SOLID
 70
     1
 71
     1
 91
        1
 92
        1
 93
        1
 72
     4
 94
        3
 73
     0
 74
     0
 95
      113
 96
      109
 40
0.0
 40
0.0
 40
0.0
 40
0.0
 40
1.0
 40
1.0
 40
1.0
 40
2.0
 40
2.0
 40
2.0
 40
3.0
 40
3.0
 40
3.0
 40
4.0
 40
4.0
 40
4.0
 40
5.0
 40
5.0
 40
5.0
 40
6.0
 40
6.0
 40
6.0
 40
7.0
 40
7.0
 40
7.0
 40
8.0
 40
8.0
 40
8.0
 40
9.0
 40
9.0
 40
9.0
 40
10.0
 40
10.0
 40
10.0
 40
11.0
 40
11.0
 40
11.0
 40
12.0
 40
12.0
 40
12.0
 40
13.0
 40
13.0
 40
13.0
 40
14.0
 40
14.0
 40
14.0
 40
15.0
 40
15.0
 40
15.0
 40
16.0
 40
16.0
 40
16.0
 40
17.0
 40
17.0
 40
17.0
 40
18.0
 40
18.0
 40
18.0
 40
19.0
 40
19.0
 40
19.0
 40
20.0
 40
20.0
 40
20.0
 40
21.0
 40
21.0
 40
21.0
 40
22.0
 40
22.0
 40
22.0
 40
23.0
 40
23.0
 40
23.0
 40
24.0
 40
24.0
 40
24.0
 40
25.0
 40
25.0
 40
25.0
 40
26.0
 40
26.0
 40
26.0
 40
27.0
 40
27.0
 40
27.0
 40
28.0
 40
28.0
 40
28.0
 40
29.0
 40
29.0
 40
29.0
 40
30.0
 40
30.0
 40
30.0
 40
31.0
 40
31.0
 40
31.0
 40
32.0
 40
32.0
 40
32.0
 40
33.0
 40
33.0
 40
33.0
 40
34.0
 40
34.0
 40
34.0
 40
35.0
 40
35.0
 40
35.0
 40
36.0
 40
36.0
 40
36.0
 40
36.0
 10
193.3039632161458
 20
186.1548733181423
 10
193.3039632161458
 20
186.1860514322916
 10
193.3039632161458
 20
219.6932223849826
 10
193.3039632161458
 20
219.6932223849826
 10
193.3039632161458
 20
219.6932223849826
 10
193.2974175347219
 20
219.7488606770833
 10
193.2974175347219
 20
219.7488606770833
 10
191.5293945312499
 20
235.455740017361
 10
175.1458984374999
 20
235.2467949761284
 10
174.9808783637151
 20
235.2428331163193
 10
174.9808783637151
 20
235.2428331163193
 10
125.8827555338541
 20
235.2430053710937
 10
125.8827555338541
 20
235.2430053710937
 10
125.8827555338541
 20
235.2430053710937
 10
125.8827555338541
 20
255.5278998480901
 10
125.8827555338541
 20
255.5278998480901
 10
125.8827555338541
 20
255.5278998480901
 10
84.5626247829861
 20
255.5278998480901
 10
84.5626247829861
 20
255.5278998480901
 10
84.5626247829861
 20
255.5278998480901
 10
84.55711263020829
 20
233.7919311523436
 10
84.55711263020829
 20
233.7919311523436
 10
84.55711263020829
 20
233.7919311523436
 10
64.42052951388888
 20
233.7919311523436
 10
64.42052951388888
 20
233.7919311523436
 10
64.42052951388888
 20
233.7919311523436
 10
64.41501736111111
 20
255.5278998480901
 10
64.41501736111111
 20
255.5278998480901
 10
64.41501736111111
 20
255.5278998480901
 10
23.91757541232637
 20
255.5278998480901
 10
23.91757541232637
 20
255.5278998480901
 10
23.91757541232637
 20
255.5278998480901
 10
23.91757541232637
 20
233.2393378363715
 10
23.91757541232637
 20
233.2393378363715
 10
23.91757541232637
 20
233.2393378363715
 10
43.65624999999999
 20
233.2393378363715
 10
43.65624999999999
 20
233.2393378363715
 10
43.65624999999999
 20
233.2393378363715
 10
43.65624999999999
 20
211.5188720703125
 10
43.65624999999999
 20
211.5188720703125
 10
43.65624999999999
 20
211.5188720703125
 10
23.91757541232637
 20
211.5188720703125
 10
23.91757541232637
 20
211.5188720703125
 10
23.91757541232637
 20
211.5188720703125
 10
23.91757541232637
 20
189.2303100585936
 10
23.91757541232637
 20
189.2303100585936
 10
23.91757541232637
 20
189.2303100585936
 10
64.41501736111111
 20
189.2303100585936
 10
64.41501736111111
 20
189.2303100585936
 10
64.41501736111111
 20
189.2303100585936
 10
64.42052951388888
 20
211.069976128472
 10
64.42052951388888
 20
211.069976128472
 10
64.42052951388888
 20
211.069976128472
 10
84.55711263020829
 20
211.069976128472
 10
84.55711263020829
 20
211.069976128472
 10
84.55711263020829
 20
211.069976128472
 10
84.5626247829861
 20
189.2303100585936
 10
84.5626247829861
 20
189.2303100585936
 10
84.5626247829861
 20
189.2303100585936
 10
125.8827555338541
 20
189.2303100585936
 10
125.8827555338541
 20
189.2303100585936
 10
125.8827555338541
 20
189.2303100585936
 10
125.8827555338541
 20
211.5188720703125
 10
125.8827555338541
 20
211.5188720703125
 10
125.8827555338541
 20
211.5188720703125
 10
105.3213921440971
 20
211.5188720703125
 10
105.3213921440971
 20
211.5188720703125
 10
105.3213921440971
 20
211.5188720703125
 10
105.3213921440971
 20
233.2393378363715
 10
105.3213921440971
 20
233.2393378363715
 10
105.3213921440971
 20
233.2393378363715
 10
175.0046495225693
 20
233.243127441406
 10
175.0046495225693
 20
233.243127441406
 10
175.6268337673611
 20
233.2560465494791
 10
189.7165852864583
 20
233.3962619357638
 10
191.3037407769094
 20
219.5690266927083
 10
191.3037407769094
 20
219.4332899305555
 10
191.3037407769094
 20
186.1142211914062
 10
191.3037407769094
 20
186.1142211914062
 10
191.3037407769094
 20
186.1142211914062
 10
191.3051188151039
 20
186.0880384657115
 10
191.3051188151039
 20
186.0880384657115
 10
191.3054633246526
 20
186.0787367078991
 10
191.3109754774304
 20
185.9566080729166
 10
191.3109754774304
 20
185.7399115668401
 10
191.3109754774304
 20
184.2090833875865
 10
191.0488037109374
 20
177.9643310546874
 10
186.9866916232638
 20
173.5652886284722
 10
184.2540418836804
 20
170.6064683702255
 10
180.3224989149304
 20
169.0308539496526
 10
175.300927734375
 20
168.8825425889756
 10
175.300927734375
 20
168.8825425889756
 10
107.0094889322916
 20
168.8828870985243
 10
107.0094889322916
 20
168.8828870985243
 10
107.0094889322916
 20
168.8828870985243
 10
107.0094889322916
 20
166.8830091688368
 10
107.0094889322916
 20
166.8830091688368
 10
107.0094889322916
 20
166.8830091688368
 10
175.3305555555555
 20
166.8830091688368
 10
175.3305555555555
 20
166.8830091688368
 10
180.9467502170138
 20
167.0485460069444
 10
185.3571614583333
 20
168.8448187934026
 10
188.4687717013888
 20
172.2223904079861
 10
192.9649658203124
 20
177.1034016927083
 10
193.3136094835069
 20
183.7202243381076
 10
193.3136094835069
 20
185.6520616319443
 10
193.3136094835069
 20
185.9247409396701
 10
193.3070638020833
 20
186.0868326822916
 10
193.3039632161458
 20
186.1548733181423
 97
        1
330
6D0
 75
     0
 76
     1
 98
        1
 10
0.0
 20
0.0
  0
HATCH
  5
6F1
330
6CF
100
AcDbEntity
  8
0
  6
Continuous
100
AcDbHatch
 10
0.0
 20
0.0
 30
0.0
210
0.0
220
0.0
230
1.0
  2
SOLID
 70
     1
 71
     1
 91
        2
 92
        1
 93
        1
 72
     4
 94
        3
 73
     0
 74
     0
 95
       23
 96
       19
 40
0.0
 40
0.0
 40
0.0
 40
0.0
 40
1.0
 40
1.0
 40
1.0
 40
2.0
 40
2.0
 40
2.0
 40
3.0
 40
3.0
 40
3.0
 40
4.0
 40
4.0
 40
4.0
 40
5.0
 40
5.0
 40
5.0
 40
6.0
 40
6.0
 40
6.0
 40
6.0
 10
148.6593153211804
 20
211.3929538302948
 10
148.6593153211804
 20
211.3929538302948
 10
148.6593153211804
 20
189.6308024088539
 10
148.6593153211804
 20
189.6308024088539
 10
148.6593153211804
 20
189.6308024088539
 10
161.3152180989583
 20
189.6308024088539
 10
161.3152180989583
 20
189.6308024088539
 10
162.8431179470483
 20
189.6308024088539
 10
170.4657362196178
 20
190.1880466037321
 10
170.4657362196178
 20
201.1911648220483
 10
170.4657362196178
 20
211.1288872612844
 10
162.3356553819444
 20
211.3914035373261
 10
162.2536621093749
 20
211.3927815755205
 10
162.2536621093749
 20
211.3927815755205
 10
149.6594265407986
 20
211.3929538302948
 10
149.6594265407986
 20
211.3929538302948
 10
149.6594265407986
 20
211.3929538302948
 10
148.6593153211804
 20
211.3929538302948
 10
148.6593153211804
 20
211.3929538302948
 97
        1
330
6D1
 92
       16
 93
        1
 72
     4
 94
        3
 73
     0
 74
     0
 95
       20
 96
       16
 40
0.0
 40
0.0
 40
0.0
 40
0.0
 40
1.0
 40
1.0
 40
1.0
 40
2.0
 40
2.0
 40
2.0
 40
3.0
 40
3.0
 40
3.0
 40
4.0
 40
4.0
 40
4.0
 40
5.0
 40
5.0
 40
5.0
 40
5.0
 10
162.2354031032983
 20
209.3930759006072
 10
162.467947048611
 20
209.3861857096351
 10
168.4655137803819
 20
209.1283203124997
 10
168.4655137803819
 20
201.1911648220483
 10
168.4655137803819
 20
192.3202162000865
 10
162.9926350911458
 20
191.6306803385413
 10
161.3152180989583
 20
191.6306803385413
 10
161.3152180989583
 20
191.6306803385413
 10
152.3310980902776
 20
191.6306803385413
 10
150.6595377604166
 20
191.6306803385413
 10
150.6595377604166
 20
193.3373806423608
 10
150.6595377604166
 20
207.6863755967879
 10
150.6595377604166
 20
209.3930759006072
 10
152.3538357204859
 20
209.3930759006072
 10
162.2354031032983
 20
209.3930759006072
 10
162.2354031032983
 20
209.3930759006072
 97
        0
 75
     0
 76
     1
 98
        0
  0
ENDBLK
  5
6F3
330
6CF
100
AcDbEntity
  8
0
100
AcDbBlockEnd
  0
BLOCK
  5
6F6
330
6F4
100
AcDbEntity
  8
0
100
AcDbBlockBegin
  2
HD logo-new
 70
     0
 10
0.0
 20
0.0
 30
0.0
  3
HD logo-new
  1

  0
INSERT
  5
6F5
330
6F4
100
AcDbEntity
  8
0
 62
     3
100
AcDbBlockReference
  2
HD_LLC_logo_OT5
 10
-27.1607188578505
 20
-68.37367811463031
 30
0.0
 41
0.2999999999999971
 42
0.3000000000000007
 43
0.3
  0
ENDBLK
  5
6F7
330
6F4
100
AcDbEntity
  8
0
100
AcDbBlockEnd
  0
BLOCK
  5
701
330
6FF
100
AcDbEntity
  8
0
100
AcDbBlockBegin
  2
HD LLC
 70
     0
 10
0.0
 20
0.0
 30
0.0
  3
HD LLC
  1

  0
MTEXT
  5
700
330
6FF
100
AcDbEntity
  8
0
100
AcDbMText
 10
-2.314970886968865
 20
1.247205085865914
 30
0.0
 40
5.675387507387601
 41
236.1828726592229
 71
     5
 72
     5
  1
Harmonic Drive LLC\P800-921-3332\Pwww.harmonicdrive.net
 73
     1
 44
1.0
  0
ENDBLK
  5
702
330
6FF
100
AcDbEntity
  8
0
100
AcDbBlockEnd
  0
ENDSEC
  0
SECTION
  2
ENTITIES
  0
LINE
  5
336
330
1F
100
AcDbEntity
  8
WAVE_GENERATOR
100
AcDbLine
 10
15.90041647324005
 20
21.44218138578499
 30
0.0
 11
15.02541647324004
 21
21.44218138578499
 31
0.0
  0
LINE
  5
337
330
1F
100
AcDbEntity
  8
WAVE_GENERATOR
100
AcDbLine
 10
15.90041647324005
 20
22.41644302880524
 30
0.0
 11
15.02541647324004
 21
22.41644302880524
 31
0.0
  0
LINE
  5
338
330
1F
100
AcDbEntity
  8
WAVE_GENERATOR
100
AcDbLine
 10
15.90041647324005
 20
22.51718138578499
 30
0.0
 11
15.02541647324004
 21
22.51718138578499
 31
0.0
  0
LINE
  5
339
330
1F
100
AcDbEntity
  8
WAVE_GENERATOR
100
AcDbLine
 10
15.69941647324005
 20
21.30428138578499
 30
0.0
 11
15.90041647324005
 21
21.30428138578499
 31
0.0
  0
LWPOLYLINE
  5
33A
330
1F
100
AcDbEntity
  8
SPLINE_FLEX
100
AcDbPolyline
 90
        8
 70
     1
 43
0.0
 10
15.90208576457863
 20
19.91378138578498
 10
15.02008576457862
 20
19.91378138578498
 10
14.96008576457863
 20
19.94842240193636
 10
14.96008576457863
 20
19.99158138578499
 42
-0.4142135623730951
 10
14.97008576457862
 20
20.00158138578499
 10
15.95208576457862
 20
20.00158138578499
 42
-0.4142135623730946
 10
15.96208576457862
 20
19.99158138578499
 10
15.96208576457862
 20
19.94842240193636
  0
LINE
  5
33B
330
1F
100
AcDbEntity
  8
LINE_CENTER
100
AcDbLine
 10
15.36518812678336
 20
19.57208138578499
 30
0.0
 11
16.07718812678334
 21
19.57208138578499
 31
0.0
  0
LINE
  5
33C
330
1F
100
AcDbEntity
  8
LINE_HIDDEN
100
AcDbLine
 10
15.46518812678336
 20
19.41458138578499
 30
0.0
 11
15.97718812678334
 21
19.41458138578499
 31
0.0
  0
LINE
  5
33D
330
1F
100
AcDbEntity
  8
SPLINE_STATIC
100
AcDbLine
 10
15.46518812678336
 20
19.43808138578499
 30
0.0
 11
15.97718812678334
 21
19.43808138578499
 31
0.0
  0
LINE
  5
33E
330
1F
100
AcDbEntity
  8
LINE_HIDDEN
100
AcDbLine
 10
15.46518812678336
 20
19.72958138578499
 30
0.0
 11
15.97718812678334
 21
19.72958138578499
 31
0.0
  0
LINE
  5
33F
330
1F
100
AcDbEntity
  8
SPLINE_STATIC
100
AcDbLine
 10
15.46518812678336
 20
19.70608138578499
 30
0.0
 11
15.97718812678334
 21
19.70608138578499
 31
0.0
  0
LWPOLYLINE
  5
340
330
1F
100
AcDbEntity
  8
SPLINE_STATIC
100
AcDbPolyline
 90
        8
 70
     1
 43
0.0
 10
15.93718812678335
 20
19.91978138578499
 10
15.50518812678334
 20
19.91978138578499
 10
15.46518812678336
 20
19.87978138578499
 10
15.46518812678336
 20
19.30683138578499
 10
15.49518812678334
 20
19.27683138578499
 10
15.94718812678334
 20
19.27683138578499
 10
15.97718812678334
 20
19.30683138578499
 10
15.97718812678335
 20
19.87978138578499
  0
LWPOLYLINE
  5
341
330
1F
100
AcDbEntity
  8
SPLINE_STATIC
100
AcDbPolyline
 90
        8
 70
     1
 43
0.0
 10
15.93718812678335
 20
23.94878138578499
 10
15.50518812678334
 20
23.94878138578499
 10
15.46518812678336
 20
23.98878138578499
 10
15.46518812678336
 20
24.56173138578499
 10
15.49518812678334
 20
24.59173138578499
 10
15.94718812678334
 20
24.59173138578499
 10
15.97718812678334
 20
24.56173138578499
 10
15.97718812678335
 20
23.98878138578499
  0
LINE
  5
342
330
1F
100
AcDbEntity
  8
SPLINE_STATIC
100
AcDbLine
 10
15.46518812678336
 20
24.16248138578499
 30
0.0
 11
15.97718812678334
 21
24.16248138578499
 31
0.0
  0
LINE
  5
343
330
1F
100
AcDbEntity
  8
LINE_HIDDEN
100
AcDbLine
 10
15.46518812678336
 20
24.13898138578499
 30
0.0
 11
15.97718812678334
 21
24.13898138578499
 31
0.0
  0
LINE
  5
344
330
1F
100
AcDbEntity
  8
SPLINE_STATIC
100
AcDbLine
 10
15.46518812678336
 20
24.43048138578499
 30
0.0
 11
15.97718812678334
 21
24.43048138578499
 31
0.0
  0
LINE
  5
345
330
1F
100
AcDbEntity
  8
LINE_HIDDEN
100
AcDbLine
 10
15.46518812678336
 20
24.45398138578499
 30
0.0
 11
15.97718812678334
 21
24.45398138578499
 31
0.0
  0
LINE
  5
346
330
1F
100
AcDbEntity
  8
LINE_CENTER
100
AcDbLine
 10
15.36518812678336
 20
24.29648138578499
 30
0.0
 11
16.07718812678334
 21
24.29648138578499
 31
0.0
  0
LWPOLYLINE
  5
347
330
1F
100
AcDbEntity
  8
SPLINE_FLEX
100
AcDbPolyline
 90
        8
 70
     1
 43
0.0
 10
15.90208576457863
 20
23.95478138578499
 10
15.02008576457862
 20
23.95478138578499
 10
14.96008576457863
 20
23.92014036963361
 10
14.96008576457863
 20
23.87698138578499
 42
0.4142135623730951
 10
14.97008576457862
 20
23.86698138578498
 10
15.95208576457862
 20
23.86698138578498
 42
0.4142135623730946
 10
15.96208576457862
 20
23.87698138578499
 10
15.96208576457862
 20
23.92014036963361
  0
LINE
  5
348
330
1F
100
AcDbEntity
  8
WAVE_GENERATOR
100
AcDbLine
 10
15.69941647324005
 20
22.56428138578498
 30
0.0
 11
15.90041647324005
 21
22.56428138578498
 31
0.0
  0
LINE
  5
349
330
1F
100
AcDbEntity
  8
LINE_CENTER
100
AcDbLine
 10
16.63690490117058
 20
21.93428138578499
 30
0.0
 11
13.16895315946266
 21
21.93428138578499
 31
0.0
  0
LWPOLYLINE
  5
34A
330
1F
100
AcDbEntity
  8
SPLINE_DYNAMIC
100
AcDbPolyline
 90
        8
 70
     1
 43
0.0
 10
14.31598340237391
 20
19.91978138578499
 10
15.41398340237391
 20
19.91978138578499
 10
15.4539834023739
 20
19.87978138578499
 10
15.4539834023739
 20
19.33683138578499
 10
15.39398340237391
 20
19.27683138578499
 10
14.33598340237391
 20
19.27683138578499
 10
14.2759834023739
 20
19.33683138578499
 10
14.2759834023739
 20
19.87978138578499
  0
LWPOLYLINE
  5
34B
330
1F
100
AcDbEntity
  8
SPLINE_STATIC
100
AcDbPolyline
 90
        8
 70
     1
 43
0.0
 10
13.79277867796445
 20
19.91978138578499
 10
14.22477867796446
 20
19.91978138578499
 10
14.26477867796446
 20
19.87978138578499
 10
14.26477867796446
 20
19.30683138578499
 10
14.23477867796446
 20
19.27683138578499
 10
13.78277867796446
 20
19.27683138578499
 10
13.75277867796446
 20
19.30683138578499
 10
13.75277867796446
 20
19.87978138578499
  0
CIRCLE
  5
34C
330
1F
100
AcDbEntity
  8
SPLINE_STATIC
100
AcDbCircle
 10
8.873604690913104
 20
21.93428138578499
 30
0.0
 40
2.657449999999998
  0
CIRCLE
  5
34D
330
1F
100
AcDbEntity
  8
LINE_CENTER
100
AcDbCircle
 10
8.873604690913104
 20
21.93428138578499
 30
0.0
 40
1.0
  0
CIRCLE
  5
34E
330
1F
100
AcDbEntity
  8
WAVE_GENERATOR
100
AcDbCircle
 10
8.873604690913104
 20
21.93428138578499
 30
0.0
 40
0.63
  0
ARC
  5
34F
330
1F
100
AcDbEntity
  8
SEPARATOR_BEARING
100
AcDbCircle
 10
8.422234678323571
 20
23.5452420590686
 30
0.0
 40
0.208000006656
100
AcDbArc
 50
333.6058882918397
 51
45.80669322221237
  0
ARC
  5
350
330
1F
100
AcDbEntity
  8
BEARING_WAVE_GEN
100
AcDbCircle
 10
8.423988357392206
 20
23.53898309650055
 30
0.0
 40
0.1875000059999999
100
AcDbArc
 50
312.1317306069868
 51
78.25563516764423
  0
ARC
  5
351
330
1F
100
AcDbEntity
  8
BEARING_WAVE_GEN
100
AcDbCircle
 10
8.646682962932715
 20
20.28330320388414
 30
0.0
 40
0.1875000059999999
100
AcDbArc
 50
108.6534697374204
 51
234.777374298081
  0
ARC
  5
352
330
1F
100
AcDbEntity
  8
SEPARATOR_BEARING
100
AcDbCircle
 10
8.873604690913104
 20
21.93428138578499
 30
0.0
 40
1.794500057423999
100
AcDbArc
 50
95.90734796137258
 51
99.74482595167387
  0
CIRCLE
  5
353
330
1F
100
AcDbEntity
  8
BEARING_WAVE_GEN
100
AcDbCircle
 10
8.873604690913104
 20
21.93428138578499
 30
0.0
 40
1.83500005872
  0
CIRCLE
  5
354
330
1F
100
AcDbEntity
  8
BEARING_WAVE_GEN
100
AcDbCircle
 10
8.873604690913104
 20
21.93428138578499
 30
0.0
 40
1.400000044799998
  0
CIRCLE
  5
355
330
1F
100
AcDbEntity
  8
BEARING_WAVE_GEN
100
AcDbCircle
 10
8.873604690913104
 20
21.93428138578499
 30
0.0
 40
1.501000048031999
  0
CIRCLE
  5
356
330
1F
100
AcDbEntity
  8
WEAR_WASHER
100
AcDbCircle
 10
8.873604690913104
 20
21.93428138578499
 30
0.0
 40
1.87
  0
CIRCLE
  5
357
330
1F
100
AcDbEntity
  8
LINE_CENTER
100
AcDbCircle
 10
8.873604690913104
 20
21.93428138578499
 30
0.0
 40
2.3622
  0
CIRCLE
  5
358
330
1F
100
AcDbEntity
  8
WEAR_WASHER
100
AcDbCircle
 10
8.873604690913104
 20
21.93428138578499
 30
0.0
 40
2.1875
  0
ARC
  5
359
330
1F
100
AcDbEntity
  8
BEARING_WAVE_GEN
100
AcDbCircle
 10
7.393943927096412
 20
22.7009797956983
 30
0.0
 40
0.1875000059999999
100
AcDbArc
 50
359.0882523461186
 51
125.2121569067762
  0
ARC
  5
35A
330
1F
100
AcDbEntity
  8
BEARING_WAVE_GEN
100
AcDbCircle
 10
7.512124320643835
 20
20.97324359822736
 30
0.0
 40
0.1875000059999999
100
AcDbArc
 50
61.69694799829802
 51
187.8208525589521
  0
CIRCLE
  5
35B
330
1F
100
AcDbEntity
  8
SPLINE_STATIC
100
AcDbCircle
 10
6.827879482093511
 20
20.75318138578499
 30
0.0
 40
0.134
  0
CIRCLE
  5
35C
330
1F
100
AcDbEntity
  8
LINE_HIDDEN
100
AcDbCircle
 10
6.827879482093511
 20
20.75318138578499
 30
0.0
 40
0.1575
  0
ARC
  5
35D
330
1F
100
AcDbEntity
  8
SEPARATOR_BEARING
100
AcDbCircle
 10
8.873604690913104
 20
21.93428138578499
 30
0.0
 40
1.794500057423999
100
AcDbArc
 50
252.4290870918023
 51
256.2665650821035
  0
ARC
  5
35E
330
1F
100
AcDbEntity
  8
SEPARATOR_BEARING
100
AcDbCircle
 10
8.448768335660989
 20
20.19594179692326
 30
0.0
 40
0.00500000016
100
AcDbArc
 50
256.2665650821298
 51
22.32843235266364
  0
ARC
  5
35F
330
1F
100
AcDbEntity
  8
BEARING_WAVE_GEN
100
AcDbCircle
 10
8.209669253438406
 20
20.4057487029131
 30
0.0
 40
0.1875000059999999
100
AcDbArc
 50
273.9182778758295
 51
40.04218243648909
  0
ARC
  5
360
330
1F
100
AcDbEntity
  8
SEPARATOR_BEARING
100
AcDbCircle
 10
8.873604690913104
 20
21.93428138578499
 30
0.0
 40
1.794500057423999
100
AcDbArc
 50
236.7769131787609
 51
240.6143911690667
  0
ARC
  5
361
330
1F
100
AcDbEntity
  8
SEPARATOR_BEARING
100
AcDbCircle
 10
7.817794526269686
 20
20.63651635490802
 30
0.0
 40
0.208000006656
100
AcDbArc
 50
290.7150459082263
 51
2.915850838576864
  0
ARC
  5
362
330
1F
100
AcDbEntity
  8
BEARING_WAVE_GEN
100
AcDbCircle
 10
7.821896598039101
 20
20.64155847845895
 30
0.0
 40
0.1875000059999999
100
AcDbArc
 50
258.2661039627823
 51
24.39000852344721
  0
ARC
  5
363
330
1F
100
AcDbEntity
  8
BEARING_WAVE_GEN
100
AcDbCircle
 10
7.821896598039101
 20
20.64155847845895
 30
0.0
 40
0.1875000059999999
100
AcDbArc
 50
77.34912191133067
 51
203.4730264719974
  0
ARC
  5
364
330
1F
100
AcDbEntity
  8
SEPARATOR_BEARING
100
AcDbCircle
 10
7.893136990875389
 20
20.43728654807491
 30
0.0
 40
0.00500000016
100
AcDbArc
 50
110.7150459082125
 51
236.7769131787749
  0
ARC
  5
365
330
1F
100
AcDbEntity
  8
SEPARATOR_BEARING
100
AcDbCircle
 10
8.873604690913122
 20
21.93428138578499
 30
0.0
 40
1.794500057423999
100
AcDbArc
 50
221.1247392657174
 51
224.9622172560184
  0
ARC
  5
366
330
1F
100
AcDbEntity
  8
SEPARATOR_BEARING
100
AcDbCircle
 10
7.817794526269713
 20
20.63651635490802
 30
0.0
 40
0.208000006656
100
AcDbArc
 50
98.82327959619059
 51
171.0240845265625
  0
ARC
  5
367
330
1F
100
AcDbEntity
  8
SEPARATOR_BEARING
100
AcDbCircle
 10
7.506814016169352
 20
20.96949517601366
 30
0.0
 40
0.208000006656
100
AcDbArc
 50
275.0628719951758
 51
347.2636769255334
  0
ARC
  5
368
330
1F
100
AcDbEntity
  8
BEARING_WAVE_GEN
100
AcDbCircle
 10
7.512124320643835
 20
20.97324359822736
 30
0.0
 40
0.1875000059999999
100
AcDbArc
 50
242.613930049743
 51
8.737834610404927
  0
ARC
  5
369
330
1F
100
AcDbEntity
  8
SEPARATOR_BEARING
100
AcDbCircle
 10
7.525611019207763
 20
20.75732619717747
 30
0.0
 40
0.00500000016
100
AcDbArc
 50
95.06287199517577
 51
221.1247392657349
  0
ARC
  5
36A
330
1F
100
AcDbEntity
  8
SEPARATOR_BEARING
100
AcDbCircle
 10
8.873604690913122
 20
21.93428138578499
 30
0.0
 40
1.533500049071998
100
AcDbArc
 50
221.1184524046946
 51
224.9685041170444
  0
ARC
  5
36B
330
1F
100
AcDbEntity
  8
SEPARATOR_BEARING
100
AcDbCircle
 10
7.714573152455789
 20
20.92253621315106
 30
0.0
 40
0.00500000016
100
AcDbArc
 50
41.11845240468085
 51
167.2636769259811
  0
ARC
  5
36C
330
1F
100
AcDbEntity
  8
SEPARATOR_BEARING
100
AcDbCircle
 10
7.785123020446857
 20
20.84699574964984
 30
0.0
 40
0.00500000016
100
AcDbArc
 50
278.823279596164
 51
44.96850411704185
  0
ARC
  5
36D
330
1F
100
AcDbEntity
  8
SEPARATOR_BEARING
100
AcDbCircle
 10
7.607402915145174
 20
20.66974846095072
 30
0.0
 40
0.00500000016
100
AcDbArc
 50
224.9622172560367
 51
351.0240845265753
  0
ARC
  5
36E
330
1F
100
AcDbEntity
  8
SEPARATOR_BEARING
100
AcDbCircle
 10
8.873604690913104
 20
21.93428138578499
 30
0.0
 40
1.533500049071998
100
AcDbArc
 50
236.7706263177358
 51
240.6206780300925
  0
ARC
  5
36F
330
1F
100
AcDbEntity
  8
BEARING_WAVE_GEN
100
AcDbCircle
 10
8.209669253438406
 20
20.4057487029131
 30
0.0
 40
0.1875000059999999
100
AcDbArc
 50
93.00129582437993
 51
219.1252003850396
  0
ARC
  5
370
330
1F
100
AcDbEntity
  8
SEPARATOR_BEARING
100
AcDbCircle
 10
8.118833027414597
 20
20.5936464103101
 30
0.0
 40
0.00500000016
100
AcDbArc
 50
294.4754535092083
 51
60.62067803009142
  0
ARC
  5
371
330
1F
100
AcDbEntity
  8
SEPARATOR_BEARING
100
AcDbCircle
 10
7.995524011897691
 20
20.3750236213061
 30
0.0
 40
0.00500000016
100
AcDbArc
 50
240.6143911690829
 51
6.676258439618316
  0
ARC
  5
372
330
1F
100
AcDbEntity
  8
SEPARATOR_BEARING
100
AcDbCircle
 10
8.20707964627153
 20
20.39978682926253
 30
0.0
 40
0.208000006656
100
AcDbArc
 50
114.475453509235
 51
186.6762584396076
  0
ARC
  5
373
330
1F
100
AcDbEntity
  8
SEPARATOR_BEARING
100
AcDbCircle
 10
8.508520995813441
 20
20.4397258341044
 30
0.0
 40
0.00500000016
100
AcDbArc
 50
310.127627422256
 51
76.27285194312925
  0
ARC
  5
374
330
1F
100
AcDbEntity
  8
SEPARATOR_BEARING
100
AcDbCircle
 10
8.207079646271541
 20
20.39978682926253
 30
0.0
 40
0.208000006656
100
AcDbArc
 50
306.367219821262
 51
18.56802475161955
  0
ARC
  5
375
330
1F
100
AcDbEntity
  8
SEPARATOR_BEARING
100
AcDbCircle
 10
8.333379766513575
 20
20.22827215778962
 30
0.0
 40
0.00500000016
100
AcDbArc
 50
126.3672198212608
 51
252.4290870918155
  0
ARC
  5
376
330
1F
100
AcDbEntity
  8
SEPARATOR_BEARING
100
AcDbCircle
 10
8.645797879685268
 20
20.27686374502885
 30
0.0
 40
0.208000006656
100
AcDbArc
 50
130.1276274222743
 51
202.328432352652
  0
ARC
  5
377
330
1F
100
AcDbEntity
  8
SEPARATOR_BEARING
100
AcDbCircle
 10
8.873604690913104
 20
21.93428138578499
 30
0.0
 40
1.533500049071998
100
AcDbArc
 50
252.4228002307756
 51
256.2728519431292
  0
ARC
  5
378
330
1F
100
AcDbEntity
  8
SEPARATOR_BEARING
100
AcDbCircle
 10
8.408992207200212
 20
20.467612492863
 30
0.0
 40
0.00500000016
100
AcDbArc
 50
72.42280023077445
 51
198.5680247520667
  0
ARC
  5
379
330
1F
100
AcDbEntity
  8
SEPARATOR_BEARING
100
AcDbCircle
 10
8.030518766761559
 20
20.64735150192013
 30
0.0
 40
0.00500000016
100
AcDbArc
 50
56.77062631773235
 51
182.9158508390245
  0
ARC
  5
37A
330
1F
100
AcDbEntity
  8
SEPARATOR_BEARING
100
AcDbCircle
 10
7.388172672992116
 20
22.70397021853925
 30
0.0
 40
0.208000006656
100
AcDbArc
 50
212.454176343007
 51
284.6549812733613
  0
ARC
  5
37B
330
1F
100
AcDbEntity
  8
SEPARATOR_BEARING
100
AcDbCircle
 10
7.235596959804341
 20
22.27466330651427
 30
0.0
 40
0.208000006656
100
AcDbArc
 50
228.1063502560495
 51
300.307155186399
  0
ARC
  5
37C
330
1F
100
AcDbEntity
  8
SEPARATOR_BEARING
100
AcDbCircle
 10
7.204504786646147
 20
21.82011182457246
 30
0.0
 40
0.208000006656
100
AcDbArc
 50
51.8667578570524
 51
124.0675627874295
  0
ARC
  5
37D
330
1F
100
AcDbEntity
  8
BEARING_WAVE_GEN
100
AcDbCircle
 10
7.210989633853403
 20
21.82055540027354
 30
0.0
 40
0.1875000059999999
100
AcDbArc
 50
30.39260017220185
 51
156.516504732865
  0
ARC
  5
37E
330
1F
100
AcDbEntity
  8
BEARING_WAVE_GEN
100
AcDbCircle
 10
7.241961006577922
 20
22.27334084238711
 30
0.0
 40
0.1875000059999999
100
AcDbArc
 50
195.6574083106117
 51
321.7813128712696
  0
ARC
  5
37F
330
1F
100
AcDbEntity
  8
SEPARATOR_BEARING
100
AcDbCircle
 10
7.204504786646147
 20
21.82011182457246
 30
0.0
 40
0.208000006656
100
AcDbArc
 50
243.7585241690952
 51
315.959329099448
  0
ARC
  5
380
330
1F
100
AcDbEntity
  8
SEPARATOR_BEARING
100
AcDbCircle
 10
7.297202117763448
 20
21.37402777669481
 30
0.0
 40
0.208000006656
100
AcDbArc
 50
67.51893177009768
 51
139.7197367004785
  0
ARC
  5
381
330
1F
100
AcDbEntity
  8
BEARING_WAVE_GEN
100
AcDbCircle
 10
7.210989633853403
 20
21.82055540027354
 30
0.0
 40
0.1875000059999999
100
AcDbArc
 50
211.3095822236554
 51
337.4334867843189
  0
ARC
  5
382
330
1F
100
AcDbEntity
  8
SEPARATOR_BEARING
100
AcDbCircle
 10
7.258059571509765
 20
21.16465522840733
 30
0.0
 40
0.00500000016
100
AcDbArc
 50
79.41069808212394
 51
205.472565352692
  0
ARC
  5
383
330
1F
100
AcDbEntity
  8
BEARING_WAVE_GEN
100
AcDbCircle
 10
7.303326813953207
 20
21.37620449424357
 30
0.0
 40
0.1875000059999999
100
AcDbArc
 50
226.9617561367039
 51
353.0856606973601
  0
ARC
  5
384
330
1F
100
AcDbEntity
  8
BEARING_WAVE_GEN
100
AcDbCircle
 10
7.303326813953207
 20
21.37620449424357
 30
0.0
 40
0.1875000059999999
100
AcDbArc
 50
46.0447740852484
 51
172.1686786459091
  0
ARC
  5
385
330
1F
100
AcDbEntity
  8
SEPARATOR_BEARING
100
AcDbCircle
 10
8.873604690913104
 20
21.93428138578499
 30
0.0
 40
1.794500057423999
100
AcDbArc
 50
205.4725653526753
 51
209.3100433429783
  0
ARC
  5
386
330
1F
100
AcDbEntity
  8
SEPARATOR_BEARING
100
AcDbCircle
 10
7.235596959804341
 20
22.27466330651427
 30
0.0
 40
0.208000006656
100
AcDbArc
 50
36.21458394401496
 51
108.4153888743874
  0
ARC
  5
387
330
1F
100
AcDbEntity
  8
BEARING_WAVE_GEN
100
AcDbCircle
 10
7.393943927096412
 20
22.7009797956983
 30
0.0
 40
0.1875000059999999
100
AcDbArc
 50
180.0052343975684
 51
306.1291389582251
  0
ARC
  5
388
330
1F
100
AcDbEntity
  8
BEARING_WAVE_GEN
100
AcDbCircle
 10
7.241961006577922
 20
22.27334084238711
 30
0.0
 40
0.1875000059999999
100
AcDbArc
 50
14.74042625916261
 51
140.8643308198188
  0
ARC
  5
389
330
1F
100
AcDbEntity
  8
SEPARATOR_BEARING
100
AcDbCircle
 10
8.873604690913113
 20
21.93428138578499
 30
0.0
 40
1.794500057423999
100
AcDbArc
 50
189.820391439633
 51
193.6578694299335
  0
ARC
  5
38A
330
1F
100
AcDbEntity
  8
SEPARATOR_BEARING
100
AcDbCircle
 10
7.134706311590496
 20
21.51173803731404
 30
0.0
 40
0.00500000016
100
AcDbArc
 50
193.657869429952
 51
319.7197367004857
  0
ARC
  5
38B
330
1F
100
AcDbEntity
  8
SEPARATOR_BEARING
100
AcDbCircle
 10
7.110325714690796
 20
21.62906391092449
 30
0.0
 40
0.00500000016
100
AcDbArc
 50
63.75852416908262
 51
189.8203914396465
  0
ARC
  5
38C
330
1F
100
AcDbEntity
  8
SEPARATOR_BEARING
100
AcDbCircle
 10
8.873604690913104
 20
21.93428138578499
 30
0.0
 40
1.794500057423999
100
AcDbArc
 50
174.1682175265894
 51
178.0056955168893
  0
ARC
  5
38D
330
1F
100
AcDbEntity
  8
SEPARATOR_BEARING
100
AcDbCircle
 10
7.085188549430951
 20
21.99655625899992
 30
0.0
 40
0.00500000016
100
AcDbArc
 50
178.00569551691
 51
304.0675627874461
  0
ARC
  5
38E
330
1F
100
AcDbEntity
  8
SEPARATOR_BEARING
100
AcDbCircle
 10
7.093366193073645
 20
22.11610917727502
 30
0.0
 40
0.00500000016
100
AcDbArc
 50
48.10635025603775
 51
174.1682175266024
  0
ARC
  5
38F
330
1F
100
AcDbEntity
  8
SEPARATOR_BEARING
100
AcDbCircle
 10
7.20843881679203
 20
22.58966910813753
 30
0.0
 40
0.00500000016
100
AcDbArc
 50
32.45417634299499
 51
158.516043613562
  0
ARC
  5
390
330
1F
100
AcDbEntity
  8
SEPARATOR_BEARING
100
AcDbCircle
 10
7.168309431025702
 20
22.47675583822803
 30
0.0
 40
0.00500000016
100
AcDbArc
 50
162.3535216038661
 51
288.4153888743998
  0
ARC
  5
391
330
1F
100
AcDbEntity
  8
SEPARATOR_BEARING
100
AcDbCircle
 10
8.873604690913104
 20
21.93428138578499
 30
0.0
 40
1.794500057423999
100
AcDbArc
 50
158.5160436135427
 51
162.3535216038473
  0
ARC
  5
392
330
1F
100
AcDbEntity
  8
SEPARATOR_BEARING
100
AcDbCircle
 10
7.532140719505255
 20
21.18098409062091
 30
0.0
 40
0.00500000016
100
AcDbArc
 50
263.1711056831274
 51
29.31633020399719
  0
ARC
  5
393
330
1F
100
AcDbEntity
  8
SEPARATOR_BEARING
100
AcDbCircle
 10
8.873604690913104
 20
21.93428138578499
 30
0.0
 40
1.533500049071998
100
AcDbArc
 50
205.4662784916474
 51
209.316330204
  0
ARC
  5
394
330
1F
100
AcDbEntity
  8
SEPARATOR_BEARING
100
AcDbCircle
 10
7.484587605140882
 20
21.27275743541004
 30
0.0
 40
0.00500000016
100
AcDbArc
 50
25.46627849164179
 51
151.6115030129353
  0
ARC
  5
395
330
1F
100
AcDbEntity
  8
SEPARATOR_BEARING
100
AcDbCircle
 10
7.313190211613616
 20
21.05825792277708
 30
0.0
 40
0.00500000016
100
AcDbArc
 50
209.3100433429996
 51
335.3719106135355
  0
ARC
  5
396
330
1F
100
AcDbEntity
  8
SEPARATOR_BEARING
100
AcDbCircle
 10
7.297202117763442
 20
21.37402777669481
 30
0.0
 40
0.208000006656
100
AcDbArc
 50
259.4106980821371
 51
331.6115030124913
  0
ARC
  5
397
330
1F
100
AcDbEntity
  8
SEPARATOR_BEARING
100
AcDbCircle
 10
7.506814016169334
 20
20.96949517601366
 30
0.0
 40
0.208000006656
100
AcDbArc
 50
83.1711056831404
 51
155.3719106135189
  0
ARC
  5
398
330
1F
100
AcDbEntity
  8
SEPARATOR_BEARING
100
AcDbCircle
 10
7.378648664533661
 20
21.57084104586846
 30
0.0
 40
0.00500000016
100
AcDbArc
 50
247.5189317700835
 51
13.6641562909551
  0
ARC
  5
399
330
1F
100
AcDbEntity
  8
SEPARATOR_BEARING
100
AcDbCircle
 10
8.873604690913113
 20
21.93428138578499
 30
0.0
 40
1.533500049071998
100
AcDbArc
 50
189.8141045786044
 51
193.6641562909603
  0
ARC
  5
39A
330
1F
100
AcDbEntity
  8
SEPARATOR_BEARING
100
AcDbCircle
 10
7.357619100747363
 20
21.67204086279761
 30
0.0
 40
0.00500000016
100
AcDbArc
 50
9.814104578599323
 51
135.9593290998975
  0
CIRCLE
  5
39B
330
1F
100
AcDbEntity
  8
WAVE_GENERATOR
100
AcDbCircle
 10
8.00757928712867
 20
21.43428138578499
 30
0.0
 40
0.06425
  0
ARC
  5
39C
330
1F
100
AcDbEntity
  8
SEPARATOR_BEARING
100
AcDbCircle
 10
7.336030659069876
 20
21.98765270849873
 30
0.0
 40
0.00500000016
100
AcDbArc
 50
231.8667578570358
 51
358.0119823779117
  0
ARC
  5
39D
330
1F
100
AcDbEntity
  8
SEPARATOR_BEARING
100
AcDbCircle
 10
8.873604690913104
 20
21.93428138578499
 30
0.0
 40
1.533500049071998
100
AcDbArc
 50
174.1619306655621
 51
178.0119823779143
  0
ARC
  5
39E
330
1F
100
AcDbEntity
  8
SEPARATOR_BEARING
100
AcDbCircle
 10
7.343084312403842
 20
22.09077347010463
 30
0.0
 40
0.00500000016
100
AcDbArc
 50
354.1619306655545
 51
120.3071551868498
  0
ARC
  5
39F
330
1F
100
AcDbEntity
  8
SEPARATOR_BEARING
100
AcDbCircle
 10
7.442061218869508
 20
22.49789977542128
 30
0.0
 40
0.00500000016
100
AcDbArc
 50
338.5097567525102
 51
104.6549812738045
  0
ARC
  5
3A0
330
1F
100
AcDbEntity
  8
SEPARATOR_BEARING
100
AcDbCircle
 10
7.407447485614754
 20
22.40050606428086
 30
0.0
 40
0.00500000016
100
AcDbArc
 50
216.2145839439955
 51
342.3598084648713
  0
ARC
  5
3A1
330
1F
100
AcDbEntity
  8
SEPARATOR_BEARING
100
AcDbCircle
 10
8.873604690913104
 20
21.93428138578499
 30
0.0
 40
1.533500049071998
100
AcDbArc
 50
158.5097567525185
 51
162.3598084648743
  0
CIRCLE
  5
3A2
330
1F
100
AcDbEntity
  8
SPLINE_STATIC
100
AcDbCircle
 10
6.827879482093505
 20
23.11538138578499
 30
0.0
 40
0.134
  0
CIRCLE
  5
3A3
330
1F
100
AcDbEntity
  8
LINE_HIDDEN
100
AcDbCircle
 10
6.827879482093505
 20
23.11538138578499
 30
0.0
 40
0.1575
  0
ARC
  5
3A4
330
1F
100
AcDbEntity
  8
BEARING_WAVE_GEN
100
AcDbCircle
 10
8.423988357392206
 20
23.53898309650055
 30
0.0
 40
0.1875000059999999
100
AcDbArc
 50
133.0487126584404
 51
259.1726172191018
  0
ARC
  5
3A5
330
1F
100
AcDbEntity
  8
SEPARATOR_BEARING
100
AcDbCircle
 10
8.873604690913104
 20
21.93428138578499
 30
0.0
 40
1.533500049071998
100
AcDbArc
 50
127.2054089264357
 51
131.0554606387858
  0
ARC
  5
3A6
330
1F
100
AcDbEntity
  8
SEPARATOR_BEARING
100
AcDbCircle
 10
8.004340714687378
 20
23.36372509533347
 30
0.0
 40
0.208000006656
100
AcDbArc
 50
181.1498285169145
 51
253.3506334472739
  0
ARC
  5
3A7
330
1F
100
AcDbEntity
  8
BEARING_WAVE_GEN
100
AcDbCircle
 10
8.007718010470693
 20
23.35817136902619
 30
0.0
 40
0.1875000059999999
100
AcDbArc
 50
148.7008865714801
 51
274.8247911321395
  0
ARC
  5
3A8
330
1F
100
AcDbEntity
  8
SEPARATOR_BEARING
100
AcDbCircle
 10
7.650916083549772
 20
23.07619283093096
 30
0.0
 40
0.208000006656
100
AcDbArc
 50
4.910236117926304
 51
77.11104104830187
  0
ARC
  5
3A9
330
1F
100
AcDbEntity
  8
BEARING_WAVE_GEN
100
AcDbCircle
 10
7.655666517469605
 20
23.07175623535806
 30
0.0
 40
0.1875000059999999
100
AcDbArc
 50
343.4360784330741
 51
109.5599829937375
  0
ARC
  5
3AA
330
1F
100
AcDbEntity
  8
SEPARATOR_BEARING
100
AcDbCircle
 10
7.650916083549772
 20
23.07619283093096
 30
0.0
 40
0.208000006656
100
AcDbArc
 50
196.8020024299591
 51
269.0028073603226
  0
ARC
  5
3AB
330
1F
100
AcDbEntity
  8
BEARING_WAVE_GEN
100
AcDbCircle
 10
7.655666517469605
 20
23.07175623535806
 30
0.0
 40
0.1875000059999999
100
AcDbArc
 50
164.3530604845233
 51
290.4769650451882
  0
ARC
  5
3AC
330
1F
100
AcDbEntity
  8
SEPARATOR_BEARING
100
AcDbCircle
 10
7.587602484853686
 20
22.77878166849493
 30
0.0
 40
0.00500000016
100
AcDbArc
 50
200.5624100309518
 51
326.707634551826
  0
ARC
  5
3AD
330
1F
100
AcDbEntity
  8
SEPARATOR_BEARING
100
AcDbCircle
 10
7.388172672992116
 20
22.70397021853925
 30
0.0
 40
0.208000006656
100
AcDbArc
 50
20.56241003096868
 51
92.76321496134951
  0
ARC
  5
3AE
330
1F
100
AcDbEntity
  8
SEPARATOR_BEARING
100
AcDbCircle
 10
7.447009175766988
 20
23.01462192983247
 30
0.0
 40
0.00500000016
100
AcDbArc
 50
16.80200242995138
 51
142.8638697005173
  0
ARC
  5
3AF
330
1F
100
AcDbEntity
  8
SEPARATOR_BEARING
100
AcDbCircle
 10
7.377904260839567
 20
22.91672256897393
 30
0.0
 40
0.00500000016
100
AcDbArc
 50
146.7013476908243
 51
272.763214961362
  0
ARC
  5
3B0
330
1F
100
AcDbEntity
  8
SEPARATOR_BEARING
100
AcDbCircle
 10
8.873604690913104
 20
21.93428138578499
 30
0.0
 40
1.794500057423999
100
AcDbArc
 50
142.8638697005006
 51
146.7013476907998
  0
ARC
  5
3B1
330
1F
100
AcDbEntity
  8
SEPARATOR_BEARING
100
AcDbCircle
 10
7.863134384647432
 20
23.09442455007214
 30
0.0
 40
0.00500000016
100
AcDbArc
 50
184.9102361179078
 51
311.055460638783
  0
ARC
  5
3B2
330
1F
100
AcDbEntity
  8
SEPARATOR_BEARING
100
AcDbCircle
 10
7.647209155781027
 20
22.86322508316117
 30
0.0
 40
0.00500000016
100
AcDbArc
 50
322.8575828394706
 51
89.00280736076494
  0
ARC
  5
3B3
330
1F
100
AcDbEntity
  8
SEPARATOR_BEARING
100
AcDbCircle
 10
8.873604690913104
 20
21.93428138578499
 30
0.0
 40
1.533500049071998
100
AcDbArc
 50
142.857582839476
 51
146.7076345518288
  0
ARC
  5
3B4
330
1F
100
AcDbEntity
  8
SEPARATOR_BEARING
100
AcDbCircle
 10
8.873604690913104
 20
21.93428138578499
 30
0.0
 40
1.794500057423999
100
AcDbArc
 50
127.2116957874608
 51
131.0491737777617
  0
ARC
  5
3B5
330
1F
100
AcDbEntity
  8
SEPARATOR_BEARING
100
AcDbCircle
 10
7.791383597860106
 20
23.35945083560456
 30
0.0
 40
0.00500000016
100
AcDbArc
 50
1.14982851690957
 51
127.2116957874765
  0
ARC
  5
3B6
330
1F
100
AcDbEntity
  8
SEPARATOR_BEARING
100
AcDbCircle
 10
7.698428349177826
 20
23.28382613153205
 30
0.0
 40
0.00500000016
100
AcDbArc
 50
131.0491737777818
 51
257.111041048315
  0
ARC
  5
3B7
330
1F
100
AcDbEntity
  8
SEPARATOR_BEARING
100
AcDbCircle
 10
7.943313239147036
 20
23.15965488650133
 30
0.0
 40
0.00500000016
100
AcDbArc
 50
307.2054089264239
 51
73.35063344772264
  0
ARC
  5
3B8
330
1F
100
AcDbEntity
  8
BEARING_WAVE_GEN
100
AcDbCircle
 10
8.007718010470693
 20
23.35817136902619
 30
0.0
 40
0.1875000059999999
100
AcDbArc
 50
327.7839045200348
 51
93.90780908069535
  0
ARC
  5
3B9
330
1F
100
AcDbEntity
  8
SEPARATOR_BEARING
100
AcDbCircle
 10
8.422234678323579
 20
23.5452420590686
 30
0.0
 40
0.208000006656
100
AcDbArc
 50
165.4976546038729
 51
237.6984595342304
  0
ARC
  5
3BA
330
1F
100
AcDbEntity
  8
SEPARATOR_BEARING
100
AcDbCircle
 10
8.873604690913113
 20
21.93428138578498
 30
0.0
 40
1.533500049071998
100
AcDbArc
 50
111.5532350133831
 51
115.4032867257365
  0
ARC
  5
3BB
330
1F
100
AcDbEntity
  8
SEPARATOR_BEARING
100
AcDbCircle
 10
8.873604690913113
 20
21.93428138578498
 30
0.0
 40
1.794500057423999
100
AcDbArc
 50
111.5595218744179
 51
115.3969998647196
  0
ARC
  5
3BC
330
1F
100
AcDbEntity
  8
SEPARATOR_BEARING
100
AcDbCircle
 10
8.106109890708554
 20
23.55084013405454
 30
0.0
 40
0.00500000016
100
AcDbArc
 50
115.396999864736
 51
241.458867135267
  0
ARC
  5
3BD
330
1F
100
AcDbEntity
  8
SEPARATOR_BEARING
100
AcDbCircle
 10
8.216021407592892
 20
23.59858144299992
 30
0.0
 40
0.00500000016
100
AcDbArc
 50
345.4976546038677
 51
111.5595218744319
  0
ARC
  5
3BE
330
1F
100
AcDbEntity
  8
SEPARATOR_BEARING
100
AcDbCircle
 10
8.213608244462831
 20
23.32402492045599
 30
0.0
 40
0.00500000016
100
AcDbArc
 50
169.2580622048648
 51
295.4032867257365
  0
ARC
  5
3BF
330
1F
100
AcDbEntity
  8
SEPARATOR_BEARING
100
AcDbCircle
 10
8.004340714687389
 20
23.36372509533346
 30
0.0
 40
0.208000006656
100
AcDbArc
 50
349.2580622048806
 51
61.45886713525218
  0
ARC
  5
3C0
330
1F
100
AcDbEntity
  8
SEPARATOR_BEARING
100
AcDbCircle
 10
8.30841278369033
 20
23.36520434300412
 30
0.0
 40
0.00500000016
100
AcDbArc
 50
291.5532350133819
 51
57.69845953467902
  0
ARC
  5
3C1
330
1F
100
AcDbEntity
  8
SEPARATOR_BEARING
100
AcDbCircle
 10
8.570713010515358
 20
23.69796136948206
 30
0.0
 40
0.00500000016
100
AcDbArc
 50
99.7448259517003
 51
225.8066932222297
  0
ARC
  5
3C2
330
1F
100
AcDbEntity
  8
BEARING_WAVE_GEN
100
AcDbCircle
 10
10.3532654547298
 20
22.7009797956983
 30
0.0
 40
0.1875000059999999
100
AcDbArc
 50
54.78784309322366
 51
180.9117476538811
  0
ARC
  5
3C3
330
1F
100
AcDbEntity
  8
BEARING_WAVE_GEN
100
AcDbCircle
 10
10.23508506118237
 20
20.97324359822736
 30
0.0
 40
0.1875000059999999
100
AcDbArc
 50
352.1791474410476
 51
118.3030520017018
  0
ARC
  5
3C4
330
1F
100
AcDbEntity
  8
BEARING_WAVE_GEN
100
AcDbCircle
 10
9.925312783787148
 20
20.64155847845896
 30
0.0
 40
0.1875000059999999
100
AcDbArc
 50
336.5269735280023
 51
102.6508780886692
  0
ARC
  5
3C5
330
1F
100
AcDbEntity
  8
BEARING_WAVE_GEN
100
AcDbCircle
 10
9.925312783787148
 20
20.64155847845896
 30
0.0
 40
0.1875000059999999
100
AcDbArc
 50
155.6099914765526
 51
281.7338960372176
  0
ARC
  5
3C6
330
1F
100
AcDbEntity
  8
SEPARATOR_BEARING
100
AcDbCircle
 10
9.298441046165219
 20
20.19594179692326
 30
0.0
 40
0.00500000016
100
AcDbArc
 50
157.6715676473421
 51
283.7334349179101
  0
ARC
  5
3C7
330
1F
100
AcDbEntity
  8
SEPARATOR_BEARING
100
AcDbCircle
 10
8.873604690913104
 20
21.93428138578499
 30
0.0
 40
1.794500057423999
100
AcDbArc
 50
283.7334349178965
 51
287.5709129081976
  0
ARC
  5
3C8
330
1F
100
AcDbEntity
  8
SEPARATOR_BEARING
100
AcDbCircle
 10
8.645797879685268
 20
20.27686374502883
 30
0.0
 40
0.208000006656
100
AcDbArc
 50
322.0193937343046
 51
34.22019866466162
  0
ARC
  5
3C9
330
1F
100
AcDbEntity
  8
SEPARATOR_BEARING
100
AcDbCircle
 10
9.101411502140949
 20
20.27686374502883
 30
0.0
 40
0.208000006656
100
AcDbArc
 50
145.7798013353169
 51
217.980606265695
  0
ARC
  5
3CA
330
1F
100
AcDbEntity
  8
BEARING_WAVE_GEN
100
AcDbCircle
 10
9.100526418893505
 20
20.28330320388414
 30
0.0
 40
0.1875000059999999
100
AcDbArc
 50
124.3056436504694
 51
250.4295482111229
  0
ARC
  5
3CB
330
1F
100
AcDbEntity
  8
BEARING_WAVE_GEN
100
AcDbCircle
 10
8.646682962932715
 20
20.28330320388414
 30
0.0
 40
0.1875000059999999
100
AcDbArc
 50
289.570451788877
 51
55.69435634953027
  0
ARC
  5
3CC
330
1F
100
AcDbEntity
  8
BEARING_WAVE_GEN
100
AcDbCircle
 10
9.537540128387796
 20
20.4057487029131
 30
0.0
 40
0.1875000059999999
100
AcDbArc
 50
139.9578175635108
 51
266.08172212417
  0
ARC
  5
3CD
330
1F
100
AcDbEntity
  8
BEARING_WAVE_GEN
100
AcDbCircle
 10
9.100526418893505
 20
20.28330320388414
 30
0.0
 40
0.1875000059999999
100
AcDbArc
 50
305.2226257019174
 51
71.34653026257949
  0
CIRCLE
  5
3CE
330
1F
100
AcDbEntity
  8
SPLINE_STATIC
100
AcDbCircle
 10
8.873604690913104
 20
19.57208138578499
 30
0.0
 40
0.134
  0
CIRCLE
  5
3CF
330
1F
100
AcDbEntity
  8
LINE_HIDDEN
100
AcDbCircle
 10
8.873604690913104
 20
19.57208138578499
 30
0.0
 40
0.1575
  0
ARC
  5
3D0
330
1F
100
AcDbEntity
  8
SEPARATOR_BEARING
100
AcDbCircle
 10
8.873604690913122
 20
21.93428138578499
 30
0.0
 40
1.794500057423999
100
AcDbArc
 50
268.0812610048564
 51
271.9187389951433
  0
ARC
  5
3D1
330
1F
100
AcDbEntity
  8
SEPARATOR_BEARING
100
AcDbCircle
 10
8.813688553429877
 20
20.14578466747182
 30
0.0
 40
0.00500000016
100
AcDbArc
 50
142.0193937343007
 51
268.0812610048693
  0
ARC
  5
3D2
330
1F
100
AcDbEntity
  8
SEPARATOR_BEARING
100
AcDbCircle
 10
8.933520828396352
 20
20.14578466747182
 30
0.0
 40
0.00500000016
100
AcDbArc
 50
271.9187389951694
 51
37.98060626570549
  0
ARC
  5
3D3
330
1F
100
AcDbEntity
  8
SEPARATOR_BEARING
100
AcDbCircle
 10
9.101411502140933
 20
20.27686374502883
 30
0.0
 40
0.208000006656
100
AcDbArc
 50
337.6715676473478
 51
49.87237257770813
  0
ARC
  5
3D4
330
1F
100
AcDbEntity
  8
SEPARATOR_BEARING
100
AcDbCircle
 10
8.873604690913104
 20
21.93428138578499
 30
0.0
 40
1.533500049071998
100
AcDbArc
 50
283.7271480568706
 51
287.5771997692243
  0
ARC
  5
3D5
330
1F
100
AcDbEntity
  8
SEPARATOR_BEARING
100
AcDbCircle
 10
8.873604690913122
 20
21.93428138578499
 30
0.0
 40
1.533500049071998
100
AcDbArc
 50
268.0749741438237
 51
271.9250258561761
  0
ARC
  5
3D6
330
1F
100
AcDbEntity
  8
SEPARATOR_BEARING
100
AcDbCircle
 10
8.821923830095165
 20
20.39664960603016
 30
0.0
 40
0.00500000016
100
AcDbArc
 50
88.07497414381087
 51
214.2201986651147
  0
ARC
  5
3D7
330
1F
100
AcDbEntity
  8
SEPARATOR_BEARING
100
AcDbCircle
 10
9.238688386012759
 20
20.4397258341044
 30
0.0
 40
0.00500000016
100
AcDbArc
 50
103.7271480568574
 51
229.872372578153
  0
ARC
  5
3D8
330
1F
100
AcDbEntity
  8
SEPARATOR_BEARING
100
AcDbCircle
 10
8.925285551731063
 20
20.39664960603016
 30
0.0
 40
0.00500000016
100
AcDbArc
 50
325.7798013353003
 51
91.92502585617614
  0
ARC
  5
3D9
330
1F
100
AcDbEntity
  8
SEPARATOR_BEARING
100
AcDbCircle
 10
8.873604690913122
 20
21.93428138578501
 30
0.0
 40
1.533500049071998
100
AcDbArc
 50
299.3793219699073
 51
303.2293736822639
  0
ARC
  5
3DA
330
1F
100
AcDbEntity
  8
SEPARATOR_BEARING
100
AcDbCircle
 10
9.929414855556522
 20
20.63651635490804
 30
0.0
 40
0.208000006656
100
AcDbArc
 50
177.0841491614024
 51
249.2849540917735
  0
ARC
  5
3DB
330
1F
100
AcDbEntity
  8
BEARING_WAVE_GEN
100
AcDbCircle
 10
9.537540128387796
 20
20.4057487029131
 30
0.0
 40
0.1875000059999999
100
AcDbArc
 50
320.8747996149601
 51
86.99870417562008
  0
ARC
  5
3DC
330
1F
100
AcDbEntity
  8
SEPARATOR_BEARING
100
AcDbCircle
 10
9.413829615312629
 20
20.22827215778961
 30
0.0
 40
0.00500000016
100
AcDbArc
 50
287.5709129082115
 51
53.63278017875296
  0
ARC
  5
3DD
330
1F
100
AcDbEntity
  8
SEPARATOR_BEARING
100
AcDbCircle
 10
9.540129735554661
 20
20.39978682926253
 30
0.0
 40
0.208000006656
100
AcDbArc
 50
161.4319752483584
 51
233.6327801787378
  0
ARC
  5
3DE
330
1F
100
AcDbEntity
  8
SEPARATOR_BEARING
100
AcDbCircle
 10
9.338217174625992
 20
20.46761249286299
 30
0.0
 40
0.00500000016
100
AcDbArc
 50
341.4319752483423
 51
107.5771997692116
  0
ARC
  5
3DF
330
1F
100
AcDbEntity
  8
SEPARATOR_BEARING
100
AcDbCircle
 10
9.628376354411624
 20
20.59364641031011
 30
0.0
 40
0.00500000016
100
AcDbArc
 50
119.3793219699049
 51
245.5245464911941
  0
ARC
  5
3E0
330
1F
100
AcDbEntity
  8
SEPARATOR_BEARING
100
AcDbCircle
 10
9.854072390950831
 20
20.43728654807492
 30
0.0
 40
0.00500000016
100
AcDbArc
 50
303.2230868212573
 51
69.2849540917875
  0
ARC
  5
3E1
330
1F
100
AcDbEntity
  8
SEPARATOR_BEARING
100
AcDbCircle
 10
9.75168536992853
 20
20.37502362130612
 30
0.0
 40
0.00500000016
100
AcDbArc
 50
173.3237415603893
 51
299.3856088309481
  0
ARC
  5
3E2
330
1F
100
AcDbEntity
  8
SEPARATOR_BEARING
100
AcDbCircle
 10
8.873604690913122
 20
21.93428138578501
 30
0.0
 40
1.794500057423999
100
AcDbArc
 50
299.3856088309332
 51
303.2230868212413
  0
ARC
  5
3E3
330
1F
100
AcDbEntity
  8
SEPARATOR_BEARING
100
AcDbCircle
 10
9.540129735554678
 20
20.39978682926256
 30
0.0
 40
0.208000006656
100
AcDbArc
 50
353.3237415603945
 51
65.52454649074981
  0
ARC
  5
3E4
330
1F
100
AcDbEntity
  8
SEPARATOR_BEARING
100
AcDbCircle
 10
9.716690615064662
 20
20.64735150192015
 30
0.0
 40
0.00500000016
100
AcDbArc
 50
357.0841491613867
 51
123.2293736822628
  0
ARC
  5
3E5
330
1F
100
AcDbEntity
  8
BEARING_WAVE_GEN
100
AcDbCircle
 10
10.23508506118237
 20
20.97324359822736
 30
0.0
 40
0.1875000059999999
100
AcDbArc
 50
171.2621653895948
 51
297.3860699502568
  0
ARC
  5
3E6
330
1F
100
AcDbEntity
  8
SEPARATOR_BEARING
100
AcDbCircle
 10
10.03263622937045
 20
20.92253621315105
 30
0.0
 40
0.00500000016
100
AcDbArc
 50
12.73632307442956
 51
138.8815475953024
  0
ARC
  5
3E7
330
1F
100
AcDbEntity
  8
SEPARATOR_BEARING
100
AcDbCircle
 10
10.22159836261847
 20
20.75732619717747
 30
0.0
 40
0.00500000016
100
AcDbArc
 50
318.8752607343023
 51
84.93712800483711
  0
ARC
  5
3E8
330
1F
100
AcDbEntity
  8
SEPARATOR_BEARING
100
AcDbCircle
 10
10.13980646668107
 20
20.66974846095072
 30
0.0
 40
0.00500000016
100
AcDbArc
 50
188.9759154734296
 51
315.0377827439886
  0
ARC
  5
3E9
330
1F
100
AcDbEntity
  8
SEPARATOR_BEARING
100
AcDbCircle
 10
8.873604690913104
 20
21.93428138578499
 30
0.0
 40
1.794500057423999
100
AcDbArc
 50
315.0377827439813
 51
318.8752607342824
  0
ARC
  5
3EA
330
1F
100
AcDbEntity
  8
SEPARATOR_BEARING
100
AcDbCircle
 10
10.24039536565687
 20
20.96949517601366
 30
0.0
 40
0.208000006656
100
AcDbArc
 50
192.7363230744451
 51
264.9371280048241
  0
ARC
  5
3EB
330
1F
100
AcDbEntity
  8
SEPARATOR_BEARING
100
AcDbCircle
 10
9.962086361379371
 20
20.84699574964982
 30
0.0
 40
0.00500000016
100
AcDbArc
 50
135.0314958829415
 51
261.1767204042449
  0
ARC
  5
3EC
330
1F
100
AcDbEntity
  8
SEPARATOR_BEARING
100
AcDbCircle
 10
8.873604690913104
 20
21.93428138578499
 30
0.0
 40
1.533500049071998
100
AcDbArc
 50
315.0314958829553
 51
318.8815475953053
  0
ARC
  5
3ED
330
1F
100
AcDbEntity
  8
SEPARATOR_BEARING
100
AcDbCircle
 10
9.929414855556522
 20
20.636516354908
 30
0.0
 40
0.208000006656
100
AcDbArc
 50
8.975915473437485
 51
81.17672040379623
  0
CIRCLE
  5
3EE
330
1F
100
AcDbEntity
  8
SPLINE_STATIC
100
AcDbCircle
 10
10.9193298997327
 20
20.75318138578499
 30
0.0
 40
0.134
  0
CIRCLE
  5
3EF
330
1F
100
AcDbEntity
  8
LINE_HIDDEN
100
AcDbCircle
 10
10.9193298997327
 20
20.75318138578499
 30
0.0
 40
0.1575
  0
ARC
  5
3F0
330
1F
100
AcDbEntity
  8
WAVE_GENERATOR
100
AcDbCircle
 10
8.873604690913104
 20
21.93428138578499
 30
0.0
 40
0.2756
100
AcDbArc
 50
110.9184733205123
 51
69.08152667948762
  0
CIRCLE
  5
3F1
330
1F
100
AcDbEntity
  8
WAVE_GENERATOR
100
AcDbCircle
 10
9.739630094697544
 20
21.43428138578499
 30
0.0
 40
0.06425
  0
LINE
  5
3F2
330
1F
100
AcDbEntity
  8
WAVE_GENERATOR
100
AcDbLine
 10
8.873604690913104
 20
22.30068138578499
 30
0.0
 11
8.972004690913106
 21
22.30068138578499
 31
0.0
  0
LINE
  5
3F3
330
1F
100
AcDbEntity
  8
WAVE_GENERATOR
100
AcDbLine
 10
8.775204690913104
 20
22.30068138578499
 30
0.0
 11
8.775204690913104
 21
22.19171642613498
 31
0.0
  0
LINE
  5
3F4
330
1F
100
AcDbEntity
  8
WAVE_GENERATOR
100
AcDbLine
 10
8.873604690913104
 20
22.30068138578499
 30
0.0
 11
8.775204690913104
 21
22.30068138578499
 31
0.0
  0
LINE
  5
3F5
330
1F
100
AcDbEntity
  8
WAVE_GENERATOR
100
AcDbLine
 10
8.972004690913106
 20
22.30068138578499
 30
0.0
 11
8.972004690913106
 21
22.19171642613498
 31
0.0
  0
ARC
  5
3F6
330
1F
100
AcDbEntity
  8
BEARING_WAVE_GEN
100
AcDbCircle
 10
10.53621974797281
 20
21.82055540027353
 30
0.0
 40
0.1875000059999999
100
AcDbArc
 50
23.48349526713475
 51
149.6073998277981
  0
ARC
  5
3F7
330
1F
100
AcDbEntity
  8
SEPARATOR_BEARING
100
AcDbCircle
 10
10.45000726406277
 20
21.37402777669481
 30
0.0
 40
0.208000006656
100
AcDbArc
 50
40.28026329952403
 51
112.4810682298756
  0
ARC
  5
3F8
330
1F
100
AcDbEntity
  8
SEPARATOR_BEARING
100
AcDbCircle
 10
10.54270459518008
 20
21.82011182457246
 30
0.0
 40
0.208000006656
100
AcDbArc
 50
224.0406709005307
 51
296.2414758309161
  0
ARC
  5
3F9
330
1F
100
AcDbEntity
  8
BEARING_WAVE_GEN
100
AcDbCircle
 10
10.44388256787301
 20
21.37620449424357
 30
0.0
 40
0.1875000059999999
100
AcDbArc
 50
7.831321354090619
 51
133.9552259147514
  0
ARC
  5
3FA
330
1F
100
AcDbEntity
  8
BEARING_WAVE_GEN
100
AcDbCircle
 10
10.53621974797281
 20
21.82055540027353
 30
0.0
 40
0.1875000059999999
100
AcDbArc
 50
202.5665132156809
 51
328.6904177763442
  0
ARC
  5
3FB
330
1F
100
AcDbEntity
  8
SEPARATOR_BEARING
100
AcDbCircle
 10
8.873604690913104
 20
21.93428138578499
 30
0.0
 40
1.533500049071998
100
AcDbArc
 50
330.6836697959996
 51
334.5337215083523
  0
ARC
  5
3FC
330
1F
100
AcDbEntity
  8
SEPARATOR_BEARING
100
AcDbCircle
 10
10.24039536565687
 20
20.96949517601365
 30
0.0
 40
0.208000006656
100
AcDbArc
 50
24.62808938648103
 51
96.82889431683332
  0
ARC
  5
3FD
330
1F
100
AcDbEntity
  8
BEARING_WAVE_GEN
100
AcDbCircle
 10
10.44388256787301
 20
21.37620449424357
 30
0.0
 40
0.1875000059999999
100
AcDbArc
 50
186.9143393026396
 51
313.038243863296
  0
ARC
  5
3FE
330
1F
100
AcDbEntity
  8
SEPARATOR_BEARING
100
AcDbCircle
 10
10.21506866232096
 20
21.1809840906209
 30
0.0
 40
0.00500000016
100
AcDbArc
 50
150.6836697959883
 51
276.8288943172787
  0
ARC
  5
3FF
330
1F
100
AcDbEntity
  8
SEPARATOR_BEARING
100
AcDbCircle
 10
10.48914981031645
 20
21.16465522840733
 30
0.0
 40
0.00500000016
100
AcDbArc
 50
334.5274346473476
 51
100.5893019178758
  0
ARC
  5
400
330
1F
100
AcDbEntity
  8
SEPARATOR_BEARING
100
AcDbCircle
 10
10.43401917021259
 20
21.05825792277708
 30
0.0
 40
0.00500000016
100
AcDbArc
 50
204.6280893864781
 51
330.6899566570387
  0
ARC
  5
401
330
1F
100
AcDbEntity
  8
SEPARATOR_BEARING
100
AcDbCircle
 10
8.873604690913104
 20
21.93428138578499
 30
0.0
 40
1.794500057423999
100
AcDbArc
 50
330.6899566570216
 51
334.5274346473246
  0
ARC
  5
402
330
1F
100
AcDbEntity
  8
SEPARATOR_BEARING
100
AcDbCircle
 10
10.26262177668533
 20
21.27275743541003
 30
0.0
 40
0.00500000016
100
AcDbArc
 50
28.38849698747626
 51
154.5337215083494
  0
ARC
  5
403
330
1F
100
AcDbEntity
  8
SEPARATOR_BEARING
100
AcDbCircle
 10
10.45000726406277
 20
21.37402777669481
 30
0.0
 40
0.208000006656
100
AcDbArc
 50
208.3884969874878
 51
280.5893019178628
  0
ARC
  5
404
330
1F
100
AcDbEntity
  8
SEPARATOR_BEARING
100
AcDbCircle
 10
10.38959028107885
 20
21.67204086279761
 30
0.0
 40
0.00500000016
100
AcDbArc
 50
44.04067090051361
 51
170.1858954213899
  0
ARC
  5
405
330
1F
100
AcDbEntity
  8
SEPARATOR_BEARING
100
AcDbCircle
 10
8.873604690913104
 20
21.93428138578499
 30
0.0
 40
1.533500049071998
100
AcDbArc
 50
346.3358437090395
 51
350.1858954213953
  0
ARC
  5
406
330
1F
100
AcDbEntity
  8
SEPARATOR_BEARING
100
AcDbCircle
 10
10.36856071729254
 20
21.57084104586846
 30
0.0
 40
0.00500000016
100
AcDbArc
 50
166.3358437090342
 51
292.4810682303255
  0
ARC
  5
407
330
1F
100
AcDbEntity
  8
SEPARATOR_BEARING
100
AcDbCircle
 10
10.63688366713543
 20
21.62906391092449
 30
0.0
 40
0.00500000016
100
AcDbArc
 50
350.1796085603875
 51
116.2414758309185
  0
ARC
  5
408
330
1F
100
AcDbEntity
  8
SEPARATOR_BEARING
100
AcDbCircle
 10
10.61250307023572
 20
21.51173803731404
 30
0.0
 40
0.00500000016
100
AcDbArc
 50
220.2802632995183
 51
346.3421305700795
  0
ARC
  5
409
330
1F
100
AcDbEntity
  8
SEPARATOR_BEARING
100
AcDbCircle
 10
8.873604690913104
 20
21.93428138578499
 30
0.0
 40
1.794500057423999
100
AcDbArc
 50
346.3421305700665
 51
350.1796085603665
  0
ARC
  5
40A
330
1F
100
AcDbEntity
  8
SEPARATOR_BEARING
100
AcDbCircle
 10
8.873604690913104
 20
21.93428138578499
 30
0.0
 40
1.794500057423999
100
AcDbArc
 50
17.64647839615252
 51
21.48395638645701
  0
ARC
  5
40B
330
1F
100
AcDbEntity
  8
SEPARATOR_BEARING
100
AcDbCircle
 10
10.54270459518008
 20
21.82011182457246
 30
0.0
 40
0.208000006656
100
AcDbArc
 50
55.93243721257032
 51
128.1332421429207
  0
ARC
  5
40C
330
1F
100
AcDbEntity
  8
SEPARATOR_BEARING
100
AcDbCircle
 10
10.51161242202188
 20
22.27466330651427
 30
0.0
 40
0.208000006656
100
AcDbArc
 50
239.6928448135729
 51
311.8936497439503
  0
ARC
  5
40D
330
1F
100
AcDbEntity
  8
BEARING_WAVE_GEN
100
AcDbCircle
 10
10.50524837524829
 20
22.27334084238711
 30
0.0
 40
0.1875000059999999
100
AcDbArc
 50
218.2186871287274
 51
344.3425916893882
  0
ARC
  5
40E
330
1F
100
AcDbEntity
  8
SEPARATOR_BEARING
100
AcDbCircle
 10
10.51161242202188
 20
22.27466330651427
 30
0.0
 40
0.208000006656
100
AcDbArc
 50
71.58461112561257
 51
143.7854160559657
  0
ARC
  5
40F
330
1F
100
AcDbEntity
  8
BEARING_WAVE_GEN
100
AcDbCircle
 10
10.3532654547298
 20
22.7009797956983
 30
0.0
 40
0.1875000059999999
100
AcDbArc
 50
233.8708610417748
 51
359.9947656024313
  0
ARC
  5
410
330
1F
100
AcDbEntity
  8
BEARING_WAVE_GEN
100
AcDbCircle
 10
10.50524837524829
 20
22.27334084238711
 30
0.0
 40
0.1875000059999999
100
AcDbArc
 50
39.13566918018081
 51
165.2595737408371
  0
ARC
  5
411
330
1F
100
AcDbEntity
  8
SEPARATOR_BEARING
100
AcDbCircle
 10
10.41117872275634
 20
21.98765270849872
 30
0.0
 40
0.00500000016
100
AcDbArc
 50
181.9880176220753
 51
308.1332421433783
  0
ARC
  5
412
330
1F
100
AcDbEntity
  8
SEPARATOR_BEARING
100
AcDbCircle
 10
10.40412506942238
 20
22.09077347010461
 30
0.0
 40
0.00500000016
100
AcDbArc
 50
59.69284481355673
 51
185.838069334435
  0
ARC
  5
413
330
1F
100
AcDbEntity
  8
SEPARATOR_BEARING
100
AcDbCircle
 10
8.873604690913104
 20
21.93428138578499
 30
0.0
 40
1.533500049071998
100
AcDbArc
 50
1.988017622085664
 51
5.838069334437594
  0
ARC
  5
414
330
1F
100
AcDbEntity
  8
SEPARATOR_BEARING
100
AcDbCircle
 10
10.53877056503418
 20
22.58966910813753
 30
0.0
 40
0.00500000016
100
AcDbArc
 50
21.48395638647385
 51
147.5458236570108
  0
ARC
  5
415
330
1F
100
AcDbEntity
  8
SEPARATOR_BEARING
100
AcDbCircle
 10
10.30514816295672
 20
22.49789977542128
 30
0.0
 40
0.00500000016
100
AcDbArc
 50
75.3450187266005
 51
201.4902432474785
  0
ARC
  5
416
330
1F
100
AcDbEntity
  8
SEPARATOR_BEARING
100
AcDbCircle
 10
10.35903670883411
 20
22.70397021853925
 30
0.0
 40
0.208000006656
100
AcDbArc
 50
255.3450187266253
 51
327.5458236569928
  0
ARC
  5
417
330
1F
100
AcDbEntity
  8
SEPARATOR_BEARING
100
AcDbCircle
 10
10.33976189621147
 20
22.40050606428085
 30
0.0
 40
0.00500000016
100
AcDbArc
 50
197.6401915351174
 51
323.785416056417
  0
ARC
  5
418
330
1F
100
AcDbEntity
  8
SEPARATOR_BEARING
100
AcDbCircle
 10
8.873604690913104
 20
21.93428138578499
 30
0.0
 40
1.533500049071998
100
AcDbArc
 50
17.64019153512567
 51
21.49024324748145
  0
ARC
  5
419
330
1F
100
AcDbEntity
  8
SEPARATOR_BEARING
100
AcDbCircle
 10
8.873604690913104
 20
21.93428138578499
 30
0.0
 40
1.794500057423999
100
AcDbArc
 50
1.994304483110658
 51
5.831782473410597
  0
ARC
  5
41A
330
1F
100
AcDbEntity
  8
SEPARATOR_BEARING
100
AcDbCircle
 10
10.65384318875257
 20
22.11610917727502
 30
0.0
 40
0.00500000016
100
AcDbArc
 50
5.831782473431362
 51
131.8936497439658
  0
ARC
  5
41B
330
1F
100
AcDbEntity
  8
SEPARATOR_BEARING
100
AcDbCircle
 10
10.66202083239526
 20
21.99655625899992
 30
0.0
 40
0.00500000016
100
AcDbArc
 50
235.9324372125573
 51
1.994304483123591
  0
ARC
  5
41C
330
1F
100
AcDbEntity
  8
SEPARATOR_BEARING
100
AcDbCircle
 10
10.57889995080052
 20
22.47675583822803
 30
0.0
 40
0.00500000016
100
AcDbArc
 50
251.5846111255998
 51
17.6464783961713
  0
ARC
  5
41D
330
1F
100
AcDbEntity
  8
SEPARATOR_BEARING
100
AcDbCircle
 10
9.742868667138839
 20
23.36372509533346
 30
0.0
 40
0.208000006656
100
AcDbArc
 50
286.6493665527116
 51
358.8501714830826
  0
ARC
  5
41E
330
1F
100
AcDbEntity
  8
SEPARATOR_BEARING
100
AcDbCircle
 10
10.09629329827644
 20
23.07619283093095
 30
0.0
 40
0.208000006656
100
AcDbArc
 50
102.888958951698
 51
175.0897638820555
  0
ARC
  5
41F
330
1F
100
AcDbEntity
  8
BEARING_WAVE_GEN
100
AcDbCircle
 10
10.09154286435662
 20
23.07175623535806
 30
0.0
 40
0.1875000059999999
100
AcDbArc
 50
70.4400170062625
 51
196.5639215669255
  0
ARC
  5
420
330
1F
100
AcDbEntity
  8
BEARING_WAVE_GEN
100
AcDbCircle
 10
9.739491371355526
 20
23.35817136902619
 30
0.0
 40
0.1875000059999999
100
AcDbArc
 50
265.1752088678605
 51
31.29911342851976
  0
ARC
  5
421
330
1F
100
AcDbEntity
  8
SEPARATOR_BEARING
100
AcDbCircle
 10
8.873604690913104
 20
23.60728143932099
 30
0.0
 40
0.208000006656
100
AcDbArc
 50
317.9537143787911
 51
30.1545193091737
  0
ARC
  5
422
330
1F
100
AcDbEntity
  8
BEARING_WAVE_GEN
100
AcDbCircle
 10
8.873604690913104
 20
23.60078143911299
 30
0.0
 40
0.1875000059999999
100
AcDbArc
 50
296.479556693945
 51
62.60346125460711
  0
ARC
  5
423
330
1F
100
AcDbEntity
  8
SEPARATOR_BEARING
100
AcDbCircle
 10
9.324974703502649
 20
23.5452420590686
 30
0.0
 40
0.208000006656
100
AcDbArc
 50
134.1933067777876
 51
206.3941117081455
  0
ARC
  5
424
330
1F
100
AcDbEntity
  8
BEARING_WAVE_GEN
100
AcDbCircle
 10
9.323221024434012
 20
23.53898309650056
 30
0.0
 40
0.1875000059999999
100
AcDbArc
 50
101.7443648323556
 51
227.868269393013
  0
ARC
  5
425
330
1F
100
AcDbEntity
  8
BEARING_WAVE_GEN
100
AcDbCircle
 10
9.323221024434012
 20
23.53898309650056
 30
0.0
 40
0.1875000059999999
100
AcDbArc
 50
280.8273827808981
 51
46.95128734155955
  0
ARC
  5
426
330
1F
100
AcDbEntity
  8
SEPARATOR_BEARING
100
AcDbCircle
 10
8.873604690913104
 20
23.60728143932099
 30
0.0
 40
0.208000006656
100
AcDbArc
 50
149.8454806908263
 51
222.0462856211882
  0
ARC
  5
427
330
1F
100
AcDbEntity
  8
BEARING_WAVE_GEN
100
AcDbCircle
 10
8.873604690913104
 20
23.60078143911299
 30
0.0
 40
0.1875000059999999
100
AcDbArc
 50
117.3965387453927
 51
243.5204433060548
  0
CIRCLE
  5
428
330
1F
100
AcDbEntity
  8
WAVE_GENERATOR
100
AcDbCircle
 10
8.873604690913104
 20
22.93428138578499
 30
0.0
 40
0.06425
  0
ARC
  5
429
330
1F
100
AcDbEntity
  8
SEPARATOR_BEARING
100
AcDbCircle
 10
8.715430026411398
 20
23.46462878980691
 30
0.0
 40
0.00500000016
100
AcDbArc
 50
275.9010611003346
 51
42.04628562163697
  0
ARC
  5
42A
330
1F
100
AcDbEntity
  8
SEPARATOR_BEARING
100
AcDbCircle
 10
8.613031021428602
 20
23.45055437052692
 30
0.0
 40
0.00500000016
100
AcDbArc
 50
153.6058882918194
 51
279.7511128126903
  0
ARC
  5
42B
330
1F
100
AcDbEntity
  8
SEPARATOR_BEARING
100
AcDbCircle
 10
8.873604690913104
 20
21.93428138578499
 30
0.0
 40
1.533500049071998
100
AcDbArc
 50
95.90106110034769
 51
99.75111281270349
  0
ARC
  5
42C
330
1F
100
AcDbEntity
  8
SEPARATOR_BEARING
100
AcDbCircle
 10
9.134178360397617
 20
23.45055437052692
 30
0.0
 40
0.00500000016
100
AcDbArc
 50
260.2488871872963
 51
26.39411170859025
  0
ARC
  5
42D
330
1F
100
AcDbEntity
  8
SEPARATOR_BEARING
100
AcDbCircle
 10
9.03177935541483
 20
23.46462878980691
 30
0.0
 40
0.00500000016
100
AcDbArc
 50
137.9537143787731
 51
264.0989388996521
  0
ARC
  5
42E
330
1F
100
AcDbEntity
  8
SEPARATOR_BEARING
100
AcDbCircle
 10
8.873604690913104
 20
21.93428138578499
 30
0.0
 40
1.533500049071998
100
AcDbArc
 50
80.24888718729647
 51
84.09893889965227
  0
ARC
  5
42F
330
1F
100
AcDbEntity
  8
SEPARATOR_BEARING
100
AcDbCircle
 10
9.803896142679192
 20
23.15965488650133
 30
0.0
 40
0.00500000016
100
AcDbArc
 50
106.6493665526857
 51
232.7945910735631
  0
ARC
  5
430
330
1F
100
AcDbEntity
  8
SEPARATOR_BEARING
100
AcDbCircle
 10
9.884074997178796
 20
23.09442455007214
 30
0.0
 40
0.00500000016
100
AcDbArc
 50
228.9445393612131
 51
355.0897638825043
  0
ARC
  5
431
330
1F
100
AcDbEntity
  8
SEPARATOR_BEARING
100
AcDbCircle
 10
8.873604690913104
 20
21.93428138578499
 30
0.0
 40
1.533500049071998
100
AcDbArc
 50
48.94453936121417
 51
52.79459107356416
  0
ARC
  5
432
330
1F
100
AcDbEntity
  8
SEPARATOR_BEARING
100
AcDbCircle
 10
8.873604690913104
 20
21.93428138578499
 30
0.0
 40
1.794500057423999
100
AcDbArc
 50
64.60300013528009
 51
68.44047812558184
  0
ARC
  5
433
330
1F
100
AcDbEntity
  8
SEPARATOR_BEARING
100
AcDbCircle
 10
9.742868667138839
 20
23.36372509533347
 30
0.0
 40
0.208000006656
100
AcDbArc
 50
118.5411328647477
 51
190.7419377950979
  0
ARC
  5
434
330
1F
100
AcDbEntity
  8
BEARING_WAVE_GEN
100
AcDbCircle
 10
9.739491371355526
 20
23.35817136902619
 30
0.0
 40
0.1875000059999999
100
AcDbArc
 50
86.09219091930331
 51
212.216095479965
  0
ARC
  5
435
330
1F
100
AcDbEntity
  8
SEPARATOR_BEARING
100
AcDbCircle
 10
9.531187974233334
 20
23.59858144299994
 30
0.0
 40
0.00500000016
100
AcDbArc
 50
68.44047812560845
 51
194.5023453961404
  0
ARC
  5
436
330
1F
100
AcDbEntity
  8
SEPARATOR_BEARING
100
AcDbCircle
 10
9.438796598135898
 20
23.36520434300412
 30
0.0
 40
0.00500000016
100
AcDbArc
 50
122.3015404657369
 51
248.446764986604
  0
ARC
  5
437
330
1F
100
AcDbEntity
  8
SEPARATOR_BEARING
100
AcDbCircle
 10
8.873604690913104
 20
21.93428138578499
 30
0.0
 40
1.533500049071998
100
AcDbArc
 50
64.59671327426343
 51
68.44676498661683
  0
ARC
  5
438
330
1F
100
AcDbEntity
  8
SEPARATOR_BEARING
100
AcDbCircle
 10
9.533601137363397
 20
23.32402492045599
 30
0.0
 40
0.00500000016
100
AcDbArc
 50
244.5967132742495
 51
10.74193779554557
  0
ARC
  5
439
330
1F
100
AcDbEntity
  8
SEPARATOR_BEARING
100
AcDbCircle
 10
9.324974703502649
 20
23.5452420590686
 30
0.0
 40
0.208000006656
100
AcDbArc
 50
302.3015404657519
 51
14.5023453961269
  0
ARC
  5
43A
330
1F
100
AcDbEntity
  8
SEPARATOR_BEARING
100
AcDbCircle
 10
9.641099491117675
 20
23.55084013405454
 30
0.0
 40
0.00500000016
100
AcDbArc
 50
298.5411328647338
 51
64.60300013529402
  0
ARC
  5
43B
330
1F
100
AcDbEntity
  8
SEPARATOR_BEARING
100
AcDbCircle
 10
8.689429161206199
 20
23.71427852881782
 30
0.0
 40
0.00500000016
100
AcDbArc
 50
329.8454806908226
 51
95.90734796138555
  0
ARC
  5
43C
330
1F
100
AcDbEntity
  8
SEPARATOR_BEARING
100
AcDbCircle
 10
9.176496371310861
 20
23.69796136948204
 30
0.0
 40
0.00500000016
100
AcDbArc
 50
314.1933067777737
 51
80.25517404834054
  0
ARC
  5
43D
330
1F
100
AcDbEntity
  8
SEPARATOR_BEARING
100
AcDbCircle
 10
9.057780220620028
 20
23.71427852881782
 30
0.0
 40
0.00500000016
100
AcDbArc
 50
84.09265203865334
 51
210.1545193091829
  0
ARC
  5
43E
330
1F
100
AcDbEntity
  8
SEPARATOR_BEARING
100
AcDbCircle
 10
8.873604690913104
 20
21.93428138578499
 30
0.0
 40
1.794500057423999
100
AcDbArc
 50
80.25517404832607
 51
84.09265203862736
  0
CIRCLE
  5
43F
330
1F
100
AcDbEntity
  8
LINE_HIDDEN
100
AcDbCircle
 10
8.873604690913104
 20
24.29648138578499
 30
0.0
 40
0.1575
  0
CIRCLE
  5
440
330
1F
100
AcDbEntity
  8
SPLINE_STATIC
100
AcDbCircle
 10
8.873604690913104
 20
24.29648138578499
 30
0.0
 40
0.134
  0
ARC
  5
441
330
1F
100
AcDbEntity
  8
SEPARATOR_BEARING
100
AcDbCircle
 10
10.09629329827644
 20
23.07619283093096
 30
0.0
 40
0.208000006656
100
AcDbArc
 50
270.9971926396641
 51
343.1979975700433
  0
ARC
  5
442
330
1F
100
AcDbEntity
  8
BEARING_WAVE_GEN
100
AcDbCircle
 10
10.09154286435662
 20
23.07175623535806
 30
0.0
 40
0.1875000059999999
100
AcDbArc
 50
249.5230349548114
 51
15.6469395154765
  0
ARC
  5
443
330
1F
100
AcDbEntity
  8
SEPARATOR_BEARING
100
AcDbCircle
 10
10.35903670883411
 20
22.70397021853924
 30
0.0
 40
0.208000006656
100
AcDbArc
 50
87.2367850386505
 51
159.4375899690095
  0
ARC
  5
444
330
1F
100
AcDbEntity
  8
SEPARATOR_BEARING
100
AcDbCircle
 10
10.1000002260452
 20
22.86322508316117
 30
0.0
 40
0.00500000016
100
AcDbArc
 50
90.99719263965132
 51
217.1424171605218
  0
ARC
  5
445
330
1F
100
AcDbEntity
  8
SEPARATOR_BEARING
100
AcDbCircle
 10
10.15960689697253
 20
22.77878166849493
 30
0.0
 40
0.00500000016
100
AcDbArc
 50
213.2923654481644
 51
339.4375899694566
  0
ARC
  5
446
330
1F
100
AcDbEntity
  8
SEPARATOR_BEARING
100
AcDbCircle
 10
8.873604690913104
 20
21.93428138578499
 30
0.0
 40
1.533500049071998
100
AcDbArc
 50
33.29236544817099
 51
37.14241716052372
  0
ARC
  5
447
330
1F
100
AcDbEntity
  8
SEPARATOR_BEARING
100
AcDbCircle
 10
8.873604690913104
 20
21.93428138578499
 30
0.0
 40
1.794500057423999
100
AcDbArc
 50
33.29865230919987
 51
37.13613029949911
  0
ARC
  5
448
330
1F
100
AcDbEntity
  8
SEPARATOR_BEARING
100
AcDbCircle
 10
10.30020020605923
 20
23.01462192983247
 30
0.0
 40
0.00500000016
100
AcDbArc
 50
37.1361302995221
 51
163.1979975700543
  0
ARC
  5
449
330
1F
100
AcDbEntity
  8
SEPARATOR_BEARING
100
AcDbCircle
 10
10.36930512098664
 20
22.91672256897393
 30
0.0
 40
0.00500000016
100
AcDbArc
 50
267.2367850386505
 51
33.29865230920914
  0
ARC
  5
44A
330
1F
100
AcDbEntity
  8
SEPARATOR_BEARING
100
AcDbCircle
 10
10.0487810326484
 20
23.28382613153205
 30
0.0
 40
0.00500000016
100
AcDbArc
 50
282.8889589516979
 51
48.95082622225375
  0
ARC
  5
44B
330
1F
100
AcDbEntity
  8
SEPARATOR_BEARING
100
AcDbCircle
 10
9.955825783966123
 20
23.35945083560456
 30
0.0
 40
0.00500000016
100
AcDbArc
 50
52.78830421255764
 51
178.8501714830981
  0
ARC
  5
44C
330
1F
100
AcDbEntity
  8
SEPARATOR_BEARING
100
AcDbCircle
 10
8.873604690913104
 20
21.93428138578499
 30
0.0
 40
1.794500057423999
100
AcDbArc
 50
48.95082622223815
 51
52.78830421253913
  0
CIRCLE
  5
44D
330
1F
100
AcDbEntity
  8
SPLINE_STATIC
100
AcDbCircle
 10
10.9193298997327
 20
23.11538138578499
 30
0.0
 40
0.134
  0
CIRCLE
  5
44E
330
1F
100
AcDbEntity
  8
LINE_HIDDEN
100
AcDbCircle
 10
10.9193298997327
 20
23.11538138578499
 30
0.0
 40
0.1575
  0
LINE
  5
44F
330
1F
100
AcDbEntity
  8
SPACERS_PANCAKE
100
AcDbLine
 10
14.9449834023739
 20
20.16928138578499
 30
0.0
 11
14.9449834023739
 21
23.69928138578499
 31
0.0
  0
LINE
  5
450
330
1F
100
AcDbEntity
  8
SPACERS_PANCAKE
100
AcDbLine
 10
14.7849834023739
 20
23.69928138578499
 30
0.0
 11
14.7849834023739
 21
20.16928138578499
 31
0.0
  0
LINE
  5
451
330
1F
100
AcDbEntity
  8
WEAR_WASHER
100
AcDbLine
 10
13.75277867796446
 20
23.80428138578499
 30
0.0
 11
13.75277867796446
 21
20.06428138578498
 31
0.0
  0
LINE
  5
452
330
1F
100
AcDbEntity
  8
WEAR_WASHER
100
AcDbLine
 10
13.69077867796446
 20
23.80428138578499
 30
0.0
 11
13.69077867796446
 21
20.06428138578498
 31
0.0
  0
LINE
  5
453
330
1F
100
AcDbEntity
  8
WAVE_GENERATOR
100
AcDbLine
 10
15.66941647324004
 20
23.33428143058499
 30
0.0
 11
15.66941647324004
 21
22.59428138578499
 31
0.0
  0
LINE
  5
454
330
1F
100
AcDbEntity
  8
WAVE_GENERATOR
100
AcDbLine
 10
15.25641647324004
 20
23.33428143058499
 30
0.0
 11
15.25641647324004
 21
22.59428138578499
 31
0.0
  0
LINE
  5
455
330
1F
100
AcDbEntity
  8
WAVE_GENERATOR
100
AcDbLine
 10
14.47355033150777
 20
23.33428143058499
 30
0.0
 11
14.47355033150777
 21
22.59428138578499
 31
0.0
  0
LINE
  5
456
330
1F
100
AcDbEntity
  8
WAVE_GENERATOR
100
AcDbLine
 10
14.06055033150776
 20
23.33428143058499
 30
0.0
 11
14.06055033150776
 21
22.59428138578499
 31
0.0
  0
LINE
  5
457
330
1F
100
AcDbEntity
  8
WAVE_GENERATOR
100
AcDbLine
 10
15.66941647324004
 20
20.53428134098499
 30
0.0
 11
15.66941647324004
 21
21.27428138578499
 31
0.0
  0
LINE
  5
458
330
1F
100
AcDbEntity
  8
WAVE_GENERATOR
100
AcDbLine
 10
15.25641647324004
 20
20.53428134098499
 30
0.0
 11
15.25641647324004
 21
21.27428138578499
 31
0.0
  0
LINE
  5
459
330
1F
100
AcDbEntity
  8
WAVE_GENERATOR
100
AcDbLine
 10
14.06055033150776
 20
20.53428134098499
 30
0.0
 11
14.06055033150776
 21
21.27428138578499
 31
0.0
  0
LINE
  5
45A
330
1F
100
AcDbEntity
  8
WAVE_GENERATOR
100
AcDbLine
 10
14.47355033150777
 20
20.53428134098499
 30
0.0
 11
14.47355033150777
 21
21.27428138578499
 31
0.0
  0
LINE
  5
45B
330
1F
100
AcDbEntity
  8
BEARING_WAVE_GEN
100
AcDbLine
 10
14.01388103104917
 20
20.00178132394498
 30
0.0
 11
14.52388104928918
 21
20.00178132394498
 31
0.0
  0
LINE
  5
45C
330
1F
100
AcDbEntity
  8
SEPARATOR_BEARING
100
AcDbLine
 10
14.40589290535401
 20
20.13978132836098
 30
0.0
 11
14.53138104856917
 21
20.13978132836098
 31
0.0
  0
LINE
  5
45D
330
1F
100
AcDbEntity
  8
SEPARATOR_BEARING
100
AcDbLine
 10
14.53138104856917
 20
20.40078133671298
 30
0.0
 11
14.40104476861955
 21
20.40078133671298
 31
0.0
  0
LINE
  5
45E
330
1F
100
AcDbEntity
  8
BEARING_WAVE_GEN
100
AcDbLine
 10
14.36603041280756
 20
20.09928132706499
 30
0.0
 11
14.54388104928917
 21
20.09928132706499
 31
0.0
  0
LWPOLYLINE
  5
45F
330
1F
100
AcDbEntity
  8
SPLINE_FLEX
100
AcDbPolyline
 90
        8
 70
     1
 43
0.0
 10
13.82788104016917
 20
19.91378138578498
 10
14.70988104016917
 20
19.91378138578498
 10
14.76988104016918
 20
19.94842240193636
 10
14.76988104016918
 20
19.99158138578499
 42
0.4142135623730951
 10
14.75988104016918
 20
20.00158138578499
 10
13.77788104016917
 20
20.00158138578499
 42
0.4142135623730946
 10
13.76788104016918
 20
19.99158138578499
 10
13.76788104016918
 20
19.94842240193636
  0
LINE
  5
460
330
1F
100
AcDbEntity
  8
BEARING_WAVE_GEN
100
AcDbLine
 10
14.01388103104917
 20
20.00178132394498
 30
0.0
 11
14.52388104928918
 21
20.00178132394498
 31
0.0
  0
LINE
  5
461
330
1F
100
AcDbEntity
  8
SEPARATOR_BEARING
100
AcDbLine
 10
14.40589290535401
 20
20.13978132836098
 30
0.0
 11
14.53138104856917
 21
20.13978132836098
 31
0.0
  0
LINE
  5
462
330
1F
100
AcDbEntity
  8
BEARING_WAVE_GEN
100
AcDbLine
 10
14.36603041280756
 20
20.09928132706499
 30
0.0
 11
14.54388104928917
 21
20.09928132706499
 31
0.0
  0
LINE
  5
463
330
1F
100
AcDbEntity
  8
SEPARATOR_BEARING
100
AcDbLine
 10
14.40104476861955
 20
20.40078133671298
 30
0.0
 11
14.53138104856917
 21
20.40078133671298
 31
0.0
  0
LINE
  5
464
330
1F
100
AcDbEntity
  8
SEPARATOR_BEARING
100
AcDbLine
 10
14.45638104616917
 20
20.40078133671298
 30
0.0
 11
14.45638104616917
 21
20.13978132836098
 31
0.0
  0
CIRCLE
  5
465
330
1F
100
AcDbEntity
  8
BEARING_WAVE_GEN
100
AcDbCircle
 10
14.26888104016917
 20
20.26778133245699
 30
0.0
 40
0.1875000059999999
  0
LINE
  5
466
330
1F
100
AcDbEntity
  8
SEPARATOR_BEARING
100
AcDbLine
 10
14.45638104616917
 20
20.13978132836098
 30
0.0
 11
14.45638104616917
 21
20.40078133671298
 31
0.0
  0
CIRCLE
  5
467
330
1F
100
AcDbEntity
  8
BEARING_WAVE_GEN
100
AcDbCircle
 10
14.26888104016917
 20
20.26778133245699
 30
0.0
 40
0.1875000059999999
  0
LINE
  5
468
330
1F
100
AcDbEntity
  8
SPLINE_STATIC
100
AcDbLine
 10
14.26477867796446
 20
19.70608138578499
 30
0.0
 11
13.75277867796446
 21
19.70608138578499
 31
0.0
  0
LINE
  5
469
330
1F
100
AcDbEntity
  8
LINE_HIDDEN
100
AcDbLine
 10
14.26477867796446
 20
19.72958138578499
 30
0.0
 11
13.75277867796446
 21
19.72958138578499
 31
0.0
  0
LINE
  5
46A
330
1F
100
AcDbEntity
  8
SPLINE_STATIC
100
AcDbLine
 10
14.26477867796446
 20
19.43808138578499
 30
0.0
 11
13.75277867796446
 21
19.43808138578499
 31
0.0
  0
LINE
  5
46B
330
1F
100
AcDbEntity
  8
LINE_HIDDEN
100
AcDbLine
 10
14.26477867796446
 20
19.41458138578499
 30
0.0
 11
13.75277867796446
 21
19.41458138578499
 31
0.0
  0
LINE
  5
46C
330
1F
100
AcDbEntity
  8
LINE_CENTER
100
AcDbLine
 10
14.36477867796446
 20
19.57208138578499
 30
0.0
 11
13.65277867796446
 21
19.57208138578499
 31
0.0
  0
LWPOLYLINE
  5
46D
330
1F
100
AcDbEntity
  8
WEAR_WASHER
100
AcDbPolyline
 90
        4
 70
     1
 43
0.0
 10
13.69077867796446
 20
20.06428138578498
 10
13.75277867796446
 20
20.06428138578498
 10
13.75277867796446
 20
19.74678138578499
 10
13.69077867796446
 20
19.74678138578499
  0
LINE
  5
46E
330
1F
100
AcDbEntity
  8
BEARING_WAVE_GEN
100
AcDbLine
 10
13.99388103104917
 20
20.09928132706499
 30
0.0
 11
14.1717316675308
 21
20.09928132706499
 31
0.0
  0
LINE
  5
46F
330
1F
100
AcDbEntity
  8
BEARING_WAVE_GEN
100
AcDbLine
 10
13.99388103104917
 20
20.09928132706499
 30
0.0
 11
14.1717316675308
 21
20.09928132706499
 31
0.0
  0
ARC
  5
470
330
1F
100
AcDbEntity
  8
BEARING_WAVE_GEN
100
AcDbCircle
 10
14.01388103104917
 20
20.03178132394499
 30
0.0
 40
0.03
100
AcDbArc
 50
180.0
 51
270.0
  0
LINE
  5
471
330
1F
100
AcDbEntity
  8
SEPARATOR_BEARING
100
AcDbLine
 10
14.09938103474517
 20
20.18761899459648
 30
0.0
 11
14.09938103474517
 21
20.13978132836098
 31
0.0
  0
LINE
  5
472
330
1F
100
AcDbEntity
  8
SEPARATOR_BEARING
100
AcDbLine
 10
14.09938103474517
 20
20.13978132836098
 30
0.0
 11
14.13186917498435
 21
20.13978132836098
 31
0.0
  0
ARC
  5
473
330
1F
100
AcDbEntity
  8
BEARING_WAVE_GEN
100
AcDbCircle
 10
13.99388103104917
 20
20.08928132706499
 30
0.0
 40
0.01
100
AcDbArc
 50
90.00000000000005
 51
180.0000000000014
  0
LINE
  5
474
330
1F
100
AcDbEntity
  8
BEARING_WAVE_GEN
100
AcDbLine
 10
13.98388103104917
 20
20.08928132706499
 30
0.0
 11
13.98388103104917
 21
20.03178132394499
 31
0.0
  0
ARC
  5
475
330
1F
100
AcDbEntity
  8
BEARING_WAVE_GEN
100
AcDbCircle
 10
13.99388103104917
 20
20.08928132706499
 30
0.0
 40
0.01
100
AcDbArc
 50
90.0
 51
180.0
  0
ARC
  5
476
330
1F
100
AcDbEntity
  8
BEARING_WAVE_GEN
100
AcDbCircle
 10
14.01388103104917
 20
20.03178132394499
 30
0.0
 40
0.03
100
AcDbArc
 50
180.0
 51
270.0
  0
LINE
  5
477
330
1F
100
AcDbEntity
  8
SEPARATOR_BEARING
100
AcDbLine
 10
14.09938103474517
 20
20.13978132836098
 30
0.0
 11
14.09938103474517
 21
20.18761899459648
 31
0.0
  0
LINE
  5
478
330
1F
100
AcDbEntity
  8
BEARING_WAVE_GEN
100
AcDbLine
 10
13.98388103104917
 20
20.08928132706499
 30
0.0
 11
13.98388103104917
 21
20.03178132394499
 31
0.0
  0
LINE
  5
479
330
1F
100
AcDbEntity
  8
SEPARATOR_BEARING
100
AcDbLine
 10
14.09938103474517
 20
20.13978132836098
 30
0.0
 11
14.13186917498435
 21
20.13978132836098
 31
0.0
  0
ARC
  5
47A
330
1F
100
AcDbEntity
  8
BEARING_WAVE_GEN
100
AcDbCircle
 10
14.26888104016917
 20
20.26778133245699
 30
0.0
 40
0.194500006224
100
AcDbArc
 50
240.0342237066426
 51
299.9657762933573
  0
ARC
  5
47B
330
1F
100
AcDbEntity
  8
BEARING_WAVE_GEN
100
AcDbCircle
 10
14.26888104016917
 20
20.26778133245699
 30
0.0
 40
0.194500006224
100
AcDbArc
 50
240.0342237066426
 51
299.9657762933573
  0
LINE
  5
47C
330
1F
100
AcDbEntity
  8
BEARING_WAVE_GEN
100
AcDbLine
 10
14.1695897987077
 20
20.43328133775299
 30
0.0
 11
14.07638103368918
 21
20.43328133775299
 31
0.0
  0
LINE
  5
47D
330
1F
100
AcDbEntity
  8
BEARING_WAVE_GEN
100
AcDbLine
 10
14.46138104664917
 20
20.53428134098499
 30
0.0
 11
14.07638103368918
 21
20.53428134098499
 31
0.0
1001
ACAD
1000
ASC_BOUNDS
1002
{
1070
    19
1005
0
1002
}
  0
LINE
  5
47E
330
1F
100
AcDbEntity
  8
WAVE_GENERATOR
100
AcDbLine
 10
14.06055033150776
 20
20.53428134098499
 30
0.0
 11
14.47355033150777
 21
20.53428134098499
 31
0.0
  0
LINE
  5
47F
330
1F
100
AcDbEntity
  8
BEARING_WAVE_GEN
100
AcDbLine
 10
14.1695897987077
 20
20.43328133775299
 30
0.0
 11
14.07638103368918
 21
20.43328133775299
 31
0.0
  0
LINE
  5
480
330
1F
100
AcDbEntity
  8
BEARING_WAVE_GEN
100
AcDbLine
 10
14.46138104664918
 20
20.53428134098499
 30
0.0
 11
14.07638103368918
 21
20.53428134098499
 31
0.0
  0
LINE
  5
481
330
1F
100
AcDbEntity
  8
SEPARATOR_BEARING
100
AcDbLine
 10
14.1367173117188
 20
20.40078133671298
 30
0.0
 11
14.09938103474517
 21
20.40078133671298
 31
0.0
  0
ARC
  5
482
330
1F
100
AcDbEntity
  8
BEARING_WAVE_GEN
100
AcDbCircle
 10
14.07638103368918
 20
20.44328133775298
 30
0.0
 40
0.01
100
AcDbArc
 50
179.9999999999978
 51
270.0
  0
ARC
  5
483
330
1F
100
AcDbEntity
  8
BEARING_WAVE_GEN
100
AcDbCircle
 10
14.07638103368918
 20
20.52428134098499
 30
0.0
 40
0.01
100
AcDbArc
 50
90.00000000000005
 51
179.9999999999986
  0
LINE
  5
484
330
1F
100
AcDbEntity
  8
BEARING_WAVE_GEN
100
AcDbLine
 10
14.06638103368918
 20
20.44328133775298
 30
0.0
 11
14.06638103368918
 21
20.52428134098499
 31
0.0
  0
LINE
  5
485
330
1F
100
AcDbEntity
  8
SEPARATOR_BEARING
100
AcDbLine
 10
14.09938103474517
 20
20.43328133775299
 30
0.0
 11
14.09938103474517
 21
20.3479436703175
 31
0.0
  0
ARC
  5
486
330
1F
100
AcDbEntity
  8
BEARING_WAVE_GEN
100
AcDbCircle
 10
14.07638103368918
 20
20.52428134098499
 30
0.0
 40
0.01
100
AcDbArc
 50
90.0
 51
179.9999999999975
  0
ARC
  5
487
330
1F
100
AcDbEntity
  8
BEARING_WAVE_GEN
100
AcDbCircle
 10
14.07638103368918
 20
20.44328133775298
 30
0.0
 40
0.01
100
AcDbArc
 50
179.9999999999978
 51
270.0
  0
LINE
  5
488
330
1F
100
AcDbEntity
  8
SEPARATOR_BEARING
100
AcDbLine
 10
14.09938103474517
 20
20.3479436703175
 30
0.0
 11
14.09938103474517
 21
20.43328133775299
 31
0.0
  0
LINE
  5
489
330
1F
100
AcDbEntity
  8
BEARING_WAVE_GEN
100
AcDbLine
 10
14.06638103368918
 20
20.44328133775298
 30
0.0
 11
14.06638103368918
 21
20.52428134098499
 31
0.0
  0
LINE
  5
48A
330
1F
100
AcDbEntity
  8
SEPARATOR_BEARING
100
AcDbLine
 10
14.09938103474517
 20
20.40078133671298
 30
0.0
 11
14.1367173117188
 21
20.40078133671298
 31
0.0
  0
ARC
  5
48B
330
1F
100
AcDbEntity
  8
BEARING_WAVE_GEN
100
AcDbCircle
 10
14.46138104664917
 20
20.52428134098499
 30
0.0
 40
0.01
100
AcDbArc
 50
0.0
 51
89.99999999999976
  0
ARC
  5
48C
330
1F
100
AcDbEntity
  8
BEARING_WAVE_GEN
100
AcDbCircle
 10
14.46138104664918
 20
20.44328133775298
 30
0.0
 40
0.01
100
AcDbArc
 50
270.0
 51
0.0000000000011196
  0
LINE
  5
48D
330
1F
100
AcDbEntity
  8
BEARING_WAVE_GEN
100
AcDbLine
 10
14.47138104664919
 20
20.44328133775298
 30
0.0
 11
14.47138104664919
 21
20.52428134098499
 31
0.0
  0
LINE
  5
48E
330
1F
100
AcDbEntity
  8
BEARING_WAVE_GEN
100
AcDbLine
 10
14.46138104664918
 20
20.43328133775299
 30
0.0
 11
14.36817228163065
 21
20.43328133775299
 31
0.0
  0
ARC
  5
48F
330
1F
100
AcDbEntity
  8
BEARING_WAVE_GEN
100
AcDbCircle
 10
14.26888104016917
 20
20.26778133245699
 30
0.0
 40
0.193000006176
100
AcDbArc
 50
59.03847387962066
 51
120.9615261203793
  0
ARC
  5
490
330
1F
100
AcDbEntity
  8
BEARING_WAVE_GEN
100
AcDbCircle
 10
14.46138104664918
 20
20.52428134098499
 30
0.0
 40
0.01
100
AcDbArc
 50
0.0
 51
90.0
  0
ARC
  5
491
330
1F
100
AcDbEntity
  8
BEARING_WAVE_GEN
100
AcDbCircle
 10
14.46138104664918
 20
20.44328133775298
 30
0.0
 40
0.01
100
AcDbArc
 50
270.0
 51
0.0
  0
ARC
  5
492
330
1F
100
AcDbEntity
  8
BEARING_WAVE_GEN
100
AcDbCircle
 10
14.26888104016917
 20
20.26778133245699
 30
0.0
 40
0.193000006176
100
AcDbArc
 50
59.03847387962066
 51
120.9615261203793
  0
LINE
  5
493
330
1F
100
AcDbEntity
  8
BEARING_WAVE_GEN
100
AcDbLine
 10
14.47138104664919
 20
20.44328133775298
 30
0.0
 11
14.47138104664919
 21
20.52428134098499
 31
0.0
  0
LINE
  5
494
330
1F
100
AcDbEntity
  8
BEARING_WAVE_GEN
100
AcDbLine
 10
14.46138104664918
 20
20.43328133775299
 30
0.0
 11
14.36817228163065
 21
20.43328133775299
 31
0.0
  0
LINE
  5
495
330
1F
100
AcDbEntity
  8
SEPARATOR_BEARING
100
AcDbLine
 10
15.27358575857862
 20
20.40078133671298
 30
0.0
 11
15.27358575857862
 21
20.13978132836098
 31
0.0
  0
LINE
  5
496
330
1F
100
AcDbEntity
  8
SEPARATOR_BEARING
100
AcDbLine
 10
15.19858575617862
 20
20.40078133671298
 30
0.0
 11
15.19858575617862
 21
20.13978132836098
 31
0.0
  0
LINE
  5
497
330
1F
100
AcDbEntity
  8
SEPARATOR_BEARING
100
AcDbLine
 10
14.53138104856918
 20
20.40078133671298
 30
0.0
 11
14.53138104856917
 21
20.13978132836098
 31
0.0
  0
CIRCLE
  5
498
330
1F
100
AcDbEntity
  8
BEARING_WAVE_GEN
100
AcDbCircle
 10
15.46108576457862
 20
20.26778133245699
 30
0.0
 40
0.1875000059999999
  0
LINE
  5
499
330
1F
100
AcDbEntity
  8
SEPARATOR_BEARING
100
AcDbLine
 10
14.53138104856917
 20
20.13978132836098
 30
0.0
 11
14.53138104856917
 21
20.40078133671298
 31
0.0
  0
LWPOLYLINE
  5
49A
330
1F
100
AcDbEntity
  8
SPACERS_PANCAKE
100
AcDbPolyline
 90
        4
 70
     1
 43
0.0
 10
14.7849834023739
 20
20.16928138578499
 10
14.9449834023739
 20
20.16928138578499
 10
14.9449834023739
 20
19.92328138578498
 10
14.7849834023739
 20
19.92328138578498
  0
ARC
  5
49B
330
1F
100
AcDbEntity
  8
BEARING_WAVE_GEN
100
AcDbCircle
 10
14.52388104928918
 20
20.03178132394499
 30
0.0
 40
0.03
100
AcDbArc
 50
270.0
 51
0.0
  0
ARC
  5
49C
330
1F
100
AcDbEntity
  8
BEARING_WAVE_GEN
100
AcDbCircle
 10
14.54388104928917
 20
20.08928132706499
 30
0.0
 40
0.01
100
AcDbArc
 50
0.0000000000015267
 51
90.00000000000005
  0
LINE
  5
49D
330
1F
100
AcDbEntity
  8
BEARING_WAVE_GEN
100
AcDbLine
 10
14.55388104928917
 20
20.08928132706499
 30
0.0
 11
14.55388104928918
 21
20.03178132394499
 31
0.0
  0
ARC
  5
49E
330
1F
100
AcDbEntity
  8
BEARING_WAVE_GEN
100
AcDbCircle
 10
14.54388104928917
 20
20.08928132706499
 30
0.0
 40
0.01
100
AcDbArc
 50
0.0
 51
90.0
  0
ARC
  5
49F
330
1F
100
AcDbEntity
  8
BEARING_WAVE_GEN
100
AcDbCircle
 10
14.52388104928918
 20
20.03178132394499
 30
0.0
 40
0.03
100
AcDbArc
 50
270.0
 51
0.0
  0
LINE
  5
4A0
330
1F
100
AcDbEntity
  8
BEARING_WAVE_GEN
100
AcDbLine
 10
14.55388104928917
 20
20.08928132706499
 30
0.0
 11
14.55388104928917
 21
20.03178132394499
 31
0.0
  0
ARC
  5
4A1
330
1F
100
AcDbEntity
  8
BEARING_WAVE_GEN
100
AcDbCircle
 10
15.46108576457862
 20
20.26778133245699
 30
0.0
 40
0.194500006224
100
AcDbArc
 50
240.0342237066426
 51
299.9657762933573
  0
LINE
  5
4A2
330
1F
100
AcDbEntity
  8
BEARING_WAVE_GEN
100
AcDbLine
 10
15.71608577369862
 20
20.00178132394498
 30
0.0
 11
15.20608575545862
 21
20.00178132394498
 31
0.0
  0
ARC
  5
4A3
330
1F
100
AcDbEntity
  8
BEARING_WAVE_GEN
100
AcDbCircle
 10
15.20608575545862
 20
20.03178132394499
 30
0.0
 40
0.03
100
AcDbArc
 50
180.0
 51
270.0
  0
LINE
  5
4A4
330
1F
100
AcDbEntity
  8
SEPARATOR_BEARING
100
AcDbLine
 10
15.3240738993938
 20
20.13978132836098
 30
0.0
 11
15.19858575617862
 21
20.13978132836098
 31
0.0
  0
ARC
  5
4A5
330
1F
100
AcDbEntity
  8
BEARING_WAVE_GEN
100
AcDbCircle
 10
15.18608575545862
 20
20.08928132706499
 30
0.0
 40
0.01
100
AcDbArc
 50
90.00000000000005
 51
179.9999999999983
  0
LINE
  5
4A6
330
1F
100
AcDbEntity
  8
BEARING_WAVE_GEN
100
AcDbLine
 10
15.36393639194024
 20
20.09928132706499
 30
0.0
 11
15.18608575545862
 21
20.09928132706499
 31
0.0
  0
LINE
  5
4A7
330
1F
100
AcDbEntity
  8
BEARING_WAVE_GEN
100
AcDbLine
 10
15.17608575545863
 20
20.08928132706499
 30
0.0
 11
15.17608575545863
 21
20.03178132394499
 31
0.0
  0
ARC
  5
4A8
330
1F
100
AcDbEntity
  8
BEARING_WAVE_GEN
100
AcDbCircle
 10
15.71608577369862
 20
20.03178132394499
 30
0.0
 40
0.03
100
AcDbArc
 50
270.0
 51
0.0
  0
LINE
  5
4A9
330
1F
100
AcDbEntity
  8
BEARING_WAVE_GEN
100
AcDbLine
 10
15.73608577369862
 20
20.09928132706499
 30
0.0
 11
15.558235137217
 21
20.09928132706499
 31
0.0
  0
ARC
  5
4AA
330
1F
100
AcDbEntity
  8
BEARING_WAVE_GEN
100
AcDbCircle
 10
15.73608577369862
 20
20.08928132706499
 30
0.0
 40
0.01
100
AcDbArc
 50
359.9999999999983
 51
90.00000000000005
  0
LINE
  5
4AB
330
1F
100
AcDbEntity
  8
SEPARATOR_BEARING
100
AcDbLine
 10
15.63058577000263
 20
20.13978132836098
 30
0.0
 11
15.59809762976345
 21
20.13978132836098
 31
0.0
  0
LINE
  5
4AC
330
1F
100
AcDbEntity
  8
SEPARATOR_BEARING
100
AcDbLine
 10
15.63058577000263
 20
20.18761899459648
 30
0.0
 11
15.63058577000263
 21
20.13978132836098
 31
0.0
  0
LINE
  5
4AD
330
1F
100
AcDbEntity
  8
BEARING_WAVE_GEN
100
AcDbLine
 10
15.74608577369862
 20
20.08928132706499
 30
0.0
 11
15.74608577369862
 21
20.03178132394499
 31
0.0
  0
LINE
  5
4AE
330
1F
100
AcDbEntity
  8
WAVE_GENERATOR
100
AcDbLine
 10
15.66941647324004
 20
20.53428134098499
 30
0.0
 11
15.25641647324004
 21
20.53428134098499
 31
0.0
  0
ARC
  5
4AF
330
1F
100
AcDbEntity
  8
BEARING_WAVE_GEN
100
AcDbCircle
 10
15.46108576457862
 20
20.26778133245699
 30
0.0
 40
0.193000006176
100
AcDbArc
 50
59.03847387962066
 51
120.9615261203793
  0
LINE
  5
4B0
330
1F
100
AcDbEntity
  8
BEARING_WAVE_GEN
100
AcDbLine
 10
15.26858575809862
 20
20.53428134098499
 30
0.0
 11
15.65358577105862
 21
20.53428134098499
 31
0.0
1001
ACAD
1000
ASC_BOUNDS
1002
{
1070
    19
1005
0
1002
}
  0
LINE
  5
4B1
330
1F
100
AcDbEntity
  8
SEPARATOR_BEARING
100
AcDbLine
 10
15.19858575617862
 20
20.40078133671298
 30
0.0
 11
15.32892203612825
 21
20.40078133671298
 31
0.0
  0
LINE
  5
4B2
330
1F
100
AcDbEntity
  8
BEARING_WAVE_GEN
100
AcDbLine
 10
15.25858575809861
 20
20.44328133775298
 30
0.0
 11
15.25858575809863
 21
20.52428134098499
 31
0.0
  0
ARC
  5
4B3
330
1F
100
AcDbEntity
  8
BEARING_WAVE_GEN
100
AcDbCircle
 10
15.26858575809862
 20
20.44328133775298
 30
0.0
 40
0.01
100
AcDbArc
 50
179.9999999999986
 51
270.0
  0
ARC
  5
4B4
330
1F
100
AcDbEntity
  8
BEARING_WAVE_GEN
100
AcDbCircle
 10
15.26858575809862
 20
20.52428134098499
 30
0.0
 40
0.01
100
AcDbArc
 50
90.00000000000021
 51
180.0
  0
LINE
  5
4B5
330
1F
100
AcDbEntity
  8
BEARING_WAVE_GEN
100
AcDbLine
 10
15.26858575809862
 20
20.43328133775299
 30
0.0
 11
15.36179452311715
 21
20.43328133775299
 31
0.0
  0
LINE
  5
4B6
330
1F
100
AcDbEntity
  8
SEPARATOR_BEARING
100
AcDbLine
 10
15.59324949302899
 20
20.40078133671298
 30
0.0
 11
15.63058577000263
 21
20.40078133671298
 31
0.0
  0
LINE
  5
4B7
330
1F
100
AcDbEntity
  8
BEARING_WAVE_GEN
100
AcDbLine
 10
15.66358577105862
 20
20.44328133775298
 30
0.0
 11
15.66358577105861
 21
20.52428134098499
 31
0.0
  0
ARC
  5
4B8
330
1F
100
AcDbEntity
  8
BEARING_WAVE_GEN
100
AcDbCircle
 10
15.65358577105862
 20
20.52428134098499
 30
0.0
 40
0.01
100
AcDbArc
 50
0.0000000000012213
 51
90.00000000000005
  0
ARC
  5
4B9
330
1F
100
AcDbEntity
  8
BEARING_WAVE_GEN
100
AcDbCircle
 10
15.65358577105863
 20
20.44328133775298
 30
0.0
 40
0.01
100
AcDbArc
 50
270.0
 51
0.0000000000021373
  0
LINE
  5
4BA
330
1F
100
AcDbEntity
  8
BEARING_WAVE_GEN
100
AcDbLine
 10
15.56037700604009
 20
20.43328133775299
 30
0.0
 11
15.65358577105863
 21
20.43328133775299
 31
0.0
  0
LINE
  5
4BB
330
1F
100
AcDbEntity
  8
SEPARATOR_BEARING
100
AcDbLine
 10
15.63058577000263
 20
20.43328133775299
 30
0.0
 11
15.63058577000263
 21
20.3479436703175
 31
0.0
  0
LINE
  5
4BC
330
1F
100
AcDbEntity
  8
WAVE_GENERATOR
100
AcDbLine
 10
13.82955033150776
 20
21.65868138578499
 30
0.0
 11
14.70455033150776
 21
21.65868138578499
 31
0.0
  0
LINE
  5
4BD
330
1F
100
AcDbEntity
  8
WAVE_GENERATOR
100
AcDbLine
 10
13.82955033150776
 20
22.19171642613498
 30
0.0
 11
14.70455033150776
 21
22.19171642613498
 31
0.0
  0
LINE
  5
4BE
330
1F
100
AcDbEntity
  8
WAVE_GENERATOR
100
AcDbLine
 10
13.82955033150776
 20
22.30068138578499
 30
0.0
 11
14.70455033150776
 21
22.30068138578499
 31
0.0
  0
ARC
  5
4BF
330
1F
100
AcDbEntity
  8
WAVE_GENERATOR
100
AcDbCircle
 10
14.50355033150776
 20
21.27428138578498
 30
0.0
 40
0.03
100
AcDbArc
 50
90.00000000001362
 51
179.9999999999897
  0
ARC
  5
4C0
330
1F
100
AcDbEntity
  8
WAVE_GENERATOR
100
AcDbCircle
 10
14.50355033150776
 20
22.594281385785
 30
0.0
 40
0.03
100
AcDbArc
 50
180.00000000001
 51
269.9999999999862
  0
LINE
  5
4C1
330
1F
100
AcDbEntity
  8
WAVE_GENERATOR
100
AcDbLine
 10
13.82955033150776
 20
21.30428138578499
 30
0.0
 11
13.82955033150776
 21
21.93428138578499
 31
0.0
  0
LINE
  5
4C2
330
1F
100
AcDbEntity
  8
WAVE_GENERATOR
100
AcDbLine
 10
14.03055033150776
 20
21.30428138578499
 30
0.0
 11
13.82955033150776
 21
21.30428138578499
 31
0.0
  0
ARC
  5
4C3
330
1F
100
AcDbEntity
  8
WAVE_GENERATOR
100
AcDbCircle
 10
14.03055033150775
 20
21.27428138578498
 30
0.0
 40
0.03
100
AcDbArc
 50
0.0000000000101778
 51
89.99999999998982
  0
LINE
  5
4C4
330
1F
100
AcDbEntity
  8
WAVE_GENERATOR
100
AcDbLine
 10
14.03055033150776
 20
22.56428138578498
 30
0.0
 11
13.82955033150776
 21
22.56428138578498
 31
0.0
  0
LINE
  5
4C5
330
1F
100
AcDbEntity
  8
WAVE_GENERATOR
100
AcDbLine
 10
13.82955033150776
 20
22.56428138578498
 30
0.0
 11
13.82955033150776
 21
21.93428138578499
 31
0.0
  0
ARC
  5
4C6
330
1F
100
AcDbEntity
  8
WAVE_GENERATOR
100
AcDbCircle
 10
14.03055033150775
 20
22.594281385785
 30
0.0
 40
0.03
100
AcDbArc
 50
270.0000000000101
 51
359.9999999999897
  0
LINE
  5
4C7
330
1F
100
AcDbEntity
  8
WAVE_GENERATOR
100
AcDbLine
 10
14.70455033150776
 20
21.30428138578499
 30
0.0
 11
14.70455033150776
 21
21.93428138578499
 31
0.0
  0
LINE
  5
4C8
330
1F
100
AcDbEntity
  8
WAVE_GENERATOR
100
AcDbLine
 10
15.02541647324004
 20
21.30428138578499
 30
0.0
 11
15.02541647324004
 21
21.93428138578499
 31
0.0
  0
LINE
  5
4C9
330
1F
100
AcDbEntity
  8
WAVE_GENERATOR
100
AcDbLine
 10
15.02541647324004
 20
21.30428138578499
 30
0.0
 11
15.22641647324005
 21
21.30428138578499
 31
0.0
  0
LINE
  5
4CA
330
1F
100
AcDbEntity
  8
WAVE_GENERATOR
100
AcDbLine
 10
14.70455033150776
 20
21.30428138578499
 30
0.0
 11
14.50355033150776
 21
21.30428138578499
 31
0.0
  0
ARC
  5
4CB
330
1F
100
AcDbEntity
  8
WAVE_GENERATOR
100
AcDbCircle
 10
15.22641647324003
 20
21.27428138578498
 30
0.0
 40
0.03
100
AcDbArc
 50
0.0000000000101778
 51
89.99999999998641
  0
ARC
  5
4CC
330
1F
100
AcDbEntity
  8
WAVE_GENERATOR
100
AcDbCircle
 10
15.69941647324005
 20
21.27428138578498
 30
0.0
 40
0.03
100
AcDbArc
 50
90.00000000001017
 51
179.9999999999897
  0
LINE
  5
4CD
330
1F
100
AcDbEntity
  8
WAVE_GENERATOR
100
AcDbLine
 10
15.02541647324004
 20
22.56428138578498
 30
0.0
 11
15.22641647324005
 21
22.56428138578498
 31
0.0
  0
LINE
  5
4CE
330
1F
100
AcDbEntity
  8
WAVE_GENERATOR
100
AcDbLine
 10
15.02541647324004
 20
22.56428138578498
 30
0.0
 11
15.02541647324004
 21
21.93428138578499
 31
0.0
  0
LINE
  5
4CF
330
1F
100
AcDbEntity
  8
WAVE_GENERATOR
100
AcDbLine
 10
14.70455033150776
 20
22.56428138578498
 30
0.0
 11
14.70455033150776
 21
21.93428138578499
 31
0.0
  0
LINE
  5
4D0
330
1F
100
AcDbEntity
  8
WAVE_GENERATOR
100
AcDbLine
 10
14.70455033150776
 20
22.56428138578498
 30
0.0
 11
14.50355033150776
 21
22.56428138578498
 31
0.0
  0
ARC
  5
4D1
330
1F
100
AcDbEntity
  8
WAVE_GENERATOR
100
AcDbCircle
 10
15.22641647324003
 20
22.594281385785
 30
0.0
 40
0.03
100
AcDbArc
 50
270.0000000000136
 51
359.9999999999897
  0
ARC
  5
4D2
330
1F
100
AcDbEntity
  8
WAVE_GENERATOR
100
AcDbCircle
 10
15.69941647324005
 20
22.594281385785
 30
0.0
 40
0.03
100
AcDbArc
 50
180.00000000001
 51
269.9999999999898
  0
LWPOLYLINE
  5
4D3
330
1F
100
AcDbEntity
  8
SPLINE_STATIC
100
AcDbPolyline
 90
        8
 70
     1
 43
0.0
 10
13.79277867796445
 20
23.94878138578499
 10
14.22477867796446
 20
23.94878138578499
 10
14.26477867796446
 20
23.98878138578499
 10
14.26477867796446
 20
24.56173138578499
 10
14.23477867796446
 20
24.59173138578499
 10
13.78277867796446
 20
24.59173138578499
 10
13.75277867796446
 20
24.56173138578499
 10
13.75277867796446
 20
23.98878138578499
  0
LWPOLYLINE
  5
4D4
330
1F
100
AcDbEntity
  8
SPLINE_DYNAMIC
100
AcDbPolyline
 90
        8
 70
     1
 43
0.0
 10
14.31598340237391
 20
23.94878138578499
 10
15.41398340237391
 20
23.94878138578499
 10
15.4539834023739
 20
23.98878138578499
 10
15.4539834023739
 20
24.53173138578499
 10
15.39398340237391
 20
24.59173138578499
 10
14.33598340237391
 20
24.59173138578499
 10
14.2759834023739
 20
24.53173138578499
 10
14.2759834023739
 20
23.98878138578499
  0
LINE
  5
4D5
330
1F
100
AcDbEntity
  8
LINE_CENTER
100
AcDbLine
 10
13.96055033150776
 20
22.93428138578499
 30
0.0
 11
14.57355033150776
 21
22.93428138578499
 31
0.0
  0
LINE
  5
4D6
330
1F
100
AcDbEntity
  8
SEPARATOR_BEARING
100
AcDbLine
 10
14.53138104856917
 20
23.46778143485698
 30
0.0
 11
14.40104476861955
 21
23.46778143485698
 31
0.0
  0
LINE
  5
4D7
330
1F
100
AcDbEntity
  8
BEARING_WAVE_GEN
100
AcDbLine
 10
14.01388103104917
 20
23.86678144762499
 30
0.0
 11
14.52388104928918
 21
23.86678144762499
 31
0.0
  0
LINE
  5
4D8
330
1F
100
AcDbEntity
  8
SEPARATOR_BEARING
100
AcDbLine
 10
14.40589290535401
 20
23.72878144320899
 30
0.0
 11
14.53138104856917
 21
23.72878144320899
 31
0.0
  0
LINE
  5
4D9
330
1F
100
AcDbEntity
  8
BEARING_WAVE_GEN
100
AcDbLine
 10
14.36603041280756
 20
23.76928144450499
 30
0.0
 11
14.54388104928917
 21
23.76928144450499
 31
0.0
  0
LWPOLYLINE
  5
4DA
330
1F
100
AcDbEntity
  8
SPLINE_FLEX
100
AcDbPolyline
 90
        8
 70
     1
 43
0.0
 10
13.82788104016917
 20
23.95478138578499
 10
14.70988104016917
 20
23.95478138578499
 10
14.76988104016918
 20
23.92014036963361
 10
14.76988104016918
 20
23.87698138578499
 42
-0.4142135623730951
 10
14.75988104016918
 20
23.86698138578498
 10
13.77788104016917
 20
23.86698138578498
 42
-0.4142135623730946
 10
13.76788104016918
 20
23.87698138578499
 10
13.76788104016918
 20
23.92014036963361
  0
LINE
  5
4DB
330
1F
100
AcDbEntity
  8
SEPARATOR_BEARING
100
AcDbLine
 10
14.45638104616917
 20
23.46778143485698
 30
0.0
 11
14.45638104616917
 21
23.72878144320899
 31
0.0
  0
CIRCLE
  5
4DC
330
1F
100
AcDbEntity
  8
BEARING_WAVE_GEN
100
AcDbCircle
 10
14.26888104016917
 20
23.60078143911299
 30
0.0
 40
0.1875000059999999
  0
LINE
  5
4DD
330
1F
100
AcDbEntity
  8
WAVE_GENERATOR
100
AcDbLine
 10
14.06055033150776
 20
22.87003138578499
 30
0.0
 11
14.47355033150777
 21
22.87003138578499
 31
0.0
  0
LINE
  5
4DE
330
1F
100
AcDbEntity
  8
WAVE_GENERATOR
100
AcDbLine
 10
14.06055033150776
 20
22.99853138578499
 30
0.0
 11
14.47355033150777
 21
22.99853138578499
 31
0.0
  0
LINE
  5
4DF
330
1F
100
AcDbEntity
  8
WAVE_GENERATOR
100
AcDbLine
 10
14.06055033150776
 20
23.33428143058499
 30
0.0
 11
14.47355033150777
 21
23.33428143058499
 31
0.0
  0
LINE
  5
4E0
330
1F
100
AcDbEntity
  8
BEARING_WAVE_GEN
100
AcDbLine
 10
14.1695897987077
 20
23.43528143381699
 30
0.0
 11
14.07638103368918
 21
23.43528143381699
 31
0.0
  0
LINE
  5
4E1
330
1F
100
AcDbEntity
  8
BEARING_WAVE_GEN
100
AcDbLine
 10
14.46138104664917
 20
23.33428143058499
 30
0.0
 11
14.07638103368918
 21
23.33428143058499
 31
0.0
1001
ACAD
1000
ASC_BOUNDS
1002
{
1070
    19
1005
0
1002
}
  0
ARC
  5
4E2
330
1F
100
AcDbEntity
  8
BEARING_WAVE_GEN
100
AcDbCircle
 10
14.07638103368918
 20
23.34428143058499
 30
0.0
 40
0.01
100
AcDbArc
 50
180.0000000000011
 51
270.0
  0
ARC
  5
4E3
330
1F
100
AcDbEntity
  8
BEARING_WAVE_GEN
100
AcDbCircle
 10
14.07638103368918
 20
23.42528143381699
 30
0.0
 40
0.01
100
AcDbArc
 50
90.0
 51
180.0000000000019
  0
LINE
  5
4E4
330
1F
100
AcDbEntity
  8
SEPARATOR_BEARING
100
AcDbLine
 10
14.09938103474517
 20
23.43528143381699
 30
0.0
 11
14.09938103474517
 21
23.52061910125246
 31
0.0
  0
LINE
  5
4E5
330
1F
100
AcDbEntity
  8
BEARING_WAVE_GEN
100
AcDbLine
 10
14.06638103368918
 20
23.42528143381699
 30
0.0
 11
14.06638103368918
 21
23.34428143058499
 31
0.0
  0
LINE
  5
4E6
330
1F
100
AcDbEntity
  8
SEPARATOR_BEARING
100
AcDbLine
 10
14.1367173117188
 20
23.46778143485698
 30
0.0
 11
14.09938103474517
 21
23.46778143485698
 31
0.0
  0
ARC
  5
4E7
330
1F
100
AcDbEntity
  8
BEARING_WAVE_GEN
100
AcDbCircle
 10
14.46138104664918
 20
23.42528143381699
 30
0.0
 40
0.01
100
AcDbArc
 50
359.9999999999987
 51
90.0
  0
ARC
  5
4E8
330
1F
100
AcDbEntity
  8
BEARING_WAVE_GEN
100
AcDbCircle
 10
14.46138104664917
 20
23.34428143058499
 30
0.0
 40
0.01
100
AcDbArc
 50
270.0
 51
0.0
  0
ARC
  5
4E9
330
1F
100
AcDbEntity
  8
BEARING_WAVE_GEN
100
AcDbCircle
 10
14.26888104016917
 20
23.60078143911299
 30
0.0
 40
0.193000006176
100
AcDbArc
 50
239.0384738796206
 51
300.9615261203791
  0
LINE
  5
4EA
330
1F
100
AcDbEntity
  8
BEARING_WAVE_GEN
100
AcDbLine
 10
14.47138104664919
 20
23.42528143381699
 30
0.0
 11
14.47138104664919
 21
23.34428143058499
 31
0.0
  0
LINE
  5
4EB
330
1F
100
AcDbEntity
  8
BEARING_WAVE_GEN
100
AcDbLine
 10
14.46138104664918
 20
23.43528143381699
 30
0.0
 11
14.36817228163065
 21
23.43528143381699
 31
0.0
  0
LINE
  5
4EC
330
1F
100
AcDbEntity
  8
LINE_HIDDEN
100
AcDbLine
 10
14.26477867796446
 20
24.13898138578499
 30
0.0
 11
13.75277867796446
 21
24.13898138578499
 31
0.0
  0
LINE
  5
4ED
330
1F
100
AcDbEntity
  8
SPLINE_STATIC
100
AcDbLine
 10
14.26477867796446
 20
24.16248138578499
 30
0.0
 11
13.75277867796446
 21
24.16248138578499
 31
0.0
  0
LINE
  5
4EE
330
1F
100
AcDbEntity
  8
SPLINE_STATIC
100
AcDbLine
 10
14.26477867796446
 20
24.43048138578499
 30
0.0
 11
13.75277867796446
 21
24.43048138578499
 31
0.0
  0
LINE
  5
4EF
330
1F
100
AcDbEntity
  8
LINE_HIDDEN
100
AcDbLine
 10
14.26477867796446
 20
24.45398138578499
 30
0.0
 11
13.75277867796446
 21
24.45398138578499
 31
0.0
  0
LINE
  5
4F0
330
1F
100
AcDbEntity
  8
LINE_CENTER
100
AcDbLine
 10
14.36477867796446
 20
24.29648138578499
 30
0.0
 11
13.65277867796446
 21
24.29648138578499
 31
0.0
  0
LWPOLYLINE
  5
4F1
330
1F
100
AcDbEntity
  8
WEAR_WASHER
100
AcDbPolyline
 90
        4
 70
     1
 43
0.0
 10
13.69077867796446
 20
23.80428138578499
 10
13.75277867796446
 20
23.80428138578499
 10
13.75277867796446
 20
24.12178138578499
 10
13.69077867796446
 20
24.12178138578499
  0
LINE
  5
4F2
330
1F
100
AcDbEntity
  8
BEARING_WAVE_GEN
100
AcDbLine
 10
13.99388103104917
 20
23.76928144450499
 30
0.0
 11
14.1717316675308
 21
23.76928144450499
 31
0.0
  0
ARC
  5
4F3
330
1F
100
AcDbEntity
  8
BEARING_WAVE_GEN
100
AcDbCircle
 10
13.99388103104917
 20
23.77928144450498
 30
0.0
 40
0.01
100
AcDbArc
 50
179.9999999999983
 51
270.0
  0
ARC
  5
4F4
330
1F
100
AcDbEntity
  8
BEARING_WAVE_GEN
100
AcDbCircle
 10
14.01388103104917
 20
23.83678144762499
 30
0.0
 40
0.03
100
AcDbArc
 50
90.0
 51
180.0
  0
LINE
  5
4F5
330
1F
100
AcDbEntity
  8
BEARING_WAVE_GEN
100
AcDbLine
 10
13.98388103104917
 20
23.77928144450498
 30
0.0
 11
13.98388103104917
 21
23.83678144762499
 31
0.0
  0
LINE
  5
4F6
330
1F
100
AcDbEntity
  8
SEPARATOR_BEARING
100
AcDbLine
 10
14.09938103474517
 20
23.72878144320899
 30
0.0
 11
14.13186917498435
 21
23.72878144320899
 31
0.0
  0
LINE
  5
4F7
330
1F
100
AcDbEntity
  8
SEPARATOR_BEARING
100
AcDbLine
 10
14.09938103474517
 20
23.68094377697349
 30
0.0
 11
14.09938103474517
 21
23.72878144320899
 31
0.0
  0
ARC
  5
4F8
330
1F
100
AcDbEntity
  8
BEARING_WAVE_GEN
100
AcDbCircle
 10
14.26888104016917
 20
23.60078143911299
 30
0.0
 40
0.194500006224
100
AcDbArc
 50
60.03422370664261
 51
119.9657762933574
  0
LINE
  5
4F9
330
1F
100
AcDbEntity
  8
SEPARATOR_BEARING
100
AcDbLine
 10
15.19858575617862
 20
23.46778143485698
 30
0.0
 11
15.19858575617862
 21
23.72878144320899
 31
0.0
  0
LINE
  5
4FA
330
1F
100
AcDbEntity
  8
SEPARATOR_BEARING
100
AcDbLine
 10
15.27358575857862
 20
23.46778143485698
 30
0.0
 11
15.27358575857862
 21
23.72878144320899
 31
0.0
  0
CIRCLE
  5
4FB
330
1F
100
AcDbEntity
  8
BEARING_WAVE_GEN
100
AcDbCircle
 10
15.46108576457862
 20
23.60078143911299
 30
0.0
 40
0.1875000059999999
  0
LINE
  5
4FC
330
1F
100
AcDbEntity
  8
SEPARATOR_BEARING
100
AcDbLine
 10
14.53138104856918
 20
23.46778143485698
 30
0.0
 11
14.53138104856917
 21
23.72878144320899
 31
0.0
  0
LINE
  5
4FD
330
1F
100
AcDbEntity
  8
LINE_CENTER
100
AcDbLine
 10
15.15641647324005
 20
22.93428138578499
 30
0.0
 11
15.76941647324004
 21
22.93428138578499
 31
0.0
  0
LINE
  5
4FE
330
1F
100
AcDbEntity
  8
WAVE_GENERATOR
100
AcDbLine
 10
15.25641647324004
 20
22.87003138578499
 30
0.0
 11
15.66941647324004
 21
22.87003138578499
 31
0.0
  0
LINE
  5
4FF
330
1F
100
AcDbEntity
  8
WAVE_GENERATOR
100
AcDbLine
 10
15.25641647324004
 20
22.99853138578499
 30
0.0
 11
15.66941647324004
 21
22.99853138578499
 31
0.0
  0
LINE
  5
500
330
1F
100
AcDbEntity
  8
BEARING_WAVE_GEN
100
AcDbLine
 10
15.26858575809862
 20
23.33428143058499
 30
0.0
 11
15.65358577105862
 21
23.33428143058499
 31
0.0
1001
ACAD
1000
ASC_BOUNDS
1002
{
1070
    19
1005
0
1002
}
  0
ARC
  5
501
330
1F
100
AcDbEntity
  8
BEARING_WAVE_GEN
100
AcDbCircle
 10
15.46108576457862
 20
23.60078143911299
 30
0.0
 40
0.193000006176
100
AcDbArc
 50
239.0384738796206
 51
300.9615261203791
  0
LINE
  5
502
330
1F
100
AcDbEntity
  8
WAVE_GENERATOR
100
AcDbLine
 10
15.66941647324004
 20
23.33428143058499
 30
0.0
 11
15.25641647324004
 21
23.33428143058499
 31
0.0
  0
LINE
  5
503
330
1F
100
AcDbEntity
  8
SEPARATOR_BEARING
100
AcDbLine
 10
15.19858575617862
 20
23.46778143485698
 30
0.0
 11
15.32892203612825
 21
23.46778143485698
 31
0.0
  0
ARC
  5
504
330
1F
100
AcDbEntity
  8
BEARING_WAVE_GEN
100
AcDbCircle
 10
15.26858575809862
 20
23.34428143058499
 30
0.0
 40
0.01
100
AcDbArc
 50
180.0
 51
269.9999999999997
  0
ARC
  5
505
330
1F
100
AcDbEntity
  8
BEARING_WAVE_GEN
100
AcDbCircle
 10
15.26858575809862
 20
23.42528143381699
 30
0.0
 40
0.01
100
AcDbArc
 50
90.0
 51
180.0000000000011
  0
LINE
  5
506
330
1F
100
AcDbEntity
  8
BEARING_WAVE_GEN
100
AcDbLine
 10
15.25858575809861
 20
23.42528143381699
 30
0.0
 11
15.25858575809863
 21
23.34428143058499
 31
0.0
  0
LINE
  5
507
330
1F
100
AcDbEntity
  8
BEARING_WAVE_GEN
100
AcDbLine
 10
15.26858575809862
 20
23.43528143381699
 30
0.0
 11
15.36179452311715
 21
23.43528143381699
 31
0.0
  0
LINE
  5
508
330
1F
100
AcDbEntity
  8
SEPARATOR_BEARING
100
AcDbLine
 10
15.59324949302899
 20
23.46778143485698
 30
0.0
 11
15.63058577000263
 21
23.46778143485698
 31
0.0
  0
LINE
  5
509
330
1F
100
AcDbEntity
  8
BEARING_WAVE_GEN
100
AcDbLine
 10
15.56037700604009
 20
23.43528143381699
 30
0.0
 11
15.65358577105863
 21
23.43528143381699
 31
0.0
  0
ARC
  5
50A
330
1F
100
AcDbEntity
  8
BEARING_WAVE_GEN
100
AcDbCircle
 10
15.65358577105863
 20
23.42528143381699
 30
0.0
 40
0.01
100
AcDbArc
 50
359.9999999999977
 51
90.0
  0
ARC
  5
50B
330
1F
100
AcDbEntity
  8
BEARING_WAVE_GEN
100
AcDbCircle
 10
15.65358577105862
 20
23.34428143058499
 30
0.0
 40
0.01
100
AcDbArc
 50
270.0
 51
359.9999999999987
  0
LINE
  5
50C
330
1F
100
AcDbEntity
  8
BEARING_WAVE_GEN
100
AcDbLine
 10
15.66358577105862
 20
23.42528143381699
 30
0.0
 11
15.66358577105861
 21
23.34428143058499
 31
0.0
  0
LINE
  5
50D
330
1F
100
AcDbEntity
  8
SEPARATOR_BEARING
100
AcDbLine
 10
15.63058577000263
 20
23.43528143381699
 30
0.0
 11
15.63058577000263
 21
23.52061910125246
 31
0.0
  0
LWPOLYLINE
  5
50E
330
1F
100
AcDbEntity
  8
SPACERS_PANCAKE
100
AcDbPolyline
 90
        4
 70
     1
 43
0.0
 10
14.7849834023739
 20
23.69928138578499
 10
14.9449834023739
 20
23.69928138578499
 10
14.9449834023739
 20
23.94528138578499
 10
14.7849834023739
 20
23.94528138578499
  0
ARC
  5
50F
330
1F
100
AcDbEntity
  8
BEARING_WAVE_GEN
100
AcDbCircle
 10
14.54388104928917
 20
23.77928144450498
 30
0.0
 40
0.01
100
AcDbArc
 50
270.0
 51
359.9999999999983
  0
ARC
  5
510
330
1F
100
AcDbEntity
  8
BEARING_WAVE_GEN
100
AcDbCircle
 10
14.52388104928918
 20
23.83678144762499
 30
0.0
 40
0.03
100
AcDbArc
 50
0.0
 51
90.0
  0
LINE
  5
511
330
1F
100
AcDbEntity
  8
BEARING_WAVE_GEN
100
AcDbLine
 10
14.55388104928917
 20
23.77928144450498
 30
0.0
 11
14.55388104928918
 21
23.83678144762499
 31
0.0
  0
LINE
  5
512
330
1F
100
AcDbEntity
  8
BEARING_WAVE_GEN
100
AcDbLine
 10
15.71608577369862
 20
23.86678144762499
 30
0.0
 11
15.20608575545862
 21
23.86678144762499
 31
0.0
  0
ARC
  5
513
330
1F
100
AcDbEntity
  8
BEARING_WAVE_GEN
100
AcDbCircle
 10
15.46108576457862
 20
23.60078143911299
 30
0.0
 40
0.194500006224
100
AcDbArc
 50
60.03422370664261
 51
119.9657762933574
  0
ARC
  5
514
330
1F
100
AcDbEntity
  8
BEARING_WAVE_GEN
100
AcDbCircle
 10
15.20608575545862
 20
23.83678144762499
 30
0.0
 40
0.03
100
AcDbArc
 50
90.0
 51
180.0
  0
ARC
  5
515
330
1F
100
AcDbEntity
  8
BEARING_WAVE_GEN
100
AcDbCircle
 10
15.18608575545862
 20
23.77928144450498
 30
0.0
 40
0.01
100
AcDbArc
 50
180.0000000000014
 51
270.0
  0
LINE
  5
516
330
1F
100
AcDbEntity
  8
SEPARATOR_BEARING
100
AcDbLine
 10
15.3240738993938
 20
23.72878144320899
 30
0.0
 11
15.19858575617862
 21
23.72878144320899
 31
0.0
  0
LINE
  5
517
330
1F
100
AcDbEntity
  8
BEARING_WAVE_GEN
100
AcDbLine
 10
15.36393639194024
 20
23.76928144450499
 30
0.0
 11
15.18608575545862
 21
23.76928144450499
 31
0.0
  0
LINE
  5
518
330
1F
100
AcDbEntity
  8
BEARING_WAVE_GEN
100
AcDbLine
 10
15.17608575545863
 20
23.77928144450498
 30
0.0
 11
15.17608575545863
 21
23.83678144762499
 31
0.0
  0
ARC
  5
519
330
1F
100
AcDbEntity
  8
BEARING_WAVE_GEN
100
AcDbCircle
 10
15.71608577369862
 20
23.83678144762499
 30
0.0
 40
0.03
100
AcDbArc
 50
0.0
 51
90.0
  0
LINE
  5
51A
330
1F
100
AcDbEntity
  8
SEPARATOR_BEARING
100
AcDbLine
 10
15.63058577000263
 20
23.68094377697349
 30
0.0
 11
15.63058577000263
 21
23.72878144320899
 31
0.0
  0
LINE
  5
51B
330
1F
100
AcDbEntity
  8
SEPARATOR_BEARING
100
AcDbLine
 10
15.63058577000263
 20
23.72878144320899
 30
0.0
 11
15.59809762976345
 21
23.72878144320899
 31
0.0
  0
ARC
  5
51C
330
1F
100
AcDbEntity
  8
BEARING_WAVE_GEN
100
AcDbCircle
 10
15.73608577369862
 20
23.77928144450498
 30
0.0
 40
0.01
100
AcDbArc
 50
270.0
 51
0.0000000000015267
  0
LINE
  5
51D
330
1F
100
AcDbEntity
  8
BEARING_WAVE_GEN
100
AcDbLine
 10
15.73608577369862
 20
23.76928144450499
 30
0.0
 11
15.558235137217
 21
23.76928144450499
 31
0.0
  0
LINE
  5
51E
330
1F
100
AcDbEntity
  8
BEARING_WAVE_GEN
100
AcDbLine
 10
15.74608577369862
 20
23.77928144450498
 30
0.0
 11
15.74608577369862
 21
23.83678144762499
 31
0.0
  0
CIRCLE
  5
51F
330
1F
100
AcDbEntity
  8
SPLINE_STATIC
100
AcDbCircle
 10
20.39756603052529
 20
21.93428138578499
 30
0.0
 40
2.657449999999998
  0
CIRCLE
  5
520
330
1F
100
AcDbEntity
  8
LINE_CENTER
100
AcDbCircle
 10
20.39756603052529
 20
21.93428138578499
 30
0.0
 40
2.3622
  0
LINE
  5
521
330
1F
100
AcDbEntity
  8
WEAR_WASHER
100
AcDbLine
 10
16.03918812678335
 20
23.80428138578499
 30
0.0
 11
16.03918812678335
 21
20.06428138578498
 31
0.0
  0
LINE
  5
522
330
1F
100
AcDbEntity
  8
WEAR_WASHER
100
AcDbLine
 10
15.97718812678335
 20
23.80428138578499
 30
0.0
 11
15.97718812678335
 21
20.06428138578498
 31
0.0
  0
LWPOLYLINE
  5
523
330
1F
100
AcDbEntity
  8
WEAR_WASHER
100
AcDbPolyline
 90
        4
 70
     1
 43
0.0
 10
16.03918812678335
 20
20.06428138578498
 10
15.97718812678335
 20
20.06428138578498
 10
15.97718812678335
 20
19.74678138578499
 10
16.03918812678335
 20
19.74678138578499
  0
LINE
  5
524
330
1F
100
AcDbEntity
  8
WAVE_GENERATOR
100
AcDbLine
 10
15.90041647324005
 20
21.30428138578499
 30
0.0
 11
15.90041647324005
 21
21.93428138578499
 31
0.0
  0
LINE
  5
525
330
1F
100
AcDbEntity
  8
WAVE_GENERATOR
100
AcDbLine
 10
15.90041647324005
 20
22.56428138578498
 30
0.0
 11
15.90041647324005
 21
21.93428138578499
 31
0.0
  0
LWPOLYLINE
  5
526
330
1F
100
AcDbEntity
  8
WEAR_WASHER
100
AcDbPolyline
 90
        4
 70
     1
 43
0.0
 10
16.03918812678335
 20
23.80428138578499
 10
15.97718812678335
 20
23.80428138578499
 10
15.97718812678335
 20
24.12178138578499
 10
16.03918812678335
 20
24.12178138578499
  0
CIRCLE
  5
527
330
1F
100
AcDbEntity
  8
LINE_CENTER
100
AcDbCircle
 10
20.39756603052529
 20
21.93428138578499
 30
0.0
 40
0.9449999999999999
  0
ARC
  5
528
330
1F
100
AcDbEntity
  8
BEARING_WAVE_GEN
100
AcDbCircle
 10
21.87722679434199
 20
22.7009797956983
 30
0.0
 40
0.1875000059999999
100
AcDbArc
 50
54.78784309322366
 51
180.9117476538811
  0
ARC
  5
529
330
1F
100
AcDbEntity
  8
BEARING_WAVE_GEN
100
AcDbCircle
 10
18.91790526670861
 20
22.7009797956983
 30
0.0
 40
0.1875000059999999
100
AcDbArc
 50
359.0882523461186
 51
125.2121569067762
  0
CIRCLE
  5
52A
330
1F
100
AcDbEntity
  8
WEAR_WASHER
100
AcDbCircle
 10
20.39756603052529
 20
21.93428138578499
 30
0.0
 40
1.87
  0
CIRCLE
  5
52B
330
1F
100
AcDbEntity
  8
BEARING_WAVE_GEN
100
AcDbCircle
 10
20.39756603052529
 20
21.93428138578499
 30
0.0
 40
1.501000048031999
  0
CIRCLE
  5
52C
330
1F
100
AcDbEntity
  8
BEARING_WAVE_GEN
100
AcDbCircle
 10
20.39756603052529
 20
21.93428138578499
 30
0.0
 40
1.400000044799998
  0
CIRCLE
  5
52D
330
1F
100
AcDbEntity
  8
BEARING_WAVE_GEN
100
AcDbCircle
 10
20.39756603052529
 20
21.93428138578499
 30
0.0
 40
1.83500005872
  0
CIRCLE
  5
52E
330
1F
100
AcDbEntity
  8
WEAR_WASHER
100
AcDbCircle
 10
20.39756603052529
 20
21.93428138578499
 30
0.0
 40
2.1875
  0
ARC
  5
52F
330
1F
100
AcDbEntity
  8
WAVE_GENERATOR
100
AcDbCircle
 10
20.39756603052529
 20
21.93428138578499
 30
0.0
 40
0.4921
100
AcDbArc
 50
101.5345824015394
 51
78.46541759846046
  0
ARC
  5
530
330
1F
100
AcDbEntity
  8
SEPARATOR_BEARING
100
AcDbCircle
 10
20.39756603052529
 20
21.93428138578499
 30
0.0
 40
1.533500049071998
100
AcDbArc
 50
252.4228002307756
 51
256.2728519431292
  0
ARC
  5
531
330
1F
100
AcDbEntity
  8
SEPARATOR_BEARING
100
AcDbCircle
 10
20.16975921929746
 20
20.27686374502885
 30
0.0
 40
0.208000006656
100
AcDbArc
 50
130.1276274222743
 51
202.328432352652
  0
ARC
  5
532
330
1F
100
AcDbEntity
  8
SEPARATOR_BEARING
100
AcDbCircle
 10
20.39756603052529
 20
21.93428138578499
 30
0.0
 40
1.794500057423999
100
AcDbArc
 50
252.4290870918023
 51
256.2665650821035
  0
ARC
  5
533
330
1F
100
AcDbEntity
  8
SEPARATOR_BEARING
100
AcDbCircle
 10
19.73104098588374
 20
20.39978682926253
 30
0.0
 40
0.208000006656
100
AcDbArc
 50
306.367219821262
 51
18.56802475161955
  0
ARC
  5
534
330
1F
100
AcDbEntity
  8
BEARING_WAVE_GEN
100
AcDbCircle
 10
19.73363059305059
 20
20.4057487029131
 30
0.0
 40
0.1875000059999999
100
AcDbArc
 50
273.9182778758295
 51
40.04218243648909
  0
CIRCLE
  5
535
330
1F
100
AcDbEntity
  8
WAVE_GENERATOR
100
AcDbCircle
 10
20.39756603052529
 20
21.93428138578499
 30
0.0
 40
0.63
  0
ARC
  5
536
330
1F
100
AcDbEntity
  8
BEARING_WAVE_GEN
100
AcDbCircle
 10
19.03608566025603
 20
20.97324359822736
 30
0.0
 40
0.1875000059999999
100
AcDbArc
 50
61.69694799829802
 51
187.8208525589521
  0
CIRCLE
  5
537
330
1F
100
AcDbEntity
  8
LINE_HIDDEN
100
AcDbCircle
 10
18.3518408217057
 20
20.75318138578499
 30
0.0
 40
0.1575
  0
CIRCLE
  5
538
330
1F
100
AcDbEntity
  8
SPLINE_STATIC
100
AcDbCircle
 10
18.3518408217057
 20
20.75318138578499
 30
0.0
 40
0.134
  0
ARC
  5
539
330
1F
100
AcDbEntity
  8
BEARING_WAVE_GEN
100
AcDbCircle
 10
19.34585793765128
 20
20.64155847845895
 30
0.0
 40
0.1875000059999999
100
AcDbArc
 50
77.34912191133067
 51
203.4730264719974
  0
ARC
  5
53A
330
1F
100
AcDbEntity
  8
SEPARATOR_BEARING
100
AcDbCircle
 10
19.34175586588191
 20
20.63651635490802
 30
0.0
 40
0.208000006656
100
AcDbArc
 50
98.82327959619059
 51
171.0240845265625
  0
ARC
  5
53B
330
1F
100
AcDbEntity
  8
SEPARATOR_BEARING
100
AcDbCircle
 10
20.39756603052532
 20
21.93428138578499
 30
0.0
 40
1.533500049071998
100
AcDbArc
 50
221.1184524046946
 51
224.9685041170444
  0
ARC
  5
53C
330
1F
100
AcDbEntity
  8
BEARING_WAVE_GEN
100
AcDbCircle
 10
19.03608566025603
 20
20.97324359822736
 30
0.0
 40
0.1875000059999999
100
AcDbArc
 50
242.613930049743
 51
8.737834610404927
  0
ARC
  5
53D
330
1F
100
AcDbEntity
  8
SEPARATOR_BEARING
100
AcDbCircle
 10
19.23853449206798
 20
20.92253621315105
 30
0.0
 40
0.00500000016
100
AcDbArc
 50
41.11845240468085
 51
167.2636769259811
  0
ARC
  5
53E
330
1F
100
AcDbEntity
  8
SEPARATOR_BEARING
100
AcDbCircle
 10
19.13136425475737
 20
20.66974846095072
 30
0.0
 40
0.00500000016
100
AcDbArc
 50
224.9622172560367
 51
351.0240845265753
  0
ARC
  5
53F
330
1F
100
AcDbEntity
  8
SEPARATOR_BEARING
100
AcDbCircle
 10
19.04957235881995
 20
20.75732619717747
 30
0.0
 40
0.00500000016
100
AcDbArc
 50
95.06287199517577
 51
221.1247392657349
  0
ARC
  5
540
330
1F
100
AcDbEntity
  8
SEPARATOR_BEARING
100
AcDbCircle
 10
20.39756603052532
 20
21.93428138578499
 30
0.0
 40
1.794500057423999
100
AcDbArc
 50
221.1247392657174
 51
224.9622172560184
  0
ARC
  5
541
330
1F
100
AcDbEntity
  8
SEPARATOR_BEARING
100
AcDbCircle
 10
19.03077535578153
 20
20.96949517601366
 30
0.0
 40
0.208000006656
100
AcDbArc
 50
275.0628719951758
 51
347.2636769255334
  0
ARC
  5
542
330
1F
100
AcDbEntity
  8
SEPARATOR_BEARING
100
AcDbCircle
 10
20.39756603052529
 20
21.93428138578499
 30
0.0
 40
1.533500049071998
100
AcDbArc
 50
236.7706263177358
 51
240.6206780300925
  0
ARC
  5
543
330
1F
100
AcDbEntity
  8
BEARING_WAVE_GEN
100
AcDbCircle
 10
19.34585793765128
 20
20.64155847845895
 30
0.0
 40
0.1875000059999999
100
AcDbArc
 50
258.2661039627823
 51
24.39000852344721
  0
ARC
  5
544
330
1F
100
AcDbEntity
  8
BEARING_WAVE_GEN
100
AcDbCircle
 10
19.73363059305059
 20
20.4057487029131
 30
0.0
 40
0.1875000059999999
100
AcDbArc
 50
93.00129582437993
 51
219.1252003850396
  0
ARC
  5
545
330
1F
100
AcDbEntity
  8
SEPARATOR_BEARING
100
AcDbCircle
 10
19.34175586588187
 20
20.63651635490802
 30
0.0
 40
0.208000006656
100
AcDbArc
 50
290.7150459082263
 51
2.915850838576864
  0
ARC
  5
546
330
1F
100
AcDbEntity
  8
SEPARATOR_BEARING
100
AcDbCircle
 10
19.73104098588372
 20
20.39978682926253
 30
0.0
 40
0.208000006656
100
AcDbArc
 50
114.475453509235
 51
186.6762584396076
  0
ARC
  5
547
330
1F
100
AcDbEntity
  8
SEPARATOR_BEARING
100
AcDbCircle
 10
19.51948535150988
 20
20.3750236213061
 30
0.0
 40
0.00500000016
100
AcDbArc
 50
240.6143911690829
 51
6.676258439618316
  0
ARC
  5
548
330
1F
100
AcDbEntity
  8
SEPARATOR_BEARING
100
AcDbCircle
 10
19.41709833048758
 20
20.43728654807491
 30
0.0
 40
0.00500000016
100
AcDbArc
 50
110.7150459082125
 51
236.7769131787749
  0
ARC
  5
549
330
1F
100
AcDbEntity
  8
SEPARATOR_BEARING
100
AcDbCircle
 10
20.39756603052529
 20
21.93428138578499
 30
0.0
 40
1.794500057423999
100
AcDbArc
 50
236.7769131787609
 51
240.6143911690667
  0
ARC
  5
54A
330
1F
100
AcDbEntity
  8
SEPARATOR_BEARING
100
AcDbCircle
 10
19.64279436702679
 20
20.5936464103101
 30
0.0
 40
0.00500000016
100
AcDbArc
 50
294.4754535092083
 51
60.62067803009142
  0
ARC
  5
54B
330
1F
100
AcDbEntity
  8
SEPARATOR_BEARING
100
AcDbCircle
 10
19.85734110612577
 20
20.22827215778961
 30
0.0
 40
0.00500000016
100
AcDbArc
 50
126.3672198212608
 51
252.4290870918155
  0
ARC
  5
54C
330
1F
100
AcDbEntity
  8
SEPARATOR_BEARING
100
AcDbCircle
 10
19.93295354681239
 20
20.467612492863
 30
0.0
 40
0.00500000016
100
AcDbArc
 50
72.42280023077445
 51
198.5680247520667
  0
ARC
  5
54D
330
1F
100
AcDbEntity
  8
SEPARATOR_BEARING
100
AcDbCircle
 10
19.30908436005905
 20
20.84699574964984
 30
0.0
 40
0.00500000016
100
AcDbArc
 50
278.823279596164
 51
44.96850411704185
  0
ARC
  5
54E
330
1F
100
AcDbEntity
  8
SEPARATOR_BEARING
100
AcDbCircle
 10
19.55448010637376
 20
20.64735150192013
 30
0.0
 40
0.00500000016
100
AcDbArc
 50
56.77062631773235
 51
182.9158508390245
  0
ARC
  5
54F
330
1F
100
AcDbEntity
  8
SEPARATOR_BEARING
100
AcDbCircle
 10
18.72846612625833
 20
21.82011182457246
 30
0.0
 40
0.208000006656
100
AcDbArc
 50
51.8667578570524
 51
124.0675627874295
  0
ARC
  5
550
330
1F
100
AcDbEntity
  8
BEARING_WAVE_GEN
100
AcDbCircle
 10
18.7659223461901
 20
22.27334084238711
 30
0.0
 40
0.1875000059999999
100
AcDbArc
 50
195.6574083106117
 51
321.7813128712696
  0
ARC
  5
551
330
1F
100
AcDbEntity
  8
BEARING_WAVE_GEN
100
AcDbCircle
 10
18.73495097346559
 20
21.82055540027354
 30
0.0
 40
0.1875000059999999
100
AcDbArc
 50
30.39260017220185
 51
156.516504732865
  0
ARC
  5
552
330
1F
100
AcDbEntity
  8
SEPARATOR_BEARING
100
AcDbCircle
 10
18.75955829941653
 20
22.27466330651427
 30
0.0
 40
0.208000006656
100
AcDbArc
 50
228.1063502560495
 51
300.307155186399
  0
ARC
  5
553
330
1F
100
AcDbEntity
  8
BEARING_WAVE_GEN
100
AcDbCircle
 10
18.8272881535654
 20
21.37620449424357
 30
0.0
 40
0.1875000059999999
100
AcDbArc
 50
46.0447740852484
 51
172.1686786459091
  0
ARC
  5
554
330
1F
100
AcDbEntity
  8
BEARING_WAVE_GEN
100
AcDbCircle
 10
18.73495097346559
 20
21.82055540027354
 30
0.0
 40
0.1875000059999999
100
AcDbArc
 50
211.3095822236554
 51
337.4334867843189
  0
ARC
  5
555
330
1F
100
AcDbEntity
  8
BEARING_WAVE_GEN
100
AcDbCircle
 10
18.7659223461901
 20
22.27334084238711
 30
0.0
 40
0.1875000059999999
100
AcDbArc
 50
14.74042625916261
 51
140.8643308198188
  0
ARC
  5
556
330
1F
100
AcDbEntity
  8
SEPARATOR_BEARING
100
AcDbCircle
 10
18.61732753268584
 20
22.11610917727502
 30
0.0
 40
0.00500000016
100
AcDbArc
 50
48.10635025603775
 51
174.1682175266024
  0
ARC
  5
557
330
1F
100
AcDbEntity
  8
SEPARATOR_BEARING
100
AcDbCircle
 10
18.60914988904315
 20
21.99655625899992
 30
0.0
 40
0.00500000016
100
AcDbArc
 50
178.00569551691
 51
304.0675627874461
  0
ARC
  5
558
330
1F
100
AcDbEntity
  8
SEPARATOR_BEARING
100
AcDbCircle
 10
20.39756603052529
 20
21.93428138578499
 30
0.0
 40
1.794500057423999
100
AcDbArc
 50
174.1682175265894
 51
178.0056955168893
  0
CIRCLE
  5
559
330
1F
100
AcDbEntity
  8
WAVE_GENERATOR
100
AcDbCircle
 10
19.45256603052529
 20
21.93428138578499
 30
0.0
 40
0.13
  0
CIRCLE
  5
55A
330
1F
100
AcDbEntity
  8
LINE_HIDDEN
100
AcDbCircle
 10
19.45256603052529
 20
21.93428138578499
 30
0.0
 40
0.158
  0
ARC
  5
55B
330
1F
100
AcDbEntity
  8
BEARING_WAVE_GEN
100
AcDbCircle
 10
18.8272881535654
 20
21.37620449424357
 30
0.0
 40
0.1875000059999999
100
AcDbArc
 50
226.9617561367039
 51
353.0856606973601
  0
ARC
  5
55C
330
1F
100
AcDbEntity
  8
SEPARATOR_BEARING
100
AcDbCircle
 10
19.03077535578153
 20
20.96949517601366
 30
0.0
 40
0.208000006656
100
AcDbArc
 50
83.1711056831404
 51
155.3719106135189
  0
ARC
  5
55D
330
1F
100
AcDbEntity
  8
SEPARATOR_BEARING
100
AcDbCircle
 10
18.82116345737563
 20
21.37402777669481
 30
0.0
 40
0.208000006656
100
AcDbArc
 50
259.4106980821371
 51
331.6115030124913
  0
ARC
  5
55E
330
1F
100
AcDbEntity
  8
SEPARATOR_BEARING
100
AcDbCircle
 10
18.78202091112196
 20
21.16465522840733
 30
0.0
 40
0.00500000016
100
AcDbArc
 50
79.41069808212394
 51
205.472565352692
  0
ARC
  5
55F
330
1F
100
AcDbEntity
  8
SEPARATOR_BEARING
100
AcDbCircle
 10
18.83715155122581
 20
21.05825792277708
 30
0.0
 40
0.00500000016
100
AcDbArc
 50
209.3100433429996
 51
335.3719106135355
  0
ARC
  5
560
330
1F
100
AcDbEntity
  8
SEPARATOR_BEARING
100
AcDbCircle
 10
20.39756603052529
 20
21.93428138578499
 30
0.0
 40
1.794500057423999
100
AcDbArc
 50
205.4725653526753
 51
209.3100433429783
  0
ARC
  5
561
330
1F
100
AcDbEntity
  8
SEPARATOR_BEARING
100
AcDbCircle
 10
19.00854894475306
 20
21.27275743541004
 30
0.0
 40
0.00500000016
100
AcDbArc
 50
25.46627849164179
 51
151.6115030129353
  0
ARC
  5
562
330
1F
100
AcDbEntity
  8
SEPARATOR_BEARING
100
AcDbCircle
 10
20.39756603052529
 20
21.93428138578499
 30
0.0
 40
1.533500049071998
100
AcDbArc
 50
205.4662784916474
 51
209.316330204
  0
ARC
  5
563
330
1F
100
AcDbEntity
  8
SEPARATOR_BEARING
100
AcDbCircle
 10
19.05610205911744
 20
21.18098409062091
 30
0.0
 40
0.00500000016
100
AcDbArc
 50
263.1711056831274
 51
29.31633020399719
  0
ARC
  5
564
330
1F
100
AcDbEntity
  8
SEPARATOR_BEARING
100
AcDbCircle
 10
18.88158044035955
 20
21.67204086279761
 30
0.0
 40
0.00500000016
100
AcDbArc
 50
9.814104578599323
 51
135.9593290998975
  0
ARC
  5
565
330
1F
100
AcDbEntity
  8
SEPARATOR_BEARING
100
AcDbCircle
 10
20.39756603052531
 20
21.93428138578499
 30
0.0
 40
1.533500049071998
100
AcDbArc
 50
189.8141045786044
 51
193.6641562909603
  0
ARC
  5
566
330
1F
100
AcDbEntity
  8
SEPARATOR_BEARING
100
AcDbCircle
 10
18.90261000414584
 20
21.57084104586846
 30
0.0
 40
0.00500000016
100
AcDbArc
 50
247.5189317700835
 51
13.6641562909551
  0
ARC
  5
567
330
1F
100
AcDbEntity
  8
SEPARATOR_BEARING
100
AcDbCircle
 10
18.65866765120269
 20
21.51173803731404
 30
0.0
 40
0.00500000016
100
AcDbArc
 50
193.657869429952
 51
319.7197367004857
  0
ARC
  5
568
330
1F
100
AcDbEntity
  8
SEPARATOR_BEARING
100
AcDbCircle
 10
18.63428705430299
 20
21.62906391092449
 30
0.0
 40
0.00500000016
100
AcDbArc
 50
63.75852416908262
 51
189.8203914396465
  0
ARC
  5
569
330
1F
100
AcDbEntity
  8
SEPARATOR_BEARING
100
AcDbCircle
 10
20.39756603052531
 20
21.93428138578499
 30
0.0
 40
1.794500057423999
100
AcDbArc
 50
189.820391439633
 51
193.6578694299335
  0
ARC
  5
56A
330
1F
100
AcDbEntity
  8
SEPARATOR_BEARING
100
AcDbCircle
 10
18.82116345737563
 20
21.37402777669481
 30
0.0
 40
0.208000006656
100
AcDbArc
 50
67.51893177009768
 51
139.7197367004785
  0
ARC
  5
56B
330
1F
100
AcDbEntity
  8
SEPARATOR_BEARING
100
AcDbCircle
 10
18.72846612625833
 20
21.82011182457246
 30
0.0
 40
0.208000006656
100
AcDbArc
 50
243.7585241690952
 51
315.959329099448
  0
CIRCLE
  5
56C
330
1F
100
AcDbEntity
  8
WAVE_GENERATOR
100
AcDbCircle
 10
19.53154062674085
 20
21.43428138578499
 30
0.0
 40
0.06425
  0
ARC
  5
56D
330
1F
100
AcDbEntity
  8
SEPARATOR_BEARING
100
AcDbCircle
 10
18.86704565201603
 20
22.09077347010463
 30
0.0
 40
0.00500000016
100
AcDbArc
 50
354.1619306655545
 51
120.3071551868498
  0
ARC
  5
56E
330
1F
100
AcDbEntity
  8
SEPARATOR_BEARING
100
AcDbCircle
 10
20.39756603052529
 20
21.93428138578499
 30
0.0
 40
1.533500049071998
100
AcDbArc
 50
174.1619306655621
 51
178.0119823779143
  0
ARC
  5
56F
330
1F
100
AcDbEntity
  8
SEPARATOR_BEARING
100
AcDbCircle
 10
18.85999199868207
 20
21.98765270849872
 30
0.0
 40
0.00500000016
100
AcDbArc
 50
231.8667578570358
 51
358.0119823779117
  0
ARC
  5
570
330
1F
100
AcDbEntity
  8
SEPARATOR_BEARING
100
AcDbCircle
 10
18.9121340126043
 20
22.70397021853925
 30
0.0
 40
0.208000006656
100
AcDbArc
 50
212.454176343007
 51
284.6549812733613
  0
ARC
  5
571
330
1F
100
AcDbEntity
  8
BEARING_WAVE_GEN
100
AcDbCircle
 10
18.91790526670861
 20
22.7009797956983
 30
0.0
 40
0.1875000059999999
100
AcDbArc
 50
180.0052343975684
 51
306.1291389582251
  0
ARC
  5
572
330
1F
100
AcDbEntity
  8
SEPARATOR_BEARING
100
AcDbCircle
 10
20.39756603052529
 20
21.93428138578499
 30
0.0
 40
1.533500049071998
100
AcDbArc
 50
158.5097567525185
 51
162.3598084648743
  0
ARC
  5
573
330
1F
100
AcDbEntity
  8
SEPARATOR_BEARING
100
AcDbCircle
 10
20.39756603052529
 20
21.93428138578499
 30
0.0
 40
1.794500057423999
100
AcDbArc
 50
158.5160436135427
 51
162.3535216038473
  0
ARC
  5
574
330
1F
100
AcDbEntity
  8
SEPARATOR_BEARING
100
AcDbCircle
 10
18.69227077063789
 20
22.47675583822803
 30
0.0
 40
0.00500000016
100
AcDbArc
 50
162.3535216038661
 51
288.4153888743998
  0
ARC
  5
575
330
1F
100
AcDbEntity
  8
SEPARATOR_BEARING
100
AcDbCircle
 10
18.73240015640421
 20
22.58966910813753
 30
0.0
 40
0.00500000016
100
AcDbArc
 50
32.45417634299499
 51
158.516043613562
  0
ARC
  5
576
330
1F
100
AcDbEntity
  8
SEPARATOR_BEARING
100
AcDbCircle
 10
18.93140882522694
 20
22.40050606428086
 30
0.0
 40
0.00500000016
100
AcDbArc
 50
216.2145839439955
 51
342.3598084648713
  0
ARC
  5
577
330
1F
100
AcDbEntity
  8
SEPARATOR_BEARING
100
AcDbCircle
 10
18.75955829941653
 20
22.27466330651427
 30
0.0
 40
0.208000006656
100
AcDbArc
 50
36.21458394401496
 51
108.4153888743874
  0
ARC
  5
578
330
1F
100
AcDbEntity
  8
SEPARATOR_BEARING
100
AcDbCircle
 10
18.9660225584817
 20
22.49789977542128
 30
0.0
 40
0.00500000016
100
AcDbArc
 50
338.5097567525102
 51
104.6549812738045
  0
ARC
  5
579
330
1F
100
AcDbEntity
  8
BEARING_WAVE_GEN
100
AcDbCircle
 10
21.75904640079456
 20
20.97324359822736
 30
0.0
 40
0.1875000059999999
100
AcDbArc
 50
352.1791474410476
 51
118.3030520017018
  0
ARC
  5
57A
330
1F
100
AcDbEntity
  8
SEPARATOR_BEARING
100
AcDbCircle
 10
21.27564670954072
 20
20.37502362130612
 30
0.0
 40
0.00500000016
100
AcDbArc
 50
173.3237415603893
 51
299.3856088309481
  0
ARC
  5
57B
330
1F
100
AcDbEntity
  8
BEARING_WAVE_GEN
100
AcDbCircle
 10
21.44927412339934
 20
20.64155847845896
 30
0.0
 40
0.1875000059999999
100
AcDbArc
 50
155.6099914765526
 51
281.7338960372176
  0
ARC
  5
57C
330
1F
100
AcDbEntity
  8
BEARING_WAVE_GEN
100
AcDbCircle
 10
21.06150146799998
 20
20.4057487029131
 30
0.0
 40
0.1875000059999999
100
AcDbArc
 50
320.8747996149601
 51
86.99870417562008
  0
ARC
  5
57D
330
1F
100
AcDbEntity
  8
SEPARATOR_BEARING
100
AcDbCircle
 10
21.45337619516872
 20
20.63651635490803
 30
0.0
 40
0.208000006656
100
AcDbArc
 50
177.0841491614024
 51
249.2849540917735
  0
ARC
  5
57E
330
1F
100
AcDbEntity
  8
SEPARATOR_BEARING
100
AcDbCircle
 10
21.06409107516685
 20
20.39978682926256
 30
0.0
 40
0.208000006656
100
AcDbArc
 50
353.3237415603945
 51
65.52454649074981
  0
ARC
  5
57F
330
1F
100
AcDbEntity
  8
SEPARATOR_BEARING
100
AcDbCircle
 10
20.39756603052529
 20
21.93428138578499
 30
0.0
 40
1.794500057423999
100
AcDbArc
 50
283.7334349178965
 51
287.5709129081976
  0
ARC
  5
580
330
1F
100
AcDbEntity
  8
SEPARATOR_BEARING
100
AcDbCircle
 10
20.82240238577741
 20
20.19594179692326
 30
0.0
 40
0.00500000016
100
AcDbArc
 50
157.6715676473421
 51
283.7334349179101
  0
ARC
  5
581
330
1F
100
AcDbEntity
  8
SEPARATOR_BEARING
100
AcDbCircle
 10
20.62537284175314
 20
20.27686374502883
 30
0.0
 40
0.208000006656
100
AcDbArc
 50
145.7798013353169
 51
217.980606265695
  0
ARC
  5
582
330
1F
100
AcDbEntity
  8
SEPARATOR_BEARING
100
AcDbCircle
 10
20.16975921929746
 20
20.27686374502883
 30
0.0
 40
0.208000006656
100
AcDbArc
 50
322.0193937343046
 51
34.22019866466162
  0
ARC
  5
583
330
1F
100
AcDbEntity
  8
BEARING_WAVE_GEN
100
AcDbCircle
 10
20.17064430254491
 20
20.28330320388414
 30
0.0
 40
0.1875000059999999
100
AcDbArc
 50
289.570451788877
 51
55.69435634953027
  0
ARC
  5
584
330
1F
100
AcDbEntity
  8
BEARING_WAVE_GEN
100
AcDbCircle
 10
20.6244877585057
 20
20.28330320388414
 30
0.0
 40
0.1875000059999999
100
AcDbArc
 50
124.3056436504694
 51
250.4295482111229
  0
ARC
  5
585
330
1F
100
AcDbEntity
  8
BEARING_WAVE_GEN
100
AcDbCircle
 10
20.6244877585057
 20
20.28330320388414
 30
0.0
 40
0.1875000059999999
100
AcDbArc
 50
305.2226257019174
 51
71.34653026257949
  0
ARC
  5
586
330
1F
100
AcDbEntity
  8
BEARING_WAVE_GEN
100
AcDbCircle
 10
21.06150146799998
 20
20.4057487029131
 30
0.0
 40
0.1875000059999999
100
AcDbArc
 50
139.9578175635108
 51
266.08172212417
  0
ARC
  5
587
330
1F
100
AcDbEntity
  8
SEPARATOR_BEARING
100
AcDbCircle
 10
19.97272967527317
 20
20.19594179692326
 30
0.0
 40
0.00500000016
100
AcDbArc
 50
256.2665650821298
 51
22.32843235266364
  0
ARC
  5
588
330
1F
100
AcDbEntity
  8
BEARING_WAVE_GEN
100
AcDbCircle
 10
20.17064430254491
 20
20.28330320388414
 30
0.0
 40
0.1875000059999999
100
AcDbArc
 50
108.6534697374204
 51
234.777374298081
  0
CIRCLE
  5
589
330
1F
100
AcDbEntity
  8
LINE_HIDDEN
100
AcDbCircle
 10
20.39756603052529
 20
19.57208138578499
 30
0.0
 40
0.1575
  0
CIRCLE
  5
58A
330
1F
100
AcDbEntity
  8
SPLINE_STATIC
100
AcDbCircle
 10
20.39756603052529
 20
19.57208138578499
 30
0.0
 40
0.134
  0
ARC
  5
58B
330
1F
100
AcDbEntity
  8
SEPARATOR_BEARING
100
AcDbCircle
 10
20.39756603052532
 20
21.93428138578499
 30
0.0
 40
1.794500057423999
100
AcDbArc
 50
268.0812610048564
 51
271.9187389951433
  0
ARC
  5
58C
330
1F
100
AcDbEntity
  8
SEPARATOR_BEARING
100
AcDbCircle
 10
20.33764989304207
 20
20.14578466747182
 30
0.0
 40
0.00500000016
100
AcDbArc
 50
142.0193937343007
 51
268.0812610048693
  0
ARC
  5
58D
330
1F
100
AcDbEntity
  8
SEPARATOR_BEARING
100
AcDbCircle
 10
20.45748216800853
 20
20.14578466747181
 30
0.0
 40
0.00500000016
100
AcDbArc
 50
271.9187389951694
 51
37.98060626570549
  0
ARC
  5
58E
330
1F
100
AcDbEntity
  8
SEPARATOR_BEARING
100
AcDbCircle
 10
20.03248233542564
 20
20.4397258341044
 30
0.0
 40
0.00500000016
100
AcDbArc
 50
310.127627422256
 51
76.27285194312925
  0
ARC
  5
58F
330
1F
100
AcDbEntity
  8
SEPARATOR_BEARING
100
AcDbCircle
 10
20.44924689134326
 20
20.39664960603015
 30
0.0
 40
0.00500000016
100
AcDbArc
 50
325.7798013353003
 51
91.92502585617614
  0
ARC
  5
590
330
1F
100
AcDbEntity
  8
SEPARATOR_BEARING
100
AcDbCircle
 10
20.34588516970736
 20
20.39664960603015
 30
0.0
 40
0.00500000016
100
AcDbArc
 50
88.07497414381087
 51
214.2201986651147
  0
ARC
  5
591
330
1F
100
AcDbEntity
  8
SEPARATOR_BEARING
100
AcDbCircle
 10
20.39756603052532
 20
21.93428138578499
 30
0.0
 40
1.533500049071998
100
AcDbArc
 50
268.0749741438237
 51
271.9250258561761
  0
ARC
  5
592
330
1F
100
AcDbEntity
  8
SEPARATOR_BEARING
100
AcDbCircle
 10
20.39756603052532
 20
21.93428138578501
 30
0.0
 40
1.533500049071998
100
AcDbArc
 50
299.3793219699073
 51
303.2293736822639
  0
ARC
  5
593
330
1F
100
AcDbEntity
  8
SEPARATOR_BEARING
100
AcDbCircle
 10
21.06409107516685
 20
20.39978682926253
 30
0.0
 40
0.208000006656
100
AcDbArc
 50
161.4319752483584
 51
233.6327801787378
  0
ARC
  5
594
330
1F
100
AcDbEntity
  8
SEPARATOR_BEARING
100
AcDbCircle
 10
20.93779095492482
 20
20.22827215778961
 30
0.0
 40
0.00500000016
100
AcDbArc
 50
287.5709129082115
 51
53.63278017875296
  0
ARC
  5
595
330
1F
100
AcDbEntity
  8
SEPARATOR_BEARING
100
AcDbCircle
 10
20.76264972562495
 20
20.4397258341044
 30
0.0
 40
0.00500000016
100
AcDbArc
 50
103.7271480568574
 51
229.872372578153
  0
ARC
  5
596
330
1F
100
AcDbEntity
  8
SEPARATOR_BEARING
100
AcDbCircle
 10
20.39756603052529
 20
21.93428138578499
 30
0.0
 40
1.533500049071998
100
AcDbArc
 50
283.7271480568706
 51
287.5771997692243
  0
ARC
  5
597
330
1F
100
AcDbEntity
  8
SEPARATOR_BEARING
100
AcDbCircle
 10
20.62537284175313
 20
20.27686374502883
 30
0.0
 40
0.208000006656
100
AcDbArc
 50
337.6715676473478
 51
49.87237257770813
  0
ARC
  5
598
330
1F
100
AcDbEntity
  8
SEPARATOR_BEARING
100
AcDbCircle
 10
20.86217851423819
 20
20.46761249286299
 30
0.0
 40
0.00500000016
100
AcDbArc
 50
341.4319752483423
 51
107.5771997692116
  0
ARC
  5
599
330
1F
100
AcDbEntity
  8
SEPARATOR_BEARING
100
AcDbCircle
 10
21.15233769402381
 20
20.59364641031011
 30
0.0
 40
0.00500000016
100
AcDbArc
 50
119.3793219699049
 51
245.5245464911941
  0
ARC
  5
59A
330
1F
100
AcDbEntity
  8
SEPARATOR_BEARING
100
AcDbCircle
 10
21.24065195467685
 20
20.64735150192015
 30
0.0
 40
0.00500000016
100
AcDbArc
 50
357.0841491613867
 51
123.2293736822628
  0
ARC
  5
59B
330
1F
100
AcDbEntity
  8
BEARING_WAVE_GEN
100
AcDbCircle
 10
21.44927412339934
 20
20.64155847845896
 30
0.0
 40
0.1875000059999999
100
AcDbArc
 50
336.5269735280023
 51
102.6508780886692
  0
ARC
  5
59C
330
1F
100
AcDbEntity
  8
SEPARATOR_BEARING
100
AcDbCircle
 10
20.39756603052532
 20
21.93428138578501
 30
0.0
 40
1.794500057423999
100
AcDbArc
 50
299.3856088309332
 51
303.2230868212413
  0
ARC
  5
59D
330
1F
100
AcDbEntity
  8
SEPARATOR_BEARING
100
AcDbCircle
 10
21.37803373056302
 20
20.43728654807492
 30
0.0
 40
0.00500000016
100
AcDbArc
 50
303.2230868212573
 51
69.2849540917875
  0
ARC
  5
59E
330
1F
100
AcDbEntity
  8
SEPARATOR_BEARING
100
AcDbCircle
 10
21.45337619516872
 20
20.636516354908
 30
0.0
 40
0.208000006656
100
AcDbArc
 50
8.975915473437485
 51
81.17672040379623
  0
ARC
  5
59F
330
1F
100
AcDbEntity
  8
BEARING_WAVE_GEN
100
AcDbCircle
 10
21.75904640079456
 20
20.97324359822736
 30
0.0
 40
0.1875000059999999
100
AcDbArc
 50
171.2621653895948
 51
297.3860699502568
  0
ARC
  5
5A0
330
1F
100
AcDbEntity
  8
SEPARATOR_BEARING
100
AcDbCircle
 10
21.76435670526907
 20
20.96949517601366
 30
0.0
 40
0.208000006656
100
AcDbArc
 50
192.7363230744451
 51
264.9371280048241
  0
ARC
  5
5A1
330
1F
100
AcDbEntity
  8
SEPARATOR_BEARING
100
AcDbCircle
 10
20.39756603052529
 20
21.93428138578499
 30
0.0
 40
1.533500049071998
100
AcDbArc
 50
315.0314958829553
 51
318.8815475953053
  0
ARC
  5
5A2
330
1F
100
AcDbEntity
  8
SEPARATOR_BEARING
100
AcDbCircle
 10
21.48604770099156
 20
20.84699574964982
 30
0.0
 40
0.00500000016
100
AcDbArc
 50
135.0314958829415
 51
261.1767204042449
  0
ARC
  5
5A3
330
1F
100
AcDbEntity
  8
SEPARATOR_BEARING
100
AcDbCircle
 10
21.55659756898264
 20
20.92253621315105
 30
0.0
 40
0.00500000016
100
AcDbArc
 50
12.73632307442956
 51
138.8815475953024
  0
ARC
  5
5A4
330
1F
100
AcDbEntity
  8
SEPARATOR_BEARING
100
AcDbCircle
 10
20.39756603052529
 20
21.93428138578499
 30
0.0
 40
1.794500057423999
100
AcDbArc
 50
315.0377827439813
 51
318.8752607342824
  0
ARC
  5
5A5
330
1F
100
AcDbEntity
  8
SEPARATOR_BEARING
100
AcDbCircle
 10
21.66376780629327
 20
20.66974846095072
 30
0.0
 40
0.00500000016
100
AcDbArc
 50
188.9759154734296
 51
315.0377827439886
  0
ARC
  5
5A6
330
1F
100
AcDbEntity
  8
SEPARATOR_BEARING
100
AcDbCircle
 10
21.74555970223067
 20
20.75732619717747
 30
0.0
 40
0.00500000016
100
AcDbArc
 50
318.8752607343023
 51
84.93712800483711
  0
CIRCLE
  5
5A7
330
1F
100
AcDbEntity
  8
SPLINE_STATIC
100
AcDbCircle
 10
22.44329123934488
 20
20.75318138578499
 30
0.0
 40
0.134
  0
CIRCLE
  5
5A8
330
1F
100
AcDbEntity
  8
LINE_HIDDEN
100
AcDbCircle
 10
22.44329123934488
 20
20.75318138578499
 30
0.0
 40
0.1575
  0
CIRCLE
  5
5A9
330
1F
100
AcDbEntity
  8
LINE_HIDDEN
100
AcDbCircle
 10
21.34256603052529
 20
21.93428138578499
 30
0.0
 40
0.158
  0
CIRCLE
  5
5AA
330
1F
100
AcDbEntity
  8
WAVE_GENERATOR
100
AcDbCircle
 10
21.34256603052529
 20
21.93428138578499
 30
0.0
 40
0.13
  0
CIRCLE
  5
5AB
330
1F
100
AcDbEntity
  8
WAVE_GENERATOR
100
AcDbCircle
 10
21.26359143430973
 20
21.43428138578499
 30
0.0
 40
0.06425
  0
LINE
  5
5AC
330
1F
100
AcDbEntity
  8
WAVE_GENERATOR
100
AcDbLine
 10
20.39756603052529
 20
22.51718138578499
 30
0.0
 11
20.49596603052528
 21
22.51718138578499
 31
0.0
  0
LINE
  5
5AD
330
1F
100
AcDbEntity
  8
WAVE_GENERATOR
100
AcDbLine
 10
20.2991660305253
 20
22.51718138578499
 30
0.0
 11
20.2991660305253
 21
22.41644302880524
 31
0.0
  0
LINE
  5
5AE
330
1F
100
AcDbEntity
  8
WAVE_GENERATOR
100
AcDbLine
 10
20.39756603052529
 20
22.51718138578499
 30
0.0
 11
20.2991660305253
 21
22.51718138578499
 31
0.0
  0
LINE
  5
5AF
330
1F
100
AcDbEntity
  8
WAVE_GENERATOR
100
AcDbLine
 10
20.49596603052528
 20
22.51718138578499
 30
0.0
 11
20.49596603052528
 21
22.41644302880524
 31
0.0
  0
ARC
  5
5B0
330
1F
100
AcDbEntity
  8
BEARING_WAVE_GEN
100
AcDbCircle
 10
22.06018108758501
 20
21.82055540027353
 30
0.0
 40
0.1875000059999999
100
AcDbArc
 50
23.48349526713475
 51
149.6073998277981
  0
ARC
  5
5B1
330
1F
100
AcDbEntity
  8
BEARING_WAVE_GEN
100
AcDbCircle
 10
22.06018108758501
 20
21.82055540027353
 30
0.0
 40
0.1875000059999999
100
AcDbArc
 50
202.5665132156809
 51
328.6904177763442
  0
ARC
  5
5B2
330
1F
100
AcDbEntity
  8
SEPARATOR_BEARING
100
AcDbCircle
 10
22.06666593479226
 20
21.82011182457246
 30
0.0
 40
0.208000006656
100
AcDbArc
 50
224.0406709005307
 51
296.2414758309161
  0
ARC
  5
5B3
330
1F
100
AcDbEntity
  8
SEPARATOR_BEARING
100
AcDbCircle
 10
21.97396860367497
 20
21.37402777669481
 30
0.0
 40
0.208000006656
100
AcDbArc
 50
40.28026329952403
 51
112.4810682298756
  0
ARC
  5
5B4
330
1F
100
AcDbEntity
  8
BEARING_WAVE_GEN
100
AcDbCircle
 10
21.9678439074852
 20
21.37620449424357
 30
0.0
 40
0.1875000059999999
100
AcDbArc
 50
7.831321354090619
 51
133.9552259147514
  0
ARC
  5
5B5
330
1F
100
AcDbEntity
  8
BEARING_WAVE_GEN
100
AcDbCircle
 10
21.9678439074852
 20
21.37620449424357
 30
0.0
 40
0.1875000059999999
100
AcDbArc
 50
186.9143393026396
 51
313.038243863296
  0
ARC
  5
5B6
330
1F
100
AcDbEntity
  8
SEPARATOR_BEARING
100
AcDbCircle
 10
21.97396860367497
 20
21.37402777669481
 30
0.0
 40
0.208000006656
100
AcDbArc
 50
208.3884969874878
 51
280.5893019178628
  0
ARC
  5
5B7
330
1F
100
AcDbEntity
  8
SEPARATOR_BEARING
100
AcDbCircle
 10
21.76435670526907
 20
20.96949517601365
 30
0.0
 40
0.208000006656
100
AcDbArc
 50
24.62808938648103
 51
96.82889431683332
  0
ARC
  5
5B8
330
1F
100
AcDbEntity
  8
SEPARATOR_BEARING
100
AcDbCircle
 10
21.73903000193316
 20
21.1809840906209
 30
0.0
 40
0.00500000016
100
AcDbArc
 50
150.6836697959883
 51
276.8288943172787
  0
ARC
  5
5B9
330
1F
100
AcDbEntity
  8
SEPARATOR_BEARING
100
AcDbCircle
 10
20.39756603052529
 20
21.93428138578499
 30
0.0
 40
1.533500049071998
100
AcDbArc
 50
330.6836697959996
 51
334.5337215083523
  0
ARC
  5
5BA
330
1F
100
AcDbEntity
  8
SEPARATOR_BEARING
100
AcDbCircle
 10
21.78658311629753
 20
21.27275743541003
 30
0.0
 40
0.00500000016
100
AcDbArc
 50
28.38849698747626
 51
154.5337215083494
  0
ARC
  5
5BB
330
1F
100
AcDbEntity
  8
SEPARATOR_BEARING
100
AcDbCircle
 10
21.89252205690473
 20
21.57084104586846
 30
0.0
 40
0.00500000016
100
AcDbArc
 50
166.3358437090342
 51
292.4810682303255
  0
ARC
  5
5BC
330
1F
100
AcDbEntity
  8
SEPARATOR_BEARING
100
AcDbCircle
 10
20.39756603052529
 20
21.93428138578499
 30
0.0
 40
1.533500049071998
100
AcDbArc
 50
346.3358437090395
 51
350.1858954213953
  0
ARC
  5
5BD
330
1F
100
AcDbEntity
  8
SEPARATOR_BEARING
100
AcDbCircle
 10
21.91355162069105
 20
21.67204086279761
 30
0.0
 40
0.00500000016
100
AcDbArc
 50
44.04067090051361
 51
170.1858954213899
  0
ARC
  5
5BE
330
1F
100
AcDbEntity
  8
SEPARATOR_BEARING
100
AcDbCircle
 10
22.01311114992865
 20
21.16465522840731
 30
0.0
 40
0.00500000016
100
AcDbArc
 50
334.5274346473476
 51
100.5893019178758
  0
ARC
  5
5BF
330
1F
100
AcDbEntity
  8
SEPARATOR_BEARING
100
AcDbCircle
 10
21.95798050982479
 20
21.05825792277707
 30
0.0
 40
0.00500000016
100
AcDbArc
 50
204.6280893864781
 51
330.6899566570387
  0
ARC
  5
5C0
330
1F
100
AcDbEntity
  8
SEPARATOR_BEARING
100
AcDbCircle
 10
20.39756603052529
 20
21.93428138578499
 30
0.0
 40
1.794500057423999
100
AcDbArc
 50
330.6899566570216
 51
334.5274346473246
  0
ARC
  5
5C1
330
1F
100
AcDbEntity
  8
SEPARATOR_BEARING
100
AcDbCircle
 10
20.39756603052529
 20
21.93428138578499
 30
0.0
 40
1.794500057423999
100
AcDbArc
 50
346.3421305700665
 51
350.1796085603665
  0
ARC
  5
5C2
330
1F
100
AcDbEntity
  8
SEPARATOR_BEARING
100
AcDbCircle
 10
22.13646440984792
 20
21.51173803731404
 30
0.0
 40
0.00500000016
100
AcDbArc
 50
220.2802632995183
 51
346.3421305700795
  0
ARC
  5
5C3
330
1F
100
AcDbEntity
  8
SEPARATOR_BEARING
100
AcDbCircle
 10
22.16084500674762
 20
21.62906391092449
 30
0.0
 40
0.00500000016
100
AcDbArc
 50
350.1796085603875
 51
116.2414758309185
  0
ARC
  5
5C4
330
1F
100
AcDbEntity
  8
SEPARATOR_BEARING
100
AcDbCircle
 10
21.8829980484463
 20
22.70397021853925
 30
0.0
 40
0.208000006656
100
AcDbArc
 50
255.3450187266253
 51
327.5458236569928
  0
ARC
  5
5C5
330
1F
100
AcDbEntity
  8
SEPARATOR_BEARING
100
AcDbCircle
 10
22.03557376163408
 20
22.27466330651427
 30
0.0
 40
0.208000006656
100
AcDbArc
 50
239.6928448135729
 51
311.8936497439503
  0
ARC
  5
5C6
330
1F
100
AcDbEntity
  8
SEPARATOR_BEARING
100
AcDbCircle
 10
22.06666593479226
 20
21.82011182457246
 30
0.0
 40
0.208000006656
100
AcDbArc
 50
55.93243721257032
 51
128.1332421429207
  0
ARC
  5
5C7
330
1F
100
AcDbEntity
  8
BEARING_WAVE_GEN
100
AcDbCircle
 10
22.02920971486049
 20
22.27334084238711
 30
0.0
 40
0.1875000059999999
100
AcDbArc
 50
218.2186871287274
 51
344.3425916893882
  0
ARC
  5
5C8
330
1F
100
AcDbEntity
  8
BEARING_WAVE_GEN
100
AcDbCircle
 10
22.02920971486049
 20
22.27334084238711
 30
0.0
 40
0.1875000059999999
100
AcDbArc
 50
39.13566918018081
 51
165.2595737408371
  0
ARC
  5
5C9
330
1F
100
AcDbEntity
  8
BEARING_WAVE_GEN
100
AcDbCircle
 10
21.87722679434199
 20
22.7009797956983
 30
0.0
 40
0.1875000059999999
100
AcDbArc
 50
233.8708610417748
 51
359.9947656024313
  0
ARC
  5
5CA
330
1F
100
AcDbEntity
  8
SEPARATOR_BEARING
100
AcDbCircle
 10
22.03557376163408
 20
22.27466330651425
 30
0.0
 40
0.208000006656
100
AcDbArc
 50
71.58461112561257
 51
143.7854160559657
  0
ARC
  5
5CB
330
1F
100
AcDbEntity
  8
SEPARATOR_BEARING
100
AcDbCircle
 10
20.39756603052529
 20
21.93428138578499
 30
0.0
 40
1.533500049071998
100
AcDbArc
 50
1.988017622085664
 51
5.838069334437594
  0
ARC
  5
5CC
330
1F
100
AcDbEntity
  8
SEPARATOR_BEARING
100
AcDbCircle
 10
21.92808640903458
 20
22.09077347010461
 30
0.0
 40
0.00500000016
100
AcDbArc
 50
59.69284481355673
 51
185.838069334435
  0
ARC
  5
5CD
330
1F
100
AcDbEntity
  8
SEPARATOR_BEARING
100
AcDbCircle
 10
21.93514006236853
 20
21.98765270849872
 30
0.0
 40
0.00500000016
100
AcDbArc
 50
181.9880176220754
 51
308.1332421433783
  0
ARC
  5
5CE
330
1F
100
AcDbEntity
  8
SEPARATOR_BEARING
100
AcDbCircle
 10
21.82910950256891
 20
22.49789977542128
 30
0.0
 40
0.00500000016
100
AcDbArc
 50
75.3450187266005
 51
201.4902432474785
  0
ARC
  5
5CF
330
1F
100
AcDbEntity
  8
SEPARATOR_BEARING
100
AcDbCircle
 10
21.86372323582367
 20
22.40050606428085
 30
0.0
 40
0.00500000016
100
AcDbArc
 50
197.6401915351175
 51
323.785416056417
  0
ARC
  5
5D0
330
1F
100
AcDbEntity
  8
SEPARATOR_BEARING
100
AcDbCircle
 10
20.39756603052529
 20
21.93428138578499
 30
0.0
 40
1.533500049071998
100
AcDbArc
 50
17.64019153512567
 51
21.49024324748145
  0
ARC
  5
5D1
330
1F
100
AcDbEntity
  8
SEPARATOR_BEARING
100
AcDbCircle
 10
22.18598217200745
 20
21.99655625899992
 30
0.0
 40
0.00500000016
100
AcDbArc
 50
235.9324372125573
 51
1.994304483123591
  0
ARC
  5
5D2
330
1F
100
AcDbEntity
  8
SEPARATOR_BEARING
100
AcDbCircle
 10
22.17780452836477
 20
22.11610917727502
 30
0.0
 40
0.00500000016
100
AcDbArc
 50
5.831782473431362
 51
131.8936497439658
  0
ARC
  5
5D3
330
1F
100
AcDbEntity
  8
SEPARATOR_BEARING
100
AcDbCircle
 10
20.39756603052529
 20
21.93428138578499
 30
0.0
 40
1.794500057423999
100
AcDbArc
 50
1.994304483110658
 51
5.831782473410597
  0
ARC
  5
5D4
330
1F
100
AcDbEntity
  8
SEPARATOR_BEARING
100
AcDbCircle
 10
22.10286129041271
 20
22.47675583822803
 30
0.0
 40
0.00500000016
100
AcDbArc
 50
251.5846111255998
 51
17.6464783961713
  0
ARC
  5
5D5
330
1F
100
AcDbEntity
  8
SEPARATOR_BEARING
100
AcDbCircle
 10
22.06273190464638
 20
22.58966910813753
 30
0.0
 40
0.00500000016
100
AcDbArc
 50
21.48395638647385
 51
147.5458236570108
  0
ARC
  5
5D6
330
1F
100
AcDbEntity
  8
SEPARATOR_BEARING
100
AcDbCircle
 10
20.39756603052529
 20
21.93428138578499
 30
0.0
 40
1.794500057423999
100
AcDbArc
 50
17.64647839615252
 51
21.48395638645701
  0
CIRCLE
  5
5D7
330
1F
100
AcDbEntity
  8
LINE_HIDDEN
100
AcDbCircle
 10
18.3518408217057
 20
23.11538138578499
 30
0.0
 40
0.1575
  0
CIRCLE
  5
5D8
330
1F
100
AcDbEntity
  8
SPLINE_STATIC
100
AcDbCircle
 10
18.3518408217057
 20
23.11538138578499
 30
0.0
 40
0.134
  0
ARC
  5
5D9
330
1F
100
AcDbEntity
  8
BEARING_WAVE_GEN
100
AcDbCircle
 10
19.9479496970044
 20
23.53898309650054
 30
0.0
 40
0.1875000059999999
100
AcDbArc
 50
133.0487126584404
 51
259.1726172191018
  0
ARC
  5
5DA
330
1F
100
AcDbEntity
  8
BEARING_WAVE_GEN
100
AcDbCircle
 10
19.1796278570818
 20
23.07175623535806
 30
0.0
 40
0.1875000059999999
100
AcDbArc
 50
343.4360784330741
 51
109.5599829937375
  0
ARC
  5
5DB
330
1F
100
AcDbEntity
  8
BEARING_WAVE_GEN
100
AcDbCircle
 10
19.53167935008289
 20
23.35817136902619
 30
0.0
 40
0.1875000059999999
100
AcDbArc
 50
148.7008865714801
 51
274.8247911321395
  0
ARC
  5
5DC
330
1F
100
AcDbEntity
  8
SEPARATOR_BEARING
100
AcDbCircle
 10
19.17487742316197
 20
23.07619283093095
 30
0.0
 40
0.208000006656
100
AcDbArc
 50
4.910236117926304
 51
77.11104104830187
  0
ARC
  5
5DD
330
1F
100
AcDbEntity
  8
SEPARATOR_BEARING
100
AcDbCircle
 10
20.39756603052529
 20
21.93428138578499
 30
0.0
 40
1.794500057423999
100
AcDbArc
 50
127.2116957874608
 51
131.0491737777617
  0
ARC
  5
5DE
330
1F
100
AcDbEntity
  8
SEPARATOR_BEARING
100
AcDbCircle
 10
20.39756603052529
 20
21.93428138578499
 30
0.0
 40
1.794500057423999
100
AcDbArc
 50
142.8638697005006
 51
146.7013476907998
  0
ARC
  5
5DF
330
1F
100
AcDbEntity
  8
BEARING_WAVE_GEN
100
AcDbCircle
 10
19.1796278570818
 20
23.07175623535806
 30
0.0
 40
0.1875000059999999
100
AcDbArc
 50
164.3530604845233
 51
290.4769650451882
  0
ARC
  5
5E0
330
1F
100
AcDbEntity
  8
SEPARATOR_BEARING
100
AcDbCircle
 10
19.17487742316197
 20
23.07619283093096
 30
0.0
 40
0.208000006656
100
AcDbArc
 50
196.8020024299591
 51
269.0028073603226
  0
ARC
  5
5E1
330
1F
100
AcDbEntity
  8
SEPARATOR_BEARING
100
AcDbCircle
 10
18.9121340126043
 20
22.70397021853925
 30
0.0
 40
0.208000006656
100
AcDbArc
 50
20.56241003096868
 51
92.76321496134951
  0
ARC
  5
5E2
330
1F
100
AcDbEntity
  8
SEPARATOR_BEARING
100
AcDbCircle
 10
18.90186560045176
 20
22.91672256897393
 30
0.0
 40
0.00500000016
100
AcDbArc
 50
146.7013476908243
 51
272.763214961362
  0
ARC
  5
5E3
330
1F
100
AcDbEntity
  8
SEPARATOR_BEARING
100
AcDbCircle
 10
19.17117049539322
 20
22.86322508316117
 30
0.0
 40
0.00500000016
100
AcDbArc
 50
322.8575828394706
 51
89.00280736076494
  0
ARC
  5
5E4
330
1F
100
AcDbEntity
  8
SEPARATOR_BEARING
100
AcDbCircle
 10
18.97097051537918
 20
23.01462192983247
 30
0.0
 40
0.00500000016
100
AcDbArc
 50
16.80200242995138
 51
142.8638697005173
  0
ARC
  5
5E5
330
1F
100
AcDbEntity
  8
SEPARATOR_BEARING
100
AcDbCircle
 10
19.11156382446588
 20
22.77878166849493
 30
0.0
 40
0.00500000016
100
AcDbArc
 50
200.5624100309518
 51
326.707634551826
  0
ARC
  5
5E6
330
1F
100
AcDbEntity
  8
SEPARATOR_BEARING
100
AcDbCircle
 10
20.39756603052529
 20
21.93428138578499
 30
0.0
 40
1.533500049071998
100
AcDbArc
 50
142.857582839476
 51
146.7076345518288
  0
ARC
  5
5E7
330
1F
100
AcDbEntity
  8
SEPARATOR_BEARING
100
AcDbCircle
 10
19.22238968879002
 20
23.28382613153205
 30
0.0
 40
0.00500000016
100
AcDbArc
 50
131.0491737777818
 51
257.111041048315
  0
ARC
  5
5E8
330
1F
100
AcDbEntity
  8
SEPARATOR_BEARING
100
AcDbCircle
 10
19.52830205429957
 20
23.36372509533346
 30
0.0
 40
0.208000006656
100
AcDbArc
 50
181.1498285169145
 51
253.3506334472739
  0
ARC
  5
5E9
330
1F
100
AcDbEntity
  8
SEPARATOR_BEARING
100
AcDbCircle
 10
19.46727457875923
 20
23.15965488650133
 30
0.0
 40
0.00500000016
100
AcDbArc
 50
307.2054089264239
 51
73.35063344772264
  0
ARC
  5
5EA
330
1F
100
AcDbEntity
  8
SEPARATOR_BEARING
100
AcDbCircle
 10
19.38709572425962
 20
23.09442455007214
 30
0.0
 40
0.00500000016
100
AcDbArc
 50
184.9102361179078
 51
311.055460638783
  0
ARC
  5
5EB
330
1F
100
AcDbEntity
  8
SEPARATOR_BEARING
100
AcDbCircle
 10
20.39756603052529
 20
21.93428138578499
 30
0.0
 40
1.533500049071998
100
AcDbArc
 50
127.2054089264357
 51
131.0554606387858
  0
ARC
  5
5EC
330
1F
100
AcDbEntity
  8
BEARING_WAVE_GEN
100
AcDbCircle
 10
19.53167935008289
 20
23.35817136902619
 30
0.0
 40
0.1875000059999999
100
AcDbArc
 50
327.7839045200348
 51
93.90780908069535
  0
ARC
  5
5ED
330
1F
100
AcDbEntity
  8
SEPARATOR_BEARING
100
AcDbCircle
 10
19.3153449374723
 20
23.35945083560456
 30
0.0
 40
0.00500000016
100
AcDbArc
 50
1.14982851690957
 51
127.2116957874765
  0
ARC
  5
5EE
330
1F
100
AcDbEntity
  8
SEPARATOR_BEARING
100
AcDbCircle
 10
19.73998274720509
 20
23.59858144299992
 30
0.0
 40
0.00500000016
100
AcDbArc
 50
345.4976546038677
 51
111.5595218744319
  0
ARC
  5
5EF
330
1F
100
AcDbEntity
  8
SEPARATOR_BEARING
100
AcDbCircle
 10
20.39756603052531
 20
21.93428138578498
 30
0.0
 40
1.533500049071998
100
AcDbArc
 50
111.5532350133831
 51
115.4032867257365
  0
ARC
  5
5F0
330
1F
100
AcDbEntity
  8
SEPARATOR_BEARING
100
AcDbCircle
 10
19.73756958407501
 20
23.32402492045599
 30
0.0
 40
0.00500000016
100
AcDbArc
 50
169.2580622048648
 51
295.4032867257365
  0
ARC
  5
5F1
330
1F
100
AcDbEntity
  8
SEPARATOR_BEARING
100
AcDbCircle
 10
19.83237412330252
 20
23.36520434300412
 30
0.0
 40
0.00500000016
100
AcDbArc
 50
291.5532350133819
 51
57.69845953467902
  0
ARC
  5
5F2
330
1F
100
AcDbEntity
  8
SEPARATOR_BEARING
100
AcDbCircle
 10
19.63007123032075
 20
23.55084013405454
 30
0.0
 40
0.00500000016
100
AcDbArc
 50
115.396999864736
 51
241.458867135267
  0
ARC
  5
5F3
330
1F
100
AcDbEntity
  8
SEPARATOR_BEARING
100
AcDbCircle
 10
19.94619601793576
 20
23.54524205906858
 30
0.0
 40
0.208000006656
100
AcDbArc
 50
165.4976546038729
 51
237.6984595342304
  0
ARC
  5
5F4
330
1F
100
AcDbEntity
  8
SEPARATOR_BEARING
100
AcDbCircle
 10
19.52830205429957
 20
23.36372509533346
 30
0.0
 40
0.208000006656
100
AcDbArc
 50
349.2580622048806
 51
61.45886713525218
  0
ARC
  5
5F5
330
1F
100
AcDbEntity
  8
SEPARATOR_BEARING
100
AcDbCircle
 10
20.39756603052531
 20
21.93428138578498
 30
0.0
 40
1.794500057423999
100
AcDbArc
 50
111.5595218744179
 51
115.3969998647196
  0
ARC
  5
5F6
330
1F
100
AcDbEntity
  8
BEARING_WAVE_GEN
100
AcDbCircle
 10
21.26345271096771
 20
23.35817136902619
 30
0.0
 40
0.1875000059999999
100
AcDbArc
 50
265.1752088678605
 51
31.29911342851976
  0
ARC
  5
5F7
330
1F
100
AcDbEntity
  8
BEARING_WAVE_GEN
100
AcDbCircle
 10
20.8471823640462
 20
23.53898309650055
 30
0.0
 40
0.1875000059999999
100
AcDbArc
 50
101.7443648323556
 51
227.868269393013
  0
ARC
  5
5F8
330
1F
100
AcDbEntity
  8
SEPARATOR_BEARING
100
AcDbCircle
 10
20.84893604311484
 20
23.5452420590686
 30
0.0
 40
0.208000006656
100
AcDbArc
 50
134.1933067777876
 51
206.3941117081455
  0
ARC
  5
5F9
330
1F
100
AcDbEntity
  8
SEPARATOR_BEARING
100
AcDbCircle
 10
20.39756603052529
 20
23.60728143932099
 30
0.0
 40
0.208000006656
100
AcDbArc
 50
149.8454806908263
 51
222.0462856211882
  0
ARC
  5
5FA
330
1F
100
AcDbEntity
  8
BEARING_WAVE_GEN
100
AcDbCircle
 10
20.39756603052529
 20
23.60078143911299
 30
0.0
 40
0.1875000059999999
100
AcDbArc
 50
117.3965387453927
 51
243.5204433060548
  0
ARC
  5
5FB
330
1F
100
AcDbEntity
  8
BEARING_WAVE_GEN
100
AcDbCircle
 10
20.39756603052529
 20
23.60078143911299
 30
0.0
 40
0.1875000059999999
100
AcDbArc
 50
296.479556693945
 51
62.60346125460711
  0
ARC
  5
5FC
330
1F
100
AcDbEntity
  8
SEPARATOR_BEARING
100
AcDbCircle
 10
20.39756603052529
 20
23.60728143932099
 30
0.0
 40
0.208000006656
100
AcDbArc
 50
317.9537143787911
 51
30.1545193091737
  0
ARC
  5
5FD
330
1F
100
AcDbEntity
  8
BEARING_WAVE_GEN
100
AcDbCircle
 10
20.8471823640462
 20
23.53898309650055
 30
0.0
 40
0.1875000059999999
100
AcDbArc
 50
280.8273827808981
 51
46.95128734155955
  0
ARC
  5
5FE
330
1F
100
AcDbEntity
  8
BEARING_WAVE_GEN
100
AcDbCircle
 10
19.9479496970044
 20
23.53898309650054
 30
0.0
 40
0.1875000059999999
100
AcDbArc
 50
312.1317306069868
 51
78.25563516764423
  0
ARC
  5
5FF
330
1F
100
AcDbEntity
  8
SEPARATOR_BEARING
100
AcDbCircle
 10
19.94619601793576
 20
23.54524205906858
 30
0.0
 40
0.208000006656
100
AcDbArc
 50
333.6058882918397
 51
45.80669322221237
  0
ARC
  5
600
330
1F
100
AcDbEntity
  8
SEPARATOR_BEARING
100
AcDbCircle
 10
20.39756603052529
 20
21.93428138578499
 30
0.0
 40
1.533500049071998
100
AcDbArc
 50
80.24888718729647
 51
84.09893889965227
  0
CIRCLE
  5
601
330
1F
100
AcDbEntity
  8
WAVE_GENERATOR
100
AcDbCircle
 10
20.39756603052529
 20
22.93428138578499
 30
0.0
 40
0.06425
  0
ARC
  5
602
330
1F
100
AcDbEntity
  8
SEPARATOR_BEARING
100
AcDbCircle
 10
20.23939136602359
 20
23.46462878980691
 30
0.0
 40
0.00500000016
100
AcDbArc
 50
275.9010611003346
 51
42.04628562163697
  0
ARC
  5
603
330
1F
100
AcDbEntity
  8
SEPARATOR_BEARING
100
AcDbCircle
 10
20.13699236104078
 20
23.45055437052692
 30
0.0
 40
0.00500000016
100
AcDbArc
 50
153.6058882918194
 51
279.7511128126903
  0
ARC
  5
604
330
1F
100
AcDbEntity
  8
SEPARATOR_BEARING
100
AcDbCircle
 10
20.39756603052529
 20
21.93428138578499
 30
0.0
 40
1.533500049071998
100
AcDbArc
 50
95.90106110034769
 51
99.75111281270349
  0
ARC
  5
605
330
1F
100
AcDbEntity
  8
SEPARATOR_BEARING
100
AcDbCircle
 10
20.55574069502701
 20
23.46462878980691
 30
0.0
 40
0.00500000016
100
AcDbArc
 50
137.9537143787731
 51
264.0989388996521
  0
ARC
  5
606
330
1F
100
AcDbEntity
  8
SEPARATOR_BEARING
100
AcDbCircle
 10
20.65813970000981
 20
23.45055437052692
 30
0.0
 40
0.00500000016
100
AcDbArc
 50
260.2488871872963
 51
26.39411170859025
  0
ARC
  5
607
330
1F
100
AcDbEntity
  8
SEPARATOR_BEARING
100
AcDbCircle
 10
20.39756603052529
 20
21.93428138578499
 30
0.0
 40
1.794500057423999
100
AcDbArc
 50
64.60300013528009
 51
68.44047812558184
  0
ARC
  5
608
330
1F
100
AcDbEntity
  8
SEPARATOR_BEARING
100
AcDbCircle
 10
21.05514931384553
 20
23.59858144299994
 30
0.0
 40
0.00500000016
100
AcDbArc
 50
68.44047812560845
 51
194.5023453961405
  0
ARC
  5
609
330
1F
100
AcDbEntity
  8
SEPARATOR_BEARING
100
AcDbCircle
 10
21.16506083072987
 20
23.55084013405454
 30
0.0
 40
0.00500000016
100
AcDbArc
 50
298.5411328647338
 51
64.60300013529402
  0
ARC
  5
60A
330
1F
100
AcDbEntity
  8
SEPARATOR_BEARING
100
AcDbCircle
 10
21.05756247697559
 20
23.32402492045599
 30
0.0
 40
0.00500000016
100
AcDbArc
 50
244.5967132742495
 51
10.74193779554557
  0
ARC
  5
60B
330
1F
100
AcDbEntity
  8
BEARING_WAVE_GEN
100
AcDbCircle
 10
21.26345271096771
 20
23.35817136902619
 30
0.0
 40
0.1875000059999999
100
AcDbArc
 50
86.09219091930331
 51
212.216095479965
  0
ARC
  5
60C
330
1F
100
AcDbEntity
  8
SEPARATOR_BEARING
100
AcDbCircle
 10
21.26683000675102
 20
23.36372509533346
 30
0.0
 40
0.208000006656
100
AcDbArc
 50
118.5411328647477
 51
190.7419377950979
  0
ARC
  5
60D
330
1F
100
AcDbEntity
  8
SEPARATOR_BEARING
100
AcDbCircle
 10
20.96275793774809
 20
23.36520434300412
 30
0.0
 40
0.00500000016
100
AcDbArc
 50
122.3015404657369
 51
248.446764986604
  0
ARC
  5
60E
330
1F
100
AcDbEntity
  8
SEPARATOR_BEARING
100
AcDbCircle
 10
20.84893604311484
 20
23.5452420590686
 30
0.0
 40
0.208000006656
100
AcDbArc
 50
302.3015404657519
 51
14.5023453961269
  0
ARC
  5
60F
330
1F
100
AcDbEntity
  8
SEPARATOR_BEARING
100
AcDbCircle
 10
20.39756603052529
 20
21.93428138578499
 30
0.0
 40
1.533500049071998
100
AcDbArc
 50
64.59671327426343
 51
68.44676498661683
  0
ARC
  5
610
330
1F
100
AcDbEntity
  8
SEPARATOR_BEARING
100
AcDbCircle
 10
20.39756603052529
 20
21.93428138578499
 30
0.0
 40
1.794500057423999
100
AcDbArc
 50
80.25517404832607
 51
84.09265203862736
  0
ARC
  5
611
330
1F
100
AcDbEntity
  8
SEPARATOR_BEARING
100
AcDbCircle
 10
20.21339050081839
 20
23.71427852881782
 30
0.0
 40
0.00500000016
100
AcDbArc
 50
329.8454806908226
 51
95.90734796138555
  0
ARC
  5
612
330
1F
100
AcDbEntity
  8
SEPARATOR_BEARING
100
AcDbCircle
 10
20.09467435012755
 20
23.69796136948206
 30
0.0
 40
0.00500000016
100
AcDbArc
 50
99.7448259517003
 51
225.8066932222297
  0
ARC
  5
613
330
1F
100
AcDbEntity
  8
SEPARATOR_BEARING
100
AcDbCircle
 10
20.39756603052529
 20
21.93428138578499
 30
0.0
 40
1.794500057423999
100
AcDbArc
 50
95.90734796137258
 51
99.74482595167387
  0
ARC
  5
614
330
1F
100
AcDbEntity
  8
SEPARATOR_BEARING
100
AcDbCircle
 10
20.58174156023223
 20
23.71427852881782
 30
0.0
 40
0.00500000016
100
AcDbArc
 50
84.09265203865334
 51
210.1545193091829
  0
CIRCLE
  5
615
330
1F
100
AcDbEntity
  8
SPLINE_STATIC
100
AcDbCircle
 10
20.39756603052529
 20
24.29648138578499
 30
0.0
 40
0.134
  0
CIRCLE
  5
616
330
1F
100
AcDbEntity
  8
LINE_HIDDEN
100
AcDbCircle
 10
20.39756603052529
 20
24.29648138578499
 30
0.0
 40
0.1575
  0
ARC
  5
617
330
1F
100
AcDbEntity
  8
SEPARATOR_BEARING
100
AcDbCircle
 10
20.70045771092306
 20
23.69796136948204
 30
0.0
 40
0.00500000016
100
AcDbArc
 50
314.1933067777737
 51
80.25517404834054
  0
ARC
  5
618
330
1F
100
AcDbEntity
  8
SEPARATOR_BEARING
100
AcDbCircle
 10
21.26683000675102
 20
23.36372509533346
 30
0.0
 40
0.208000006656
100
AcDbArc
 50
286.6493665527116
 51
358.8501714830826
  0
ARC
  5
619
330
1F
100
AcDbEntity
  8
BEARING_WAVE_GEN
100
AcDbCircle
 10
21.61550420396881
 20
23.07175623535806
 30
0.0
 40
0.1875000059999999
100
AcDbArc
 50
70.4400170062625
 51
196.5639215669255
  0
ARC
  5
61A
330
1F
100
AcDbEntity
  8
SEPARATOR_BEARING
100
AcDbCircle
 10
21.62025463788864
 20
23.07619283093095
 30
0.0
 40
0.208000006656
100
AcDbArc
 50
102.888958951698
 51
175.0897638820555
  0
ARC
  5
61B
330
1F
100
AcDbEntity
  8
BEARING_WAVE_GEN
100
AcDbCircle
 10
21.61550420396881
 20
23.07175623535806
 30
0.0
 40
0.1875000059999999
100
AcDbArc
 50
249.5230349548114
 51
15.6469395154765
  0
ARC
  5
61C
330
1F
100
AcDbEntity
  8
SEPARATOR_BEARING
100
AcDbCircle
 10
21.32785748229139
 20
23.15965488650133
 30
0.0
 40
0.00500000016
100
AcDbArc
 50
106.6493665526857
 51
232.7945910735631
  0
ARC
  5
61D
330
1F
100
AcDbEntity
  8
SEPARATOR_BEARING
100
AcDbCircle
 10
21.40803633679098
 20
23.09442455007214
 30
0.0
 40
0.00500000016
100
AcDbArc
 50
228.9445393612131
 51
355.0897638825043
  0
ARC
  5
61E
330
1F
100
AcDbEntity
  8
SEPARATOR_BEARING
100
AcDbCircle
 10
20.39756603052529
 20
21.93428138578499
 30
0.0
 40
1.533500049071998
100
AcDbArc
 50
48.94453936121417
 51
52.79459107356416
  0
ARC
  5
61F
330
1F
100
AcDbEntity
  8
SEPARATOR_BEARING
100
AcDbCircle
 10
21.89326646059884
 20
22.91672256897393
 30
0.0
 40
0.00500000016
100
AcDbArc
 50
267.2367850386505
 51
33.29865230920914
  0
ARC
  5
620
330
1F
100
AcDbEntity
  8
SEPARATOR_BEARING
100
AcDbCircle
 10
21.82416154567142
 20
23.01462192983247
 30
0.0
 40
0.00500000016
100
AcDbArc
 50
37.1361302995221
 51
163.1979975700543
  0
ARC
  5
621
330
1F
100
AcDbEntity
  8
SEPARATOR_BEARING
100
AcDbCircle
 10
21.62396156565738
 20
22.86322508316117
 30
0.0
 40
0.00500000016
100
AcDbArc
 50
90.99719263965132
 51
217.1424171605218
  0
ARC
  5
622
330
1F
100
AcDbEntity
  8
SEPARATOR_BEARING
100
AcDbCircle
 10
21.62025463788864
 20
23.07619283093095
 30
0.0
 40
0.208000006656
100
AcDbArc
 50
270.9971926396641
 51
343.1979975700433
  0
ARC
  5
623
330
1F
100
AcDbEntity
  8
SEPARATOR_BEARING
100
AcDbCircle
 10
21.68356823658471
 20
22.77878166849493
 30
0.0
 40
0.00500000016
100
AcDbArc
 50
213.2923654481644
 51
339.4375899694566
  0
ARC
  5
624
330
1F
100
AcDbEntity
  8
SEPARATOR_BEARING
100
AcDbCircle
 10
20.39756603052529
 20
21.93428138578499
 30
0.0
 40
1.533500049071998
100
AcDbArc
 50
33.29236544817099
 51
37.14241716052372
  0
ARC
  5
625
330
1F
100
AcDbEntity
  8
SEPARATOR_BEARING
100
AcDbCircle
 10
21.8829980484463
 20
22.70397021853924
 30
0.0
 40
0.208000006656
100
AcDbArc
 50
87.2367850386505
 51
159.4375899690095
  0
ARC
  5
626
330
1F
100
AcDbEntity
  8
SEPARATOR_BEARING
100
AcDbCircle
 10
20.39756603052529
 20
21.93428138578499
 30
0.0
 40
1.794500057423999
100
AcDbArc
 50
33.29865230919987
 51
37.13613029949911
  0
ARC
  5
627
330
1F
100
AcDbEntity
  8
SEPARATOR_BEARING
100
AcDbCircle
 10
20.39756603052529
 20
21.93428138578499
 30
0.0
 40
1.794500057423999
100
AcDbArc
 50
48.95082622223815
 51
52.78830421253913
  0
ARC
  5
628
330
1F
100
AcDbEntity
  8
SEPARATOR_BEARING
100
AcDbCircle
 10
21.47978712357831
 20
23.35945083560456
 30
0.0
 40
0.00500000016
100
AcDbArc
 50
52.78830421255764
 51
178.8501714830981
  0
ARC
  5
629
330
1F
100
AcDbEntity
  8
SEPARATOR_BEARING
100
AcDbCircle
 10
21.57274237226059
 20
23.28382613153205
 30
0.0
 40
0.00500000016
100
AcDbArc
 50
282.8889589516979
 51
48.95082622225375
  0
CIRCLE
  5
62A
330
1F
100
AcDbEntity
  8
LINE_HIDDEN
100
AcDbCircle
 10
22.4432912393449
 20
23.11538138578499
 30
0.0
 40
0.1575
  0
CIRCLE
  5
62B
330
1F
100
AcDbEntity
  8
SPLINE_STATIC
100
AcDbCircle
 10
22.4432912393449
 20
23.11538138578499
 30
0.0
 40
0.134
  0
TEXT
  5
62C
330
1F
100
AcDbEntity
  8
0
100
AcDbText
 10
13.01604446250802
 20
17.95514196066473
 30
0.0
 40
0.433518582123778
  1
HDB-040
100
AcDbText
  0
LINE
  5
651
330
1F
100
AcDbEntity
  8
LINE_CENTER
100
AcDbLine
 10
11.7310546909131
 20
21.93428138578499
 30
0.0
 11
8.873604690913104
 21
21.93428138578499
 31
0.0
  0
LINE
  5
652
330
1F
100
AcDbEntity
  8
LINE_CENTER
100
AcDbLine
 10
8.873604690913104
 20
24.79173138578499
 30
0.0
 11
8.873604690913104
 21
21.93428138578499
 31
0.0
  0
LINE
  5
653
330
1F
100
AcDbEntity
  8
LINE_CENTER
100
AcDbLine
 10
6.016154690913106
 20
21.93428138578499
 30
0.0
 11
8.873604690913104
 21
21.93428138578499
 31
0.0
  0
LINE
  5
654
330
1F
100
AcDbEntity
  8
LINE_CENTER
100
AcDbLine
 10
8.873604690913104
 20
19.07683138578499
 30
0.0
 11
8.873604690913104
 21
21.93428138578499
 31
0.0
  0
LINE
  5
655
330
1F
100
AcDbEntity
  8
LINE_CENTER
100
AcDbLine
 10
23.25501603052529
 20
21.93428138578499
 30
0.0
 11
20.39756603052529
 21
21.93428138578499
 31
0.0
  0
LINE
  5
656
330
1F
100
AcDbEntity
  8
LINE_CENTER
100
AcDbLine
 10
20.39756603052529
 20
24.79173138578499
 30
0.0
 11
20.39756603052529
 21
21.93428138578499
 31
0.0
  0
LINE
  5
657
330
1F
100
AcDbEntity
  8
LINE_CENTER
100
AcDbLine
 10
17.54011603052529
 20
21.93428138578499
 30
0.0
 11
20.39756603052529
 21
21.93428138578499
 31
0.0
  0
LINE
  5
658
330
1F
100
AcDbEntity
  8
LINE_CENTER
100
AcDbLine
 10
20.39756603052529
 20
19.07683138578499
 30
0.0
 11
20.39756603052529
 21
21.93428138578499
 31
0.0
  0
INSERT
  5
68F
330
1F
100
AcDbEntity
  8
0
100
AcDbBlockReference
  2
Notice
 10
9.007706621654845
 20
13.99139222395027
 30
0.0
 41
2.244886320774618
 42
2.244886320774618
 43
2.244886320774618
  0
INSERT
  5
6FE
330
1F
100
AcDbEntity
  8
0
100
AcDbBlockReference
  2
HD logo-new
 10
16.56095242766241
 20
13.93066259988286
 30
0.0
 41
0.0444531821840357
 42
0.0444531821840357
 43
0.0444531821840357
  0
INSERT
  5
708
330
1F
100
AcDbEntity
  8
0
100
AcDbBlockReference
  2
HD LLC
 10
21.34561583707168
 20
13.68843765464138
 30
0.0
 41
0.0443623187314004
 42
0.0443623187314004
 43
0.0443623187314004
  0
ENDSEC
  0
SECTION
  2
OBJECTS
  0
DICTIONARY
  5
C
330
0
100
AcDbDictionary
281
     1
  3
ACAD_GROUP
350
D
  3
ACAD_LAYOUT
350
1A
  3
ACAD_MLINESTYLE
350
17
  3
ACAD_PLOTSETTINGS
350
19
  3
ACAD_PLOTSTYLENAME
350
E
  3
AcDbVariableDictionary
350
62D
  0
DICTIONARY
  5
D
102
{ACAD_REACTORS
330
C
102
}
330
C
100
AcDbDictionary
281
     1
  0
DICTIONARY
  5
1A
102
{ACAD_REACTORS
330
C
102
}
330
C
100
AcDbDictionary
281
     1
  3
Layout1
350
1E
  3
Layout2
350
26
  3
Model
350
22
  0
DICTIONARY
  5
17
102
{ACAD_REACTORS
330
C
102
}
330
C
100
AcDbDictionary
281
     1
  3
Standard
350
18
  0
DICTIONARY
  5
19
102
{ACAD_REACTORS
330
C
102
}
330
C
100
AcDbDictionary
281
     1
  0
ACDBDICTIONARYWDFLT
  5
E
102
{ACAD_REACTORS
330
C
102
}
330
C
100
AcDbDictionary
281
     1
  3
Normal
350
F
100
AcDbDictionaryWithDefault
340
F
  0
DICTIONARY
  5
62D
102
{ACAD_REACTORS
330
C
102
}
330
C
100
AcDbDictionary
281
     1
  3
DIMASSOC
350
62F
  3
HIDETEXT
350
62E
  0
LAYOUT
  5
1E
102
{ACAD_REACTORS
330
1A
102
}
330
1A
100
AcDbPlotSettings
  1

  2
\\HARMONIC-NT2\8100 Engineering
  4

  6

 40
0.0
 41
0.0
 42
0.0
 43
0.0
 44
0.0
 45
0.0
 46
0.0
 47
0.0
 48
0.0
 49
0.0
140
0.0
141
0.0
142
1.0
143
1.0
 70
   688
 72
     0
 73
     0
 74
     5
  7

 75
    16
147
1.0
148
0.0
149
0.0
100
AcDbLayout
  1
Layout1
 70
     1
 71
     1
 10
0.0
 20
0.0
 11
12.0
 21
9.0
 12
0.0
 22
0.0
 32
0.0
 14
1.000000000000000E+20
 24
1.000000000000000E+20
 34
1.000000000000000E+20
 15
-1.000000000000000E+20
 25
-1.000000000000000E+20
 35
-1.000000000000000E+20
146
0.0
 13
0.0
 23
0.0
 33
0.0
 16
1.0
 26
0.0
 36
0.0
 17
0.0
 27
1.0
 37
0.0
 76
     0
330
1B
  0
LAYOUT
  5
26
102
{ACAD_REACTORS
330
1A
102
}
330
1A
100
AcDbPlotSettings
  1

  2
\\HARMONIC-NT2\8100 Engineering
  4

  6

 40
0.0
 41
0.0
 42
0.0
 43
0.0
 44
0.0
 45
0.0
 46
0.0
 47
0.0
 48
0.0
 49
0.0
140
0.0
141
0.0
142
1.0
143
1.0
 70
   688
 72
     0
 73
     0
 74
     5
  7

 75
    16
147
1.0
148
0.0
149
0.0
100
AcDbLayout
  1
Layout2
 70
     1
 71
     2
 10
0.0
 20
0.0
 11
12.0
 21
9.0
 12
0.0
 22
0.0
 32
0.0
 14
0.0
 24
0.0
 34
0.0
 15
0.0
 25
0.0
 35
0.0
146
0.0
 13
0.0
 23
0.0
 33
0.0
 16
1.0
 26
0.0
 36
0.0
 17
0.0
 27
1.0
 37
0.0
 76
     0
330
23
  0
LAYOUT
  5
22
102
{ACAD_REACTORS
330
1A
102
}
330
1A
100
AcDbPlotSettings
  1

  2
\\HARMONIC-NT2\8100 Engineering
  4

  6

 40
0.0
 41
0.0
 42
0.0
 43
0.0
 44
0.0
 45
0.0
 46
0.0
 47
0.0
 48
0.0
 49
0.0
140
0.0
141
0.0
142
1.0
143
1.0
 70
  1712
 72
     0
 73
     0
 74
     0
  7

 75
     0
147
1.0
148
0.0
149
0.0
100
AcDbLayout
  1
Model
 70
     1
 71
     0
 10
0.0
 20
0.0
 11
12.0
 21
9.0
 12
0.0
 22
0.0
 32
0.0
 14
0.0
 24
0.0
 34
0.0
 15
0.0
 25
0.0
 35
0.0
146
0.0
 13
0.0
 23
0.0
 33
0.0
 16
1.0
 26
0.0
 36
0.0
 17
0.0
 27
1.0
 37
0.0
 76
     0
330
1F
  0
MLINESTYLE
  5
18
102
{ACAD_REACTORS
330
17
102
}
330
17
100
AcDbMlineStyle
  2
STANDARD
 70
     0
  3

 62
   256
 51
90.0
 52
90.0
 71
     2
 49
0.5
 62
   256
  6
BYLAYER
 49
-0.5
 62
   256
  6
BYLAYER
  0
ACDBPLACEHOLDER
  5
F
102
{ACAD_REACTORS
330
E
102
}
330
E
  0
DICTIONARYVAR
  5
62F
102
{ACAD_REACTORS
330
62D
102
}
330
62D
100
DictionaryVariables
280
     0
  1
2
  0
DICTIONARYVAR
  5
62E
102
{ACAD_REACTORS
330
62D
102
}
330
62D
100
DictionaryVariables
280
     0
  1
1
  0
ENDSEC
  0
EOF
