  0
SECTION
  2
HEADER
  9
$ACADVER
  1
AC1015
  9
$ACADMAINTVER
 70
    13
  9
$DWGCODEPAGE
  3
ANSI_1252
  9
$INSBASE
 10
0.0
 20
0.0
 30
0.0
  9
$EXTMIN
 10
-87.90487000842086
 20
-154.2612679793185
 30
0.0
  9
$EXTMAX
 10
240.2146518219863
 20
46.3939861081722
 30
0.0
  9
$LIMMIN
 10
-75.8150388799341
 20
-81.3220869240971
  9
$LIMMAX
 10
162.5596500450018
 20
46.39398610817218
  9
$ORTHOMODE
 70
     0
  9
$REGENMODE
 70
     1
  9
$FILLMODE
 70
     1
  9
$QTEXTMODE
 70
     0
  9
$MIRRTEXT
 70
     1
  9
$LTSCALE
 40
1.0
  9
$ATTMODE
 70
     1
  9
$TEXTSIZE
 40
3.5
  9
$TRACEWID
 40
0.5
  9
$TEXTSTYLE
  7
STANDARD
  9
$CLAYER
  8
0
  9
$CELTYPE
  6
BYLAYER
  9
$CECOLOR
 62
   256
  9
$CELTSCALE
 40
1.0
  9
$DISPSILH
 70
     0
  9
$DIMSCALE
 40
1.0
  9
$DIMASZ
 40
0.18
  9
$DIMEXO
 40
0.0625
  9
$DIMDLI
 40
0.38
  9
$DIMRND
 40
0.0
  9
$DIMDLE
 40
0.0
  9
$DIMEXE
 40
0.18
  9
$DIMTP
 40
0.0
  9
$DIMTM
 40
0.0
  9
$DIMTXT
 40
0.18
  9
$DIMCEN
 40
0.09
  9
$DIMTSZ
 40
0.0
  9
$DIMTOL
 70
     0
  9
$DIMLIM
 70
     0
  9
$DIMTIH
 70
     1
  9
$DIMTOH
 70
     1
  9
$DIMSE1
 70
     0
  9
$DIMSE2
 70
     0
  9
$DIMTAD
 70
     0
  9
$DIMZIN
 70
     0
  9
$DIMBLK
  1

  9
$DIMASO
 70
     1
  9
$DIMSHO
 70
     1
  9
$DIMPOST
  1

  9
$DIMAPOST
  1

  9
$DIMALT
 70
     0
  9
$DIMALTD
 70
     2
  9
$DIMALTF
 40
25.4
  9
$DIMLFAC
 40
1.0
  9
$DIMTOFL
 70
     0
  9
$DIMTVP
 40
0.0
  9
$DIMTIX
 70
     0
  9
$DIMSOXD
 70
     0
  9
$DIMSAH
 70
     0
  9
$DIMBLK1
  1

  9
$DIMBLK2
  1

  9
$DIMSTYLE
  2
STANDARD
  9
$DIMCLRD
 70
     0
  9
$DIMCLRE
 70
     0
  9
$DIMCLRT
 70
     0
  9
$DIMTFAC
 40
1.0
  9
$DIMGAP
 40
0.09
  9
$DIMJUST
 70
     0
  9
$DIMSD1
 70
     0
  9
$DIMSD2
 70
     0
  9
$DIMTOLJ
 70
     1
  9
$DIMTZIN
 70
     0
  9
$DIMALTZ
 70
     0
  9
$DIMALTTZ
 70
     0
  9
$DIMUPT
 70
     0
  9
$DIMDEC
 70
     4
  9
$DIMTDEC
 70
     4
  9
$DIMALTU
 70
     2
  9
$DIMALTTD
 70
     2
  9
$DIMTXSTY
  7
STANDARD
  9
$DIMAUNIT
 70
     0
  9
$DIMADEC
 70
     0
  9
$DIMALTRND
 40
0.0
  9
$DIMAZIN
 70
     0
  9
$DIMDSEP
 70
    46
  9
$DIMATFIT
 70
     3
  9
$DIMFRAC
 70
     0
  9
$DIMLDRBLK
  1

  9
$DIMLUNIT
 70
     2
  9
$DIMLWD
 70
    -2
  9
$DIMLWE
 70
    -2
  9
$DIMTMOVE
 70
     0
  9
$LUNITS
 70
     2
  9
$LUPREC
 70
     4
  9
$SKETCHINC
 40
0.1
  9
$FILLETRAD
 40
2.0
  9
$AUNITS
 70
     0
  9
$AUPREC
 70
     0
  9
$MENU
  1
ACAD
  9
$ELEVATION
 40
0.0
  9
$PELEVATION
 40
0.0
  9
$THICKNESS
 40
0.0
  9
$LIMCHECK
 70
     0
  9
$CHAMFERA
 40
0.0
  9
$CHAMFERB
 40
0.0
  9
$CHAMFERC
 40
0.0
  9
$CHAMFERD
 40
0.0
  9
$SKPOLY
 70
     0
  9
$TDCREATE
 40
2453837.530979456
  9
$TDUCREATE
 40
2453837.697646123
  9
$TDUPDATE
 40
2453867.625378321
  9
$TDUUPDATE
 40
2453867.792044988
  9
$TDINDWG
 40
0.0059002431
  9
$TDUSRTIMER
 40
0.0059002431
  9
$USRTIMER
 70
     1
  9
$ANGBASE
 50
0.0
  9
$ANGDIR
 70
     0
  9
$PDMODE
 70
     0
  9
$PDSIZE
 40
0.0
  9
$PLINEWID
 40
0.0
  9
$SPLFRAME
 70
     0
  9
$SPLINETYPE
 70
     6
  9
$SPLINESEGS
 70
     8
  9
$HANDSEED
  5
51B
  9
$SURFTAB1
 70
     6
  9
$SURFTAB2
 70
     6
  9
$SURFTYPE
 70
     6
  9
$SURFU
 70
     6
  9
$SURFV
 70
     6
  9
$UCSBASE
  2

  9
$UCSNAME
  2

  9
$UCSORG
 10
0.0
 20
0.0
 30
0.0
  9
$UCSXDIR
 10
1.0
 20
0.0
 30
0.0
  9
$UCSYDIR
 10
0.0
 20
1.0
 30
0.0
  9
$UCSORTHOREF
  2

  9
$UCSORTHOVIEW
 70
     0
  9
$UCSORGTOP
 10
0.0
 20
0.0
 30
0.0
  9
$UCSORGBOTTOM
 10
0.0
 20
0.0
 30
0.0
  9
$UCSORGLEFT
 10
0.0
 20
0.0
 30
0.0
  9
$UCSORGRIGHT
 10
0.0
 20
0.0
 30
0.0
  9
$UCSORGFRONT
 10
0.0
 20
0.0
 30
0.0
  9
$UCSORGBACK
 10
0.0
 20
0.0
 30
0.0
  9
$PUCSBASE
  2

  9
$PUCSNAME
  2

  9
$PUCSORG
 10
0.0
 20
0.0
 30
0.0
  9
$PUCSXDIR
 10
1.0
 20
0.0
 30
0.0
  9
$PUCSYDIR
 10
0.0
 20
1.0
 30
0.0
  9
$PUCSORTHOREF
  2

  9
$PUCSORTHOVIEW
 70
     0
  9
$PUCSORGTOP
 10
0.0
 20
0.0
 30
0.0
  9
$PUCSORGBOTTOM
 10
0.0
 20
0.0
 30
0.0
  9
$PUCSORGLEFT
 10
0.0
 20
0.0
 30
0.0
  9
$PUCSORGRIGHT
 10
0.0
 20
0.0
 30
0.0
  9
$PUCSORGFRONT
 10
0.0
 20
0.0
 30
0.0
  9
$PUCSORGBACK
 10
0.0
 20
0.0
 30
0.0
  9
$USERI1
 70
     0
  9
$USERI2
 70
     0
  9
$USERI3
 70
     0
  9
$USERI4
 70
     0
  9
$USERI5
 70
     0
  9
$USERR1
 40
0.0
  9
$USERR2
 40
0.0
  9
$USERR3
 40
0.0
  9
$USERR4
 40
0.0
  9
$USERR5
 40
0.0
  9
$WORLDVIEW
 70
     1
  9
$SHADEDGE
 70
     3
  9
$SHADEDIF
 70
    70
  9
$TILEMODE
 70
     1
  9
$MAXACTVP
 70
    64
  9
$PINSBASE
 10
0.0
 20
0.0
 30
0.0
  9
$PLIMCHECK
 70
     0
  9
$PEXTMIN
 10
1.000000000000000E+20
 20
1.000000000000000E+20
 30
1.000000000000000E+20
  9
$PEXTMAX
 10
-1.000000000000000E+20
 20
-1.000000000000000E+20
 30
-1.000000000000000E+20
  9
$PLIMMIN
 10
0.0
 20
0.0
  9
$PLIMMAX
 10
12.0
 20
9.0
  9
$UNITMODE
 70
     0
  9
$VISRETAIN
 70
     1
  9
$PLINEGEN
 70
     0
  9
$PSLTSCALE
 70
     1
  9
$TREEDEPTH
 70
  3020
  9
$CMLSTYLE
  2
STANDARD
  9
$CMLJUST
 70
     0
  9
$CMLSCALE
 40
1.0
  9
$PROXYGRAPHICS
 70
     1
  9
$MEASUREMENT
 70
     0
  9
$CELWEIGHT
370
    -1
  9
$ENDCAPS
280
     0
  9
$JOINSTYLE
280
     0
  9
$LWDISPLAY
290
     0
  9
$INSUNITS
 70
     0
  9
$HYPERLINKBASE
  1

  9
$STYLESHEET
  1

  9
$XEDIT
290
     1
  9
$CEPSNTYPE
380
     0
  9
$PSTYLEMODE
290
     1
  9
$FINGERPRINTGUID
  2
{F8033978-34CA-496C-BCF7-70D6E0024D0C}
  9
$VERSIONGUID
  2
{37E5F22C-4557-41F9-8E81-6E2AABD6CA2D}
  9
$EXTNAMES
290
     1
  9
$PSVPSCALE
 40
0.0
  9
$OLESTARTUP
290
     0
  0
ENDSEC
  0
SECTION
  2
CLASSES
  0
CLASS
  1
ACDBDICTIONARYWDFLT
  2
AcDbDictionaryWithDefault
  3
AutoCAD 2000
 90
        0
280
     0
281
     0
  0
CLASS
  1
ACDBPLACEHOLDER
  2
AcDbPlaceHolder
  3
AutoCAD 2000
 90
        0
280
     0
281
     0
  0
CLASS
  1
LAYOUT
  2
AcDbLayout
  3
AutoCAD 2000
 90
        0
280
     0
281
     0
  0
CLASS
  1
DICTIONARYVAR
  2
AcDbDictionaryVar
  3
AutoCAD 2000
 90
        0
280
     0
281
     0
  0
CLASS
  1
LONG_TRANSACTION
  2
AcDbLongTransaction
  3
AutoCAD 2000
 90
    32768
280
     0
281
     0
  0
CLASS
  1
LWPOLYLINE
  2
AcDbPolyline
  3
AutoCAD 2000
 90
    32768
280
     0
281
     1
  0
CLASS
  1
HATCH
  2
AcDbHatch
  3
AutoCAD 2000
 90
    32768
280
     0
281
     1
  0
CLASS
  1
XRECORD
  2
AcDbXrecord
  3
AutoCAD 2000
 90
    32768
280
     0
281
     0
  0
ENDSEC
  0
SECTION
  2
TABLES
  0
TABLE
  2
VPORT
  5
8
330
0
100
AcDbSymbolTable
 70
     2
  0
VPORT
  5
51A
330
8
100
AcDbSymbolTableRecord
100
AcDbViewportTableRecord
  2
*Active
 70
     0
 10
0.0
 20
0.0
 11
1.0
 21
1.0
 12
50.7697731123531
 22
-19.40538054236651
 13
0.0
 23
0.0
 14
1.0
 24
1.0
 15
0.0
 25
0.0
 16
0.0
 26
0.0
 36
1.0
 17
0.0
 27
0.0
 37
0.0
 40
240.9138218826112
 41
1.215864759427828
 42
50.0
 43
0.0
 44
0.0
 50
0.0
 51
0.0
 71
     0
 72
   100
 73
     1
 74
     1
 75
     0
 76
     0
 77
     0
 78
     0
281
     0
 65
     1
110
0.0
120
0.0
130
0.0
111
1.0
121
0.0
131
0.0
112
0.0
122
1.0
132
0.0
 79
     0
146
0.0
  0
ENDTAB
  0
TABLE
  2
LTYPE
  5
5
330
0
100
AcDbSymbolTable
 70
     9
  0
LTYPE
  5
13
330
5
100
AcDbSymbolTableRecord
100
AcDbLinetypeTableRecord
  2
BYBLOCK
 70
     0
  3

 72
    65
 73
     0
 40
0.0
  0
LTYPE
  5
14
330
5
100
AcDbSymbolTableRecord
100
AcDbLinetypeTableRecord
  2
BYLAYER
 70
     0
  3

 72
    65
 73
     0
 40
0.0
  0
LTYPE
  5
15
330
5
100
AcDbSymbolTableRecord
100
AcDbLinetypeTableRecord
  2
CONTINUOUS
 70
     0
  3
Solid line
 72
    65
 73
     0
 40
0.0
  0
LTYPE
  5
22
330
5
100
AcDbSymbolTableRecord
100
AcDbLinetypeTableRecord
  2
BORDER
 70
     0
  3
__ __ . __ __ .
 72
    65
 73
     6
 40
10.97778172680625
 49
3.136509064801788
 74
     0
 49
-1.568254532400894
 74
     0
 49
3.136509064801788
 74
     0
 49
-1.568254532400894
 74
     0
 49
0.0
 74
     0
 49
-1.568254532400894
 74
     0
  0
LTYPE
  5
23
330
5
100
AcDbSymbolTableRecord
100
AcDbLinetypeTableRecord
  2
CENTER
 70
     0
  3
____ _ ____ _
 72
    65
 73
     4
 40
12.54603625920715
 49
7.841272662004471
 74
     0
 49
-1.568254532400894
 74
     0
 49
1.568254532400894
 74
     0
 49
-1.568254532400894
 74
     0
  0
LTYPE
  5
24
330
5
100
AcDbSymbolTableRecord
100
AcDbLinetypeTableRecord
  2
DASHDOT
 70
     0
  3
__ . __ . __ .
 72
    65
 73
     4
 40
6.273018129603576
 49
3.136509064801788
 74
     0
 49
-1.568254532400894
 74
     0
 49
0.0
 74
     0
 49
-1.568254532400894
 74
     0
  0
LTYPE
  5
25
330
5
100
AcDbSymbolTableRecord
100
AcDbLinetypeTableRecord
  2
DASHED
 70
     0
  3
__ __ __ __ __
 72
    65
 73
     2
 40
4.704763597202681
 49
3.136509064801788
 74
     0
 49
-1.568254532400894
 74
     0
  0
LTYPE
  5
26
330
5
100
AcDbSymbolTableRecord
100
AcDbLinetypeTableRecord
  2
DIVIDE
 70
     0
  3
__ . . __ . . 
 72
    65
 73
     6
 40
7.841272662004471
 49
3.136509064801788
 74
     0
 49
-1.568254532400894
 74
     0
 49
0.0
 74
     0
 49
-1.568254532400894
 74
     0
 49
0.0
 74
     0
 49
-1.568254532400894
 74
     0
  0
LTYPE
  5
27
330
5
100
AcDbSymbolTableRecord
100
AcDbLinetypeTableRecord
  2
DOT
 70
     0
  3
..............
 72
    65
 73
     4
 40
3.136509064801788
 49
0.0
 74
     0
 49
-1.568254532400894
 74
     0
 49
0.0
 74
     0
 49
-1.568254532400894
 74
     0
  0
LTYPE
  5
28
330
5
100
AcDbSymbolTableRecord
100
AcDbLinetypeTableRecord
  2
HIDDEN
 70
     0
  3
_ _ _ _ _ _ _
 72
    65
 73
     2
 40
2.352381798601339
 49
1.568254532400894
 74
     0
 49
-0.7841272662004472
 74
     0
  0
LTYPE
  5
29
330
5
100
AcDbSymbolTableRecord
100
AcDbLinetypeTableRecord
  2
PHANTOM
 70
     0
  3
_____ _ _ _____ _ _ 
 72
    65
 73
     6
 40
15.68254532400894
 49
7.841272662004471
 74
     0
 49
-1.568254532400894
 74
     0
 49
1.568254532400894
 74
     0
 49
-1.568254532400894
 74
     0
 49
1.568254532400894
 74
     0
 49
-1.568254532400894
 74
     0
  0
ENDTAB
  0
TABLE
  2
LAYER
  5
2
330
0
100
AcDbSymbolTable
 70
     3
  0
LAYER
  5
10
330
2
100
AcDbSymbolTableRecord
100
AcDbLayerTableRecord
  2
0
 70
     0
 62
     7
  6
CONTINUOUS
370
    -3
390
F
  0
LAYER
  5
2A
330
2
100
AcDbSymbolTableRecord
100
AcDbLayerTableRecord
  2
1
 70
     0
 62
     7
  6
CONTINUOUS
370
    -3
390
F
  0
LAYER
  5
507
330
2
100
AcDbSymbolTableRecord
100
AcDbLayerTableRecord
  2
LAYER_1
 70
     0
 62
     5
  6
CONTINUOUS
370
    -3
390
F
  0
ENDTAB
  0
TABLE
  2
STYLE
  5
3
330
0
100
AcDbSymbolTable
 70
     4
  0
STYLE
  5
11
330
3
100
AcDbSymbolTableRecord
100
AcDbTextStyleTableRecord
  2
STANDARD
 70
     0
 40
0.0
 41
1.0
 50
0.0
 71
     0
 42
3.5
  3
txt
  4

  0
STYLE
  5
2B
330
3
100
AcDbSymbolTableRecord
100
AcDbTextStyleTableRecord
  2
SIMPLEX
 70
     0
 40
0.0
 41
1.0
 50
0.0
 71
     0
 42
3.5
  3
simplex
  4

  0
STYLE
  5
2C
330
3
100
AcDbSymbolTableRecord
100
AcDbTextStyleTableRecord
  2
COMPLEX
 70
     0
 40
0.0
 41
1.0
 50
0.0
 71
     0
 42
3.5
  3
complex
  4

  0
STYLE
  5
2D
330
3
100
AcDbSymbolTableRecord
100
AcDbTextStyleTableRecord
  2
ITALIC
 70
     0
 40
0.0
 41
1.0
 50
0.0
 71
     0
 42
3.5
  3
italic
  4

  0
ENDTAB
  0
TABLE
  2
VIEW
  5
6
330
0
100
AcDbSymbolTable
 70
     0
  0
ENDTAB
  0
TABLE
  2
UCS
  5
7
330
0
100
AcDbSymbolTable
 70
     0
  0
ENDTAB
  0
TABLE
  2
APPID
  5
9
330
0
100
AcDbSymbolTable
 70
     2
  0
APPID
  5
12
330
9
100
AcDbSymbolTableRecord
100
AcDbRegAppTableRecord
  2
ACAD
 70
     0
  0
APPID
  5
496
330
9
100
AcDbSymbolTableRecord
100
AcDbRegAppTableRecord
  2
CONTENTBLOCKICON
 70
     0
  0
ENDTAB
  0
TABLE
  2
DIMSTYLE
  5
A
330
0
100
AcDbSymbolTable
 70
     1
100
AcDbDimStyleTable
 71
     0
  0
DIMSTYLE
105
463
330
A
100
AcDbSymbolTableRecord
100
AcDbDimStyleTableRecord
  2
STANDARD
 70
     0
340
11
  0
ENDTAB
  0
TABLE
  2
BLOCK_RECORD
  5
1
330
0
100
AcDbSymbolTable
 70
    19
  0
BLOCK_RECORD
  5
1E
102
{ACAD_XDICTIONARY
360
494
102
}
330
1
100
AcDbSymbolTableRecord
100
AcDbBlockTableRecord
  2
*MODEL_SPACE
340
49A
  0
BLOCK_RECORD
  5
1A
102
{ACAD_XDICTIONARY
360
492
102
}
330
1
100
AcDbSymbolTableRecord
100
AcDbBlockTableRecord
  2
*PAPER_SPACE
340
49B
  0
BLOCK_RECORD
  5
464
330
1
100
AcDbSymbolTableRecord
100
AcDbBlockTableRecord
  2
HARMONIC_DRIVE_LLC
340
0
310
2800000020000000200000000100080000000000000400000000000000000000000000000000000000000000000080000080000000808000800000008000800080800000C0C0C000C0DCC000F0CAA6000020400000206000002080000020A0000020C0000020E00000400000004020000040400000406000004080000040A0
310
000040C0000040E00000600000006020000060400000606000006080000060A0000060C0000060E00000800000008020000080400000806000008080000080A0000080C0000080E00000A0000000A0200000A0400000A0600000A0800000A0A00000A0C00000A0E00000C0000000C0200000C0400000C0600000C0800000C0
310
A00000C0C00000C0E00000E0000000E0200000E0400000E0600000E0800000E0A00000E0C00000E0E00040000000400020004000400040006000400080004000A0004000C0004000E00040200000402020004020400040206000402080004020A0004020C0004020E000404000004040200040404000404060004040800040
310
40A0004040C0004040E00040600000406020004060400040606000406080004060A0004060C0004060E00040800000408020004080400040806000408080004080A0004080C0004080E00040A0000040A0200040A0400040A0600040A0800040A0A00040A0C00040A0E00040C0000040C0200040C0400040C0600040C08000
310
40C0A00040C0C00040C0E00040E0000040E0200040E0400040E0600040E0800040E0A00040E0C00040E0E00080000000800020008000400080006000800080008000A0008000C0008000E00080200000802020008020400080206000802080008020A0008020C0008020E00080400000804020008040400080406000804080
310
008040A0008040C0008040E00080600000806020008060400080606000806080008060A0008060C0008060E00080800000808020008080400080806000808080008080A0008080C0008080E00080A0000080A0200080A0400080A0600080A0800080A0A00080A0C00080A0E00080C0000080C0200080C0400080C0600080C0
310
800080C0A00080C0C00080C0E00080E0000080E0200080E0400080E0600080E0800080E0A00080E0C00080E0E000C0000000C0002000C0004000C0006000C0008000C000A000C000C000C000E000C0200000C0202000C0204000C0206000C0208000C020A000C020C000C020E000C0400000C0402000C0404000C0406000C0
310
408000C040A000C040C000C040E000C0600000C0602000C0604000C0606000C0608000C060A000C060C000C060E000C0800000C0802000C0804000C0806000C0808000C080A000C080C000C080E000C0A00000C0A02000C0A04000C0A06000C0A08000C0A0A000C0A0C000C0A0E000C0C00000C0C02000C0C04000C0C06000
310
C0C08000C0C0A000F0FBFF00A4A0A000808080000000FF0000FF000000FFFF00FF000000FF00FF00FFFF0000FFFFFF00FFFFFFFFFFFFFFFFFFFFFFFFFFFFFFFFFFFFFFFFFFFFFFFFFFFFFFFFFFFFFFFFFFFFFFFFFFFFFFFFFFFFFFFFFFFFFFFFFFFFFFFFFFFFFFFFFFFFFFFFFFFFFFFFFFFFFFFFFFFFFFFFFFFFFFFFFFFFFF
310
FFFFFFFFFFFFFFFFFFFFFFFFFFFFFFFFFFFFFFFFFFFFFFFFFFFFFFFFFFFFFFFFFFFFFFFFFFFFFFFFFFFFFFFFFFFFFFFFFFFFFFFFFFFFFFFFFFFFFFFFFFFFFFFFFFFFFFFFFFFFFFFFFFFFFFFFFFFFFFFFFFFFFFFFFFFFFFFFFFFFFFFFFFFFFFFFFFFFFFFFFFFFFFFFFFFFFFFFFFFFFFFFFFFFFFFFFFFFFFFFFFFFFFFFFFFFFF
310
FFFFFFFFFFFFFFFFFFFFFFFFFFFFFFFFFFFFFFFFFFFFFFFFFFFFFFFFFFFFFFFFFFFFFFFFFFFFFFFFFFFFFFFFFFFFFFFFFFFFFFFFFFFFFFFFFFFFFFFFFFFFFFFFFFFFFFFFFFFFFFFFFFFFFFFFFFFFFFFFFFFFFFFFFFFFFFFFFFFFFFFFFFFFFFFFFFFFFFFFFFFFFFFFFFFFFFFFFFFFFFFFFFFFFFFFFFFFFFFFFFFFFFFFFFFFFF
310
FFFFFFFFFFFFFFFFFFFFFFFFFFFFFFFFFFFFFFFFFFFFFFFFFFFFFFFFFFFFFFFFFFFFFFFFFFFFFFFFFFFFFFFFFFFFFFFFFFFFFFFFFFFFFFFFFFFFFFFFFFFFFFFFFFFFFFFFFFFFFFFFFFFFFFFFFFFFFFFFFFFFFFFFFFFF0000000000000000000000000000000000000000000000000000FFFFFFFFFFFFFFFFFFFFFF00FFFFFF
310
FFFFFFFF00FFFF0000FFFFFFFFFFFF00FFFFFFFFFFFFFFFFFFFFFFFF00000000000000000000000000000000FFFFFFFFFFFFFFFFFFFFFFFFFFFFFFFF00000000FF00000000FF000000000000FFFFFFFFFFFFFFFFFFFFFFFF0000000000000000000000FF000000000000FF0000000000FFFFFFFFFFFFFFFF00000000000000
310
00000000FF000000000000FF0000FF0000FFFFFFFFFFFFFFFFFFFFFFFFFFFFFFFFFFFFFFFFFFFFFFFFFFFFFFFFFFFFFFFFFFFFFFFFFFFFFFFFFFFFFFFFFFFFFFFFFFFFFFFFFFFFFFFFFFFFFFFFFFFFFFFFFFFFFFFFFFFFFFFFFFFFFFFFFFFFFFFFFFFFFFFFFFFFFFFFFFFFFFFFFFFFFFFFFFFFFFFFFFFFFFFFFFFFFFFFFFFF
310
FFFFFFFFFFFFFFFFFFFFFFFFFFFFFFFFFFFFFFFFFFFFFFFFFFFFFFFFFFFFFFFFFFFFFFFFFFFFFFFFFFFFFFFFFFFFFFFFFFFFFFFFFFFFFFFFFFFFFFFFFFFFFFFFFFFFFFFFFFFFFFFFFFFFFFFFFFFFFFFFFFFFFFFFFFFFFFFFFFFFFFFFFFFFFFFFFFFFFFFFFFFFFFFFFFFFFFFFFFFFFFFFFFFFFFFFFFFFFFFFFFFFFFFFFFFFFF
310
FFFFFFFFFFFFFFFFFFFFFFFFFFFFFFFFFFFFFFFFFFFFFFFFFFFFFFFFFFFFFFFFFFFFFFFFFFFFFFFFFFFFFFFFFFFFFFFFFFFFFFFFFFFFFFFFFFFFFFFFFFFFFFFFFFFFFFFFFFFFFFFFFFFFFFFFFFFFFFFFFFFFFFFFFFFFFFFFFFFFFFFFFFFFFFFFFFFFFFFFFFFFFFFFFFFFFFFFFFFFFFFFFFFFFFFFFFFFFFFFFFFFFFFFFFFFFF
310
FFFFFFFFFFFFFFFFFFFFFFFFFFFFFFFFFFFFFFFFFFFFFFFFFFFFFFFFFFFFFFFFFFFFFFFFFFFFFFFFFFFFFFFFFFFFFFFFFFFFFFFFFFFFFFFF
102
{BLKREFS
331
46D
102
}
  0
BLOCK_RECORD
  5
49F
330
1
100
AcDbSymbolTableRecord
100
AcDbBlockTableRecord
  2
AI9-BLK14
340
0
310
2800000020000000200000000100080000000000000400000000000000000000000000000000000000000000000080000080000000808000800000008000800080800000C0C0C000C0DCC000F0CAA6000020400000206000002080000020A0000020C0000020E00000400000004020000040400000406000004080000040A0
310
000040C0000040E00000600000006020000060400000606000006080000060A0000060C0000060E00000800000008020000080400000806000008080000080A0000080C0000080E00000A0000000A0200000A0400000A0600000A0800000A0A00000A0C00000A0E00000C0000000C0200000C0400000C0600000C0800000C0
310
A00000C0C00000C0E00000E0000000E0200000E0400000E0600000E0800000E0A00000E0C00000E0E00040000000400020004000400040006000400080004000A0004000C0004000E00040200000402020004020400040206000402080004020A0004020C0004020E000404000004040200040404000404060004040800040
310
40A0004040C0004040E00040600000406020004060400040606000406080004060A0004060C0004060E00040800000408020004080400040806000408080004080A0004080C0004080E00040A0000040A0200040A0400040A0600040A0800040A0A00040A0C00040A0E00040C0000040C0200040C0400040C0600040C08000
310
40C0A00040C0C00040C0E00040E0000040E0200040E0400040E0600040E0800040E0A00040E0C00040E0E00080000000800020008000400080006000800080008000A0008000C0008000E00080200000802020008020400080206000802080008020A0008020C0008020E00080400000804020008040400080406000804080
310
008040A0008040C0008040E00080600000806020008060400080606000806080008060A0008060C0008060E00080800000808020008080400080806000808080008080A0008080C0008080E00080A0000080A0200080A0400080A0600080A0800080A0A00080A0C00080A0E00080C0000080C0200080C0400080C0600080C0
310
800080C0A00080C0C00080C0E00080E0000080E0200080E0400080E0600080E0800080E0A00080E0C00080E0E000C0000000C0002000C0004000C0006000C0008000C000A000C000C000C000E000C0200000C0202000C0204000C0206000C0208000C020A000C020C000C020E000C0400000C0402000C0404000C0406000C0
310
408000C040A000C040C000C040E000C0600000C0602000C0604000C0606000C0608000C060A000C060C000C060E000C0800000C0802000C0804000C0806000C0808000C080A000C080C000C080E000C0A00000C0A02000C0A04000C0A06000C0A08000C0A0A000C0A0C000C0A0E000C0C00000C0C02000C0C04000C0C06000
310
C0C08000C0C0A000F0FBFF00A4A0A000808080000000FF0000FF000000FFFF00FF000000FF00FF00FFFF0000FFFFFF00FF00FFFFFFFF00FFFFFFFFFFFFFFFFFFFFFFFFFFFFFFFFFFFFFFFFFFFFFFFFFFFF00FFFFFFFF00FFFFFFFFFFFFFFFFFFFFFFFFFFFFFFFFFFFFFFFFFFFFFFFFFFFF00FFFFFFFF00FFFFFFFFFFFFFFFF
310
FFFFFFFFFFFFFFFFFFFFFFFFFFFFFFFFFFFF00FFFFFFFF00FFFFFFFFFFFFFFFFFFFFFFFFFFFFFFFFFFFFFFFFFFFFFFFFFFFF00FFFFFFFF00FFFFFFFFFFFFFFFFFFFFFFFFFFFFFFFFFFFFFFFFFFFFFFFFFFFF00FFFFFFFF00FFFFFFFFFFFFFFFFFFFFFFFFFFFFFFFFFFFFFFFFFFFFFFFFFFFF00FFFFFFFF00FFFFFFFFFFFFFF
310
FFFFFFFFFFFFFFFFFFFFFFFFFFFFFFFFFFFFFF00FFFFFFFF00FFFFFFFFFFFFFFFFFFFFFFFFFFFFFFFFFFFFFFFFFFFFFFFFFFFF00FFFFFFFF00FFFFFFFFFFFFFFFFFFFFFFFFFFFFFFFFFFFFFFFFFFFFFFFFFFFF00FFFFFFFF00FFFFFFFFFFFFFFFFFFFFFFFFFFFFFFFFFFFFFFFFFFFFFFFFFFFF00FFFFFFFF00FFFFFFFFFFFF
310
FFFFFFFFFFFFFFFFFFFFFFFFFFFFFFFFFFFFFFFF00FFFFFFFF00FFFFFFFFFFFFFFFFFFFFFFFFFFFFFFFFFFFFFFFFFFFFFFFFFFFF00FFFFFFFF00FFFFFFFFFFFFFFFFFFFFFFFFFFFFFFFFFFFFFFFFFFFFFFFFFFFF00FFFFFFFF0000000000000000000000000000000000000000000000000000FF00FFFFFFFFFFFFFFFFFFFF
310
FFFFFFFFFFFFFFFFFFFFFFFFFFFFFFFFFFFFFFFFFF00FFFFFFFFFFFFFFFFFFFFFFFFFFFFFFFFFFFFFFFFFFFFFFFFFFFFFFFFFFFFFF00FFFFFFFFFFFFFFFFFFFFFFFFFFFFFFFFFFFFFFFFFFFFFFFFFFFFFFFFFFFFFF00FFFFFFFFFFFFFFFFFFFFFFFFFFFFFFFFFFFFFFFFFFFFFFFFFFFFFFFFFF00FF00000000000000000000
310
0000000000000000000000000000000000000000FFFFFFFFFFFFFFFFFFFFFFFFFFFFFFFFFFFFFFFFFFFFFFFFFFFFFFFFFFFFFFFFFFFFFFFFFFFFFFFFFFFFFFFFFFFFFFFFFFFFFFFFFFFFFFFFFFFFFFFFFFFFFFFFFFFFFFFFFFFFFFFFFFFFFFFFFFFFFFFFFFFFFFFFFFFFFFFFFFFFFFFFFFFFFFFFFFFFFFFFFFFFFFFFFFFFFF
310
FFFFFFFFFFFFFFFFFFFFFFFFFFFFFFFFFFFFFFFFFFFFFFFFFFFFFFFFFFFFFFFFFFFFFFFFFFFFFFFFFFFFFFFFFFFFFFFFFFFFFFFFFFFFFFFFFFFFFFFFFFFFFFFFFFFFFFFFFFFFFFFFFFFFFFFFFFFFFFFFFFFFFFFFFFFFFFFFFFFFFFFFFFFFFFFFFFFFFFFFFFFFFFFFFFFFFFFFFFFFFFFFFFFFFFFFFFFFFFFFFFFFFFFFFFFFFF
310
FFFFFFFFFFFFFFFFFFFFFFFFFFFFFFFFFFFFFFFFFFFFFFFFFFFFFFFFFFFFFFFFFFFFFFFFFFFFFFFFFFFFFFFFFFFFFFFFFFFFFFFFFFFFFFFFFFFFFFFFFFFFFFFFFFFFFFFFFFFFFFFFFFFFFFFFFFFFFFFFFFFFFFFFFFFFFFFFFFFFFFFFFFFFFFFFFFFFFFFFFFFFFFFFFFFFFFFFFFFFFFFFFFFFFFFFFFFFFFFFFFFFFFFFFFFFFF
310
FFFFFFFFFFFFFFFFFFFFFFFFFFFFFFFFFFFFFFFFFFFFFFFFFFFFFFFFFFFFFFFFFFFFFFFFFFFFFFFFFFFFFFFFFFFFFFFFFFFFFFFFFFFFFFFF
102
{BLKREFS
331
4E0
102
}
  0
BLOCK_RECORD
  5
4A4
330
1
100
AcDbSymbolTableRecord
100
AcDbBlockTableRecord
  2
AI9-BLK13
340
0
310
2800000020000000200000000100080000000000000400000000000000000000000000000000000000000000000080000080000000808000800000008000800080800000C0C0C000C0DCC000F0CAA6000020400000206000002080000020A0000020C0000020E00000400000004020000040400000406000004080000040A0
310
000040C0000040E00000600000006020000060400000606000006080000060A0000060C0000060E00000800000008020000080400000806000008080000080A0000080C0000080E00000A0000000A0200000A0400000A0600000A0800000A0A00000A0C00000A0E00000C0000000C0200000C0400000C0600000C0800000C0
310
A00000C0C00000C0E00000E0000000E0200000E0400000E0600000E0800000E0A00000E0C00000E0E00040000000400020004000400040006000400080004000A0004000C0004000E00040200000402020004020400040206000402080004020A0004020C0004020E000404000004040200040404000404060004040800040
310
40A0004040C0004040E00040600000406020004060400040606000406080004060A0004060C0004060E00040800000408020004080400040806000408080004080A0004080C0004080E00040A0000040A0200040A0400040A0600040A0800040A0A00040A0C00040A0E00040C0000040C0200040C0400040C0600040C08000
310
40C0A00040C0C00040C0E00040E0000040E0200040E0400040E0600040E0800040E0A00040E0C00040E0E00080000000800020008000400080006000800080008000A0008000C0008000E00080200000802020008020400080206000802080008020A0008020C0008020E00080400000804020008040400080406000804080
310
008040A0008040C0008040E00080600000806020008060400080606000806080008060A0008060C0008060E00080800000808020008080400080806000808080008080A0008080C0008080E00080A0000080A0200080A0400080A0600080A0800080A0A00080A0C00080A0E00080C0000080C0200080C0400080C0600080C0
310
800080C0A00080C0C00080C0E00080E0000080E0200080E0400080E0600080E0800080E0A00080E0C00080E0E000C0000000C0002000C0004000C0006000C0008000C000A000C000C000C000E000C0200000C0202000C0204000C0206000C0208000C020A000C020C000C020E000C0400000C0402000C0404000C0406000C0
310
408000C040A000C040C000C040E000C0600000C0602000C0604000C0606000C0608000C060A000C060C000C060E000C0800000C0802000C0804000C0806000C0808000C080A000C080C000C080E000C0A00000C0A02000C0A04000C0A06000C0A08000C0A0A000C0A0C000C0A0E000C0C00000C0C02000C0C04000C0C06000
310
C0C08000C0C0A000F0FBFF00A4A0A000808080000000FF0000FF000000FFFF00FF000000FF00FF00FFFF0000FFFFFF00FFFFFFFFFFFFFFFFFFFFFFFFFFFFFFFFFFFFFFFFFFFFFFFFFFFFFFFFFFFFFFFFFFFFFFFFFFFFFFFFFFFFFF0000FFFFFFFFFFFF0000FFFFFFFFFFFFFFFFFFFFFFFFFFFFFFFFFFFFFFFFFFFF0000FFFF
310
FFFFFFFF0000FFFFFFFFFFFFFFFFFFFFFFFFFFFFFFFFFFFFFFFFFFFF0000FFFFFFFFFFFF0000FFFFFFFFFFFFFFFFFFFFFFFFFFFFFFFFFFFFFFFFFFFF0000FFFFFFFFFFFF0000FFFFFFFFFFFFFFFFFFFFFFFFFFFFFFFFFFFFFFFFFFFF0000FFFFFFFFFFFF0000FFFFFFFFFFFFFFFFFFFFFFFFFFFFFFFFFFFFFFFFFFFF0000FF
310
FFFFFFFFFF0000FFFFFFFFFFFFFFFFFFFFFFFFFFFFFFFFFFFFFFFFFFFF0000FFFFFFFFFFFF0000FFFFFFFFFFFFFFFFFFFFFFFFFFFFFFFFFFFFFFFFFFFF0000FFFFFFFFFFFF0000FFFFFFFFFFFFFFFFFFFFFFFFFFFFFFFFFFFFFFFFFFFF0000FFFFFFFFFFFF0000FFFFFFFFFFFFFFFFFFFFFFFFFFFFFFFFFFFFFFFFFFFF0000
310
FFFFFFFFFFFF0000FFFFFFFFFFFFFFFFFFFFFFFFFFFFFFFFFFFFFFFFFFFF0000FFFFFFFFFFFF0000FFFFFFFFFFFFFFFFFFFFFFFFFFFFFFFFFFFFFFFFFFFF0000FFFFFFFFFFFF0000FFFFFFFFFFFFFFFFFFFFFFFFFFFFFFFFFFFFFFFFFFFF0000FFFFFFFFFFFF0000FFFFFFFFFFFFFFFFFFFFFFFFFFFFFFFFFFFFFFFFFFFF00
310
00FFFFFFFFFFFF0000FFFFFFFFFFFFFFFFFFFFFFFFFFFFFFFFFFFFFFFFFFFF00000000000000000000FFFFFFFFFFFFFFFFFFFFFFFFFFFFFFFFFFFFFFFFFFFF00FFFFFFFFFFFFFFFF00FFFFFFFFFFFFFFFFFFFFFFFFFFFFFFFFFFFFFFFFFFFF00FFFFFFFFFFFFFFFF00FFFFFFFFFFFFFFFFFFFFFFFFFFFFFFFFFFFFFFFFFFFF
310
00000000000000000000FFFFFFFFFFFFFFFFFFFFFFFFFFFFFFFFFFFFFFFFFFFF0000FFFFFFFFFFFF0000FFFFFFFFFFFFFFFFFFFFFFFFFFFFFFFFFFFFFFFFFFFF0000FFFFFFFFFFFF0000FFFFFFFFFFFFFFFFFFFFFFFFFFFFFFFFFFFFFFFFFFFF0000FFFFFFFFFFFF0000FFFFFFFFFFFFFFFFFFFFFFFFFFFFFFFFFFFFFFFFFF
310
FF0000FFFFFFFFFFFF0000FFFFFFFFFFFFFFFFFFFFFFFFFFFFFFFFFFFFFFFFFFFF0000FFFFFFFFFFFF0000FFFFFFFFFFFFFFFFFFFFFFFFFFFFFFFFFFFFFFFFFFFF0000FFFFFFFFFFFF0000FFFFFFFFFFFFFFFFFFFFFFFFFFFFFFFFFFFFFFFFFFFF0000FFFFFFFFFFFF0000FFFFFFFFFFFFFFFFFFFFFFFFFFFFFFFFFFFFFFFF
310
FFFF0000FFFFFFFFFFFF0000FFFFFFFFFFFFFFFFFFFFFFFFFFFFFFFFFFFFFFFFFFFF0000FFFFFFFFFFFF0000FFFFFFFFFFFFFFFFFFFFFFFFFFFFFFFFFFFFFFFFFFFF0000FFFFFFFFFFFF0000FFFFFFFFFFFFFFFFFFFFFFFFFFFFFFFFFFFFFFFFFFFF0000FFFFFFFFFFFF0000FFFFFFFFFFFFFFFFFFFFFFFFFFFFFFFFFFFFFF
310
FFFFFF0000FFFFFFFFFFFF0000FFFFFFFFFFFFFFFFFFFFFFFFFFFFFFFFFFFFFFFFFFFFFFFFFFFFFFFFFFFFFFFFFFFFFFFFFFFFFFFFFFFFFF
102
{BLKREFS
331
4E1
102
}
  0
BLOCK_RECORD
  5
4A9
330
1
100
AcDbSymbolTableRecord
100
AcDbBlockTableRecord
  2
AI9-BLK11
340
0
310
2800000020000000200000000100080000000000000400000000000000000000000000000000000000000000000080000080000000808000800000008000800080800000C0C0C000C0DCC000F0CAA6000020400000206000002080000020A0000020C0000020E00000400000004020000040400000406000004080000040A0
310
000040C0000040E00000600000006020000060400000606000006080000060A0000060C0000060E00000800000008020000080400000806000008080000080A0000080C0000080E00000A0000000A0200000A0400000A0600000A0800000A0A00000A0C00000A0E00000C0000000C0200000C0400000C0600000C0800000C0
310
A00000C0C00000C0E00000E0000000E0200000E0400000E0600000E0800000E0A00000E0C00000E0E00040000000400020004000400040006000400080004000A0004000C0004000E00040200000402020004020400040206000402080004020A0004020C0004020E000404000004040200040404000404060004040800040
310
40A0004040C0004040E00040600000406020004060400040606000406080004060A0004060C0004060E00040800000408020004080400040806000408080004080A0004080C0004080E00040A0000040A0200040A0400040A0600040A0800040A0A00040A0C00040A0E00040C0000040C0200040C0400040C0600040C08000
310
40C0A00040C0C00040C0E00040E0000040E0200040E0400040E0600040E0800040E0A00040E0C00040E0E00080000000800020008000400080006000800080008000A0008000C0008000E00080200000802020008020400080206000802080008020A0008020C0008020E00080400000804020008040400080406000804080
310
008040A0008040C0008040E00080600000806020008060400080606000806080008060A0008060C0008060E00080800000808020008080400080806000808080008080A0008080C0008080E00080A0000080A0200080A0400080A0600080A0800080A0A00080A0C00080A0E00080C0000080C0200080C0400080C0600080C0
310
800080C0A00080C0C00080C0E00080E0000080E0200080E0400080E0600080E0800080E0A00080E0C00080E0E000C0000000C0002000C0004000C0006000C0008000C000A000C000C000C000E000C0200000C0202000C0204000C0206000C0208000C020A000C020C000C020E000C0400000C0402000C0404000C0406000C0
310
408000C040A000C040C000C040E000C0600000C0602000C0604000C0606000C0608000C060A000C060C000C060E000C0800000C0802000C0804000C0806000C0808000C080A000C080C000C080E000C0A00000C0A02000C0A04000C0A06000C0A08000C0A0A000C0A0C000C0A0E000C0C00000C0C02000C0C04000C0C06000
310
C0C08000C0C0A000F0FBFF00A4A0A000808080000000FF0000FF000000FFFF00FF000000FF00FF00FFFF0000FFFFFF00FFFFFFFFFFFFFFFFFFFFFFFFFFFFFFFFFFFFFFFFFFFFFFFFFFFFFFFFFFFFFFFFFFFFFFFFFFFFFFFFFFFFFFFFFFFF00000000FFFFFFFFFFFFFFFFFFFFFF000000FFFFFFFFFFFFFFFFFFFFFFFFFFFF00
310
FFFF00FFFFFFFFFFFFFFFFFFFFFF00FFFFFFFFFFFFFFFFFFFFFFFFFFFFFFFF00FFFF00FFFFFFFFFFFFFFFFFFFFFF00FFFFFFFFFFFFFFFFFFFFFFFFFFFFFFFF00FFFF00FFFFFFFFFFFFFFFFFFFFFF00FFFFFFFFFFFFFFFFFFFFFFFFFFFFFFFF00FFFF00FFFFFFFFFFFFFFFFFFFFFF00FFFFFFFFFFFFFFFFFFFFFFFFFFFFFFFF
310
00FFFF00FFFFFFFFFFFFFFFFFFFFFF00FFFFFFFFFFFFFFFFFFFFFFFFFFFFFFFF00FFFF00FFFFFFFFFFFFFFFFFFFFFF00FFFFFFFFFFFFFFFFFFFFFFFFFFFFFFFF00FFFF00FFFFFFFFFFFFFFFFFFFFFF00FFFFFFFFFFFFFFFFFFFFFFFFFFFFFFFF00FFFF00FFFFFFFFFFFFFFFFFFFFFF00FFFFFFFFFFFFFFFFFFFFFFFFFFFFFF
310
FF00FFFF00FFFFFFFFFFFFFFFFFFFFFF00FFFFFFFFFFFFFFFFFFFFFFFFFFFFFFFF00FFFF00FFFFFFFFFFFFFFFFFFFFFF00FFFFFFFFFFFFFFFFFFFFFFFFFFFFFFFF00FFFF00FFFFFFFFFFFFFFFFFFFFFF00FFFFFFFFFFFFFFFFFFFFFFFFFFFFFFFF00FFFF00FFFFFFFFFFFFFFFFFFFFFF00FFFFFFFFFFFFFFFFFFFFFFFFFFFF
310
FFFF00FFFF00FFFFFFFFFFFFFFFFFFFFFF00FFFFFFFFFFFFFFFFFFFFFFFFFFFFFFFF00FFFF00FFFFFFFFFFFFFFFFFFFFFF00FFFFFFFFFFFFFFFFFFFFFFFFFFFFFFFF00FFFF00FFFFFFFFFFFFFFFFFFFFFF00FFFFFFFFFFFFFFFFFFFFFFFFFFFFFFFF00FFFF00FFFFFFFFFFFFFFFFFFFF00FFFFFFFFFFFFFFFFFFFFFFFFFFFF
310
FFFFFF00FFFF00FFFFFFFFFFFFFFFFFFFF00FFFFFFFFFFFFFFFFFFFFFFFFFFFFFFFFFF00FFFF00FFFFFFFFFFFFFFFFFFFF00FFFFFFFFFFFFFFFFFFFFFFFFFFFFFFFFFF00FFFF00FFFFFFFFFFFFFFFFFFFF00FFFFFFFFFFFFFFFFFFFFFFFFFFFFFFFFFF00FFFF00FFFFFFFFFFFFFFFFFFFF00FFFFFFFFFFFFFFFFFFFFFFFFFF
310
FFFFFFFF00FFFF00FFFFFFFFFFFFFFFFFF0000FFFF00FFFFFFFFFFFFFFFFFFFFFFFFFFFF00FFFF00FFFFFFFFFFFFFFFF0000FFFFFF00FFFFFFFFFFFFFFFFFFFFFFFFFFFF00FFFF00000000000000000000FFFFFFFF00FFFFFFFFFFFFFFFFFFFFFFFFFFFF00FFFFFFFFFFFFFFFFFFFFFFFFFFFFFF00FFFFFFFFFFFFFFFFFFFF
310
FFFFFFFFFF00FFFFFFFFFFFFFFFFFFFFFFFFFFFF00FFFFFFFFFFFFFFFFFFFFFFFFFFFFFFFF00FFFFFFFFFFFFFFFFFFFFFFFFFFFF00FFFFFFFFFFFFFFFFFFFFFFFFFFFFFFFF00FFFFFFFFFFFFFFFFFFFFFFFFFFFFFF00FFFFFFFFFFFFFFFFFFFFFFFFFFFFFF00FFFFFFFFFFFFFFFFFFFFFFFFFFFFFF00FFFFFFFFFFFFFFFFFF
310
FFFFFFFFFFFF00FFFF00000000000000000000FFFFFFFF00FFFFFFFFFFFFFFFFFFFFFFFFFFFF00FFFF00FFFFFFFFFFFFFFFFFF0000FFFF00
102
{BLKREFS
331
4E2
102
}
  0
BLOCK_RECORD
  5
4AE
330
1
100
AcDbSymbolTableRecord
100
AcDbBlockTableRecord
  2
AI9-BLK10
340
0
310
2800000020000000200000000100080000000000000400000000000000000000000000000000000000000000000080000080000000808000800000008000800080800000C0C0C000C0DCC000F0CAA6000020400000206000002080000020A0000020C0000020E00000400000004020000040400000406000004080000040A0
310
000040C0000040E00000600000006020000060400000606000006080000060A0000060C0000060E00000800000008020000080400000806000008080000080A0000080C0000080E00000A0000000A0200000A0400000A0600000A0800000A0A00000A0C00000A0E00000C0000000C0200000C0400000C0600000C0800000C0
310
A00000C0C00000C0E00000E0000000E0200000E0400000E0600000E0800000E0A00000E0C00000E0E00040000000400020004000400040006000400080004000A0004000C0004000E00040200000402020004020400040206000402080004020A0004020C0004020E000404000004040200040404000404060004040800040
310
40A0004040C0004040E00040600000406020004060400040606000406080004060A0004060C0004060E00040800000408020004080400040806000408080004080A0004080C0004080E00040A0000040A0200040A0400040A0600040A0800040A0A00040A0C00040A0E00040C0000040C0200040C0400040C0600040C08000
310
40C0A00040C0C00040C0E00040E0000040E0200040E0400040E0600040E0800040E0A00040E0C00040E0E00080000000800020008000400080006000800080008000A0008000C0008000E00080200000802020008020400080206000802080008020A0008020C0008020E00080400000804020008040400080406000804080
310
008040A0008040C0008040E00080600000806020008060400080606000806080008060A0008060C0008060E00080800000808020008080400080806000808080008080A0008080C0008080E00080A0000080A0200080A0400080A0600080A0800080A0A00080A0C00080A0E00080C0000080C0200080C0400080C0600080C0
310
800080C0A00080C0C00080C0E00080E0000080E0200080E0400080E0600080E0800080E0A00080E0C00080E0E000C0000000C0002000C0004000C0006000C0008000C000A000C000C000C000E000C0200000C0202000C0204000C0206000C0208000C020A000C020C000C020E000C0400000C0402000C0404000C0406000C0
310
408000C040A000C040C000C040E000C0600000C0602000C0604000C0606000C0608000C060A000C060C000C060E000C0800000C0802000C0804000C0806000C0808000C080A000C080C000C080E000C0A00000C0A02000C0A04000C0A06000C0A08000C0A0A000C0A0C000C0A0E000C0C00000C0C02000C0C04000C0C06000
310
C0C08000C0C0A000F0FBFF00A4A0A000808080000000FF0000FF000000FFFF00FF000000FF00FF00FFFF0000FFFFFF00FFFFFFFFFFFFFFFFFFFFFFFFFFFFFFFF00FFFFFFFFFFFFFFFFFFFFFFFF00FFFFFFFFFFFFFFFFFFFFFFFFFFFFFFFFFFFF00FFFFFFFFFFFFFFFFFFFFFF00FFFFFFFFFFFFFFFFFFFFFFFFFFFFFFFFFFFF
310
FF00FFFFFFFFFFFFFFFFFFFFFF00FFFFFFFFFFFFFFFFFFFFFFFFFFFFFFFFFFFFFF00FFFFFFFFFFFFFFFFFFFFFF00FFFFFFFFFFFFFFFFFFFFFFFFFFFFFFFFFFFFFF00FFFFFFFFFFFFFFFFFFFFFF00FFFFFFFFFFFFFFFFFFFFFFFFFFFFFFFFFFFFFF00FFFFFFFFFFFFFFFFFFFFFF00FFFFFFFFFFFFFFFFFFFFFFFFFFFFFFFFFF
310
FFFF00FFFFFFFFFFFFFFFFFFFFFF00FFFFFFFFFFFFFFFFFFFFFFFFFFFFFFFFFFFFFF00FFFFFFFFFFFFFFFFFFFF00FFFFFFFFFFFFFFFFFFFFFFFFFFFFFFFFFFFFFFFF00FFFFFFFFFFFFFFFFFFFF00FFFFFFFFFFFFFFFFFFFFFFFFFFFFFFFFFFFFFFFF00FFFFFFFFFFFFFFFFFFFF00FFFFFFFFFFFFFFFFFFFFFFFFFFFFFFFFFF
310
FFFFFF00FFFFFFFFFFFFFFFFFFFF00FFFFFFFFFFFFFFFFFFFFFFFFFFFFFFFFFFFFFFFF00FFFFFFFFFFFFFFFFFFFF00FFFFFFFFFFFFFFFFFFFFFFFFFFFFFFFFFFFFFFFF00FFFFFFFFFFFFFFFFFFFF00FFFFFFFFFFFFFFFFFFFFFFFFFFFFFFFFFFFFFFFF00FFFFFFFFFFFFFFFFFF00FFFFFFFFFFFFFFFFFFFFFFFFFFFFFFFFFF
310
FFFFFFFF00FFFFFFFFFFFFFFFFFF00FFFFFFFFFFFFFFFFFFFFFFFFFFFFFFFFFFFFFFFFFF00FFFFFFFFFFFFFFFFFF00FFFFFFFFFFFFFFFFFFFFFFFFFFFFFFFFFFFFFFFFFF0000000000000000000000FFFFFFFFFFFFFFFFFFFFFFFFFFFFFFFFFFFFFFFFFFFFFFFFFFFFFFFFFFFFFFFFFFFFFFFFFFFFFFFFFFFFFFFFFFFFFFFF
310
FFFFFFFFFFFFFFFFFFFFFFFFFFFFFFFFFFFFFFFFFFFFFFFFFFFFFFFFFFFFFFFFFFFFFFFFFFFFFFFFFFFFFFFFFFFFFFFFFFFFFFFFFFFFFFFFFFFFFFFFFFFFFFFFFFFFFFFFFFFFFFFFFFFFFFFFFFFFFFFFFFFFFFFFFFFFFFFFFFFFFFFFFFFFFFFFFFFFFFFFFFFFFFFFFFFFFFFFFFFFFFFFFFFFFFFFFFFFFFFFFFFFFFFFFFFFFF
310
FFFFFFFFFFFFFFFFFFFFFFFFFFFFFFFFFFFFFFFFFFFFFFFFFFFFFFFFFFFFFFFFFFFFFFFFFFFFFFFFFFFFFFFFFFFFFFFFFFFFFFFFFFFFFFFFFFFFFFFFFFFFFFFFFFFFFFFFFFFFFFFFFFFFFFFFFFFFFFFFFFFFFFFFFFFFFFFFFFFFFFFFFFFFFFFFFFFFFFFFFFFFFFFFFFFFFFFFFFFFFFFFFFFFFFFFFFFFFFFFFFFFFFFFFFFFFF
310
FFFFFFFFFFFFFFFFFFFFFFFFFFFFFFFFFFFFFFFFFFFFFFFFFFFFFFFFFFFFFFFFFFFFFFFFFFFFFFFFFFFFFFFFFFFFFFFFFFFFFFFFFFFFFFFFFFFFFFFFFFFFFFFFFFFFFFFFFFFFFFFFFFFFFFFFFFFFFFFFFFFFFFFFFFFFFFFFFFFFFFFFFFFFFFFFFFFFFFFFFFFFFFFFFFFFFFFFFFFFFFFFFFFFFFFFFFFFFFFFFFFFFFFFFFFFFF
310
FFFFFFFFFFFFFFFFFFFFFFFFFFFFFFFFFFFFFFFFFFFFFFFFFFFFFFFFFFFFFFFFFFFFFFFFFFFFFFFFFFFFFFFFFFFFFFFFFFFFFFFFFFFFFFFF
102
{BLKREFS
331
4E3
102
}
  0
BLOCK_RECORD
  5
4B2
330
1
100
AcDbSymbolTableRecord
100
AcDbBlockTableRecord
  2
AI9-BLK9
340
0
310
2800000020000000200000000100080000000000000400000000000000000000000000000000000000000000000080000080000000808000800000008000800080800000C0C0C000C0DCC000F0CAA6000020400000206000002080000020A0000020C0000020E00000400000004020000040400000406000004080000040A0
310
000040C0000040E00000600000006020000060400000606000006080000060A0000060C0000060E00000800000008020000080400000806000008080000080A0000080C0000080E00000A0000000A0200000A0400000A0600000A0800000A0A00000A0C00000A0E00000C0000000C0200000C0400000C0600000C0800000C0
310
A00000C0C00000C0E00000E0000000E0200000E0400000E0600000E0800000E0A00000E0C00000E0E00040000000400020004000400040006000400080004000A0004000C0004000E00040200000402020004020400040206000402080004020A0004020C0004020E000404000004040200040404000404060004040800040
310
40A0004040C0004040E00040600000406020004060400040606000406080004060A0004060C0004060E00040800000408020004080400040806000408080004080A0004080C0004080E00040A0000040A0200040A0400040A0600040A0800040A0A00040A0C00040A0E00040C0000040C0200040C0400040C0600040C08000
310
40C0A00040C0C00040C0E00040E0000040E0200040E0400040E0600040E0800040E0A00040E0C00040E0E00080000000800020008000400080006000800080008000A0008000C0008000E00080200000802020008020400080206000802080008020A0008020C0008020E00080400000804020008040400080406000804080
310
008040A0008040C0008040E00080600000806020008060400080606000806080008060A0008060C0008060E00080800000808020008080400080806000808080008080A0008080C0008080E00080A0000080A0200080A0400080A0600080A0800080A0A00080A0C00080A0E00080C0000080C0200080C0400080C0600080C0
310
800080C0A00080C0C00080C0E00080E0000080E0200080E0400080E0600080E0800080E0A00080E0C00080E0E000C0000000C0002000C0004000C0006000C0008000C000A000C000C000C000E000C0200000C0202000C0204000C0206000C0208000C020A000C020C000C020E000C0400000C0402000C0404000C0406000C0
310
408000C040A000C040C000C040E000C0600000C0602000C0604000C0606000C0608000C060A000C060C000C060E000C0800000C0802000C0804000C0806000C0808000C080A000C080C000C080E000C0A00000C0A02000C0A04000C0A06000C0A08000C0A0A000C0A0C000C0A0E000C0C00000C0C02000C0C04000C0C06000
310
C0C08000C0C0A000F0FBFF00A4A0A000808080000000FF0000FF000000FFFF00FF000000FF00FF00FFFF0000FFFFFF00FFFFFFFFFFFFFFFFFFFFFFFFFFFFFFFFFFFFFFFFFFFFFFFFFFFFFFFFFFFFFFFFFFFFFFFFFFFFFFFFFFFFFFFFFFFFFF0000FFFFFFFFFFFFFFFFFFFFFFFFFFFFFFFFFFFFFFFFFFFFFFFFFFFFFFFF0000
310
FF0000FFFFFFFFFFFFFFFFFFFFFFFFFFFFFFFFFFFFFFFFFFFFFFFFFFFFFF00FFFFFF0000FFFFFFFFFFFFFFFFFFFFFFFFFFFFFFFFFFFFFFFFFFFFFFFFFFFF00FFFFFFFF0000FFFFFFFFFFFFFFFFFFFFFFFFFFFFFFFFFFFFFFFFFFFFFFFF00FF00000000FF00FFFFFFFFFFFFFFFFFFFFFFFFFFFFFFFFFFFFFFFFFFFFFFFF0000
310
00FFFF00FF00FFFFFFFFFFFFFFFFFFFFFFFFFFFFFFFFFFFFFFFFFFFFFFFF0000FFFFFFFF0000FFFFFFFFFFFFFFFFFFFFFFFFFFFFFFFFFFFFFFFFFFFFFFFF0000FFFFFFFF0000FFFFFFFFFFFFFFFFFFFFFFFFFFFFFFFFFFFFFFFFFFFFFF00FF00FFFFFFFF00FF00FFFFFFFFFFFFFFFFFFFFFFFFFFFFFFFFFFFFFFFFFFFF0000
310
FFFFFFFFFF00FF00FFFFFFFFFFFFFFFFFFFFFFFFFFFFFFFFFFFFFFFFFFFF0000FFFFFFFFFFFF0000FFFFFFFFFFFFFFFFFFFFFFFFFFFFFFFFFFFFFFFFFFFF0000FFFFFFFFFFFF0000FFFFFFFFFFFFFFFFFFFFFFFFFFFFFFFFFFFFFFFFFFFF0000FFFFFFFFFFFF0000FFFFFFFFFFFFFFFFFFFFFFFFFFFFFFFFFFFFFFFFFFFF00
310
00FFFFFFFFFFFF0000FFFFFFFFFFFFFFFFFFFFFFFFFFFFFFFFFFFFFFFFFFFF0000FFFFFFFFFFFF0000FFFFFFFFFFFFFFFFFFFFFFFFFFFFFFFFFFFFFFFFFFFF0000FFFFFFFFFFFF0000FFFFFFFFFFFFFFFFFFFFFFFFFFFFFFFFFFFFFFFFFFFF0000FFFFFFFFFFFF0000FFFFFFFFFFFFFFFFFFFFFFFFFFFFFFFFFFFFFFFFFFFF
310
0000FFFFFFFFFFFF0000FFFFFFFFFFFFFFFFFFFFFFFFFFFFFFFFFFFFFFFFFFFF0000FFFFFFFFFFFF0000FFFFFFFFFFFFFFFFFFFFFFFFFFFFFFFFFFFFFFFFFFFF0000FFFFFFFFFFFF0000FFFFFFFFFFFFFFFFFFFFFFFFFFFFFFFFFFFFFFFFFFFF00FF00FFFFFFFF00FF00FFFFFFFFFFFFFFFFFFFFFFFFFFFFFFFFFFFFFFFFFF
310
FF00FF00FFFFFFFF00FF00FFFFFFFFFFFFFFFFFFFFFFFFFFFFFFFFFFFFFFFFFFFF00FF00FFFFFFFF00FF00FFFFFFFFFFFFFFFFFFFFFFFFFFFFFFFFFFFFFFFFFFFFFF0000FFFFFFFF0000FFFFFFFFFFFFFFFFFFFFFFFFFFFFFFFFFFFFFFFFFFFFFFFF00FF00FFFF00FF00FFFFFFFFFFFFFFFFFFFFFFFFFFFFFFFFFFFFFFFFFF
310
FFFFFF00FF00000000FF00FFFFFFFFFFFFFFFFFFFFFFFFFFFFFFFFFFFFFFFFFFFFFFFFFF00FFFFFFFF0000FFFFFFFFFFFFFFFFFFFFFFFFFFFFFFFFFFFFFFFFFFFFFFFFFF00FFFFFFFF00FFFFFFFFFFFFFFFFFFFFFFFFFFFFFFFFFFFFFFFFFFFFFFFFFFFFFF00000000FFFFFFFFFFFFFFFFFFFFFFFFFFFFFFFFFFFFFFFFFFFF
310
FFFFFFFFFFFFFF0000FFFFFFFFFFFFFFFFFFFFFFFFFFFFFFFFFFFFFFFFFFFFFFFFFFFFFFFFFFFFFFFFFFFFFFFFFFFFFFFFFFFFFFFFFFFFFF
102
{BLKREFS
331
4E4
102
}
  0
BLOCK_RECORD
  5
4B7
330
1
100
AcDbSymbolTableRecord
100
AcDbBlockTableRecord
  2
AI9-BLK8
340
0
310
2800000020000000200000000100080000000000000400000000000000000000000000000000000000000000000080000080000000808000800000008000800080800000C0C0C000C0DCC000F0CAA6000020400000206000002080000020A0000020C0000020E00000400000004020000040400000406000004080000040A0
310
000040C0000040E00000600000006020000060400000606000006080000060A0000060C0000060E00000800000008020000080400000806000008080000080A0000080C0000080E00000A0000000A0200000A0400000A0600000A0800000A0A00000A0C00000A0E00000C0000000C0200000C0400000C0600000C0800000C0
310
A00000C0C00000C0E00000E0000000E0200000E0400000E0600000E0800000E0A00000E0C00000E0E00040000000400020004000400040006000400080004000A0004000C0004000E00040200000402020004020400040206000402080004020A0004020C0004020E000404000004040200040404000404060004040800040
310
40A0004040C0004040E00040600000406020004060400040606000406080004060A0004060C0004060E00040800000408020004080400040806000408080004080A0004080C0004080E00040A0000040A0200040A0400040A0600040A0800040A0A00040A0C00040A0E00040C0000040C0200040C0400040C0600040C08000
310
40C0A00040C0C00040C0E00040E0000040E0200040E0400040E0600040E0800040E0A00040E0C00040E0E00080000000800020008000400080006000800080008000A0008000C0008000E00080200000802020008020400080206000802080008020A0008020C0008020E00080400000804020008040400080406000804080
310
008040A0008040C0008040E00080600000806020008060400080606000806080008060A0008060C0008060E00080800000808020008080400080806000808080008080A0008080C0008080E00080A0000080A0200080A0400080A0600080A0800080A0A00080A0C00080A0E00080C0000080C0200080C0400080C0600080C0
310
800080C0A00080C0C00080C0E00080E0000080E0200080E0400080E0600080E0800080E0A00080E0C00080E0E000C0000000C0002000C0004000C0006000C0008000C000A000C000C000C000E000C0200000C0202000C0204000C0206000C0208000C020A000C020C000C020E000C0400000C0402000C0404000C0406000C0
310
408000C040A000C040C000C040E000C0600000C0602000C0604000C0606000C0608000C060A000C060C000C060E000C0800000C0802000C0804000C0806000C0808000C080A000C080C000C080E000C0A00000C0A02000C0A04000C0A06000C0A08000C0A0A000C0A0C000C0A0E000C0C00000C0C02000C0C04000C0C06000
310
C0C08000C0C0A000F0FBFF00A4A0A000808080000000FF0000FF000000FFFF00FF000000FF00FF00FFFF0000FFFFFF00FFFFFFFFFFFFFFFFFFFFFFFFFFFFFFFFFFFFFFFFFFFFFFFFFFFFFFFFFFFFFFFFFFFFFFFFFFFFFFFFFFFFFF0000FFFFFFFFFFFF0000FFFFFFFFFFFFFFFFFFFFFFFFFFFFFFFFFFFFFFFFFFFF0000FFFF
310
FFFFFFFF0000FFFFFFFFFFFFFFFFFFFFFFFFFFFFFFFFFFFFFFFFFFFF0000FFFFFFFFFF00FF00FFFFFFFFFFFFFFFFFFFFFFFFFFFFFFFFFFFFFFFFFFFF0000FFFFFFFFFF00FF00FFFFFFFFFFFFFFFFFFFFFFFFFFFFFFFFFFFFFFFFFFFF0000FFFFFFFFFF00FF00FFFFFFFFFFFFFFFFFFFFFFFFFFFFFFFFFFFFFFFFFFFF0000FF
310
FFFFFF00FFFF00FFFFFFFFFFFFFFFFFFFFFFFFFFFFFFFFFFFFFFFFFFFF0000FFFFFFFF00FF0000FFFFFFFFFFFFFFFFFFFFFFFFFFFFFFFFFFFFFFFFFFFF0000FFFFFFFF00FF0000FFFFFFFFFFFFFFFFFFFFFFFFFFFFFFFFFFFFFFFFFFFF0000FFFFFFFF00000000FFFFFFFFFFFFFFFFFFFFFFFFFFFFFFFFFFFFFFFFFFFF0000
310
FFFFFF00FF000000FFFFFFFFFFFFFFFFFFFFFFFFFFFFFFFFFFFFFFFFFFFF0000FFFFFF00FF000000FFFFFFFFFFFFFFFFFFFFFFFFFFFFFFFFFFFFFFFFFFFF0000FFFFFF00FF000000FFFFFFFFFFFFFFFFFFFFFFFFFFFFFFFFFFFFFFFFFFFF0000FFFF00FF00FF0000FFFFFFFFFFFFFFFFFFFFFFFFFFFFFFFFFFFFFFFFFFFF00
310
00FFFF00FF00FF0000FFFFFFFFFFFFFFFFFFFFFFFFFFFFFFFFFFFFFFFFFFFF0000FFFF00FF00FF0000FFFFFFFFFFFFFFFFFFFFFFFFFFFFFFFFFFFFFFFFFFFF0000FF00FFFF00FF0000FFFFFFFFFFFFFFFFFFFFFFFFFFFFFFFFFFFFFFFFFFFF0000FF00FF00FFFF0000FFFFFFFFFFFFFFFFFFFFFFFFFFFFFFFFFFFFFFFFFFFF
310
0000FF00FF00FFFF0000FFFFFFFFFFFFFFFFFFFFFFFFFFFFFFFFFFFFFFFFFFFF0000FF00FF00FFFF0000FFFFFFFFFFFFFFFFFFFFFFFFFFFFFFFFFFFFFFFFFFFF000000FFFF00FFFF0000FFFFFFFFFFFFFFFFFFFFFFFFFFFFFFFFFFFFFFFFFFFF000000FF00FFFFFF0000FFFFFFFFFFFFFFFFFFFFFFFFFFFFFFFFFFFFFFFFFF
310
FF000000FF00FFFFFF0000FFFFFFFFFFFFFFFFFFFFFFFFFFFFFFFFFFFFFFFFFFFF0000FFFF00FFFFFF0000FFFFFFFFFFFFFFFFFFFFFFFFFFFFFFFFFFFFFFFFFFFF0000FFFF00FFFFFF0000FFFFFFFFFFFFFFFFFFFFFFFFFFFFFFFFFFFFFFFFFFFF00FFFF00FFFFFFFF0000FFFFFFFFFFFFFFFFFFFFFFFFFFFFFFFFFFFFFFFF
310
FFFF00FFFF00FFFFFFFF0000FFFFFFFFFFFFFFFFFFFFFFFFFFFFFFFFFFFFFFFFFFFF00FFFF00FFFFFFFF0000FFFFFFFFFFFFFFFFFFFFFFFFFFFFFFFFFFFFFFFFFFFF00FFFF00FFFFFFFF0000FFFFFFFFFFFFFFFFFFFFFFFFFFFFFFFFFFFFFFFFFFFF00FF00FFFFFFFFFF0000FFFFFFFFFFFFFFFFFFFFFFFFFFFFFFFFFFFFFF
310
FFFFFF000000FFFFFFFFFF0000FFFFFFFFFFFFFFFFFFFFFFFFFFFFFFFFFFFFFFFFFFFFFFFFFFFFFFFFFFFFFFFFFFFFFFFFFFFFFFFFFFFFFF
102
{BLKREFS
331
4E5
102
}
  0
BLOCK_RECORD
  5
4BC
330
1
100
AcDbSymbolTableRecord
100
AcDbBlockTableRecord
  2
AI9-BLK7
340
0
310
2800000020000000200000000100080000000000000400000000000000000000000000000000000000000000000080000080000000808000800000008000800080800000C0C0C000C0DCC000F0CAA6000020400000206000002080000020A0000020C0000020E00000400000004020000040400000406000004080000040A0
310
000040C0000040E00000600000006020000060400000606000006080000060A0000060C0000060E00000800000008020000080400000806000008080000080A0000080C0000080E00000A0000000A0200000A0400000A0600000A0800000A0A00000A0C00000A0E00000C0000000C0200000C0400000C0600000C0800000C0
310
A00000C0C00000C0E00000E0000000E0200000E0400000E0600000E0800000E0A00000E0C00000E0E00040000000400020004000400040006000400080004000A0004000C0004000E00040200000402020004020400040206000402080004020A0004020C0004020E000404000004040200040404000404060004040800040
310
40A0004040C0004040E00040600000406020004060400040606000406080004060A0004060C0004060E00040800000408020004080400040806000408080004080A0004080C0004080E00040A0000040A0200040A0400040A0600040A0800040A0A00040A0C00040A0E00040C0000040C0200040C0400040C0600040C08000
310
40C0A00040C0C00040C0E00040E0000040E0200040E0400040E0600040E0800040E0A00040E0C00040E0E00080000000800020008000400080006000800080008000A0008000C0008000E00080200000802020008020400080206000802080008020A0008020C0008020E00080400000804020008040400080406000804080
310
008040A0008040C0008040E00080600000806020008060400080606000806080008060A0008060C0008060E00080800000808020008080400080806000808080008080A0008080C0008080E00080A0000080A0200080A0400080A0600080A0800080A0A00080A0C00080A0E00080C0000080C0200080C0400080C0600080C0
310
800080C0A00080C0C00080C0E00080E0000080E0200080E0400080E0600080E0800080E0A00080E0C00080E0E000C0000000C0002000C0004000C0006000C0008000C000A000C000C000C000E000C0200000C0202000C0204000C0206000C0208000C020A000C020C000C020E000C0400000C0402000C0404000C0406000C0
310
408000C040A000C040C000C040E000C0600000C0602000C0604000C0606000C0608000C060A000C060C000C060E000C0800000C0802000C0804000C0806000C0808000C080A000C080C000C080E000C0A00000C0A02000C0A04000C0A06000C0A08000C0A0A000C0A0C000C0A0E000C0C00000C0C02000C0C04000C0C06000
310
C0C08000C0C0A000F0FBFF00A4A0A000808080000000FF0000FF000000FFFF00FF000000FF00FF00FFFF0000FFFFFF00FFFFFFFFFFFFFFFFFFFFFFFFFFFFFFFFFFFFFFFFFFFFFFFFFFFFFFFFFFFFFFFFFFFFFFFFFFFFFFFFFFFFFFFFFFFFFF0000FFFFFFFFFFFFFFFFFFFFFFFFFFFFFFFFFFFFFFFFFFFFFFFFFFFFFFFFFFFF
310
0000FFFFFFFFFFFFFFFFFFFFFFFFFFFFFFFFFFFFFFFFFFFFFFFFFFFFFFFFFFFF0000FFFFFFFFFFFFFFFFFFFFFFFFFFFFFFFFFFFFFFFFFFFFFFFFFFFFFFFFFFFF0000FFFFFFFFFFFFFFFFFFFFFFFFFFFFFFFFFFFFFFFFFFFFFFFFFFFFFFFFFFFF0000FFFFFFFFFFFFFFFFFFFFFFFFFFFFFFFFFFFFFFFFFFFFFFFFFFFFFFFFFF
310
FF0000FFFFFFFFFFFFFFFFFFFFFFFFFFFFFFFFFFFFFFFFFFFFFFFFFFFFFFFFFFFF0000FFFFFFFFFFFFFFFFFFFFFFFFFFFFFFFFFFFFFFFFFFFFFFFFFFFFFFFFFFFF0000FFFFFFFFFFFFFFFFFFFFFFFFFFFFFFFFFFFFFFFFFFFFFFFFFFFFFFFFFFFF0000FFFFFFFFFFFFFFFFFFFFFFFFFFFFFFFFFFFFFFFFFFFFFFFFFFFFFFFF
310
FFFF0000FFFFFFFFFFFFFFFFFFFFFFFFFFFFFFFFFFFFFFFFFFFFFFFFFFFFFFFFFFFF0000FFFFFFFFFFFFFFFFFFFFFFFFFFFFFFFFFFFFFFFFFFFFFFFFFFFFFFFFFFFF0000FFFFFFFFFFFFFFFFFFFFFFFFFFFFFFFFFFFFFFFFFFFFFFFFFFFFFFFFFFFF0000FFFFFFFFFFFFFFFFFFFFFFFFFFFFFFFFFFFFFFFFFFFFFFFFFFFFFF
310
FFFFFF0000FFFFFFFFFFFFFFFFFFFFFFFFFFFFFFFFFFFFFFFFFFFFFFFFFFFFFFFFFFFF0000FFFFFFFFFFFFFFFFFFFFFFFFFFFFFFFFFFFFFFFFFFFFFFFFFFFFFFFFFFFF0000FFFFFFFFFFFFFFFFFFFFFFFFFFFFFFFFFFFFFFFFFFFFFFFFFFFFFFFFFFFF0000FFFFFFFFFFFFFFFFFFFFFFFFFFFFFFFFFFFFFFFFFFFFFFFFFFFF
310
FFFFFFFF0000FFFFFFFFFFFFFFFFFFFFFFFFFFFFFFFFFFFFFFFFFFFFFFFFFFFFFFFFFFFF0000FFFFFFFFFFFFFFFFFFFFFFFFFFFFFFFFFFFFFFFFFFFFFFFFFFFFFFFFFFFF0000FFFFFFFFFFFFFFFFFFFFFFFFFFFFFFFFFFFFFFFFFFFFFFFFFFFFFFFFFFFF0000FFFFFFFFFFFFFFFFFFFFFFFFFFFFFFFFFFFFFFFFFFFFFFFFFF
310
FFFFFFFFFF0000FFFFFFFFFFFFFFFFFFFFFFFFFFFFFFFFFFFFFFFFFFFFFFFFFFFFFFFFFFFF0000FFFFFFFFFFFFFFFFFFFFFFFFFFFFFFFFFFFFFFFFFFFFFFFFFFFFFFFFFFFF0000FFFFFFFFFFFFFFFFFFFFFFFFFFFFFFFFFFFFFFFFFFFFFFFFFFFFFFFFFFFF0000FFFFFFFFFFFFFFFFFFFFFFFFFFFFFFFFFFFFFFFFFFFFFFFF
310
FFFFFFFFFFFF0000FFFFFFFFFFFFFFFFFFFFFFFFFFFFFFFFFFFFFFFFFFFFFFFFFFFFFFFFFFFF0000FFFFFFFFFFFFFFFFFFFFFFFFFFFFFFFFFFFFFFFFFFFFFFFFFFFFFFFFFFFF0000FFFFFFFFFFFFFFFFFFFFFFFFFFFFFFFFFFFFFFFFFFFFFFFFFFFFFFFFFFFF0000FFFFFFFFFFFFFFFFFFFFFFFFFFFFFFFFFFFFFFFFFFFFFF
310
FFFFFFFFFFFFFF0000FFFFFFFFFFFFFFFFFFFFFFFFFFFFFFFFFFFFFFFFFFFFFFFFFFFFFFFFFFFFFFFFFFFFFFFFFFFFFFFFFFFFFFFFFFFFFF
102
{BLKREFS
331
4E6
102
}
  0
BLOCK_RECORD
  5
4C1
330
1
100
AcDbSymbolTableRecord
100
AcDbBlockTableRecord
  2
AI9-BLK6
340
0
310
2800000020000000200000000100080000000000000400000000000000000000000000000000000000000000000080000080000000808000800000008000800080800000C0C0C000C0DCC000F0CAA6000020400000206000002080000020A0000020C0000020E00000400000004020000040400000406000004080000040A0
310
000040C0000040E00000600000006020000060400000606000006080000060A0000060C0000060E00000800000008020000080400000806000008080000080A0000080C0000080E00000A0000000A0200000A0400000A0600000A0800000A0A00000A0C00000A0E00000C0000000C0200000C0400000C0600000C0800000C0
310
A00000C0C00000C0E00000E0000000E0200000E0400000E0600000E0800000E0A00000E0C00000E0E00040000000400020004000400040006000400080004000A0004000C0004000E00040200000402020004020400040206000402080004020A0004020C0004020E000404000004040200040404000404060004040800040
310
40A0004040C0004040E00040600000406020004060400040606000406080004060A0004060C0004060E00040800000408020004080400040806000408080004080A0004080C0004080E00040A0000040A0200040A0400040A0600040A0800040A0A00040A0C00040A0E00040C0000040C0200040C0400040C0600040C08000
310
40C0A00040C0C00040C0E00040E0000040E0200040E0400040E0600040E0800040E0A00040E0C00040E0E00080000000800020008000400080006000800080008000A0008000C0008000E00080200000802020008020400080206000802080008020A0008020C0008020E00080400000804020008040400080406000804080
310
008040A0008040C0008040E00080600000806020008060400080606000806080008060A0008060C0008060E00080800000808020008080400080806000808080008080A0008080C0008080E00080A0000080A0200080A0400080A0600080A0800080A0A00080A0C00080A0E00080C0000080C0200080C0400080C0600080C0
310
800080C0A00080C0C00080C0E00080E0000080E0200080E0400080E0600080E0800080E0A00080E0C00080E0E000C0000000C0002000C0004000C0006000C0008000C000A000C000C000C000E000C0200000C0202000C0204000C0206000C0208000C020A000C020C000C020E000C0400000C0402000C0404000C0406000C0
310
408000C040A000C040C000C040E000C0600000C0602000C0604000C0606000C0608000C060A000C060C000C060E000C0800000C0802000C0804000C0806000C0808000C080A000C080C000C080E000C0A00000C0A02000C0A04000C0A06000C0A08000C0A0A000C0A0C000C0A0E000C0C00000C0C02000C0C04000C0C06000
310
C0C08000C0C0A000F0FBFF00A4A0A000808080000000FF0000FF000000FFFF00FF000000FF00FF00FFFF0000FFFFFF00FFFFFFFFFFFFFFFFFFFFFFFF00FFFFFFFFFFFFFF00FFFFFFFFFFFFFFFFFFFFFFFFFFFFFFFFFFFFFFFFFFFFFF00FFFFFFFFFFFFFF00FFFFFFFFFFFFFFFFFFFFFFFFFFFFFFFFFFFFFFFFFFFFFF00FFFF
310
FFFFFFFFFF00FFFFFFFFFFFFFFFFFFFFFFFFFFFFFFFFFFFFFFFFFFFF00FFFFFFFFFFFFFFFF00FFFFFFFFFFFFFFFFFFFFFFFFFFFFFFFFFFFFFFFFFFFF00FFFFFFFFFFFFFF00FFFFFFFFFFFFFFFFFFFFFFFFFFFFFFFFFFFFFFFFFFFFFF00FFFFFFFFFFFFFF00FFFFFFFFFFFFFFFFFFFFFFFFFFFFFFFFFFFFFFFFFFFF00FFFFFF
310
FFFFFFFFFF00FFFFFFFFFFFFFFFFFFFFFFFFFFFFFFFFFFFFFFFFFFFF00FFFFFFFFFFFFFF00FFFFFFFFFFFFFFFFFFFFFFFFFFFFFFFFFFFFFFFFFFFF00FFFFFFFFFFFFFFFF00FFFFFFFFFFFFFFFFFFFFFFFFFFFFFFFFFFFFFFFFFF00FFFFFFFFFFFFFFFFFF00FFFFFFFFFFFFFFFFFFFFFFFFFFFFFFFFFFFFFFFF00FFFFFFFFFF
310
FFFFFFFFFF00FFFFFFFFFFFFFFFFFFFFFFFFFFFFFFFFFFFFFF00FFFFFFFFFFFFFFFFFFFF00FFFFFFFFFFFFFFFFFFFFFFFFFFFFFFFFFFFF0000FFFFFFFFFFFFFFFFFFFFFF00FFFFFFFFFFFFFFFFFFFFFFFFFFFF00000000FFFFFFFFFFFFFFFFFFFFFFFFFF00FFFFFFFFFFFFFFFFFFFFFFFFFFFFFFFFFFFFFFFFFFFFFFFFFFFF
310
FFFFFFFF00FFFFFFFFFFFFFFFFFFFFFFFFFFFFFFFFFFFFFFFFFFFFFFFFFFFFFFFFFFFFFF00FFFFFFFFFFFFFFFFFFFFFFFFFFFFFFFFFFFFFFFFFFFFFFFFFFFFFFFFFFFFFF00FFFFFFFFFFFFFFFFFFFFFFFFFFFFFFFFFFFFFFFFFFFFFFFFFFFFFFFFFFFF00FFFFFFFFFFFFFFFFFFFFFFFFFFFFFFFFFFFFFFFFFFFFFFFFFFFFFF
310
FFFFFFFF00FFFFFFFFFFFFFFFFFFFFFFFFFFFFFFFFFFFFFFFFFFFFFFFFFFFFFFFFFFFF00FFFFFFFFFFFFFFFFFFFFFFFFFFFFFFFFFFFFFFFFFFFFFFFFFFFFFFFFFFFF00FFFFFFFFFFFFFFFFFFFFFFFFFFFFFFFFFFFFFFFFFFFFFFFFFFFFFFFFFFFF00FFFFFFFFFFFFFFFFFFFFFFFFFFFFFFFFFFFFFFFFFFFFFFFFFFFFFFFFFF
310
FF00FFFFFFFFFFFFFFFFFFFFFFFFFFFFFFFFFFFFFFFFFFFFFFFFFFFFFFFFFFFFFF00FFFFFFFFFFFFFFFFFFFFFFFFFFFFFFFFFFFFFFFFFFFFFFFFFFFFFFFFFFFF00FFFFFFFFFFFFFFFFFFFFFFFFFFFFFFFFFFFFFFFFFFFFFFFFFFFFFFFFFF0000FFFFFFFFFFFFFFFFFFFFFFFFFFFFFFFFFFFFFFFFFFFFFFFFFFFFFFFF0000FF
310
FFFFFFFFFFFFFFFFFFFFFFFFFFFFFFFFFFFFFFFFFFFFFFFFFF00000000FFFFFFFFFFFFFFFFFFFFFFFFFFFFFFFFFFFFFFFFFFFFFFFFFFFF0000FFFFFFFFFFFFFFFFFFFFFFFFFFFFFFFFFFFFFFFFFFFFFFFFFFFFFFFFFFFFFFFFFFFFFFFFFFFFFFFFFFFFFFFFFFFFFFFFFFFFFFFFFFFFFFFFFFFFFFFFFFFFFFFFFFFFFFFFFFFF
310
FFFFFFFFFFFFFFFFFFFFFFFFFFFFFFFFFFFFFFFFFFFFFFFFFFFFFFFFFFFFFFFFFFFFFFFFFFFFFFFFFFFFFFFFFFFFFFFFFFFFFFFFFFFFFFFF
102
{BLKREFS
331
4E7
102
}
  0
BLOCK_RECORD
  5
4C5
330
1
100
AcDbSymbolTableRecord
100
AcDbBlockTableRecord
  2
AI9-BLK5
340
0
310
2800000020000000200000000100080000000000000400000000000000000000000000000000000000000000000080000080000000808000800000008000800080800000C0C0C000C0DCC000F0CAA6000020400000206000002080000020A0000020C0000020E00000400000004020000040400000406000004080000040A0
310
000040C0000040E00000600000006020000060400000606000006080000060A0000060C0000060E00000800000008020000080400000806000008080000080A0000080C0000080E00000A0000000A0200000A0400000A0600000A0800000A0A00000A0C00000A0E00000C0000000C0200000C0400000C0600000C0800000C0
310
A00000C0C00000C0E00000E0000000E0200000E0400000E0600000E0800000E0A00000E0C00000E0E00040000000400020004000400040006000400080004000A0004000C0004000E00040200000402020004020400040206000402080004020A0004020C0004020E000404000004040200040404000404060004040800040
310
40A0004040C0004040E00040600000406020004060400040606000406080004060A0004060C0004060E00040800000408020004080400040806000408080004080A0004080C0004080E00040A0000040A0200040A0400040A0600040A0800040A0A00040A0C00040A0E00040C0000040C0200040C0400040C0600040C08000
310
40C0A00040C0C00040C0E00040E0000040E0200040E0400040E0600040E0800040E0A00040E0C00040E0E00080000000800020008000400080006000800080008000A0008000C0008000E00080200000802020008020400080206000802080008020A0008020C0008020E00080400000804020008040400080406000804080
310
008040A0008040C0008040E00080600000806020008060400080606000806080008060A0008060C0008060E00080800000808020008080400080806000808080008080A0008080C0008080E00080A0000080A0200080A0400080A0600080A0800080A0A00080A0C00080A0E00080C0000080C0200080C0400080C0600080C0
310
800080C0A00080C0C00080C0E00080E0000080E0200080E0400080E0600080E0800080E0A00080E0C00080E0E000C0000000C0002000C0004000C0006000C0008000C000A000C000C000C000E000C0200000C0202000C0204000C0206000C0208000C020A000C020C000C020E000C0400000C0402000C0404000C0406000C0
310
408000C040A000C040C000C040E000C0600000C0602000C0604000C0606000C0608000C060A000C060C000C060E000C0800000C0802000C0804000C0806000C0808000C080A000C080C000C080E000C0A00000C0A02000C0A04000C0A06000C0A08000C0A0A000C0A0C000C0A0E000C0C00000C0C02000C0C04000C0C06000
310
C0C08000C0C0A000F0FBFF00A4A0A000808080000000FF0000FF000000FFFF00FF000000FF00FF00FFFF0000FFFFFF00FFFFFFFFFFFFFFFFFFFFFFFFFFFFFFFFFFFFFFFFFFFFFFFFFFFFFFFFFFFFFFFFFFFFFFFFFFFFFFFF000000000000000000000000000000000000000000000000FFFFFFFFFFFFFFFF00FFFFFFFFFFFF
310
FFFFFFFFFFFFFFFFFFFFFFFFFFFFFFFFFFFFFFFFFFFFFFFFFF00FFFFFFFFFFFFFFFFFFFFFFFFFFFFFFFFFFFFFFFFFFFFFFFFFFFFFFFFFFFFFF00FFFFFFFFFFFFFFFFFFFFFFFFFFFFFFFFFFFFFFFFFFFFFFFFFFFFFFFFFFFFFF00FFFFFFFFFFFFFFFFFFFFFFFFFFFFFFFFFFFFFFFFFFFFFFFFFFFFFFFFFFFFFF00FFFFFFFFFF
310
FFFFFFFFFFFFFFFFFFFFFFFFFFFFFFFFFFFFFFFFFFFFFFFFFFFF00FFFFFFFFFFFFFFFFFFFFFFFFFFFFFFFFFFFFFFFFFFFFFFFFFFFFFFFFFFFFFF00FFFFFFFFFFFFFFFFFFFFFFFFFFFFFFFFFFFFFFFFFFFFFFFFFFFFFFFFFFFFFF00FFFFFFFFFFFFFFFFFFFFFFFFFFFFFFFFFFFFFFFFFFFFFFFFFFFFFFFFFFFFFF00FFFFFFFF
310
FFFFFFFFFFFFFFFFFFFFFFFFFFFFFFFFFFFFFFFFFFFFFFFFFFFFFF00FFFFFFFFFFFFFFFFFFFFFFFFFFFFFFFFFFFFFFFFFFFFFFFFFFFFFFFFFFFFFF00FFFFFFFFFFFFFFFFFFFFFFFFFFFFFFFFFFFFFFFFFFFFFFFFFFFFFFFFFFFFFF00FFFFFFFFFFFFFFFFFFFFFFFFFFFFFFFFFFFFFFFFFFFFFFFFFFFFFFFFFFFFFF00FFFFFF
310
FFFFFFFFFFFFFFFFFFFFFFFFFFFFFFFFFFFFFFFFFFFFFFFFFFFFFFFF00FFFFFFFFFFFFFFFFFFFFFFFFFFFFFFFFFFFFFFFFFFFFFFFFFFFFFFFFFFFFFF00FFFFFFFFFFFFFFFFFFFFFFFFFFFFFFFFFFFFFFFFFFFFFFFFFFFFFFFFFFFFFF00FFFFFFFFFFFFFFFFFFFFFFFFFFFFFFFFFFFFFFFFFFFFFFFFFFFFFFFFFFFFFF00FFFF
310
FFFFFFFFFFFFFFFFFFFFFFFFFFFFFFFFFFFFFFFFFFFFFFFFFFFFFFFFFF00FFFFFFFFFFFFFFFFFFFFFFFFFFFFFFFFFFFFFFFFFFFFFFFFFFFFFFFFFFFFFF00FFFFFFFFFFFFFFFFFFFFFFFFFFFFFFFFFFFFFFFFFFFFFFFFFFFFFFFFFFFFFF00FFFFFFFFFFFFFFFFFFFFFFFFFFFFFFFFFFFFFFFFFFFFFFFFFFFFFFFFFFFFFF00FF
310
FFFFFFFFFFFFFFFFFFFFFFFFFFFFFFFFFFFFFFFFFFFFFFFFFFFFFFFFFFFF00FFFFFFFFFFFFFFFFFFFFFFFFFFFFFFFFFFFFFFFFFFFFFFFFFFFFFFFFFFFFFF00FFFFFFFFFFFFFFFFFFFFFFFFFFFFFFFFFFFFFFFFFFFFFFFFFFFFFFFFFFFFFF00FFFFFFFFFFFFFFFFFFFFFFFFFFFFFFFFFFFFFFFFFFFFFFFFFFFFFFFFFFFFFF00
310
FFFFFFFFFFFFFFFFFFFFFFFFFFFFFFFFFFFFFFFFFFFFFFFFFFFFFFFFFFFFFF00FFFFFFFFFFFFFFFFFFFFFFFFFFFFFFFFFFFFFFFFFFFFFFFFFFFFFFFFFFFFFF00FFFFFFFFFFFFFFFFFFFFFFFFFFFFFFFFFFFFFFFFFFFFFFFFFFFFFFFFFFFFFF00FFFFFFFFFFFFFFFFFFFFFFFFFFFFFFFFFFFFFFFFFFFFFFFFFFFFFFFFFFFFFF
310
00FFFFFFFFFFFFFFFFFFFFFFFFFFFF000000000000000000FFFFFFFFFFFFFFFF00FFFFFFFFFFFFFFFFFFFFFFFFFFFF00FFFFFFFFFFFFFFFF
102
{BLKREFS
331
4E8
102
}
  0
BLOCK_RECORD
  5
4CA
330
1
100
AcDbSymbolTableRecord
100
AcDbBlockTableRecord
  2
AI9-BLK4
340
0
310
2800000020000000200000000100080000000000000400000000000000000000000000000000000000000000000080000080000000808000800000008000800080800000C0C0C000C0DCC000F0CAA6000020400000206000002080000020A0000020C0000020E00000400000004020000040400000406000004080000040A0
310
000040C0000040E00000600000006020000060400000606000006080000060A0000060C0000060E00000800000008020000080400000806000008080000080A0000080C0000080E00000A0000000A0200000A0400000A0600000A0800000A0A00000A0C00000A0E00000C0000000C0200000C0400000C0600000C0800000C0
310
A00000C0C00000C0E00000E0000000E0200000E0400000E0600000E0800000E0A00000E0C00000E0E00040000000400020004000400040006000400080004000A0004000C0004000E00040200000402020004020400040206000402080004020A0004020C0004020E000404000004040200040404000404060004040800040
310
40A0004040C0004040E00040600000406020004060400040606000406080004060A0004060C0004060E00040800000408020004080400040806000408080004080A0004080C0004080E00040A0000040A0200040A0400040A0600040A0800040A0A00040A0C00040A0E00040C0000040C0200040C0400040C0600040C08000
310
40C0A00040C0C00040C0E00040E0000040E0200040E0400040E0600040E0800040E0A00040E0C00040E0E00080000000800020008000400080006000800080008000A0008000C0008000E00080200000802020008020400080206000802080008020A0008020C0008020E00080400000804020008040400080406000804080
310
008040A0008040C0008040E00080600000806020008060400080606000806080008060A0008060C0008060E00080800000808020008080400080806000808080008080A0008080C0008080E00080A0000080A0200080A0400080A0600080A0800080A0A00080A0C00080A0E00080C0000080C0200080C0400080C0600080C0
310
800080C0A00080C0C00080C0E00080E0000080E0200080E0400080E0600080E0800080E0A00080E0C00080E0E000C0000000C0002000C0004000C0006000C0008000C000A000C000C000C000E000C0200000C0202000C0204000C0206000C0208000C020A000C020C000C020E000C0400000C0402000C0404000C0406000C0
310
408000C040A000C040C000C040E000C0600000C0602000C0604000C0606000C0608000C060A000C060C000C060E000C0800000C0802000C0804000C0806000C0808000C080A000C080C000C080E000C0A00000C0A02000C0A04000C0A06000C0A08000C0A0A000C0A0C000C0A0E000C0C00000C0C02000C0C04000C0C06000
310
C0C08000C0C0A000F0FBFF00A4A0A000808080000000FF0000FF000000FFFF00FF000000FF00FF00FFFF0000FFFFFF00FFFFFFFFFFFFFFFFFFFFFFFFFFFFFFFFFFFFFFFFFFFFFFFFFFFFFFFFFFFFFFFFFFFFFFFFFFFFFFFFFFFFFFFFFFFF00000000FFFFFFFFFFFFFFFFFFFFFF000000FFFFFFFFFFFFFFFFFFFFFFFFFFFF00
310
FFFF00FFFFFFFFFFFFFFFFFFFFFF00FFFFFFFFFFFFFFFFFFFFFFFFFFFFFFFF00FFFF00FFFFFFFFFFFFFFFFFFFFFF00FFFFFFFFFFFFFFFFFFFFFFFFFFFFFFFF00FFFF00FFFFFFFFFFFFFFFFFFFFFF00FFFFFFFFFFFFFFFFFFFFFFFFFFFFFFFF00FFFF00FFFFFFFFFFFFFFFFFFFFFF00FFFFFFFFFFFFFFFFFFFFFFFFFFFFFFFF
310
00FFFF00FFFFFFFFFFFFFFFFFFFFFF00FFFFFFFFFFFFFFFFFFFFFFFFFFFFFFFF00FFFF00FFFFFFFFFFFFFFFFFFFFFF00FFFFFFFFFFFFFFFFFFFFFFFFFFFFFFFF00FFFF00FFFFFFFFFFFFFFFFFFFFFF00FFFFFFFFFFFFFFFFFFFFFFFFFFFFFFFF00FFFF00FFFFFFFFFFFFFFFFFFFFFF00FFFFFFFFFFFFFFFFFFFFFFFFFFFFFF
310
FF00FFFF00FFFFFFFFFFFFFFFFFFFFFF00FFFFFFFFFFFFFFFFFFFFFFFFFFFFFFFF00FFFF00FFFFFFFFFFFFFFFFFFFFFF00FFFFFFFFFFFFFFFFFFFFFFFFFFFFFFFF00FFFF00FFFFFFFFFFFFFFFFFFFFFF00FFFFFFFFFFFFFFFFFFFFFFFFFFFFFFFF00FFFF00FFFFFFFFFFFFFFFFFFFFFF00FFFFFFFFFFFFFFFFFFFFFFFFFFFF
310
FFFF00FFFF00FFFFFFFFFFFFFFFFFFFFFF00FFFFFFFFFFFFFFFFFFFFFFFFFFFFFFFF00FFFF00FFFFFFFFFFFFFFFFFFFFFF00FFFFFFFFFFFFFFFFFFFFFFFFFFFFFFFF00FFFF00FFFFFFFFFFFFFFFFFFFFFF00FFFFFFFFFFFFFFFFFFFFFFFFFFFFFFFF00FFFF00FFFFFFFFFFFFFFFFFFFF00FFFFFFFFFFFFFFFFFFFFFFFFFFFF
310
FFFFFF00FFFF00FFFFFFFFFFFFFFFFFFFF00FFFFFFFFFFFFFFFFFFFFFFFFFFFFFFFFFF00FFFF00FFFFFFFFFFFFFFFFFFFF00FFFFFFFFFFFFFFFFFFFFFFFFFFFFFFFFFF00FFFF00FFFFFFFFFFFFFFFFFFFF00FFFFFFFFFFFFFFFFFFFFFFFFFFFFFFFFFF00FFFF00FFFFFFFFFFFFFFFFFFFF00FFFFFFFFFFFFFFFFFFFFFFFFFF
310
FFFFFFFF00FFFF00FFFFFFFFFFFFFFFFFF0000FFFF00FFFFFFFFFFFFFFFFFFFFFFFFFFFF00FFFF00FFFFFFFFFFFFFFFF0000FFFFFF00FFFFFFFFFFFFFFFFFFFFFFFFFFFF00FFFF00000000000000000000FFFFFFFF00FFFFFFFFFFFFFFFFFFFFFFFFFFFF00FFFFFFFFFFFFFFFFFFFFFFFFFFFFFF00FFFFFFFFFFFFFFFFFFFF
310
FFFFFFFFFF00FFFFFFFFFFFFFFFFFFFFFFFFFFFF00FFFFFFFFFFFFFFFFFFFFFFFFFFFFFFFF00FFFFFFFFFFFFFFFFFFFFFFFFFFFF00FFFFFFFFFFFFFFFFFFFFFFFFFFFFFFFF00FFFFFFFFFFFFFFFFFFFFFFFFFFFFFF00FFFFFFFFFFFFFFFFFFFFFFFFFFFFFF00FFFFFFFFFFFFFFFFFFFFFFFFFFFFFF00FFFFFFFFFFFFFFFFFF
310
FFFFFFFFFFFF00FFFF00000000000000000000FFFFFFFF00FFFFFFFFFFFFFFFFFFFFFFFFFFFF00FFFF00FFFFFFFFFFFFFFFFFF0000FFFF00
102
{BLKREFS
331
4E9
102
}
  0
BLOCK_RECORD
  5
4CF
330
1
100
AcDbSymbolTableRecord
100
AcDbBlockTableRecord
  2
AI9-BLK3
340
0
310
2800000020000000200000000100080000000000000400000000000000000000000000000000000000000000000080000080000000808000800000008000800080800000C0C0C000C0DCC000F0CAA6000020400000206000002080000020A0000020C0000020E00000400000004020000040400000406000004080000040A0
310
000040C0000040E00000600000006020000060400000606000006080000060A0000060C0000060E00000800000008020000080400000806000008080000080A0000080C0000080E00000A0000000A0200000A0400000A0600000A0800000A0A00000A0C00000A0E00000C0000000C0200000C0400000C0600000C0800000C0
310
A00000C0C00000C0E00000E0000000E0200000E0400000E0600000E0800000E0A00000E0C00000E0E00040000000400020004000400040006000400080004000A0004000C0004000E00040200000402020004020400040206000402080004020A0004020C0004020E000404000004040200040404000404060004040800040
310
40A0004040C0004040E00040600000406020004060400040606000406080004060A0004060C0004060E00040800000408020004080400040806000408080004080A0004080C0004080E00040A0000040A0200040A0400040A0600040A0800040A0A00040A0C00040A0E00040C0000040C0200040C0400040C0600040C08000
310
40C0A00040C0C00040C0E00040E0000040E0200040E0400040E0600040E0800040E0A00040E0C00040E0E00080000000800020008000400080006000800080008000A0008000C0008000E00080200000802020008020400080206000802080008020A0008020C0008020E00080400000804020008040400080406000804080
310
008040A0008040C0008040E00080600000806020008060400080606000806080008060A0008060C0008060E00080800000808020008080400080806000808080008080A0008080C0008080E00080A0000080A0200080A0400080A0600080A0800080A0A00080A0C00080A0E00080C0000080C0200080C0400080C0600080C0
310
800080C0A00080C0C00080C0E00080E0000080E0200080E0400080E0600080E0800080E0A00080E0C00080E0E000C0000000C0002000C0004000C0006000C0008000C000A000C000C000C000E000C0200000C0202000C0204000C0206000C0208000C020A000C020C000C020E000C0400000C0402000C0404000C0406000C0
310
408000C040A000C040C000C040E000C0600000C0602000C0604000C0606000C0608000C060A000C060C000C060E000C0800000C0802000C0804000C0806000C0808000C080A000C080C000C080E000C0A00000C0A02000C0A04000C0A06000C0A08000C0A0A000C0A0C000C0A0E000C0C00000C0C02000C0C04000C0C06000
310
C0C08000C0C0A000F0FBFF00A4A0A000808080000000FF0000FF000000FFFF00FF000000FF00FF00FFFF0000FFFFFF00FFFFFFFFFFFFFFFFFFFFFFFFFFFFFFFFFFFFFFFFFFFFFFFFFFFFFFFFFFFFFFFFFFFFFFFFFFFFFFFFFFFFFFFFFFFFFF0000FFFFFFFFFFFFFFFFFFFFFFFFFFFFFFFFFFFFFFFFFFFFFFFFFFFFFFFFFFFF
310
0000FFFFFFFFFFFFFFFFFFFFFFFFFFFFFFFFFFFFFFFFFFFFFFFFFFFFFFFFFFFF0000FFFFFFFFFFFFFFFFFFFFFFFFFFFFFFFFFFFFFFFFFFFFFFFFFFFFFFFFFFFF0000FFFFFFFFFFFFFFFFFFFFFFFFFFFFFFFFFFFFFFFFFFFFFFFFFFFFFFFFFFFF0000FFFFFFFFFFFFFFFFFFFFFFFFFFFFFFFFFFFFFFFFFFFFFFFFFFFFFFFFFF
310
FF0000FFFFFFFFFFFFFFFFFFFFFFFFFFFFFFFFFFFFFFFFFFFFFFFFFFFFFFFFFFFF0000FFFFFFFFFFFFFFFFFFFFFFFFFFFFFFFFFFFFFFFFFFFFFFFFFFFFFFFFFFFF0000FFFFFFFFFFFFFFFFFFFFFFFFFFFFFFFFFFFFFFFFFFFFFFFFFFFFFFFFFFFF0000FFFFFFFFFFFFFFFFFFFFFFFFFFFFFFFFFFFFFFFFFFFFFFFFFFFFFFFF
310
FFFF0000FFFFFFFFFFFFFFFFFFFFFFFFFFFFFFFFFFFFFFFFFFFFFFFFFFFFFFFFFFFF0000FFFFFFFFFFFFFFFFFFFFFFFFFFFFFFFFFFFFFFFFFFFFFFFFFFFFFFFFFFFF0000FFFFFFFFFFFFFFFFFFFFFFFFFFFFFFFFFFFFFFFFFFFFFFFFFFFFFFFFFFFF0000FFFFFFFFFFFFFFFFFFFFFFFFFFFFFFFFFFFFFFFFFFFFFFFFFFFFFF
310
FFFFFF0000FFFFFFFFFFFFFFFFFFFFFFFFFFFFFFFFFFFFFFFFFFFFFFFFFFFFFFFFFFFF0000FFFFFFFFFFFFFFFFFFFFFFFFFFFFFFFFFFFFFFFFFFFFFFFFFFFFFFFFFFFF0000FFFFFFFFFFFFFFFFFFFFFFFFFFFFFFFFFFFFFFFFFFFFFFFFFFFFFFFFFFFF0000FFFFFFFFFFFFFFFFFFFFFFFFFFFFFFFFFFFFFFFFFFFFFFFFFFFF
310
FFFFFFFF0000FFFFFFFFFFFFFFFFFFFFFFFFFFFFFFFFFFFFFFFFFFFFFFFFFFFFFFFFFFFF0000FFFFFFFFFFFFFFFFFFFFFFFFFFFFFFFFFFFFFFFFFFFFFFFFFFFFFFFFFFFF0000FFFFFFFFFFFFFFFFFFFFFFFFFFFFFFFFFFFFFFFFFFFFFFFFFFFFFFFFFFFF0000FFFFFFFFFFFFFFFFFFFFFFFFFFFFFFFFFFFFFFFFFFFFFFFFFF
310
FFFFFFFFFF0000FFFFFFFFFFFFFFFFFFFFFFFFFFFFFFFFFFFFFFFFFFFFFFFFFFFFFFFFFFFF0000FFFFFFFFFFFFFFFFFFFFFFFFFFFFFFFFFFFFFFFFFFFFFFFFFFFFFFFFFFFF0000FFFFFFFFFFFFFFFFFFFFFFFFFFFFFFFFFFFFFFFFFFFFFFFFFFFFFFFFFFFF0000FFFFFFFFFFFFFFFFFFFFFFFFFFFFFFFFFFFFFFFFFFFFFFFF
310
FFFFFFFFFFFF0000FFFFFFFFFFFFFFFFFFFFFFFFFFFFFFFFFFFFFFFFFFFFFFFFFFFFFFFFFFFF0000FFFFFFFFFFFFFFFFFFFFFFFFFFFFFFFFFFFFFFFFFFFFFFFFFFFFFFFFFFFF0000FFFFFFFFFFFFFFFFFFFFFFFFFFFFFFFFFFFFFFFFFFFFFFFFFFFFFFFFFFFF0000FFFFFFFFFFFFFFFFFFFFFFFFFFFFFFFFFFFFFFFFFFFFFF
310
FFFFFFFFFFFFFF0000FFFFFFFFFFFFFFFFFFFFFFFFFFFFFFFFFFFFFFFFFFFFFFFFFFFFFFFFFFFFFFFFFFFFFFFFFFFFFFFFFFFFFFFFFFFFFF
102
{BLKREFS
331
4EA
102
}
  0
BLOCK_RECORD
  5
4D4
330
1
100
AcDbSymbolTableRecord
100
AcDbBlockTableRecord
  2
AI9-BLK2
340
0
310
2800000020000000200000000100080000000000000400000000000000000000000000000000000000000000000080000080000000808000800000008000800080800000C0C0C000C0DCC000F0CAA6000020400000206000002080000020A0000020C0000020E00000400000004020000040400000406000004080000040A0
310
000040C0000040E00000600000006020000060400000606000006080000060A0000060C0000060E00000800000008020000080400000806000008080000080A0000080C0000080E00000A0000000A0200000A0400000A0600000A0800000A0A00000A0C00000A0E00000C0000000C0200000C0400000C0600000C0800000C0
310
A00000C0C00000C0E00000E0000000E0200000E0400000E0600000E0800000E0A00000E0C00000E0E00040000000400020004000400040006000400080004000A0004000C0004000E00040200000402020004020400040206000402080004020A0004020C0004020E000404000004040200040404000404060004040800040
310
40A0004040C0004040E00040600000406020004060400040606000406080004060A0004060C0004060E00040800000408020004080400040806000408080004080A0004080C0004080E00040A0000040A0200040A0400040A0600040A0800040A0A00040A0C00040A0E00040C0000040C0200040C0400040C0600040C08000
310
40C0A00040C0C00040C0E00040E0000040E0200040E0400040E0600040E0800040E0A00040E0C00040E0E00080000000800020008000400080006000800080008000A0008000C0008000E00080200000802020008020400080206000802080008020A0008020C0008020E00080400000804020008040400080406000804080
310
008040A0008040C0008040E00080600000806020008060400080606000806080008060A0008060C0008060E00080800000808020008080400080806000808080008080A0008080C0008080E00080A0000080A0200080A0400080A0600080A0800080A0A00080A0C00080A0E00080C0000080C0200080C0400080C0600080C0
310
800080C0A00080C0C00080C0E00080E0000080E0200080E0400080E0600080E0800080E0A00080E0C00080E0E000C0000000C0002000C0004000C0006000C0008000C000A000C000C000C000E000C0200000C0202000C0204000C0206000C0208000C020A000C020C000C020E000C0400000C0402000C0404000C0406000C0
310
408000C040A000C040C000C040E000C0600000C0602000C0604000C0606000C0608000C060A000C060C000C060E000C0800000C0802000C0804000C0806000C0808000C080A000C080C000C080E000C0A00000C0A02000C0A04000C0A06000C0A08000C0A0A000C0A0C000C0A0E000C0C00000C0C02000C0C04000C0C06000
310
C0C08000C0C0A000F0FBFF00A4A0A000808080000000FF0000FF000000FFFF00FF000000FF00FF00FFFF0000FFFFFF00FFFFFFFFFFFFFFFFFFFFFFFFFFFFFFFFFFFFFFFFFFFFFFFFFFFFFFFFFFFFFFFFFFFFFFFFFFFFFFFFFFFFFFFFFFFFFF0000FFFFFFFFFFFFFFFFFFFFFFFFFFFFFFFFFFFFFFFFFFFFFFFFFFFFFFFFFFFF
310
0000FFFFFFFFFFFFFFFFFFFFFFFFFFFFFFFFFFFFFFFFFFFFFFFFFFFFFFFFFFFF0000FFFFFFFFFFFFFFFFFFFFFFFFFFFFFFFFFFFFFFFFFFFFFFFFFFFFFFFFFF00FFFF00FFFFFFFFFFFFFFFFFFFFFFFFFFFFFFFFFFFFFFFFFFFFFFFFFFFFFFFF00FFFF00FFFFFFFFFFFFFFFFFFFFFFFFFFFFFFFFFFFFFFFFFFFFFFFFFFFFFFFF
310
00FF0000FFFFFFFFFFFFFFFFFFFFFFFFFFFFFFFFFFFFFFFFFFFFFFFFFFFFFFFF00FF0000FFFFFFFFFFFFFFFFFFFFFFFFFFFFFFFFFFFFFFFFFFFFFFFFFFFFFFFF00FF0000FFFFFFFFFFFFFFFFFFFFFFFFFFFFFFFFFFFFFFFFFFFFFFFFFFFFFFFF00000000FFFFFFFFFFFFFFFFFFFFFFFFFFFFFFFFFFFFFFFFFFFFFFFFFFFFFF
310
00FF00FF0000FFFFFFFFFFFFFFFFFFFFFFFFFFFFFFFFFFFFFFFFFFFFFFFFFFFF00FF00FF0000FFFFFFFFFFFFFFFFFFFFFFFFFFFFFFFFFFFFFFFFFFFFFFFFFFFF00FF00FF0000FFFFFFFFFFFFFFFFFFFFFFFFFFFFFFFFFFFFFFFFFFFFFFFFFFFF00FF00FF0000FFFFFFFFFFFFFFFFFFFFFFFFFFFFFFFFFFFFFFFFFFFFFFFFFF
310
FF00FF00FF0000FFFFFFFFFFFFFFFFFFFFFFFFFFFFFFFFFFFFFFFFFFFFFFFFFFFF0000FFFF0000FFFFFFFFFFFFFFFFFFFFFFFFFFFFFFFFFFFFFFFFFFFFFFFFFF00FF00FFFF00FF00FFFFFFFFFFFFFFFFFFFFFFFFFFFFFFFFFFFFFFFFFFFFFFFF00FF00FFFF00FF00FFFFFFFFFFFFFFFFFFFFFFFFFFFFFFFFFFFFFFFFFFFFFF
310
FF00FF00FFFFFF0000FFFFFFFFFFFFFFFFFFFFFFFFFFFFFFFFFFFFFFFFFFFFFFFF00FF00FFFFFF0000FFFFFFFFFFFFFFFFFFFFFFFFFFFFFFFFFFFFFFFFFFFFFFFF00FF00FFFFFF0000FFFFFFFFFFFFFFFFFFFFFFFFFFFFFFFFFFFFFFFFFFFFFFFF0000FFFFFFFF0000FFFFFFFFFFFFFFFFFFFFFFFFFFFFFFFFFFFFFFFFFFFF
310
FF00FF00FFFFFFFF00FF00FFFFFFFFFFFFFFFFFFFFFFFFFFFFFFFFFFFFFFFFFFFF00FF00FFFFFFFF00FF00FFFFFFFFFFFFFFFFFFFFFFFFFFFFFFFFFFFFFFFFFFFF00FF00FFFFFFFF00FF00FFFFFFFFFFFFFFFFFFFFFFFFFFFFFFFFFFFFFFFFFFFF00FF00FFFFFFFF00FF00FFFFFFFFFFFFFFFFFFFFFFFFFFFFFFFFFFFFFFFF
310
FFFF00FF00FFFFFFFFFF0000FFFFFFFFFFFFFFFFFFFFFFFFFFFFFFFFFFFFFFFFFFFF0000FFFFFFFFFFFF0000FFFFFFFFFFFFFFFFFFFFFFFFFFFFFFFFFFFFFFFFFF00FF00FFFFFFFFFFFF00FF00FFFFFFFFFFFFFFFFFFFFFFFFFFFFFFFFFFFFFFFF00FF00FFFFFFFFFFFF00FF00FFFFFFFFFFFFFFFFFFFFFFFFFFFFFFFFFFFF
310
FFFF000000FFFFFFFFFFFF000000FFFFFFFFFFFFFFFFFFFFFFFFFFFFFFFFFFFFFFFFFFFFFFFFFFFFFFFFFFFFFFFFFFFFFFFFFFFFFFFFFFFF
102
{BLKREFS
331
4EB
102
}
  0
BLOCK_RECORD
  5
4D9
330
1
100
AcDbSymbolTableRecord
100
AcDbBlockTableRecord
  2
AI9-BLK1
340
0
310
2800000020000000200000000100080000000000000400000000000000000000000000000000000000000000000080000080000000808000800000008000800080800000C0C0C000C0DCC000F0CAA6000020400000206000002080000020A0000020C0000020E00000400000004020000040400000406000004080000040A0
310
000040C0000040E00000600000006020000060400000606000006080000060A0000060C0000060E00000800000008020000080400000806000008080000080A0000080C0000080E00000A0000000A0200000A0400000A0600000A0800000A0A00000A0C00000A0E00000C0000000C0200000C0400000C0600000C0800000C0
310
A00000C0C00000C0E00000E0000000E0200000E0400000E0600000E0800000E0A00000E0C00000E0E00040000000400020004000400040006000400080004000A0004000C0004000E00040200000402020004020400040206000402080004020A0004020C0004020E000404000004040200040404000404060004040800040
310
40A0004040C0004040E00040600000406020004060400040606000406080004060A0004060C0004060E00040800000408020004080400040806000408080004080A0004080C0004080E00040A0000040A0200040A0400040A0600040A0800040A0A00040A0C00040A0E00040C0000040C0200040C0400040C0600040C08000
310
40C0A00040C0C00040C0E00040E0000040E0200040E0400040E0600040E0800040E0A00040E0C00040E0E00080000000800020008000400080006000800080008000A0008000C0008000E00080200000802020008020400080206000802080008020A0008020C0008020E00080400000804020008040400080406000804080
310
008040A0008040C0008040E00080600000806020008060400080606000806080008060A0008060C0008060E00080800000808020008080400080806000808080008080A0008080C0008080E00080A0000080A0200080A0400080A0600080A0800080A0A00080A0C00080A0E00080C0000080C0200080C0400080C0600080C0
310
800080C0A00080C0C00080C0E00080E0000080E0200080E0400080E0600080E0800080E0A00080E0C00080E0E000C0000000C0002000C0004000C0006000C0008000C000A000C000C000C000E000C0200000C0202000C0204000C0206000C0208000C020A000C020C000C020E000C0400000C0402000C0404000C0406000C0
310
408000C040A000C040C000C040E000C0600000C0602000C0604000C0606000C0608000C060A000C060C000C060E000C0800000C0802000C0804000C0806000C0808000C080A000C080C000C080E000C0A00000C0A02000C0A04000C0A06000C0A08000C0A0A000C0A0C000C0A0E000C0C00000C0C02000C0C04000C0C06000
310
C0C08000C0C0A000F0FBFF00A4A0A000808080000000FF0000FF000000FFFF00FF000000FF00FF00FFFF0000FFFFFF00FFFFFFFFFFFFFFFFFFFFFFFFFFFFFFFFFFFFFFFFFFFFFFFFFFFFFFFFFFFFFFFFFFFFFFFFFFFFFFFFFFFFFF00000000000000000000FFFFFFFFFFFFFFFFFFFFFFFFFFFFFFFFFFFFFFFFFFFF00FFFFFF
310
FFFFFFFFFF00FFFFFFFFFFFFFFFFFFFFFFFFFFFFFFFFFFFFFFFFFFFF00FFFFFFFFFFFFFFFF00FFFFFFFFFFFFFFFFFFFFFFFFFFFFFFFFFFFFFFFFFFFF00FFFFFFFFFFFFFFFF00FFFFFFFFFFFFFFFFFFFFFFFFFFFFFFFFFFFFFFFFFFFF00FF0000000000000000FFFFFFFFFFFFFFFFFFFFFFFFFFFFFFFFFFFFFFFFFFFF00FF00
310
FFFFFFFFFFFFFFFFFFFFFFFFFFFFFFFFFFFFFFFFFFFFFFFFFFFFFFFFFF00FF00FFFFFFFFFFFFFFFFFFFFFFFFFFFFFFFFFFFFFFFFFFFFFFFFFFFFFFFFFF00FF00FFFFFFFFFFFFFFFFFFFFFFFFFFFFFFFFFFFFFFFFFFFFFFFFFFFFFFFFFF00FF00FFFFFFFFFFFFFFFFFFFFFFFFFFFFFFFFFFFFFFFFFFFFFFFFFFFFFFFFFF00FF
310
00FFFFFFFFFFFFFFFFFFFFFFFFFFFFFFFFFFFFFFFFFFFFFFFFFFFFFFFFFF00FF00FFFFFFFFFFFFFFFFFFFFFFFFFFFFFFFFFFFFFFFFFFFFFFFFFFFFFFFFFF00FF00FFFFFFFFFFFFFFFFFFFFFFFFFFFFFFFFFFFFFFFFFFFFFFFFFFFFFFFFFF00FF00FFFFFFFFFFFFFFFFFFFFFFFFFFFFFFFFFFFFFFFFFFFFFFFFFFFFFFFFFF00
310
FF00000000000000FFFFFFFFFFFFFFFFFFFFFFFFFFFFFFFFFFFFFFFFFFFFFF00FFFFFFFFFFFFFF00FFFFFFFFFFFFFFFFFFFFFFFFFFFFFFFFFFFFFFFFFFFFFF00FFFFFFFFFFFFFF00FFFFFFFFFFFFFFFFFFFFFFFFFFFFFFFFFFFFFFFFFFFFFF00FFFFFFFFFFFFFF00FFFFFFFFFFFFFFFFFFFFFFFFFFFFFFFFFFFFFFFFFFFFFF
310
00FF00000000000000FFFFFFFFFFFFFFFFFFFFFFFFFFFFFFFFFFFFFFFFFFFFFF00FF00FFFFFFFFFFFFFFFFFFFFFFFFFFFFFFFFFFFFFFFFFFFFFFFFFFFFFFFFFF00FF00FFFFFFFFFFFFFFFFFFFFFFFFFFFFFFFFFFFFFFFFFFFFFFFFFFFFFFFFFF00FF00FFFFFFFFFFFFFFFFFFFFFFFFFFFFFFFFFFFFFFFFFFFFFFFFFFFFFFFF
310
FF00FF00FFFFFFFFFFFFFFFFFFFFFFFFFFFFFFFFFFFFFFFFFFFFFFFFFFFFFFFFFF00FF00FFFFFFFFFFFFFFFFFFFFFFFFFFFFFFFFFFFFFFFFFFFFFFFFFFFFFFFFFF00FF00FFFFFFFFFFFFFFFFFFFFFFFFFFFFFFFFFFFFFFFFFFFFFFFFFFFFFFFFFF00FF00FFFFFFFFFFFFFFFFFFFFFFFFFFFFFFFFFFFFFFFFFFFFFFFFFFFFFF
310
FFFF00FF0000000000000000FFFFFFFFFFFFFFFFFFFFFFFFFFFFFFFFFFFFFFFFFFFF00FFFFFFFFFFFFFFFF00FFFFFFFFFFFFFFFFFFFFFFFFFFFFFFFFFFFFFFFFFFFF00FFFFFFFFFFFFFFFF00FFFFFFFFFFFFFFFFFFFFFFFFFFFFFFFFFFFFFFFFFFFF00FFFFFFFFFFFFFFFF00FFFFFFFFFFFFFFFFFFFFFFFFFFFFFFFFFFFFFF
310
FFFFFF00000000000000000000FFFFFFFFFFFFFFFFFFFFFFFFFFFFFFFFFFFFFFFFFFFFFFFFFFFFFFFFFFFFFFFFFFFFFFFFFFFFFFFFFFFFFF
102
{BLKREFS
331
4EC
102
}
  0
BLOCK_RECORD
  5
4DE
330
1
100
AcDbSymbolTableRecord
100
AcDbBlockTableRecord
  2
HD_LLC_logo_OT5
340
0
310
2800000020000000200000000100080000000000000400000000000000000000000000000000000000000000000080000080000000808000800000008000800080800000C0C0C000C0DCC000F0CAA6000020400000206000002080000020A0000020C0000020E00000400000004020000040400000406000004080000040A0
310
000040C0000040E00000600000006020000060400000606000006080000060A0000060C0000060E00000800000008020000080400000806000008080000080A0000080C0000080E00000A0000000A0200000A0400000A0600000A0800000A0A00000A0C00000A0E00000C0000000C0200000C0400000C0600000C0800000C0
310
A00000C0C00000C0E00000E0000000E0200000E0400000E0600000E0800000E0A00000E0C00000E0E00040000000400020004000400040006000400080004000A0004000C0004000E00040200000402020004020400040206000402080004020A0004020C0004020E000404000004040200040404000404060004040800040
310
40A0004040C0004040E00040600000406020004060400040606000406080004060A0004060C0004060E00040800000408020004080400040806000408080004080A0004080C0004080E00040A0000040A0200040A0400040A0600040A0800040A0A00040A0C00040A0E00040C0000040C0200040C0400040C0600040C08000
310
40C0A00040C0C00040C0E00040E0000040E0200040E0400040E0600040E0800040E0A00040E0C00040E0E00080000000800020008000400080006000800080008000A0008000C0008000E00080200000802020008020400080206000802080008020A0008020C0008020E00080400000804020008040400080406000804080
310
008040A0008040C0008040E00080600000806020008060400080606000806080008060A0008060C0008060E00080800000808020008080400080806000808080008080A0008080C0008080E00080A0000080A0200080A0400080A0600080A0800080A0A00080A0C00080A0E00080C0000080C0200080C0400080C0600080C0
310
800080C0A00080C0C00080C0E00080E0000080E0200080E0400080E0600080E0800080E0A00080E0C00080E0E000C0000000C0002000C0004000C0006000C0008000C000A000C000C000C000E000C0200000C0202000C0204000C0206000C0208000C020A000C020C000C020E000C0400000C0402000C0404000C0406000C0
310
408000C040A000C040C000C040E000C0600000C0602000C0604000C0606000C0608000C060A000C060C000C060E000C0800000C0802000C0804000C0806000C0808000C080A000C080C000C080E000C0A00000C0A02000C0A04000C0A06000C0A08000C0A0A000C0A0C000C0A0E000C0C00000C0C02000C0C04000C0C06000
310
C0C08000C0C0A000F0FBFF00A4A0A000808080000000FF0000FF000000FFFF00FF000000FF00FF00FFFF0000FFFFFF00FFFFFFFFFFFFFFFFFFFFFFFFFFFFFFFFFFFFFFFFFFFFFFFFFFFFFFFFFFFFFFFFFFFFFFFFFFFFFFFFFFFFFFFFFFFFFFFFFFFFFFFFFFFFFFFFFFFFFFFFFFFFFFFFFFFFFFFFFFFFFFFFFFFFFFFFFFFFFF
310
FFFFFFFFFFFFFFFFFFFFFFFFFFFFFFFFFFFFFFFFFFFFFFFFFFFFFFFFFFFFFFFFFFFFFFFFFFFFFFFFFFFFFFFFFFFFFFFFFFFFFFFFFFFFFFFFFFFFFFFFFFFFFFFFFFFFFFFFFFFFFFFFFFFFFFFFFFFFFFFFFFFFFFFFFFFFFFFFFFFFFFFFFFFFFFFFFFFFFFFFFFFFFFFFFFFFFFFFFFFFFFFFFFFFFFFFFFFFFFFFFFFFFFFFFFFFFF
310
FFFFFFFFFFFFFFFFFFFFFFFFFFFFFFFFFFFFFFFFFFFFFFFFFFFFFFFFFFFFFFFFFFFFFFFFFFFFFFFFFFFFFFFFFFFFFFFFFFFFFFFFFFFFFFFFFFFFFFFFFFFFFFFFFFFFFFFFFFFFFFFFFFFFFFFFFFFFFFFFFFFFFFFFFFFFFFFFFFFFFFFFFFFFFFFFFFFFFFFFFFFFFFFFFFFFFFFFFFFFFFFFFFFFFFFFFFFFFFFFFFFFFFFFFFFFFF
310
FFFFFFFFFFFFFFFFFFFFFFFFFFFFFFFFFFFFFFFFFFFFFFFFFFFFFFFFFFFFFFFFFFFFFFFFFFFFFFFFFFFFFFFFFFFFFFFFFFFFFFFF0000000000000000000000000000000000000000000000000000000000FFFFFF0000000000000000000000000000000000FFFFFFFFFFFFFFFFFFFF0000FFFFFF0000000000000000000000
310
00000000000000FFFFFFFFFFFFFFFFFFFF0000FFFF000000000000000000000000000000000000FFFFFF00000000FFFFFF0000FFFF00FFFFFFFFFFFF00FFFFFF00FFFFFFFFFF00FFFFFF0000000000FFFF0000FFFF00FFFFFFFFFFFF00FFFFFF00FFFFFFFFFF00FFFFFF00FFFF0000FFFF0000FFFF00FFFFFFFFFFFF00FFFF
310
00FFFFFFFFFFFF00FFFFFF00FFFF0000FFFF0000FFFF0000000000FFFF00000000FFFFFF00000000FFFFFF00000000FFFFFF0000FFFFFFFFFFFF00FFFFFFFFFFFFFFFFFF00FFFFFFFFFFFFFFFFFFFFFFFFFF0000FFFFFFFFFFFF00FFFFFFFFFFFFFFFFFF00FFFFFFFFFFFFFFFFFFFFFFFFFF0000FFFFFFFFFFFF00FFFFFFFF
310
FFFFFFFFFF00FFFFFFFFFFFFFFFFFFFFFFFF0000FFFFFF0000000000FFFF00000000FFFFFF0000000000000000000000000000FFFFFFFF00FFFFFFFFFFFF00FFFF00FFFFFFFFFFFF00FFFFFFFFFFFFFFFFFFFFFFFFFFFF00FFFFFFFFFFFF00FFFFFF00FFFFFFFFFF00FFFFFFFFFFFFFFFFFFFFFFFFFFFF0000000000000000
310
FFFFFF00000000000000FFFFFFFFFFFFFFFFFFFFFFFFFFFFFFFFFFFFFFFFFFFFFFFFFFFFFFFFFFFFFFFFFFFFFFFFFFFFFFFFFFFFFFFFFFFFFFFFFFFFFFFFFFFFFFFFFFFFFFFFFFFFFFFFFFFFFFFFFFFFFFFFFFFFFFFFFFFFFFFFFFFFFFFFFFFFFFFFFFFFFFFFFFFFFFFFFFFFFFFFFFFFFFFFFFFFFFFFFFFFFFFFFFFFFFFFFF
310
FFFFFFFFFFFFFFFFFFFFFFFFFFFFFFFFFFFFFFFFFFFFFFFFFFFFFFFFFFFFFFFFFFFFFFFFFFFFFFFFFFFFFFFFFFFFFFFFFFFFFFFFFFFFFFFF
102
{BLKREFS
331
504
102
}
  0
BLOCK_RECORD
  5
503
330
1
100
AcDbSymbolTableRecord
100
AcDbBlockTableRecord
  2
HD logo-new
340
0
310
2800000020000000200000000100080000000000000400000000000000000000000000000000000000000000000080000080000000808000800000008000800080800000C0C0C000C0DCC000F0CAA6000020400000206000002080000020A0000020C0000020E00000400000004020000040400000406000004080000040A0
310
000040C0000040E00000600000006020000060400000606000006080000060A0000060C0000060E00000800000008020000080400000806000008080000080A0000080C0000080E00000A0000000A0200000A0400000A0600000A0800000A0A00000A0C00000A0E00000C0000000C0200000C0400000C0600000C0800000C0
310
A00000C0C00000C0E00000E0000000E0200000E0400000E0600000E0800000E0A00000E0C00000E0E00040000000400020004000400040006000400080004000A0004000C0004000E00040200000402020004020400040206000402080004020A0004020C0004020E000404000004040200040404000404060004040800040
310
40A0004040C0004040E00040600000406020004060400040606000406080004060A0004060C0004060E00040800000408020004080400040806000408080004080A0004080C0004080E00040A0000040A0200040A0400040A0600040A0800040A0A00040A0C00040A0E00040C0000040C0200040C0400040C0600040C08000
310
40C0A00040C0C00040C0E00040E0000040E0200040E0400040E0600040E0800040E0A00040E0C00040E0E00080000000800020008000400080006000800080008000A0008000C0008000E00080200000802020008020400080206000802080008020A0008020C0008020E00080400000804020008040400080406000804080
310
008040A0008040C0008040E00080600000806020008060400080606000806080008060A0008060C0008060E00080800000808020008080400080806000808080008080A0008080C0008080E00080A0000080A0200080A0400080A0600080A0800080A0A00080A0C00080A0E00080C0000080C0200080C0400080C0600080C0
310
800080C0A00080C0C00080C0E00080E0000080E0200080E0400080E0600080E0800080E0A00080E0C00080E0E000C0000000C0002000C0004000C0006000C0008000C000A000C000C000C000E000C0200000C0202000C0204000C0206000C0208000C020A000C020C000C020E000C0400000C0402000C0404000C0406000C0
310
408000C040A000C040C000C040E000C0600000C0602000C0604000C0606000C0608000C060A000C060C000C060E000C0800000C0802000C0804000C0806000C0808000C080A000C080C000C080E000C0A00000C0A02000C0A04000C0A06000C0A08000C0A0A000C0A0C000C0A0E000C0C00000C0C02000C0C04000C0C06000
310
C0C08000C0C0A000F0FBFF00A4A0A000808080000000FF0000FF000000FFFF00FF000000FF00FF00FFFF0000FFFFFF00FFFFFFFFFFFFFFFFFFFFFFFFFFFFFFFFFFFFFFFFFFFFFFFFFFFFFFFFFFFFFFFFFFFFFFFFFFFFFFFFFFFFFFFFFFFFFFFFFFFFFFFFFFFFFFFFFFFFFFFFFFFFFFFFFFFFFFFFFFFFFFFFFFFFFFFFFFFFFF
310
FFFFFFFFFFFFFFFFFFFFFFFFFFFFFFFFFFFFFFFFFFFFFFFFFFFFFFFFFFFFFFFFFFFFFFFFFFFFFFFFFFFFFFFFFFFFFFFFFFFFFFFFFFFFFFFFFFFFFFFFFFFFFFFFFFFFFFFFFFFFFFFFFFFFFFFFFFFFFFFFFFFFFFFFFFFFFFFFFFFFFFFFFFFFFFFFFFFFFFFFFFFFFFFFFFFFFFFFFFFFFFFFFFFFFFFFFFFFFFFFFFFFFFFFFFFFFF
310
FFFFFFFFFFFFFFFFFFFFFFFFFFFFFFFFFFFFFFFFFFFFFFFFFFFFFFFFFFFFFFFFFFFFFFFFFFFFFFFFFFFFFFFFFFFFFFFFFFFFFFFFFFFFFFFFFFFFFFFFFFFFFFFFFFFFFFFFFFFFFFFFFFFFFFFFFFFFFFFFFFFFFFFFFFFFFFFFFFFFFFFFFFFFFFFFFFFFFFFFFFFFFFFFFFFFFFFFFFFFFFFFFFFFFFFFFFFFFFFFFFFFFFFFFFFFFF
310
FFFFFFFFFFFFFFFFFFFFFFFFFFFFFFFFFFFFFFFFFFFFFFFFFFFFFFFFFFFFFFFFFFFFFFFFFFFFFFFFFFFFFFFFFFFFFFFFFFFFFFFF0000000000000000000000000000000000000000000000000000000000FFFFFF0000000000000000000000000000000000FFFFFFFFFFFFFFFFFFFF0000FFFFFF0000000000000000000000
310
00000000000000FFFFFFFFFFFFFFFFFFFF0000FFFF000000000000000000000000000000000000FFFFFF00000000FFFFFF0000FFFF00FFFFFFFFFFFF00FFFFFF00FFFFFFFFFF00FFFFFF0000000000FFFF0000FFFF00FFFFFFFFFFFF00FFFFFF00FFFFFFFFFF00FFFFFF00FFFF0000FFFF0000FFFF00FFFFFFFFFFFF00FFFF
310
00FFFFFFFFFFFF00FFFFFF00FFFF0000FFFF0000FFFF0000000000FFFF00000000FFFFFF00000000FFFFFF00000000FFFFFF0000FFFFFFFFFFFF00FFFFFFFFFFFFFFFFFF00FFFFFFFFFFFFFFFFFFFFFFFFFF0000FFFFFFFFFFFF00FFFFFFFFFFFFFFFFFF00FFFFFFFFFFFFFFFFFFFFFFFFFF0000FFFFFFFFFFFF00FFFFFFFF
310
FFFFFFFFFF00FFFFFFFFFFFFFFFFFFFFFFFF0000FFFFFF0000000000FFFF00000000FFFFFF0000000000000000000000000000FFFFFFFF00FFFFFFFFFFFF00FFFF00FFFFFFFFFFFF00FFFFFFFFFFFFFFFFFFFFFFFFFFFF00FFFFFFFFFFFF00FFFFFF00FFFFFFFFFF00FFFFFFFFFFFFFFFFFFFFFFFFFFFF0000000000000000
310
FFFFFF00000000000000FFFFFFFFFFFFFFFFFFFFFFFFFFFFFFFFFFFFFFFFFFFFFFFFFFFFFFFFFFFFFFFFFFFFFFFFFFFFFFFFFFFFFFFFFFFFFFFFFFFFFFFFFFFFFFFFFFFFFFFFFFFFFFFFFFFFFFFFFFFFFFFFFFFFFFFFFFFFFFFFFFFFFFFFFFFFFFFFFFFFFFFFFFFFFFFFFFFFFFFFFFFFFFFFFFFFFFFFFFFFFFFFFFFFFFFFFF
310
FFFFFFFFFFFFFFFFFFFFFFFFFFFFFFFFFFFFFFFFFFFFFFFFFFFFFFFFFFFFFFFFFFFFFFFFFFFFFFFFFFFFFFFFFFFFFFFFFFFFFFFFFFFFFFFF
102
{BLKREFS
331
509
331
50D
102
}
  0
BLOCK_RECORD
  5
50E
330
1
100
AcDbSymbolTableRecord
100
AcDbBlockTableRecord
  2
NTC
340
0
310
2800000020000000200000000100080000000000000400000000000000000000000000000000000000000000000080000080000000808000800000008000800080800000C0C0C000C0DCC000F0CAA6000020400000206000002080000020A0000020C0000020E00000400000004020000040400000406000004080000040A0
310
000040C0000040E00000600000006020000060400000606000006080000060A0000060C0000060E00000800000008020000080400000806000008080000080A0000080C0000080E00000A0000000A0200000A0400000A0600000A0800000A0A00000A0C00000A0E00000C0000000C0200000C0400000C0600000C0800000C0
310
A00000C0C00000C0E00000E0000000E0200000E0400000E0600000E0800000E0A00000E0C00000E0E00040000000400020004000400040006000400080004000A0004000C0004000E00040200000402020004020400040206000402080004020A0004020C0004020E000404000004040200040404000404060004040800040
310
40A0004040C0004040E00040600000406020004060400040606000406080004060A0004060C0004060E00040800000408020004080400040806000408080004080A0004080C0004080E00040A0000040A0200040A0400040A0600040A0800040A0A00040A0C00040A0E00040C0000040C0200040C0400040C0600040C08000
310
40C0A00040C0C00040C0E00040E0000040E0200040E0400040E0600040E0800040E0A00040E0C00040E0E00080000000800020008000400080006000800080008000A0008000C0008000E00080200000802020008020400080206000802080008020A0008020C0008020E00080400000804020008040400080406000804080
310
008040A0008040C0008040E00080600000806020008060400080606000806080008060A0008060C0008060E00080800000808020008080400080806000808080008080A0008080C0008080E00080A0000080A0200080A0400080A0600080A0800080A0A00080A0C00080A0E00080C0000080C0200080C0400080C0600080C0
310
800080C0A00080C0C00080C0E00080E0000080E0200080E0400080E0600080E0800080E0A00080E0C00080E0E000C0000000C0002000C0004000C0006000C0008000C000A000C000C000C000E000C0200000C0202000C0204000C0206000C0208000C020A000C020C000C020E000C0400000C0402000C0404000C0406000C0
310
408000C040A000C040C000C040E000C0600000C0602000C0604000C0606000C0608000C060A000C060C000C060E000C0800000C0802000C0804000C0806000C0808000C080A000C080C000C080E000C0A00000C0A02000C0A04000C0A06000C0A08000C0A0A000C0A0C000C0A0E000C0C00000C0C02000C0C04000C0C06000
310
C0C08000C0C0A000F0FBFF00A4A0A000808080000000FF0000FF000000FFFF00FF000000FF00FF00FFFF0000FFFFFF00FFFFFFFFFFFFFFFFFFFFFFFFFFFFFFFFFFFFFFFFFFFFFFFFFFFFFFFFFFFFFFFFFFFFFFFFFFFFFFFFFFFFFFFFFFFFFFFFFFFFFFFFFFFFFFFFFFFFFFFFFFFFFFFFFFFFFFFFFFFFFFFFFFFFFFFFFFFFFF
310
FFFFFFFFFFFFFFFFFFFFFFFFFFFFFFFFFFFFFFFFFFFFFFFFFFFFFFFFFFFFFFFFFFFFFFFFFFFFFFFFFFFFFFFFFFFFFFFFFFFFFFFFFFFFFFFFFFFFFFFFFFFFFFFFFFFFFFFFFFFFFFFFFFFFFFFFFFFFFFFFFFFFFFFFFFFFFFFFFFFFFFFFFFFFFFFFFFFFFFFFFFFFFFFFFFFFFFFFFFFFFFFFFFFFFFFFFFFFFFFFFFFFFFFFFFFFFF
310
FFFFFFFFFFFFFFFFFFFFFFFFFFFFFFFFFFFFFFFFFFFFFFFFFFFFFFFFFFFFFFFFFFFFFFFFFFFFFFFFFFFFFFFFFFFFFFFFFFFFFFFFFFFFFFFFFFFFFFFFFFFFFFFFFFFFFFFFFFFFFFFFFFFFFFFFFFFFFFFFFFFFFFFFFFFFFFFFFFFFFFFFFFFFFFFFFFFFFFFFFFFFFFFFFFFFFFFFFFFFFFFFFFFFFFFFFFFFFFFFFFFFFFFFFFFFFF
310
FFFFFFFFFFFFFFFFFFFFFFFFFFFFFFFFFFFFFFFF000000000000000000000000000000000000000000000000000000000000FFFF00FF0000000000000000FFFFFFFFFFFFFFFFFFFFFFFFFFFFFFFFFFFFFF00FFFF00FF0000000000000000FFFFFFFFFFFFFFFFFFFFFFFFFFFFFFFFFFFFFF00FFFF00FF000000000000000000
310
00000000000000000000000000FFFFFFFFFF00FFFF00FF0000000000000000000000000000000000000000000000000000FF00FFFF00FF0000000000000000000000000000000000000000000000000000FF00FFFF00FF0000000000000000000000000000000000000000000000000000FF00FFFF00FF0000000000000000
310
00000000000000000000000000000000FFFFFF00FFFF00FF0000000000FFFFFFFFFFFFFFFFFFFFFFFFFFFFFFFFFFFFFFFFFFFF00FFFF000000000000000000000000000000000000000000000000000000000000FFFFFFFFFFFFFFFFFFFFFFFFFFFFFFFFFFFFFFFFFFFFFFFFFFFFFFFFFFFFFFFFFFFFFFFFFFFFFFFFFFFFFF
310
FFFFFFFFFFFFFFFFFFFFFFFFFFFFFFFFFFFFFFFFFFFFFFFFFFFFFFFFFFFFFFFFFFFFFFFFFFFFFFFFFFFFFFFFFFFFFFFFFFFFFFFFFFFFFFFFFFFFFFFFFFFFFFFFFFFFFFFFFFFFFFFFFFFFFFFFFFFFFFFFFFFFFFFFFFFFFFFFFFFFFFFFFFFFFFFFFFFFFFFFFFFFFFFFFFFFFFFFFFFFFFFFFFFFFFFFFFFFFFFFFFFFFFFFFFFFFF
310
FFFFFFFFFFFFFFFFFFFFFFFFFFFFFFFFFFFFFFFFFFFFFFFFFFFFFFFFFFFFFFFFFFFFFFFFFFFFFFFFFFFFFFFFFFFFFFFFFFFFFFFFFFFFFFFFFFFFFFFFFFFFFFFFFFFFFFFFFFFFFFFFFFFFFFFFFFFFFFFFFFFFFFFFFFFFFFFFFFFFFFFFFFFFFFFFFFFFFFFFFFFFFFFFFFFFFFFFFFFFFFFFFFFFFFFFFFFFFFFFFFFFFFFFFFFFFF
310
FFFFFFFFFFFFFFFFFFFFFFFFFFFFFFFFFFFFFFFFFFFFFFFFFFFFFFFFFFFFFFFFFFFFFFFFFFFFFFFFFFFFFFFFFFFFFFFFFFFFFFFFFFFFFFFF
102
{BLKREFS
331
514
331
519
102
}
  0
ENDTAB
  0
ENDSEC
  0
SECTION
  2
BLOCKS
  0
BLOCK
  5
1F
330
1E
100
AcDbEntity
  8
0
100
AcDbBlockBegin
  2
*MODEL_SPACE
 70
     0
 10
0.0
 20
0.0
 30
0.0
  3
*MODEL_SPACE
  1

  0
ENDBLK
  5
20
330
1E
100
AcDbEntity
  8
0
100
AcDbBlockEnd
  0
BLOCK
  5
1B
330
1A
100
AcDbEntity
 67
     1
  8
0
100
AcDbBlockBegin
  2
*PAPER_SPACE
 70
     0
 10
0.0
 20
0.0
 30
0.0
  3
*PAPER_SPACE
  1

  0
ENDBLK
  5
1C
330
1A
100
AcDbEntity
 67
     1
  8
0
100
AcDbBlockEnd
  0
BLOCK
  5
466
330
464
100
AcDbEntity
  8
0
100
AcDbBlockBegin
  2
HARMONIC_DRIVE_LLC
 70
     0
 10
0.0
 20
0.0
 30
0.0
  3
HARMONIC_DRIVE_LLC
  1

  0
MTEXT
  5
465
330
464
100
AcDbEntity
  8
0
100
AcDbMText
 10
165.2057288856413
 20
-73.49751871950156
 30
0.0
 40
3.5
 41
72.6589
 71
     5
 72
     5
  1
Harmonic Drive LLC\P800-921-3332\Pwww.harmonicdrive.net
 73
     1
 44
1.0
1001
ACAD
1000
MTEXTBEGIN
1070
    73
1070
     1
1070
    44
1040
1.0
1070
    74
1070
     0
1000
MTEXTEND
  0
ENDBLK
  5
467
330
464
100
AcDbEntity
  8
0
100
AcDbBlockEnd
  0
BLOCK
  5
4A2
330
49F
100
AcDbEntity
  8
0
 62
     7
100
AcDbBlockBegin
  2
AI9-BLK14
 70
     0
 10
0.0
 20
0.0
 30
0.0
  3
AI9-BLK14
  1

  0
SPLINE
  5
4A0
330
49F
100
AcDbEntity
  8
LAYER_1
 62
     7
100
AcDbSpline
210
0.0
220
0.0
230
1.0
 70
    11
 71
     3
 72
    23
 73
    19
 74
     0
 42
0.0000000001
 43
0.0000000001
 40
0.0
 40
0.0
 40
0.0
 40
0.0
 40
1.0
 40
1.0
 40
1.0
 40
2.0
 40
2.0
 40
2.0
 40
3.0
 40
3.0
 40
3.0
 40
4.0
 40
4.0
 40
4.0
 40
5.0
 40
5.0
 40
5.0
 40
6.0
 40
6.0
 40
6.0
 40
6.0
 10
-10.90321044921874
 20
10.88107571072048
 30
0.0
 10
-10.90321044921874
 20
10.88107571072048
 30
0.0
 10
-10.90321044921874
 20
-10.88107571072048
 30
0.0
 10
-10.90321044921874
 20
-10.88107571072048
 30
0.0
 10
-10.90321044921874
 20
-10.88107571072048
 30
0.0
 10
1.752692328559025
 20
-10.88107571072048
 30
0.0
 10
1.752692328559025
 20
-10.88107571072048
 30
0.0
 10
3.280592176649305
 20
-10.88107571072048
 30
0.0
 10
10.90321044921874
 20
-10.32383151584201
 30
0.0
 10
10.90321044921874
 20
0.6792867024739583
 30
0.0
 10
10.90321044921874
 20
10.61700914171006
 30
0.0
 10
2.773129611545138
 20
10.87952541775172
 30
0.0
 10
2.691136338975693
 20
10.88090345594618
 30
0.0
 10
2.691136338975693
 20
10.88090345594618
 30
0.0
 10
-9.903099229600693
 20
10.88107571072048
 30
0.0
 10
-9.903099229600693
 20
10.88107571072048
 30
0.0
 10
-9.903099229600693
 20
10.88107571072048
 30
0.0
 10
-10.90321044921874
 20
10.88107571072048
 30
0.0
 10
-10.90321044921874
 20
10.88107571072048
 30
0.0
  0
SPLINE
  5
4A1
330
49F
100
AcDbEntity
  8
LAYER_1
 62
     7
100
AcDbSpline
210
0.0
220
0.0
230
1.0
 70
    11
 71
     3
 72
    20
 73
    16
 74
     0
 42
0.0000000001
 43
0.0000000001
 40
0.0
 40
0.0
 40
0.0
 40
0.0
 40
1.0
 40
1.0
 40
1.0
 40
2.0
 40
2.0
 40
2.0
 40
3.0
 40
3.0
 40
3.0
 40
4.0
 40
4.0
 40
4.0
 40
5.0
 40
5.0
 40
5.0
 40
5.0
 10
2.672877332899305
 20
8.881197781032986
 30
0.0
 10
2.905421278211805
 20
8.874307590060762
 30
0.0
 10
8.902988009982637
 20
8.616442192925347
 30
0.0
 10
8.902988009982637
 20
0.6792867024739583
 30
0.0
 10
8.902988009982637
 20
-8.191661919487842
 30
0.0
 10
3.430109320746526
 20
-8.881197781032986
 30
0.0
 10
1.752692328559025
 20
-8.881197781032986
 30
0.0
 10
1.752692328559025
 20
-8.881197781032986
 30
0.0
 10
-7.231427680121528
 20
-8.881197781032986
 30
0.0
 10
-8.902988009982637
 20
-8.881197781032986
 30
0.0
 10
-8.902988009982637
 20
-7.174497477213541
 30
0.0
 10
-8.902988009982637
 20
7.174497477213541
 30
0.0
 10
-8.902988009982637
 20
8.881197781032986
 30
0.0
 10
-7.208690049913191
 20
8.881197781032986
 30
0.0
 10
2.672877332899305
 20
8.881197781032986
 30
0.0
 10
2.672877332899305
 20
8.881197781032986
 30
0.0
  0
ENDBLK
  5
4A3
330
49F
100
AcDbEntity
  8
0
100
AcDbBlockEnd
  0
BLOCK
  5
4A7
330
4A4
100
AcDbEntity
  8
0
 62
     7
100
AcDbBlockBegin
  2
AI9-BLK13
 70
     0
 10
0.0
 20
0.0
 30
0.0
  3
AI9-BLK13
  1

  0
LWPOLYLINE
  5
4A5
330
4A4
100
AcDbEntity
  8
LAYER_1
 62
     7
100
AcDbPolyline
 90
       12
 70
     1
 43
0.0
 10
-3.792361111111107
 20
10.7376736111111
 10
-2.469444444444443
 20
10.7376736111111
 10
-2.469444444444443
 20
1.874131944444444
 10
2.469444444444443
 20
1.874131944444444
 10
2.469444444444443
 20
10.7376736111111
 10
3.792361111111107
 20
10.7376736111111
 10
3.792361111111107
 20
-10.7376736111111
 10
2.469444444444443
 20
-10.7376736111111
 10
2.469444444444443
 20
-0.6835069444444444
 10
-2.469444444444443
 20
-0.6835069444444444
 10
-2.469444444444443
 20
-10.7376736111111
 10
-3.792361111111107
 20
-10.7376736111111
  0
HATCH
  5
4A6
330
4A4
100
AcDbEntity
  8
LAYER_1
 62
     7
100
AcDbHatch
 10
0.0
 20
0.0
 30
0.0
210
0.0
220
0.0
230
1.0
  2
SOLID
 70
     1
 71
     0
 91
        1
 92
        3
 72
     0
 73
     1
 93
       12
 10
-3.792361111111107
 20
10.7376736111111
 10
-2.469444444444443
 20
10.7376736111111
 10
-2.469444444444443
 20
1.874131944444444
 10
2.469444444444443
 20
1.874131944444444
 10
2.469444444444443
 20
10.7376736111111
 10
3.792361111111107
 20
10.7376736111111
 10
3.792361111111107
 20
-10.7376736111111
 10
2.469444444444443
 20
-10.7376736111111
 10
2.469444444444443
 20
-0.6835069444444444
 10
-2.469444444444443
 20
-0.6835069444444444
 10
-2.469444444444443
 20
-10.7376736111111
 10
-3.792361111111107
 20
-10.7376736111111
 97
        0
 75
     2
 76
     1
 98
        1
 10
0.0
 20
0.0
  0
ENDBLK
  5
4A8
330
4A4
100
AcDbEntity
  8
0
100
AcDbBlockEnd
  0
BLOCK
  5
4AC
330
4A9
100
AcDbEntity
  8
0
 62
     7
100
AcDbBlockBegin
  2
AI9-BLK11
 70
     0
 10
0.0
 20
0.0
 30
0.0
  3
AI9-BLK11
  1

  0
SPLINE
  5
4AA
330
4A9
100
AcDbEntity
  8
LAYER_1
 62
     7
100
AcDbSpline
210
0.0
220
0.0
230
1.0
 70
    11
 71
     3
 72
    26
 73
    22
 74
     0
 42
0.0000000001
 43
0.0000000001
 40
0.0
 40
0.0
 40
0.0
 40
0.0
 40
1.0
 40
1.0
 40
1.0
 40
2.0
 40
2.0
 40
2.0
 40
3.0
 40
3.0
 40
3.0
 40
4.0
 40
4.0
 40
4.0
 40
5.0
 40
5.0
 40
5.0
 40
6.0
 40
6.0
 40
6.0
 40
7.0
 40
7.0
 40
7.0
 40
7.0
 10
-2.645833333333333
 20
0.9039930555555551
 30
0.0
 10
-2.645833333333333
 20
0.9039930555555551
 30
0.0
 10
-2.645833333333333
 20
8.180034722222217
 30
0.0
 10
-2.645833333333333
 20
8.180034722222217
 30
0.0
 10
-2.645833333333333
 20
8.180034722222217
 30
0.0
 10
0.465087890625
 20
8.180034722222217
 30
0.0
 10
0.465087890625
 20
8.180034722222217
 30
0.0
 10
0.9026150173611108
 20
8.180034722222217
 30
0.0
 10
1.24988064236111
 20
8.034651692708331
 30
0.0
 10
1.506884765625
 20
7.745263671874997
 30
0.0
 10
2.001600477430554
 20
7.194048394097221
 30
0.0
 10
2.248958333333332
 20
6.160519748263887
 30
0.0
 10
2.248958333333332
 20
4.643299696180553
 30
0.0
 10
2.248958333333332
 20
3.232188585069443
 30
0.0
 10
2.072569444444444
 20
2.256537543402775
 30
0.0
 10
1.720480685763888
 20
1.715657552083333
 30
0.0
 10
1.368391927083333
 20
1.174088541666665
 30
0.0
 10
0.8929687499999998
 20
0.9039930555555551
 30
0.0
 10
0.2942111545138888
 20
0.9039930555555551
 30
0.0
 10
0.2942111545138888
 20
0.9039930555555551
 30
0.0
 10
-2.645833333333333
 20
0.9039930555555551
 30
0.0
 10
-2.645833333333333
 20
0.9039930555555551
 30
0.0
  0
SPLINE
  5
4AB
330
4A9
100
AcDbEntity
  8
LAYER_1
 62
     7
100
AcDbSpline
210
0.0
220
0.0
230
1.0
 70
    11
 71
     3
 72
    68
 73
    64
 74
     0
 42
0.0000000001
 43
0.0000000001
 40
0.0
 40
0.0
 40
0.0
 40
0.0
 40
1.0
 40
1.0
 40
1.0
 40
2.0
 40
2.0
 40
2.0
 40
3.0
 40
3.0
 40
3.0
 40
4.0
 40
4.0
 40
4.0
 40
5.0
 40
5.0
 40
5.0
 40
6.0
 40
6.0
 40
6.0
 40
7.0
 40
7.0
 40
7.0
 40
8.0
 40
8.0
 40
8.0
 40
9.0
 40
9.0
 40
9.0
 40
10.0
 40
10.0
 40
10.0
 40
11.0
 40
11.0
 40
11.0
 40
12.0
 40
12.0
 40
12.0
 40
13.0
 40
13.0
 40
13.0
 40
14.0
 40
14.0
 40
14.0
 40
15.0
 40
15.0
 40
15.0
 40
16.0
 40
16.0
 40
16.0
 40
17.0
 40
17.0
 40
17.0
 40
18.0
 40
18.0
 40
18.0
 40
19.0
 40
19.0
 40
19.0
 40
20.0
 40
20.0
 40
20.0
 40
21.0
 40
21.0
 40
21.0
 40
21.0
 10
-3.968749999999998
 20
-10.7376736111111
 30
0.0
 10
-3.968749999999998
 20
-10.7376736111111
 30
0.0
 10
-2.645833333333333
 20
-10.7376736111111
 30
0.0
 10
-2.645833333333333
 20
-10.7376736111111
 30
0.0
 10
-2.645833333333333
 20
-10.7376736111111
 30
0.0
 10
-2.645833333333333
 20
-1.521354166666665
 30
0.0
 10
-2.645833333333333
 20
-1.521354166666665
 30
0.0
 10
-2.645833333333333
 20
-1.521354166666665
 30
0.0
 10
0.2390896267361111
 20
-1.521354166666665
 30
0.0
 10
0.2390896267361111
 20
-1.521354166666665
 30
0.0
 10
0.7599880642361111
 20
-1.521354166666665
 30
0.0
 10
1.143771701388887
 20
-1.65295681423611
 30
0.0
 10
1.390440538194444
 20
-1.916162109374999
 30
0.0
 10
1.816254340277773
 20
-2.39434136284722
 30
0.0
 10
2.04363064236111
 20
-3.335541449652775
 30
0.0
 10
2.072569444444444
 20
-4.739762369791666
 30
0.0
 10
2.072569444444444
 20
-4.739762369791666
 30
0.0
 10
2.160763888888888
 20
-8.324039713541665
 30
0.0
 10
2.160763888888888
 20
-8.324039713541665
 30
0.0
 10
2.18005642361111
 20
-9.163264973958332
 30
0.0
 10
2.202794053819443
 20
-9.728949652777775
 30
0.0
 10
2.227598741319444
 20
-10.02109374999998
 30
0.0
 10
2.252403428819443
 20
-10.31392686631944
 30
0.0
 10
2.28892144097222
 20
-10.55301649305555
 30
0.0
 10
2.33853081597222
 20
-10.7376736111111
 30
0.0
 10
2.33853081597222
 20
-10.7376736111111
 30
0.0
 10
3.968749999999998
 20
-10.7376736111111
 30
0.0
 10
3.968749999999998
 20
-10.7376736111111
 30
0.0
 10
3.968749999999998
 20
-10.7376736111111
 30
0.0
 10
3.968749999999998
 20
-10.25260416666666
 30
0.0
 10
3.968749999999998
 20
-10.25260416666666
 30
0.0
 10
3.766867404513888
 20
-10.05830078125
 30
0.0
 10
3.625618489583333
 20
-9.621462673611112
 30
0.0
 10
3.545692274305555
 20
-8.942089843749997
 30
0.0
 10
3.49470486111111
 20
-8.543836805555555
 30
0.0
 10
3.459564887152775
 20
-7.937499999999999
 30
0.0
 10
3.439583333333333
 20
-7.121701388888887
 30
0.0
 10
3.439583333333333
 20
-7.121701388888887
 30
0.0
 10
3.395486111111106
 20
-4.232644314236106
 30
0.0
 10
3.395486111111106
 20
-4.232644314236106
 30
0.0
 10
3.375504557291666
 20
-2.981385633680555
 30
0.0
 10
3.26870659722222
 20
-2.077392578125
 30
0.0
 10
3.075781249999999
 20
-1.522043185763888
 30
0.0
 10
2.882166883680555
 20
-0.9666937934027776
 30
0.0
 10
2.592089843749999
 20
-0.5188313802083333
 30
0.0
 10
2.204861111111104
 20
-0.1770779079861111
 30
0.0
 10
2.63618706597222
 20
0.3197048611111111
 30
0.0
 10
2.971739366319443
 20
0.9770290798611107
 30
0.0
 10
3.211518012152775
 20
1.79558376736111
 30
0.0
 10
3.451296657986107
 20
2.613449435763888
 30
0.0
 10
3.571874999999999
 20
3.66558159722222
 30
0.0
 10
3.571874999999999
 20
4.951291232638888
 30
0.0
 10
3.571874999999999
 20
7.415912543402777
 30
0.0
 10
3.124701605902775
 20
9.106076388888887
 30
0.0
 10
2.231043836805555
 20
10.02178276909722
 30
0.0
 10
1.759754774305553
 20
10.498583984375
 30
0.0
 10
1.163753255208332
 20
10.7376736111111
 30
0.0
 10
0.443039279513889
 20
10.7376736111111
 30
0.0
 10
0.443039279513889
 20
10.7376736111111
 30
0.0
 10
-3.968749999999998
 20
10.7376736111111
 30
0.0
 10
-3.968749999999998
 20
10.7376736111111
 30
0.0
 10
-3.968749999999998
 20
10.7376736111111
 30
0.0
 10
-3.968749999999998
 20
-10.7376736111111
 30
0.0
 10
-3.968749999999998
 20
-10.7376736111111
 30
0.0
  0
ENDBLK
  5
4AD
330
4A9
100
AcDbEntity
  8
0
100
AcDbBlockEnd
  0
BLOCK
  5
4B0
330
4AE
100
AcDbEntity
  8
0
 62
     7
100
AcDbBlockBegin
  2
AI9-BLK10
 70
     0
 10
0.0
 20
0.0
 30
0.0
  3
AI9-BLK10
  1

  0
SPLINE
  5
4AF
330
4AE
100
AcDbEntity
  8
LAYER_1
 62
     7
100
AcDbSpline
210
0.0
220
0.0
230
1.0
 70
    11
 71
     3
 72
    59
 73
    55
 74
     0
 42
0.0000000001
 43
0.0000000001
 40
0.0
 40
0.0
 40
0.0
 40
0.0
 40
1.0
 40
1.0
 40
1.0
 40
2.0
 40
2.0
 40
2.0
 40
3.0
 40
3.0
 40
3.0
 40
4.0
 40
4.0
 40
4.0
 40
5.0
 40
5.0
 40
5.0
 40
6.0
 40
6.0
 40
6.0
 40
7.0
 40
7.0
 40
7.0
 40
8.0
 40
8.0
 40
8.0
 40
9.0
 40
9.0
 40
9.0
 40
10.0
 40
10.0
 40
10.0
 40
11.0
 40
11.0
 40
11.0
 40
12.0
 40
12.0
 40
12.0
 40
13.0
 40
13.0
 40
13.0
 40
14.0
 40
14.0
 40
14.0
 40
15.0
 40
15.0
 40
15.0
 40
16.0
 40
16.0
 40
16.0
 40
17.0
 40
17.0
 40
17.0
 40
18.0
 40
18.0
 40
18.0
 40
18.0
 10
-4.652256944444443
 20
10.7376736111111
 30
0.0
 10
-4.652256944444443
 20
10.7376736111111
 30
0.0
 10
-2.798795572916666
 20
10.7376736111111
 30
0.0
 10
-2.798795572916666
 20
10.7376736111111
 30
0.0
 10
-2.798795572916666
 20
10.7376736111111
 30
0.0
 10
0.0
 20
-7.419357638888887
 30
0.0
 10
0.0
 20
-7.419357638888887
 30
0.0
 10
0.0
 20
-7.419357638888887
 30
0.0
 10
2.793283420138888
 20
10.7376736111111
 30
0.0
 10
2.793283420138888
 20
10.7376736111111
 30
0.0
 10
2.793283420138888
 20
10.7376736111111
 30
0.0
 10
4.652256944444443
 20
10.7376736111111
 30
0.0
 10
4.652256944444443
 20
10.7376736111111
 30
0.0
 10
4.652256944444443
 20
10.7376736111111
 30
0.0
 10
4.652256944444443
 20
-10.7376736111111
 30
0.0
 10
4.652256944444443
 20
-10.7376736111111
 30
0.0
 10
4.652256944444443
 20
-10.7376736111111
 30
0.0
 10
3.41753472222222
 20
-10.7376736111111
 30
0.0
 10
3.41753472222222
 20
-10.7376736111111
 30
0.0
 10
3.41753472222222
 20
-10.7376736111111
 30
0.0
 10
3.41753472222222
 20
1.936832682291665
 30
0.0
 10
3.41753472222222
 20
1.936832682291665
 30
0.0
 10
3.41753472222222
 20
2.375048828124999
 30
0.0
 10
3.424424913194443
 20
3.101274956597221
 30
0.0
 10
3.439583333333333
 20
4.11482204861111
 30
0.0
 10
3.454052734374998
 20
5.128369140624998
 30
0.0
 10
3.461631944444443
 20
6.214952256944441
 30
0.0
 10
3.461631944444443
 20
7.375260416666666
 30
0.0
 10
3.461631944444443
 20
7.375260416666666
 30
0.0
 10
0.6538791232638889
 20
-10.7376736111111
 30
0.0
 10
0.6538791232638889
 20
-10.7376736111111
 30
0.0
 10
0.6538791232638889
 20
-10.7376736111111
 30
0.0
 10
-0.6628363715277778
 20
-10.7376736111111
 30
0.0
 10
-0.6628363715277778
 20
-10.7376736111111
 30
0.0
 10
-0.6628363715277778
 20
-10.7376736111111
 30
0.0
 10
-3.461631944444443
 20
7.375260416666666
 30
0.0
 10
-3.461631944444443
 20
7.375260416666666
 30
0.0
 10
-3.461631944444443
 20
7.375260416666666
 30
0.0
 10
-3.461631944444443
 20
6.717247178819441
 30
0.0
 10
-3.461631944444443
 20
6.717247178819441
 30
0.0
 10
-3.461631944444443
 20
6.190836588541666
 30
0.0
 10
-3.45474175347222
 20
5.389507378472222
 30
0.0
 10
-3.439583333333333
 20
4.312570529513888
 30
0.0
 10
-3.425113932291666
 20
3.235633680555555
 30
0.0
 10
-3.41753472222222
 20
2.44395073784722
 30
0.0
 10
-3.41753472222222
 20
1.936832682291665
 30
0.0
 10
-3.41753472222222
 20
1.936832682291665
 30
0.0
 10
-3.41753472222222
 20
-10.7376736111111
 30
0.0
 10
-3.41753472222222
 20
-10.7376736111111
 30
0.0
 10
-3.41753472222222
 20
-10.7376736111111
 30
0.0
 10
-4.652256944444443
 20
-10.7376736111111
 30
0.0
 10
-4.652256944444443
 20
-10.7376736111111
 30
0.0
 10
-4.652256944444443
 20
-10.7376736111111
 30
0.0
 10
-4.652256944444443
 20
10.7376736111111
 30
0.0
 10
-4.652256944444443
 20
10.7376736111111
 30
0.0
  0
ENDBLK
  5
4B1
330
4AE
100
AcDbEntity
  8
0
100
AcDbBlockEnd
  0
BLOCK
  5
4B5
330
4B2
100
AcDbEntity
  8
0
 62
     7
100
AcDbBlockBegin
  2
AI9-BLK9
 70
     0
 10
0.0
 20
0.0
 30
0.0
  3
AI9-BLK9
  1

  0
SPLINE
  5
4B3
330
4B2
100
AcDbEntity
  8
LAYER_1
 62
     7
100
AcDbSpline
210
0.0
220
0.0
230
1.0
 70
    11
 71
     3
 72
    29
 73
    25
 74
     0
 42
0.0000000001
 43
0.0000000001
 40
0.0
 40
0.0
 40
0.0
 40
0.0
 40
1.0
 40
1.0
 40
1.0
 40
2.0
 40
2.0
 40
2.0
 40
3.0
 40
3.0
 40
3.0
 40
4.0
 40
4.0
 40
4.0
 40
5.0
 40
5.0
 40
5.0
 40
6.0
 40
6.0
 40
6.0
 40
7.0
 40
7.0
 40
7.0
 40
8.0
 40
8.0
 40
8.0
 40
8.0
 10
0.0668348524305556
 20
-8.753298611111111
 30
0.0
 10
-0.9067491319444444
 20
-8.753298611111111
 30
0.0
 10
-1.60954861111111
 20
-7.936810980902778
 30
0.0
 10
-2.041563585069444
 20
-6.30383572048611
 30
0.0
 10
-2.474267578124999
 20
-4.670860460069443
 30
0.0
 10
-2.689930555555555
 20
-2.664436848958333
 30
0.0
 10
-2.689930555555555
 20
-0.28525390625
 30
0.0
 10
-2.689930555555555
 20
2.68855251736111
 30
0.0
 10
-2.439127604166666
 20
4.938199869791666
 30
0.0
 10
-1.937521701388888
 20
6.464377170138886
 30
0.0
 10
-1.43591579861111
 20
7.989865451388887
 30
0.0
 10
-0.7827256944444444
 20
8.753298611111111
 30
0.0
 10
0.0220486111111111
 20
8.753298611111111
 30
0.0
 10
0.8468044704861108
 20
8.753298611111111
 30
0.0
 10
1.49792751736111
 20
7.982975260416663
 30
0.0
 10
1.974728732638888
 20
6.442328559027776
 30
0.0
 10
2.451529947916665
 20
4.901681857638886
 30
0.0
 10
2.689930555555555
 20
2.868386501736111
 30
0.0
 10
2.689930555555555
 20
0.3438205295138888
 30
0.0
 10
2.689930555555555
 20
-2.045697699652774
 30
0.0
 10
2.483224826388884
 20
-4.15891927083333
 30
0.0
 10
2.071191406249999
 20
-5.996533203124998
 30
0.0
 10
1.65915798611111
 20
-7.834836154513887
 30
0.0
 10
0.9908094618055557
 20
-8.753298611111111
 30
0.0
 10
0.0668348524305556
 20
-8.753298611111111
 30
0.0
  0
SPLINE
  5
4B4
330
4B2
100
AcDbEntity
  8
LAYER_1
 62
     7
100
AcDbSpline
210
0.0
220
0.0
230
1.0
 70
    11
 71
     3
 72
    29
 73
    25
 74
     0
 42
0.0000000001
 43
0.0000000001
 40
0.0
 40
0.0
 40
0.0
 40
0.0
 40
1.0
 40
1.0
 40
1.0
 40
2.0
 40
2.0
 40
2.0
 40
3.0
 40
3.0
 40
3.0
 40
4.0
 40
4.0
 40
4.0
 40
5.0
 40
5.0
 40
5.0
 40
6.0
 40
6.0
 40
6.0
 40
7.0
 40
7.0
 40
7.0
 40
8.0
 40
8.0
 40
8.0
 40
8.0
 10
-0.0289388020833333
 20
11.35503472222222
 30
0.0
 10
-1.317404513888887
 20
11.35503472222222
 30
0.0
 10
-2.28892144097222
 20
10.02798394097222
 30
0.0
 10
-2.94280056423611
 20
7.374571397569441
 30
0.0
 10
-3.450607638888888
 20
5.30613606770833
 30
0.0
 10
-3.704166666666666
 20
2.81877712673611
 30
0.0
 10
-3.704166666666666
 20
-0.0881944444444445
 30
0.0
 10
-3.704166666666666
 20
-3.307291666666666
 30
0.0
 10
-3.406510416666666
 20
-5.97035047743055
 30
0.0
 10
-2.811197916666666
 20
-8.077370876736106
 30
0.0
 10
-2.147672526041664
 20
-10.26293945312499
 30
0.0
 10
-1.229899088541666
 20
-11.35503472222222
 30
0.0
 10
-0.0585666232638889
 20
-11.35503472222222
 30
0.0
 10
1.20027126736111
 20
-11.35503472222222
 30
0.0
 10
2.166276041666665
 20
-10.10653211805555
 30
0.0
 10
2.840136718749998
 20
-7.609526909722221
 30
0.0
 10
3.416156684027776
 20
-5.483213975694441
 30
0.0
 10
3.704166666666666
 20
-2.814643012152775
 30
0.0
 10
3.704166666666666
 20
0.3948079427083333
 30
0.0
 10
3.704166666666666
 20
3.360346137152776
 30
0.0
 10
3.449918619791666
 20
5.793961588541666
 30
0.0
 10
2.94280056423611
 20
7.696343315972222
 30
0.0
 10
2.298567708333333
 20
10.13547092013888
 30
0.0
 10
1.307758246527777
 20
11.35503472222222
 30
0.0
 10
-0.0289388020833333
 20
11.35503472222222
 30
0.0
  0
ENDBLK
  5
4B6
330
4B2
100
AcDbEntity
  8
0
100
AcDbBlockEnd
  0
BLOCK
  5
4BA
330
4B7
100
AcDbEntity
  8
0
 62
     7
100
AcDbBlockBegin
  2
AI9-BLK8
 70
     0
 10
0.0
 20
0.0
 30
0.0
  3
AI9-BLK8
  1

  0
LWPOLYLINE
  5
4B8
330
4B7
100
AcDbEntity
  8
LAYER_1
 62
     7
100
AcDbPolyline
 90
       10
 70
     1
 43
0.0
 10
-3.792361111111107
 20
10.7376736111111
 10
-2.268939887152773
 20
10.7376736111111
 10
2.557638888888888
 20
-6.505718315972222
 10
2.557638888888888
 20
10.7376736111111
 10
3.792361111111107
 20
10.7376736111111
 10
3.792361111111107
 20
-10.7376736111111
 10
2.32612847222222
 20
-10.7376736111111
 10
-2.557638888888888
 20
6.549815538194441
 10
-2.557638888888888
 20
-10.7376736111111
 10
-3.792361111111107
 20
-10.7376736111111
  0
HATCH
  5
4B9
330
4B7
100
AcDbEntity
  8
LAYER_1
 62
     7
100
AcDbHatch
 10
0.0
 20
0.0
 30
0.0
210
0.0
220
0.0
230
1.0
  2
SOLID
 70
     1
 71
     0
 91
        1
 92
        3
 72
     0
 73
     1
 93
       10
 10
-3.792361111111107
 20
10.7376736111111
 10
-2.268939887152773
 20
10.7376736111111
 10
2.557638888888888
 20
-6.505718315972222
 10
2.557638888888888
 20
10.7376736111111
 10
3.792361111111107
 20
10.7376736111111
 10
3.792361111111107
 20
-10.7376736111111
 10
2.32612847222222
 20
-10.7376736111111
 10
-2.557638888888888
 20
6.549815538194441
 10
-2.557638888888888
 20
-10.7376736111111
 10
-3.792361111111107
 20
-10.7376736111111
 97
        0
 75
     2
 76
     1
 98
        1
 10
0.0
 20
0.0
  0
ENDBLK
  5
4BB
330
4B7
100
AcDbEntity
  8
0
100
AcDbBlockEnd
  0
BLOCK
  5
4BF
330
4BC
100
AcDbEntity
  8
0
 62
     7
100
AcDbBlockBegin
  2
AI9-BLK7
 70
     0
 10
0.0
 20
0.0
 30
0.0
  3
AI9-BLK7
  1

  0
LWPOLYLINE
  5
4BD
330
4BC
100
AcDbEntity
  8
LAYER_1
 62
     7
100
AcDbPolyline
 90
        4
 70
     1
 43
0.0
 10
-0.6614583333333333
 20
10.7376736111111
 10
0.6614583333333333
 20
10.7376736111111
 10
0.6614583333333333
 20
-10.7376736111111
 10
-0.6614583333333333
 20
-10.7376736111111
  0
HATCH
  5
4BE
330
4BC
100
AcDbEntity
  8
LAYER_1
 62
     7
100
AcDbHatch
 10
0.0
 20
0.0
 30
0.0
210
0.0
220
0.0
230
1.0
  2
SOLID
 70
     1
 71
     0
 91
        1
 92
        3
 72
     0
 73
     1
 93
        4
 10
-0.6614583333333333
 20
10.7376736111111
 10
0.6614583333333333
 20
10.7376736111111
 10
0.6614583333333333
 20
-10.7376736111111
 10
-0.6614583333333333
 20
-10.7376736111111
 97
        0
 75
     2
 76
     1
 98
        1
 10
0.0
 20
0.0
  0
ENDBLK
  5
4C0
330
4BC
100
AcDbEntity
  8
0
100
AcDbBlockEnd
  0
BLOCK
  5
4C3
330
4C1
100
AcDbEntity
  8
0
 62
     7
100
AcDbBlockBegin
  2
AI9-BLK6
 70
     0
 10
0.0
 20
0.0
 30
0.0
  3
AI9-BLK6
  1

  0
SPLINE
  5
4C2
330
4C1
100
AcDbEntity
  8
LAYER_1
 62
     7
100
AcDbSpline
210
0.0
220
0.0
230
1.0
 70
    11
 71
     3
 72
    59
 73
    55
 74
     0
 42
0.0000000001
 43
0.0000000001
 40
0.0
 40
0.0
 40
0.0
 40
0.0
 40
1.0
 40
1.0
 40
1.0
 40
2.0
 40
2.0
 40
2.0
 40
3.0
 40
3.0
 40
3.0
 40
4.0
 40
4.0
 40
4.0
 40
5.0
 40
5.0
 40
5.0
 40
6.0
 40
6.0
 40
6.0
 40
7.0
 40
7.0
 40
7.0
 40
8.0
 40
8.0
 40
8.0
 40
9.0
 40
9.0
 40
9.0
 40
10.0
 40
10.0
 40
10.0
 40
11.0
 40
11.0
 40
11.0
 40
12.0
 40
12.0
 40
12.0
 40
13.0
 40
13.0
 40
13.0
 40
14.0
 40
14.0
 40
14.0
 40
15.0
 40
15.0
 40
15.0
 40
16.0
 40
16.0
 40
16.0
 40
17.0
 40
17.0
 40
17.0
 40
18.0
 40
18.0
 40
18.0
 40
18.0
 10
3.062689887152775
 20
9.168088107638887
 30
0.0
 10
3.735172526041666
 20
7.739062499999997
 30
0.0
 10
4.110687934027776
 20
6.116422526041666
 30
0.0
 10
4.189236111111108
 20
4.299479166666666
 30
0.0
 10
4.189236111111108
 20
4.299479166666666
 30
0.0
 10
2.866319444444443
 20
4.299479166666666
 30
0.0
 10
2.866319444444443
 20
4.299479166666666
 30
0.0
 10
2.720936414930555
 20
5.667871093749997
 30
0.0
 10
2.435682508680555
 20
6.752387152777776
 30
0.0
 10
2.009868706597218
 20
7.553027343749997
 30
0.0
 10
1.584054904513888
 20
8.352978515624997
 30
0.0
 10
0.9839192708333332
 20
8.753298611111111
 30
0.0
 10
0.2101508246527778
 20
8.753298611111111
 30
0.0
 10
-0.7386284722222222
 20
8.753298611111111
 30
0.0
 10
-1.503439670138888
 20
8.010536024305555
 30
0.0
 10
-2.083593749999999
 20
6.526388888888886
 30
0.0
 10
-2.664436848958333
 20
5.042241753472221
 30
0.0
 10
-2.954513888888888
 20
2.767100694444443
 30
0.0
 10
-2.954513888888888
 20
-0.2990342881944444
 30
0.0
 10
-2.954513888888888
 20
-2.811197916666666
 30
0.0
 10
-2.693375651041666
 20
-4.847938368055555
 30
0.0
 10
-2.17041015625
 20
-6.409944661458332
 30
0.0
 10
-1.648133680555553
 20
-7.972639973958332
 30
0.0
 10
-0.8640299479166666
 20
-8.753298611111111
 30
0.0
 10
0.1812120225694444
 20
-8.753298611111111
 30
0.0
 10
1.138948567708333
 20
-8.753298611111111
 30
0.0
 10
1.865174696180553
 20
-7.927853732638887
 30
0.0
 10
2.359201388888884
 20
-6.275585937499998
 30
0.0
 10
2.62998589409722
 20
-5.406043836805555
 30
0.0
 10
2.828423394097221
 20
-4.262272135416666
 30
0.0
 10
2.954513888888888
 20
-2.844270833333331
 30
0.0
 10
2.954513888888888
 20
-2.844270833333331
 30
0.0
 10
4.277430555555555
 20
-2.844270833333331
 30
0.0
 10
4.277430555555555
 20
-2.844270833333331
 30
0.0
 10
4.169943576388888
 20
-5.109765624999996
 30
0.0
 10
3.795117187499998
 20
-7.009391276041665
 30
0.0
 10
3.151573350694443
 20
-8.542458767361106
 30
0.0
 10
2.381249999999999
 20
-10.38834092881943
 30
0.0
 10
1.347721354166665
 20
-11.3109375
 30
0.0
 10
0.0509874131944445
 20
-11.3109375
 30
0.0
 10
-1.07004665798611
 20
-11.3109375
 30
0.0
 10
-2.010557725694444
 20
-10.55577256944443
 30
0.0
 10
-2.771234809027776
 20
-9.04475368923611
 30
0.0
 10
-3.775824652777775
 20
-7.046598307291666
 30
0.0
 10
-4.277430555555555
 20
-3.961170789930555
 30
0.0
 10
-4.277430555555555
 20
0.2115288628472222
 30
0.0
 10
-4.277430555555555
 20
3.379638671874998
 30
0.0
 10
-3.902604166666666
 20
5.977929687499997
 30
0.0
 10
-3.151573350694443
 20
8.005712890624996
 30
0.0
 10
-2.333018663194443
 20
10.20919596354165
 30
0.0
 10
-1.20647243923611
 20
11.3109375
 30
0.0
 10
0.2266872829861111
 20
11.3109375
 30
0.0
 10
1.444873046875
 20
11.3109375
 30
0.0
 10
2.390207248263884
 20
10.59642469618055
 30
0.0
 10
3.062689887152775
 20
9.168088107638887
 30
0.0
  0
ENDBLK
  5
4C4
330
4C1
100
AcDbEntity
  8
0
100
AcDbBlockEnd
  0
BLOCK
  5
4C8
330
4C5
100
AcDbEntity
  8
0
 62
     7
100
AcDbBlockBegin
  2
AI9-BLK5
 70
     0
 10
0.0
 20
0.0
 30
0.0
  3
AI9-BLK5
  1

  0
SPLINE
  5
4C6
330
4C5
100
AcDbEntity
  8
LAYER_1
 62
     7
100
AcDbSpline
210
0.0
220
0.0
230
1.0
 70
    11
 71
     3
 72
    32
 73
    28
 74
     0
 42
0.0000000001
 43
0.0000000001
 40
0.0
 40
0.0
 40
0.0
 40
0.0
 40
1.0
 40
1.0
 40
1.0
 40
2.0
 40
2.0
 40
2.0
 40
3.0
 40
3.0
 40
3.0
 40
4.0
 40
4.0
 40
4.0
 40
5.0
 40
5.0
 40
5.0
 40
6.0
 40
6.0
 40
6.0
 40
7.0
 40
7.0
 40
7.0
 40
8.0
 40
8.0
 40
8.0
 40
9.0
 40
9.0
 40
9.0
 40
9.0
 10
-2.62378472222222
 20
-8.268229166666666
 30
0.0
 10
-2.62378472222222
 20
-8.268229166666666
 30
0.0
 10
-2.62378472222222
 20
8.180034722222217
 30
0.0
 10
-2.62378472222222
 20
8.180034722222217
 30
0.0
 10
-2.62378472222222
 20
8.180034722222217
 30
0.0
 10
-0.3376193576388888
 20
8.180034722222217
 30
0.0
 10
-0.3376193576388888
 20
8.180034722222217
 30
0.0
 10
0.6972873263888888
 20
8.180034722222217
 30
0.0
 10
1.449007161458333
 20
7.445540364583332
 30
0.0
 10
1.918918185763885
 20
5.977929687499997
 30
0.0
 10
2.388829210069443
 20
4.510319010416666
 30
0.0
 10
2.62378472222222
 20
2.449462890624999
 30
0.0
 10
2.62378472222222
 20
-0.204638671875
 30
0.0
 10
2.62378472222222
 20
-0.8950358072916666
 30
0.0
 10
2.590022786458332
 20
-1.643310546874999
 30
0.0
 10
2.523187934027772
 20
-2.45015190972222
 30
0.0
 10
2.408121744791666
 20
-3.80200737847222
 30
0.0
 10
2.226220703124999
 20
-4.909950086805555
 30
0.0
 10
1.976795789930553
 20
-5.774669053819441
 30
0.0
 10
1.659847005208333
 20
-6.853672960069442
 30
0.0
 10
1.252636718749998
 20
-7.583344184027778
 30
0.0
 10
0.7544759114583333
 20
-7.962304687499997
 30
0.0
 10
0.4664659288194444
 20
-8.166254340277777
 30
0.0
 10
0.1074869791666666
 20
-8.268229166666666
 30
0.0
 10
-0.3231499565972222
 20
-8.268229166666666
 30
0.0
 10
-0.3231499565972222
 20
-8.268229166666666
 30
0.0
 10
-2.62378472222222
 20
-8.268229166666666
 30
0.0
 10
-2.62378472222222
 20
-8.268229166666666
 30
0.0
  0
SPLINE
  5
4C7
330
4C5
100
AcDbEntity
  8
LAYER_1
 62
     7
100
AcDbSpline
210
0.0
220
0.0
230
1.0
 70
    11
 71
     3
 72
    26
 73
    22
 74
     0
 42
0.0000000001
 43
0.0000000001
 40
0.0
 40
0.0
 40
0.0
 40
0.0
 40
1.0
 40
1.0
 40
1.0
 40
2.0
 40
2.0
 40
2.0
 40
3.0
 40
3.0
 40
3.0
 40
4.0
 40
4.0
 40
4.0
 40
5.0
 40
5.0
 40
5.0
 40
6.0
 40
6.0
 40
6.0
 40
7.0
 40
7.0
 40
7.0
 40
7.0
 10
-3.946701388888888
 20
-10.7376736111111
 30
0.0
 10
-3.946701388888888
 20
-10.7376736111111
 30
0.0
 10
-0.0943956163194444
 20
-10.7376736111111
 30
0.0
 10
-0.0943956163194444
 20
-10.7376736111111
 30
0.0
 10
1.546847873263885
 20
-10.7376736111111
 30
0.0
 10
2.705777994791666
 20
-9.11021050347222
 30
0.0
 10
3.381705729166666
 20
-5.854595269097222
 30
0.0
 10
3.757910156249999
 20
-4.01284722222222
 30
0.0
 10
3.946701388888888
 20
-1.951991102430555
 30
0.0
 10
3.946701388888888
 20
0.328662109375
 30
0.0
 10
3.946701388888888
 20
3.281797960069443
 30
0.0
 10
3.622862413194443
 20
5.703700086805552
 30
0.0
 10
2.976562499999998
 20
7.594368489583332
 30
0.0
 10
2.25171440972222
 20
9.689675564236106
 30
0.0
 10
1.233344184027777
 20
10.7376736111111
 30
0.0
 10
-0.0799262152777778
 20
10.7376736111111
 30
0.0
 10
-0.0799262152777778
 20
10.7376736111111
 30
0.0
 10
-3.946701388888888
 20
10.7376736111111
 30
0.0
 10
-3.946701388888888
 20
10.7376736111111
 30
0.0
 10
-3.946701388888888
 20
10.7376736111111
 30
0.0
 10
-3.946701388888888
 20
-10.7376736111111
 30
0.0
 10
-3.946701388888888
 20
-10.7376736111111
 30
0.0
  0
ENDBLK
  5
4C9
330
4C5
100
AcDbEntity
  8
0
100
AcDbBlockEnd
  0
BLOCK
  5
4CD
330
4CA
100
AcDbEntity
  8
0
 62
     7
100
AcDbBlockBegin
  2
AI9-BLK4
 70
     0
 10
0.0
 20
0.0
 30
0.0
  3
AI9-BLK4
  1

  0
SPLINE
  5
4CB
330
4CA
100
AcDbEntity
  8
LAYER_1
 62
     7
100
AcDbSpline
210
0.0
220
0.0
230
1.0
 70
    11
 71
     3
 72
    26
 73
    22
 74
     0
 42
0.0000000001
 43
0.0000000001
 40
0.0
 40
0.0
 40
0.0
 40
0.0
 40
1.0
 40
1.0
 40
1.0
 40
2.0
 40
2.0
 40
2.0
 40
3.0
 40
3.0
 40
3.0
 40
4.0
 40
4.0
 40
4.0
 40
5.0
 40
5.0
 40
5.0
 40
6.0
 40
6.0
 40
6.0
 40
7.0
 40
7.0
 40
7.0
 40
7.0
 10
-2.645833333333333
 20
0.9039930555555551
 30
0.0
 10
-2.645833333333333
 20
0.9039930555555551
 30
0.0
 10
-2.645833333333333
 20
8.180034722222217
 30
0.0
 10
-2.645833333333333
 20
8.180034722222217
 30
0.0
 10
-2.645833333333333
 20
8.180034722222217
 30
0.0
 10
0.465087890625
 20
8.180034722222217
 30
0.0
 10
0.465087890625
 20
8.180034722222217
 30
0.0
 10
0.9026150173611108
 20
8.180034722222217
 30
0.0
 10
1.24988064236111
 20
8.034651692708331
 30
0.0
 10
1.506884765625
 20
7.745263671874997
 30
0.0
 10
2.001600477430554
 20
7.194048394097221
 30
0.0
 10
2.248958333333332
 20
6.160519748263887
 30
0.0
 10
2.248958333333332
 20
4.643299696180553
 30
0.0
 10
2.248958333333332
 20
3.232188585069443
 30
0.0
 10
2.072569444444444
 20
2.256537543402775
 30
0.0
 10
1.720480685763888
 20
1.715657552083333
 30
0.0
 10
1.368391927083333
 20
1.174088541666665
 30
0.0
 10
0.8929687499999998
 20
0.9039930555555551
 30
0.0
 10
0.2942111545138888
 20
0.9039930555555551
 30
0.0
 10
0.2942111545138888
 20
0.9039930555555551
 30
0.0
 10
-2.645833333333333
 20
0.9039930555555551
 30
0.0
 10
-2.645833333333333
 20
0.9039930555555551
 30
0.0
  0
SPLINE
  5
4CC
330
4CA
100
AcDbEntity
  8
LAYER_1
 62
     7
100
AcDbSpline
210
0.0
220
0.0
230
1.0
 70
    11
 71
     3
 72
    68
 73
    64
 74
     0
 42
0.0000000001
 43
0.0000000001
 40
0.0
 40
0.0
 40
0.0
 40
0.0
 40
1.0
 40
1.0
 40
1.0
 40
2.0
 40
2.0
 40
2.0
 40
3.0
 40
3.0
 40
3.0
 40
4.0
 40
4.0
 40
4.0
 40
5.0
 40
5.0
 40
5.0
 40
6.0
 40
6.0
 40
6.0
 40
7.0
 40
7.0
 40
7.0
 40
8.0
 40
8.0
 40
8.0
 40
9.0
 40
9.0
 40
9.0
 40
10.0
 40
10.0
 40
10.0
 40
11.0
 40
11.0
 40
11.0
 40
12.0
 40
12.0
 40
12.0
 40
13.0
 40
13.0
 40
13.0
 40
14.0
 40
14.0
 40
14.0
 40
15.0
 40
15.0
 40
15.0
 40
16.0
 40
16.0
 40
16.0
 40
17.0
 40
17.0
 40
17.0
 40
18.0
 40
18.0
 40
18.0
 40
19.0
 40
19.0
 40
19.0
 40
20.0
 40
20.0
 40
20.0
 40
21.0
 40
21.0
 40
21.0
 40
21.0
 10
-3.968749999999998
 20
-10.7376736111111
 30
0.0
 10
-3.968749999999998
 20
-10.7376736111111
 30
0.0
 10
-2.645833333333333
 20
-10.7376736111111
 30
0.0
 10
-2.645833333333333
 20
-10.7376736111111
 30
0.0
 10
-2.645833333333333
 20
-10.7376736111111
 30
0.0
 10
-2.645833333333333
 20
-1.521354166666665
 30
0.0
 10
-2.645833333333333
 20
-1.521354166666665
 30
0.0
 10
-2.645833333333333
 20
-1.521354166666665
 30
0.0
 10
0.2390896267361111
 20
-1.521354166666665
 30
0.0
 10
0.2390896267361111
 20
-1.521354166666665
 30
0.0
 10
0.7599880642361111
 20
-1.521354166666665
 30
0.0
 10
1.143771701388887
 20
-1.65295681423611
 30
0.0
 10
1.390440538194444
 20
-1.916162109374999
 30
0.0
 10
1.816254340277773
 20
-2.39434136284722
 30
0.0
 10
2.04363064236111
 20
-3.335541449652775
 30
0.0
 10
2.072569444444444
 20
-4.739762369791666
 30
0.0
 10
2.072569444444444
 20
-4.739762369791666
 30
0.0
 10
2.160763888888888
 20
-8.324039713541665
 30
0.0
 10
2.160763888888888
 20
-8.324039713541665
 30
0.0
 10
2.18005642361111
 20
-9.163264973958332
 30
0.0
 10
2.202794053819443
 20
-9.728949652777775
 30
0.0
 10
2.227598741319444
 20
-10.02109374999998
 30
0.0
 10
2.252403428819443
 20
-10.31392686631944
 30
0.0
 10
2.28892144097222
 20
-10.55301649305555
 30
0.0
 10
2.33853081597222
 20
-10.7376736111111
 30
0.0
 10
2.33853081597222
 20
-10.7376736111111
 30
0.0
 10
3.968749999999998
 20
-10.7376736111111
 30
0.0
 10
3.968749999999998
 20
-10.7376736111111
 30
0.0
 10
3.968749999999998
 20
-10.7376736111111
 30
0.0
 10
3.968749999999998
 20
-10.25260416666666
 30
0.0
 10
3.968749999999998
 20
-10.25260416666666
 30
0.0
 10
3.766867404513888
 20
-10.05830078125
 30
0.0
 10
3.625618489583333
 20
-9.621462673611112
 30
0.0
 10
3.545692274305555
 20
-8.942089843749997
 30
0.0
 10
3.49470486111111
 20
-8.543836805555555
 30
0.0
 10
3.459564887152775
 20
-7.937499999999999
 30
0.0
 10
3.439583333333333
 20
-7.121701388888887
 30
0.0
 10
3.439583333333333
 20
-7.121701388888887
 30
0.0
 10
3.395486111111106
 20
-4.232644314236106
 30
0.0
 10
3.395486111111106
 20
-4.232644314236106
 30
0.0
 10
3.375504557291666
 20
-2.981385633680555
 30
0.0
 10
3.26870659722222
 20
-2.077392578125
 30
0.0
 10
3.075781249999999
 20
-1.522043185763888
 30
0.0
 10
2.882166883680555
 20
-0.9666937934027776
 30
0.0
 10
2.592089843749999
 20
-0.5188313802083333
 30
0.0
 10
2.204861111111104
 20
-0.1770779079861111
 30
0.0
 10
2.63618706597222
 20
0.3197048611111111
 30
0.0
 10
2.971739366319443
 20
0.9770290798611107
 30
0.0
 10
3.211518012152775
 20
1.79558376736111
 30
0.0
 10
3.451296657986107
 20
2.613449435763888
 30
0.0
 10
3.571874999999999
 20
3.66558159722222
 30
0.0
 10
3.571874999999999
 20
4.951291232638888
 30
0.0
 10
3.571874999999999
 20
7.415912543402777
 30
0.0
 10
3.124701605902775
 20
9.106076388888887
 30
0.0
 10
2.231043836805555
 20
10.02178276909722
 30
0.0
 10
1.759754774305553
 20
10.498583984375
 30
0.0
 10
1.163753255208332
 20
10.7376736111111
 30
0.0
 10
0.443039279513889
 20
10.7376736111111
 30
0.0
 10
0.443039279513889
 20
10.7376736111111
 30
0.0
 10
-3.968749999999998
 20
10.7376736111111
 30
0.0
 10
-3.968749999999998
 20
10.7376736111111
 30
0.0
 10
-3.968749999999998
 20
10.7376736111111
 30
0.0
 10
-3.968749999999998
 20
-10.7376736111111
 30
0.0
 10
-3.968749999999998
 20
-10.7376736111111
 30
0.0
  0
ENDBLK
  5
4CE
330
4CA
100
AcDbEntity
  8
0
100
AcDbBlockEnd
  0
BLOCK
  5
4D2
330
4CF
100
AcDbEntity
  8
0
 62
     7
100
AcDbBlockBegin
  2
AI9-BLK3
 70
     0
 10
0.0
 20
0.0
 30
0.0
  3
AI9-BLK3
  1

  0
LWPOLYLINE
  5
4D0
330
4CF
100
AcDbEntity
  8
LAYER_1
 62
     7
100
AcDbPolyline
 90
        4
 70
     1
 43
0.0
 10
-0.6613722059461809
 20
10.7376736111111
 10
0.6613722059461809
 20
10.7376736111111
 10
0.6613722059461809
 20
-10.7376736111111
 10
-0.6613722059461809
 20
-10.7376736111111
  0
HATCH
  5
4D1
330
4CF
100
AcDbEntity
  8
LAYER_1
 62
     7
100
AcDbHatch
 10
0.0
 20
0.0
 30
0.0
210
0.0
220
0.0
230
1.0
  2
SOLID
 70
     1
 71
     0
 91
        1
 92
        3
 72
     0
 73
     1
 93
        4
 10
-0.6613722059461809
 20
10.7376736111111
 10
0.6613722059461809
 20
10.7376736111111
 10
0.6613722059461809
 20
-10.7376736111111
 10
-0.6613722059461809
 20
-10.7376736111111
 97
        0
 75
     2
 76
     1
 98
        1
 10
0.0
 20
0.0
  0
ENDBLK
  5
4D3
330
4CF
100
AcDbEntity
  8
0
100
AcDbBlockEnd
  0
BLOCK
  5
4D7
330
4D4
100
AcDbEntity
  8
0
 62
     7
100
AcDbBlockBegin
  2
AI9-BLK2
 70
     0
 10
0.0
 20
0.0
 30
0.0
  3
AI9-BLK2
  1

  0
LWPOLYLINE
  5
4D5
330
4D4
100
AcDbEntity
  8
LAYER_1
 62
     7
100
AcDbPolyline
 90
        7
 70
     1
 43
0.0
 10
-2.785704210069443
 20
10.7376736111111
 10
0.0
 20
-7.550960286458332
 10
2.771234809027776
 20
10.7376736111111
 10
4.233333333333331
 20
10.7376736111111
 10
0.6910861545138888
 20
-10.7376736111111
 10
-0.7055555555555558
 20
-10.7376736111111
 10
-4.233333333333331
 20
10.7376736111111
  0
HATCH
  5
4D6
330
4D4
100
AcDbEntity
  8
LAYER_1
 62
     7
100
AcDbHatch
 10
0.0
 20
0.0
 30
0.0
210
0.0
220
0.0
230
1.0
  2
SOLID
 70
     1
 71
     0
 91
        1
 92
        3
 72
     0
 73
     1
 93
        7
 10
-2.785704210069443
 20
10.7376736111111
 10
0.0
 20
-7.550960286458332
 10
2.771234809027776
 20
10.7376736111111
 10
4.233333333333331
 20
10.7376736111111
 10
0.6910861545138888
 20
-10.7376736111111
 10
-0.7055555555555558
 20
-10.7376736111111
 10
-4.233333333333331
 20
10.7376736111111
 97
        0
 75
     2
 76
     1
 98
        1
 10
0.0
 20
0.0
  0
ENDBLK
  5
4D8
330
4D4
100
AcDbEntity
  8
0
100
AcDbBlockEnd
  0
BLOCK
  5
4DC
330
4D9
100
AcDbEntity
  8
0
 62
     7
100
AcDbBlockBegin
  2
AI9-BLK1
 70
     0
 10
0.0
 20
0.0
 30
0.0
  3
AI9-BLK1
  1

  0
LWPOLYLINE
  5
4DA
330
4D9
100
AcDbEntity
  8
LAYER_1
 62
     7
100
AcDbPolyline
 90
       12
 70
     1
 43
0.0
 10
-3.571874999999999
 20
10.7376736111111
 10
3.483680555555555
 20
10.7376736111111
 10
3.483680555555555
 20
8.091840277777777
 10
-2.248958333333332
 20
8.091840277777777
 10
-2.248958333333332
 20
1.565451388888888
 10
3.042708333333333
 20
1.565451388888888
 10
3.042708333333333
 20
-0.9039930555555551
 10
-2.248958333333332
 20
-0.9039930555555551
 10
-2.248958333333332
 20
-8.180034722222217
 10
3.571874999999999
 20
-8.180034722222217
 10
3.571874999999999
 20
-10.7376736111111
 10
-3.571874999999999
 20
-10.7376736111111
  0
HATCH
  5
4DB
330
4D9
100
AcDbEntity
  8
LAYER_1
 62
     7
100
AcDbHatch
 10
0.0
 20
0.0
 30
0.0
210
0.0
220
0.0
230
1.0
  2
SOLID
 70
     1
 71
     0
 91
        1
 92
        3
 72
     0
 73
     1
 93
       12
 10
-3.571874999999999
 20
10.7376736111111
 10
3.483680555555555
 20
10.7376736111111
 10
3.483680555555555
 20
8.091840277777777
 10
-2.248958333333332
 20
8.091840277777777
 10
-2.248958333333332
 20
1.565451388888888
 10
3.042708333333333
 20
1.565451388888888
 10
3.042708333333333
 20
-0.9039930555555551
 10
-2.248958333333332
 20
-0.9039930555555551
 10
-2.248958333333332
 20
-8.180034722222217
 10
3.571874999999999
 20
-8.180034722222217
 10
3.571874999999999
 20
-10.7376736111111
 10
-3.571874999999999
 20
-10.7376736111111
 97
        0
 75
     2
 76
     1
 98
        1
 10
0.0
 20
0.0
  0
ENDBLK
  5
4DD
330
4D9
100
AcDbEntity
  8
0
100
AcDbBlockEnd
  0
BLOCK
  5
501
330
4DE
100
AcDbEntity
  8
0
100
AcDbBlockBegin
  2
HD_LLC_logo_OT5
 70
     0
 10
0.0
 20
0.0
 30
0.0
  3
HD_LLC_logo_OT5
  1

  0
SPLINE
  5
4DF
102
{ACAD_REACTORS
330
4FF
102
}
330
4DE
100
AcDbEntity
  8
LAYER_1
 62
     7
100
AcDbSpline
210
0.0
220
0.0
230
1.0
 70
    11
 71
     3
 72
   113
 73
   109
 74
     0
 42
0.0000000001
 43
0.0000000001
 40
0.0
 40
0.0
 40
0.0
 40
0.0
 40
1.0
 40
1.0
 40
1.0
 40
2.0
 40
2.0
 40
2.0
 40
3.0
 40
3.0
 40
3.0
 40
4.0
 40
4.0
 40
4.0
 40
5.0
 40
5.0
 40
5.0
 40
6.0
 40
6.0
 40
6.0
 40
7.0
 40
7.0
 40
7.0
 40
8.0
 40
8.0
 40
8.0
 40
9.0
 40
9.0
 40
9.0
 40
10.0
 40
10.0
 40
10.0
 40
11.0
 40
11.0
 40
11.0
 40
12.0
 40
12.0
 40
12.0
 40
13.0
 40
13.0
 40
13.0
 40
14.0
 40
14.0
 40
14.0
 40
15.0
 40
15.0
 40
15.0
 40
16.0
 40
16.0
 40
16.0
 40
17.0
 40
17.0
 40
17.0
 40
18.0
 40
18.0
 40
18.0
 40
19.0
 40
19.0
 40
19.0
 40
20.0
 40
20.0
 40
20.0
 40
21.0
 40
21.0
 40
21.0
 40
22.0
 40
22.0
 40
22.0
 40
23.0
 40
23.0
 40
23.0
 40
24.0
 40
24.0
 40
24.0
 40
25.0
 40
25.0
 40
25.0
 40
26.0
 40
26.0
 40
26.0
 40
27.0
 40
27.0
 40
27.0
 40
28.0
 40
28.0
 40
28.0
 40
29.0
 40
29.0
 40
29.0
 40
30.0
 40
30.0
 40
30.0
 40
31.0
 40
31.0
 40
31.0
 40
32.0
 40
32.0
 40
32.0
 40
33.0
 40
33.0
 40
33.0
 40
34.0
 40
34.0
 40
34.0
 40
35.0
 40
35.0
 40
35.0
 40
36.0
 40
36.0
 40
36.0
 40
36.0
 10
193.3039632161458
 20
186.1548733181423
 30
0.0
 10
193.3039632161458
 20
186.1860514322916
 30
0.0
 10
193.3039632161458
 20
219.6932223849826
 30
0.0
 10
193.3039632161458
 20
219.6932223849826
 30
0.0
 10
193.3039632161458
 20
219.6932223849826
 30
0.0
 10
193.2974175347219
 20
219.7488606770833
 30
0.0
 10
193.2974175347219
 20
219.7488606770833
 30
0.0
 10
191.5293945312499
 20
235.455740017361
 30
0.0
 10
175.1458984374999
 20
235.2467949761284
 30
0.0
 10
174.9808783637151
 20
235.2428331163193
 30
0.0
 10
174.9808783637151
 20
235.2428331163193
 30
0.0
 10
125.8827555338541
 20
235.2430053710937
 30
0.0
 10
125.8827555338541
 20
235.2430053710937
 30
0.0
 10
125.8827555338541
 20
235.2430053710937
 30
0.0
 10
125.8827555338541
 20
255.5278998480901
 30
0.0
 10
125.8827555338541
 20
255.5278998480901
 30
0.0
 10
125.8827555338541
 20
255.5278998480901
 30
0.0
 10
84.5626247829861
 20
255.5278998480901
 30
0.0
 10
84.5626247829861
 20
255.5278998480901
 30
0.0
 10
84.5626247829861
 20
255.5278998480901
 30
0.0
 10
84.55711263020829
 20
233.7919311523436
 30
0.0
 10
84.55711263020829
 20
233.7919311523436
 30
0.0
 10
84.55711263020829
 20
233.7919311523436
 30
0.0
 10
64.42052951388888
 20
233.7919311523436
 30
0.0
 10
64.42052951388888
 20
233.7919311523436
 30
0.0
 10
64.42052951388888
 20
233.7919311523436
 30
0.0
 10
64.41501736111111
 20
255.5278998480901
 30
0.0
 10
64.41501736111111
 20
255.5278998480901
 30
0.0
 10
64.41501736111111
 20
255.5278998480901
 30
0.0
 10
23.91757541232637
 20
255.5278998480901
 30
0.0
 10
23.91757541232637
 20
255.5278998480901
 30
0.0
 10
23.91757541232637
 20
255.5278998480901
 30
0.0
 10
23.91757541232637
 20
233.2393378363715
 30
0.0
 10
23.91757541232637
 20
233.2393378363715
 30
0.0
 10
23.91757541232637
 20
233.2393378363715
 30
0.0
 10
43.65624999999999
 20
233.2393378363715
 30
0.0
 10
43.65624999999999
 20
233.2393378363715
 30
0.0
 10
43.65624999999999
 20
233.2393378363715
 30
0.0
 10
43.65624999999999
 20
211.5188720703125
 30
0.0
 10
43.65624999999999
 20
211.5188720703125
 30
0.0
 10
43.65624999999999
 20
211.5188720703125
 30
0.0
 10
23.91757541232637
 20
211.5188720703125
 30
0.0
 10
23.91757541232637
 20
211.5188720703125
 30
0.0
 10
23.91757541232637
 20
211.5188720703125
 30
0.0
 10
23.91757541232637
 20
189.2303100585936
 30
0.0
 10
23.91757541232637
 20
189.2303100585936
 30
0.0
 10
23.91757541232637
 20
189.2303100585936
 30
0.0
 10
64.41501736111111
 20
189.2303100585936
 30
0.0
 10
64.41501736111111
 20
189.2303100585936
 30
0.0
 10
64.41501736111111
 20
189.2303100585936
 30
0.0
 10
64.42052951388888
 20
211.069976128472
 30
0.0
 10
64.42052951388888
 20
211.069976128472
 30
0.0
 10
64.42052951388888
 20
211.069976128472
 30
0.0
 10
84.55711263020829
 20
211.069976128472
 30
0.0
 10
84.55711263020829
 20
211.069976128472
 30
0.0
 10
84.55711263020829
 20
211.069976128472
 30
0.0
 10
84.5626247829861
 20
189.2303100585936
 30
0.0
 10
84.5626247829861
 20
189.2303100585936
 30
0.0
 10
84.5626247829861
 20
189.2303100585936
 30
0.0
 10
125.8827555338541
 20
189.2303100585936
 30
0.0
 10
125.8827555338541
 20
189.2303100585936
 30
0.0
 10
125.8827555338541
 20
189.2303100585936
 30
0.0
 10
125.8827555338541
 20
211.5188720703125
 30
0.0
 10
125.8827555338541
 20
211.5188720703125
 30
0.0
 10
125.8827555338541
 20
211.5188720703125
 30
0.0
 10
105.3213921440971
 20
211.5188720703125
 30
0.0
 10
105.3213921440971
 20
211.5188720703125
 30
0.0
 10
105.3213921440971
 20
211.5188720703125
 30
0.0
 10
105.3213921440971
 20
233.2393378363715
 30
0.0
 10
105.3213921440971
 20
233.2393378363715
 30
0.0
 10
105.3213921440971
 20
233.2393378363715
 30
0.0
 10
175.0046495225693
 20
233.243127441406
 30
0.0
 10
175.0046495225693
 20
233.243127441406
 30
0.0
 10
175.6268337673611
 20
233.2560465494791
 30
0.0
 10
189.7165852864583
 20
233.3962619357638
 30
0.0
 10
191.3037407769094
 20
219.5690266927083
 30
0.0
 10
191.3037407769094
 20
219.4332899305555
 30
0.0
 10
191.3037407769094
 20
186.1142211914062
 30
0.0
 10
191.3037407769094
 20
186.1142211914062
 30
0.0
 10
191.3037407769094
 20
186.1142211914062
 30
0.0
 10
191.3051188151039
 20
186.0880384657115
 30
0.0
 10
191.3051188151039
 20
186.0880384657115
 30
0.0
 10
191.3054633246526
 20
186.0787367078991
 30
0.0
 10
191.3109754774304
 20
185.9566080729166
 30
0.0
 10
191.3109754774304
 20
185.7399115668401
 30
0.0
 10
191.3109754774304
 20
184.2090833875865
 30
0.0
 10
191.0488037109374
 20
177.9643310546874
 30
0.0
 10
186.9866916232638
 20
173.5652886284722
 30
0.0
 10
184.2540418836804
 20
170.6064683702255
 30
0.0
 10
180.3224989149304
 20
169.0308539496526
 30
0.0
 10
175.300927734375
 20
168.8825425889756
 30
0.0
 10
175.300927734375
 20
168.8825425889756
 30
0.0
 10
107.0094889322916
 20
168.8828870985243
 30
0.0
 10
107.0094889322916
 20
168.8828870985243
 30
0.0
 10
107.0094889322916
 20
168.8828870985243
 30
0.0
 10
107.0094889322916
 20
166.8830091688368
 30
0.0
 10
107.0094889322916
 20
166.8830091688368
 30
0.0
 10
107.0094889322916
 20
166.8830091688368
 30
0.0
 10
175.3305555555555
 20
166.8830091688368
 30
0.0
 10
175.3305555555555
 20
166.8830091688368
 30
0.0
 10
180.9467502170138
 20
167.0485460069444
 30
0.0
 10
185.3571614583333
 20
168.8448187934026
 30
0.0
 10
188.4687717013888
 20
172.2223904079861
 30
0.0
 10
192.9649658203124
 20
177.1034016927083
 30
0.0
 10
193.3136094835069
 20
183.7202243381076
 30
0.0
 10
193.3136094835069
 20
185.6520616319443
 30
0.0
 10
193.3136094835069
 20
185.9247409396701
 30
0.0
 10
193.3070638020833
 20
186.0868326822916
 30
0.0
 10
193.3039632161458
 20
186.1548733181423
 30
0.0
  0
INSERT
  5
4E0
102
{ACAD_REACTORS
330
500
102
}
330
4DE
100
AcDbEntity
  8
LAYER_1
 62
     7
100
AcDbBlockReference
  2
AI9-BLK14
 10
159.5625257703993
 20
200.5118781195744
 30
0.0
  0
INSERT
  5
4E1
330
4DE
100
AcDbEntity
  8
LAYER_1
 62
     7
100
AcDbBlockReference
  2
AI9-BLK13
 10
27.69615614149305
 20
179.2145562065971
 30
0.0
 42
0.9200000000000001
  0
INSERT
  5
4E2
102
{ACAD_REACTORS
330
4ED
102
}
330
4DE
100
AcDbEntity
  8
LAYER_1
 62
     7
100
AcDbBlockReference
  2
AI9-BLK11
 10
44.76591525607638
 20
179.2145562065971
 30
0.0
 42
0.9200000000000001
  0
INSERT
  5
4E3
102
{ACAD_REACTORS
330
4FB
102
}
330
4DE
100
AcDbEntity
  8
LAYER_1
 62
     7
100
AcDbBlockReference
  2
AI9-BLK10
 10
54.04665798611111
 20
179.2145562065971
 30
0.0
 42
0.9200000000000001
  0
INSERT
  5
4E4
102
{ACAD_REACTORS
330
4FA
102
}
330
4DE
100
AcDbEntity
  8
LAYER_1
 62
     7
100
AcDbBlockReference
  2
AI9-BLK9
 10
62.79013807508679
 20
179.2145562065971
 30
0.0
 42
0.9
  0
INSERT
  5
4E5
330
4DE
100
AcDbEntity
  8
LAYER_1
 62
     7
100
AcDbBlockReference
  2
AI9-BLK8
 10
71.03046196831595
 20
179.2145562065971
 30
0.0
 42
0.9200000000000001
  0
INSERT
  5
4E6
330
4DE
100
AcDbEntity
  8
LAYER_1
 62
     7
100
AcDbBlockReference
  2
AI9-BLK7
 10
76.93793945312498
 20
179.2145562065971
 30
0.0
 42
0.9200000000000001
  0
INSERT
  5
4E7
102
{ACAD_REACTORS
330
4EE
102
}
330
4DE
100
AcDbEntity
  8
LAYER_1
 62
     7
100
AcDbBlockReference
  2
AI9-BLK6
 10
82.55602891710069
 20
179.2145562065971
 30
0.0
 42
0.9
  0
INSERT
  5
4E8
102
{ACAD_REACTORS
330
4FC
102
}
330
4DE
100
AcDbEntity
  8
LAYER_1
 62
     7
100
AcDbBlockReference
  2
AI9-BLK5
 10
94.32430284288193
 20
179.2145562065971
 30
0.0
 42
0.9200000000000001
  0
INSERT
  5
4E9
102
{ACAD_REACTORS
330
4FD
102
}
330
4DE
100
AcDbEntity
  8
LAYER_1
 62
     7
100
AcDbBlockReference
  2
AI9-BLK4
 10
103.2081705729166
 20
179.2145562065971
 30
0.0
 42
0.9200000000000001
  0
INSERT
  5
4EA
330
4DE
100
AcDbEntity
  8
LAYER_1
 62
     7
100
AcDbBlockReference
  2
AI9-BLK3
 10
108.850978597005
 20
179.2145562065971
 30
0.0
 42
0.9200000000000001
  0
INSERT
  5
4EB
330
4DE
100
AcDbEntity
  8
LAYER_1
 62
     7
100
AcDbBlockReference
  2
AI9-BLK2
 10
114.2045708550346
 20
179.2145562065971
 30
0.0
 42
0.9200000000000001
  0
INSERT
  5
4EC
330
4DE
100
AcDbEntity
  8
LAYER_1
 62
     7
100
AcDbBlockReference
  2
AI9-BLK1
 10
122.4125108506944
 20
179.2145562065971
 30
0.0
 42
0.9200000000000001
  0
HATCH
  5
4ED
330
4DE
100
AcDbEntity
  8
0
  6
Continuous
100
AcDbHatch
 10
0.0
 20
0.0
 30
0.0
210
0.0
220
0.0
230
1.0
  2
SOLID
 70
     1
 71
     1
 91
        2
 92
       16
 93
        1
 72
     4
 94
        3
 73
     0
 74
     0
 95
       26
 96
       22
 40
0.0
 40
0.0
 40
0.0
 40
0.0
 40
1.0
 40
1.0
 40
1.0
 40
2.0
 40
2.0
 40
2.0
 40
3.0
 40
3.0
 40
3.0
 40
4.0
 40
4.0
 40
4.0
 40
5.0
 40
5.0
 40
5.0
 40
6.0
 40
6.0
 40
6.0
 40
7.0
 40
7.0
 40
7.0
 40
7.0
 10
42.12008192274304
 20
180.046229817708
 10
42.12008192274304
 20
180.046229817708
 10
42.12008192274304
 20
186.7401881510414
 10
42.12008192274304
 20
186.7401881510414
 10
42.12008192274304
 20
186.7401881510414
 10
45.23100314670138
 20
186.7401881510414
 10
45.23100314670138
 20
186.7401881510414
 10
45.66853027343749
 20
186.7401881510414
 10
46.01579589843749
 20
186.6064357638887
 10
46.27280002170138
 20
186.3401987847216
 10
46.76751573350694
 20
185.8330807291664
 10
47.01487358940972
 20
184.8822343749995
 10
47.01487358940972
 20
183.4863919270832
 10
47.01487358940972
 20
182.188169704861
 10
46.83848470052082
 20
181.2905707465276
 10
46.48639594184028
 20
180.7929611545137
 10
46.13430718315971
 20
180.2947176649304
 10
45.65888400607638
 20
180.046229817708
 10
45.06012641059028
 20
180.046229817708
 10
45.06012641059028
 20
180.046229817708
 10
42.12008192274304
 20
180.046229817708
 10
42.12008192274304
 20
180.046229817708
 97
        1
330
4E2
 92
        1
 93
        1
 72
     4
 94
        3
 73
     0
 74
     0
 95
       68
 96
       64
 40
0.0
 40
0.0
 40
0.0
 40
0.0
 40
1.0
 40
1.0
 40
1.0
 40
2.0
 40
2.0
 40
2.0
 40
3.0
 40
3.0
 40
3.0
 40
4.0
 40
4.0
 40
4.0
 40
5.0
 40
5.0
 40
5.0
 40
6.0
 40
6.0
 40
6.0
 40
7.0
 40
7.0
 40
7.0
 40
8.0
 40
8.0
 40
8.0
 40
9.0
 40
9.0
 40
9.0
 40
10.0
 40
10.0
 40
10.0
 40
11.0
 40
11.0
 40
11.0
 40
12.0
 40
12.0
 40
12.0
 40
13.0
 40
13.0
 40
13.0
 40
14.0
 40
14.0
 40
14.0
 40
15.0
 40
15.0
 40
15.0
 40
16.0
 40
16.0
 40
16.0
 40
17.0
 40
17.0
 40
17.0
 40
18.0
 40
18.0
 40
18.0
 40
19.0
 40
19.0
 40
19.0
 40
20.0
 40
20.0
 40
20.0
 40
21.0
 40
21.0
 40
21.0
 40
21.0
 10
40.79716525607638
 20
169.3358964843748
 10
40.79716525607638
 20
169.3358964843748
 10
42.12008192274304
 20
169.3358964843748
 10
42.12008192274304
 20
169.3358964843748
 10
42.12008192274304
 20
169.3358964843748
 10
42.12008192274304
 20
177.8149103732637
 10
42.12008192274304
 20
177.8149103732637
 10
42.12008192274304
 20
177.8149103732637
 10
45.00500488281249
 20
177.8149103732637
 10
45.00500488281249
 20
177.8149103732637
 10
45.52590332031249
 20
177.8149103732637
 10
45.90968695746528
 20
177.6938359374998
 10
46.15635579427083
 20
177.4516870659717
 10
46.58216959635415
 20
177.0117621527776
 10
46.80954589843749
 20
176.1458580729164
 10
46.83848470052082
 20
174.8539748263887
 10
46.83848470052082
 20
174.8539748263887
 10
46.92667914496527
 20
171.5564396701385
 10
46.92667914496527
 20
171.5564396701385
 10
46.94597167968749
 20
170.7843524305554
 10
46.96870930989581
 20
170.2639225260415
 10
46.99351399739582
 20
169.9951499565971
 10
47.01831868489581
 20
169.725743489583
 10
47.0548366970486
 20
169.5057810329859
 10
47.10444607204859
 20
169.3358964843748
 10
47.10444607204859
 20
169.3358964843748
 10
48.73466525607638
 20
169.3358964843748
 10
48.73466525607638
 20
169.3358964843748
 10
48.73466525607638
 20
169.3358964843748
 10
48.73466525607638
 20
169.7821603732633
 10
48.73466525607638
 20
169.7821603732633
 10
48.53278266059028
 20
169.9609194878471
 10
48.39153374565971
 20
170.3628105468748
 10
48.31160753038194
 20
170.9878335503471
 10
48.26062011718749
 20
171.3542263454858
 10
48.22548014322915
 20
171.9120562065971
 10
48.20549858940971
 20
172.6625909288193
 10
48.20549858940971
 20
172.6625909288193
 10
48.16140136718749
 20
175.3205234374999
 10
48.16140136718749
 20
175.3205234374999
 10
48.14141981336803
 20
176.4716814236109
 10
48.03462185329859
 20
177.3033550347219
 10
47.84169650607638
 20
177.814276475694
 10
47.64808213975693
 20
178.3251979166665
 10
47.35800509982638
 20
178.7372313368054
 10
46.97077636718749
 20
179.0516445312498
 10
47.4021023220486
 20
179.5086846788193
 10
47.73765462239582
 20
180.1134229600693
 10
47.97743326822915
 20
180.866493272569
 10
48.21721191406249
 20
181.6189296874999
 10
48.33779025607638
 20
182.5868912760411
 10
48.33779025607638
 20
183.7697441406248
 10
48.33779025607638
 20
186.0371957465273
 10
47.89061686197913
 20
187.5921464843749
 10
46.99695909288194
 20
188.4345963541665
 10
46.52567003038194
 20
188.8732534722221
 10
45.92966851128472
 20
189.0932159288193
 10
45.20895453559027
 20
189.0932159288193
 10
45.20895453559027
 20
189.0932159288193
 10
40.79716525607638
 20
189.0932159288193
 10
40.79716525607638
 20
189.0932159288193
 10
40.79716525607638
 20
189.0932159288193
 10
40.79716525607638
 20
169.3358964843748
 10
40.79716525607638
 20
169.3358964843748
 97
        0
 75
     0
 76
     1
 98
        0
  0
HATCH
  5
4EE
330
4DE
100
AcDbEntity
  8
0
  6
Continuous
100
AcDbHatch
 10
0.0
 20
0.0
 30
0.0
210
0.0
220
0.0
230
1.0
  2
SOLID
 70
     1
 71
     1
 91
        1
 92
        1
 93
        1
 72
     4
 94
        3
 73
     0
 74
     0
 95
       59
 96
       55
 40
0.0
 40
0.0
 40
0.0
 40
0.0
 40
1.0
 40
1.0
 40
1.0
 40
2.0
 40
2.0
 40
2.0
 40
3.0
 40
3.0
 40
3.0
 40
4.0
 40
4.0
 40
4.0
 40
5.0
 40
5.0
 40
5.0
 40
6.0
 40
6.0
 40
6.0
 40
7.0
 40
7.0
 40
7.0
 40
8.0
 40
8.0
 40
8.0
 40
9.0
 40
9.0
 40
9.0
 40
10.0
 40
10.0
 40
10.0
 40
11.0
 40
11.0
 40
11.0
 40
12.0
 40
12.0
 40
12.0
 40
13.0
 40
13.0
 40
13.0
 40
14.0
 40
14.0
 40
14.0
 40
15.0
 40
15.0
 40
15.0
 40
16.0
 40
16.0
 40
16.0
 40
17.0
 40
17.0
 40
17.0
 40
18.0
 40
18.0
 40
18.0
 40
18.0
 10
85.61871880425345
 20
187.4658355034721
 10
86.29120144314232
 20
186.1797124565971
 10
86.66671685112847
 20
184.7193364800346
 10
86.7452650282118
 20
183.0840874565969
 10
86.7452650282118
 20
183.0840874565969
 10
85.42234836154511
 20
183.0840874565969
 10
85.42234836154511
 20
183.0840874565969
 10
85.27696533203123
 20
184.3156401909719
 10
84.99171142578125
 20
185.2917046440971
 10
84.56589762369791
 20
186.0122808159719
 10
84.14008382161458
 20
186.7322368706594
 10
83.53994818793401
 20
187.0925249565969
 10
82.76617974175342
 20
187.0925249565969
 10
81.81740044487847
 20
187.0925249565969
 10
81.05258924696178
 20
186.4240386284721
 10
80.47243516710068
 20
185.0883062065971
 10
79.89159206814234
 20
183.7525737847219
 10
79.6015150282118
 20
181.7049468315971
 10
79.6015150282118
 20
178.9454253472221
 10
79.6015150282118
 20
176.6844780815969
 10
79.86265326605901
 20
174.8514116753471
 10
80.38561876085069
 20
173.4456060112846
 10
80.90789523654512
 20
172.0391802300344
 10
81.69199896918403
 20
171.3365874565971
 10
82.73724093967013
 20
171.3365874565971
 10
83.69497748480901
 20
171.3365874565971
 10
84.42120361328125
 20
172.0794878472221
 10
84.91523030598958
 20
173.5665288628469
 10
85.18601481119791
 20
174.3491167534719
 10
85.38445231119791
 20
175.3785112847221
 10
85.51054280598959
 20
176.6547124565971
 10
85.51054280598959
 20
176.6547124565971
 10
86.83345947265625
 20
176.6547124565971
 10
86.83345947265625
 20
176.6547124565971
 10
86.72597249348957
 20
174.6157671440971
 10
86.35114610460069
 20
172.9061040581596
 10
85.70760226779514
 20
171.526343315972
 10
84.93727891710069
 20
169.8650493706596
 10
83.90375027126735
 20
169.0347124565971
 10
82.60701633029514
 20
169.0347124565971
 10
81.48598225911458
 20
169.0347124565971
 10
80.54547119140625
 20
169.7143608940971
 10
79.78479410807292
 20
171.0742778862845
 10
78.78020426432292
 20
172.8726177300344
 10
78.27859836154512
 20
175.6495024956596
 10
78.27859836154512
 20
179.4049321831594
 10
78.27859836154512
 20
182.2562310112846
 10
78.65342475043402
 20
184.5946929253469
 10
79.40445556640622
 20
186.4196978081596
 10
80.22301025390625
 20
188.4028325737846
 10
81.34955647786458
 20
189.3943999565971
 10
82.78271620008679
 20
189.3943999565971
 10
84.00090196397568
 20
189.3943999565971
 10
84.94623616536458
 20
188.7513384331594
 10
85.61871880425345
 20
187.4658355034721
 97
        1
330
4E7
 75
     0
 76
     1
 98
        1
 10
0.0
 20
0.0
  0
LINE
  5
4EF
102
{ACAD_REACTORS
330
4FE
102
}
330
4DE
100
AcDbEntity
  8
LAYER_1
 62
     7
100
AcDbLine
 10
34.65766059027778
 20
177.4497853732638
 30
0.0
 11
36.19830729166666
 21
186.1658769531249
 31
0.0
  0
LINE
  5
4F0
102
{ACAD_REACTORS
330
4FE
102
}
330
4DE
100
AcDbEntity
  8
LAYER_1
 62
     7
100
AcDbLine
 10
36.19830729166666
 20
186.1658769531249
 30
0.0
 11
37.67556423611111
 21
177.4497853732638
 31
0.0
  0
LINE
  5
4F1
102
{ACAD_REACTORS
330
4FE
102
}
330
4DE
100
AcDbEntity
  8
LAYER_1
 62
     7
100
AcDbLine
 10
37.67556423611111
 20
177.4497853732638
 30
0.0
 11
34.65766059027778
 21
177.4497853732638
 31
0.0
  0
LINE
  5
4F2
102
{ACAD_REACTORS
330
4FE
102
}
330
4DE
100
AcDbEntity
  8
LAYER_1
 62
     7
100
AcDbLine
 10
31.83957248263888
 20
169.3358964843748
 30
0.0
 11
33.22450086805555
 21
169.3358964843748
 31
0.0
  0
LINE
  5
4F3
102
{ACAD_REACTORS
330
4FE
102
}
330
4DE
100
AcDbEntity
  8
LAYER_1
 62
     7
100
AcDbLine
 10
33.22450086805555
 20
169.3358964843748
 30
0.0
 11
34.27043185763887
 21
175.2590353732638
 31
0.0
  0
LINE
  5
4F4
102
{ACAD_REACTORS
330
4FE
102
}
330
4DE
100
AcDbEntity
  8
LAYER_1
 62
     7
100
AcDbLine
 10
34.27043185763887
 20
175.2590353732638
 30
0.0
 11
38.04694552951389
 21
175.2590353732638
 31
0.0
  0
LINE
  5
4F5
102
{ACAD_REACTORS
330
4FE
102
}
330
4DE
100
AcDbEntity
  8
LAYER_1
 62
     7
100
AcDbLine
 10
38.04694552951389
 20
175.2590353732638
 30
0.0
 11
39.05015733506942
 21
169.3358964843748
 31
0.0
  0
LINE
  5
4F6
102
{ACAD_REACTORS
330
4FE
102
}
330
4DE
100
AcDbEntity
  8
LAYER_1
 62
     7
100
AcDbLine
 10
39.05015733506942
 20
169.3358964843748
 30
0.0
 11
40.43508572048611
 21
169.3358964843748
 31
0.0
  0
LINE
  5
4F7
102
{ACAD_REACTORS
330
4FE
102
}
330
4DE
100
AcDbEntity
  8
LAYER_1
 62
     7
100
AcDbLine
 10
40.43508572048611
 20
169.3358964843748
 30
0.0
 11
36.952783203125
 21
189.0932159288193
 31
0.0
  0
LINE
  5
4F8
102
{ACAD_REACTORS
330
4FE
102
}
330
4DE
100
AcDbEntity
  8
LAYER_1
 62
     7
100
AcDbLine
 10
36.952783203125
 20
189.0932159288193
 30
0.0
 11
35.47828233506943
 21
189.0932159288193
 31
0.0
  0
LINE
  5
4F9
102
{ACAD_REACTORS
330
4FE
102
}
330
4DE
100
AcDbEntity
  8
LAYER_1
 62
     7
100
AcDbLine
 10
35.47828233506943
 20
189.0932159288193
 30
0.0
 11
31.83957248263888
 21
169.3358964843748
 31
0.0
  0
HATCH
  5
4FA
330
4DE
100
AcDbEntity
  8
0
  6
Continuous
100
AcDbHatch
 10
0.0
 20
0.0
 30
0.0
210
0.0
220
0.0
230
1.0
  2
SOLID
 70
     1
 71
     1
 91
        2
 92
       16
 93
        1
 72
     4
 94
        3
 73
     0
 74
     0
 95
       29
 96
       25
 40
0.0
 40
0.0
 40
0.0
 40
0.0
 40
1.0
 40
1.0
 40
1.0
 40
2.0
 40
2.0
 40
2.0
 40
3.0
 40
3.0
 40
3.0
 40
4.0
 40
4.0
 40
4.0
 40
5.0
 40
5.0
 40
5.0
 40
6.0
 40
6.0
 40
6.0
 40
7.0
 40
7.0
 40
7.0
 40
8.0
 40
8.0
 40
8.0
 40
8.0
 10
62.85697292751734
 20
171.3365874565971
 10
61.88338894314235
 20
171.3365874565971
 10
61.18058946397566
 20
172.0714263237844
 10
60.74857449001735
 20
173.5411040581594
 10
60.31587049696178
 20
175.0107817925344
 10
60.10020751953123
 20
176.8165630425341
 10
60.10020751953123
 20
178.9578276909721
 10
60.10020751953123
 20
181.6342534722221
 10
60.35101047092013
 20
183.6589360894094
 10
60.85261637369789
 20
185.0324956597219
 10
61.35422227647566
 20
186.4054351128471
 10
62.00741238064235
 20
187.0925249565969
 10
62.81218668619789
 20
187.0925249565969
 10
63.6369425455729
 20
187.0925249565969
 10
64.28806559244789
 20
186.3992339409721
 10
64.76486680772568
 20
185.0126519097221
 10
65.24166802300347
 20
183.6260698784719
 10
65.48006863064235
 20
181.7961040581594
 10
65.48006863064235
 20
179.5239946831596
 10
65.48006863064235
 20
177.3734282769096
 10
65.27336290147568
 20
175.4715288628467
 10
64.86132948133678
 20
173.8176763237846
 10
64.4492960611979
 20
172.1632036675344
 10
63.78094753689235
 20
171.3365874565971
 10
62.85697292751734
 20
171.3365874565971
 97
        1
330
4E4
 92
        1
 93
        1
 72
     4
 94
        3
 73
     0
 74
     0
 95
       29
 96
       25
 40
0.0
 40
0.0
 40
0.0
 40
0.0
 40
1.0
 40
1.0
 40
1.0
 40
2.0
 40
2.0
 40
2.0
 40
3.0
 40
3.0
 40
3.0
 40
4.0
 40
4.0
 40
4.0
 40
5.0
 40
5.0
 40
5.0
 40
6.0
 40
6.0
 40
6.0
 40
7.0
 40
7.0
 40
7.0
 40
8.0
 40
8.0
 40
8.0
 40
8.0
 10
62.76119927300346
 20
189.4340874565971
 10
61.47273356119789
 20
189.4340874565971
 10
60.50121663411457
 20
188.2397417534719
 10
59.84733751085068
 20
185.8516704644094
 10
59.3395304361979
 20
183.9900786675344
 10
59.08597140842012
 20
181.7514556206596
 10
59.08597140842012
 20
179.1351812065971
 10
59.08597140842012
 20
176.2379937065971
 10
59.3836276584201
 20
173.8412407769094
 10
59.9789401584201
 20
171.9449224175346
 10
60.6424655490451
 20
169.9779106987846
 10
61.5602389865451
 20
168.9950249565971
 10
62.7315714518229
 20
168.9950249565971
 10
63.9904093424479
 20
168.9950249565971
 10
64.95641411675345
 20
170.1186773003469
 10
65.63027479383679
 20
172.3659819878471
 10
66.20629475911457
 20
174.2796636284719
 10
66.49430474175345
 20
176.6813774956591
 10
66.49430474175345
 20
179.5698833550344
 10
66.49430474175345
 20
182.2388677300341
 10
66.24005669487845
 20
184.4291216362844
 10
65.73293863932289
 20
186.1412651909719
 10
65.08870578342011
 20
188.3364800347219
 10
64.09789632161457
 20
189.4340874565971
 10
62.76119927300346
 20
189.4340874565971
 97
        0
 75
     0
 76
     1
 98
        0
  0
HATCH
  5
4FB
330
4DE
100
AcDbEntity
  8
0
  6
Continuous
100
AcDbHatch
 10
0.0
 20
0.0
 30
0.0
210
0.0
220
0.0
230
1.0
  2
SOLID
 70
     1
 71
     1
 91
        1
 92
        1
 93
        1
 72
     4
 94
        3
 73
     0
 74
     0
 95
       59
 96
       55
 40
0.0
 40
0.0
 40
0.0
 40
0.0
 40
1.0
 40
1.0
 40
1.0
 40
2.0
 40
2.0
 40
2.0
 40
3.0
 40
3.0
 40
3.0
 40
4.0
 40
4.0
 40
4.0
 40
5.0
 40
5.0
 40
5.0
 40
6.0
 40
6.0
 40
6.0
 40
7.0
 40
7.0
 40
7.0
 40
8.0
 40
8.0
 40
8.0
 40
9.0
 40
9.0
 40
9.0
 40
10.0
 40
10.0
 40
10.0
 40
11.0
 40
11.0
 40
11.0
 40
12.0
 40
12.0
 40
12.0
 40
13.0
 40
13.0
 40
13.0
 40
14.0
 40
14.0
 40
14.0
 40
15.0
 40
15.0
 40
15.0
 40
16.0
 40
16.0
 40
16.0
 40
17.0
 40
17.0
 40
17.0
 40
18.0
 40
18.0
 40
18.0
 40
18.0
 10
49.39440104166666
 20
189.0932159288193
 10
49.39440104166666
 20
189.0932159288193
 10
51.24786241319444
 20
189.0932159288193
 10
51.24786241319444
 20
189.0932159288193
 10
51.24786241319444
 20
189.0932159288193
 10
54.04665798611111
 20
172.3887471788193
 10
54.04665798611111
 20
172.3887471788193
 10
54.04665798611111
 20
172.3887471788193
 10
56.83994140624999
 20
189.0932159288193
 10
56.83994140624999
 20
189.0932159288193
 10
56.83994140624999
 20
189.0932159288193
 10
58.69891493055553
 20
189.0932159288193
 10
58.69891493055553
 20
189.0932159288193
 10
58.69891493055553
 20
189.0932159288193
 10
58.69891493055553
 20
169.3358964843748
 10
58.69891493055553
 20
169.3358964843748
 10
58.69891493055553
 20
169.3358964843748
 10
57.46419270833333
 20
169.3358964843748
 10
57.46419270833333
 20
169.3358964843748
 10
57.46419270833333
 20
169.3358964843748
 10
57.46419270833333
 20
180.9964422743054
 10
57.46419270833333
 20
180.9964422743054
 10
57.46419270833333
 20
181.3996011284721
 10
57.47108289930555
 20
182.0677291666664
 10
57.48624131944444
 20
183.0001924913193
 10
57.50071072048609
 20
183.9326558159721
 10
57.50828993055553
 20
184.932312282986
 10
57.50828993055553
 20
185.9997957899304
 10
57.50828993055553
 20
185.9997957899304
 10
54.700537109375
 20
169.3358964843748
 10
54.700537109375
 20
169.3358964843748
 10
54.700537109375
 20
169.3358964843748
 10
53.38382161458333
 20
169.3358964843748
 10
53.38382161458333
 20
169.3358964843748
 10
53.38382161458333
 20
169.3358964843748
 10
50.58502604166665
 20
185.9997957899304
 10
50.58502604166665
 20
185.9997957899304
 10
50.58502604166665
 20
185.9997957899304
 10
50.58502604166665
 20
185.3944236111109
 10
50.58502604166665
 20
185.3944236111109
 10
50.58502604166665
 20
184.9101258680554
 10
50.59191623263888
 20
184.1729029947915
 10
50.60707465277777
 20
183.1821210937498
 10
50.62154405381942
 20
182.1913391927082
 10
50.62912326388889
 20
181.4629908854165
 10
50.62912326388889
 20
180.9964422743054
 10
50.62912326388889
 20
180.9964422743054
 10
50.62912326388889
 20
169.3358964843748
 10
50.62912326388889
 20
169.3358964843748
 10
50.62912326388889
 20
169.3358964843748
 10
49.39440104166666
 20
169.3358964843748
 10
49.39440104166666
 20
169.3358964843748
 10
49.39440104166666
 20
169.3358964843748
 10
49.39440104166666
 20
189.0932159288193
 10
49.39440104166666
 20
189.0932159288193
 97
        1
330
4E3
 75
     0
 76
     1
 98
        1
 10
0.0
 20
0.0
  0
HATCH
  5
4FC
330
4DE
100
AcDbEntity
  8
0
  6
Continuous
100
AcDbHatch
 10
0.0
 20
0.0
 30
0.0
210
0.0
220
0.0
230
1.0
  2
SOLID
 70
     1
 71
     1
 91
        2
 92
       16
 93
        1
 72
     4
 94
        3
 73
     0
 74
     0
 95
       32
 96
       28
 40
0.0
 40
0.0
 40
0.0
 40
0.0
 40
1.0
 40
1.0
 40
1.0
 40
2.0
 40
2.0
 40
2.0
 40
3.0
 40
3.0
 40
3.0
 40
4.0
 40
4.0
 40
4.0
 40
5.0
 40
5.0
 40
5.0
 40
6.0
 40
6.0
 40
6.0
 40
7.0
 40
7.0
 40
7.0
 40
8.0
 40
8.0
 40
8.0
 40
9.0
 40
9.0
 40
9.0
 40
9.0
 10
91.70051812065969
 20
171.6077853732634
 10
91.70051812065969
 20
171.6077853732634
 10
91.70051812065969
 20
186.7401881510414
 10
91.70051812065969
 20
186.7401881510414
 10
91.70051812065969
 20
186.7401881510414
 10
93.98668348524305
 20
186.7401881510414
 10
93.98668348524305
 20
186.7401881510414
 10
95.02159016927082
 20
186.7401881510414
 10
95.77331000434028
 20
186.0644533420137
 10
96.24322102864582
 20
184.7142515190969
 10
96.71313205295138
 20
183.3640496961804
 10
96.94808756510417
 20
181.4680620659721
 10
96.94808756510417
 20
179.0262886284719
 10
96.94808756510417
 20
178.3911232638887
 10
96.91432562934028
 20
177.7027105034721
 10
96.84749077690971
 20
176.9604164496524
 10
96.7324245876736
 20
175.7167094184024
 10
96.55052354600693
 20
174.6974021267359
 10
96.30109863281248
 20
173.901860677083
 10
95.98414984809028
 20
172.9091770833332
 10
95.57693956163193
 20
172.2378795572914
 10
95.07877875434026
 20
171.8892358940971
 10
94.79076877170138
 20
171.7016022135415
 10
94.43178982204859
 20
171.6077853732634
 10
94.00115288628471
 20
171.6077853732634
 10
94.00115288628471
 20
171.6077853732634
 10
91.70051812065969
 20
171.6077853732634
 10
91.70051812065969
 20
171.6077853732634
 97
        1
330
4E8
 92
        1
 93
        1
 72
     4
 94
        3
 73
     0
 74
     0
 95
       26
 96
       22
 40
0.0
 40
0.0
 40
0.0
 40
0.0
 40
1.0
 40
1.0
 40
1.0
 40
2.0
 40
2.0
 40
2.0
 40
3.0
 40
3.0
 40
3.0
 40
4.0
 40
4.0
 40
4.0
 40
5.0
 40
5.0
 40
5.0
 40
6.0
 40
6.0
 40
6.0
 40
7.0
 40
7.0
 40
7.0
 40
7.0
 10
90.37760145399305
 20
169.3358964843748
 10
90.37760145399305
 20
169.3358964843748
 10
94.22990722656248
 20
169.3358964843748
 10
94.22990722656248
 20
169.3358964843748
 10
95.87115071614581
 20
169.3358964843748
 10
97.03008083767359
 20
170.8331625434026
 10
97.70600857204859
 20
173.8283285590274
 10
98.08221299913194
 20
175.5227367621523
 10
98.27100423177082
 20
177.4187243923609
 10
98.27100423177082
 20
179.5169253472221
 10
98.27100423177082
 20
182.233810329861
 10
97.94716525607638
 20
184.4619602864582
 10
97.30086534288195
 20
186.2013752170135
 10
96.57601725260416
 20
188.1290577256939
 10
95.5576470269097
 20
189.0932159288193
 10
94.24437662760416
 20
189.0932159288193
 10
94.24437662760416
 20
189.0932159288193
 10
90.37760145399305
 20
189.0932159288193
 10
90.37760145399305
 20
189.0932159288193
 10
90.37760145399305
 20
189.0932159288193
 10
90.37760145399305
 20
169.3358964843748
 10
90.37760145399305
 20
169.3358964843748
 97
        0
 75
     0
 76
     1
 98
        0
  0
HATCH
  5
4FD
330
4DE
100
AcDbEntity
  8
0
  6
Continuous
100
AcDbHatch
 10
0.0
 20
0.0
 30
0.0
210
0.0
220
0.0
230
1.0
  2
SOLID
 70
     1
 71
     1
 91
        2
 92
       16
 93
        1
 72
     4
 94
        3
 73
     0
 74
     0
 95
       26
 96
       22
 40
0.0
 40
0.0
 40
0.0
 40
0.0
 40
1.0
 40
1.0
 40
1.0
 40
2.0
 40
2.0
 40
2.0
 40
3.0
 40
3.0
 40
3.0
 40
4.0
 40
4.0
 40
4.0
 40
5.0
 40
5.0
 40
5.0
 40
6.0
 40
6.0
 40
6.0
 40
7.0
 40
7.0
 40
7.0
 40
7.0
 10
100.5623372395832
 20
180.046229817708
 10
100.5623372395832
 20
180.046229817708
 10
100.5623372395832
 20
186.7401881510414
 10
100.5623372395832
 20
186.7401881510414
 10
100.5623372395832
 20
186.7401881510414
 10
103.6732584635416
 20
186.7401881510414
 10
103.6732584635416
 20
186.7401881510414
 10
104.1107855902777
 20
186.7401881510414
 10
104.4580512152777
 20
186.6064357638887
 10
104.7150553385415
 20
186.3401987847216
 10
105.2097710503471
 20
185.8330807291664
 10
105.4571289062495
 20
184.8822343749995
 10
105.4571289062495
 20
183.4863919270832
 10
105.4571289062495
 20
182.188169704861
 10
105.280740017361
 20
181.2905707465276
 10
104.9286512586804
 20
180.7929611545137
 10
104.5765624999999
 20
180.2947176649304
 10
104.1011393229166
 20
180.046229817708
 10
103.5023817274304
 20
180.046229817708
 10
103.5023817274304
 20
180.046229817708
 10
100.5623372395832
 20
180.046229817708
 10
100.5623372395832
 20
180.046229817708
 97
        1
330
4E9
 92
        1
 93
        1
 72
     4
 94
        3
 73
     0
 74
     0
 95
       68
 96
       64
 40
0.0
 40
0.0
 40
0.0
 40
0.0
 40
1.0
 40
1.0
 40
1.0
 40
2.0
 40
2.0
 40
2.0
 40
3.0
 40
3.0
 40
3.0
 40
4.0
 40
4.0
 40
4.0
 40
5.0
 40
5.0
 40
5.0
 40
6.0
 40
6.0
 40
6.0
 40
7.0
 40
7.0
 40
7.0
 40
8.0
 40
8.0
 40
8.0
 40
9.0
 40
9.0
 40
9.0
 40
10.0
 40
10.0
 40
10.0
 40
11.0
 40
11.0
 40
11.0
 40
12.0
 40
12.0
 40
12.0
 40
13.0
 40
13.0
 40
13.0
 40
14.0
 40
14.0
 40
14.0
 40
15.0
 40
15.0
 40
15.0
 40
16.0
 40
16.0
 40
16.0
 40
17.0
 40
17.0
 40
17.0
 40
18.0
 40
18.0
 40
18.0
 40
19.0
 40
19.0
 40
19.0
 40
20.0
 40
20.0
 40
20.0
 40
21.0
 40
21.0
 40
21.0
 40
21.0
 10
99.23942057291661
 20
169.3358964843748
 10
99.23942057291661
 20
169.3358964843748
 10
100.5623372395832
 20
169.3358964843748
 10
100.5623372395832
 20
169.3358964843748
 10
100.5623372395832
 20
169.3358964843748
 10
100.5623372395832
 20
177.8149103732637
 10
100.5623372395832
 20
177.8149103732637
 10
100.5623372395832
 20
177.8149103732637
 10
103.4472601996527
 20
177.8149103732637
 10
103.4472601996527
 20
177.8149103732637
 10
103.9681586371527
 20
177.8149103732637
 10
104.3519422743053
 20
177.6938359374998
 10
104.5986111111109
 20
177.4516870659717
 10
105.0244249131943
 20
177.0117621527776
 10
105.2518012152777
 20
176.1458580729164
 10
105.280740017361
 20
174.8539748263887
 10
105.280740017361
 20
174.8539748263887
 10
105.3689344618053
 20
171.5564396701385
 10
105.3689344618053
 20
171.5564396701385
 10
105.3882269965277
 20
170.7843524305554
 10
105.4109646267359
 20
170.2639225260415
 10
105.4357693142359
 20
169.9951499565971
 10
105.4605740017358
 20
169.725743489583
 10
105.4970920138888
 20
169.5057810329859
 10
105.5467013888887
 20
169.3358964843748
 10
105.5467013888887
 20
169.3358964843748
 10
107.1769205729166
 20
169.3358964843748
 10
107.1769205729166
 20
169.3358964843748
 10
107.1769205729166
 20
169.3358964843748
 10
107.1769205729166
 20
169.7821603732633
 10
107.1769205729166
 20
169.7821603732633
 10
106.9750379774303
 20
169.9609194878471
 10
106.8337890624996
 20
170.3628105468748
 10
106.7538628472221
 20
170.9878335503471
 10
106.7028754340274
 20
171.3542263454858
 10
106.6677354600692
 20
171.9120562065971
 10
106.6477539062496
 20
172.6625909288193
 10
106.6477539062496
 20
172.6625909288193
 10
106.6036566840277
 20
175.3205234374999
 10
106.6036566840277
 20
175.3205234374999
 10
106.5836751302082
 20
176.4716814236109
 10
106.4768771701387
 20
177.3033550347219
 10
106.2839518229166
 20
177.814276475694
 10
106.0903374565971
 20
178.3251979166665
 10
105.8002604166666
 20
178.7372313368054
 10
105.4130316840276
 20
179.0516445312498
 10
105.8443576388885
 20
179.5086846788193
 10
106.179909939236
 20
180.1134229600693
 10
106.4196885850692
 20
180.866493272569
 10
106.6594672309027
 20
181.6189296874999
 10
106.7800455729166
 20
182.5868912760411
 10
106.7800455729166
 20
183.7697441406248
 10
106.7800455729166
 20
186.0371957465273
 10
106.3328721788193
 20
187.5921464843749
 10
105.4392144097221
 20
188.4345963541665
 10
104.9679253472221
 20
188.8732534722221
 10
104.3719238281249
 20
189.0932159288193
 10
103.6512098524303
 20
189.0932159288193
 10
103.6512098524303
 20
189.0932159288193
 10
99.23942057291661
 20
189.0932159288193
 10
99.23942057291661
 20
189.0932159288193
 10
99.23942057291661
 20
189.0932159288193
 10
99.23942057291661
 20
169.3358964843748
 10
99.23942057291661
 20
169.3358964843748
 97
        0
 75
     0
 76
     1
 98
        0
  0
HATCH
  5
4FE
330
4DE
100
AcDbEntity
  8
0
  6
Continuous
100
AcDbHatch
 10
0.0
 20
0.0
 30
0.0
210
0.0
220
0.0
230
1.0
  2
SOLID
 70
     1
 71
     1
 91
        2
 92
        1
 93
        8
 72
     1
 10
35.47828233506943
 20
189.0932159288193
 11
31.83957248263888
 21
169.3358964843748
 72
     1
 10
31.83957248263888
 20
169.3358964843748
 11
33.22450086805555
 21
169.3358964843748
 72
     1
 10
33.22450086805555
 20
169.3358964843748
 11
34.27043185763887
 21
175.2590353732638
 72
     1
 10
34.27043185763887
 20
175.2590353732638
 11
38.04694552951389
 21
175.2590353732638
 72
     1
 10
38.04694552951389
 20
175.2590353732638
 11
39.05015733506942
 21
169.3358964843748
 72
     1
 10
39.05015733506942
 20
169.3358964843748
 11
40.43508572048611
 21
169.3358964843748
 72
     1
 10
40.43508572048611
 20
169.3358964843748
 11
36.952783203125
 21
189.0932159288193
 72
     1
 10
36.952783203125
 20
189.0932159288193
 11
35.47828233506943
 21
189.0932159288193
 97
        8
330
4F9
330
4F2
330
4F3
330
4F4
330
4F5
330
4F6
330
4F7
330
4F8
 92
       16
 93
        3
 72
     1
 10
37.67556423611111
 20
177.4497853732638
 11
34.65766059027778
 21
177.4497853732638
 72
     1
 10
34.65766059027778
 20
177.4497853732638
 11
36.19830729166666
 21
186.1658769531249
 72
     1
 10
36.19830729166666
 20
186.1658769531249
 11
37.67556423611111
 21
177.4497853732638
 97
        3
330
4F1
330
4EF
330
4F0
 75
     0
 76
     1
 98
        1
 10
0.0
 20
0.0
  0
HATCH
  5
4FF
330
4DE
100
AcDbEntity
  8
0
  6
Continuous
100
AcDbHatch
 10
0.0
 20
0.0
 30
0.0
210
0.0
220
0.0
230
1.0
  2
SOLID
 70
     1
 71
     1
 91
        1
 92
        1
 93
        1
 72
     4
 94
        3
 73
     0
 74
     0
 95
      113
 96
      109
 40
0.0
 40
0.0
 40
0.0
 40
0.0
 40
1.0
 40
1.0
 40
1.0
 40
2.0
 40
2.0
 40
2.0
 40
3.0
 40
3.0
 40
3.0
 40
4.0
 40
4.0
 40
4.0
 40
5.0
 40
5.0
 40
5.0
 40
6.0
 40
6.0
 40
6.0
 40
7.0
 40
7.0
 40
7.0
 40
8.0
 40
8.0
 40
8.0
 40
9.0
 40
9.0
 40
9.0
 40
10.0
 40
10.0
 40
10.0
 40
11.0
 40
11.0
 40
11.0
 40
12.0
 40
12.0
 40
12.0
 40
13.0
 40
13.0
 40
13.0
 40
14.0
 40
14.0
 40
14.0
 40
15.0
 40
15.0
 40
15.0
 40
16.0
 40
16.0
 40
16.0
 40
17.0
 40
17.0
 40
17.0
 40
18.0
 40
18.0
 40
18.0
 40
19.0
 40
19.0
 40
19.0
 40
20.0
 40
20.0
 40
20.0
 40
21.0
 40
21.0
 40
21.0
 40
22.0
 40
22.0
 40
22.0
 40
23.0
 40
23.0
 40
23.0
 40
24.0
 40
24.0
 40
24.0
 40
25.0
 40
25.0
 40
25.0
 40
26.0
 40
26.0
 40
26.0
 40
27.0
 40
27.0
 40
27.0
 40
28.0
 40
28.0
 40
28.0
 40
29.0
 40
29.0
 40
29.0
 40
30.0
 40
30.0
 40
30.0
 40
31.0
 40
31.0
 40
31.0
 40
32.0
 40
32.0
 40
32.0
 40
33.0
 40
33.0
 40
33.0
 40
34.0
 40
34.0
 40
34.0
 40
35.0
 40
35.0
 40
35.0
 40
36.0
 40
36.0
 40
36.0
 40
36.0
 10
193.3039632161458
 20
186.1548733181423
 10
193.3039632161458
 20
186.1860514322916
 10
193.3039632161458
 20
219.6932223849826
 10
193.3039632161458
 20
219.6932223849826
 10
193.3039632161458
 20
219.6932223849826
 10
193.2974175347219
 20
219.7488606770833
 10
193.2974175347219
 20
219.7488606770833
 10
191.5293945312499
 20
235.455740017361
 10
175.1458984374999
 20
235.2467949761284
 10
174.9808783637151
 20
235.2428331163193
 10
174.9808783637151
 20
235.2428331163193
 10
125.8827555338541
 20
235.2430053710937
 10
125.8827555338541
 20
235.2430053710937
 10
125.8827555338541
 20
235.2430053710937
 10
125.8827555338541
 20
255.5278998480901
 10
125.8827555338541
 20
255.5278998480901
 10
125.8827555338541
 20
255.5278998480901
 10
84.5626247829861
 20
255.5278998480901
 10
84.5626247829861
 20
255.5278998480901
 10
84.5626247829861
 20
255.5278998480901
 10
84.55711263020829
 20
233.7919311523436
 10
84.55711263020829
 20
233.7919311523436
 10
84.55711263020829
 20
233.7919311523436
 10
64.42052951388888
 20
233.7919311523436
 10
64.42052951388888
 20
233.7919311523436
 10
64.42052951388888
 20
233.7919311523436
 10
64.41501736111111
 20
255.5278998480901
 10
64.41501736111111
 20
255.5278998480901
 10
64.41501736111111
 20
255.5278998480901
 10
23.91757541232637
 20
255.5278998480901
 10
23.91757541232637
 20
255.5278998480901
 10
23.91757541232637
 20
255.5278998480901
 10
23.91757541232637
 20
233.2393378363715
 10
23.91757541232637
 20
233.2393378363715
 10
23.91757541232637
 20
233.2393378363715
 10
43.65624999999999
 20
233.2393378363715
 10
43.65624999999999
 20
233.2393378363715
 10
43.65624999999999
 20
233.2393378363715
 10
43.65624999999999
 20
211.5188720703125
 10
43.65624999999999
 20
211.5188720703125
 10
43.65624999999999
 20
211.5188720703125
 10
23.91757541232637
 20
211.5188720703125
 10
23.91757541232637
 20
211.5188720703125
 10
23.91757541232637
 20
211.5188720703125
 10
23.91757541232637
 20
189.2303100585936
 10
23.91757541232637
 20
189.2303100585936
 10
23.91757541232637
 20
189.2303100585936
 10
64.41501736111111
 20
189.2303100585936
 10
64.41501736111111
 20
189.2303100585936
 10
64.41501736111111
 20
189.2303100585936
 10
64.42052951388888
 20
211.069976128472
 10
64.42052951388888
 20
211.069976128472
 10
64.42052951388888
 20
211.069976128472
 10
84.55711263020829
 20
211.069976128472
 10
84.55711263020829
 20
211.069976128472
 10
84.55711263020829
 20
211.069976128472
 10
84.5626247829861
 20
189.2303100585936
 10
84.5626247829861
 20
189.2303100585936
 10
84.5626247829861
 20
189.2303100585936
 10
125.8827555338541
 20
189.2303100585936
 10
125.8827555338541
 20
189.2303100585936
 10
125.8827555338541
 20
189.2303100585936
 10
125.8827555338541
 20
211.5188720703125
 10
125.8827555338541
 20
211.5188720703125
 10
125.8827555338541
 20
211.5188720703125
 10
105.3213921440971
 20
211.5188720703125
 10
105.3213921440971
 20
211.5188720703125
 10
105.3213921440971
 20
211.5188720703125
 10
105.3213921440971
 20
233.2393378363715
 10
105.3213921440971
 20
233.2393378363715
 10
105.3213921440971
 20
233.2393378363715
 10
175.0046495225693
 20
233.243127441406
 10
175.0046495225693
 20
233.243127441406
 10
175.6268337673611
 20
233.2560465494791
 10
189.7165852864583
 20
233.3962619357638
 10
191.3037407769094
 20
219.5690266927083
 10
191.3037407769094
 20
219.4332899305555
 10
191.3037407769094
 20
186.1142211914062
 10
191.3037407769094
 20
186.1142211914062
 10
191.3037407769094
 20
186.1142211914062
 10
191.3051188151039
 20
186.0880384657115
 10
191.3051188151039
 20
186.0880384657115
 10
191.3054633246526
 20
186.0787367078991
 10
191.3109754774304
 20
185.9566080729166
 10
191.3109754774304
 20
185.7399115668401
 10
191.3109754774304
 20
184.2090833875865
 10
191.0488037109374
 20
177.9643310546874
 10
186.9866916232638
 20
173.5652886284722
 10
184.2540418836804
 20
170.6064683702255
 10
180.3224989149304
 20
169.0308539496526
 10
175.300927734375
 20
168.8825425889756
 10
175.300927734375
 20
168.8825425889756
 10
107.0094889322916
 20
168.8828870985243
 10
107.0094889322916
 20
168.8828870985243
 10
107.0094889322916
 20
168.8828870985243
 10
107.0094889322916
 20
166.8830091688368
 10
107.0094889322916
 20
166.8830091688368
 10
107.0094889322916
 20
166.8830091688368
 10
175.3305555555555
 20
166.8830091688368
 10
175.3305555555555
 20
166.8830091688368
 10
180.9467502170138
 20
167.0485460069444
 10
185.3571614583333
 20
168.8448187934026
 10
188.4687717013888
 20
172.2223904079861
 10
192.9649658203124
 20
177.1034016927083
 10
193.3136094835069
 20
183.7202243381076
 10
193.3136094835069
 20
185.6520616319443
 10
193.3136094835069
 20
185.9247409396701
 10
193.3070638020833
 20
186.0868326822916
 10
193.3039632161458
 20
186.1548733181423
 97
        1
330
4DF
 75
     0
 76
     1
 98
        1
 10
0.0
 20
0.0
  0
HATCH
  5
500
330
4DE
100
AcDbEntity
  8
0
  6
Continuous
100
AcDbHatch
 10
0.0
 20
0.0
 30
0.0
210
0.0
220
0.0
230
1.0
  2
SOLID
 70
     1
 71
     1
 91
        2
 92
        1
 93
        1
 72
     4
 94
        3
 73
     0
 74
     0
 95
       23
 96
       19
 40
0.0
 40
0.0
 40
0.0
 40
0.0
 40
1.0
 40
1.0
 40
1.0
 40
2.0
 40
2.0
 40
2.0
 40
3.0
 40
3.0
 40
3.0
 40
4.0
 40
4.0
 40
4.0
 40
5.0
 40
5.0
 40
5.0
 40
6.0
 40
6.0
 40
6.0
 40
6.0
 10
148.6593153211804
 20
211.3929538302948
 10
148.6593153211804
 20
211.3929538302948
 10
148.6593153211804
 20
189.6308024088539
 10
148.6593153211804
 20
189.6308024088539
 10
148.6593153211804
 20
189.6308024088539
 10
161.3152180989583
 20
189.6308024088539
 10
161.3152180989583
 20
189.6308024088539
 10
162.8431179470483
 20
189.6308024088539
 10
170.4657362196178
 20
190.1880466037321
 10
170.4657362196178
 20
201.1911648220483
 10
170.4657362196178
 20
211.1288872612844
 10
162.3356553819444
 20
211.3914035373261
 10
162.2536621093749
 20
211.3927815755205
 10
162.2536621093749
 20
211.3927815755205
 10
149.6594265407986
 20
211.3929538302948
 10
149.6594265407986
 20
211.3929538302948
 10
149.6594265407986
 20
211.3929538302948
 10
148.6593153211804
 20
211.3929538302948
 10
148.6593153211804
 20
211.3929538302948
 97
        1
330
4E0
 92
       16
 93
        1
 72
     4
 94
        3
 73
     0
 74
     0
 95
       20
 96
       16
 40
0.0
 40
0.0
 40
0.0
 40
0.0
 40
1.0
 40
1.0
 40
1.0
 40
2.0
 40
2.0
 40
2.0
 40
3.0
 40
3.0
 40
3.0
 40
4.0
 40
4.0
 40
4.0
 40
5.0
 40
5.0
 40
5.0
 40
5.0
 10
162.2354031032983
 20
209.3930759006072
 10
162.467947048611
 20
209.3861857096351
 10
168.4655137803819
 20
209.1283203124997
 10
168.4655137803819
 20
201.1911648220483
 10
168.4655137803819
 20
192.3202162000865
 10
162.9926350911458
 20
191.6306803385413
 10
161.3152180989583
 20
191.6306803385413
 10
161.3152180989583
 20
191.6306803385413
 10
152.3310980902776
 20
191.6306803385413
 10
150.6595377604166
 20
191.6306803385413
 10
150.6595377604166
 20
193.3373806423608
 10
150.6595377604166
 20
207.6863755967879
 10
150.6595377604166
 20
209.3930759006072
 10
152.3538357204859
 20
209.3930759006072
 10
162.2354031032983
 20
209.3930759006072
 10
162.2354031032983
 20
209.3930759006072
 97
        0
 75
     0
 76
     1
 98
        0
  0
ENDBLK
  5
502
330
4DE
100
AcDbEntity
  8
0
100
AcDbBlockEnd
  0
BLOCK
  5
505
330
503
100
AcDbEntity
  8
0
100
AcDbBlockBegin
  2
HD logo-new
 70
     0
 10
0.0
 20
0.0
 30
0.0
  3
HD logo-new
  1

  0
INSERT
  5
504
330
503
100
AcDbEntity
  8
0
 62
     3
100
AcDbBlockReference
  2
HD_LLC_logo_OT5
 10
-27.1607188578505
 20
-68.37367811463031
 30
0.0
 41
0.2999999999999971
 42
0.3000000000000007
 43
0.3
  0
ENDBLK
  5
506
330
503
100
AcDbEntity
  8
0
100
AcDbBlockEnd
  0
BLOCK
  5
511
330
50E
100
AcDbEntity
  8
0
100
AcDbBlockBegin
  2
NTC
 70
     0
 10
0.0
 20
0.0
 30
0.0
  3
NTC
  1

  0
LWPOLYLINE
  5
50F
330
50E
100
AcDbEntity
  8
0
100
AcDbPolyline
 90
        8
 70
     1
 43
0.0
 10
4.581008201925953
 20
-10.78862239032818
 10
319.3921777697513
 20
-10.78862239032818
 42
-0.4142135623730951
 10
324.9046777697513
 20
-16.30112239032816
 10
324.9046777697513
 20
-117.4075202476924
 42
-0.4142135623730951
 10
319.3921777697513
 20
-122.9200202476925
 10
4.581008201925837
 20
-122.9200202476925
 42
-0.4142135623730951
 10
-0.9314917980741483
 20
-117.4075202476924
 10
-0.9314917980740915
 20
-16.30112239032816
 42
-0.4142135623730951
  0
MTEXT
  5
510
330
50E
100
AcDbEntity
  8
0
  6
Continuous
370
    30
100
AcDbMText
 10
21.65307678143926
 20
-17.4535155144544
 30
0.0
 40
8.75
 41
294.5432999999998
 71
     1
 72
     5
  3
{\fTxt|b1|i0|c0|p2;Notice:\P\Ftxt.shx;\H0.5714x;All specifications and dimensions shown in the drawing are subject to change without notice. This drawing is the property of Harmonic Drive LLC.   This data is believed to be accurate, however, Harmonic
  1
 Drive LLC assumes no liability for any errors or omissions in the specifications, models, or drawings.\P\PHarmonic Drive LLC\PTel: 800-921-3332\Pwww.harmonicdrive.net}
 73
     1
 44
1.0
  0
ENDBLK
  5
512
330
50E
100
AcDbEntity
  8
0
100
AcDbBlockEnd
  0
ENDSEC
  0
SECTION
  2
ENTITIES
  0
LINE
  5
33
330
1E
100
AcDbEntity
  8
1
  6
CENTER
 62
     3
100
AcDbLine
 10
-51.30000000000006
 20
19.49999999999993
 30
0.0
 11
-51.30000000000006
 21
-19.50000000000006
 31
0.0
  0
LINE
  5
34
330
1E
100
AcDbEntity
  8
1
 62
     7
100
AcDbLine
 10
-47.80000000000007
 20
-0.0000000000000568
 30
0.0
 11
-47.80000000000007
 21
-1.936491673103944
 31
0.0
  0
LINE
  5
35
330
1E
100
AcDbEntity
  8
1
 62
     7
100
AcDbLine
 10
-1.800000000000011
 20
-10.19999999999993
 30
0.0
 11
-1.800000000000123
 21
10.20000000000005
 31
0.0
  0
LINE
  5
36
330
1E
100
AcDbEntity
  8
1
 62
     3
100
AcDbLine
 10
-21.30000000000005
 20
1.936491673103546
 30
0.0
 11
-3.800000000000038
 21
-1.936491673103715
 31
0.0
  0
LINE
  5
37
330
1E
100
AcDbEntity
  8
1
 62
     3
100
AcDbLine
 10
-3.800000000000068
 20
1.936491673103546
 30
0.0
 11
-21.30000000000003
 21
-1.936491673103715
 31
0.0
  0
LINE
  5
38
330
1E
100
AcDbEntity
  8
1
 62
     7
100
AcDbLine
 10
-3.800000000000038
 20
-1.936491673103715
 30
0.0
 11
-21.30000000000003
 21
-1.936491673103715
 31
0.0
  0
LINE
  5
39
330
1E
100
AcDbEntity
  8
1
 62
     7
100
AcDbLine
 10
-3.800000000000068
 20
1.936491673103546
 30
0.0
 11
-3.800000000000038
 21
-1.936491673103715
 31
0.0
  0
LINE
  5
3A
330
1E
100
AcDbEntity
  8
1
 62
     7
100
AcDbLine
 10
-1.800000000000068
 20
4.000000000000055
 30
0.0
 11
-21.30000000000006
 21
4.000000000000055
 31
0.0
  0
LINE
  5
3B
330
1E
100
AcDbEntity
  8
1
 62
     7
100
AcDbLine
 10
-0.2000000000000028
 20
10.50000000000006
 30
0.0
 11
-1.500000000000128
 21
10.50000000000006
 31
0.0
  0
LINE
  5
3C
330
1E
100
AcDbEntity
  8
1
 62
     7
100
AcDbLine
 10
0.0
 20
16.20000000000003
 30
0.0
 11
0.0
 21
-16.19999999999993
 31
0.0
  0
LINE
  5
3D
330
1E
100
AcDbEntity
  8
1
 62
     7
100
AcDbLine
 10
-1.500000000000014
 20
-10.49999999999994
 30
0.0
 11
-0.2000000000000028
 21
-10.49999999999994
 31
0.0
  0
LINE
  5
3E
330
1E
100
AcDbEntity
  8
1
 62
     7
100
AcDbLine
 10
33.99999999999999
 20
7.500000000000056
 30
0.0
 11
33.99999999999999
 21
16.50000000000006
 31
0.0
  0
LINE
  5
3F
330
1E
100
AcDbEntity
  8
1
 62
     7
100
AcDbLine
 10
6.0
 20
6.500000000000056
 30
0.0
 11
32.99999999999999
 21
6.500000000000056
 31
0.0
  0
LINE
  5
40
330
1E
100
AcDbEntity
  8
1
 62
     7
100
AcDbLine
 10
5.0
 20
7.500000000000056
 30
0.0
 11
5.0
 21
16.50000000000006
 31
0.0
  0
LINE
  5
41
330
1E
100
AcDbEntity
  8
1
  6
CENTER
 62
     3
100
AcDbLine
 10
33.89999999999999
 20
10.25304832720467
 30
0.0
 11
41.89999999999999
 21
10.25304832720467
 31
0.0
  0
LINE
  5
42
330
1E
100
AcDbEntity
  8
1
  6
CENTER
 62
     3
100
AcDbLine
 10
37.89999999999999
 20
13.08304832720489
 30
0.0
 11
37.89999999999999
 21
7.423048327204754
 31
0.0
  0
LINE
  5
43
330
1E
100
AcDbEntity
  8
1
  6
CENTER
 62
     3
100
AcDbLine
 10
37.89999999999999
 20
-7.423048327205152
 30
0.0
 11
37.89999999999999
 21
-13.08304832720494
 31
0.0
  0
LINE
  5
44
330
1E
100
AcDbEntity
  8
1
  6
CENTER
 62
     3
100
AcDbLine
 10
41.89999999999999
 20
-10.253048327205
 30
0.0
 11
33.89999999999999
 21
-10.253048327205
 31
0.0
  0
LINE
  5
45
330
1E
100
AcDbEntity
  8
1
  6
CENTER
 62
     3
100
AcDbLine
 10
161.1999999999998
 20
0.0000000000000568
 30
0.0
 11
-70.80000000000007
 21
-0.0000000000000661
 31
0.0
  0
LINE
  5
46
330
1E
100
AcDbEntity
  8
1
  6
CENTER
 62
     3
100
AcDbLine
 10
-38.09311259228739
 20
-7.625000000000056
 30
0.0
 11
-41.99022690931736
 21
-5.374999999999943
 31
0.0
  0
LINE
  5
47
330
1E
100
AcDbEntity
  8
1
  6
CENTER
 62
     3
100
AcDbLine
 10
-64.50688740771275
 20
-7.625000000000056
 30
0.0
 11
-60.60977309068278
 21
-5.375000000000056
 31
0.0
  0
LINE
  5
48
330
1E
100
AcDbEntity
  8
1
 62
     7
100
AcDbLine
 10
-47.80000000000007
 20
1.93649167310366
 30
0.0
 11
-47.80000000000007
 21
-0.0000000000000568
 31
0.0
  0
LINE
  5
49
330
1E
100
AcDbEntity
  8
1
 62
     7
100
AcDbLine
 10
61.69999999999998
 20
16.50000000000006
 30
0.0
 11
0.2999999999999972
 21
16.50000000000006
 31
0.0
  0
LINE
  5
4A
330
1E
100
AcDbEntity
  8
1
 62
     7
100
AcDbLine
 10
0.2999999999999972
 20
-16.49999999999994
 30
0.0
 11
81.19999999999997
 21
-16.49999999999955
 31
0.0
  0
LINE
  5
4B
330
1E
100
AcDbEntity
  8
1
 62
     7
100
AcDbLine
 10
41.19999999999996
 20
16.49999999999994
 30
0.0
 11
41.19999999999996
 21
-16.50000000000006
 31
0.0
  0
LINE
  5
4C
330
1E
100
AcDbEntity
  8
1
 62
     7
100
AcDbLine
 10
44.69999999999997
 20
16.49999999999994
 30
0.0
 11
44.69999999999997
 21
-16.50000000000046
 31
0.0
  0
LINE
  5
4D
330
1E
100
AcDbEntity
  8
1
  6
CENTER
 62
     3
100
AcDbLine
 10
68.69999999999977
 20
-12.73916531305855
 30
0.0
 11
68.69999999999977
 21
-20.83679201860382
 31
0.0
  0
LINE
  5
4E
330
1E
100
AcDbEntity
  8
1
 62
     7
100
AcDbLine
 10
81.19999999999997
 20
-16.49999999999955
 30
0.0
 11
81.19999999999997
 21
16.50000000000006
 31
0.0
  0
LINE
  5
4F
330
1E
100
AcDbEntity
  8
1
 62
     7
100
AcDbLine
 10
61.19999999999997
 20
16.50000000000006
 30
0.0
 11
61.1999999999999
 21
-16.49962295692092
 31
0.0
  0
LINE
  5
50
330
1E
100
AcDbEntity
  8
1
 62
     7
100
AcDbLine
 10
81.19999999999997
 20
16.50000000000006
 30
0.0
 11
79.19999999999989
 21
16.50000000000006
 31
0.0
  0
LINE
  5
51
330
1E
100
AcDbEntity
  8
1
 62
     7
100
AcDbLine
 10
75.69999999999997
 20
-16.99999999999993
 30
0.0
 11
75.69999999999997
 21
-15.24155279748385
 31
0.0
  0
LINE
  5
52
330
1E
100
AcDbEntity
  8
1
 62
     7
100
AcDbLine
 10
62.69999999999997
 20
-17.99999999999994
 30
0.0
 11
74.69999999999997
 21
-17.99999999999994
 31
0.0
  0
LINE
  5
53
330
1E
100
AcDbEntity
  8
1
 62
     7
100
AcDbLine
 10
61.69999999999998
 20
-15.24155279748385
 30
0.0
 11
61.69999999999998
 21
-16.99999999999993
 31
0.0
  0
LINE
  5
54
330
1E
100
AcDbEntity
  8
1
  6
CENTER
 62
     3
100
AcDbLine
 10
63.19735921445021
 20
20.25062295692037
 30
0.0
 11
51.67822509088217
 21
20.25062295692037
 31
0.0
  0
LINE
  5
55
330
1E
100
AcDbEntity
  8
1
 62
     7
100
AcDbLine
 10
56.93838158445117
 20
19.50062295692037
 30
0.0
 11
55.32319606855818
 21
19.50062295692037
 31
0.0
  0
LINE
  5
56
330
1E
100
AcDbEntity
  8
1
 62
     7
100
AcDbLine
 10
56.93838158445117
 20
21.00062295692036
 30
0.0
 11
55.32319606855818
 21
21.00062295692036
 31
0.0
  0
LINE
  5
57
330
1E
100
AcDbEntity
  8
1
 62
     7
100
AcDbLine
 10
61.69999999999998
 20
9.115525836251553
 30
0.0
 11
61.69999999999998
 21
22.00062295692038
 31
0.0
  0
LINE
  5
58
330
1E
100
AcDbEntity
  8
1
 62
     7
100
AcDbLine
 10
58.69999999999997
 20
21.00062295692036
 30
0.0
 11
61.69999999999998
 21
21.00062295692036
 31
0.0
  0
LINE
  5
59
330
1E
100
AcDbEntity
  8
1
 62
     7
100
AcDbLine
 10
58.69999999999997
 20
19.50062295692037
 30
0.0
 11
61.69999999999998
 21
19.50062295692037
 31
0.0
  0
LINE
  5
5A
330
1E
100
AcDbEntity
  8
1
 62
     7
100
AcDbLine
 10
62.19999999999997
 20
22.50062295692038
 30
0.0
 11
78.69999999999989
 21
22.50062295692038
 31
0.0
  0
LINE
  5
5B
330
1E
100
AcDbEntity
  8
1
 62
     7
100
AcDbLine
 10
79.19999999999989
 20
22.00062295692038
 30
0.0
 11
79.19999999999989
 21
15.67042614893859
 31
0.0
  0
LINE
  5
5C
330
1E
100
AcDbEntity
  8
1
 62
     7
100
AcDbLine
 10
51.82319606855816
 20
23.00062295692038
 30
0.0
 11
51.82319606855816
 21
33.01293098808013
 31
0.0
  0
LINE
  5
5D
330
1E
100
AcDbEntity
  8
1
 62
     7
100
AcDbLine
 10
53.32319606855818
 20
33.01293098807996
 30
0.0
 11
53.32319606855818
 21
23.00062295692038
 31
0.0
  0
LINE
  5
5E
330
1E
100
AcDbEntity
  8
1
 62
     7
100
AcDbLine
 10
72.19999999999997
 20
19.73832970144366
 30
0.0
 11
65.19999999999997
 21
19.73832970144366
 31
0.0
  0
LINE
  5
5F
330
1E
100
AcDbEntity
  8
1
 62
     7
100
AcDbLine
 10
65.19999999999997
 20
9.192388155425248
 30
0.0
 11
72.19999999999997
 21
9.192388155425248
 31
0.0
  0
LINE
  5
60
330
1E
100
AcDbEntity
  8
1
 62
     7
100
AcDbLine
 10
75.69999999999997
 20
9.115525836251553
 30
0.0
 11
75.69999999999997
 21
16.23832970144366
 31
0.0
  0
LINE
  5
61
330
1E
100
AcDbEntity
  8
1
 62
     7
100
AcDbLine
 10
65.19999999999997
 20
5.615525836251548
 30
0.0
 11
72.19999999999997
 21
5.615525836251548
 31
0.0
  0
LINE
  5
62
330
1E
100
AcDbEntity
  8
1
 62
     7
100
AcDbLine
 10
71.69999999999976
 20
19.20279579551089
 30
0.0
 11
65.69999999999978
 21
19.20279579551089
 31
0.0
  0
LINE
  5
63
330
1E
100
AcDbEntity
  8
1
 62
     7
100
AcDbLine
 10
62.69999999999978
 20
16.2027957955109
 30
0.0
 11
62.69999999999978
 21
14.2027957955109
 31
0.0
  0
LINE
  5
64
330
1E
100
AcDbEntity
  8
1
 62
     7
100
AcDbLine
 10
65.69999999999978
 20
11.2027957955109
 30
0.0
 11
71.69999999999976
 21
11.2027957955109
 31
0.0
  0
LINE
  5
65
330
1E
100
AcDbEntity
  8
1
 62
     7
100
AcDbLine
 10
74.69999999999976
 20
14.2027957955109
 30
0.0
 11
74.69999999999976
 21
16.2027957955109
 31
0.0
  0
LINE
  5
66
330
1E
100
AcDbEntity
  8
1
  6
CENTER
 62
     3
100
AcDbLine
 10
68.69999999999977
 20
24.00000000000005
 30
0.0
 11
68.69999999999977
 21
4.267159113626688
 31
0.0
  0
LINE
  5
67
330
1E
100
AcDbEntity
  8
1
  6
CENTER
 62
     3
100
AcDbLine
 10
76.93591881307691
 20
15.2027957955109
 30
0.0
 11
60.46408118692268
 21
15.2027957955109
 31
0.0
  0
LINE
  5
68
330
1E
100
AcDbEntity
  8
1
 62
     7
100
AcDbLine
 10
79.8912038853326
 20
15.37042614893868
 30
0.0
 11
75.69999999999997
 21
15.37042614893868
 31
0.0
  0
LINE
  5
69
330
1E
100
AcDbEntity
  8
1
 62
     7
100
AcDbLine
 10
79.19999999999989
 20
16.50062295692146
 30
0.0
 11
75.68994297188087
 21
16.50062295692146
 31
0.0
  0
LINE
  5
6A
330
1E
100
AcDbEntity
  8
1
 62
     7
100
AcDbLine
 10
76.09163638952158
 20
-14.94155279748395
 30
0.0
 11
61.30284344177959
 21
-14.94155279748395
 31
0.0
  0
LINE
  5
6B
330
1E
100
AcDbEntity
  8
1
 62
     7
100
AcDbLine
 10
51.82319606855816
 20
33.01293098808013
 30
0.0
 11
53.32319606855818
 21
33.01293098807996
 31
0.0
  0
LINE
  5
6C
330
1E
100
AcDbEntity
  8
1
 62
     7
100
AcDbLine
 10
53.1689707003723
 20
35.63107490771506
 30
0.0
 11
53.1689707003723
 21
33.01293098807996
 31
0.0
  0
LINE
  5
6D
330
1E
100
AcDbEntity
  8
1
 62
     7
100
AcDbLine
 10
52.76897070037229
 20
35.63107490771506
 30
0.0
 11
52.76897070037229
 21
33.01293098807996
 31
0.0
  0
LINE
  5
6E
330
1E
100
AcDbEntity
  8
1
 62
     7
100
AcDbLine
 10
52.3689707003722
 20
35.63107490771506
 30
0.0
 11
52.3689707003722
 21
33.01293098807996
 31
0.0
  0
LINE
  5
6F
330
1E
100
AcDbEntity
  8
1
 62
     7
100
AcDbLine
 10
51.96897070037229
 20
35.63107490771506
 30
0.0
 11
51.96897070037229
 21
33.01293098808013
 31
0.0
  0
LINE
  5
70
330
1E
100
AcDbEntity
  8
1
 62
     7
100
AcDbLine
 10
52.1689707003723
 20
35.63107490771506
 30
0.0
 11
52.1689707003723
 21
33.01293098807996
 31
0.0
  0
LINE
  5
71
330
1E
100
AcDbEntity
  8
1
 62
     7
100
AcDbLine
 10
52.96897070037228
 20
35.63107490771506
 30
0.0
 11
52.96897070037228
 21
33.01293098808013
 31
0.0
  0
LINE
  5
72
330
1E
100
AcDbEntity
  8
1
 62
     7
100
AcDbLine
 10
52.56897070037228
 20
35.63107490771506
 30
0.0
 11
52.56897070037228
 21
33.01293098807996
 31
0.0
  0
LINE
  5
73
330
1E
100
AcDbEntity
  8
1
 62
     7
100
AcDbLine
 10
-21.80000000000007
 20
3.500000000000055
 30
0.0
 11
-21.30000000000006
 21
4.000000000000055
 31
0.0
  0
LINE
  5
74
330
1E
100
AcDbEntity
  8
1
 62
     7
100
AcDbLine
 10
-21.80000000000007
 20
3.500000000000055
 30
0.0
 11
-21.80000000000001
 21
-3.499999999999943
 31
0.0
  0
LINE
  5
75
330
1E
100
AcDbEntity
  8
1
 62
     7
100
AcDbLine
 10
-21.30000000000006
 20
4.000000000000055
 30
0.0
 11
-21.30000000000005
 21
1.936491673103546
 31
0.0
  0
LINE
  5
76
330
1E
100
AcDbEntity
  8
1
 62
     7
100
AcDbLine
 10
-21.30000000000005
 20
1.936491673103546
 30
0.0
 11
-3.800000000000068
 21
1.936491673103546
 31
0.0
  0
LINE
  5
77
330
1E
100
AcDbEntity
  8
1
 62
     7
100
AcDbLine
 10
-21.30000000000003
 20
-1.936491673103715
 30
0.0
 11
-21.30000000000001
 21
-3.999999999999943
 31
0.0
  0
LINE
  5
78
330
1E
100
AcDbEntity
  8
1
 62
     7
100
AcDbLine
 10
-21.80000000000001
 20
-3.499999999999943
 30
0.0
 11
-21.30000000000001
 21
-3.999999999999943
 31
0.0
  0
LINE
  5
79
330
1E
100
AcDbEntity
  8
1
 62
     7
100
AcDbLine
 10
-21.30000000000001
 20
-3.999999999999943
 30
0.0
 11
-1.800000000000039
 21
-3.999999999999943
 31
0.0
  0
LINE
  5
7A
330
1E
100
AcDbEntity
  8
1
 62
     7
100
AcDbLine
 10
-1.500000000000128
 20
10.50000000000006
 30
0.0
 11
-1.800000000000123
 21
10.20000000000005
 31
0.0
  0
LINE
  5
7B
330
1E
100
AcDbEntity
  8
1
 62
     7
100
AcDbLine
 10
-1.500000000000014
 20
-10.49999999999994
 30
0.0
 11
-1.800000000000011
 21
-10.19999999999993
 31
0.0
  0
LINE
  5
7C
330
1E
100
AcDbEntity
  8
1
 62
     3
100
AcDbLine
 10
-1.500000000000014
 20
-10.49999999999994
 30
0.0
 11
-1.500000000000128
 21
10.50000000000006
 31
0.0
  0
LINE
  5
7D
330
1E
100
AcDbEntity
  8
1
 62
     7
100
AcDbLine
 10
0.2999999999999972
 20
-16.49999999999994
 30
0.0
 11
0.0
 21
-16.19999999999993
 31
0.0
  0
LINE
  5
7E
330
1E
100
AcDbEntity
  8
1
 62
     7
100
AcDbLine
 10
0.2999999999999972
 20
16.50000000000006
 30
0.0
 11
0.0
 21
16.20000000000003
 31
0.0
  0
LINE
  5
7F
330
1E
100
AcDbEntity
  8
1
 62
     3
100
AcDbLine
 10
0.2999999999999972
 20
-16.49999999999994
 30
0.0
 11
0.2999999999999972
 21
16.50000000000006
 31
0.0
  0
LINE
  5
84
330
1E
100
AcDbEntity
  8
1
 62
     7
100
AcDbLine
 10
38.71043467154478
 20
10.79882293678639
 30
0.0
 11
38.39726982999999
 21
10.53690349442746
 31
0.0
  0
LINE
  5
85
330
1E
100
AcDbEntity
  8
1
 62
     7
100
AcDbLine
 10
38.64399999999999
 20
10.85438642864739
 30
0.0
 11
38.71043467154478
 21
10.79882293678639
 31
0.0
  0
LINE
  5
86
330
1E
100
AcDbEntity
  8
1
 62
     7
100
AcDbLine
 10
37.08956532845518
 20
10.79882293678639
 30
0.0
 11
36.96999999999999
 21
10.89882293678664
 31
0.0
  0
LINE
  5
87
330
1E
100
AcDbEntity
  8
1
 62
     7
100
AcDbLine
 10
37.15599999999999
 20
10.85438642864739
 30
0.0
 11
37.08956532845518
 21
10.79882293678639
 31
0.0
  0
LINE
  5
88
330
1E
100
AcDbEntity
  8
1
 62
     7
100
AcDbLine
 10
37.15599999999999
 20
11.05438642864766
 30
0.0
 11
37.15599999999999
 21
10.85438642864739
 31
0.0
  0
LINE
  5
89
330
1E
100
AcDbEntity
  8
1
 62
     7
100
AcDbLine
 10
38.64399999999999
 20
11.05438642864766
 30
0.0
 11
38.64399999999999
 21
10.85438642864739
 31
0.0
  0
LINE
  5
8A
330
1E
100
AcDbEntity
  8
1
 62
     7
100
AcDbLine
 10
37.15599999999999
 20
9.498751510037266
 30
0.0
 11
37.63696045245369
 21
9.90100896934234
 31
0.0
  0
LINE
  5
8B
330
1E
100
AcDbEntity
  8
1
 62
     7
100
AcDbLine
 10
38.64399999999999
 20
9.498751510037266
 30
0.0
 11
38.16303954754629
 21
9.90100896934234
 31
0.0
  0
LINE
  5
8C
330
1E
100
AcDbEntity
  8
1
 62
     7
100
AcDbLine
 10
38.16303954754629
 20
10.65212896934224
 30
0.0
 11
38.64399999999999
 21
11.05438642864766
 31
0.0
  0
LINE
  5
8D
330
1E
100
AcDbEntity
  8
1
 62
     7
100
AcDbLine
 10
37.63696045245369
 20
10.65212896934224
 30
0.0
 11
37.15599999999999
 21
11.05438642864766
 31
0.0
  0
LINE
  5
8E
330
1E
100
AcDbEntity
  8
1
 62
     7
100
AcDbLine
 10
37.40273016999998
 20
10.01623444425746
 30
0.0
 11
36.96999999999999
 21
9.654315001898169
 31
0.0
  0
LINE
  5
8F
330
1E
100
AcDbEntity
  8
1
 62
     7
100
AcDbLine
 10
37.40273016999998
 20
10.53690349442746
 30
0.0
 11
37.08956532845518
 21
10.79882293678639
 31
0.0
  0
LINE
  5
90
330
1E
100
AcDbEntity
  8
1
 62
     7
100
AcDbLine
 10
38.39726982999999
 20
10.01623444425746
 30
0.0
 11
38.28599999999997
 21
10.10929639744865
 31
0.0
  0
LINE
  5
91
330
1E
100
AcDbEntity
  8
1
 62
     7
100
AcDbLine
 10
38.39726982999999
 20
10.53690349442746
 30
0.0
 11
38.28599999999997
 21
10.44384154123605
 31
0.0
  0
LINE
  5
92
330
1E
100
AcDbEntity
  8
1
 62
     7
100
AcDbLine
 10
38.82999999999997
 20
10.89882293678664
 30
0.0
 11
38.64399999999999
 21
11.05438642864766
 31
0.0
  0
LINE
  5
93
330
1E
100
AcDbEntity
  8
1
 62
     7
100
AcDbLine
 10
38.64399999999999
 20
9.498751510037266
 30
0.0
 11
38.82999999999997
 21
9.654315001898169
 31
0.0
  0
LINE
  5
94
330
1E
100
AcDbEntity
  8
1
 62
     7
100
AcDbLine
 10
36.96999999999999
 20
9.654315001898169
 30
0.0
 11
37.15599999999999
 21
9.498751510037266
 31
0.0
  0
LINE
  5
95
330
1E
100
AcDbEntity
  8
1
 62
     7
100
AcDbLine
 10
37.15599999999999
 20
11.05438642864766
 30
0.0
 11
36.96999999999999
 21
10.89882293678664
 31
0.0
  0
LINE
  5
96
330
1E
100
AcDbEntity
  8
1
 62
     7
100
AcDbLine
 10
38.82999999999997
 20
10.89882293678664
 30
0.0
 11
38.71043467154478
 21
10.79882293678639
 31
0.0
  0
LINE
  5
97
330
1E
100
AcDbEntity
  8
1
 62
     7
100
AcDbLine
 10
38.82999999999997
 20
9.654315001898169
 30
0.0
 11
38.39726982999999
 21
10.01623444425746
 31
0.0
  0
LINE
  5
98
330
1E
100
AcDbEntity
  8
1
 62
     7
100
AcDbLine
 10
38.39726982999999
 20
-10.0162344442578
 30
0.0
 11
38.82999999999997
 21
-9.654315001898735
 31
0.0
  0
LINE
  5
99
330
1E
100
AcDbEntity
  8
1
 62
     7
100
AcDbLine
 10
38.71043467154478
 20
-10.79882293678674
 30
0.0
 11
38.82999999999997
 21
-10.89882293678704
 31
0.0
  0
LINE
  5
9A
330
1E
100
AcDbEntity
  8
1
 62
     7
100
AcDbLine
 10
36.96999999999999
 20
-10.89882293678704
 30
0.0
 11
37.15599999999999
 21
-11.05438642864805
 31
0.0
  0
LINE
  5
9B
330
1E
100
AcDbEntity
  8
1
 62
     7
100
AcDbLine
 10
37.15599999999999
 20
-9.498751510037607
 30
0.0
 11
36.96999999999999
 21
-9.654315001898735
 31
0.0
  0
LINE
  5
9C
330
1E
100
AcDbEntity
  8
1
 62
     7
100
AcDbLine
 10
38.82999999999997
 20
-9.654315001898735
 30
0.0
 11
38.64399999999999
 21
-9.498751510037607
 31
0.0
  0
LINE
  5
9D
330
1E
100
AcDbEntity
  8
1
 62
     7
100
AcDbLine
 10
38.64399999999999
 20
-11.05438642864805
 30
0.0
 11
38.82999999999997
 21
-10.89882293678704
 31
0.0
  0
LINE
  5
9E
330
1E
100
AcDbEntity
  8
1
 62
     7
100
AcDbLine
 10
38.28599999999997
 20
-10.44384154123634
 30
0.0
 11
38.39726982999999
 21
-10.5369034944278
 31
0.0
  0
LINE
  5
9F
330
1E
100
AcDbEntity
  8
1
 62
     7
100
AcDbLine
 10
38.28599999999997
 20
-10.10929639744903
 30
0.0
 11
38.39726982999999
 21
-10.0162344442578
 31
0.0
  0
LINE
  5
A0
330
1E
100
AcDbEntity
  8
1
 62
     7
100
AcDbLine
 10
37.08956532845518
 20
-10.79882293678674
 30
0.0
 11
37.40273016999998
 21
-10.5369034944278
 31
0.0
  0
LINE
  5
A1
330
1E
100
AcDbEntity
  8
1
 62
     7
100
AcDbLine
 10
36.96999999999999
 20
-9.654315001898735
 30
0.0
 11
37.40273016999998
 21
-10.0162344442578
 31
0.0
  0
LINE
  5
A2
330
1E
100
AcDbEntity
  8
1
 62
     7
100
AcDbLine
 10
37.15599999999999
 20
-11.05438642864805
 30
0.0
 11
37.63696045245369
 21
-10.65212896934276
 31
0.0
  0
LINE
  5
A3
330
1E
100
AcDbEntity
  8
1
 62
     7
100
AcDbLine
 10
38.64399999999999
 20
-11.05438642864805
 30
0.0
 11
38.16303954754629
 21
-10.65212896934276
 31
0.0
  0
LINE
  5
A4
330
1E
100
AcDbEntity
  8
1
 62
     7
100
AcDbLine
 10
38.16303954754629
 20
-9.901008969342626
 30
0.0
 11
38.64399999999999
 21
-9.498751510037607
 31
0.0
  0
LINE
  5
A5
330
1E
100
AcDbEntity
  8
1
 62
     7
100
AcDbLine
 10
37.63696045245369
 20
-9.901008969342626
 30
0.0
 11
37.15599999999999
 21
-9.498751510037607
 31
0.0
  0
LINE
  5
A6
330
1E
100
AcDbEntity
  8
1
 62
     7
100
AcDbLine
 10
38.64399999999999
 20
-10.85438642864773
 30
0.0
 11
38.64399999999999
 21
-11.05438642864805
 31
0.0
  0
LINE
  5
A7
330
1E
100
AcDbEntity
  8
1
 62
     7
100
AcDbLine
 10
37.15599999999999
 20
-10.85438642864773
 30
0.0
 11
37.15599999999999
 21
-11.05438642864805
 31
0.0
  0
LINE
  5
A8
330
1E
100
AcDbEntity
  8
1
 62
     7
100
AcDbLine
 10
37.08956532845518
 20
-10.79882293678674
 30
0.0
 11
37.15599999999999
 21
-10.85438642864773
 31
0.0
  0
LINE
  5
A9
330
1E
100
AcDbEntity
  8
1
 62
     7
100
AcDbLine
 10
36.96999999999999
 20
-10.89882293678704
 30
0.0
 11
37.08956532845518
 21
-10.79882293678674
 31
0.0
  0
LINE
  5
AA
330
1E
100
AcDbEntity
  8
1
 62
     7
100
AcDbLine
 10
38.71043467154478
 20
-10.79882293678674
 30
0.0
 11
38.64399999999999
 21
-10.85438642864773
 31
0.0
  0
LINE
  5
AB
330
1E
100
AcDbEntity
  8
1
 62
     7
100
AcDbLine
 10
38.39726982999999
 20
-10.5369034944278
 30
0.0
 11
38.71043467154478
 21
-10.79882293678674
 31
0.0
  0
LINE
  5
AC
330
1E
100
AcDbEntity
  8
1
 62
     7
100
AcDbLine
 10
81.19999999999997
 20
-16.49999999999955
 30
0.0
 11
110.8999999999999
 21
-16.50000000000006
 31
0.0
  0
LINE
  5
AD
330
1E
100
AcDbEntity
  8
1
 62
     7
100
AcDbLine
 10
81.19999999999997
 20
16.50000000000006
 30
0.0
 11
96.6999999999998
 21
16.49999999999994
 31
0.0
  0
LINE
  5
AE
330
1E
100
AcDbEntity
  8
1
 62
     7
100
AcDbLine
 10
130.7398448916065
 20
19.44543648263016
 30
0.0
 11
130.3862915010135
 21
19.09188309203688
 31
0.0
  0
LINE
  5
AF
330
1E
100
AcDbEntity
  8
1
 62
     7
100
AcDbLine
 10
122.2545635173682
 20
10.96015510839146
 30
0.0
 11
122.6081169079617
 21
11.31370849898485
 31
0.0
  0
LINE
  5
B0
330
1E
100
AcDbEntity
  8
1
 62
     7
100
AcDbLine
 10
147.6999999999988
 20
15.89949493661185
 30
0.0
 11
151.245941546017
 21
19.44543648263016
 31
0.0
  0
LINE
  5
B1
330
1E
100
AcDbEntity
  8
1
 62
     7
100
AcDbLine
 10
150.8923881554238
 20
19.09188309203677
 30
0.0
 11
151.9530483272035
 21
18.03122292025705
 31
0.0
  0
LINE
  5
B2
330
1E
100
AcDbEntity
  8
1
 62
     7
100
AcDbLine
 10
152.6601551083901
 20
19.44543648263016
 30
0.0
 11
153.0137084989835
 21
19.09188309203705
 31
0.0
  0
LINE
  5
B3
330
1E
100
AcDbEntity
  8
1
 62
     7
100
AcDbLine
 10
161.1454364826288
 20
9.545941546018466
 30
0.0
 11
157.2150207728618
 21
5.615525836251548
 31
0.0
  0
LINE
  5
B4
330
1E
100
AcDbEntity
  8
1
 62
     7
100
AcDbLine
 10
122.6081169079617
 20
9.192388155425248
 30
0.0
 11
123.6687770797413
 21
10.25304832720508
 31
0.0
  0
LINE
  5
B5
330
1E
100
AcDbEntity
  8
1
 62
     7
100
AcDbLine
 10
132.1540584539795
 20
19.44543648263016
 30
0.0
 11
135.6999999999979
 21
15.89949493661185
 31
0.0
  0
LINE
  5
B6
330
1E
100
AcDbEntity
  8
1
 62
     7
100
AcDbLine
 10
126.1849792271352
 20
5.615525836251548
 30
0.0
 11
122.2545635173682
 21
9.545941546018466
 31
0.0
  0
LINE
  5
B7
330
1E
100
AcDbEntity
  8
1
 62
     7
100
AcDbLine
 10
159.7312229202555
 20
10.25304832720525
 30
0.0
 11
160.7918830920354
 21
9.192388155425248
 31
0.0
  0
LINE
  5
B8
330
1E
100
AcDbEntity
  8
1
 62
     7
100
AcDbLine
 10
160.7918830920354
 20
11.31370849898485
 30
0.0
 11
161.1454364826288
 21
10.96015510839146
 31
0.0
  0
LINE
  5
B9
330
1E
100
AcDbEntity
  8
1
 62
     7
100
AcDbLine
 10
131.4469516727934
 20
18.03122292025705
 30
0.0
 11
132.5076118445734
 21
19.09188309203677
 31
0.0
  0
LINE
  5
BA
330
1E
100
AcDbEntity
  8
1
  6
CENTER
 62
     3
100
AcDbLine
 10
141.6999999999986
 20
0.0000000000000568
 30
0.0
 11
141.6999999999989
 21
30.21662001450585
 31
0.0
  0
LINE
  5
BB
330
1E
100
AcDbEntity
  8
1
 62
     7
100
AcDbLine
 10
140.8849999999985
 20
22.50002295692036
 30
0.0
 11
136.6999999999986
 21
22.50002295692036
 31
0.0
  0
LINE
  5
BC
330
1E
100
AcDbEntity
  8
1
 62
     7
100
AcDbLine
 10
145.9499999999986
 20
16.49962295692046
 30
0.0
 11
147.6999999999984
 21
16.49962295692046
 31
0.0
  0
LINE
  5
BD
330
1E
100
AcDbEntity
  8
1
 62
     7
100
AcDbLine
 10
162.5596500450018
 20
13.08147545195118
 30
0.0
 11
154.7814754519498
 21
20.85965004500337
 31
0.0
  0
LINE
  5
BE
330
1E
100
AcDbEntity
  8
1
 62
     7
100
AcDbLine
 10
126.8109127034728
 20
7.110912703473956
 30
0.0
 11
122.1838528392497
 21
11.73797256769666
 31
0.0
  0
LINE
  5
BF
330
1E
100
AcDbEntity
  8
1
 62
     7
100
AcDbLine
 10
128.6185245480475
 20
20.85965004500337
 30
0.0
 11
129.3256313292339
 21
20.15254326381664
 31
0.0
  0
LINE
  5
C0
330
1E
100
AcDbEntity
  8
1
 62
     7
100
AcDbLine
 10
156.5890872965244
 20
7.110912703473956
 30
0.0
 11
161.2161471607475
 21
11.73797256769666
 31
0.0
  0
LINE
  5
C1
330
1E
100
AcDbEntity
  8
1
 62
     7
100
AcDbLine
 10
154.7814754519498
 20
20.85965004500337
 30
0.0
 11
154.0743686707635
 21
20.15254326381664
 31
0.0
  0
LINE
  5
C2
330
1E
100
AcDbEntity
  8
1
 62
     7
100
AcDbLine
 10
161.8525432638159
 20
12.37436867076457
 30
0.0
 11
154.0743686707635
 21
20.15254326381664
 31
0.0
  0
LINE
  5
C3
330
1E
100
AcDbEntity
  8
1
 62
     7
100
AcDbLine
 10
161.8525432638159
 20
12.37436867076457
 30
0.0
 11
162.5596500450018
 21
13.08147545195118
 31
0.0
  0
LINE
  5
C4
330
1E
100
AcDbEntity
  8
1
 62
     7
100
AcDbLine
 10
153.4379725676956
 20
19.51614716074874
 30
0.0
 11
161.2161471607475
 21
11.73797256769666
 31
0.0
  0
LINE
  5
C5
330
1E
100
AcDbEntity
  8
1
 62
     7
100
AcDbLine
 10
153.4379725676956
 20
19.51614716074874
 30
0.0
 11
148.810912703473
 21
14.88908729652604
 31
0.0
  0
LINE
  5
C6
330
1E
100
AcDbEntity
  8
1
 62
     7
100
AcDbLine
 10
129.3256313292339
 20
20.15254326381664
 30
0.0
 11
121.5474567361814
 21
12.37436867076457
 31
0.0
  0
LINE
  5
C7
330
1E
100
AcDbEntity
  8
1
 62
     7
100
AcDbLine
 10
121.5474567361814
 20
12.37436867076457
 30
0.0
 11
120.8403499549957
 21
13.08147545195118
 31
0.0
  0
LINE
  5
C8
330
1E
100
AcDbEntity
  8
1
 62
     7
100
AcDbLine
 10
122.1838528392497
 20
11.73797256769666
 30
0.0
 11
129.9620274323018
 21
19.51614716074874
 31
0.0
  0
LINE
  5
C9
330
1E
100
AcDbEntity
  8
1
 62
     7
100
AcDbLine
 10
129.9620274323018
 20
19.51614716074874
 30
0.0
 11
134.5890872965245
 21
14.88908729652604
 31
0.0
  0
LINE
  5
CA
330
1E
100
AcDbEntity
  8
1
  6
CENTER
 62
     3
100
AcDbLine
 10
160.7918830920368
 20
19.09188309203544
 30
0.0
 11
151.7232493180006
 21
10.02324931800206
 31
0.0
  0
LINE
  5
CB
330
1E
100
AcDbEntity
  8
1
  6
CENTER
 62
     3
100
AcDbLine
 10
122.6081169079614
 20
19.09188309203637
 30
0.0
 11
131.6767506819968
 21
10.02324931800206
 31
0.0
  0
LINE
  5
CC
330
1E
100
AcDbEntity
  8
1
 62
     7
100
AcDbLine
 10
120.8403499549957
 20
13.08147545195118
 30
0.0
 11
128.6185245480475
 21
20.85965004500337
 31
0.0
  0
LINE
  5
CD
330
1E
100
AcDbEntity
  8
1
 62
     7
100
AcDbLine
 10
137.4499999999987
 20
15.94325876350255
 30
0.0
 11
137.4499999999987
 21
16.89119593160888
 31
0.0
  0
LINE
  5
CE
330
1E
100
AcDbEntity
  8
1
 62
     7
100
AcDbLine
 10
145.9499999999986
 20
15.94325876350255
 30
0.0
 11
145.9499999999986
 21
16.89119593160888
 31
0.0
  0
LINE
  5
CF
330
1E
100
AcDbEntity
  8
1
 62
     7
100
AcDbLine
 10
142.5149999999988
 20
28.63283164818876
 30
0.0
 11
142.5149999999988
 21
17.98153983951335
 31
0.0
  0
LINE
  5
D0
330
1E
100
AcDbEntity
  8
1
 62
     7
100
AcDbLine
 10
140.8849999999985
 20
28.63283164818876
 30
0.0
 11
140.8849999999985
 21
17.98153983951335
 31
0.0
  0
LINE
  5
D1
330
1E
100
AcDbEntity
  8
1
 62
     7
100
AcDbLine
 10
139.1560675098979
 20
12.50777388210275
 30
0.0
 11
139.6583489395677
 21
12.6423597855561
 31
0.0
  0
LINE
  5
D2
330
1E
100
AcDbEntity
  8
1
 62
     7
100
AcDbLine
 10
139.6583489395677
 20
12.6423597855561
 30
0.0
 11
139.5237630361146
 21
13.14464121522644
 31
0.0
  0
LINE
  5
D3
330
1E
100
AcDbEntity
  8
1
 62
     7
100
AcDbLine
 10
139.5237630361146
 20
13.14464121522644
 30
0.0
 11
139.0214816064445
 21
13.01005531177302
 31
0.0
  0
LINE
  5
D4
330
1E
100
AcDbEntity
  8
1
 62
     7
100
AcDbLine
 10
138.3846142733206
 20
13.37775083799005
 30
0.0
 11
138.2500283698675
 21
13.88003226766057
 31
0.0
  0
LINE
  5
D5
330
1E
100
AcDbEntity
  8
1
 62
     7
100
AcDbLine
 10
138.2500283698675
 20
13.88003226766057
 30
0.0
 11
137.7477469401976
 21
13.74544636420717
 31
0.0
  0
LINE
  5
D6
330
1E
100
AcDbEntity
  8
1
 62
     7
100
AcDbLine
 10
137.7477469401976
 20
13.74544636420717
 30
0.0
 11
137.8823328436509
 21
13.24316493453665
 31
0.0
  0
LINE
  5
D7
330
1E
100
AcDbEntity
  8
1
 62
     7
100
AcDbLine
 10
137.6492232208862
 20
12.10401617174296
 30
0.0
 11
137.1469417912165
 21
11.96943026828956
 31
0.0
  0
LINE
  5
D8
330
1E
100
AcDbEntity
  8
1
 62
     7
100
AcDbLine
 10
137.1469417912165
 20
11.96943026828956
 30
0.0
 11
137.0123558877638
 21
12.47171169795985
 31
0.0
  0
LINE
  5
D9
330
1E
100
AcDbEntity
  8
1
 62
     7
100
AcDbLine
 10
137.0123558877638
 20
12.47171169795985
 30
0.0
 11
137.5146373174337
 21
12.60629760141324
 31
0.0
  0
LINE
  5
DA
330
1E
100
AcDbEntity
  8
1
 62
     7
100
AcDbLine
 10
138.7883719836807
 20
11.87090654897918
 30
0.0
 11
138.9229578871343
 21
11.36862511930866
 31
0.0
  0
LINE
  5
DB
330
1E
100
AcDbEntity
  8
1
 62
     7
100
AcDbLine
 10
138.9229578871343
 20
11.36862511930866
 30
0.0
 11
138.4206764574634
 21
11.23403921585566
 31
0.0
  0
LINE
  5
DC
330
1E
100
AcDbEntity
  8
1
 62
     7
100
AcDbLine
 10
138.4206764574634
 20
11.23403921585566
 30
0.0
 11
138.2860905540106
 21
11.73632064552577
 31
0.0
  0
LINE
  5
DD
330
1E
100
AcDbEntity
  8
1
 62
     7
100
AcDbLine
 10
145.8853626825636
 20
-12.60629760141285
 30
0.0
 11
146.3876441122335
 21
-12.47171169795985
 31
0.0
  0
LINE
  5
DE
330
1E
100
AcDbEntity
  8
1
 62
     7
100
AcDbLine
 10
146.3876441122335
 20
-12.47171169795985
 30
0.0
 11
146.2530582087808
 21
-11.96943026828932
 31
0.0
  0
LINE
  5
DF
330
1E
100
AcDbEntity
  8
1
 62
     7
100
AcDbLine
 10
146.2530582087808
 20
-11.96943026828932
 30
0.0
 11
145.7507767791105
 21
-12.10401617174273
 31
0.0
  0
LINE
  5
E0
330
1E
100
AcDbEntity
  8
1
 62
     7
100
AcDbLine
 10
145.1139094459865
 20
-11.73632064552593
 30
0.0
 11
144.9793235425339
 21
-11.23403921585542
 31
0.0
  0
LINE
  5
E1
330
1E
100
AcDbEntity
  8
1
 62
     7
100
AcDbLine
 10
144.9793235425339
 20
-11.23403921585542
 30
0.0
 11
144.4770421128624
 21
-11.36862511930866
 31
0.0
  0
LINE
  5
E2
330
1E
100
AcDbEntity
  8
1
 62
     7
100
AcDbLine
 10
144.4770421128624
 20
-11.36862511930866
 30
0.0
 11
144.6116280163156
 21
-11.87090654897895
 31
0.0
  0
LINE
  5
E3
330
1E
100
AcDbEntity
  8
1
 62
     7
100
AcDbLine
 10
144.3785183935525
 20
-13.01005531177282
 30
0.0
 11
143.8762369638824
 21
-13.14464121522622
 31
0.0
  0
LINE
  5
E4
330
1E
100
AcDbEntity
  8
1
 62
     7
100
AcDbLine
 10
143.8762369638824
 20
-13.14464121522622
 30
0.0
 11
143.7416510604286
 21
-12.64235978555604
 31
0.0
  0
LINE
  5
E5
330
1E
100
AcDbEntity
  8
1
 62
     7
100
AcDbLine
 10
143.7416510604286
 20
-12.64235978555604
 30
0.0
 11
144.2439324900995
 21
-12.50777388210264
 31
0.0
  0
LINE
  5
E6
330
1E
100
AcDbEntity
  8
1
 62
     7
100
AcDbLine
 10
145.5176671563465
 20
-13.24316493453665
 30
0.0
 11
145.6522530597995
 21
-13.74544636420671
 31
0.0
  0
LINE
  5
E7
330
1E
100
AcDbEntity
  8
1
 62
     7
100
AcDbLine
 10
145.6522530597995
 20
-13.74544636420671
 30
0.0
 11
145.1499716301294
 21
-13.88003226765992
 31
0.0
  0
LINE
  5
E8
330
1E
100
AcDbEntity
  8
1
 62
     7
100
AcDbLine
 10
145.1499716301294
 20
-13.88003226765992
 30
0.0
 11
145.0153857266758
 21
-13.37775083799005
 31
0.0
  0
LINE
  5
E9
330
1E
100
AcDbEntity
  8
1
  6
CENTER
 62
     3
100
AcDbLine
 10
137.3000762332555
 20
16.42073904691426
 30
0.0
 11
139.370628594076
 21
8.693332436601451
 31
0.0
  0
LINE
  5
EA
330
1E
100
AcDbEntity
  8
1
  6
CENTER
 62
     3
100
AcDbLine
 10
144.0293714059214
 20
-8.693332436601338
 30
0.0
 11
146.0999237667416
 21
-16.42073904691381
 31
0.0
  0
LINE
  5
EB
330
1E
100
AcDbEntity
  8
1
 62
     7
100
AcDbLine
 10
135.6999999999984
 20
-16.49999999999994
 30
0.0
 11
147.6999999999985
 21
-16.49999999999994
 31
0.0
  0
LINE
  5
EC
330
1E
100
AcDbEntity
  8
1
 62
     7
100
AcDbLine
 10
134.6999999999983
 20
-16.49999999999994
 30
0.0
 11
148.6999999999984
 21
-16.49999999999994
 31
0.0
  0
LINE
  5
ED
330
1E
100
AcDbEntity
  8
1
 62
     7
100
AcDbLine
 10
148.6999999999985
 20
-17.49999999999993
 30
0.0
 11
148.6999999999985
 21
-14.94155279748395
 31
0.0
  0
LINE
  5
EE
330
1E
100
AcDbEntity
  8
1
 62
     7
100
AcDbLine
 10
148.1999999999985
 20
-17.99999999999994
 30
0.0
 11
135.1999999999987
 21
-17.99999999999994
 31
0.0
  0
LINE
  5
EF
330
1E
100
AcDbEntity
  8
1
 62
     7
100
AcDbLine
 10
134.6999999999984
 20
-14.94155279748395
 30
0.0
 11
134.6999999999987
 21
-17.49999999999993
 31
0.0
  0
LINE
  5
F0
330
1E
100
AcDbEntity
  8
1
 62
     7
100
AcDbLine
 10
138.6999999999984
 20
22.50002295692036
 30
0.0
 11
138.6999999999984
 21
25.52727383911598
 31
0.0
  0
LINE
  5
F1
330
1E
100
AcDbEntity
  8
1
 62
     7
100
AcDbLine
 10
143.1999999999984
 20
22.49962295692046
 30
0.0
 11
143.1999999999983
 21
25.52727383911598
 31
0.0
  0
LINE
  5
F2
330
1E
100
AcDbEntity
  8
1
 62
     7
100
AcDbLine
 10
140.1999999999983
 20
25.52727383911598
 30
0.0
 11
140.1999999999986
 21
22.50002295692036
 31
0.0
  0
LINE
  5
F3
330
1E
100
AcDbEntity
  8
1
 62
     7
100
AcDbLine
 10
144.6999999999984
 20
25.52727383911598
 30
0.0
 11
144.6999999999984
 21
22.49962295692046
 31
0.0
  0
LINE
  5
F4
330
1E
100
AcDbEntity
  8
1
  6
CENTER
 62
     3
100
AcDbLine
 10
143.9499999999983
 20
21.68379874365507
 30
0.0
 11
143.9499999999983
 21
26.43184750403094
 31
0.0
  0
LINE
  5
F5
330
1E
100
AcDbEntity
  8
1
  6
CENTER
 62
     3
100
AcDbLine
 10
139.4499999999984
 20
21.68419874365496
 30
0.0
 11
139.4499999999984
 21
26.25782594949589
 31
0.0
  0
LINE
  5
F6
330
1E
100
AcDbEntity
  8
1
 62
     7
100
AcDbLine
 10
135.6999999999983
 20
16.49962295692046
 30
0.0
 11
137.4499999999987
 21
16.49962295692046
 31
0.0
  0
LINE
  5
F7
330
1E
100
AcDbEntity
  8
1
 62
     7
100
AcDbLine
 10
135.6999999999983
 20
15.37042614893846
 30
0.0
 11
135.6999999999983
 21
21.50002295692036
 31
0.0
  0
LINE
  5
F8
330
1E
100
AcDbEntity
  8
1
 62
     7
100
AcDbLine
 10
147.6999999999984
 20
15.37042614893953
 30
0.0
 11
147.6999999999984
 21
21.49962295692046
 31
0.0
  0
LINE
  5
F9
330
1E
100
AcDbEntity
  8
1
 62
     7
100
AcDbLine
 10
146.6999999999988
 20
22.49962295692046
 30
0.0
 11
142.5149999999988
 21
22.49962295692046
 31
0.0
  0
LINE
  5
FA
330
1E
100
AcDbEntity
  8
1
  6
CENTER
 62
     3
100
AcDbLine
 10
141.6999999999989
 20
-21.50000000000005
 30
0.0
 11
141.6999999999986
 21
0.0000000000000568
 31
0.0
  0
LINE
  5
FB
330
1E
100
AcDbEntity
  8
1
 62
     7
100
AcDbLine
 10
93.69999999999979
 20
-16.50000000000006
 30
0.0
 11
93.69999999999979
 21
16.49999999999994
 31
0.0
  0
LINE
  5
FC
330
1E
100
AcDbEntity
  8
1
 62
     7
100
AcDbLine
 10
82.19999999999981
 20
8.249999999999943
 30
0.0
 11
92.6999999999998
 21
8.249999999999943
 31
0.0
  0
LINE
  5
FD
330
1E
100
AcDbEntity
  8
1
 62
     7
100
AcDbLine
 10
111.1999999999996
 20
16.19999999999999
 30
0.0
 11
111.1999999999996
 21
-16.20000000000016
 31
0.0
  0
LINE
  5
FE
330
1E
100
AcDbEntity
  8
1
 62
     7
100
AcDbLine
 10
107.6999999999996
 20
16.49999999999994
 30
0.0
 11
110.8999999999999
 21
16.49999999999994
 31
0.0
  0
LINE
  5
FF
330
1E
100
AcDbEntity
  8
1
 62
     7
100
AcDbLine
 10
107.6999999999996
 20
11.73789641955216
 30
0.0
 11
107.6999999999996
 21
16.97056274847705
 31
0.0
  0
LINE
  5
100
330
1E
100
AcDbEntity
  8
1
 62
     7
100
AcDbLine
 10
96.6999999999998
 20
11.73789460223485
 30
0.0
 11
96.6999999999998
 21
16.97056274847705
 31
0.0
  0
LINE
  5
101
330
1E
100
AcDbEntity
  8
1
 62
     7
100
AcDbLine
 10
99.44999999999978
 20
16.33416664540925
 30
0.0
 11
104.9499999999996
 21
16.33416664540925
 31
0.0
  0
LINE
  5
102
330
1E
100
AcDbEntity
  8
1
 62
     7
100
AcDbLine
 10
104.9499999999996
 20
16.33416664540925
 30
0.0
 11
104.9499999999996
 21
17.60695885154496
 31
0.0
  0
LINE
  5
103
330
1E
100
AcDbEntity
  8
1
 62
     7
100
AcDbLine
 10
104.9499999999996
 20
17.60695885154496
 30
0.0
 11
99.44999999999978
 21
17.60695885154496
 31
0.0
  0
LINE
  5
104
330
1E
100
AcDbEntity
  8
1
 62
     7
100
AcDbLine
 10
99.44999999999978
 20
17.60695885154496
 30
0.0
 11
99.44999999999978
 21
16.33416664540925
 31
0.0
  0
LINE
  5
105
330
1E
100
AcDbEntity
  8
1
 62
     2
100
AcDbLine
 10
110.8999999999999
 20
16.49999999999994
 30
0.0
 11
111.1999999999996
 21
16.19999999999999
 31
0.0
  0
LINE
  5
106
330
1E
100
AcDbEntity
  8
1
 62
     2
100
AcDbLine
 10
111.1999999999996
 20
-16.20000000000016
 30
0.0
 11
110.8999999999999
 21
-16.50000000000006
 31
0.0
  0
LINE
  5
107
330
1E
100
AcDbEntity
  8
1
 62
     7
100
AcDbLine
 10
104.5149999999999
 20
26.81134281853019
 30
0.0
 11
104.5149999999999
 21
33.7012899720819
 31
0.0
  0
LINE
  5
108
330
1E
100
AcDbEntity
  8
1
 62
     7
100
AcDbLine
 10
102.8849999999998
 20
26.81134281853019
 30
0.0
 11
102.8849999999998
 21
33.7012899720819
 31
0.0
  0
LINE
  5
109
330
1E
100
AcDbEntity
  8
1
 62
     7
100
AcDbLine
 10
101.5149999999999
 20
26.81134281853019
 30
0.0
 11
101.5149999999999
 21
33.7012899720819
 31
0.0
  0
LINE
  5
10A
330
1E
100
AcDbEntity
  8
1
 62
     7
100
AcDbLine
 10
99.8849999999998
 20
26.81134281853019
 30
0.0
 11
99.8849999999998
 21
33.7012899720819
 31
0.0
  0
LINE
  5
10B
330
1E
100
AcDbEntity
  8
1
 62
     7
100
AcDbLine
 10
99.8849999999998
 20
25.55533811624735
 30
0.0
 11
99.8849999999998
 21
20.49837841775064
 31
0.0
  0
LINE
  5
10C
330
1E
100
AcDbEntity
  8
1
 62
     7
100
AcDbLine
 10
101.5149999999999
 20
25.55533811624735
 30
0.0
 11
101.5149999999999
 21
20.8293755545584
 31
0.0
  0
LINE
  5
10D
330
1E
100
AcDbEntity
  8
1
 62
     7
100
AcDbLine
 10
102.8849999999998
 20
25.55533811624735
 30
0.0
 11
102.8849999999998
 21
20.82937555455707
 31
0.0
  0
LINE
  5
10E
330
1E
100
AcDbEntity
  8
1
 62
     7
100
AcDbLine
 10
104.5149999999999
 20
25.55533811624735
 30
0.0
 11
104.5149999999999
 21
20.49837841775036
 31
0.0
  0
LINE
  5
10F
330
1E
100
AcDbEntity
  8
1
 62
     7
100
AcDbLine
 10
104.2999999999997
 20
36.84170146430455
 30
0.0
 11
104.2999999999997
 21
33.7012899720819
 31
0.0
  0
LINE
  5
110
330
1E
100
AcDbEntity
  8
1
 62
     7
100
AcDbLine
 10
104.0999999999997
 20
33.7012899720819
 30
0.0
 11
104.0999999999997
 21
36.84170146430455
 31
0.0
  0
LINE
  5
111
330
1E
100
AcDbEntity
  8
1
 62
     7
100
AcDbLine
 10
103.8999999999999
 20
36.84170146430455
 30
0.0
 11
103.8999999999999
 21
33.7012899720819
 31
0.0
  0
LINE
  5
112
330
1E
100
AcDbEntity
  8
1
 62
     7
100
AcDbLine
 10
103.6999999999996
 20
33.7012899720819
 30
0.0
 11
103.6999999999996
 21
36.84170146430455
 31
0.0
  0
LINE
  5
113
330
1E
100
AcDbEntity
  8
1
 62
     7
100
AcDbLine
 10
103.4999999999999
 20
36.84170146430455
 30
0.0
 11
103.4999999999999
 21
33.7012899720819
 31
0.0
  0
LINE
  5
114
330
1E
100
AcDbEntity
  8
1
 62
     7
100
AcDbLine
 10
103.2999999999997
 20
33.7012899720819
 30
0.0
 11
103.2999999999997
 21
36.84170146430455
 31
0.0
  0
LINE
  5
115
330
1E
100
AcDbEntity
  8
1
 62
     7
100
AcDbLine
 10
103.0999999999997
 20
36.84170146430455
 30
0.0
 11
103.0999999999997
 21
33.7012899720819
 31
0.0
  0
LINE
  5
116
330
1E
100
AcDbEntity
  8
1
 62
     7
100
AcDbLine
 10
101.2999999999997
 20
33.7012899720819
 30
0.0
 11
101.2999999999997
 21
36.84170146430455
 31
0.0
  0
LINE
  5
117
330
1E
100
AcDbEntity
  8
1
 62
     7
100
AcDbLine
 10
101.0999999999997
 20
36.84170146430455
 30
0.0
 11
101.0999999999997
 21
33.7012899720819
 31
0.0
  0
LINE
  5
118
330
1E
100
AcDbEntity
  8
1
 62
     7
100
AcDbLine
 10
100.8999999999999
 20
33.7012899720819
 30
0.0
 11
100.8999999999999
 21
36.84170146430455
 31
0.0
  0
LINE
  5
119
330
1E
100
AcDbEntity
  8
1
 62
     7
100
AcDbLine
 10
100.6999999999997
 20
36.84170146430455
 30
0.0
 11
100.6999999999997
 21
33.7012899720819
 31
0.0
  0
LINE
  5
11A
330
1E
100
AcDbEntity
  8
1
 62
     7
100
AcDbLine
 10
100.4999999999999
 20
33.7012899720819
 30
0.0
 11
100.4999999999999
 21
36.84170146430455
 31
0.0
  0
LINE
  5
11B
330
1E
100
AcDbEntity
  8
1
 62
     7
100
AcDbLine
 10
100.2999999999997
 20
33.7012899720819
 30
0.0
 11
100.2999999999997
 21
36.84170146430455
 31
0.0
  0
LINE
  5
11C
330
1E
100
AcDbEntity
  8
1
 62
     7
100
AcDbLine
 10
100.0999999999997
 20
33.7012899720819
 30
0.0
 11
100.0999999999997
 21
36.84170146430455
 31
0.0
  0
LINE
  5
11D
330
1E
100
AcDbEntity
  8
1
 62
     7
100
AcDbLine
 10
102.8849999999998
 20
33.7012899720819
 30
0.0
 11
104.5149999999999
 21
33.7012899720819
 31
0.0
  0
LINE
  5
11E
330
1E
100
AcDbEntity
  8
1
 62
     7
100
AcDbLine
 10
99.8849999999998
 20
33.7012899720819
 30
0.0
 11
101.5149999999999
 21
33.7012899720819
 31
0.0
  0
LINE
  5
11F
330
1E
100
AcDbEntity
  8
1
  6
CENTER
 62
     3
100
AcDbLine
 10
102.1999999999998
 20
39.21123033793696
 30
0.0
 11
102.1999999999998
 21
4.110912698771642
 31
0.0
  0
ARC
  5
120
330
1E
100
AcDbEntity
  8
1
 62
     7
100
AcDbCircle
 10
32.99999999999999
 20
7.500000000000056
 30
0.0
 40
1.0
100
AcDbArc
 50
270.0
 51
0.0
  0
ARC
  5
121
330
1E
100
AcDbEntity
  8
1
 62
     7
100
AcDbCircle
 10
6.0
 20
7.500000000000056
 30
0.0
 40
1.0
100
AcDbArc
 50
180.0
 51
270.0
  0
ARC
  5
122
330
1E
100
AcDbEntity
  8
1
 62
     7
100
AcDbCircle
 10
-17.8
 20
0.0
 30
0.0
 40
3.999999999999963
100
AcDbArc
 50
151.0449756281425
 51
208.9550243718598
  0
ARC
  5
123
330
1E
100
AcDbEntity
  8
1
 62
     7
100
AcDbCircle
 10
161.401070325577
 20
12.18944550593517
 30
0.0
 40
0.487877434251918
100
AcDbArc
 50
247.726010131585
 51
22.27398986839351
  0
ARC
  5
124
330
1E
100
AcDbEntity
  8
1
 62
     7
100
AcDbCircle
 10
153.8894455059338
 20
19.70107032557814
 30
0.0
 40
0.4878774342520689
100
AcDbArc
 50
67.72601013154174
 51
202.2739898684339
  0
ARC
  5
125
330
1E
100
AcDbEntity
  8
1
 62
     7
100
AcDbCircle
 10
129.5194366212115
 20
19.70995245272717
 30
0.0
 40
0.4831636547385526
100
AcDbArc
 50
336.351956226495
 51
113.6480437734614
  0
ARC
  5
126
330
1E
100
AcDbEntity
  8
1
 62
     7
100
AcDbCircle
 10
121.9900475472716
 20
12.18056337878659
 30
0.0
 40
0.4831636547383811
100
AcDbArc
 50
156.3519562265456
 51
293.6480437734903
  0
ARC
  5
127
330
1E
100
AcDbEntity
  8
1
 62
     7
100
AcDbCircle
 10
141.6999999999986
 20
0.0000000000000568
 30
0.0
 40
17.99999999999984
100
AcDbArc
 50
78.29349020674506
 51
101.7065097932573
  0
ARC
  5
128
330
1E
100
AcDbEntity
  8
1
 62
     7
100
AcDbCircle
 10
141.6999999999986
 20
0.0000000000000568
 30
0.0
 40
17.99999999999984
100
AcDbArc
 50
78.29349020674506
 51
101.7065097932573
  0
ARC
  5
129
330
1E
100
AcDbEntity
  8
1
 62
     3
100
AcDbCircle
 10
141.2924999999983
 20
28.28550234800088
 30
0.0
 40
0.5354380382165278
100
AcDbArc
 50
40.44234362119953
 51
139.5576563787726
  0
ARC
  5
12A
330
1E
100
AcDbEntity
  8
1
 62
     3
100
AcDbCircle
 10
142.107499999999
 20
28.98016094837675
 30
0.0
 40
0.5354380382166642
100
AcDbArc
 50
220.4423436212025
 51
319.5576563787639
  0
ARC
  5
12B
330
1E
100
AcDbEntity
  8
1
 62
     3
100
AcDbCircle
 10
142.107499999999
 20
28.28550234800088
 30
0.0
 40
0.535438038216225
100
AcDbArc
 50
40.44234362122717
 51
139.5576563788063
  0
ARC
  5
12C
330
1E
100
AcDbEntity
  8
1
 62
     7
100
AcDbCircle
 10
138.8868957029916
 20
13.51233674144339
 30
0.0
 40
0.5200000000004775
100
AcDbArc
 50
194.999999999989
 51
284.9999999999752
  0
ARC
  5
12D
330
1E
100
AcDbEntity
  8
1
 62
     7
100
AcDbCircle
 10
137.3800514139809
 20
13.10857903108325
 30
0.0
 40
0.5199999999995423
100
AcDbArc
 50
284.9999999999456
 51
15.00000000002142
  0
ARC
  5
12E
330
1E
100
AcDbEntity
  8
1
 62
     7
100
AcDbCircle
 10
137.7838091243409
 20
11.60173474207255
 30
0.0
 40
0.5199999999995706
100
AcDbArc
 50
15.00000000000346
 51
105.0000000001245
  0
ARC
  5
12F
330
1E
100
AcDbEntity
  8
1
 62
     7
100
AcDbCircle
 10
139.2906534133514
 20
12.00549245243234
 30
0.0
 40
0.5200000000001565
100
AcDbArc
 50
105.000000000028
 51
194.999999999971
  0
ARC
  5
130
330
1E
100
AcDbEntity
  8
1
 62
     7
100
AcDbCircle
 10
145.6161908756565
 20
-11.60173474207255
 30
0.0
 40
0.5199999999996421
100
AcDbArc
 50
195.0000000000208
 51
285.0000000000858
  0
ARC
  5
131
330
1E
100
AcDbEntity
  8
1
 62
     7
100
AcDbCircle
 10
144.1093465866458
 20
-12.00549245243212
 30
0.0
 40
0.5200000000002714
100
AcDbArc
 50
285.0000000000246
 51
14.99999999999722
  0
ARC
  5
132
330
1E
100
AcDbEntity
  8
1
 62
     7
100
AcDbCircle
 10
144.5131042970059
 20
-13.51233674144334
 30
0.0
 40
0.5199999999995863
100
AcDbArc
 50
15.00000000000989
 51
104.9999999999824
  0
ARC
  5
133
330
1E
100
AcDbEntity
  8
1
 62
     7
100
AcDbCircle
 10
146.0199485860165
 20
-13.10857903108325
 30
0.0
 40
0.5199999999999504
100
AcDbArc
 50
104.9999999999434
 51
195.0000000000206
  0
ARC
  5
134
330
1E
100
AcDbEntity
  8
1
  6
CENTER
 62
     3
100
AcDbCircle
 10
141.6999999999986
 20
0.0000000000000568
 30
0.0
 40
13.00000000000014
100
AcDbArc
 50
85.18689368241915
 51
124.8131063175676
  0
ARC
  5
135
330
1E
100
AcDbEntity
  8
1
  6
CENTER
 62
     3
100
AcDbCircle
 10
141.6999999999986
 20
0.0000000000000568
 30
0.0
 40
12.99999999999986
100
AcDbArc
 50
265.1868936824194
 51
304.8131063175703
  0
ARC
  5
136
330
1E
100
AcDbEntity
  8
1
 62
     3
100
AcDbCircle
 10
101.1074999999999
 20
27.15867211871807
 30
0.0
 40
0.535438038216452
100
AcDbArc
 50
220.4423436212064
 51
319.5576563787867
  0
ARC
  5
137
330
1E
100
AcDbEntity
  8
1
 62
     3
100
AcDbCircle
 10
100.2924999999997
 20
27.15867211871807
 30
0.0
 40
0.5354380382164844
100
AcDbArc
 50
220.4423436212035
 51
319.5576563787798
  0
ARC
  5
138
330
1E
100
AcDbEntity
  8
1
 62
     3
100
AcDbCircle
 10
100.2924999999997
 20
26.46401351834214
 30
0.0
 40
0.5354380382164111
100
AcDbArc
 50
40.44234362123415
 51
139.5576563787826
  0
ARC
  5
139
330
1E
100
AcDbEntity
  8
1
 62
     3
100
AcDbCircle
 10
103.2924999999997
 20
27.15867211871807
 30
0.0
 40
0.535438038216452
100
AcDbArc
 50
220.4423436212064
 51
319.5576563787798
  0
ARC
  5
13A
330
1E
100
AcDbEntity
  8
1
 62
     3
100
AcDbCircle
 10
104.1074999999999
 20
27.15867211871807
 30
0.0
 40
0.535438038216452
100
AcDbArc
 50
220.4423436212064
 51
319.5576563787867
  0
ARC
  5
13B
330
1E
100
AcDbEntity
  8
1
 62
     3
100
AcDbCircle
 10
103.2924999999997
 20
26.46401351834214
 30
0.0
 40
0.5354380382164111
100
AcDbArc
 50
40.44234362123415
 51
139.5576563787797
  0
ARC
  5
13C
330
1E
100
AcDbEntity
  8
1
 62
     3
100
AcDbCircle
 10
103.2924999999997
 20
25.20800881605936
 30
0.0
 40
0.5354380382163791
100
AcDbArc
 50
40.4423436212301
 51
139.5576563787837
  0
ARC
  5
13D
330
1E
100
AcDbEntity
  8
1
 62
     3
100
AcDbCircle
 10
104.1074999999999
 20
25.90266741643535
 30
0.0
 40
0.5354380382165235
100
AcDbArc
 50
220.4423436212154
 51
319.5576563787777
  0
ARC
  5
13E
330
1E
100
AcDbEntity
  8
1
 62
     3
100
AcDbCircle
 10
104.1074999999999
 20
25.20800881605936
 30
0.0
 40
0.5354380382164548
100
AcDbArc
 50
40.4423436212232
 51
139.5576563787837
  0
ARC
  5
13F
330
1E
100
AcDbEntity
  8
1
 62
     3
100
AcDbCircle
 10
101.1074999999999
 20
25.20800881605936
 30
0.0
 40
0.5354380382164548
100
AcDbArc
 50
40.4423436212232
 51
139.5576563787837
  0
ARC
  5
140
330
1E
100
AcDbEntity
  8
1
 62
     3
100
AcDbCircle
 10
101.1074999999999
 20
25.90266741643535
 30
0.0
 40
0.5354380382165235
100
AcDbArc
 50
220.4423436212154
 51
319.5576563787777
  0
ARC
  5
141
330
1E
100
AcDbEntity
  8
1
 62
     3
100
AcDbCircle
 10
100.2924999999997
 20
25.20800881605936
 30
0.0
 40
0.5354380382163791
100
AcDbArc
 50
40.4423436212301
 51
139.5576563787865
  0
CIRCLE
  5
142
330
1E
100
AcDbEntity
  8
1
 62
     3
100
AcDbCircle
 10
-51.30000000000006
 20
-0.0000000000000568
 30
0.0
 40
16.2
  0
CIRCLE
  5
143
330
1E
100
AcDbEntity
  8
1
 62
     3
100
AcDbCircle
 10
-51.30000000000006
 20
-0.0000000000000568
 30
0.0
 40
10.2
  0
CIRCLE
  5
144
330
1E
100
AcDbEntity
  8
1
 62
     3
100
AcDbCircle
 10
-51.30000000000006
 20
-0.0000000000000568
 30
0.0
 40
3.5
  0
CIRCLE
  5
145
330
1E
100
AcDbEntity
  8
1
 62
     7
100
AcDbCircle
 10
-51.30000000000006
 20
-0.0000000000000568
 30
0.0
 40
9.0
  0
CIRCLE
  5
146
330
1E
100
AcDbEntity
  8
1
 62
     7
100
AcDbCircle
 10
-51.30000000000006
 20
-0.0000000000000568
 30
0.0
 40
10.5
  0
CIRCLE
  5
147
330
1E
100
AcDbEntity
  8
1
 62
     7
100
AcDbCircle
 10
-51.30000000000006
 20
-0.0000000000000568
 30
0.0
 40
16.5
  0
CIRCLE
  5
148
330
1E
100
AcDbEntity
  8
1
 62
     7
100
AcDbCircle
 10
-51.30000000000006
 20
-0.0000000000000568
 30
0.0
 40
6.0
  0
CIRCLE
  5
149
330
1E
100
AcDbEntity
  8
1
  6
CENTER
 62
     3
100
AcDbCircle
 10
-51.30000000000006
 20
-0.0000000000000568
 30
0.0
 40
13.0
  0
CIRCLE
  5
14A
330
1E
100
AcDbEntity
  8
1
 62
     3
100
AcDbCircle
 10
-40.04166975080238
 20
-6.499999999999943
 30
0.0
 40
1.500000000000006
  0
CIRCLE
  5
14B
330
1E
100
AcDbEntity
  8
1
 62
     7
100
AcDbCircle
 10
-40.04166975080238
 20
-6.499999999999943
 30
0.0
 40
1.199999999999989
  0
CIRCLE
  5
14C
330
1E
100
AcDbEntity
  8
1
 62
     3
100
AcDbCircle
 10
-51.30000000000001
 20
12.99999999999989
 30
0.0
 40
1.500000000000123
  0
CIRCLE
  5
14D
330
1E
100
AcDbEntity
  8
1
 62
     7
100
AcDbCircle
 10
-51.30000000000001
 20
12.99999999999989
 30
0.0
 40
1.200000000000134
  0
CIRCLE
  5
14E
330
1E
100
AcDbEntity
  8
1
 62
     3
100
AcDbCircle
 10
-62.55833024919775
 20
-6.500000000000056
 30
0.0
 40
1.500000000000123
  0
CIRCLE
  5
14F
330
1E
100
AcDbEntity
  8
1
 62
     7
100
AcDbCircle
 10
-62.55833024919775
 20
-6.500000000000056
 30
0.0
 40
1.199999999999985
  0
CIRCLE
  5
150
330
1E
100
AcDbEntity
  8
1
 62
     7
100
AcDbCircle
 10
-51.30000000000006
 20
-0.0000000000000568
 30
0.0
 40
4.0
  0
CIRCLE
  5
151
330
1E
100
AcDbEntity
  8
1
 62
     7
100
AcDbCircle
 10
141.6999999999986
 20
0.0000000000000568
 30
0.0
 40
16.50000000000011
  0
CIRCLE
  5
152
330
1E
100
AcDbEntity
  8
1
 62
     7
100
AcDbCircle
 10
138.3353524136653
 20
12.55703574175806
 30
0.0
 40
2.25
  0
CIRCLE
  5
153
330
1E
100
AcDbEntity
  8
1
 62
     7
100
AcDbCircle
 10
145.0646475863314
 20
-12.55703574175794
 30
0.0
 40
2.25
  0
CIRCLE
  5
154
330
1E
100
AcDbEntity
  8
1
 62
     7
100
AcDbCircle
 10
145.0646475863314
 20
-12.55703574175794
 30
0.0
 40
2.75
  0
CIRCLE
  5
155
330
1E
100
AcDbEntity
  8
1
 62
     7
100
AcDbCircle
 10
138.3353524136653
 20
12.55703574175806
 30
0.0
 40
2.75
  0
LWPOLYLINE
  5
156
330
1E
100
AcDbEntity
  8
1
 62
     3
100
AcDbPolyline
 90
       11
 70
     0
 43
0.0
 10
58.71507598514278
 20
20.25062295692015
 42
-0.0050910077448478
 10
58.63123532854148
 20
20.32569414247246
 42
-0.016703057960709
 10
58.5541841128013
 20
20.40083821700519
 42
-0.0332689370663532
 10
58.49071177878338
 20
20.47612806949876
 42
-0.0597691573425978
 10
58.44760776734884
 20
20.55163658893361
 42
-0.0967495880650189
 10
58.43166151935879
 20
20.62743666429012
 42
-0.0938183764549232
 10
58.44661532306773
 20
20.70165830447523
 42
-0.0580410767639173
 10
58.48737838838952
 20
20.7761570235543
 42
-0.0325028248855599
 10
58.54749839992097
 20
20.85086355180385
 42
-0.0163930082445634
 10
58.62052304225886
 20
20.92570861950036
 42
-0.0050076482867973
 10
58.69999999999997
 20
21.00062295692036
  0
LWPOLYLINE
  5
163
330
1E
100
AcDbEntity
  8
1
 62
     3
100
AcDbPolyline
 90
       21
 70
     0
 43
0.0
 10
58.69999999999997
 20
19.50062295692037
 42
-0.0051469273397513
 10
58.61744983262135
 20
19.58281286408962
 42
-0.0169556804146442
 10
58.54212028305536
 20
19.66458190920707
 42
-0.0340746503333748
 10
58.48123196911452
 20
19.74550923022085
 42
-0.0620761823785169
 10
58.44200550861145
 20
19.82517396507919
 42
-0.1016143095178378
 10
58.43166151935879
 20
19.90315525173024
 42
-0.0922664717339987
 10
58.4521223477777
 20
19.97372521535996
 42
-0.0555632041803798
 10
58.4971464427344
 20
20.04312218619494
 42
-0.0297799532880292
 10
58.56028157006006
 20
20.11198094573404
 42
-0.0133021992383452
 10
58.6350754955858
 20
20.18093627547616
 42
-0.0012018211913431
 10
58.71507598514278
 20
20.25062295692015
 42
0.0086861679666672
 10
58.79418465088486
 20
20.32174534104787
 42
0.0184589755280904
 10
58.86618529820665
 20
20.39391548373564
 42
0.033275543433083
 10
58.92522358722475
 20
20.46680622748776
 42
0.0562092700297873
 10
58.96544517805589
 20
20.5400904148085
 42
0.090619179827106
 10
58.98099573081671
 20
20.61344088820214
 42
0.1083099164439618
 10
58.96622753224947
 20
20.69123137291796
 42
0.0484444431067398
 10
58.9238387019515
 20
20.768785810319
 42
0.0435907196162399
 10
58.86073439785548
 20
20.84616321223395
 42
0.005945679290158
 10
58.78381977789405
 20
20.92342259049151
 42
0.0157168041943346
 10
58.69999999999997
 20
21.00062295692036
  0
LWPOLYLINE
  5
17A
330
1E
100
AcDbEntity
  8
1
 62
     3
100
AcDbPolyline
 90
       21
 70
     0
 43
0.0
 10
56.93838158445117
 20
19.50062295692037
 42
-0.0048618612462887
 10
56.85399324240692
 20
19.56810586081853
 42
-0.0159220866627171
 10
56.77590596662162
 20
19.63593102927994
 42
-0.0316213159992946
 10
56.71042082335425
 20
19.70444072686792
 42
-0.0567842712422003
 10
56.66383887886379
 20
19.77397721814569
 42
-0.0931917315391681
 10
56.64246119940919
 20
19.84488276767655
 42
-0.1064320892720233
 10
56.65316143753661
 20
19.92511484620012
 42
-0.0663654137226011
 10
56.69525988795586
 20
20.00662302629153
 42
-0.0380435243000801
 10
56.7616002578156
 20
20.08858918604553
 42
-0.0214199023664406
 10
56.8450262542645
 20
20.17019520355689
 42
-0.0108509376102281
 10
56.93838158445117
 20
20.25062295692037
 42
-0.0008342913567137
 10
57.03676316044157
 20
20.33128651641904
 42
0.0121301299766322
 10
57.12887911850554
 20
20.41021193104631
 42
0.0292394302383237
 10
57.20554333434296
 20
20.48776360631917
 42
0.0621825783784902
 10
57.25756968365356
 20
20.5643059477546
 42
0.1192546258046148
 10
57.2757720421371
 20
20.64020336086958
 42
0.1353309634368961
 10
57.25565621456687
 20
20.71259618869408
 42
0.0407063614459909
 10
57.203965544352
 20
20.78478307744235
 42
0.0526750325826472
 10
57.12859374215365
 20
20.85681551188345
 42
0.0159276811301964
 10
57.037434518633
 20
20.92874497678644
 42
0.0042210347192063
 10
56.93838158445117
 20
21.00062295692036
  0
LWPOLYLINE
  5
191
330
1E
100
AcDbEntity
  8
1
 62
     3
100
AcDbPolyline
 90
       11
 70
     0
 43
0.0
 10
56.93838158445117
 20
19.50062295692037
 42
0.0048614664592641
 10
57.03812682526409
 20
19.57531125376439
 42
0.0156346829458716
 10
57.12980527875806
 20
19.65001328284849
 42
0.032505999370735
 10
57.20535015761416
 20
19.72474277641281
 42
0.0621276274759197
 10
57.25669467451347
 20
19.79951346669744
 42
0.1144985560865836
 10
57.2757720421371
 20
19.87433908594248
 42
0.1335682305667918
 10
57.25706237421224
 20
19.9495128407555
 42
0.0441704840169194
 10
57.20584042387915
 20
20.02474194182355
 42
0.0508240867978065
 10
57.13023426173993
 20
20.10001255258289
 42
0.0162401925131857
 10
57.0383719583966
 20
20.17531083646976
 42
0.004305349855506
 10
56.93838158445117
 20
20.25062295692037
  0
LWPOLYLINE
  5
19E
330
1E
100
AcDbEntity
  8
1
 62
     7
100
AcDbPolyline
 90
       11
 70
     0
 43
0.0
 10
37.63696045245369
 20
9.90100896934234
 42
-0.0050230340533188
 10
37.68956836196296
 20
9.94705576267833
 42
-0.0161621746887868
 10
37.74217627147221
 20
9.989369032230316
 42
-0.0308422399190938
 10
37.79478418098145
 20
10.02421525421431
 42
-0.0516888432709171
 10
37.84739209049073
 20
10.0478609048463
 42
-0.0777218786605439
 10
37.89999999999999
 20
10.0565724603423
 42
-0.0777218786605441
 10
37.95260790950925
 20
10.0478609048463
 42
-0.0516888432709941
 10
38.0052158190185
 20
10.02421525421431
 42
-0.0308422399190938
 10
38.05782372852777
 20
9.989369032230316
 42
-0.0161621746887932
 10
38.11043163803703
 20
9.94705576267833
 42
-0.0050230340532803
 10
38.16303954754629
 20
9.90100896934234
  0
LWPOLYLINE
  5
1AB
330
1E
100
AcDbEntity
  8
1
 62
     7
100
AcDbPolyline
 90
       11
 70
     0
 43
0.0
 10
37.63696045245369
 20
10.65212896934224
 42
0.0050230340532823
 10
37.68956836196296
 20
10.60608217600627
 42
0.0157904664878462
 10
37.74217627147221
 20
10.5637689064543
 42
0.0303899331173807
 10
37.79478418098145
 20
10.52892268447033
 42
0.0509703158758586
 10
37.84739209049073
 20
10.50527703383834
 42
0.0783876334464939
 10
37.89999999999999
 20
10.49656547834235
 42
0.0860889126351999
 10
37.95260790950925
 20
10.50527703383834
 42
0.0433037745371589
 10
38.0052158190185
 20
10.52892268447033
 42
0.0380484352964812
 10
38.05782372852777
 20
10.5637689064543
 42
0.0081398263029587
 10
38.11043163803703
 20
10.60608217600627
 42
0.0126731779754926
 10
38.16303954754629
 20
10.65212896934224
  0
LWPOLYLINE
  5
1B8
330
1E
100
AcDbEntity
  8
1
 62
     7
100
AcDbPolyline
 90
       11
 70
     0
 43
0.0
 10
37.40273016999998
 20
10.53690349442746
 42
-0.0049435503506751
 10
37.46785016999996
 20
10.48483658941046
 42
-0.0163910530146796
 10
37.52769016999998
 20
10.43276968439346
 42
-0.033465012769679
 10
37.57697016999996
 20
10.38070277937646
 42
-0.0629217586352539
 10
37.61041016999996
 20
10.32863587435946
 42
-0.1081050938959488
 10
37.62273016999996
 20
10.27656896934246
 42
-0.1081050938959642
 10
37.61041016999996
 20
10.22450206432546
 42
-0.0629217586352714
 10
37.57697016999996
 20
10.17243515930846
 42
-0.033465012769688
 10
37.52769016999998
 20
10.12036825429146
 42
-0.0163910530148682
 10
37.46785016999996
 20
10.06830134927446
 42
-0.0049435503506398
 10
37.40273016999998
 20
10.01623444425746
  0
LWPOLYLINE
  5
1C5
330
1E
100
AcDbEntity
  8
1
 62
     7
100
AcDbPolyline
 90
       11
 70
     0
 43
0.0
 10
38.39726982999999
 20
10.53690349442746
 42
0.0049435503507295
 10
38.33214982999999
 20
10.48483658941046
 42
0.0158481821858113
 10
38.27230982999999
 20
10.43276968439346
 42
0.0325850315990599
 10
38.22302982999997
 20
10.38070277937646
 42
0.0610011161532048
 10
38.18958982999999
 20
10.32863587435946
 42
0.1087818681913919
 10
38.17726982999999
 20
10.27656896934246
 42
0.1246288432865336
 10
38.18958983
 20
10.22450206432546
 42
0.0453228836069613
 10
38.22302982999997
 20
10.17243515930846
 42
0.048244616365649
 10
38.27230982999999
 20
10.12036825429146
 42
0.0002131236576117
 10
38.33214982999999
 20
10.06830134927446
 42
0.0205801467594528
 10
38.39726982999999
 20
10.01623444425746
  0
LWPOLYLINE
  5
1D2
330
1E
100
AcDbEntity
  8
1
 62
     7
100
AcDbPolyline
 90
      128
 70
     1
 43
0.0
 10
40.14999999999999
 20
10.27656896934246
 42
-0.0280466288770138
 10
40.14440843200509
 20
10.17730232411482
 42
-0.0405133719754446
 10
40.11581744427746
 20
10.03099336140434
 42
-0.0135691643985215
 10
40.10045417872006
 20
9.981423477585943
 42
-0.0130409930688821
 10
40.08247719079018
 20
9.932743787276887
 42
-0.0125385318731823
 10
40.06203093088809
 20
9.885037647141235
 42
-0.0120699116688027
 10
40.03925984941407
 20
9.838388413843043
 42
-0.0116413716240787
 10
40.01430839676827
 20
9.792879444046377
 42
-0.0120123818588609
 10
39.98522357044156
 20
9.745321438182786
 42
-0.0114452501614236
 10
39.95394662845552
 20
9.699188721302167
 42
-0.0108912176704252
 10
39.92063697580753
 20
9.654493281764258
 42
-0.0103574513132605
 10
39.88545401749492
 20
9.611247107928813
 42
-0.0098493400640934
 10
39.84855715851499
 20
9.569462188155569
 42
-0.0101959041981942
 10
39.80669429915913
 20
9.52571932382601
 42
-0.0097133310524999
 10
39.76313150525518
 20
9.483685385373355
 42
-0.0092380223215744
 10
39.71800442487943
 20
9.443329661669745
 42
-0.0087744753918453
 10
39.67144870610816
 20
9.404621441587327
 42
-0.0083261095259197
 10
39.62359999701769
 20
9.367530013998248
 42
-0.0086015798267278
 10
39.57043857747763
 20
9.32912699954306
 42
-0.0082347204663099
 10
39.51602168069412
 20
9.292540301728733
 42
-0.0078725841841281
 10
39.46045270615834
 20
9.257723962592457
 42
-0.0075176373220739
 10
39.40383505336146
 20
9.224632024171407
 42
-0.007171814937944
 10
39.34627212179468
 20
9.193218528502766
 42
-0.0073731658347549
 10
39.28364786551533
 20
9.161368828194362
 42
-0.0071131304904412
 10
39.22013269817889
 20
9.131349130429383
 42
-0.0068565789150743
 10
39.15580244680263
 20
9.103114839763376
 42
-0.0066048080501595
 10
39.09073293840392
 20
9.076621360751907
 42
-0.0063588792780631
 10
39.02499999999999
 20
9.051824097950543
 42
-0.0128792548321413
 10
38.88438848952799
 20
9.004879195084187
 42
-0.0122039625282983
 10
38.74160837213967
 20
8.965010903835969
 42
-0.0117837801599862
 10
38.59440701794529
 20
8.931389918931172
 42
-0.0115733976528216
 10
38.44309915862674
 20
8.904166476705496
 42
-0.0112015287762482
 10
38.29070839975059
 20
8.883840488702389
 42
-0.033186916919597
 10
37.82170635948006
 20
8.863209870501046
 42
-0.0275485415390908
 10
37.43298276592417
 20
8.893152247963582
 42
-0.0113228163126615
 10
37.28108964171179
 20
8.91690506900306
 42
-0.0117023278925748
 10
37.13045467751729
 20
8.94764292056476
 42
-0.0117694259153377
 10
36.98675854062785
 20
8.984077986408587
 42
-0.012426249156502
 10
36.84500663204529
 20
9.027449556664317
 42
-0.0127787244222791
 10
36.70926706159606
 20
9.076621360751907
 42
-0.0066048080501385
 10
36.64419755319733
 20
9.103114839763373
 42
-0.0068565789149455
 10
36.57986730182108
 20
9.131349130429381
 42
-0.0071131304903541
 10
36.51635213448464
 20
9.161368828194362
 42
-0.0073731658348464
 10
36.45372787820529
 20
9.193218528502766
 42
-0.0071718149380217
 10
36.3961649466385
 20
9.224632024171404
 42
-0.0075176373220506
 10
36.33954729384163
 20
9.257723962592457
 42
-0.0078725841841849
 10
36.28397831930586
 20
9.292540301728733
 42
-0.0082347204663326
 10
36.22956142252235
 20
9.329126999543056
 42
-0.0086015798265785
 10
36.17640000298228
 20
9.367530013998248
 42
-0.0083261095259661
 10
36.12855129389181
 20
9.404621441587327
 42
-0.0087744753917958
 10
36.08199557512056
 20
9.443329661669745
 42
-0.0092380223215054
 10
36.03686849474478
 20
9.483685385373354
 42
-0.0097133310523126
 10
35.99330570084084
 20
9.52571932382601
 42
-0.0101959041981941
 10
35.95144284148499
 20
9.569462188155569
 42
-0.0098493400641143
 10
35.91454598250506
 20
9.611247107928813
 42
-0.0103574513131994
 10
35.87936302419242
 20
9.654493281764258
 42
-0.0108912176703206
 10
35.84605337154442
 20
9.699188721302167
 42
-0.0114452501614946
 10
35.81477642955842
 20
9.745321438182786
 42
-0.0120123818589717
 10
35.78569160323167
 20
9.792879444046377
 42
-0.0116413716241965
 10
35.76074015058589
 20
9.838388413843043
 42
-0.0120699116685567
 10
35.73796906911185
 20
9.885037647141235
 42
-0.0125385318731796
 10
35.71752280920978
 20
9.932743787276887
 42
-0.0130409930690124
 10
35.69954582127992
 20
9.981423477585943
 42
-0.0268228268515904
 10
35.67203998110143
 20
10.0792201383756
 42
-0.0406938917944341
 10
35.65140808858863
 20
10.2268616180106
 42
-0.0562129056205284
 10
35.66248925867903
 20
10.42509879359358
 42
-0.0405875530515467
 10
35.69954582127992
 20
10.57171446109862
 42
-0.0130409930690279
 10
35.71752280920978
 20
10.62039415140765
 42
-0.0125385318731601
 10
35.73796906911185
 20
10.66810029154326
 42
-0.012069911668562
 10
35.76074015058589
 20
10.71474952484144
 42
-0.0116413716242014
 10
35.78569160323167
 20
10.76025849463809
 42
-0.0120123818590794
 10
35.81477642955842
 20
10.80781650050166
 42
-0.0114452501611478
 10
35.84605337154446
 20
10.85394921738225
 42
-0.0108912176703228
 10
35.87936302419242
 20
10.89864465692016
 42
-0.0103574513131409
 10
35.91454598250507
 20
10.94189083075558
 42
-0.0098493400637836
 10
35.95144284148499
 20
10.98367575052885
 42
-0.0101959041981277
 10
35.99330570084084
 20
11.02741861485844
 42
-0.0097133310523476
 10
36.03686849474478
 20
11.06945255331115
 42
-0.0092380223214679
 10
36.08199557512053
 20
11.10980827701482
 42
-0.0087744753920373
 10
36.12855129389181
 20
11.14851649709729
 42
-0.0083261095259357
 10
36.17640000298228
 20
11.18560792468639
 42
-0.0086015798267737
 10
36.22956142252235
 20
11.22401093914155
 42
-0.0082347204663377
 10
36.28397831930585
 20
11.2605976369558
 42
-0.0078725841839705
 10
36.33954729384163
 20
11.29541397609202
 42
-0.0075176373219968
 10
36.3961649466385
 20
11.32850591451304
 42
-0.0071718149378479
 10
36.45372787820529
 20
11.35991941018165
 42
-0.0073731658348022
 10
36.51635213448464
 20
11.39176911049005
 42
-0.007113130490371
 10
36.5798673018211
 20
11.42178880825508
 42
-0.0068565789150315
 10
36.64419755319732
 20
11.45002309892112
 42
-0.0066048080501317
 10
36.70926706159603
 20
11.47651657793262
 42
-0.0063588792781673
 10
36.77499999999999
 20
11.50131384073399
 42
-0.0128792548323075
 10
36.91561151047203
 20
11.54825874360023
 42
-0.0122039625282309
 10
37.05839162786038
 20
11.58812703484834
 42
-0.0117837801596686
 10
37.20559298205478
 20
11.62174801975315
 42
-0.0115733976526641
 10
37.35690084137329
 20
11.64897146197896
 42
-0.0112015287762988
 10
37.50929160024938
 20
11.66929744998224
 42
-0.0331869169199421
 10
37.9782936405199
 20
11.68992806818376
 42
-0.0275485415393033
 10
38.36701723407582
 20
11.65998569072097
 42
-0.0113228163126377
 10
38.51891035828824
 20
11.63623286968131
 42
-0.0117023278924261
 10
38.66954532248279
 20
11.60549501811954
 42
-0.0117694259151154
 10
38.81324145937218
 20
11.56905995227577
 42
-0.0124262491564753
 10
38.95499336795471
 20
11.52568838202018
 42
-0.0127787244225315
 10
39.09073293840392
 20
11.47651657793262
 42
-0.006604808050169
 10
39.15580244680263
 20
11.45002309892112
 42
-0.0068565789149453
 10
39.22013269817888
 20
11.42178880825508
 42
-0.0071131304902815
 10
39.28364786551532
 20
11.39176911049005
 42
-0.007373165834663
 10
39.34627212179468
 20
11.35991941018165
 42
-0.0071718149380049
 10
39.40383505336146
 20
11.32850591451304
 42
-0.0075176373221065
 10
39.46045270615835
 20
11.29541397609205
 42
-0.0078725841842561
 10
39.51602168069414
 20
11.26059763695583
 42
-0.0082347204664565
 10
39.57043857747765
 20
11.22401093914155
 42
-0.0086015798266482
 10
39.62359999701769
 20
11.18560792468639
 42
-0.0083261095261291
 10
39.67144870610817
 20
11.14851649709728
 42
-0.0087744753918874
 10
39.71800442487943
 20
11.1098082770148
 42
-0.0092380223213916
 10
39.76313150525515
 20
11.06945255331114
 42
-0.0097133310523275
 10
39.8066942991591
 20
11.02741861485843
 42
-0.0101959041981075
 10
39.84855715851499
 20
10.98367575052885
 42
-0.0098493400638494
 10
39.8854540174949
 20
10.94189083075568
 42
-0.0103574513132139
 10
39.92063697580753
 20
10.89864465692032
 42
-0.0108912176703344
 10
39.95394662845552
 20
10.85394921738251
 42
-0.0114452501615975
 10
39.98522357044156
 20
10.80781650050199
 42
-0.0120123818590208
 10
40.01430839676827
 20
10.76025849463849
 42
-0.0116413716243295
 10
40.03925984941409
 20
10.71474952484183
 42
-0.0120699116688314
 10
40.06203093088814
 20
10.66810029154363
 42
-0.0125385318733035
 10
40.08247719079021
 20
10.62039415140796
 42
-0.0130409930690201
 10
40.10045417872006
 20
10.57171446109889
 42
-0.0268228268514204
 10
40.12796001889849
 20
10.47391780030921
 42
-0.0406938917942415
 10
40.14859191141131
 20
10.32627632067429
 42
-0.0141117260793755
  0
LWPOLYLINE
  5
254
330
1E
100
AcDbEntity
  8
1
 62
     7
100
AcDbPolyline
 90
      128
 70
     1
 43
0.0
 10
40.14999999999999
 20
-10.27656896934275
 42
0.028046628877124
 10
40.14440843200509
 20
-10.17730232411514
 42
0.0403395215939617
 10
40.11581744427746
 20
-10.03099336140474
 42
0.0134631185948792
 10
40.10045417872006
 20
-9.981423477586327
 42
0.0131451143042654
 10
40.08247719079018
 20
-9.932743787277257
 42
0.0124307821178965
 10
40.06203093088813
 20
-9.885037647141587
 42
0.0121726903658741
 10
40.03925984941409
 20
-9.838388413843391
 42
0.0115325914831178
 10
40.01430839676827
 20
-9.79287944404672
 42
0.0121494091742456
 10
39.98522357044156
 20
-9.74532143818318
 42
0.0113078188444312
 10
39.95394662845552
 20
-9.699188721302613
 42
0.01102673932539
 10
39.92063697580753
 20
-9.654493281764754
 42
0.0102188549150462
 10
39.88545401749492
 20
-9.611247107929347
 42
0.0099839830516951
 10
39.84855715851499
 20
-9.569462188156135
 42
0.0100601967561496
 10
39.80669429915913
 20
-9.52571932382655
 42
0.0098489213554589
 10
39.76313150525515
 20
-9.483685385373851
 42
0.0091013814860163
 10
39.71800442487943
 20
-9.443329661670203
 42
0.0089093269112052
 10
39.67144870610817
 20
-9.404621441587748
 42
0.0081889138065604
 10
39.62359999701769
 20
-9.367530013998646
 42
0.0087271544966062
 10
39.57043857747764
 20
-9.329126999543476
 42
0.0081089932037241
 10
39.51602168069412
 20
-9.292540301729188
 42
0.0079976499935088
 10
39.46045270615835
 20
-9.257723962592956
 42
0.0073915016759861
 10
39.40383505336146
 20
-9.224632024171944
 42
0.0072965587450678
 10
39.34627212179468
 20
-9.193218528503335
 42
0.0072353933681859
 10
39.28364786551532
 20
-9.161368828194932
 42
0.0072506968367955
 10
39.22013269817888
 20
-9.131349130429931
 42
0.0067185445165182
 10
39.15580244680263
 20
-9.103114839763906
 42
0.0067421535592591
 10
39.09073293840392
 20
-9.076621360752424
 42
0.0062206657050681
 10
39.02499999999999
 20
-9.051824097951056
 42
0.0130344676311919
 10
38.88438848952799
 20
-9.004879195084754
 42
0.0119335600510482
 10
38.74160837213967
 20
-8.965010903836567
 42
0.0119394365904991
 10
38.59440701794529
 20
-8.931389918931655
 42
0.0113282223923943
 10
38.44309915862673
 20
-8.904166476705752
 42
0.0113818587795977
 10
38.29070839975059
 20
-8.883840488702501
 42
0.0329495937226534
 10
37.82170635948006
 20
-8.863209870501417
 42
0.0274870516439642
 10
37.43298276592417
 20
-8.893152247963742
 42
0.0116436768160965
 10
37.28108964171179
 20
-8.916905069003432
 42
0.0114421317327245
 10
37.13045467751729
 20
-8.947642920565328
 42
0.0120745714898381
 10
36.98675854062786
 20
-8.984077986409186
 42
0.0122266961570028
 10
36.84500663204528
 20
-9.027449556664851
 42
0.0130865670459152
 10
36.70926706159607
 20
-9.076621360752424
 42
0.0064710881123818
 10
36.64419755319733
 20
-9.103114839763904
 42
0.0069896108663026
 10
36.5798673018211
 20
-9.131349130429928
 42
0.0069796294984234
 10
36.51635213448464
 20
-9.161368828194932
 42
0.0075064617108401
 10
36.45372787820529
 20
-9.193218528503335
 42
0.0070254912292198
 10
36.39616494663849
 20
-9.224632024171947
 42
0.0076625706489813
 10
36.33954729384162
 20
-9.257723962592956
 42
0.0077265796228174
 10
36.28397831930585
 20
-9.292540301729193
 42
0.0083800652439959
 10
36.22956142252235
 20
-9.329126999543476
 42
0.0084560808723481
 10
36.17640000298228
 20
-9.367530013998646
 42
0.0084599862058596
 10
36.12855129389181
 20
-9.404621441587748
 42
0.0086382524293265
 10
36.08199557512056
 20
-9.443329661670203
 42
0.0093724582288837
 10
36.03686849474481
 20
-9.483685385373851
 42
0.0095778421652215
 10
35.99330570084084
 20
-9.52571932382655
 42
0.0103312785493916
 10
35.95144284148499
 20
-9.569462188156135
 42
0.0097129031453681
 10
35.91454598250507
 20
-9.611247107929347
 42
0.0104899375919016
 10
35.87936302419242
 20
-9.654493281764754
 42
0.0107556535573167
 10
35.84605337154446
 20
-9.699188721302613
 42
0.011578907955247
 10
35.81477642955842
 20
-9.74532143818318
 42
0.0118783164360447
 10
35.78569160323167
 20
-9.79287944404672
 42
0.0118036820021262
 10
35.76074015058589
 20
-9.838388413843391
 42
0.0119015974757834
 10
35.73796906911184
 20
-9.885037647141587
 42
0.012701878537119
 10
35.71752280920978
 20
-9.932743787277257
 42
0.012874014812412
 10
35.69954582127992
 20
-9.981423477586327
 42
0.0269251898772449
 10
35.67203998110146
 20
-10.07922013837599
 42
0.0407680773251605
 10
35.65140808858866
 20
-10.22686161801092
 42
0.0566572447602567
 10
35.66248925867903
 20
-10.425098793594
 42
0.0392840898624509
 10
35.69954582127992
 20
-10.57171446109913
 42
0.0138343504433799
 10
35.71752280920978
 20
-10.62039415140815
 42
0.0117415707158904
 10
35.73796906911185
 20
-10.66810029154376
 42
0.0128619090774365
 10
35.76074015058589
 20
-10.71474952484192
 42
0.0108433944863487
 10
35.78569160323167
 20
-10.76025849463855
 42
0.0128386274846864
 10
35.81477642955844
 20
-10.80781650050209
 42
0.0106186252785751
 10
35.84605337154446
 20
-10.85394921738268
 42
0.0117159391726171
 10
35.87936302419242
 20
-10.89864465692058
 42
0.0095296769858541
 10
35.91454598250507
 20
-10.941890830756
 42
0.0106731673056946
 10
35.95144284148499
 20
-10.98367575052922
 42
0.0093710209689361
 10
35.99330570084084
 20
-11.02741861485884
 42
0.0105381036993462
 10
36.03686849474478
 20
-11.06945255331152
 42
0.0084122179040432
 10
36.08199557512055
 20
-11.10980827701519
 42
0.0095984966630526
 10
36.12855129389181
 20
-11.14851649709764
 42
0.0074997606630744
 10
36.17640000298228
 20
-11.18560792468674
 42
0.0094163219480307
 10
36.22956142252235
 20
-11.22401093914191
 42
0.0074198409197027
 10
36.28397831930585
 20
-11.26059763695617
 42
0.008686808690864
 10
36.33954729384162
 20
-11.2954139760924
 42
0.006702356715079
 10
36.39616494663849
 20
-11.32850591451343
 42
0.0079857097203412
 10
36.45372787820529
 20
-11.35991941018203
 42
0.0065462499066253
 10
36.51635213448464
 20
-11.39176911049043
 42
0.0079398473305686
 10
36.5798673018211
 20
-11.42178880825543
 42
0.0060294057793645
 10
36.64419755319733
 20
-11.45002309892148
 42
0.0074312989078409
 10
36.70926706159606
 20
-11.47651657793296
 42
0.0055315311708143
 10
36.77499999999999
 20
-11.50131384073433
 42
0.0137237017222185
 10
36.91561151047203
 20
-11.54825874360063
 42
0.0112443567605121
 10
37.05839162786038
 20
-11.58812703484882
 42
0.0126286513160385
 10
37.20559298205478
 20
-11.62174801975369
 42
0.0106390285177679
 10
37.35690084137328
 20
-11.64897146197956
 42
0.0120710642792778
 10
37.50929160024938
 20
-11.66929744998282
 42
0.0322597504132199
 10
37.9782936405199
 20
-11.68992806818406
 42
0.0281766961788083
 10
38.36701723407582
 20
-11.65998569072157
 42
0.0109544780969776
 10
38.51891035828825
 20
-11.63623286968189
 42
0.0121313382098024
 10
38.66954532248279
 20
-11.60549501812005
 42
0.0113853659328167
 10
38.81324145937218
 20
-11.56905995227621
 42
0.0129159158033718
 10
38.95499336795471
 20
-11.52568838202054
 42
0.012397344422755
 10
39.09073293840392
 20
-11.47651657793296
 42
0.0071602308647281
 10
39.15580244680263
 20
-11.45002309892147
 42
0.0063004696965613
 10
39.22013269817888
 20
-11.42178880825543
 42
0.0076687772060392
 10
39.28364786551532
 20
-11.39176911049043
 42
0.0068173156234894
 10
39.34627212179468
 20
-11.35991941018203
 42
0.0077146394012762
 10
39.40383505336146
 20
-11.32850591451343
 42
0.0069734230039827
 10
39.46045270615835
 20
-11.2954139760924
 42
0.008415735254921
 10
39.51602168069412
 20
-11.26059763695617
 42
0.0076909100077942
 10
39.57043857747763
 20
-11.22401093914191
 42
0.0091452449860681
 10
39.62359999701769
 20
-11.18560792468674
 42
0.0077708300801559
 10
39.67144870610818
 20
-11.14851649709764
 42
0.0093274187756869
 10
39.71800442487943
 20
-11.10980827701519
 42
0.0086832913234879
 10
39.76313150525518
 20
-11.06945255331152
 42
0.0102670207525286
 10
39.80669429915913
 20
-11.02741861485884
 42
0.0096420990805624
 10
39.84855715851499
 20
-10.98367575052922
 42
0.0104020835921919
 10
39.88545401749492
 20
-10.941890830756
 42
0.0098007559220856
 10
39.92063697580753
 20
-10.89864465692058
 42
0.0114448492074738
 10
39.95394662845552
 20
-10.85394921738268
 42
0.010889710241751
 10
39.98522357044155
 20
-10.80781650050209
 42
0.0125675301300901
 10
40.01430839676827
 20
-10.76025849463855
 42
0.0111144807734707
 10
40.03925984941407
 20
-10.71474952484192
 42
0.012590811562476
 10
40.06203093088809
 20
-10.66810029154376
 42
0.0120126625673564
 10
40.08247719079017
 20
-10.62039415140815
 42
0.0135632459631582
 10
40.10045417872004
 20
-10.57171446109913
 42
0.0262355922679397
 10
40.12796001889852
 20
-10.4739178003095
 42
0.0414583528673574
 10
40.14859191141131
 20
-10.32627632067458
 42
0.0138282909574215
  0
LWPOLYLINE
  5
2D6
330
1E
100
AcDbEntity
  8
1
 62
     7
100
AcDbPolyline
 90
       11
 70
     0
 43
0.0
 10
38.39726982999999
 20
-10.5369034944278
 42
-0.0049435503507449
 10
38.33214982999999
 20
-10.4848365894108
 42
-0.0163910530148138
 10
38.27230982999999
 20
-10.4327696843938
 42
-0.0334650127698321
 10
38.22302982999997
 20
-10.3807027793768
 42
-0.062921758635122
 10
38.18958982999999
 20
-10.3286358743598
 42
-0.1081050938955452
 10
38.17726982999999
 20
-10.2765689693428
 42
-0.1081050938959488
 10
38.18958983
 20
-10.2245020643258
 42
-0.0629217586352562
 10
38.22302982999997
 20
-10.1724351593088
 42
-0.0334650127697603
 10
38.27230982999999
 20
-10.12036825429181
 42
-0.0163910530147502
 10
38.33214982999999
 20
-10.06830134927481
 42
-0.0049435503507297
 10
38.39726982999999
 20
-10.0162344442578
  0
LWPOLYLINE
  5
2E3
330
1E
100
AcDbEntity
  8
1
 62
     7
100
AcDbPolyline
 90
       11
 70
     0
 43
0.0
 10
37.40273016999998
 20
-10.5369034944278
 42
0.0049435503506916
 10
37.46785016999996
 20
-10.4848365894108
 42
0.0158481821858595
 10
37.52769016999998
 20
-10.4327696843938
 42
0.0325850315990198
 10
37.57697016999996
 20
-10.3807027793768
 42
0.0610011161533013
 10
37.61041016999996
 20
-10.3286358743598
 42
0.1087818681911619
 10
37.62273016999996
 20
-10.2765689693428
 42
0.1246288432868219
 10
37.61041016999996
 20
-10.2245020643258
 42
0.0453228836067105
 10
37.57697016999996
 20
-10.1724351593088
 42
0.0482446163659134
 10
37.52769016999998
 20
-10.12036825429181
 42
0.0002131236573295
 10
37.46785016999996
 20
-10.06830134927481
 42
0.0205801467597267
 10
37.40273016999998
 20
-10.0162344442578
  0
LWPOLYLINE
  5
2F0
330
1E
100
AcDbEntity
  8
1
 62
     7
100
AcDbPolyline
 90
       11
 70
     0
 43
0.0
 10
37.63696045245369
 20
-10.65212896934276
 42
-0.0050230340532824
 10
37.68956836196296
 20
-10.60608217600677
 42
-0.0161621746888536
 10
37.74217627147221
 20
-10.56376890645482
 42
-0.0308422399190525
 10
37.79478418098145
 20
-10.52892268447082
 42
-0.0516888432708686
 10
37.84739209049073
 20
-10.50527703383886
 42
-0.0777218786605765
 10
37.89999999999999
 20
-10.49656547834284
 42
-0.0777218786605126
 10
37.95260790950925
 20
-10.50527703383886
 42
-0.0516888432710017
 10
38.0052158190185
 20
-10.52892268447082
 42
-0.0308422399190525
 10
38.05782372852777
 20
-10.56376890645482
 42
-0.016162174688859
 10
38.11043163803703
 20
-10.60608217600677
 42
-0.0050230340532818
 10
38.16303954754629
 20
-10.65212896934276
  0
LWPOLYLINE
  5
2FD
330
1E
100
AcDbEntity
  8
1
 62
     7
100
AcDbPolyline
 90
       11
 70
     0
 43
0.0
 10
37.63696045245369
 20
-9.901008969342626
 42
0.0050230340533045
 10
37.68956836196296
 20
-9.947055762678564
 42
0.0157904664878465
 10
37.74217627147221
 20
-9.989369032230504
 42
0.030389933117348
 10
37.79478418098145
 20
-10.02421525421443
 42
0.0509703158758664
 10
37.84739209049073
 20
-10.04786090484641
 42
0.0783876334464327
 10
37.89999999999999
 20
-10.05657246034241
 42
0.0860889126351149
 10
37.95260790950925
 20
-10.04786090484641
 42
0.0433037745371976
 10
38.0052158190185
 20
-10.02421525421446
 42
0.0380484352964262
 10
38.05782372852777
 20
-9.989369032230504
 42
0.0081398263029803
 10
38.11043163803703
 20
-9.947055762678564
 42
0.0126731779754727
 10
38.16303954754629
 20
-9.901008969342626
  0
LWPOLYLINE
  5
30A
330
1E
100
AcDbEntity
  8
1
 62
     3
100
AcDbPolyline
 90
       21
 70
     0
 43
0.0
 10
143.1999999999983
 20
25.52727383911598
 42
-0.0051469273398597
 10
143.2821899071678
 20
25.60982400649459
 42
-0.0169556804144208
 10
143.3639589522852
 20
25.6851535560606
 42
-0.0340746503333423
 10
143.444886273299
 20
25.74604187000142
 42
-0.0620761823785316
 10
143.5245510081573
 20
25.78526833050446
 42
-0.1016143095177927
 10
143.6025322948085
 20
25.79561231975714
 42
-0.0922664717337142
 10
143.6731022584381
 20
25.77515149133825
 42
-0.055563204180307
 10
143.7424992292732
 20
25.73012739638155
 42
-0.0297799532878623
 10
143.8113579888124
 20
25.66699226905592
 42
-0.0133021992379366
 10
143.8803133185545
 20
25.59219834353017
 42
-0.0012018211914598
 10
143.9499999999983
 20
25.51219785397319
 42
0.008686167966666
 10
144.0211223841263
 20
25.4330891882311
 42
0.0184589755278376
 10
144.0932925268139
 20
25.3610885409093
 42
0.0332755434333482
 10
144.1661832705661
 20
25.30205025189115
 42
0.0562092700295336
 10
144.2394674578869
 20
25.26182866105999
 42
0.0906191798275579
 10
144.3128179312805
 20
25.24627810829918
 42
0.1083099164436142
 10
144.3906084159961
 20
25.26104630686643
 42
0.0484444431071157
 10
144.4681628533971
 20
25.30343513716441
 42
0.0435907196158981
 10
144.5455402553122
 20
25.36653944126046
 42
0.005945679290492
 10
144.6227996335696
 20
25.44345406122188
 42
0.0157168041939501
 10
144.6999999999984
 20
25.52727383911598
  0
LWPOLYLINE
  5
321
330
1E
100
AcDbEntity
  8
1
 62
     3
100
AcDbPolyline
 90
       11
 70
     0
 43
0.0
 10
143.9499999999983
 20
25.51219785397319
 42
-0.0050910077449338
 10
144.0250711855508
 20
25.59603851057449
 42
-0.0167030579609289
 10
144.1002152600835
 20
25.67308972631467
 42
-0.0332689370665338
 10
144.1755051125771
 20
25.73656206033259
 42
-0.0597691573425166
 10
144.251013632012
 20
25.77966607176712
 42
-0.0967495880651147
 10
144.3268137073685
 20
25.79561231975714
 42
-0.0938183764548628
 10
144.4010353475534
 20
25.7806585160482
 42
-0.0580410767640013
 10
144.4755340666326
 20
25.73989545072639
 42
-0.0325028248855062
 10
144.5502405948821
 20
25.67977543919495
 42
-0.0163930082443787
 10
144.6250856625786
 20
25.60675079685708
 42
-0.0050076482866397
 10
144.6999999999984
 20
25.52727383911598
  0
LWPOLYLINE
  5
32E
330
1E
100
AcDbEntity
  8
1
 62
     3
100
AcDbPolyline
 90
       21
 70
     0
 43
0.0
 10
138.6999999999984
 20
25.52727383911598
 42
-0.0051469273395139
 10
138.7821899071676
 20
25.60982400649459
 42
-0.0169556804144208
 10
138.8639589522852
 20
25.6851535560606
 42
-0.0340746503333423
 10
138.944886273299
 20
25.74604187000142
 42
-0.0620761823785316
 10
139.0245510081574
 20
25.78526833050446
 42
-0.1016143095177927
 10
139.1025322948084
 20
25.79561231975714
 42
-0.0922664717337181
 10
139.1731022584382
 20
25.77515149133825
 42
-0.055563204180472
 10
139.242499229273
 20
25.73012739638155
 42
-0.0297799532878623
 10
139.3113579888124
 20
25.66699226905592
 42
-0.0133021992379366
 10
139.3803133185544
 20
25.59219834353017
 42
-0.0012018211914598
 10
139.4499999999984
 20
25.51219785397319
 42
0.008686167966666
 10
139.5211223841263
 20
25.4330891882311
 42
0.0184589755278376
 10
139.593292526814
 20
25.3610885409093
 42
0.0332755434333482
 10
139.6661832705661
 20
25.30205025189115
 42
0.0562092700295336
 10
139.7394674578869
 20
25.26182866105999
 42
0.0906191798275579
 10
139.8128179312805
 20
25.24627810829918
 42
0.1083099164436142
 10
139.8906084159962
 20
25.26104630686643
 42
0.0484444431071157
 10
139.9681628533973
 20
25.30343513716441
 42
0.0435907196158981
 10
140.0455402553122
 20
25.36653944126046
 42
0.005945679290492
 10
140.1227996335695
 20
25.44345406122188
 42
0.0157168041939501
 10
140.1999999999983
 20
25.52727383911598
  0
LWPOLYLINE
  5
345
330
1E
100
AcDbEntity
  8
1
 62
     3
100
AcDbPolyline
 90
       11
 70
     0
 43
0.0
 10
139.4499999999984
 20
25.51219785397319
 42
-0.0050910077449338
 10
139.5250711855508
 20
25.59603851057449
 42
-0.0167030579605511
 10
139.6002152600835
 20
25.67308972631467
 42
-0.0332689370665338
 10
139.675505112577
 20
25.73656206033259
 42
-0.0597691573425166
 10
139.751013632012
 20
25.77966607176712
 42
-0.0967495880651147
 10
139.8268137073685
 20
25.79561231975714
 42
-0.0938183764548628
 10
139.9010353475536
 20
25.7806585160482
 42
-0.0580410767640013
 10
139.9755340666326
 20
25.73989545072639
 42
-0.0325028248855062
 10
140.0502405948819
 20
25.67977543919495
 42
-0.0163930082443787
 10
140.1250856625786
 20
25.60675079685708
 42
-0.0050076482866397
 10
140.1999999999983
 20
25.52727383911598
  0
LWPOLYLINE
  5
352
330
1E
100
AcDbEntity
  8
1
 62
     7
100
AcDbPolyline
 90
       74
 70
     1
 43
0.0
 10
107.6999999999996
 20
16.97056274847705
 42
0.0371295291750272
 10
107.6696067305894
 20
17.37836207385547
 42
0.0482872693188879
 10
107.5354781223174
 20
17.91456131311164
 42
0.0222755953428618
 10
107.4297774234959
 20
18.17454057453401
 42
0.0227153026345118
 10
107.2979002733559
 20
18.43026611539512
 42
0.0101786577445284
 10
107.22185582077
 20
18.556580769244
 42
0.0213752360668579
 10
107.0541526317473
 20
18.79909723221835
 42
0.0189247634428077
 10
106.8617333392164
 20
19.03434046803378
 42
0.0197706464323666
 10
106.6454500128311
 20
19.26054653889005
 42
0.016680757719608
 10
106.4132444371541
 20
19.47041987567347
 42
0.0181981092017001
 10
106.1516956839464
 20
19.67558629581287
 42
0.0153177597729027
 10
105.876984024492
 20
19.86278099398296
 42
0.0163381215851998
 10
105.5830749153422
 20
20.03690455417262
 42
0.0141533965779886
 10
105.2709409360214
 20
20.19697825872343
 42
0.0149807750377819
 10
104.9499999999996
 20
20.33861114480396
 42
0.0131464721334628
 10
104.607195048163
 20
20.46738920872422
 42
0.0142830507722579
 10
104.2578421743713
 20
20.57717914302789
 42
0.0121720067250944
 10
103.8978298583022
 20
20.66971402622386
 42
0.0201152288725624
 10
103.341939269238
 20
20.77490519526962
 42
0.0301711461349519
 10
102.3914825626975
 20
20.85729628568193
 42
0.0563619591029337
 10
100.6865467389995
 20
20.70952059502676
 42
0.0197080661614963
 10
100.1421578256285
 20
20.57717914302791
 42
0.0133045279492128
 10
99.79280495183669
 20
20.46738920872422
 42
0.0141249907149809
 10
99.44999999999978
 20
20.33861114480396
 42
0.0140022329072246
 10
99.12905906397805
 20
20.19697825872346
 42
0.0151319430172805
 10
98.81692508465748
 20
20.03690455417264
 42
0.0153595391650382
 10
98.52301597550761
 20
19.86278099398296
 42
0.0162963408991763
 10
98.24830431605343
 20
19.67558629581286
 42
0.0172194657178041
 10
97.98675556284559
 20
19.47041987567347
 42
0.0176593828206255
 10
97.75454998716872
 20
19.26054653889005
 42
0.0187919460414227
 10
97.53826666078337
 20
19.03434046803377
 42
0.0199034688618751
 10
97.34584736825233
 20
18.79909723221835
 42
0.0203964726218216
 10
97.17814417922944
 20
18.55658076924402
 42
0.0111571057590023
 10
97.10209972664356
 20
18.43026611539514
 42
0.021736482669795
 10
96.97022257650365
 20
18.17454057453401
 42
0.0232544390377682
 10
96.86452187768228
 20
17.91456131311164
 42
0.0234831929478307
 10
96.78355735843277
 20
17.64589567030646
 42
0.0613981489966479
 10
96.6999999999998
 20
16.97056274847705
 42
0.0374435393841553
 10
96.73039326941037
 20
16.56276342309871
 42
0.0479729686700761
 10
96.86452187768228
 20
16.02656418384255
 42
0.0225893273895561
 10
96.97022257650365
 20
15.76658492242015
 42
0.0224015688105891
 10
97.10209972664356
 20
15.51085938155902
 42
0.0104922654925051
 10
97.17814417922944
 20
15.38454472771017
 42
0.0210615206381956
 10
97.34584736825233
 20
15.14202826473584
 42
0.0192384518691562
 10
97.53826666078337
 20
14.90678502892042
 42
0.0194569515483545
 10
97.75454998716872
 20
14.68057895806414
 42
0.0169944208709354
 10
97.98675556284559
 20
14.47070562128067
 42
0.0178844328854746
 10
98.24830431605343
 20
14.26553920114129
 42
0.0156314091139435
 10
98.52301597550761
 20
14.07834450297118
 42
0.0160244652290969
 10
98.8169250846575
 20
13.90422094278153
 42
0.0144670350440753
 10
99.12905906397805
 20
13.74414723823073
 42
0.0146671318783996
 10
99.44999999999978
 20
13.60251435215025
 42
0.013460101880632
 10
99.79280495183669
 20
13.47373628823
 42
0.0139694139467774
 10
100.1421578256285
 20
13.36394635392634
 42
0.0124856286398709
 10
100.5021701416977
 20
13.2714114707304
 42
0.0198015297127068
 10
101.0580607307618
 20
13.16622030168463
 42
0.0304850088097167
 10
102.0085174373022
 20
13.0838292112721
 42
0.0560473942812252
 10
103.713453261
 20
13.23160490192749
 42
0.0200217641539415
 10
104.2578421743713
 20
13.36394635392634
 42
0.0129908994926476
 10
104.607195048163
 20
13.47373628823
 42
0.0144386289261041
 10
104.9499999999996
 20
13.60251435215025
 42
0.0136885985450704
 10
105.2709409360214
 20
13.74414723823075
 42
0.015445590565464
 10
105.5830749153422
 20
13.90422094278155
 42
0.0150458924395555
 10
105.876984024492
 20
14.07834450297118
 42
0.0166100000372603
 10
106.1516956839464
 20
14.26553920114127
 42
0.0169058001745594
 10
106.4132444371541
 20
14.47070562128067
 42
0.0179730566060498
 10
106.6454500128311
 20
14.68057895806413
 42
0.0184782628960426
 10
106.8617333392162
 20
14.90678502892042
 42
0.0202171693005827
 10
107.0541526317473
 20
15.14202826473584
 42
0.0200827699171647
 10
107.22185582077
 20
15.38454472771018
 42
0.0114707201493055
 10
107.2979002733559
 20
15.51085938155902
 42
0.021422762393081
 10
107.4297774234959
 20
15.76658492242015
 42
0.0235681851560211
 10
107.5354781223174
 20
16.02656418384253
 42
0.0231694480752152
 10
107.616442641567
 20
16.29522982664775
 42
0.0617129114071602
  0
LWPOLYLINE
  5
39E
330
1E
100
AcDbEntity
  8
1
 62
     7
100
AcDbPolyline
 90
       48
 70
     0
 43
0.0
 10
96.6999999999998
 20
16.33416664540925
 42
0.0014840682866226
 10
96.71017805606428
 20
16.1953675673399
 42
0.0044604503650109
 10
96.72198946603428
 20
16.05688767367657
 42
0.0074731020614436
 10
96.73706758381531
 20
15.9190461488253
 42
0.0105135861268817
 10
96.75704576331295
 20
15.7821621771921
 42
0.0135582051990071
 10
96.78355735843277
 20
15.64655494318299
 42
0.0155417920591551
 10
96.81888496415412
 20
15.50892645927681
 42
0.0129460947980694
 10
96.86209448415858
 20
15.37321083721574
 42
0.0132055023019252
 10
96.91245352402679
 20
15.23963756024753
 42
0.0107321884606319
 10
96.9692296893395
 20
15.10843611161992
 42
0.0111349808542949
 10
97.03169058567732
 20
14.97983597458067
 42
0.0300500113872276
 10
97.25986160984492
 20
14.59439058936136
 42
0.0203181823269892
 10
97.43686027918542
 20
14.35426765808694
 42
0.0137850760388077
 10
97.58223766885963
 20
14.18285713779568
 42
0.0140237389846914
 10
97.73706569663582
 20
14.01963701120102
 42
0.0122888725222323
 10
97.90041794521656
 20
13.86464078665881
 42
0.0126231586097485
 10
98.07136799730429
 20
13.71790197252493
 42
0.0205848277380111
 10
98.40463451422174
 20
13.46825151252398
 42
0.0181205281280869
 10
98.72728727500817
 20
13.2634725388974
 42
0.0080848712395541
 10
98.89374505833963
 20
13.1696802336518
 42
0.0085793250692312
 10
99.06325717774022
 20
13.08147545195106
 42
0.0107076425411816
 10
99.30591110453621
 20
12.96687740948368
 42
0.0110750651643848
 10
99.55342270734924
 20
12.86291483959214
 42
0.009957010919909
 10
99.80517055016115
 20
12.76942111662243
 42
0.0202122117649563
 10
100.3188892117087
 20
12.61317370883256
 42
0.0191587320243237
 10
100.871867032628
 20
12.49153160300157
 42
0.0197196306700682
 10
101.4352170866627
 20
12.41284352836673
 42
0.1065505768451801
 10
104.6027849570286
 20
12.77216042912451
 42
0.0268404925722254
 10
105.1116017868821
 20
12.97475239292452
 42
0.0094151720513907
 10
105.4283032751144
 20
13.12829149834575
 42
0.0208136339548213
 10
105.7353318532759
 20
13.30078541105875
 42
0.0064445423957499
 10
105.9486831606227
 20
13.43644998921385
 42
0.0176947250452037
 10
106.1553580747457
 20
13.58233582373643
 42
0.0078969557345229
 10
106.3542690377714
 20
13.73857974305378
 42
0.0192533193296748
 10
106.5443284918262
 20
13.90531857559309
 42
0.0095374163387391
 10
106.7244488790357
 20
14.08268914978157
 42
0.0326482626035303
 10
107.0126871051477
 20
14.41888806104405
 42
0.0241858203846609
 10
107.2610132162397
 20
14.78570404030548
 42
0.0209195046236034
 10
107.3683094143222
 20
14.97983597458067
 42
0.0050937836407452
 10
107.430904818127
 20
15.10846739704017
 42
0.0170527858105443
 10
107.4877144304339
 20
15.23967662518584
 42
0.0070831327003094
 10
107.5380396635629
 20
15.373242038962
 42
0.0191767077152838
 10
107.581181929834
 20
15.50894201831295
 42
0.0236276622790495
 10
107.6429153669673
 20
15.78215313638909
 42
0.0150710573099483
 10
107.6628805898917
 20
15.91903409442128
 42
0.0028488547852401
 10
107.6779651859592
 20
16.05687712607307
 42
0.0090391326031036
 10
107.689796030789
 20
16.1953615401379
 42
0.0014783131326993
 10
107.6999999999996
 20
16.33416664540925
  0
LWPOLYLINE
  5
3D0
330
1E
100
AcDbEntity
  8
1
 62
     7
100
AcDbPolyline
 90
       52
 70
     0
 43
0.0
 10
96.6999999999998
 20
15.71590626174577
 42
0.0014327408609507
 10
96.71037779893929
 20
15.57650541145689
 42
0.0043059524177582
 10
96.72233901606549
 20
15.43741672689765
 42
0.0072133558898409
 10
96.7374670695653
 20
15.29895237379775
 42
0.0101480099428653
 10
96.75734537762544
 20
15.16142451788681
 42
0.0130899065529138
 10
96.78355735843277
 20
15.02514532489448
 42
0.0208288086961171
 10
96.8345699714785
 20
14.83171080977293
 42
0.0175757763049234
 10
96.90050153107131
 20
14.64210400875501
 42
0.0175355547346042
 10
96.97986122136116
 20
14.45691750482426
 42
0.0145382615935665
 10
97.0711582264979
 20
14.27674388096424
 42
0.0148098279179124
 10
97.17290173063146
 20
14.10217572015847
 42
0.0155683731647769
 10
97.31206931713465
 20
13.89362669523773
 42
0.016609994040876
 10
97.46406356523596
 20
13.69484638041833
 42
0.0142543161392026
 10
97.6278594033071
 20
13.5060169831491
 42
0.029561680875298
 10
97.98675556284559
 20
13.15893977105645
 42
0.0164328362135384
 10
98.2479383506148
 20
12.94915758580359
 42
0.009473965862413
 10
98.38378149525077
 20
12.851173771724
 42
0.0069332310872695
 10
98.52277830324052
 20
12.7576912259197
 42
0.0088441296297464
 10
98.66466814672378
 20
12.66863226032376
 42
0.0096465379397903
 10
98.87393463524343
 20
12.54783096297312
 42
0.0114601995769651
 10
99.08816074624501
 20
12.4359429549571
 42
0.0089061031884898
 10
99.30682978785178
 20
12.3328405734283
 42
0.0107552598243444
 10
99.52942506818708
 20
12.2383961555392
 42
0.0177083952038109
 10
99.99094975746796
 20
12.07287847597596
 42
0.0189864830511068
 10
100.4698284051994
 20
11.93984839513942
 42
0.0162901782361073
 10
100.9569202907983
 20
11.84089853349808
 42
0.0343535407954901
 10
101.9503623823011
 20
11.74206528328272
 42
0.0584532275933965
 10
103.7389897479408
 20
11.89679783961407
 42
0.0233235027700769
 10
104.3129172105905
 20
12.04316609886172
 42
0.0185752456383714
 10
104.8311489495217
 20
12.22269728168324
 42
0.0123429085539681
 10
105.0640249724422
 20
12.31987406804573
 42
0.0081077686610094
 10
105.2926975238763
 20
12.42647503514493
 42
0.0130935210856965
 10
105.5166415140717
 20
12.54267087017342
 42
0.008881703429244
 10
105.7353318532759
 20
12.66863226032376
 42
0.0132052729001723
 10
105.9345527146019
 20
12.79541298948065
 42
0.0092828330759161
 10
106.1278945275843
 20
12.93103795362138
 42
0.0144825576670582
 10
106.3145316369618
 20
13.0756623427624
 42
0.0106257795896452
 10
106.4936383874725
 20
13.22944134692017
 42
0.0158720486274683
 10
106.6643891238554
 20
13.39253015611115
 42
0.0267101356235418
 10
106.981062487311
 20
13.7512699044471
 42
0.0180812913205661
 10
107.1228261768995
 20
13.94422731772942
 42
0.0132873585112876
 10
107.252235029735
 20
14.14572458029978
 42
0.0193394364589383
 10
107.3683094143222
 20
14.35537280956709
 42
0.007864447584652
 10
107.43095123276
 20
14.48463901516056
 42
0.0142817208564867
 10
107.4877725798375
 20
14.61646912358097
 42
0.0098184854246512
 10
107.5380863404205
 20
14.75064338073738
 42
0.0163659319928748
 10
107.5812053993749
 20
14.88694203253886
 42
0.0262539119401857
 10
107.6429121229508
 20
15.16137882057186
 42
0.0122513249140941
 10
107.6628762645363
 20
15.2988914440445
 42
0.0055798699874826
 10
107.6779614012734
 20
15.43736341336357
 42
0.0062497236356749
 10
107.6897938681113
 20
15.57647494658026
 42
0.0014711098940304
 10
107.6999999999996
 20
15.71590626174577
  0
LWPOLYLINE
  5
406
330
1E
100
AcDbEntity
  8
1
 62
     7
100
AcDbPolyline
 90
       30
 70
     0
 43
0.0
 10
96.6999999999998
 20
11.73789460223485
 42
0.0015799077163682
 10
96.71657683752702
 20
11.53251875363868
 42
0.004749775319001
 10
96.7357223603841
 20
11.32768834406739
 42
0.0079639496635258
 10
96.76000525390112
 20
11.12394881254586
 42
0.0112125022222525
 10
96.791994203408
 20
10.92184559809899
 42
0.0144670232146911
 10
96.83425789423472
 20
10.72192413975165
 42
0.0219901452726403
 10
96.91224422349527
 20
10.45197867352699
 42
0.0186526858991674
 10
97.01228413876702
 20
10.18821268940014
 42
0.0187670228813428
 10
97.13222971888244
 20
9.931666680149263
 42
0.0157547726945513
 10
97.26993304267404
 20
9.683381138552487
 42
0.0162525656972592
 10
97.42324618897431
 20
9.44439655738796
 42
0.0449879733985441
 10
97.98889997517237
 20
8.762941165292087
 42
0.0436354563195585
 10
98.66170515399479
 20
8.195257907874161
 42
0.0257926943820816
 10
99.15546018158012
 20
7.884273967643111
 42
0.0258025010427705
 10
99.67900298513027
 20
7.625601723427847
 42
0.0243136403728614
 10
100.2496775568725
 20
7.411651607447339
 42
0.0370128786176292
 10
101.1374917946106
 20
7.198073960744691
 42
0.1811820877007685
 10
105.567529912385
 20
8.079438466514764
 42
0.0374722667549039
 10
106.0247466345872
 20
8.412642583182952
 42
0.0176324629839973
 10
106.4436563259218
 20
8.795101004009566
 42
0.0553764006448561
 10
106.9838162737337
 20
9.456344768837395
 42
0.0201970664430865
 10
107.2670705295834
 20
9.935462432411451
 42
0.0270028955524644
 10
107.3824318496573
 20
10.18079642211938
 42
0.0065606585151933
 10
107.4808807709734
 20
10.43280330793167
 42
0.0294281114592549
 10
107.5607068349647
 20
10.69043201715135
 42
0.0209622714404239
 10
107.6452726422297
 20
11.1082294180045
 42
0.0185239946041637
 10
107.6642703842098
 20
11.26479739064158
 42
0.0060722208651918
 10
107.6787116383007
 20
11.42209288706425
 42
0.0036295947284445
 10
107.6901152337985
 20
11.57987339934393
 42
0.0012095718419507
 10
107.6999999999996
 20
11.73789641955216
  0
ARC
  5
426
330
1E
100
AcDbEntity
  8
1
 62
     7
100
AcDbCircle
 10
74.69999999999997
 20
-16.99999999999993
 30
0.0
 40
1.0
100
AcDbArc
 50
270.0
 51
0.0
  0
ARC
  5
427
330
1E
100
AcDbEntity
  8
1
 62
     7
100
AcDbCircle
 10
62.69999999999997
 20
-16.99999999999993
 30
0.0
 40
1.0
100
AcDbArc
 50
180.0
 51
270.0
  0
ARC
  5
428
330
1E
100
AcDbEntity
  8
1
 62
     7
100
AcDbCircle
 10
62.19999999999997
 20
22.00062295692038
 30
0.0
 40
0.5
100
AcDbArc
 50
90.0
 51
180.0
  0
ARC
  5
429
330
1E
100
AcDbEntity
  8
1
 62
     7
100
AcDbCircle
 10
78.69999999999989
 20
22.00062295692038
 30
0.0
 40
0.5
100
AcDbArc
 50
0.0
 51
90.0
  0
ARC
  5
42A
330
1E
100
AcDbEntity
  8
1
 62
     7
100
AcDbCircle
 10
55.32319606855818
 20
23.00062295692038
 30
0.0
 40
3.5
100
AcDbArc
 50
180.0
 51
270.0
  0
ARC
  5
42B
330
1E
100
AcDbEntity
  8
1
 62
     7
100
AcDbCircle
 10
55.32319606855818
 20
23.00062295692038
 30
0.0
 40
2.0
100
AcDbArc
 50
180.0
 51
270.0
  0
ARC
  5
42C
330
1E
100
AcDbEntity
  8
1
 62
     7
100
AcDbCircle
 10
72.19999999999997
 20
16.23832970144366
 30
0.0
 40
3.5
100
AcDbArc
 50
0.0
 51
90.0
  0
ARC
  5
42D
330
1E
100
AcDbEntity
  8
1
 62
     7
100
AcDbCircle
 10
72.19999999999997
 20
12.69238815542525
 30
0.0
 40
3.500000000000001
100
AcDbArc
 50
270.0
 51
0.0
  0
ARC
  5
42E
330
1E
100
AcDbEntity
  8
1
 62
     7
100
AcDbCircle
 10
65.19999999999997
 20
12.69238815542525
 30
0.0
 40
3.500000000000006
100
AcDbArc
 50
180.0
 51
270.0
  0
ARC
  5
42F
330
1E
100
AcDbEntity
  8
1
 62
     7
100
AcDbCircle
 10
65.19999999999997
 20
16.23832970144366
 30
0.0
 40
3.5
100
AcDbArc
 50
90.0
 51
180.0
  0
ARC
  5
430
330
1E
100
AcDbEntity
  8
1
 62
     7
100
AcDbCircle
 10
72.19999999999997
 20
9.115525836251553
 30
0.0
 40
3.5
100
AcDbArc
 50
270.0
 51
0.0
  0
ARC
  5
431
330
1E
100
AcDbEntity
  8
1
 62
     7
100
AcDbCircle
 10
65.19999999999997
 20
9.115525836251553
 30
0.0
 40
3.500000000000006
100
AcDbArc
 50
180.0
 51
270.0
  0
ARC
  5
432
330
1E
100
AcDbEntity
  8
1
 62
     7
100
AcDbCircle
 10
71.69999999999976
 20
14.2027957955109
 30
0.0
 40
3.0
100
AcDbArc
 50
270.0
 51
0.0
  0
ARC
  5
433
330
1E
100
AcDbEntity
  8
1
 62
     7
100
AcDbCircle
 10
65.69999999999978
 20
14.2027957955109
 30
0.0
 40
2.999999999999993
100
AcDbArc
 50
180.0
 51
270.0
  0
ARC
  5
434
330
1E
100
AcDbEntity
  8
1
 62
     7
100
AcDbCircle
 10
71.69999999999976
 20
16.2027957955109
 30
0.0
 40
3.0
100
AcDbArc
 50
0.0
 51
90.0
  0
ARC
  5
435
330
1E
100
AcDbEntity
  8
1
 62
     7
100
AcDbCircle
 10
65.69999999999978
 20
16.2027957955109
 30
0.0
 40
3.0
100
AcDbArc
 50
90.0
 51
180.0
  0
ARC
  5
436
330
1E
100
AcDbEntity
  8
1
 62
     7
100
AcDbCircle
 10
79.4999999999999
 20
15.67042614893859
 30
0.0
 40
0.3000000000000114
100
AcDbArc
 50
180.0
 51
270.0
  0
ARC
  5
437
330
1E
100
AcDbEntity
  8
1
 62
     7
100
AcDbCircle
 10
61.39999999999999
 20
-15.24155279748385
 30
0.0
 40
0.2999999999999758
100
AcDbArc
 50
0.0
 51
90.0
  0
ARC
  5
438
330
1E
100
AcDbEntity
  8
1
 62
     7
100
AcDbCircle
 10
75.99999999999998
 20
-15.24155279748385
 30
0.0
 40
0.2999999999998995
100
AcDbArc
 50
90.0
 51
180.0
  0
ARC
  5
439
330
1E
100
AcDbEntity
  8
1
 62
     7
100
AcDbCircle
 10
-0.2000000000000028
 20
10.70000000000005
 30
0.0
 40
0.1999999999999904
100
AcDbArc
 50
270.0
 51
0.0
  0
ARC
  5
43A
330
1E
100
AcDbEntity
  8
1
 62
     7
100
AcDbCircle
 10
-0.2000000000000028
 20
-10.69999999999992
 30
0.0
 40
0.2000000000000028
100
AcDbArc
 50
0.0
 51
90.0
  0
ARC
  5
43F
330
1E
100
AcDbEntity
  8
1
 62
     7
100
AcDbCircle
 10
151.9530483272039
 20
18.73832970144355
 30
0.0
 40
0.999999999999787
100
AcDbArc
 50
45.00000000001727
 51
135.0000000000115
  0
ARC
  5
440
330
1E
100
AcDbEntity
  8
1
 62
     7
100
AcDbCircle
 10
160.4383297014423
 20
10.25304832720485
 30
0.0
 40
0.9999999999998459
100
AcDbArc
 50
315.0000000000047
 51
45.0000000000046
  0
ARC
  5
441
330
1E
100
AcDbEntity
  8
1
 62
     7
100
AcDbCircle
 10
131.4469516727934
 20
18.73832970144355
 30
0.0
 40
0.9999999999998674
100
AcDbArc
 50
45.00000000001267
 51
135.0000000000081
  0
ARC
  5
442
330
1E
100
AcDbEntity
  8
1
 62
     7
100
AcDbCircle
 10
122.961670298555
 20
10.25304832720485
 30
0.0
 40
1.0000000000003
100
AcDbArc
 50
135.0000000000119
 51
224.9999999999785
  0
ARC
  5
443
330
1E
100
AcDbEntity
  8
1
 62
     7
100
AcDbCircle
 10
138.1999999999987
 20
16.89119593160888
 30
0.0
 40
0.7500000000000453
100
AcDbArc
 50
101.7065097932879
 51
180.0
  0
ARC
  5
444
330
1E
100
AcDbEntity
  8
1
 62
     7
100
AcDbCircle
 10
145.1999999999985
 20
16.89119593160888
 30
0.0
 40
0.75
100
AcDbArc
 50
0.0
 51
78.2934902067716
  0
ARC
  5
445
330
1E
100
AcDbEntity
  8
1
 62
     7
100
AcDbCircle
 10
148.1999999999985
 20
-17.49999999999993
 30
0.0
 40
0.5
100
AcDbArc
 50
270.0
 51
0.0
  0
ARC
  5
446
330
1E
100
AcDbEntity
  8
1
 62
     7
100
AcDbCircle
 10
135.1999999999987
 20
-17.49999999999993
 30
0.0
 40
0.5
100
AcDbArc
 50
180.0
 51
270.0
  0
ARC
  5
447
330
1E
100
AcDbEntity
  8
1
 62
     7
100
AcDbCircle
 10
136.6999999999984
 20
21.50002295692036
 30
0.0
 40
1.0
100
AcDbArc
 50
90.0
 51
180.0
  0
ARC
  5
448
330
1E
100
AcDbEntity
  8
1
 62
     7
100
AcDbCircle
 10
146.6999999999984
 20
21.49962295692046
 30
0.0
 40
1.0
100
AcDbArc
 50
0.0
 51
90.0
  0
ARC
  5
449
330
1E
100
AcDbEntity
  8
1
 62
     7
100
AcDbCircle
 10
92.6999999999998
 20
9.249999999999943
 30
0.0
 40
1.0
100
AcDbArc
 50
270.0
 51
0.0
  0
ARC
  5
44A
330
1E
100
AcDbEntity
  8
1
 62
     7
100
AcDbCircle
 10
82.19999999999981
 20
9.249999999999943
 30
0.0
 40
1.0
100
AcDbArc
 50
180.0
 51
270.0
  0
LINE
  5
44B
330
1E
100
AcDbEntity
  8
1
 62
     3
100
AcDbLine
 10
156.9456753959234
 20
42.0
 30
0.0
 11
114.6999999999999
 21
42.0
 31
0.0
  0
LINE
  5
44C
330
1E
100
AcDbEntity
  8
1
 62
     3
100
AcDbLine
 10
114.6999999999999
 20
42.0
 30
0.0
 11
104.5149999999999
 21
31.16661423615739
 31
0.0
  0
SOLID
  5
44D
330
1E
100
AcDbEntity
  8
1
 62
     3
100
AcDbTrace
 10
106.5766723694572
 20
34.03224308468237
 30
0.0
 11
107.2481019091987
 21
33.40099907552951
 31
0.0
 12
104.5149999999999
 22
31.16661423615739
 32
0.0
 13
104.5149999999999
 23
31.16661423615739
 33
0.0
  0
LINE
  5
44E
330
1E
100
AcDbEntity
  8
1
 62
     3
100
AcDbLine
 10
2.024252669186055
 20
42.00000000000006
 30
0.0
 11
43.2000000000001
 21
42.00000000000006
 31
0.0
  0
LINE
  5
44F
330
1E
100
AcDbEntity
  8
1
 62
     3
100
AcDbLine
 10
43.2000000000001
 20
42.00000000000006
 30
0.0
 11
51.82319606855816
 21
29.04383042317255
 31
0.0
  0
SOLID
  5
450
330
1E
100
AcDbEntity
  8
1
 62
     3
100
AcDbTrace
 10
49.50037471397985
 20
31.70218002606476
 30
0.0
 11
50.26755443808445
 21
32.21278936484713
 31
0.0
 12
51.82319606855816
 22
29.04383042317255
 32
0.0
 13
51.82319606855816
 23
29.04383042317255
 33
0.0
  0
TEXT
  5
451
330
1E
100
AcDbEntity
  8
1
 62
     3
100
AcDbText
 10
5.796219411918997
 20
42.89029228651145
 30
0.0
 40
3.5
  1
MOTOR LEADS
 41
0.9
 72
     1
 11
22.596219411919
 21
44.64029228651145
 31
0.0
100
AcDbText
 73
     2
  0
TEXT
  5
452
330
1E
100
AcDbEntity
  8
1
 62
     3
100
AcDbText
 10
4.147278985346993
 20
36.43063609630643
 30
0.0
 40
3.5
  1
L=600mm 0.4mm
 41
0.9
 72
     1
 11
22.25977898534698
 21
38.18063609630643
 31
0.0
100
AcDbText
 73
     2
  0
TEXT
  5
453
330
1E
100
AcDbEntity
  8
1
 62
     3
100
AcDbText
 10
41.659764153163
 20
39.24741439980147
 30
0.0
 40
1.5
  1
2
 41
0.9
 72
     1
 11
42.109764153163
 21
39.99741439980147
 31
0.0
100
AcDbText
 73
     2
  0
TEXT
  5
454
330
1E
100
AcDbEntity
  8
1
 62
     0
100
AcDbText
 10
122.7022849263389
 20
-42.417665692376
 30
0.0
 40
3.0
  1
RH-8D-XX06-T.dxf
 41
0.9
100
AcDbText
  0
TEXT
  5
459
330
1E
100
AcDbEntity
  8
1
 62
     3
100
AcDbText
 10
-70.8150388799341
 20
-60.3220869240971
 30
0.0
 40
2.0
  1
 
 41
0.9
100
AcDbText
  0
TEXT
  5
460
330
1E
100
AcDbEntity
  8
1
 62
     3
100
AcDbText
 10
118.9331691197319
 20
42.89398610817218
 30
0.0
 40
3.5
  1
TACHO LEADS
 41
0.9
 72
     1
 11
135.7331691197319
 21
44.64398610817219
 31
0.0
100
AcDbText
 73
     2
  0
TEXT
  5
461
330
1E
100
AcDbEntity
  8
1
 62
     3
100
AcDbText
 10
116.7971612341597
 20
36.82029006350617
 30
0.0
 40
3.5
  1
L=600mm 0.4mm
 41
0.9
 72
     1
 11
134.9096612341597
 21
38.57029006350618
 31
0.0
100
AcDbText
 73
     2
  0
TEXT
  5
462
330
1E
100
AcDbEntity
  8
1
 62
     3
100
AcDbText
 10
154.3600220063139
 20
39.31996910367011
 30
0.0
 40
1.5
  1
2
 41
0.9
 72
     1
 11
154.8100220063139
 21
40.06996910367011
 31
0.0
100
AcDbText
 73
     2
  0
INSERT
  5
46D
330
1E
100
AcDbEntity
  8
0
100
AcDbBlockReference
  2
HARMONIC_DRIVE_LLC
 10
-17.53141132083555
 20
0.6135347036465078
 30
0.0
  0
INSERT
  5
50D
330
1E
100
AcDbEntity
  8
0
100
AcDbBlockReference
  2
HD logo-new
 10
83.99143253546048
 20
-69.42552612595656
 30
0.0
 41
0.7200000000000001
 42
0.7200000000000001
 43
0.7200000000000001
  0
INSERT
  5
519
330
1E
100
AcDbEntity
  8
0
100
AcDbBlockReference
  2
NTC
 10
-85.87082012104378
 20
-46.5957700836275
 30
0.0
 41
0.425
 42
0.425
 43
0.425
  0
ENDSEC
  0
SECTION
  2
OBJECTS
  0
DICTIONARY
  5
C
330
0
100
AcDbDictionary
281
     1
  3
ACAD_GROUP
350
D
  3
ACAD_LAYOUT
350
19
  3
ACAD_MLINESTYLE
350
16
  3
ACAD_PLOTSETTINGS
350
18
  3
ACAD_PLOTSTYLENAME
350
E
  3
ACDBVARIABLEDICTIONARY
350
46E
  0
DICTIONARY
  5
494
330
1E
100
AcDbDictionary
280
     1
281
     1
  3
ACAD_LAYOUTSELFREF
360
495
  0
DICTIONARY
  5
492
330
1A
100
AcDbDictionary
280
     1
281
     1
  3
ACAD_LAYOUTSELFREF
360
493
  0
DICTIONARY
  5
D
102
{ACAD_REACTORS
330
C
102
}
330
C
100
AcDbDictionary
281
     1
  0
DICTIONARY
  5
19
102
{ACAD_REACTORS
330
C
102
}
330
C
100
AcDbDictionary
281
     1
  3
Layout1
350
49B
  3
Model
350
49A
  0
DICTIONARY
  5
16
102
{ACAD_REACTORS
330
C
102
}
330
C
100
AcDbDictionary
281
     1
  3
STANDARD
350
17
  0
DICTIONARY
  5
18
102
{ACAD_REACTORS
330
C
102
}
330
C
100
AcDbDictionary
281
     1
  0
ACDBDICTIONARYWDFLT
  5
E
102
{ACAD_REACTORS
330
C
102
}
330
C
100
AcDbDictionary
281
     1
  3
Normal
350
F
100
AcDbDictionaryWithDefault
340
F
  0
DICTIONARY
  5
46E
102
{ACAD_REACTORS
330
C
102
}
330
C
100
AcDbDictionary
281
     1
  3
DIMASSOC
350
46F
  0
XRECORD
  5
495
102
{ACAD_REACTORS
330
494
102
}
330
494
100
AcDbXrecord
280
     1
340
1E
  0
XRECORD
  5
493
102
{ACAD_REACTORS
330
492
102
}
330
492
100
AcDbXrecord
280
     1
340
1A
  0
LAYOUT
  5
49B
102
{ACAD_REACTORS
330
19
102
}
330
19
100
AcDbPlotSettings
  1

  2
\\SERVER9\HP LaserJet 5100 PCL 5e
  4

  6

 40
0.0
 41
0.0
 42
0.0
 43
0.0
 44
0.0
 45
0.0
 46
0.0
 47
0.0
 48
0.0
 49
0.0
140
0.0
141
0.0
142
1.0
143
1.0
 70
   688
 72
     0
 73
     0
 74
     5
  7

 75
    16
147
1.0
148
0.0
149
0.0
100
AcDbLayout
  1
Layout1
 70
     1
 71
     1
 10
0.0
 20
0.0
 11
12.0
 21
9.0
 12
0.0
 22
0.0
 32
0.0
 14
1.000000000000000E+20
 24
1.000000000000000E+20
 34
1.000000000000000E+20
 15
-1.000000000000000E+20
 25
-1.000000000000000E+20
 35
-1.000000000000000E+20
146
0.0
 13
0.0
 23
0.0
 33
0.0
 16
1.0
 26
0.0
 36
0.0
 17
0.0
 27
1.0
 37
0.0
 76
     0
330
1A
  0
LAYOUT
  5
49A
102
{ACAD_REACTORS
330
19
102
}
330
19
100
AcDbPlotSettings
  1

  2
\\SERVER9\HP LaserJet 5100 PCL 5e
  4

  6

 40
0.0
 41
0.0
 42
0.0
 43
0.0
 44
0.0
 45
0.0
 46
0.0
 47
0.0
 48
0.0
 49
0.0
140
0.0
141
0.0
142
1.0
143
1.0
 70
  1712
 72
     0
 73
     0
 74
     0
  7

 75
     0
147
1.0
148
0.0
149
0.0
100
AcDbLayout
  1
Model
 70
     1
 71
     0
 10
0.0
 20
0.0
 11
12.0
 21
9.0
 12
0.0
 22
0.0
 32
0.0
 14
0.0
 24
0.0
 34
0.0
 15
0.0
 25
0.0
 35
0.0
146
0.0
 13
0.0
 23
0.0
 33
0.0
 16
1.0
 26
0.0
 36
0.0
 17
0.0
 27
1.0
 37
0.0
 76
     0
330
1E
  0
MLINESTYLE
  5
17
102
{ACAD_REACTORS
330
16
102
}
330
16
100
AcDbMlineStyle
  2
STANDARD
 70
     0
  3

 62
   256
 51
90.0
 52
90.0
 71
     2
 49
0.5
 62
   256
  6
BYLAYER
 49
-0.5
 62
   256
  6
BYLAYER
  0
ACDBPLACEHOLDER
  5
F
102
{ACAD_REACTORS
330
E
102
}
330
E
  0
DICTIONARYVAR
  5
46F
102
{ACAD_REACTORS
330
46E
102
}
330
46E
100
DictionaryVariables
280
     0
  1
1
  0
ENDSEC
  0
EOF
