  0
SECTION
  2
HEADER
  9
$ACADVER
  1
AC1015
  9
$ACADMAINTVER
 70
    13
  9
$DWGCODEPAGE
  3
ANSI_1252
  9
$INSBASE
 10
0.0
 20
0.0
 30
0.0
  9
$EXTMIN
 10
-25.87158670918358
 20
-159.8663142646948
 30
0.0
  9
$EXTMAX
 10
302.2479351212236
 20
63.68239300000002
 30
0.0
  9
$LIMMIN
 10
-88.0
 20
-81.45368000000001
  9
$LIMMAX
 10
186.5
 20
49.879609
  9
$ORTHOMODE
 70
     1
  9
$REGENMODE
 70
     1
  9
$FILLMODE
 70
     1
  9
$QTEXTMODE
 70
     0
  9
$MIRRTEXT
 70
     1
  9
$LTSCALE
 40
1.0
  9
$ATTMODE
 70
     1
  9
$TEXTSIZE
 40
3.5
  9
$TRACEWID
 40
0.5
  9
$TEXTSTYLE
  7
STANDARD
  9
$CLAYER
  8
0
  9
$CELTYPE
  6
BYLAYER
  9
$CECOLOR
 62
   256
  9
$CELTSCALE
 40
1.0
  9
$DISPSILH
 70
     0
  9
$DIMSCALE
 40
25.0
  9
$DIMASZ
 40
0.18
  9
$DIMEXO
 40
0.0625
  9
$DIMDLI
 40
0.38
  9
$DIMRND
 40
0.0
  9
$DIMDLE
 40
0.0
  9
$DIMEXE
 40
0.18
  9
$DIMTP
 40
0.0
  9
$DIMTM
 40
0.0
  9
$DIMTXT
 40
0.18
  9
$DIMCEN
 40
0.09
  9
$DIMTSZ
 40
0.0
  9
$DIMTOL
 70
     0
  9
$DIMLIM
 70
     0
  9
$DIMTIH
 70
     1
  9
$DIMTOH
 70
     1
  9
$DIMSE1
 70
     0
  9
$DIMSE2
 70
     0
  9
$DIMTAD
 70
     0
  9
$DIMZIN
 70
     0
  9
$DIMBLK
  1

  9
$DIMASO
 70
     1
  9
$DIMSHO
 70
     1
  9
$DIMPOST
  1

  9
$DIMAPOST
  1

  9
$DIMALT
 70
     0
  9
$DIMALTD
 70
     2
  9
$DIMALTF
 40
25.4
  9
$DIMLFAC
 40
1.0
  9
$DIMTOFL
 70
     0
  9
$DIMTVP
 40
0.0
  9
$DIMTIX
 70
     0
  9
$DIMSOXD
 70
     0
  9
$DIMSAH
 70
     0
  9
$DIMBLK1
  1

  9
$DIMBLK2
  1

  9
$DIMSTYLE
  2
STANDARD
  9
$DIMCLRD
 70
     0
  9
$DIMCLRE
 70
     0
  9
$DIMCLRT
 70
     0
  9
$DIMTFAC
 40
1.0
  9
$DIMGAP
 40
0.09
  9
$DIMJUST
 70
     0
  9
$DIMSD1
 70
     0
  9
$DIMSD2
 70
     0
  9
$DIMTOLJ
 70
     1
  9
$DIMTZIN
 70
     0
  9
$DIMALTZ
 70
     0
  9
$DIMALTTZ
 70
     0
  9
$DIMUPT
 70
     0
  9
$DIMDEC
 70
     0
  9
$DIMTDEC
 70
     4
  9
$DIMALTU
 70
     2
  9
$DIMALTTD
 70
     2
  9
$DIMTXSTY
  7
STANDARD
  9
$DIMAUNIT
 70
     0
  9
$DIMADEC
 70
     0
  9
$DIMALTRND
 40
0.0
  9
$DIMAZIN
 70
     0
  9
$DIMDSEP
 70
    46
  9
$DIMATFIT
 70
     3
  9
$DIMFRAC
 70
     0
  9
$DIMLDRBLK
  1

  9
$DIMLUNIT
 70
     2
  9
$DIMLWD
 70
    -2
  9
$DIMLWE
 70
    -2
  9
$DIMTMOVE
 70
     0
  9
$LUNITS
 70
     2
  9
$LUPREC
 70
     4
  9
$SKETCHINC
 40
0.1
  9
$FILLETRAD
 40
2.0
  9
$AUNITS
 70
     0
  9
$AUPREC
 70
     0
  9
$MENU
  1
ACAD
  9
$ELEVATION
 40
0.0
  9
$PELEVATION
 40
0.0
  9
$THICKNESS
 40
0.0
  9
$LIMCHECK
 70
     0
  9
$CHAMFERA
 40
0.0
  9
$CHAMFERB
 40
0.0
  9
$CHAMFERC
 40
0.0
  9
$CHAMFERD
 40
0.0
  9
$SKPOLY
 70
     0
  9
$TDCREATE
 40
2311949.261387060
  9
$TDUCREATE
 40
2311949.428053726
  9
$TDUPDATE
 40
2453998.481584201
  9
$TDUUPDATE
 40
2453998.648250867
  9
$TDINDWG
 40
0.0100750579
  9
$TDUSRTIMER
 40
0.0100748727
  9
$USRTIMER
 70
     1
  9
$ANGBASE
 50
0.0
  9
$ANGDIR
 70
     0
  9
$PDMODE
 70
     0
  9
$PDSIZE
 40
0.0
  9
$PLINEWID
 40
0.0
  9
$SPLFRAME
 70
     0
  9
$SPLINETYPE
 70
     6
  9
$SPLINESEGS
 70
     8
  9
$HANDSEED
  5
A4D
  9
$SURFTAB1
 70
     6
  9
$SURFTAB2
 70
     6
  9
$SURFTYPE
 70
     6
  9
$SURFU
 70
     6
  9
$SURFV
 70
     6
  9
$UCSBASE
  2

  9
$UCSNAME
  2

  9
$UCSORG
 10
0.0
 20
0.0
 30
0.0
  9
$UCSXDIR
 10
1.0
 20
0.0
 30
0.0
  9
$UCSYDIR
 10
0.0
 20
1.0
 30
0.0
  9
$UCSORTHOREF
  2

  9
$UCSORTHOVIEW
 70
     0
  9
$UCSORGTOP
 10
0.0
 20
0.0
 30
0.0
  9
$UCSORGBOTTOM
 10
0.0
 20
0.0
 30
0.0
  9
$UCSORGLEFT
 10
0.0
 20
0.0
 30
0.0
  9
$UCSORGRIGHT
 10
0.0
 20
0.0
 30
0.0
  9
$UCSORGFRONT
 10
0.0
 20
0.0
 30
0.0
  9
$UCSORGBACK
 10
0.0
 20
0.0
 30
0.0
  9
$PUCSBASE
  2

  9
$PUCSNAME
  2

  9
$PUCSORG
 10
0.0
 20
0.0
 30
0.0
  9
$PUCSXDIR
 10
1.0
 20
0.0
 30
0.0
  9
$PUCSYDIR
 10
0.0
 20
1.0
 30
0.0
  9
$PUCSORTHOREF
  2

  9
$PUCSORTHOVIEW
 70
     0
  9
$PUCSORGTOP
 10
0.0
 20
0.0
 30
0.0
  9
$PUCSORGBOTTOM
 10
0.0
 20
0.0
 30
0.0
  9
$PUCSORGLEFT
 10
0.0
 20
0.0
 30
0.0
  9
$PUCSORGRIGHT
 10
0.0
 20
0.0
 30
0.0
  9
$PUCSORGFRONT
 10
0.0
 20
0.0
 30
0.0
  9
$PUCSORGBACK
 10
0.0
 20
0.0
 30
0.0
  9
$USERI1
 70
     0
  9
$USERI2
 70
     0
  9
$USERI3
 70
     0
  9
$USERI4
 70
     0
  9
$USERI5
 70
     0
  9
$USERR1
 40
0.0
  9
$USERR2
 40
0.0
  9
$USERR3
 40
0.0
  9
$USERR4
 40
0.0
  9
$USERR5
 40
0.0
  9
$WORLDVIEW
 70
     1
  9
$SHADEDGE
 70
     3
  9
$SHADEDIF
 70
    70
  9
$TILEMODE
 70
     1
  9
$MAXACTVP
 70
    48
  9
$PINSBASE
 10
0.0
 20
0.0
 30
0.0
  9
$PLIMCHECK
 70
     0
  9
$PEXTMIN
 10
1.000000000000000E+20
 20
1.000000000000000E+20
 30
1.000000000000000E+20
  9
$PEXTMAX
 10
-1.000000000000000E+20
 20
-1.000000000000000E+20
 30
-1.000000000000000E+20
  9
$PLIMMIN
 10
0.0
 20
0.0
  9
$PLIMMAX
 10
12.0
 20
9.0
  9
$UNITMODE
 70
     0
  9
$VISRETAIN
 70
     1
  9
$PLINEGEN
 70
     0
  9
$PSLTSCALE
 70
     1
  9
$TREEDEPTH
 70
  3020
  9
$CMLSTYLE
  2
STANDARD
  9
$CMLJUST
 70
     0
  9
$CMLSCALE
 40
1.0
  9
$PROXYGRAPHICS
 70
     1
  9
$MEASUREMENT
 70
     0
  9
$CELWEIGHT
370
    -1
  9
$ENDCAPS
280
     0
  9
$JOINSTYLE
280
     0
  9
$LWDISPLAY
290
     0
  9
$INSUNITS
 70
     0
  9
$HYPERLINKBASE
  1

  9
$STYLESHEET
  1

  9
$XEDIT
290
     1
  9
$CEPSNTYPE
380
     0
  9
$PSTYLEMODE
290
     1
  9
$FINGERPRINTGUID
  2
{AEF26E1A-2B95-40F5-8D7C-0834F7EE0292}
  9
$VERSIONGUID
  2
{18F56E0A-BD2F-4351-ADC2-AD2D5A080CAD}
  9
$EXTNAMES
290
     1
  9
$PSVPSCALE
 40
0.0
  9
$OLESTARTUP
290
     0
  0
ENDSEC
  0
SECTION
  2
CLASSES
  0
CLASS
  1
ACDBDICTIONARYWDFLT
  2
AcDbDictionaryWithDefault
  3
AutoCAD 2000
 90
        0
280
     0
281
     0
  0
CLASS
  1
ACDBPLACEHOLDER
  2
AcDbPlaceHolder
  3
AutoCAD 2000
 90
        0
280
     0
281
     0
  0
CLASS
  1
LAYOUT
  2
AcDbLayout
  3
AutoCAD 2000
 90
        0
280
     0
281
     0
  0
CLASS
  1
DICTIONARYVAR
  2
AcDbDictionaryVar
  3
AutoCAD 2000
 90
        0
280
     0
281
     0
  0
ENDSEC
  0
SECTION
  2
TABLES
  0
TABLE
  2
VPORT
  5
8
330
0
100
AcDbSymbolTable
 70
     2
  0
VPORT
  5
A4C
330
8
100
AcDbSymbolTableRecord
100
AcDbViewportTableRecord
  2
*Active
 70
     0
 10
0.0
 20
0.0
 11
1.0
 21
1.0
 12
165.5771645480636
 22
-22.75230149208405
 13
0.0
 23
0.0
 14
1.0
 24
1.0
 15
0.0
 25
0.0
 16
0.0
 26
0.0
 36
1.0
 17
0.0
 27
0.0
 37
0.0
 40
205.7763515168924
 41
1.606756756756756
 42
50.0
 43
0.0
 44
0.0
 50
0.0
 51
0.0
 71
     0
 72
   100
 73
     1
 74
     1
 75
     0
 76
     0
 77
     0
 78
     0
281
     0
 65
     1
110
0.0
120
0.0
130
0.0
111
1.0
121
0.0
131
0.0
112
0.0
122
1.0
132
0.0
 79
     0
146
0.0
  0
ENDTAB
  0
TABLE
  2
LTYPE
  5
5
330
0
100
AcDbSymbolTable
 70
     9
  0
LTYPE
  5
12
330
5
100
AcDbSymbolTableRecord
100
AcDbLinetypeTableRecord
  2
BYBLOCK
 70
     0
  3

 72
    65
 73
     0
 40
0.0
  0
LTYPE
  5
13
330
5
100
AcDbSymbolTableRecord
100
AcDbLinetypeTableRecord
  2
BYLAYER
 70
     0
  3

 72
    65
 73
     0
 40
0.0
  0
LTYPE
  5
14
330
5
100
AcDbSymbolTableRecord
100
AcDbLinetypeTableRecord
  2
CONTINUOUS
 70
     0
  3
Solid line
 72
    65
 73
     0
 40
0.0
  0
LTYPE
  5
1F
330
5
100
AcDbSymbolTableRecord
100
AcDbLinetypeTableRecord
  2
BORDER
 70
     0
  3
__ __ . __ __ .
 72
    65
 73
     6
 40
12.641447
 49
3.611841999999999
 74
     0
 49
-1.805920999999999
 74
     0
 49
3.611841999999999
 74
     0
 49
-1.805920999999999
 74
     0
 49
0.0
 74
     0
 49
-1.805920999999999
 74
     0
  0
LTYPE
  5
20
330
5
100
AcDbSymbolTableRecord
100
AcDbLinetypeTableRecord
  2
CENTER
 70
     0
  3
____ _ ____ _
 72
    65
 73
     4
 40
14.447368
 49
9.029605
 74
     0
 49
-1.805920999999999
 74
     0
 49
1.805920999999999
 74
     0
 49
-1.805920999999999
 74
     0
  0
LTYPE
  5
21
330
5
100
AcDbSymbolTableRecord
100
AcDbLinetypeTableRecord
  2
DASHDOT
 70
     0
  3
__ . __ . __ .
 72
    65
 73
     4
 40
7.223683999999999
 49
3.611841999999999
 74
     0
 49
-1.805920999999999
 74
     0
 49
0.0
 74
     0
 49
-1.805920999999999
 74
     0
  0
LTYPE
  5
22
330
5
100
AcDbSymbolTableRecord
100
AcDbLinetypeTableRecord
  2
DASHED
 70
     0
  3
__ __ __ __ __
 72
    65
 73
     2
 40
5.417762999999999
 49
3.611841999999999
 74
     0
 49
-1.805920999999999
 74
     0
  0
LTYPE
  5
23
330
5
100
AcDbSymbolTableRecord
100
AcDbLinetypeTableRecord
  2
DIVIDE
 70
     0
  3
__ . . __ . . 
 72
    65
 73
     6
 40
9.029605
 49
3.611841999999999
 74
     0
 49
-1.805920999999999
 74
     0
 49
0.0
 74
     0
 49
-1.805920999999999
 74
     0
 49
0.0
 74
     0
 49
-1.805920999999999
 74
     0
  0
LTYPE
  5
24
330
5
100
AcDbSymbolTableRecord
100
AcDbLinetypeTableRecord
  2
DOT
 70
     0
  3
..............
 72
    65
 73
     4
 40
3.611841999999999
 49
0.0
 74
     0
 49
-1.805920999999999
 74
     0
 49
0.0
 74
     0
 49
-1.805920999999999
 74
     0
  0
LTYPE
  5
25
330
5
100
AcDbSymbolTableRecord
100
AcDbLinetypeTableRecord
  2
HIDDEN
 70
     0
  3
_ _ _ _ _ _ _
 72
    65
 73
     2
 40
2.708882
 49
1.805920999999999
 74
     0
 49
-0.9029609999999999
 74
     0
  0
LTYPE
  5
26
330
5
100
AcDbSymbolTableRecord
100
AcDbLinetypeTableRecord
  2
PHANTOM
 70
     0
  3
_____ _ _ _____ _ _ 
 72
    65
 73
     6
 40
18.05921099999999
 49
9.029605
 74
     0
 49
-1.805920999999999
 74
     0
 49
1.805920999999999
 74
     0
 49
-1.805920999999999
 74
     0
 49
1.805920999999999
 74
     0
 49
-1.805920999999999
 74
     0
  0
ENDTAB
  0
TABLE
  2
LAYER
  5
2
330
0
100
AcDbSymbolTable
 70
     5
  0
LAYER
  5
E
330
2
100
AcDbSymbolTableRecord
100
AcDbLayerTableRecord
  2
0
 70
     0
 62
     7
  6
CONTINUOUS
370
    -3
390
9A6
  0
LAYER
  5
27
330
2
100
AcDbSymbolTableRecord
100
AcDbLayerTableRecord
  2
1
 70
     0
 62
     7
  6
CONTINUOUS
370
    -3
390
9A6
  0
LAYER
  5
807
330
2
100
AcDbSymbolTableRecord
100
AcDbLayerTableRecord
  2
DEFPOINTS
 70
     0
 62
     7
  6
CONTINUOUS
290
     0
370
    -3
390
9A6
  0
LAYER
  5
95B
330
2
100
AcDbSymbolTableRecord
100
AcDbLayerTableRecord
  2
TITLEBOX
 70
     0
 62
     7
  6
CONTINUOUS
370
    -3
390
9A6
  0
LAYER
  5
A22
330
2
100
AcDbSymbolTableRecord
100
AcDbLayerTableRecord
  2
LAYER_1
 70
     0
 62
     5
  6
CONTINUOUS
370
    -3
390
9A6
  0
ENDTAB
  0
TABLE
  2
STYLE
  5
3
330
0
100
AcDbSymbolTable
 70
     5
  0
STYLE
  5
F
330
3
100
AcDbSymbolTableRecord
100
AcDbTextStyleTableRecord
  2
STANDARD
 70
     0
 40
0.0
 41
1.0
 50
0.0
 71
     0
 42
3.5
  3
txt
  4

  0
STYLE
  5
28
330
3
100
AcDbSymbolTableRecord
100
AcDbTextStyleTableRecord
  2
SIMPLEX
 70
     0
 40
0.0
 41
1.0
 50
0.0
 71
     0
 42
3.5
  3
simplex
  4

  0
STYLE
  5
29
330
3
100
AcDbSymbolTableRecord
100
AcDbTextStyleTableRecord
  2
COMPLEX
 70
     0
 40
0.0
 41
1.0
 50
0.0
 71
     0
 42
3.5
  3
complex
  4

  0
STYLE
  5
2A
330
3
100
AcDbSymbolTableRecord
100
AcDbTextStyleTableRecord
  2
ITALIC
 70
     0
 40
0.0
 41
1.0
 50
0.0
 71
     0
 42
3.5
  3
italic
  4

  0
STYLE
  5
95C
330
3
100
AcDbSymbolTableRecord
100
AcDbTextStyleTableRecord
  2
ROMAND
 70
     0
 40
0.002
 41
1.0
 50
0.0
 71
     0
 42
0.002
  3
romand
  4

  0
ENDTAB
  0
TABLE
  2
VIEW
  5
6
330
0
100
AcDbSymbolTable
 70
     0
  0
ENDTAB
  0
TABLE
  2
UCS
  5
7
330
0
100
AcDbSymbolTable
 70
     0
  0
ENDTAB
  0
TABLE
  2
APPID
  5
9
330
0
100
AcDbSymbolTable
 70
     1
  0
APPID
  5
10
330
9
100
AcDbSymbolTableRecord
100
AcDbRegAppTableRecord
  2
ACAD
 70
     0
  0
ENDTAB
  0
TABLE
  2
DIMSTYLE
  5
A
330
0
100
AcDbSymbolTable
 70
     1
100
AcDbDimStyleTable
 71
     0
  0
DIMSTYLE
105
4D9
330
A
100
AcDbSymbolTableRecord
100
AcDbDimStyleTableRecord
  2
STANDARD
 70
     0
340
F
  0
ENDTAB
  0
TABLE
  2
BLOCK_RECORD
  5
1
330
0
100
AcDbSymbolTable
 70
    31
  0
BLOCK_RECORD
  5
18
330
1
100
AcDbSymbolTableRecord
100
AcDbBlockTableRecord
  2
*MODEL_SPACE
340
9A9
  0
BLOCK_RECORD
  5
15
330
1
100
AcDbSymbolTableRecord
100
AcDbBlockTableRecord
  2
*PAPER_SPACE
340
9AA
  0
BLOCK_RECORD
  5
7FE
330
1
100
AcDbSymbolTableRecord
100
AcDbBlockTableRecord
  2
*D0
340
0
  0
BLOCK_RECORD
  5
80D
330
1
100
AcDbSymbolTableRecord
100
AcDbBlockTableRecord
  2
*D1
340
0
  0
BLOCK_RECORD
  5
827
330
1
100
AcDbSymbolTableRecord
100
AcDbBlockTableRecord
  2
*D2
340
0
  0
BLOCK_RECORD
  5
835
330
1
100
AcDbSymbolTableRecord
100
AcDbBlockTableRecord
  2
*D3
340
0
  0
BLOCK_RECORD
  5
849
330
1
100
AcDbSymbolTableRecord
100
AcDbBlockTableRecord
  2
*D4
340
0
  0
BLOCK_RECORD
  5
861
330
1
100
AcDbSymbolTableRecord
100
AcDbBlockTableRecord
  2
*D5
340
0
  0
BLOCK_RECORD
  5
87D
330
1
100
AcDbSymbolTableRecord
100
AcDbBlockTableRecord
  2
*D6
340
0
  0
BLOCK_RECORD
  5
8FB
330
1
100
AcDbSymbolTableRecord
100
AcDbBlockTableRecord
  2
*X7
340
0
102
{BLKREFS
331
960
102
}
  0
BLOCK_RECORD
  5
95D
330
1
100
AcDbSymbolTableRecord
100
AcDbBlockTableRecord
  2
A$C46AA5FFB
340
0
102
{BLKREFS
331
997
102
}
  0
BLOCK_RECORD
  5
9AE
330
1
100
AcDbSymbolTableRecord
100
AcDbBlockTableRecord
  2
NTC
340
0
310
2800000020000000200000000100080000000000000400000000000000000000000000000000000000000000000080000080000000808000800000008000800080800000C0C0C000C0DCC000F0CAA6000020400000206000002080000020A0000020C0000020E00000400000004020000040400000406000004080000040A0
310
000040C0000040E00000600000006020000060400000606000006080000060A0000060C0000060E00000800000008020000080400000806000008080000080A0000080C0000080E00000A0000000A0200000A0400000A0600000A0800000A0A00000A0C00000A0E00000C0000000C0200000C0400000C0600000C0800000C0
310
A00000C0C00000C0E00000E0000000E0200000E0400000E0600000E0800000E0A00000E0C00000E0E00040000000400020004000400040006000400080004000A0004000C0004000E00040200000402020004020400040206000402080004020A0004020C0004020E000404000004040200040404000404060004040800040
310
40A0004040C0004040E00040600000406020004060400040606000406080004060A0004060C0004060E00040800000408020004080400040806000408080004080A0004080C0004080E00040A0000040A0200040A0400040A0600040A0800040A0A00040A0C00040A0E00040C0000040C0200040C0400040C0600040C08000
310
40C0A00040C0C00040C0E00040E0000040E0200040E0400040E0600040E0800040E0A00040E0C00040E0E00080000000800020008000400080006000800080008000A0008000C0008000E00080200000802020008020400080206000802080008020A0008020C0008020E00080400000804020008040400080406000804080
310
008040A0008040C0008040E00080600000806020008060400080606000806080008060A0008060C0008060E00080800000808020008080400080806000808080008080A0008080C0008080E00080A0000080A0200080A0400080A0600080A0800080A0A00080A0C00080A0E00080C0000080C0200080C0400080C0600080C0
310
800080C0A00080C0C00080C0E00080E0000080E0200080E0400080E0600080E0800080E0A00080E0C00080E0E000C0000000C0002000C0004000C0006000C0008000C000A000C000C000C000E000C0200000C0202000C0204000C0206000C0208000C020A000C020C000C020E000C0400000C0402000C0404000C0406000C0
310
408000C040A000C040C000C040E000C0600000C0602000C0604000C0606000C0608000C060A000C060C000C060E000C0800000C0802000C0804000C0806000C0808000C080A000C080C000C080E000C0A00000C0A02000C0A04000C0A06000C0A08000C0A0A000C0A0C000C0A0E000C0C00000C0C02000C0C04000C0C06000
310
C0C08000C0C0A000F0FBFF00A4A0A000808080000000FF0000FF000000FFFF00FF000000FF00FF00FFFF0000FFFFFF00FFFFFFFFFFFFFFFFFFFFFFFFFFFFFFFFFFFFFFFFFFFFFFFFFFFFFFFFFFFFFFFFFFFFFFFFFFFFFFFFFFFFFFFFFFFFFFFFFFFFFFFFFFFFFFFFFFFFFFFFFFFFFFFFFFFFFFFFFFFFFFFFFFFFFFFFFFFFFF
310
FFFFFFFFFFFFFFFFFFFFFFFFFFFFFFFFFFFFFFFFFFFFFFFFFFFFFFFFFFFFFFFFFFFFFFFFFFFFFFFFFFFFFFFFFFFFFFFFFFFFFFFFFFFFFFFFFFFFFFFFFFFFFFFFFFFFFFFFFFFFFFFFFFFFFFFFFFFFFFFFFFFFFFFFFFFFFFFFFFFFFFFFFFFFFFFFFFFFFFFFFFFFFFFFFFFFFFFFFFFFFFFFFFFFFFFFFFFFFFFFFFFFFFFFFFFFFF
310
FFFFFFFFFFFFFFFFFFFFFFFFFFFFFFFFFFFFFFFFFFFFFFFFFFFFFFFFFFFFFFFFFFFFFFFFFFFFFFFFFFFFFFFFFFFFFFFFFFFFFFFFFFFFFFFFFFFFFFFFFFFFFFFFFFFFFFFFFFFFFFFFFFFFFFFFFFFFFFFFFFFFFFFFFFFFFFFFFFFFFFFFFFFFFFFFFFFFFFFFFFFFFFFFFFFFFFFFFFFFFFFFFFFFFFFFFFFFFFFFFFFFFFFFFFFFFF
310
FFFFFFFFFFFFFFFFFFFFFFFFFFFFFFFFFFFFFFFF000000000000000000000000000000000000000000000000000000000000FFFF00FF0000000000000000FFFFFFFFFFFFFFFFFFFFFFFFFFFFFFFFFFFFFF00FFFF00FF0000000000000000FFFFFFFFFFFFFFFFFFFFFFFFFFFFFFFFFFFFFF00FFFF00FF000000000000000000
310
00000000000000000000000000FFFFFFFFFF00FFFF00FF0000000000000000000000000000000000000000000000000000FF00FFFF00FF0000000000000000000000000000000000000000000000000000FF00FFFF00FF0000000000000000000000000000000000000000000000000000FF00FFFF00FF0000000000000000
310
00000000000000000000000000000000FFFFFF00FFFF00FF0000000000FFFFFFFFFFFFFFFFFFFFFFFFFFFFFFFFFFFFFFFFFFFF00FFFF000000000000000000000000000000000000000000000000000000000000FFFFFFFFFFFFFFFFFFFFFFFFFFFFFFFFFFFFFFFFFFFFFFFFFFFFFFFFFFFFFFFFFFFFFFFFFFFFFFFFFFFFFF
310
FFFFFFFFFFFFFFFFFFFFFFFFFFFFFFFFFFFFFFFFFFFFFFFFFFFFFFFFFFFFFFFFFFFFFFFFFFFFFFFFFFFFFFFFFFFFFFFFFFFFFFFFFFFFFFFFFFFFFFFFFFFFFFFFFFFFFFFFFFFFFFFFFFFFFFFFFFFFFFFFFFFFFFFFFFFFFFFFFFFFFFFFFFFFFFFFFFFFFFFFFFFFFFFFFFFFFFFFFFFFFFFFFFFFFFFFFFFFFFFFFFFFFFFFFFFFFF
310
FFFFFFFFFFFFFFFFFFFFFFFFFFFFFFFFFFFFFFFFFFFFFFFFFFFFFFFFFFFFFFFFFFFFFFFFFFFFFFFFFFFFFFFFFFFFFFFFFFFFFFFFFFFFFFFFFFFFFFFFFFFFFFFFFFFFFFFFFFFFFFFFFFFFFFFFFFFFFFFFFFFFFFFFFFFFFFFFFFFFFFFFFFFFFFFFFFFFFFFFFFFFFFFFFFFFFFFFFFFFFFFFFFFFFFFFFFFFFFFFFFFFFFFFFFFFFF
310
FFFFFFFFFFFFFFFFFFFFFFFFFFFFFFFFFFFFFFFFFFFFFFFFFFFFFFFFFFFFFFFFFFFFFFFFFFFFFFFFFFFFFFFFFFFFFFFFFFFFFFFFFFFFFFFF
102
{BLKREFS
331
9B4
331
9B9
102
}
  0
BLOCK_RECORD
  5
9BA
330
1
100
AcDbSymbolTableRecord
100
AcDbBlockTableRecord
  2
AI9-BLK14
340
0
310
2800000020000000200000000100080000000000000400000000000000000000000000000000000000000000000080000080000000808000800000008000800080800000C0C0C000C0DCC000F0CAA6000020400000206000002080000020A0000020C0000020E00000400000004020000040400000406000004080000040A0
310
000040C0000040E00000600000006020000060400000606000006080000060A0000060C0000060E00000800000008020000080400000806000008080000080A0000080C0000080E00000A0000000A0200000A0400000A0600000A0800000A0A00000A0C00000A0E00000C0000000C0200000C0400000C0600000C0800000C0
310
A00000C0C00000C0E00000E0000000E0200000E0400000E0600000E0800000E0A00000E0C00000E0E00040000000400020004000400040006000400080004000A0004000C0004000E00040200000402020004020400040206000402080004020A0004020C0004020E000404000004040200040404000404060004040800040
310
40A0004040C0004040E00040600000406020004060400040606000406080004060A0004060C0004060E00040800000408020004080400040806000408080004080A0004080C0004080E00040A0000040A0200040A0400040A0600040A0800040A0A00040A0C00040A0E00040C0000040C0200040C0400040C0600040C08000
310
40C0A00040C0C00040C0E00040E0000040E0200040E0400040E0600040E0800040E0A00040E0C00040E0E00080000000800020008000400080006000800080008000A0008000C0008000E00080200000802020008020400080206000802080008020A0008020C0008020E00080400000804020008040400080406000804080
310
008040A0008040C0008040E00080600000806020008060400080606000806080008060A0008060C0008060E00080800000808020008080400080806000808080008080A0008080C0008080E00080A0000080A0200080A0400080A0600080A0800080A0A00080A0C00080A0E00080C0000080C0200080C0400080C0600080C0
310
800080C0A00080C0C00080C0E00080E0000080E0200080E0400080E0600080E0800080E0A00080E0C00080E0E000C0000000C0002000C0004000C0006000C0008000C000A000C000C000C000E000C0200000C0202000C0204000C0206000C0208000C020A000C020C000C020E000C0400000C0402000C0404000C0406000C0
310
408000C040A000C040C000C040E000C0600000C0602000C0604000C0606000C0608000C060A000C060C000C060E000C0800000C0802000C0804000C0806000C0808000C080A000C080C000C080E000C0A00000C0A02000C0A04000C0A06000C0A08000C0A0A000C0A0C000C0A0E000C0C00000C0C02000C0C04000C0C06000
310
C0C08000C0C0A000F0FBFF00A4A0A000808080000000FF0000FF000000FFFF00FF000000FF00FF00FFFF0000FFFFFF00FF00FFFFFFFF00FFFFFFFFFFFFFFFFFFFFFFFFFFFFFFFFFFFFFFFFFFFFFFFFFFFF00FFFFFFFF00FFFFFFFFFFFFFFFFFFFFFFFFFFFFFFFFFFFFFFFFFFFFFFFFFFFF00FFFFFFFF00FFFFFFFFFFFFFFFF
310
FFFFFFFFFFFFFFFFFFFFFFFFFFFFFFFFFFFF00FFFFFFFF00FFFFFFFFFFFFFFFFFFFFFFFFFFFFFFFFFFFFFFFFFFFFFFFFFFFF00FFFFFFFF00FFFFFFFFFFFFFFFFFFFFFFFFFFFFFFFFFFFFFFFFFFFFFFFFFFFF00FFFFFFFF00FFFFFFFFFFFFFFFFFFFFFFFFFFFFFFFFFFFFFFFFFFFFFFFFFFFF00FFFFFFFF00FFFFFFFFFFFFFF
310
FFFFFFFFFFFFFFFFFFFFFFFFFFFFFFFFFFFFFF00FFFFFFFF00FFFFFFFFFFFFFFFFFFFFFFFFFFFFFFFFFFFFFFFFFFFFFFFFFFFF00FFFFFFFF00FFFFFFFFFFFFFFFFFFFFFFFFFFFFFFFFFFFFFFFFFFFFFFFFFFFF00FFFFFFFF00FFFFFFFFFFFFFFFFFFFFFFFFFFFFFFFFFFFFFFFFFFFFFFFFFFFF00FFFFFFFF00FFFFFFFFFFFF
310
FFFFFFFFFFFFFFFFFFFFFFFFFFFFFFFFFFFFFFFF00FFFFFFFF00FFFFFFFFFFFFFFFFFFFFFFFFFFFFFFFFFFFFFFFFFFFFFFFFFFFF00FFFFFFFF00FFFFFFFFFFFFFFFFFFFFFFFFFFFFFFFFFFFFFFFFFFFFFFFFFFFF00FFFFFFFF0000000000000000000000000000000000000000000000000000FF00FFFFFFFFFFFFFFFFFFFF
310
FFFFFFFFFFFFFFFFFFFFFFFFFFFFFFFFFFFFFFFFFF00FFFFFFFFFFFFFFFFFFFFFFFFFFFFFFFFFFFFFFFFFFFFFFFFFFFFFFFFFFFFFF00FFFFFFFFFFFFFFFFFFFFFFFFFFFFFFFFFFFFFFFFFFFFFFFFFFFFFFFFFFFFFF00FFFFFFFFFFFFFFFFFFFFFFFFFFFFFFFFFFFFFFFFFFFFFFFFFFFFFFFFFF00FF00000000000000000000
310
0000000000000000000000000000000000000000FFFFFFFFFFFFFFFFFFFFFFFFFFFFFFFFFFFFFFFFFFFFFFFFFFFFFFFFFFFFFFFFFFFFFFFFFFFFFFFFFFFFFFFFFFFFFFFFFFFFFFFFFFFFFFFFFFFFFFFFFFFFFFFFFFFFFFFFFFFFFFFFFFFFFFFFFFFFFFFFFFFFFFFFFFFFFFFFFFFFFFFFFFFFFFFFFFFFFFFFFFFFFFFFFFFFFF
310
FFFFFFFFFFFFFFFFFFFFFFFFFFFFFFFFFFFFFFFFFFFFFFFFFFFFFFFFFFFFFFFFFFFFFFFFFFFFFFFFFFFFFFFFFFFFFFFFFFFFFFFFFFFFFFFFFFFFFFFFFFFFFFFFFFFFFFFFFFFFFFFFFFFFFFFFFFFFFFFFFFFFFFFFFFFFFFFFFFFFFFFFFFFFFFFFFFFFFFFFFFFFFFFFFFFFFFFFFFFFFFFFFFFFFFFFFFFFFFFFFFFFFFFFFFFFFF
310
FFFFFFFFFFFFFFFFFFFFFFFFFFFFFFFFFFFFFFFFFFFFFFFFFFFFFFFFFFFFFFFFFFFFFFFFFFFFFFFFFFFFFFFFFFFFFFFFFFFFFFFFFFFFFFFFFFFFFFFFFFFFFFFFFFFFFFFFFFFFFFFFFFFFFFFFFFFFFFFFFFFFFFFFFFFFFFFFFFFFFFFFFFFFFFFFFFFFFFFFFFFFFFFFFFFFFFFFFFFFFFFFFFFFFFFFFFFFFFFFFFFFFFFFFFFFFF
310
FFFFFFFFFFFFFFFFFFFFFFFFFFFFFFFFFFFFFFFFFFFFFFFFFFFFFFFFFFFFFFFFFFFFFFFFFFFFFFFFFFFFFFFFFFFFFFFFFFFFFFFFFFFFFFFF
102
{BLKREFS
331
9FB
102
}
  0
BLOCK_RECORD
  5
9BF
330
1
100
AcDbSymbolTableRecord
100
AcDbBlockTableRecord
  2
AI9-BLK13
340
0
310
2800000020000000200000000100080000000000000400000000000000000000000000000000000000000000000080000080000000808000800000008000800080800000C0C0C000C0DCC000F0CAA6000020400000206000002080000020A0000020C0000020E00000400000004020000040400000406000004080000040A0
310
000040C0000040E00000600000006020000060400000606000006080000060A0000060C0000060E00000800000008020000080400000806000008080000080A0000080C0000080E00000A0000000A0200000A0400000A0600000A0800000A0A00000A0C00000A0E00000C0000000C0200000C0400000C0600000C0800000C0
310
A00000C0C00000C0E00000E0000000E0200000E0400000E0600000E0800000E0A00000E0C00000E0E00040000000400020004000400040006000400080004000A0004000C0004000E00040200000402020004020400040206000402080004020A0004020C0004020E000404000004040200040404000404060004040800040
310
40A0004040C0004040E00040600000406020004060400040606000406080004060A0004060C0004060E00040800000408020004080400040806000408080004080A0004080C0004080E00040A0000040A0200040A0400040A0600040A0800040A0A00040A0C00040A0E00040C0000040C0200040C0400040C0600040C08000
310
40C0A00040C0C00040C0E00040E0000040E0200040E0400040E0600040E0800040E0A00040E0C00040E0E00080000000800020008000400080006000800080008000A0008000C0008000E00080200000802020008020400080206000802080008020A0008020C0008020E00080400000804020008040400080406000804080
310
008040A0008040C0008040E00080600000806020008060400080606000806080008060A0008060C0008060E00080800000808020008080400080806000808080008080A0008080C0008080E00080A0000080A0200080A0400080A0600080A0800080A0A00080A0C00080A0E00080C0000080C0200080C0400080C0600080C0
310
800080C0A00080C0C00080C0E00080E0000080E0200080E0400080E0600080E0800080E0A00080E0C00080E0E000C0000000C0002000C0004000C0006000C0008000C000A000C000C000C000E000C0200000C0202000C0204000C0206000C0208000C020A000C020C000C020E000C0400000C0402000C0404000C0406000C0
310
408000C040A000C040C000C040E000C0600000C0602000C0604000C0606000C0608000C060A000C060C000C060E000C0800000C0802000C0804000C0806000C0808000C080A000C080C000C080E000C0A00000C0A02000C0A04000C0A06000C0A08000C0A0A000C0A0C000C0A0E000C0C00000C0C02000C0C04000C0C06000
310
C0C08000C0C0A000F0FBFF00A4A0A000808080000000FF0000FF000000FFFF00FF000000FF00FF00FFFF0000FFFFFF00FFFFFFFFFFFFFFFFFFFFFFFFFFFFFFFFFFFFFFFFFFFFFFFFFFFFFFFFFFFFFFFFFFFFFFFFFFFFFFFFFFFFFF0000FFFFFFFFFFFF0000FFFFFFFFFFFFFFFFFFFFFFFFFFFFFFFFFFFFFFFFFFFF0000FFFF
310
FFFFFFFF0000FFFFFFFFFFFFFFFFFFFFFFFFFFFFFFFFFFFFFFFFFFFF0000FFFFFFFFFFFF0000FFFFFFFFFFFFFFFFFFFFFFFFFFFFFFFFFFFFFFFFFFFF0000FFFFFFFFFFFF0000FFFFFFFFFFFFFFFFFFFFFFFFFFFFFFFFFFFFFFFFFFFF0000FFFFFFFFFFFF0000FFFFFFFFFFFFFFFFFFFFFFFFFFFFFFFFFFFFFFFFFFFF0000FF
310
FFFFFFFFFF0000FFFFFFFFFFFFFFFFFFFFFFFFFFFFFFFFFFFFFFFFFFFF0000FFFFFFFFFFFF0000FFFFFFFFFFFFFFFFFFFFFFFFFFFFFFFFFFFFFFFFFFFF0000FFFFFFFFFFFF0000FFFFFFFFFFFFFFFFFFFFFFFFFFFFFFFFFFFFFFFFFFFF0000FFFFFFFFFFFF0000FFFFFFFFFFFFFFFFFFFFFFFFFFFFFFFFFFFFFFFFFFFF0000
310
FFFFFFFFFFFF0000FFFFFFFFFFFFFFFFFFFFFFFFFFFFFFFFFFFFFFFFFFFF0000FFFFFFFFFFFF0000FFFFFFFFFFFFFFFFFFFFFFFFFFFFFFFFFFFFFFFFFFFF0000FFFFFFFFFFFF0000FFFFFFFFFFFFFFFFFFFFFFFFFFFFFFFFFFFFFFFFFFFF0000FFFFFFFFFFFF0000FFFFFFFFFFFFFFFFFFFFFFFFFFFFFFFFFFFFFFFFFFFF00
310
00FFFFFFFFFFFF0000FFFFFFFFFFFFFFFFFFFFFFFFFFFFFFFFFFFFFFFFFFFF00000000000000000000FFFFFFFFFFFFFFFFFFFFFFFFFFFFFFFFFFFFFFFFFFFF00FFFFFFFFFFFFFFFF00FFFFFFFFFFFFFFFFFFFFFFFFFFFFFFFFFFFFFFFFFFFF00FFFFFFFFFFFFFFFF00FFFFFFFFFFFFFFFFFFFFFFFFFFFFFFFFFFFFFFFFFFFF
310
00000000000000000000FFFFFFFFFFFFFFFFFFFFFFFFFFFFFFFFFFFFFFFFFFFF0000FFFFFFFFFFFF0000FFFFFFFFFFFFFFFFFFFFFFFFFFFFFFFFFFFFFFFFFFFF0000FFFFFFFFFFFF0000FFFFFFFFFFFFFFFFFFFFFFFFFFFFFFFFFFFFFFFFFFFF0000FFFFFFFFFFFF0000FFFFFFFFFFFFFFFFFFFFFFFFFFFFFFFFFFFFFFFFFF
310
FF0000FFFFFFFFFFFF0000FFFFFFFFFFFFFFFFFFFFFFFFFFFFFFFFFFFFFFFFFFFF0000FFFFFFFFFFFF0000FFFFFFFFFFFFFFFFFFFFFFFFFFFFFFFFFFFFFFFFFFFF0000FFFFFFFFFFFF0000FFFFFFFFFFFFFFFFFFFFFFFFFFFFFFFFFFFFFFFFFFFF0000FFFFFFFFFFFF0000FFFFFFFFFFFFFFFFFFFFFFFFFFFFFFFFFFFFFFFF
310
FFFF0000FFFFFFFFFFFF0000FFFFFFFFFFFFFFFFFFFFFFFFFFFFFFFFFFFFFFFFFFFF0000FFFFFFFFFFFF0000FFFFFFFFFFFFFFFFFFFFFFFFFFFFFFFFFFFFFFFFFFFF0000FFFFFFFFFFFF0000FFFFFFFFFFFFFFFFFFFFFFFFFFFFFFFFFFFFFFFFFFFF0000FFFFFFFFFFFF0000FFFFFFFFFFFFFFFFFFFFFFFFFFFFFFFFFFFFFF
310
FFFFFF0000FFFFFFFFFFFF0000FFFFFFFFFFFFFFFFFFFFFFFFFFFFFFFFFFFFFFFFFFFFFFFFFFFFFFFFFFFFFFFFFFFFFFFFFFFFFFFFFFFFFF
102
{BLKREFS
331
9FC
102
}
  0
BLOCK_RECORD
  5
9C4
330
1
100
AcDbSymbolTableRecord
100
AcDbBlockTableRecord
  2
AI9-BLK11
340
0
310
2800000020000000200000000100080000000000000400000000000000000000000000000000000000000000000080000080000000808000800000008000800080800000C0C0C000C0DCC000F0CAA6000020400000206000002080000020A0000020C0000020E00000400000004020000040400000406000004080000040A0
310
000040C0000040E00000600000006020000060400000606000006080000060A0000060C0000060E00000800000008020000080400000806000008080000080A0000080C0000080E00000A0000000A0200000A0400000A0600000A0800000A0A00000A0C00000A0E00000C0000000C0200000C0400000C0600000C0800000C0
310
A00000C0C00000C0E00000E0000000E0200000E0400000E0600000E0800000E0A00000E0C00000E0E00040000000400020004000400040006000400080004000A0004000C0004000E00040200000402020004020400040206000402080004020A0004020C0004020E000404000004040200040404000404060004040800040
310
40A0004040C0004040E00040600000406020004060400040606000406080004060A0004060C0004060E00040800000408020004080400040806000408080004080A0004080C0004080E00040A0000040A0200040A0400040A0600040A0800040A0A00040A0C00040A0E00040C0000040C0200040C0400040C0600040C08000
310
40C0A00040C0C00040C0E00040E0000040E0200040E0400040E0600040E0800040E0A00040E0C00040E0E00080000000800020008000400080006000800080008000A0008000C0008000E00080200000802020008020400080206000802080008020A0008020C0008020E00080400000804020008040400080406000804080
310
008040A0008040C0008040E00080600000806020008060400080606000806080008060A0008060C0008060E00080800000808020008080400080806000808080008080A0008080C0008080E00080A0000080A0200080A0400080A0600080A0800080A0A00080A0C00080A0E00080C0000080C0200080C0400080C0600080C0
310
800080C0A00080C0C00080C0E00080E0000080E0200080E0400080E0600080E0800080E0A00080E0C00080E0E000C0000000C0002000C0004000C0006000C0008000C000A000C000C000C000E000C0200000C0202000C0204000C0206000C0208000C020A000C020C000C020E000C0400000C0402000C0404000C0406000C0
310
408000C040A000C040C000C040E000C0600000C0602000C0604000C0606000C0608000C060A000C060C000C060E000C0800000C0802000C0804000C0806000C0808000C080A000C080C000C080E000C0A00000C0A02000C0A04000C0A06000C0A08000C0A0A000C0A0C000C0A0E000C0C00000C0C02000C0C04000C0C06000
310
C0C08000C0C0A000F0FBFF00A4A0A000808080000000FF0000FF000000FFFF00FF000000FF00FF00FFFF0000FFFFFF00FFFFFFFFFFFFFFFFFFFFFFFFFFFFFFFFFFFFFFFFFFFFFFFFFFFFFFFFFFFFFFFFFFFFFFFFFFFFFFFFFFFFFFFFFFFF00000000FFFFFFFFFFFFFFFFFFFFFF000000FFFFFFFFFFFFFFFFFFFFFFFFFFFF00
310
FFFF00FFFFFFFFFFFFFFFFFFFFFF00FFFFFFFFFFFFFFFFFFFFFFFFFFFFFFFF00FFFF00FFFFFFFFFFFFFFFFFFFFFF00FFFFFFFFFFFFFFFFFFFFFFFFFFFFFFFF00FFFF00FFFFFFFFFFFFFFFFFFFFFF00FFFFFFFFFFFFFFFFFFFFFFFFFFFFFFFF00FFFF00FFFFFFFFFFFFFFFFFFFFFF00FFFFFFFFFFFFFFFFFFFFFFFFFFFFFFFF
310
00FFFF00FFFFFFFFFFFFFFFFFFFFFF00FFFFFFFFFFFFFFFFFFFFFFFFFFFFFFFF00FFFF00FFFFFFFFFFFFFFFFFFFFFF00FFFFFFFFFFFFFFFFFFFFFFFFFFFFFFFF00FFFF00FFFFFFFFFFFFFFFFFFFFFF00FFFFFFFFFFFFFFFFFFFFFFFFFFFFFFFF00FFFF00FFFFFFFFFFFFFFFFFFFFFF00FFFFFFFFFFFFFFFFFFFFFFFFFFFFFF
310
FF00FFFF00FFFFFFFFFFFFFFFFFFFFFF00FFFFFFFFFFFFFFFFFFFFFFFFFFFFFFFF00FFFF00FFFFFFFFFFFFFFFFFFFFFF00FFFFFFFFFFFFFFFFFFFFFFFFFFFFFFFF00FFFF00FFFFFFFFFFFFFFFFFFFFFF00FFFFFFFFFFFFFFFFFFFFFFFFFFFFFFFF00FFFF00FFFFFFFFFFFFFFFFFFFFFF00FFFFFFFFFFFFFFFFFFFFFFFFFFFF
310
FFFF00FFFF00FFFFFFFFFFFFFFFFFFFFFF00FFFFFFFFFFFFFFFFFFFFFFFFFFFFFFFF00FFFF00FFFFFFFFFFFFFFFFFFFFFF00FFFFFFFFFFFFFFFFFFFFFFFFFFFFFFFF00FFFF00FFFFFFFFFFFFFFFFFFFFFF00FFFFFFFFFFFFFFFFFFFFFFFFFFFFFFFF00FFFF00FFFFFFFFFFFFFFFFFFFF00FFFFFFFFFFFFFFFFFFFFFFFFFFFF
310
FFFFFF00FFFF00FFFFFFFFFFFFFFFFFFFF00FFFFFFFFFFFFFFFFFFFFFFFFFFFFFFFFFF00FFFF00FFFFFFFFFFFFFFFFFFFF00FFFFFFFFFFFFFFFFFFFFFFFFFFFFFFFFFF00FFFF00FFFFFFFFFFFFFFFFFFFF00FFFFFFFFFFFFFFFFFFFFFFFFFFFFFFFFFF00FFFF00FFFFFFFFFFFFFFFFFFFF00FFFFFFFFFFFFFFFFFFFFFFFFFF
310
FFFFFFFF00FFFF00FFFFFFFFFFFFFFFFFF0000FFFF00FFFFFFFFFFFFFFFFFFFFFFFFFFFF00FFFF00FFFFFFFFFFFFFFFF0000FFFFFF00FFFFFFFFFFFFFFFFFFFFFFFFFFFF00FFFF00000000000000000000FFFFFFFF00FFFFFFFFFFFFFFFFFFFFFFFFFFFF00FFFFFFFFFFFFFFFFFFFFFFFFFFFFFF00FFFFFFFFFFFFFFFFFFFF
310
FFFFFFFFFF00FFFFFFFFFFFFFFFFFFFFFFFFFFFF00FFFFFFFFFFFFFFFFFFFFFFFFFFFFFFFF00FFFFFFFFFFFFFFFFFFFFFFFFFFFF00FFFFFFFFFFFFFFFFFFFFFFFFFFFFFFFF00FFFFFFFFFFFFFFFFFFFFFFFFFFFFFF00FFFFFFFFFFFFFFFFFFFFFFFFFFFFFF00FFFFFFFFFFFFFFFFFFFFFFFFFFFFFF00FFFFFFFFFFFFFFFFFF
310
FFFFFFFFFFFF00FFFF00000000000000000000FFFFFFFF00FFFFFFFFFFFFFFFFFFFFFFFFFFFF00FFFF00FFFFFFFFFFFFFFFFFF0000FFFF00
102
{BLKREFS
331
9FD
102
}
  0
BLOCK_RECORD
  5
9C9
330
1
100
AcDbSymbolTableRecord
100
AcDbBlockTableRecord
  2
AI9-BLK10
340
0
310
2800000020000000200000000100080000000000000400000000000000000000000000000000000000000000000080000080000000808000800000008000800080800000C0C0C000C0DCC000F0CAA6000020400000206000002080000020A0000020C0000020E00000400000004020000040400000406000004080000040A0
310
000040C0000040E00000600000006020000060400000606000006080000060A0000060C0000060E00000800000008020000080400000806000008080000080A0000080C0000080E00000A0000000A0200000A0400000A0600000A0800000A0A00000A0C00000A0E00000C0000000C0200000C0400000C0600000C0800000C0
310
A00000C0C00000C0E00000E0000000E0200000E0400000E0600000E0800000E0A00000E0C00000E0E00040000000400020004000400040006000400080004000A0004000C0004000E00040200000402020004020400040206000402080004020A0004020C0004020E000404000004040200040404000404060004040800040
310
40A0004040C0004040E00040600000406020004060400040606000406080004060A0004060C0004060E00040800000408020004080400040806000408080004080A0004080C0004080E00040A0000040A0200040A0400040A0600040A0800040A0A00040A0C00040A0E00040C0000040C0200040C0400040C0600040C08000
310
40C0A00040C0C00040C0E00040E0000040E0200040E0400040E0600040E0800040E0A00040E0C00040E0E00080000000800020008000400080006000800080008000A0008000C0008000E00080200000802020008020400080206000802080008020A0008020C0008020E00080400000804020008040400080406000804080
310
008040A0008040C0008040E00080600000806020008060400080606000806080008060A0008060C0008060E00080800000808020008080400080806000808080008080A0008080C0008080E00080A0000080A0200080A0400080A0600080A0800080A0A00080A0C00080A0E00080C0000080C0200080C0400080C0600080C0
310
800080C0A00080C0C00080C0E00080E0000080E0200080E0400080E0600080E0800080E0A00080E0C00080E0E000C0000000C0002000C0004000C0006000C0008000C000A000C000C000C000E000C0200000C0202000C0204000C0206000C0208000C020A000C020C000C020E000C0400000C0402000C0404000C0406000C0
310
408000C040A000C040C000C040E000C0600000C0602000C0604000C0606000C0608000C060A000C060C000C060E000C0800000C0802000C0804000C0806000C0808000C080A000C080C000C080E000C0A00000C0A02000C0A04000C0A06000C0A08000C0A0A000C0A0C000C0A0E000C0C00000C0C02000C0C04000C0C06000
310
C0C08000C0C0A000F0FBFF00A4A0A000808080000000FF0000FF000000FFFF00FF000000FF00FF00FFFF0000FFFFFF00FFFFFFFFFFFFFFFFFFFFFFFFFFFFFFFF00FFFFFFFFFFFFFFFFFFFFFFFF00FFFFFFFFFFFFFFFFFFFFFFFFFFFFFFFFFFFF00FFFFFFFFFFFFFFFFFFFFFF00FFFFFFFFFFFFFFFFFFFFFFFFFFFFFFFFFFFF
310
FF00FFFFFFFFFFFFFFFFFFFFFF00FFFFFFFFFFFFFFFFFFFFFFFFFFFFFFFFFFFFFF00FFFFFFFFFFFFFFFFFFFFFF00FFFFFFFFFFFFFFFFFFFFFFFFFFFFFFFFFFFFFF00FFFFFFFFFFFFFFFFFFFFFF00FFFFFFFFFFFFFFFFFFFFFFFFFFFFFFFFFFFFFF00FFFFFFFFFFFFFFFFFFFFFF00FFFFFFFFFFFFFFFFFFFFFFFFFFFFFFFFFF
310
FFFF00FFFFFFFFFFFFFFFFFFFFFF00FFFFFFFFFFFFFFFFFFFFFFFFFFFFFFFFFFFFFF00FFFFFFFFFFFFFFFFFFFF00FFFFFFFFFFFFFFFFFFFFFFFFFFFFFFFFFFFFFFFF00FFFFFFFFFFFFFFFFFFFF00FFFFFFFFFFFFFFFFFFFFFFFFFFFFFFFFFFFFFFFF00FFFFFFFFFFFFFFFFFFFF00FFFFFFFFFFFFFFFFFFFFFFFFFFFFFFFFFF
310
FFFFFF00FFFFFFFFFFFFFFFFFFFF00FFFFFFFFFFFFFFFFFFFFFFFFFFFFFFFFFFFFFFFF00FFFFFFFFFFFFFFFFFFFF00FFFFFFFFFFFFFFFFFFFFFFFFFFFFFFFFFFFFFFFF00FFFFFFFFFFFFFFFFFFFF00FFFFFFFFFFFFFFFFFFFFFFFFFFFFFFFFFFFFFFFF00FFFFFFFFFFFFFFFFFF00FFFFFFFFFFFFFFFFFFFFFFFFFFFFFFFFFF
310
FFFFFFFF00FFFFFFFFFFFFFFFFFF00FFFFFFFFFFFFFFFFFFFFFFFFFFFFFFFFFFFFFFFFFF00FFFFFFFFFFFFFFFFFF00FFFFFFFFFFFFFFFFFFFFFFFFFFFFFFFFFFFFFFFFFF0000000000000000000000FFFFFFFFFFFFFFFFFFFFFFFFFFFFFFFFFFFFFFFFFFFFFFFFFFFFFFFFFFFFFFFFFFFFFFFFFFFFFFFFFFFFFFFFFFFFFFFF
310
FFFFFFFFFFFFFFFFFFFFFFFFFFFFFFFFFFFFFFFFFFFFFFFFFFFFFFFFFFFFFFFFFFFFFFFFFFFFFFFFFFFFFFFFFFFFFFFFFFFFFFFFFFFFFFFFFFFFFFFFFFFFFFFFFFFFFFFFFFFFFFFFFFFFFFFFFFFFFFFFFFFFFFFFFFFFFFFFFFFFFFFFFFFFFFFFFFFFFFFFFFFFFFFFFFFFFFFFFFFFFFFFFFFFFFFFFFFFFFFFFFFFFFFFFFFFFF
310
FFFFFFFFFFFFFFFFFFFFFFFFFFFFFFFFFFFFFFFFFFFFFFFFFFFFFFFFFFFFFFFFFFFFFFFFFFFFFFFFFFFFFFFFFFFFFFFFFFFFFFFFFFFFFFFFFFFFFFFFFFFFFFFFFFFFFFFFFFFFFFFFFFFFFFFFFFFFFFFFFFFFFFFFFFFFFFFFFFFFFFFFFFFFFFFFFFFFFFFFFFFFFFFFFFFFFFFFFFFFFFFFFFFFFFFFFFFFFFFFFFFFFFFFFFFFFF
310
FFFFFFFFFFFFFFFFFFFFFFFFFFFFFFFFFFFFFFFFFFFFFFFFFFFFFFFFFFFFFFFFFFFFFFFFFFFFFFFFFFFFFFFFFFFFFFFFFFFFFFFFFFFFFFFFFFFFFFFFFFFFFFFFFFFFFFFFFFFFFFFFFFFFFFFFFFFFFFFFFFFFFFFFFFFFFFFFFFFFFFFFFFFFFFFFFFFFFFFFFFFFFFFFFFFFFFFFFFFFFFFFFFFFFFFFFFFFFFFFFFFFFFFFFFFFFF
310
FFFFFFFFFFFFFFFFFFFFFFFFFFFFFFFFFFFFFFFFFFFFFFFFFFFFFFFFFFFFFFFFFFFFFFFFFFFFFFFFFFFFFFFFFFFFFFFFFFFFFFFFFFFFFFFF
102
{BLKREFS
331
9FE
102
}
  0
BLOCK_RECORD
  5
9CD
330
1
100
AcDbSymbolTableRecord
100
AcDbBlockTableRecord
  2
AI9-BLK9
340
0
310
2800000020000000200000000100080000000000000400000000000000000000000000000000000000000000000080000080000000808000800000008000800080800000C0C0C000C0DCC000F0CAA6000020400000206000002080000020A0000020C0000020E00000400000004020000040400000406000004080000040A0
310
000040C0000040E00000600000006020000060400000606000006080000060A0000060C0000060E00000800000008020000080400000806000008080000080A0000080C0000080E00000A0000000A0200000A0400000A0600000A0800000A0A00000A0C00000A0E00000C0000000C0200000C0400000C0600000C0800000C0
310
A00000C0C00000C0E00000E0000000E0200000E0400000E0600000E0800000E0A00000E0C00000E0E00040000000400020004000400040006000400080004000A0004000C0004000E00040200000402020004020400040206000402080004020A0004020C0004020E000404000004040200040404000404060004040800040
310
40A0004040C0004040E00040600000406020004060400040606000406080004060A0004060C0004060E00040800000408020004080400040806000408080004080A0004080C0004080E00040A0000040A0200040A0400040A0600040A0800040A0A00040A0C00040A0E00040C0000040C0200040C0400040C0600040C08000
310
40C0A00040C0C00040C0E00040E0000040E0200040E0400040E0600040E0800040E0A00040E0C00040E0E00080000000800020008000400080006000800080008000A0008000C0008000E00080200000802020008020400080206000802080008020A0008020C0008020E00080400000804020008040400080406000804080
310
008040A0008040C0008040E00080600000806020008060400080606000806080008060A0008060C0008060E00080800000808020008080400080806000808080008080A0008080C0008080E00080A0000080A0200080A0400080A0600080A0800080A0A00080A0C00080A0E00080C0000080C0200080C0400080C0600080C0
310
800080C0A00080C0C00080C0E00080E0000080E0200080E0400080E0600080E0800080E0A00080E0C00080E0E000C0000000C0002000C0004000C0006000C0008000C000A000C000C000C000E000C0200000C0202000C0204000C0206000C0208000C020A000C020C000C020E000C0400000C0402000C0404000C0406000C0
310
408000C040A000C040C000C040E000C0600000C0602000C0604000C0606000C0608000C060A000C060C000C060E000C0800000C0802000C0804000C0806000C0808000C080A000C080C000C080E000C0A00000C0A02000C0A04000C0A06000C0A08000C0A0A000C0A0C000C0A0E000C0C00000C0C02000C0C04000C0C06000
310
C0C08000C0C0A000F0FBFF00A4A0A000808080000000FF0000FF000000FFFF00FF000000FF00FF00FFFF0000FFFFFF00FFFFFFFFFFFFFFFFFFFFFFFFFFFFFFFFFFFFFFFFFFFFFFFFFFFFFFFFFFFFFFFFFFFFFFFFFFFFFFFFFFFFFFFFFFFFFF0000FFFFFFFFFFFFFFFFFFFFFFFFFFFFFFFFFFFFFFFFFFFFFFFFFFFFFFFF0000
310
FF0000FFFFFFFFFFFFFFFFFFFFFFFFFFFFFFFFFFFFFFFFFFFFFFFFFFFFFF00FFFFFF0000FFFFFFFFFFFFFFFFFFFFFFFFFFFFFFFFFFFFFFFFFFFFFFFFFFFF00FFFFFFFF0000FFFFFFFFFFFFFFFFFFFFFFFFFFFFFFFFFFFFFFFFFFFFFFFF00FF00000000FF00FFFFFFFFFFFFFFFFFFFFFFFFFFFFFFFFFFFFFFFFFFFFFFFF0000
310
00FFFF00FF00FFFFFFFFFFFFFFFFFFFFFFFFFFFFFFFFFFFFFFFFFFFFFFFF0000FFFFFFFF0000FFFFFFFFFFFFFFFFFFFFFFFFFFFFFFFFFFFFFFFFFFFFFFFF0000FFFFFFFF0000FFFFFFFFFFFFFFFFFFFFFFFFFFFFFFFFFFFFFFFFFFFFFF00FF00FFFFFFFF00FF00FFFFFFFFFFFFFFFFFFFFFFFFFFFFFFFFFFFFFFFFFFFF0000
310
FFFFFFFFFF00FF00FFFFFFFFFFFFFFFFFFFFFFFFFFFFFFFFFFFFFFFFFFFF0000FFFFFFFFFFFF0000FFFFFFFFFFFFFFFFFFFFFFFFFFFFFFFFFFFFFFFFFFFF0000FFFFFFFFFFFF0000FFFFFFFFFFFFFFFFFFFFFFFFFFFFFFFFFFFFFFFFFFFF0000FFFFFFFFFFFF0000FFFFFFFFFFFFFFFFFFFFFFFFFFFFFFFFFFFFFFFFFFFF00
310
00FFFFFFFFFFFF0000FFFFFFFFFFFFFFFFFFFFFFFFFFFFFFFFFFFFFFFFFFFF0000FFFFFFFFFFFF0000FFFFFFFFFFFFFFFFFFFFFFFFFFFFFFFFFFFFFFFFFFFF0000FFFFFFFFFFFF0000FFFFFFFFFFFFFFFFFFFFFFFFFFFFFFFFFFFFFFFFFFFF0000FFFFFFFFFFFF0000FFFFFFFFFFFFFFFFFFFFFFFFFFFFFFFFFFFFFFFFFFFF
310
0000FFFFFFFFFFFF0000FFFFFFFFFFFFFFFFFFFFFFFFFFFFFFFFFFFFFFFFFFFF0000FFFFFFFFFFFF0000FFFFFFFFFFFFFFFFFFFFFFFFFFFFFFFFFFFFFFFFFFFF0000FFFFFFFFFFFF0000FFFFFFFFFFFFFFFFFFFFFFFFFFFFFFFFFFFFFFFFFFFF00FF00FFFFFFFF00FF00FFFFFFFFFFFFFFFFFFFFFFFFFFFFFFFFFFFFFFFFFF
310
FF00FF00FFFFFFFF00FF00FFFFFFFFFFFFFFFFFFFFFFFFFFFFFFFFFFFFFFFFFFFF00FF00FFFFFFFF00FF00FFFFFFFFFFFFFFFFFFFFFFFFFFFFFFFFFFFFFFFFFFFFFF0000FFFFFFFF0000FFFFFFFFFFFFFFFFFFFFFFFFFFFFFFFFFFFFFFFFFFFFFFFF00FF00FFFF00FF00FFFFFFFFFFFFFFFFFFFFFFFFFFFFFFFFFFFFFFFFFF
310
FFFFFF00FF00000000FF00FFFFFFFFFFFFFFFFFFFFFFFFFFFFFFFFFFFFFFFFFFFFFFFFFF00FFFFFFFF0000FFFFFFFFFFFFFFFFFFFFFFFFFFFFFFFFFFFFFFFFFFFFFFFFFF00FFFFFFFF00FFFFFFFFFFFFFFFFFFFFFFFFFFFFFFFFFFFFFFFFFFFFFFFFFFFFFF00000000FFFFFFFFFFFFFFFFFFFFFFFFFFFFFFFFFFFFFFFFFFFF
310
FFFFFFFFFFFFFF0000FFFFFFFFFFFFFFFFFFFFFFFFFFFFFFFFFFFFFFFFFFFFFFFFFFFFFFFFFFFFFFFFFFFFFFFFFFFFFFFFFFFFFFFFFFFFFF
102
{BLKREFS
331
9FF
102
}
  0
BLOCK_RECORD
  5
9D2
330
1
100
AcDbSymbolTableRecord
100
AcDbBlockTableRecord
  2
AI9-BLK8
340
0
310
2800000020000000200000000100080000000000000400000000000000000000000000000000000000000000000080000080000000808000800000008000800080800000C0C0C000C0DCC000F0CAA6000020400000206000002080000020A0000020C0000020E00000400000004020000040400000406000004080000040A0
310
000040C0000040E00000600000006020000060400000606000006080000060A0000060C0000060E00000800000008020000080400000806000008080000080A0000080C0000080E00000A0000000A0200000A0400000A0600000A0800000A0A00000A0C00000A0E00000C0000000C0200000C0400000C0600000C0800000C0
310
A00000C0C00000C0E00000E0000000E0200000E0400000E0600000E0800000E0A00000E0C00000E0E00040000000400020004000400040006000400080004000A0004000C0004000E00040200000402020004020400040206000402080004020A0004020C0004020E000404000004040200040404000404060004040800040
310
40A0004040C0004040E00040600000406020004060400040606000406080004060A0004060C0004060E00040800000408020004080400040806000408080004080A0004080C0004080E00040A0000040A0200040A0400040A0600040A0800040A0A00040A0C00040A0E00040C0000040C0200040C0400040C0600040C08000
310
40C0A00040C0C00040C0E00040E0000040E0200040E0400040E0600040E0800040E0A00040E0C00040E0E00080000000800020008000400080006000800080008000A0008000C0008000E00080200000802020008020400080206000802080008020A0008020C0008020E00080400000804020008040400080406000804080
310
008040A0008040C0008040E00080600000806020008060400080606000806080008060A0008060C0008060E00080800000808020008080400080806000808080008080A0008080C0008080E00080A0000080A0200080A0400080A0600080A0800080A0A00080A0C00080A0E00080C0000080C0200080C0400080C0600080C0
310
800080C0A00080C0C00080C0E00080E0000080E0200080E0400080E0600080E0800080E0A00080E0C00080E0E000C0000000C0002000C0004000C0006000C0008000C000A000C000C000C000E000C0200000C0202000C0204000C0206000C0208000C020A000C020C000C020E000C0400000C0402000C0404000C0406000C0
310
408000C040A000C040C000C040E000C0600000C0602000C0604000C0606000C0608000C060A000C060C000C060E000C0800000C0802000C0804000C0806000C0808000C080A000C080C000C080E000C0A00000C0A02000C0A04000C0A06000C0A08000C0A0A000C0A0C000C0A0E000C0C00000C0C02000C0C04000C0C06000
310
C0C08000C0C0A000F0FBFF00A4A0A000808080000000FF0000FF000000FFFF00FF000000FF00FF00FFFF0000FFFFFF00FFFFFFFFFFFFFFFFFFFFFFFFFFFFFFFFFFFFFFFFFFFFFFFFFFFFFFFFFFFFFFFFFFFFFFFFFFFFFFFFFFFFFF0000FFFFFFFFFFFF0000FFFFFFFFFFFFFFFFFFFFFFFFFFFFFFFFFFFFFFFFFFFF0000FFFF
310
FFFFFFFF0000FFFFFFFFFFFFFFFFFFFFFFFFFFFFFFFFFFFFFFFFFFFF0000FFFFFFFFFF00FF00FFFFFFFFFFFFFFFFFFFFFFFFFFFFFFFFFFFFFFFFFFFF0000FFFFFFFFFF00FF00FFFFFFFFFFFFFFFFFFFFFFFFFFFFFFFFFFFFFFFFFFFF0000FFFFFFFFFF00FF00FFFFFFFFFFFFFFFFFFFFFFFFFFFFFFFFFFFFFFFFFFFF0000FF
310
FFFFFF00FFFF00FFFFFFFFFFFFFFFFFFFFFFFFFFFFFFFFFFFFFFFFFFFF0000FFFFFFFF00FF0000FFFFFFFFFFFFFFFFFFFFFFFFFFFFFFFFFFFFFFFFFFFF0000FFFFFFFF00FF0000FFFFFFFFFFFFFFFFFFFFFFFFFFFFFFFFFFFFFFFFFFFF0000FFFFFFFF00000000FFFFFFFFFFFFFFFFFFFFFFFFFFFFFFFFFFFFFFFFFFFF0000
310
FFFFFF00FF000000FFFFFFFFFFFFFFFFFFFFFFFFFFFFFFFFFFFFFFFFFFFF0000FFFFFF00FF000000FFFFFFFFFFFFFFFFFFFFFFFFFFFFFFFFFFFFFFFFFFFF0000FFFFFF00FF000000FFFFFFFFFFFFFFFFFFFFFFFFFFFFFFFFFFFFFFFFFFFF0000FFFF00FF00FF0000FFFFFFFFFFFFFFFFFFFFFFFFFFFFFFFFFFFFFFFFFFFF00
310
00FFFF00FF00FF0000FFFFFFFFFFFFFFFFFFFFFFFFFFFFFFFFFFFFFFFFFFFF0000FFFF00FF00FF0000FFFFFFFFFFFFFFFFFFFFFFFFFFFFFFFFFFFFFFFFFFFF0000FF00FFFF00FF0000FFFFFFFFFFFFFFFFFFFFFFFFFFFFFFFFFFFFFFFFFFFF0000FF00FF00FFFF0000FFFFFFFFFFFFFFFFFFFFFFFFFFFFFFFFFFFFFFFFFFFF
310
0000FF00FF00FFFF0000FFFFFFFFFFFFFFFFFFFFFFFFFFFFFFFFFFFFFFFFFFFF0000FF00FF00FFFF0000FFFFFFFFFFFFFFFFFFFFFFFFFFFFFFFFFFFFFFFFFFFF000000FFFF00FFFF0000FFFFFFFFFFFFFFFFFFFFFFFFFFFFFFFFFFFFFFFFFFFF000000FF00FFFFFF0000FFFFFFFFFFFFFFFFFFFFFFFFFFFFFFFFFFFFFFFFFF
310
FF000000FF00FFFFFF0000FFFFFFFFFFFFFFFFFFFFFFFFFFFFFFFFFFFFFFFFFFFF0000FFFF00FFFFFF0000FFFFFFFFFFFFFFFFFFFFFFFFFFFFFFFFFFFFFFFFFFFF0000FFFF00FFFFFF0000FFFFFFFFFFFFFFFFFFFFFFFFFFFFFFFFFFFFFFFFFFFF00FFFF00FFFFFFFF0000FFFFFFFFFFFFFFFFFFFFFFFFFFFFFFFFFFFFFFFF
310
FFFF00FFFF00FFFFFFFF0000FFFFFFFFFFFFFFFFFFFFFFFFFFFFFFFFFFFFFFFFFFFF00FFFF00FFFFFFFF0000FFFFFFFFFFFFFFFFFFFFFFFFFFFFFFFFFFFFFFFFFFFF00FFFF00FFFFFFFF0000FFFFFFFFFFFFFFFFFFFFFFFFFFFFFFFFFFFFFFFFFFFF00FF00FFFFFFFFFF0000FFFFFFFFFFFFFFFFFFFFFFFFFFFFFFFFFFFFFF
310
FFFFFF000000FFFFFFFFFF0000FFFFFFFFFFFFFFFFFFFFFFFFFFFFFFFFFFFFFFFFFFFFFFFFFFFFFFFFFFFFFFFFFFFFFFFFFFFFFFFFFFFFFF
102
{BLKREFS
331
A00
102
}
  0
BLOCK_RECORD
  5
9D7
330
1
100
AcDbSymbolTableRecord
100
AcDbBlockTableRecord
  2
AI9-BLK7
340
0
310
2800000020000000200000000100080000000000000400000000000000000000000000000000000000000000000080000080000000808000800000008000800080800000C0C0C000C0DCC000F0CAA6000020400000206000002080000020A0000020C0000020E00000400000004020000040400000406000004080000040A0
310
000040C0000040E00000600000006020000060400000606000006080000060A0000060C0000060E00000800000008020000080400000806000008080000080A0000080C0000080E00000A0000000A0200000A0400000A0600000A0800000A0A00000A0C00000A0E00000C0000000C0200000C0400000C0600000C0800000C0
310
A00000C0C00000C0E00000E0000000E0200000E0400000E0600000E0800000E0A00000E0C00000E0E00040000000400020004000400040006000400080004000A0004000C0004000E00040200000402020004020400040206000402080004020A0004020C0004020E000404000004040200040404000404060004040800040
310
40A0004040C0004040E00040600000406020004060400040606000406080004060A0004060C0004060E00040800000408020004080400040806000408080004080A0004080C0004080E00040A0000040A0200040A0400040A0600040A0800040A0A00040A0C00040A0E00040C0000040C0200040C0400040C0600040C08000
310
40C0A00040C0C00040C0E00040E0000040E0200040E0400040E0600040E0800040E0A00040E0C00040E0E00080000000800020008000400080006000800080008000A0008000C0008000E00080200000802020008020400080206000802080008020A0008020C0008020E00080400000804020008040400080406000804080
310
008040A0008040C0008040E00080600000806020008060400080606000806080008060A0008060C0008060E00080800000808020008080400080806000808080008080A0008080C0008080E00080A0000080A0200080A0400080A0600080A0800080A0A00080A0C00080A0E00080C0000080C0200080C0400080C0600080C0
310
800080C0A00080C0C00080C0E00080E0000080E0200080E0400080E0600080E0800080E0A00080E0C00080E0E000C0000000C0002000C0004000C0006000C0008000C000A000C000C000C000E000C0200000C0202000C0204000C0206000C0208000C020A000C020C000C020E000C0400000C0402000C0404000C0406000C0
310
408000C040A000C040C000C040E000C0600000C0602000C0604000C0606000C0608000C060A000C060C000C060E000C0800000C0802000C0804000C0806000C0808000C080A000C080C000C080E000C0A00000C0A02000C0A04000C0A06000C0A08000C0A0A000C0A0C000C0A0E000C0C00000C0C02000C0C04000C0C06000
310
C0C08000C0C0A000F0FBFF00A4A0A000808080000000FF0000FF000000FFFF00FF000000FF00FF00FFFF0000FFFFFF00FFFFFFFFFFFFFFFFFFFFFFFFFFFFFFFFFFFFFFFFFFFFFFFFFFFFFFFFFFFFFFFFFFFFFFFFFFFFFFFFFFFFFFFFFFFFFF0000FFFFFFFFFFFFFFFFFFFFFFFFFFFFFFFFFFFFFFFFFFFFFFFFFFFFFFFFFFFF
310
0000FFFFFFFFFFFFFFFFFFFFFFFFFFFFFFFFFFFFFFFFFFFFFFFFFFFFFFFFFFFF0000FFFFFFFFFFFFFFFFFFFFFFFFFFFFFFFFFFFFFFFFFFFFFFFFFFFFFFFFFFFF0000FFFFFFFFFFFFFFFFFFFFFFFFFFFFFFFFFFFFFFFFFFFFFFFFFFFFFFFFFFFF0000FFFFFFFFFFFFFFFFFFFFFFFFFFFFFFFFFFFFFFFFFFFFFFFFFFFFFFFFFF
310
FF0000FFFFFFFFFFFFFFFFFFFFFFFFFFFFFFFFFFFFFFFFFFFFFFFFFFFFFFFFFFFF0000FFFFFFFFFFFFFFFFFFFFFFFFFFFFFFFFFFFFFFFFFFFFFFFFFFFFFFFFFFFF0000FFFFFFFFFFFFFFFFFFFFFFFFFFFFFFFFFFFFFFFFFFFFFFFFFFFFFFFFFFFF0000FFFFFFFFFFFFFFFFFFFFFFFFFFFFFFFFFFFFFFFFFFFFFFFFFFFFFFFF
310
FFFF0000FFFFFFFFFFFFFFFFFFFFFFFFFFFFFFFFFFFFFFFFFFFFFFFFFFFFFFFFFFFF0000FFFFFFFFFFFFFFFFFFFFFFFFFFFFFFFFFFFFFFFFFFFFFFFFFFFFFFFFFFFF0000FFFFFFFFFFFFFFFFFFFFFFFFFFFFFFFFFFFFFFFFFFFFFFFFFFFFFFFFFFFF0000FFFFFFFFFFFFFFFFFFFFFFFFFFFFFFFFFFFFFFFFFFFFFFFFFFFFFF
310
FFFFFF0000FFFFFFFFFFFFFFFFFFFFFFFFFFFFFFFFFFFFFFFFFFFFFFFFFFFFFFFFFFFF0000FFFFFFFFFFFFFFFFFFFFFFFFFFFFFFFFFFFFFFFFFFFFFFFFFFFFFFFFFFFF0000FFFFFFFFFFFFFFFFFFFFFFFFFFFFFFFFFFFFFFFFFFFFFFFFFFFFFFFFFFFF0000FFFFFFFFFFFFFFFFFFFFFFFFFFFFFFFFFFFFFFFFFFFFFFFFFFFF
310
FFFFFFFF0000FFFFFFFFFFFFFFFFFFFFFFFFFFFFFFFFFFFFFFFFFFFFFFFFFFFFFFFFFFFF0000FFFFFFFFFFFFFFFFFFFFFFFFFFFFFFFFFFFFFFFFFFFFFFFFFFFFFFFFFFFF0000FFFFFFFFFFFFFFFFFFFFFFFFFFFFFFFFFFFFFFFFFFFFFFFFFFFFFFFFFFFF0000FFFFFFFFFFFFFFFFFFFFFFFFFFFFFFFFFFFFFFFFFFFFFFFFFF
310
FFFFFFFFFF0000FFFFFFFFFFFFFFFFFFFFFFFFFFFFFFFFFFFFFFFFFFFFFFFFFFFFFFFFFFFF0000FFFFFFFFFFFFFFFFFFFFFFFFFFFFFFFFFFFFFFFFFFFFFFFFFFFFFFFFFFFF0000FFFFFFFFFFFFFFFFFFFFFFFFFFFFFFFFFFFFFFFFFFFFFFFFFFFFFFFFFFFF0000FFFFFFFFFFFFFFFFFFFFFFFFFFFFFFFFFFFFFFFFFFFFFFFF
310
FFFFFFFFFFFF0000FFFFFFFFFFFFFFFFFFFFFFFFFFFFFFFFFFFFFFFFFFFFFFFFFFFFFFFFFFFF0000FFFFFFFFFFFFFFFFFFFFFFFFFFFFFFFFFFFFFFFFFFFFFFFFFFFFFFFFFFFF0000FFFFFFFFFFFFFFFFFFFFFFFFFFFFFFFFFFFFFFFFFFFFFFFFFFFFFFFFFFFF0000FFFFFFFFFFFFFFFFFFFFFFFFFFFFFFFFFFFFFFFFFFFFFF
310
FFFFFFFFFFFFFF0000FFFFFFFFFFFFFFFFFFFFFFFFFFFFFFFFFFFFFFFFFFFFFFFFFFFFFFFFFFFFFFFFFFFFFFFFFFFFFFFFFFFFFFFFFFFFFF
102
{BLKREFS
331
A01
102
}
  0
BLOCK_RECORD
  5
9DC
330
1
100
AcDbSymbolTableRecord
100
AcDbBlockTableRecord
  2
AI9-BLK6
340
0
310
2800000020000000200000000100080000000000000400000000000000000000000000000000000000000000000080000080000000808000800000008000800080800000C0C0C000C0DCC000F0CAA6000020400000206000002080000020A0000020C0000020E00000400000004020000040400000406000004080000040A0
310
000040C0000040E00000600000006020000060400000606000006080000060A0000060C0000060E00000800000008020000080400000806000008080000080A0000080C0000080E00000A0000000A0200000A0400000A0600000A0800000A0A00000A0C00000A0E00000C0000000C0200000C0400000C0600000C0800000C0
310
A00000C0C00000C0E00000E0000000E0200000E0400000E0600000E0800000E0A00000E0C00000E0E00040000000400020004000400040006000400080004000A0004000C0004000E00040200000402020004020400040206000402080004020A0004020C0004020E000404000004040200040404000404060004040800040
310
40A0004040C0004040E00040600000406020004060400040606000406080004060A0004060C0004060E00040800000408020004080400040806000408080004080A0004080C0004080E00040A0000040A0200040A0400040A0600040A0800040A0A00040A0C00040A0E00040C0000040C0200040C0400040C0600040C08000
310
40C0A00040C0C00040C0E00040E0000040E0200040E0400040E0600040E0800040E0A00040E0C00040E0E00080000000800020008000400080006000800080008000A0008000C0008000E00080200000802020008020400080206000802080008020A0008020C0008020E00080400000804020008040400080406000804080
310
008040A0008040C0008040E00080600000806020008060400080606000806080008060A0008060C0008060E00080800000808020008080400080806000808080008080A0008080C0008080E00080A0000080A0200080A0400080A0600080A0800080A0A00080A0C00080A0E00080C0000080C0200080C0400080C0600080C0
310
800080C0A00080C0C00080C0E00080E0000080E0200080E0400080E0600080E0800080E0A00080E0C00080E0E000C0000000C0002000C0004000C0006000C0008000C000A000C000C000C000E000C0200000C0202000C0204000C0206000C0208000C020A000C020C000C020E000C0400000C0402000C0404000C0406000C0
310
408000C040A000C040C000C040E000C0600000C0602000C0604000C0606000C0608000C060A000C060C000C060E000C0800000C0802000C0804000C0806000C0808000C080A000C080C000C080E000C0A00000C0A02000C0A04000C0A06000C0A08000C0A0A000C0A0C000C0A0E000C0C00000C0C02000C0C04000C0C06000
310
C0C08000C0C0A000F0FBFF00A4A0A000808080000000FF0000FF000000FFFF00FF000000FF00FF00FFFF0000FFFFFF00FFFFFFFFFFFFFFFFFFFFFFFF00FFFFFFFFFFFFFF00FFFFFFFFFFFFFFFFFFFFFFFFFFFFFFFFFFFFFFFFFFFFFF00FFFFFFFFFFFFFF00FFFFFFFFFFFFFFFFFFFFFFFFFFFFFFFFFFFFFFFFFFFFFF00FFFF
310
FFFFFFFFFF00FFFFFFFFFFFFFFFFFFFFFFFFFFFFFFFFFFFFFFFFFFFF00FFFFFFFFFFFFFFFF00FFFFFFFFFFFFFFFFFFFFFFFFFFFFFFFFFFFFFFFFFFFF00FFFFFFFFFFFFFF00FFFFFFFFFFFFFFFFFFFFFFFFFFFFFFFFFFFFFFFFFFFFFF00FFFFFFFFFFFFFF00FFFFFFFFFFFFFFFFFFFFFFFFFFFFFFFFFFFFFFFFFFFF00FFFFFF
310
FFFFFFFFFF00FFFFFFFFFFFFFFFFFFFFFFFFFFFFFFFFFFFFFFFFFFFF00FFFFFFFFFFFFFF00FFFFFFFFFFFFFFFFFFFFFFFFFFFFFFFFFFFFFFFFFFFF00FFFFFFFFFFFFFFFF00FFFFFFFFFFFFFFFFFFFFFFFFFFFFFFFFFFFFFFFFFF00FFFFFFFFFFFFFFFFFF00FFFFFFFFFFFFFFFFFFFFFFFFFFFFFFFFFFFFFFFF00FFFFFFFFFF
310
FFFFFFFFFF00FFFFFFFFFFFFFFFFFFFFFFFFFFFFFFFFFFFFFF00FFFFFFFFFFFFFFFFFFFF00FFFFFFFFFFFFFFFFFFFFFFFFFFFFFFFFFFFF0000FFFFFFFFFFFFFFFFFFFFFF00FFFFFFFFFFFFFFFFFFFFFFFFFFFF00000000FFFFFFFFFFFFFFFFFFFFFFFFFF00FFFFFFFFFFFFFFFFFFFFFFFFFFFFFFFFFFFFFFFFFFFFFFFFFFFF
310
FFFFFFFF00FFFFFFFFFFFFFFFFFFFFFFFFFFFFFFFFFFFFFFFFFFFFFFFFFFFFFFFFFFFFFF00FFFFFFFFFFFFFFFFFFFFFFFFFFFFFFFFFFFFFFFFFFFFFFFFFFFFFFFFFFFFFF00FFFFFFFFFFFFFFFFFFFFFFFFFFFFFFFFFFFFFFFFFFFFFFFFFFFFFFFFFFFF00FFFFFFFFFFFFFFFFFFFFFFFFFFFFFFFFFFFFFFFFFFFFFFFFFFFFFF
310
FFFFFFFF00FFFFFFFFFFFFFFFFFFFFFFFFFFFFFFFFFFFFFFFFFFFFFFFFFFFFFFFFFFFF00FFFFFFFFFFFFFFFFFFFFFFFFFFFFFFFFFFFFFFFFFFFFFFFFFFFFFFFFFFFF00FFFFFFFFFFFFFFFFFFFFFFFFFFFFFFFFFFFFFFFFFFFFFFFFFFFFFFFFFFFF00FFFFFFFFFFFFFFFFFFFFFFFFFFFFFFFFFFFFFFFFFFFFFFFFFFFFFFFFFF
310
FF00FFFFFFFFFFFFFFFFFFFFFFFFFFFFFFFFFFFFFFFFFFFFFFFFFFFFFFFFFFFFFF00FFFFFFFFFFFFFFFFFFFFFFFFFFFFFFFFFFFFFFFFFFFFFFFFFFFFFFFFFFFF00FFFFFFFFFFFFFFFFFFFFFFFFFFFFFFFFFFFFFFFFFFFFFFFFFFFFFFFFFF0000FFFFFFFFFFFFFFFFFFFFFFFFFFFFFFFFFFFFFFFFFFFFFFFFFFFFFFFF0000FF
310
FFFFFFFFFFFFFFFFFFFFFFFFFFFFFFFFFFFFFFFFFFFFFFFFFF00000000FFFFFFFFFFFFFFFFFFFFFFFFFFFFFFFFFFFFFFFFFFFFFFFFFFFF0000FFFFFFFFFFFFFFFFFFFFFFFFFFFFFFFFFFFFFFFFFFFFFFFFFFFFFFFFFFFFFFFFFFFFFFFFFFFFFFFFFFFFFFFFFFFFFFFFFFFFFFFFFFFFFFFFFFFFFFFFFFFFFFFFFFFFFFFFFFFF
310
FFFFFFFFFFFFFFFFFFFFFFFFFFFFFFFFFFFFFFFFFFFFFFFFFFFFFFFFFFFFFFFFFFFFFFFFFFFFFFFFFFFFFFFFFFFFFFFFFFFFFFFFFFFFFFFF
102
{BLKREFS
331
A02
102
}
  0
BLOCK_RECORD
  5
9E0
330
1
100
AcDbSymbolTableRecord
100
AcDbBlockTableRecord
  2
AI9-BLK5
340
0
310
2800000020000000200000000100080000000000000400000000000000000000000000000000000000000000000080000080000000808000800000008000800080800000C0C0C000C0DCC000F0CAA6000020400000206000002080000020A0000020C0000020E00000400000004020000040400000406000004080000040A0
310
000040C0000040E00000600000006020000060400000606000006080000060A0000060C0000060E00000800000008020000080400000806000008080000080A0000080C0000080E00000A0000000A0200000A0400000A0600000A0800000A0A00000A0C00000A0E00000C0000000C0200000C0400000C0600000C0800000C0
310
A00000C0C00000C0E00000E0000000E0200000E0400000E0600000E0800000E0A00000E0C00000E0E00040000000400020004000400040006000400080004000A0004000C0004000E00040200000402020004020400040206000402080004020A0004020C0004020E000404000004040200040404000404060004040800040
310
40A0004040C0004040E00040600000406020004060400040606000406080004060A0004060C0004060E00040800000408020004080400040806000408080004080A0004080C0004080E00040A0000040A0200040A0400040A0600040A0800040A0A00040A0C00040A0E00040C0000040C0200040C0400040C0600040C08000
310
40C0A00040C0C00040C0E00040E0000040E0200040E0400040E0600040E0800040E0A00040E0C00040E0E00080000000800020008000400080006000800080008000A0008000C0008000E00080200000802020008020400080206000802080008020A0008020C0008020E00080400000804020008040400080406000804080
310
008040A0008040C0008040E00080600000806020008060400080606000806080008060A0008060C0008060E00080800000808020008080400080806000808080008080A0008080C0008080E00080A0000080A0200080A0400080A0600080A0800080A0A00080A0C00080A0E00080C0000080C0200080C0400080C0600080C0
310
800080C0A00080C0C00080C0E00080E0000080E0200080E0400080E0600080E0800080E0A00080E0C00080E0E000C0000000C0002000C0004000C0006000C0008000C000A000C000C000C000E000C0200000C0202000C0204000C0206000C0208000C020A000C020C000C020E000C0400000C0402000C0404000C0406000C0
310
408000C040A000C040C000C040E000C0600000C0602000C0604000C0606000C0608000C060A000C060C000C060E000C0800000C0802000C0804000C0806000C0808000C080A000C080C000C080E000C0A00000C0A02000C0A04000C0A06000C0A08000C0A0A000C0A0C000C0A0E000C0C00000C0C02000C0C04000C0C06000
310
C0C08000C0C0A000F0FBFF00A4A0A000808080000000FF0000FF000000FFFF00FF000000FF00FF00FFFF0000FFFFFF00FFFFFFFFFFFFFFFFFFFFFFFFFFFFFFFFFFFFFFFFFFFFFFFFFFFFFFFFFFFFFFFFFFFFFFFFFFFFFFFF000000000000000000000000000000000000000000000000FFFFFFFFFFFFFFFF00FFFFFFFFFFFF
310
FFFFFFFFFFFFFFFFFFFFFFFFFFFFFFFFFFFFFFFFFFFFFFFFFF00FFFFFFFFFFFFFFFFFFFFFFFFFFFFFFFFFFFFFFFFFFFFFFFFFFFFFFFFFFFFFF00FFFFFFFFFFFFFFFFFFFFFFFFFFFFFFFFFFFFFFFFFFFFFFFFFFFFFFFFFFFFFF00FFFFFFFFFFFFFFFFFFFFFFFFFFFFFFFFFFFFFFFFFFFFFFFFFFFFFFFFFFFFFF00FFFFFFFFFF
310
FFFFFFFFFFFFFFFFFFFFFFFFFFFFFFFFFFFFFFFFFFFFFFFFFFFF00FFFFFFFFFFFFFFFFFFFFFFFFFFFFFFFFFFFFFFFFFFFFFFFFFFFFFFFFFFFFFF00FFFFFFFFFFFFFFFFFFFFFFFFFFFFFFFFFFFFFFFFFFFFFFFFFFFFFFFFFFFFFF00FFFFFFFFFFFFFFFFFFFFFFFFFFFFFFFFFFFFFFFFFFFFFFFFFFFFFFFFFFFFFF00FFFFFFFF
310
FFFFFFFFFFFFFFFFFFFFFFFFFFFFFFFFFFFFFFFFFFFFFFFFFFFFFF00FFFFFFFFFFFFFFFFFFFFFFFFFFFFFFFFFFFFFFFFFFFFFFFFFFFFFFFFFFFFFF00FFFFFFFFFFFFFFFFFFFFFFFFFFFFFFFFFFFFFFFFFFFFFFFFFFFFFFFFFFFFFF00FFFFFFFFFFFFFFFFFFFFFFFFFFFFFFFFFFFFFFFFFFFFFFFFFFFFFFFFFFFFFF00FFFFFF
310
FFFFFFFFFFFFFFFFFFFFFFFFFFFFFFFFFFFFFFFFFFFFFFFFFFFFFFFF00FFFFFFFFFFFFFFFFFFFFFFFFFFFFFFFFFFFFFFFFFFFFFFFFFFFFFFFFFFFFFF00FFFFFFFFFFFFFFFFFFFFFFFFFFFFFFFFFFFFFFFFFFFFFFFFFFFFFFFFFFFFFF00FFFFFFFFFFFFFFFFFFFFFFFFFFFFFFFFFFFFFFFFFFFFFFFFFFFFFFFFFFFFFF00FFFF
310
FFFFFFFFFFFFFFFFFFFFFFFFFFFFFFFFFFFFFFFFFFFFFFFFFFFFFFFFFF00FFFFFFFFFFFFFFFFFFFFFFFFFFFFFFFFFFFFFFFFFFFFFFFFFFFFFFFFFFFFFF00FFFFFFFFFFFFFFFFFFFFFFFFFFFFFFFFFFFFFFFFFFFFFFFFFFFFFFFFFFFFFF00FFFFFFFFFFFFFFFFFFFFFFFFFFFFFFFFFFFFFFFFFFFFFFFFFFFFFFFFFFFFFF00FF
310
FFFFFFFFFFFFFFFFFFFFFFFFFFFFFFFFFFFFFFFFFFFFFFFFFFFFFFFFFFFF00FFFFFFFFFFFFFFFFFFFFFFFFFFFFFFFFFFFFFFFFFFFFFFFFFFFFFFFFFFFFFF00FFFFFFFFFFFFFFFFFFFFFFFFFFFFFFFFFFFFFFFFFFFFFFFFFFFFFFFFFFFFFF00FFFFFFFFFFFFFFFFFFFFFFFFFFFFFFFFFFFFFFFFFFFFFFFFFFFFFFFFFFFFFF00
310
FFFFFFFFFFFFFFFFFFFFFFFFFFFFFFFFFFFFFFFFFFFFFFFFFFFFFFFFFFFFFF00FFFFFFFFFFFFFFFFFFFFFFFFFFFFFFFFFFFFFFFFFFFFFFFFFFFFFFFFFFFFFF00FFFFFFFFFFFFFFFFFFFFFFFFFFFFFFFFFFFFFFFFFFFFFFFFFFFFFFFFFFFFFF00FFFFFFFFFFFFFFFFFFFFFFFFFFFFFFFFFFFFFFFFFFFFFFFFFFFFFFFFFFFFFF
310
00FFFFFFFFFFFFFFFFFFFFFFFFFFFF000000000000000000FFFFFFFFFFFFFFFF00FFFFFFFFFFFFFFFFFFFFFFFFFFFF00FFFFFFFFFFFFFFFF
102
{BLKREFS
331
A03
102
}
  0
BLOCK_RECORD
  5
9E5
330
1
100
AcDbSymbolTableRecord
100
AcDbBlockTableRecord
  2
AI9-BLK4
340
0
310
2800000020000000200000000100080000000000000400000000000000000000000000000000000000000000000080000080000000808000800000008000800080800000C0C0C000C0DCC000F0CAA6000020400000206000002080000020A0000020C0000020E00000400000004020000040400000406000004080000040A0
310
000040C0000040E00000600000006020000060400000606000006080000060A0000060C0000060E00000800000008020000080400000806000008080000080A0000080C0000080E00000A0000000A0200000A0400000A0600000A0800000A0A00000A0C00000A0E00000C0000000C0200000C0400000C0600000C0800000C0
310
A00000C0C00000C0E00000E0000000E0200000E0400000E0600000E0800000E0A00000E0C00000E0E00040000000400020004000400040006000400080004000A0004000C0004000E00040200000402020004020400040206000402080004020A0004020C0004020E000404000004040200040404000404060004040800040
310
40A0004040C0004040E00040600000406020004060400040606000406080004060A0004060C0004060E00040800000408020004080400040806000408080004080A0004080C0004080E00040A0000040A0200040A0400040A0600040A0800040A0A00040A0C00040A0E00040C0000040C0200040C0400040C0600040C08000
310
40C0A00040C0C00040C0E00040E0000040E0200040E0400040E0600040E0800040E0A00040E0C00040E0E00080000000800020008000400080006000800080008000A0008000C0008000E00080200000802020008020400080206000802080008020A0008020C0008020E00080400000804020008040400080406000804080
310
008040A0008040C0008040E00080600000806020008060400080606000806080008060A0008060C0008060E00080800000808020008080400080806000808080008080A0008080C0008080E00080A0000080A0200080A0400080A0600080A0800080A0A00080A0C00080A0E00080C0000080C0200080C0400080C0600080C0
310
800080C0A00080C0C00080C0E00080E0000080E0200080E0400080E0600080E0800080E0A00080E0C00080E0E000C0000000C0002000C0004000C0006000C0008000C000A000C000C000C000E000C0200000C0202000C0204000C0206000C0208000C020A000C020C000C020E000C0400000C0402000C0404000C0406000C0
310
408000C040A000C040C000C040E000C0600000C0602000C0604000C0606000C0608000C060A000C060C000C060E000C0800000C0802000C0804000C0806000C0808000C080A000C080C000C080E000C0A00000C0A02000C0A04000C0A06000C0A08000C0A0A000C0A0C000C0A0E000C0C00000C0C02000C0C04000C0C06000
310
C0C08000C0C0A000F0FBFF00A4A0A000808080000000FF0000FF000000FFFF00FF000000FF00FF00FFFF0000FFFFFF00FFFFFFFFFFFFFFFFFFFFFFFFFFFFFFFFFFFFFFFFFFFFFFFFFFFFFFFFFFFFFFFFFFFFFFFFFFFFFFFFFFFFFFFFFFFF00000000FFFFFFFFFFFFFFFFFFFFFF000000FFFFFFFFFFFFFFFFFFFFFFFFFFFF00
310
FFFF00FFFFFFFFFFFFFFFFFFFFFF00FFFFFFFFFFFFFFFFFFFFFFFFFFFFFFFF00FFFF00FFFFFFFFFFFFFFFFFFFFFF00FFFFFFFFFFFFFFFFFFFFFFFFFFFFFFFF00FFFF00FFFFFFFFFFFFFFFFFFFFFF00FFFFFFFFFFFFFFFFFFFFFFFFFFFFFFFF00FFFF00FFFFFFFFFFFFFFFFFFFFFF00FFFFFFFFFFFFFFFFFFFFFFFFFFFFFFFF
310
00FFFF00FFFFFFFFFFFFFFFFFFFFFF00FFFFFFFFFFFFFFFFFFFFFFFFFFFFFFFF00FFFF00FFFFFFFFFFFFFFFFFFFFFF00FFFFFFFFFFFFFFFFFFFFFFFFFFFFFFFF00FFFF00FFFFFFFFFFFFFFFFFFFFFF00FFFFFFFFFFFFFFFFFFFFFFFFFFFFFFFF00FFFF00FFFFFFFFFFFFFFFFFFFFFF00FFFFFFFFFFFFFFFFFFFFFFFFFFFFFF
310
FF00FFFF00FFFFFFFFFFFFFFFFFFFFFF00FFFFFFFFFFFFFFFFFFFFFFFFFFFFFFFF00FFFF00FFFFFFFFFFFFFFFFFFFFFF00FFFFFFFFFFFFFFFFFFFFFFFFFFFFFFFF00FFFF00FFFFFFFFFFFFFFFFFFFFFF00FFFFFFFFFFFFFFFFFFFFFFFFFFFFFFFF00FFFF00FFFFFFFFFFFFFFFFFFFFFF00FFFFFFFFFFFFFFFFFFFFFFFFFFFF
310
FFFF00FFFF00FFFFFFFFFFFFFFFFFFFFFF00FFFFFFFFFFFFFFFFFFFFFFFFFFFFFFFF00FFFF00FFFFFFFFFFFFFFFFFFFFFF00FFFFFFFFFFFFFFFFFFFFFFFFFFFFFFFF00FFFF00FFFFFFFFFFFFFFFFFFFFFF00FFFFFFFFFFFFFFFFFFFFFFFFFFFFFFFF00FFFF00FFFFFFFFFFFFFFFFFFFF00FFFFFFFFFFFFFFFFFFFFFFFFFFFF
310
FFFFFF00FFFF00FFFFFFFFFFFFFFFFFFFF00FFFFFFFFFFFFFFFFFFFFFFFFFFFFFFFFFF00FFFF00FFFFFFFFFFFFFFFFFFFF00FFFFFFFFFFFFFFFFFFFFFFFFFFFFFFFFFF00FFFF00FFFFFFFFFFFFFFFFFFFF00FFFFFFFFFFFFFFFFFFFFFFFFFFFFFFFFFF00FFFF00FFFFFFFFFFFFFFFFFFFF00FFFFFFFFFFFFFFFFFFFFFFFFFF
310
FFFFFFFF00FFFF00FFFFFFFFFFFFFFFFFF0000FFFF00FFFFFFFFFFFFFFFFFFFFFFFFFFFF00FFFF00FFFFFFFFFFFFFFFF0000FFFFFF00FFFFFFFFFFFFFFFFFFFFFFFFFFFF00FFFF00000000000000000000FFFFFFFF00FFFFFFFFFFFFFFFFFFFFFFFFFFFF00FFFFFFFFFFFFFFFFFFFFFFFFFFFFFF00FFFFFFFFFFFFFFFFFFFF
310
FFFFFFFFFF00FFFFFFFFFFFFFFFFFFFFFFFFFFFF00FFFFFFFFFFFFFFFFFFFFFFFFFFFFFFFF00FFFFFFFFFFFFFFFFFFFFFFFFFFFF00FFFFFFFFFFFFFFFFFFFFFFFFFFFFFFFF00FFFFFFFFFFFFFFFFFFFFFFFFFFFFFF00FFFFFFFFFFFFFFFFFFFFFFFFFFFFFF00FFFFFFFFFFFFFFFFFFFFFFFFFFFFFF00FFFFFFFFFFFFFFFFFF
310
FFFFFFFFFFFF00FFFF00000000000000000000FFFFFFFF00FFFFFFFFFFFFFFFFFFFFFFFFFFFF00FFFF00FFFFFFFFFFFFFFFFFF0000FFFF00
102
{BLKREFS
331
A04
102
}
  0
BLOCK_RECORD
  5
9EA
330
1
100
AcDbSymbolTableRecord
100
AcDbBlockTableRecord
  2
AI9-BLK3
340
0
310
2800000020000000200000000100080000000000000400000000000000000000000000000000000000000000000080000080000000808000800000008000800080800000C0C0C000C0DCC000F0CAA6000020400000206000002080000020A0000020C0000020E00000400000004020000040400000406000004080000040A0
310
000040C0000040E00000600000006020000060400000606000006080000060A0000060C0000060E00000800000008020000080400000806000008080000080A0000080C0000080E00000A0000000A0200000A0400000A0600000A0800000A0A00000A0C00000A0E00000C0000000C0200000C0400000C0600000C0800000C0
310
A00000C0C00000C0E00000E0000000E0200000E0400000E0600000E0800000E0A00000E0C00000E0E00040000000400020004000400040006000400080004000A0004000C0004000E00040200000402020004020400040206000402080004020A0004020C0004020E000404000004040200040404000404060004040800040
310
40A0004040C0004040E00040600000406020004060400040606000406080004060A0004060C0004060E00040800000408020004080400040806000408080004080A0004080C0004080E00040A0000040A0200040A0400040A0600040A0800040A0A00040A0C00040A0E00040C0000040C0200040C0400040C0600040C08000
310
40C0A00040C0C00040C0E00040E0000040E0200040E0400040E0600040E0800040E0A00040E0C00040E0E00080000000800020008000400080006000800080008000A0008000C0008000E00080200000802020008020400080206000802080008020A0008020C0008020E00080400000804020008040400080406000804080
310
008040A0008040C0008040E00080600000806020008060400080606000806080008060A0008060C0008060E00080800000808020008080400080806000808080008080A0008080C0008080E00080A0000080A0200080A0400080A0600080A0800080A0A00080A0C00080A0E00080C0000080C0200080C0400080C0600080C0
310
800080C0A00080C0C00080C0E00080E0000080E0200080E0400080E0600080E0800080E0A00080E0C00080E0E000C0000000C0002000C0004000C0006000C0008000C000A000C000C000C000E000C0200000C0202000C0204000C0206000C0208000C020A000C020C000C020E000C0400000C0402000C0404000C0406000C0
310
408000C040A000C040C000C040E000C0600000C0602000C0604000C0606000C0608000C060A000C060C000C060E000C0800000C0802000C0804000C0806000C0808000C080A000C080C000C080E000C0A00000C0A02000C0A04000C0A06000C0A08000C0A0A000C0A0C000C0A0E000C0C00000C0C02000C0C04000C0C06000
310
C0C08000C0C0A000F0FBFF00A4A0A000808080000000FF0000FF000000FFFF00FF000000FF00FF00FFFF0000FFFFFF00FFFFFFFFFFFFFFFFFFFFFFFFFFFFFFFFFFFFFFFFFFFFFFFFFFFFFFFFFFFFFFFFFFFFFFFFFFFFFFFFFFFFFFFFFFFFFF0000FFFFFFFFFFFFFFFFFFFFFFFFFFFFFFFFFFFFFFFFFFFFFFFFFFFFFFFFFFFF
310
0000FFFFFFFFFFFFFFFFFFFFFFFFFFFFFFFFFFFFFFFFFFFFFFFFFFFFFFFFFFFF0000FFFFFFFFFFFFFFFFFFFFFFFFFFFFFFFFFFFFFFFFFFFFFFFFFFFFFFFFFFFF0000FFFFFFFFFFFFFFFFFFFFFFFFFFFFFFFFFFFFFFFFFFFFFFFFFFFFFFFFFFFF0000FFFFFFFFFFFFFFFFFFFFFFFFFFFFFFFFFFFFFFFFFFFFFFFFFFFFFFFFFF
310
FF0000FFFFFFFFFFFFFFFFFFFFFFFFFFFFFFFFFFFFFFFFFFFFFFFFFFFFFFFFFFFF0000FFFFFFFFFFFFFFFFFFFFFFFFFFFFFFFFFFFFFFFFFFFFFFFFFFFFFFFFFFFF0000FFFFFFFFFFFFFFFFFFFFFFFFFFFFFFFFFFFFFFFFFFFFFFFFFFFFFFFFFFFF0000FFFFFFFFFFFFFFFFFFFFFFFFFFFFFFFFFFFFFFFFFFFFFFFFFFFFFFFF
310
FFFF0000FFFFFFFFFFFFFFFFFFFFFFFFFFFFFFFFFFFFFFFFFFFFFFFFFFFFFFFFFFFF0000FFFFFFFFFFFFFFFFFFFFFFFFFFFFFFFFFFFFFFFFFFFFFFFFFFFFFFFFFFFF0000FFFFFFFFFFFFFFFFFFFFFFFFFFFFFFFFFFFFFFFFFFFFFFFFFFFFFFFFFFFF0000FFFFFFFFFFFFFFFFFFFFFFFFFFFFFFFFFFFFFFFFFFFFFFFFFFFFFF
310
FFFFFF0000FFFFFFFFFFFFFFFFFFFFFFFFFFFFFFFFFFFFFFFFFFFFFFFFFFFFFFFFFFFF0000FFFFFFFFFFFFFFFFFFFFFFFFFFFFFFFFFFFFFFFFFFFFFFFFFFFFFFFFFFFF0000FFFFFFFFFFFFFFFFFFFFFFFFFFFFFFFFFFFFFFFFFFFFFFFFFFFFFFFFFFFF0000FFFFFFFFFFFFFFFFFFFFFFFFFFFFFFFFFFFFFFFFFFFFFFFFFFFF
310
FFFFFFFF0000FFFFFFFFFFFFFFFFFFFFFFFFFFFFFFFFFFFFFFFFFFFFFFFFFFFFFFFFFFFF0000FFFFFFFFFFFFFFFFFFFFFFFFFFFFFFFFFFFFFFFFFFFFFFFFFFFFFFFFFFFF0000FFFFFFFFFFFFFFFFFFFFFFFFFFFFFFFFFFFFFFFFFFFFFFFFFFFFFFFFFFFF0000FFFFFFFFFFFFFFFFFFFFFFFFFFFFFFFFFFFFFFFFFFFFFFFFFF
310
FFFFFFFFFF0000FFFFFFFFFFFFFFFFFFFFFFFFFFFFFFFFFFFFFFFFFFFFFFFFFFFFFFFFFFFF0000FFFFFFFFFFFFFFFFFFFFFFFFFFFFFFFFFFFFFFFFFFFFFFFFFFFFFFFFFFFF0000FFFFFFFFFFFFFFFFFFFFFFFFFFFFFFFFFFFFFFFFFFFFFFFFFFFFFFFFFFFF0000FFFFFFFFFFFFFFFFFFFFFFFFFFFFFFFFFFFFFFFFFFFFFFFF
310
FFFFFFFFFFFF0000FFFFFFFFFFFFFFFFFFFFFFFFFFFFFFFFFFFFFFFFFFFFFFFFFFFFFFFFFFFF0000FFFFFFFFFFFFFFFFFFFFFFFFFFFFFFFFFFFFFFFFFFFFFFFFFFFFFFFFFFFF0000FFFFFFFFFFFFFFFFFFFFFFFFFFFFFFFFFFFFFFFFFFFFFFFFFFFFFFFFFFFF0000FFFFFFFFFFFFFFFFFFFFFFFFFFFFFFFFFFFFFFFFFFFFFF
310
FFFFFFFFFFFFFF0000FFFFFFFFFFFFFFFFFFFFFFFFFFFFFFFFFFFFFFFFFFFFFFFFFFFFFFFFFFFFFFFFFFFFFFFFFFFFFFFFFFFFFFFFFFFFFF
102
{BLKREFS
331
A05
102
}
  0
BLOCK_RECORD
  5
9EF
330
1
100
AcDbSymbolTableRecord
100
AcDbBlockTableRecord
  2
AI9-BLK2
340
0
310
2800000020000000200000000100080000000000000400000000000000000000000000000000000000000000000080000080000000808000800000008000800080800000C0C0C000C0DCC000F0CAA6000020400000206000002080000020A0000020C0000020E00000400000004020000040400000406000004080000040A0
310
000040C0000040E00000600000006020000060400000606000006080000060A0000060C0000060E00000800000008020000080400000806000008080000080A0000080C0000080E00000A0000000A0200000A0400000A0600000A0800000A0A00000A0C00000A0E00000C0000000C0200000C0400000C0600000C0800000C0
310
A00000C0C00000C0E00000E0000000E0200000E0400000E0600000E0800000E0A00000E0C00000E0E00040000000400020004000400040006000400080004000A0004000C0004000E00040200000402020004020400040206000402080004020A0004020C0004020E000404000004040200040404000404060004040800040
310
40A0004040C0004040E00040600000406020004060400040606000406080004060A0004060C0004060E00040800000408020004080400040806000408080004080A0004080C0004080E00040A0000040A0200040A0400040A0600040A0800040A0A00040A0C00040A0E00040C0000040C0200040C0400040C0600040C08000
310
40C0A00040C0C00040C0E00040E0000040E0200040E0400040E0600040E0800040E0A00040E0C00040E0E00080000000800020008000400080006000800080008000A0008000C0008000E00080200000802020008020400080206000802080008020A0008020C0008020E00080400000804020008040400080406000804080
310
008040A0008040C0008040E00080600000806020008060400080606000806080008060A0008060C0008060E00080800000808020008080400080806000808080008080A0008080C0008080E00080A0000080A0200080A0400080A0600080A0800080A0A00080A0C00080A0E00080C0000080C0200080C0400080C0600080C0
310
800080C0A00080C0C00080C0E00080E0000080E0200080E0400080E0600080E0800080E0A00080E0C00080E0E000C0000000C0002000C0004000C0006000C0008000C000A000C000C000C000E000C0200000C0202000C0204000C0206000C0208000C020A000C020C000C020E000C0400000C0402000C0404000C0406000C0
310
408000C040A000C040C000C040E000C0600000C0602000C0604000C0606000C0608000C060A000C060C000C060E000C0800000C0802000C0804000C0806000C0808000C080A000C080C000C080E000C0A00000C0A02000C0A04000C0A06000C0A08000C0A0A000C0A0C000C0A0E000C0C00000C0C02000C0C04000C0C06000
310
C0C08000C0C0A000F0FBFF00A4A0A000808080000000FF0000FF000000FFFF00FF000000FF00FF00FFFF0000FFFFFF00FFFFFFFFFFFFFFFFFFFFFFFFFFFFFFFFFFFFFFFFFFFFFFFFFFFFFFFFFFFFFFFFFFFFFFFFFFFFFFFFFFFFFFFFFFFFFF0000FFFFFFFFFFFFFFFFFFFFFFFFFFFFFFFFFFFFFFFFFFFFFFFFFFFFFFFFFFFF
310
0000FFFFFFFFFFFFFFFFFFFFFFFFFFFFFFFFFFFFFFFFFFFFFFFFFFFFFFFFFFFF0000FFFFFFFFFFFFFFFFFFFFFFFFFFFFFFFFFFFFFFFFFFFFFFFFFFFFFFFFFF00FFFF00FFFFFFFFFFFFFFFFFFFFFFFFFFFFFFFFFFFFFFFFFFFFFFFFFFFFFFFF00FFFF00FFFFFFFFFFFFFFFFFFFFFFFFFFFFFFFFFFFFFFFFFFFFFFFFFFFFFFFF
310
00FF0000FFFFFFFFFFFFFFFFFFFFFFFFFFFFFFFFFFFFFFFFFFFFFFFFFFFFFFFF00FF0000FFFFFFFFFFFFFFFFFFFFFFFFFFFFFFFFFFFFFFFFFFFFFFFFFFFFFFFF00FF0000FFFFFFFFFFFFFFFFFFFFFFFFFFFFFFFFFFFFFFFFFFFFFFFFFFFFFFFF00000000FFFFFFFFFFFFFFFFFFFFFFFFFFFFFFFFFFFFFFFFFFFFFFFFFFFFFF
310
00FF00FF0000FFFFFFFFFFFFFFFFFFFFFFFFFFFFFFFFFFFFFFFFFFFFFFFFFFFF00FF00FF0000FFFFFFFFFFFFFFFFFFFFFFFFFFFFFFFFFFFFFFFFFFFFFFFFFFFF00FF00FF0000FFFFFFFFFFFFFFFFFFFFFFFFFFFFFFFFFFFFFFFFFFFFFFFFFFFF00FF00FF0000FFFFFFFFFFFFFFFFFFFFFFFFFFFFFFFFFFFFFFFFFFFFFFFFFF
310
FF00FF00FF0000FFFFFFFFFFFFFFFFFFFFFFFFFFFFFFFFFFFFFFFFFFFFFFFFFFFF0000FFFF0000FFFFFFFFFFFFFFFFFFFFFFFFFFFFFFFFFFFFFFFFFFFFFFFFFF00FF00FFFF00FF00FFFFFFFFFFFFFFFFFFFFFFFFFFFFFFFFFFFFFFFFFFFFFFFF00FF00FFFF00FF00FFFFFFFFFFFFFFFFFFFFFFFFFFFFFFFFFFFFFFFFFFFFFF
310
FF00FF00FFFFFF0000FFFFFFFFFFFFFFFFFFFFFFFFFFFFFFFFFFFFFFFFFFFFFFFF00FF00FFFFFF0000FFFFFFFFFFFFFFFFFFFFFFFFFFFFFFFFFFFFFFFFFFFFFFFF00FF00FFFFFF0000FFFFFFFFFFFFFFFFFFFFFFFFFFFFFFFFFFFFFFFFFFFFFFFF0000FFFFFFFF0000FFFFFFFFFFFFFFFFFFFFFFFFFFFFFFFFFFFFFFFFFFFF
310
FF00FF00FFFFFFFF00FF00FFFFFFFFFFFFFFFFFFFFFFFFFFFFFFFFFFFFFFFFFFFF00FF00FFFFFFFF00FF00FFFFFFFFFFFFFFFFFFFFFFFFFFFFFFFFFFFFFFFFFFFF00FF00FFFFFFFF00FF00FFFFFFFFFFFFFFFFFFFFFFFFFFFFFFFFFFFFFFFFFFFF00FF00FFFFFFFF00FF00FFFFFFFFFFFFFFFFFFFFFFFFFFFFFFFFFFFFFFFF
310
FFFF00FF00FFFFFFFFFF0000FFFFFFFFFFFFFFFFFFFFFFFFFFFFFFFFFFFFFFFFFFFF0000FFFFFFFFFFFF0000FFFFFFFFFFFFFFFFFFFFFFFFFFFFFFFFFFFFFFFFFF00FF00FFFFFFFFFFFF00FF00FFFFFFFFFFFFFFFFFFFFFFFFFFFFFFFFFFFFFFFF00FF00FFFFFFFFFFFF00FF00FFFFFFFFFFFFFFFFFFFFFFFFFFFFFFFFFFFF
310
FFFF000000FFFFFFFFFFFF000000FFFFFFFFFFFFFFFFFFFFFFFFFFFFFFFFFFFFFFFFFFFFFFFFFFFFFFFFFFFFFFFFFFFFFFFFFFFFFFFFFFFF
102
{BLKREFS
331
A06
102
}
  0
BLOCK_RECORD
  5
9F4
330
1
100
AcDbSymbolTableRecord
100
AcDbBlockTableRecord
  2
AI9-BLK1
340
0
310
2800000020000000200000000100080000000000000400000000000000000000000000000000000000000000000080000080000000808000800000008000800080800000C0C0C000C0DCC000F0CAA6000020400000206000002080000020A0000020C0000020E00000400000004020000040400000406000004080000040A0
310
000040C0000040E00000600000006020000060400000606000006080000060A0000060C0000060E00000800000008020000080400000806000008080000080A0000080C0000080E00000A0000000A0200000A0400000A0600000A0800000A0A00000A0C00000A0E00000C0000000C0200000C0400000C0600000C0800000C0
310
A00000C0C00000C0E00000E0000000E0200000E0400000E0600000E0800000E0A00000E0C00000E0E00040000000400020004000400040006000400080004000A0004000C0004000E00040200000402020004020400040206000402080004020A0004020C0004020E000404000004040200040404000404060004040800040
310
40A0004040C0004040E00040600000406020004060400040606000406080004060A0004060C0004060E00040800000408020004080400040806000408080004080A0004080C0004080E00040A0000040A0200040A0400040A0600040A0800040A0A00040A0C00040A0E00040C0000040C0200040C0400040C0600040C08000
310
40C0A00040C0C00040C0E00040E0000040E0200040E0400040E0600040E0800040E0A00040E0C00040E0E00080000000800020008000400080006000800080008000A0008000C0008000E00080200000802020008020400080206000802080008020A0008020C0008020E00080400000804020008040400080406000804080
310
008040A0008040C0008040E00080600000806020008060400080606000806080008060A0008060C0008060E00080800000808020008080400080806000808080008080A0008080C0008080E00080A0000080A0200080A0400080A0600080A0800080A0A00080A0C00080A0E00080C0000080C0200080C0400080C0600080C0
310
800080C0A00080C0C00080C0E00080E0000080E0200080E0400080E0600080E0800080E0A00080E0C00080E0E000C0000000C0002000C0004000C0006000C0008000C000A000C000C000C000E000C0200000C0202000C0204000C0206000C0208000C020A000C020C000C020E000C0400000C0402000C0404000C0406000C0
310
408000C040A000C040C000C040E000C0600000C0602000C0604000C0606000C0608000C060A000C060C000C060E000C0800000C0802000C0804000C0806000C0808000C080A000C080C000C080E000C0A00000C0A02000C0A04000C0A06000C0A08000C0A0A000C0A0C000C0A0E000C0C00000C0C02000C0C04000C0C06000
310
C0C08000C0C0A000F0FBFF00A4A0A000808080000000FF0000FF000000FFFF00FF000000FF00FF00FFFF0000FFFFFF00FFFFFFFFFFFFFFFFFFFFFFFFFFFFFFFFFFFFFFFFFFFFFFFFFFFFFFFFFFFFFFFFFFFFFFFFFFFFFFFFFFFFFF00000000000000000000FFFFFFFFFFFFFFFFFFFFFFFFFFFFFFFFFFFFFFFFFFFF00FFFFFF
310
FFFFFFFFFF00FFFFFFFFFFFFFFFFFFFFFFFFFFFFFFFFFFFFFFFFFFFF00FFFFFFFFFFFFFFFF00FFFFFFFFFFFFFFFFFFFFFFFFFFFFFFFFFFFFFFFFFFFF00FFFFFFFFFFFFFFFF00FFFFFFFFFFFFFFFFFFFFFFFFFFFFFFFFFFFFFFFFFFFF00FF0000000000000000FFFFFFFFFFFFFFFFFFFFFFFFFFFFFFFFFFFFFFFFFFFF00FF00
310
FFFFFFFFFFFFFFFFFFFFFFFFFFFFFFFFFFFFFFFFFFFFFFFFFFFFFFFFFF00FF00FFFFFFFFFFFFFFFFFFFFFFFFFFFFFFFFFFFFFFFFFFFFFFFFFFFFFFFFFF00FF00FFFFFFFFFFFFFFFFFFFFFFFFFFFFFFFFFFFFFFFFFFFFFFFFFFFFFFFFFF00FF00FFFFFFFFFFFFFFFFFFFFFFFFFFFFFFFFFFFFFFFFFFFFFFFFFFFFFFFFFF00FF
310
00FFFFFFFFFFFFFFFFFFFFFFFFFFFFFFFFFFFFFFFFFFFFFFFFFFFFFFFFFF00FF00FFFFFFFFFFFFFFFFFFFFFFFFFFFFFFFFFFFFFFFFFFFFFFFFFFFFFFFFFF00FF00FFFFFFFFFFFFFFFFFFFFFFFFFFFFFFFFFFFFFFFFFFFFFFFFFFFFFFFFFF00FF00FFFFFFFFFFFFFFFFFFFFFFFFFFFFFFFFFFFFFFFFFFFFFFFFFFFFFFFFFF00
310
FF00000000000000FFFFFFFFFFFFFFFFFFFFFFFFFFFFFFFFFFFFFFFFFFFFFF00FFFFFFFFFFFFFF00FFFFFFFFFFFFFFFFFFFFFFFFFFFFFFFFFFFFFFFFFFFFFF00FFFFFFFFFFFFFF00FFFFFFFFFFFFFFFFFFFFFFFFFFFFFFFFFFFFFFFFFFFFFF00FFFFFFFFFFFFFF00FFFFFFFFFFFFFFFFFFFFFFFFFFFFFFFFFFFFFFFFFFFFFF
310
00FF00000000000000FFFFFFFFFFFFFFFFFFFFFFFFFFFFFFFFFFFFFFFFFFFFFF00FF00FFFFFFFFFFFFFFFFFFFFFFFFFFFFFFFFFFFFFFFFFFFFFFFFFFFFFFFFFF00FF00FFFFFFFFFFFFFFFFFFFFFFFFFFFFFFFFFFFFFFFFFFFFFFFFFFFFFFFFFF00FF00FFFFFFFFFFFFFFFFFFFFFFFFFFFFFFFFFFFFFFFFFFFFFFFFFFFFFFFF
310
FF00FF00FFFFFFFFFFFFFFFFFFFFFFFFFFFFFFFFFFFFFFFFFFFFFFFFFFFFFFFFFF00FF00FFFFFFFFFFFFFFFFFFFFFFFFFFFFFFFFFFFFFFFFFFFFFFFFFFFFFFFFFF00FF00FFFFFFFFFFFFFFFFFFFFFFFFFFFFFFFFFFFFFFFFFFFFFFFFFFFFFFFFFF00FF00FFFFFFFFFFFFFFFFFFFFFFFFFFFFFFFFFFFFFFFFFFFFFFFFFFFFFF
310
FFFF00FF0000000000000000FFFFFFFFFFFFFFFFFFFFFFFFFFFFFFFFFFFFFFFFFFFF00FFFFFFFFFFFFFFFF00FFFFFFFFFFFFFFFFFFFFFFFFFFFFFFFFFFFFFFFFFFFF00FFFFFFFFFFFFFFFF00FFFFFFFFFFFFFFFFFFFFFFFFFFFFFFFFFFFFFFFFFFFF00FFFFFFFFFFFFFFFF00FFFFFFFFFFFFFFFFFFFFFFFFFFFFFFFFFFFFFF
310
FFFFFF00000000000000000000FFFFFFFFFFFFFFFFFFFFFFFFFFFFFFFFFFFFFFFFFFFFFFFFFFFFFFFFFFFFFFFFFFFFFFFFFFFFFFFFFFFFFF
102
{BLKREFS
331
A07
102
}
  0
BLOCK_RECORD
  5
9F9
330
1
100
AcDbSymbolTableRecord
100
AcDbBlockTableRecord
  2
HD_LLC_logo_OT5
340
0
310
2800000020000000200000000100080000000000000400000000000000000000000000000000000000000000000080000080000000808000800000008000800080800000C0C0C000C0DCC000F0CAA6000020400000206000002080000020A0000020C0000020E00000400000004020000040400000406000004080000040A0
310
000040C0000040E00000600000006020000060400000606000006080000060A0000060C0000060E00000800000008020000080400000806000008080000080A0000080C0000080E00000A0000000A0200000A0400000A0600000A0800000A0A00000A0C00000A0E00000C0000000C0200000C0400000C0600000C0800000C0
310
A00000C0C00000C0E00000E0000000E0200000E0400000E0600000E0800000E0A00000E0C00000E0E00040000000400020004000400040006000400080004000A0004000C0004000E00040200000402020004020400040206000402080004020A0004020C0004020E000404000004040200040404000404060004040800040
310
40A0004040C0004040E00040600000406020004060400040606000406080004060A0004060C0004060E00040800000408020004080400040806000408080004080A0004080C0004080E00040A0000040A0200040A0400040A0600040A0800040A0A00040A0C00040A0E00040C0000040C0200040C0400040C0600040C08000
310
40C0A00040C0C00040C0E00040E0000040E0200040E0400040E0600040E0800040E0A00040E0C00040E0E00080000000800020008000400080006000800080008000A0008000C0008000E00080200000802020008020400080206000802080008020A0008020C0008020E00080400000804020008040400080406000804080
310
008040A0008040C0008040E00080600000806020008060400080606000806080008060A0008060C0008060E00080800000808020008080400080806000808080008080A0008080C0008080E00080A0000080A0200080A0400080A0600080A0800080A0A00080A0C00080A0E00080C0000080C0200080C0400080C0600080C0
310
800080C0A00080C0C00080C0E00080E0000080E0200080E0400080E0600080E0800080E0A00080E0C00080E0E000C0000000C0002000C0004000C0006000C0008000C000A000C000C000C000E000C0200000C0202000C0204000C0206000C0208000C020A000C020C000C020E000C0400000C0402000C0404000C0406000C0
310
408000C040A000C040C000C040E000C0600000C0602000C0604000C0606000C0608000C060A000C060C000C060E000C0800000C0802000C0804000C0806000C0808000C080A000C080C000C080E000C0A00000C0A02000C0A04000C0A06000C0A08000C0A0A000C0A0C000C0A0E000C0C00000C0C02000C0C04000C0C06000
310
C0C08000C0C0A000F0FBFF00A4A0A000808080000000FF0000FF000000FFFF00FF000000FF00FF00FFFF0000FFFFFF00FFFFFFFFFFFFFFFFFFFFFFFFFFFFFFFFFFFFFFFFFFFFFFFFFFFFFFFFFFFFFFFFFFFFFFFFFFFFFFFFFFFFFFFFFFFFFFFFFFFFFFFFFFFFFFFFFFFFFFFFFFFFFFFFFFFFFFFFFFFFFFFFFFFFFFFFFFFFFF
310
FFFFFFFFFFFFFFFFFFFFFFFFFFFFFFFFFFFFFFFFFFFFFFFFFFFFFFFFFFFFFFFFFFFFFFFFFFFFFFFFFFFFFFFFFFFFFFFFFFFFFFFFFFFFFFFFFFFFFFFFFFFFFFFFFFFFFFFFFFFFFFFFFFFFFFFFFFFFFFFFFFFFFFFFFFFFFFFFFFFFFFFFFFFFFFFFFFFFFFFFFFFFFFFFFFFFFFFFFFFFFFFFFFFFFFFFFFFFFFFFFFFFFFFFFFFFFF
310
FFFFFFFFFFFFFFFFFFFFFFFFFFFFFFFFFFFFFFFFFFFFFFFFFFFFFFFFFFFFFFFFFFFFFFFFFFFFFFFFFFFFFFFFFFFFFFFFFFFFFFFFFFFFFFFFFFFFFFFFFFFFFFFFFFFFFFFFFFFFFFFFFFFFFFFFFFFFFFFFFFFFFFFFFFFFFFFFFFFFFFFFFFFFFFFFFFFFFFFFFFFFFFFFFFFFFFFFFFFFFFFFFFFFFFFFFFFFFFFFFFFFFFFFFFFFFF
310
FFFFFFFFFFFFFFFFFFFFFFFFFFFFFFFFFFFFFFFFFFFFFFFFFFFFFFFFFFFFFFFFFFFFFFFFFFFFFFFFFFFFFFFFFFFFFFFFFFFFFFFF0000000000000000000000000000000000000000000000000000000000FFFFFF0000000000000000000000000000000000FFFFFFFFFFFFFFFFFFFF0000FFFFFF0000000000000000000000
310
00000000000000FFFFFFFFFFFFFFFFFFFF0000FFFF000000000000000000000000000000000000FFFFFF00000000FFFFFF0000FFFF00FFFFFFFFFFFF00FFFFFF00FFFFFFFFFF00FFFFFF0000000000FFFF0000FFFF00FFFFFFFFFFFF00FFFFFF00FFFFFFFFFF00FFFFFF00FFFF0000FFFF0000FFFF00FFFFFFFFFFFF00FFFF
310
00FFFFFFFFFFFF00FFFFFF00FFFF0000FFFF0000FFFF0000000000FFFF00000000FFFFFF00000000FFFFFF00000000FFFFFF0000FFFFFFFFFFFF00FFFFFFFFFFFFFFFFFF00FFFFFFFFFFFFFFFFFFFFFFFFFF0000FFFFFFFFFFFF00FFFFFFFFFFFFFFFFFF00FFFFFFFFFFFFFFFFFFFFFFFFFF0000FFFFFFFFFFFF00FFFFFFFF
310
FFFFFFFFFF00FFFFFFFFFFFFFFFFFFFFFFFF0000FFFFFF0000000000FFFF00000000FFFFFF0000000000000000000000000000FFFFFFFF00FFFFFFFFFFFF00FFFF00FFFFFFFFFFFF00FFFFFFFFFFFFFFFFFFFFFFFFFFFF00FFFFFFFFFFFF00FFFFFF00FFFFFFFFFF00FFFFFFFFFFFFFFFFFFFFFFFFFFFF0000000000000000
310
FFFFFF00000000000000FFFFFFFFFFFFFFFFFFFFFFFFFFFFFFFFFFFFFFFFFFFFFFFFFFFFFFFFFFFFFFFFFFFFFFFFFFFFFFFFFFFFFFFFFFFFFFFFFFFFFFFFFFFFFFFFFFFFFFFFFFFFFFFFFFFFFFFFFFFFFFFFFFFFFFFFFFFFFFFFFFFFFFFFFFFFFFFFFFFFFFFFFFFFFFFFFFFFFFFFFFFFFFFFFFFFFFFFFFFFFFFFFFFFFFFFFF
310
FFFFFFFFFFFFFFFFFFFFFFFFFFFFFFFFFFFFFFFFFFFFFFFFFFFFFFFFFFFFFFFFFFFFFFFFFFFFFFFFFFFFFFFFFFFFFFFFFFFFFFFFFFFFFFFF
102
{BLKREFS
331
A1F
102
}
  0
BLOCK_RECORD
  5
A1E
330
1
100
AcDbSymbolTableRecord
100
AcDbBlockTableRecord
  2
HD logo-new
340
0
310
2800000020000000200000000100080000000000000400000000000000000000000000000000000000000000000080000080000000808000800000008000800080800000C0C0C000C0DCC000F0CAA6000020400000206000002080000020A0000020C0000020E00000400000004020000040400000406000004080000040A0
310
000040C0000040E00000600000006020000060400000606000006080000060A0000060C0000060E00000800000008020000080400000806000008080000080A0000080C0000080E00000A0000000A0200000A0400000A0600000A0800000A0A00000A0C00000A0E00000C0000000C0200000C0400000C0600000C0800000C0
310
A00000C0C00000C0E00000E0000000E0200000E0400000E0600000E0800000E0A00000E0C00000E0E00040000000400020004000400040006000400080004000A0004000C0004000E00040200000402020004020400040206000402080004020A0004020C0004020E000404000004040200040404000404060004040800040
310
40A0004040C0004040E00040600000406020004060400040606000406080004060A0004060C0004060E00040800000408020004080400040806000408080004080A0004080C0004080E00040A0000040A0200040A0400040A0600040A0800040A0A00040A0C00040A0E00040C0000040C0200040C0400040C0600040C08000
310
40C0A00040C0C00040C0E00040E0000040E0200040E0400040E0600040E0800040E0A00040E0C00040E0E00080000000800020008000400080006000800080008000A0008000C0008000E00080200000802020008020400080206000802080008020A0008020C0008020E00080400000804020008040400080406000804080
310
008040A0008040C0008040E00080600000806020008060400080606000806080008060A0008060C0008060E00080800000808020008080400080806000808080008080A0008080C0008080E00080A0000080A0200080A0400080A0600080A0800080A0A00080A0C00080A0E00080C0000080C0200080C0400080C0600080C0
310
800080C0A00080C0C00080C0E00080E0000080E0200080E0400080E0600080E0800080E0A00080E0C00080E0E000C0000000C0002000C0004000C0006000C0008000C000A000C000C000C000E000C0200000C0202000C0204000C0206000C0208000C020A000C020C000C020E000C0400000C0402000C0404000C0406000C0
310
408000C040A000C040C000C040E000C0600000C0602000C0604000C0606000C0608000C060A000C060C000C060E000C0800000C0802000C0804000C0806000C0808000C080A000C080C000C080E000C0A00000C0A02000C0A04000C0A06000C0A08000C0A0A000C0A0C000C0A0E000C0C00000C0C02000C0C04000C0C06000
310
C0C08000C0C0A000F0FBFF00A4A0A000808080000000FF0000FF000000FFFF00FF000000FF00FF00FFFF0000FFFFFF00FFFFFFFFFFFFFFFFFFFFFFFFFFFFFFFFFFFFFFFFFFFFFFFFFFFFFFFFFFFFFFFFFFFFFFFFFFFFFFFFFFFFFFFFFFFFFFFFFFFFFFFFFFFFFFFFFFFFFFFFFFFFFFFFFFFFFFFFFFFFFFFFFFFFFFFFFFFFFF
310
FFFFFFFFFFFFFFFFFFFFFFFFFFFFFFFFFFFFFFFFFFFFFFFFFFFFFFFFFFFFFFFFFFFFFFFFFFFFFFFFFFFFFFFFFFFFFFFFFFFFFFFFFFFFFFFFFFFFFFFFFFFFFFFFFFFFFFFFFFFFFFFFFFFFFFFFFFFFFFFFFFFFFFFFFFFFFFFFFFFFFFFFFFFFFFFFFFFFFFFFFFFFFFFFFFFFFFFFFFFFFFFFFFFFFFFFFFFFFFFFFFFFFFFFFFFFFF
310
FFFFFFFFFFFFFFFFFFFFFFFFFFFFFFFFFFFFFFFFFFFFFFFFFFFFFFFFFFFFFFFFFFFFFFFFFFFFFFFFFFFFFFFFFFFFFFFFFFFFFFFFFFFFFFFFFFFFFFFFFFFFFFFFFFFFFFFFFFFFFFFFFFFFFFFFFFFFFFFFFFFFFFFFFFFFFFFFFFFFFFFFFFFFFFFFFFFFFFFFFFFFFFFFFFFFFFFFFFFFFFFFFFFFFFFFFFFFFFFFFFFFFFFFFFFFFF
310
FFFFFFFFFFFFFFFFFFFFFFFFFFFFFFFFFFFFFFFFFFFFFFFFFFFFFFFFFFFFFFFFFFFFFFFFFFFFFFFFFFFFFFFFFFFFFFFFFFFFFFFF0000000000000000000000000000000000000000000000000000000000FFFFFF0000000000000000000000000000000000FFFFFFFFFFFFFFFFFFFF0000FFFFFF0000000000000000000000
310
00000000000000FFFFFFFFFFFFFFFFFFFF0000FFFF000000000000000000000000000000000000FFFFFF00000000FFFFFF0000FFFF00FFFFFFFFFFFF00FFFFFF00FFFFFFFFFF00FFFFFF0000000000FFFF0000FFFF00FFFFFFFFFFFF00FFFFFF00FFFFFFFFFF00FFFFFF00FFFF0000FFFF0000FFFF00FFFFFFFFFFFF00FFFF
310
00FFFFFFFFFFFF00FFFFFF00FFFF0000FFFF0000FFFF0000000000FFFF00000000FFFFFF00000000FFFFFF00000000FFFFFF0000FFFFFFFFFFFF00FFFFFFFFFFFFFFFFFF00FFFFFFFFFFFFFFFFFFFFFFFFFF0000FFFFFFFFFFFF00FFFFFFFFFFFFFFFFFF00FFFFFFFFFFFFFFFFFFFFFFFFFF0000FFFFFFFFFFFF00FFFFFFFF
310
FFFFFFFFFF00FFFFFFFFFFFFFFFFFFFFFFFF0000FFFFFF0000000000FFFF00000000FFFFFF0000000000000000000000000000FFFFFFFF00FFFFFFFFFFFF00FFFF00FFFFFFFFFFFF00FFFFFFFFFFFFFFFFFFFFFFFFFFFF00FFFFFFFFFFFF00FFFFFF00FFFFFFFFFF00FFFFFFFFFFFFFFFFFFFFFFFFFFFF0000000000000000
310
FFFFFF00000000000000FFFFFFFFFFFFFFFFFFFFFFFFFFFFFFFFFFFFFFFFFFFFFFFFFFFFFFFFFFFFFFFFFFFFFFFFFFFFFFFFFFFFFFFFFFFFFFFFFFFFFFFFFFFFFFFFFFFFFFFFFFFFFFFFFFFFFFFFFFFFFFFFFFFFFFFFFFFFFFFFFFFFFFFFFFFFFFFFFFFFFFFFFFFFFFFFFFFFFFFFFFFFFFFFFFFFFFFFFFFFFFFFFFFFFFFFFF
310
FFFFFFFFFFFFFFFFFFFFFFFFFFFFFFFFFFFFFFFFFFFFFFFFFFFFFFFFFFFFFFFFFFFFFFFFFFFFFFFFFFFFFFFFFFFFFFFFFFFFFFFFFFFFFFFF
102
{BLKREFS
331
A24
331
A28
102
}
  0
BLOCK_RECORD
  5
A35
330
1
100
AcDbSymbolTableRecord
100
AcDbBlockTableRecord
  2
Harmonic Drive LLC
340
0
310
2800000020000000200000000100080000000000000400000000000000000000000000000000000000000000000080000080000000808000800000008000800080800000C0C0C000C0DCC000F0CAA6000020400000206000002080000020A0000020C0000020E00000400000004020000040400000406000004080000040A0
310
000040C0000040E00000600000006020000060400000606000006080000060A0000060C0000060E00000800000008020000080400000806000008080000080A0000080C0000080E00000A0000000A0200000A0400000A0600000A0800000A0A00000A0C00000A0E00000C0000000C0200000C0400000C0600000C0800000C0
310
A00000C0C00000C0E00000E0000000E0200000E0400000E0600000E0800000E0A00000E0C00000E0E00040000000400020004000400040006000400080004000A0004000C0004000E00040200000402020004020400040206000402080004020A0004020C0004020E000404000004040200040404000404060004040800040
310
40A0004040C0004040E00040600000406020004060400040606000406080004060A0004060C0004060E00040800000408020004080400040806000408080004080A0004080C0004080E00040A0000040A0200040A0400040A0600040A0800040A0A00040A0C00040A0E00040C0000040C0200040C0400040C0600040C08000
310
40C0A00040C0C00040C0E00040E0000040E0200040E0400040E0600040E0800040E0A00040E0C00040E0E00080000000800020008000400080006000800080008000A0008000C0008000E00080200000802020008020400080206000802080008020A0008020C0008020E00080400000804020008040400080406000804080
310
008040A0008040C0008040E00080600000806020008060400080606000806080008060A0008060C0008060E00080800000808020008080400080806000808080008080A0008080C0008080E00080A0000080A0200080A0400080A0600080A0800080A0A00080A0C00080A0E00080C0000080C0200080C0400080C0600080C0
310
800080C0A00080C0C00080C0E00080E0000080E0200080E0400080E0600080E0800080E0A00080E0C00080E0E000C0000000C0002000C0004000C0006000C0008000C000A000C000C000C000E000C0200000C0202000C0204000C0206000C0208000C020A000C020C000C020E000C0400000C0402000C0404000C0406000C0
310
408000C040A000C040C000C040E000C0600000C0602000C0604000C0606000C0608000C060A000C060C000C060E000C0800000C0802000C0804000C0806000C0808000C080A000C080C000C080E000C0A00000C0A02000C0A04000C0A06000C0A08000C0A0A000C0A0C000C0A0E000C0C00000C0C02000C0C04000C0C06000
310
C0C08000C0C0A000F0FBFF00A4A0A000808080000000FF0000FF000000FFFF00FF000000FF00FF00FFFF0000FFFFFF00FFFFFFFFFFFFFFFFFFFFFFFFFFFFFFFFFFFFFFFFFFFFFFFFFFFFFFFFFFFFFFFFFFFFFFFFFFFFFFFFFFFFFFFFFFFFFFFFFFFFFFFFFFFFFFFFFFFFFFFFFFFFFFFFFFFFFFFFFFFFFFFFFFFFFFFFFFFFFF
310
FFFFFFFFFFFFFFFFFFFFFFFFFFFFFFFFFFFFFFFFFFFFFFFFFFFFFFFFFFFFFFFFFFFFFFFFFFFFFFFFFFFFFFFFFFFFFFFFFFFFFFFFFFFFFFFFFFFFFFFFFFFFFFFFFFFFFFFFFFFFFFFFFFFFFFFFFFFFFFFFFFFFFFFFFFFFFFFFFFFFFFFFFFFFFFFFFFFFFFFFFFFFFFFFFFFFFFFFFFFFFFFFFFFFFFFFFFFFFFFFFFFFFFFFFFFFFF
310
FFFFFFFFFFFFFFFFFFFFFFFFFFFFFFFFFFFFFFFFFFFFFFFFFFFFFFFFFFFFFFFFFFFFFFFFFFFFFFFFFFFFFFFFFFFFFFFFFFFFFFFFFFFFFFFFFFFFFFFFFFFFFFFFFFFFFFFFFFFFFFFFFFFFFFFFFFFFFFFFFFFFFFFFFFFFFFFFFFFFFFFFFFFFFFFFFFFFFFFFFFFFFFFFFFFFFFFFFFFFFFFFFFFFFFFFFFFFFFFFFFFFFFFFFFFFFF
310
FFFFFFFFFFFFFFFFFFFFFFFFFFFFFFFFFFFFFFFFFFFFFFFFFFFFFFFFFFFFFFFFFFFFFFFFFFFFFFFFFFFFFFFFFFFFFFFFFFFFFFFFFFFFFFFFFFFFFFFFFFFFFFFFFFFFFFFFFFFFFFFFFFFFFFFFFFFFFFFFFFFFFFFFFFFFFFFFFFFFFFFF0000000000000000000000000000FFFFFFFFFFFFFFFFFFFFFFFFFFFFFFFFFFFF000000
310
0000000000000000000000FFFFFFFFFFFFFFFFFFFFFFFFFFFFFFFFFFFFFFFFFF000000000000000000FFFFFFFFFFFFFFFFFFFFFFFFFFFFFFFFFFFFFFFFFFFFFF000000000000000000FFFFFFFFFFFFFFFFFFFFFFFFFFFFFFFFFFFFFFFFFF000000000000000000000000FFFFFFFFFFFFFFFFFFFFFFFFFFFFFFFFFFFFFFFF00
310
FFFFFF00FF0000FF000000FFFFFFFFFFFFFFFFFFFFFFFFFFFFFFFFFFFFFFFFFFFFFFFFFFFFFFFFFFFFFFFFFFFFFFFFFFFFFFFFFFFFFFFFFFFFFFFFFFFFFFFFFFFFFFFFFFFFFFFFFFFFFFFFFFFFFFFFFFFFFFFFFFFFFFFFFFFFFFFFFFFFFFFFFFFFFFFFFFFFFFFFFFFFFFFFFFFFFFFFFFFFFFFFFFFFFFFFFFFFFFFFFFFFFFFF
310
FFFFFFFFFFFFFFFFFFFFFFFFFFFFFFFFFFFFFFFFFFFFFFFFFFFFFFFFFFFFFFFFFFFFFFFFFFFFFFFFFFFFFFFFFFFFFFFFFFFFFFFFFFFFFFFFFFFFFFFFFFFFFFFFFFFFFFFFFFFFFFFFFFFFFFFFFFFFFFFFFFFFFFFFFFFFFFFFFFFFFFFFFFFFFFFFFFFFFFFFFFFFFFFFFFFFFFFFFFFFFFFFFFFFFFFFFFFFFFFFFFFFFFFFFFFFFF
310
FFFFFFFFFFFFFFFFFFFFFFFFFFFFFFFFFFFFFFFFFFFFFFFFFFFFFFFFFFFFFFFFFFFFFFFFFFFFFFFFFFFFFFFFFFFFFFFFFFFFFFFFFFFFFFFFFFFFFFFFFFFFFFFFFFFFFFFFFFFFFFFFFFFFFFFFFFFFFFFFFFFFFFFFFFFFFFFFFFFFFFFFFFFFFFFFFFFFFFFFFFFFFFFFFFFFFFFFFFFFFFFFFFFFFFFFFFFFFFFFFFFFFFFFFFFFFF
310
FFFFFFFFFFFFFFFFFFFFFFFFFFFFFFFFFFFFFFFFFFFFFFFFFFFFFFFFFFFFFFFFFFFFFFFFFFFFFFFFFFFFFFFFFFFFFFFFFFFFFFFFFFFFFFFF
102
{BLKREFS
331
A3A
331
A3F
102
}
  0
BLOCK_RECORD
  5
A40
330
1
100
AcDbSymbolTableRecord
100
AcDbBlockTableRecord
  2
HD LLC
340
0
310
2800000020000000200000000100080000000000000400000000000000000000000000000000000000000000000080000080000000808000800000008000800080800000C0C0C000C0DCC000F0CAA6000020400000206000002080000020A0000020C0000020E00000400000004020000040400000406000004080000040A0
310
000040C0000040E00000600000006020000060400000606000006080000060A0000060C0000060E00000800000008020000080400000806000008080000080A0000080C0000080E00000A0000000A0200000A0400000A0600000A0800000A0A00000A0C00000A0E00000C0000000C0200000C0400000C0600000C0800000C0
310
A00000C0C00000C0E00000E0000000E0200000E0400000E0600000E0800000E0A00000E0C00000E0E00040000000400020004000400040006000400080004000A0004000C0004000E00040200000402020004020400040206000402080004020A0004020C0004020E000404000004040200040404000404060004040800040
310
40A0004040C0004040E00040600000406020004060400040606000406080004060A0004060C0004060E00040800000408020004080400040806000408080004080A0004080C0004080E00040A0000040A0200040A0400040A0600040A0800040A0A00040A0C00040A0E00040C0000040C0200040C0400040C0600040C08000
310
40C0A00040C0C00040C0E00040E0000040E0200040E0400040E0600040E0800040E0A00040E0C00040E0E00080000000800020008000400080006000800080008000A0008000C0008000E00080200000802020008020400080206000802080008020A0008020C0008020E00080400000804020008040400080406000804080
310
008040A0008040C0008040E00080600000806020008060400080606000806080008060A0008060C0008060E00080800000808020008080400080806000808080008080A0008080C0008080E00080A0000080A0200080A0400080A0600080A0800080A0A00080A0C00080A0E00080C0000080C0200080C0400080C0600080C0
310
800080C0A00080C0C00080C0E00080E0000080E0200080E0400080E0600080E0800080E0A00080E0C00080E0E000C0000000C0002000C0004000C0006000C0008000C000A000C000C000C000E000C0200000C0202000C0204000C0206000C0208000C020A000C020C000C020E000C0400000C0402000C0404000C0406000C0
310
408000C040A000C040C000C040E000C0600000C0602000C0604000C0606000C0608000C060A000C060C000C060E000C0800000C0802000C0804000C0806000C0808000C080A000C080C000C080E000C0A00000C0A02000C0A04000C0A06000C0A08000C0A0A000C0A0C000C0A0E000C0C00000C0C02000C0C04000C0C06000
310
C0C08000C0C0A000F0FBFF00A4A0A000808080000000FF0000FF000000FFFF00FF000000FF00FF00FFFF0000FFFFFF00FFFFFFFFFFFFFFFFFFFFFFFFFFFFFFFFFFFFFFFFFFFFFFFFFFFFFFFFFFFFFFFFFFFFFFFFFFFFFFFFFFFFFFFFFFFFFFFFFFFFFFFFFFFFFFFFFFFFFFFFFFFFFFFFFFFFFFFFFFFFFFFFFFFFFFFFFFFFFF
310
FFFFFFFFFFFFFFFFFFFFFFFFFFFFFFFFFFFFFFFFFFFFFFFFFFFFFFFFFFFFFFFFFFFFFFFFFFFFFFFFFFFFFFFFFFFFFFFFFFFFFFFFFFFFFFFFFFFFFFFFFFFFFFFFFFFFFFFFFFFFFFFFFFFFFFFFFFFFFFFFFFFFFFFFFFFFFFFFFFFFFFFFFFFFFFFFFFFFFFFFFFFFFFFFFFFFFFFFFFFFFFFFFFFFFFFFFFFFFFFFFFFFFFFFFFFFFF
310
FFFFFFFFFFFFFFFFFFFFFFFFFFFFFFFFFFFFFFFFFFFFFFFFFFFFFFFFFFFFFFFFFFFFFFFFFFFFFFFFFFFFFFFFFFFFFFFFFFFFFFFFFFFFFFFFFFFFFFFFFFFFFFFFFFFFFFFFFFFFFFFFFFFFFFFFFFFFFFFFFFFFFFFFFFFFFFFFFFFFFFFFFFFFFFFFFFFFFFFFFFFFFFFFFFFFFFFFFFFFFFFFFFFFFFFFFFFFFFFFFFFFFFFFFFFFFF
310
FFFFFFFFFFFFFFFFFFFFFFFFFFFFFFFFFFFFFFFFFFFFFFFFFFFFFFFFFFFFFFFFFFFFFFFFFFFFFFFFFFFFFFFFFFFFFFFFFFFFFFFFFFFFFFFFFFFFFFFFFFFFFFFFFFFFFFFFFFFFFFFFFFFFFFFFFFFFFFFFFFFFFFFFFFFFFFFFFFFFFFFFFFFFFFFFFFFFFFFFFFFFFFFFFFFFFFFFFFFFFFFFFFFFFFFFFFFFFFFFFFFFFFFFFFFF00
310
000000000000000000FFFFFFFFFFFFFFFFFFFFFFFFFFFFFFFFFFFFFFFFFFFF00000000000000000000FFFFFFFFFFFFFFFFFFFFFFFFFFFFFFFFFFFFFFFFFFFF00000000000000000000FFFFFFFFFFFFFFFFFFFFFFFFFFFFFFFFFFFFFFFFFFFF00000000000000000000FFFFFFFFFFFFFFFFFFFFFFFFFFFFFFFFFFFFFFFFFFFF
310
FFFFFFFFFFFFFFFFFFFFFFFFFFFFFFFFFFFFFFFFFFFFFFFFFFFFFFFFFFFFFFFFFFFFFFFFFFFFFFFFFFFFFFFFFFFFFFFFFFFFFFFFFFFFFFFFFFFFFFFFFFFFFFFFFFFFFFFFFFFFFFFFFFFFFFFFFFFFFFFFFFFFFFFFFFFFFFFFFFFFFFFFFFFFFFFFFFFFFFFFFFFFFFFFFFFFFFFFFFFFFFFFFFFFFFFFFFFFFFFFFFFFFFFFFFFFFF
310
FFFFFFFFFFFFFFFFFFFFFFFFFFFFFFFFFFFFFFFFFFFFFFFFFFFFFFFFFFFFFFFFFFFFFFFFFFFFFFFFFFFFFFFFFFFFFFFFFFFFFFFFFFFFFFFFFFFFFFFFFFFFFFFFFFFFFFFFFFFFFFFFFFFFFFFFFFFFFFFFFFFFFFFFFFFFFFFFFFFFFFFFFFFFFFFFFFFFFFFFFFFFFFFFFFFFFFFFFFFFFFFFFFFFFFFFFFFFFFFFFFFFFFFFFFFFFF
310
FFFFFFFFFFFFFFFFFFFFFFFFFFFFFFFFFFFFFFFFFFFFFFFFFFFFFFFFFFFFFFFFFFFFFFFFFFFFFFFFFFFFFFFFFFFFFFFFFFFFFFFFFFFFFFFFFFFFFFFFFFFFFFFFFFFFFFFFFFFFFFFFFFFFFFFFFFFFFFFFFFFFFFFFFFFFFFFFFFFFFFFFFFFFFFFFFFFFFFFFFFFFFFFFFFFFFFFFFFFFFFFFFFFFFFFFFFFFFFFFFFFFFFFFFFFFFF
310
FFFFFFFFFFFFFFFFFFFFFFFFFFFFFFFFFFFFFFFFFFFFFFFFFFFFFFFFFFFFFFFFFFFFFFFFFFFFFFFFFFFFFFFFFFFFFFFFFFFFFFFFFFFFFFFF
102
{BLKREFS
331
A45
331
A49
102
}
  0
ENDTAB
  0
ENDSEC
  0
SECTION
  2
BLOCKS
  0
BLOCK
  5
19
330
18
100
AcDbEntity
  8
0
100
AcDbBlockBegin
  2
*MODEL_SPACE
 70
     0
 10
0.0
 20
0.0
 30
0.0
  3
*MODEL_SPACE
  1

  0
ENDBLK
  5
1A
330
18
100
AcDbEntity
  8
0
100
AcDbBlockEnd
  0
BLOCK
  5
16
330
15
100
AcDbEntity
 67
     1
  8
0
100
AcDbBlockBegin
  2
*PAPER_SPACE
 70
     0
 10
0.0
 20
0.0
 30
0.0
  3
*PAPER_SPACE
  1

  0
ENDBLK
  5
17
330
15
100
AcDbEntity
 67
     1
  8
0
100
AcDbBlockEnd
  0
BLOCK
  5
7FF
330
7FE
100
AcDbEntity
  8
0
100
AcDbBlockBegin
  2
*D0
 70
     1
 10
0.0
 20
0.0
 30
0.0
  3
*D0
  1

  0
LINE
  5
800
330
7FE
100
AcDbEntity
  8
0
  6
ByBlock
 62
     0
100
AcDbLine
 10
99.50000000000001
 20
-20.56249999999999
 30
0.0
 11
99.50000000000001
 21
-51.96669299999999
 31
0.0
  0
LINE
  5
801
330
7FE
100
AcDbEntity
  8
0
  6
ByBlock
 62
     0
100
AcDbLine
 10
129.4999999999999
 20
-17.7625
 30
0.0
 11
129.4999999999999
 21
-51.96669299999999
 31
0.0
  0
LINE
  5
802
330
7FE
100
AcDbEntity
  8
0
  6
ByBlock
 62
     0
100
AcDbLine
 10
104.0
 20
-47.46669299999999
 30
0.0
 11
108.875
 21
-47.46669299999999
 31
0.0
  0
LINE
  5
803
330
7FE
100
AcDbEntity
  8
0
  6
ByBlock
 62
     0
100
AcDbLine
 10
125.0
 20
-47.46669299999999
 30
0.0
 11
120.1249999999999
 21
-47.46669299999999
 31
0.0
  0
SOLID
  5
804
330
7FE
100
AcDbEntity
  8
0
  6
ByBlock
 62
     0
100
AcDbTrace
 10
104.0
 20
-46.716693
 30
0.0
 11
104.0
 21
-48.21669299999999
 31
0.0
 12
99.50000000000001
 22
-47.46669299999999
 32
0.0
 13
99.50000000000001
 23
-47.46669299999999
 33
0.0
  0
SOLID
  5
805
330
7FE
100
AcDbEntity
  8
0
  6
ByBlock
 62
     0
100
AcDbTrace
 10
125.0
 20
-46.716693
 30
0.0
 11
125.0
 21
-48.21669299999999
 31
0.0
 12
129.4999999999999
 22
-47.46669299999999
 32
0.0
 13
129.4999999999999
 23
-47.46669299999999
 33
0.0
  0
MTEXT
  5
806
330
7FE
100
AcDbEntity
  8
0
  6
ByBlock
 62
     0
100
AcDbMText
 10
114.5
 20
-47.46669299999999
 30
0.0
 40
4.5
 41
0.0
 71
     5
 72
     1
  1
\A1;30
 73
     1
 44
1.0
  0
POINT
  5
808
330
7FE
100
AcDbEntity
  8
DEFPOINTS
  6
ByBlock
 62
     0
100
AcDbPoint
 10
99.50000000000001
 20
-19.0
 30
0.0
  0
POINT
  5
809
330
7FE
100
AcDbEntity
  8
DEFPOINTS
  6
ByBlock
 62
     0
100
AcDbPoint
 10
129.4999999999999
 20
-16.2
 30
0.0
  0
POINT
  5
80A
330
7FE
100
AcDbEntity
  8
DEFPOINTS
  6
ByBlock
 62
     0
100
AcDbPoint
 10
129.4999999999999
 20
-47.46669299999999
 30
0.0
  0
ENDBLK
  5
80B
330
7FE
100
AcDbEntity
  8
0
100
AcDbBlockEnd
  0
BLOCK
  5
81B
330
80D
100
AcDbEntity
  8
0
100
AcDbBlockBegin
  2
*D1
 70
     1
 10
0.0
 20
0.0
 30
0.0
  3
*D1
  1

  0
LINE
  5
81C
330
80D
100
AcDbEntity
  8
0
  6
ByBlock
 62
     0
100
AcDbLine
 10
99.50000000000001
 20
-20.56249999999999
 30
0.0
 11
99.50000000000001
 21
-40.602565
 31
0.0
  0
LINE
  5
81D
330
80D
100
AcDbEntity
  8
0
  6
ByBlock
 62
     0
100
AcDbLine
 10
120.5
 20
14.771667
 30
0.0
 11
120.5
 21
-40.602565
 31
0.0
  0
LINE
  5
81E
330
80D
100
AcDbEntity
  8
0
  6
ByBlock
 62
     0
100
AcDbLine
 10
104.0
 20
-36.102565
 30
0.0
 11
106.25
 21
-36.102565
 31
0.0
  0
LINE
  5
81F
330
80D
100
AcDbEntity
  8
0
  6
ByBlock
 62
     0
100
AcDbLine
 10
116.0
 20
-36.102565
 30
0.0
 11
113.7499999999999
 21
-36.102565
 31
0.0
  0
SOLID
  5
820
330
80D
100
AcDbEntity
  8
0
  6
ByBlock
 62
     0
100
AcDbTrace
 10
104.0
 20
-35.352565
 30
0.0
 11
104.0
 21
-36.852565
 31
0.0
 12
99.50000000000001
 22
-36.102565
 32
0.0
 13
99.50000000000001
 23
-36.102565
 33
0.0
  0
SOLID
  5
821
330
80D
100
AcDbEntity
  8
0
  6
ByBlock
 62
     0
100
AcDbTrace
 10
116.0
 20
-35.352565
 30
0.0
 11
116.0
 21
-36.852565
 31
0.0
 12
120.5
 22
-36.102565
 32
0.0
 13
120.5
 23
-36.102565
 33
0.0
  0
MTEXT
  5
822
330
80D
100
AcDbEntity
  8
0
  6
ByBlock
 62
     0
100
AcDbMText
 10
110.0
 20
-36.102565
 30
0.0
 40
4.5
 41
0.0
 71
     5
 72
     1
  1
\A1;21
 73
     1
 44
1.0
  0
POINT
  5
823
330
80D
100
AcDbEntity
  8
DEFPOINTS
  6
ByBlock
 62
     0
100
AcDbPoint
 10
99.50000000000001
 20
-19.0
 30
0.0
  0
POINT
  5
824
330
80D
100
AcDbEntity
  8
DEFPOINTS
  6
ByBlock
 62
     0
100
AcDbPoint
 10
120.5
 20
16.334167
 30
0.0
  0
POINT
  5
825
330
80D
100
AcDbEntity
  8
DEFPOINTS
  6
ByBlock
 62
     0
100
AcDbPoint
 10
120.5
 20
-36.102565
 30
0.0
  0
ENDBLK
  5
826
330
80D
100
AcDbEntity
  8
0
100
AcDbBlockEnd
  0
BLOCK
  5
828
330
827
100
AcDbEntity
  8
0
100
AcDbBlockBegin
  2
*D2
 70
     1
 10
0.0
 20
0.0
 30
0.0
  3
*D2
  1

  0
LINE
  5
829
330
827
100
AcDbEntity
  8
0
  6
ByBlock
 62
     0
100
AcDbLine
 10
172.990957
 20
15.86570799999999
 30
0.0
 11
145.7201969999999
 21
-11.405051
 31
0.0
  0
LINE
  5
82A
330
827
100
AcDbEntity
  8
0
  6
ByBlock
 62
     0
100
AcDbLine
 10
189.9615189999999
 20
-1.104854
 30
0.0
 11
162.69076
 21
-28.375613
 31
0.0
  0
LINE
  5
82B
330
827
100
AcDbEntity
  8
0
  6
ByBlock
 62
     0
100
AcDbLine
 10
145.7201969999999
 20
-5.04109
 30
0.0
 11
142.5382169999999
 21
-1.859109
 31
0.0
  0
LINE
  5
82C
330
827
100
AcDbEntity
  8
0
  6
ByBlock
 62
     0
100
AcDbLine
 10
169.054721
 20
-28.375613
 30
0.0
 11
172.236702
 21
-31.557594
 31
0.0
  0
SOLID
  5
82D
330
827
100
AcDbEntity
  8
0
  6
ByBlock
 62
     0
100
AcDbTrace
 10
146.250528
 20
-4.510759999999999
 30
0.0
 11
145.189867
 21
-5.571419999999999
 31
0.0
 12
148.9021779999999
 22
-8.223069999999999
 32
0.0
 13
148.9021779999999
 23
-8.223069999999999
 33
0.0
  0
SOLID
  5
82E
330
827
100
AcDbEntity
  8
0
  6
ByBlock
 62
     0
100
AcDbTrace
 10
169.5850509999999
 20
-27.845283
 30
0.0
 11
168.5243909999999
 21
-28.905943
 31
0.0
 12
165.872741
 22
-25.193633
 32
0.0
 13
165.872741
 23
-25.193633
 33
0.0
  0
MTEXT
  5
82F
330
827
100
AcDbEntity
  8
0
  6
ByBlock
 62
     0
100
AcDbMText
 10
157.387459
 20
-16.708351
 30
0.0
 40
4.5
 41
0.0
 71
     5
 72
     1
  1
\A1;24
 73
     1
 44
1.0
  0
POINT
  5
830
330
827
100
AcDbEntity
  8
DEFPOINTS
  6
ByBlock
 62
     0
100
AcDbPoint
 10
174.095811
 20
16.970563
 30
0.0
  0
POINT
  5
831
330
827
100
AcDbEntity
  8
DEFPOINTS
  6
ByBlock
 62
     0
100
AcDbPoint
 10
191.066374
 20
0.0
 30
0.0
  0
POINT
  5
832
330
827
100
AcDbEntity
  8
DEFPOINTS
  6
ByBlock
 62
     0
100
AcDbPoint
 10
165.872741
 20
-25.193633
 30
0.0
  0
ENDBLK
  5
833
330
827
100
AcDbEntity
  8
0
100
AcDbBlockEnd
  0
BLOCK
  5
836
330
835
100
AcDbEntity
  8
0
100
AcDbBlockBegin
  2
*D3
 70
     1
 10
0.0
 20
0.0
 30
0.0
  3
*D3
  1

  0
LINE
  5
837
330
835
100
AcDbEntity
  8
0
  6
ByBlock
 62
     0
100
AcDbLine
 10
151.732186
 20
13.82609399999999
 30
0.0
 11
156.232186
 21
13.82609399999999
 31
0.0
  0
LINE
  5
838
330
835
100
AcDbEntity
  8
0
  6
ByBlock
 62
     0
100
AcDbLine
 10
156.232186
 20
13.82609399999999
 30
0.0
 11
171.5476459999999
 21
7.74721
 31
0.0
  0
MTEXT
  5
839
330
835
100
AcDbEntity
  8
0
  6
ByBlock
 62
     0
100
AcDbMText
 10
143.482186
 20
13.82609399999999
 30
0.0
 40
4.5
 41
0.0
 71
     5
 72
     1
  1
\A1;\U+220533
 73
     1
 44
1.0
  0
SOLID
  5
83A
330
835
100
AcDbEntity
  8
0
  6
ByBlock
 62
     0
100
AcDbTrace
 10
171.824332
 20
8.444307
 30
0.0
 11
171.27096
 21
7.050113
 31
0.0
 12
175.73023
 22
6.087094
 32
0.0
 13
175.73023
 23
6.087094
 33
0.0
  0
LINE
  5
83B
330
835
100
AcDbEntity
  8
0
  6
ByBlock
 62
     0
100
AcDbLine
 10
188.8163739999999
 20
0.0
 30
0.0
 11
193.3163739999999
 21
0.0
 31
0.0
  0
LINE
  5
83C
330
835
100
AcDbEntity
  8
0
  6
ByBlock
 62
     0
100
AcDbLine
 10
191.066374
 20
-2.25
 30
0.0
 11
191.066374
 21
2.25
 31
0.0
  0
POINT
  5
83D
330
835
100
AcDbEntity
  8
DEFPOINTS
  6
ByBlock
 62
     0
100
AcDbPoint
 10
175.73023
 20
6.087094
 30
0.0
  0
POINT
  5
83E
330
835
100
AcDbEntity
  8
DEFPOINTS
  6
ByBlock
 62
     0
100
AcDbPoint
 10
206.4025169999999
 20
-6.087094
 30
0.0
  0
ENDBLK
  5
83F
330
835
100
AcDbEntity
  8
0
100
AcDbBlockEnd
  0
BLOCK
  5
84A
330
849
100
AcDbEntity
  8
0
100
AcDbBlockBegin
  2
*D4
 70
     1
 10
0.0
 20
0.0
 30
0.0
  3
*D4
  1

  0
LINE
  5
84B
330
849
100
AcDbEntity
  8
0
  6
ByBlock
 62
     0
100
AcDbLine
 10
130.7624999999999
 20
16.5
 30
0.0
 11
153.431488
 21
16.5
 31
0.0
  0
LINE
  5
84C
330
849
100
AcDbEntity
  8
0
  6
ByBlock
 62
     0
100
AcDbLine
 10
130.7624999999999
 20
-16.5
 30
0.0
 11
153.431488
 21
-16.5
 31
0.0
  0
LINE
  5
84D
330
849
100
AcDbEntity
  8
0
  6
ByBlock
 62
     0
100
AcDbLine
 10
148.931488
 20
12.0
 30
0.0
 11
148.931488
 21
4.5
 31
0.0
  0
LINE
  5
84E
330
849
100
AcDbEntity
  8
0
  6
ByBlock
 62
     0
100
AcDbLine
 10
148.931488
 20
-12.0
 30
0.0
 11
148.931488
 21
-4.5
 31
0.0
  0
SOLID
  5
84F
330
849
100
AcDbEntity
  8
0
  6
ByBlock
 62
     0
100
AcDbTrace
 10
148.1814879999999
 20
12.0
 30
0.0
 11
149.681488
 21
12.0
 31
0.0
 12
148.931488
 22
16.5
 32
0.0
 13
148.931488
 23
16.5
 33
0.0
  0
SOLID
  5
850
330
849
100
AcDbEntity
  8
0
  6
ByBlock
 62
     0
100
AcDbTrace
 10
148.1814879999999
 20
-12.0
 30
0.0
 11
149.681488
 21
-12.0
 31
0.0
 12
148.931488
 22
-16.5
 32
0.0
 13
148.931488
 23
-16.5
 33
0.0
  0
MTEXT
  5
851
330
849
100
AcDbEntity
  8
0
  6
ByBlock
 62
     0
100
AcDbMText
 10
148.931488
 20
0.0
 30
0.0
 40
4.5
 41
0.0
 71
     5
 72
     1
  1
\A1;33
 73
     1
 44
1.0
  0
POINT
  5
852
330
849
100
AcDbEntity
  8
DEFPOINTS
  6
ByBlock
 62
     0
100
AcDbPoint
 10
129.1999999999999
 20
16.5
 30
0.0
  0
POINT
  5
853
330
849
100
AcDbEntity
  8
DEFPOINTS
  6
ByBlock
 62
     0
100
AcDbPoint
 10
129.1999999999999
 20
-16.5
 30
0.0
  0
POINT
  5
854
330
849
100
AcDbEntity
  8
DEFPOINTS
  6
ByBlock
 62
     0
100
AcDbPoint
 10
148.931488
 20
-16.5
 30
0.0
  0
ENDBLK
  5
855
330
849
100
AcDbEntity
  8
0
100
AcDbBlockEnd
  0
BLOCK
  5
862
330
861
100
AcDbEntity
  8
0
100
AcDbBlockBegin
  2
*D5
 70
     1
 10
0.0
 20
0.0
 30
0.0
  3
*D5
  1

  0
LINE
  5
863
330
861
100
AcDbEntity
  8
0
  6
ByBlock
 62
     0
100
AcDbLine
 10
204.705529
 20
21.964504
 30
0.0
 11
195.9818999999999
 21
30.688134
 31
0.0
  0
LINE
  5
864
330
861
100
AcDbEntity
  8
0
  6
ByBlock
 62
     0
100
AcDbLine
 10
196.927355
 20
14.18632999999999
 30
0.0
 11
188.2037249999999
 21
22.90995899999999
 31
0.0
  0
LINE
  5
865
330
861
100
AcDbEntity
  8
0
  6
ByBlock
 62
     0
100
AcDbLine
 10
202.345861
 20
30.688134
 30
0.0
 11
205.527841
 21
33.870114
 31
0.0
  0
LINE
  5
866
330
861
100
AcDbEntity
  8
0
  6
ByBlock
 62
     0
100
AcDbLine
 10
188.2037249999999
 20
16.545998
 30
0.0
 11
185.0217449999999
 21
13.36401799999999
 31
0.0
  0
LINE
  5
867
330
861
100
AcDbEntity
  8
0
  6
ByBlock
 62
     0
100
AcDbLine
 10
185.0217449999999
 20
13.36401799999999
 30
0.0
 11
180.5217449999999
 21
13.36401799999999
 31
0.0
  0
SOLID
  5
868
330
861
100
AcDbEntity
  8
0
  6
ByBlock
 62
     0
100
AcDbTrace
 10
201.815531
 20
31.218464
 30
0.0
 11
202.876191
 21
30.157804
 31
0.0
 12
199.16388
 22
27.506153
 32
0.0
 13
199.16388
 23
27.506153
 33
0.0
  0
SOLID
  5
869
330
861
100
AcDbEntity
  8
0
  6
ByBlock
 62
     0
100
AcDbTrace
 10
187.673395
 20
17.076328
 30
0.0
 11
188.734055
 21
16.01566799999999
 31
0.0
 12
191.3857059999999
 22
19.727979
 32
0.0
 13
191.3857059999999
 23
19.727979
 33
0.0
  0
MTEXT
  5
86A
330
861
100
AcDbEntity
  8
0
  6
ByBlock
 62
     0
100
AcDbMText
 10
176.0217449999999
 20
13.36401799999999
 30
0.0
 40
4.5
 41
0.0
 71
     5
 72
     1
  1
\A1;11
 73
     1
 44
1.0
  0
POINT
  5
86B
330
861
100
AcDbEntity
  8
DEFPOINTS
  6
ByBlock
 62
     0
100
AcDbPoint
 10
205.810384
 20
20.85964999999999
 30
0.0
  0
POINT
  5
86C
330
861
100
AcDbEntity
  8
DEFPOINTS
  6
ByBlock
 62
     0
100
AcDbPoint
 10
198.0322089999999
 20
13.081475
 30
0.0
  0
POINT
  5
86D
330
861
100
AcDbEntity
  8
DEFPOINTS
  6
ByBlock
 62
     0
100
AcDbPoint
 10
191.3857059999999
 20
19.727979
 30
0.0
  0
ENDBLK
  5
86E
330
861
100
AcDbEntity
  8
0
100
AcDbBlockEnd
  0
BLOCK
  5
8B5
330
87D
100
AcDbEntity
  8
0
100
AcDbBlockBegin
  2
*D6
 70
     1
 10
0.0
 20
0.0
 30
0.0
  3
*D6
  1

  0
LINE
  5
8B6
330
87D
100
AcDbEntity
  8
0
  6
ByBlock
 62
     0
100
AcDbLine
 10
238.442149
 20
19.550289
 30
0.0
 11
251.3338539999999
 21
32.441995
 31
0.0
  0
LINE
  5
8B7
330
87D
100
AcDbEntity
  8
0
  6
ByBlock
 62
     0
100
AcDbLine
 10
218.8918589999999
 20
35.140364
 30
0.0
 11
218.8918589999999
 21
45.87990999999999
 31
0.0
  0
ARC
  5
8B8
330
87D
100
AcDbEntity
  8
0
  6
ByBlock
 62
     0
100
AcDbCircle
 10
218.8918589999999
 20
0.0
 30
0.0
 40
41.37990999999999
100
AcDbArc
 50
51.2339
 51
54.25731800000001
  0
ARC
  5
8B9
330
87D
100
AcDbEntity
  8
0
  6
ByBlock
 62
     0
100
AcDbCircle
 10
218.8918589999999
 20
0.0
 30
0.0
 40
41.37990999999999
100
AcDbArc
 50
77.19396299999999
 51
83.76609999999999
  0
SOLID
  5
8BA
330
87D
100
AcDbEntity
  8
0
  6
ByBlock
 62
     0
100
AcDbTrace
 10
245.3022919999999
 20
32.822652
 30
0.0
 11
244.300874
 21
31.705889
 31
0.0
 12
248.151874
 22
29.260015
 32
0.0
 13
248.151874
 23
29.260015
 33
0.0
  0
SOLID
  5
8BB
330
87D
100
AcDbEntity
  8
0
  6
ByBlock
 62
     0
100
AcDbTrace
 10
223.344421
 20
40.38633499999999
 30
0.0
 11
223.425983
 21
41.884116
 31
0.0
 12
218.8918589999999
 22
41.37990999999999
 32
0.0
 13
218.8918589999999
 23
41.37990999999999
 33
0.0
  0
MTEXT
  5
8BC
330
87D
100
AcDbEntity
  8
0
  6
ByBlock
 62
     0
100
AcDbMText
 10
235.563768
 20
37.872739
 30
0.0
 40
4.5
 41
0.0
 71
     5
 72
     1
  1
\A1;45°
 73
     1
 44
1.0
  0
POINT
  5
8BD
330
87D
100
AcDbEntity
  8
DEFPOINTS
  6
ByBlock
 62
     0
100
AcDbPoint
 10
229.601768
 20
39.96992399999999
 30
0.0
  0
POINT
  5
8BE
330
87D
100
AcDbEntity
  8
DEFPOINTS
  6
ByBlock
 62
     0
100
AcDbPoint
 10
218.8918589999999
 20
-23.5
 30
0.0
  0
POINT
  5
8BF
330
87D
100
AcDbEntity
  8
DEFPOINTS
  6
ByBlock
 62
     0
100
AcDbPoint
 10
237.3372939999999
 20
18.445435
 30
0.0
  0
POINT
  5
8C0
330
87D
100
AcDbEntity
  8
DEFPOINTS
  6
ByBlock
 62
     0
100
AcDbPoint
 10
203.136441
 20
-15.75541799999999
 30
0.0
  0
POINT
  5
8C1
330
87D
100
AcDbEntity
  8
DEFPOINTS
  6
ByBlock
 62
     0
100
AcDbPoint
 10
218.8918589999999
 20
33.577864
 30
0.0
  0
ENDBLK
  5
8C2
330
87D
100
AcDbEntity
  8
0
100
AcDbBlockEnd
  0
BLOCK
  5
959
330
8FB
100
AcDbEntity
  8
0
100
AcDbBlockBegin
  2
*X7
 70
     1
 10
0.0
 20
0.0
 30
0.0
  3
*X7
  1

  0
LINE
  5
8FC
330
8FB
100
AcDbEntity
  8
0
 62
     0
100
AcDbLine
 10
0.196425
 20
-0.367493
 30
0.0
 11
0.211156
 21
-0.352761
 31
0.0
  0
LINE
  5
8FD
330
8FB
100
AcDbEntity
  8
0
 62
     0
100
AcDbLine
 10
0.211658
 20
-0.352259
 30
0.0
 11
0.218522
 21
-0.345396
 31
0.0
  0
LINE
  5
8FE
330
8FB
100
AcDbEntity
  8
0
 62
     0
100
AcDbLine
 10
0.195541
 20
-0.367493
 30
0.0
 11
0.210272
 21
-0.352761
 31
0.0
  0
LINE
  5
8FF
330
8FB
100
AcDbEntity
  8
0
 62
     0
100
AcDbLine
 10
0.211658
 20
-0.351375
 30
0.0
 11
0.217638
 21
-0.345396
 31
0.0
  0
LINE
  5
900
330
8FB
100
AcDbEntity
  8
0
 62
     0
100
AcDbLine
 10
0.194657
 20
-0.367493
 30
0.0
 11
0.209388
 21
-0.352761
 31
0.0
  0
LINE
  5
901
330
8FB
100
AcDbEntity
  8
0
 62
     0
100
AcDbLine
 10
0.211658
 20
-0.350492
 30
0.0
 11
0.216754
 21
-0.345396
 31
0.0
  0
LINE
  5
902
330
8FB
100
AcDbEntity
  8
0
 62
     0
100
AcDbLine
 10
0.193773
 20
-0.367493
 30
0.0
 11
0.208505
 21
-0.352761
 31
0.0
  0
LINE
  5
903
330
8FB
100
AcDbEntity
  8
0
 62
     0
100
AcDbLine
 10
0.211658
 20
-0.349608
 30
0.0
 11
0.21587
 21
-0.345396
 31
0.0
  0
LINE
  5
904
330
8FB
100
AcDbEntity
  8
0
 62
     0
100
AcDbLine
 10
0.192889
 20
-0.367493
 30
0.0
 11
0.207621
 21
-0.352761
 31
0.0
  0
LINE
  5
905
330
8FB
100
AcDbEntity
  8
0
 62
     0
100
AcDbLine
 10
0.211658
 20
-0.348724
 30
0.0
 11
0.214986
 21
-0.345396
 31
0.0
  0
LINE
  5
906
330
8FB
100
AcDbEntity
  8
0
 62
     0
100
AcDbLine
 10
0.192005
 20
-0.367493
 30
0.0
 11
0.206737
 21
-0.352761
 31
0.0
  0
LINE
  5
907
330
8FB
100
AcDbEntity
  8
0
 62
     0
100
AcDbLine
 10
0.211658
 20
-0.34784
 30
0.0
 11
0.214103
 21
-0.345396
 31
0.0
  0
LINE
  5
908
330
8FB
100
AcDbEntity
  8
0
 62
     0
100
AcDbLine
 10
0.191771
 20
-0.366843
 30
0.0
 11
0.198487
 21
-0.3601269999999999
 31
0.0
  0
LINE
  5
909
330
8FB
100
AcDbEntity
  8
0
 62
     0
100
AcDbLine
 10
0.211658
 20
-0.346956
 30
0.0
 11
0.213219
 21
-0.345396
 31
0.0
  0
LINE
  5
90A
330
8FB
100
AcDbEntity
  8
0
 62
     0
100
AcDbLine
 10
0.199137
 20
-0.359478
 30
0.0
 11
0.205853
 21
-0.352761
 31
0.0
  0
LINE
  5
90B
330
8FB
100
AcDbEntity
  8
0
 62
     0
100
AcDbLine
 10
0.191771
 20
-0.36596
 30
0.0
 11
0.197603
 21
-0.3601269999999999
 31
0.0
  0
LINE
  5
90C
330
8FB
100
AcDbEntity
  8
0
 62
     0
100
AcDbLine
 10
0.211658
 20
-0.346072
 30
0.0
 11
0.212335
 21
-0.345396
 31
0.0
  0
LINE
  5
90D
330
8FB
100
AcDbEntity
  8
0
 62
     0
100
AcDbLine
 10
0.199137
 20
-0.358594
 30
0.0
 11
0.205029
 21
-0.3527010000000001
 31
0.0
  0
LINE
  5
90E
330
8FB
100
AcDbEntity
  8
0
 62
     0
100
AcDbLine
 10
0.191771
 20
-0.365076
 30
0.0
 11
0.196719
 21
-0.3601269999999999
 31
0.0
  0
LINE
  5
90F
330
8FB
100
AcDbEntity
  8
0
 62
     0
100
AcDbLine
 10
0.199137
 20
-0.35771
 30
0.0
 11
0.205029
 21
-0.351817
 31
0.0
  0
LINE
  5
910
330
8FB
100
AcDbEntity
  8
0
 62
     0
100
AcDbLine
 10
0.191771
 20
-0.364192
 30
0.0
 11
0.195836
 21
-0.3601269999999999
 31
0.0
  0
LINE
  5
911
330
8FB
100
AcDbEntity
  8
0
 62
     0
100
AcDbLine
 10
0.199137
 20
-0.356826
 30
0.0
 11
0.205029
 21
-0.350934
 31
0.0
  0
LINE
  5
912
330
8FB
100
AcDbEntity
  8
0
 62
     0
100
AcDbLine
 10
0.191771
 20
-0.363308
 30
0.0
 11
0.194952
 21
-0.3601269999999999
 31
0.0
  0
LINE
  5
913
330
8FB
100
AcDbEntity
  8
0
 62
     0
100
AcDbLine
 10
0.199137
 20
-0.355942
 30
0.0
 11
0.205029
 21
-0.35005
 31
0.0
  0
LINE
  5
914
330
8FB
100
AcDbEntity
  8
0
 62
     0
100
AcDbLine
 10
0.191771
 20
-0.3624239999999999
 30
0.0
 11
0.194068
 21
-0.3601269999999999
 31
0.0
  0
LINE
  5
915
330
8FB
100
AcDbEntity
  8
0
 62
     0
100
AcDbLine
 10
0.199137
 20
-0.355058
 30
0.0
 11
0.205029
 21
-0.3491659999999999
 31
0.0
  0
LINE
  5
916
330
8FB
100
AcDbEntity
  8
0
 62
     0
100
AcDbLine
 10
0.191771
 20
-0.36154
 30
0.0
 11
0.193184
 21
-0.3601269999999999
 31
0.0
  0
LINE
  5
917
330
8FB
100
AcDbEntity
  8
0
 62
     0
100
AcDbLine
 10
0.199137
 20
-0.354174
 30
0.0
 11
0.205029
 21
-0.348282
 31
0.0
  0
LINE
  5
918
330
8FB
100
AcDbEntity
  8
0
 62
     0
100
AcDbLine
 10
0.191771
 20
-0.360656
 30
0.0
 11
0.1923
 21
-0.3601269999999999
 31
0.0
  0
LINE
  5
919
330
8FB
100
AcDbEntity
  8
0
 62
     0
100
AcDbLine
 10
0.199137
 20
-0.353291
 30
0.0
 11
0.205029
 21
-0.347398
 31
0.0
  0
LINE
  5
91A
330
8FB
100
AcDbEntity
  8
0
 62
     0
100
AcDbLine
 10
0.198782
 20
-0.352761
 30
0.0
 11
0.205029
 21
-0.346514
 31
0.0
  0
LINE
  5
91B
330
8FB
100
AcDbEntity
  8
0
 62
     0
100
AcDbLine
 10
0.197898
 20
-0.352761
 30
0.0
 11
0.205029
 21
-0.34563
 31
0.0
  0
LINE
  5
91C
330
8FB
100
AcDbEntity
  8
0
 62
     0
100
AcDbLine
 10
0.197014
 20
-0.352761
 30
0.0
 11
0.20438
 21
-0.345396
 31
0.0
  0
LINE
  5
91D
330
8FB
100
AcDbEntity
  8
0
 62
     0
100
AcDbLine
 10
0.19613
 20
-0.352761
 30
0.0
 11
0.203496
 21
-0.345396
 31
0.0
  0
LINE
  5
91E
330
8FB
100
AcDbEntity
  8
0
 62
     0
100
AcDbLine
 10
0.195246
 20
-0.352761
 30
0.0
 11
0.202612
 21
-0.345396
 31
0.0
  0
LINE
  5
91F
330
8FB
100
AcDbEntity
  8
0
 62
     0
100
AcDbLine
 10
0.194362
 20
-0.352761
 30
0.0
 11
0.201728
 21
-0.345396
 31
0.0
  0
LINE
  5
920
330
8FB
100
AcDbEntity
  8
0
 62
     0
100
AcDbLine
 10
0.193479
 20
-0.352761
 30
0.0
 11
0.200844
 21
-0.345396
 31
0.0
  0
LINE
  5
921
330
8FB
100
AcDbEntity
  8
0
 62
     0
100
AcDbLine
 10
0.192595
 20
-0.352761
 30
0.0
 11
0.19996
 21
-0.345396
 31
0.0
  0
LINE
  5
922
330
8FB
100
AcDbEntity
  8
0
 62
     0
100
AcDbLine
 10
0.191771
 20
-0.3527010000000001
 30
0.0
 11
0.199077
 21
-0.345396
 31
0.0
  0
LINE
  5
923
330
8FB
100
AcDbEntity
  8
0
 62
     0
100
AcDbLine
 10
0.191771
 20
-0.351817
 30
0.0
 11
0.198193
 21
-0.345396
 31
0.0
  0
LINE
  5
924
330
8FB
100
AcDbEntity
  8
0
 62
     0
100
AcDbLine
 10
0.191771
 20
-0.350934
 30
0.0
 11
0.197309
 21
-0.345396
 31
0.0
  0
LINE
  5
925
330
8FB
100
AcDbEntity
  8
0
 62
     0
100
AcDbLine
 10
0.191771
 20
-0.35005
 30
0.0
 11
0.196425
 21
-0.345396
 31
0.0
  0
LINE
  5
926
330
8FB
100
AcDbEntity
  8
0
 62
     0
100
AcDbLine
 10
0.191771
 20
-0.3491659999999999
 30
0.0
 11
0.195541
 21
-0.345396
 31
0.0
  0
LINE
  5
927
330
8FB
100
AcDbEntity
  8
0
 62
     0
100
AcDbLine
 10
0.191771
 20
-0.348282
 30
0.0
 11
0.194657
 21
-0.345396
 31
0.0
  0
LINE
  5
928
330
8FB
100
AcDbEntity
  8
0
 62
     0
100
AcDbLine
 10
0.191771
 20
-0.347398
 30
0.0
 11
0.193773
 21
-0.345396
 31
0.0
  0
LINE
  5
929
330
8FB
100
AcDbEntity
  8
0
 62
     0
100
AcDbLine
 10
0.191771
 20
-0.346514
 30
0.0
 11
0.192889
 21
-0.345396
 31
0.0
  0
LINE
  5
92A
330
8FB
100
AcDbEntity
  8
0
 62
     0
100
AcDbLine
 10
0.191771
 20
-0.34563
 30
0.0
 11
0.192005
 21
-0.345396
 31
0.0
  0
LINE
  5
92B
330
8FB
100
AcDbEntity
  8
0
 62
     0
100
AcDbLine
 10
0.197309
 20
-0.367493
 30
0.0
 11
0.219406
 21
-0.345396
 31
0.0
  0
LINE
  5
92C
330
8FB
100
AcDbEntity
  8
0
 62
     0
100
AcDbLine
 10
0.198193
 20
-0.367493
 30
0.0
 11
0.205029
 21
-0.360656
 31
0.0
  0
LINE
  5
92D
330
8FB
100
AcDbEntity
  8
0
 62
     0
100
AcDbLine
 10
0.205558
 20
-0.3601269999999999
 30
0.0
 11
0.22029
 21
-0.345396
 31
0.0
  0
LINE
  5
92E
330
8FB
100
AcDbEntity
  8
0
 62
     0
100
AcDbLine
 10
0.199076
 20
-0.367493
 30
0.0
 11
0.205029
 21
-0.36154
 31
0.0
  0
LINE
  5
92F
330
8FB
100
AcDbEntity
  8
0
 62
     0
100
AcDbLine
 10
0.206442
 20
-0.3601269999999999
 30
0.0
 11
0.221174
 21
-0.345396
 31
0.0
  0
LINE
  5
930
330
8FB
100
AcDbEntity
  8
0
 62
     0
100
AcDbLine
 10
0.19996
 20
-0.367493
 30
0.0
 11
0.205029
 21
-0.3624239999999999
 31
0.0
  0
LINE
  5
931
330
8FB
100
AcDbEntity
  8
0
 62
     0
100
AcDbLine
 10
0.207326
 20
-0.3601269999999999
 30
0.0
 11
0.222058
 21
-0.345396
 31
0.0
  0
LINE
  5
932
330
8FB
100
AcDbEntity
  8
0
 62
     0
100
AcDbLine
 10
0.200844
 20
-0.367493
 30
0.0
 11
0.205029
 21
-0.363308
 31
0.0
  0
LINE
  5
933
330
8FB
100
AcDbEntity
  8
0
 62
     0
100
AcDbLine
 10
0.20821
 20
-0.3601269999999999
 30
0.0
 11
0.222941
 21
-0.345396
 31
0.0
  0
LINE
  5
934
330
8FB
100
AcDbEntity
  8
0
 62
     0
100
AcDbLine
 10
0.201728
 20
-0.367493
 30
0.0
 11
0.205029
 21
-0.364192
 31
0.0
  0
LINE
  5
935
330
8FB
100
AcDbEntity
  8
0
 62
     0
100
AcDbLine
 10
0.209094
 20
-0.3601269999999999
 30
0.0
 11
0.223825
 21
-0.345396
 31
0.0
  0
LINE
  5
936
330
8FB
100
AcDbEntity
  8
0
 62
     0
100
AcDbLine
 10
0.202612
 20
-0.367493
 30
0.0
 11
0.205029
 21
-0.365076
 31
0.0
  0
LINE
  5
937
330
8FB
100
AcDbEntity
  8
0
 62
     0
100
AcDbLine
 10
0.209978
 20
-0.3601269999999999
 30
0.0
 11
0.224709
 21
-0.345396
 31
0.0
  0
LINE
  5
938
330
8FB
100
AcDbEntity
  8
0
 62
     0
100
AcDbLine
 10
0.203496
 20
-0.367493
 30
0.0
 11
0.205029
 21
-0.36596
 31
0.0
  0
LINE
  5
939
330
8FB
100
AcDbEntity
  8
0
 62
     0
100
AcDbLine
 10
0.210862
 20
-0.3601269999999999
 30
0.0
 11
0.224917
 21
-0.346072
 31
0.0
  0
LINE
  5
93A
330
8FB
100
AcDbEntity
  8
0
 62
     0
100
AcDbLine
 10
0.20438
 20
-0.367493
 30
0.0
 11
0.205029
 21
-0.366843
 31
0.0
  0
LINE
  5
93B
330
8FB
100
AcDbEntity
  8
0
 62
     0
100
AcDbLine
 10
0.211658
 20
-0.360214
 30
0.0
 11
0.224917
 21
-0.346956
 31
0.0
  0
LINE
  5
93C
330
8FB
100
AcDbEntity
  8
0
 62
     0
100
AcDbLine
 10
0.211658
 20
-0.361098
 30
0.0
 11
0.219392
 21
-0.353364
 31
0.0
  0
LINE
  5
93D
330
8FB
100
AcDbEntity
  8
0
 62
     0
100
AcDbLine
 10
0.219995
 20
-0.352761
 30
0.0
 11
0.224917
 21
-0.34784
 31
0.0
  0
LINE
  5
93E
330
8FB
100
AcDbEntity
  8
0
 62
     0
100
AcDbLine
 10
0.211658
 20
-0.361982
 30
0.0
 11
0.219392
 21
-0.354248
 31
0.0
  0
LINE
  5
93F
330
8FB
100
AcDbEntity
  8
0
 62
     0
100
AcDbLine
 10
0.220879
 20
-0.352761
 30
0.0
 11
0.224917
 21
-0.348724
 31
0.0
  0
LINE
  5
940
330
8FB
100
AcDbEntity
  8
0
 62
     0
100
AcDbLine
 10
0.211658
 20
-0.3628659999999999
 30
0.0
 11
0.219392
 21
-0.355132
 31
0.0
  0
LINE
  5
941
330
8FB
100
AcDbEntity
  8
0
 62
     0
100
AcDbLine
 10
0.221763
 20
-0.352761
 30
0.0
 11
0.224917
 21
-0.349608
 31
0.0
  0
LINE
  5
942
330
8FB
100
AcDbEntity
  8
0
 62
     0
100
AcDbLine
 10
0.211658
 20
-0.36375
 30
0.0
 11
0.219392
 21
-0.356016
 31
0.0
  0
LINE
  5
943
330
8FB
100
AcDbEntity
  8
0
 62
     0
100
AcDbLine
 10
0.222647
 20
-0.352761
 30
0.0
 11
0.224917
 21
-0.350491
 31
0.0
  0
LINE
  5
944
330
8FB
100
AcDbEntity
  8
0
 62
     0
100
AcDbLine
 10
0.211658
 20
-0.364634
 30
0.0
 11
0.219392
 21
-0.3569
 31
0.0
  0
LINE
  5
945
330
8FB
100
AcDbEntity
  8
0
 62
     0
100
AcDbLine
 10
0.223531
 20
-0.352761
 30
0.0
 11
0.224917
 21
-0.351375
 31
0.0
  0
LINE
  5
946
330
8FB
100
AcDbEntity
  8
0
 62
     0
100
AcDbLine
 10
0.211658
 20
-0.365518
 30
0.0
 11
0.219392
 21
-0.357784
 31
0.0
  0
LINE
  5
947
330
8FB
100
AcDbEntity
  8
0
 62
     0
100
AcDbLine
 10
0.224415
 20
-0.352761
 30
0.0
 11
0.224917
 21
-0.352259
 31
0.0
  0
LINE
  5
948
330
8FB
100
AcDbEntity
  8
0
 62
     0
100
AcDbLine
 10
0.211658
 20
-0.366401
 30
0.0
 11
0.219392
 21
-0.358667
 31
0.0
  0
LINE
  5
949
330
8FB
100
AcDbEntity
  8
0
 62
     0
100
AcDbLine
 10
0.211658
 20
-0.3672849999999999
 30
0.0
 11
0.219392
 21
-0.359551
 31
0.0
  0
LINE
  5
94A
330
8FB
100
AcDbEntity
  8
0
 62
     0
100
AcDbLine
 10
0.212335
 20
-0.367493
 30
0.0
 11
0.2197
 21
-0.3601269999999999
 31
0.0
  0
LINE
  5
94B
330
8FB
100
AcDbEntity
  8
0
 62
     0
100
AcDbLine
 10
0.213219
 20
-0.367493
 30
0.0
 11
0.220584
 21
-0.3601269999999999
 31
0.0
  0
LINE
  5
94C
330
8FB
100
AcDbEntity
  8
0
 62
     0
100
AcDbLine
 10
0.214102
 20
-0.367493
 30
0.0
 11
0.2214679999999999
 21
-0.3601269999999999
 31
0.0
  0
LINE
  5
94D
330
8FB
100
AcDbEntity
  8
0
 62
     0
100
AcDbLine
 10
0.214986
 20
-0.367493
 30
0.0
 11
0.222352
 21
-0.3601269999999999
 31
0.0
  0
LINE
  5
94E
330
8FB
100
AcDbEntity
  8
0
 62
     0
100
AcDbLine
 10
0.21587
 20
-0.367493
 30
0.0
 11
0.223236
 21
-0.3601269999999999
 31
0.0
  0
LINE
  5
94F
330
8FB
100
AcDbEntity
  8
0
 62
     0
100
AcDbLine
 10
0.216754
 20
-0.367493
 30
0.0
 11
0.22412
 21
-0.3601269999999999
 31
0.0
  0
LINE
  5
950
330
8FB
100
AcDbEntity
  8
0
 62
     0
100
AcDbLine
 10
0.217638
 20
-0.367493
 30
0.0
 11
0.224917
 21
-0.360214
 31
0.0
  0
LINE
  5
951
330
8FB
100
AcDbEntity
  8
0
 62
     0
100
AcDbLine
 10
0.218522
 20
-0.367493
 30
0.0
 11
0.224917
 21
-0.361098
 31
0.0
  0
LINE
  5
952
330
8FB
100
AcDbEntity
  8
0
 62
     0
100
AcDbLine
 10
0.219406
 20
-0.367493
 30
0.0
 11
0.224917
 21
-0.361982
 31
0.0
  0
LINE
  5
953
330
8FB
100
AcDbEntity
  8
0
 62
     0
100
AcDbLine
 10
0.22029
 20
-0.367493
 30
0.0
 11
0.224917
 21
-0.3628659999999999
 31
0.0
  0
LINE
  5
954
330
8FB
100
AcDbEntity
  8
0
 62
     0
100
AcDbLine
 10
0.221174
 20
-0.367493
 30
0.0
 11
0.224917
 21
-0.36375
 31
0.0
  0
LINE
  5
955
330
8FB
100
AcDbEntity
  8
0
 62
     0
100
AcDbLine
 10
0.222057
 20
-0.367493
 30
0.0
 11
0.224917
 21
-0.364634
 31
0.0
  0
LINE
  5
956
330
8FB
100
AcDbEntity
  8
0
 62
     0
100
AcDbLine
 10
0.222941
 20
-0.367493
 30
0.0
 11
0.224917
 21
-0.365518
 31
0.0
  0
LINE
  5
957
330
8FB
100
AcDbEntity
  8
0
 62
     0
100
AcDbLine
 10
0.223825
 20
-0.367493
 30
0.0
 11
0.224917
 21
-0.366401
 31
0.0
  0
LINE
  5
958
330
8FB
100
AcDbEntity
  8
0
 62
     0
100
AcDbLine
 10
0.224709
 20
-0.367493
 30
0.0
 11
0.224917
 21
-0.3672849999999999
 31
0.0
  0
ENDBLK
  5
95A
330
8FB
100
AcDbEntity
  8
0
100
AcDbBlockEnd
  0
BLOCK
  5
994
330
95D
100
AcDbEntity
  8
0
100
AcDbBlockBegin
  2
A$C46AA5FFB
 70
     0
 10
0.0
 20
0.0
 30
0.0
  3
A$C46AA5FFB
  1

  0
LINE
  5
95E
330
95D
100
AcDbEntity
  8
0
 62
     7
100
AcDbLine
 10
96.313571
 20
25.486259
 30
0.0
 11
106.2143489999999
 21
25.486259
 31
0.0
  0
LINE
  5
95F
330
95D
100
AcDbEntity
  8
0
 62
     7
100
AcDbLine
 10
106.2143489999999
 20
8.984964999999998
 30
0.0
 11
96.313571
 21
8.984964999999998
 31
0.0
  0
INSERT
  5
960
330
95D
100
AcDbEntity
  8
0
 62
     7
100
AcDbBlockReference
  2
*X7
 10
-61.744406
 20
283.413939
 30
0.0
 41
746.76
 42
746.76
 43
746.76
1001
ACAD
1000
HATCH
1002
{
1070
    16
1000
ANSI31
1040
0.005
1040
0.0
1002
}
  0
LINE
  5
961
330
95D
100
AcDbEntity
  8
0
 62
     7
100
AcDbLine
 10
102.089025
 20
3.484529
 30
0.0
 11
80.60943399999999
 21
3.484529
 31
0.0
  0
TEXT
  5
962
330
95D
100
AcDbEntity
  8
0
 62
     7
100
AcDbText
 10
80.91077400000001
 20
3.919388999999999
 30
0.0
 40
3.850301999999999
  1
SYSTEMS
 41
0.9407209999999999
100
AcDbText
  0
TEXT
  5
963
330
95D
100
AcDbEntity
  8
TITLEBOX
 62
     7
100
AcDbText
 10
2.156956999999999
 20
15.167109
 30
0.0
 40
1.967584999999999
  1
shall not be traced, otherwise copied
100
AcDbText
  0
TEXT
  5
964
330
95D
100
AcDbEntity
  8
TITLEBOX
 62
     7
100
AcDbText
 10
2.156956999999999
 20
8.608492999999999
 30
0.0
 40
1.967584999999999
  1
agreed upon, nor communicated to any
100
AcDbText
  0
TEXT
  5
965
330
95D
100
AcDbEntity
  8
TITLEBOX
 62
     7
100
AcDbText
 10
2.156956999999999
 20
21.72572399999999
 30
0.0
 40
1.967584999999999
  1
This drawing (document) is the 
100
AcDbText
  0
TEXT
  5
966
330
95D
100
AcDbEntity
  8
TITLEBOX
 62
     7
100
AcDbText
 10
2.420193999999999
 20
25.978662
 30
0.0
 40
3.011608999999999
  1
PROPRIETARY DRAWING
100
AcDbText
  0
TEXT
  5
967
330
95D
100
AcDbEntity
  8
TITLEBOX
 62
     7
100
AcDbText
 10
2.156956999999999
 20
11.88780099999999
 30
0.0
 40
1.967584999999999
  1
or used for purposes other than
100
AcDbText
  0
TEXT
  5
968
330
95D
100
AcDbEntity
  8
TITLEBOX
 62
     7
100
AcDbText
 10
2.156956999999999
 20
18.446416
 30
0.0
 40
1.967584999999999
  1
property of HD Systems, Inc. and 
100
AcDbText
  0
TEXT
  5
969
330
95D
100
AcDbEntity
  8
TITLEBOX
 62
     7
100
AcDbText
 10
2.156956999999999
 20
2.049876999999999
 30
0.0
 40
1.967584999999999
  1
from HD Systems, Inc.
100
AcDbText
  0
TEXT
  5
96A
330
95D
100
AcDbEntity
  8
TITLEBOX
 62
     7
100
AcDbText
 10
2.156956999999999
 20
5.329184999999999
 30
0.0
 40
1.967584999999999
  1
third party without written permission
100
AcDbText
  0
LINE
  5
96B
330
95D
100
AcDbEntity
  8
TITLEBOX
 62
     7
100
AcDbLine
 10
0.0
 20
30.80963
 30
0.0
 11
75.056243
 21
30.80963
 31
0.0
  0
LINE
  5
96C
330
95D
100
AcDbEntity
  8
TITLEBOX
 62
     7
100
AcDbLine
 10
75.056243
 20
0.0
 30
0.0
 11
0.0
 21
0.0
 31
0.0
  0
LINE
  5
96D
330
95D
100
AcDbEntity
  8
TITLEBOX
 62
     7
100
AcDbLine
 10
0.0
 20
0.0
 30
0.0
 11
0.0
 21
30.80963
 31
0.0
  0
LINE
  5
96E
330
95D
100
AcDbEntity
  8
TITLEBOX
 62
     7
100
AcDbLine
 10
75.056243
 20
30.80963
 30
0.0
 11
75.056243
 21
0.0
 31
0.0
  0
LINE
  5
96F
330
95D
100
AcDbEntity
  8
0
 62
     7
100
AcDbLine
 10
80.60943399999999
 20
3.484529
 30
0.0
 11
80.60943399999999
 21
3.484529
 31
0.0
  0
LINE
  5
970
330
95D
100
AcDbEntity
  8
0
 62
     7
100
AcDbLine
 10
86.962837
 20
14.485396
 30
0.0
 11
86.962837
 21
19.985828
 31
0.0
  0
LINE
  5
971
330
95D
100
AcDbEntity
  8
0
 62
     7
100
AcDbLine
 10
91.36317899999999
 20
8.984964999999998
 30
0.0
 11
81.462406
 21
8.984964999999998
 31
0.0
  0
LINE
  5
972
330
95D
100
AcDbEntity
  8
0
 62
     7
100
AcDbLine
 10
81.462406
 20
8.984964999999998
 30
0.0
 11
81.462406
 21
14.485396
 31
0.0
  0
LINE
  5
973
330
95D
100
AcDbEntity
  8
0
 62
     7
100
AcDbLine
 10
81.462406
 20
14.485396
 30
0.0
 11
86.962837
 21
14.485396
 31
0.0
  0
LINE
  5
974
330
95D
100
AcDbEntity
  8
0
 62
     7
100
AcDbLine
 10
96.313571
 20
8.984964999999998
 30
0.0
 11
96.313571
 21
14.485396
 31
0.0
  0
LINE
  5
975
330
95D
100
AcDbEntity
  8
0
 62
     7
100
AcDbLine
 10
91.36317899999999
 20
14.485396
 30
0.0
 11
91.36317899999999
 21
8.984964999999998
 31
0.0
  0
LINE
  5
976
330
95D
100
AcDbEntity
  8
0
 62
     7
100
AcDbLine
 10
96.313571
 20
14.485396
 30
0.0
 11
91.36317899999999
 21
14.485396
 31
0.0
  0
LINE
  5
977
330
95D
100
AcDbEntity
  8
0
 62
     7
100
AcDbLine
 10
81.462406
 20
25.486259
 30
0.0
 11
91.36317899999999
 21
25.486259
 31
0.0
  0
LINE
  5
978
330
95D
100
AcDbEntity
  8
0
 62
     7
100
AcDbLine
 10
81.462406
 20
19.985828
 30
0.0
 11
81.462406
 21
25.486259
 31
0.0
  0
LINE
  5
979
330
95D
100
AcDbEntity
  8
0
 62
     7
100
AcDbLine
 10
86.962837
 20
19.985828
 30
0.0
 11
81.462406
 21
19.985828
 31
0.0
  0
LINE
  5
97A
330
95D
100
AcDbEntity
  8
0
 62
     7
100
AcDbLine
 10
91.36317899999999
 20
19.985828
 30
0.0
 11
96.313571
 21
19.985828
 31
0.0
  0
LINE
  5
97B
330
95D
100
AcDbEntity
  8
0
 62
     7
100
AcDbLine
 10
91.36317899999999
 20
25.486259
 30
0.0
 11
91.36317899999999
 21
19.985828
 31
0.0
  0
LINE
  5
97C
330
95D
100
AcDbEntity
  8
0
 62
     7
100
AcDbLine
 10
96.313571
 20
19.985828
 30
0.0
 11
96.313571
 21
25.486259
 31
0.0
  0
TEXT
  5
97D
330
95D
100
AcDbEntity
  8
0
 62
     7
100
AcDbText
 10
133.787134
 20
10.20656999999999
 30
0.0
 40
3.081766999999999
  1
HAUPPAUGE NY 11788 USA
  7
ROMAND
100
AcDbText
  0
TEXT
  5
97E
330
95D
100
AcDbEntity
  8
0
 62
     7
100
AcDbText
 10
133.787134
 20
6.198369999999999
 30
0.0
 40
3.081766999999999
  1
ph 631-231-6630  fax 631-231-6803
  7
ROMAND
100
AcDbText
  0
TEXT
  5
97F
330
95D
100
AcDbEntity
  8
0
 62
     7
100
AcDbText
 10
133.787134
 20
14.21477
 30
0.0
 40
3.081766999999999
  1
89 CABOT CT.
  7
ROMAND
100
AcDbText
  0
TEXT
  5
980
330
95D
100
AcDbEntity
  8
0
 62
     7
100
AcDbText
 10
133.787134
 20
18.21807
 30
0.0
 40
3.081766999999999
  1
HD SYSTEMS INC.
  7
ROMAND
100
AcDbText
  0
TEXT
  5
981
330
95D
100
AcDbEntity
  8
0
 62
     7
100
AcDbText
 10
133.787134
 20
2.195069999999999
 30
0.0
 40
3.081766999999999
  1
www.HDSI.net
  7
ROMAND
100
AcDbText
  0
ARC
  5
982
330
95D
100
AcDbEntity
  8
0
 62
     7
100
AcDbCircle
 10
119.415385
 20
6.784791
 30
0.0
 40
3.300258
100
AcDbArc
 50
270.0
 51
0.0
  0
LINE
  5
983
330
95D
100
AcDbEntity
  8
0
 62
     7
100
AcDbLine
 10
102.089025
 20
3.484529
 30
0.0
 11
119.415385
 21
3.484529
 31
0.0
  0
ARC
  5
984
330
95D
100
AcDbEntity
  8
0
 62
     7
100
AcDbCircle
 10
119.415385
 20
16.68557
 30
0.0
 40
3.300258
100
AcDbArc
 50
0.0
 51
90.0
  0
LINE
  5
985
330
95D
100
AcDbEntity
  8
0
 62
     7
100
AcDbLine
 10
102.089025
 20
19.985828
 30
0.0
 11
102.089025
 21
14.485396
 31
0.0
  0
LINE
  5
986
330
95D
100
AcDbEntity
  8
0
 62
     7
100
AcDbLine
 10
106.2143489999999
 20
14.485396
 30
0.0
 11
106.2143489999999
 21
8.984964999999998
 31
0.0
  0
LINE
  5
987
330
95D
100
AcDbEntity
  8
0
 62
     7
100
AcDbLine
 10
106.2143489999999
 20
14.485396
 30
0.0
 11
106.2143489999999
 21
8.984964999999998
 31
0.0
  0
LINE
  5
988
330
95D
100
AcDbEntity
  8
0
 62
     7
100
AcDbLine
 10
102.089025
 20
14.485396
 30
0.0
 11
106.2143489999999
 21
14.485396
 31
0.0
  0
LINE
  5
989
330
95D
100
AcDbEntity
  8
0
 62
     7
100
AcDbLine
 10
117.215212
 20
12.285223
 30
0.0
 11
117.215212
 21
11.185134
 31
0.0
  0
LINE
  5
98A
330
95D
100
AcDbEntity
  8
0
 62
     7
100
AcDbLine
 10
111.714781
 20
8.984964999999998
 30
0.0
 11
111.714781
 21
14.485396
 31
0.0
  0
ARC
  5
98B
330
95D
100
AcDbEntity
  8
0
 62
     7
100
AcDbCircle
 10
115.0150379999999
 20
11.185134
 30
0.0
 40
2.200174
100
AcDbArc
 50
270.0
 51
0.0
  0
LINE
  5
98C
330
95D
100
AcDbEntity
  8
0
 62
     7
100
AcDbLine
 10
115.0150379999999
 20
8.984964999999998
 30
0.0
 11
111.714781
 21
8.984964999999998
 31
0.0
  0
ARC
  5
98D
330
95D
100
AcDbEntity
  8
0
 62
     7
100
AcDbCircle
 10
115.0150379999999
 20
12.285223
 30
0.0
 40
2.200174
100
AcDbArc
 50
0.0
 51
90.0
  0
LINE
  5
98E
330
95D
100
AcDbEntity
  8
0
 62
     7
100
AcDbLine
 10
111.714781
 20
14.485396
 30
0.0
 11
115.0150379999999
 21
14.485396
 31
0.0
  0
LINE
  5
98F
330
95D
100
AcDbEntity
  8
0
 62
     7
100
AcDbLine
 10
119.415385
 20
19.985828
 30
0.0
 11
106.2143489999999
 21
19.985828
 31
0.0
  0
LINE
  5
990
330
95D
100
AcDbEntity
  8
0
 62
     7
100
AcDbLine
 10
106.2143489999999
 20
19.985828
 30
0.0
 11
102.089025
 21
19.985828
 31
0.0
  0
LINE
  5
991
330
95D
100
AcDbEntity
  8
0
 62
     7
100
AcDbLine
 10
106.2143489999999
 20
25.486259
 30
0.0
 11
106.2143489999999
 21
19.985828
 31
0.0
  0
LINE
  5
992
330
95D
100
AcDbEntity
  8
0
 62
     7
100
AcDbLine
 10
106.1943719999999
 20
25.486259
 30
0.0
 11
106.2143489999999
 21
25.45165499999999
 31
0.0
  0
LINE
  5
993
330
95D
100
AcDbEntity
  8
0
 62
     7
100
AcDbLine
 10
122.7156429999999
 20
6.784791
 30
0.0
 11
122.7156429999999
 21
16.68557
 31
0.0
  0
ENDBLK
  5
995
330
95D
100
AcDbEntity
  8
0
100
AcDbBlockEnd
  0
BLOCK
  5
9B1
330
9AE
100
AcDbEntity
  8
0
100
AcDbBlockBegin
  2
NTC
 70
     0
 10
0.0
 20
0.0
 30
0.0
  3
NTC
  1

  0
LWPOLYLINE
  5
9AF
330
9AE
100
AcDbEntity
  8
0
100
AcDbPolyline
 90
        8
 70
     1
 43
0.0
 10
4.581008201925953
 20
-10.78862239032818
 10
319.3921777697513
 20
-10.78862239032818
 42
-0.4142135623730951
 10
324.9046777697513
 20
-16.30112239032816
 10
324.9046777697513
 20
-117.4075202476924
 42
-0.4142135623730951
 10
319.3921777697513
 20
-122.9200202476925
 10
4.581008201925838
 20
-122.9200202476925
 42
-0.4142135623730951
 10
-0.9314917980741483
 20
-117.4075202476924
 10
-0.9314917980740915
 20
-16.30112239032816
 42
-0.4142135623730951
  0
MTEXT
  5
9B0
330
9AE
100
AcDbEntity
  8
0
  6
Continuous
370
    30
100
AcDbMText
 10
21.65307678143926
 20
-17.4535155144544
 30
0.0
 40
8.75
 41
294.5432999999998
 71
     1
 72
     5
  3
{\fTxt|b1|i0|c0|p2;Notice:\P\Ftxt.shx;\H0.5714x;All specifications and dimensions shown in the drawing are subject to change without notice. This drawing is the property of Harmonic Drive LLC.   This data is believed to be accurate, however, Harmonic
  1
 Drive LLC assumes no liability for any errors or omissions in the specifications, models, or drawings.\P\PHarmonic Drive LLC\PTel: 800-921-3332\Pwww.harmonicdrive.net}
 73
     1
 44
1.0
  0
ENDBLK
  5
9B2
330
9AE
100
AcDbEntity
  8
0
100
AcDbBlockEnd
  0
BLOCK
  5
9BD
330
9BA
100
AcDbEntity
  8
0
 62
     7
100
AcDbBlockBegin
  2
AI9-BLK14
 70
     0
 10
0.0
 20
0.0
 30
0.0
  3
AI9-BLK14
  1

  0
SPLINE
  5
9BB
330
9BA
100
AcDbEntity
  8
LAYER_1
 62
     7
100
AcDbSpline
210
0.0
220
0.0
230
1.0
 70
    11
 71
     3
 72
    23
 73
    19
 74
     0
 42
0.0000000001
 43
0.0000000001
 40
0.0
 40
0.0
 40
0.0
 40
0.0
 40
1.0
 40
1.0
 40
1.0
 40
2.0
 40
2.0
 40
2.0
 40
3.0
 40
3.0
 40
3.0
 40
4.0
 40
4.0
 40
4.0
 40
5.0
 40
5.0
 40
5.0
 40
6.0
 40
6.0
 40
6.0
 40
6.0
 10
-10.90321044921874
 20
10.88107571072048
 30
0.0
 10
-10.90321044921874
 20
10.88107571072048
 30
0.0
 10
-10.90321044921874
 20
-10.88107571072048
 30
0.0
 10
-10.90321044921874
 20
-10.88107571072048
 30
0.0
 10
-10.90321044921874
 20
-10.88107571072048
 30
0.0
 10
1.752692328559025
 20
-10.88107571072048
 30
0.0
 10
1.752692328559025
 20
-10.88107571072048
 30
0.0
 10
3.280592176649305
 20
-10.88107571072048
 30
0.0
 10
10.90321044921874
 20
-10.32383151584201
 30
0.0
 10
10.90321044921874
 20
0.6792867024739583
 30
0.0
 10
10.90321044921874
 20
10.61700914171006
 30
0.0
 10
2.773129611545138
 20
10.87952541775172
 30
0.0
 10
2.691136338975693
 20
10.88090345594618
 30
0.0
 10
2.691136338975693
 20
10.88090345594618
 30
0.0
 10
-9.903099229600693
 20
10.88107571072048
 30
0.0
 10
-9.903099229600693
 20
10.88107571072048
 30
0.0
 10
-9.903099229600693
 20
10.88107571072048
 30
0.0
 10
-10.90321044921874
 20
10.88107571072048
 30
0.0
 10
-10.90321044921874
 20
10.88107571072048
 30
0.0
  0
SPLINE
  5
9BC
330
9BA
100
AcDbEntity
  8
LAYER_1
 62
     7
100
AcDbSpline
210
0.0
220
0.0
230
1.0
 70
    11
 71
     3
 72
    20
 73
    16
 74
     0
 42
0.0000000001
 43
0.0000000001
 40
0.0
 40
0.0
 40
0.0
 40
0.0
 40
1.0
 40
1.0
 40
1.0
 40
2.0
 40
2.0
 40
2.0
 40
3.0
 40
3.0
 40
3.0
 40
4.0
 40
4.0
 40
4.0
 40
5.0
 40
5.0
 40
5.0
 40
5.0
 10
2.672877332899305
 20
8.881197781032986
 30
0.0
 10
2.905421278211805
 20
8.874307590060762
 30
0.0
 10
8.902988009982637
 20
8.616442192925347
 30
0.0
 10
8.902988009982637
 20
0.6792867024739583
 30
0.0
 10
8.902988009982637
 20
-8.191661919487842
 30
0.0
 10
3.430109320746526
 20
-8.881197781032986
 30
0.0
 10
1.752692328559025
 20
-8.881197781032986
 30
0.0
 10
1.752692328559025
 20
-8.881197781032986
 30
0.0
 10
-7.231427680121528
 20
-8.881197781032986
 30
0.0
 10
-8.902988009982637
 20
-8.881197781032986
 30
0.0
 10
-8.902988009982637
 20
-7.174497477213541
 30
0.0
 10
-8.902988009982637
 20
7.174497477213541
 30
0.0
 10
-8.902988009982637
 20
8.881197781032986
 30
0.0
 10
-7.208690049913191
 20
8.881197781032986
 30
0.0
 10
2.672877332899305
 20
8.881197781032986
 30
0.0
 10
2.672877332899305
 20
8.881197781032986
 30
0.0
  0
ENDBLK
  5
9BE
330
9BA
100
AcDbEntity
  8
0
100
AcDbBlockEnd
  0
BLOCK
  5
9C2
330
9BF
100
AcDbEntity
  8
0
 62
     7
100
AcDbBlockBegin
  2
AI9-BLK13
 70
     0
 10
0.0
 20
0.0
 30
0.0
  3
AI9-BLK13
  1

  0
LWPOLYLINE
  5
9C0
330
9BF
100
AcDbEntity
  8
LAYER_1
 62
     7
100
AcDbPolyline
 90
       12
 70
     1
 43
0.0
 10
-3.792361111111107
 20
10.7376736111111
 10
-2.469444444444443
 20
10.7376736111111
 10
-2.469444444444443
 20
1.874131944444444
 10
2.469444444444443
 20
1.874131944444444
 10
2.469444444444443
 20
10.7376736111111
 10
3.792361111111107
 20
10.7376736111111
 10
3.792361111111107
 20
-10.7376736111111
 10
2.469444444444443
 20
-10.7376736111111
 10
2.469444444444443
 20
-0.6835069444444444
 10
-2.469444444444443
 20
-0.6835069444444444
 10
-2.469444444444443
 20
-10.7376736111111
 10
-3.792361111111107
 20
-10.7376736111111
  0
HATCH
  5
9C1
330
9BF
100
AcDbEntity
  8
LAYER_1
 62
     7
100
AcDbHatch
 10
0.0
 20
0.0
 30
0.0
210
0.0
220
0.0
230
1.0
  2
SOLID
 70
     1
 71
     0
 91
        1
 92
        3
 72
     0
 73
     1
 93
       12
 10
-3.792361111111107
 20
10.7376736111111
 10
-2.469444444444443
 20
10.7376736111111
 10
-2.469444444444443
 20
1.874131944444444
 10
2.469444444444443
 20
1.874131944444444
 10
2.469444444444443
 20
10.7376736111111
 10
3.792361111111107
 20
10.7376736111111
 10
3.792361111111107
 20
-10.7376736111111
 10
2.469444444444443
 20
-10.7376736111111
 10
2.469444444444443
 20
-0.6835069444444444
 10
-2.469444444444443
 20
-0.6835069444444444
 10
-2.469444444444443
 20
-10.7376736111111
 10
-3.792361111111107
 20
-10.7376736111111
 97
        0
 75
     2
 76
     1
 98
        1
 10
0.0
 20
0.0
  0
ENDBLK
  5
9C3
330
9BF
100
AcDbEntity
  8
0
100
AcDbBlockEnd
  0
BLOCK
  5
9C7
330
9C4
100
AcDbEntity
  8
0
 62
     7
100
AcDbBlockBegin
  2
AI9-BLK11
 70
     0
 10
0.0
 20
0.0
 30
0.0
  3
AI9-BLK11
  1

  0
SPLINE
  5
9C5
330
9C4
100
AcDbEntity
  8
LAYER_1
 62
     7
100
AcDbSpline
210
0.0
220
0.0
230
1.0
 70
    11
 71
     3
 72
    26
 73
    22
 74
     0
 42
0.0000000001
 43
0.0000000001
 40
0.0
 40
0.0
 40
0.0
 40
0.0
 40
1.0
 40
1.0
 40
1.0
 40
2.0
 40
2.0
 40
2.0
 40
3.0
 40
3.0
 40
3.0
 40
4.0
 40
4.0
 40
4.0
 40
5.0
 40
5.0
 40
5.0
 40
6.0
 40
6.0
 40
6.0
 40
7.0
 40
7.0
 40
7.0
 40
7.0
 10
-2.645833333333333
 20
0.9039930555555551
 30
0.0
 10
-2.645833333333333
 20
0.9039930555555551
 30
0.0
 10
-2.645833333333333
 20
8.180034722222217
 30
0.0
 10
-2.645833333333333
 20
8.180034722222217
 30
0.0
 10
-2.645833333333333
 20
8.180034722222217
 30
0.0
 10
0.465087890625
 20
8.180034722222217
 30
0.0
 10
0.465087890625
 20
8.180034722222217
 30
0.0
 10
0.9026150173611108
 20
8.180034722222217
 30
0.0
 10
1.24988064236111
 20
8.034651692708331
 30
0.0
 10
1.506884765625
 20
7.745263671874997
 30
0.0
 10
2.001600477430554
 20
7.194048394097221
 30
0.0
 10
2.248958333333332
 20
6.160519748263887
 30
0.0
 10
2.248958333333332
 20
4.643299696180553
 30
0.0
 10
2.248958333333332
 20
3.232188585069443
 30
0.0
 10
2.072569444444444
 20
2.256537543402775
 30
0.0
 10
1.720480685763888
 20
1.715657552083333
 30
0.0
 10
1.368391927083333
 20
1.174088541666665
 30
0.0
 10
0.8929687499999998
 20
0.9039930555555551
 30
0.0
 10
0.2942111545138888
 20
0.9039930555555551
 30
0.0
 10
0.2942111545138888
 20
0.9039930555555551
 30
0.0
 10
-2.645833333333333
 20
0.9039930555555551
 30
0.0
 10
-2.645833333333333
 20
0.9039930555555551
 30
0.0
  0
SPLINE
  5
9C6
330
9C4
100
AcDbEntity
  8
LAYER_1
 62
     7
100
AcDbSpline
210
0.0
220
0.0
230
1.0
 70
    11
 71
     3
 72
    68
 73
    64
 74
     0
 42
0.0000000001
 43
0.0000000001
 40
0.0
 40
0.0
 40
0.0
 40
0.0
 40
1.0
 40
1.0
 40
1.0
 40
2.0
 40
2.0
 40
2.0
 40
3.0
 40
3.0
 40
3.0
 40
4.0
 40
4.0
 40
4.0
 40
5.0
 40
5.0
 40
5.0
 40
6.0
 40
6.0
 40
6.0
 40
7.0
 40
7.0
 40
7.0
 40
8.0
 40
8.0
 40
8.0
 40
9.0
 40
9.0
 40
9.0
 40
10.0
 40
10.0
 40
10.0
 40
11.0
 40
11.0
 40
11.0
 40
12.0
 40
12.0
 40
12.0
 40
13.0
 40
13.0
 40
13.0
 40
14.0
 40
14.0
 40
14.0
 40
15.0
 40
15.0
 40
15.0
 40
16.0
 40
16.0
 40
16.0
 40
17.0
 40
17.0
 40
17.0
 40
18.0
 40
18.0
 40
18.0
 40
19.0
 40
19.0
 40
19.0
 40
20.0
 40
20.0
 40
20.0
 40
21.0
 40
21.0
 40
21.0
 40
21.0
 10
-3.968749999999998
 20
-10.7376736111111
 30
0.0
 10
-3.968749999999998
 20
-10.7376736111111
 30
0.0
 10
-2.645833333333333
 20
-10.7376736111111
 30
0.0
 10
-2.645833333333333
 20
-10.7376736111111
 30
0.0
 10
-2.645833333333333
 20
-10.7376736111111
 30
0.0
 10
-2.645833333333333
 20
-1.521354166666665
 30
0.0
 10
-2.645833333333333
 20
-1.521354166666665
 30
0.0
 10
-2.645833333333333
 20
-1.521354166666665
 30
0.0
 10
0.2390896267361111
 20
-1.521354166666665
 30
0.0
 10
0.2390896267361111
 20
-1.521354166666665
 30
0.0
 10
0.7599880642361111
 20
-1.521354166666665
 30
0.0
 10
1.143771701388887
 20
-1.65295681423611
 30
0.0
 10
1.390440538194444
 20
-1.916162109374999
 30
0.0
 10
1.816254340277773
 20
-2.39434136284722
 30
0.0
 10
2.04363064236111
 20
-3.335541449652775
 30
0.0
 10
2.072569444444444
 20
-4.739762369791666
 30
0.0
 10
2.072569444444444
 20
-4.739762369791666
 30
0.0
 10
2.160763888888888
 20
-8.324039713541665
 30
0.0
 10
2.160763888888888
 20
-8.324039713541665
 30
0.0
 10
2.18005642361111
 20
-9.163264973958332
 30
0.0
 10
2.202794053819443
 20
-9.728949652777775
 30
0.0
 10
2.227598741319444
 20
-10.02109374999998
 30
0.0
 10
2.252403428819443
 20
-10.31392686631944
 30
0.0
 10
2.28892144097222
 20
-10.55301649305555
 30
0.0
 10
2.33853081597222
 20
-10.7376736111111
 30
0.0
 10
2.33853081597222
 20
-10.7376736111111
 30
0.0
 10
3.968749999999998
 20
-10.7376736111111
 30
0.0
 10
3.968749999999998
 20
-10.7376736111111
 30
0.0
 10
3.968749999999998
 20
-10.7376736111111
 30
0.0
 10
3.968749999999998
 20
-10.25260416666666
 30
0.0
 10
3.968749999999998
 20
-10.25260416666666
 30
0.0
 10
3.766867404513888
 20
-10.05830078125
 30
0.0
 10
3.625618489583333
 20
-9.621462673611112
 30
0.0
 10
3.545692274305555
 20
-8.942089843749997
 30
0.0
 10
3.49470486111111
 20
-8.543836805555555
 30
0.0
 10
3.459564887152775
 20
-7.937499999999999
 30
0.0
 10
3.439583333333333
 20
-7.121701388888887
 30
0.0
 10
3.439583333333333
 20
-7.121701388888887
 30
0.0
 10
3.395486111111106
 20
-4.232644314236106
 30
0.0
 10
3.395486111111106
 20
-4.232644314236106
 30
0.0
 10
3.375504557291666
 20
-2.981385633680555
 30
0.0
 10
3.26870659722222
 20
-2.077392578125
 30
0.0
 10
3.075781249999999
 20
-1.522043185763888
 30
0.0
 10
2.882166883680555
 20
-0.9666937934027776
 30
0.0
 10
2.592089843749999
 20
-0.5188313802083333
 30
0.0
 10
2.204861111111106
 20
-0.1770779079861111
 30
0.0
 10
2.63618706597222
 20
0.3197048611111111
 30
0.0
 10
2.971739366319443
 20
0.9770290798611107
 30
0.0
 10
3.211518012152775
 20
1.79558376736111
 30
0.0
 10
3.451296657986107
 20
2.613449435763888
 30
0.0
 10
3.571874999999999
 20
3.66558159722222
 30
0.0
 10
3.571874999999999
 20
4.951291232638888
 30
0.0
 10
3.571874999999999
 20
7.415912543402777
 30
0.0
 10
3.124701605902775
 20
9.106076388888887
 30
0.0
 10
2.231043836805555
 20
10.02178276909722
 30
0.0
 10
1.759754774305553
 20
10.498583984375
 30
0.0
 10
1.163753255208332
 20
10.7376736111111
 30
0.0
 10
0.443039279513889
 20
10.7376736111111
 30
0.0
 10
0.443039279513889
 20
10.7376736111111
 30
0.0
 10
-3.968749999999998
 20
10.7376736111111
 30
0.0
 10
-3.968749999999998
 20
10.7376736111111
 30
0.0
 10
-3.968749999999998
 20
10.7376736111111
 30
0.0
 10
-3.968749999999998
 20
-10.7376736111111
 30
0.0
 10
-3.968749999999998
 20
-10.7376736111111
 30
0.0
  0
ENDBLK
  5
9C8
330
9C4
100
AcDbEntity
  8
0
100
AcDbBlockEnd
  0
BLOCK
  5
9CB
330
9C9
100
AcDbEntity
  8
0
 62
     7
100
AcDbBlockBegin
  2
AI9-BLK10
 70
     0
 10
0.0
 20
0.0
 30
0.0
  3
AI9-BLK10
  1

  0
SPLINE
  5
9CA
330
9C9
100
AcDbEntity
  8
LAYER_1
 62
     7
100
AcDbSpline
210
0.0
220
0.0
230
1.0
 70
    11
 71
     3
 72
    59
 73
    55
 74
     0
 42
0.0000000001
 43
0.0000000001
 40
0.0
 40
0.0
 40
0.0
 40
0.0
 40
1.0
 40
1.0
 40
1.0
 40
2.0
 40
2.0
 40
2.0
 40
3.0
 40
3.0
 40
3.0
 40
4.0
 40
4.0
 40
4.0
 40
5.0
 40
5.0
 40
5.0
 40
6.0
 40
6.0
 40
6.0
 40
7.0
 40
7.0
 40
7.0
 40
8.0
 40
8.0
 40
8.0
 40
9.0
 40
9.0
 40
9.0
 40
10.0
 40
10.0
 40
10.0
 40
11.0
 40
11.0
 40
11.0
 40
12.0
 40
12.0
 40
12.0
 40
13.0
 40
13.0
 40
13.0
 40
14.0
 40
14.0
 40
14.0
 40
15.0
 40
15.0
 40
15.0
 40
16.0
 40
16.0
 40
16.0
 40
17.0
 40
17.0
 40
17.0
 40
18.0
 40
18.0
 40
18.0
 40
18.0
 10
-4.652256944444443
 20
10.7376736111111
 30
0.0
 10
-4.652256944444443
 20
10.7376736111111
 30
0.0
 10
-2.798795572916666
 20
10.7376736111111
 30
0.0
 10
-2.798795572916666
 20
10.7376736111111
 30
0.0
 10
-2.798795572916666
 20
10.7376736111111
 30
0.0
 10
0.0
 20
-7.419357638888887
 30
0.0
 10
0.0
 20
-7.419357638888887
 30
0.0
 10
0.0
 20
-7.419357638888887
 30
0.0
 10
2.793283420138888
 20
10.7376736111111
 30
0.0
 10
2.793283420138888
 20
10.7376736111111
 30
0.0
 10
2.793283420138888
 20
10.7376736111111
 30
0.0
 10
4.652256944444443
 20
10.7376736111111
 30
0.0
 10
4.652256944444443
 20
10.7376736111111
 30
0.0
 10
4.652256944444443
 20
10.7376736111111
 30
0.0
 10
4.652256944444443
 20
-10.7376736111111
 30
0.0
 10
4.652256944444443
 20
-10.7376736111111
 30
0.0
 10
4.652256944444443
 20
-10.7376736111111
 30
0.0
 10
3.41753472222222
 20
-10.7376736111111
 30
0.0
 10
3.41753472222222
 20
-10.7376736111111
 30
0.0
 10
3.41753472222222
 20
-10.7376736111111
 30
0.0
 10
3.41753472222222
 20
1.936832682291665
 30
0.0
 10
3.41753472222222
 20
1.936832682291665
 30
0.0
 10
3.41753472222222
 20
2.375048828124999
 30
0.0
 10
3.424424913194443
 20
3.101274956597221
 30
0.0
 10
3.439583333333333
 20
4.11482204861111
 30
0.0
 10
3.454052734374998
 20
5.128369140624998
 30
0.0
 10
3.461631944444443
 20
6.214952256944441
 30
0.0
 10
3.461631944444443
 20
7.375260416666666
 30
0.0
 10
3.461631944444443
 20
7.375260416666666
 30
0.0
 10
0.6538791232638889
 20
-10.7376736111111
 30
0.0
 10
0.6538791232638889
 20
-10.7376736111111
 30
0.0
 10
0.6538791232638889
 20
-10.7376736111111
 30
0.0
 10
-0.6628363715277778
 20
-10.7376736111111
 30
0.0
 10
-0.6628363715277778
 20
-10.7376736111111
 30
0.0
 10
-0.6628363715277778
 20
-10.7376736111111
 30
0.0
 10
-3.461631944444443
 20
7.375260416666666
 30
0.0
 10
-3.461631944444443
 20
7.375260416666666
 30
0.0
 10
-3.461631944444443
 20
7.375260416666666
 30
0.0
 10
-3.461631944444443
 20
6.717247178819441
 30
0.0
 10
-3.461631944444443
 20
6.717247178819441
 30
0.0
 10
-3.461631944444443
 20
6.190836588541666
 30
0.0
 10
-3.45474175347222
 20
5.389507378472222
 30
0.0
 10
-3.439583333333333
 20
4.312570529513888
 30
0.0
 10
-3.425113932291666
 20
3.235633680555555
 30
0.0
 10
-3.41753472222222
 20
2.44395073784722
 30
0.0
 10
-3.41753472222222
 20
1.936832682291665
 30
0.0
 10
-3.41753472222222
 20
1.936832682291665
 30
0.0
 10
-3.41753472222222
 20
-10.7376736111111
 30
0.0
 10
-3.41753472222222
 20
-10.7376736111111
 30
0.0
 10
-3.41753472222222
 20
-10.7376736111111
 30
0.0
 10
-4.652256944444443
 20
-10.7376736111111
 30
0.0
 10
-4.652256944444443
 20
-10.7376736111111
 30
0.0
 10
-4.652256944444443
 20
-10.7376736111111
 30
0.0
 10
-4.652256944444443
 20
10.7376736111111
 30
0.0
 10
-4.652256944444443
 20
10.7376736111111
 30
0.0
  0
ENDBLK
  5
9CC
330
9C9
100
AcDbEntity
  8
0
100
AcDbBlockEnd
  0
BLOCK
  5
9D0
330
9CD
100
AcDbEntity
  8
0
 62
     7
100
AcDbBlockBegin
  2
AI9-BLK9
 70
     0
 10
0.0
 20
0.0
 30
0.0
  3
AI9-BLK9
  1

  0
SPLINE
  5
9CE
330
9CD
100
AcDbEntity
  8
LAYER_1
 62
     7
100
AcDbSpline
210
0.0
220
0.0
230
1.0
 70
    11
 71
     3
 72
    29
 73
    25
 74
     0
 42
0.0000000001
 43
0.0000000001
 40
0.0
 40
0.0
 40
0.0
 40
0.0
 40
1.0
 40
1.0
 40
1.0
 40
2.0
 40
2.0
 40
2.0
 40
3.0
 40
3.0
 40
3.0
 40
4.0
 40
4.0
 40
4.0
 40
5.0
 40
5.0
 40
5.0
 40
6.0
 40
6.0
 40
6.0
 40
7.0
 40
7.0
 40
7.0
 40
8.0
 40
8.0
 40
8.0
 40
8.0
 10
0.0668348524305556
 20
-8.753298611111111
 30
0.0
 10
-0.9067491319444444
 20
-8.753298611111111
 30
0.0
 10
-1.60954861111111
 20
-7.936810980902778
 30
0.0
 10
-2.041563585069444
 20
-6.30383572048611
 30
0.0
 10
-2.474267578124999
 20
-4.670860460069443
 30
0.0
 10
-2.689930555555555
 20
-2.664436848958333
 30
0.0
 10
-2.689930555555555
 20
-0.28525390625
 30
0.0
 10
-2.689930555555555
 20
2.68855251736111
 30
0.0
 10
-2.439127604166666
 20
4.938199869791666
 30
0.0
 10
-1.937521701388888
 20
6.464377170138886
 30
0.0
 10
-1.43591579861111
 20
7.989865451388887
 30
0.0
 10
-0.7827256944444444
 20
8.753298611111111
 30
0.0
 10
0.0220486111111111
 20
8.753298611111111
 30
0.0
 10
0.8468044704861108
 20
8.753298611111111
 30
0.0
 10
1.49792751736111
 20
7.982975260416663
 30
0.0
 10
1.974728732638888
 20
6.442328559027776
 30
0.0
 10
2.451529947916665
 20
4.901681857638886
 30
0.0
 10
2.689930555555555
 20
2.868386501736111
 30
0.0
 10
2.689930555555555
 20
0.3438205295138888
 30
0.0
 10
2.689930555555555
 20
-2.045697699652774
 30
0.0
 10
2.483224826388884
 20
-4.15891927083333
 30
0.0
 10
2.071191406249999
 20
-5.996533203124998
 30
0.0
 10
1.65915798611111
 20
-7.834836154513887
 30
0.0
 10
0.9908094618055557
 20
-8.753298611111111
 30
0.0
 10
0.0668348524305556
 20
-8.753298611111111
 30
0.0
  0
SPLINE
  5
9CF
330
9CD
100
AcDbEntity
  8
LAYER_1
 62
     7
100
AcDbSpline
210
0.0
220
0.0
230
1.0
 70
    11
 71
     3
 72
    29
 73
    25
 74
     0
 42
0.0000000001
 43
0.0000000001
 40
0.0
 40
0.0
 40
0.0
 40
0.0
 40
1.0
 40
1.0
 40
1.0
 40
2.0
 40
2.0
 40
2.0
 40
3.0
 40
3.0
 40
3.0
 40
4.0
 40
4.0
 40
4.0
 40
5.0
 40
5.0
 40
5.0
 40
6.0
 40
6.0
 40
6.0
 40
7.0
 40
7.0
 40
7.0
 40
8.0
 40
8.0
 40
8.0
 40
8.0
 10
-0.0289388020833333
 20
11.35503472222222
 30
0.0
 10
-1.317404513888887
 20
11.35503472222222
 30
0.0
 10
-2.28892144097222
 20
10.02798394097222
 30
0.0
 10
-2.94280056423611
 20
7.374571397569441
 30
0.0
 10
-3.450607638888888
 20
5.30613606770833
 30
0.0
 10
-3.704166666666666
 20
2.81877712673611
 30
0.0
 10
-3.704166666666666
 20
-0.0881944444444445
 30
0.0
 10
-3.704166666666666
 20
-3.307291666666666
 30
0.0
 10
-3.406510416666666
 20
-5.97035047743055
 30
0.0
 10
-2.811197916666666
 20
-8.077370876736106
 30
0.0
 10
-2.147672526041664
 20
-10.26293945312499
 30
0.0
 10
-1.229899088541666
 20
-11.35503472222222
 30
0.0
 10
-0.0585666232638889
 20
-11.35503472222222
 30
0.0
 10
1.20027126736111
 20
-11.35503472222222
 30
0.0
 10
2.166276041666665
 20
-10.10653211805555
 30
0.0
 10
2.840136718749998
 20
-7.609526909722221
 30
0.0
 10
3.416156684027776
 20
-5.483213975694441
 30
0.0
 10
3.704166666666666
 20
-2.814643012152775
 30
0.0
 10
3.704166666666666
 20
0.3948079427083333
 30
0.0
 10
3.704166666666666
 20
3.360346137152776
 30
0.0
 10
3.449918619791666
 20
5.793961588541666
 30
0.0
 10
2.94280056423611
 20
7.696343315972222
 30
0.0
 10
2.298567708333333
 20
10.13547092013888
 30
0.0
 10
1.307758246527777
 20
11.35503472222222
 30
0.0
 10
-0.0289388020833333
 20
11.35503472222222
 30
0.0
  0
ENDBLK
  5
9D1
330
9CD
100
AcDbEntity
  8
0
100
AcDbBlockEnd
  0
BLOCK
  5
9D5
330
9D2
100
AcDbEntity
  8
0
 62
     7
100
AcDbBlockBegin
  2
AI9-BLK8
 70
     0
 10
0.0
 20
0.0
 30
0.0
  3
AI9-BLK8
  1

  0
LWPOLYLINE
  5
9D3
330
9D2
100
AcDbEntity
  8
LAYER_1
 62
     7
100
AcDbPolyline
 90
       10
 70
     1
 43
0.0
 10
-3.792361111111107
 20
10.7376736111111
 10
-2.268939887152773
 20
10.7376736111111
 10
2.557638888888888
 20
-6.505718315972222
 10
2.557638888888888
 20
10.7376736111111
 10
3.792361111111107
 20
10.7376736111111
 10
3.792361111111107
 20
-10.7376736111111
 10
2.32612847222222
 20
-10.7376736111111
 10
-2.557638888888888
 20
6.549815538194441
 10
-2.557638888888888
 20
-10.7376736111111
 10
-3.792361111111107
 20
-10.7376736111111
  0
HATCH
  5
9D4
330
9D2
100
AcDbEntity
  8
LAYER_1
 62
     7
100
AcDbHatch
 10
0.0
 20
0.0
 30
0.0
210
0.0
220
0.0
230
1.0
  2
SOLID
 70
     1
 71
     0
 91
        1
 92
        3
 72
     0
 73
     1
 93
       10
 10
-3.792361111111107
 20
10.7376736111111
 10
-2.268939887152773
 20
10.7376736111111
 10
2.557638888888888
 20
-6.505718315972222
 10
2.557638888888888
 20
10.7376736111111
 10
3.792361111111107
 20
10.7376736111111
 10
3.792361111111107
 20
-10.7376736111111
 10
2.32612847222222
 20
-10.7376736111111
 10
-2.557638888888888
 20
6.549815538194441
 10
-2.557638888888888
 20
-10.7376736111111
 10
-3.792361111111107
 20
-10.7376736111111
 97
        0
 75
     2
 76
     1
 98
        1
 10
0.0
 20
0.0
  0
ENDBLK
  5
9D6
330
9D2
100
AcDbEntity
  8
0
100
AcDbBlockEnd
  0
BLOCK
  5
9DA
330
9D7
100
AcDbEntity
  8
0
 62
     7
100
AcDbBlockBegin
  2
AI9-BLK7
 70
     0
 10
0.0
 20
0.0
 30
0.0
  3
AI9-BLK7
  1

  0
LWPOLYLINE
  5
9D8
330
9D7
100
AcDbEntity
  8
LAYER_1
 62
     7
100
AcDbPolyline
 90
        4
 70
     1
 43
0.0
 10
-0.6614583333333333
 20
10.7376736111111
 10
0.6614583333333333
 20
10.7376736111111
 10
0.6614583333333333
 20
-10.7376736111111
 10
-0.6614583333333333
 20
-10.7376736111111
  0
HATCH
  5
9D9
330
9D7
100
AcDbEntity
  8
LAYER_1
 62
     7
100
AcDbHatch
 10
0.0
 20
0.0
 30
0.0
210
0.0
220
0.0
230
1.0
  2
SOLID
 70
     1
 71
     0
 91
        1
 92
        3
 72
     0
 73
     1
 93
        4
 10
-0.6614583333333333
 20
10.7376736111111
 10
0.6614583333333333
 20
10.7376736111111
 10
0.6614583333333333
 20
-10.7376736111111
 10
-0.6614583333333333
 20
-10.7376736111111
 97
        0
 75
     2
 76
     1
 98
        1
 10
0.0
 20
0.0
  0
ENDBLK
  5
9DB
330
9D7
100
AcDbEntity
  8
0
100
AcDbBlockEnd
  0
BLOCK
  5
9DE
330
9DC
100
AcDbEntity
  8
0
 62
     7
100
AcDbBlockBegin
  2
AI9-BLK6
 70
     0
 10
0.0
 20
0.0
 30
0.0
  3
AI9-BLK6
  1

  0
SPLINE
  5
9DD
330
9DC
100
AcDbEntity
  8
LAYER_1
 62
     7
100
AcDbSpline
210
0.0
220
0.0
230
1.0
 70
    11
 71
     3
 72
    59
 73
    55
 74
     0
 42
0.0000000001
 43
0.0000000001
 40
0.0
 40
0.0
 40
0.0
 40
0.0
 40
1.0
 40
1.0
 40
1.0
 40
2.0
 40
2.0
 40
2.0
 40
3.0
 40
3.0
 40
3.0
 40
4.0
 40
4.0
 40
4.0
 40
5.0
 40
5.0
 40
5.0
 40
6.0
 40
6.0
 40
6.0
 40
7.0
 40
7.0
 40
7.0
 40
8.0
 40
8.0
 40
8.0
 40
9.0
 40
9.0
 40
9.0
 40
10.0
 40
10.0
 40
10.0
 40
11.0
 40
11.0
 40
11.0
 40
12.0
 40
12.0
 40
12.0
 40
13.0
 40
13.0
 40
13.0
 40
14.0
 40
14.0
 40
14.0
 40
15.0
 40
15.0
 40
15.0
 40
16.0
 40
16.0
 40
16.0
 40
17.0
 40
17.0
 40
17.0
 40
18.0
 40
18.0
 40
18.0
 40
18.0
 10
3.062689887152775
 20
9.168088107638887
 30
0.0
 10
3.735172526041666
 20
7.739062499999997
 30
0.0
 10
4.110687934027776
 20
6.116422526041666
 30
0.0
 10
4.189236111111108
 20
4.299479166666666
 30
0.0
 10
4.189236111111108
 20
4.299479166666666
 30
0.0
 10
2.866319444444443
 20
4.299479166666666
 30
0.0
 10
2.866319444444443
 20
4.299479166666666
 30
0.0
 10
2.720936414930555
 20
5.667871093749997
 30
0.0
 10
2.435682508680555
 20
6.752387152777776
 30
0.0
 10
2.009868706597218
 20
7.553027343749997
 30
0.0
 10
1.584054904513888
 20
8.352978515624997
 30
0.0
 10
0.9839192708333332
 20
8.753298611111111
 30
0.0
 10
0.2101508246527778
 20
8.753298611111111
 30
0.0
 10
-0.7386284722222222
 20
8.753298611111111
 30
0.0
 10
-1.503439670138888
 20
8.010536024305555
 30
0.0
 10
-2.083593749999999
 20
6.526388888888886
 30
0.0
 10
-2.664436848958333
 20
5.042241753472221
 30
0.0
 10
-2.954513888888888
 20
2.767100694444443
 30
0.0
 10
-2.954513888888888
 20
-0.2990342881944444
 30
0.0
 10
-2.954513888888888
 20
-2.811197916666666
 30
0.0
 10
-2.693375651041666
 20
-4.847938368055555
 30
0.0
 10
-2.17041015625
 20
-6.409944661458332
 30
0.0
 10
-1.648133680555553
 20
-7.972639973958332
 30
0.0
 10
-0.8640299479166666
 20
-8.753298611111111
 30
0.0
 10
0.1812120225694444
 20
-8.753298611111111
 30
0.0
 10
1.138948567708333
 20
-8.753298611111111
 30
0.0
 10
1.865174696180553
 20
-7.927853732638887
 30
0.0
 10
2.359201388888884
 20
-6.275585937499998
 30
0.0
 10
2.62998589409722
 20
-5.406043836805555
 30
0.0
 10
2.828423394097221
 20
-4.262272135416666
 30
0.0
 10
2.954513888888888
 20
-2.844270833333331
 30
0.0
 10
2.954513888888888
 20
-2.844270833333331
 30
0.0
 10
4.277430555555555
 20
-2.844270833333331
 30
0.0
 10
4.277430555555555
 20
-2.844270833333331
 30
0.0
 10
4.169943576388888
 20
-5.109765624999996
 30
0.0
 10
3.795117187499998
 20
-7.009391276041665
 30
0.0
 10
3.151573350694443
 20
-8.542458767361106
 30
0.0
 10
2.381249999999999
 20
-10.38834092881943
 30
0.0
 10
1.347721354166665
 20
-11.3109375
 30
0.0
 10
0.0509874131944445
 20
-11.3109375
 30
0.0
 10
-1.07004665798611
 20
-11.3109375
 30
0.0
 10
-2.010557725694444
 20
-10.55577256944443
 30
0.0
 10
-2.771234809027776
 20
-9.04475368923611
 30
0.0
 10
-3.775824652777775
 20
-7.046598307291666
 30
0.0
 10
-4.277430555555555
 20
-3.961170789930555
 30
0.0
 10
-4.277430555555555
 20
0.2115288628472222
 30
0.0
 10
-4.277430555555555
 20
3.379638671874998
 30
0.0
 10
-3.902604166666666
 20
5.977929687499997
 30
0.0
 10
-3.151573350694443
 20
8.005712890624996
 30
0.0
 10
-2.333018663194443
 20
10.20919596354165
 30
0.0
 10
-1.20647243923611
 20
11.3109375
 30
0.0
 10
0.2266872829861111
 20
11.3109375
 30
0.0
 10
1.444873046875
 20
11.3109375
 30
0.0
 10
2.390207248263884
 20
10.59642469618055
 30
0.0
 10
3.062689887152775
 20
9.168088107638887
 30
0.0
  0
ENDBLK
  5
9DF
330
9DC
100
AcDbEntity
  8
0
100
AcDbBlockEnd
  0
BLOCK
  5
9E3
330
9E0
100
AcDbEntity
  8
0
 62
     7
100
AcDbBlockBegin
  2
AI9-BLK5
 70
     0
 10
0.0
 20
0.0
 30
0.0
  3
AI9-BLK5
  1

  0
SPLINE
  5
9E1
330
9E0
100
AcDbEntity
  8
LAYER_1
 62
     7
100
AcDbSpline
210
0.0
220
0.0
230
1.0
 70
    11
 71
     3
 72
    32
 73
    28
 74
     0
 42
0.0000000001
 43
0.0000000001
 40
0.0
 40
0.0
 40
0.0
 40
0.0
 40
1.0
 40
1.0
 40
1.0
 40
2.0
 40
2.0
 40
2.0
 40
3.0
 40
3.0
 40
3.0
 40
4.0
 40
4.0
 40
4.0
 40
5.0
 40
5.0
 40
5.0
 40
6.0
 40
6.0
 40
6.0
 40
7.0
 40
7.0
 40
7.0
 40
8.0
 40
8.0
 40
8.0
 40
9.0
 40
9.0
 40
9.0
 40
9.0
 10
-2.62378472222222
 20
-8.268229166666666
 30
0.0
 10
-2.62378472222222
 20
-8.268229166666666
 30
0.0
 10
-2.62378472222222
 20
8.180034722222217
 30
0.0
 10
-2.62378472222222
 20
8.180034722222217
 30
0.0
 10
-2.62378472222222
 20
8.180034722222217
 30
0.0
 10
-0.3376193576388888
 20
8.180034722222217
 30
0.0
 10
-0.3376193576388888
 20
8.180034722222217
 30
0.0
 10
0.6972873263888888
 20
8.180034722222217
 30
0.0
 10
1.449007161458333
 20
7.445540364583332
 30
0.0
 10
1.918918185763885
 20
5.977929687499997
 30
0.0
 10
2.388829210069443
 20
4.510319010416666
 30
0.0
 10
2.62378472222222
 20
2.449462890624999
 30
0.0
 10
2.62378472222222
 20
-0.204638671875
 30
0.0
 10
2.62378472222222
 20
-0.8950358072916666
 30
0.0
 10
2.590022786458332
 20
-1.643310546874999
 30
0.0
 10
2.523187934027773
 20
-2.45015190972222
 30
0.0
 10
2.408121744791666
 20
-3.80200737847222
 30
0.0
 10
2.226220703124999
 20
-4.909950086805555
 30
0.0
 10
1.976795789930553
 20
-5.774669053819441
 30
0.0
 10
1.659847005208333
 20
-6.853672960069442
 30
0.0
 10
1.252636718749998
 20
-7.583344184027778
 30
0.0
 10
0.7544759114583333
 20
-7.962304687499997
 30
0.0
 10
0.4664659288194444
 20
-8.166254340277777
 30
0.0
 10
0.1074869791666666
 20
-8.268229166666666
 30
0.0
 10
-0.3231499565972222
 20
-8.268229166666666
 30
0.0
 10
-0.3231499565972222
 20
-8.268229166666666
 30
0.0
 10
-2.62378472222222
 20
-8.268229166666666
 30
0.0
 10
-2.62378472222222
 20
-8.268229166666666
 30
0.0
  0
SPLINE
  5
9E2
330
9E0
100
AcDbEntity
  8
LAYER_1
 62
     7
100
AcDbSpline
210
0.0
220
0.0
230
1.0
 70
    11
 71
     3
 72
    26
 73
    22
 74
     0
 42
0.0000000001
 43
0.0000000001
 40
0.0
 40
0.0
 40
0.0
 40
0.0
 40
1.0
 40
1.0
 40
1.0
 40
2.0
 40
2.0
 40
2.0
 40
3.0
 40
3.0
 40
3.0
 40
4.0
 40
4.0
 40
4.0
 40
5.0
 40
5.0
 40
5.0
 40
6.0
 40
6.0
 40
6.0
 40
7.0
 40
7.0
 40
7.0
 40
7.0
 10
-3.946701388888888
 20
-10.7376736111111
 30
0.0
 10
-3.946701388888888
 20
-10.7376736111111
 30
0.0
 10
-0.0943956163194444
 20
-10.7376736111111
 30
0.0
 10
-0.0943956163194444
 20
-10.7376736111111
 30
0.0
 10
1.546847873263885
 20
-10.7376736111111
 30
0.0
 10
2.705777994791666
 20
-9.11021050347222
 30
0.0
 10
3.381705729166666
 20
-5.854595269097222
 30
0.0
 10
3.757910156249999
 20
-4.01284722222222
 30
0.0
 10
3.946701388888888
 20
-1.951991102430555
 30
0.0
 10
3.946701388888888
 20
0.328662109375
 30
0.0
 10
3.946701388888888
 20
3.281797960069443
 30
0.0
 10
3.622862413194443
 20
5.703700086805552
 30
0.0
 10
2.976562499999998
 20
7.594368489583332
 30
0.0
 10
2.25171440972222
 20
9.689675564236106
 30
0.0
 10
1.233344184027777
 20
10.7376736111111
 30
0.0
 10
-0.0799262152777778
 20
10.7376736111111
 30
0.0
 10
-0.0799262152777778
 20
10.7376736111111
 30
0.0
 10
-3.946701388888888
 20
10.7376736111111
 30
0.0
 10
-3.946701388888888
 20
10.7376736111111
 30
0.0
 10
-3.946701388888888
 20
10.7376736111111
 30
0.0
 10
-3.946701388888888
 20
-10.7376736111111
 30
0.0
 10
-3.946701388888888
 20
-10.7376736111111
 30
0.0
  0
ENDBLK
  5
9E4
330
9E0
100
AcDbEntity
  8
0
100
AcDbBlockEnd
  0
BLOCK
  5
9E8
330
9E5
100
AcDbEntity
  8
0
 62
     7
100
AcDbBlockBegin
  2
AI9-BLK4
 70
     0
 10
0.0
 20
0.0
 30
0.0
  3
AI9-BLK4
  1

  0
SPLINE
  5
9E6
330
9E5
100
AcDbEntity
  8
LAYER_1
 62
     7
100
AcDbSpline
210
0.0
220
0.0
230
1.0
 70
    11
 71
     3
 72
    26
 73
    22
 74
     0
 42
0.0000000001
 43
0.0000000001
 40
0.0
 40
0.0
 40
0.0
 40
0.0
 40
1.0
 40
1.0
 40
1.0
 40
2.0
 40
2.0
 40
2.0
 40
3.0
 40
3.0
 40
3.0
 40
4.0
 40
4.0
 40
4.0
 40
5.0
 40
5.0
 40
5.0
 40
6.0
 40
6.0
 40
6.0
 40
7.0
 40
7.0
 40
7.0
 40
7.0
 10
-2.645833333333333
 20
0.9039930555555551
 30
0.0
 10
-2.645833333333333
 20
0.9039930555555551
 30
0.0
 10
-2.645833333333333
 20
8.180034722222217
 30
0.0
 10
-2.645833333333333
 20
8.180034722222217
 30
0.0
 10
-2.645833333333333
 20
8.180034722222217
 30
0.0
 10
0.465087890625
 20
8.180034722222217
 30
0.0
 10
0.465087890625
 20
8.180034722222217
 30
0.0
 10
0.9026150173611108
 20
8.180034722222217
 30
0.0
 10
1.24988064236111
 20
8.034651692708331
 30
0.0
 10
1.506884765625
 20
7.745263671874997
 30
0.0
 10
2.001600477430554
 20
7.194048394097221
 30
0.0
 10
2.248958333333332
 20
6.160519748263887
 30
0.0
 10
2.248958333333332
 20
4.643299696180553
 30
0.0
 10
2.248958333333332
 20
3.232188585069443
 30
0.0
 10
2.072569444444444
 20
2.256537543402775
 30
0.0
 10
1.720480685763888
 20
1.715657552083333
 30
0.0
 10
1.368391927083333
 20
1.174088541666665
 30
0.0
 10
0.8929687499999998
 20
0.9039930555555551
 30
0.0
 10
0.2942111545138888
 20
0.9039930555555551
 30
0.0
 10
0.2942111545138888
 20
0.9039930555555551
 30
0.0
 10
-2.645833333333333
 20
0.9039930555555551
 30
0.0
 10
-2.645833333333333
 20
0.9039930555555551
 30
0.0
  0
SPLINE
  5
9E7
330
9E5
100
AcDbEntity
  8
LAYER_1
 62
     7
100
AcDbSpline
210
0.0
220
0.0
230
1.0
 70
    11
 71
     3
 72
    68
 73
    64
 74
     0
 42
0.0000000001
 43
0.0000000001
 40
0.0
 40
0.0
 40
0.0
 40
0.0
 40
1.0
 40
1.0
 40
1.0
 40
2.0
 40
2.0
 40
2.0
 40
3.0
 40
3.0
 40
3.0
 40
4.0
 40
4.0
 40
4.0
 40
5.0
 40
5.0
 40
5.0
 40
6.0
 40
6.0
 40
6.0
 40
7.0
 40
7.0
 40
7.0
 40
8.0
 40
8.0
 40
8.0
 40
9.0
 40
9.0
 40
9.0
 40
10.0
 40
10.0
 40
10.0
 40
11.0
 40
11.0
 40
11.0
 40
12.0
 40
12.0
 40
12.0
 40
13.0
 40
13.0
 40
13.0
 40
14.0
 40
14.0
 40
14.0
 40
15.0
 40
15.0
 40
15.0
 40
16.0
 40
16.0
 40
16.0
 40
17.0
 40
17.0
 40
17.0
 40
18.0
 40
18.0
 40
18.0
 40
19.0
 40
19.0
 40
19.0
 40
20.0
 40
20.0
 40
20.0
 40
21.0
 40
21.0
 40
21.0
 40
21.0
 10
-3.968749999999998
 20
-10.7376736111111
 30
0.0
 10
-3.968749999999998
 20
-10.7376736111111
 30
0.0
 10
-2.645833333333333
 20
-10.7376736111111
 30
0.0
 10
-2.645833333333333
 20
-10.7376736111111
 30
0.0
 10
-2.645833333333333
 20
-10.7376736111111
 30
0.0
 10
-2.645833333333333
 20
-1.521354166666665
 30
0.0
 10
-2.645833333333333
 20
-1.521354166666665
 30
0.0
 10
-2.645833333333333
 20
-1.521354166666665
 30
0.0
 10
0.2390896267361111
 20
-1.521354166666665
 30
0.0
 10
0.2390896267361111
 20
-1.521354166666665
 30
0.0
 10
0.7599880642361111
 20
-1.521354166666665
 30
0.0
 10
1.143771701388887
 20
-1.65295681423611
 30
0.0
 10
1.390440538194444
 20
-1.916162109374999
 30
0.0
 10
1.816254340277773
 20
-2.39434136284722
 30
0.0
 10
2.04363064236111
 20
-3.335541449652775
 30
0.0
 10
2.072569444444444
 20
-4.739762369791666
 30
0.0
 10
2.072569444444444
 20
-4.739762369791666
 30
0.0
 10
2.160763888888888
 20
-8.324039713541665
 30
0.0
 10
2.160763888888888
 20
-8.324039713541665
 30
0.0
 10
2.18005642361111
 20
-9.163264973958332
 30
0.0
 10
2.202794053819443
 20
-9.728949652777775
 30
0.0
 10
2.227598741319444
 20
-10.02109374999998
 30
0.0
 10
2.252403428819443
 20
-10.31392686631944
 30
0.0
 10
2.28892144097222
 20
-10.55301649305555
 30
0.0
 10
2.33853081597222
 20
-10.7376736111111
 30
0.0
 10
2.33853081597222
 20
-10.7376736111111
 30
0.0
 10
3.968749999999998
 20
-10.7376736111111
 30
0.0
 10
3.968749999999998
 20
-10.7376736111111
 30
0.0
 10
3.968749999999998
 20
-10.7376736111111
 30
0.0
 10
3.968749999999998
 20
-10.25260416666666
 30
0.0
 10
3.968749999999998
 20
-10.25260416666666
 30
0.0
 10
3.766867404513888
 20
-10.05830078125
 30
0.0
 10
3.625618489583333
 20
-9.621462673611112
 30
0.0
 10
3.545692274305555
 20
-8.942089843749997
 30
0.0
 10
3.49470486111111
 20
-8.543836805555555
 30
0.0
 10
3.459564887152775
 20
-7.937499999999999
 30
0.0
 10
3.439583333333333
 20
-7.121701388888887
 30
0.0
 10
3.439583333333333
 20
-7.121701388888887
 30
0.0
 10
3.395486111111106
 20
-4.232644314236106
 30
0.0
 10
3.395486111111106
 20
-4.232644314236106
 30
0.0
 10
3.375504557291666
 20
-2.981385633680555
 30
0.0
 10
3.26870659722222
 20
-2.077392578125
 30
0.0
 10
3.075781249999999
 20
-1.522043185763888
 30
0.0
 10
2.882166883680555
 20
-0.9666937934027776
 30
0.0
 10
2.592089843749999
 20
-0.5188313802083333
 30
0.0
 10
2.204861111111106
 20
-0.1770779079861111
 30
0.0
 10
2.63618706597222
 20
0.3197048611111111
 30
0.0
 10
2.971739366319443
 20
0.9770290798611107
 30
0.0
 10
3.211518012152775
 20
1.79558376736111
 30
0.0
 10
3.451296657986107
 20
2.613449435763888
 30
0.0
 10
3.571874999999999
 20
3.66558159722222
 30
0.0
 10
3.571874999999999
 20
4.951291232638888
 30
0.0
 10
3.571874999999999
 20
7.415912543402777
 30
0.0
 10
3.124701605902775
 20
9.106076388888887
 30
0.0
 10
2.231043836805555
 20
10.02178276909722
 30
0.0
 10
1.759754774305553
 20
10.498583984375
 30
0.0
 10
1.163753255208332
 20
10.7376736111111
 30
0.0
 10
0.443039279513889
 20
10.7376736111111
 30
0.0
 10
0.443039279513889
 20
10.7376736111111
 30
0.0
 10
-3.968749999999998
 20
10.7376736111111
 30
0.0
 10
-3.968749999999998
 20
10.7376736111111
 30
0.0
 10
-3.968749999999998
 20
10.7376736111111
 30
0.0
 10
-3.968749999999998
 20
-10.7376736111111
 30
0.0
 10
-3.968749999999998
 20
-10.7376736111111
 30
0.0
  0
ENDBLK
  5
9E9
330
9E5
100
AcDbEntity
  8
0
100
AcDbBlockEnd
  0
BLOCK
  5
9ED
330
9EA
100
AcDbEntity
  8
0
 62
     7
100
AcDbBlockBegin
  2
AI9-BLK3
 70
     0
 10
0.0
 20
0.0
 30
0.0
  3
AI9-BLK3
  1

  0
LWPOLYLINE
  5
9EB
330
9EA
100
AcDbEntity
  8
LAYER_1
 62
     7
100
AcDbPolyline
 90
        4
 70
     1
 43
0.0
 10
-0.6613722059461809
 20
10.7376736111111
 10
0.6613722059461809
 20
10.7376736111111
 10
0.6613722059461809
 20
-10.7376736111111
 10
-0.6613722059461809
 20
-10.7376736111111
  0
HATCH
  5
9EC
330
9EA
100
AcDbEntity
  8
LAYER_1
 62
     7
100
AcDbHatch
 10
0.0
 20
0.0
 30
0.0
210
0.0
220
0.0
230
1.0
  2
SOLID
 70
     1
 71
     0
 91
        1
 92
        3
 72
     0
 73
     1
 93
        4
 10
-0.6613722059461809
 20
10.7376736111111
 10
0.6613722059461809
 20
10.7376736111111
 10
0.6613722059461809
 20
-10.7376736111111
 10
-0.6613722059461809
 20
-10.7376736111111
 97
        0
 75
     2
 76
     1
 98
        1
 10
0.0
 20
0.0
  0
ENDBLK
  5
9EE
330
9EA
100
AcDbEntity
  8
0
100
AcDbBlockEnd
  0
BLOCK
  5
9F2
330
9EF
100
AcDbEntity
  8
0
 62
     7
100
AcDbBlockBegin
  2
AI9-BLK2
 70
     0
 10
0.0
 20
0.0
 30
0.0
  3
AI9-BLK2
  1

  0
LWPOLYLINE
  5
9F0
330
9EF
100
AcDbEntity
  8
LAYER_1
 62
     7
100
AcDbPolyline
 90
        7
 70
     1
 43
0.0
 10
-2.785704210069443
 20
10.7376736111111
 10
0.0
 20
-7.550960286458332
 10
2.771234809027776
 20
10.7376736111111
 10
4.233333333333331
 20
10.7376736111111
 10
0.6910861545138888
 20
-10.7376736111111
 10
-0.7055555555555558
 20
-10.7376736111111
 10
-4.233333333333331
 20
10.7376736111111
  0
HATCH
  5
9F1
330
9EF
100
AcDbEntity
  8
LAYER_1
 62
     7
100
AcDbHatch
 10
0.0
 20
0.0
 30
0.0
210
0.0
220
0.0
230
1.0
  2
SOLID
 70
     1
 71
     0
 91
        1
 92
        3
 72
     0
 73
     1
 93
        7
 10
-2.785704210069443
 20
10.7376736111111
 10
0.0
 20
-7.550960286458332
 10
2.771234809027776
 20
10.7376736111111
 10
4.233333333333331
 20
10.7376736111111
 10
0.6910861545138888
 20
-10.7376736111111
 10
-0.7055555555555558
 20
-10.7376736111111
 10
-4.233333333333331
 20
10.7376736111111
 97
        0
 75
     2
 76
     1
 98
        1
 10
0.0
 20
0.0
  0
ENDBLK
  5
9F3
330
9EF
100
AcDbEntity
  8
0
100
AcDbBlockEnd
  0
BLOCK
  5
9F7
330
9F4
100
AcDbEntity
  8
0
 62
     7
100
AcDbBlockBegin
  2
AI9-BLK1
 70
     0
 10
0.0
 20
0.0
 30
0.0
  3
AI9-BLK1
  1

  0
LWPOLYLINE
  5
9F5
330
9F4
100
AcDbEntity
  8
LAYER_1
 62
     7
100
AcDbPolyline
 90
       12
 70
     1
 43
0.0
 10
-3.571874999999999
 20
10.7376736111111
 10
3.483680555555555
 20
10.7376736111111
 10
3.483680555555555
 20
8.091840277777777
 10
-2.248958333333332
 20
8.091840277777777
 10
-2.248958333333332
 20
1.565451388888888
 10
3.042708333333333
 20
1.565451388888888
 10
3.042708333333333
 20
-0.9039930555555551
 10
-2.248958333333332
 20
-0.9039930555555551
 10
-2.248958333333332
 20
-8.180034722222217
 10
3.571874999999999
 20
-8.180034722222217
 10
3.571874999999999
 20
-10.7376736111111
 10
-3.571874999999999
 20
-10.7376736111111
  0
HATCH
  5
9F6
330
9F4
100
AcDbEntity
  8
LAYER_1
 62
     7
100
AcDbHatch
 10
0.0
 20
0.0
 30
0.0
210
0.0
220
0.0
230
1.0
  2
SOLID
 70
     1
 71
     0
 91
        1
 92
        3
 72
     0
 73
     1
 93
       12
 10
-3.571874999999999
 20
10.7376736111111
 10
3.483680555555555
 20
10.7376736111111
 10
3.483680555555555
 20
8.091840277777777
 10
-2.248958333333332
 20
8.091840277777777
 10
-2.248958333333332
 20
1.565451388888888
 10
3.042708333333333
 20
1.565451388888888
 10
3.042708333333333
 20
-0.9039930555555551
 10
-2.248958333333332
 20
-0.9039930555555551
 10
-2.248958333333332
 20
-8.180034722222217
 10
3.571874999999999
 20
-8.180034722222217
 10
3.571874999999999
 20
-10.7376736111111
 10
-3.571874999999999
 20
-10.7376736111111
 97
        0
 75
     2
 76
     1
 98
        1
 10
0.0
 20
0.0
  0
ENDBLK
  5
9F8
330
9F4
100
AcDbEntity
  8
0
100
AcDbBlockEnd
  0
BLOCK
  5
A1C
330
9F9
100
AcDbEntity
  8
0
100
AcDbBlockBegin
  2
HD_LLC_logo_OT5
 70
     0
 10
0.0
 20
0.0
 30
0.0
  3
HD_LLC_logo_OT5
  1

  0
SPLINE
  5
9FA
102
{ACAD_REACTORS
330
A1A
102
}
330
9F9
100
AcDbEntity
  8
LAYER_1
 62
     7
100
AcDbSpline
210
0.0
220
0.0
230
1.0
 70
    11
 71
     3
 72
   113
 73
   109
 74
     0
 42
0.0000000001
 43
0.0000000001
 40
0.0
 40
0.0
 40
0.0
 40
0.0
 40
1.0
 40
1.0
 40
1.0
 40
2.0
 40
2.0
 40
2.0
 40
3.0
 40
3.0
 40
3.0
 40
4.0
 40
4.0
 40
4.0
 40
5.0
 40
5.0
 40
5.0
 40
6.0
 40
6.0
 40
6.0
 40
7.0
 40
7.0
 40
7.0
 40
8.0
 40
8.0
 40
8.0
 40
9.0
 40
9.0
 40
9.0
 40
10.0
 40
10.0
 40
10.0
 40
11.0
 40
11.0
 40
11.0
 40
12.0
 40
12.0
 40
12.0
 40
13.0
 40
13.0
 40
13.0
 40
14.0
 40
14.0
 40
14.0
 40
15.0
 40
15.0
 40
15.0
 40
16.0
 40
16.0
 40
16.0
 40
17.0
 40
17.0
 40
17.0
 40
18.0
 40
18.0
 40
18.0
 40
19.0
 40
19.0
 40
19.0
 40
20.0
 40
20.0
 40
20.0
 40
21.0
 40
21.0
 40
21.0
 40
22.0
 40
22.0
 40
22.0
 40
23.0
 40
23.0
 40
23.0
 40
24.0
 40
24.0
 40
24.0
 40
25.0
 40
25.0
 40
25.0
 40
26.0
 40
26.0
 40
26.0
 40
27.0
 40
27.0
 40
27.0
 40
28.0
 40
28.0
 40
28.0
 40
29.0
 40
29.0
 40
29.0
 40
30.0
 40
30.0
 40
30.0
 40
31.0
 40
31.0
 40
31.0
 40
32.0
 40
32.0
 40
32.0
 40
33.0
 40
33.0
 40
33.0
 40
34.0
 40
34.0
 40
34.0
 40
35.0
 40
35.0
 40
35.0
 40
36.0
 40
36.0
 40
36.0
 40
36.0
 10
193.3039632161458
 20
186.1548733181423
 30
0.0
 10
193.3039632161458
 20
186.1860514322916
 30
0.0
 10
193.3039632161458
 20
219.6932223849826
 30
0.0
 10
193.3039632161458
 20
219.6932223849826
 30
0.0
 10
193.3039632161458
 20
219.6932223849826
 30
0.0
 10
193.2974175347219
 20
219.7488606770833
 30
0.0
 10
193.2974175347219
 20
219.7488606770833
 30
0.0
 10
191.5293945312499
 20
235.455740017361
 30
0.0
 10
175.1458984374999
 20
235.2467949761284
 30
0.0
 10
174.9808783637151
 20
235.2428331163193
 30
0.0
 10
174.9808783637151
 20
235.2428331163193
 30
0.0
 10
125.8827555338541
 20
235.2430053710937
 30
0.0
 10
125.8827555338541
 20
235.2430053710937
 30
0.0
 10
125.8827555338541
 20
235.2430053710937
 30
0.0
 10
125.8827555338541
 20
255.5278998480901
 30
0.0
 10
125.8827555338541
 20
255.5278998480901
 30
0.0
 10
125.8827555338541
 20
255.5278998480901
 30
0.0
 10
84.5626247829861
 20
255.5278998480901
 30
0.0
 10
84.5626247829861
 20
255.5278998480901
 30
0.0
 10
84.5626247829861
 20
255.5278998480901
 30
0.0
 10
84.55711263020829
 20
233.7919311523436
 30
0.0
 10
84.55711263020829
 20
233.7919311523436
 30
0.0
 10
84.55711263020829
 20
233.7919311523436
 30
0.0
 10
64.42052951388888
 20
233.7919311523436
 30
0.0
 10
64.42052951388888
 20
233.7919311523436
 30
0.0
 10
64.42052951388888
 20
233.7919311523436
 30
0.0
 10
64.41501736111111
 20
255.5278998480901
 30
0.0
 10
64.41501736111111
 20
255.5278998480901
 30
0.0
 10
64.41501736111111
 20
255.5278998480901
 30
0.0
 10
23.91757541232637
 20
255.5278998480901
 30
0.0
 10
23.91757541232637
 20
255.5278998480901
 30
0.0
 10
23.91757541232637
 20
255.5278998480901
 30
0.0
 10
23.91757541232637
 20
233.2393378363715
 30
0.0
 10
23.91757541232637
 20
233.2393378363715
 30
0.0
 10
23.91757541232637
 20
233.2393378363715
 30
0.0
 10
43.65624999999999
 20
233.2393378363715
 30
0.0
 10
43.65624999999999
 20
233.2393378363715
 30
0.0
 10
43.65624999999999
 20
233.2393378363715
 30
0.0
 10
43.65624999999999
 20
211.5188720703125
 30
0.0
 10
43.65624999999999
 20
211.5188720703125
 30
0.0
 10
43.65624999999999
 20
211.5188720703125
 30
0.0
 10
23.91757541232637
 20
211.5188720703125
 30
0.0
 10
23.91757541232637
 20
211.5188720703125
 30
0.0
 10
23.91757541232637
 20
211.5188720703125
 30
0.0
 10
23.91757541232637
 20
189.2303100585936
 30
0.0
 10
23.91757541232637
 20
189.2303100585936
 30
0.0
 10
23.91757541232637
 20
189.2303100585936
 30
0.0
 10
64.41501736111111
 20
189.2303100585936
 30
0.0
 10
64.41501736111111
 20
189.2303100585936
 30
0.0
 10
64.41501736111111
 20
189.2303100585936
 30
0.0
 10
64.42052951388888
 20
211.069976128472
 30
0.0
 10
64.42052951388888
 20
211.069976128472
 30
0.0
 10
64.42052951388888
 20
211.069976128472
 30
0.0
 10
84.55711263020829
 20
211.069976128472
 30
0.0
 10
84.55711263020829
 20
211.069976128472
 30
0.0
 10
84.55711263020829
 20
211.069976128472
 30
0.0
 10
84.5626247829861
 20
189.2303100585936
 30
0.0
 10
84.5626247829861
 20
189.2303100585936
 30
0.0
 10
84.5626247829861
 20
189.2303100585936
 30
0.0
 10
125.8827555338541
 20
189.2303100585936
 30
0.0
 10
125.8827555338541
 20
189.2303100585936
 30
0.0
 10
125.8827555338541
 20
189.2303100585936
 30
0.0
 10
125.8827555338541
 20
211.5188720703125
 30
0.0
 10
125.8827555338541
 20
211.5188720703125
 30
0.0
 10
125.8827555338541
 20
211.5188720703125
 30
0.0
 10
105.3213921440971
 20
211.5188720703125
 30
0.0
 10
105.3213921440971
 20
211.5188720703125
 30
0.0
 10
105.3213921440971
 20
211.5188720703125
 30
0.0
 10
105.3213921440971
 20
233.2393378363715
 30
0.0
 10
105.3213921440971
 20
233.2393378363715
 30
0.0
 10
105.3213921440971
 20
233.2393378363715
 30
0.0
 10
175.0046495225693
 20
233.243127441406
 30
0.0
 10
175.0046495225693
 20
233.243127441406
 30
0.0
 10
175.6268337673611
 20
233.2560465494791
 30
0.0
 10
189.7165852864583
 20
233.3962619357638
 30
0.0
 10
191.3037407769094
 20
219.5690266927083
 30
0.0
 10
191.3037407769094
 20
219.4332899305555
 30
0.0
 10
191.3037407769094
 20
186.1142211914062
 30
0.0
 10
191.3037407769094
 20
186.1142211914062
 30
0.0
 10
191.3037407769094
 20
186.1142211914062
 30
0.0
 10
191.3051188151039
 20
186.0880384657115
 30
0.0
 10
191.3051188151039
 20
186.0880384657115
 30
0.0
 10
191.3054633246526
 20
186.0787367078991
 30
0.0
 10
191.3109754774304
 20
185.9566080729166
 30
0.0
 10
191.3109754774304
 20
185.7399115668401
 30
0.0
 10
191.3109754774304
 20
184.2090833875865
 30
0.0
 10
191.0488037109374
 20
177.9643310546874
 30
0.0
 10
186.9866916232638
 20
173.5652886284722
 30
0.0
 10
184.2540418836804
 20
170.6064683702255
 30
0.0
 10
180.3224989149304
 20
169.0308539496526
 30
0.0
 10
175.300927734375
 20
168.8825425889756
 30
0.0
 10
175.300927734375
 20
168.8825425889756
 30
0.0
 10
107.0094889322916
 20
168.8828870985243
 30
0.0
 10
107.0094889322916
 20
168.8828870985243
 30
0.0
 10
107.0094889322916
 20
168.8828870985243
 30
0.0
 10
107.0094889322916
 20
166.8830091688368
 30
0.0
 10
107.0094889322916
 20
166.8830091688368
 30
0.0
 10
107.0094889322916
 20
166.8830091688368
 30
0.0
 10
175.3305555555555
 20
166.8830091688368
 30
0.0
 10
175.3305555555555
 20
166.8830091688368
 30
0.0
 10
180.9467502170138
 20
167.0485460069444
 30
0.0
 10
185.3571614583333
 20
168.8448187934026
 30
0.0
 10
188.4687717013888
 20
172.2223904079861
 30
0.0
 10
192.9649658203124
 20
177.1034016927083
 30
0.0
 10
193.3136094835069
 20
183.7202243381076
 30
0.0
 10
193.3136094835069
 20
185.6520616319443
 30
0.0
 10
193.3136094835069
 20
185.9247409396701
 30
0.0
 10
193.3070638020833
 20
186.0868326822916
 30
0.0
 10
193.3039632161458
 20
186.1548733181423
 30
0.0
  0
INSERT
  5
9FB
102
{ACAD_REACTORS
330
A1B
102
}
330
9F9
100
AcDbEntity
  8
LAYER_1
 62
     7
100
AcDbBlockReference
  2
AI9-BLK14
 10
159.5625257703993
 20
200.5118781195744
 30
0.0
  0
INSERT
  5
9FC
330
9F9
100
AcDbEntity
  8
LAYER_1
 62
     7
100
AcDbBlockReference
  2
AI9-BLK13
 10
27.69615614149305
 20
179.2145562065971
 30
0.0
 42
0.9200000000000001
  0
INSERT
  5
9FD
102
{ACAD_REACTORS
330
A08
102
}
330
9F9
100
AcDbEntity
  8
LAYER_1
 62
     7
100
AcDbBlockReference
  2
AI9-BLK11
 10
44.76591525607638
 20
179.2145562065971
 30
0.0
 42
0.9200000000000001
  0
INSERT
  5
9FE
102
{ACAD_REACTORS
330
A16
102
}
330
9F9
100
AcDbEntity
  8
LAYER_1
 62
     7
100
AcDbBlockReference
  2
AI9-BLK10
 10
54.04665798611111
 20
179.2145562065971
 30
0.0
 42
0.9200000000000001
  0
INSERT
  5
9FF
102
{ACAD_REACTORS
330
A15
102
}
330
9F9
100
AcDbEntity
  8
LAYER_1
 62
     7
100
AcDbBlockReference
  2
AI9-BLK9
 10
62.79013807508679
 20
179.2145562065971
 30
0.0
 42
0.9
  0
INSERT
  5
A00
330
9F9
100
AcDbEntity
  8
LAYER_1
 62
     7
100
AcDbBlockReference
  2
AI9-BLK8
 10
71.03046196831595
 20
179.2145562065971
 30
0.0
 42
0.9200000000000001
  0
INSERT
  5
A01
330
9F9
100
AcDbEntity
  8
LAYER_1
 62
     7
100
AcDbBlockReference
  2
AI9-BLK7
 10
76.93793945312498
 20
179.2145562065971
 30
0.0
 42
0.9200000000000001
  0
INSERT
  5
A02
102
{ACAD_REACTORS
330
A09
102
}
330
9F9
100
AcDbEntity
  8
LAYER_1
 62
     7
100
AcDbBlockReference
  2
AI9-BLK6
 10
82.55602891710069
 20
179.2145562065971
 30
0.0
 42
0.9
  0
INSERT
  5
A03
102
{ACAD_REACTORS
330
A17
102
}
330
9F9
100
AcDbEntity
  8
LAYER_1
 62
     7
100
AcDbBlockReference
  2
AI9-BLK5
 10
94.32430284288193
 20
179.2145562065971
 30
0.0
 42
0.9200000000000001
  0
INSERT
  5
A04
102
{ACAD_REACTORS
330
A18
102
}
330
9F9
100
AcDbEntity
  8
LAYER_1
 62
     7
100
AcDbBlockReference
  2
AI9-BLK4
 10
103.2081705729166
 20
179.2145562065971
 30
0.0
 42
0.9200000000000001
  0
INSERT
  5
A05
330
9F9
100
AcDbEntity
  8
LAYER_1
 62
     7
100
AcDbBlockReference
  2
AI9-BLK3
 10
108.850978597005
 20
179.2145562065971
 30
0.0
 42
0.9200000000000001
  0
INSERT
  5
A06
330
9F9
100
AcDbEntity
  8
LAYER_1
 62
     7
100
AcDbBlockReference
  2
AI9-BLK2
 10
114.2045708550346
 20
179.2145562065971
 30
0.0
 42
0.9200000000000001
  0
INSERT
  5
A07
330
9F9
100
AcDbEntity
  8
LAYER_1
 62
     7
100
AcDbBlockReference
  2
AI9-BLK1
 10
122.4125108506944
 20
179.2145562065971
 30
0.0
 42
0.9200000000000001
  0
HATCH
  5
A08
330
9F9
100
AcDbEntity
  8
0
  6
Continuous
100
AcDbHatch
 10
0.0
 20
0.0
 30
0.0
210
0.0
220
0.0
230
1.0
  2
SOLID
 70
     1
 71
     1
 91
        2
 92
       16
 93
        1
 72
     4
 94
        3
 73
     0
 74
     0
 95
       26
 96
       22
 40
0.0
 40
0.0
 40
0.0
 40
0.0
 40
1.0
 40
1.0
 40
1.0
 40
2.0
 40
2.0
 40
2.0
 40
3.0
 40
3.0
 40
3.0
 40
4.0
 40
4.0
 40
4.0
 40
5.0
 40
5.0
 40
5.0
 40
6.0
 40
6.0
 40
6.0
 40
7.0
 40
7.0
 40
7.0
 40
7.0
 10
42.12008192274304
 20
180.0462298177082
 10
42.12008192274304
 20
180.0462298177082
 10
42.12008192274304
 20
186.7401881510415
 10
42.12008192274304
 20
186.7401881510415
 10
42.12008192274304
 20
186.7401881510415
 10
45.23100314670138
 20
186.7401881510415
 10
45.23100314670138
 20
186.7401881510415
 10
45.66853027343749
 20
186.7401881510415
 10
46.01579589843749
 20
186.6064357638887
 10
46.27280002170138
 20
186.340198784722
 10
46.76751573350694
 20
185.8330807291665
 10
47.01487358940972
 20
184.8822343749998
 10
47.01487358940972
 20
183.4863919270832
 10
47.01487358940972
 20
182.188169704861
 10
46.83848470052082
 20
181.2905707465276
 10
46.48639594184027
 20
180.7929611545137
 10
46.13430718315971
 20
180.2947176649304
 10
45.65888400607638
 20
180.0462298177082
 10
45.06012641059027
 20
180.0462298177082
 10
45.06012641059027
 20
180.0462298177082
 10
42.12008192274304
 20
180.0462298177082
 10
42.12008192274304
 20
180.0462298177082
 97
        1
330
9FD
 92
        1
 93
        1
 72
     4
 94
        3
 73
     0
 74
     0
 95
       68
 96
       64
 40
0.0
 40
0.0
 40
0.0
 40
0.0
 40
1.0
 40
1.0
 40
1.0
 40
2.0
 40
2.0
 40
2.0
 40
3.0
 40
3.0
 40
3.0
 40
4.0
 40
4.0
 40
4.0
 40
5.0
 40
5.0
 40
5.0
 40
6.0
 40
6.0
 40
6.0
 40
7.0
 40
7.0
 40
7.0
 40
8.0
 40
8.0
 40
8.0
 40
9.0
 40
9.0
 40
9.0
 40
10.0
 40
10.0
 40
10.0
 40
11.0
 40
11.0
 40
11.0
 40
12.0
 40
12.0
 40
12.0
 40
13.0
 40
13.0
 40
13.0
 40
14.0
 40
14.0
 40
14.0
 40
15.0
 40
15.0
 40
15.0
 40
16.0
 40
16.0
 40
16.0
 40
17.0
 40
17.0
 40
17.0
 40
18.0
 40
18.0
 40
18.0
 40
19.0
 40
19.0
 40
19.0
 40
20.0
 40
20.0
 40
20.0
 40
21.0
 40
21.0
 40
21.0
 40
21.0
 10
40.79716525607638
 20
169.3358964843748
 10
40.79716525607638
 20
169.3358964843748
 10
42.12008192274304
 20
169.3358964843748
 10
42.12008192274304
 20
169.3358964843748
 10
42.12008192274304
 20
169.3358964843748
 10
42.12008192274304
 20
177.8149103732637
 10
42.12008192274304
 20
177.8149103732637
 10
42.12008192274304
 20
177.8149103732637
 10
45.00500488281249
 20
177.8149103732637
 10
45.00500488281249
 20
177.8149103732637
 10
45.52590332031249
 20
177.8149103732637
 10
45.90968695746527
 20
177.6938359374998
 10
46.15635579427083
 20
177.4516870659721
 10
46.58216959635415
 20
177.0117621527776
 10
46.80954589843749
 20
176.1458580729165
 10
46.83848470052082
 20
174.8539748263887
 10
46.83848470052082
 20
174.8539748263887
 10
46.92667914496527
 20
171.5564396701387
 10
46.92667914496527
 20
171.5564396701387
 10
46.94597167968749
 20
170.7843524305554
 10
46.96870930989582
 20
170.2639225260415
 10
46.99351399739582
 20
169.9951499565971
 10
47.01831868489582
 20
169.7257434895832
 10
47.0548366970486
 20
169.5057810329859
 10
47.1044460720486
 20
169.3358964843748
 10
47.1044460720486
 20
169.3358964843748
 10
48.73466525607638
 20
169.3358964843748
 10
48.73466525607638
 20
169.3358964843748
 10
48.73466525607638
 20
169.3358964843748
 10
48.73466525607638
 20
169.7821603732637
 10
48.73466525607638
 20
169.7821603732637
 10
48.53278266059027
 20
169.9609194878471
 10
48.39153374565971
 20
170.3628105468748
 10
48.31160753038194
 20
170.9878335503471
 10
48.26062011718749
 20
171.3542263454859
 10
48.22548014322915
 20
171.9120562065971
 10
48.20549858940971
 20
172.6625909288193
 10
48.20549858940971
 20
172.6625909288193
 10
48.16140136718749
 20
175.3205234374999
 10
48.16140136718749
 20
175.3205234374999
 10
48.14141981336804
 20
176.4716814236109
 10
48.0346218532986
 20
177.303355034722
 10
47.84169650607638
 20
177.8142764756943
 10
47.64808213975693
 20
178.3251979166665
 10
47.35800509982638
 20
178.7372313368054
 10
46.97077636718749
 20
179.0516445312498
 10
47.4021023220486
 20
179.5086846788193
 10
47.73765462239582
 20
180.1134229600693
 10
47.97743326822915
 20
180.8664932725693
 10
48.21721191406249
 20
181.6189296874999
 10
48.33779025607638
 20
182.5868912760415
 10
48.33779025607638
 20
183.7697441406248
 10
48.33779025607638
 20
186.0371957465276
 10
47.89061686197915
 20
187.5921464843749
 10
46.99695909288194
 20
188.4345963541665
 10
46.52567003038194
 20
188.8732534722221
 10
45.92966851128472
 20
189.0932159288193
 10
45.20895453559027
 20
189.0932159288193
 10
45.20895453559027
 20
189.0932159288193
 10
40.79716525607638
 20
189.0932159288193
 10
40.79716525607638
 20
189.0932159288193
 10
40.79716525607638
 20
189.0932159288193
 10
40.79716525607638
 20
169.3358964843748
 10
40.79716525607638
 20
169.3358964843748
 97
        0
 75
     0
 76
     1
 98
        0
  0
HATCH
  5
A09
330
9F9
100
AcDbEntity
  8
0
  6
Continuous
100
AcDbHatch
 10
0.0
 20
0.0
 30
0.0
210
0.0
220
0.0
230
1.0
  2
SOLID
 70
     1
 71
     1
 91
        1
 92
        1
 93
        1
 72
     4
 94
        3
 73
     0
 74
     0
 95
       59
 96
       55
 40
0.0
 40
0.0
 40
0.0
 40
0.0
 40
1.0
 40
1.0
 40
1.0
 40
2.0
 40
2.0
 40
2.0
 40
3.0
 40
3.0
 40
3.0
 40
4.0
 40
4.0
 40
4.0
 40
5.0
 40
5.0
 40
5.0
 40
6.0
 40
6.0
 40
6.0
 40
7.0
 40
7.0
 40
7.0
 40
8.0
 40
8.0
 40
8.0
 40
9.0
 40
9.0
 40
9.0
 40
10.0
 40
10.0
 40
10.0
 40
11.0
 40
11.0
 40
11.0
 40
12.0
 40
12.0
 40
12.0
 40
13.0
 40
13.0
 40
13.0
 40
14.0
 40
14.0
 40
14.0
 40
15.0
 40
15.0
 40
15.0
 40
16.0
 40
16.0
 40
16.0
 40
17.0
 40
17.0
 40
17.0
 40
18.0
 40
18.0
 40
18.0
 40
18.0
 10
85.61871880425346
 20
187.4658355034721
 10
86.29120144314235
 20
186.1797124565971
 10
86.66671685112847
 20
184.7193364800346
 10
86.7452650282118
 20
183.084087456597
 10
86.7452650282118
 20
183.084087456597
 10
85.42234836154513
 20
183.084087456597
 10
85.42234836154513
 20
183.084087456597
 10
85.27696533203124
 20
184.3156401909721
 10
84.99171142578125
 20
185.2917046440971
 10
84.56589762369791
 20
186.012280815972
 10
84.14008382161458
 20
186.7322368706596
 10
83.53994818793402
 20
187.0925249565971
 10
82.76617974175346
 20
187.0925249565971
 10
81.81740044487847
 20
187.0925249565971
 10
81.0525892469618
 20
186.4240386284721
 10
80.47243516710068
 20
185.0883062065971
 10
79.89159206814235
 20
183.752573784722
 10
79.6015150282118
 20
181.7049468315971
 10
79.6015150282118
 20
178.9454253472221
 10
79.6015150282118
 20
176.6844780815971
 10
79.86265326605902
 20
174.8514116753471
 10
80.38561876085069
 20
173.4456060112846
 10
80.90789523654512
 20
172.0391802300346
 10
81.69199896918403
 20
171.3365874565971
 10
82.73724093967013
 20
171.3365874565971
 10
83.69497748480902
 20
171.3365874565971
 10
84.42120361328125
 20
172.0794878472221
 10
84.91523030598958
 20
173.5665288628471
 10
85.18601481119791
 20
174.3491167534721
 10
85.38445231119791
 20
175.3785112847221
 10
85.51054280598958
 20
176.6547124565971
 10
85.51054280598958
 20
176.6547124565971
 10
86.83345947265625
 20
176.6547124565971
 10
86.83345947265625
 20
176.6547124565971
 10
86.72597249348958
 20
174.6157671440971
 10
86.35114610460069
 20
172.9061040581596
 10
85.70760226779514
 20
171.526343315972
 10
84.93727891710069
 20
169.8650493706596
 10
83.90375027126735
 20
169.0347124565971
 10
82.60701633029514
 20
169.0347124565971
 10
81.48598225911458
 20
169.0347124565971
 10
80.54547119140625
 20
169.7143608940971
 10
79.78479410807292
 20
171.0742778862846
 10
78.78020426432292
 20
172.8726177300346
 10
78.27859836154513
 20
175.6495024956596
 10
78.27859836154513
 20
179.4049321831596
 10
78.27859836154513
 20
182.2562310112846
 10
78.65342475043402
 20
184.5946929253471
 10
79.40445556640624
 20
186.4196978081596
 10
80.22301025390625
 20
188.4028325737846
 10
81.34955647786458
 20
189.3943999565971
 10
82.78271620008679
 20
189.3943999565971
 10
84.00090196397568
 20
189.3943999565971
 10
84.94623616536458
 20
188.7513384331596
 10
85.61871880425346
 20
187.4658355034721
 97
        1
330
A02
 75
     0
 76
     1
 98
        1
 10
0.0
 20
0.0
  0
LINE
  5
A0A
102
{ACAD_REACTORS
330
A19
102
}
330
9F9
100
AcDbEntity
  8
LAYER_1
 62
     7
100
AcDbLine
 10
34.65766059027778
 20
177.4497853732638
 30
0.0
 11
36.19830729166666
 21
186.1658769531249
 31
0.0
  0
LINE
  5
A0B
102
{ACAD_REACTORS
330
A19
102
}
330
9F9
100
AcDbEntity
  8
LAYER_1
 62
     7
100
AcDbLine
 10
36.19830729166666
 20
186.1658769531249
 30
0.0
 11
37.67556423611111
 21
177.4497853732638
 31
0.0
  0
LINE
  5
A0C
102
{ACAD_REACTORS
330
A19
102
}
330
9F9
100
AcDbEntity
  8
LAYER_1
 62
     7
100
AcDbLine
 10
37.67556423611111
 20
177.4497853732638
 30
0.0
 11
34.65766059027778
 21
177.4497853732638
 31
0.0
  0
LINE
  5
A0D
102
{ACAD_REACTORS
330
A19
102
}
330
9F9
100
AcDbEntity
  8
LAYER_1
 62
     7
100
AcDbLine
 10
31.83957248263888
 20
169.3358964843748
 30
0.0
 11
33.22450086805555
 21
169.3358964843748
 31
0.0
  0
LINE
  5
A0E
102
{ACAD_REACTORS
330
A19
102
}
330
9F9
100
AcDbEntity
  8
LAYER_1
 62
     7
100
AcDbLine
 10
33.22450086805555
 20
169.3358964843748
 30
0.0
 11
34.27043185763887
 21
175.2590353732638
 31
0.0
  0
LINE
  5
A0F
102
{ACAD_REACTORS
330
A19
102
}
330
9F9
100
AcDbEntity
  8
LAYER_1
 62
     7
100
AcDbLine
 10
34.27043185763887
 20
175.2590353732638
 30
0.0
 11
38.04694552951389
 21
175.2590353732638
 31
0.0
  0
LINE
  5
A10
102
{ACAD_REACTORS
330
A19
102
}
330
9F9
100
AcDbEntity
  8
LAYER_1
 62
     7
100
AcDbLine
 10
38.04694552951389
 20
175.2590353732638
 30
0.0
 11
39.05015733506942
 21
169.3358964843748
 31
0.0
  0
LINE
  5
A11
102
{ACAD_REACTORS
330
A19
102
}
330
9F9
100
AcDbEntity
  8
LAYER_1
 62
     7
100
AcDbLine
 10
39.05015733506942
 20
169.3358964843748
 30
0.0
 11
40.43508572048611
 21
169.3358964843748
 31
0.0
  0
LINE
  5
A12
102
{ACAD_REACTORS
330
A19
102
}
330
9F9
100
AcDbEntity
  8
LAYER_1
 62
     7
100
AcDbLine
 10
40.43508572048611
 20
169.3358964843748
 30
0.0
 11
36.952783203125
 21
189.0932159288193
 31
0.0
  0
LINE
  5
A13
102
{ACAD_REACTORS
330
A19
102
}
330
9F9
100
AcDbEntity
  8
LAYER_1
 62
     7
100
AcDbLine
 10
36.952783203125
 20
189.0932159288193
 30
0.0
 11
35.47828233506943
 21
189.0932159288193
 31
0.0
  0
LINE
  5
A14
102
{ACAD_REACTORS
330
A19
102
}
330
9F9
100
AcDbEntity
  8
LAYER_1
 62
     7
100
AcDbLine
 10
35.47828233506943
 20
189.0932159288193
 30
0.0
 11
31.83957248263888
 21
169.3358964843748
 31
0.0
  0
HATCH
  5
A15
330
9F9
100
AcDbEntity
  8
0
  6
Continuous
100
AcDbHatch
 10
0.0
 20
0.0
 30
0.0
210
0.0
220
0.0
230
1.0
  2
SOLID
 70
     1
 71
     1
 91
        2
 92
       16
 93
        1
 72
     4
 94
        3
 73
     0
 74
     0
 95
       29
 96
       25
 40
0.0
 40
0.0
 40
0.0
 40
0.0
 40
1.0
 40
1.0
 40
1.0
 40
2.0
 40
2.0
 40
2.0
 40
3.0
 40
3.0
 40
3.0
 40
4.0
 40
4.0
 40
4.0
 40
5.0
 40
5.0
 40
5.0
 40
6.0
 40
6.0
 40
6.0
 40
7.0
 40
7.0
 40
7.0
 40
8.0
 40
8.0
 40
8.0
 40
8.0
 10
62.85697292751734
 20
171.3365874565971
 10
61.88338894314235
 20
171.3365874565971
 10
61.18058946397567
 20
172.0714263237845
 10
60.74857449001734
 20
173.5411040581596
 10
60.31587049696178
 20
175.0107817925345
 10
60.10020751953123
 20
176.8165630425345
 10
60.10020751953123
 20
178.9578276909721
 10
60.10020751953123
 20
181.6342534722221
 10
60.35101047092013
 20
183.6589360894096
 10
60.85261637369789
 20
185.0324956597221
 10
61.35422227647567
 20
186.4054351128471
 10
62.00741238064234
 20
187.0925249565971
 10
62.81218668619789
 20
187.0925249565971
 10
63.6369425455729
 20
187.0925249565971
 10
64.28806559244789
 20
186.3992339409721
 10
64.76486680772568
 20
185.0126519097221
 10
65.24166802300346
 20
183.626069878472
 10
65.48006863064234
 20
181.7961040581596
 10
65.48006863064234
 20
179.5239946831596
 10
65.48006863064234
 20
177.3734282769096
 10
65.27336290147568
 20
175.4715288628471
 10
64.86132948133678
 20
173.8176763237846
 10
64.4492960611979
 20
172.1632036675346
 10
63.78094753689234
 20
171.3365874565971
 10
62.85697292751734
 20
171.3365874565971
 97
        1
330
9FF
 92
        1
 93
        1
 72
     4
 94
        3
 73
     0
 74
     0
 95
       29
 96
       25
 40
0.0
 40
0.0
 40
0.0
 40
0.0
 40
1.0
 40
1.0
 40
1.0
 40
2.0
 40
2.0
 40
2.0
 40
3.0
 40
3.0
 40
3.0
 40
4.0
 40
4.0
 40
4.0
 40
5.0
 40
5.0
 40
5.0
 40
6.0
 40
6.0
 40
6.0
 40
7.0
 40
7.0
 40
7.0
 40
8.0
 40
8.0
 40
8.0
 40
8.0
 10
62.76119927300346
 20
189.4340874565971
 10
61.47273356119789
 20
189.4340874565971
 10
60.50121663411457
 20
188.2397417534721
 10
59.84733751085068
 20
185.8516704644095
 10
59.3395304361979
 20
183.9900786675346
 10
59.08597140842012
 20
181.7514556206596
 10
59.08597140842012
 20
179.1351812065971
 10
59.08597140842012
 20
176.2379937065971
 10
59.38362765842012
 20
173.8412407769096
 10
59.97894015842012
 20
171.9449224175346
 10
60.64246554904512
 20
169.9779106987846
 10
61.56023898654512
 20
168.9950249565971
 10
62.7315714518229
 20
168.9950249565971
 10
63.9904093424479
 20
168.9950249565971
 10
64.95641411675345
 20
170.1186773003471
 10
65.63027479383679
 20
172.3659819878471
 10
66.20629475911457
 20
174.2796636284721
 10
66.49430474175345
 20
176.6813774956595
 10
66.49430474175345
 20
179.5698833550346
 10
66.49430474175345
 20
182.2388677300345
 10
66.24005669487845
 20
184.4291216362845
 10
65.73293863932289
 20
186.1412651909721
 10
65.08870578342012
 20
188.3364800347221
 10
64.09789632161457
 20
189.4340874565971
 10
62.76119927300346
 20
189.4340874565971
 97
        0
 75
     0
 76
     1
 98
        0
  0
HATCH
  5
A16
330
9F9
100
AcDbEntity
  8
0
  6
Continuous
100
AcDbHatch
 10
0.0
 20
0.0
 30
0.0
210
0.0
220
0.0
230
1.0
  2
SOLID
 70
     1
 71
     1
 91
        1
 92
        1
 93
        1
 72
     4
 94
        3
 73
     0
 74
     0
 95
       59
 96
       55
 40
0.0
 40
0.0
 40
0.0
 40
0.0
 40
1.0
 40
1.0
 40
1.0
 40
2.0
 40
2.0
 40
2.0
 40
3.0
 40
3.0
 40
3.0
 40
4.0
 40
4.0
 40
4.0
 40
5.0
 40
5.0
 40
5.0
 40
6.0
 40
6.0
 40
6.0
 40
7.0
 40
7.0
 40
7.0
 40
8.0
 40
8.0
 40
8.0
 40
9.0
 40
9.0
 40
9.0
 40
10.0
 40
10.0
 40
10.0
 40
11.0
 40
11.0
 40
11.0
 40
12.0
 40
12.0
 40
12.0
 40
13.0
 40
13.0
 40
13.0
 40
14.0
 40
14.0
 40
14.0
 40
15.0
 40
15.0
 40
15.0
 40
16.0
 40
16.0
 40
16.0
 40
17.0
 40
17.0
 40
17.0
 40
18.0
 40
18.0
 40
18.0
 40
18.0
 10
49.39440104166666
 20
189.0932159288193
 10
49.39440104166666
 20
189.0932159288193
 10
51.24786241319444
 20
189.0932159288193
 10
51.24786241319444
 20
189.0932159288193
 10
51.24786241319444
 20
189.0932159288193
 10
54.04665798611111
 20
172.3887471788193
 10
54.04665798611111
 20
172.3887471788193
 10
54.04665798611111
 20
172.3887471788193
 10
56.83994140624999
 20
189.0932159288193
 10
56.83994140624999
 20
189.0932159288193
 10
56.83994140624999
 20
189.0932159288193
 10
58.69891493055555
 20
189.0932159288193
 10
58.69891493055555
 20
189.0932159288193
 10
58.69891493055555
 20
189.0932159288193
 10
58.69891493055555
 20
169.3358964843748
 10
58.69891493055555
 20
169.3358964843748
 10
58.69891493055555
 20
169.3358964843748
 10
57.46419270833333
 20
169.3358964843748
 10
57.46419270833333
 20
169.3358964843748
 10
57.46419270833333
 20
169.3358964843748
 10
57.46419270833333
 20
180.9964422743054
 10
57.46419270833333
 20
180.9964422743054
 10
57.46419270833333
 20
181.3996011284721
 10
57.47108289930555
 20
182.0677291666665
 10
57.48624131944444
 20
183.0001924913193
 10
57.5007107204861
 20
183.9326558159721
 10
57.50828993055555
 20
184.932312282986
 10
57.50828993055555
 20
185.9997957899304
 10
57.50828993055555
 20
185.9997957899304
 10
54.700537109375
 20
169.3358964843748
 10
54.700537109375
 20
169.3358964843748
 10
54.700537109375
 20
169.3358964843748
 10
53.38382161458333
 20
169.3358964843748
 10
53.38382161458333
 20
169.3358964843748
 10
53.38382161458333
 20
169.3358964843748
 10
50.58502604166666
 20
185.9997957899304
 10
50.58502604166666
 20
185.9997957899304
 10
50.58502604166666
 20
185.9997957899304
 10
50.58502604166666
 20
185.3944236111109
 10
50.58502604166666
 20
185.3944236111109
 10
50.58502604166666
 20
184.9101258680554
 10
50.59191623263888
 20
184.1729029947915
 10
50.60707465277777
 20
183.1821210937498
 10
50.62154405381944
 20
182.1913391927082
 10
50.62912326388889
 20
181.4629908854165
 10
50.62912326388889
 20
180.9964422743054
 10
50.62912326388889
 20
180.9964422743054
 10
50.62912326388889
 20
169.3358964843748
 10
50.62912326388889
 20
169.3358964843748
 10
50.62912326388889
 20
169.3358964843748
 10
49.39440104166666
 20
169.3358964843748
 10
49.39440104166666
 20
169.3358964843748
 10
49.39440104166666
 20
169.3358964843748
 10
49.39440104166666
 20
189.0932159288193
 10
49.39440104166666
 20
189.0932159288193
 97
        1
330
9FE
 75
     0
 76
     1
 98
        1
 10
0.0
 20
0.0
  0
HATCH
  5
A17
330
9F9
100
AcDbEntity
  8
0
  6
Continuous
100
AcDbHatch
 10
0.0
 20
0.0
 30
0.0
210
0.0
220
0.0
230
1.0
  2
SOLID
 70
     1
 71
     1
 91
        2
 92
       16
 93
        1
 72
     4
 94
        3
 73
     0
 74
     0
 95
       32
 96
       28
 40
0.0
 40
0.0
 40
0.0
 40
0.0
 40
1.0
 40
1.0
 40
1.0
 40
2.0
 40
2.0
 40
2.0
 40
3.0
 40
3.0
 40
3.0
 40
4.0
 40
4.0
 40
4.0
 40
5.0
 40
5.0
 40
5.0
 40
6.0
 40
6.0
 40
6.0
 40
7.0
 40
7.0
 40
7.0
 40
8.0
 40
8.0
 40
8.0
 40
9.0
 40
9.0
 40
9.0
 40
9.0
 10
91.7005181206597
 20
171.6077853732637
 10
91.7005181206597
 20
171.6077853732637
 10
91.7005181206597
 20
186.7401881510415
 10
91.7005181206597
 20
186.7401881510415
 10
91.7005181206597
 20
186.7401881510415
 10
93.98668348524305
 20
186.7401881510415
 10
93.98668348524305
 20
186.7401881510415
 10
95.02159016927082
 20
186.7401881510415
 10
95.77331000434027
 20
186.0644533420137
 10
96.24322102864582
 20
184.714251519097
 10
96.71313205295138
 20
183.3640496961804
 10
96.94808756510417
 20
181.4680620659721
 10
96.94808756510417
 20
179.0262886284721
 10
96.94808756510417
 20
178.3911232638887
 10
96.91432562934027
 20
177.7027105034721
 10
96.84749077690971
 20
176.9604164496526
 10
96.73242458767361
 20
175.7167094184026
 10
96.55052354600693
 20
174.6974021267359
 10
96.30109863281248
 20
173.9018606770832
 10
95.98414984809027
 20
172.9091770833332
 10
95.57693956163193
 20
172.2378795572915
 10
95.07877875434026
 20
171.8892358940971
 10
94.79076877170138
 20
171.7016022135415
 10
94.43178982204861
 20
171.6077853732637
 10
94.00115288628471
 20
171.6077853732637
 10
94.00115288628471
 20
171.6077853732637
 10
91.7005181206597
 20
171.6077853732637
 10
91.7005181206597
 20
171.6077853732637
 97
        1
330
A03
 92
        1
 93
        1
 72
     4
 94
        3
 73
     0
 74
     0
 95
       26
 96
       22
 40
0.0
 40
0.0
 40
0.0
 40
0.0
 40
1.0
 40
1.0
 40
1.0
 40
2.0
 40
2.0
 40
2.0
 40
3.0
 40
3.0
 40
3.0
 40
4.0
 40
4.0
 40
4.0
 40
5.0
 40
5.0
 40
5.0
 40
6.0
 40
6.0
 40
6.0
 40
7.0
 40
7.0
 40
7.0
 40
7.0
 10
90.37760145399305
 20
169.3358964843748
 10
90.37760145399305
 20
169.3358964843748
 10
94.22990722656249
 20
169.3358964843748
 10
94.22990722656249
 20
169.3358964843748
 10
95.87115071614581
 20
169.3358964843748
 10
97.03008083767359
 20
170.8331625434026
 10
97.70600857204861
 20
173.8283285590276
 10
98.08221299913194
 20
175.5227367621526
 10
98.27100423177082
 20
177.4187243923609
 10
98.27100423177082
 20
179.5169253472221
 10
98.27100423177082
 20
182.233810329861
 10
97.94716525607638
 20
184.4619602864582
 10
97.30086534288194
 20
186.2013752170137
 10
96.57601725260416
 20
188.1290577256943
 10
95.5576470269097
 20
189.0932159288193
 10
94.24437662760416
 20
189.0932159288193
 10
94.24437662760416
 20
189.0932159288193
 10
90.37760145399305
 20
189.0932159288193
 10
90.37760145399305
 20
189.0932159288193
 10
90.37760145399305
 20
189.0932159288193
 10
90.37760145399305
 20
169.3358964843748
 10
90.37760145399305
 20
169.3358964843748
 97
        0
 75
     0
 76
     1
 98
        0
  0
HATCH
  5
A18
330
9F9
100
AcDbEntity
  8
0
  6
Continuous
100
AcDbHatch
 10
0.0
 20
0.0
 30
0.0
210
0.0
220
0.0
230
1.0
  2
SOLID
 70
     1
 71
     1
 91
        2
 92
       16
 93
        1
 72
     4
 94
        3
 73
     0
 74
     0
 95
       26
 96
       22
 40
0.0
 40
0.0
 40
0.0
 40
0.0
 40
1.0
 40
1.0
 40
1.0
 40
2.0
 40
2.0
 40
2.0
 40
3.0
 40
3.0
 40
3.0
 40
4.0
 40
4.0
 40
4.0
 40
5.0
 40
5.0
 40
5.0
 40
6.0
 40
6.0
 40
6.0
 40
7.0
 40
7.0
 40
7.0
 40
7.0
 10
100.5623372395832
 20
180.0462298177082
 10
100.5623372395832
 20
180.0462298177082
 10
100.5623372395832
 20
186.7401881510415
 10
100.5623372395832
 20
186.7401881510415
 10
100.5623372395832
 20
186.7401881510415
 10
103.6732584635416
 20
186.7401881510415
 10
103.6732584635416
 20
186.7401881510415
 10
104.1107855902777
 20
186.7401881510415
 10
104.4580512152777
 20
186.6064357638887
 10
104.7150553385415
 20
186.340198784722
 10
105.2097710503471
 20
185.8330807291665
 10
105.4571289062499
 20
184.8822343749998
 10
105.4571289062499
 20
183.4863919270832
 10
105.4571289062499
 20
182.188169704861
 10
105.280740017361
 20
181.2905707465276
 10
104.9286512586804
 20
180.7929611545137
 10
104.5765624999999
 20
180.2947176649304
 10
104.1011393229166
 20
180.0462298177082
 10
103.5023817274304
 20
180.0462298177082
 10
103.5023817274304
 20
180.0462298177082
 10
100.5623372395832
 20
180.0462298177082
 10
100.5623372395832
 20
180.0462298177082
 97
        1
330
A04
 92
        1
 93
        1
 72
     4
 94
        3
 73
     0
 74
     0
 95
       68
 96
       64
 40
0.0
 40
0.0
 40
0.0
 40
0.0
 40
1.0
 40
1.0
 40
1.0
 40
2.0
 40
2.0
 40
2.0
 40
3.0
 40
3.0
 40
3.0
 40
4.0
 40
4.0
 40
4.0
 40
5.0
 40
5.0
 40
5.0
 40
6.0
 40
6.0
 40
6.0
 40
7.0
 40
7.0
 40
7.0
 40
8.0
 40
8.0
 40
8.0
 40
9.0
 40
9.0
 40
9.0
 40
10.0
 40
10.0
 40
10.0
 40
11.0
 40
11.0
 40
11.0
 40
12.0
 40
12.0
 40
12.0
 40
13.0
 40
13.0
 40
13.0
 40
14.0
 40
14.0
 40
14.0
 40
15.0
 40
15.0
 40
15.0
 40
16.0
 40
16.0
 40
16.0
 40
17.0
 40
17.0
 40
17.0
 40
18.0
 40
18.0
 40
18.0
 40
19.0
 40
19.0
 40
19.0
 40
20.0
 40
20.0
 40
20.0
 40
21.0
 40
21.0
 40
21.0
 40
21.0
 10
99.23942057291661
 20
169.3358964843748
 10
99.23942057291661
 20
169.3358964843748
 10
100.5623372395832
 20
169.3358964843748
 10
100.5623372395832
 20
169.3358964843748
 10
100.5623372395832
 20
169.3358964843748
 10
100.5623372395832
 20
177.8149103732637
 10
100.5623372395832
 20
177.8149103732637
 10
100.5623372395832
 20
177.8149103732637
 10
103.4472601996527
 20
177.8149103732637
 10
103.4472601996527
 20
177.8149103732637
 10
103.9681586371527
 20
177.8149103732637
 10
104.3519422743054
 20
177.6938359374998
 10
104.598611111111
 20
177.4516870659721
 10
105.0244249131943
 20
177.0117621527776
 10
105.2518012152777
 20
176.1458580729165
 10
105.280740017361
 20
174.8539748263887
 10
105.280740017361
 20
174.8539748263887
 10
105.3689344618054
 20
171.5564396701387
 10
105.3689344618054
 20
171.5564396701387
 10
105.3882269965277
 20
170.7843524305554
 10
105.410964626736
 20
170.2639225260415
 10
105.435769314236
 20
169.9951499565971
 10
105.460574001736
 20
169.7257434895832
 10
105.4970920138888
 20
169.5057810329859
 10
105.5467013888888
 20
169.3358964843748
 10
105.5467013888888
 20
169.3358964843748
 10
107.1769205729166
 20
169.3358964843748
 10
107.1769205729166
 20
169.3358964843748
 10
107.1769205729166
 20
169.3358964843748
 10
107.1769205729166
 20
169.7821603732637
 10
107.1769205729166
 20
169.7821603732637
 10
106.9750379774304
 20
169.9609194878471
 10
106.8337890624999
 20
170.3628105468748
 10
106.7538628472221
 20
170.9878335503471
 10
106.7028754340276
 20
171.3542263454859
 10
106.6677354600693
 20
171.9120562065971
 10
106.6477539062499
 20
172.6625909288193
 10
106.6477539062499
 20
172.6625909288193
 10
106.6036566840277
 20
175.3205234374999
 10
106.6036566840277
 20
175.3205234374999
 10
106.5836751302082
 20
176.4716814236109
 10
106.4768771701388
 20
177.303355034722
 10
106.2839518229166
 20
177.8142764756943
 10
106.0903374565971
 20
178.3251979166665
 10
105.8002604166666
 20
178.7372313368054
 10
105.4130316840276
 20
179.0516445312498
 10
105.8443576388888
 20
179.5086846788193
 10
106.179909939236
 20
180.1134229600693
 10
106.4196885850693
 20
180.8664932725693
 10
106.6594672309027
 20
181.6189296874999
 10
106.7800455729166
 20
182.5868912760415
 10
106.7800455729166
 20
183.7697441406248
 10
106.7800455729166
 20
186.0371957465276
 10
106.3328721788193
 20
187.5921464843749
 10
105.4392144097221
 20
188.4345963541665
 10
104.9679253472221
 20
188.8732534722221
 10
104.3719238281249
 20
189.0932159288193
 10
103.6512098524304
 20
189.0932159288193
 10
103.6512098524304
 20
189.0932159288193
 10
99.23942057291661
 20
189.0932159288193
 10
99.23942057291661
 20
189.0932159288193
 10
99.23942057291661
 20
189.0932159288193
 10
99.23942057291661
 20
169.3358964843748
 10
99.23942057291661
 20
169.3358964843748
 97
        0
 75
     0
 76
     1
 98
        0
  0
HATCH
  5
A19
330
9F9
100
AcDbEntity
  8
0
  6
Continuous
100
AcDbHatch
 10
0.0
 20
0.0
 30
0.0
210
0.0
220
0.0
230
1.0
  2
SOLID
 70
     1
 71
     1
 91
        2
 92
        1
 93
        8
 72
     1
 10
35.47828233506943
 20
189.0932159288193
 11
31.83957248263888
 21
169.3358964843748
 72
     1
 10
31.83957248263888
 20
169.3358964843748
 11
33.22450086805555
 21
169.3358964843748
 72
     1
 10
33.22450086805555
 20
169.3358964843748
 11
34.27043185763887
 21
175.2590353732638
 72
     1
 10
34.27043185763887
 20
175.2590353732638
 11
38.04694552951389
 21
175.2590353732638
 72
     1
 10
38.04694552951389
 20
175.2590353732638
 11
39.05015733506942
 21
169.3358964843748
 72
     1
 10
39.05015733506942
 20
169.3358964843748
 11
40.43508572048611
 21
169.3358964843748
 72
     1
 10
40.43508572048611
 20
169.3358964843748
 11
36.952783203125
 21
189.0932159288193
 72
     1
 10
36.952783203125
 20
189.0932159288193
 11
35.47828233506943
 21
189.0932159288193
 97
        8
330
A14
330
A0D
330
A0E
330
A0F
330
A10
330
A11
330
A12
330
A13
 92
       16
 93
        3
 72
     1
 10
37.67556423611111
 20
177.4497853732638
 11
34.65766059027778
 21
177.4497853732638
 72
     1
 10
34.65766059027778
 20
177.4497853732638
 11
36.19830729166666
 21
186.1658769531249
 72
     1
 10
36.19830729166666
 20
186.1658769531249
 11
37.67556423611111
 21
177.4497853732638
 97
        3
330
A0C
330
A0A
330
A0B
 75
     0
 76
     1
 98
        1
 10
0.0
 20
0.0
  0
HATCH
  5
A1A
330
9F9
100
AcDbEntity
  8
0
  6
Continuous
100
AcDbHatch
 10
0.0
 20
0.0
 30
0.0
210
0.0
220
0.0
230
1.0
  2
SOLID
 70
     1
 71
     1
 91
        1
 92
        1
 93
        1
 72
     4
 94
        3
 73
     0
 74
     0
 95
      113
 96
      109
 40
0.0
 40
0.0
 40
0.0
 40
0.0
 40
1.0
 40
1.0
 40
1.0
 40
2.0
 40
2.0
 40
2.0
 40
3.0
 40
3.0
 40
3.0
 40
4.0
 40
4.0
 40
4.0
 40
5.0
 40
5.0
 40
5.0
 40
6.0
 40
6.0
 40
6.0
 40
7.0
 40
7.0
 40
7.0
 40
8.0
 40
8.0
 40
8.0
 40
9.0
 40
9.0
 40
9.0
 40
10.0
 40
10.0
 40
10.0
 40
11.0
 40
11.0
 40
11.0
 40
12.0
 40
12.0
 40
12.0
 40
13.0
 40
13.0
 40
13.0
 40
14.0
 40
14.0
 40
14.0
 40
15.0
 40
15.0
 40
15.0
 40
16.0
 40
16.0
 40
16.0
 40
17.0
 40
17.0
 40
17.0
 40
18.0
 40
18.0
 40
18.0
 40
19.0
 40
19.0
 40
19.0
 40
20.0
 40
20.0
 40
20.0
 40
21.0
 40
21.0
 40
21.0
 40
22.0
 40
22.0
 40
22.0
 40
23.0
 40
23.0
 40
23.0
 40
24.0
 40
24.0
 40
24.0
 40
25.0
 40
25.0
 40
25.0
 40
26.0
 40
26.0
 40
26.0
 40
27.0
 40
27.0
 40
27.0
 40
28.0
 40
28.0
 40
28.0
 40
29.0
 40
29.0
 40
29.0
 40
30.0
 40
30.0
 40
30.0
 40
31.0
 40
31.0
 40
31.0
 40
32.0
 40
32.0
 40
32.0
 40
33.0
 40
33.0
 40
33.0
 40
34.0
 40
34.0
 40
34.0
 40
35.0
 40
35.0
 40
35.0
 40
36.0
 40
36.0
 40
36.0
 40
36.0
 10
193.3039632161458
 20
186.1548733181423
 10
193.3039632161458
 20
186.1860514322916
 10
193.3039632161458
 20
219.6932223849826
 10
193.3039632161458
 20
219.6932223849826
 10
193.3039632161458
 20
219.6932223849826
 10
193.2974175347219
 20
219.7488606770833
 10
193.2974175347219
 20
219.7488606770833
 10
191.5293945312499
 20
235.455740017361
 10
175.1458984374999
 20
235.2467949761284
 10
174.9808783637151
 20
235.2428331163193
 10
174.9808783637151
 20
235.2428331163193
 10
125.8827555338541
 20
235.2430053710937
 10
125.8827555338541
 20
235.2430053710937
 10
125.8827555338541
 20
235.2430053710937
 10
125.8827555338541
 20
255.5278998480901
 10
125.8827555338541
 20
255.5278998480901
 10
125.8827555338541
 20
255.5278998480901
 10
84.5626247829861
 20
255.5278998480901
 10
84.5626247829861
 20
255.5278998480901
 10
84.5626247829861
 20
255.5278998480901
 10
84.55711263020829
 20
233.7919311523436
 10
84.55711263020829
 20
233.7919311523436
 10
84.55711263020829
 20
233.7919311523436
 10
64.42052951388888
 20
233.7919311523436
 10
64.42052951388888
 20
233.7919311523436
 10
64.42052951388888
 20
233.7919311523436
 10
64.41501736111111
 20
255.5278998480901
 10
64.41501736111111
 20
255.5278998480901
 10
64.41501736111111
 20
255.5278998480901
 10
23.91757541232637
 20
255.5278998480901
 10
23.91757541232637
 20
255.5278998480901
 10
23.91757541232637
 20
255.5278998480901
 10
23.91757541232637
 20
233.2393378363715
 10
23.91757541232637
 20
233.2393378363715
 10
23.91757541232637
 20
233.2393378363715
 10
43.65624999999999
 20
233.2393378363715
 10
43.65624999999999
 20
233.2393378363715
 10
43.65624999999999
 20
233.2393378363715
 10
43.65624999999999
 20
211.5188720703125
 10
43.65624999999999
 20
211.5188720703125
 10
43.65624999999999
 20
211.5188720703125
 10
23.91757541232637
 20
211.5188720703125
 10
23.91757541232637
 20
211.5188720703125
 10
23.91757541232637
 20
211.5188720703125
 10
23.91757541232637
 20
189.2303100585936
 10
23.91757541232637
 20
189.2303100585936
 10
23.91757541232637
 20
189.2303100585936
 10
64.41501736111111
 20
189.2303100585936
 10
64.41501736111111
 20
189.2303100585936
 10
64.41501736111111
 20
189.2303100585936
 10
64.42052951388888
 20
211.069976128472
 10
64.42052951388888
 20
211.069976128472
 10
64.42052951388888
 20
211.069976128472
 10
84.55711263020829
 20
211.069976128472
 10
84.55711263020829
 20
211.069976128472
 10
84.55711263020829
 20
211.069976128472
 10
84.5626247829861
 20
189.2303100585936
 10
84.5626247829861
 20
189.2303100585936
 10
84.5626247829861
 20
189.2303100585936
 10
125.8827555338541
 20
189.2303100585936
 10
125.8827555338541
 20
189.2303100585936
 10
125.8827555338541
 20
189.2303100585936
 10
125.8827555338541
 20
211.5188720703125
 10
125.8827555338541
 20
211.5188720703125
 10
125.8827555338541
 20
211.5188720703125
 10
105.3213921440971
 20
211.5188720703125
 10
105.3213921440971
 20
211.5188720703125
 10
105.3213921440971
 20
211.5188720703125
 10
105.3213921440971
 20
233.2393378363715
 10
105.3213921440971
 20
233.2393378363715
 10
105.3213921440971
 20
233.2393378363715
 10
175.0046495225693
 20
233.243127441406
 10
175.0046495225693
 20
233.243127441406
 10
175.6268337673611
 20
233.2560465494791
 10
189.7165852864583
 20
233.3962619357638
 10
191.3037407769094
 20
219.5690266927083
 10
191.3037407769094
 20
219.4332899305555
 10
191.3037407769094
 20
186.1142211914062
 10
191.3037407769094
 20
186.1142211914062
 10
191.3037407769094
 20
186.1142211914062
 10
191.3051188151039
 20
186.0880384657115
 10
191.3051188151039
 20
186.0880384657115
 10
191.3054633246526
 20
186.0787367078991
 10
191.3109754774304
 20
185.9566080729166
 10
191.3109754774304
 20
185.7399115668401
 10
191.3109754774304
 20
184.2090833875865
 10
191.0488037109374
 20
177.9643310546874
 10
186.9866916232638
 20
173.5652886284722
 10
184.2540418836804
 20
170.6064683702255
 10
180.3224989149304
 20
169.0308539496526
 10
175.300927734375
 20
168.8825425889756
 10
175.300927734375
 20
168.8825425889756
 10
107.0094889322916
 20
168.8828870985243
 10
107.0094889322916
 20
168.8828870985243
 10
107.0094889322916
 20
168.8828870985243
 10
107.0094889322916
 20
166.8830091688368
 10
107.0094889322916
 20
166.8830091688368
 10
107.0094889322916
 20
166.8830091688368
 10
175.3305555555555
 20
166.8830091688368
 10
175.3305555555555
 20
166.8830091688368
 10
180.9467502170138
 20
167.0485460069444
 10
185.3571614583333
 20
168.8448187934026
 10
188.4687717013888
 20
172.2223904079861
 10
192.9649658203124
 20
177.1034016927083
 10
193.3136094835069
 20
183.7202243381076
 10
193.3136094835069
 20
185.6520616319443
 10
193.3136094835069
 20
185.9247409396701
 10
193.3070638020833
 20
186.0868326822916
 10
193.3039632161458
 20
186.1548733181423
 97
        1
330
9FA
 75
     0
 76
     1
 98
        1
 10
0.0
 20
0.0
  0
HATCH
  5
A1B
330
9F9
100
AcDbEntity
  8
0
  6
Continuous
100
AcDbHatch
 10
0.0
 20
0.0
 30
0.0
210
0.0
220
0.0
230
1.0
  2
SOLID
 70
     1
 71
     1
 91
        2
 92
        1
 93
        1
 72
     4
 94
        3
 73
     0
 74
     0
 95
       23
 96
       19
 40
0.0
 40
0.0
 40
0.0
 40
0.0
 40
1.0
 40
1.0
 40
1.0
 40
2.0
 40
2.0
 40
2.0
 40
3.0
 40
3.0
 40
3.0
 40
4.0
 40
4.0
 40
4.0
 40
5.0
 40
5.0
 40
5.0
 40
6.0
 40
6.0
 40
6.0
 40
6.0
 10
148.6593153211805
 20
211.3929538302948
 10
148.6593153211805
 20
211.3929538302948
 10
148.6593153211805
 20
189.6308024088539
 10
148.6593153211805
 20
189.6308024088539
 10
148.6593153211805
 20
189.6308024088539
 10
161.3152180989583
 20
189.6308024088539
 10
161.3152180989583
 20
189.6308024088539
 10
162.8431179470485
 20
189.6308024088539
 10
170.465736219618
 20
190.1880466037323
 10
170.465736219618
 20
201.1911648220483
 10
170.465736219618
 20
211.1288872612844
 10
162.3356553819444
 20
211.3914035373261
 10
162.2536621093749
 20
211.3927815755205
 10
162.2536621093749
 20
211.3927815755205
 10
149.6594265407986
 20
211.3929538302948
 10
149.6594265407986
 20
211.3929538302948
 10
149.6594265407986
 20
211.3929538302948
 10
148.6593153211805
 20
211.3929538302948
 10
148.6593153211805
 20
211.3929538302948
 97
        1
330
9FB
 92
       16
 93
        1
 72
     4
 94
        3
 73
     0
 74
     0
 95
       20
 96
       16
 40
0.0
 40
0.0
 40
0.0
 40
0.0
 40
1.0
 40
1.0
 40
1.0
 40
2.0
 40
2.0
 40
2.0
 40
3.0
 40
3.0
 40
3.0
 40
4.0
 40
4.0
 40
4.0
 40
5.0
 40
5.0
 40
5.0
 40
5.0
 10
162.2354031032986
 20
209.3930759006073
 10
162.4679470486111
 20
209.3861857096351
 10
168.4655137803819
 20
209.1283203124997
 10
168.4655137803819
 20
201.1911648220483
 10
168.4655137803819
 20
192.3202162000865
 10
162.9926350911458
 20
191.6306803385413
 10
161.3152180989583
 20
191.6306803385413
 10
161.3152180989583
 20
191.6306803385413
 10
152.3310980902777
 20
191.6306803385413
 10
150.6595377604166
 20
191.6306803385413
 10
150.6595377604166
 20
193.3373806423608
 10
150.6595377604166
 20
207.6863755967879
 10
150.6595377604166
 20
209.3930759006073
 10
152.3538357204861
 20
209.3930759006073
 10
162.2354031032986
 20
209.3930759006073
 10
162.2354031032986
 20
209.3930759006073
 97
        0
 75
     0
 76
     1
 98
        0
  0
ENDBLK
  5
A1D
330
9F9
100
AcDbEntity
  8
0
100
AcDbBlockEnd
  0
BLOCK
  5
A20
330
A1E
100
AcDbEntity
  8
0
100
AcDbBlockBegin
  2
HD logo-new
 70
     0
 10
0.0
 20
0.0
 30
0.0
  3
HD logo-new
  1

  0
INSERT
  5
A1F
330
A1E
100
AcDbEntity
  8
0
 62
     3
100
AcDbBlockReference
  2
HD_LLC_logo_OT5
 10
-27.1607188578505
 20
-68.37367811463031
 30
0.0
 41
0.2999999999999971
 42
0.3000000000000007
 43
0.3
  0
ENDBLK
  5
A21
330
A1E
100
AcDbEntity
  8
0
100
AcDbBlockEnd
  0
BLOCK
  5
A37
330
A35
100
AcDbEntity
  8
0
100
AcDbBlockBegin
  2
Harmonic Drive LLC
 70
     0
 10
0.0
 20
0.0
 30
0.0
  3
Harmonic Drive LLC
  1

  0
MTEXT
  5
A36
330
A35
100
AcDbEntity
  8
0
100
AcDbMText
 10
8.730232253264317
 20
-1.454758693481394
 30
0.0
 40
5.25
 41
158.5992
 71
     5
 72
     5
  1
{\fArial|b0|i0|c0|p34;Harmonic Drive LLC\P800-921-3332\Pwww.harmonicdrive.net}
 73
     1
 44
1.0
  0
ENDBLK
  5
A38
330
A35
100
AcDbEntity
  8
0
100
AcDbBlockEnd
  0
BLOCK
  5
A42
330
A40
100
AcDbEntity
  8
0
100
AcDbBlockBegin
  2
HD LLC
 70
     0
 10
0.0
 20
0.0
 30
0.0
  3
HD LLC
  1

  0
MTEXT
  5
A41
330
A40
100
AcDbEntity
  8
0
100
AcDbMText
 10
-2.314970886968865
 20
1.247205085865914
 30
0.0
 40
5.675387507387601
 41
236.1828726592229
 71
     5
 72
     5
  1
Harmonic Drive LLC\P800-921-3332\Pwww.harmonicdrive.net
 73
     1
 44
1.0
  0
ENDBLK
  5
A43
330
A40
100
AcDbEntity
  8
0
100
AcDbBlockEnd
  0
ENDSEC
  0
SECTION
  2
ENTITIES
  0
LINE
  5
2D
330
18
100
AcDbEntity
  8
1
 62
     7
100
AcDbLine
 10
210.34616
 20
38.802785
 30
0.0
 11
206.1611599999999
 21
38.802785
 31
0.0
  0
LINE
  5
2E
330
18
100
AcDbEntity
  8
1
 62
     7
100
AcDbLine
 10
211.97616
 20
32.802785
 30
0.0
 11
217.1611599999999
 21
32.802785
 31
0.0
  0
LINE
  5
2F
330
18
100
AcDbEntity
  8
1
  6
CENTER
 62
     7
100
AcDbLine
 10
211.1611599999999
 20
-9.697214999999999
 30
0.0
 11
211.1611599999999
 21
47.380648
 31
0.0
  0
LINE
  5
30
330
18
100
AcDbEntity
  8
1
 62
     7
100
AcDbLine
 10
218.16116
 20
-3.860737
 30
0.0
 11
218.16116
 21
-6.197214999999999
 31
0.0
  0
LINE
  5
31
330
18
100
AcDbEntity
  8
1
 62
     7
100
AcDbLine
 10
217.66116
 20
-6.697214999999999
 30
0.0
 11
204.6611599999999
 21
-6.697214999999999
 31
0.0
  0
LINE
  5
32
330
18
100
AcDbEntity
  8
1
 62
     7
100
AcDbLine
 10
204.1611599999999
 20
-6.197214999999999
 30
0.0
 11
204.1611599999999
 21
-3.860737
 31
0.0
  0
LINE
  5
33
330
18
100
AcDbEntity
  8
1
 62
     7
100
AcDbLine
 10
204.1611599999999
 20
-5.197214999999999
 30
0.0
 11
218.16116
 21
-5.197214999999999
 31
0.0
  0
LINE
  5
34
330
18
100
AcDbEntity
  8
1
 62
     7
100
AcDbLine
 10
216.16116
 20
38.802785
 30
0.0
 11
211.97616
 21
38.802785
 31
0.0
  0
LINE
  5
35
330
18
100
AcDbEntity
  8
1
 62
     7
100
AcDbLine
 10
217.1611599999999
 20
31.83054099999999
 30
0.0
 11
217.1611599999999
 21
37.802785
 31
0.0
  0
LINE
  5
36
330
18
100
AcDbEntity
  8
1
 62
     7
100
AcDbLine
 10
205.16116
 20
31.83054099999999
 30
0.0
 11
205.16116
 21
37.802785
 31
0.0
  0
LINE
  5
37
330
18
100
AcDbEntity
  8
1
 62
     7
100
AcDbLine
 10
205.16116
 20
32.802785
 30
0.0
 11
210.34616
 21
32.802785
 31
0.0
  0
LINE
  5
38
330
18
100
AcDbEntity
  8
1
  6
CENTER
 62
     7
100
AcDbLine
 10
208.9111599999999
 20
36.760374
 30
0.0
 11
208.9111599999999
 21
47.206627
 31
0.0
  0
LINE
  5
39
330
18
100
AcDbEntity
  8
1
  6
CENTER
 62
     7
100
AcDbLine
 10
213.41116
 20
36.760374
 30
0.0
 11
213.41116
 21
47.380648
 31
0.0
  0
LINE
  5
3A
330
18
100
AcDbEntity
  8
1
 62
     7
100
AcDbLine
 10
214.16116
 20
45.47607399999999
 30
0.0
 11
214.16116
 21
38.802785
 31
0.0
  0
LINE
  5
3B
330
18
100
AcDbEntity
  8
1
 62
     7
100
AcDbLine
 10
209.66116
 20
45.47607399999999
 30
0.0
 11
209.66116
 21
38.802785
 31
0.0
  0
LINE
  5
3C
330
18
100
AcDbEntity
  8
1
 62
     7
100
AcDbLine
 10
212.6611599999999
 20
38.802785
 30
0.0
 11
212.6611599999999
 21
45.47607399999999
 31
0.0
  0
LINE
  5
3D
330
18
100
AcDbEntity
  8
1
 62
     7
100
AcDbLine
 10
208.16116
 20
38.802785
 30
0.0
 11
208.16116
 21
45.47607399999999
 31
0.0
  0
LINE
  5
3E
330
18
100
AcDbEntity
  8
1
 62
     7
100
AcDbLine
 10
193.721416
 20
21.343033
 30
0.0
 11
191.7157229999999
 21
23.348726
 31
0.0
  0
LINE
  5
3F
330
18
100
AcDbEntity
  8
1
 62
     7
100
AcDbLine
 10
192.069277
 20
22.995173
 30
0.0
 11
193.1299369999999
 21
24.05583299999999
 31
0.0
  0
LINE
  5
40
330
18
100
AcDbEntity
  8
1
 62
     7
100
AcDbLine
 10
191.7157229999999
 20
24.76294
 30
0.0
 11
192.069277
 21
25.116493
 31
0.0
  0
LINE
  5
41
330
18
100
AcDbEntity
  8
1
 62
     7
100
AcDbLine
 10
201.615218
 20
33.248221
 30
0.0
 11
203.620911
 21
31.242528
 31
0.0
  0
LINE
  5
42
330
18
100
AcDbEntity
  8
1
 62
     7
100
AcDbLine
 10
218.701408
 20
31.242528
 30
0.0
 11
220.7071009999999
 21
33.248221
 31
0.0
  0
LINE
  5
43
330
18
100
AcDbEntity
  8
1
 62
     7
100
AcDbLine
 10
220.3535479999999
 20
32.89466799999999
 30
0.0
 11
221.414208
 21
31.83400699999999
 31
0.0
  0
LINE
  5
44
330
18
100
AcDbEntity
  8
1
 62
     7
100
AcDbLine
 10
222.121315
 20
33.248221
 30
0.0
 11
222.474868
 21
32.89466799999999
 31
0.0
  0
LINE
  5
45
330
18
100
AcDbEntity
  8
1
 62
     7
100
AcDbLine
 10
230.606596
 20
23.348726
 30
0.0
 11
228.6009029999999
 21
21.343033
 31
0.0
  0
LINE
  5
46
330
18
100
AcDbEntity
  8
1
 62
     7
100
AcDbLine
 10
229.1923829999999
 20
24.05583299999999
 30
0.0
 11
230.253043
 21
22.995173
 31
0.0
  0
LINE
  5
47
330
18
100
AcDbEntity
  8
1
 62
     7
100
AcDbLine
 10
230.253043
 20
25.116493
 30
0.0
 11
230.606596
 21
24.76294
 31
0.0
  0
LINE
  5
48
330
18
100
AcDbEntity
  8
1
 62
     7
100
AcDbLine
 10
200.908111
 20
31.83400699999999
 30
0.0
 11
201.9687709999999
 21
32.89466799999999
 31
0.0
  0
LINE
  5
49
330
18
100
AcDbEntity
  8
1
 62
     7
100
AcDbLine
 10
199.847451
 20
32.89466799999999
 30
0.0
 11
200.2010049999999
 21
33.248221
 31
0.0
  0
LINE
  5
4A
330
18
100
AcDbEntity
  8
1
 62
     7
100
AcDbLine
 10
121.4693009999999
 20
-2.697215
 30
0.0
 11
91.76930099999999
 21
-2.697215
 31
0.0
  0
LINE
  5
4B
330
18
100
AcDbEntity
  8
1
  6
CENTER
 62
     7
100
AcDbLine
 10
206.534846
 20
31.068421
 30
0.0
 11
208.825273
 21
22.52043299999999
 31
0.0
  0
LINE
  5
4C
330
18
100
AcDbEntity
  8
1
  6
CENTER
 62
     7
100
AcDbLine
 10
213.4970459999999
 20
5.085136
 30
0.0
 11
215.787473
 21
-3.462851999999999
 31
0.0
  0
LINE
  5
4D
330
18
100
AcDbEntity
  8
1
 62
     7
100
AcDbLine
 10
214.611131
 20
-0.077248
 30
0.0
 11
214.476545
 21
0.4250340000000001
 31
0.0
  0
LINE
  5
4E
330
18
100
AcDbEntity
  8
1
 62
     7
100
AcDbLine
 10
215.1134129999999
 20
0.057338
 30
0.0
 11
214.611131
 21
-0.077248
 31
0.0
  0
LINE
  5
4F
330
18
100
AcDbEntity
  8
1
 62
     7
100
AcDbLine
 10
214.978827
 20
0.55962
 30
0.0
 11
215.1134129999999
 21
0.057338
 31
0.0
  0
LINE
  5
50
330
18
100
AcDbEntity
  8
1
 62
     7
100
AcDbLine
 10
213.2028109999999
 20
1.160425
 30
0.0
 11
213.7050919999999
 21
1.295011
 31
0.0
  0
LINE
  5
51
330
18
100
AcDbEntity
  8
1
 62
     7
100
AcDbLine
 10
213.337397
 20
0.6581430000000001
 30
0.0
 11
213.2028109999999
 21
1.160425
 31
0.0
  0
LINE
  5
52
330
18
100
AcDbEntity
  8
1
 62
     7
100
AcDbLine
 10
213.8396779999999
 20
0.7927290000000001
 30
0.0
 11
213.337397
 21
0.6581430000000001
 31
0.0
  0
LINE
  5
53
330
18
100
AcDbEntity
  8
1
 62
     7
100
AcDbLine
 10
213.9382019999999
 20
2.434159
 30
0.0
 11
214.072788
 21
1.931878
 31
0.0
  0
LINE
  5
54
330
18
100
AcDbEntity
  8
1
 62
     7
100
AcDbLine
 10
214.440483
 20
2.568745
 30
0.0
 11
213.9382019999999
 21
2.434159
 31
0.0
  0
LINE
  5
55
330
18
100
AcDbEntity
  8
1
 62
     7
100
AcDbLine
 10
214.5750689999999
 20
2.066463999999999
 30
0.0
 11
214.440483
 21
2.568745
 31
0.0
  0
LINE
  5
56
330
18
100
AcDbEntity
  8
1
 62
     7
100
AcDbLine
 10
215.714218
 20
1.833354
 30
0.0
 11
215.2119359999999
 21
1.698768
 31
0.0
  0
LINE
  5
57
330
18
100
AcDbEntity
  8
1
 62
     7
100
AcDbLine
 10
215.8488039999999
 20
1.331072999999999
 30
0.0
 11
215.714218
 21
1.833354
 31
0.0
  0
LINE
  5
58
330
18
100
AcDbEntity
  8
1
 62
     7
100
AcDbLine
 10
215.346522
 20
1.196487
 30
0.0
 11
215.8488039999999
 21
1.331072999999999
 31
0.0
  0
LINE
  5
59
330
18
100
AcDbEntity
  8
1
 62
     7
100
AcDbLine
 10
207.881836
 20
25.036824
 30
0.0
 11
207.74725
 21
25.539105
 31
0.0
  0
LINE
  5
5A
330
18
100
AcDbEntity
  8
1
 62
     7
100
AcDbLine
 10
208.3841179999999
 20
25.17141
 30
0.0
 11
207.881836
 21
25.036824
 31
0.0
  0
LINE
  5
5B
330
18
100
AcDbEntity
  8
1
 62
     7
100
AcDbLine
 10
208.249532
 20
25.673691
 30
0.0
 11
208.3841179999999
 21
25.17141
 31
0.0
  0
LINE
  5
5C
330
18
100
AcDbEntity
  8
1
 62
     7
100
AcDbLine
 10
206.473516
 20
26.274496
 30
0.0
 11
206.9757969999999
 21
26.409082
 31
0.0
  0
LINE
  5
5D
330
18
100
AcDbEntity
  8
1
 62
     7
100
AcDbLine
 10
206.6081009999999
 20
25.772215
 30
0.0
 11
206.473516
 21
26.274496
 31
0.0
  0
LINE
  5
5E
330
18
100
AcDbEntity
  8
1
 62
     7
100
AcDbLine
 10
207.110383
 20
25.906801
 30
0.0
 11
206.6081009999999
 21
25.772215
 31
0.0
  0
LINE
  5
5F
330
18
100
AcDbEntity
  8
1
 62
     7
100
AcDbLine
 10
207.208907
 20
27.548231
 30
0.0
 11
207.3434919999999
 21
27.045949
 31
0.0
  0
LINE
  5
60
330
18
100
AcDbEntity
  8
1
 62
     7
100
AcDbLine
 10
207.7111879999999
 20
27.682817
 30
0.0
 11
207.208907
 21
27.548231
 31
0.0
  0
LINE
  5
61
330
18
100
AcDbEntity
  8
1
 62
     7
100
AcDbLine
 10
207.845774
 20
27.18053499999999
 30
0.0
 11
207.7111879999999
 21
27.682817
 31
0.0
  0
LINE
  5
62
330
18
100
AcDbEntity
  8
1
 62
     7
100
AcDbLine
 10
208.984923
 20
26.947426
 30
0.0
 11
208.482641
 21
26.81284
 31
0.0
  0
LINE
  5
63
330
18
100
AcDbEntity
  8
1
 62
     7
100
AcDbLine
 10
209.119509
 20
26.445144
 30
0.0
 11
208.984923
 21
26.947426
 31
0.0
  0
LINE
  5
64
330
18
100
AcDbEntity
  8
1
 62
     7
100
AcDbLine
 10
208.617227
 20
26.310558
 30
0.0
 11
209.119509
 21
26.445144
 31
0.0
  0
LINE
  5
65
330
18
100
AcDbEntity
  8
1
 62
     7
100
AcDbLine
 10
190.30151
 20
26.88425999999999
 30
0.0
 11
198.079684
 21
34.66243499999999
 31
0.0
  0
LINE
  5
66
330
18
100
AcDbEntity
  8
1
  6
CENTER
 62
     7
100
AcDbLine
 10
192.5623299999999
 20
32.401614
 30
0.0
 11
201.815735
 21
23.148209
 31
0.0
  0
LINE
  5
67
330
18
100
AcDbEntity
  8
1
  6
CENTER
 62
     7
100
AcDbLine
 10
229.606595
 20
32.24822
 30
0.0
 11
195.4057409999999
 21
-1.952633999999999
 31
0.0
  0
LINE
  5
68
330
18
100
AcDbEntity
  8
1
 62
     7
100
AcDbLine
 10
199.423187
 20
33.318932
 30
0.0
 11
204.0502469999999
 21
28.69187199999999
 31
0.0
  0
LINE
  5
69
330
18
100
AcDbEntity
  8
1
 62
     7
100
AcDbLine
 10
191.645012
 20
25.540757
 30
0.0
 11
199.423187
 21
33.318932
 31
0.0
  0
LINE
  5
6A
330
18
100
AcDbEntity
  8
1
 62
     7
100
AcDbLine
 10
191.0086159999999
 20
26.177153
 30
0.0
 11
190.30151
 21
26.88425999999999
 31
0.0
  0
LINE
  5
6B
330
18
100
AcDbEntity
  8
1
 62
     7
100
AcDbLine
 10
198.786791
 20
33.955328
 30
0.0
 11
191.0086159999999
 21
26.177153
 31
0.0
  0
LINE
  5
6C
330
18
100
AcDbEntity
  8
1
 62
     7
100
AcDbLine
 10
222.8991319999999
 20
33.318932
 30
0.0
 11
218.272072
 21
28.69187199999999
 31
0.0
  0
LINE
  5
6D
330
18
100
AcDbEntity
  8
1
 62
     7
100
AcDbLine
 10
222.8991319999999
 20
33.318932
 30
0.0
 11
230.6773069999999
 21
25.540757
 31
0.0
  0
LINE
  5
6E
330
18
100
AcDbEntity
  8
1
 62
     7
100
AcDbLine
 10
231.3137029999999
 20
26.177153
 30
0.0
 11
232.02081
 21
26.88425999999999
 31
0.0
  0
LINE
  5
6F
330
18
100
AcDbEntity
  8
1
 62
     7
100
AcDbLine
 10
231.3137029999999
 20
26.177153
 30
0.0
 11
223.5355279999999
 21
33.955328
 31
0.0
  0
LINE
  5
70
330
18
100
AcDbEntity
  8
1
 62
     7
100
AcDbLine
 10
224.242635
 20
34.66243499999999
 30
0.0
 11
223.5355279999999
 21
33.955328
 31
0.0
  0
LINE
  5
71
330
18
100
AcDbEntity
  8
1
 62
     7
100
AcDbLine
 10
232.02081
 20
26.88425999999999
 30
0.0
 11
224.242635
 21
34.66243499999999
 31
0.0
  0
LINE
  5
72
330
18
100
AcDbEntity
  8
1
 62
     7
100
AcDbLine
 10
226.050247
 20
20.91369699999999
 30
0.0
 11
230.6773069999999
 21
25.540757
 31
0.0
  0
LINE
  5
73
330
18
100
AcDbEntity
  8
1
 62
     7
100
AcDbLine
 10
198.079684
 20
34.66243499999999
 30
0.0
 11
198.786791
 21
33.955328
 31
0.0
  0
LINE
  5
74
330
18
100
AcDbEntity
  8
1
 62
     7
100
AcDbLine
 10
196.272072
 20
20.91369699999999
 30
0.0
 11
191.645012
 21
25.540757
 31
0.0
  0
LINE
  5
75
330
18
100
AcDbEntity
  8
1
 62
     7
100
AcDbLine
 10
104.269301
 20
-2.697215
 30
0.0
 11
104.269301
 21
30.30278499999999
 31
0.0
  0
LINE
  5
76
330
18
100
AcDbEntity
  8
1
 62
     7
100
AcDbLine
 10
92.76930099999999
 20
22.05278499999999
 30
0.0
 11
103.269301
 21
22.05278499999999
 31
0.0
  0
LINE
  5
77
330
18
100
AcDbEntity
  8
1
 62
     7
100
AcDbLine
 10
121.769301
 20
30.002785
 30
0.0
 11
121.769301
 21
-2.397215
 31
0.0
  0
LINE
  5
78
330
18
100
AcDbEntity
  8
1
 62
     7
100
AcDbLine
 10
118.2693009999999
 20
30.30278499999999
 30
0.0
 11
121.4693009999999
 21
30.30278499999999
 31
0.0
  0
LINE
  5
79
330
18
100
AcDbEntity
  8
1
 62
     7
100
AcDbLine
 10
118.2693009999999
 20
25.540681
 30
0.0
 11
118.2693009999999
 21
30.77334699999999
 31
0.0
  0
LINE
  5
7A
330
18
100
AcDbEntity
  8
1
 62
     7
100
AcDbLine
 10
107.269301
 20
25.540679
 30
0.0
 11
107.269301
 21
30.77334699999999
 31
0.0
  0
LINE
  5
7B
330
18
100
AcDbEntity
  8
1
 62
     7
100
AcDbLine
 10
110.0193009999999
 20
30.136951
 30
0.0
 11
115.519301
 21
30.136951
 31
0.0
  0
LINE
  5
7C
330
18
100
AcDbEntity
  8
1
 62
     7
100
AcDbLine
 10
115.519301
 20
30.136951
 30
0.0
 11
115.519301
 21
31.40974299999999
 31
0.0
  0
LINE
  5
7D
330
18
100
AcDbEntity
  8
1
 62
     7
100
AcDbLine
 10
115.519301
 20
31.40974299999999
 30
0.0
 11
110.0193009999999
 21
31.40974299999999
 31
0.0
  0
LINE
  5
7E
330
18
100
AcDbEntity
  8
1
 62
     7
100
AcDbLine
 10
110.0193009999999
 20
31.40974299999999
 30
0.0
 11
110.0193009999999
 21
30.136951
 31
0.0
  0
LINE
  5
7F
330
18
100
AcDbEntity
  8
1
 62
     7
100
AcDbLine
 10
121.4693009999999
 20
30.30278499999999
 30
0.0
 11
121.769301
 21
30.002785
 31
0.0
  0
LINE
  5
80
330
18
100
AcDbEntity
  8
1
 62
     7
100
AcDbLine
 10
121.769301
 20
-2.397215
 30
0.0
 11
121.4693009999999
 21
-2.697215
 31
0.0
  0
LINE
  5
81
330
18
100
AcDbEntity
  8
1
 62
     7
100
AcDbLine
 10
115.0843009999999
 20
44.036713
 30
0.0
 11
115.0843009999999
 21
50.989697
 31
0.0
  0
LINE
  5
82
330
18
100
AcDbEntity
  8
1
 62
     7
100
AcDbLine
 10
113.454301
 20
44.036713
 30
0.0
 11
113.454301
 21
50.989697
 31
0.0
  0
LINE
  5
83
330
18
100
AcDbEntity
  8
1
 62
     7
100
AcDbLine
 10
112.0843009999999
 20
44.036713
 30
0.0
 11
112.0843009999999
 21
50.989697
 31
0.0
  0
LINE
  5
84
330
18
100
AcDbEntity
  8
1
 62
     7
100
AcDbLine
 10
110.4543009999999
 20
44.036713
 30
0.0
 11
110.4543009999999
 21
50.989697
 31
0.0
  0
LINE
  5
85
330
18
100
AcDbEntity
  8
1
 62
     7
100
AcDbLine
 10
110.4543009999999
 20
42.153716
 30
0.0
 11
110.4543009999999
 21
34.301163
 31
0.0
  0
LINE
  5
86
330
18
100
AcDbEntity
  8
1
 62
     7
100
AcDbLine
 10
112.0843009999999
 20
42.153716
 30
0.0
 11
112.0843009999999
 21
34.63216
 31
0.0
  0
LINE
  5
87
330
18
100
AcDbEntity
  8
1
 62
     7
100
AcDbLine
 10
113.454301
 20
42.153716
 30
0.0
 11
113.454301
 21
34.63216
 31
0.0
  0
LINE
  5
88
330
18
100
AcDbEntity
  8
1
 62
     7
100
AcDbLine
 10
115.0843009999999
 20
42.153716
 30
0.0
 11
115.0843009999999
 21
34.301163
 31
0.0
  0
LINE
  5
89
330
18
100
AcDbEntity
  8
1
 62
     7
100
AcDbLine
 10
113.454301
 20
50.989697
 30
0.0
 11
115.0843009999999
 21
50.989697
 31
0.0
  0
LINE
  5
8A
330
18
100
AcDbEntity
  8
1
 62
     7
100
AcDbLine
 10
114.869301
 20
54.630109
 30
0.0
 11
114.869301
 21
50.989697
 31
0.0
  0
LINE
  5
8B
330
18
100
AcDbEntity
  8
1
 62
     7
100
AcDbLine
 10
114.669301
 20
50.989697
 30
0.0
 11
114.669301
 21
54.630109
 31
0.0
  0
LINE
  5
8C
330
18
100
AcDbEntity
  8
1
 62
     7
100
AcDbLine
 10
114.469301
 20
54.630109
 30
0.0
 11
114.469301
 21
50.989697
 31
0.0
  0
LINE
  5
8D
330
18
100
AcDbEntity
  8
1
 62
     7
100
AcDbLine
 10
114.269301
 20
50.989697
 30
0.0
 11
114.269301
 21
54.630109
 31
0.0
  0
LINE
  5
8E
330
18
100
AcDbEntity
  8
1
 62
     7
100
AcDbLine
 10
114.0693009999999
 20
54.630109
 30
0.0
 11
114.0693009999999
 21
50.989697
 31
0.0
  0
LINE
  5
8F
330
18
100
AcDbEntity
  8
1
 62
     7
100
AcDbLine
 10
113.869301
 20
50.989697
 30
0.0
 11
113.869301
 21
54.630109
 31
0.0
  0
LINE
  5
90
330
18
100
AcDbEntity
  8
1
 62
     7
100
AcDbLine
 10
113.669301
 20
54.630109
 30
0.0
 11
113.669301
 21
50.989697
 31
0.0
  0
LINE
  5
91
330
18
100
AcDbEntity
  8
1
 62
     7
100
AcDbLine
 10
110.4543009999999
 20
50.989697
 30
0.0
 11
112.0843009999999
 21
50.989697
 31
0.0
  0
LINE
  5
92
330
18
100
AcDbEntity
  8
1
 62
     7
100
AcDbLine
 10
111.869301
 20
50.989697
 30
0.0
 11
111.869301
 21
54.630109
 31
0.0
  0
LINE
  5
93
330
18
100
AcDbEntity
  8
1
 62
     7
100
AcDbLine
 10
111.669301
 20
54.630109
 30
0.0
 11
111.669301
 21
50.989697
 31
0.0
  0
LINE
  5
94
330
18
100
AcDbEntity
  8
1
 62
     7
100
AcDbLine
 10
111.469301
 20
50.989697
 30
0.0
 11
111.469301
 21
54.630109
 31
0.0
  0
LINE
  5
95
330
18
100
AcDbEntity
  8
1
 62
     7
100
AcDbLine
 10
111.269301
 20
54.630109
 30
0.0
 11
111.269301
 21
50.989697
 31
0.0
  0
LINE
  5
96
330
18
100
AcDbEntity
  8
1
 62
     7
100
AcDbLine
 10
111.069301
 20
50.989697
 30
0.0
 11
111.069301
 21
54.630109
 31
0.0
  0
LINE
  5
97
330
18
100
AcDbEntity
  8
1
 62
     7
100
AcDbLine
 10
110.869301
 20
50.989697
 30
0.0
 11
110.869301
 21
54.630109
 31
0.0
  0
LINE
  5
98
330
18
100
AcDbEntity
  8
1
 62
     7
100
AcDbLine
 10
110.669301
 20
50.989697
 30
0.0
 11
110.669301
 21
54.630109
 31
0.0
  0
LINE
  5
99
330
18
100
AcDbEntity
  8
1
  6
CENTER
 62
     7
100
AcDbLine
 10
112.7693009999999
 20
57.476789
 30
0.0
 11
112.7693009999999
 21
18.141505
 31
0.0
  0
LINE
  5
9A
330
18
100
AcDbEntity
  8
1
 62
     7
100
AcDbLine
 10
107.269301
 20
30.30278499999999
 30
0.0
 11
91.76930099999999
 21
30.30278499999999
 31
0.0
  0
LINE
  5
9B
330
18
100
AcDbEntity
  8
1
 62
     7
100
AcDbLine
 10
210.34616
 20
45.513888
 30
0.0
 11
210.34616
 21
31.784324
 31
0.0
  0
LINE
  5
9C
330
18
100
AcDbEntity
  8
1
 62
     7
100
AcDbLine
 10
211.97616
 20
45.513888
 30
0.0
 11
211.97616
 21
31.784324
 31
0.0
  0
LINE
  5
9D
330
18
100
AcDbEntity
  8
1
 62
     7
100
AcDbLine
 10
215.4111599999999
 20
29.746043
 30
0.0
 11
215.4111599999999
 21
30.69398
 31
0.0
  0
LINE
  5
9E
330
18
100
AcDbEntity
  8
1
 62
     7
100
AcDbLine
 10
206.9111599999999
 20
29.746043
 30
0.0
 11
206.9111599999999
 21
30.69398
 31
0.0
  0
LINE
  5
A3
330
18
100
AcDbEntity
  8
1
  6
CENTER
 62
     7
100
AcDbLine
 10
128.920406
 20
13.802785
 30
0.0
 11
41.519301
 21
13.802785
 31
0.0
  0
LINE
  5
DD
330
18
100
AcDbEntity
  8
1
 62
     7
100
AcDbLine
 10
72.761319
 20
31.83054099999999
 30
0.0
 11
71.88054699999999
 21
31.83054099999999
 31
0.0
  0
LINE
  5
DE
330
18
100
AcDbEntity
  8
1
 62
     7
100
AcDbLine
 10
90.28070600000001
 20
31.83054099999999
 30
0.0
 11
85.77728200000001
 21
31.83054099999999
 31
0.0
  0
LINE
  5
DF
330
18
100
AcDbEntity
  8
1
 62
     7
100
AcDbLine
 10
86.82762
 20
-3.860737
 30
0.0
 11
71.77887099999999
 21
-3.860737
 31
0.0
  0
LINE
  5
E0
330
18
100
AcDbEntity
  8
1
 62
     7
100
AcDbLine
 10
82.76930099999999
 20
33.541114
 30
0.0
 11
75.769301
 21
33.541114
 31
0.0
  0
LINE
  5
E1
330
18
100
AcDbEntity
  8
1
 62
     7
100
AcDbLine
 10
73.269301
 20
30.541114
 30
0.0
 11
73.269301
 21
27.783469
 31
0.0
  0
LINE
  5
E2
330
18
100
AcDbEntity
  8
1
 62
     7
100
AcDbLine
 10
76.269301
 20
24.783469
 30
0.0
 11
82.269301
 21
24.783469
 31
0.0
  0
LINE
  5
E3
330
18
100
AcDbEntity
  8
1
 62
     7
100
AcDbLine
 10
85.26930099999999
 20
27.783469
 30
0.0
 11
85.26930099999999
 21
30.541114
 31
0.0
  0
LINE
  5
E4
330
18
100
AcDbEntity
  8
1
 62
     7
100
AcDbLine
 10
86.269301
 20
24.843033
 30
0.0
 11
86.269301
 21
30.041114
 31
0.0
  0
LINE
  5
E5
330
18
100
AcDbEntity
  8
1
 62
     7
100
AcDbLine
 10
75.769301
 20
21.343033
 30
0.0
 11
82.76930099999999
 21
21.343033
 31
0.0
  0
LINE
  5
E6
330
18
100
AcDbEntity
  8
1
 62
     7
100
AcDbLine
 10
75.769301
 20
22.92306099999999
 30
0.0
 11
82.76930099999999
 21
22.92306099999999
 31
0.0
  0
LINE
  5
E7
330
18
100
AcDbEntity
  8
1
 62
     7
100
AcDbLine
 10
72.269301
 20
30.041114
 30
0.0
 11
72.269301
 21
24.843033
 31
0.0
  0
LINE
  5
E8
330
18
100
AcDbEntity
  8
1
 62
     7
100
AcDbLine
 10
84.91945799999999
 20
32.802785
 30
0.0
 11
91.76930099999999
 21
32.802785
 31
0.0
  0
LINE
  5
E9
330
18
100
AcDbEntity
  8
1
  6
CENTER
 62
     7
100
AcDbLine
 10
87.505219
 20
29.00558
 30
0.0
 11
71.03338199999999
 21
29.00558
 31
0.0
  0
LINE
  5
EA
330
18
100
AcDbEntity
  8
1
  6
CENTER
 62
     7
100
AcDbLine
 10
79.26930099999999
 20
35.595566
 30
0.0
 11
79.26930099999999
 21
19.12372799999999
 31
0.0
  0
LINE
  5
EB
330
18
100
AcDbEntity
  8
1
 62
     7
100
AcDbLine
 10
63.138271
 20
49.73435399999999
 30
0.0
 11
63.138271
 21
47.11621
 31
0.0
  0
LINE
  5
EC
330
18
100
AcDbEntity
  8
1
 62
     7
100
AcDbLine
 10
63.538271
 20
49.73435399999999
 30
0.0
 11
63.538271
 21
47.11621
 31
0.0
  0
LINE
  5
ED
330
18
100
AcDbEntity
  8
1
 62
     7
100
AcDbLine
 10
62.738271
 20
49.73435399999999
 30
0.0
 11
62.738271
 21
47.11621
 31
0.0
  0
LINE
  5
EE
330
18
100
AcDbEntity
  8
1
 62
     7
100
AcDbLine
 10
62.53827099999999
 20
49.73435399999999
 30
0.0
 11
62.53827099999999
 21
47.11621
 31
0.0
  0
LINE
  5
EF
330
18
100
AcDbEntity
  8
1
 62
     7
100
AcDbLine
 10
62.93827099999999
 20
49.73435399999999
 30
0.0
 11
62.93827099999999
 21
47.11621
 31
0.0
  0
LINE
  5
F0
330
18
100
AcDbEntity
  8
1
 62
     7
100
AcDbLine
 10
63.338271
 20
49.73435399999999
 30
0.0
 11
63.338271
 21
47.11621
 31
0.0
  0
LINE
  5
F1
330
18
100
AcDbEntity
  8
1
 62
     7
100
AcDbLine
 10
63.73827099999999
 20
49.73435399999999
 30
0.0
 11
63.73827099999999
 21
47.11621
 31
0.0
  0
LINE
  5
F2
330
18
100
AcDbEntity
  8
1
 62
     7
100
AcDbLine
 10
63.892497
 20
47.11621
 30
0.0
 11
63.892497
 21
39.303407
 31
0.0
  0
LINE
  5
F3
330
18
100
AcDbEntity
  8
1
 62
     7
100
AcDbLine
 10
62.392497
 20
47.11621
 30
0.0
 11
63.892497
 21
47.11621
 31
0.0
  0
LINE
  5
F4
330
18
100
AcDbEntity
  8
1
 62
     7
100
AcDbLine
 10
62.392497
 20
39.303407
 30
0.0
 11
62.392497
 21
47.11621
 31
0.0
  0
LINE
  5
F5
330
18
100
AcDbEntity
  8
1
 62
     7
100
AcDbLine
 10
89.769301
 20
38.303407
 30
0.0
 11
89.769301
 21
32.130541
 31
0.0
  0
LINE
  5
F6
330
18
100
AcDbEntity
  8
1
 62
     7
100
AcDbLine
 10
72.769301
 20
38.80340699999999
 30
0.0
 11
89.26930099999999
 21
38.80340699999999
 31
0.0
  0
LINE
  5
F7
330
18
100
AcDbEntity
  8
1
 62
     7
100
AcDbLine
 10
69.26930099999999
 20
35.803407
 30
0.0
 11
72.269301
 21
35.803407
 31
0.0
  0
LINE
  5
F8
330
18
100
AcDbEntity
  8
1
 62
     7
100
AcDbLine
 10
69.26930099999999
 20
37.303407
 30
0.0
 11
72.269301
 21
37.303407
 31
0.0
  0
LINE
  5
F9
330
18
100
AcDbEntity
  8
1
 62
     7
100
AcDbLine
 10
72.269301
 20
32.130541
 30
0.0
 11
72.269301
 21
38.303407
 31
0.0
  0
LINE
  5
FA
330
18
100
AcDbEntity
  8
1
 62
     7
100
AcDbLine
 10
67.50768199999999
 20
37.303407
 30
0.0
 11
65.89249699999999
 21
37.303407
 31
0.0
  0
LINE
  5
FB
330
18
100
AcDbEntity
  8
1
 62
     7
100
AcDbLine
 10
67.50768199999999
 20
35.803407
 30
0.0
 11
65.89249699999999
 21
35.803407
 31
0.0
  0
LINE
  5
FC
330
18
100
AcDbEntity
  8
1
  6
CENTER
 62
     7
100
AcDbLine
 10
73.76666
 20
36.55340699999999
 30
0.0
 11
62.247526
 21
36.55340699999999
 31
0.0
  0
LINE
  5
FD
330
18
100
AcDbEntity
  8
1
 62
     7
100
AcDbLine
 10
49.769301
 20
32.802785
 30
0.0
 11
73.61914300000001
 21
32.802785
 31
0.0
  0
LINE
  5
FF
330
18
100
AcDbEntity
  8
1
  6
CENTER
 62
     7
100
AcDbLine
 10
79.26930099999999
 20
0.339422
 30
0.0
 11
79.26930099999999
 21
-9.809144999999999
 31
0.0
  0
LINE
  5
100
330
18
100
AcDbEntity
  8
1
 62
     7
100
AcDbLine
 10
73.269301
 20
-6.697214999999999
 30
0.0
 11
85.26930099999999
 21
-6.697214999999999
 31
0.0
  0
LINE
  5
101
330
18
100
AcDbEntity
  8
1
 62
     7
100
AcDbLine
 10
71.76930099999999
 20
32.802785
 30
0.0
 11
71.76930099999999
 21
-5.197214999999999
 31
0.0
  0
LINE
  5
102
330
18
100
AcDbEntity
  8
1
 62
     7
100
AcDbLine
 10
49.769301
 20
-5.197214999999999
 30
0.0
 11
91.76930099999999
 21
-5.197214999999999
 31
0.0
  0
LINE
  5
103
330
18
100
AcDbEntity
  8
1
 62
     7
100
AcDbLine
 10
72.269301
 20
-4.160737
 30
0.0
 11
72.269301
 21
-5.697214999999999
 31
0.0
  0
LINE
  5
104
330
18
100
AcDbEntity
  8
1
 62
     7
100
AcDbLine
 10
91.76930099999999
 20
-5.197214999999999
 30
0.0
 11
91.76930099999999
 21
32.802785
 31
0.0
  0
LINE
  5
105
330
18
100
AcDbEntity
  8
1
 62
     7
100
AcDbLine
 10
86.269301
 20
-5.697214999999999
 30
0.0
 11
86.269301
 21
-4.160737
 31
0.0
  0
ARC
  5
106
330
18
100
AcDbEntity
  8
1
 62
     7
100
AcDbCircle
 10
211.1611599999999
 20
13.802785
 30
0.0
 40
19.0
100
AcDbArc
 50
61.826449
 51
87.54155800000001
  0
ARC
  5
107
330
18
100
AcDbEntity
  8
1
 62
     7
100
AcDbCircle
 10
211.1611599999999
 20
13.802785
 30
0.0
 40
19.0
100
AcDbArc
 50
92.458442
 51
118.1735509999999
  0
ARC
  5
108
330
18
100
AcDbEntity
  8
1
 62
     7
100
AcDbCircle
 10
211.1611599999999
 20
13.802785
 30
0.0
 40
19.0
100
AcDbArc
 50
151.8264489999999
 51
28.173551
  0
ARC
  5
109
330
18
100
AcDbEntity
  8
1
  6
CENTER
 62
     7
100
AcDbCircle
 10
211.1611599999999
 20
13.802785
 30
0.0
 40
13.0
100
AcDbArc
 50
85.224101
 51
124.7758989999999
  0
ARC
  5
10A
330
18
100
AcDbEntity
  8
1
  6
CENTER
 62
     7
100
AcDbCircle
 10
211.1611599999999
 20
13.802785
 30
0.0
 40
13.0
100
AcDbArc
 50
265.2241009999999
 51
304.7758990000001
  0
ARC
  5
10B
330
18
100
AcDbEntity
  8
1
 62
     7
100
AcDbCircle
 10
215.4811079999999
 20
0.694206
 30
0.0
 40
0.5200000000000001
100
AcDbArc
 50
105.0
 51
195.0
  0
ARC
  5
10C
330
18
100
AcDbEntity
  8
1
 62
     7
100
AcDbCircle
 10
213.974264
 20
0.290448
 30
0.0
 40
0.5200000000000001
100
AcDbArc
 50
15.0
 51
105.0
  0
ARC
  5
10D
330
18
100
AcDbEntity
  8
1
 62
     7
100
AcDbCircle
 10
213.5705059999999
 20
1.797291999999999
 30
0.0
 40
0.5200000000000001
100
AcDbArc
 50
285.0
 51
15.0
  0
ARC
  5
10E
330
18
100
AcDbEntity
  8
1
 62
     7
100
AcDbCircle
 10
215.0773509999999
 20
2.201049999999999
 30
0.0
 40
0.5200000000000001
100
AcDbArc
 50
195.0
 51
285.0
  0
ARC
  5
10F
330
18
100
AcDbEntity
  8
1
 62
     7
100
AcDbCircle
 10
208.7518129999999
 20
25.808277
 30
0.0
 40
0.5200000000000001
100
AcDbArc
 50
105.0
 51
195.0
  0
ARC
  5
110
330
18
100
AcDbEntity
  8
1
 62
     7
100
AcDbCircle
 10
207.244969
 20
25.404519
 30
0.0
 40
0.5200000000000001
100
AcDbArc
 50
15.0
 51
105.0
  0
ARC
  5
111
330
18
100
AcDbEntity
  8
1
 62
     7
100
AcDbCircle
 10
206.841211
 20
26.911364
 30
0.0
 40
0.5200000000000001
100
AcDbArc
 50
285.0
 51
15.0
  0
ARC
  5
112
330
18
100
AcDbEntity
  8
1
 62
     7
100
AcDbCircle
 10
208.3480549999999
 20
27.315121
 30
0.0
 40
0.5200000000000001
100
AcDbArc
 50
195.0
 51
285.0
  0
ARC
  5
113
330
18
100
AcDbEntity
  8
1
 62
     7
100
AcDbCircle
 10
191.451207
 20
25.98334799999999
 30
0.0
 40
0.4831640000000001
100
AcDbArc
 50
156.351956
 51
293.648044
  0
ARC
  5
114
330
18
100
AcDbEntity
  8
1
 62
     7
100
AcDbCircle
 10
198.9805959999999
 20
33.512737
 30
0.0
 40
0.4831640000000001
100
AcDbArc
 50
336.351956
 51
113.6480439999999
  0
ARC
  5
115
330
18
100
AcDbEntity
  8
1
 62
     7
100
AcDbCircle
 10
223.3506049999999
 20
33.503855
 30
0.0
 40
0.4878770000000001
100
AcDbArc
 50
67.72601
 51
202.2739899999999
  0
ARC
  5
116
330
18
100
AcDbEntity
  8
1
 62
     7
100
AcDbCircle
 10
230.8622299999999
 20
25.99223
 30
0.0
 40
0.4878770000000001
100
AcDbArc
 50
247.72601
 51
22.27398999999999
  0
ARC
  5
117
330
18
100
AcDbEntity
  8
1
 62
     7
100
AcDbCircle
 10
111.6768009999999
 20
44.38404199999999
 30
0.0
 40
0.535438
100
AcDbArc
 50
220.4423439999999
 51
319.557656
  0
ARC
  5
118
330
18
100
AcDbEntity
  8
1
 62
     7
100
AcDbCircle
 10
110.861801
 20
44.38404199999999
 30
0.0
 40
0.535438
100
AcDbArc
 50
220.4423439999999
 51
319.557656
  0
ARC
  5
119
330
18
100
AcDbEntity
  8
1
 62
     7
100
AcDbCircle
 10
110.861801
 20
43.68938299999999
 30
0.0
 40
0.535438
100
AcDbArc
 50
40.44234399999999
 51
139.557656
  0
ARC
  5
11A
330
18
100
AcDbEntity
  8
1
 62
     7
100
AcDbCircle
 10
113.861801
 20
44.38404199999999
 30
0.0
 40
0.535438
100
AcDbArc
 50
220.4423439999999
 51
319.557656
  0
ARC
  5
11B
330
18
100
AcDbEntity
  8
1
 62
     7
100
AcDbCircle
 10
114.6768009999999
 20
44.38404199999999
 30
0.0
 40
0.535438
100
AcDbArc
 50
220.4423439999999
 51
319.557656
  0
ARC
  5
11C
330
18
100
AcDbEntity
  8
1
 62
     7
100
AcDbCircle
 10
113.861801
 20
43.68938299999999
 30
0.0
 40
0.535438
100
AcDbArc
 50
40.44234399999999
 51
139.557656
  0
ARC
  5
11D
330
18
100
AcDbEntity
  8
1
 62
     7
100
AcDbCircle
 10
113.861801
 20
41.806387
 30
0.0
 40
0.535438
100
AcDbArc
 50
40.44234399999999
 51
139.557656
  0
ARC
  5
11E
330
18
100
AcDbEntity
  8
1
 62
     7
100
AcDbCircle
 10
114.6768009999999
 20
42.501046
 30
0.0
 40
0.535438
100
AcDbArc
 50
220.4423439999999
 51
319.557656
  0
ARC
  5
11F
330
18
100
AcDbEntity
  8
1
 62
     7
100
AcDbCircle
 10
114.6768009999999
 20
41.806387
 30
0.0
 40
0.535438
100
AcDbArc
 50
40.44234399999999
 51
139.557656
  0
ARC
  5
120
330
18
100
AcDbEntity
  8
1
 62
     7
100
AcDbCircle
 10
111.6768009999999
 20
41.806387
 30
0.0
 40
0.535438
100
AcDbArc
 50
40.44234399999999
 51
139.557656
  0
ARC
  5
121
330
18
100
AcDbEntity
  8
1
 62
     7
100
AcDbCircle
 10
111.6768009999999
 20
42.501046
 30
0.0
 40
0.535438
100
AcDbArc
 50
220.4423439999999
 51
319.557656
  0
ARC
  5
122
330
18
100
AcDbEntity
  8
1
 62
     7
100
AcDbCircle
 10
110.861801
 20
41.806387
 30
0.0
 40
0.535438
100
AcDbArc
 50
40.44234399999999
 51
139.557656
  0
ARC
  5
123
330
18
100
AcDbEntity
  8
1
 62
     7
100
AcDbCircle
 10
211.56866
 20
45.16655899999999
 30
0.0
 40
0.535438
100
AcDbArc
 50
40.44234399999999
 51
139.557656
  0
ARC
  5
124
330
18
100
AcDbEntity
  8
1
 62
     7
100
AcDbCircle
 10
211.56866
 20
45.86121699999999
 30
0.0
 40
0.535438
100
AcDbArc
 50
220.4423439999999
 51
319.557656
  0
ARC
  5
125
330
18
100
AcDbEntity
  8
1
 62
     7
100
AcDbCircle
 10
210.7536599999999
 20
45.16655899999999
 30
0.0
 40
0.535438
100
AcDbArc
 50
40.44234399999999
 51
139.557656
  0
ARC
  5
126
330
18
100
AcDbEntity
  8
1
 62
     7
100
AcDbCircle
 10
211.1611599999999
 20
13.802785
 30
0.0
 40
18.0
100
AcDbArc
 50
78.29349
 51
101.7065099999999
  0
ARC
  5
127
330
18
100
AcDbEntity
  8
1
 62
     7
100
AcDbCircle
 10
211.1611599999999
 20
13.802785
 30
0.0
 40
18.0
100
AcDbArc
 50
78.29349
 51
101.7065099999999
  0
CIRCLE
  5
129
330
18
100
AcDbEntity
  8
1
 62
     7
100
AcDbCircle
 10
207.7965119999999
 20
26.35982
 30
0.0
 40
2.75
  0
CIRCLE
  5
12A
330
18
100
AcDbEntity
  8
1
 62
     7
100
AcDbCircle
 10
214.525807
 20
1.245748999999999
 30
0.0
 40
2.75
  0
CIRCLE
  5
12B
330
18
100
AcDbEntity
  8
1
 62
     7
100
AcDbCircle
 10
214.525807
 20
1.245748999999999
 30
0.0
 40
2.25
  0
CIRCLE
  5
12C
330
18
100
AcDbEntity
  8
1
 62
     7
100
AcDbCircle
 10
207.7965119999999
 20
26.35982
 30
0.0
 40
2.25
  0
CIRCLE
  5
12D
330
18
100
AcDbEntity
  8
1
 62
     7
100
AcDbCircle
 10
211.1611599999999
 20
13.802785
 30
0.0
 40
16.5
  0
ARC
  5
499
330
18
100
AcDbEntity
  8
1
 62
     7
100
AcDbCircle
 10
217.66116
 20
-6.197214999999999
 30
0.0
 40
0.5
100
AcDbArc
 50
270.0
 51
0.0
  0
ARC
  5
49A
330
18
100
AcDbEntity
  8
1
 62
     7
100
AcDbCircle
 10
204.6611599999999
 20
-6.197214999999999
 30
0.0
 40
0.5
100
AcDbArc
 50
180.0
 51
270.0
  0
ARC
  5
49B
330
18
100
AcDbEntity
  8
1
 62
     7
100
AcDbCircle
 10
216.16116
 20
37.802785
 30
0.0
 40
1.0
100
AcDbArc
 50
0.0
 51
90.0
  0
ARC
  5
49C
330
18
100
AcDbEntity
  8
1
 62
     7
100
AcDbCircle
 10
206.1611599999999
 20
37.802785
 30
0.0
 40
1.0
100
AcDbArc
 50
90.0
 51
180.0
  0
ARC
  5
49D
330
18
100
AcDbEntity
  8
1
 62
     7
100
AcDbCircle
 10
192.42283
 20
24.05583299999999
 30
0.0
 40
1.0
100
AcDbArc
 50
135.0
 51
225.0
  0
ARC
  5
49E
330
18
100
AcDbEntity
  8
1
 62
     7
100
AcDbCircle
 10
200.908111
 20
32.541114
 30
0.0
 40
1.0
100
AcDbArc
 50
45.0
 51
135.0
  0
ARC
  5
49F
330
18
100
AcDbEntity
  8
1
 62
     7
100
AcDbCircle
 10
221.414208
 20
32.541114
 30
0.0
 40
1.0
100
AcDbArc
 50
45.0
 51
135.0
  0
ARC
  5
4A0
330
18
100
AcDbEntity
  8
1
 62
     7
100
AcDbCircle
 10
229.899489
 20
24.05583299999999
 30
0.0
 40
1.0
100
AcDbArc
 50
315.0
 51
45.0
  0
ARC
  5
4A1
330
18
100
AcDbEntity
  8
1
 62
     7
100
AcDbCircle
 10
103.269301
 20
23.052785
 30
0.0
 40
1.0
100
AcDbArc
 50
270.0
 51
0.0
  0
ARC
  5
4A2
330
18
100
AcDbEntity
  8
1
 62
     7
100
AcDbCircle
 10
92.76930099999999
 20
23.052785
 30
0.0
 40
1.0
100
AcDbArc
 50
180.0
 51
270.0
  0
ARC
  5
4A3
330
18
100
AcDbEntity
  8
1
 62
     7
100
AcDbCircle
 10
214.6611599999999
 20
30.69398
 30
0.0
 40
0.75
100
AcDbArc
 50
0.0
 51
78.29349
  0
ARC
  5
4A4
330
18
100
AcDbEntity
  8
1
 62
     7
100
AcDbCircle
 10
207.66116
 20
30.69398
 30
0.0
 40
0.75
100
AcDbArc
 50
101.7065099999999
 51
180.0
  0
ARC
  5
4AD
330
18
100
AcDbEntity
  8
1
 62
     7
100
AcDbCircle
 10
71.969301
 20
32.130541
 30
0.0
 40
0.3
100
AcDbArc
 50
270.0
 51
0.0
  0
ARC
  5
4AE
330
18
100
AcDbEntity
  8
1
 62
     7
100
AcDbCircle
 10
90.06930099999999
 20
32.130541
 30
0.0
 40
0.3
100
AcDbArc
 50
180.0
 51
270.0
  0
ARC
  5
4AF
330
18
100
AcDbEntity
  8
1
 62
     7
100
AcDbCircle
 10
71.969301
 20
-4.160737
 30
0.0
 40
0.3
100
AcDbArc
 50
0.0
 51
90.0
  0
ARC
  5
4B0
330
18
100
AcDbEntity
  8
1
 62
     7
100
AcDbCircle
 10
86.569301
 20
-4.160737
 30
0.0
 40
0.3
100
AcDbArc
 50
90.0
 51
180.0
  0
ARC
  5
4B1
330
18
100
AcDbEntity
  8
1
 62
     7
100
AcDbCircle
 10
76.269301
 20
30.541114
 30
0.0
 40
3.0
100
AcDbArc
 50
90.0
 51
180.0
  0
ARC
  5
4B2
330
18
100
AcDbEntity
  8
1
 62
     7
100
AcDbCircle
 10
76.269301
 20
27.783469
 30
0.0
 40
3.0
100
AcDbArc
 50
180.0
 51
270.0
  0
ARC
  5
4B3
330
18
100
AcDbEntity
  8
1
 62
     7
100
AcDbCircle
 10
82.269301
 20
27.783469
 30
0.0
 40
3.0
100
AcDbArc
 50
270.0
 51
0.0
  0
ARC
  5
4B4
330
18
100
AcDbEntity
  8
1
 62
     7
100
AcDbCircle
 10
82.269301
 20
30.541114
 30
0.0
 40
3.0
100
AcDbArc
 50
0.0
 51
90.0
  0
ARC
  5
4B5
330
18
100
AcDbEntity
  8
1
 62
     7
100
AcDbCircle
 10
82.76930099999999
 20
30.041114
 30
0.0
 40
3.5
100
AcDbArc
 50
0.0
 51
90.0
  0
ARC
  5
4B6
330
18
100
AcDbEntity
  8
1
 62
     7
100
AcDbCircle
 10
82.76930099999999
 20
26.42306099999999
 30
0.0
 40
3.5
100
AcDbArc
 50
270.0
 51
0.0
  0
ARC
  5
4B7
330
18
100
AcDbEntity
  8
1
 62
     7
100
AcDbCircle
 10
82.76930099999999
 20
24.843033
 30
0.0
 40
3.5
100
AcDbArc
 50
270.0
 51
0.0
  0
ARC
  5
4B8
330
18
100
AcDbEntity
  8
1
 62
     7
100
AcDbCircle
 10
75.769301
 20
24.843033
 30
0.0
 40
3.5
100
AcDbArc
 50
180.0
 51
270.0
  0
ARC
  5
4B9
330
18
100
AcDbEntity
  8
1
 62
     7
100
AcDbCircle
 10
75.769301
 20
26.42306099999999
 30
0.0
 40
3.5
100
AcDbArc
 50
180.0
 51
270.0
  0
ARC
  5
4BA
330
18
100
AcDbEntity
  8
1
 62
     7
100
AcDbCircle
 10
75.769301
 20
30.041114
 30
0.0
 40
3.5
100
AcDbArc
 50
90.0
 51
180.0
  0
ARC
  5
4BB
330
18
100
AcDbEntity
  8
1
 62
     7
100
AcDbCircle
 10
65.89249699999999
 20
39.303407
 30
0.0
 40
2.0
100
AcDbArc
 50
180.0
 51
270.0
  0
ARC
  5
4BC
330
18
100
AcDbEntity
  8
1
 62
     7
100
AcDbCircle
 10
65.89249699999999
 20
39.303407
 30
0.0
 40
3.5
100
AcDbArc
 50
180.0
 51
270.0
  0
ARC
  5
4BD
330
18
100
AcDbEntity
  8
1
 62
     7
100
AcDbCircle
 10
89.26930099999999
 20
38.303407
 30
0.0
 40
0.5
100
AcDbArc
 50
0.0
 51
90.0
  0
ARC
  5
4BE
330
18
100
AcDbEntity
  8
1
 62
     7
100
AcDbCircle
 10
72.769301
 20
38.303407
 30
0.0
 40
0.5
100
AcDbArc
 50
90.0
 51
180.0
  0
ARC
  5
4BF
330
18
100
AcDbEntity
  8
1
 62
     7
100
AcDbCircle
 10
85.26930099999999
 20
-5.697214999999999
 30
0.0
 40
1.0
100
AcDbArc
 50
270.0
 51
0.0
  0
ARC
  5
4C0
330
18
100
AcDbEntity
  8
1
 62
     7
100
AcDbCircle
 10
73.269301
 20
-5.697214999999999
 30
0.0
 40
1.0
100
AcDbArc
 50
180.0
 51
270.0
  0
LINE
  5
4C1
330
18
100
AcDbEntity
  8
1
 62
     7
100
AcDbLine
 10
167.514976
 20
59.28840699999999
 30
0.0
 11
125.2693009999999
 21
59.28840699999999
 31
0.0
  0
LINE
  5
4C2
330
18
100
AcDbEntity
  8
1
 62
     7
100
AcDbLine
 10
125.2693009999999
 20
59.28840699999999
 30
0.0
 11
115.0843009999999
 21
48.455022
 31
0.0
  0
SOLID
  5
4C3
330
18
100
AcDbEntity
  8
1
 62
     7
100
AcDbTrace
 10
117.145973
 20
51.32065
 30
0.0
 11
117.8174019999999
 21
50.689406
 31
0.0
 12
115.0843009999999
 22
48.455022
 32
0.0
 13
115.0843009999999
 23
48.455022
 33
0.0
  0
LINE
  5
4C4
330
18
100
AcDbEntity
  8
1
 62
     7
100
AcDbLine
 10
11.84912299999999
 20
59.28840699999999
 30
0.0
 11
53.769301
 21
59.28840699999999
 31
0.0
  0
LINE
  5
4C5
330
18
100
AcDbEntity
  8
1
 62
     7
100
AcDbLine
 10
53.769301
 20
59.28840699999999
 30
0.0
 11
62.392497
 21
41.24087
 31
0.0
  0
SOLID
  5
4C6
330
18
100
AcDbEntity
  8
1
 62
     7
100
AcDbTrace
 10
60.467813
 20
44.20024699999999
 30
0.0
 11
61.29933799999999
 21
44.59755399999999
 31
0.0
 12
62.392497
 22
41.24087
 32
0.0
 13
62.392497
 23
41.24087
 33
0.0
  0
TEXT
  5
4C7
330
18
100
AcDbEntity
  8
1
 62
     7
100
AcDbText
 10
164.929323
 20
56.608376
 30
0.0
 40
1.5
  1
2
 41
0.9
 72
     1
 11
165.3793229999999
 21
57.35837599999999
 31
0.0
100
AcDbText
 73
     2
  0
TEXT
  5
4C8
330
18
100
AcDbEntity
  8
1
 62
     7
100
AcDbText
 10
127.366462
 20
54.108697
 30
0.0
 40
3.5
  1
L=600mm 0.4mm
 41
0.9
 72
     1
 11
145.478962
 21
55.85869699999999
 31
0.0
100
AcDbText
 73
     2
  0
TEXT
  5
4C9
330
18
100
AcDbEntity
  8
1
 62
     7
100
AcDbText
 10
129.5024699999999
 20
60.18239300000001
 30
0.0
 40
3.5
  1
TACHO LEADS
 41
0.9
 72
     1
 11
146.30247
 21
61.93239300000001
 31
0.0
100
AcDbText
 73
     2
  0
TEXT
  5
4CA
330
18
100
AcDbEntity
  8
1
 62
     7
100
AcDbText
 10
107.297709
 20
-51.142882
 30
0.0
 40
4.5
  1
RH-8D,11D,14D Tacho Generator Version
 41
0.9
100
AcDbText
  0
TEXT
  5
4CF
330
18
100
AcDbEntity
  8
1
 62
     3
100
AcDbText
 10
-76.985171
 20
-60.45368
 30
0.0
 40
2.0
  1
 
 41
0.9
100
AcDbText
  0
TEXT
  5
4D6
330
18
100
AcDbEntity
  8
1
 62
     7
100
AcDbText
 10
52.229065
 20
56.53582199999999
 30
0.0
 40
1.5
  1
2
 41
0.9
 72
     1
 11
52.679065
 21
57.28582199999999
 31
0.0
100
AcDbText
 73
     2
  0
TEXT
  5
4D7
330
18
100
AcDbEntity
  8
1
 62
     7
100
AcDbText
 10
16.36552
 20
60.1787
 30
0.0
 40
3.5
  1
MOTOR LEADS
 41
0.9
 72
     1
 11
33.16552
 21
61.9287
 31
0.0
100
AcDbText
 73
     2
  0
TEXT
  5
4D8
330
18
100
AcDbEntity
  8
1
 62
     7
100
AcDbText
 10
14.71658000000001
 20
53.719043
 30
0.0
 40
3.5
  1
L=600mm 0.4mm
 41
0.9
 72
     1
 11
32.82907999999999
 21
55.46904300000001
 31
0.0
100
AcDbText
 73
     2
  0
ARC
  5
6BC
330
18
100
AcDbEntity
  8
1
 62
     7
100
AcDbCircle
 10
70.93541999999999
 20
40.176349
 30
0.0
 40
5.556258
100
AcDbArc
 50
230.7945659999999
 51
231.908814
  0
ARC
  5
6BD
330
18
100
AcDbEntity
  8
1
 62
     7
100
AcDbCircle
 10
68.448934
 20
37.13057599999999
 30
0.0
 40
1.624422
100
AcDbArc
 50
227.198639
 51
230.847404
  0
ARC
  5
6BE
330
18
100
AcDbEntity
  8
1
 62
     7
100
AcDbCircle
 10
67.85356400000001
 20
36.49018199999999
 30
0.0
 40
0.750029
100
AcDbArc
 50
220.0846009999999
 51
227.329258
  0
ARC
  5
6BF
330
18
100
AcDbEntity
  8
1
 62
     7
100
AcDbCircle
 10
67.561587
 20
36.246415
 30
0.0
 40
0.369675
100
AcDbArc
 50
207.317799
 51
220.3178349999999
  0
ARC
  5
6C0
330
18
100
AcDbEntity
  8
1
 62
     7
100
AcDbCircle
 10
67.411013
 20
36.169065
 30
0.0
 40
0.200397
100
AcDbArc
 50
186.1295729999999
 51
207.426036
  0
ARC
  5
6C1
330
18
100
AcDbEntity
  8
1
 62
     7
100
AcDbCircle
 10
67.403435
 20
36.16293399999999
 30
0.0
 40
0.192281
100
AcDbArc
 50
160.253035
 51
184.55399
  0
ARC
  5
6C2
330
18
100
AcDbEntity
  8
1
 62
     7
100
AcDbCircle
 10
67.549202
 20
36.110766
 30
0.0
 40
0.3471010000000001
100
AcDbArc
 50
145.090157
 51
160.2777179999999
  0
ARC
  5
6C3
330
18
100
AcDbEntity
  8
1
 62
     7
100
AcDbCircle
 10
67.83558499999999
 20
35.915071
 30
0.0
 40
0.693953
100
AcDbArc
 50
136.65721
 51
145.3719409999999
  0
ARC
  5
6C4
330
18
100
AcDbEntity
  8
1
 62
     7
100
AcDbCircle
 10
68.32463199999999
 20
35.458926
 30
0.0
 40
1.362702999999999
100
AcDbArc
 50
131.914001
 51
136.8223299999999
  0
ARC
  5
6C5
330
18
100
AcDbEntity
  8
1
 62
     7
100
AcDbCircle
 10
69.3138
 20
34.362588
 30
0.0
 40
2.839322
100
AcDbArc
 50
129.502274
 51
131.9890279999999
  0
ARC
  5
6C6
330
18
100
AcDbEntity
  8
1
 62
     7
100
AcDbCircle
 10
91.72813599999999
 20
7.113178999999999
 30
0.0
 40
38.122926
100
AcDbArc
 50
129.2529
 51
129.444105
  0
ARC
  5
6C7
330
18
100
AcDbEntity
  8
1
 62
     7
100
AcDbCircle
 10
66.02572099999999
 20
38.571749
 30
0.0
 40
2.500415999999999
100
AcDbArc
 50
309.200192
 51
311.9800759999999
  0
ARC
  5
6C8
330
18
100
AcDbEntity
  8
1
 62
     7
100
AcDbCircle
 10
67.074004
 20
37.406698
 30
0.0
 40
0.9331759999999999
100
AcDbArc
 50
311.9800759999999
 51
318.679351
  0
ARC
  5
6C9
330
18
100
AcDbEntity
  8
1
 62
     7
100
AcDbCircle
 10
67.494315
 20
37.037178
 30
0.0
 40
0.373528
100
AcDbArc
 50
318.679351
 51
332.9122229999999
  0
ARC
  5
6CA
330
18
100
AcDbEntity
  8
1
 62
     7
100
AcDbCircle
 10
67.67912599999999
 20
36.942655
 30
0.0
 40
0.165947
100
AcDbArc
 50
332.9122229999999
 51
0.1149
  0
ARC
  5
6CB
330
18
100
AcDbEntity
  8
1
 62
     7
100
AcDbCircle
 10
67.703731
 20
36.942704
 30
0.0
 40
0.141342
100
AcDbArc
 50
0.1149
 51
30.943181
  0
ARC
  5
6CC
330
18
100
AcDbEntity
  8
1
 62
     7
100
AcDbCircle
 10
67.35650699999999
 20
36.73454
 30
0.0
 40
0.5461840000000001
100
AcDbArc
 50
30.943181
 51
40.26724399999999
  0
ARC
  5
6CD
330
18
100
AcDbEntity
  8
1
 62
     7
100
AcDbCircle
 10
67.394657
 20
36.76685599999999
 30
0.0
 40
0.496186
100
AcDbArc
 50
40.26724399999999
 51
52.328325
  0
ARC
  5
6CE
330
18
100
AcDbEntity
  8
1
 62
     7
100
AcDbCircle
 10
66.5236
 20
35.76509799999999
 30
0.0
 40
1.823075
100
AcDbArc
 50
49.899663
 51
53.54970999999999
  0
ARC
  5
6CF
330
18
100
AcDbEntity
  8
1
 62
     7
100
AcDbCircle
 10
63.300154
 20
31.400947
 30
0.0
 40
7.248609
100
AcDbArc
 50
53.54970999999999
 51
54.517094
  0
ARC
  5
6D0
330
18
100
AcDbEntity
  8
1
 62
     7
100
AcDbCircle
 10
63.71681399999999
 20
40.97001099999999
 30
0.0
 40
6.408157
100
AcDbArc
 50
306.268445
 51
307.382602
  0
ARC
  5
6D1
330
18
100
AcDbEntity
  8
1
 62
     7
100
AcDbCircle
 10
66.459066
 20
37.38103499999999
 30
0.0
 40
1.891443999999999
100
AcDbArc
 50
307.382602
 51
310.965515
  0
ARC
  5
6D2
330
18
100
AcDbEntity
  8
1
 62
     7
100
AcDbCircle
 10
67.16274900000001
 20
36.57055599999999
 30
0.0
 40
0.81811
100
AcDbArc
 50
310.965515
 51
318.4127189999999
  0
ARC
  5
6D3
330
18
100
AcDbEntity
  8
1
 62
     7
100
AcDbCircle
 10
67.500609
 20
36.270724
 30
0.0
 40
0.366393
100
AcDbArc
 50
318.4127189999999
 51
332.6330459999999
  0
ARC
  5
6D4
330
18
100
AcDbEntity
  8
1
 62
     7
100
AcDbCircle
 10
67.674299
 20
36.18081899999999
 30
0.0
 40
0.170814
100
AcDbArc
 50
332.6330459999999
 51
358.760402
  0
ARC
  5
6D5
330
18
100
AcDbEntity
  8
1
 62
     7
100
AcDbCircle
 10
67.697525
 20
36.180316
 30
0.0
 40
0.147582
100
AcDbArc
 50
358.760402
 51
29.191868
  0
ARC
  5
6D6
330
18
100
AcDbEntity
  8
1
 62
     7
100
AcDbCircle
 10
67.375794
 20
36.00056699999999
 30
0.0
 40
0.51612
100
AcDbArc
 50
29.191868
 51
39.308422
  0
ARC
  5
6D7
330
18
100
AcDbEntity
  8
1
 62
     7
100
AcDbCircle
 10
67.368044
 20
35.994221
 30
0.0
 40
0.526138
100
AcDbArc
 50
39.308422
 51
50.94643099999999
  0
ARC
  5
6D8
330
18
100
AcDbEntity
  8
1
 62
     7
100
AcDbCircle
 10
66.494775
 20
35.0267
 30
0.0
 40
1.828959
100
AcDbArc
 50
48.798166
 51
52.519817
  0
ARC
  5
6D9
330
18
100
AcDbEntity
  8
1
 62
     7
100
AcDbCircle
 10
63.184588
 20
30.709689
 30
0.0
 40
7.268988
100
AcDbArc
 50
52.519817
 51
53.506524
  0
ARC
  5
6DA
330
18
100
AcDbEntity
  8
1
 62
     7
100
AcDbCircle
 10
73.22010300000001
 20
39.854078
 30
0.0
 40
5.658337
100
AcDbArc
 50
224.535507
 51
225.7150859999999
  0
ARC
  5
6DB
330
18
100
AcDbEntity
  8
1
 62
     7
100
AcDbCircle
 10
70.35436800000001
 20
37.036846
 30
0.0
 40
1.639726999999999
100
AcDbArc
 50
220.7099599999999
 51
224.595543
  0
ARC
  5
6DC
330
18
100
AcDbEntity
  8
1
 62
     7
100
AcDbCircle
 10
69.67403799999999
 20
36.454039
 30
0.0
 40
0.7439
100
AcDbArc
 50
213.0540109999999
 51
220.8603259999999
  0
ARC
  5
6DD
330
18
100
AcDbEntity
  8
1
 62
     7
100
AcDbCircle
 10
69.350518
 20
36.245494
 30
0.0
 40
0.358997
100
AcDbArc
 50
199.111081
 51
213.319662
  0
ARC
  5
6DE
330
18
100
AcDbEntity
  8
1
 62
     7
100
AcDbCircle
 10
69.196009
 20
36.192136
 30
0.0
 40
0.195535
100
AcDbArc
 50
175.951695
 51
199.160318
  0
ARC
  5
6DF
330
18
100
AcDbEntity
  8
1
 62
     7
100
AcDbCircle
 10
69.200777
 20
36.18625699999999
 30
0.0
 40
0.200782
100
AcDbArc
 50
153.2880739999999
 51
174.3742899999999
  0
ARC
  5
6E0
330
18
100
AcDbEntity
  8
1
 62
     7
100
AcDbCircle
 10
69.355214
 20
36.109253
 30
0.0
 40
0.373352
100
AcDbArc
 50
140.6643419999999
 51
153.38541
  0
ARC
  5
6E1
330
18
100
AcDbEntity
  8
1
 62
     7
100
AcDbCircle
 10
69.675565
 20
35.850792
 30
0.0
 40
0.78496
100
AcDbArc
 50
134.0714299999999
 51
140.8944759999999
  0
ARC
  5
6E2
330
18
100
AcDbEntity
  8
1
 62
     7
100
AcDbCircle
 10
70.46268799999999
 20
35.04382299999999
 30
0.0
 40
1.912238
100
AcDbArc
 50
131.1498929999999
 51
134.198353
  0
ARC
  5
6E3
330
18
100
AcDbEntity
  8
1
 62
     7
100
AcDbCircle
 10
83.74041400000001
 20
19.877076
 30
0.0
 40
22.069822
100
AcDbArc
 50
130.9206929999999
 51
131.19613
  0
ARC
  5
6E4
330
18
100
AcDbEntity
  8
1
 62
     7
100
AcDbCircle
 10
67.277084
 20
38.865654
 30
0.0
 40
3.061977999999999
100
AcDbArc
 50
310.961685
 51
312.952358
  0
ARC
  5
6E5
330
18
100
AcDbEntity
  8
1
 62
     7
100
AcDbCircle
 10
68.422379
 20
37.635427
 30
0.0
 40
1.381156999999999
100
AcDbArc
 50
312.952358
 51
317.182363
  0
ARC
  5
6E6
330
18
100
AcDbEntity
  8
1
 62
     7
100
AcDbCircle
 10
68.91798100000001
 20
37.17620999999999
 30
0.0
 40
0.7055080000000001
100
AcDbArc
 50
317.182363
 51
324.805743
  0
ARC
  5
6E7
330
18
100
AcDbEntity
  8
1
 62
     7
100
AcDbCircle
 10
69.18972099999999
 20
36.98455999999999
 30
0.0
 40
0.372983
100
AcDbArc
 50
324.805743
 51
337.674417
  0
ARC
  5
6E8
330
18
100
AcDbEntity
  8
1
 62
     7
100
AcDbCircle
 10
69.341824
 20
36.92209899999999
 30
0.0
 40
0.208555
100
AcDbArc
 50
337.674417
 51
358.386233
  0
ARC
  5
6E9
330
18
100
AcDbEntity
  8
1
 62
     7
100
AcDbCircle
 10
69.365463
 20
36.921433
 30
0.0
 40
0.184906
100
AcDbArc
 50
358.386233
 51
23.11264899999999
  0
ARC
  5
6EA
330
18
100
AcDbEntity
  8
1
 62
     7
100
AcDbCircle
 10
69.115049
 20
36.814557
 30
0.0
 40
0.4571740000000001
100
AcDbArc
 50
23.11264899999999
 51
34.20662399999999
  0
ARC
  5
6EB
330
18
100
AcDbEntity
  8
1
 62
     7
100
AcDbCircle
 10
69.018658
 20
36.749033
 30
0.0
 40
0.5737270000000001
100
AcDbArc
 50
34.20662399999999
 51
44.19056099999999
  0
ARC
  5
6EC
330
18
100
AcDbEntity
  8
1
 62
     7
100
AcDbCircle
 10
66.143141
 20
33.953637
 30
0.0
 40
4.584069
100
AcDbArc
 50
44.19056099999999
 51
45.553194
  0
ARC
  5
6ED
330
18
100
AcDbEntity
  8
1
 62
     7
100
AcDbCircle
 10
68.083523
 20
35.931854
 30
0.0
 40
1.813070999999999
100
AcDbArc
 50
45.553194
 51
49.154924
  0
ARC
  5
6EE
330
18
100
AcDbEntity
  8
1
 62
     7
100
AcDbCircle
 10
72.92882099999999
 20
40.70793199999999
 30
0.0
 40
5.526486
100
AcDbArc
 50
227.575254
 51
228.742017
  0
ARC
  5
6EF
330
18
100
AcDbEntity
  8
1
 62
     7
100
AcDbCircle
 10
70.28640199999999
 20
37.818979
 30
0.0
 40
1.611334
100
AcDbArc
 50
223.8040779999999
 51
227.631781
  0
ARC
  5
6F0
330
18
100
AcDbEntity
  8
1
 62
     7
100
AcDbCircle
 10
69.656889
 20
37.217704
 30
0.0
 40
0.7408100000000001
100
AcDbArc
 50
216.3212839999999
 51
223.943152
  0
ARC
  5
6F1
330
18
100
AcDbEntity
  8
1
 62
     7
100
AcDbCircle
 10
69.353166
 20
36.996316
 30
0.0
 40
0.364971
100
AcDbArc
 50
202.878967
 51
216.560773
  0
ARC
  5
6F2
330
18
100
AcDbEntity
  8
1
 62
     7
100
AcDbCircle
 10
69.202968
 20
36.93314
 30
0.0
 40
0.202027
100
AcDbArc
 50
180.827929
 51
202.9325029999999
  0
ARC
  5
6F3
330
18
100
AcDbEntity
  8
1
 62
     7
100
AcDbCircle
 10
69.20447800000001
 20
36.92783499999999
 30
0.0
 40
0.20353
100
AcDbArc
 50
157.8894139999999
 51
179.328248
  0
ARC
  5
6F4
330
18
100
AcDbEntity
  8
1
 62
     7
100
AcDbCircle
 10
69.356104
 20
36.86670499999999
 30
0.0
 40
0.367015
100
AcDbArc
 50
144.670516
 51
157.9576439999999
  0
ARC
  5
6F5
330
18
100
AcDbEntity
  8
1
 62
     7
100
AcDbCircle
 10
69.660748
 20
36.654362
 30
0.0
 40
0.738354
100
AcDbArc
 50
137.4514199999999
 51
144.8978979999999
  0
ARC
  5
6F6
330
18
100
AcDbEntity
  8
1
 62
     7
100
AcDbCircle
 10
70.294422
 20
36.077715
 30
0.0
 40
1.595126999999999
100
AcDbArc
 50
133.827001
 51
137.5836649999999
  0
ARC
  5
6F7
330
18
100
AcDbEntity
  8
1
 62
     7
100
AcDbCircle
 10
72.969464
 20
33.298271
 30
0.0
 40
5.452735999999999
100
AcDbArc
 50
132.73344
 51
133.881099
  0
ARC
  5
6F8
330
18
100
AcDbEntity
  8
1
 62
     7
100
AcDbCircle
 10
131.5985959999999
 20
31.25981599999999
 30
0.0
 40
24.391517
100
AcDbArc
 50
184.093393
 51
184.4217529999999
  0
ARC
  5
6F9
330
18
100
AcDbEntity
  8
1
 62
     7
100
AcDbCircle
 10
115.360882
 20
30.004191
 30
0.0
 40
8.105328999999999
100
AcDbArc
 50
184.4217529999999
 51
185.408598
  0
ARC
  5
6FA
330
18
100
AcDbEntity
  8
1
 62
     7
100
AcDbCircle
 10
112.0978419999999
 20
29.695249
 30
0.0
 40
4.827695999999999
100
AcDbArc
 50
185.408598
 51
187.0617489999999
  0
ARC
  5
6FB
330
18
100
AcDbEntity
  8
1
 62
     7
100
AcDbCircle
 10
110.704408
 20
29.522632
 30
0.0
 40
3.423611
100
AcDbArc
 50
187.0617489999999
 51
189.3874219999999
  0
ARC
  5
6FC
330
18
100
AcDbEntity
  8
1
 62
     7
100
AcDbCircle
 10
109.942059
 20
29.39659799999999
 30
0.0
 40
2.650913999999999
100
AcDbArc
 50
189.3874219999999
 51
192.387236
  0
ARC
  5
6FD
330
18
100
AcDbEntity
  8
1
 62
     7
100
AcDbCircle
 10
109.699075
 20
29.343231
 30
0.0
 40
2.402139
100
AcDbArc
 50
192.387236
 51
197.1601569999999
  0
ARC
  5
6FE
330
18
100
AcDbEntity
  8
1
 62
     7
100
AcDbCircle
 10
110.132994
 20
29.477221
 30
0.0
 40
2.856273999999999
100
AcDbArc
 50
197.1601569999999
 51
201.1878139999999
  0
ARC
  5
6FF
330
18
100
AcDbEntity
  8
1
 62
     7
100
AcDbCircle
 10
110.148828
 20
29.483359
 30
0.0
 40
2.873255999999999
100
AcDbArc
 50
201.1878139999999
 51
205.206255
  0
ARC
  5
700
330
18
100
AcDbEntity
  8
1
 62
     7
100
AcDbCircle
 10
110.692422
 20
29.739227
 30
0.0
 40
3.474058
100
AcDbArc
 50
205.206255
 51
208.5379439999999
  0
ARC
  5
701
330
18
100
AcDbEntity
  8
1
 62
     7
100
AcDbCircle
 10
110.6375139999999
 20
29.70936699999999
 30
0.0
 40
3.411555999999999
100
AcDbArc
 50
208.5379439999999
 51
211.9318589999999
  0
ARC
  5
702
330
18
100
AcDbEntity
  8
1
 62
     7
100
AcDbCircle
 10
111.159896
 20
30.034925
 30
0.0
 40
4.02708
100
AcDbArc
 50
211.9318589999999
 51
215.499579
  0
ARC
  5
703
330
18
100
AcDbEntity
  8
1
 62
     7
100
AcDbCircle
 10
110.94842
 20
29.884083
 30
0.0
 40
3.767319999999999
100
AcDbArc
 50
215.499579
 51
219.3059589999999
  0
ARC
  5
704
330
18
100
AcDbEntity
  8
1
 62
     7
100
AcDbCircle
 10
111.426383
 20
30.27537399999999
 30
0.0
 40
4.385023
100
AcDbArc
 50
219.3059589999999
 51
222.572586
  0
ARC
  5
705
330
18
100
AcDbEntity
  8
1
 62
     7
100
AcDbCircle
 10
111.3092379999999
 20
30.167757
 30
0.0
 40
4.225951
100
AcDbArc
 50
222.572586
 51
229.3456519999999
  0
ARC
  5
706
330
18
100
AcDbEntity
  8
1
 62
     7
100
AcDbCircle
 10
111.8772949999999
 20
30.829249
 30
0.0
 40
5.097879999999999
100
AcDbArc
 50
229.3456519999999
 51
233.111442
  0
ARC
  5
707
330
18
100
AcDbEntity
  8
1
 62
     7
100
AcDbCircle
 10
111.470536
 20
30.287272
 30
0.0
 40
4.420242
100
AcDbArc
 50
233.111442
 51
235.28265
  0
ARC
  5
708
330
18
100
AcDbEntity
  8
1
 62
     7
100
AcDbCircle
 10
112.393233
 20
31.618954
 30
0.0
 40
6.04035
100
AcDbArc
 50
235.28265
 51
236.871604
  0
ARC
  5
709
330
18
100
AcDbEntity
  8
1
 62
     7
100
AcDbCircle
 10
111.680287
 20
30.526481
 30
0.0
 40
4.735822999999999
100
AcDbArc
 50
236.871604
 51
238.898476
  0
ARC
  5
70A
330
18
100
AcDbEntity
  8
1
 62
     7
100
AcDbCircle
 10
112.469001
 20
31.833869
 30
0.0
 40
6.262692999999999
100
AcDbArc
 50
238.898476
 51
241.1092309999999
  0
ARC
  5
70B
330
18
100
AcDbEntity
  8
1
 62
     7
100
AcDbCircle
 10
111.9908229999999
 20
30.967321
 30
0.0
 40
5.272966
100
AcDbArc
 50
241.1092309999999
 51
243.735601
  0
ARC
  5
70C
330
18
100
AcDbEntity
  8
1
 62
     7
100
AcDbCircle
 10
112.660716
 20
32.324869
 30
0.0
 40
6.7868
100
AcDbArc
 50
243.735601
 51
245.776675
  0
ARC
  5
70D
330
18
100
AcDbEntity
  8
1
 62
     7
100
AcDbCircle
 10
112.182482
 20
31.261907
 30
0.0
 40
5.621211999999999
100
AcDbArc
 50
245.776675
 51
248.2415039999999
  0
ARC
  5
70E
330
18
100
AcDbEntity
  8
1
 62
     7
100
AcDbCircle
 10
112.6654669999999
 20
32.471999
 30
0.0
 40
6.924129999999999
100
AcDbArc
 50
248.2415039999999
 51
252.299545
  0
ARC
  5
70F
330
18
100
AcDbEntity
  8
1
 62
     7
100
AcDbCircle
 10
112.5507
 20
32.112396
 30
0.0
 40
6.546656999999999
100
AcDbArc
 50
252.299545
 51
256.6504039999999
  0
ARC
  5
710
330
18
100
AcDbEntity
  8
1
 62
     7
100
AcDbCircle
 10
112.800823
 20
33.166413
 30
0.0
 40
7.629946
100
AcDbArc
 50
256.6504039999999
 51
260.383507
  0
ARC
  5
711
330
18
100
AcDbEntity
  8
1
 62
     7
100
AcDbCircle
 10
112.741329
 20
32.815281
 30
0.0
 40
7.27381
100
AcDbArc
 50
260.383507
 51
268.253664
  0
ARC
  5
712
330
18
100
AcDbEntity
  8
1
 62
     7
100
AcDbCircle
 10
112.754458
 20
33.245901
 30
0.0
 40
7.704629999999999
100
AcDbArc
 50
268.253664
 51
281.63493
  0
ARC
  5
713
330
18
100
AcDbEntity
  8
1
 62
     7
100
AcDbCircle
 10
113.0272149999999
 20
31.921235
 30
0.0
 40
6.352173999999999
100
AcDbArc
 50
281.63493
 51
286.9793149999999
  0
ARC
  5
714
330
18
100
AcDbEntity
  8
1
 62
     7
100
AcDbCircle
 10
112.725898
 20
32.908073
 30
0.0
 40
7.383988
100
AcDbArc
 50
286.9793149999999
 51
291.235958
  0
ARC
  5
715
330
18
100
AcDbEntity
  8
1
 62
     7
100
AcDbCircle
 10
113.5489159999999
 20
30.79015
 30
0.0
 40
5.111773999999999
100
AcDbArc
 50
291.235958
 51
294.0646
  0
ARC
  5
716
330
18
100
AcDbEntity
  8
1
 62
     7
100
AcDbCircle
 10
112.460877
 20
33.226528
 30
0.0
 40
7.780063
100
AcDbArc
 50
294.0646
 51
295.922723
  0
ARC
  5
717
330
18
100
AcDbEntity
  8
1
 62
     7
100
AcDbCircle
 10
113.755775
 20
30.56247899999999
 30
0.0
 40
4.817984
100
AcDbArc
 50
295.922723
 51
298.923366
  0
ARC
  5
718
330
18
100
AcDbEntity
  8
1
 62
     7
100
AcDbCircle
 10
112.650037
 20
32.563592
 30
0.0
 40
7.104271
100
AcDbArc
 50
298.923366
 51
300.958849
  0
ARC
  5
719
330
18
100
AcDbEntity
  8
1
 62
     7
100
AcDbCircle
 10
114.00447
 20
30.305765
 30
0.0
 40
4.47135
100
AcDbArc
 50
300.958849
 51
303.985099
  0
ARC
  5
71A
330
18
100
AcDbEntity
  8
1
 62
     7
100
AcDbCircle
 10
112.9482639999999
 20
31.872533
 30
0.0
 40
6.360883
100
AcDbArc
 50
303.985099
 51
306.112506
  0
ARC
  5
71B
330
18
100
AcDbEntity
  8
1
 62
     7
100
AcDbCircle
 10
114.29451
 20
30.02721599999999
 30
0.0
 40
4.076681999999999
100
AcDbArc
 50
306.112506
 51
309.431432
  0
ARC
  5
71C
330
18
100
AcDbEntity
  8
1
 62
     7
100
AcDbCircle
 10
113.35573
 20
31.168828
 30
0.0
 40
5.554715999999999
100
AcDbArc
 50
309.431432
 51
311.866589
  0
ARC
  5
71D
330
18
100
AcDbEntity
  8
1
 62
     7
100
AcDbCircle
 10
114.5801559999999
 20
29.802581
 30
0.0
 40
3.720091
100
AcDbArc
 50
311.866589
 51
315.50389
  0
ARC
  5
71E
330
18
100
AcDbEntity
  8
1
 62
     7
100
AcDbCircle
 10
114.03671
 20
30.336551
 30
0.0
 40
4.481969
100
AcDbArc
 50
315.50389
 51
321.623947
  0
ARC
  5
71F
330
18
100
AcDbEntity
  8
1
 62
     7
100
AcDbCircle
 10
114.9542019999999
 20
29.60998
 30
0.0
 40
3.311628999999999
100
AcDbArc
 50
321.623947
 51
325.767422
  0
ARC
  5
720
330
18
100
AcDbEntity
  8
1
 62
     7
100
AcDbCircle
 10
113.966355
 20
30.28214199999999
 30
0.0
 40
4.506469
100
AcDbArc
 50
325.767422
 51
328.8124809999999
  0
ARC
  5
721
330
18
100
AcDbEntity
  8
1
 62
     7
100
AcDbCircle
 10
115.170473
 20
29.55325999999999
 30
0.0
 40
3.098927999999999
100
AcDbArc
 50
328.8124809999999
 51
333.2442009999999
  0
ARC
  5
722
330
18
100
AcDbEntity
  8
1
 62
     7
100
AcDbCircle
 10
113.8599899999999
 20
30.213965
 30
0.0
 40
4.566544999999999
100
AcDbArc
 50
333.2442009999999
 51
335.046562
  0
ARC
  5
723
330
18
100
AcDbEntity
  8
1
 62
     7
100
AcDbCircle
 10
115.721461
 20
29.347787
 30
0.0
 40
2.513415999999999
100
AcDbArc
 50
335.046562
 51
338.3194689999999
  0
ARC
  5
724
330
18
100
AcDbEntity
  8
1
 62
     7
100
AcDbCircle
 10
114.6661909999999
 20
29.767315
 30
0.0
 40
3.649020999999999
100
AcDbArc
 50
338.3194689999999
 51
340.5696279999999
  0
ARC
  5
725
330
18
100
AcDbEntity
  8
1
 62
     7
100
AcDbCircle
 10
116.047456
 20
29.28007199999999
 30
0.0
 40
2.184336999999999
100
AcDbArc
 50
340.5696279999999
 51
344.320088
  0
ARC
  5
726
330
18
100
AcDbEntity
  8
1
 62
     7
100
AcDbCircle
 10
115.5698659999999
 20
29.41413499999999
 30
0.0
 40
2.680385999999999
100
AcDbArc
 50
344.320088
 51
350.33566
  0
ARC
  5
727
330
18
100
AcDbEntity
  8
1
 62
     7
100
AcDbCircle
 10
115.4165389999999
 20
29.440246
 30
0.0
 40
2.83592
100
AcDbArc
 50
350.33566
 51
353.143316
  0
ARC
  5
728
330
18
100
AcDbEntity
  8
1
 62
     7
100
AcDbCircle
 10
112.035827
 20
29.846764
 30
0.0
 40
6.240986
100
AcDbArc
 50
353.143316
 51
354.4221149999999
  0
ARC
  5
729
330
18
100
AcDbEntity
  8
1
 62
     7
100
AcDbCircle
 10
112.6886879999999
 20
29.78300499999999
 30
0.0
 40
5.585018999999999
100
AcDbArc
 50
354.4221149999999
 51
355.854428
  0
ARC
  5
72A
330
18
100
AcDbEntity
  8
1
 62
     7
100
AcDbCircle
 10
94.56933000000001
 20
31.183399
 30
0.0
 40
23.758363
100
AcDbArc
 50
355.644937
 51
355.982091
  0
ARC
  5
72B
330
18
100
AcDbEntity
  8
1
 62
     7
100
AcDbCircle
 10
130.655856
 20
31.782101
 30
0.0
 40
23.44434899999999
100
AcDbArc
 50
184.023898
 51
184.364021
  0
ARC
  5
72C
330
18
100
AcDbEntity
  8
1
 62
     7
100
AcDbCircle
 10
115.0467719999999
 20
30.590907
 30
0.0
 40
7.789877999999999
100
AcDbArc
 50
184.364021
 51
185.386275
  0
ARC
  5
72D
330
18
100
AcDbEntity
  8
1
 62
     7
100
AcDbCircle
 10
111.909827
 20
30.295136
 30
0.0
 40
4.639019999999999
100
AcDbArc
 50
185.386275
 51
187.098952
  0
ARC
  5
72E
330
18
100
AcDbEntity
  8
1
 62
     7
100
AcDbCircle
 10
110.570928
 20
30.128392
 30
0.0
 40
3.289779
100
AcDbArc
 50
187.098952
 51
189.508399
  0
ARC
  5
72F
330
18
100
AcDbEntity
  8
1
 62
     7
100
AcDbCircle
 10
109.8396069999999
 20
30.005901
 30
0.0
 40
2.54827
100
AcDbArc
 50
189.508399
 51
192.615521
  0
ARC
  5
730
330
18
100
AcDbEntity
  8
1
 62
     7
100
AcDbCircle
 10
109.583832
 20
29.948656
 30
0.0
 40
2.286167999999999
100
AcDbArc
 50
192.615521
 51
196.17715
  0
ARC
  5
731
330
18
100
AcDbEntity
  8
1
 62
     7
100
AcDbCircle
 10
110.030134
 20
30.078126
 30
0.0
 40
2.750869999999999
100
AcDbArc
 50
196.17715
 51
199.144011
  0
ARC
  5
732
330
18
100
AcDbEntity
  8
1
 62
     7
100
AcDbCircle
 10
109.9848759999999
 20
30.062415
 30
0.0
 40
2.702963
100
AcDbArc
 50
199.144011
 51
202.170313
  0
ARC
  5
733
330
18
100
AcDbEntity
  8
1
 62
     7
100
AcDbCircle
 10
110.566051
 20
30.299236
 30
0.0
 40
3.330534999999999
100
AcDbArc
 50
202.170313
 51
204.6298549999999
  0
ARC
  5
734
330
18
100
AcDbEntity
  8
1
 62
     7
100
AcDbCircle
 10
110.456703
 20
30.24910399999999
 30
0.0
 40
3.210243999999999
100
AcDbArc
 50
204.6298549999999
 51
207.181699
  0
ARC
  5
735
330
18
100
AcDbEntity
  8
1
 62
     7
100
AcDbCircle
 10
110.91888
 20
30.486444
 30
0.0
 40
3.729798999999999
100
AcDbArc
 50
207.181699
 51
214.066583
  0
ARC
  5
736
330
18
100
AcDbEntity
  8
1
 62
     7
100
AcDbCircle
 10
110.870974
 20
30.45405099999999
 30
0.0
 40
3.671969
100
AcDbArc
 50
214.066583
 51
218.7225259999999
  0
ARC
  5
737
330
18
100
AcDbEntity
  8
1
 62
     7
100
AcDbCircle
 10
111.186884
 20
30.707346
 30
0.0
 40
4.076884999999999
100
AcDbArc
 50
218.7225259999999
 51
221.881633
  0
ARC
  5
738
330
18
100
AcDbEntity
  8
1
 62
     7
100
AcDbCircle
 10
111.1380909999999
 20
30.663595
 30
0.0
 40
4.01135
100
AcDbArc
 50
221.881633
 51
225.095427
  0
ARC
  5
739
330
18
100
AcDbEntity
  8
1
 62
     7
100
AcDbCircle
 10
111.540749
 20
31.067596
 30
0.0
 40
4.581744999999999
100
AcDbArc
 50
225.095427
 51
227.911687
  0
ARC
  5
73A
330
18
100
AcDbEntity
  8
1
 62
     7
100
AcDbCircle
 10
111.460873
 20
30.97915999999999
 30
0.0
 40
4.462576999999999
100
AcDbArc
 50
227.911687
 51
230.804548
  0
ARC
  5
73B
330
18
100
AcDbEntity
  8
1
 62
     7
100
AcDbCircle
 10
111.8379889999999
 20
31.44162399999999
 30
0.0
 40
5.059308999999999
100
AcDbArc
 50
230.804548
 51
235.521577
  0
ARC
  5
73C
330
18
100
AcDbEntity
  8
1
 62
     7
100
AcDbCircle
 10
111.9595679999999
 20
31.61866599999999
 30
0.0
 40
5.274076999999999
100
AcDbArc
 50
235.521577
 51
239.6740419999999
  0
ARC
  5
73D
330
18
100
AcDbEntity
  8
1
 62
     7
100
AcDbCircle
 10
112.279868
 20
32.166224
 30
0.0
 40
5.908437
100
AcDbArc
 50
239.6740419999999
 51
241.526917
  0
ARC
  5
73E
330
18
100
AcDbEntity
  8
1
 62
     7
100
AcDbCircle
 10
112.117884
 20
31.867552
 30
0.0
 40
5.568666
100
AcDbArc
 50
241.526917
 51
243.493106
  0
ARC
  5
73F
330
18
100
AcDbEntity
  8
1
 62
     7
100
AcDbCircle
 10
112.4291909999999
 20
32.49174899999999
 30
0.0
 40
6.266186
100
AcDbArc
 50
243.493106
 51
245.947023
  0
ARC
  5
740
330
18
100
AcDbEntity
  8
1
 62
     7
100
AcDbCircle
 10
112.3454509999999
 20
32.304132
 30
0.0
 40
6.060729
100
AcDbArc
 50
245.947023
 51
248.485137
  0
ARC
  5
741
330
18
100
AcDbEntity
  8
1
 62
     7
100
AcDbCircle
 10
112.595799
 20
32.93919499999999
 30
0.0
 40
6.743355999999999
100
AcDbArc
 50
248.485137
 51
250.7670399999999
  0
ARC
  5
742
330
18
100
AcDbEntity
  8
1
 62
     7
100
AcDbCircle
 10
112.563128
 20
32.84554899999999
 30
0.0
 40
6.644174
100
AcDbArc
 50
250.7670399999999
 51
255.398707
  0
ARC
  5
743
330
18
100
AcDbEntity
  8
1
 62
     7
100
AcDbCircle
 10
112.7513889999999
 20
33.56823
 30
0.0
 40
7.390974
100
AcDbArc
 50
255.398707
 51
259.7890279999999
  0
ARC
  5
744
330
18
100
AcDbEntity
  8
1
 62
     7
100
AcDbCircle
 10
112.7200399999999
 20
33.39419
 30
0.0
 40
7.214133999999999
100
AcDbArc
 50
259.7890279999999
 51
264.307849
  0
ARC
  5
745
330
18
100
AcDbEntity
  8
1
 62
     7
100
AcDbCircle
 10
112.754806
 20
33.742986
 30
0.0
 40
7.564658
100
AcDbArc
 50
264.307849
 51
288.6356549999999
  0
ARC
  5
746
330
18
100
AcDbEntity
  8
1
 62
     7
100
AcDbCircle
 10
113.540854
 20
31.412092
 30
0.0
 40
5.104791999999999
100
AcDbArc
 50
288.6356549999999
 51
294.785566
  0
ARC
  5
747
330
18
100
AcDbEntity
  8
1
 62
     7
100
AcDbCircle
 10
111.762708
 20
35.2629
 30
0.0
 40
9.346315999999999
100
AcDbArc
 50
294.785566
 51
296.9433009999999
  0
ARC
  5
748
330
18
100
AcDbEntity
  8
1
 62
     7
100
AcDbCircle
 10
114.08013
 20
30.70355499999999
 30
0.0
 40
4.231821
100
AcDbArc
 50
296.9433009999999
 51
301.7127459999999
  0
ARC
  5
749
330
18
100
AcDbEntity
  8
1
 62
     7
100
AcDbCircle
 10
111.1487569999999
 20
35.447492
 30
0.0
 40
9.808367999999999
100
AcDbArc
 50
301.7127459999999
 51
303.1897049999999
  0
ARC
  5
74A
330
18
100
AcDbEntity
  8
1
 62
     7
100
AcDbCircle
 10
114.5608179999999
 20
30.231271
 30
0.0
 40
3.575301
100
AcDbArc
 50
303.1897049999999
 51
307.244615
  0
ARC
  5
74B
330
18
100
AcDbEntity
  8
1
 62
     7
100
AcDbCircle
 10
111.8780889999999
 20
33.759927
 30
0.0
 40
8.007958
100
AcDbArc
 50
307.244615
 51
309.054426
  0
ARC
  5
74C
330
18
100
AcDbEntity
  8
1
 62
     7
100
AcDbCircle
 10
114.854336
 20
30.091698
 30
0.0
 40
3.284194
100
AcDbArc
 50
309.054426
 51
313.466416
  0
ARC
  5
74D
330
18
100
AcDbEntity
  8
1
 62
     7
100
AcDbCircle
 10
112.554777
 20
32.51777399999999
 30
0.0
 40
6.626919
100
AcDbArc
 50
313.466416
 51
315.6521649999999
  0
ARC
  5
74E
330
18
100
AcDbEntity
  8
1
 62
     7
100
AcDbCircle
 10
114.866211
 20
30.258369
 30
0.0
 40
3.394638999999999
100
AcDbArc
 50
315.6521649999999
 51
323.1319389999999
  0
ARC
  5
74F
330
18
100
AcDbEntity
  8
1
 62
     7
100
AcDbCircle
 10
113.916726
 20
30.97043499999999
 30
0.0
 40
4.581466999999999
100
AcDbArc
 50
323.1319389999999
 51
328.6738399999999
  0
ARC
  5
750
330
18
100
AcDbEntity
  8
1
 62
     7
100
AcDbCircle
 10
115.56499
 20
29.967244
 30
0.0
 40
2.651915999999999
100
AcDbArc
 50
328.6738399999999
 51
333.467538
  0
ARC
  5
751
330
18
100
AcDbEntity
  8
1
 62
     7
100
AcDbCircle
 10
111.655915
 20
31.919003
 30
0.0
 40
7.021152999999999
100
AcDbArc
 50
333.467538
 51
334.634937
  0
ARC
  5
752
330
18
100
AcDbEntity
  8
1
 62
     7
100
AcDbCircle
 10
116.1055949999999
 20
29.809464
 30
0.0
 40
2.096743999999999
100
AcDbArc
 50
334.634937
 51
338.542769
  0
ARC
  5
753
330
18
100
AcDbEntity
  8
1
 62
     7
100
AcDbCircle
 10
113.368207
 20
30.88539
 30
0.0
 40
5.037986
100
AcDbArc
 50
338.542769
 51
340.1660759999999
  0
ARC
  5
754
330
18
100
AcDbEntity
  8
1
 62
     7
100
AcDbCircle
 10
116.360489
 20
29.8061
 30
0.0
 40
1.857008999999999
100
AcDbArc
 50
340.1660759999999
 51
344.5605159999999
  0
ARC
  5
755
330
18
100
AcDbEntity
  8
1
 62
     7
100
AcDbCircle
 10
115.292166
 20
30.101158
 30
0.0
 40
2.965329
100
AcDbArc
 50
344.5605159999999
 51
349.97457
  0
ARC
  5
756
330
18
100
AcDbEntity
  8
1
 62
     7
100
AcDbCircle
 10
115.9521209999999
 20
29.984488
 30
0.0
 40
2.295139999999999
100
AcDbArc
 50
349.97457
 51
353.42834
  0
ARC
  5
757
330
18
100
AcDbEntity
  8
1
 62
     7
100
AcDbCircle
 10
106.1434669999999
 20
31.11447199999999
 30
0.0
 40
12.168669
100
AcDbArc
 50
353.42834
 51
354.081248
  0
ARC
  5
758
330
18
100
AcDbEntity
  8
1
 62
     7
100
AcDbCircle
 10
114.423359
 20
30.256089
 30
0.0
 40
3.844401
100
AcDbArc
 50
354.081248
 51
356.1528079999999
  0
ARC
  5
759
330
18
100
AcDbEntity
  8
1
 62
     7
100
AcDbCircle
 10
94.790687
 20
31.79315499999999
 30
0.0
 40
23.53695599999999
100
AcDbArc
 50
355.6261799999999
 51
355.964985
  0
ARC
  5
75A
330
18
100
AcDbEntity
  8
1
 62
     7
100
AcDbCircle
 10
115.512101
 20
30.772886
 30
0.0
 40
2.7572
100
AcDbArc
 50
0.009595
 51
8.515149
  0
ARC
  5
75B
330
18
100
AcDbEntity
  8
1
 62
     7
100
AcDbCircle
 10
115.402226
 20
30.75643499999999
 30
0.0
 40
2.868299
100
AcDbArc
 50
8.515149
 51
19.573187
  0
ARC
  5
75C
330
18
100
AcDbEntity
  8
1
 62
     7
100
AcDbCircle
 10
115.1356169999999
 20
30.66164
 30
0.0
 40
3.151259
100
AcDbArc
 50
19.573187
 51
24.677533
  0
ARC
  5
75D
330
18
100
AcDbEntity
  8
1
 62
     7
100
AcDbCircle
 10
115.120128
 20
30.65452399999999
 30
0.0
 40
3.168305
100
AcDbArc
 50
24.677533
 51
29.882602
  0
ARC
  5
75E
330
18
100
AcDbEntity
  8
1
 62
     7
100
AcDbCircle
 10
114.727061
 20
30.428659
 30
0.0
 40
3.621644
100
AcDbArc
 50
29.882602
 51
32.21529799999999
  0
ARC
  5
75F
330
18
100
AcDbEntity
  8
1
 62
     7
100
AcDbCircle
 10
114.872182
 20
30.520101
 30
0.0
 40
3.450116999999999
100
AcDbArc
 50
32.21529799999999
 51
37.113395
  0
ARC
  5
760
330
18
100
AcDbEntity
  8
1
 62
     7
100
AcDbCircle
 10
114.4207449999999
 20
30.178516
 30
0.0
 40
4.016221999999999
100
AcDbArc
 50
37.113395
 51
41.450114
  0
ARC
  5
761
330
18
100
AcDbEntity
  8
1
 62
     7
100
AcDbCircle
 10
114.4636329999999
 20
30.216392
 30
0.0
 40
3.959004
100
AcDbArc
 50
41.450114
 51
45.980622
  0
ARC
  5
762
330
18
100
AcDbEntity
  8
1
 62
     7
100
AcDbCircle
 10
113.954082
 20
29.689095
 30
0.0
 40
4.692273
100
AcDbArc
 50
45.980622
 51
49.803215
  0
ARC
  5
763
330
18
100
AcDbEntity
  8
1
 62
     7
100
AcDbCircle
 10
114.0341909999999
 20
29.783902
 30
0.0
 40
4.568152999999999
100
AcDbArc
 50
49.803215
 51
53.97345500000001
  0
ARC
  5
764
330
18
100
AcDbEntity
  8
1
 62
     7
100
AcDbCircle
 10
113.5291669999999
 20
29.089472
 30
0.0
 40
5.426804999999999
100
AcDbArc
 50
53.97345500000001
 51
57.483752
  0
ARC
  5
765
330
18
100
AcDbEntity
  8
1
 62
     7
100
AcDbCircle
 10
113.6356659999999
 20
29.25653699999999
 30
0.0
 40
5.228680999999999
100
AcDbArc
 50
57.483752
 51
61.227841
  0
ARC
  5
766
330
18
100
AcDbEntity
  8
1
 62
     7
100
AcDbCircle
 10
113.1693959999999
 20
28.407419
 30
0.0
 40
6.197396
100
AcDbArc
 50
61.227841
 51
64.47134399999999
  0
ARC
  5
767
330
18
100
AcDbEntity
  8
1
 62
     7
100
AcDbCircle
 10
113.3167239999999
 20
28.715901
 30
0.0
 40
5.855539
100
AcDbArc
 50
64.47134399999999
 51
67.90442699999999
  0
ARC
  5
768
330
18
100
AcDbEntity
  8
1
 62
     7
100
AcDbCircle
 10
112.899412
 20
27.687958
 30
0.0
 40
6.96496
100
AcDbArc
 50
67.90442699999999
 51
70.917203
  0
ARC
  5
769
330
18
100
AcDbEntity
  8
1
 62
     7
100
AcDbCircle
 10
113.080529
 20
28.211501
 30
0.0
 40
6.410973999999999
100
AcDbArc
 50
70.917203
 51
74.190415
  0
ARC
  5
76A
330
18
100
AcDbEntity
  8
1
 62
     7
100
AcDbCircle
 10
112.746851
 20
27.033059
 30
0.0
 40
7.635747
100
AcDbArc
 50
74.190415
 51
76.97989600000001
  0
ARC
  5
76B
330
18
100
AcDbEntity
  8
1
 62
     7
100
AcDbCircle
 10
112.882357
 20
27.619062
 30
0.0
 40
7.034279999999999
100
AcDbArc
 50
76.97989600000001
 51
81.58934499999999
  0
ARC
  5
76C
330
18
100
AcDbEntity
  8
1
 62
     7
100
AcDbCircle
 10
112.753935
 20
26.750511
 30
0.0
 40
7.912274
100
AcDbArc
 50
81.58934499999999
 51
88.501965
  0
ARC
  5
76D
330
18
100
AcDbEntity
  8
1
 62
     7
100
AcDbCircle
 10
112.761709
 20
27.047776
 30
0.0
 40
7.614907
100
AcDbArc
 50
88.501965
 51
101.405523
  0
ARC
  5
76E
330
18
100
AcDbEntity
  8
1
 62
     7
100
AcDbCircle
 10
112.6617729999999
 20
27.543155
 30
0.0
 40
7.109547999999999
100
AcDbArc
 50
101.405523
 51
105.9216939999999
  0
ARC
  5
76F
330
18
100
AcDbEntity
  8
1
 62
     7
100
AcDbCircle
 10
112.599435
 20
27.761682
 30
0.0
 40
6.882303999999999
100
AcDbArc
 50
105.9216939999999
 51
108.970688
  0
ARC
  5
770
330
18
100
AcDbEntity
  8
1
 62
     7
100
AcDbCircle
 10
112.469508
 20
28.13964699999999
 30
0.0
 40
6.482630999999999
100
AcDbArc
 50
108.970688
 51
112.2076819999999
  0
ARC
  5
771
330
18
100
AcDbEntity
  8
1
 62
     7
100
AcDbCircle
 10
112.3870899999999
 20
28.341528
 30
0.0
 40
6.264573999999999
100
AcDbArc
 50
112.2076819999999
 51
115.416547
  0
ARC
  5
772
330
18
100
AcDbEntity
  8
1
 62
     7
100
AcDbCircle
 10
112.186319
 20
28.76403499999999
 30
0.0
 40
5.796791999999999
100
AcDbArc
 50
115.416547
 51
118.8842689999999
  0
ARC
  5
773
330
18
100
AcDbEntity
  8
1
 62
     7
100
AcDbCircle
 10
112.07273
 20
28.96993499999999
 30
0.0
 40
5.561637
100
AcDbArc
 50
118.8842689999999
 51
122.404139
  0
ARC
  5
774
330
18
100
AcDbEntity
  8
1
 62
     7
100
AcDbCircle
 10
111.825927
 20
29.358772
 30
0.0
 40
5.101087999999999
100
AcDbArc
 50
122.404139
 51
126.1386549999999
  0
ARC
  5
775
330
18
100
AcDbEntity
  8
1
 62
     7
100
AcDbCircle
 10
111.6646459999999
 20
29.57962999999999
 30
0.0
 40
4.827609999999999
100
AcDbArc
 50
126.1386549999999
 51
130.084675
  0
ARC
  5
776
330
18
100
AcDbEntity
  8
1
 62
     7
100
AcDbCircle
 10
111.410157
 20
29.88201
 30
0.0
 40
4.432392
100
AcDbArc
 50
130.084675
 51
134.131487
  0
ARC
  5
777
330
18
100
AcDbEntity
  8
1
 62
     7
100
AcDbCircle
 10
111.2239949999999
 20
30.073903
 30
0.0
 40
4.165034999999999
100
AcDbArc
 50
134.131487
 51
138.437777
  0
ARC
  5
778
330
18
100
AcDbEntity
  8
1
 62
     7
100
AcDbCircle
 10
110.9649889999999
 20
30.30355399999999
 30
0.0
 40
3.818878999999999
100
AcDbArc
 50
138.437777
 51
142.9987139999999
  0
ARC
  5
779
330
18
100
AcDbEntity
  8
1
 62
     7
100
AcDbCircle
 10
110.8025889999999
 20
30.425937
 30
0.0
 40
3.615528999999999
100
AcDbArc
 50
142.9987139999999
 51
147.672593
  0
ARC
  5
77A
330
18
100
AcDbEntity
  8
1
 62
     7
100
AcDbCircle
 10
110.539434
 20
30.592473
 30
0.0
 40
3.304105
100
AcDbArc
 50
147.672593
 51
150.229507
  0
ARC
  5
77B
330
18
100
AcDbEntity
  8
1
 62
     7
100
AcDbCircle
 10
110.545274
 20
30.589133
 30
0.0
 40
3.310833
100
AcDbArc
 50
150.229507
 51
155.210358
  0
ARC
  5
77C
330
18
100
AcDbEntity
  8
1
 62
     7
100
AcDbCircle
 10
110.280104
 20
30.7116
 30
0.0
 40
3.018747999999999
100
AcDbArc
 50
155.210358
 51
160.538922
  0
ARC
  5
77D
330
18
100
AcDbEntity
  8
1
 62
     7
100
AcDbCircle
 10
110.251954
 20
30.721547
 30
0.0
 40
2.988891999999999
100
AcDbArc
 50
160.538922
 51
165.919885
  0
ARC
  5
77E
330
18
100
AcDbEntity
  8
1
 62
     7
100
AcDbCircle
 10
110.050523
 20
30.772069
 30
0.0
 40
2.781222999999999
100
AcDbArc
 50
165.919885
 51
179.973662
  0
ARC
  5
77F
330
18
100
AcDbEntity
  8
1
 62
     7
100
AcDbCircle
 10
110.0034409999999
 20
30.77209
 30
0.0
 40
2.734141
100
AcDbArc
 50
179.973662
 51
188.551082
  0
ARC
  5
780
330
18
100
AcDbEntity
  8
1
 62
     7
100
AcDbCircle
 10
110.154605
 20
30.79482
 30
0.0
 40
2.887004
100
AcDbArc
 50
188.551082
 51
199.5372539999999
  0
ARC
  5
781
330
18
100
AcDbEntity
  8
1
 62
     7
100
AcDbCircle
 10
110.3624399999999
 20
30.86857
 30
0.0
 40
3.107536
100
AcDbArc
 50
199.5372539999999
 51
204.7134659999999
  0
ARC
  5
782
330
18
100
AcDbEntity
  8
1
 62
     7
100
AcDbCircle
 10
110.457909
 20
30.912508
 30
0.0
 40
3.212631
100
AcDbArc
 50
204.7134659999999
 51
209.8466689999999
  0
ARC
  5
783
330
18
100
AcDbEntity
  8
1
 62
     7
100
AcDbCircle
 10
110.7188
 20
31.06220399999999
 30
0.0
 40
3.513418
100
AcDbArc
 50
209.8466689999999
 51
212.251231
  0
ARC
  5
784
330
18
100
AcDbEntity
  8
1
 62
     7
100
AcDbCircle
 10
110.708687
 20
31.055823
 30
0.0
 40
3.501459999999999
100
AcDbArc
 50
212.251231
 51
217.0774619999999
  0
ARC
  5
785
330
18
100
AcDbEntity
  8
1
 62
     7
100
AcDbCircle
 10
111.067167
 20
31.326718
 30
0.0
 40
3.950783999999999
100
AcDbArc
 50
217.0774619999999
 51
221.486047
  0
ARC
  5
786
330
18
100
AcDbEntity
  8
1
 62
     7
100
AcDbCircle
 10
111.1211029999999
 20
31.374413
 30
0.0
 40
4.022783
100
AcDbArc
 50
221.486047
 51
225.9446889999999
  0
ARC
  5
787
330
18
100
AcDbEntity
  8
1
 62
     7
100
AcDbCircle
 10
111.526448
 20
31.793349
 30
0.0
 40
4.605716999999999
100
AcDbArc
 50
225.9446889999999
 51
229.8391479999999
  0
ARC
  5
788
330
18
100
AcDbEntity
  8
1
 62
     7
100
AcDbCircle
 10
111.55386
 20
31.825833
 30
0.0
 40
4.648222
100
AcDbArc
 50
229.8391479999999
 51
233.937522
  0
ARC
  5
789
330
18
100
AcDbEntity
  8
1
 62
     7
100
AcDbCircle
 10
111.9481159999999
 20
32.367237
 30
0.0
 40
5.317966
100
AcDbArc
 50
233.937522
 51
237.519685
  0
ARC
  5
78A
330
18
100
AcDbEntity
  8
1
 62
     7
100
AcDbCircle
 10
111.9550999999999
 20
32.378208
 30
0.0
 40
5.330970999999999
100
AcDbArc
 50
237.519685
 51
241.191908
  0
ARC
  5
78B
330
18
100
AcDbEntity
  8
1
 62
     7
100
AcDbCircle
 10
112.3078939999999
 20
33.019723
 30
0.0
 40
6.063094
100
AcDbArc
 50
241.191908
 51
244.5072759999999
  0
ARC
  5
78C
330
18
100
AcDbEntity
  8
1
 62
     7
100
AcDbCircle
 10
112.272431
 20
32.945349
 30
0.0
 40
5.980698
100
AcDbArc
 50
244.5072759999999
 51
247.8684939999999
  0
ARC
  5
78D
330
18
100
AcDbEntity
  8
1
 62
     7
100
AcDbCircle
 10
112.5821179999999
 20
33.706813
 30
0.0
 40
6.802728999999999
100
AcDbArc
 50
247.8684939999999
 51
250.9531359999999
  0
ARC
  5
78E
330
18
100
AcDbEntity
  8
1
 62
     7
100
AcDbCircle
 10
112.501226
 20
33.472509
 30
0.0
 40
6.554853999999999
100
AcDbArc
 50
250.9531359999999
 51
254.1544819999999
  0
ARC
  5
78F
330
18
100
AcDbEntity
  8
1
 62
     7
100
AcDbCircle
 10
112.7440039999999
 20
34.327874
 30
0.0
 40
7.444005
100
AcDbArc
 50
254.1544819999999
 51
257.015829
  0
ARC
  5
790
330
18
100
AcDbEntity
  8
1
 62
     7
100
AcDbCircle
 10
112.6769639999999
 20
34.037127
 30
0.0
 40
7.145628999999999
100
AcDbArc
 50
257.015829
 51
261.553412
  0
ARC
  5
791
330
18
100
AcDbEntity
  8
1
 62
     7
100
AcDbCircle
 10
112.777631
 20
34.71502499999999
 30
0.0
 40
7.830961
100
AcDbArc
 50
261.553412
 51
268.5378979999999
  0
ARC
  5
792
330
18
100
AcDbEntity
  8
1
 62
     7
100
AcDbCircle
 10
112.773201
 20
34.541497
 30
0.0
 40
7.657375999999999
100
AcDbArc
 50
268.5378979999999
 51
281.36959
  0
ARC
  5
793
330
18
100
AcDbEntity
  8
1
 62
     7
100
AcDbCircle
 10
112.9031409999999
 20
33.8953
 30
0.0
 40
6.998244
100
AcDbArc
 50
281.36959
 51
285.957627
  0
ARC
  5
794
330
18
100
AcDbEntity
  8
1
 62
     7
100
AcDbCircle
 10
112.889352
 20
33.94352199999999
 30
0.0
 40
7.048399
100
AcDbArc
 50
285.957627
 51
288.934755
  0
ARC
  5
795
330
18
100
AcDbEntity
  8
1
 62
     7
100
AcDbCircle
 10
113.118614
 20
33.275225
 30
0.0
 40
6.341871
100
AcDbArc
 50
288.934755
 51
292.2436149999999
  0
ARC
  5
796
330
18
100
AcDbEntity
  8
1
 62
     7
100
AcDbCircle
 10
113.093561
 20
33.336481
 30
0.0
 40
6.408052999999999
100
AcDbArc
 50
292.2436149999999
 51
295.380614
  0
ARC
  5
797
330
18
100
AcDbEntity
  8
1
 62
     7
100
AcDbCircle
 10
113.4059979999999
 20
32.677917
 30
0.0
 40
5.679133
100
AcDbArc
 50
295.380614
 51
298.920202
  0
ARC
  5
798
330
18
100
AcDbEntity
  8
1
 62
     7
100
AcDbCircle
 10
113.406777
 20
32.67650599999999
 30
0.0
 40
5.677520999999999
100
AcDbArc
 50
298.920202
 51
302.368206
  0
ARC
  5
799
330
18
100
AcDbEntity
  8
1
 62
     7
100
AcDbCircle
 10
113.7669179999999
 20
32.108319
 30
0.0
 40
5.004812
100
AcDbArc
 50
302.368206
 51
306.1745879999999
  0
ARC
  5
79A
330
18
100
AcDbEntity
  8
1
 62
     7
100
AcDbCircle
 10
113.818673
 20
32.03753799999999
 30
0.0
 40
4.917127999999999
100
AcDbArc
 50
306.1745879999999
 51
310.048742
  0
ARC
  5
79B
330
18
100
AcDbEntity
  8
1
 62
     7
100
AcDbCircle
 10
114.1803139999999
 20
31.607296
 30
0.0
 40
4.355083999999999
100
AcDbArc
 50
310.048742
 51
314.16742
  0
ARC
  5
79C
330
18
100
AcDbEntity
  8
1
 62
     7
100
AcDbCircle
 10
114.2635019999999
 20
31.521653
 30
0.0
 40
4.235689999999999
100
AcDbArc
 50
314.16742
 51
318.401844
  0
ARC
  5
79D
330
18
100
AcDbEntity
  8
1
 62
     7
100
AcDbCircle
 10
114.619479
 20
31.205623
 30
0.0
 40
3.759670999999999
100
AcDbArc
 50
318.401844
 51
323.034647
  0
ARC
  5
79E
330
18
100
AcDbEntity
  8
1
 62
     7
100
AcDbCircle
 10
114.689561
 20
31.152879
 30
0.0
 40
3.671958999999999
100
AcDbArc
 50
323.034647
 51
327.63666
  0
ARC
  5
79F
330
18
100
AcDbEntity
  8
1
 62
     7
100
AcDbCircle
 10
115.076561
 20
30.90762899999999
 30
0.0
 40
3.213791999999999
100
AcDbArc
 50
327.63666
 51
330.26544
  0
ARC
  5
7A0
330
18
100
AcDbEntity
  8
1
 62
     7
100
AcDbCircle
 10
114.950235
 20
30.979784
 30
0.0
 40
3.359272
100
AcDbArc
 50
330.26544
 51
335.1744249999999
  0
ARC
  5
7A1
330
18
100
AcDbEntity
  8
1
 62
     7
100
AcDbCircle
 10
115.295725
 20
30.819959
 30
0.0
 40
2.978606
100
AcDbArc
 50
335.1744249999999
 51
340.5748549999999
  0
ARC
  5
7A2
330
18
100
AcDbEntity
  8
1
 62
     7
100
AcDbCircle
 10
115.247896
 20
30.836826
 30
0.0
 40
3.029322
100
AcDbArc
 50
340.5748549999999
 51
345.883952
  0
ARC
  5
7A3
330
18
100
AcDbEntity
  8
1
 62
     7
100
AcDbCircle
 10
115.502157
 20
30.772884
 30
0.0
 40
2.767144
100
AcDbArc
 50
345.883952
 51
0.009595
  0
ARC
  5
7A4
330
18
100
AcDbEntity
  8
1
 62
     7
100
AcDbCircle
 10
139.775585
 20
28.061055
 30
0.0
 40
32.603846
100
AcDbArc
 50
184.4335599999999
 51
184.795648
  0
ARC
  5
7A5
330
18
100
AcDbEntity
  8
1
 62
     7
100
AcDbCircle
 10
118.0762649999999
 20
26.24057199999999
 30
0.0
 40
10.82829499999999
100
AcDbArc
 50
184.795648
 51
185.884208
  0
ARC
  5
7A6
330
18
100
AcDbEntity
  8
1
 62
     7
100
AcDbCircle
 10
113.7124399999999
 20
25.79083
 30
0.0
 40
6.441355999999999
100
AcDbArc
 50
185.884208
 51
187.709373
  0
ARC
  5
7A7
330
18
100
AcDbEntity
  8
1
 62
     7
100
AcDbCircle
 10
111.850936
 20
25.53883499999999
 30
0.0
 40
4.562873
100
AcDbArc
 50
187.709373
 51
190.278981
  0
ARC
  5
7A8
330
18
100
AcDbEntity
  8
1
 62
     7
100
AcDbCircle
 10
110.836482
 20
25.354862
 30
0.0
 40
3.531871999999999
100
AcDbArc
 50
190.278981
 51
193.5943469999999
  0
ARC
  5
7A9
330
18
100
AcDbEntity
  8
1
 62
     7
100
AcDbCircle
 10
110.510004
 20
25.275913
 30
0.0
 40
3.195984
100
AcDbArc
 50
193.5943469999999
 51
198.633305
  0
ARC
  5
7AA
330
18
100
AcDbEntity
  8
1
 62
     7
100
AcDbCircle
 10
111.0655629999999
 20
25.463238
 30
0.0
 40
3.782273999999999
100
AcDbArc
 50
198.633305
 51
202.90769
  0
ARC
  5
7AB
330
18
100
AcDbEntity
  8
1
 62
     7
100
AcDbCircle
 10
111.0578649999999
 20
25.459985
 30
0.0
 40
3.773916999999999
100
AcDbArc
 50
202.90769
 51
207.20827
  0
ARC
  5
7AC
330
18
100
AcDbEntity
  8
1
 62
     7
100
AcDbCircle
 10
111.70925
 20
25.794871
 30
0.0
 40
4.506345999999999
100
AcDbArc
 50
207.20827
 51
210.8187
  0
ARC
  5
7AD
330
18
100
AcDbEntity
  8
1
 62
     7
100
AcDbCircle
 10
111.5910249999999
 20
25.724342
 30
0.0
 40
4.36868
100
AcDbArc
 50
210.8187
 51
214.543185
  0
ARC
  5
7AE
330
18
100
AcDbEntity
  8
1
 62
     7
100
AcDbCircle
 10
112.054585
 20
26.043453
 30
0.0
 40
4.931458999999999
100
AcDbArc
 50
214.543185
 51
224.846722
  0
ARC
  5
7AF
330
18
100
AcDbEntity
  8
1
 62
     7
100
AcDbCircle
 10
112.14083
 20
26.129238
 30
0.0
 40
5.053103
100
AcDbArc
 50
224.846722
 51
234.840892
  0
ARC
  5
7B0
330
18
100
AcDbEntity
  8
1
 62
     7
100
AcDbCircle
 10
112.490142
 20
26.62517
 30
0.0
 40
5.659705999999999
100
AcDbArc
 50
234.840892
 51
240.7508319999999
  0
ARC
  5
7B1
330
18
100
AcDbEntity
  8
1
 62
     7
100
AcDbCircle
 10
112.491135
 20
26.626943
 30
0.0
 40
5.661737999999999
100
AcDbArc
 50
240.7508319999999
 51
246.663018
  0
ARC
  5
7B2
330
18
100
AcDbEntity
  8
1
 62
     7
100
AcDbCircle
 10
112.732238
 20
27.185786
 30
0.0
 40
6.270373999999999
100
AcDbArc
 50
246.663018
 51
252.2341959999999
  0
ARC
  5
7B3
330
18
100
AcDbEntity
  8
1
 62
     7
100
AcDbCircle
 10
112.703499
 20
27.09609
 30
0.0
 40
6.176186
100
AcDbArc
 50
252.2341959999999
 51
260.713052
  0
ARC
  5
7B4
330
18
100
AcDbEntity
  8
1
 62
     7
100
AcDbCircle
 10
112.745602
 20
27.35356799999999
 30
0.0
 40
6.437083
100
AcDbArc
 50
260.713052
 51
301.7913049999999
  0
ARC
  5
7B5
330
18
100
AcDbEntity
  8
1
 62
     7
100
AcDbCircle
 10
114.145556
 20
25.094909
 30
0.0
 40
3.779751999999999
100
AcDbArc
 50
301.7913049999999
 51
310.3752999999999
  0
ARC
  5
7B6
330
18
100
AcDbEntity
  8
1
 62
     7
100
AcDbCircle
 10
111.3825419999999
 20
28.344276
 30
0.0
 40
8.045033999999999
100
AcDbArc
 50
310.3752999999999
 51
314.4159439999999
  0
ARC
  5
7B7
330
18
100
AcDbEntity
  8
1
 62
     7
100
AcDbCircle
 10
114.3069679999999
 20
25.359613
 30
0.0
 40
3.866461
100
AcDbArc
 50
314.4159439999999
 51
327.094331
  0
ARC
  5
7B8
330
18
100
AcDbEntity
  8
1
 62
     7
100
AcDbCircle
 10
111.7666279999999
 20
27.003389
 30
0.0
 40
6.892236999999999
100
AcDbArc
 50
327.094331
 51
331.722529
  0
ARC
  5
7B9
330
18
100
AcDbEntity
  8
1
 62
     7
100
AcDbCircle
 10
115.6243409999999
 20
24.928181
 30
0.0
 40
2.511776999999999
100
AcDbArc
 50
331.722529
 51
337.9096329999999
  0
ARC
  5
7BA
330
18
100
AcDbEntity
  8
1
 62
     7
100
AcDbCircle
 10
108.3984129999999
 20
27.860911
 30
0.0
 40
10.310169
100
AcDbArc
 50
337.9096329999999
 51
339.413204
  0
ARC
  5
7BB
330
18
100
AcDbEntity
  8
1
 62
     7
100
AcDbCircle
 10
115.903362
 20
25.04196
 30
0.0
 40
2.293266
100
AcDbArc
 50
339.413204
 51
346.155684
  0
ARC
  5
7BC
330
18
100
AcDbEntity
  8
1
 62
     7
100
AcDbCircle
 10
113.1917489999999
 20
25.71022
 30
0.0
 40
5.086008999999999
100
AcDbArc
 50
346.155684
 51
350.959179
  0
ARC
  5
7BD
330
18
100
AcDbEntity
  8
1
 62
     7
100
AcDbCircle
 10
116.111754
 20
25.245604
 30
0.0
 40
2.129272
100
AcDbArc
 50
350.959179
 51
355.204081
  0
ARC
  5
7BE
330
18
100
AcDbEntity
  8
1
 62
     7
100
AcDbCircle
 10
111.7650019999999
 20
25.74077
 30
0.0
 40
6.503504
100
AcDbArc
 50
354.05858
 51
355.4502129999999
  0
ARC
  5
7BF
330
18
100
AcDbEntity
  8
1
 62
     7
100
AcDbCircle
 10
107.3862169999999
 20
26.089217
 30
0.0
 40
10.896131
100
AcDbArc
 50
355.4502129999999
 51
356.2820509999999
  0
ARC
  5
7C0
330
18
100
AcDbEntity
  8
1
 62
     7
100
AcDbCircle
 10
85.60346499999999
 20
27.504696
 30
0.0
 40
32.724825
100
AcDbArc
 50
356.2820509999999
 51
356.5592649999999
  0
ARC
  5
7C1
330
18
100
AcDbEntity
  8
1
 62
     7
100
AcDbCircle
 10
216.7118299999999
 20
41.52527199999999
 30
0.0
 40
5.658337
100
AcDbArc
 50
134.5355069999999
 51
135.715086
  0
ARC
  5
7C2
330
18
100
AcDbEntity
  8
1
 62
     7
100
AcDbCircle
 10
213.8945979999999
 20
44.391007
 30
0.0
 40
1.639726999999999
100
AcDbArc
 50
130.7099599999999
 51
134.5955429999999
  0
ARC
  5
7C3
330
18
100
AcDbEntity
  8
1
 62
     7
100
AcDbCircle
 10
213.311791
 20
45.07133699999999
 30
0.0
 40
0.7439
100
AcDbArc
 50
123.054011
 51
130.860326
  0
ARC
  5
7C4
330
18
100
AcDbEntity
  8
1
 62
     7
100
AcDbCircle
 10
213.103247
 20
45.394857
 30
0.0
 40
0.358997
100
AcDbArc
 50
109.111081
 51
123.3196619999999
  0
ARC
  5
7C5
330
18
100
AcDbEntity
  8
1
 62
     7
100
AcDbCircle
 10
213.0498879999999
 20
45.549366
 30
0.0
 40
0.195535
100
AcDbArc
 50
85.951695
 51
109.1603179999999
  0
ARC
  5
7C6
330
18
100
AcDbEntity
  8
1
 62
     7
100
AcDbCircle
 10
213.044009
 20
45.544598
 30
0.0
 40
0.200782
100
AcDbArc
 50
63.288074
 51
84.37428999999999
  0
ARC
  5
7C7
330
18
100
AcDbEntity
  8
1
 62
     7
100
AcDbCircle
 10
212.9670049999999
 20
45.390161
 30
0.0
 40
0.373352
100
AcDbArc
 50
50.66434199999999
 51
63.38541000000001
  0
ARC
  5
7C8
330
18
100
AcDbEntity
  8
1
 62
     7
100
AcDbCircle
 10
212.708545
 20
45.06980999999999
 30
0.0
 40
0.78496
100
AcDbArc
 50
44.07143
 51
50.89447599999999
  0
ARC
  5
7C9
330
18
100
AcDbEntity
  8
1
 62
     7
100
AcDbCircle
 10
211.9015759999999
 20
44.282687
 30
0.0
 40
1.912238
100
AcDbArc
 50
41.149893
 51
44.198353
  0
ARC
  5
7CA
330
18
100
AcDbEntity
  8
1
 62
     7
100
AcDbCircle
 10
196.7348279999999
 20
31.00496099999999
 30
0.0
 40
22.069822
100
AcDbArc
 50
40.920693
 51
41.19613
  0
ARC
  5
7CB
330
18
100
AcDbEntity
  8
1
 62
     7
100
AcDbCircle
 10
215.7234069999999
 20
47.468291
 30
0.0
 40
3.061977999999999
100
AcDbArc
 50
220.961685
 51
222.9523579999999
  0
ARC
  5
7CC
330
18
100
AcDbEntity
  8
1
 62
     7
100
AcDbCircle
 10
214.493179
 20
46.322996
 30
0.0
 40
1.381156999999999
100
AcDbArc
 50
222.9523579999999
 51
227.182363
  0
ARC
  5
7CD
330
18
100
AcDbEntity
  8
1
 62
     7
100
AcDbCircle
 10
214.033963
 20
45.827394
 30
0.0
 40
0.7055080000000001
100
AcDbArc
 50
227.182363
 51
234.8057429999999
  0
ARC
  5
7CE
330
18
100
AcDbEntity
  8
1
 62
     7
100
AcDbCircle
 10
213.842312
 20
45.55565399999999
 30
0.0
 40
0.372983
100
AcDbArc
 50
234.8057429999999
 51
247.6744169999999
  0
ARC
  5
7CF
330
18
100
AcDbEntity
  8
1
 62
     7
100
AcDbCircle
 10
213.7798509999999
 20
45.403551
 30
0.0
 40
0.208555
100
AcDbArc
 50
247.6744169999999
 51
268.386233
  0
ARC
  5
7D0
330
18
100
AcDbEntity
  8
1
 62
     7
100
AcDbCircle
 10
213.779185
 20
45.37991199999999
 30
0.0
 40
0.184906
100
AcDbArc
 50
268.386233
 51
293.112649
  0
ARC
  5
7D1
330
18
100
AcDbEntity
  8
1
 62
     7
100
AcDbCircle
 10
213.6723089999999
 20
45.630326
 30
0.0
 40
0.4571740000000001
100
AcDbArc
 50
293.112649
 51
304.206624
  0
ARC
  5
7D2
330
18
100
AcDbEntity
  8
1
 62
     7
100
AcDbCircle
 10
213.6067849999999
 20
45.72671699999999
 30
0.0
 40
0.5737270000000001
100
AcDbArc
 50
304.206624
 51
314.190561
  0
ARC
  5
7D3
330
18
100
AcDbEntity
  8
1
 62
     7
100
AcDbCircle
 10
210.811389
 20
48.602234
 30
0.0
 40
4.584069
100
AcDbArc
 50
314.190561
 51
315.553194
  0
ARC
  5
7D4
330
18
100
AcDbEntity
  8
1
 62
     7
100
AcDbCircle
 10
212.7896059999999
 20
46.661852
 30
0.0
 40
1.813070999999999
100
AcDbArc
 50
315.553194
 51
319.154924
  0
ARC
  5
7D5
330
18
100
AcDbEntity
  8
1
 62
     7
100
AcDbCircle
 10
217.5656839999999
 20
41.81655399999999
 30
0.0
 40
5.526486
100
AcDbArc
 50
137.575254
 51
138.742017
  0
ARC
  5
7D6
330
18
100
AcDbEntity
  8
1
 62
     7
100
AcDbCircle
 10
214.676731
 20
44.458973
 30
0.0
 40
1.611334
100
AcDbArc
 50
133.804078
 51
137.631781
  0
ARC
  5
7D7
330
18
100
AcDbEntity
  8
1
 62
     7
100
AcDbCircle
 10
214.0754559999999
 20
45.08848599999999
 30
0.0
 40
0.7408100000000001
100
AcDbArc
 50
126.321284
 51
133.9431519999999
  0
ARC
  5
7D8
330
18
100
AcDbEntity
  8
1
 62
     7
100
AcDbCircle
 10
213.8540689999999
 20
45.392209
 30
0.0
 40
0.364971
100
AcDbArc
 50
112.8789669999999
 51
126.5607729999999
  0
ARC
  5
7D9
330
18
100
AcDbEntity
  8
1
 62
     7
100
AcDbCircle
 10
213.790893
 20
45.542407
 30
0.0
 40
0.202027
100
AcDbArc
 50
90.82792899999999
 51
112.9325029999999
  0
ARC
  5
7DA
330
18
100
AcDbEntity
  8
1
 62
     7
100
AcDbCircle
 10
213.785587
 20
45.54089699999999
 30
0.0
 40
0.20353
100
AcDbArc
 50
67.889414
 51
89.32824800000002
  0
ARC
  5
7DB
330
18
100
AcDbEntity
  8
1
 62
     7
100
AcDbCircle
 10
213.7244569999999
 20
45.389271
 30
0.0
 40
0.367015
100
AcDbArc
 50
54.67051600000001
 51
67.95764399999999
  0
ARC
  5
7DC
330
18
100
AcDbEntity
  8
1
 62
     7
100
AcDbCircle
 10
213.512114
 20
45.084627
 30
0.0
 40
0.738354
100
AcDbArc
 50
47.45142
 51
54.897898
  0
ARC
  5
7DD
330
18
100
AcDbEntity
  8
1
 62
     7
100
AcDbCircle
 10
212.935467
 20
44.45095300000001
 30
0.0
 40
1.595126999999999
100
AcDbArc
 50
43.827001
 51
47.583665
  0
ARC
  5
7DE
330
18
100
AcDbEntity
  8
1
 62
     7
100
AcDbCircle
 10
210.156023
 20
41.77591099999999
 30
0.0
 40
5.452735999999999
100
AcDbArc
 50
42.73344
 51
43.88109899999999
  0
ARC
  5
7DF
330
18
100
AcDbEntity
  8
1
 62
     7
100
AcDbCircle
 10
212.2118299999999
 20
41.52527199999999
 30
0.0
 40
5.658337
100
AcDbArc
 50
134.5355069999999
 51
135.715086
  0
ARC
  5
7E0
330
18
100
AcDbEntity
  8
1
 62
     7
100
AcDbCircle
 10
209.3945979999999
 20
44.391007
 30
0.0
 40
1.639726999999999
100
AcDbArc
 50
130.7099599999999
 51
134.5955429999999
  0
ARC
  5
7E1
330
18
100
AcDbEntity
  8
1
 62
     7
100
AcDbCircle
 10
208.811791
 20
45.07133699999999
 30
0.0
 40
0.7439
100
AcDbArc
 50
123.054011
 51
130.860326
  0
ARC
  5
7E2
330
18
100
AcDbEntity
  8
1
 62
     7
100
AcDbCircle
 10
208.603247
 20
45.394857
 30
0.0
 40
0.358997
100
AcDbArc
 50
109.111081
 51
123.3196619999999
  0
ARC
  5
7E3
330
18
100
AcDbEntity
  8
1
 62
     7
100
AcDbCircle
 10
208.5498879999999
 20
45.549366
 30
0.0
 40
0.195535
100
AcDbArc
 50
85.951695
 51
109.1603179999999
  0
ARC
  5
7E4
330
18
100
AcDbEntity
  8
1
 62
     7
100
AcDbCircle
 10
208.544009
 20
45.544598
 30
0.0
 40
0.200782
100
AcDbArc
 50
63.288074
 51
84.37428999999999
  0
ARC
  5
7E5
330
18
100
AcDbEntity
  8
1
 62
     7
100
AcDbCircle
 10
208.467005
 20
45.390161
 30
0.0
 40
0.373352
100
AcDbArc
 50
50.66434199999999
 51
63.38541000000001
  0
ARC
  5
7E6
330
18
100
AcDbEntity
  8
1
 62
     7
100
AcDbCircle
 10
208.208545
 20
45.06980999999999
 30
0.0
 40
0.78496
100
AcDbArc
 50
44.07143
 51
50.89447599999999
  0
ARC
  5
7E7
330
18
100
AcDbEntity
  8
1
 62
     7
100
AcDbCircle
 10
207.4015759999999
 20
44.282687
 30
0.0
 40
1.912238
100
AcDbArc
 50
41.149893
 51
44.198353
  0
ARC
  5
7E8
330
18
100
AcDbEntity
  8
1
 62
     7
100
AcDbCircle
 10
192.2348279999999
 20
31.00496099999999
 30
0.0
 40
22.069822
100
AcDbArc
 50
40.920693
 51
41.19613
  0
ARC
  5
7E9
330
18
100
AcDbEntity
  8
1
 62
     7
100
AcDbCircle
 10
211.2234069999999
 20
47.468291
 30
0.0
 40
3.061977999999999
100
AcDbArc
 50
220.961685
 51
222.9523579999999
  0
ARC
  5
7EA
330
18
100
AcDbEntity
  8
1
 62
     7
100
AcDbCircle
 10
209.9931789999999
 20
46.322996
 30
0.0
 40
1.381156999999999
100
AcDbArc
 50
222.9523579999999
 51
227.182363
  0
ARC
  5
7EB
330
18
100
AcDbEntity
  8
1
 62
     7
100
AcDbCircle
 10
209.533963
 20
45.827394
 30
0.0
 40
0.7055080000000001
100
AcDbArc
 50
227.182363
 51
234.8057429999999
  0
ARC
  5
7EC
330
18
100
AcDbEntity
  8
1
 62
     7
100
AcDbCircle
 10
209.342312
 20
45.55565399999999
 30
0.0
 40
0.372983
100
AcDbArc
 50
234.8057429999999
 51
247.6744169999999
  0
ARC
  5
7ED
330
18
100
AcDbEntity
  8
1
 62
     7
100
AcDbCircle
 10
209.279851
 20
45.403551
 30
0.0
 40
0.208555
100
AcDbArc
 50
247.6744169999999
 51
268.386233
  0
ARC
  5
7EE
330
18
100
AcDbEntity
  8
1
 62
     7
100
AcDbCircle
 10
209.279185
 20
45.37991199999999
 30
0.0
 40
0.184906
100
AcDbArc
 50
268.386233
 51
293.112649
  0
ARC
  5
7EF
330
18
100
AcDbEntity
  8
1
 62
     7
100
AcDbCircle
 10
209.172309
 20
45.630326
 30
0.0
 40
0.4571740000000001
100
AcDbArc
 50
293.112649
 51
304.206624
  0
ARC
  5
7F0
330
18
100
AcDbEntity
  8
1
 62
     7
100
AcDbCircle
 10
209.1067849999999
 20
45.72671699999999
 30
0.0
 40
0.5737270000000001
100
AcDbArc
 50
304.206624
 51
314.190561
  0
ARC
  5
7F1
330
18
100
AcDbEntity
  8
1
 62
     7
100
AcDbCircle
 10
206.3113889999999
 20
48.602234
 30
0.0
 40
4.584069
100
AcDbArc
 50
314.190561
 51
315.553194
  0
ARC
  5
7F2
330
18
100
AcDbEntity
  8
1
 62
     7
100
AcDbCircle
 10
208.2896059999999
 20
46.661852
 30
0.0
 40
1.813070999999999
100
AcDbArc
 50
315.553194
 51
319.154924
  0
ARC
  5
7F3
330
18
100
AcDbEntity
  8
1
 62
     7
100
AcDbCircle
 10
213.0656839999999
 20
41.81655399999999
 30
0.0
 40
5.526486
100
AcDbArc
 50
137.575254
 51
138.742017
  0
ARC
  5
7F4
330
18
100
AcDbEntity
  8
1
 62
     7
100
AcDbCircle
 10
210.176731
 20
44.458973
 30
0.0
 40
1.611334
100
AcDbArc
 50
133.804078
 51
137.631781
  0
ARC
  5
7F5
330
18
100
AcDbEntity
  8
1
 62
     7
100
AcDbCircle
 10
209.575456
 20
45.08848599999999
 30
0.0
 40
0.7408100000000001
100
AcDbArc
 50
126.321284
 51
133.9431519999999
  0
ARC
  5
7F6
330
18
100
AcDbEntity
  8
1
 62
     7
100
AcDbCircle
 10
209.3540689999999
 20
45.392209
 30
0.0
 40
0.364971
100
AcDbArc
 50
112.8789669999999
 51
126.5607729999999
  0
ARC
  5
7F7
330
18
100
AcDbEntity
  8
1
 62
     7
100
AcDbCircle
 10
209.2908929999999
 20
45.542407
 30
0.0
 40
0.202027
100
AcDbArc
 50
90.82792899999999
 51
112.9325029999999
  0
ARC
  5
7F8
330
18
100
AcDbEntity
  8
1
 62
     7
100
AcDbCircle
 10
209.285587
 20
45.54089699999999
 30
0.0
 40
0.20353
100
AcDbArc
 50
67.889414
 51
89.32824800000002
  0
ARC
  5
7F9
330
18
100
AcDbEntity
  8
1
 62
     7
100
AcDbCircle
 10
209.224457
 20
45.389271
 30
0.0
 40
0.367015
100
AcDbArc
 50
54.67051600000001
 51
67.95764399999999
  0
ARC
  5
7FA
330
18
100
AcDbEntity
  8
1
 62
     7
100
AcDbCircle
 10
209.0121139999999
 20
45.084627
 30
0.0
 40
0.738354
100
AcDbArc
 50
47.45142
 51
54.897898
  0
ARC
  5
7FB
330
18
100
AcDbEntity
  8
1
 62
     7
100
AcDbCircle
 10
208.4354669999999
 20
44.45095300000001
 30
0.0
 40
1.595126999999999
100
AcDbArc
 50
43.827001
 51
47.583665
  0
ARC
  5
7FC
330
18
100
AcDbEntity
  8
1
 62
     7
100
AcDbCircle
 10
205.656023
 20
41.77591099999999
 30
0.0
 40
5.452735999999999
100
AcDbArc
 50
42.73344
 51
43.88109899999999
  0
LINE
  5
7FD
330
18
100
AcDbEntity
  8
1
  6
CENTER
 62
     7
100
AcDbLine
 10
236.0461169999999
 20
13.802785
 30
0.0
 11
186.276202
 21
13.802785
 31
0.0
  0
LINE
  5
845
330
18
100
AcDbEntity
  8
0
  6
ByBlock
 62
     7
100
AcDbLine
 10
208.9111599999999
 20
13.802785
 30
0.0
 11
213.41116
 21
13.802785
 31
0.0
  0
LINE
  5
846
330
18
100
AcDbEntity
  8
0
  6
ByBlock
 62
     7
100
AcDbLine
 10
211.1611599999999
 20
11.552785
 30
0.0
 11
211.1611599999999
 21
16.052785
 31
0.0
  0
POINT
  5
847
330
18
100
AcDbEntity
  8
DEFPOINTS
  6
ByBlock
 62
     7
100
AcDbPoint
 10
195.825016
 20
19.889878
 30
0.0
  0
POINT
  5
848
330
18
100
AcDbEntity
  8
DEFPOINTS
  6
ByBlock
 62
     7
100
AcDbPoint
 10
226.4973029999999
 20
7.715691
 30
0.0
  0
LINE
  5
857
330
18
100
AcDbEntity
  8
0
  6
ByBlock
 62
     7
100
AcDbLine
 10
123.0318009999999
 20
30.30278499999999
 30
0.0
 11
145.7007889999999
 21
30.30278499999999
 31
0.0
  0
LINE
  5
858
330
18
100
AcDbEntity
  8
0
  6
ByBlock
 62
     7
100
AcDbLine
 10
123.0318009999999
 20
-2.697215
 30
0.0
 11
145.7007889999999
 21
-2.697215
 31
0.0
  0
LINE
  5
859
330
18
100
AcDbEntity
  8
0
  6
ByBlock
 62
     7
100
AcDbLine
 10
141.2007889999999
 20
25.802785
 30
0.0
 11
141.2007889999999
 21
18.302785
 31
0.0
  0
LINE
  5
85A
330
18
100
AcDbEntity
  8
0
  6
ByBlock
 62
     7
100
AcDbLine
 10
141.2007889999999
 20
1.802784999999999
 30
0.0
 11
141.2007889999999
 21
9.302785
 31
0.0
  0
SOLID
  5
85B
330
18
100
AcDbEntity
  8
0
  6
ByBlock
 62
     7
100
AcDbTrace
 10
140.4507889999999
 20
25.802785
 30
0.0
 11
141.950789
 21
25.802785
 31
0.0
 12
141.2007889999999
 22
30.30278499999999
 32
0.0
 13
141.2007889999999
 23
30.30278499999999
 33
0.0
  0
SOLID
  5
85C
330
18
100
AcDbEntity
  8
0
  6
ByBlock
 62
     7
100
AcDbTrace
 10
140.4507889999999
 20
1.802784999999999
 30
0.0
 11
141.950789
 21
1.802784999999999
 31
0.0
 12
141.2007889999999
 22
-2.697215
 32
0.0
 13
141.2007889999999
 23
-2.697215
 33
0.0
  0
POINT
  5
85E
330
18
100
AcDbEntity
  8
DEFPOINTS
  6
ByBlock
 62
     7
100
AcDbPoint
 10
121.4693009999999
 20
30.30278499999999
 30
0.0
  0
POINT
  5
85F
330
18
100
AcDbEntity
  8
DEFPOINTS
  6
ByBlock
 62
     7
100
AcDbPoint
 10
121.4693009999999
 20
-2.697215
 30
0.0
  0
POINT
  5
860
330
18
100
AcDbEntity
  8
DEFPOINTS
  6
ByBlock
 62
     7
100
AcDbPoint
 10
141.2007889999999
 20
-2.697215
 30
0.0
  0
LINE
  5
870
330
18
100
AcDbEntity
  8
0
  6
ByBlock
 62
     7
100
AcDbLine
 10
196.97483
 20
35.76728899999999
 30
0.0
 11
188.2512
 21
44.490918
 31
0.0
  0
LINE
  5
871
330
18
100
AcDbEntity
  8
0
  6
ByBlock
 62
     7
100
AcDbLine
 10
189.196655
 20
27.989114
 30
0.0
 11
180.473026
 21
36.712744
 31
0.0
  0
LINE
  5
872
330
18
100
AcDbEntity
  8
0
  6
ByBlock
 62
     7
100
AcDbLine
 10
194.615161
 20
44.490918
 30
0.0
 11
197.7971419999999
 21
47.672899
 31
0.0
  0
LINE
  5
873
330
18
100
AcDbEntity
  8
0
  6
ByBlock
 62
     7
100
AcDbLine
 10
180.473026
 20
30.348783
 30
0.0
 11
177.2910449999999
 21
27.166802
 31
0.0
  0
LINE
  5
874
330
18
100
AcDbEntity
  8
0
  6
ByBlock
 62
     7
100
AcDbLine
 10
177.2910449999999
 20
27.166802
 30
0.0
 11
172.7910449999999
 21
27.166802
 31
0.0
  0
SOLID
  5
875
330
18
100
AcDbEntity
  8
0
  6
ByBlock
 62
     7
100
AcDbTrace
 10
194.0848309999999
 20
45.021249
 30
0.0
 11
195.1454909999999
 21
43.960588
 31
0.0
 12
191.433181
 22
41.30893799999999
 32
0.0
 13
191.433181
 23
41.30893799999999
 33
0.0
  0
SOLID
  5
876
330
18
100
AcDbEntity
  8
0
  6
ByBlock
 62
     7
100
AcDbTrace
 10
179.9426959999999
 20
30.879113
 30
0.0
 11
181.0033559999999
 21
29.818453
 31
0.0
 12
183.655006
 22
33.530763
 32
0.0
 13
183.655006
 23
33.530763
 33
0.0
  0
POINT
  5
878
330
18
100
AcDbEntity
  8
DEFPOINTS
  6
ByBlock
 62
     7
100
AcDbPoint
 10
198.079684
 20
34.66243499999999
 30
0.0
  0
POINT
  5
879
330
18
100
AcDbEntity
  8
DEFPOINTS
  6
ByBlock
 62
     7
100
AcDbPoint
 10
190.30151
 20
26.88425999999999
 30
0.0
  0
POINT
  5
87A
330
18
100
AcDbEntity
  8
DEFPOINTS
  6
ByBlock
 62
     7
100
AcDbPoint
 10
183.655006
 20
33.530763
 30
0.0
  0
LINE
  5
8CF
330
18
100
AcDbEntity
  8
0
  6
ByBlock
 62
     7
100
AcDbLine
 10
230.711449
 20
33.353074
 30
0.0
 11
243.603155
 21
46.24477999999999
 31
0.0
  0
LINE
  5
8D0
330
18
100
AcDbEntity
  8
0
  6
ByBlock
 62
     7
100
AcDbLine
 10
211.1611599999999
 20
48.943148
 30
0.0
 11
211.1611599999999
 21
59.682694
 31
0.0
  0
ARC
  5
8D1
330
18
100
AcDbEntity
  8
0
  6
ByBlock
 62
     7
100
AcDbCircle
 10
211.1611599999999
 20
13.802785
 30
0.0
 40
41.37990999999999
100
AcDbArc
 50
51.2339
 51
54.25731800000001
  0
ARC
  5
8D2
330
18
100
AcDbEntity
  8
0
  6
ByBlock
 62
     7
100
AcDbCircle
 10
211.1611599999999
 20
13.802785
 30
0.0
 40
41.37990999999999
100
AcDbArc
 50
77.19396299999999
 51
83.76609999999999
  0
SOLID
  5
8D3
330
18
100
AcDbEntity
  8
0
  6
ByBlock
 62
     7
100
AcDbTrace
 10
237.571593
 20
46.62543699999999
 30
0.0
 11
236.5701739999999
 21
45.50867299999999
 31
0.0
 12
240.4211749999999
 22
43.06279899999999
 32
0.0
 13
240.4211749999999
 23
43.06279899999999
 33
0.0
  0
SOLID
  5
8D4
330
18
100
AcDbEntity
  8
0
  6
ByBlock
 62
     7
100
AcDbTrace
 10
215.613722
 20
54.18911999999999
 30
0.0
 11
215.695283
 21
55.686901
 31
0.0
 12
211.1611599999999
 22
55.182694
 32
0.0
 13
211.1611599999999
 23
55.182694
 33
0.0
  0
MTEXT
  5
8D5
330
18
100
AcDbEntity
  8
0
  6
ByBlock
 62
     7
100
AcDbMText
 10
227.833068
 20
51.67552399999999
 30
0.0
 40
4.5
 41
0.0
 71
     5
 72
     1
  1
\A1;45°
 73
     1
 44
1.0
  0
POINT
  5
8D6
330
18
100
AcDbEntity
  8
DEFPOINTS
  6
ByBlock
 62
     7
100
AcDbPoint
 10
221.871068
 20
53.77270799999999
 30
0.0
  0
POINT
  5
8D7
330
18
100
AcDbEntity
  8
DEFPOINTS
  6
ByBlock
 62
     7
100
AcDbPoint
 10
211.1611599999999
 20
-9.697214999999999
 30
0.0
  0
POINT
  5
8D8
330
18
100
AcDbEntity
  8
DEFPOINTS
  6
ByBlock
 62
     7
100
AcDbPoint
 10
229.606595
 20
32.24822
 30
0.0
  0
POINT
  5
8D9
330
18
100
AcDbEntity
  8
DEFPOINTS
  6
ByBlock
 62
     7
100
AcDbPoint
 10
195.4057409999999
 20
-1.952633999999999
 30
0.0
  0
POINT
  5
8DA
330
18
100
AcDbEntity
  8
DEFPOINTS
  6
ByBlock
 62
     7
100
AcDbPoint
 10
211.1611599999999
 20
47.380648
 30
0.0
  0
LINE
  5
8DB
330
18
100
AcDbEntity
  8
0
  6
ByBlock
 62
     7
100
AcDbLine
 10
193.0857429999999
 20
29.66849299999999
 30
0.0
 11
165.814984
 21
2.397733999999999
 31
0.0
  0
LINE
  5
8DC
330
18
100
AcDbEntity
  8
0
  6
ByBlock
 62
     7
100
AcDbLine
 10
210.0563049999999
 20
12.69792999999999
 30
0.0
 11
182.7855459999999
 21
-14.572829
 31
0.0
  0
LINE
  5
8DD
330
18
100
AcDbEntity
  8
0
  6
ByBlock
 62
     7
100
AcDbLine
 10
165.814984
 20
8.761694999999999
 30
0.0
 11
162.633003
 21
11.943675
 31
0.0
  0
LINE
  5
8DE
330
18
100
AcDbEntity
  8
0
  6
ByBlock
 62
     7
100
AcDbLine
 10
189.1495069999999
 20
-14.572829
 30
0.0
 11
192.3314879999999
 21
-17.75480899999999
 31
0.0
  0
SOLID
  5
8DF
330
18
100
AcDbEntity
  8
0
  6
ByBlock
 62
     7
100
AcDbTrace
 10
166.345314
 20
9.292025
 30
0.0
 11
165.2846529999999
 21
8.231365
 31
0.0
 12
168.9969639999999
 22
5.579714
 32
0.0
 13
168.9969639999999
 23
5.579714
 33
0.0
  0
SOLID
  5
8E0
330
18
100
AcDbEntity
  8
0
  6
ByBlock
 62
     7
100
AcDbTrace
 10
189.679837
 20
-14.04249899999999
 30
0.0
 11
188.619177
 21
-15.103159
 31
0.0
 12
185.9675269999999
 22
-11.390848
 32
0.0
 13
185.9675269999999
 23
-11.390848
 33
0.0
  0
MTEXT
  5
8E1
330
18
100
AcDbEntity
  8
0
  6
ByBlock
 62
     7
100
AcDbMText
 10
177.482245
 20
-2.905566999999999
 30
0.0
 40
4.5
 41
0.0
 71
     5
 72
     1
  1
\A1;24
 73
     1
 44
1.0
  0
POINT
  5
8E2
330
18
100
AcDbEntity
  8
DEFPOINTS
  6
ByBlock
 62
     7
100
AcDbPoint
 10
194.190597
 20
30.77334699999999
 30
0.0
  0
POINT
  5
8E3
330
18
100
AcDbEntity
  8
DEFPOINTS
  6
ByBlock
 62
     7
100
AcDbPoint
 10
211.1611599999999
 20
13.802785
 30
0.0
  0
POINT
  5
8E4
330
18
100
AcDbEntity
  8
DEFPOINTS
  6
ByBlock
 62
     7
100
AcDbPoint
 10
185.9675269999999
 20
-11.390848
 30
0.0
  0
LINE
  5
8E5
330
18
100
AcDbEntity
  8
0
  6
ByBlock
 62
     7
100
AcDbLine
 10
91.76930099999999
 20
-6.759714999999999
 30
0.0
 11
91.76930099999999
 21
-26.79978
 31
0.0
  0
LINE
  5
8E6
330
18
100
AcDbEntity
  8
0
  6
ByBlock
 62
     7
100
AcDbLine
 10
112.7693009999999
 20
28.57445099999999
 30
0.0
 11
112.7693009999999
 21
-26.79978
 31
0.0
  0
LINE
  5
8E7
330
18
100
AcDbEntity
  8
0
  6
ByBlock
 62
     7
100
AcDbLine
 10
96.269301
 20
-22.29978
 30
0.0
 11
98.519301
 21
-22.29978
 31
0.0
  0
LINE
  5
8E8
330
18
100
AcDbEntity
  8
0
  6
ByBlock
 62
     7
100
AcDbLine
 10
108.269301
 20
-22.29978
 30
0.0
 11
106.019301
 21
-22.29978
 31
0.0
  0
SOLID
  5
8E9
330
18
100
AcDbEntity
  8
0
  6
ByBlock
 62
     7
100
AcDbTrace
 10
96.269301
 20
-21.54977999999999
 30
0.0
 11
96.269301
 21
-23.04977999999999
 31
0.0
 12
91.76930099999999
 22
-22.29978
 32
0.0
 13
91.76930099999999
 23
-22.29978
 33
0.0
  0
SOLID
  5
8EA
330
18
100
AcDbEntity
  8
0
  6
ByBlock
 62
     7
100
AcDbTrace
 10
108.269301
 20
-21.54977999999999
 30
0.0
 11
108.269301
 21
-23.04977999999999
 31
0.0
 12
112.7693009999999
 22
-22.29978
 32
0.0
 13
112.7693009999999
 23
-22.29978
 33
0.0
  0
MTEXT
  5
8EB
330
18
100
AcDbEntity
  8
0
  6
ByBlock
 62
     7
100
AcDbMText
 10
102.269301
 20
-22.29978
 30
0.0
 40
4.5
 41
0.0
 71
     5
 72
     1
  1
\A1;21
 73
     1
 44
1.0
  0
POINT
  5
8EC
330
18
100
AcDbEntity
  8
DEFPOINTS
  6
ByBlock
 62
     7
100
AcDbPoint
 10
91.76930099999999
 20
-5.197214999999999
 30
0.0
  0
POINT
  5
8ED
330
18
100
AcDbEntity
  8
DEFPOINTS
  6
ByBlock
 62
     7
100
AcDbPoint
 10
112.7693009999999
 20
30.136951
 30
0.0
  0
POINT
  5
8EE
330
18
100
AcDbEntity
  8
DEFPOINTS
  6
ByBlock
 62
     7
100
AcDbPoint
 10
112.7693009999999
 20
-22.29978
 30
0.0
  0
LINE
  5
8EF
330
18
100
AcDbEntity
  8
0
  6
ByBlock
 62
     7
100
AcDbLine
 10
91.76930099999999
 20
-6.759714999999999
 30
0.0
 11
91.76930099999999
 21
-38.163908
 31
0.0
  0
LINE
  5
8F0
330
18
100
AcDbEntity
  8
0
  6
ByBlock
 62
     7
100
AcDbLine
 10
121.769301
 20
-3.959715
 30
0.0
 11
121.769301
 21
-38.163908
 31
0.0
  0
LINE
  5
8F1
330
18
100
AcDbEntity
  8
0
  6
ByBlock
 62
     7
100
AcDbLine
 10
96.269301
 20
-33.663908
 30
0.0
 11
101.144301
 21
-33.663908
 31
0.0
  0
LINE
  5
8F2
330
18
100
AcDbEntity
  8
0
  6
ByBlock
 62
     7
100
AcDbLine
 10
117.2693009999999
 20
-33.663908
 30
0.0
 11
112.394301
 21
-33.663908
 31
0.0
  0
SOLID
  5
8F3
330
18
100
AcDbEntity
  8
0
  6
ByBlock
 62
     7
100
AcDbTrace
 10
96.269301
 20
-32.913908
 30
0.0
 11
96.269301
 21
-34.413908
 31
0.0
 12
91.76930099999999
 22
-33.663908
 32
0.0
 13
91.76930099999999
 23
-33.663908
 33
0.0
  0
SOLID
  5
8F4
330
18
100
AcDbEntity
  8
0
  6
ByBlock
 62
     7
100
AcDbTrace
 10
117.2693009999999
 20
-32.913908
 30
0.0
 11
117.2693009999999
 21
-34.413908
 31
0.0
 12
121.769301
 22
-33.663908
 32
0.0
 13
121.769301
 23
-33.663908
 33
0.0
  0
MTEXT
  5
8F5
330
18
100
AcDbEntity
  8
0
  6
ByBlock
 62
     7
100
AcDbMText
 10
106.7693009999999
 20
-33.663908
 30
0.0
 40
4.5
 41
0.0
 71
     5
 72
     1
  1
\A1;30
 73
     1
 44
1.0
  0
POINT
  5
8F6
330
18
100
AcDbEntity
  8
DEFPOINTS
  6
ByBlock
 62
     7
100
AcDbPoint
 10
91.76930099999999
 20
-5.197214999999999
 30
0.0
  0
POINT
  5
8F7
330
18
100
AcDbEntity
  8
DEFPOINTS
  6
ByBlock
 62
     7
100
AcDbPoint
 10
121.769301
 20
-2.397215
 30
0.0
  0
POINT
  5
8F8
330
18
100
AcDbEntity
  8
DEFPOINTS
  6
ByBlock
 62
     7
100
AcDbPoint
 10
121.769301
 20
-33.663908
 30
0.0
  0
TEXT
  5
8F9
330
18
100
AcDbEntity
  8
0
 62
     7
100
AcDbText
 10
134.248534
 20
11.621599
 30
0.0
 40
4.5
  1
\U+220533
100
AcDbText
  0
TEXT
  5
8FA
330
18
100
AcDbEntity
  8
0
 62
     7
100
AcDbText
 10
161.887626
 20
24.817357
 30
0.0
 40
4.5
  1
\U+220511
100
AcDbText
  0
INSERT
  5
9B9
330
18
100
AcDbEntity
  8
0
100
AcDbBlockReference
  2
NTC
 10
10.3318846718625
 20
-68.54240243109202
 30
0.0
 41
0.3542487718487677
 42
0.3542487718487677
 43
0.3542487718487677
  0
INSERT
  5
A28
330
18
100
AcDbEntity
  8
0
100
AcDbBlockReference
  2
HD logo-new
 10
154.7326883605197
 20
-87.64087026786956
 30
0.0
 41
0.8331028683523413
 42
0.8331028683523413
 43
0.8331028683523413
  0
INSERT
  5
A49
330
18
100
AcDbEntity
  8
0
100
AcDbBlockReference
  2
HD LLC
 10
224.1317381315024
 20
-91.97314009252723
 30
0.0
 41
0.6223669087043163
 42
0.6223669087043163
 43
0.6223669087043163
  0
ENDSEC
  0
SECTION
  2
OBJECTS
  0
DICTIONARY
  5
C
330
0
100
AcDbDictionary
281
     1
  3
ACAD_GROUP
350
D
  3
ACAD_LAYOUT
350
9A7
  3
ACAD_MLINESTYLE
350
1B
  3
ACAD_PLOTSETTINGS
350
9A8
  3
ACAD_PLOTSTYLENAME
350
9A5
  3
AcDbVariableDictionary
350
A4A
  0
DICTIONARY
  5
D
102
{ACAD_REACTORS
330
C
102
}
330
C
100
AcDbDictionary
281
     1
  0
DICTIONARY
  5
9A7
102
{ACAD_REACTORS
330
C
102
}
330
C
100
AcDbDictionary
281
     1
  3
Layout1
350
9AA
  3
Model
350
9A9
  0
DICTIONARY
  5
1B
102
{ACAD_REACTORS
330
C
102
}
330
C
100
AcDbDictionary
281
     1
  3
STANDARD
350
1C
  0
DICTIONARY
  5
9A8
102
{ACAD_REACTORS
330
C
102
}
330
C
100
AcDbDictionary
281
     1
  0
ACDBDICTIONARYWDFLT
  5
9A5
102
{ACAD_REACTORS
330
C
102
}
330
C
100
AcDbDictionary
281
     1
  3
Normal
350
9A6
100
AcDbDictionaryWithDefault
340
9A6
  0
DICTIONARY
  5
A4A
102
{ACAD_REACTORS
330
C
102
}
330
C
100
AcDbDictionary
281
     1
  3
DIMASSOC
350
A4B
  0
LAYOUT
  5
9AA
102
{ACAD_REACTORS
330
9A7
102
}
330
9A7
100
AcDbPlotSettings
  1

  2
\\SERVER9\HP LaserJet 5100 PCL 5e
  4

  6

 40
0.0
 41
0.0
 42
0.0
 43
0.0
 44
0.0
 45
0.0
 46
0.0
 47
0.0
 48
0.0
 49
0.0
140
0.0
141
0.0
142
1.0
143
1.0
 70
   688
 72
     0
 73
     0
 74
     5
  7

 75
    16
147
1.0
148
0.0
149
0.0
100
AcDbLayout
  1
Layout1
 70
     1
 71
     1
 10
0.0
 20
0.0
 11
12.0
 21
9.0
 12
0.0
 22
0.0
 32
0.0
 14
1.000000000000000E+20
 24
1.000000000000000E+20
 34
1.000000000000000E+20
 15
-1.000000000000000E+20
 25
-1.000000000000000E+20
 35
-1.000000000000000E+20
146
0.0
 13
0.0
 23
0.0
 33
0.0
 16
1.0
 26
0.0
 36
0.0
 17
0.0
 27
1.0
 37
0.0
 76
     0
330
15
  0
LAYOUT
  5
9A9
102
{ACAD_REACTORS
330
9A7
102
}
330
9A7
100
AcDbPlotSettings
  1

  2
\\SERVER9\HP LaserJet 5100 PCL 5e
  4

  6

 40
0.0
 41
0.0
 42
0.0
 43
0.0
 44
0.0
 45
0.0
 46
0.0
 47
0.0
 48
0.0
 49
0.0
140
0.0
141
0.0
142
1.0
143
1.0
 70
  1712
 72
     0
 73
     0
 74
     0
  7

 75
     0
147
1.0
148
0.0
149
0.0
100
AcDbLayout
  1
Model
 70
     1
 71
     0
 10
0.0
 20
0.0
 11
12.0
 21
9.0
 12
0.0
 22
0.0
 32
0.0
 14
0.0
 24
0.0
 34
0.0
 15
0.0
 25
0.0
 35
0.0
146
0.0
 13
0.0
 23
0.0
 33
0.0
 16
1.0
 26
0.0
 36
0.0
 17
0.0
 27
1.0
 37
0.0
 76
     0
330
18
  0
MLINESTYLE
  5
1C
102
{ACAD_REACTORS
330
1B
102
}
330
1B
100
AcDbMlineStyle
  2
STANDARD
 70
     0
  3

 62
   256
 51
90.0
 52
90.0
 71
     2
 49
0.5
 62
   256
  6
BYLAYER
 49
-0.5
 62
   256
  6
BYLAYER
  0
ACDBPLACEHOLDER
  5
9A6
102
{ACAD_REACTORS
330
9A5
102
}
330
9A5
  0
DICTIONARYVAR
  5
A4B
102
{ACAD_REACTORS
330
A4A
102
}
330
A4A
100
DictionaryVariables
280
     0
  1
1
  0
ENDSEC
  0
EOF
