  0
SECTION
  2
HEADER
  9
$ACADVER
  1
AC1015
  9
$ACADMAINTVER
 70
    13
  9
$DWGCODEPAGE
  3
ANSI_1252
  9
$INSBASE
 10
0.0
 20
0.0
 30
0.0
  9
$EXTMIN
 10
-277.6064696514807
 20
-178.0526053958225
 30
0.0
  9
$EXTMAX
 10
231.3796937145741
 20
144.307784782914
 30
0.0
  9
$LIMMIN
 10
0.0
 20
0.0
  9
$LIMMAX
 10
0.0
 20
0.0
  9
$ORTHOMODE
 70
     0
  9
$REGENMODE
 70
     1
  9
$FILLMODE
 70
     1
  9
$QTEXTMODE
 70
     0
  9
$MIRRTEXT
 70
     1
  9
$LTSCALE
 40
1.0
  9
$ATTMODE
 70
     1
  9
$TEXTSIZE
 40
0.0
  9
$TRACEWID
 40
0.05
  9
$TEXTSTYLE
  7
STANDARD
  9
$CLAYER
  8
0
  9
$CELTYPE
  6
CONTINUOUS
  9
$CECOLOR
 62
   256
  9
$CELTSCALE
 40
1.0
  9
$DISPSILH
 70
     0
  9
$DIMSCALE
 40
1.0
  9
$DIMASZ
 40
0.18
  9
$DIMEXO
 40
0.0625
  9
$DIMDLI
 40
0.38
  9
$DIMRND
 40
0.0
  9
$DIMDLE
 40
0.0
  9
$DIMEXE
 40
0.18
  9
$DIMTP
 40
0.0
  9
$DIMTM
 40
0.0
  9
$DIMTXT
 40
0.18
  9
$DIMCEN
 40
0.09
  9
$DIMTSZ
 40
0.0
  9
$DIMTOL
 70
     0
  9
$DIMLIM
 70
     0
  9
$DIMTIH
 70
     1
  9
$DIMTOH
 70
     1
  9
$DIMSE1
 70
     0
  9
$DIMSE2
 70
     0
  9
$DIMTAD
 70
     0
  9
$DIMZIN
 70
     0
  9
$DIMBLK
  1

  9
$DIMASO
 70
     1
  9
$DIMSHO
 70
     1
  9
$DIMPOST
  1

  9
$DIMAPOST
  1

  9
$DIMALT
 70
     0
  9
$DIMALTD
 70
     2
  9
$DIMALTF
 40
25.4
  9
$DIMLFAC
 40
1.0
  9
$DIMTOFL
 70
     0
  9
$DIMTVP
 40
0.0
  9
$DIMTIX
 70
     0
  9
$DIMSOXD
 70
     0
  9
$DIMSAH
 70
     0
  9
$DIMBLK1
  1

  9
$DIMBLK2
  1

  9
$DIMSTYLE
  2
STANDARD
  9
$DIMCLRD
 70
     0
  9
$DIMCLRE
 70
     0
  9
$DIMCLRT
 70
     0
  9
$DIMTFAC
 40
1.0
  9
$DIMGAP
 40
0.09
  9
$DIMJUST
 70
     0
  9
$DIMSD1
 70
     0
  9
$DIMSD2
 70
     0
  9
$DIMTOLJ
 70
     1
  9
$DIMTZIN
 70
     0
  9
$DIMALTZ
 70
     0
  9
$DIMALTTZ
 70
     0
  9
$DIMUPT
 70
     0
  9
$DIMDEC
 70
     4
  9
$DIMTDEC
 70
     4
  9
$DIMALTU
 70
     2
  9
$DIMALTTD
 70
     2
  9
$DIMTXSTY
  7
STANDARD
  9
$DIMAUNIT
 70
     0
  9
$DIMADEC
 70
     0
  9
$DIMALTRND
 40
0.0
  9
$DIMAZIN
 70
     0
  9
$DIMDSEP
 70
    46
  9
$DIMATFIT
 70
     3
  9
$DIMFRAC
 70
     0
  9
$DIMLDRBLK
  1

  9
$DIMLUNIT
 70
     2
  9
$DIMLWD
 70
    -2
  9
$DIMLWE
 70
    -2
  9
$DIMTMOVE
 70
     0
  9
$LUNITS
 70
     2
  9
$LUPREC
 70
     4
  9
$SKETCHINC
 40
0.1
  9
$FILLETRAD
 40
0.0
  9
$AUNITS
 70
     0
  9
$AUPREC
 70
     0
  9
$MENU
  1
acad
  9
$ELEVATION
 40
0.0
  9
$PELEVATION
 40
0.0
  9
$THICKNESS
 40
0.0
  9
$LIMCHECK
 70
     0
  9
$CHAMFERA
 40
0.0
  9
$CHAMFERB
 40
0.0
  9
$CHAMFERC
 40
0.0
  9
$CHAMFERD
 40
0.0
  9
$SKPOLY
 70
     0
  9
$TDCREATE
 40
2311942.918353414
  9
$TDUCREATE
 40
2311943.085020081
  9
$TDUPDATE
 40
2455085.575145174
  9
$TDUUPDATE
 40
2455085.741811840
  9
$TDINDWG
 40
0.0099134375
  9
$TDUSRTIMER
 40
0.0099130787
  9
$USRTIMER
 70
     1
  9
$ANGBASE
 50
0.0
  9
$ANGDIR
 70
     0
  9
$PDMODE
 70
     0
  9
$PDSIZE
 40
0.0
  9
$PLINEWID
 40
0.0
  9
$SPLFRAME
 70
     0
  9
$SPLINETYPE
 70
     6
  9
$SPLINESEGS
 70
     8
  9
$HANDSEED
  5
30C
  9
$SURFTAB1
 70
     6
  9
$SURFTAB2
 70
     6
  9
$SURFTYPE
 70
     6
  9
$SURFU
 70
     6
  9
$SURFV
 70
     6
  9
$UCSBASE
  2

  9
$UCSNAME
  2

  9
$UCSORG
 10
0.0
 20
0.0
 30
0.0
  9
$UCSXDIR
 10
1.0
 20
0.0
 30
0.0
  9
$UCSYDIR
 10
0.0
 20
1.0
 30
0.0
  9
$UCSORTHOREF
  2

  9
$UCSORTHOVIEW
 70
     0
  9
$UCSORGTOP
 10
0.0
 20
0.0
 30
0.0
  9
$UCSORGBOTTOM
 10
0.0
 20
0.0
 30
0.0
  9
$UCSORGLEFT
 10
0.0
 20
0.0
 30
0.0
  9
$UCSORGRIGHT
 10
0.0
 20
0.0
 30
0.0
  9
$UCSORGFRONT
 10
0.0
 20
0.0
 30
0.0
  9
$UCSORGBACK
 10
0.0
 20
0.0
 30
0.0
  9
$PUCSBASE
  2

  9
$PUCSNAME
  2

  9
$PUCSORG
 10
0.0
 20
0.0
 30
0.0
  9
$PUCSXDIR
 10
1.0
 20
0.0
 30
0.0
  9
$PUCSYDIR
 10
0.0
 20
1.0
 30
0.0
  9
$PUCSORTHOREF
  2

  9
$PUCSORTHOVIEW
 70
     0
  9
$PUCSORGTOP
 10
0.0
 20
0.0
 30
0.0
  9
$PUCSORGBOTTOM
 10
0.0
 20
0.0
 30
0.0
  9
$PUCSORGLEFT
 10
0.0
 20
0.0
 30
0.0
  9
$PUCSORGRIGHT
 10
0.0
 20
0.0
 30
0.0
  9
$PUCSORGFRONT
 10
0.0
 20
0.0
 30
0.0
  9
$PUCSORGBACK
 10
0.0
 20
0.0
 30
0.0
  9
$USERI1
 70
     0
  9
$USERI2
 70
     0
  9
$USERI3
 70
     0
  9
$USERI4
 70
     0
  9
$USERI5
 70
     0
  9
$USERR1
 40
0.0
  9
$USERR2
 40
0.0
  9
$USERR3
 40
0.0
  9
$USERR4
 40
0.0
  9
$USERR5
 40
0.0
  9
$WORLDVIEW
 70
     1
  9
$SHADEDGE
 70
     3
  9
$SHADEDIF
 70
    70
  9
$TILEMODE
 70
     1
  9
$MAXACTVP
 70
    16
  9
$PINSBASE
 10
0.0
 20
0.0
 30
0.0
  9
$PLIMCHECK
 70
     0
  9
$PEXTMIN
 10
1.000000000000000E+20
 20
1.000000000000000E+20
 30
1.000000000000000E+20
  9
$PEXTMAX
 10
-1.000000000000000E+20
 20
-1.000000000000000E+20
 30
-1.000000000000000E+20
  9
$PLIMMIN
 10
0.0
 20
0.0
  9
$PLIMMAX
 10
12.0
 20
9.0
  9
$UNITMODE
 70
     0
  9
$VISRETAIN
 70
     0
  9
$PLINEGEN
 70
     1
  9
$PSLTSCALE
 70
     0
  9
$TREEDEPTH
 70
  3020
  9
$CMLSTYLE
  2
STANDARD
  9
$CMLJUST
 70
     0
  9
$CMLSCALE
 40
1.0
  9
$PROXYGRAPHICS
 70
     0
  9
$MEASUREMENT
 70
     0
  9
$CELWEIGHT
370
    -1
  9
$ENDCAPS
280
     0
  9
$JOINSTYLE
280
     0
  9
$LWDISPLAY
290
     0
  9
$INSUNITS
 70
     0
  9
$HYPERLINKBASE
  1

  9
$STYLESHEET
  1

  9
$XEDIT
290
     1
  9
$CEPSNTYPE
380
     0
  9
$PSTYLEMODE
290
     1
  9
$FINGERPRINTGUID
  2
{C2E443C6-1CB7-462B-809B-CC304DA3D857}
  9
$VERSIONGUID
  2
{356F5E26-E9B7-4F71-9F09-00B42645DE1C}
  9
$EXTNAMES
290
     1
  9
$PSVPSCALE
 40
0.0
  9
$OLESTARTUP
290
     0
  0
ENDSEC
  0
SECTION
  2
CLASSES
  0
CLASS
  1
LWPOLYLINE
  2
AcDbPolyline
  3
AutoCAD 2000
 90
    32768
280
     0
281
     1
  0
CLASS
  1
IMAGE
  2
AcDbRasterImage
  3
ISM
 90
    32895
280
     0
281
     1
  0
CLASS
  1
OLE2FRAME
  2
AcDbOle2Frame
  3
AutoCAD 2000
 90
    32768
280
     0
281
     1
  0
CLASS
  1
HATCH
  2
AcDbHatch
  3
AutoCAD 2000
 90
    32768
280
     0
281
     1
  0
CLASS
  1
DICTIONARYVAR
  2
AcDbDictionaryVar
  3
AutoCAD 2000
 90
        0
280
     0
281
     0
  0
CLASS
  1
RASTERVARIABLES
  2
AcDbRasterVariables
  3
ISM
 90
    32768
280
     0
281
     0
  0
CLASS
  1
IMAGEDEF
  2
AcDbRasterImageDef
  3
ISM
 90
    32768
280
     0
281
     0
  0
CLASS
  1
IMAGEDEF_REACTOR
  2
AcDbRasterImageDefReactor
  3
ISM
 90
    32769
280
     0
281
     0
  0
CLASS
  1
IDBUFFER
  2
AcDbIdBuffer
  3
AutoCAD 2000
 90
    32768
280
     0
281
     0
  0
CLASS
  1
SPATIAL_FILTER
  2
AcDbSpatialFilter
  3
AutoCAD 2000
 90
    32768
280
     0
281
     0
  0
CLASS
  1
XRECORD
  2
AcDbXrecord
  3
AutoCAD 2000
 90
    32768
280
     0
281
     0
  0
CLASS
  1
SORTENTSTABLE
  2
AcDbSortentsTable
  3
AutoCAD 2000
 90
    32768
280
     0
281
     0
  0
CLASS
  1
LAYER_INDEX
  2
AcDbLayerIndex
  3
AutoCAD 2000
 90
    32768
280
     0
281
     0
  0
CLASS
  1
SPATIAL_INDEX
  2
AcDbSpatialIndex
  3
AutoCAD 2000
 90
    32768
280
     0
281
     0
  0
CLASS
  1
OBJECT_PTR
  2
CAseDLPNTableRecord
  3
"ASE-LPNTableRecord"
 90
    32769
280
     0
281
     0
  0
CLASS
  1
LAYOUT
  2
AcDbLayout
  3
AutoCAD 2000
 90
        0
280
     0
281
     0
  0
CLASS
  1
PLOTSETTINGS
  2
AcDbPlotSettings
  3
AutoCAD 2000
 90
    32768
280
     0
281
     0
  0
CLASS
  1
ACDBDICTIONARYWDFLT
  2
AcDbDictionaryWithDefault
  3
AutoCAD 2000
 90
        0
280
     0
281
     0
  0
CLASS
  1
ACDBPLACEHOLDER
  2
AcDbPlaceHolder
  3
AutoCAD 2000
 90
        0
280
     0
281
     0
  0
CLASS
  1
VBA_PROJECT
  2
AcDbVbaProject
  3
"acadvba"
 90
    32769
280
     0
281
     0
  0
CLASS
  1
WIPEOUT
  2
AcDbWipeout
  3
WipeOut|AutoCAD Express Tool|expresstools@autodesk.com
 90
    32895
280
     0
281
     1
  0
CLASS
  1
WIPEOUTVARIABLES
  2
AcDbWipeoutVariables
  3
WipeOut|AutoCAD Express Tool|expresstools@autodesk.com
 90
    32768
280
     0
281
     0
  0
CLASS
  1
RTEXT
  2
RText
  3
RText|AutoCAD Express Tool|expresstools@autodesk.com
 90
    32768
280
     0
281
     1
  0
CLASS
  1
ARCALIGNEDTEXT
  2
AcDbArcAlignedText
  3
ATEXT|AutoCAD Express Tool|expresstools@autodesk.com
 90
    32768
280
     0
281
     1
  0
ENDSEC
  0
SECTION
  2
TABLES
  0
TABLE
  2
VPORT
  5
7
330
0
100
AcDbSymbolTable
 70
     2
  0
VPORT
  5
30B
330
7
100
AcDbSymbolTableRecord
100
AcDbViewportTableRecord
  2
*Active
 70
     0
 10
0.0
 20
0.0
 11
1.0
 21
1.0
 12
-0.5008925326149552
 22
-26.88311620288317
 13
0.0
 23
0.0
 14
1.0
 24
1.0
 15
0.0
 25
0.0
 16
0.0
 26
0.0
 36
1.0
 17
0.0
 27
0.0
 37
0.0
 40
377.6567632921891
 41
1.786259541984732
 42
50.0
 43
0.0
 44
0.0
 50
0.0
 51
0.0
 71
     0
 72
   100
 73
     1
 74
     1
 75
     0
 76
     0
 77
     0
 78
     0
281
     0
 65
     1
110
0.0
120
0.0
130
0.0
111
1.0
121
0.0
131
0.0
112
0.0
122
1.0
132
0.0
 79
     0
146
0.0
  0
ENDTAB
  0
TABLE
  2
LTYPE
  5
4
330
0
100
AcDbSymbolTable
 70
     8
  0
LTYPE
  5
11
330
4
100
AcDbSymbolTableRecord
100
AcDbLinetypeTableRecord
  2
BYBLOCK
 70
     0
  3

 72
    65
 73
     0
 40
0.0
  0
LTYPE
  5
12
330
4
100
AcDbSymbolTableRecord
100
AcDbLinetypeTableRecord
  2
BYLAYER
 70
     0
  3

 72
    65
 73
     0
 40
0.0
  0
LTYPE
  5
13
330
4
100
AcDbSymbolTableRecord
100
AcDbLinetypeTableRecord
  2
CONTINUOUS
 70
     0
  3
Solid line
 72
    65
 73
     0
 40
0.0
  0
LTYPE
  5
1D
330
4
100
AcDbSymbolTableRecord
100
AcDbLinetypeTableRecord
  2
DASHED
 70
     0
  3
Dashed
 72
    65
 73
     2
 40
15.0
 49
12.0
 74
     0
 49
-3.0
 74
     0
  0
LTYPE
  5
1E
330
4
100
AcDbSymbolTableRecord
100
AcDbLinetypeTableRecord
  2
DOTTED
 70
     0
  3
Dotted
 72
    65
 73
     2
 40
3.5
 49
0.5
 74
     0
 49
-3.0
 74
     0
  0
LTYPE
  5
1F
330
4
100
AcDbSymbolTableRecord
100
AcDbLinetypeTableRecord
  2
DOT_CENTER
 70
     0
  3
Dot_Center
 72
    65
 73
     4
 40
2.0
 49
1.25
 74
     0
 49
-0.25
 74
     0
 49
0.25
 74
     0
 49
-0.25
 74
     0
  0
LTYPE
  5
20
330
4
100
AcDbSymbolTableRecord
100
AcDbLinetypeTableRecord
  2
LONG_DASHED
 70
     0
  3
Long_Dashed
 72
    65
 73
     2
 40
2.0
 49
1.5
 74
     0
 49
-0.5
 74
     0
  0
LTYPE
  5
21
330
4
100
AcDbSymbolTableRecord
100
AcDbLinetypeTableRecord
  2
DASH_CENTER
 70
     0
  3
Dash_Center
 72
    65
 73
     4
 40
36.0
 49
24.0
 74
     0
 49
-3.0
 74
     0
 49
6.0
 74
     0
 49
-3.0
 74
     0
  0
LTYPE
  5
22
330
4
100
AcDbSymbolTableRecord
100
AcDbLinetypeTableRecord
  2
PHANTOM
 70
     0
  3
Phantom
 72
    65
 73
     6
 40
2.5
 49
1.25
 74
     0
 49
-0.25
 74
     0
 49
0.25
 74
     0
 49
-0.25
 74
     0
 49
0.25
 74
     0
 49
-0.25
 74
     0
  0
LTYPE
  5
23
330
4
100
AcDbSymbolTableRecord
100
AcDbLinetypeTableRecord
  2
CENTER_DASH_DASH
 70
     0
  3
Center_Dash_Dash
 72
    65
 73
     6
 40
22.0
 49
12.0
 74
     0
 49
-3.0
 74
     0
 49
0.5
 74
     0
 49
-3.0
 74
     0
 49
0.5
 74
     0
 49
-3.0
 74
     0
  0
ENDTAB
  0
TABLE
  2
LAYER
  5
2
330
0
100
AcDbSymbolTable
 70
     3
  0
LAYER
  5
14
330
2
100
AcDbSymbolTableRecord
100
AcDbLayerTableRecord
  2
0
 70
     0
 62
     7
  6
CONTINUOUS
370
    -3
390
26E
  0
LAYER
  5
24
330
2
100
AcDbSymbolTableRecord
100
AcDbLayerTableRecord
  2
1
 70
     0
 62
     7
  6
CONTINUOUS
370
    -3
390
26E
  0
LAYER
  5
2ED
330
2
100
AcDbSymbolTableRecord
100
AcDbLayerTableRecord
  2
LAYER_1
 70
     0
 62
     5
  6
CONTINUOUS
370
    -3
390
26E
  0
ENDTAB
  0
TABLE
  2
STYLE
  5
3
330
0
100
AcDbSymbolTable
 70
     4
  0
STYLE
  5
17
330
3
100
AcDbSymbolTableRecord
100
AcDbTextStyleTableRecord
  2
STANDARD
 70
     0
 40
0.0
 41
1.0
 50
0.0
 71
     0
 42
0.0
  3
txt
  4

  0
STYLE
  5
24F
330
3
100
AcDbSymbolTableRecord
100
AcDbTextStyleTableRecord
  2
CONVERTER_1
 70
     0
 40
0.0
 41
0.8100000000000001
 50
0.0
 71
     0
 42
0.0
  3
txt.shx
  4

  0
STYLE
  5
251
330
3
100
AcDbSymbolTableRecord
100
AcDbTextStyleTableRecord
  2
CONVERTER_2
 70
     0
 40
0.0
 41
0.89
 50
0.0
 71
     0
 42
0.0
  3
MS Mincho.ttf
  4

1001
ACAD
1000
MS Mincho
1071
    32785
  0
STYLE
  5
253
330
3
100
AcDbSymbolTableRecord
100
AcDbTextStyleTableRecord
  2
CONVERTER_3
 70
     0
 40
0.0
 41
0.9
 50
0.0
 71
     0
 42
0.0
  3
txt.shx
  4

  0
ENDTAB
  0
TABLE
  2
VIEW
  5
5
330
0
100
AcDbSymbolTable
 70
     0
  0
ENDTAB
  0
TABLE
  2
UCS
  5
6
330
0
100
AcDbSymbolTable
 70
     0
  0
ENDTAB
  0
TABLE
  2
APPID
  5
8
330
0
100
AcDbSymbolTable
 70
     1
  0
APPID
  5
16
330
8
100
AcDbSymbolTableRecord
100
AcDbRegAppTableRecord
  2
ACAD
 70
     0
  0
ENDTAB
  0
TABLE
  2
DIMSTYLE
  5
9
330
0
100
AcDbSymbolTable
 70
     1
100
AcDbDimStyleTable
 71
     0
  0
DIMSTYLE
105
18
330
9
100
AcDbSymbolTableRecord
100
AcDbDimStyleTableRecord
  2
STANDARD
 70
     0
340
17
  0
ENDTAB
  0
TABLE
  2
BLOCK_RECORD
  5
1
330
0
100
AcDbSymbolTable
 70
    26
  0
BLOCK_RECORD
  5
A
330
1
100
AcDbSymbolTableRecord
100
AcDbBlockTableRecord
  2
*MODEL_SPACE
340
271
  0
BLOCK_RECORD
  5
B
330
1
100
AcDbSymbolTableRecord
100
AcDbBlockTableRecord
  2
*PAPER_SPACE
340
272
  0
BLOCK_RECORD
  5
25
330
1
100
AcDbSymbolTableRecord
100
AcDbBlockTableRecord
  2
HEX_BOLT_TOP__1
340
0
102
{BLKREFS
331
37
102
}
  0
BLOCK_RECORD
  5
27
330
1
100
AcDbSymbolTableRecord
100
AcDbBlockTableRecord
  2
HEX_BOLT_TOP__2
340
0
102
{BLKREFS
331
38
102
}
  0
BLOCK_RECORD
  5
29
330
1
100
AcDbSymbolTableRecord
100
AcDbBlockTableRecord
  2
HEX_BOLT_TOP__3
340
0
102
{BLKREFS
331
39
102
}
  0
BLOCK_RECORD
  5
2B
330
1
100
AcDbSymbolTableRecord
100
AcDbBlockTableRecord
  2
HEX_BOLT_TOP__4
340
0
102
{BLKREFS
331
3A
102
}
  0
BLOCK_RECORD
  5
2D
330
1
100
AcDbSymbolTableRecord
100
AcDbBlockTableRecord
  2
HEX_BOLT_TOP__5
340
0
102
{BLKREFS
331
3B
102
}
  0
BLOCK_RECORD
  5
2F
330
1
100
AcDbSymbolTableRecord
100
AcDbBlockTableRecord
  2
HEX_BOLT_TOP__6
340
0
102
{BLKREFS
331
3C
102
}
  0
BLOCK_RECORD
  5
31
330
1
100
AcDbSymbolTableRecord
100
AcDbBlockTableRecord
  2
HEX_BOLT_TOP__7
340
0
102
{BLKREFS
331
3D
102
}
  0
BLOCK_RECORD
  5
33
330
1
100
AcDbSymbolTableRecord
100
AcDbBlockTableRecord
  2
HEX_BOLT_TOP__8
340
0
102
{BLKREFS
331
3E
102
}
  0
BLOCK_RECORD
  5
275
330
1
100
AcDbSymbolTableRecord
100
AcDbBlockTableRecord
  2
NTC
340
0
310
2800000020000000200000000100080000000000000400000000000000000000000000000000000000000000000080000080000000808000800000008000800080800000C0C0C000C0DCC000F0CAA6000020400000206000002080000020A0000020C0000020E00000400000004020000040400000406000004080000040A0
310
000040C0000040E00000600000006020000060400000606000006080000060A0000060C0000060E00000800000008020000080400000806000008080000080A0000080C0000080E00000A0000000A0200000A0400000A0600000A0800000A0A00000A0C00000A0E00000C0000000C0200000C0400000C0600000C0800000C0
310
A00000C0C00000C0E00000E0000000E0200000E0400000E0600000E0800000E0A00000E0C00000E0E00040000000400020004000400040006000400080004000A0004000C0004000E00040200000402020004020400040206000402080004020A0004020C0004020E000404000004040200040404000404060004040800040
310
40A0004040C0004040E00040600000406020004060400040606000406080004060A0004060C0004060E00040800000408020004080400040806000408080004080A0004080C0004080E00040A0000040A0200040A0400040A0600040A0800040A0A00040A0C00040A0E00040C0000040C0200040C0400040C0600040C08000
310
40C0A00040C0C00040C0E00040E0000040E0200040E0400040E0600040E0800040E0A00040E0C00040E0E00080000000800020008000400080006000800080008000A0008000C0008000E00080200000802020008020400080206000802080008020A0008020C0008020E00080400000804020008040400080406000804080
310
008040A0008040C0008040E00080600000806020008060400080606000806080008060A0008060C0008060E00080800000808020008080400080806000808080008080A0008080C0008080E00080A0000080A0200080A0400080A0600080A0800080A0A00080A0C00080A0E00080C0000080C0200080C0400080C0600080C0
310
800080C0A00080C0C00080C0E00080E0000080E0200080E0400080E0600080E0800080E0A00080E0C00080E0E000C0000000C0002000C0004000C0006000C0008000C000A000C000C000C000E000C0200000C0202000C0204000C0206000C0208000C020A000C020C000C020E000C0400000C0402000C0404000C0406000C0
310
408000C040A000C040C000C040E000C0600000C0602000C0604000C0606000C0608000C060A000C060C000C060E000C0800000C0802000C0804000C0806000C0808000C080A000C080C000C080E000C0A00000C0A02000C0A04000C0A06000C0A08000C0A0A000C0A0C000C0A0E000C0C00000C0C02000C0C04000C0C06000
310
C0C08000C0C0A000F0FBFF00A4A0A000808080000000FF0000FF000000FFFF00FF000000FF00FF00FFFF0000FFFFFF00FFFFFFFFFFFFFFFFFFFFFFFFFFFFFFFFFFFFFFFFFFFFFFFFFFFFFFFFFFFFFFFFFFFFFFFFFFFFFFFFFFFFFFFFFFFFFFFFFFFFFFFFFFFFFFFFFFFFFFFFFFFFFFFFFFFFFFFFFFFFFFFFFFFFFFFFFFFFFF
310
FFFFFFFFFFFFFFFFFFFFFFFFFFFFFFFFFFFFFFFFFFFFFFFFFFFFFFFFFFFFFFFFFFFFFFFFFFFFFFFFFFFFFFFFFFFFFFFFFFFFFFFFFFFFFFFFFFFFFFFFFFFFFFFFFFFFFFFFFFFFFFFFFFFFFFFFFFFFFFFFFFFFFFFFFFFFFFFFFFFFFFFFFFFFFFFFFFFFFFFFFFFFFFFFFFFFFFFFFFFFFFFFFFFFFFFFFFFFFFFFFFFFFFFFFFFFFF
310
FFFFFFFFFFFFFFFFFFFFFFFFFFFFFFFFFFFFFFFFFFFFFFFFFFFFFFFFFFFFFFFFFFFFFFFFFFFFFFFFFFFFFFFFFFFFFFFFFFFFFFFFFFFFFFFFFFFFFFFFFFFFFFFFFFFFFFFFFFFFFFFFFFFFFFFFFFFFFFFFFFFFFFFFFFFFFFFFFFFFFFFFFFFFFFFFFFFFFFFFFFFFFFFFFFFFFFFFFFFFFFFFFFFFFFFFFFFFFFFFFFFFFFFFFFFFFF
310
FFFFFFFFFFFFFFFFFFFFFFFFFFFFFFFFFFFFFFFF000000000000000000000000000000000000000000000000000000000000FFFF00FF0000000000000000FFFFFFFFFFFFFFFFFFFFFFFFFFFFFFFFFFFFFF00FFFF00FF0000000000000000FFFFFFFFFFFFFFFFFFFFFFFFFFFFFFFFFFFFFF00FFFF00FF000000000000000000
310
00000000000000000000000000FFFFFFFFFF00FFFF00FF0000000000000000000000000000000000000000000000000000FF00FFFF00FF0000000000000000000000000000000000000000000000000000FF00FFFF00FF0000000000000000000000000000000000000000000000000000FF00FFFF00FF0000000000000000
310
00000000000000000000000000000000FFFFFF00FFFF00FF0000000000FFFFFFFFFFFFFFFFFFFFFFFFFFFFFFFFFFFFFFFFFFFF00FFFF000000000000000000000000000000000000000000000000000000000000FFFFFFFFFFFFFFFFFFFFFFFFFFFFFFFFFFFFFFFFFFFFFFFFFFFFFFFFFFFFFFFFFFFFFFFFFFFFFFFFFFFFFF
310
FFFFFFFFFFFFFFFFFFFFFFFFFFFFFFFFFFFFFFFFFFFFFFFFFFFFFFFFFFFFFFFFFFFFFFFFFFFFFFFFFFFFFFFFFFFFFFFFFFFFFFFFFFFFFFFFFFFFFFFFFFFFFFFFFFFFFFFFFFFFFFFFFFFFFFFFFFFFFFFFFFFFFFFFFFFFFFFFFFFFFFFFFFFFFFFFFFFFFFFFFFFFFFFFFFFFFFFFFFFFFFFFFFFFFFFFFFFFFFFFFFFFFFFFFFFFFF
310
FFFFFFFFFFFFFFFFFFFFFFFFFFFFFFFFFFFFFFFFFFFFFFFFFFFFFFFFFFFFFFFFFFFFFFFFFFFFFFFFFFFFFFFFFFFFFFFFFFFFFFFFFFFFFFFFFFFFFFFFFFFFFFFFFFFFFFFFFFFFFFFFFFFFFFFFFFFFFFFFFFFFFFFFFFFFFFFFFFFFFFFFFFFFFFFFFFFFFFFFFFFFFFFFFFFFFFFFFFFFFFFFFFFFFFFFFFFFFFFFFFFFFFFFFFFFFF
310
FFFFFFFFFFFFFFFFFFFFFFFFFFFFFFFFFFFFFFFFFFFFFFFFFFFFFFFFFFFFFFFFFFFFFFFFFFFFFFFFFFFFFFFFFFFFFFFFFFFFFFFFFFFFFFFF
102
{BLKREFS
331
27B
331
280
102
}
  0
BLOCK_RECORD
  5
281
330
1
100
AcDbSymbolTableRecord
100
AcDbBlockTableRecord
  2
AI9-BLK14
340
0
310
2800000020000000200000000100080000000000000400000000000000000000000000000000000000000000000080000080000000808000800000008000800080800000C0C0C000C0DCC000F0CAA6000020400000206000002080000020A0000020C0000020E00000400000004020000040400000406000004080000040A0
310
000040C0000040E00000600000006020000060400000606000006080000060A0000060C0000060E00000800000008020000080400000806000008080000080A0000080C0000080E00000A0000000A0200000A0400000A0600000A0800000A0A00000A0C00000A0E00000C0000000C0200000C0400000C0600000C0800000C0
310
A00000C0C00000C0E00000E0000000E0200000E0400000E0600000E0800000E0A00000E0C00000E0E00040000000400020004000400040006000400080004000A0004000C0004000E00040200000402020004020400040206000402080004020A0004020C0004020E000404000004040200040404000404060004040800040
310
40A0004040C0004040E00040600000406020004060400040606000406080004060A0004060C0004060E00040800000408020004080400040806000408080004080A0004080C0004080E00040A0000040A0200040A0400040A0600040A0800040A0A00040A0C00040A0E00040C0000040C0200040C0400040C0600040C08000
310
40C0A00040C0C00040C0E00040E0000040E0200040E0400040E0600040E0800040E0A00040E0C00040E0E00080000000800020008000400080006000800080008000A0008000C0008000E00080200000802020008020400080206000802080008020A0008020C0008020E00080400000804020008040400080406000804080
310
008040A0008040C0008040E00080600000806020008060400080606000806080008060A0008060C0008060E00080800000808020008080400080806000808080008080A0008080C0008080E00080A0000080A0200080A0400080A0600080A0800080A0A00080A0C00080A0E00080C0000080C0200080C0400080C0600080C0
310
800080C0A00080C0C00080C0E00080E0000080E0200080E0400080E0600080E0800080E0A00080E0C00080E0E000C0000000C0002000C0004000C0006000C0008000C000A000C000C000C000E000C0200000C0202000C0204000C0206000C0208000C020A000C020C000C020E000C0400000C0402000C0404000C0406000C0
310
408000C040A000C040C000C040E000C0600000C0602000C0604000C0606000C0608000C060A000C060C000C060E000C0800000C0802000C0804000C0806000C0808000C080A000C080C000C080E000C0A00000C0A02000C0A04000C0A06000C0A08000C0A0A000C0A0C000C0A0E000C0C00000C0C02000C0C04000C0C06000
310
C0C08000C0C0A000F0FBFF00A4A0A000808080000000FF0000FF000000FFFF00FF000000FF00FF00FFFF0000FFFFFF00FF00FFFFFFFF00FFFFFFFFFFFFFFFFFFFFFFFFFFFFFFFFFFFFFFFFFFFFFFFFFFFF00FFFFFFFF00FFFFFFFFFFFFFFFFFFFFFFFFFFFFFFFFFFFFFFFFFFFFFFFFFFFF00FFFFFFFF00FFFFFFFFFFFFFFFF
310
FFFFFFFFFFFFFFFFFFFFFFFFFFFFFFFFFFFF00FFFFFFFF00FFFFFFFFFFFFFFFFFFFFFFFFFFFFFFFFFFFFFFFFFFFFFFFFFFFF00FFFFFFFF00FFFFFFFFFFFFFFFFFFFFFFFFFFFFFFFFFFFFFFFFFFFFFFFFFFFF00FFFFFFFF00FFFFFFFFFFFFFFFFFFFFFFFFFFFFFFFFFFFFFFFFFFFFFFFFFFFF00FFFFFFFF00FFFFFFFFFFFFFF
310
FFFFFFFFFFFFFFFFFFFFFFFFFFFFFFFFFFFFFF00FFFFFFFF00FFFFFFFFFFFFFFFFFFFFFFFFFFFFFFFFFFFFFFFFFFFFFFFFFFFF00FFFFFFFF00FFFFFFFFFFFFFFFFFFFFFFFFFFFFFFFFFFFFFFFFFFFFFFFFFFFF00FFFFFFFF00FFFFFFFFFFFFFFFFFFFFFFFFFFFFFFFFFFFFFFFFFFFFFFFFFFFF00FFFFFFFF00FFFFFFFFFFFF
310
FFFFFFFFFFFFFFFFFFFFFFFFFFFFFFFFFFFFFFFF00FFFFFFFF00FFFFFFFFFFFFFFFFFFFFFFFFFFFFFFFFFFFFFFFFFFFFFFFFFFFF00FFFFFFFF00FFFFFFFFFFFFFFFFFFFFFFFFFFFFFFFFFFFFFFFFFFFFFFFFFFFF00FFFFFFFF0000000000000000000000000000000000000000000000000000FF00FFFFFFFFFFFFFFFFFFFF
310
FFFFFFFFFFFFFFFFFFFFFFFFFFFFFFFFFFFFFFFFFF00FFFFFFFFFFFFFFFFFFFFFFFFFFFFFFFFFFFFFFFFFFFFFFFFFFFFFFFFFFFFFF00FFFFFFFFFFFFFFFFFFFFFFFFFFFFFFFFFFFFFFFFFFFFFFFFFFFFFFFFFFFFFF00FFFFFFFFFFFFFFFFFFFFFFFFFFFFFFFFFFFFFFFFFFFFFFFFFFFFFFFFFF00FF00000000000000000000
310
0000000000000000000000000000000000000000FFFFFFFFFFFFFFFFFFFFFFFFFFFFFFFFFFFFFFFFFFFFFFFFFFFFFFFFFFFFFFFFFFFFFFFFFFFFFFFFFFFFFFFFFFFFFFFFFFFFFFFFFFFFFFFFFFFFFFFFFFFFFFFFFFFFFFFFFFFFFFFFFFFFFFFFFFFFFFFFFFFFFFFFFFFFFFFFFFFFFFFFFFFFFFFFFFFFFFFFFFFFFFFFFFFFFF
310
FFFFFFFFFFFFFFFFFFFFFFFFFFFFFFFFFFFFFFFFFFFFFFFFFFFFFFFFFFFFFFFFFFFFFFFFFFFFFFFFFFFFFFFFFFFFFFFFFFFFFFFFFFFFFFFFFFFFFFFFFFFFFFFFFFFFFFFFFFFFFFFFFFFFFFFFFFFFFFFFFFFFFFFFFFFFFFFFFFFFFFFFFFFFFFFFFFFFFFFFFFFFFFFFFFFFFFFFFFFFFFFFFFFFFFFFFFFFFFFFFFFFFFFFFFFFFF
310
FFFFFFFFFFFFFFFFFFFFFFFFFFFFFFFFFFFFFFFFFFFFFFFFFFFFFFFFFFFFFFFFFFFFFFFFFFFFFFFFFFFFFFFFFFFFFFFFFFFFFFFFFFFFFFFFFFFFFFFFFFFFFFFFFFFFFFFFFFFFFFFFFFFFFFFFFFFFFFFFFFFFFFFFFFFFFFFFFFFFFFFFFFFFFFFFFFFFFFFFFFFFFFFFFFFFFFFFFFFFFFFFFFFFFFFFFFFFFFFFFFFFFFFFFFFFFF
310
FFFFFFFFFFFFFFFFFFFFFFFFFFFFFFFFFFFFFFFFFFFFFFFFFFFFFFFFFFFFFFFFFFFFFFFFFFFFFFFFFFFFFFFFFFFFFFFFFFFFFFFFFFFFFFFF
102
{BLKREFS
331
2C2
102
}
  0
BLOCK_RECORD
  5
286
330
1
100
AcDbSymbolTableRecord
100
AcDbBlockTableRecord
  2
AI9-BLK13
340
0
310
2800000020000000200000000100080000000000000400000000000000000000000000000000000000000000000080000080000000808000800000008000800080800000C0C0C000C0DCC000F0CAA6000020400000206000002080000020A0000020C0000020E00000400000004020000040400000406000004080000040A0
310
000040C0000040E00000600000006020000060400000606000006080000060A0000060C0000060E00000800000008020000080400000806000008080000080A0000080C0000080E00000A0000000A0200000A0400000A0600000A0800000A0A00000A0C00000A0E00000C0000000C0200000C0400000C0600000C0800000C0
310
A00000C0C00000C0E00000E0000000E0200000E0400000E0600000E0800000E0A00000E0C00000E0E00040000000400020004000400040006000400080004000A0004000C0004000E00040200000402020004020400040206000402080004020A0004020C0004020E000404000004040200040404000404060004040800040
310
40A0004040C0004040E00040600000406020004060400040606000406080004060A0004060C0004060E00040800000408020004080400040806000408080004080A0004080C0004080E00040A0000040A0200040A0400040A0600040A0800040A0A00040A0C00040A0E00040C0000040C0200040C0400040C0600040C08000
310
40C0A00040C0C00040C0E00040E0000040E0200040E0400040E0600040E0800040E0A00040E0C00040E0E00080000000800020008000400080006000800080008000A0008000C0008000E00080200000802020008020400080206000802080008020A0008020C0008020E00080400000804020008040400080406000804080
310
008040A0008040C0008040E00080600000806020008060400080606000806080008060A0008060C0008060E00080800000808020008080400080806000808080008080A0008080C0008080E00080A0000080A0200080A0400080A0600080A0800080A0A00080A0C00080A0E00080C0000080C0200080C0400080C0600080C0
310
800080C0A00080C0C00080C0E00080E0000080E0200080E0400080E0600080E0800080E0A00080E0C00080E0E000C0000000C0002000C0004000C0006000C0008000C000A000C000C000C000E000C0200000C0202000C0204000C0206000C0208000C020A000C020C000C020E000C0400000C0402000C0404000C0406000C0
310
408000C040A000C040C000C040E000C0600000C0602000C0604000C0606000C0608000C060A000C060C000C060E000C0800000C0802000C0804000C0806000C0808000C080A000C080C000C080E000C0A00000C0A02000C0A04000C0A06000C0A08000C0A0A000C0A0C000C0A0E000C0C00000C0C02000C0C04000C0C06000
310
C0C08000C0C0A000F0FBFF00A4A0A000808080000000FF0000FF000000FFFF00FF000000FF00FF00FFFF0000FFFFFF00FFFFFFFFFFFFFFFFFFFFFFFFFFFFFFFFFFFFFFFFFFFFFFFFFFFFFFFFFFFFFFFFFFFFFFFFFFFFFFFFFFFFFF0000FFFFFFFFFFFF0000FFFFFFFFFFFFFFFFFFFFFFFFFFFFFFFFFFFFFFFFFFFF0000FFFF
310
FFFFFFFF0000FFFFFFFFFFFFFFFFFFFFFFFFFFFFFFFFFFFFFFFFFFFF0000FFFFFFFFFFFF0000FFFFFFFFFFFFFFFFFFFFFFFFFFFFFFFFFFFFFFFFFFFF0000FFFFFFFFFFFF0000FFFFFFFFFFFFFFFFFFFFFFFFFFFFFFFFFFFFFFFFFFFF0000FFFFFFFFFFFF0000FFFFFFFFFFFFFFFFFFFFFFFFFFFFFFFFFFFFFFFFFFFF0000FF
310
FFFFFFFFFF0000FFFFFFFFFFFFFFFFFFFFFFFFFFFFFFFFFFFFFFFFFFFF0000FFFFFFFFFFFF0000FFFFFFFFFFFFFFFFFFFFFFFFFFFFFFFFFFFFFFFFFFFF0000FFFFFFFFFFFF0000FFFFFFFFFFFFFFFFFFFFFFFFFFFFFFFFFFFFFFFFFFFF0000FFFFFFFFFFFF0000FFFFFFFFFFFFFFFFFFFFFFFFFFFFFFFFFFFFFFFFFFFF0000
310
FFFFFFFFFFFF0000FFFFFFFFFFFFFFFFFFFFFFFFFFFFFFFFFFFFFFFFFFFF0000FFFFFFFFFFFF0000FFFFFFFFFFFFFFFFFFFFFFFFFFFFFFFFFFFFFFFFFFFF0000FFFFFFFFFFFF0000FFFFFFFFFFFFFFFFFFFFFFFFFFFFFFFFFFFFFFFFFFFF0000FFFFFFFFFFFF0000FFFFFFFFFFFFFFFFFFFFFFFFFFFFFFFFFFFFFFFFFFFF00
310
00FFFFFFFFFFFF0000FFFFFFFFFFFFFFFFFFFFFFFFFFFFFFFFFFFFFFFFFFFF00000000000000000000FFFFFFFFFFFFFFFFFFFFFFFFFFFFFFFFFFFFFFFFFFFF00FFFFFFFFFFFFFFFF00FFFFFFFFFFFFFFFFFFFFFFFFFFFFFFFFFFFFFFFFFFFF00FFFFFFFFFFFFFFFF00FFFFFFFFFFFFFFFFFFFFFFFFFFFFFFFFFFFFFFFFFFFF
310
00000000000000000000FFFFFFFFFFFFFFFFFFFFFFFFFFFFFFFFFFFFFFFFFFFF0000FFFFFFFFFFFF0000FFFFFFFFFFFFFFFFFFFFFFFFFFFFFFFFFFFFFFFFFFFF0000FFFFFFFFFFFF0000FFFFFFFFFFFFFFFFFFFFFFFFFFFFFFFFFFFFFFFFFFFF0000FFFFFFFFFFFF0000FFFFFFFFFFFFFFFFFFFFFFFFFFFFFFFFFFFFFFFFFF
310
FF0000FFFFFFFFFFFF0000FFFFFFFFFFFFFFFFFFFFFFFFFFFFFFFFFFFFFFFFFFFF0000FFFFFFFFFFFF0000FFFFFFFFFFFFFFFFFFFFFFFFFFFFFFFFFFFFFFFFFFFF0000FFFFFFFFFFFF0000FFFFFFFFFFFFFFFFFFFFFFFFFFFFFFFFFFFFFFFFFFFF0000FFFFFFFFFFFF0000FFFFFFFFFFFFFFFFFFFFFFFFFFFFFFFFFFFFFFFF
310
FFFF0000FFFFFFFFFFFF0000FFFFFFFFFFFFFFFFFFFFFFFFFFFFFFFFFFFFFFFFFFFF0000FFFFFFFFFFFF0000FFFFFFFFFFFFFFFFFFFFFFFFFFFFFFFFFFFFFFFFFFFF0000FFFFFFFFFFFF0000FFFFFFFFFFFFFFFFFFFFFFFFFFFFFFFFFFFFFFFFFFFF0000FFFFFFFFFFFF0000FFFFFFFFFFFFFFFFFFFFFFFFFFFFFFFFFFFFFF
310
FFFFFF0000FFFFFFFFFFFF0000FFFFFFFFFFFFFFFFFFFFFFFFFFFFFFFFFFFFFFFFFFFFFFFFFFFFFFFFFFFFFFFFFFFFFFFFFFFFFFFFFFFFFF
102
{BLKREFS
331
2C3
102
}
  0
BLOCK_RECORD
  5
28B
330
1
100
AcDbSymbolTableRecord
100
AcDbBlockTableRecord
  2
AI9-BLK11
340
0
310
2800000020000000200000000100080000000000000400000000000000000000000000000000000000000000000080000080000000808000800000008000800080800000C0C0C000C0DCC000F0CAA6000020400000206000002080000020A0000020C0000020E00000400000004020000040400000406000004080000040A0
310
000040C0000040E00000600000006020000060400000606000006080000060A0000060C0000060E00000800000008020000080400000806000008080000080A0000080C0000080E00000A0000000A0200000A0400000A0600000A0800000A0A00000A0C00000A0E00000C0000000C0200000C0400000C0600000C0800000C0
310
A00000C0C00000C0E00000E0000000E0200000E0400000E0600000E0800000E0A00000E0C00000E0E00040000000400020004000400040006000400080004000A0004000C0004000E00040200000402020004020400040206000402080004020A0004020C0004020E000404000004040200040404000404060004040800040
310
40A0004040C0004040E00040600000406020004060400040606000406080004060A0004060C0004060E00040800000408020004080400040806000408080004080A0004080C0004080E00040A0000040A0200040A0400040A0600040A0800040A0A00040A0C00040A0E00040C0000040C0200040C0400040C0600040C08000
310
40C0A00040C0C00040C0E00040E0000040E0200040E0400040E0600040E0800040E0A00040E0C00040E0E00080000000800020008000400080006000800080008000A0008000C0008000E00080200000802020008020400080206000802080008020A0008020C0008020E00080400000804020008040400080406000804080
310
008040A0008040C0008040E00080600000806020008060400080606000806080008060A0008060C0008060E00080800000808020008080400080806000808080008080A0008080C0008080E00080A0000080A0200080A0400080A0600080A0800080A0A00080A0C00080A0E00080C0000080C0200080C0400080C0600080C0
310
800080C0A00080C0C00080C0E00080E0000080E0200080E0400080E0600080E0800080E0A00080E0C00080E0E000C0000000C0002000C0004000C0006000C0008000C000A000C000C000C000E000C0200000C0202000C0204000C0206000C0208000C020A000C020C000C020E000C0400000C0402000C0404000C0406000C0
310
408000C040A000C040C000C040E000C0600000C0602000C0604000C0606000C0608000C060A000C060C000C060E000C0800000C0802000C0804000C0806000C0808000C080A000C080C000C080E000C0A00000C0A02000C0A04000C0A06000C0A08000C0A0A000C0A0C000C0A0E000C0C00000C0C02000C0C04000C0C06000
310
C0C08000C0C0A000F0FBFF00A4A0A000808080000000FF0000FF000000FFFF00FF000000FF00FF00FFFF0000FFFFFF00FFFFFFFFFFFFFFFFFFFFFFFFFFFFFFFFFFFFFFFFFFFFFFFFFFFFFFFFFFFFFFFFFFFFFFFFFFFFFFFFFFFFFFFFFFFF00000000FFFFFFFFFFFFFFFFFFFFFF000000FFFFFFFFFFFFFFFFFFFFFFFFFFFF00
310
FFFF00FFFFFFFFFFFFFFFFFFFFFF00FFFFFFFFFFFFFFFFFFFFFFFFFFFFFFFF00FFFF00FFFFFFFFFFFFFFFFFFFFFF00FFFFFFFFFFFFFFFFFFFFFFFFFFFFFFFF00FFFF00FFFFFFFFFFFFFFFFFFFFFF00FFFFFFFFFFFFFFFFFFFFFFFFFFFFFFFF00FFFF00FFFFFFFFFFFFFFFFFFFFFF00FFFFFFFFFFFFFFFFFFFFFFFFFFFFFFFF
310
00FFFF00FFFFFFFFFFFFFFFFFFFFFF00FFFFFFFFFFFFFFFFFFFFFFFFFFFFFFFF00FFFF00FFFFFFFFFFFFFFFFFFFFFF00FFFFFFFFFFFFFFFFFFFFFFFFFFFFFFFF00FFFF00FFFFFFFFFFFFFFFFFFFFFF00FFFFFFFFFFFFFFFFFFFFFFFFFFFFFFFF00FFFF00FFFFFFFFFFFFFFFFFFFFFF00FFFFFFFFFFFFFFFFFFFFFFFFFFFFFF
310
FF00FFFF00FFFFFFFFFFFFFFFFFFFFFF00FFFFFFFFFFFFFFFFFFFFFFFFFFFFFFFF00FFFF00FFFFFFFFFFFFFFFFFFFFFF00FFFFFFFFFFFFFFFFFFFFFFFFFFFFFFFF00FFFF00FFFFFFFFFFFFFFFFFFFFFF00FFFFFFFFFFFFFFFFFFFFFFFFFFFFFFFF00FFFF00FFFFFFFFFFFFFFFFFFFFFF00FFFFFFFFFFFFFFFFFFFFFFFFFFFF
310
FFFF00FFFF00FFFFFFFFFFFFFFFFFFFFFF00FFFFFFFFFFFFFFFFFFFFFFFFFFFFFFFF00FFFF00FFFFFFFFFFFFFFFFFFFFFF00FFFFFFFFFFFFFFFFFFFFFFFFFFFFFFFF00FFFF00FFFFFFFFFFFFFFFFFFFFFF00FFFFFFFFFFFFFFFFFFFFFFFFFFFFFFFF00FFFF00FFFFFFFFFFFFFFFFFFFF00FFFFFFFFFFFFFFFFFFFFFFFFFFFF
310
FFFFFF00FFFF00FFFFFFFFFFFFFFFFFFFF00FFFFFFFFFFFFFFFFFFFFFFFFFFFFFFFFFF00FFFF00FFFFFFFFFFFFFFFFFFFF00FFFFFFFFFFFFFFFFFFFFFFFFFFFFFFFFFF00FFFF00FFFFFFFFFFFFFFFFFFFF00FFFFFFFFFFFFFFFFFFFFFFFFFFFFFFFFFF00FFFF00FFFFFFFFFFFFFFFFFFFF00FFFFFFFFFFFFFFFFFFFFFFFFFF
310
FFFFFFFF00FFFF00FFFFFFFFFFFFFFFFFF0000FFFF00FFFFFFFFFFFFFFFFFFFFFFFFFFFF00FFFF00FFFFFFFFFFFFFFFF0000FFFFFF00FFFFFFFFFFFFFFFFFFFFFFFFFFFF00FFFF00000000000000000000FFFFFFFF00FFFFFFFFFFFFFFFFFFFFFFFFFFFF00FFFFFFFFFFFFFFFFFFFFFFFFFFFFFF00FFFFFFFFFFFFFFFFFFFF
310
FFFFFFFFFF00FFFFFFFFFFFFFFFFFFFFFFFFFFFF00FFFFFFFFFFFFFFFFFFFFFFFFFFFFFFFF00FFFFFFFFFFFFFFFFFFFFFFFFFFFF00FFFFFFFFFFFFFFFFFFFFFFFFFFFFFFFF00FFFFFFFFFFFFFFFFFFFFFFFFFFFFFF00FFFFFFFFFFFFFFFFFFFFFFFFFFFFFF00FFFFFFFFFFFFFFFFFFFFFFFFFFFFFF00FFFFFFFFFFFFFFFFFF
310
FFFFFFFFFFFF00FFFF00000000000000000000FFFFFFFF00FFFFFFFFFFFFFFFFFFFFFFFFFFFF00FFFF00FFFFFFFFFFFFFFFFFF0000FFFF00
102
{BLKREFS
331
2C4
102
}
  0
BLOCK_RECORD
  5
290
330
1
100
AcDbSymbolTableRecord
100
AcDbBlockTableRecord
  2
AI9-BLK10
340
0
310
2800000020000000200000000100080000000000000400000000000000000000000000000000000000000000000080000080000000808000800000008000800080800000C0C0C000C0DCC000F0CAA6000020400000206000002080000020A0000020C0000020E00000400000004020000040400000406000004080000040A0
310
000040C0000040E00000600000006020000060400000606000006080000060A0000060C0000060E00000800000008020000080400000806000008080000080A0000080C0000080E00000A0000000A0200000A0400000A0600000A0800000A0A00000A0C00000A0E00000C0000000C0200000C0400000C0600000C0800000C0
310
A00000C0C00000C0E00000E0000000E0200000E0400000E0600000E0800000E0A00000E0C00000E0E00040000000400020004000400040006000400080004000A0004000C0004000E00040200000402020004020400040206000402080004020A0004020C0004020E000404000004040200040404000404060004040800040
310
40A0004040C0004040E00040600000406020004060400040606000406080004060A0004060C0004060E00040800000408020004080400040806000408080004080A0004080C0004080E00040A0000040A0200040A0400040A0600040A0800040A0A00040A0C00040A0E00040C0000040C0200040C0400040C0600040C08000
310
40C0A00040C0C00040C0E00040E0000040E0200040E0400040E0600040E0800040E0A00040E0C00040E0E00080000000800020008000400080006000800080008000A0008000C0008000E00080200000802020008020400080206000802080008020A0008020C0008020E00080400000804020008040400080406000804080
310
008040A0008040C0008040E00080600000806020008060400080606000806080008060A0008060C0008060E00080800000808020008080400080806000808080008080A0008080C0008080E00080A0000080A0200080A0400080A0600080A0800080A0A00080A0C00080A0E00080C0000080C0200080C0400080C0600080C0
310
800080C0A00080C0C00080C0E00080E0000080E0200080E0400080E0600080E0800080E0A00080E0C00080E0E000C0000000C0002000C0004000C0006000C0008000C000A000C000C000C000E000C0200000C0202000C0204000C0206000C0208000C020A000C020C000C020E000C0400000C0402000C0404000C0406000C0
310
408000C040A000C040C000C040E000C0600000C0602000C0604000C0606000C0608000C060A000C060C000C060E000C0800000C0802000C0804000C0806000C0808000C080A000C080C000C080E000C0A00000C0A02000C0A04000C0A06000C0A08000C0A0A000C0A0C000C0A0E000C0C00000C0C02000C0C04000C0C06000
310
C0C08000C0C0A000F0FBFF00A4A0A000808080000000FF0000FF000000FFFF00FF000000FF00FF00FFFF0000FFFFFF00FFFFFFFFFFFFFFFFFFFFFFFFFFFFFFFF00FFFFFFFFFFFFFFFFFFFFFFFF00FFFFFFFFFFFFFFFFFFFFFFFFFFFFFFFFFFFF00FFFFFFFFFFFFFFFFFFFFFF00FFFFFFFFFFFFFFFFFFFFFFFFFFFFFFFFFFFF
310
FF00FFFFFFFFFFFFFFFFFFFFFF00FFFFFFFFFFFFFFFFFFFFFFFFFFFFFFFFFFFFFF00FFFFFFFFFFFFFFFFFFFFFF00FFFFFFFFFFFFFFFFFFFFFFFFFFFFFFFFFFFFFF00FFFFFFFFFFFFFFFFFFFFFF00FFFFFFFFFFFFFFFFFFFFFFFFFFFFFFFFFFFFFF00FFFFFFFFFFFFFFFFFFFFFF00FFFFFFFFFFFFFFFFFFFFFFFFFFFFFFFFFF
310
FFFF00FFFFFFFFFFFFFFFFFFFFFF00FFFFFFFFFFFFFFFFFFFFFFFFFFFFFFFFFFFFFF00FFFFFFFFFFFFFFFFFFFF00FFFFFFFFFFFFFFFFFFFFFFFFFFFFFFFFFFFFFFFF00FFFFFFFFFFFFFFFFFFFF00FFFFFFFFFFFFFFFFFFFFFFFFFFFFFFFFFFFFFFFF00FFFFFFFFFFFFFFFFFFFF00FFFFFFFFFFFFFFFFFFFFFFFFFFFFFFFFFF
310
FFFFFF00FFFFFFFFFFFFFFFFFFFF00FFFFFFFFFFFFFFFFFFFFFFFFFFFFFFFFFFFFFFFF00FFFFFFFFFFFFFFFFFFFF00FFFFFFFFFFFFFFFFFFFFFFFFFFFFFFFFFFFFFFFF00FFFFFFFFFFFFFFFFFFFF00FFFFFFFFFFFFFFFFFFFFFFFFFFFFFFFFFFFFFFFF00FFFFFFFFFFFFFFFFFF00FFFFFFFFFFFFFFFFFFFFFFFFFFFFFFFFFF
310
FFFFFFFF00FFFFFFFFFFFFFFFFFF00FFFFFFFFFFFFFFFFFFFFFFFFFFFFFFFFFFFFFFFFFF00FFFFFFFFFFFFFFFFFF00FFFFFFFFFFFFFFFFFFFFFFFFFFFFFFFFFFFFFFFFFF0000000000000000000000FFFFFFFFFFFFFFFFFFFFFFFFFFFFFFFFFFFFFFFFFFFFFFFFFFFFFFFFFFFFFFFFFFFFFFFFFFFFFFFFFFFFFFFFFFFFFFFF
310
FFFFFFFFFFFFFFFFFFFFFFFFFFFFFFFFFFFFFFFFFFFFFFFFFFFFFFFFFFFFFFFFFFFFFFFFFFFFFFFFFFFFFFFFFFFFFFFFFFFFFFFFFFFFFFFFFFFFFFFFFFFFFFFFFFFFFFFFFFFFFFFFFFFFFFFFFFFFFFFFFFFFFFFFFFFFFFFFFFFFFFFFFFFFFFFFFFFFFFFFFFFFFFFFFFFFFFFFFFFFFFFFFFFFFFFFFFFFFFFFFFFFFFFFFFFFFF
310
FFFFFFFFFFFFFFFFFFFFFFFFFFFFFFFFFFFFFFFFFFFFFFFFFFFFFFFFFFFFFFFFFFFFFFFFFFFFFFFFFFFFFFFFFFFFFFFFFFFFFFFFFFFFFFFFFFFFFFFFFFFFFFFFFFFFFFFFFFFFFFFFFFFFFFFFFFFFFFFFFFFFFFFFFFFFFFFFFFFFFFFFFFFFFFFFFFFFFFFFFFFFFFFFFFFFFFFFFFFFFFFFFFFFFFFFFFFFFFFFFFFFFFFFFFFFFF
310
FFFFFFFFFFFFFFFFFFFFFFFFFFFFFFFFFFFFFFFFFFFFFFFFFFFFFFFFFFFFFFFFFFFFFFFFFFFFFFFFFFFFFFFFFFFFFFFFFFFFFFFFFFFFFFFFFFFFFFFFFFFFFFFFFFFFFFFFFFFFFFFFFFFFFFFFFFFFFFFFFFFFFFFFFFFFFFFFFFFFFFFFFFFFFFFFFFFFFFFFFFFFFFFFFFFFFFFFFFFFFFFFFFFFFFFFFFFFFFFFFFFFFFFFFFFFFF
310
FFFFFFFFFFFFFFFFFFFFFFFFFFFFFFFFFFFFFFFFFFFFFFFFFFFFFFFFFFFFFFFFFFFFFFFFFFFFFFFFFFFFFFFFFFFFFFFFFFFFFFFFFFFFFFFF
102
{BLKREFS
331
2C5
102
}
  0
BLOCK_RECORD
  5
294
330
1
100
AcDbSymbolTableRecord
100
AcDbBlockTableRecord
  2
AI9-BLK9
340
0
310
2800000020000000200000000100080000000000000400000000000000000000000000000000000000000000000080000080000000808000800000008000800080800000C0C0C000C0DCC000F0CAA6000020400000206000002080000020A0000020C0000020E00000400000004020000040400000406000004080000040A0
310
000040C0000040E00000600000006020000060400000606000006080000060A0000060C0000060E00000800000008020000080400000806000008080000080A0000080C0000080E00000A0000000A0200000A0400000A0600000A0800000A0A00000A0C00000A0E00000C0000000C0200000C0400000C0600000C0800000C0
310
A00000C0C00000C0E00000E0000000E0200000E0400000E0600000E0800000E0A00000E0C00000E0E00040000000400020004000400040006000400080004000A0004000C0004000E00040200000402020004020400040206000402080004020A0004020C0004020E000404000004040200040404000404060004040800040
310
40A0004040C0004040E00040600000406020004060400040606000406080004060A0004060C0004060E00040800000408020004080400040806000408080004080A0004080C0004080E00040A0000040A0200040A0400040A0600040A0800040A0A00040A0C00040A0E00040C0000040C0200040C0400040C0600040C08000
310
40C0A00040C0C00040C0E00040E0000040E0200040E0400040E0600040E0800040E0A00040E0C00040E0E00080000000800020008000400080006000800080008000A0008000C0008000E00080200000802020008020400080206000802080008020A0008020C0008020E00080400000804020008040400080406000804080
310
008040A0008040C0008040E00080600000806020008060400080606000806080008060A0008060C0008060E00080800000808020008080400080806000808080008080A0008080C0008080E00080A0000080A0200080A0400080A0600080A0800080A0A00080A0C00080A0E00080C0000080C0200080C0400080C0600080C0
310
800080C0A00080C0C00080C0E00080E0000080E0200080E0400080E0600080E0800080E0A00080E0C00080E0E000C0000000C0002000C0004000C0006000C0008000C000A000C000C000C000E000C0200000C0202000C0204000C0206000C0208000C020A000C020C000C020E000C0400000C0402000C0404000C0406000C0
310
408000C040A000C040C000C040E000C0600000C0602000C0604000C0606000C0608000C060A000C060C000C060E000C0800000C0802000C0804000C0806000C0808000C080A000C080C000C080E000C0A00000C0A02000C0A04000C0A06000C0A08000C0A0A000C0A0C000C0A0E000C0C00000C0C02000C0C04000C0C06000
310
C0C08000C0C0A000F0FBFF00A4A0A000808080000000FF0000FF000000FFFF00FF000000FF00FF00FFFF0000FFFFFF00FFFFFFFFFFFFFFFFFFFFFFFFFFFFFFFFFFFFFFFFFFFFFFFFFFFFFFFFFFFFFFFFFFFFFFFFFFFFFFFFFFFFFFFFFFFFFF0000FFFFFFFFFFFFFFFFFFFFFFFFFFFFFFFFFFFFFFFFFFFFFFFFFFFFFFFF0000
310
FF0000FFFFFFFFFFFFFFFFFFFFFFFFFFFFFFFFFFFFFFFFFFFFFFFFFFFFFF00FFFFFF0000FFFFFFFFFFFFFFFFFFFFFFFFFFFFFFFFFFFFFFFFFFFFFFFFFFFF00FFFFFFFF0000FFFFFFFFFFFFFFFFFFFFFFFFFFFFFFFFFFFFFFFFFFFFFFFF00FF00000000FF00FFFFFFFFFFFFFFFFFFFFFFFFFFFFFFFFFFFFFFFFFFFFFFFF0000
310
00FFFF00FF00FFFFFFFFFFFFFFFFFFFFFFFFFFFFFFFFFFFFFFFFFFFFFFFF0000FFFFFFFF0000FFFFFFFFFFFFFFFFFFFFFFFFFFFFFFFFFFFFFFFFFFFFFFFF0000FFFFFFFF0000FFFFFFFFFFFFFFFFFFFFFFFFFFFFFFFFFFFFFFFFFFFFFF00FF00FFFFFFFF00FF00FFFFFFFFFFFFFFFFFFFFFFFFFFFFFFFFFFFFFFFFFFFF0000
310
FFFFFFFFFF00FF00FFFFFFFFFFFFFFFFFFFFFFFFFFFFFFFFFFFFFFFFFFFF0000FFFFFFFFFFFF0000FFFFFFFFFFFFFFFFFFFFFFFFFFFFFFFFFFFFFFFFFFFF0000FFFFFFFFFFFF0000FFFFFFFFFFFFFFFFFFFFFFFFFFFFFFFFFFFFFFFFFFFF0000FFFFFFFFFFFF0000FFFFFFFFFFFFFFFFFFFFFFFFFFFFFFFFFFFFFFFFFFFF00
310
00FFFFFFFFFFFF0000FFFFFFFFFFFFFFFFFFFFFFFFFFFFFFFFFFFFFFFFFFFF0000FFFFFFFFFFFF0000FFFFFFFFFFFFFFFFFFFFFFFFFFFFFFFFFFFFFFFFFFFF0000FFFFFFFFFFFF0000FFFFFFFFFFFFFFFFFFFFFFFFFFFFFFFFFFFFFFFFFFFF0000FFFFFFFFFFFF0000FFFFFFFFFFFFFFFFFFFFFFFFFFFFFFFFFFFFFFFFFFFF
310
0000FFFFFFFFFFFF0000FFFFFFFFFFFFFFFFFFFFFFFFFFFFFFFFFFFFFFFFFFFF0000FFFFFFFFFFFF0000FFFFFFFFFFFFFFFFFFFFFFFFFFFFFFFFFFFFFFFFFFFF0000FFFFFFFFFFFF0000FFFFFFFFFFFFFFFFFFFFFFFFFFFFFFFFFFFFFFFFFFFF00FF00FFFFFFFF00FF00FFFFFFFFFFFFFFFFFFFFFFFFFFFFFFFFFFFFFFFFFF
310
FF00FF00FFFFFFFF00FF00FFFFFFFFFFFFFFFFFFFFFFFFFFFFFFFFFFFFFFFFFFFF00FF00FFFFFFFF00FF00FFFFFFFFFFFFFFFFFFFFFFFFFFFFFFFFFFFFFFFFFFFFFF0000FFFFFFFF0000FFFFFFFFFFFFFFFFFFFFFFFFFFFFFFFFFFFFFFFFFFFFFFFF00FF00FFFF00FF00FFFFFFFFFFFFFFFFFFFFFFFFFFFFFFFFFFFFFFFFFF
310
FFFFFF00FF00000000FF00FFFFFFFFFFFFFFFFFFFFFFFFFFFFFFFFFFFFFFFFFFFFFFFFFF00FFFFFFFF0000FFFFFFFFFFFFFFFFFFFFFFFFFFFFFFFFFFFFFFFFFFFFFFFFFF00FFFFFFFF00FFFFFFFFFFFFFFFFFFFFFFFFFFFFFFFFFFFFFFFFFFFFFFFFFFFFFF00000000FFFFFFFFFFFFFFFFFFFFFFFFFFFFFFFFFFFFFFFFFFFF
310
FFFFFFFFFFFFFF0000FFFFFFFFFFFFFFFFFFFFFFFFFFFFFFFFFFFFFFFFFFFFFFFFFFFFFFFFFFFFFFFFFFFFFFFFFFFFFFFFFFFFFFFFFFFFFF
102
{BLKREFS
331
2C6
102
}
  0
BLOCK_RECORD
  5
299
330
1
100
AcDbSymbolTableRecord
100
AcDbBlockTableRecord
  2
AI9-BLK8
340
0
310
2800000020000000200000000100080000000000000400000000000000000000000000000000000000000000000080000080000000808000800000008000800080800000C0C0C000C0DCC000F0CAA6000020400000206000002080000020A0000020C0000020E00000400000004020000040400000406000004080000040A0
310
000040C0000040E00000600000006020000060400000606000006080000060A0000060C0000060E00000800000008020000080400000806000008080000080A0000080C0000080E00000A0000000A0200000A0400000A0600000A0800000A0A00000A0C00000A0E00000C0000000C0200000C0400000C0600000C0800000C0
310
A00000C0C00000C0E00000E0000000E0200000E0400000E0600000E0800000E0A00000E0C00000E0E00040000000400020004000400040006000400080004000A0004000C0004000E00040200000402020004020400040206000402080004020A0004020C0004020E000404000004040200040404000404060004040800040
310
40A0004040C0004040E00040600000406020004060400040606000406080004060A0004060C0004060E00040800000408020004080400040806000408080004080A0004080C0004080E00040A0000040A0200040A0400040A0600040A0800040A0A00040A0C00040A0E00040C0000040C0200040C0400040C0600040C08000
310
40C0A00040C0C00040C0E00040E0000040E0200040E0400040E0600040E0800040E0A00040E0C00040E0E00080000000800020008000400080006000800080008000A0008000C0008000E00080200000802020008020400080206000802080008020A0008020C0008020E00080400000804020008040400080406000804080
310
008040A0008040C0008040E00080600000806020008060400080606000806080008060A0008060C0008060E00080800000808020008080400080806000808080008080A0008080C0008080E00080A0000080A0200080A0400080A0600080A0800080A0A00080A0C00080A0E00080C0000080C0200080C0400080C0600080C0
310
800080C0A00080C0C00080C0E00080E0000080E0200080E0400080E0600080E0800080E0A00080E0C00080E0E000C0000000C0002000C0004000C0006000C0008000C000A000C000C000C000E000C0200000C0202000C0204000C0206000C0208000C020A000C020C000C020E000C0400000C0402000C0404000C0406000C0
310
408000C040A000C040C000C040E000C0600000C0602000C0604000C0606000C0608000C060A000C060C000C060E000C0800000C0802000C0804000C0806000C0808000C080A000C080C000C080E000C0A00000C0A02000C0A04000C0A06000C0A08000C0A0A000C0A0C000C0A0E000C0C00000C0C02000C0C04000C0C06000
310
C0C08000C0C0A000F0FBFF00A4A0A000808080000000FF0000FF000000FFFF00FF000000FF00FF00FFFF0000FFFFFF00FFFFFFFFFFFFFFFFFFFFFFFFFFFFFFFFFFFFFFFFFFFFFFFFFFFFFFFFFFFFFFFFFFFFFFFFFFFFFFFFFFFFFF0000FFFFFFFFFFFF0000FFFFFFFFFFFFFFFFFFFFFFFFFFFFFFFFFFFFFFFFFFFF0000FFFF
310
FFFFFFFF0000FFFFFFFFFFFFFFFFFFFFFFFFFFFFFFFFFFFFFFFFFFFF0000FFFFFFFFFF00FF00FFFFFFFFFFFFFFFFFFFFFFFFFFFFFFFFFFFFFFFFFFFF0000FFFFFFFFFF00FF00FFFFFFFFFFFFFFFFFFFFFFFFFFFFFFFFFFFFFFFFFFFF0000FFFFFFFFFF00FF00FFFFFFFFFFFFFFFFFFFFFFFFFFFFFFFFFFFFFFFFFFFF0000FF
310
FFFFFF00FFFF00FFFFFFFFFFFFFFFFFFFFFFFFFFFFFFFFFFFFFFFFFFFF0000FFFFFFFF00FF0000FFFFFFFFFFFFFFFFFFFFFFFFFFFFFFFFFFFFFFFFFFFF0000FFFFFFFF00FF0000FFFFFFFFFFFFFFFFFFFFFFFFFFFFFFFFFFFFFFFFFFFF0000FFFFFFFF00000000FFFFFFFFFFFFFFFFFFFFFFFFFFFFFFFFFFFFFFFFFFFF0000
310
FFFFFF00FF000000FFFFFFFFFFFFFFFFFFFFFFFFFFFFFFFFFFFFFFFFFFFF0000FFFFFF00FF000000FFFFFFFFFFFFFFFFFFFFFFFFFFFFFFFFFFFFFFFFFFFF0000FFFFFF00FF000000FFFFFFFFFFFFFFFFFFFFFFFFFFFFFFFFFFFFFFFFFFFF0000FFFF00FF00FF0000FFFFFFFFFFFFFFFFFFFFFFFFFFFFFFFFFFFFFFFFFFFF00
310
00FFFF00FF00FF0000FFFFFFFFFFFFFFFFFFFFFFFFFFFFFFFFFFFFFFFFFFFF0000FFFF00FF00FF0000FFFFFFFFFFFFFFFFFFFFFFFFFFFFFFFFFFFFFFFFFFFF0000FF00FFFF00FF0000FFFFFFFFFFFFFFFFFFFFFFFFFFFFFFFFFFFFFFFFFFFF0000FF00FF00FFFF0000FFFFFFFFFFFFFFFFFFFFFFFFFFFFFFFFFFFFFFFFFFFF
310
0000FF00FF00FFFF0000FFFFFFFFFFFFFFFFFFFFFFFFFFFFFFFFFFFFFFFFFFFF0000FF00FF00FFFF0000FFFFFFFFFFFFFFFFFFFFFFFFFFFFFFFFFFFFFFFFFFFF000000FFFF00FFFF0000FFFFFFFFFFFFFFFFFFFFFFFFFFFFFFFFFFFFFFFFFFFF000000FF00FFFFFF0000FFFFFFFFFFFFFFFFFFFFFFFFFFFFFFFFFFFFFFFFFF
310
FF000000FF00FFFFFF0000FFFFFFFFFFFFFFFFFFFFFFFFFFFFFFFFFFFFFFFFFFFF0000FFFF00FFFFFF0000FFFFFFFFFFFFFFFFFFFFFFFFFFFFFFFFFFFFFFFFFFFF0000FFFF00FFFFFF0000FFFFFFFFFFFFFFFFFFFFFFFFFFFFFFFFFFFFFFFFFFFF00FFFF00FFFFFFFF0000FFFFFFFFFFFFFFFFFFFFFFFFFFFFFFFFFFFFFFFF
310
FFFF00FFFF00FFFFFFFF0000FFFFFFFFFFFFFFFFFFFFFFFFFFFFFFFFFFFFFFFFFFFF00FFFF00FFFFFFFF0000FFFFFFFFFFFFFFFFFFFFFFFFFFFFFFFFFFFFFFFFFFFF00FFFF00FFFFFFFF0000FFFFFFFFFFFFFFFFFFFFFFFFFFFFFFFFFFFFFFFFFFFF00FF00FFFFFFFFFF0000FFFFFFFFFFFFFFFFFFFFFFFFFFFFFFFFFFFFFF
310
FFFFFF000000FFFFFFFFFF0000FFFFFFFFFFFFFFFFFFFFFFFFFFFFFFFFFFFFFFFFFFFFFFFFFFFFFFFFFFFFFFFFFFFFFFFFFFFFFFFFFFFFFF
102
{BLKREFS
331
2C7
102
}
  0
BLOCK_RECORD
  5
29E
330
1
100
AcDbSymbolTableRecord
100
AcDbBlockTableRecord
  2
AI9-BLK7
340
0
310
2800000020000000200000000100080000000000000400000000000000000000000000000000000000000000000080000080000000808000800000008000800080800000C0C0C000C0DCC000F0CAA6000020400000206000002080000020A0000020C0000020E00000400000004020000040400000406000004080000040A0
310
000040C0000040E00000600000006020000060400000606000006080000060A0000060C0000060E00000800000008020000080400000806000008080000080A0000080C0000080E00000A0000000A0200000A0400000A0600000A0800000A0A00000A0C00000A0E00000C0000000C0200000C0400000C0600000C0800000C0
310
A00000C0C00000C0E00000E0000000E0200000E0400000E0600000E0800000E0A00000E0C00000E0E00040000000400020004000400040006000400080004000A0004000C0004000E00040200000402020004020400040206000402080004020A0004020C0004020E000404000004040200040404000404060004040800040
310
40A0004040C0004040E00040600000406020004060400040606000406080004060A0004060C0004060E00040800000408020004080400040806000408080004080A0004080C0004080E00040A0000040A0200040A0400040A0600040A0800040A0A00040A0C00040A0E00040C0000040C0200040C0400040C0600040C08000
310
40C0A00040C0C00040C0E00040E0000040E0200040E0400040E0600040E0800040E0A00040E0C00040E0E00080000000800020008000400080006000800080008000A0008000C0008000E00080200000802020008020400080206000802080008020A0008020C0008020E00080400000804020008040400080406000804080
310
008040A0008040C0008040E00080600000806020008060400080606000806080008060A0008060C0008060E00080800000808020008080400080806000808080008080A0008080C0008080E00080A0000080A0200080A0400080A0600080A0800080A0A00080A0C00080A0E00080C0000080C0200080C0400080C0600080C0
310
800080C0A00080C0C00080C0E00080E0000080E0200080E0400080E0600080E0800080E0A00080E0C00080E0E000C0000000C0002000C0004000C0006000C0008000C000A000C000C000C000E000C0200000C0202000C0204000C0206000C0208000C020A000C020C000C020E000C0400000C0402000C0404000C0406000C0
310
408000C040A000C040C000C040E000C0600000C0602000C0604000C0606000C0608000C060A000C060C000C060E000C0800000C0802000C0804000C0806000C0808000C080A000C080C000C080E000C0A00000C0A02000C0A04000C0A06000C0A08000C0A0A000C0A0C000C0A0E000C0C00000C0C02000C0C04000C0C06000
310
C0C08000C0C0A000F0FBFF00A4A0A000808080000000FF0000FF000000FFFF00FF000000FF00FF00FFFF0000FFFFFF00FFFFFFFFFFFFFFFFFFFFFFFFFFFFFFFFFFFFFFFFFFFFFFFFFFFFFFFFFFFFFFFFFFFFFFFFFFFFFFFFFFFFFFFFFFFFFF0000FFFFFFFFFFFFFFFFFFFFFFFFFFFFFFFFFFFFFFFFFFFFFFFFFFFFFFFFFFFF
310
0000FFFFFFFFFFFFFFFFFFFFFFFFFFFFFFFFFFFFFFFFFFFFFFFFFFFFFFFFFFFF0000FFFFFFFFFFFFFFFFFFFFFFFFFFFFFFFFFFFFFFFFFFFFFFFFFFFFFFFFFFFF0000FFFFFFFFFFFFFFFFFFFFFFFFFFFFFFFFFFFFFFFFFFFFFFFFFFFFFFFFFFFF0000FFFFFFFFFFFFFFFFFFFFFFFFFFFFFFFFFFFFFFFFFFFFFFFFFFFFFFFFFF
310
FF0000FFFFFFFFFFFFFFFFFFFFFFFFFFFFFFFFFFFFFFFFFFFFFFFFFFFFFFFFFFFF0000FFFFFFFFFFFFFFFFFFFFFFFFFFFFFFFFFFFFFFFFFFFFFFFFFFFFFFFFFFFF0000FFFFFFFFFFFFFFFFFFFFFFFFFFFFFFFFFFFFFFFFFFFFFFFFFFFFFFFFFFFF0000FFFFFFFFFFFFFFFFFFFFFFFFFFFFFFFFFFFFFFFFFFFFFFFFFFFFFFFF
310
FFFF0000FFFFFFFFFFFFFFFFFFFFFFFFFFFFFFFFFFFFFFFFFFFFFFFFFFFFFFFFFFFF0000FFFFFFFFFFFFFFFFFFFFFFFFFFFFFFFFFFFFFFFFFFFFFFFFFFFFFFFFFFFF0000FFFFFFFFFFFFFFFFFFFFFFFFFFFFFFFFFFFFFFFFFFFFFFFFFFFFFFFFFFFF0000FFFFFFFFFFFFFFFFFFFFFFFFFFFFFFFFFFFFFFFFFFFFFFFFFFFFFF
310
FFFFFF0000FFFFFFFFFFFFFFFFFFFFFFFFFFFFFFFFFFFFFFFFFFFFFFFFFFFFFFFFFFFF0000FFFFFFFFFFFFFFFFFFFFFFFFFFFFFFFFFFFFFFFFFFFFFFFFFFFFFFFFFFFF0000FFFFFFFFFFFFFFFFFFFFFFFFFFFFFFFFFFFFFFFFFFFFFFFFFFFFFFFFFFFF0000FFFFFFFFFFFFFFFFFFFFFFFFFFFFFFFFFFFFFFFFFFFFFFFFFFFF
310
FFFFFFFF0000FFFFFFFFFFFFFFFFFFFFFFFFFFFFFFFFFFFFFFFFFFFFFFFFFFFFFFFFFFFF0000FFFFFFFFFFFFFFFFFFFFFFFFFFFFFFFFFFFFFFFFFFFFFFFFFFFFFFFFFFFF0000FFFFFFFFFFFFFFFFFFFFFFFFFFFFFFFFFFFFFFFFFFFFFFFFFFFFFFFFFFFF0000FFFFFFFFFFFFFFFFFFFFFFFFFFFFFFFFFFFFFFFFFFFFFFFFFF
310
FFFFFFFFFF0000FFFFFFFFFFFFFFFFFFFFFFFFFFFFFFFFFFFFFFFFFFFFFFFFFFFFFFFFFFFF0000FFFFFFFFFFFFFFFFFFFFFFFFFFFFFFFFFFFFFFFFFFFFFFFFFFFFFFFFFFFF0000FFFFFFFFFFFFFFFFFFFFFFFFFFFFFFFFFFFFFFFFFFFFFFFFFFFFFFFFFFFF0000FFFFFFFFFFFFFFFFFFFFFFFFFFFFFFFFFFFFFFFFFFFFFFFF
310
FFFFFFFFFFFF0000FFFFFFFFFFFFFFFFFFFFFFFFFFFFFFFFFFFFFFFFFFFFFFFFFFFFFFFFFFFF0000FFFFFFFFFFFFFFFFFFFFFFFFFFFFFFFFFFFFFFFFFFFFFFFFFFFFFFFFFFFF0000FFFFFFFFFFFFFFFFFFFFFFFFFFFFFFFFFFFFFFFFFFFFFFFFFFFFFFFFFFFF0000FFFFFFFFFFFFFFFFFFFFFFFFFFFFFFFFFFFFFFFFFFFFFF
310
FFFFFFFFFFFFFF0000FFFFFFFFFFFFFFFFFFFFFFFFFFFFFFFFFFFFFFFFFFFFFFFFFFFFFFFFFFFFFFFFFFFFFFFFFFFFFFFFFFFFFFFFFFFFFF
102
{BLKREFS
331
2C8
102
}
  0
BLOCK_RECORD
  5
2A3
330
1
100
AcDbSymbolTableRecord
100
AcDbBlockTableRecord
  2
AI9-BLK6
340
0
310
2800000020000000200000000100080000000000000400000000000000000000000000000000000000000000000080000080000000808000800000008000800080800000C0C0C000C0DCC000F0CAA6000020400000206000002080000020A0000020C0000020E00000400000004020000040400000406000004080000040A0
310
000040C0000040E00000600000006020000060400000606000006080000060A0000060C0000060E00000800000008020000080400000806000008080000080A0000080C0000080E00000A0000000A0200000A0400000A0600000A0800000A0A00000A0C00000A0E00000C0000000C0200000C0400000C0600000C0800000C0
310
A00000C0C00000C0E00000E0000000E0200000E0400000E0600000E0800000E0A00000E0C00000E0E00040000000400020004000400040006000400080004000A0004000C0004000E00040200000402020004020400040206000402080004020A0004020C0004020E000404000004040200040404000404060004040800040
310
40A0004040C0004040E00040600000406020004060400040606000406080004060A0004060C0004060E00040800000408020004080400040806000408080004080A0004080C0004080E00040A0000040A0200040A0400040A0600040A0800040A0A00040A0C00040A0E00040C0000040C0200040C0400040C0600040C08000
310
40C0A00040C0C00040C0E00040E0000040E0200040E0400040E0600040E0800040E0A00040E0C00040E0E00080000000800020008000400080006000800080008000A0008000C0008000E00080200000802020008020400080206000802080008020A0008020C0008020E00080400000804020008040400080406000804080
310
008040A0008040C0008040E00080600000806020008060400080606000806080008060A0008060C0008060E00080800000808020008080400080806000808080008080A0008080C0008080E00080A0000080A0200080A0400080A0600080A0800080A0A00080A0C00080A0E00080C0000080C0200080C0400080C0600080C0
310
800080C0A00080C0C00080C0E00080E0000080E0200080E0400080E0600080E0800080E0A00080E0C00080E0E000C0000000C0002000C0004000C0006000C0008000C000A000C000C000C000E000C0200000C0202000C0204000C0206000C0208000C020A000C020C000C020E000C0400000C0402000C0404000C0406000C0
310
408000C040A000C040C000C040E000C0600000C0602000C0604000C0606000C0608000C060A000C060C000C060E000C0800000C0802000C0804000C0806000C0808000C080A000C080C000C080E000C0A00000C0A02000C0A04000C0A06000C0A08000C0A0A000C0A0C000C0A0E000C0C00000C0C02000C0C04000C0C06000
310
C0C08000C0C0A000F0FBFF00A4A0A000808080000000FF0000FF000000FFFF00FF000000FF00FF00FFFF0000FFFFFF00FFFFFFFFFFFFFFFFFFFFFFFF00FFFFFFFFFFFFFF00FFFFFFFFFFFFFFFFFFFFFFFFFFFFFFFFFFFFFFFFFFFFFF00FFFFFFFFFFFFFF00FFFFFFFFFFFFFFFFFFFFFFFFFFFFFFFFFFFFFFFFFFFFFF00FFFF
310
FFFFFFFFFF00FFFFFFFFFFFFFFFFFFFFFFFFFFFFFFFFFFFFFFFFFFFF00FFFFFFFFFFFFFFFF00FFFFFFFFFFFFFFFFFFFFFFFFFFFFFFFFFFFFFFFFFFFF00FFFFFFFFFFFFFF00FFFFFFFFFFFFFFFFFFFFFFFFFFFFFFFFFFFFFFFFFFFFFF00FFFFFFFFFFFFFF00FFFFFFFFFFFFFFFFFFFFFFFFFFFFFFFFFFFFFFFFFFFF00FFFFFF
310
FFFFFFFFFF00FFFFFFFFFFFFFFFFFFFFFFFFFFFFFFFFFFFFFFFFFFFF00FFFFFFFFFFFFFF00FFFFFFFFFFFFFFFFFFFFFFFFFFFFFFFFFFFFFFFFFFFF00FFFFFFFFFFFFFFFF00FFFFFFFFFFFFFFFFFFFFFFFFFFFFFFFFFFFFFFFFFF00FFFFFFFFFFFFFFFFFF00FFFFFFFFFFFFFFFFFFFFFFFFFFFFFFFFFFFFFFFF00FFFFFFFFFF
310
FFFFFFFFFF00FFFFFFFFFFFFFFFFFFFFFFFFFFFFFFFFFFFFFF00FFFFFFFFFFFFFFFFFFFF00FFFFFFFFFFFFFFFFFFFFFFFFFFFFFFFFFFFF0000FFFFFFFFFFFFFFFFFFFFFF00FFFFFFFFFFFFFFFFFFFFFFFFFFFF00000000FFFFFFFFFFFFFFFFFFFFFFFFFF00FFFFFFFFFFFFFFFFFFFFFFFFFFFFFFFFFFFFFFFFFFFFFFFFFFFF
310
FFFFFFFF00FFFFFFFFFFFFFFFFFFFFFFFFFFFFFFFFFFFFFFFFFFFFFFFFFFFFFFFFFFFFFF00FFFFFFFFFFFFFFFFFFFFFFFFFFFFFFFFFFFFFFFFFFFFFFFFFFFFFFFFFFFFFF00FFFFFFFFFFFFFFFFFFFFFFFFFFFFFFFFFFFFFFFFFFFFFFFFFFFFFFFFFFFF00FFFFFFFFFFFFFFFFFFFFFFFFFFFFFFFFFFFFFFFFFFFFFFFFFFFFFF
310
FFFFFFFF00FFFFFFFFFFFFFFFFFFFFFFFFFFFFFFFFFFFFFFFFFFFFFFFFFFFFFFFFFFFF00FFFFFFFFFFFFFFFFFFFFFFFFFFFFFFFFFFFFFFFFFFFFFFFFFFFFFFFFFFFF00FFFFFFFFFFFFFFFFFFFFFFFFFFFFFFFFFFFFFFFFFFFFFFFFFFFFFFFFFFFF00FFFFFFFFFFFFFFFFFFFFFFFFFFFFFFFFFFFFFFFFFFFFFFFFFFFFFFFFFF
310
FF00FFFFFFFFFFFFFFFFFFFFFFFFFFFFFFFFFFFFFFFFFFFFFFFFFFFFFFFFFFFFFF00FFFFFFFFFFFFFFFFFFFFFFFFFFFFFFFFFFFFFFFFFFFFFFFFFFFFFFFFFFFF00FFFFFFFFFFFFFFFFFFFFFFFFFFFFFFFFFFFFFFFFFFFFFFFFFFFFFFFFFF0000FFFFFFFFFFFFFFFFFFFFFFFFFFFFFFFFFFFFFFFFFFFFFFFFFFFFFFFF0000FF
310
FFFFFFFFFFFFFFFFFFFFFFFFFFFFFFFFFFFFFFFFFFFFFFFFFF00000000FFFFFFFFFFFFFFFFFFFFFFFFFFFFFFFFFFFFFFFFFFFFFFFFFFFF0000FFFFFFFFFFFFFFFFFFFFFFFFFFFFFFFFFFFFFFFFFFFFFFFFFFFFFFFFFFFFFFFFFFFFFFFFFFFFFFFFFFFFFFFFFFFFFFFFFFFFFFFFFFFFFFFFFFFFFFFFFFFFFFFFFFFFFFFFFFFF
310
FFFFFFFFFFFFFFFFFFFFFFFFFFFFFFFFFFFFFFFFFFFFFFFFFFFFFFFFFFFFFFFFFFFFFFFFFFFFFFFFFFFFFFFFFFFFFFFFFFFFFFFFFFFFFFFF
102
{BLKREFS
331
2C9
102
}
  0
BLOCK_RECORD
  5
2A7
330
1
100
AcDbSymbolTableRecord
100
AcDbBlockTableRecord
  2
AI9-BLK5
340
0
310
2800000020000000200000000100080000000000000400000000000000000000000000000000000000000000000080000080000000808000800000008000800080800000C0C0C000C0DCC000F0CAA6000020400000206000002080000020A0000020C0000020E00000400000004020000040400000406000004080000040A0
310
000040C0000040E00000600000006020000060400000606000006080000060A0000060C0000060E00000800000008020000080400000806000008080000080A0000080C0000080E00000A0000000A0200000A0400000A0600000A0800000A0A00000A0C00000A0E00000C0000000C0200000C0400000C0600000C0800000C0
310
A00000C0C00000C0E00000E0000000E0200000E0400000E0600000E0800000E0A00000E0C00000E0E00040000000400020004000400040006000400080004000A0004000C0004000E00040200000402020004020400040206000402080004020A0004020C0004020E000404000004040200040404000404060004040800040
310
40A0004040C0004040E00040600000406020004060400040606000406080004060A0004060C0004060E00040800000408020004080400040806000408080004080A0004080C0004080E00040A0000040A0200040A0400040A0600040A0800040A0A00040A0C00040A0E00040C0000040C0200040C0400040C0600040C08000
310
40C0A00040C0C00040C0E00040E0000040E0200040E0400040E0600040E0800040E0A00040E0C00040E0E00080000000800020008000400080006000800080008000A0008000C0008000E00080200000802020008020400080206000802080008020A0008020C0008020E00080400000804020008040400080406000804080
310
008040A0008040C0008040E00080600000806020008060400080606000806080008060A0008060C0008060E00080800000808020008080400080806000808080008080A0008080C0008080E00080A0000080A0200080A0400080A0600080A0800080A0A00080A0C00080A0E00080C0000080C0200080C0400080C0600080C0
310
800080C0A00080C0C00080C0E00080E0000080E0200080E0400080E0600080E0800080E0A00080E0C00080E0E000C0000000C0002000C0004000C0006000C0008000C000A000C000C000C000E000C0200000C0202000C0204000C0206000C0208000C020A000C020C000C020E000C0400000C0402000C0404000C0406000C0
310
408000C040A000C040C000C040E000C0600000C0602000C0604000C0606000C0608000C060A000C060C000C060E000C0800000C0802000C0804000C0806000C0808000C080A000C080C000C080E000C0A00000C0A02000C0A04000C0A06000C0A08000C0A0A000C0A0C000C0A0E000C0C00000C0C02000C0C04000C0C06000
310
C0C08000C0C0A000F0FBFF00A4A0A000808080000000FF0000FF000000FFFF00FF000000FF00FF00FFFF0000FFFFFF00FFFFFFFFFFFFFFFFFFFFFFFFFFFFFFFFFFFFFFFFFFFFFFFFFFFFFFFFFFFFFFFFFFFFFFFFFFFFFFFF000000000000000000000000000000000000000000000000FFFFFFFFFFFFFFFF00FFFFFFFFFFFF
310
FFFFFFFFFFFFFFFFFFFFFFFFFFFFFFFFFFFFFFFFFFFFFFFFFF00FFFFFFFFFFFFFFFFFFFFFFFFFFFFFFFFFFFFFFFFFFFFFFFFFFFFFFFFFFFFFF00FFFFFFFFFFFFFFFFFFFFFFFFFFFFFFFFFFFFFFFFFFFFFFFFFFFFFFFFFFFFFF00FFFFFFFFFFFFFFFFFFFFFFFFFFFFFFFFFFFFFFFFFFFFFFFFFFFFFFFFFFFFFF00FFFFFFFFFF
310
FFFFFFFFFFFFFFFFFFFFFFFFFFFFFFFFFFFFFFFFFFFFFFFFFFFF00FFFFFFFFFFFFFFFFFFFFFFFFFFFFFFFFFFFFFFFFFFFFFFFFFFFFFFFFFFFFFF00FFFFFFFFFFFFFFFFFFFFFFFFFFFFFFFFFFFFFFFFFFFFFFFFFFFFFFFFFFFFFF00FFFFFFFFFFFFFFFFFFFFFFFFFFFFFFFFFFFFFFFFFFFFFFFFFFFFFFFFFFFFFF00FFFFFFFF
310
FFFFFFFFFFFFFFFFFFFFFFFFFFFFFFFFFFFFFFFFFFFFFFFFFFFFFF00FFFFFFFFFFFFFFFFFFFFFFFFFFFFFFFFFFFFFFFFFFFFFFFFFFFFFFFFFFFFFF00FFFFFFFFFFFFFFFFFFFFFFFFFFFFFFFFFFFFFFFFFFFFFFFFFFFFFFFFFFFFFF00FFFFFFFFFFFFFFFFFFFFFFFFFFFFFFFFFFFFFFFFFFFFFFFFFFFFFFFFFFFFFF00FFFFFF
310
FFFFFFFFFFFFFFFFFFFFFFFFFFFFFFFFFFFFFFFFFFFFFFFFFFFFFFFF00FFFFFFFFFFFFFFFFFFFFFFFFFFFFFFFFFFFFFFFFFFFFFFFFFFFFFFFFFFFFFF00FFFFFFFFFFFFFFFFFFFFFFFFFFFFFFFFFFFFFFFFFFFFFFFFFFFFFFFFFFFFFF00FFFFFFFFFFFFFFFFFFFFFFFFFFFFFFFFFFFFFFFFFFFFFFFFFFFFFFFFFFFFFF00FFFF
310
FFFFFFFFFFFFFFFFFFFFFFFFFFFFFFFFFFFFFFFFFFFFFFFFFFFFFFFFFF00FFFFFFFFFFFFFFFFFFFFFFFFFFFFFFFFFFFFFFFFFFFFFFFFFFFFFFFFFFFFFF00FFFFFFFFFFFFFFFFFFFFFFFFFFFFFFFFFFFFFFFFFFFFFFFFFFFFFFFFFFFFFF00FFFFFFFFFFFFFFFFFFFFFFFFFFFFFFFFFFFFFFFFFFFFFFFFFFFFFFFFFFFFFF00FF
310
FFFFFFFFFFFFFFFFFFFFFFFFFFFFFFFFFFFFFFFFFFFFFFFFFFFFFFFFFFFF00FFFFFFFFFFFFFFFFFFFFFFFFFFFFFFFFFFFFFFFFFFFFFFFFFFFFFFFFFFFFFF00FFFFFFFFFFFFFFFFFFFFFFFFFFFFFFFFFFFFFFFFFFFFFFFFFFFFFFFFFFFFFF00FFFFFFFFFFFFFFFFFFFFFFFFFFFFFFFFFFFFFFFFFFFFFFFFFFFFFFFFFFFFFF00
310
FFFFFFFFFFFFFFFFFFFFFFFFFFFFFFFFFFFFFFFFFFFFFFFFFFFFFFFFFFFFFF00FFFFFFFFFFFFFFFFFFFFFFFFFFFFFFFFFFFFFFFFFFFFFFFFFFFFFFFFFFFFFF00FFFFFFFFFFFFFFFFFFFFFFFFFFFFFFFFFFFFFFFFFFFFFFFFFFFFFFFFFFFFFF00FFFFFFFFFFFFFFFFFFFFFFFFFFFFFFFFFFFFFFFFFFFFFFFFFFFFFFFFFFFFFF
310
00FFFFFFFFFFFFFFFFFFFFFFFFFFFF000000000000000000FFFFFFFFFFFFFFFF00FFFFFFFFFFFFFFFFFFFFFFFFFFFF00FFFFFFFFFFFFFFFF
102
{BLKREFS
331
2CA
102
}
  0
BLOCK_RECORD
  5
2AC
330
1
100
AcDbSymbolTableRecord
100
AcDbBlockTableRecord
  2
AI9-BLK4
340
0
310
2800000020000000200000000100080000000000000400000000000000000000000000000000000000000000000080000080000000808000800000008000800080800000C0C0C000C0DCC000F0CAA6000020400000206000002080000020A0000020C0000020E00000400000004020000040400000406000004080000040A0
310
000040C0000040E00000600000006020000060400000606000006080000060A0000060C0000060E00000800000008020000080400000806000008080000080A0000080C0000080E00000A0000000A0200000A0400000A0600000A0800000A0A00000A0C00000A0E00000C0000000C0200000C0400000C0600000C0800000C0
310
A00000C0C00000C0E00000E0000000E0200000E0400000E0600000E0800000E0A00000E0C00000E0E00040000000400020004000400040006000400080004000A0004000C0004000E00040200000402020004020400040206000402080004020A0004020C0004020E000404000004040200040404000404060004040800040
310
40A0004040C0004040E00040600000406020004060400040606000406080004060A0004060C0004060E00040800000408020004080400040806000408080004080A0004080C0004080E00040A0000040A0200040A0400040A0600040A0800040A0A00040A0C00040A0E00040C0000040C0200040C0400040C0600040C08000
310
40C0A00040C0C00040C0E00040E0000040E0200040E0400040E0600040E0800040E0A00040E0C00040E0E00080000000800020008000400080006000800080008000A0008000C0008000E00080200000802020008020400080206000802080008020A0008020C0008020E00080400000804020008040400080406000804080
310
008040A0008040C0008040E00080600000806020008060400080606000806080008060A0008060C0008060E00080800000808020008080400080806000808080008080A0008080C0008080E00080A0000080A0200080A0400080A0600080A0800080A0A00080A0C00080A0E00080C0000080C0200080C0400080C0600080C0
310
800080C0A00080C0C00080C0E00080E0000080E0200080E0400080E0600080E0800080E0A00080E0C00080E0E000C0000000C0002000C0004000C0006000C0008000C000A000C000C000C000E000C0200000C0202000C0204000C0206000C0208000C020A000C020C000C020E000C0400000C0402000C0404000C0406000C0
310
408000C040A000C040C000C040E000C0600000C0602000C0604000C0606000C0608000C060A000C060C000C060E000C0800000C0802000C0804000C0806000C0808000C080A000C080C000C080E000C0A00000C0A02000C0A04000C0A06000C0A08000C0A0A000C0A0C000C0A0E000C0C00000C0C02000C0C04000C0C06000
310
C0C08000C0C0A000F0FBFF00A4A0A000808080000000FF0000FF000000FFFF00FF000000FF00FF00FFFF0000FFFFFF00FFFFFFFFFFFFFFFFFFFFFFFFFFFFFFFFFFFFFFFFFFFFFFFFFFFFFFFFFFFFFFFFFFFFFFFFFFFFFFFFFFFFFFFFFFFF00000000FFFFFFFFFFFFFFFFFFFFFF000000FFFFFFFFFFFFFFFFFFFFFFFFFFFF00
310
FFFF00FFFFFFFFFFFFFFFFFFFFFF00FFFFFFFFFFFFFFFFFFFFFFFFFFFFFFFF00FFFF00FFFFFFFFFFFFFFFFFFFFFF00FFFFFFFFFFFFFFFFFFFFFFFFFFFFFFFF00FFFF00FFFFFFFFFFFFFFFFFFFFFF00FFFFFFFFFFFFFFFFFFFFFFFFFFFFFFFF00FFFF00FFFFFFFFFFFFFFFFFFFFFF00FFFFFFFFFFFFFFFFFFFFFFFFFFFFFFFF
310
00FFFF00FFFFFFFFFFFFFFFFFFFFFF00FFFFFFFFFFFFFFFFFFFFFFFFFFFFFFFF00FFFF00FFFFFFFFFFFFFFFFFFFFFF00FFFFFFFFFFFFFFFFFFFFFFFFFFFFFFFF00FFFF00FFFFFFFFFFFFFFFFFFFFFF00FFFFFFFFFFFFFFFFFFFFFFFFFFFFFFFF00FFFF00FFFFFFFFFFFFFFFFFFFFFF00FFFFFFFFFFFFFFFFFFFFFFFFFFFFFF
310
FF00FFFF00FFFFFFFFFFFFFFFFFFFFFF00FFFFFFFFFFFFFFFFFFFFFFFFFFFFFFFF00FFFF00FFFFFFFFFFFFFFFFFFFFFF00FFFFFFFFFFFFFFFFFFFFFFFFFFFFFFFF00FFFF00FFFFFFFFFFFFFFFFFFFFFF00FFFFFFFFFFFFFFFFFFFFFFFFFFFFFFFF00FFFF00FFFFFFFFFFFFFFFFFFFFFF00FFFFFFFFFFFFFFFFFFFFFFFFFFFF
310
FFFF00FFFF00FFFFFFFFFFFFFFFFFFFFFF00FFFFFFFFFFFFFFFFFFFFFFFFFFFFFFFF00FFFF00FFFFFFFFFFFFFFFFFFFFFF00FFFFFFFFFFFFFFFFFFFFFFFFFFFFFFFF00FFFF00FFFFFFFFFFFFFFFFFFFFFF00FFFFFFFFFFFFFFFFFFFFFFFFFFFFFFFF00FFFF00FFFFFFFFFFFFFFFFFFFF00FFFFFFFFFFFFFFFFFFFFFFFFFFFF
310
FFFFFF00FFFF00FFFFFFFFFFFFFFFFFFFF00FFFFFFFFFFFFFFFFFFFFFFFFFFFFFFFFFF00FFFF00FFFFFFFFFFFFFFFFFFFF00FFFFFFFFFFFFFFFFFFFFFFFFFFFFFFFFFF00FFFF00FFFFFFFFFFFFFFFFFFFF00FFFFFFFFFFFFFFFFFFFFFFFFFFFFFFFFFF00FFFF00FFFFFFFFFFFFFFFFFFFF00FFFFFFFFFFFFFFFFFFFFFFFFFF
310
FFFFFFFF00FFFF00FFFFFFFFFFFFFFFFFF0000FFFF00FFFFFFFFFFFFFFFFFFFFFFFFFFFF00FFFF00FFFFFFFFFFFFFFFF0000FFFFFF00FFFFFFFFFFFFFFFFFFFFFFFFFFFF00FFFF00000000000000000000FFFFFFFF00FFFFFFFFFFFFFFFFFFFFFFFFFFFF00FFFFFFFFFFFFFFFFFFFFFFFFFFFFFF00FFFFFFFFFFFFFFFFFFFF
310
FFFFFFFFFF00FFFFFFFFFFFFFFFFFFFFFFFFFFFF00FFFFFFFFFFFFFFFFFFFFFFFFFFFFFFFF00FFFFFFFFFFFFFFFFFFFFFFFFFFFF00FFFFFFFFFFFFFFFFFFFFFFFFFFFFFFFF00FFFFFFFFFFFFFFFFFFFFFFFFFFFFFF00FFFFFFFFFFFFFFFFFFFFFFFFFFFFFF00FFFFFFFFFFFFFFFFFFFFFFFFFFFFFF00FFFFFFFFFFFFFFFFFF
310
FFFFFFFFFFFF00FFFF00000000000000000000FFFFFFFF00FFFFFFFFFFFFFFFFFFFFFFFFFFFF00FFFF00FFFFFFFFFFFFFFFFFF0000FFFF00
102
{BLKREFS
331
2CB
102
}
  0
BLOCK_RECORD
  5
2B1
330
1
100
AcDbSymbolTableRecord
100
AcDbBlockTableRecord
  2
AI9-BLK3
340
0
310
2800000020000000200000000100080000000000000400000000000000000000000000000000000000000000000080000080000000808000800000008000800080800000C0C0C000C0DCC000F0CAA6000020400000206000002080000020A0000020C0000020E00000400000004020000040400000406000004080000040A0
310
000040C0000040E00000600000006020000060400000606000006080000060A0000060C0000060E00000800000008020000080400000806000008080000080A0000080C0000080E00000A0000000A0200000A0400000A0600000A0800000A0A00000A0C00000A0E00000C0000000C0200000C0400000C0600000C0800000C0
310
A00000C0C00000C0E00000E0000000E0200000E0400000E0600000E0800000E0A00000E0C00000E0E00040000000400020004000400040006000400080004000A0004000C0004000E00040200000402020004020400040206000402080004020A0004020C0004020E000404000004040200040404000404060004040800040
310
40A0004040C0004040E00040600000406020004060400040606000406080004060A0004060C0004060E00040800000408020004080400040806000408080004080A0004080C0004080E00040A0000040A0200040A0400040A0600040A0800040A0A00040A0C00040A0E00040C0000040C0200040C0400040C0600040C08000
310
40C0A00040C0C00040C0E00040E0000040E0200040E0400040E0600040E0800040E0A00040E0C00040E0E00080000000800020008000400080006000800080008000A0008000C0008000E00080200000802020008020400080206000802080008020A0008020C0008020E00080400000804020008040400080406000804080
310
008040A0008040C0008040E00080600000806020008060400080606000806080008060A0008060C0008060E00080800000808020008080400080806000808080008080A0008080C0008080E00080A0000080A0200080A0400080A0600080A0800080A0A00080A0C00080A0E00080C0000080C0200080C0400080C0600080C0
310
800080C0A00080C0C00080C0E00080E0000080E0200080E0400080E0600080E0800080E0A00080E0C00080E0E000C0000000C0002000C0004000C0006000C0008000C000A000C000C000C000E000C0200000C0202000C0204000C0206000C0208000C020A000C020C000C020E000C0400000C0402000C0404000C0406000C0
310
408000C040A000C040C000C040E000C0600000C0602000C0604000C0606000C0608000C060A000C060C000C060E000C0800000C0802000C0804000C0806000C0808000C080A000C080C000C080E000C0A00000C0A02000C0A04000C0A06000C0A08000C0A0A000C0A0C000C0A0E000C0C00000C0C02000C0C04000C0C06000
310
C0C08000C0C0A000F0FBFF00A4A0A000808080000000FF0000FF000000FFFF00FF000000FF00FF00FFFF0000FFFFFF00FFFFFFFFFFFFFFFFFFFFFFFFFFFFFFFFFFFFFFFFFFFFFFFFFFFFFFFFFFFFFFFFFFFFFFFFFFFFFFFFFFFFFFFFFFFFFF0000FFFFFFFFFFFFFFFFFFFFFFFFFFFFFFFFFFFFFFFFFFFFFFFFFFFFFFFFFFFF
310
0000FFFFFFFFFFFFFFFFFFFFFFFFFFFFFFFFFFFFFFFFFFFFFFFFFFFFFFFFFFFF0000FFFFFFFFFFFFFFFFFFFFFFFFFFFFFFFFFFFFFFFFFFFFFFFFFFFFFFFFFFFF0000FFFFFFFFFFFFFFFFFFFFFFFFFFFFFFFFFFFFFFFFFFFFFFFFFFFFFFFFFFFF0000FFFFFFFFFFFFFFFFFFFFFFFFFFFFFFFFFFFFFFFFFFFFFFFFFFFFFFFFFF
310
FF0000FFFFFFFFFFFFFFFFFFFFFFFFFFFFFFFFFFFFFFFFFFFFFFFFFFFFFFFFFFFF0000FFFFFFFFFFFFFFFFFFFFFFFFFFFFFFFFFFFFFFFFFFFFFFFFFFFFFFFFFFFF0000FFFFFFFFFFFFFFFFFFFFFFFFFFFFFFFFFFFFFFFFFFFFFFFFFFFFFFFFFFFF0000FFFFFFFFFFFFFFFFFFFFFFFFFFFFFFFFFFFFFFFFFFFFFFFFFFFFFFFF
310
FFFF0000FFFFFFFFFFFFFFFFFFFFFFFFFFFFFFFFFFFFFFFFFFFFFFFFFFFFFFFFFFFF0000FFFFFFFFFFFFFFFFFFFFFFFFFFFFFFFFFFFFFFFFFFFFFFFFFFFFFFFFFFFF0000FFFFFFFFFFFFFFFFFFFFFFFFFFFFFFFFFFFFFFFFFFFFFFFFFFFFFFFFFFFF0000FFFFFFFFFFFFFFFFFFFFFFFFFFFFFFFFFFFFFFFFFFFFFFFFFFFFFF
310
FFFFFF0000FFFFFFFFFFFFFFFFFFFFFFFFFFFFFFFFFFFFFFFFFFFFFFFFFFFFFFFFFFFF0000FFFFFFFFFFFFFFFFFFFFFFFFFFFFFFFFFFFFFFFFFFFFFFFFFFFFFFFFFFFF0000FFFFFFFFFFFFFFFFFFFFFFFFFFFFFFFFFFFFFFFFFFFFFFFFFFFFFFFFFFFF0000FFFFFFFFFFFFFFFFFFFFFFFFFFFFFFFFFFFFFFFFFFFFFFFFFFFF
310
FFFFFFFF0000FFFFFFFFFFFFFFFFFFFFFFFFFFFFFFFFFFFFFFFFFFFFFFFFFFFFFFFFFFFF0000FFFFFFFFFFFFFFFFFFFFFFFFFFFFFFFFFFFFFFFFFFFFFFFFFFFFFFFFFFFF0000FFFFFFFFFFFFFFFFFFFFFFFFFFFFFFFFFFFFFFFFFFFFFFFFFFFFFFFFFFFF0000FFFFFFFFFFFFFFFFFFFFFFFFFFFFFFFFFFFFFFFFFFFFFFFFFF
310
FFFFFFFFFF0000FFFFFFFFFFFFFFFFFFFFFFFFFFFFFFFFFFFFFFFFFFFFFFFFFFFFFFFFFFFF0000FFFFFFFFFFFFFFFFFFFFFFFFFFFFFFFFFFFFFFFFFFFFFFFFFFFFFFFFFFFF0000FFFFFFFFFFFFFFFFFFFFFFFFFFFFFFFFFFFFFFFFFFFFFFFFFFFFFFFFFFFF0000FFFFFFFFFFFFFFFFFFFFFFFFFFFFFFFFFFFFFFFFFFFFFFFF
310
FFFFFFFFFFFF0000FFFFFFFFFFFFFFFFFFFFFFFFFFFFFFFFFFFFFFFFFFFFFFFFFFFFFFFFFFFF0000FFFFFFFFFFFFFFFFFFFFFFFFFFFFFFFFFFFFFFFFFFFFFFFFFFFFFFFFFFFF0000FFFFFFFFFFFFFFFFFFFFFFFFFFFFFFFFFFFFFFFFFFFFFFFFFFFFFFFFFFFF0000FFFFFFFFFFFFFFFFFFFFFFFFFFFFFFFFFFFFFFFFFFFFFF
310
FFFFFFFFFFFFFF0000FFFFFFFFFFFFFFFFFFFFFFFFFFFFFFFFFFFFFFFFFFFFFFFFFFFFFFFFFFFFFFFFFFFFFFFFFFFFFFFFFFFFFFFFFFFFFF
102
{BLKREFS
331
2CC
102
}
  0
BLOCK_RECORD
  5
2B6
330
1
100
AcDbSymbolTableRecord
100
AcDbBlockTableRecord
  2
AI9-BLK2
340
0
310
2800000020000000200000000100080000000000000400000000000000000000000000000000000000000000000080000080000000808000800000008000800080800000C0C0C000C0DCC000F0CAA6000020400000206000002080000020A0000020C0000020E00000400000004020000040400000406000004080000040A0
310
000040C0000040E00000600000006020000060400000606000006080000060A0000060C0000060E00000800000008020000080400000806000008080000080A0000080C0000080E00000A0000000A0200000A0400000A0600000A0800000A0A00000A0C00000A0E00000C0000000C0200000C0400000C0600000C0800000C0
310
A00000C0C00000C0E00000E0000000E0200000E0400000E0600000E0800000E0A00000E0C00000E0E00040000000400020004000400040006000400080004000A0004000C0004000E00040200000402020004020400040206000402080004020A0004020C0004020E000404000004040200040404000404060004040800040
310
40A0004040C0004040E00040600000406020004060400040606000406080004060A0004060C0004060E00040800000408020004080400040806000408080004080A0004080C0004080E00040A0000040A0200040A0400040A0600040A0800040A0A00040A0C00040A0E00040C0000040C0200040C0400040C0600040C08000
310
40C0A00040C0C00040C0E00040E0000040E0200040E0400040E0600040E0800040E0A00040E0C00040E0E00080000000800020008000400080006000800080008000A0008000C0008000E00080200000802020008020400080206000802080008020A0008020C0008020E00080400000804020008040400080406000804080
310
008040A0008040C0008040E00080600000806020008060400080606000806080008060A0008060C0008060E00080800000808020008080400080806000808080008080A0008080C0008080E00080A0000080A0200080A0400080A0600080A0800080A0A00080A0C00080A0E00080C0000080C0200080C0400080C0600080C0
310
800080C0A00080C0C00080C0E00080E0000080E0200080E0400080E0600080E0800080E0A00080E0C00080E0E000C0000000C0002000C0004000C0006000C0008000C000A000C000C000C000E000C0200000C0202000C0204000C0206000C0208000C020A000C020C000C020E000C0400000C0402000C0404000C0406000C0
310
408000C040A000C040C000C040E000C0600000C0602000C0604000C0606000C0608000C060A000C060C000C060E000C0800000C0802000C0804000C0806000C0808000C080A000C080C000C080E000C0A00000C0A02000C0A04000C0A06000C0A08000C0A0A000C0A0C000C0A0E000C0C00000C0C02000C0C04000C0C06000
310
C0C08000C0C0A000F0FBFF00A4A0A000808080000000FF0000FF000000FFFF00FF000000FF00FF00FFFF0000FFFFFF00FFFFFFFFFFFFFFFFFFFFFFFFFFFFFFFFFFFFFFFFFFFFFFFFFFFFFFFFFFFFFFFFFFFFFFFFFFFFFFFFFFFFFFFFFFFFFF0000FFFFFFFFFFFFFFFFFFFFFFFFFFFFFFFFFFFFFFFFFFFFFFFFFFFFFFFFFFFF
310
0000FFFFFFFFFFFFFFFFFFFFFFFFFFFFFFFFFFFFFFFFFFFFFFFFFFFFFFFFFFFF0000FFFFFFFFFFFFFFFFFFFFFFFFFFFFFFFFFFFFFFFFFFFFFFFFFFFFFFFFFF00FFFF00FFFFFFFFFFFFFFFFFFFFFFFFFFFFFFFFFFFFFFFFFFFFFFFFFFFFFFFF00FFFF00FFFFFFFFFFFFFFFFFFFFFFFFFFFFFFFFFFFFFFFFFFFFFFFFFFFFFFFF
310
00FF0000FFFFFFFFFFFFFFFFFFFFFFFFFFFFFFFFFFFFFFFFFFFFFFFFFFFFFFFF00FF0000FFFFFFFFFFFFFFFFFFFFFFFFFFFFFFFFFFFFFFFFFFFFFFFFFFFFFFFF00FF0000FFFFFFFFFFFFFFFFFFFFFFFFFFFFFFFFFFFFFFFFFFFFFFFFFFFFFFFF00000000FFFFFFFFFFFFFFFFFFFFFFFFFFFFFFFFFFFFFFFFFFFFFFFFFFFFFF
310
00FF00FF0000FFFFFFFFFFFFFFFFFFFFFFFFFFFFFFFFFFFFFFFFFFFFFFFFFFFF00FF00FF0000FFFFFFFFFFFFFFFFFFFFFFFFFFFFFFFFFFFFFFFFFFFFFFFFFFFF00FF00FF0000FFFFFFFFFFFFFFFFFFFFFFFFFFFFFFFFFFFFFFFFFFFFFFFFFFFF00FF00FF0000FFFFFFFFFFFFFFFFFFFFFFFFFFFFFFFFFFFFFFFFFFFFFFFFFF
310
FF00FF00FF0000FFFFFFFFFFFFFFFFFFFFFFFFFFFFFFFFFFFFFFFFFFFFFFFFFFFF0000FFFF0000FFFFFFFFFFFFFFFFFFFFFFFFFFFFFFFFFFFFFFFFFFFFFFFFFF00FF00FFFF00FF00FFFFFFFFFFFFFFFFFFFFFFFFFFFFFFFFFFFFFFFFFFFFFFFF00FF00FFFF00FF00FFFFFFFFFFFFFFFFFFFFFFFFFFFFFFFFFFFFFFFFFFFFFF
310
FF00FF00FFFFFF0000FFFFFFFFFFFFFFFFFFFFFFFFFFFFFFFFFFFFFFFFFFFFFFFF00FF00FFFFFF0000FFFFFFFFFFFFFFFFFFFFFFFFFFFFFFFFFFFFFFFFFFFFFFFF00FF00FFFFFF0000FFFFFFFFFFFFFFFFFFFFFFFFFFFFFFFFFFFFFFFFFFFFFFFF0000FFFFFFFF0000FFFFFFFFFFFFFFFFFFFFFFFFFFFFFFFFFFFFFFFFFFFF
310
FF00FF00FFFFFFFF00FF00FFFFFFFFFFFFFFFFFFFFFFFFFFFFFFFFFFFFFFFFFFFF00FF00FFFFFFFF00FF00FFFFFFFFFFFFFFFFFFFFFFFFFFFFFFFFFFFFFFFFFFFF00FF00FFFFFFFF00FF00FFFFFFFFFFFFFFFFFFFFFFFFFFFFFFFFFFFFFFFFFFFF00FF00FFFFFFFF00FF00FFFFFFFFFFFFFFFFFFFFFFFFFFFFFFFFFFFFFFFF
310
FFFF00FF00FFFFFFFFFF0000FFFFFFFFFFFFFFFFFFFFFFFFFFFFFFFFFFFFFFFFFFFF0000FFFFFFFFFFFF0000FFFFFFFFFFFFFFFFFFFFFFFFFFFFFFFFFFFFFFFFFF00FF00FFFFFFFFFFFF00FF00FFFFFFFFFFFFFFFFFFFFFFFFFFFFFFFFFFFFFFFF00FF00FFFFFFFFFFFF00FF00FFFFFFFFFFFFFFFFFFFFFFFFFFFFFFFFFFFF
310
FFFF000000FFFFFFFFFFFF000000FFFFFFFFFFFFFFFFFFFFFFFFFFFFFFFFFFFFFFFFFFFFFFFFFFFFFFFFFFFFFFFFFFFFFFFFFFFFFFFFFFFF
102
{BLKREFS
331
2CD
102
}
  0
BLOCK_RECORD
  5
2BB
330
1
100
AcDbSymbolTableRecord
100
AcDbBlockTableRecord
  2
AI9-BLK1
340
0
310
2800000020000000200000000100080000000000000400000000000000000000000000000000000000000000000080000080000000808000800000008000800080800000C0C0C000C0DCC000F0CAA6000020400000206000002080000020A0000020C0000020E00000400000004020000040400000406000004080000040A0
310
000040C0000040E00000600000006020000060400000606000006080000060A0000060C0000060E00000800000008020000080400000806000008080000080A0000080C0000080E00000A0000000A0200000A0400000A0600000A0800000A0A00000A0C00000A0E00000C0000000C0200000C0400000C0600000C0800000C0
310
A00000C0C00000C0E00000E0000000E0200000E0400000E0600000E0800000E0A00000E0C00000E0E00040000000400020004000400040006000400080004000A0004000C0004000E00040200000402020004020400040206000402080004020A0004020C0004020E000404000004040200040404000404060004040800040
310
40A0004040C0004040E00040600000406020004060400040606000406080004060A0004060C0004060E00040800000408020004080400040806000408080004080A0004080C0004080E00040A0000040A0200040A0400040A0600040A0800040A0A00040A0C00040A0E00040C0000040C0200040C0400040C0600040C08000
310
40C0A00040C0C00040C0E00040E0000040E0200040E0400040E0600040E0800040E0A00040E0C00040E0E00080000000800020008000400080006000800080008000A0008000C0008000E00080200000802020008020400080206000802080008020A0008020C0008020E00080400000804020008040400080406000804080
310
008040A0008040C0008040E00080600000806020008060400080606000806080008060A0008060C0008060E00080800000808020008080400080806000808080008080A0008080C0008080E00080A0000080A0200080A0400080A0600080A0800080A0A00080A0C00080A0E00080C0000080C0200080C0400080C0600080C0
310
800080C0A00080C0C00080C0E00080E0000080E0200080E0400080E0600080E0800080E0A00080E0C00080E0E000C0000000C0002000C0004000C0006000C0008000C000A000C000C000C000E000C0200000C0202000C0204000C0206000C0208000C020A000C020C000C020E000C0400000C0402000C0404000C0406000C0
310
408000C040A000C040C000C040E000C0600000C0602000C0604000C0606000C0608000C060A000C060C000C060E000C0800000C0802000C0804000C0806000C0808000C080A000C080C000C080E000C0A00000C0A02000C0A04000C0A06000C0A08000C0A0A000C0A0C000C0A0E000C0C00000C0C02000C0C04000C0C06000
310
C0C08000C0C0A000F0FBFF00A4A0A000808080000000FF0000FF000000FFFF00FF000000FF00FF00FFFF0000FFFFFF00FFFFFFFFFFFFFFFFFFFFFFFFFFFFFFFFFFFFFFFFFFFFFFFFFFFFFFFFFFFFFFFFFFFFFFFFFFFFFFFFFFFFFF00000000000000000000FFFFFFFFFFFFFFFFFFFFFFFFFFFFFFFFFFFFFFFFFFFF00FFFFFF
310
FFFFFFFFFF00FFFFFFFFFFFFFFFFFFFFFFFFFFFFFFFFFFFFFFFFFFFF00FFFFFFFFFFFFFFFF00FFFFFFFFFFFFFFFFFFFFFFFFFFFFFFFFFFFFFFFFFFFF00FFFFFFFFFFFFFFFF00FFFFFFFFFFFFFFFFFFFFFFFFFFFFFFFFFFFFFFFFFFFF00FF0000000000000000FFFFFFFFFFFFFFFFFFFFFFFFFFFFFFFFFFFFFFFFFFFF00FF00
310
FFFFFFFFFFFFFFFFFFFFFFFFFFFFFFFFFFFFFFFFFFFFFFFFFFFFFFFFFF00FF00FFFFFFFFFFFFFFFFFFFFFFFFFFFFFFFFFFFFFFFFFFFFFFFFFFFFFFFFFF00FF00FFFFFFFFFFFFFFFFFFFFFFFFFFFFFFFFFFFFFFFFFFFFFFFFFFFFFFFFFF00FF00FFFFFFFFFFFFFFFFFFFFFFFFFFFFFFFFFFFFFFFFFFFFFFFFFFFFFFFFFF00FF
310
00FFFFFFFFFFFFFFFFFFFFFFFFFFFFFFFFFFFFFFFFFFFFFFFFFFFFFFFFFF00FF00FFFFFFFFFFFFFFFFFFFFFFFFFFFFFFFFFFFFFFFFFFFFFFFFFFFFFFFFFF00FF00FFFFFFFFFFFFFFFFFFFFFFFFFFFFFFFFFFFFFFFFFFFFFFFFFFFFFFFFFF00FF00FFFFFFFFFFFFFFFFFFFFFFFFFFFFFFFFFFFFFFFFFFFFFFFFFFFFFFFFFF00
310
FF00000000000000FFFFFFFFFFFFFFFFFFFFFFFFFFFFFFFFFFFFFFFFFFFFFF00FFFFFFFFFFFFFF00FFFFFFFFFFFFFFFFFFFFFFFFFFFFFFFFFFFFFFFFFFFFFF00FFFFFFFFFFFFFF00FFFFFFFFFFFFFFFFFFFFFFFFFFFFFFFFFFFFFFFFFFFFFF00FFFFFFFFFFFFFF00FFFFFFFFFFFFFFFFFFFFFFFFFFFFFFFFFFFFFFFFFFFFFF
310
00FF00000000000000FFFFFFFFFFFFFFFFFFFFFFFFFFFFFFFFFFFFFFFFFFFFFF00FF00FFFFFFFFFFFFFFFFFFFFFFFFFFFFFFFFFFFFFFFFFFFFFFFFFFFFFFFFFF00FF00FFFFFFFFFFFFFFFFFFFFFFFFFFFFFFFFFFFFFFFFFFFFFFFFFFFFFFFFFF00FF00FFFFFFFFFFFFFFFFFFFFFFFFFFFFFFFFFFFFFFFFFFFFFFFFFFFFFFFF
310
FF00FF00FFFFFFFFFFFFFFFFFFFFFFFFFFFFFFFFFFFFFFFFFFFFFFFFFFFFFFFFFF00FF00FFFFFFFFFFFFFFFFFFFFFFFFFFFFFFFFFFFFFFFFFFFFFFFFFFFFFFFFFF00FF00FFFFFFFFFFFFFFFFFFFFFFFFFFFFFFFFFFFFFFFFFFFFFFFFFFFFFFFFFF00FF00FFFFFFFFFFFFFFFFFFFFFFFFFFFFFFFFFFFFFFFFFFFFFFFFFFFFFF
310
FFFF00FF0000000000000000FFFFFFFFFFFFFFFFFFFFFFFFFFFFFFFFFFFFFFFFFFFF00FFFFFFFFFFFFFFFF00FFFFFFFFFFFFFFFFFFFFFFFFFFFFFFFFFFFFFFFFFFFF00FFFFFFFFFFFFFFFF00FFFFFFFFFFFFFFFFFFFFFFFFFFFFFFFFFFFFFFFFFFFF00FFFFFFFFFFFFFFFF00FFFFFFFFFFFFFFFFFFFFFFFFFFFFFFFFFFFFFF
310
FFFFFF00000000000000000000FFFFFFFFFFFFFFFFFFFFFFFFFFFFFFFFFFFFFFFFFFFFFFFFFFFFFFFFFFFFFFFFFFFFFFFFFFFFFFFFFFFFFF
102
{BLKREFS
331
2CE
102
}
  0
BLOCK_RECORD
  5
2C0
330
1
100
AcDbSymbolTableRecord
100
AcDbBlockTableRecord
  2
HD_LLC_logo_OT5
340
0
310
2800000020000000200000000100080000000000000400000000000000000000000000000000000000000000000080000080000000808000800000008000800080800000C0C0C000C0DCC000F0CAA6000020400000206000002080000020A0000020C0000020E00000400000004020000040400000406000004080000040A0
310
000040C0000040E00000600000006020000060400000606000006080000060A0000060C0000060E00000800000008020000080400000806000008080000080A0000080C0000080E00000A0000000A0200000A0400000A0600000A0800000A0A00000A0C00000A0E00000C0000000C0200000C0400000C0600000C0800000C0
310
A00000C0C00000C0E00000E0000000E0200000E0400000E0600000E0800000E0A00000E0C00000E0E00040000000400020004000400040006000400080004000A0004000C0004000E00040200000402020004020400040206000402080004020A0004020C0004020E000404000004040200040404000404060004040800040
310
40A0004040C0004040E00040600000406020004060400040606000406080004060A0004060C0004060E00040800000408020004080400040806000408080004080A0004080C0004080E00040A0000040A0200040A0400040A0600040A0800040A0A00040A0C00040A0E00040C0000040C0200040C0400040C0600040C08000
310
40C0A00040C0C00040C0E00040E0000040E0200040E0400040E0600040E0800040E0A00040E0C00040E0E00080000000800020008000400080006000800080008000A0008000C0008000E00080200000802020008020400080206000802080008020A0008020C0008020E00080400000804020008040400080406000804080
310
008040A0008040C0008040E00080600000806020008060400080606000806080008060A0008060C0008060E00080800000808020008080400080806000808080008080A0008080C0008080E00080A0000080A0200080A0400080A0600080A0800080A0A00080A0C00080A0E00080C0000080C0200080C0400080C0600080C0
310
800080C0A00080C0C00080C0E00080E0000080E0200080E0400080E0600080E0800080E0A00080E0C00080E0E000C0000000C0002000C0004000C0006000C0008000C000A000C000C000C000E000C0200000C0202000C0204000C0206000C0208000C020A000C020C000C020E000C0400000C0402000C0404000C0406000C0
310
408000C040A000C040C000C040E000C0600000C0602000C0604000C0606000C0608000C060A000C060C000C060E000C0800000C0802000C0804000C0806000C0808000C080A000C080C000C080E000C0A00000C0A02000C0A04000C0A06000C0A08000C0A0A000C0A0C000C0A0E000C0C00000C0C02000C0C04000C0C06000
310
C0C08000C0C0A000F0FBFF00A4A0A000808080000000FF0000FF000000FFFF00FF000000FF00FF00FFFF0000FFFFFF00FFFFFFFFFFFFFFFFFFFFFFFFFFFFFFFFFFFFFFFFFFFFFFFFFFFFFFFFFFFFFFFFFFFFFFFFFFFFFFFFFFFFFFFFFFFFFFFFFFFFFFFFFFFFFFFFFFFFFFFFFFFFFFFFFFFFFFFFFFFFFFFFFFFFFFFFFFFFFF
310
FFFFFFFFFFFFFFFFFFFFFFFFFFFFFFFFFFFFFFFFFFFFFFFFFFFFFFFFFFFFFFFFFFFFFFFFFFFFFFFFFFFFFFFFFFFFFFFFFFFFFFFFFFFFFFFFFFFFFFFFFFFFFFFFFFFFFFFFFFFFFFFFFFFFFFFFFFFFFFFFFFFFFFFFFFFFFFFFFFFFFFFFFFFFFFFFFFFFFFFFFFFFFFFFFFFFFFFFFFFFFFFFFFFFFFFFFFFFFFFFFFFFFFFFFFFFFF
310
FFFFFFFFFFFFFFFFFFFFFFFFFFFFFFFFFFFFFFFFFFFFFFFFFFFFFFFFFFFFFFFFFFFFFFFFFFFFFFFFFFFFFFFFFFFFFFFFFFFFFFFFFFFFFFFFFFFFFFFFFFFFFFFFFFFFFFFFFFFFFFFFFFFFFFFFFFFFFFFFFFFFFFFFFFFFFFFFFFFFFFFFFFFFFFFFFFFFFFFFFFFFFFFFFFFFFFFFFFFFFFFFFFFFFFFFFFFFFFFFFFFFFFFFFFFFFF
310
FFFFFFFFFFFFFFFFFFFFFFFFFFFFFFFFFFFFFFFFFFFFFFFFFFFFFFFFFFFFFFFFFFFFFFFFFFFFFFFFFFFFFFFFFFFFFFFFFFFFFFFF0000000000000000000000000000000000000000000000000000000000FFFFFF0000000000000000000000000000000000FFFFFFFFFFFFFFFFFFFF0000FFFFFF0000000000000000000000
310
00000000000000FFFFFFFFFFFFFFFFFFFF0000FFFF000000000000000000000000000000000000FFFFFF00000000FFFFFF0000FFFF00FFFFFFFFFFFF00FFFFFF00FFFFFFFFFF00FFFFFF0000000000FFFF0000FFFF00FFFFFFFFFFFF00FFFFFF00FFFFFFFFFF00FFFFFF00FFFF0000FFFF0000FFFF00FFFFFFFFFFFF00FFFF
310
00FFFFFFFFFFFF00FFFFFF00FFFF0000FFFF0000FFFF0000000000FFFF00000000FFFFFF00000000FFFFFF00000000FFFFFF0000FFFFFFFFFFFF00FFFFFFFFFFFFFFFFFF00FFFFFFFFFFFFFFFFFFFFFFFFFF0000FFFFFFFFFFFF00FFFFFFFFFFFFFFFFFF00FFFFFFFFFFFFFFFFFFFFFFFFFF0000FFFFFFFFFFFF00FFFFFFFF
310
FFFFFFFFFF00FFFFFFFFFFFFFFFFFFFFFFFF0000FFFFFF0000000000FFFF00000000FFFFFF0000000000000000000000000000FFFFFFFF00FFFFFFFFFFFF00FFFF00FFFFFFFFFFFF00FFFFFFFFFFFFFFFFFFFFFFFFFFFF00FFFFFFFFFFFF00FFFFFF00FFFFFFFFFF00FFFFFFFFFFFFFFFFFFFFFFFFFFFF0000000000000000
310
FFFFFF00000000000000FFFFFFFFFFFFFFFFFFFFFFFFFFFFFFFFFFFFFFFFFFFFFFFFFFFFFFFFFFFFFFFFFFFFFFFFFFFFFFFFFFFFFFFFFFFFFFFFFFFFFFFFFFFFFFFFFFFFFFFFFFFFFFFFFFFFFFFFFFFFFFFFFFFFFFFFFFFFFFFFFFFFFFFFFFFFFFFFFFFFFFFFFFFFFFFFFFFFFFFFFFFFFFFFFFFFFFFFFFFFFFFFFFFFFFFFFF
310
FFFFFFFFFFFFFFFFFFFFFFFFFFFFFFFFFFFFFFFFFFFFFFFFFFFFFFFFFFFFFFFFFFFFFFFFFFFFFFFFFFFFFFFFFFFFFFFFFFFFFFFFFFFFFFFF
102
{BLKREFS
331
2E6
102
}
  0
BLOCK_RECORD
  5
2E5
330
1
100
AcDbSymbolTableRecord
100
AcDbBlockTableRecord
  2
HD logo-new
340
0
310
2800000020000000200000000100080000000000000400000000000000000000000000000000000000000000000080000080000000808000800000008000800080800000C0C0C000C0DCC000F0CAA6000020400000206000002080000020A0000020C0000020E00000400000004020000040400000406000004080000040A0
310
000040C0000040E00000600000006020000060400000606000006080000060A0000060C0000060E00000800000008020000080400000806000008080000080A0000080C0000080E00000A0000000A0200000A0400000A0600000A0800000A0A00000A0C00000A0E00000C0000000C0200000C0400000C0600000C0800000C0
310
A00000C0C00000C0E00000E0000000E0200000E0400000E0600000E0800000E0A00000E0C00000E0E00040000000400020004000400040006000400080004000A0004000C0004000E00040200000402020004020400040206000402080004020A0004020C0004020E000404000004040200040404000404060004040800040
310
40A0004040C0004040E00040600000406020004060400040606000406080004060A0004060C0004060E00040800000408020004080400040806000408080004080A0004080C0004080E00040A0000040A0200040A0400040A0600040A0800040A0A00040A0C00040A0E00040C0000040C0200040C0400040C0600040C08000
310
40C0A00040C0C00040C0E00040E0000040E0200040E0400040E0600040E0800040E0A00040E0C00040E0E00080000000800020008000400080006000800080008000A0008000C0008000E00080200000802020008020400080206000802080008020A0008020C0008020E00080400000804020008040400080406000804080
310
008040A0008040C0008040E00080600000806020008060400080606000806080008060A0008060C0008060E00080800000808020008080400080806000808080008080A0008080C0008080E00080A0000080A0200080A0400080A0600080A0800080A0A00080A0C00080A0E00080C0000080C0200080C0400080C0600080C0
310
800080C0A00080C0C00080C0E00080E0000080E0200080E0400080E0600080E0800080E0A00080E0C00080E0E000C0000000C0002000C0004000C0006000C0008000C000A000C000C000C000E000C0200000C0202000C0204000C0206000C0208000C020A000C020C000C020E000C0400000C0402000C0404000C0406000C0
310
408000C040A000C040C000C040E000C0600000C0602000C0604000C0606000C0608000C060A000C060C000C060E000C0800000C0802000C0804000C0806000C0808000C080A000C080C000C080E000C0A00000C0A02000C0A04000C0A06000C0A08000C0A0A000C0A0C000C0A0E000C0C00000C0C02000C0C04000C0C06000
310
C0C08000C0C0A000F0FBFF00A4A0A000808080000000FF0000FF000000FFFF00FF000000FF00FF00FFFF0000FFFFFF00FFFFFFFFFFFFFFFFFFFFFFFFFFFFFFFFFFFFFFFFFFFFFFFFFFFFFFFFFFFFFFFFFFFFFFFFFFFFFFFFFFFFFFFFFFFFFFFFFFFFFFFFFFFFFFFFFFFFFFFFFFFFFFFFFFFFFFFFFFFFFFFFFFFFFFFFFFFFFF
310
FFFFFFFFFFFFFFFFFFFFFFFFFFFFFFFFFFFFFFFFFFFFFFFFFFFFFFFFFFFFFFFFFFFFFFFFFFFFFFFFFFFFFFFFFFFFFFFFFFFFFFFFFFFFFFFFFFFFFFFFFFFFFFFFFFFFFFFFFFFFFFFFFFFFFFFFFFFFFFFFFFFFFFFFFFFFFFFFFFFFFFFFFFFFFFFFFFFFFFFFFFFFFFFFFFFFFFFFFFFFFFFFFFFFFFFFFFFFFFFFFFFFFFFFFFFFFF
310
FFFFFFFFFFFFFFFFFFFFFFFFFFFFFFFFFFFFFFFFFFFFFFFFFFFFFFFFFFFFFFFFFFFFFFFFFFFFFFFFFFFFFFFFFFFFFFFFFFFFFFFFFFFFFFFFFFFFFFFFFFFFFFFFFFFFFFFFFFFFFFFFFFFFFFFFFFFFFFFFFFFFFFFFFFFFFFFFFFFFFFFFFFFFFFFFFFFFFFFFFFFFFFFFFFFFFFFFFFFFFFFFFFFFFFFFFFFFFFFFFFFFFFFFFFFFFF
310
FFFFFFFFFFFFFFFFFFFFFFFFFFFFFFFFFFFFFFFFFFFFFFFFFFFFFFFFFFFFFFFFFFFFFFFFFFFFFFFFFFFFFFFFFFFFFFFFFFFFFFFF0000000000000000000000000000000000000000000000000000000000FFFFFF0000000000000000000000000000000000FFFFFFFFFFFFFFFFFFFF0000FFFFFF0000000000000000000000
310
00000000000000FFFFFFFFFFFFFFFFFFFF0000FFFF000000000000000000000000000000000000FFFFFF00000000FFFFFF0000FFFF00FFFFFFFFFFFF00FFFFFF00FFFFFFFFFF00FFFFFF0000000000FFFF0000FFFF00FFFFFFFFFFFF00FFFFFF00FFFFFFFFFF00FFFFFF00FFFF0000FFFF0000FFFF00FFFFFFFFFFFF00FFFF
310
00FFFFFFFFFFFF00FFFFFF00FFFF0000FFFF0000FFFF0000000000FFFF00000000FFFFFF00000000FFFFFF00000000FFFFFF0000FFFFFFFFFFFF00FFFFFFFFFFFFFFFFFF00FFFFFFFFFFFFFFFFFFFFFFFFFF0000FFFFFFFFFFFF00FFFFFFFFFFFFFFFFFF00FFFFFFFFFFFFFFFFFFFFFFFFFF0000FFFFFFFFFFFF00FFFFFFFF
310
FFFFFFFFFF00FFFFFFFFFFFFFFFFFFFFFFFF0000FFFFFF0000000000FFFF00000000FFFFFF0000000000000000000000000000FFFFFFFF00FFFFFFFFFFFF00FFFF00FFFFFFFFFFFF00FFFFFFFFFFFFFFFFFFFFFFFFFFFF00FFFFFFFFFFFF00FFFFFF00FFFFFFFFFF00FFFFFFFFFFFFFFFFFFFFFFFFFFFF0000000000000000
310
FFFFFF00000000000000FFFFFFFFFFFFFFFFFFFFFFFFFFFFFFFFFFFFFFFFFFFFFFFFFFFFFFFFFFFFFFFFFFFFFFFFFFFFFFFFFFFFFFFFFFFFFFFFFFFFFFFFFFFFFFFFFFFFFFFFFFFFFFFFFFFFFFFFFFFFFFFFFFFFFFFFFFFFFFFFFFFFFFFFFFFFFFFFFFFFFFFFFFFFFFFFFFFFFFFFFFFFFFFFFFFFFFFFFFFFFFFFFFFFFFFFFF
310
FFFFFFFFFFFFFFFFFFFFFFFFFFFFFFFFFFFFFFFFFFFFFFFFFFFFFFFFFFFFFFFFFFFFFFFFFFFFFFFFFFFFFFFFFFFFFFFFFFFFFFFFFFFFFFFF
102
{BLKREFS
331
2EA
102
}
  0
BLOCK_RECORD
  5
2E9
330
1
100
AcDbSymbolTableRecord
100
AcDbBlockTableRecord
  2
HD Logo
340
0
310
2800000020000000200000000100080000000000000400000000000000000000000000000000000000000000000080000080000000808000800000008000800080800000C0C0C000C0DCC000F0CAA6000020400000206000002080000020A0000020C0000020E00000400000004020000040400000406000004080000040A0
310
000040C0000040E00000600000006020000060400000606000006080000060A0000060C0000060E00000800000008020000080400000806000008080000080A0000080C0000080E00000A0000000A0200000A0400000A0600000A0800000A0A00000A0C00000A0E00000C0000000C0200000C0400000C0600000C0800000C0
310
A00000C0C00000C0E00000E0000000E0200000E0400000E0600000E0800000E0A00000E0C00000E0E00040000000400020004000400040006000400080004000A0004000C0004000E00040200000402020004020400040206000402080004020A0004020C0004020E000404000004040200040404000404060004040800040
310
40A0004040C0004040E00040600000406020004060400040606000406080004060A0004060C0004060E00040800000408020004080400040806000408080004080A0004080C0004080E00040A0000040A0200040A0400040A0600040A0800040A0A00040A0C00040A0E00040C0000040C0200040C0400040C0600040C08000
310
40C0A00040C0C00040C0E00040E0000040E0200040E0400040E0600040E0800040E0A00040E0C00040E0E00080000000800020008000400080006000800080008000A0008000C0008000E00080200000802020008020400080206000802080008020A0008020C0008020E00080400000804020008040400080406000804080
310
008040A0008040C0008040E00080600000806020008060400080606000806080008060A0008060C0008060E00080800000808020008080400080806000808080008080A0008080C0008080E00080A0000080A0200080A0400080A0600080A0800080A0A00080A0C00080A0E00080C0000080C0200080C0400080C0600080C0
310
800080C0A00080C0C00080C0E00080E0000080E0200080E0400080E0600080E0800080E0A00080E0C00080E0E000C0000000C0002000C0004000C0006000C0008000C000A000C000C000C000E000C0200000C0202000C0204000C0206000C0208000C020A000C020C000C020E000C0400000C0402000C0404000C0406000C0
310
408000C040A000C040C000C040E000C0600000C0602000C0604000C0606000C0608000C060A000C060C000C060E000C0800000C0802000C0804000C0806000C0808000C080A000C080C000C080E000C0A00000C0A02000C0A04000C0A06000C0A08000C0A0A000C0A0C000C0A0E000C0C00000C0C02000C0C04000C0C06000
310
C0C08000C0C0A000F0FBFF00A4A0A000808080000000FF0000FF000000FFFF00FF000000FF00FF00FFFF0000FFFFFF00FFFFFFFFFFFFFFFFFFFFFFFFFFFFFFFFFFFFFFFFFFFFFFFFFFFFFFFFFFFFFFFFFFFFFFFFFFFFFFFFFFFFFFFFFFFFFFFFFFFFFFFFFFFFFFFFFFFFFFFFFFFFFFFFFFFFFFFFFFFFFFFFFFFFFFFFFFFFFF
310
FFFFFFFFFFFFFFFFFFFFFFFFFFFFFFFFFFFFFFFFFFFFFFFFFFFFFFFFFFFFFFFFFFFFFFFFFFFFFFFFFFFFFFFFFFFFFFFFFFFFFFFFFFFFFFFFFFFFFFFFFFFFFFFFFFFFFFFFFFFFFFFFFFFFFFFFFFFFFFFFFFFFFFFFFFFFFFFFFFFFFFFFFFFFFFFFFFFFFFFFFFFFFFFFFFFFFFFFFFFFFFFFFFFFFFFFFFFFFFFFFFFFFFFFFFFFFF
310
FFFFFFFFFFFFFFFFFFFFFFFFFFFFFFFFFFFFFFFFFFFFFFFFFFFFFFFFFFFFFFFFFFFFFFFFFFFFFFFFFFFFFFFFFFFFFFFFFFFFFFFFFFFFFFFFFFFFFFFFFFFFFFFFFFFFFFFFFFFFFFFFFFFFFFFFFFFFFFFFFFFFFFFFFFFFFFFFFFFFFFFFFFFFFFFFFFFFFFFFFFFFFFFFFFFFFFFFFFFFFFFFFFFFFFFFFFFFFFFFFFFFFFFFFFFFFF
310
FFFFFFFFFFFFFFFFFFFFFFFFFFFFFFFFFFFFFFFFFFFFFFFFFFFFFFFFFFFFFFFFFFFFFFFFFFFFFFFFFFFFFFFFFFFFFFFFFFFFFFFF0000000000000000000000000000000000000000000000000000000000FFFFFF0000000000000000000000000000000000FFFFFFFFFFFFFFFFFFFF0000FFFFFF0000000000000000000000
310
00000000000000FFFFFFFFFFFFFFFFFFFF0000FFFF000000000000000000000000000000000000FFFFFF00000000FFFFFF0000FFFF00FFFFFFFFFFFF00FFFFFF00FFFFFFFFFF00FFFFFF0000000000FFFF0000FFFF00FFFFFFFFFFFF00FFFFFF00FFFFFFFFFF00FFFFFF00FFFF0000FFFF0000FFFF00FFFFFFFFFFFF00FFFF
310
00FFFFFFFFFFFF00FFFFFF00FFFF0000FFFF0000FFFF0000000000FFFF00000000FFFFFF00000000FFFFFF00000000FFFFFF0000FFFFFFFFFFFF00FFFFFFFFFFFFFFFFFF00FFFFFFFFFFFFFFFFFFFFFFFFFF0000FFFFFFFFFFFF00FFFFFFFFFFFFFFFFFF00FFFFFFFFFFFFFFFFFFFFFFFFFF0000FFFFFFFFFFFF00FFFFFFFF
310
FFFFFFFFFF00FFFFFFFFFFFFFFFFFFFFFFFF0000FFFFFF0000000000FFFF00000000FFFFFF0000000000000000000000000000FFFFFFFF00FFFFFFFFFFFF00FFFF00FFFFFFFFFFFF00FFFFFFFFFFFFFFFFFFFFFFFFFFFF00FFFFFFFFFFFF00FFFFFF00FFFFFFFFFF00FFFFFFFFFFFFFFFFFFFFFFFFFFFF0000000000000000
310
FFFFFF00000000000000FFFFFFFFFFFFFFFFFFFFFFFFFFFFFFFFFFFFFFFFFFFFFFFFFFFFFFFFFFFFFFFFFFFFFFFFFFFFFFFFFFFFFFFFFFFFFFFFFFFFFFFFFFFFFFFFFFFFFFFFFFFFFFFFFFFFFFFFFFFFFFFFFFFFFFFFFFFFFFFFFFFFFFFFFFFFFFFFFFFFFFFFFFFFFFFFFFFFFFFFFFFFFFFFFFFFFFFFFFFFFFFFFFFFFFFFFF
310
FFFFFFFFFFFFFFFFFFFFFFFFFFFFFFFFFFFFFFFFFFFFFFFFFFFFFFFFFFFFFFFFFFFFFFFFFFFFFFFFFFFFFFFFFFFFFFFFFFFFFFFFFFFFFFFF
102
{BLKREFS
331
2EF
331
2F3
102
}
  0
BLOCK_RECORD
  5
2F8
330
1
100
AcDbSymbolTableRecord
100
AcDbBlockTableRecord
  2
HD LLC
340
0
310
2800000020000000200000000100080000000000000400000000000000000000000000000000000000000000000080000080000000808000800000008000800080800000C0C0C000C0DCC000F0CAA6000020400000206000002080000020A0000020C0000020E00000400000004020000040400000406000004080000040A0
310
000040C0000040E00000600000006020000060400000606000006080000060A0000060C0000060E00000800000008020000080400000806000008080000080A0000080C0000080E00000A0000000A0200000A0400000A0600000A0800000A0A00000A0C00000A0E00000C0000000C0200000C0400000C0600000C0800000C0
310
A00000C0C00000C0E00000E0000000E0200000E0400000E0600000E0800000E0A00000E0C00000E0E00040000000400020004000400040006000400080004000A0004000C0004000E00040200000402020004020400040206000402080004020A0004020C0004020E000404000004040200040404000404060004040800040
310
40A0004040C0004040E00040600000406020004060400040606000406080004060A0004060C0004060E00040800000408020004080400040806000408080004080A0004080C0004080E00040A0000040A0200040A0400040A0600040A0800040A0A00040A0C00040A0E00040C0000040C0200040C0400040C0600040C08000
310
40C0A00040C0C00040C0E00040E0000040E0200040E0400040E0600040E0800040E0A00040E0C00040E0E00080000000800020008000400080006000800080008000A0008000C0008000E00080200000802020008020400080206000802080008020A0008020C0008020E00080400000804020008040400080406000804080
310
008040A0008040C0008040E00080600000806020008060400080606000806080008060A0008060C0008060E00080800000808020008080400080806000808080008080A0008080C0008080E00080A0000080A0200080A0400080A0600080A0800080A0A00080A0C00080A0E00080C0000080C0200080C0400080C0600080C0
310
800080C0A00080C0C00080C0E00080E0000080E0200080E0400080E0600080E0800080E0A00080E0C00080E0E000C0000000C0002000C0004000C0006000C0008000C000A000C000C000C000E000C0200000C0202000C0204000C0206000C0208000C020A000C020C000C020E000C0400000C0402000C0404000C0406000C0
310
408000C040A000C040C000C040E000C0600000C0602000C0604000C0606000C0608000C060A000C060C000C060E000C0800000C0802000C0804000C0806000C0808000C080A000C080C000C080E000C0A00000C0A02000C0A04000C0A06000C0A08000C0A0A000C0A0C000C0A0E000C0C00000C0C02000C0C04000C0C06000
310
C0C08000C0C0A000F0FBFF00A4A0A000808080000000FF0000FF000000FFFF00FF000000FF00FF00FFFF0000FFFFFF00FFFFFFFFFFFFFFFFFFFFFFFFFFFFFFFFFFFFFFFFFFFFFFFFFFFFFFFFFFFFFFFFFFFFFFFFFFFFFFFFFFFFFFFFFFFFFFFFFFFFFFFFFFFFFFFFFFFFFFFFFFFFFFFFFFFFFFFFFFFFFFFFFFFFFFFFFFFFFF
310
FFFFFFFFFFFFFFFFFFFFFFFFFFFFFFFFFFFFFFFFFFFFFFFFFFFFFFFFFFFFFFFFFFFFFFFFFFFFFFFFFFFFFFFFFFFFFFFFFFFFFFFFFFFFFFFFFFFFFFFFFFFFFFFFFFFFFFFFFFFFFFFFFFFFFFFFFFFFFFFFFFFFFFFFFFFFFFFFFFFFFFFFFFFFFFFFFFFFFFFFFFFFFFFFFFFFFFFFFFFFFFFFFFFFFFFFFFFFFFFFFFFFFFFFFFFFFF
310
FFFFFFFFFFFFFFFFFFFFFFFFFFFFFFFFFFFFFFFFFFFFFFFFFFFFFFFFFFFFFFFFFFFFFFFFFFFFFFFFFFFFFFFFFFFFFFFFFFFFFFFFFFFFFFFFFFFFFFFFFFFFFFFFFFFFFFFFFFFFFFFFFFFFFFFFFFFFFFFFFFFFFFFFFFFFFFFFFFFFFFFFFFFFFFFFFFFFFFFFFFFFFFFFFFFFFFFFFFFFFFFFFFFFFFFFFFFFFFFFFFFFFFFFFFFFFF
310
FFFFFFFFFFFFFFFFFFFFFFFFFFFFFFFFFFFFFFFFFFFFFFFFFFFFFFFFFFFFFFFFFFFFFFFFFFFFFFFFFFFFFFFFFFFFFFFFFFFFFFFFFFFFFFFFFFFFFFFFFFFFFFFFFFFFFFFFFFFFFFFFFFFFFFFFFFFFFFFFFFFFFFFFFFFFFFFFFFFFFFFFFFFFFFFFFFFFFFFFFFFFFFFFFFFFFFFFFFFFFFFFFFFFFFFFFFFFFFFFFFFFFFFFFFFF00
310
000000000000000000FFFFFFFFFFFFFFFFFFFFFFFFFFFFFFFFFFFFFFFFFFFF00000000000000000000FFFFFFFFFFFFFFFFFFFFFFFFFFFFFFFFFFFFFFFFFFFF00000000000000000000FFFFFFFFFFFFFFFFFFFFFFFFFFFFFFFFFFFFFFFFFFFF00000000000000000000FFFFFFFFFFFFFFFFFFFFFFFFFFFFFFFFFFFFFFFFFFFF
310
FFFFFFFFFFFFFFFFFFFFFFFFFFFFFFFFFFFFFFFFFFFFFFFFFFFFFFFFFFFFFFFFFFFFFFFFFFFFFFFFFFFFFFFFFFFFFFFFFFFFFFFFFFFFFFFFFFFFFFFFFFFFFFFFFFFFFFFFFFFFFFFFFFFFFFFFFFFFFFFFFFFFFFFFFFFFFFFFFFFFFFFFFFFFFFFFFFFFFFFFFFFFFFFFFFFFFFFFFFFFFFFFFFFFFFFFFFFFFFFFFFFFFFFFFFFFFF
310
FFFFFFFFFFFFFFFFFFFFFFFFFFFFFFFFFFFFFFFFFFFFFFFFFFFFFFFFFFFFFFFFFFFFFFFFFFFFFFFFFFFFFFFFFFFFFFFFFFFFFFFFFFFFFFFFFFFFFFFFFFFFFFFFFFFFFFFFFFFFFFFFFFFFFFFFFFFFFFFFFFFFFFFFFFFFFFFFFFFFFFFFFFFFFFFFFFFFFFFFFFFFFFFFFFFFFFFFFFFFFFFFFFFFFFFFFFFFFFFFFFFFFFFFFFFFFF
310
FFFFFFFFFFFFFFFFFFFFFFFFFFFFFFFFFFFFFFFFFFFFFFFFFFFFFFFFFFFFFFFFFFFFFFFFFFFFFFFFFFFFFFFFFFFFFFFFFFFFFFFFFFFFFFFFFFFFFFFFFFFFFFFFFFFFFFFFFFFFFFFFFFFFFFFFFFFFFFFFFFFFFFFFFFFFFFFFFFFFFFFFFFFFFFFFFFFFFFFFFFFFFFFFFFFFFFFFFFFFFFFFFFFFFFFFFFFFFFFFFFFFFFFFFFFFFF
310
FFFFFFFFFFFFFFFFFFFFFFFFFFFFFFFFFFFFFFFFFFFFFFFFFFFFFFFFFFFFFFFFFFFFFFFFFFFFFFFFFFFFFFFFFFFFFFFFFFFFFFFFFFFFFFFF
102
{BLKREFS
331
2FD
331
301
102
}
  0
ENDTAB
  0
ENDSEC
  0
SECTION
  2
BLOCKS
  0
BLOCK
  5
D
330
A
100
AcDbEntity
  8
0
100
AcDbBlockBegin
  2
*MODEL_SPACE
 70
     0
 10
0.0
 20
0.0
 30
0.0
  3
*MODEL_SPACE
  1

  0
ENDBLK
  5
E
330
A
100
AcDbEntity
  8
0
100
AcDbBlockEnd
  0
BLOCK
  5
F
330
B
100
AcDbEntity
 67
     1
  8
0
100
AcDbBlockBegin
  2
*PAPER_SPACE
 70
     0
 10
0.0
 20
0.0
 30
0.0
  3
*PAPER_SPACE
  1

  0
ENDBLK
  5
10
330
B
100
AcDbEntity
 67
     1
  8
0
100
AcDbBlockEnd
  0
BLOCK
  5
26
330
25
100
AcDbEntity
  8
0
100
AcDbBlockBegin
  2
HEX_BOLT_TOP__1
 70
     0
 10
0.0
 20
0.0
 30
0.0
  3
HEX_BOLT_TOP__1
  1

  0
CIRCLE
  5
46
330
25
100
AcDbEntity
  8
1
  6
Continuous
 62
     7
100
AcDbCircle
 10
-163.284585614912
 20
45.75000000000499
 30
0.0
 40
2.75
  0
CIRCLE
  5
45
330
25
100
AcDbEntity
  8
1
  6
Continuous
 62
     7
100
AcDbCircle
 10
-163.284585614912
 20
45.75000000000499
 30
0.0
 40
2.403589838485999
  0
LINE
  5
44
330
25
100
AcDbEntity
  8
1
  6
Continuous
 62
     7
100
AcDbLine
 10
-162.562897778425
 20
44.50000000000499
 30
0.0
 11
-161.841209941938
 21
45.75000000000499
 31
0.0
  0
LINE
  5
43
330
25
100
AcDbEntity
  8
1
  6
Continuous
 62
     7
100
AcDbLine
 10
-161.841209941938
 20
45.75000000000499
 30
0.0
 11
-162.562897778425
 21
47.00000000000499
 31
0.0
  0
LINE
  5
42
330
25
100
AcDbEntity
  8
1
  6
Continuous
 62
     7
100
AcDbLine
 10
-162.562897778425
 20
47.00000000000499
 30
0.0
 11
-164.006273451399
 21
47.00000000000499
 31
0.0
  0
LINE
  5
41
330
25
100
AcDbEntity
  8
1
  6
Continuous
 62
     7
100
AcDbLine
 10
-164.006273451399
 20
47.00000000000499
 30
0.0
 11
-164.727961287886
 21
45.75000000000499
 31
0.0
  0
LINE
  5
40
330
25
100
AcDbEntity
  8
1
  6
Continuous
 62
     7
100
AcDbLine
 10
-164.727961287886
 20
45.75000000000499
 30
0.0
 11
-164.006273451399
 21
44.50000000000499
 31
0.0
  0
LINE
  5
3F
330
25
100
AcDbEntity
  8
1
  6
Continuous
 62
     7
100
AcDbLine
 10
-164.006273451399
 20
44.50000000000499
 30
0.0
 11
-162.562897778425
 21
44.50000000000499
 31
0.0
  0
ENDBLK
  5
47
330
25
100
AcDbEntity
  8
0
100
AcDbBlockEnd
  0
BLOCK
  5
28
330
27
100
AcDbEntity
  8
0
100
AcDbBlockBegin
  2
HEX_BOLT_TOP__2
 70
     0
 10
0.0
 20
0.0
 30
0.0
  3
HEX_BOLT_TOP__2
  1

  0
CIRCLE
  5
4F
330
27
100
AcDbEntity
  8
1
  6
Continuous
 62
     7
100
AcDbCircle
 10
-117.5345856149119
 20
0.000000000005
 30
0.0
 40
2.75
  0
CIRCLE
  5
4E
330
27
100
AcDbEntity
  8
1
  6
Continuous
 62
     7
100
AcDbCircle
 10
-117.5345856149119
 20
0.000000000005
 30
0.0
 40
2.403589838485999
  0
LINE
  5
4D
330
27
100
AcDbEntity
  8
1
  6
Continuous
 62
     7
100
AcDbLine
 10
-118.7845856149118
 20
-0.7216878364820003
 30
0.0
 11
-117.5345856149119
 21
-1.443375672968999
 31
0.0
  0
LINE
  5
4C
330
27
100
AcDbEntity
  8
1
  6
Continuous
 62
     7
100
AcDbLine
 10
-117.5345856149119
 20
-1.443375672968999
 30
0.0
 11
-116.2845856149119
 21
-0.7216878364820003
 31
0.0
  0
LINE
  5
4B
330
27
100
AcDbEntity
  8
1
  6
Continuous
 62
     7
100
AcDbLine
 10
-116.2845856149119
 20
-0.7216878364820003
 30
0.0
 11
-116.2845856149119
 21
0.7216878364920003
 31
0.0
  0
LINE
  5
4A
330
27
100
AcDbEntity
  8
1
  6
Continuous
 62
     7
100
AcDbLine
 10
-116.2845856149119
 20
0.7216878364920003
 30
0.0
 11
-117.5345856149119
 21
1.443375672978999
 31
0.0
  0
LINE
  5
49
330
27
100
AcDbEntity
  8
1
  6
Continuous
 62
     7
100
AcDbLine
 10
-117.5345856149119
 20
1.443375672978999
 30
0.0
 11
-118.7845856149118
 21
0.7216878364920003
 31
0.0
  0
LINE
  5
48
330
27
100
AcDbEntity
  8
1
  6
Continuous
 62
     7
100
AcDbLine
 10
-118.7845856149118
 20
0.7216878364920003
 30
0.0
 11
-118.7845856149118
 21
-0.7216878364820003
 31
0.0
  0
ENDBLK
  5
50
330
27
100
AcDbEntity
  8
0
100
AcDbBlockEnd
  0
BLOCK
  5
2A
330
29
100
AcDbEntity
  8
0
100
AcDbBlockBegin
  2
HEX_BOLT_TOP__3
 70
     0
 10
0.0
 20
0.0
 30
0.0
  3
HEX_BOLT_TOP__3
  1

  0
CIRCLE
  5
58
330
29
100
AcDbEntity
  8
1
  6
Continuous
 62
     7
100
AcDbCircle
 10
-163.284585614912
 20
-45.74999999999501
 30
0.0
 40
2.75
  0
CIRCLE
  5
57
330
29
100
AcDbEntity
  8
1
  6
Continuous
 62
     7
100
AcDbCircle
 10
-163.284585614912
 20
-45.74999999999501
 30
0.0
 40
2.403589838485999
  0
LINE
  5
56
330
29
100
AcDbEntity
  8
1
  6
Continuous
 62
     7
100
AcDbLine
 10
-164.006273451399
 20
-44.49999999999501
 30
0.0
 11
-164.727961287886
 21
-45.74999999999501
 31
0.0
  0
LINE
  5
55
330
29
100
AcDbEntity
  8
1
  6
Continuous
 62
     7
100
AcDbLine
 10
-164.727961287886
 20
-45.74999999999501
 30
0.0
 11
-164.006273451399
 21
-46.99999999999501
 31
0.0
  0
LINE
  5
54
330
29
100
AcDbEntity
  8
1
  6
Continuous
 62
     7
100
AcDbLine
 10
-164.006273451399
 20
-46.99999999999501
 30
0.0
 11
-162.562897778425
 21
-46.99999999999501
 31
0.0
  0
LINE
  5
53
330
29
100
AcDbEntity
  8
1
  6
Continuous
 62
     7
100
AcDbLine
 10
-162.562897778425
 20
-46.99999999999501
 30
0.0
 11
-161.841209941938
 21
-45.74999999999501
 31
0.0
  0
LINE
  5
52
330
29
100
AcDbEntity
  8
1
  6
Continuous
 62
     7
100
AcDbLine
 10
-161.841209941938
 20
-45.74999999999501
 30
0.0
 11
-162.562897778425
 21
-44.49999999999501
 31
0.0
  0
LINE
  5
51
330
29
100
AcDbEntity
  8
1
  6
Continuous
 62
     7
100
AcDbLine
 10
-162.562897778425
 20
-44.49999999999501
 30
0.0
 11
-164.006273451399
 21
-44.49999999999501
 31
0.0
  0
ENDBLK
  5
59
330
29
100
AcDbEntity
  8
0
100
AcDbBlockEnd
  0
BLOCK
  5
2C
330
2B
100
AcDbEntity
  8
0
100
AcDbBlockBegin
  2
HEX_BOLT_TOP__4
 70
     0
 10
0.0
 20
0.0
 30
0.0
  3
HEX_BOLT_TOP__4
  1

  0
CIRCLE
  5
61
330
2B
100
AcDbEntity
  8
1
  6
Continuous
 62
     7
100
AcDbCircle
 10
-130.9344503756278
 20
32.35013523929
 30
0.0
 40
2.403589838485999
  0
CIRCLE
  5
60
330
2B
100
AcDbEntity
  8
1
  6
Continuous
 62
     7
100
AcDbCircle
 10
-130.9344503756278
 20
32.35013523929
 30
0.0
 40
2.75
  0
LINE
  5
5F
330
2B
100
AcDbEntity
  8
1
  6
Continuous
 62
     7
100
AcDbLine
 10
-132.3286442151909
 20
31.976562125887
 30
0.0
 11
-131.308023489031
 21
30.955941399727
 31
0.0
  0
LINE
  5
5E
330
2B
100
AcDbEntity
  8
1
  6
Continuous
 62
     7
100
AcDbLine
 10
-131.9550711017869
 20
33.37075596545
 30
0.0
 11
-132.3286442151909
 21
31.976562125887
 31
0.0
  0
LINE
  5
5D
330
2B
100
AcDbEntity
  8
1
  6
Continuous
 62
     7
100
AcDbLine
 10
-130.560877262224
 20
33.74432907885298
 30
0.0
 11
-131.9550711017869
 21
33.37075596545
 31
0.0
  0
LINE
  5
5C
330
2B
100
AcDbEntity
  8
1
  6
Continuous
 62
     7
100
AcDbLine
 10
-129.540256536065
 20
32.723708352693
 30
0.0
 11
-130.560877262224
 21
33.74432907885298
 31
0.0
  0
LINE
  5
5B
330
2B
100
AcDbEntity
  8
1
  6
Continuous
 62
     7
100
AcDbLine
 10
-129.913829649468
 20
31.32951451312998
 30
0.0
 11
-129.540256536065
 21
32.723708352693
 31
0.0
  0
LINE
  5
5A
330
2B
100
AcDbEntity
  8
1
  6
Continuous
 62
     7
100
AcDbLine
 10
-131.308023489031
 20
30.955941399727
 30
0.0
 11
-129.913829649468
 21
31.32951451312998
 31
0.0
  0
ENDBLK
  5
62
330
2B
100
AcDbEntity
  8
0
100
AcDbBlockEnd
  0
BLOCK
  5
2E
330
2D
100
AcDbEntity
  8
0
100
AcDbBlockBegin
  2
HEX_BOLT_TOP__5
 70
     0
 10
0.0
 20
0.0
 30
0.0
  3
HEX_BOLT_TOP__5
  1

  0
CIRCLE
  5
6A
330
2D
100
AcDbEntity
  8
1
  6
Continuous
 62
     7
100
AcDbCircle
 10
-130.9344503756278
 20
-32.350135239279
 30
0.0
 40
2.403589838485999
  0
CIRCLE
  5
69
330
2D
100
AcDbEntity
  8
1
  6
Continuous
 62
     7
100
AcDbCircle
 10
-130.9344503756278
 20
-32.350135239279
 30
0.0
 40
2.75
  0
LINE
  5
68
330
2D
100
AcDbEntity
  8
1
  6
Continuous
 62
     7
100
AcDbLine
 10
-131.308023489031
 20
-30.955941399716
 30
0.0
 11
-132.3286442151909
 21
-31.976562125876
 31
0.0
  0
LINE
  5
67
330
2D
100
AcDbEntity
  8
1
  6
Continuous
 62
     7
100
AcDbLine
 10
-129.913829649468
 20
-31.32951451312
 30
0.0
 11
-131.308023489031
 21
-30.955941399716
 31
0.0
  0
LINE
  5
66
330
2D
100
AcDbEntity
  8
1
  6
Continuous
 62
     7
100
AcDbLine
 10
-129.540256536065
 20
-32.72370835268199
 30
0.0
 11
-129.913829649468
 21
-31.32951451312
 31
0.0
  0
LINE
  5
65
330
2D
100
AcDbEntity
  8
1
  6
Continuous
 62
     7
100
AcDbLine
 10
-130.560877262224
 20
-33.744329078842
 30
0.0
 11
-129.540256536065
 21
-32.72370835268199
 31
0.0
  0
LINE
  5
64
330
2D
100
AcDbEntity
  8
1
  6
Continuous
 62
     7
100
AcDbLine
 10
-131.9550711017869
 20
-33.370755965439
 30
0.0
 11
-130.560877262224
 21
-33.744329078842
 31
0.0
  0
LINE
  5
63
330
2D
100
AcDbEntity
  8
1
  6
Continuous
 62
     7
100
AcDbLine
 10
-132.3286442151909
 20
-31.976562125876
 30
0.0
 11
-131.9550711017869
 21
-33.370755965439
 31
0.0
  0
ENDBLK
  5
6B
330
2D
100
AcDbEntity
  8
0
100
AcDbBlockEnd
  0
BLOCK
  5
30
330
2F
100
AcDbEntity
  8
0
100
AcDbBlockBegin
  2
HEX_BOLT_TOP__6
 70
     0
 10
0.0
 20
0.0
 30
0.0
  3
HEX_BOLT_TOP__6
  1

  0
CIRCLE
  5
73
330
2F
100
AcDbEntity
  8
1
  6
Continuous
 62
     7
100
AcDbCircle
 10
-195.634720854197
 20
-32.350135239279
 30
0.0
 40
2.403589838485999
  0
CIRCLE
  5
72
330
2F
100
AcDbEntity
  8
1
  6
Continuous
 62
     7
100
AcDbCircle
 10
-195.634720854197
 20
-32.350135239279
 30
0.0
 40
2.75
  0
LINE
  5
71
330
2F
100
AcDbEntity
  8
1
  6
Continuous
 62
     7
100
AcDbLine
 10
-194.240527014634
 20
-31.976562125876
 30
0.0
 11
-195.261147740793
 21
-30.955941399716
 31
0.0
  0
LINE
  5
70
330
2F
100
AcDbEntity
  8
1
  6
Continuous
 62
     7
100
AcDbLine
 10
-194.614100128037
 20
-33.370755965439
 30
0.0
 11
-194.240527014634
 21
-31.976562125876
 31
0.0
  0
LINE
  5
6F
330
2F
100
AcDbEntity
  8
1
  6
Continuous
 62
     7
100
AcDbLine
 10
-196.0082939676
 20
-33.744329078842
 30
0.0
 11
-194.614100128037
 21
-33.370755965439
 31
0.0
  0
LINE
  5
6E
330
2F
100
AcDbEntity
  8
1
  6
Continuous
 62
     7
100
AcDbLine
 10
-197.0289146937599
 20
-32.72370835268199
 30
0.0
 11
-196.0082939676
 21
-33.744329078842
 31
0.0
  0
LINE
  5
6D
330
2F
100
AcDbEntity
  8
1
  6
Continuous
 62
     7
100
AcDbLine
 10
-196.6553415803559
 20
-31.32951451312
 30
0.0
 11
-197.0289146937599
 21
-32.72370835268199
 31
0.0
  0
LINE
  5
6C
330
2F
100
AcDbEntity
  8
1
  6
Continuous
 62
     7
100
AcDbLine
 10
-195.261147740793
 20
-30.955941399716
 30
0.0
 11
-196.6553415803559
 21
-31.32951451312
 31
0.0
  0
ENDBLK
  5
74
330
2F
100
AcDbEntity
  8
0
100
AcDbBlockEnd
  0
BLOCK
  5
32
330
31
100
AcDbEntity
  8
0
100
AcDbBlockBegin
  2
HEX_BOLT_TOP__7
 70
     0
 10
0.0
 20
0.0
 30
0.0
  3
HEX_BOLT_TOP__7
  1

  0
CIRCLE
  5
7C
330
31
100
AcDbEntity
  8
1
  6
Continuous
 62
     7
100
AcDbCircle
 10
-209.034585614912
 20
0.000000000005
 30
0.0
 40
2.403589838485999
  0
CIRCLE
  5
7B
330
31
100
AcDbEntity
  8
1
  6
Continuous
 62
     7
100
AcDbCircle
 10
-209.034585614912
 20
0.000000000005
 30
0.0
 40
2.75
  0
LINE
  5
7A
330
31
100
AcDbEntity
  8
1
  6
Continuous
 62
     7
100
AcDbLine
 10
-207.7845856149119
 20
-0.7216878364810002
 30
0.0
 11
-207.7845856149119
 21
0.7216878364920003
 31
0.0
  0
LINE
  5
79
330
31
100
AcDbEntity
  8
1
  6
Continuous
 62
     7
100
AcDbLine
 10
-209.034585614912
 20
-1.443375672968999
 30
0.0
 11
-207.7845856149119
 21
-0.7216878364810002
 31
0.0
  0
LINE
  5
78
330
31
100
AcDbEntity
  8
1
  6
Continuous
 62
     7
100
AcDbLine
 10
-210.2845856149119
 20
-0.7216878364810002
 30
0.0
 11
-209.034585614912
 21
-1.443375672968999
 31
0.0
  0
LINE
  5
77
330
31
100
AcDbEntity
  8
1
  6
Continuous
 62
     7
100
AcDbLine
 10
-210.2845856149119
 20
0.7216878364920003
 30
0.0
 11
-210.2845856149119
 21
-0.7216878364810002
 31
0.0
  0
LINE
  5
76
330
31
100
AcDbEntity
  8
1
  6
Continuous
 62
     7
100
AcDbLine
 10
-209.034585614912
 20
1.443375672979998
 30
0.0
 11
-210.2845856149119
 21
0.7216878364920003
 31
0.0
  0
LINE
  5
75
330
31
100
AcDbEntity
  8
1
  6
Continuous
 62
     7
100
AcDbLine
 10
-207.7845856149119
 20
0.7216878364920003
 30
0.0
 11
-209.034585614912
 21
1.443375672979998
 31
0.0
  0
ENDBLK
  5
7D
330
31
100
AcDbEntity
  8
0
100
AcDbBlockEnd
  0
BLOCK
  5
34
330
33
100
AcDbEntity
  8
0
100
AcDbBlockBegin
  2
HEX_BOLT_TOP__8
 70
     0
 10
0.0
 20
0.0
 30
0.0
  3
HEX_BOLT_TOP__8
  1

  0
CIRCLE
  5
85
330
33
100
AcDbEntity
  8
1
  6
Continuous
 62
     7
100
AcDbCircle
 10
-195.634720854197
 20
32.35013523929
 30
0.0
 40
2.75
  0
CIRCLE
  5
84
330
33
100
AcDbEntity
  8
1
  6
Continuous
 62
     7
100
AcDbCircle
 10
-195.634720854197
 20
32.35013523929
 30
0.0
 40
2.403589838485999
  0
LINE
  5
83
330
33
100
AcDbEntity
  8
1
  6
Continuous
 62
     7
100
AcDbLine
 10
-194.240527014634
 20
31.976562125887
 30
0.0
 11
-194.614100128037
 21
33.37075596545
 31
0.0
  0
LINE
  5
82
330
33
100
AcDbEntity
  8
1
  6
Continuous
 62
     7
100
AcDbLine
 10
-194.614100128037
 20
33.37075596545
 30
0.0
 11
-196.0082939676
 21
33.74432907885298
 31
0.0
  0
LINE
  5
81
330
33
100
AcDbEntity
  8
1
  6
Continuous
 62
     7
100
AcDbLine
 10
-196.0082939676
 20
33.74432907885298
 30
0.0
 11
-197.0289146937599
 21
32.723708352693
 31
0.0
  0
LINE
  5
80
330
33
100
AcDbEntity
  8
1
  6
Continuous
 62
     7
100
AcDbLine
 10
-197.0289146937599
 20
32.723708352693
 30
0.0
 11
-196.6553415803559
 21
31.32951451312998
 31
0.0
  0
LINE
  5
7F
330
33
100
AcDbEntity
  8
1
  6
Continuous
 62
     7
100
AcDbLine
 10
-196.6553415803559
 20
31.32951451312998
 30
0.0
 11
-195.261147740793
 21
30.955941399727
 31
0.0
  0
LINE
  5
7E
330
33
100
AcDbEntity
  8
1
  6
Continuous
 62
     7
100
AcDbLine
 10
-195.261147740793
 20
30.955941399727
 30
0.0
 11
-194.240527014634
 21
31.976562125887
 31
0.0
  0
ENDBLK
  5
86
330
33
100
AcDbEntity
  8
0
100
AcDbBlockEnd
  0
BLOCK
  5
278
330
275
100
AcDbEntity
  8
0
100
AcDbBlockBegin
  2
NTC
 70
     0
 10
0.0
 20
0.0
 30
0.0
  3
NTC
  1

  0
LWPOLYLINE
  5
276
330
275
100
AcDbEntity
  8
0
100
AcDbPolyline
 90
        8
 70
     1
 43
0.0
 10
4.581008201925953
 20
-10.78862239032818
 10
319.3921777697513
 20
-10.78862239032818
 42
-0.4142135623730951
 10
324.9046777697513
 20
-16.30112239032816
 10
324.9046777697513
 20
-117.4075202476924
 42
-0.4142135623730951
 10
319.3921777697513
 20
-122.9200202476925
 10
4.581008201925837
 20
-122.9200202476925
 42
-0.4142135623730951
 10
-0.9314917980741483
 20
-117.4075202476924
 10
-0.9314917980740915
 20
-16.30112239032816
 42
-0.4142135623730951
  0
MTEXT
  5
277
330
275
100
AcDbEntity
  8
0
  6
Continuous
370
    30
100
AcDbMText
 10
21.65307678143926
 20
-17.4535155144544
 30
0.0
 40
8.75
 41
294.5432999999998
 71
     1
 72
     5
  3
{\fTxt|b1|i0|c0|p2;Notice:\P\Ftxt.shx;\H0.5714x;All specifications and dimensions shown in the drawing are subject to change without notice. This drawing is the property of Harmonic Drive LLC.   This data is believed to be accurate, however, Harmonic
  1
 Drive LLC assumes no liability for any errors or omissions in the specifications, models, or drawings.\P\PHarmonic Drive LLC\PTel: 800-921-3332\Pwww.harmonicdrive.net}
 73
     1
 44
1.0
  0
ENDBLK
  5
279
330
275
100
AcDbEntity
  8
0
100
AcDbBlockEnd
  0
BLOCK
  5
284
330
281
100
AcDbEntity
  8
0
 62
     7
100
AcDbBlockBegin
  2
AI9-BLK14
 70
     0
 10
0.0
 20
0.0
 30
0.0
  3
AI9-BLK14
  1

  0
SPLINE
  5
282
330
281
100
AcDbEntity
  8
LAYER_1
 62
     7
100
AcDbSpline
210
0.0
220
0.0
230
1.0
 70
    11
 71
     3
 72
    23
 73
    19
 74
     0
 42
0.0000000001
 43
0.0000000001
 40
0.0
 40
0.0
 40
0.0
 40
0.0
 40
1.0
 40
1.0
 40
1.0
 40
2.0
 40
2.0
 40
2.0
 40
3.0
 40
3.0
 40
3.0
 40
4.0
 40
4.0
 40
4.0
 40
5.0
 40
5.0
 40
5.0
 40
6.0
 40
6.0
 40
6.0
 40
6.0
 10
-10.90321044921874
 20
10.88107571072048
 30
0.0
 10
-10.90321044921874
 20
10.88107571072048
 30
0.0
 10
-10.90321044921874
 20
-10.88107571072048
 30
0.0
 10
-10.90321044921874
 20
-10.88107571072048
 30
0.0
 10
-10.90321044921874
 20
-10.88107571072048
 30
0.0
 10
1.752692328559025
 20
-10.88107571072048
 30
0.0
 10
1.752692328559025
 20
-10.88107571072048
 30
0.0
 10
3.280592176649305
 20
-10.88107571072048
 30
0.0
 10
10.90321044921874
 20
-10.32383151584201
 30
0.0
 10
10.90321044921874
 20
0.6792867024739583
 30
0.0
 10
10.90321044921874
 20
10.61700914171006
 30
0.0
 10
2.773129611545138
 20
10.87952541775172
 30
0.0
 10
2.691136338975693
 20
10.88090345594618
 30
0.0
 10
2.691136338975693
 20
10.88090345594618
 30
0.0
 10
-9.903099229600693
 20
10.88107571072048
 30
0.0
 10
-9.903099229600693
 20
10.88107571072048
 30
0.0
 10
-9.903099229600693
 20
10.88107571072048
 30
0.0
 10
-10.90321044921874
 20
10.88107571072048
 30
0.0
 10
-10.90321044921874
 20
10.88107571072048
 30
0.0
  0
SPLINE
  5
283
330
281
100
AcDbEntity
  8
LAYER_1
 62
     7
100
AcDbSpline
210
0.0
220
0.0
230
1.0
 70
    11
 71
     3
 72
    20
 73
    16
 74
     0
 42
0.0000000001
 43
0.0000000001
 40
0.0
 40
0.0
 40
0.0
 40
0.0
 40
1.0
 40
1.0
 40
1.0
 40
2.0
 40
2.0
 40
2.0
 40
3.0
 40
3.0
 40
3.0
 40
4.0
 40
4.0
 40
4.0
 40
5.0
 40
5.0
 40
5.0
 40
5.0
 10
2.672877332899305
 20
8.881197781032986
 30
0.0
 10
2.905421278211805
 20
8.874307590060762
 30
0.0
 10
8.902988009982637
 20
8.616442192925347
 30
0.0
 10
8.902988009982637
 20
0.6792867024739583
 30
0.0
 10
8.902988009982637
 20
-8.191661919487842
 30
0.0
 10
3.430109320746526
 20
-8.881197781032986
 30
0.0
 10
1.752692328559025
 20
-8.881197781032986
 30
0.0
 10
1.752692328559025
 20
-8.881197781032986
 30
0.0
 10
-7.231427680121528
 20
-8.881197781032986
 30
0.0
 10
-8.902988009982637
 20
-8.881197781032986
 30
0.0
 10
-8.902988009982637
 20
-7.174497477213541
 30
0.0
 10
-8.902988009982637
 20
7.174497477213541
 30
0.0
 10
-8.902988009982637
 20
8.881197781032986
 30
0.0
 10
-7.208690049913191
 20
8.881197781032986
 30
0.0
 10
2.672877332899305
 20
8.881197781032986
 30
0.0
 10
2.672877332899305
 20
8.881197781032986
 30
0.0
  0
ENDBLK
  5
285
330
281
100
AcDbEntity
  8
0
100
AcDbBlockEnd
  0
BLOCK
  5
289
330
286
100
AcDbEntity
  8
0
 62
     7
100
AcDbBlockBegin
  2
AI9-BLK13
 70
     0
 10
0.0
 20
0.0
 30
0.0
  3
AI9-BLK13
  1

  0
LWPOLYLINE
  5
287
330
286
100
AcDbEntity
  8
LAYER_1
 62
     7
100
AcDbPolyline
 90
       12
 70
     1
 43
0.0
 10
-3.792361111111107
 20
10.7376736111111
 10
-2.469444444444443
 20
10.7376736111111
 10
-2.469444444444443
 20
1.874131944444444
 10
2.469444444444443
 20
1.874131944444444
 10
2.469444444444443
 20
10.7376736111111
 10
3.792361111111107
 20
10.7376736111111
 10
3.792361111111107
 20
-10.7376736111111
 10
2.469444444444443
 20
-10.7376736111111
 10
2.469444444444443
 20
-0.6835069444444444
 10
-2.469444444444443
 20
-0.6835069444444444
 10
-2.469444444444443
 20
-10.7376736111111
 10
-3.792361111111107
 20
-10.7376736111111
  0
HATCH
  5
288
330
286
100
AcDbEntity
  8
LAYER_1
 62
     7
100
AcDbHatch
 10
0.0
 20
0.0
 30
0.0
210
0.0
220
0.0
230
1.0
  2
SOLID
 70
     1
 71
     0
 91
        1
 92
        3
 72
     0
 73
     1
 93
       12
 10
-3.792361111111107
 20
10.7376736111111
 10
-2.469444444444443
 20
10.7376736111111
 10
-2.469444444444443
 20
1.874131944444444
 10
2.469444444444443
 20
1.874131944444444
 10
2.469444444444443
 20
10.7376736111111
 10
3.792361111111107
 20
10.7376736111111
 10
3.792361111111107
 20
-10.7376736111111
 10
2.469444444444443
 20
-10.7376736111111
 10
2.469444444444443
 20
-0.6835069444444444
 10
-2.469444444444443
 20
-0.6835069444444444
 10
-2.469444444444443
 20
-10.7376736111111
 10
-3.792361111111107
 20
-10.7376736111111
 97
        0
 75
     2
 76
     1
 98
        1
 10
0.0
 20
0.0
  0
ENDBLK
  5
28A
330
286
100
AcDbEntity
  8
0
100
AcDbBlockEnd
  0
BLOCK
  5
28E
330
28B
100
AcDbEntity
  8
0
 62
     7
100
AcDbBlockBegin
  2
AI9-BLK11
 70
     0
 10
0.0
 20
0.0
 30
0.0
  3
AI9-BLK11
  1

  0
SPLINE
  5
28C
330
28B
100
AcDbEntity
  8
LAYER_1
 62
     7
100
AcDbSpline
210
0.0
220
0.0
230
1.0
 70
    11
 71
     3
 72
    26
 73
    22
 74
     0
 42
0.0000000001
 43
0.0000000001
 40
0.0
 40
0.0
 40
0.0
 40
0.0
 40
1.0
 40
1.0
 40
1.0
 40
2.0
 40
2.0
 40
2.0
 40
3.0
 40
3.0
 40
3.0
 40
4.0
 40
4.0
 40
4.0
 40
5.0
 40
5.0
 40
5.0
 40
6.0
 40
6.0
 40
6.0
 40
7.0
 40
7.0
 40
7.0
 40
7.0
 10
-2.645833333333333
 20
0.9039930555555551
 30
0.0
 10
-2.645833333333333
 20
0.9039930555555551
 30
0.0
 10
-2.645833333333333
 20
8.180034722222217
 30
0.0
 10
-2.645833333333333
 20
8.180034722222217
 30
0.0
 10
-2.645833333333333
 20
8.180034722222217
 30
0.0
 10
0.465087890625
 20
8.180034722222217
 30
0.0
 10
0.465087890625
 20
8.180034722222217
 30
0.0
 10
0.9026150173611108
 20
8.180034722222217
 30
0.0
 10
1.24988064236111
 20
8.034651692708331
 30
0.0
 10
1.506884765625
 20
7.745263671874997
 30
0.0
 10
2.001600477430554
 20
7.194048394097221
 30
0.0
 10
2.248958333333332
 20
6.160519748263887
 30
0.0
 10
2.248958333333332
 20
4.643299696180553
 30
0.0
 10
2.248958333333332
 20
3.232188585069443
 30
0.0
 10
2.072569444444444
 20
2.256537543402775
 30
0.0
 10
1.720480685763888
 20
1.715657552083333
 30
0.0
 10
1.368391927083333
 20
1.174088541666665
 30
0.0
 10
0.8929687499999998
 20
0.9039930555555551
 30
0.0
 10
0.2942111545138888
 20
0.9039930555555551
 30
0.0
 10
0.2942111545138888
 20
0.9039930555555551
 30
0.0
 10
-2.645833333333333
 20
0.9039930555555551
 30
0.0
 10
-2.645833333333333
 20
0.9039930555555551
 30
0.0
  0
SPLINE
  5
28D
330
28B
100
AcDbEntity
  8
LAYER_1
 62
     7
100
AcDbSpline
210
0.0
220
0.0
230
1.0
 70
    11
 71
     3
 72
    68
 73
    64
 74
     0
 42
0.0000000001
 43
0.0000000001
 40
0.0
 40
0.0
 40
0.0
 40
0.0
 40
1.0
 40
1.0
 40
1.0
 40
2.0
 40
2.0
 40
2.0
 40
3.0
 40
3.0
 40
3.0
 40
4.0
 40
4.0
 40
4.0
 40
5.0
 40
5.0
 40
5.0
 40
6.0
 40
6.0
 40
6.0
 40
7.0
 40
7.0
 40
7.0
 40
8.0
 40
8.0
 40
8.0
 40
9.0
 40
9.0
 40
9.0
 40
10.0
 40
10.0
 40
10.0
 40
11.0
 40
11.0
 40
11.0
 40
12.0
 40
12.0
 40
12.0
 40
13.0
 40
13.0
 40
13.0
 40
14.0
 40
14.0
 40
14.0
 40
15.0
 40
15.0
 40
15.0
 40
16.0
 40
16.0
 40
16.0
 40
17.0
 40
17.0
 40
17.0
 40
18.0
 40
18.0
 40
18.0
 40
19.0
 40
19.0
 40
19.0
 40
20.0
 40
20.0
 40
20.0
 40
21.0
 40
21.0
 40
21.0
 40
21.0
 10
-3.968749999999998
 20
-10.7376736111111
 30
0.0
 10
-3.968749999999998
 20
-10.7376736111111
 30
0.0
 10
-2.645833333333333
 20
-10.7376736111111
 30
0.0
 10
-2.645833333333333
 20
-10.7376736111111
 30
0.0
 10
-2.645833333333333
 20
-10.7376736111111
 30
0.0
 10
-2.645833333333333
 20
-1.521354166666665
 30
0.0
 10
-2.645833333333333
 20
-1.521354166666665
 30
0.0
 10
-2.645833333333333
 20
-1.521354166666665
 30
0.0
 10
0.2390896267361111
 20
-1.521354166666665
 30
0.0
 10
0.2390896267361111
 20
-1.521354166666665
 30
0.0
 10
0.7599880642361111
 20
-1.521354166666665
 30
0.0
 10
1.143771701388887
 20
-1.65295681423611
 30
0.0
 10
1.390440538194444
 20
-1.916162109374999
 30
0.0
 10
1.816254340277774
 20
-2.39434136284722
 30
0.0
 10
2.04363064236111
 20
-3.335541449652775
 30
0.0
 10
2.072569444444444
 20
-4.739762369791666
 30
0.0
 10
2.072569444444444
 20
-4.739762369791666
 30
0.0
 10
2.160763888888888
 20
-8.324039713541665
 30
0.0
 10
2.160763888888888
 20
-8.324039713541665
 30
0.0
 10
2.18005642361111
 20
-9.163264973958332
 30
0.0
 10
2.202794053819443
 20
-9.728949652777775
 30
0.0
 10
2.227598741319444
 20
-10.02109374999998
 30
0.0
 10
2.252403428819443
 20
-10.31392686631944
 30
0.0
 10
2.28892144097222
 20
-10.55301649305555
 30
0.0
 10
2.33853081597222
 20
-10.7376736111111
 30
0.0
 10
2.33853081597222
 20
-10.7376736111111
 30
0.0
 10
3.968749999999998
 20
-10.7376736111111
 30
0.0
 10
3.968749999999998
 20
-10.7376736111111
 30
0.0
 10
3.968749999999998
 20
-10.7376736111111
 30
0.0
 10
3.968749999999998
 20
-10.25260416666666
 30
0.0
 10
3.968749999999998
 20
-10.25260416666666
 30
0.0
 10
3.766867404513888
 20
-10.05830078125
 30
0.0
 10
3.625618489583333
 20
-9.621462673611112
 30
0.0
 10
3.545692274305555
 20
-8.942089843749997
 30
0.0
 10
3.49470486111111
 20
-8.543836805555555
 30
0.0
 10
3.459564887152775
 20
-7.937499999999999
 30
0.0
 10
3.439583333333333
 20
-7.121701388888887
 30
0.0
 10
3.439583333333333
 20
-7.121701388888887
 30
0.0
 10
3.395486111111107
 20
-4.232644314236107
 30
0.0
 10
3.395486111111107
 20
-4.232644314236107
 30
0.0
 10
3.375504557291666
 20
-2.981385633680555
 30
0.0
 10
3.26870659722222
 20
-2.077392578125
 30
0.0
 10
3.075781249999999
 20
-1.522043185763888
 30
0.0
 10
2.882166883680555
 20
-0.9666937934027776
 30
0.0
 10
2.592089843749999
 20
-0.5188313802083333
 30
0.0
 10
2.204861111111107
 20
-0.1770779079861111
 30
0.0
 10
2.63618706597222
 20
0.3197048611111111
 30
0.0
 10
2.971739366319443
 20
0.9770290798611107
 30
0.0
 10
3.211518012152775
 20
1.79558376736111
 30
0.0
 10
3.451296657986107
 20
2.613449435763888
 30
0.0
 10
3.571874999999999
 20
3.66558159722222
 30
0.0
 10
3.571874999999999
 20
4.951291232638888
 30
0.0
 10
3.571874999999999
 20
7.415912543402777
 30
0.0
 10
3.124701605902775
 20
9.106076388888887
 30
0.0
 10
2.231043836805555
 20
10.02178276909722
 30
0.0
 10
1.759754774305553
 20
10.498583984375
 30
0.0
 10
1.163753255208332
 20
10.7376736111111
 30
0.0
 10
0.443039279513889
 20
10.7376736111111
 30
0.0
 10
0.443039279513889
 20
10.7376736111111
 30
0.0
 10
-3.968749999999998
 20
10.7376736111111
 30
0.0
 10
-3.968749999999998
 20
10.7376736111111
 30
0.0
 10
-3.968749999999998
 20
10.7376736111111
 30
0.0
 10
-3.968749999999998
 20
-10.7376736111111
 30
0.0
 10
-3.968749999999998
 20
-10.7376736111111
 30
0.0
  0
ENDBLK
  5
28F
330
28B
100
AcDbEntity
  8
0
100
AcDbBlockEnd
  0
BLOCK
  5
292
330
290
100
AcDbEntity
  8
0
 62
     7
100
AcDbBlockBegin
  2
AI9-BLK10
 70
     0
 10
0.0
 20
0.0
 30
0.0
  3
AI9-BLK10
  1

  0
SPLINE
  5
291
330
290
100
AcDbEntity
  8
LAYER_1
 62
     7
100
AcDbSpline
210
0.0
220
0.0
230
1.0
 70
    11
 71
     3
 72
    59
 73
    55
 74
     0
 42
0.0000000001
 43
0.0000000001
 40
0.0
 40
0.0
 40
0.0
 40
0.0
 40
1.0
 40
1.0
 40
1.0
 40
2.0
 40
2.0
 40
2.0
 40
3.0
 40
3.0
 40
3.0
 40
4.0
 40
4.0
 40
4.0
 40
5.0
 40
5.0
 40
5.0
 40
6.0
 40
6.0
 40
6.0
 40
7.0
 40
7.0
 40
7.0
 40
8.0
 40
8.0
 40
8.0
 40
9.0
 40
9.0
 40
9.0
 40
10.0
 40
10.0
 40
10.0
 40
11.0
 40
11.0
 40
11.0
 40
12.0
 40
12.0
 40
12.0
 40
13.0
 40
13.0
 40
13.0
 40
14.0
 40
14.0
 40
14.0
 40
15.0
 40
15.0
 40
15.0
 40
16.0
 40
16.0
 40
16.0
 40
17.0
 40
17.0
 40
17.0
 40
18.0
 40
18.0
 40
18.0
 40
18.0
 10
-4.652256944444443
 20
10.7376736111111
 30
0.0
 10
-4.652256944444443
 20
10.7376736111111
 30
0.0
 10
-2.798795572916666
 20
10.7376736111111
 30
0.0
 10
-2.798795572916666
 20
10.7376736111111
 30
0.0
 10
-2.798795572916666
 20
10.7376736111111
 30
0.0
 10
0.0
 20
-7.419357638888887
 30
0.0
 10
0.0
 20
-7.419357638888887
 30
0.0
 10
0.0
 20
-7.419357638888887
 30
0.0
 10
2.793283420138888
 20
10.7376736111111
 30
0.0
 10
2.793283420138888
 20
10.7376736111111
 30
0.0
 10
2.793283420138888
 20
10.7376736111111
 30
0.0
 10
4.652256944444443
 20
10.7376736111111
 30
0.0
 10
4.652256944444443
 20
10.7376736111111
 30
0.0
 10
4.652256944444443
 20
10.7376736111111
 30
0.0
 10
4.652256944444443
 20
-10.7376736111111
 30
0.0
 10
4.652256944444443
 20
-10.7376736111111
 30
0.0
 10
4.652256944444443
 20
-10.7376736111111
 30
0.0
 10
3.41753472222222
 20
-10.7376736111111
 30
0.0
 10
3.41753472222222
 20
-10.7376736111111
 30
0.0
 10
3.41753472222222
 20
-10.7376736111111
 30
0.0
 10
3.41753472222222
 20
1.936832682291665
 30
0.0
 10
3.41753472222222
 20
1.936832682291665
 30
0.0
 10
3.41753472222222
 20
2.375048828124999
 30
0.0
 10
3.424424913194443
 20
3.101274956597221
 30
0.0
 10
3.439583333333333
 20
4.11482204861111
 30
0.0
 10
3.454052734374998
 20
5.128369140624998
 30
0.0
 10
3.461631944444443
 20
6.214952256944441
 30
0.0
 10
3.461631944444443
 20
7.375260416666666
 30
0.0
 10
3.461631944444443
 20
7.375260416666666
 30
0.0
 10
0.6538791232638889
 20
-10.7376736111111
 30
0.0
 10
0.6538791232638889
 20
-10.7376736111111
 30
0.0
 10
0.6538791232638889
 20
-10.7376736111111
 30
0.0
 10
-0.6628363715277778
 20
-10.7376736111111
 30
0.0
 10
-0.6628363715277778
 20
-10.7376736111111
 30
0.0
 10
-0.6628363715277778
 20
-10.7376736111111
 30
0.0
 10
-3.461631944444443
 20
7.375260416666666
 30
0.0
 10
-3.461631944444443
 20
7.375260416666666
 30
0.0
 10
-3.461631944444443
 20
7.375260416666666
 30
0.0
 10
-3.461631944444443
 20
6.717247178819441
 30
0.0
 10
-3.461631944444443
 20
6.717247178819441
 30
0.0
 10
-3.461631944444443
 20
6.190836588541666
 30
0.0
 10
-3.45474175347222
 20
5.389507378472222
 30
0.0
 10
-3.439583333333333
 20
4.312570529513888
 30
0.0
 10
-3.425113932291666
 20
3.235633680555555
 30
0.0
 10
-3.41753472222222
 20
2.44395073784722
 30
0.0
 10
-3.41753472222222
 20
1.936832682291665
 30
0.0
 10
-3.41753472222222
 20
1.936832682291665
 30
0.0
 10
-3.41753472222222
 20
-10.7376736111111
 30
0.0
 10
-3.41753472222222
 20
-10.7376736111111
 30
0.0
 10
-3.41753472222222
 20
-10.7376736111111
 30
0.0
 10
-4.652256944444443
 20
-10.7376736111111
 30
0.0
 10
-4.652256944444443
 20
-10.7376736111111
 30
0.0
 10
-4.652256944444443
 20
-10.7376736111111
 30
0.0
 10
-4.652256944444443
 20
10.7376736111111
 30
0.0
 10
-4.652256944444443
 20
10.7376736111111
 30
0.0
  0
ENDBLK
  5
293
330
290
100
AcDbEntity
  8
0
100
AcDbBlockEnd
  0
BLOCK
  5
297
330
294
100
AcDbEntity
  8
0
 62
     7
100
AcDbBlockBegin
  2
AI9-BLK9
 70
     0
 10
0.0
 20
0.0
 30
0.0
  3
AI9-BLK9
  1

  0
SPLINE
  5
295
330
294
100
AcDbEntity
  8
LAYER_1
 62
     7
100
AcDbSpline
210
0.0
220
0.0
230
1.0
 70
    11
 71
     3
 72
    29
 73
    25
 74
     0
 42
0.0000000001
 43
0.0000000001
 40
0.0
 40
0.0
 40
0.0
 40
0.0
 40
1.0
 40
1.0
 40
1.0
 40
2.0
 40
2.0
 40
2.0
 40
3.0
 40
3.0
 40
3.0
 40
4.0
 40
4.0
 40
4.0
 40
5.0
 40
5.0
 40
5.0
 40
6.0
 40
6.0
 40
6.0
 40
7.0
 40
7.0
 40
7.0
 40
8.0
 40
8.0
 40
8.0
 40
8.0
 10
0.0668348524305556
 20
-8.753298611111111
 30
0.0
 10
-0.9067491319444444
 20
-8.753298611111111
 30
0.0
 10
-1.60954861111111
 20
-7.936810980902778
 30
0.0
 10
-2.041563585069444
 20
-6.30383572048611
 30
0.0
 10
-2.474267578124999
 20
-4.670860460069443
 30
0.0
 10
-2.689930555555555
 20
-2.664436848958333
 30
0.0
 10
-2.689930555555555
 20
-0.28525390625
 30
0.0
 10
-2.689930555555555
 20
2.68855251736111
 30
0.0
 10
-2.439127604166666
 20
4.938199869791666
 30
0.0
 10
-1.937521701388888
 20
6.464377170138886
 30
0.0
 10
-1.43591579861111
 20
7.989865451388887
 30
0.0
 10
-0.7827256944444444
 20
8.753298611111111
 30
0.0
 10
0.0220486111111111
 20
8.753298611111111
 30
0.0
 10
0.8468044704861108
 20
8.753298611111111
 30
0.0
 10
1.49792751736111
 20
7.982975260416663
 30
0.0
 10
1.974728732638888
 20
6.442328559027776
 30
0.0
 10
2.451529947916665
 20
4.901681857638886
 30
0.0
 10
2.689930555555555
 20
2.868386501736111
 30
0.0
 10
2.689930555555555
 20
0.3438205295138888
 30
0.0
 10
2.689930555555555
 20
-2.045697699652774
 30
0.0
 10
2.483224826388885
 20
-4.15891927083333
 30
0.0
 10
2.071191406249999
 20
-5.996533203124998
 30
0.0
 10
1.65915798611111
 20
-7.834836154513887
 30
0.0
 10
0.9908094618055557
 20
-8.753298611111111
 30
0.0
 10
0.0668348524305556
 20
-8.753298611111111
 30
0.0
  0
SPLINE
  5
296
330
294
100
AcDbEntity
  8
LAYER_1
 62
     7
100
AcDbSpline
210
0.0
220
0.0
230
1.0
 70
    11
 71
     3
 72
    29
 73
    25
 74
     0
 42
0.0000000001
 43
0.0000000001
 40
0.0
 40
0.0
 40
0.0
 40
0.0
 40
1.0
 40
1.0
 40
1.0
 40
2.0
 40
2.0
 40
2.0
 40
3.0
 40
3.0
 40
3.0
 40
4.0
 40
4.0
 40
4.0
 40
5.0
 40
5.0
 40
5.0
 40
6.0
 40
6.0
 40
6.0
 40
7.0
 40
7.0
 40
7.0
 40
8.0
 40
8.0
 40
8.0
 40
8.0
 10
-0.0289388020833333
 20
11.35503472222222
 30
0.0
 10
-1.317404513888887
 20
11.35503472222222
 30
0.0
 10
-2.28892144097222
 20
10.02798394097222
 30
0.0
 10
-2.94280056423611
 20
7.374571397569441
 30
0.0
 10
-3.450607638888888
 20
5.30613606770833
 30
0.0
 10
-3.704166666666666
 20
2.81877712673611
 30
0.0
 10
-3.704166666666666
 20
-0.0881944444444445
 30
0.0
 10
-3.704166666666666
 20
-3.307291666666666
 30
0.0
 10
-3.406510416666666
 20
-5.970350477430551
 30
0.0
 10
-2.811197916666666
 20
-8.077370876736106
 30
0.0
 10
-2.147672526041664
 20
-10.26293945312499
 30
0.0
 10
-1.229899088541666
 20
-11.35503472222222
 30
0.0
 10
-0.0585666232638889
 20
-11.35503472222222
 30
0.0
 10
1.20027126736111
 20
-11.35503472222222
 30
0.0
 10
2.166276041666665
 20
-10.10653211805555
 30
0.0
 10
2.840136718749998
 20
-7.609526909722221
 30
0.0
 10
3.416156684027776
 20
-5.483213975694441
 30
0.0
 10
3.704166666666666
 20
-2.814643012152775
 30
0.0
 10
3.704166666666666
 20
0.3948079427083333
 30
0.0
 10
3.704166666666666
 20
3.360346137152776
 30
0.0
 10
3.449918619791666
 20
5.793961588541666
 30
0.0
 10
2.94280056423611
 20
7.696343315972222
 30
0.0
 10
2.298567708333333
 20
10.13547092013888
 30
0.0
 10
1.307758246527777
 20
11.35503472222222
 30
0.0
 10
-0.0289388020833333
 20
11.35503472222222
 30
0.0
  0
ENDBLK
  5
298
330
294
100
AcDbEntity
  8
0
100
AcDbBlockEnd
  0
BLOCK
  5
29C
330
299
100
AcDbEntity
  8
0
 62
     7
100
AcDbBlockBegin
  2
AI9-BLK8
 70
     0
 10
0.0
 20
0.0
 30
0.0
  3
AI9-BLK8
  1

  0
LWPOLYLINE
  5
29A
330
299
100
AcDbEntity
  8
LAYER_1
 62
     7
100
AcDbPolyline
 90
       10
 70
     1
 43
0.0
 10
-3.792361111111107
 20
10.7376736111111
 10
-2.268939887152774
 20
10.7376736111111
 10
2.557638888888888
 20
-6.505718315972222
 10
2.557638888888888
 20
10.7376736111111
 10
3.792361111111107
 20
10.7376736111111
 10
3.792361111111107
 20
-10.7376736111111
 10
2.32612847222222
 20
-10.7376736111111
 10
-2.557638888888888
 20
6.549815538194441
 10
-2.557638888888888
 20
-10.7376736111111
 10
-3.792361111111107
 20
-10.7376736111111
  0
HATCH
  5
29B
330
299
100
AcDbEntity
  8
LAYER_1
 62
     7
100
AcDbHatch
 10
0.0
 20
0.0
 30
0.0
210
0.0
220
0.0
230
1.0
  2
SOLID
 70
     1
 71
     0
 91
        1
 92
        3
 72
     0
 73
     1
 93
       10
 10
-3.792361111111107
 20
10.7376736111111
 10
-2.268939887152774
 20
10.7376736111111
 10
2.557638888888888
 20
-6.505718315972222
 10
2.557638888888888
 20
10.7376736111111
 10
3.792361111111107
 20
10.7376736111111
 10
3.792361111111107
 20
-10.7376736111111
 10
2.32612847222222
 20
-10.7376736111111
 10
-2.557638888888888
 20
6.549815538194441
 10
-2.557638888888888
 20
-10.7376736111111
 10
-3.792361111111107
 20
-10.7376736111111
 97
        0
 75
     2
 76
     1
 98
        1
 10
0.0
 20
0.0
  0
ENDBLK
  5
29D
330
299
100
AcDbEntity
  8
0
100
AcDbBlockEnd
  0
BLOCK
  5
2A1
330
29E
100
AcDbEntity
  8
0
 62
     7
100
AcDbBlockBegin
  2
AI9-BLK7
 70
     0
 10
0.0
 20
0.0
 30
0.0
  3
AI9-BLK7
  1

  0
LWPOLYLINE
  5
29F
330
29E
100
AcDbEntity
  8
LAYER_1
 62
     7
100
AcDbPolyline
 90
        4
 70
     1
 43
0.0
 10
-0.6614583333333333
 20
10.7376736111111
 10
0.6614583333333333
 20
10.7376736111111
 10
0.6614583333333333
 20
-10.7376736111111
 10
-0.6614583333333333
 20
-10.7376736111111
  0
HATCH
  5
2A0
330
29E
100
AcDbEntity
  8
LAYER_1
 62
     7
100
AcDbHatch
 10
0.0
 20
0.0
 30
0.0
210
0.0
220
0.0
230
1.0
  2
SOLID
 70
     1
 71
     0
 91
        1
 92
        3
 72
     0
 73
     1
 93
        4
 10
-0.6614583333333333
 20
10.7376736111111
 10
0.6614583333333333
 20
10.7376736111111
 10
0.6614583333333333
 20
-10.7376736111111
 10
-0.6614583333333333
 20
-10.7376736111111
 97
        0
 75
     2
 76
     1
 98
        1
 10
0.0
 20
0.0
  0
ENDBLK
  5
2A2
330
29E
100
AcDbEntity
  8
0
100
AcDbBlockEnd
  0
BLOCK
  5
2A5
330
2A3
100
AcDbEntity
  8
0
 62
     7
100
AcDbBlockBegin
  2
AI9-BLK6
 70
     0
 10
0.0
 20
0.0
 30
0.0
  3
AI9-BLK6
  1

  0
SPLINE
  5
2A4
330
2A3
100
AcDbEntity
  8
LAYER_1
 62
     7
100
AcDbSpline
210
0.0
220
0.0
230
1.0
 70
    11
 71
     3
 72
    59
 73
    55
 74
     0
 42
0.0000000001
 43
0.0000000001
 40
0.0
 40
0.0
 40
0.0
 40
0.0
 40
1.0
 40
1.0
 40
1.0
 40
2.0
 40
2.0
 40
2.0
 40
3.0
 40
3.0
 40
3.0
 40
4.0
 40
4.0
 40
4.0
 40
5.0
 40
5.0
 40
5.0
 40
6.0
 40
6.0
 40
6.0
 40
7.0
 40
7.0
 40
7.0
 40
8.0
 40
8.0
 40
8.0
 40
9.0
 40
9.0
 40
9.0
 40
10.0
 40
10.0
 40
10.0
 40
11.0
 40
11.0
 40
11.0
 40
12.0
 40
12.0
 40
12.0
 40
13.0
 40
13.0
 40
13.0
 40
14.0
 40
14.0
 40
14.0
 40
15.0
 40
15.0
 40
15.0
 40
16.0
 40
16.0
 40
16.0
 40
17.0
 40
17.0
 40
17.0
 40
18.0
 40
18.0
 40
18.0
 40
18.0
 10
3.062689887152775
 20
9.168088107638887
 30
0.0
 10
3.735172526041666
 20
7.739062499999997
 30
0.0
 10
4.110687934027776
 20
6.116422526041666
 30
0.0
 10
4.189236111111108
 20
4.299479166666666
 30
0.0
 10
4.189236111111108
 20
4.299479166666666
 30
0.0
 10
2.866319444444443
 20
4.299479166666666
 30
0.0
 10
2.866319444444443
 20
4.299479166666666
 30
0.0
 10
2.720936414930555
 20
5.667871093749997
 30
0.0
 10
2.435682508680555
 20
6.752387152777776
 30
0.0
 10
2.009868706597219
 20
7.553027343749997
 30
0.0
 10
1.584054904513888
 20
8.352978515624997
 30
0.0
 10
0.9839192708333332
 20
8.753298611111111
 30
0.0
 10
0.2101508246527778
 20
8.753298611111111
 30
0.0
 10
-0.7386284722222222
 20
8.753298611111111
 30
0.0
 10
-1.503439670138888
 20
8.010536024305555
 30
0.0
 10
-2.083593749999999
 20
6.526388888888886
 30
0.0
 10
-2.664436848958333
 20
5.042241753472221
 30
0.0
 10
-2.954513888888888
 20
2.767100694444443
 30
0.0
 10
-2.954513888888888
 20
-0.2990342881944444
 30
0.0
 10
-2.954513888888888
 20
-2.811197916666666
 30
0.0
 10
-2.693375651041666
 20
-4.847938368055555
 30
0.0
 10
-2.17041015625
 20
-6.409944661458332
 30
0.0
 10
-1.648133680555553
 20
-7.972639973958332
 30
0.0
 10
-0.8640299479166666
 20
-8.753298611111111
 30
0.0
 10
0.1812120225694444
 20
-8.753298611111111
 30
0.0
 10
1.138948567708333
 20
-8.753298611111111
 30
0.0
 10
1.865174696180553
 20
-7.927853732638887
 30
0.0
 10
2.359201388888885
 20
-6.275585937499998
 30
0.0
 10
2.62998589409722
 20
-5.406043836805555
 30
0.0
 10
2.828423394097221
 20
-4.262272135416666
 30
0.0
 10
2.954513888888888
 20
-2.844270833333331
 30
0.0
 10
2.954513888888888
 20
-2.844270833333331
 30
0.0
 10
4.277430555555555
 20
-2.844270833333331
 30
0.0
 10
4.277430555555555
 20
-2.844270833333331
 30
0.0
 10
4.169943576388888
 20
-5.109765624999996
 30
0.0
 10
3.795117187499998
 20
-7.009391276041665
 30
0.0
 10
3.151573350694443
 20
-8.542458767361106
 30
0.0
 10
2.381249999999999
 20
-10.38834092881943
 30
0.0
 10
1.347721354166665
 20
-11.3109375
 30
0.0
 10
0.0509874131944445
 20
-11.3109375
 30
0.0
 10
-1.07004665798611
 20
-11.3109375
 30
0.0
 10
-2.010557725694444
 20
-10.55577256944443
 30
0.0
 10
-2.771234809027776
 20
-9.04475368923611
 30
0.0
 10
-3.775824652777775
 20
-7.046598307291666
 30
0.0
 10
-4.277430555555555
 20
-3.961170789930555
 30
0.0
 10
-4.277430555555555
 20
0.2115288628472222
 30
0.0
 10
-4.277430555555555
 20
3.379638671874998
 30
0.0
 10
-3.902604166666666
 20
5.977929687499997
 30
0.0
 10
-3.151573350694443
 20
8.005712890624996
 30
0.0
 10
-2.333018663194443
 20
10.20919596354165
 30
0.0
 10
-1.20647243923611
 20
11.3109375
 30
0.0
 10
0.2266872829861111
 20
11.3109375
 30
0.0
 10
1.444873046875
 20
11.3109375
 30
0.0
 10
2.390207248263885
 20
10.59642469618055
 30
0.0
 10
3.062689887152775
 20
9.168088107638887
 30
0.0
  0
ENDBLK
  5
2A6
330
2A3
100
AcDbEntity
  8
0
100
AcDbBlockEnd
  0
BLOCK
  5
2AA
330
2A7
100
AcDbEntity
  8
0
 62
     7
100
AcDbBlockBegin
  2
AI9-BLK5
 70
     0
 10
0.0
 20
0.0
 30
0.0
  3
AI9-BLK5
  1

  0
SPLINE
  5
2A8
330
2A7
100
AcDbEntity
  8
LAYER_1
 62
     7
100
AcDbSpline
210
0.0
220
0.0
230
1.0
 70
    11
 71
     3
 72
    32
 73
    28
 74
     0
 42
0.0000000001
 43
0.0000000001
 40
0.0
 40
0.0
 40
0.0
 40
0.0
 40
1.0
 40
1.0
 40
1.0
 40
2.0
 40
2.0
 40
2.0
 40
3.0
 40
3.0
 40
3.0
 40
4.0
 40
4.0
 40
4.0
 40
5.0
 40
5.0
 40
5.0
 40
6.0
 40
6.0
 40
6.0
 40
7.0
 40
7.0
 40
7.0
 40
8.0
 40
8.0
 40
8.0
 40
9.0
 40
9.0
 40
9.0
 40
9.0
 10
-2.62378472222222
 20
-8.268229166666666
 30
0.0
 10
-2.62378472222222
 20
-8.268229166666666
 30
0.0
 10
-2.62378472222222
 20
8.180034722222217
 30
0.0
 10
-2.62378472222222
 20
8.180034722222217
 30
0.0
 10
-2.62378472222222
 20
8.180034722222217
 30
0.0
 10
-0.3376193576388888
 20
8.180034722222217
 30
0.0
 10
-0.3376193576388888
 20
8.180034722222217
 30
0.0
 10
0.6972873263888888
 20
8.180034722222217
 30
0.0
 10
1.449007161458333
 20
7.445540364583332
 30
0.0
 10
1.918918185763885
 20
5.977929687499997
 30
0.0
 10
2.388829210069443
 20
4.510319010416666
 30
0.0
 10
2.62378472222222
 20
2.449462890624999
 30
0.0
 10
2.62378472222222
 20
-0.204638671875
 30
0.0
 10
2.62378472222222
 20
-0.8950358072916666
 30
0.0
 10
2.590022786458332
 20
-1.643310546874999
 30
0.0
 10
2.523187934027774
 20
-2.45015190972222
 30
0.0
 10
2.408121744791666
 20
-3.80200737847222
 30
0.0
 10
2.226220703124999
 20
-4.909950086805555
 30
0.0
 10
1.976795789930553
 20
-5.774669053819441
 30
0.0
 10
1.659847005208333
 20
-6.853672960069442
 30
0.0
 10
1.252636718749998
 20
-7.583344184027778
 30
0.0
 10
0.7544759114583333
 20
-7.962304687499997
 30
0.0
 10
0.4664659288194444
 20
-8.166254340277777
 30
0.0
 10
0.1074869791666666
 20
-8.268229166666666
 30
0.0
 10
-0.3231499565972222
 20
-8.268229166666666
 30
0.0
 10
-0.3231499565972222
 20
-8.268229166666666
 30
0.0
 10
-2.62378472222222
 20
-8.268229166666666
 30
0.0
 10
-2.62378472222222
 20
-8.268229166666666
 30
0.0
  0
SPLINE
  5
2A9
330
2A7
100
AcDbEntity
  8
LAYER_1
 62
     7
100
AcDbSpline
210
0.0
220
0.0
230
1.0
 70
    11
 71
     3
 72
    26
 73
    22
 74
     0
 42
0.0000000001
 43
0.0000000001
 40
0.0
 40
0.0
 40
0.0
 40
0.0
 40
1.0
 40
1.0
 40
1.0
 40
2.0
 40
2.0
 40
2.0
 40
3.0
 40
3.0
 40
3.0
 40
4.0
 40
4.0
 40
4.0
 40
5.0
 40
5.0
 40
5.0
 40
6.0
 40
6.0
 40
6.0
 40
7.0
 40
7.0
 40
7.0
 40
7.0
 10
-3.946701388888888
 20
-10.7376736111111
 30
0.0
 10
-3.946701388888888
 20
-10.7376736111111
 30
0.0
 10
-0.0943956163194444
 20
-10.7376736111111
 30
0.0
 10
-0.0943956163194444
 20
-10.7376736111111
 30
0.0
 10
1.546847873263885
 20
-10.7376736111111
 30
0.0
 10
2.705777994791666
 20
-9.11021050347222
 30
0.0
 10
3.381705729166666
 20
-5.854595269097222
 30
0.0
 10
3.757910156249999
 20
-4.01284722222222
 30
0.0
 10
3.946701388888888
 20
-1.951991102430555
 30
0.0
 10
3.946701388888888
 20
0.328662109375
 30
0.0
 10
3.946701388888888
 20
3.281797960069443
 30
0.0
 10
3.622862413194443
 20
5.703700086805552
 30
0.0
 10
2.976562499999998
 20
7.594368489583332
 30
0.0
 10
2.25171440972222
 20
9.689675564236106
 30
0.0
 10
1.233344184027777
 20
10.7376736111111
 30
0.0
 10
-0.0799262152777778
 20
10.7376736111111
 30
0.0
 10
-0.0799262152777778
 20
10.7376736111111
 30
0.0
 10
-3.946701388888888
 20
10.7376736111111
 30
0.0
 10
-3.946701388888888
 20
10.7376736111111
 30
0.0
 10
-3.946701388888888
 20
10.7376736111111
 30
0.0
 10
-3.946701388888888
 20
-10.7376736111111
 30
0.0
 10
-3.946701388888888
 20
-10.7376736111111
 30
0.0
  0
ENDBLK
  5
2AB
330
2A7
100
AcDbEntity
  8
0
100
AcDbBlockEnd
  0
BLOCK
  5
2AF
330
2AC
100
AcDbEntity
  8
0
 62
     7
100
AcDbBlockBegin
  2
AI9-BLK4
 70
     0
 10
0.0
 20
0.0
 30
0.0
  3
AI9-BLK4
  1

  0
SPLINE
  5
2AD
330
2AC
100
AcDbEntity
  8
LAYER_1
 62
     7
100
AcDbSpline
210
0.0
220
0.0
230
1.0
 70
    11
 71
     3
 72
    26
 73
    22
 74
     0
 42
0.0000000001
 43
0.0000000001
 40
0.0
 40
0.0
 40
0.0
 40
0.0
 40
1.0
 40
1.0
 40
1.0
 40
2.0
 40
2.0
 40
2.0
 40
3.0
 40
3.0
 40
3.0
 40
4.0
 40
4.0
 40
4.0
 40
5.0
 40
5.0
 40
5.0
 40
6.0
 40
6.0
 40
6.0
 40
7.0
 40
7.0
 40
7.0
 40
7.0
 10
-2.645833333333333
 20
0.9039930555555551
 30
0.0
 10
-2.645833333333333
 20
0.9039930555555551
 30
0.0
 10
-2.645833333333333
 20
8.180034722222217
 30
0.0
 10
-2.645833333333333
 20
8.180034722222217
 30
0.0
 10
-2.645833333333333
 20
8.180034722222217
 30
0.0
 10
0.465087890625
 20
8.180034722222217
 30
0.0
 10
0.465087890625
 20
8.180034722222217
 30
0.0
 10
0.9026150173611108
 20
8.180034722222217
 30
0.0
 10
1.24988064236111
 20
8.034651692708331
 30
0.0
 10
1.506884765625
 20
7.745263671874997
 30
0.0
 10
2.001600477430554
 20
7.194048394097221
 30
0.0
 10
2.248958333333332
 20
6.160519748263887
 30
0.0
 10
2.248958333333332
 20
4.643299696180553
 30
0.0
 10
2.248958333333332
 20
3.232188585069443
 30
0.0
 10
2.072569444444444
 20
2.256537543402775
 30
0.0
 10
1.720480685763888
 20
1.715657552083333
 30
0.0
 10
1.368391927083333
 20
1.174088541666665
 30
0.0
 10
0.8929687499999998
 20
0.9039930555555551
 30
0.0
 10
0.2942111545138888
 20
0.9039930555555551
 30
0.0
 10
0.2942111545138888
 20
0.9039930555555551
 30
0.0
 10
-2.645833333333333
 20
0.9039930555555551
 30
0.0
 10
-2.645833333333333
 20
0.9039930555555551
 30
0.0
  0
SPLINE
  5
2AE
330
2AC
100
AcDbEntity
  8
LAYER_1
 62
     7
100
AcDbSpline
210
0.0
220
0.0
230
1.0
 70
    11
 71
     3
 72
    68
 73
    64
 74
     0
 42
0.0000000001
 43
0.0000000001
 40
0.0
 40
0.0
 40
0.0
 40
0.0
 40
1.0
 40
1.0
 40
1.0
 40
2.0
 40
2.0
 40
2.0
 40
3.0
 40
3.0
 40
3.0
 40
4.0
 40
4.0
 40
4.0
 40
5.0
 40
5.0
 40
5.0
 40
6.0
 40
6.0
 40
6.0
 40
7.0
 40
7.0
 40
7.0
 40
8.0
 40
8.0
 40
8.0
 40
9.0
 40
9.0
 40
9.0
 40
10.0
 40
10.0
 40
10.0
 40
11.0
 40
11.0
 40
11.0
 40
12.0
 40
12.0
 40
12.0
 40
13.0
 40
13.0
 40
13.0
 40
14.0
 40
14.0
 40
14.0
 40
15.0
 40
15.0
 40
15.0
 40
16.0
 40
16.0
 40
16.0
 40
17.0
 40
17.0
 40
17.0
 40
18.0
 40
18.0
 40
18.0
 40
19.0
 40
19.0
 40
19.0
 40
20.0
 40
20.0
 40
20.0
 40
21.0
 40
21.0
 40
21.0
 40
21.0
 10
-3.968749999999998
 20
-10.7376736111111
 30
0.0
 10
-3.968749999999998
 20
-10.7376736111111
 30
0.0
 10
-2.645833333333333
 20
-10.7376736111111
 30
0.0
 10
-2.645833333333333
 20
-10.7376736111111
 30
0.0
 10
-2.645833333333333
 20
-10.7376736111111
 30
0.0
 10
-2.645833333333333
 20
-1.521354166666665
 30
0.0
 10
-2.645833333333333
 20
-1.521354166666665
 30
0.0
 10
-2.645833333333333
 20
-1.521354166666665
 30
0.0
 10
0.2390896267361111
 20
-1.521354166666665
 30
0.0
 10
0.2390896267361111
 20
-1.521354166666665
 30
0.0
 10
0.7599880642361111
 20
-1.521354166666665
 30
0.0
 10
1.143771701388887
 20
-1.65295681423611
 30
0.0
 10
1.390440538194444
 20
-1.916162109374999
 30
0.0
 10
1.816254340277774
 20
-2.39434136284722
 30
0.0
 10
2.04363064236111
 20
-3.335541449652775
 30
0.0
 10
2.072569444444444
 20
-4.739762369791666
 30
0.0
 10
2.072569444444444
 20
-4.739762369791666
 30
0.0
 10
2.160763888888888
 20
-8.324039713541665
 30
0.0
 10
2.160763888888888
 20
-8.324039713541665
 30
0.0
 10
2.18005642361111
 20
-9.163264973958332
 30
0.0
 10
2.202794053819443
 20
-9.728949652777775
 30
0.0
 10
2.227598741319444
 20
-10.02109374999998
 30
0.0
 10
2.252403428819443
 20
-10.31392686631944
 30
0.0
 10
2.28892144097222
 20
-10.55301649305555
 30
0.0
 10
2.33853081597222
 20
-10.7376736111111
 30
0.0
 10
2.33853081597222
 20
-10.7376736111111
 30
0.0
 10
3.968749999999998
 20
-10.7376736111111
 30
0.0
 10
3.968749999999998
 20
-10.7376736111111
 30
0.0
 10
3.968749999999998
 20
-10.7376736111111
 30
0.0
 10
3.968749999999998
 20
-10.25260416666666
 30
0.0
 10
3.968749999999998
 20
-10.25260416666666
 30
0.0
 10
3.766867404513888
 20
-10.05830078125
 30
0.0
 10
3.625618489583333
 20
-9.621462673611112
 30
0.0
 10
3.545692274305555
 20
-8.942089843749997
 30
0.0
 10
3.49470486111111
 20
-8.543836805555555
 30
0.0
 10
3.459564887152775
 20
-7.937499999999999
 30
0.0
 10
3.439583333333333
 20
-7.121701388888887
 30
0.0
 10
3.439583333333333
 20
-7.121701388888887
 30
0.0
 10
3.395486111111107
 20
-4.232644314236107
 30
0.0
 10
3.395486111111107
 20
-4.232644314236107
 30
0.0
 10
3.375504557291666
 20
-2.981385633680555
 30
0.0
 10
3.26870659722222
 20
-2.077392578125
 30
0.0
 10
3.075781249999999
 20
-1.522043185763888
 30
0.0
 10
2.882166883680555
 20
-0.9666937934027776
 30
0.0
 10
2.592089843749999
 20
-0.5188313802083333
 30
0.0
 10
2.204861111111107
 20
-0.1770779079861111
 30
0.0
 10
2.63618706597222
 20
0.3197048611111111
 30
0.0
 10
2.971739366319443
 20
0.9770290798611107
 30
0.0
 10
3.211518012152775
 20
1.79558376736111
 30
0.0
 10
3.451296657986107
 20
2.613449435763888
 30
0.0
 10
3.571874999999999
 20
3.66558159722222
 30
0.0
 10
3.571874999999999
 20
4.951291232638888
 30
0.0
 10
3.571874999999999
 20
7.415912543402777
 30
0.0
 10
3.124701605902775
 20
9.106076388888887
 30
0.0
 10
2.231043836805555
 20
10.02178276909722
 30
0.0
 10
1.759754774305553
 20
10.498583984375
 30
0.0
 10
1.163753255208332
 20
10.7376736111111
 30
0.0
 10
0.443039279513889
 20
10.7376736111111
 30
0.0
 10
0.443039279513889
 20
10.7376736111111
 30
0.0
 10
-3.968749999999998
 20
10.7376736111111
 30
0.0
 10
-3.968749999999998
 20
10.7376736111111
 30
0.0
 10
-3.968749999999998
 20
10.7376736111111
 30
0.0
 10
-3.968749999999998
 20
-10.7376736111111
 30
0.0
 10
-3.968749999999998
 20
-10.7376736111111
 30
0.0
  0
ENDBLK
  5
2B0
330
2AC
100
AcDbEntity
  8
0
100
AcDbBlockEnd
  0
BLOCK
  5
2B4
330
2B1
100
AcDbEntity
  8
0
 62
     7
100
AcDbBlockBegin
  2
AI9-BLK3
 70
     0
 10
0.0
 20
0.0
 30
0.0
  3
AI9-BLK3
  1

  0
LWPOLYLINE
  5
2B2
330
2B1
100
AcDbEntity
  8
LAYER_1
 62
     7
100
AcDbPolyline
 90
        4
 70
     1
 43
0.0
 10
-0.6613722059461809
 20
10.7376736111111
 10
0.6613722059461809
 20
10.7376736111111
 10
0.6613722059461809
 20
-10.7376736111111
 10
-0.6613722059461809
 20
-10.7376736111111
  0
HATCH
  5
2B3
330
2B1
100
AcDbEntity
  8
LAYER_1
 62
     7
100
AcDbHatch
 10
0.0
 20
0.0
 30
0.0
210
0.0
220
0.0
230
1.0
  2
SOLID
 70
     1
 71
     0
 91
        1
 92
        3
 72
     0
 73
     1
 93
        4
 10
-0.6613722059461809
 20
10.7376736111111
 10
0.6613722059461809
 20
10.7376736111111
 10
0.6613722059461809
 20
-10.7376736111111
 10
-0.6613722059461809
 20
-10.7376736111111
 97
        0
 75
     2
 76
     1
 98
        1
 10
0.0
 20
0.0
  0
ENDBLK
  5
2B5
330
2B1
100
AcDbEntity
  8
0
100
AcDbBlockEnd
  0
BLOCK
  5
2B9
330
2B6
100
AcDbEntity
  8
0
 62
     7
100
AcDbBlockBegin
  2
AI9-BLK2
 70
     0
 10
0.0
 20
0.0
 30
0.0
  3
AI9-BLK2
  1

  0
LWPOLYLINE
  5
2B7
330
2B6
100
AcDbEntity
  8
LAYER_1
 62
     7
100
AcDbPolyline
 90
        7
 70
     1
 43
0.0
 10
-2.785704210069443
 20
10.7376736111111
 10
0.0
 20
-7.550960286458332
 10
2.771234809027776
 20
10.7376736111111
 10
4.233333333333331
 20
10.7376736111111
 10
0.6910861545138888
 20
-10.7376736111111
 10
-0.7055555555555558
 20
-10.7376736111111
 10
-4.233333333333331
 20
10.7376736111111
  0
HATCH
  5
2B8
330
2B6
100
AcDbEntity
  8
LAYER_1
 62
     7
100
AcDbHatch
 10
0.0
 20
0.0
 30
0.0
210
0.0
220
0.0
230
1.0
  2
SOLID
 70
     1
 71
     0
 91
        1
 92
        3
 72
     0
 73
     1
 93
        7
 10
-2.785704210069443
 20
10.7376736111111
 10
0.0
 20
-7.550960286458332
 10
2.771234809027776
 20
10.7376736111111
 10
4.233333333333331
 20
10.7376736111111
 10
0.6910861545138888
 20
-10.7376736111111
 10
-0.7055555555555558
 20
-10.7376736111111
 10
-4.233333333333331
 20
10.7376736111111
 97
        0
 75
     2
 76
     1
 98
        1
 10
0.0
 20
0.0
  0
ENDBLK
  5
2BA
330
2B6
100
AcDbEntity
  8
0
100
AcDbBlockEnd
  0
BLOCK
  5
2BE
330
2BB
100
AcDbEntity
  8
0
 62
     7
100
AcDbBlockBegin
  2
AI9-BLK1
 70
     0
 10
0.0
 20
0.0
 30
0.0
  3
AI9-BLK1
  1

  0
LWPOLYLINE
  5
2BC
330
2BB
100
AcDbEntity
  8
LAYER_1
 62
     7
100
AcDbPolyline
 90
       12
 70
     1
 43
0.0
 10
-3.571874999999999
 20
10.7376736111111
 10
3.483680555555555
 20
10.7376736111111
 10
3.483680555555555
 20
8.091840277777777
 10
-2.248958333333332
 20
8.091840277777777
 10
-2.248958333333332
 20
1.565451388888888
 10
3.042708333333333
 20
1.565451388888888
 10
3.042708333333333
 20
-0.9039930555555551
 10
-2.248958333333332
 20
-0.9039930555555551
 10
-2.248958333333332
 20
-8.180034722222217
 10
3.571874999999999
 20
-8.180034722222217
 10
3.571874999999999
 20
-10.7376736111111
 10
-3.571874999999999
 20
-10.7376736111111
  0
HATCH
  5
2BD
330
2BB
100
AcDbEntity
  8
LAYER_1
 62
     7
100
AcDbHatch
 10
0.0
 20
0.0
 30
0.0
210
0.0
220
0.0
230
1.0
  2
SOLID
 70
     1
 71
     0
 91
        1
 92
        3
 72
     0
 73
     1
 93
       12
 10
-3.571874999999999
 20
10.7376736111111
 10
3.483680555555555
 20
10.7376736111111
 10
3.483680555555555
 20
8.091840277777777
 10
-2.248958333333332
 20
8.091840277777777
 10
-2.248958333333332
 20
1.565451388888888
 10
3.042708333333333
 20
1.565451388888888
 10
3.042708333333333
 20
-0.9039930555555551
 10
-2.248958333333332
 20
-0.9039930555555551
 10
-2.248958333333332
 20
-8.180034722222217
 10
3.571874999999999
 20
-8.180034722222217
 10
3.571874999999999
 20
-10.7376736111111
 10
-3.571874999999999
 20
-10.7376736111111
 97
        0
 75
     2
 76
     1
 98
        1
 10
0.0
 20
0.0
  0
ENDBLK
  5
2BF
330
2BB
100
AcDbEntity
  8
0
100
AcDbBlockEnd
  0
BLOCK
  5
2E3
330
2C0
100
AcDbEntity
  8
0
100
AcDbBlockBegin
  2
HD_LLC_logo_OT5
 70
     0
 10
0.0
 20
0.0
 30
0.0
  3
HD_LLC_logo_OT5
  1

  0
SPLINE
  5
2C1
102
{ACAD_REACTORS
330
2E1
102
}
330
2C0
100
AcDbEntity
  8
LAYER_1
 62
     7
100
AcDbSpline
210
0.0
220
0.0
230
1.0
 70
    11
 71
     3
 72
   113
 73
   109
 74
     0
 42
0.0000000001
 43
0.0000000001
 40
0.0
 40
0.0
 40
0.0
 40
0.0
 40
1.0
 40
1.0
 40
1.0
 40
2.0
 40
2.0
 40
2.0
 40
3.0
 40
3.0
 40
3.0
 40
4.0
 40
4.0
 40
4.0
 40
5.0
 40
5.0
 40
5.0
 40
6.0
 40
6.0
 40
6.0
 40
7.0
 40
7.0
 40
7.0
 40
8.0
 40
8.0
 40
8.0
 40
9.0
 40
9.0
 40
9.0
 40
10.0
 40
10.0
 40
10.0
 40
11.0
 40
11.0
 40
11.0
 40
12.0
 40
12.0
 40
12.0
 40
13.0
 40
13.0
 40
13.0
 40
14.0
 40
14.0
 40
14.0
 40
15.0
 40
15.0
 40
15.0
 40
16.0
 40
16.0
 40
16.0
 40
17.0
 40
17.0
 40
17.0
 40
18.0
 40
18.0
 40
18.0
 40
19.0
 40
19.0
 40
19.0
 40
20.0
 40
20.0
 40
20.0
 40
21.0
 40
21.0
 40
21.0
 40
22.0
 40
22.0
 40
22.0
 40
23.0
 40
23.0
 40
23.0
 40
24.0
 40
24.0
 40
24.0
 40
25.0
 40
25.0
 40
25.0
 40
26.0
 40
26.0
 40
26.0
 40
27.0
 40
27.0
 40
27.0
 40
28.0
 40
28.0
 40
28.0
 40
29.0
 40
29.0
 40
29.0
 40
30.0
 40
30.0
 40
30.0
 40
31.0
 40
31.0
 40
31.0
 40
32.0
 40
32.0
 40
32.0
 40
33.0
 40
33.0
 40
33.0
 40
34.0
 40
34.0
 40
34.0
 40
35.0
 40
35.0
 40
35.0
 40
36.0
 40
36.0
 40
36.0
 40
36.0
 10
193.3039632161458
 20
186.1548733181423
 30
0.0
 10
193.3039632161458
 20
186.1860514322916
 30
0.0
 10
193.3039632161458
 20
219.6932223849826
 30
0.0
 10
193.3039632161458
 20
219.6932223849826
 30
0.0
 10
193.3039632161458
 20
219.6932223849826
 30
0.0
 10
193.2974175347219
 20
219.7488606770833
 30
0.0
 10
193.2974175347219
 20
219.7488606770833
 30
0.0
 10
191.5293945312499
 20
235.455740017361
 30
0.0
 10
175.1458984374999
 20
235.2467949761284
 30
0.0
 10
174.9808783637151
 20
235.2428331163193
 30
0.0
 10
174.9808783637151
 20
235.2428331163193
 30
0.0
 10
125.8827555338541
 20
235.2430053710937
 30
0.0
 10
125.8827555338541
 20
235.2430053710937
 30
0.0
 10
125.8827555338541
 20
235.2430053710937
 30
0.0
 10
125.8827555338541
 20
255.5278998480901
 30
0.0
 10
125.8827555338541
 20
255.5278998480901
 30
0.0
 10
125.8827555338541
 20
255.5278998480901
 30
0.0
 10
84.5626247829861
 20
255.5278998480901
 30
0.0
 10
84.5626247829861
 20
255.5278998480901
 30
0.0
 10
84.5626247829861
 20
255.5278998480901
 30
0.0
 10
84.55711263020829
 20
233.7919311523436
 30
0.0
 10
84.55711263020829
 20
233.7919311523436
 30
0.0
 10
84.55711263020829
 20
233.7919311523436
 30
0.0
 10
64.42052951388888
 20
233.7919311523436
 30
0.0
 10
64.42052951388888
 20
233.7919311523436
 30
0.0
 10
64.42052951388888
 20
233.7919311523436
 30
0.0
 10
64.41501736111111
 20
255.5278998480901
 30
0.0
 10
64.41501736111111
 20
255.5278998480901
 30
0.0
 10
64.41501736111111
 20
255.5278998480901
 30
0.0
 10
23.91757541232637
 20
255.5278998480901
 30
0.0
 10
23.91757541232637
 20
255.5278998480901
 30
0.0
 10
23.91757541232637
 20
255.5278998480901
 30
0.0
 10
23.91757541232637
 20
233.2393378363715
 30
0.0
 10
23.91757541232637
 20
233.2393378363715
 30
0.0
 10
23.91757541232637
 20
233.2393378363715
 30
0.0
 10
43.65624999999999
 20
233.2393378363715
 30
0.0
 10
43.65624999999999
 20
233.2393378363715
 30
0.0
 10
43.65624999999999
 20
233.2393378363715
 30
0.0
 10
43.65624999999999
 20
211.5188720703125
 30
0.0
 10
43.65624999999999
 20
211.5188720703125
 30
0.0
 10
43.65624999999999
 20
211.5188720703125
 30
0.0
 10
23.91757541232637
 20
211.5188720703125
 30
0.0
 10
23.91757541232637
 20
211.5188720703125
 30
0.0
 10
23.91757541232637
 20
211.5188720703125
 30
0.0
 10
23.91757541232637
 20
189.2303100585936
 30
0.0
 10
23.91757541232637
 20
189.2303100585936
 30
0.0
 10
23.91757541232637
 20
189.2303100585936
 30
0.0
 10
64.41501736111111
 20
189.2303100585936
 30
0.0
 10
64.41501736111111
 20
189.2303100585936
 30
0.0
 10
64.41501736111111
 20
189.2303100585936
 30
0.0
 10
64.42052951388888
 20
211.069976128472
 30
0.0
 10
64.42052951388888
 20
211.069976128472
 30
0.0
 10
64.42052951388888
 20
211.069976128472
 30
0.0
 10
84.55711263020829
 20
211.069976128472
 30
0.0
 10
84.55711263020829
 20
211.069976128472
 30
0.0
 10
84.55711263020829
 20
211.069976128472
 30
0.0
 10
84.5626247829861
 20
189.2303100585936
 30
0.0
 10
84.5626247829861
 20
189.2303100585936
 30
0.0
 10
84.5626247829861
 20
189.2303100585936
 30
0.0
 10
125.8827555338541
 20
189.2303100585936
 30
0.0
 10
125.8827555338541
 20
189.2303100585936
 30
0.0
 10
125.8827555338541
 20
189.2303100585936
 30
0.0
 10
125.8827555338541
 20
211.5188720703125
 30
0.0
 10
125.8827555338541
 20
211.5188720703125
 30
0.0
 10
125.8827555338541
 20
211.5188720703125
 30
0.0
 10
105.3213921440971
 20
211.5188720703125
 30
0.0
 10
105.3213921440971
 20
211.5188720703125
 30
0.0
 10
105.3213921440971
 20
211.5188720703125
 30
0.0
 10
105.3213921440971
 20
233.2393378363715
 30
0.0
 10
105.3213921440971
 20
233.2393378363715
 30
0.0
 10
105.3213921440971
 20
233.2393378363715
 30
0.0
 10
175.0046495225693
 20
233.243127441406
 30
0.0
 10
175.0046495225693
 20
233.243127441406
 30
0.0
 10
175.6268337673611
 20
233.2560465494791
 30
0.0
 10
189.7165852864583
 20
233.3962619357638
 30
0.0
 10
191.3037407769094
 20
219.5690266927083
 30
0.0
 10
191.3037407769094
 20
219.4332899305555
 30
0.0
 10
191.3037407769094
 20
186.1142211914062
 30
0.0
 10
191.3037407769094
 20
186.1142211914062
 30
0.0
 10
191.3037407769094
 20
186.1142211914062
 30
0.0
 10
191.3051188151039
 20
186.0880384657115
 30
0.0
 10
191.3051188151039
 20
186.0880384657115
 30
0.0
 10
191.3054633246526
 20
186.0787367078991
 30
0.0
 10
191.3109754774304
 20
185.9566080729166
 30
0.0
 10
191.3109754774304
 20
185.7399115668401
 30
0.0
 10
191.3109754774304
 20
184.2090833875865
 30
0.0
 10
191.0488037109374
 20
177.9643310546874
 30
0.0
 10
186.9866916232638
 20
173.5652886284722
 30
0.0
 10
184.2540418836804
 20
170.6064683702255
 30
0.0
 10
180.3224989149304
 20
169.0308539496526
 30
0.0
 10
175.300927734375
 20
168.8825425889756
 30
0.0
 10
175.300927734375
 20
168.8825425889756
 30
0.0
 10
107.0094889322916
 20
168.8828870985243
 30
0.0
 10
107.0094889322916
 20
168.8828870985243
 30
0.0
 10
107.0094889322916
 20
168.8828870985243
 30
0.0
 10
107.0094889322916
 20
166.8830091688368
 30
0.0
 10
107.0094889322916
 20
166.8830091688368
 30
0.0
 10
107.0094889322916
 20
166.8830091688368
 30
0.0
 10
175.3305555555555
 20
166.8830091688368
 30
0.0
 10
175.3305555555555
 20
166.8830091688368
 30
0.0
 10
180.9467502170138
 20
167.0485460069444
 30
0.0
 10
185.3571614583333
 20
168.8448187934026
 30
0.0
 10
188.4687717013888
 20
172.2223904079861
 30
0.0
 10
192.9649658203124
 20
177.1034016927083
 30
0.0
 10
193.3136094835069
 20
183.7202243381076
 30
0.0
 10
193.3136094835069
 20
185.6520616319443
 30
0.0
 10
193.3136094835069
 20
185.9247409396701
 30
0.0
 10
193.3070638020833
 20
186.0868326822916
 30
0.0
 10
193.3039632161458
 20
186.1548733181423
 30
0.0
  0
INSERT
  5
2C2
102
{ACAD_REACTORS
330
2E2
102
}
330
2C0
100
AcDbEntity
  8
LAYER_1
 62
     7
100
AcDbBlockReference
  2
AI9-BLK14
 10
159.5625257703993
 20
200.5118781195744
 30
0.0
  0
INSERT
  5
2C3
330
2C0
100
AcDbEntity
  8
LAYER_1
 62
     7
100
AcDbBlockReference
  2
AI9-BLK13
 10
27.69615614149305
 20
179.2145562065971
 30
0.0
 42
0.9200000000000001
  0
INSERT
  5
2C4
102
{ACAD_REACTORS
330
2CF
102
}
330
2C0
100
AcDbEntity
  8
LAYER_1
 62
     7
100
AcDbBlockReference
  2
AI9-BLK11
 10
44.76591525607638
 20
179.2145562065971
 30
0.0
 42
0.9200000000000001
  0
INSERT
  5
2C5
102
{ACAD_REACTORS
330
2DD
102
}
330
2C0
100
AcDbEntity
  8
LAYER_1
 62
     7
100
AcDbBlockReference
  2
AI9-BLK10
 10
54.04665798611111
 20
179.2145562065971
 30
0.0
 42
0.9200000000000001
  0
INSERT
  5
2C6
102
{ACAD_REACTORS
330
2DC
102
}
330
2C0
100
AcDbEntity
  8
LAYER_1
 62
     7
100
AcDbBlockReference
  2
AI9-BLK9
 10
62.79013807508679
 20
179.2145562065971
 30
0.0
 42
0.9
  0
INSERT
  5
2C7
330
2C0
100
AcDbEntity
  8
LAYER_1
 62
     7
100
AcDbBlockReference
  2
AI9-BLK8
 10
71.03046196831595
 20
179.2145562065971
 30
0.0
 42
0.9200000000000001
  0
INSERT
  5
2C8
330
2C0
100
AcDbEntity
  8
LAYER_1
 62
     7
100
AcDbBlockReference
  2
AI9-BLK7
 10
76.93793945312498
 20
179.2145562065971
 30
0.0
 42
0.9200000000000001
  0
INSERT
  5
2C9
102
{ACAD_REACTORS
330
2D0
102
}
330
2C0
100
AcDbEntity
  8
LAYER_1
 62
     7
100
AcDbBlockReference
  2
AI9-BLK6
 10
82.55602891710069
 20
179.2145562065971
 30
0.0
 42
0.9
  0
INSERT
  5
2CA
102
{ACAD_REACTORS
330
2DE
102
}
330
2C0
100
AcDbEntity
  8
LAYER_1
 62
     7
100
AcDbBlockReference
  2
AI9-BLK5
 10
94.32430284288193
 20
179.2145562065971
 30
0.0
 42
0.9200000000000001
  0
INSERT
  5
2CB
102
{ACAD_REACTORS
330
2DF
102
}
330
2C0
100
AcDbEntity
  8
LAYER_1
 62
     7
100
AcDbBlockReference
  2
AI9-BLK4
 10
103.2081705729166
 20
179.2145562065971
 30
0.0
 42
0.9200000000000001
  0
INSERT
  5
2CC
330
2C0
100
AcDbEntity
  8
LAYER_1
 62
     7
100
AcDbBlockReference
  2
AI9-BLK3
 10
108.850978597005
 20
179.2145562065971
 30
0.0
 42
0.9200000000000001
  0
INSERT
  5
2CD
330
2C0
100
AcDbEntity
  8
LAYER_1
 62
     7
100
AcDbBlockReference
  2
AI9-BLK2
 10
114.2045708550346
 20
179.2145562065971
 30
0.0
 42
0.9200000000000001
  0
INSERT
  5
2CE
330
2C0
100
AcDbEntity
  8
LAYER_1
 62
     7
100
AcDbBlockReference
  2
AI9-BLK1
 10
122.4125108506944
 20
179.2145562065971
 30
0.0
 42
0.9200000000000001
  0
HATCH
  5
2CF
330
2C0
100
AcDbEntity
  8
0
  6
Continuous
100
AcDbHatch
 10
0.0
 20
0.0
 30
0.0
210
0.0
220
0.0
230
1.0
  2
SOLID
 70
     1
 71
     1
 91
        2
 92
       16
 93
        1
 72
     4
 94
        3
 73
     0
 74
     0
 95
       26
 96
       22
 40
0.0
 40
0.0
 40
0.0
 40
0.0
 40
1.0
 40
1.0
 40
1.0
 40
2.0
 40
2.0
 40
2.0
 40
3.0
 40
3.0
 40
3.0
 40
4.0
 40
4.0
 40
4.0
 40
5.0
 40
5.0
 40
5.0
 40
6.0
 40
6.0
 40
6.0
 40
7.0
 40
7.0
 40
7.0
 40
7.0
 10
42.12008192274304
 20
180.046229817708
 10
42.12008192274304
 20
180.046229817708
 10
42.12008192274304
 20
186.7401881510414
 10
42.12008192274304
 20
186.7401881510414
 10
42.12008192274304
 20
186.7401881510414
 10
45.23100314670138
 20
186.7401881510414
 10
45.23100314670138
 20
186.7401881510414
 10
45.66853027343749
 20
186.7401881510414
 10
46.01579589843749
 20
186.6064357638888
 10
46.27280002170138
 20
186.3401987847219
 10
46.76751573350694
 20
185.8330807291664
 10
47.01487358940972
 20
184.8822343749999
 10
47.01487358940972
 20
183.4863919270832
 10
47.01487358940972
 20
182.188169704861
 10
46.83848470052082
 20
181.2905707465276
 10
46.48639594184028
 20
180.7929611545138
 10
46.13430718315971
 20
180.2947176649304
 10
45.65888400607638
 20
180.046229817708
 10
45.06012641059028
 20
180.046229817708
 10
45.06012641059028
 20
180.046229817708
 10
42.12008192274304
 20
180.046229817708
 10
42.12008192274304
 20
180.046229817708
 97
        1
330
2C4
 92
        1
 93
        1
 72
     4
 94
        3
 73
     0
 74
     0
 95
       68
 96
       64
 40
0.0
 40
0.0
 40
0.0
 40
0.0
 40
1.0
 40
1.0
 40
1.0
 40
2.0
 40
2.0
 40
2.0
 40
3.0
 40
3.0
 40
3.0
 40
4.0
 40
4.0
 40
4.0
 40
5.0
 40
5.0
 40
5.0
 40
6.0
 40
6.0
 40
6.0
 40
7.0
 40
7.0
 40
7.0
 40
8.0
 40
8.0
 40
8.0
 40
9.0
 40
9.0
 40
9.0
 40
10.0
 40
10.0
 40
10.0
 40
11.0
 40
11.0
 40
11.0
 40
12.0
 40
12.0
 40
12.0
 40
13.0
 40
13.0
 40
13.0
 40
14.0
 40
14.0
 40
14.0
 40
15.0
 40
15.0
 40
15.0
 40
16.0
 40
16.0
 40
16.0
 40
17.0
 40
17.0
 40
17.0
 40
18.0
 40
18.0
 40
18.0
 40
19.0
 40
19.0
 40
19.0
 40
20.0
 40
20.0
 40
20.0
 40
21.0
 40
21.0
 40
21.0
 40
21.0
 10
40.79716525607638
 20
169.3358964843748
 10
40.79716525607638
 20
169.3358964843748
 10
42.12008192274304
 20
169.3358964843748
 10
42.12008192274304
 20
169.3358964843748
 10
42.12008192274304
 20
169.3358964843748
 10
42.12008192274304
 20
177.8149103732638
 10
42.12008192274304
 20
177.8149103732638
 10
42.12008192274304
 20
177.8149103732638
 10
45.00500488281249
 20
177.8149103732638
 10
45.00500488281249
 20
177.8149103732638
 10
45.52590332031249
 20
177.8149103732638
 10
45.90968695746528
 20
177.6938359374999
 10
46.15635579427083
 20
177.4516870659719
 10
46.58216959635416
 20
177.0117621527776
 10
46.80954589843749
 20
176.1458580729166
 10
46.83848470052082
 20
174.8539748263888
 10
46.83848470052082
 20
174.8539748263888
 10
46.92667914496527
 20
171.5564396701388
 10
46.92667914496527
 20
171.5564396701388
 10
46.94597167968749
 20
170.7843524305554
 10
46.96870930989581
 20
170.2639225260416
 10
46.99351399739582
 20
169.9951499565971
 10
47.01831868489581
 20
169.725743489583
 10
47.0548366970486
 20
169.5057810329859
 10
47.10444607204859
 20
169.3358964843748
 10
47.10444607204859
 20
169.3358964843748
 10
48.73466525607638
 20
169.3358964843748
 10
48.73466525607638
 20
169.3358964843748
 10
48.73466525607638
 20
169.3358964843748
 10
48.73466525607638
 20
169.7821603732638
 10
48.73466525607638
 20
169.7821603732638
 10
48.53278266059028
 20
169.9609194878471
 10
48.39153374565971
 20
170.3628105468748
 10
48.31160753038194
 20
170.9878335503471
 10
48.26062011718749
 20
171.3542263454858
 10
48.22548014322916
 20
171.9120562065971
 10
48.20549858940971
 20
172.6625909288193
 10
48.20549858940971
 20
172.6625909288193
 10
48.16140136718749
 20
175.3205234374999
 10
48.16140136718749
 20
175.3205234374999
 10
48.14141981336803
 20
176.4716814236109
 10
48.03462185329859
 20
177.3033550347219
 10
47.84169650607638
 20
177.8142764756941
 10
47.64808213975693
 20
178.3251979166666
 10
47.35800509982638
 20
178.7372313368055
 10
46.97077636718749
 20
179.0516445312499
 10
47.4021023220486
 20
179.5086846788193
 10
47.73765462239582
 20
180.1134229600693
 10
47.97743326822916
 20
180.8664932725691
 10
48.2172119140625
 20
181.6189296874999
 10
48.33779025607638
 20
182.5868912760416
 10
48.33779025607638
 20
183.7697441406249
 10
48.33779025607638
 20
186.0371957465275
 10
47.89061686197916
 20
187.5921464843749
 10
46.99695909288194
 20
188.4345963541666
 10
46.52567003038194
 20
188.8732534722221
 10
45.92966851128472
 20
189.0932159288193
 10
45.20895453559027
 20
189.0932159288193
 10
45.20895453559027
 20
189.0932159288193
 10
40.79716525607638
 20
189.0932159288193
 10
40.79716525607638
 20
189.0932159288193
 10
40.79716525607638
 20
189.0932159288193
 10
40.79716525607638
 20
169.3358964843748
 10
40.79716525607638
 20
169.3358964843748
 97
        0
 75
     0
 76
     1
 98
        0
  0
HATCH
  5
2D0
330
2C0
100
AcDbEntity
  8
0
  6
Continuous
100
AcDbHatch
 10
0.0
 20
0.0
 30
0.0
210
0.0
220
0.0
230
1.0
  2
SOLID
 70
     1
 71
     1
 91
        1
 92
        1
 93
        1
 72
     4
 94
        3
 73
     0
 74
     0
 95
       59
 96
       55
 40
0.0
 40
0.0
 40
0.0
 40
0.0
 40
1.0
 40
1.0
 40
1.0
 40
2.0
 40
2.0
 40
2.0
 40
3.0
 40
3.0
 40
3.0
 40
4.0
 40
4.0
 40
4.0
 40
5.0
 40
5.0
 40
5.0
 40
6.0
 40
6.0
 40
6.0
 40
7.0
 40
7.0
 40
7.0
 40
8.0
 40
8.0
 40
8.0
 40
9.0
 40
9.0
 40
9.0
 40
10.0
 40
10.0
 40
10.0
 40
11.0
 40
11.0
 40
11.0
 40
12.0
 40
12.0
 40
12.0
 40
13.0
 40
13.0
 40
13.0
 40
14.0
 40
14.0
 40
14.0
 40
15.0
 40
15.0
 40
15.0
 40
16.0
 40
16.0
 40
16.0
 40
17.0
 40
17.0
 40
17.0
 40
18.0
 40
18.0
 40
18.0
 40
18.0
 10
85.61871880425345
 20
187.4658355034721
 10
86.29120144314232
 20
186.1797124565971
 10
86.66671685112847
 20
184.7193364800346
 10
86.7452650282118
 20
183.0840874565969
 10
86.7452650282118
 20
183.0840874565969
 10
85.42234836154511
 20
183.0840874565969
 10
85.42234836154511
 20
183.0840874565969
 10
85.27696533203123
 20
184.3156401909719
 10
84.99171142578125
 20
185.2917046440971
 10
84.56589762369791
 20
186.0122808159719
 10
84.14008382161458
 20
186.7322368706594
 10
83.53994818793401
 20
187.0925249565969
 10
82.76617974175342
 20
187.0925249565969
 10
81.81740044487847
 20
187.0925249565969
 10
81.05258924696178
 20
186.4240386284721
 10
80.47243516710068
 20
185.0883062065971
 10
79.89159206814234
 20
183.7525737847219
 10
79.6015150282118
 20
181.7049468315971
 10
79.6015150282118
 20
178.9454253472221
 10
79.6015150282118
 20
176.6844780815969
 10
79.86265326605901
 20
174.8514116753471
 10
80.38561876085069
 20
173.4456060112846
 10
80.90789523654512
 20
172.0391802300344
 10
81.69199896918403
 20
171.3365874565971
 10
82.73724093967013
 20
171.3365874565971
 10
83.69497748480901
 20
171.3365874565971
 10
84.42120361328125
 20
172.0794878472221
 10
84.91523030598958
 20
173.5665288628469
 10
85.18601481119791
 20
174.3491167534719
 10
85.38445231119791
 20
175.3785112847221
 10
85.51054280598959
 20
176.6547124565971
 10
85.51054280598959
 20
176.6547124565971
 10
86.83345947265625
 20
176.6547124565971
 10
86.83345947265625
 20
176.6547124565971
 10
86.72597249348957
 20
174.6157671440971
 10
86.35114610460069
 20
172.9061040581596
 10
85.70760226779514
 20
171.526343315972
 10
84.93727891710069
 20
169.8650493706596
 10
83.90375027126735
 20
169.0347124565971
 10
82.60701633029514
 20
169.0347124565971
 10
81.48598225911458
 20
169.0347124565971
 10
80.54547119140625
 20
169.7143608940971
 10
79.78479410807292
 20
171.0742778862845
 10
78.78020426432292
 20
172.8726177300344
 10
78.27859836154512
 20
175.6495024956596
 10
78.27859836154512
 20
179.4049321831594
 10
78.27859836154512
 20
182.2562310112846
 10
78.65342475043402
 20
184.5946929253469
 10
79.40445556640622
 20
186.4196978081596
 10
80.22301025390625
 20
188.4028325737846
 10
81.34955647786458
 20
189.3943999565971
 10
82.78271620008679
 20
189.3943999565971
 10
84.00090196397568
 20
189.3943999565971
 10
84.94623616536458
 20
188.7513384331594
 10
85.61871880425345
 20
187.4658355034721
 97
        1
330
2C9
 75
     0
 76
     1
 98
        1
 10
0.0
 20
0.0
  0
LINE
  5
2D1
102
{ACAD_REACTORS
330
2E0
102
}
330
2C0
100
AcDbEntity
  8
LAYER_1
 62
     7
100
AcDbLine
 10
34.65766059027778
 20
177.4497853732638
 30
0.0
 11
36.19830729166666
 21
186.1658769531249
 31
0.0
  0
LINE
  5
2D2
102
{ACAD_REACTORS
330
2E0
102
}
330
2C0
100
AcDbEntity
  8
LAYER_1
 62
     7
100
AcDbLine
 10
36.19830729166666
 20
186.1658769531249
 30
0.0
 11
37.67556423611111
 21
177.4497853732638
 31
0.0
  0
LINE
  5
2D3
102
{ACAD_REACTORS
330
2E0
102
}
330
2C0
100
AcDbEntity
  8
LAYER_1
 62
     7
100
AcDbLine
 10
37.67556423611111
 20
177.4497853732638
 30
0.0
 11
34.65766059027778
 21
177.4497853732638
 31
0.0
  0
LINE
  5
2D4
102
{ACAD_REACTORS
330
2E0
102
}
330
2C0
100
AcDbEntity
  8
LAYER_1
 62
     7
100
AcDbLine
 10
31.83957248263888
 20
169.3358964843748
 30
0.0
 11
33.22450086805555
 21
169.3358964843748
 31
0.0
  0
LINE
  5
2D5
102
{ACAD_REACTORS
330
2E0
102
}
330
2C0
100
AcDbEntity
  8
LAYER_1
 62
     7
100
AcDbLine
 10
33.22450086805555
 20
169.3358964843748
 30
0.0
 11
34.27043185763887
 21
175.2590353732638
 31
0.0
  0
LINE
  5
2D6
102
{ACAD_REACTORS
330
2E0
102
}
330
2C0
100
AcDbEntity
  8
LAYER_1
 62
     7
100
AcDbLine
 10
34.27043185763887
 20
175.2590353732638
 30
0.0
 11
38.04694552951389
 21
175.2590353732638
 31
0.0
  0
LINE
  5
2D7
102
{ACAD_REACTORS
330
2E0
102
}
330
2C0
100
AcDbEntity
  8
LAYER_1
 62
     7
100
AcDbLine
 10
38.04694552951389
 20
175.2590353732638
 30
0.0
 11
39.05015733506942
 21
169.3358964843748
 31
0.0
  0
LINE
  5
2D8
102
{ACAD_REACTORS
330
2E0
102
}
330
2C0
100
AcDbEntity
  8
LAYER_1
 62
     7
100
AcDbLine
 10
39.05015733506942
 20
169.3358964843748
 30
0.0
 11
40.43508572048611
 21
169.3358964843748
 31
0.0
  0
LINE
  5
2D9
102
{ACAD_REACTORS
330
2E0
102
}
330
2C0
100
AcDbEntity
  8
LAYER_1
 62
     7
100
AcDbLine
 10
40.43508572048611
 20
169.3358964843748
 30
0.0
 11
36.952783203125
 21
189.0932159288193
 31
0.0
  0
LINE
  5
2DA
102
{ACAD_REACTORS
330
2E0
102
}
330
2C0
100
AcDbEntity
  8
LAYER_1
 62
     7
100
AcDbLine
 10
36.952783203125
 20
189.0932159288193
 30
0.0
 11
35.47828233506943
 21
189.0932159288193
 31
0.0
  0
LINE
  5
2DB
102
{ACAD_REACTORS
330
2E0
102
}
330
2C0
100
AcDbEntity
  8
LAYER_1
 62
     7
100
AcDbLine
 10
35.47828233506943
 20
189.0932159288193
 30
0.0
 11
31.83957248263888
 21
169.3358964843748
 31
0.0
  0
HATCH
  5
2DC
330
2C0
100
AcDbEntity
  8
0
  6
Continuous
100
AcDbHatch
 10
0.0
 20
0.0
 30
0.0
210
0.0
220
0.0
230
1.0
  2
SOLID
 70
     1
 71
     1
 91
        2
 92
       16
 93
        1
 72
     4
 94
        3
 73
     0
 74
     0
 95
       29
 96
       25
 40
0.0
 40
0.0
 40
0.0
 40
0.0
 40
1.0
 40
1.0
 40
1.0
 40
2.0
 40
2.0
 40
2.0
 40
3.0
 40
3.0
 40
3.0
 40
4.0
 40
4.0
 40
4.0
 40
5.0
 40
5.0
 40
5.0
 40
6.0
 40
6.0
 40
6.0
 40
7.0
 40
7.0
 40
7.0
 40
8.0
 40
8.0
 40
8.0
 40
8.0
 10
62.85697292751734
 20
171.3365874565971
 10
61.88338894314235
 20
171.3365874565971
 10
61.18058946397566
 20
172.0714263237844
 10
60.74857449001735
 20
173.5411040581594
 10
60.31587049696178
 20
175.0107817925344
 10
60.10020751953124
 20
176.8165630425344
 10
60.10020751953124
 20
178.9578276909721
 10
60.10020751953124
 20
181.6342534722221
 10
60.35101047092013
 20
183.6589360894094
 10
60.85261637369789
 20
185.0324956597219
 10
61.35422227647566
 20
186.4054351128471
 10
62.00741238064235
 20
187.0925249565969
 10
62.81218668619789
 20
187.0925249565969
 10
63.63694254557291
 20
187.0925249565969
 10
64.2880655924479
 20
186.3992339409721
 10
64.76486680772568
 20
185.0126519097221
 10
65.24166802300347
 20
183.6260698784719
 10
65.48006863064235
 20
181.7961040581594
 10
65.48006863064235
 20
179.5239946831596
 10
65.48006863064235
 20
177.3734282769096
 10
65.27336290147568
 20
175.4715288628469
 10
64.86132948133678
 20
173.8176763237846
 10
64.4492960611979
 20
172.1632036675344
 10
63.78094753689235
 20
171.3365874565971
 10
62.85697292751734
 20
171.3365874565971
 97
        1
330
2C6
 92
        1
 93
        1
 72
     4
 94
        3
 73
     0
 74
     0
 95
       29
 96
       25
 40
0.0
 40
0.0
 40
0.0
 40
0.0
 40
1.0
 40
1.0
 40
1.0
 40
2.0
 40
2.0
 40
2.0
 40
3.0
 40
3.0
 40
3.0
 40
4.0
 40
4.0
 40
4.0
 40
5.0
 40
5.0
 40
5.0
 40
6.0
 40
6.0
 40
6.0
 40
7.0
 40
7.0
 40
7.0
 40
8.0
 40
8.0
 40
8.0
 40
8.0
 10
62.76119927300346
 20
189.4340874565971
 10
61.47273356119789
 20
189.4340874565971
 10
60.50121663411457
 20
188.2397417534719
 10
59.84733751085069
 20
185.8516704644094
 10
59.33953043619791
 20
183.9900786675344
 10
59.08597140842013
 20
181.7514556206596
 10
59.08597140842013
 20
179.1351812065971
 10
59.08597140842013
 20
176.2379937065971
 10
59.3836276584201
 20
173.8412407769094
 10
59.97894015842013
 20
171.9449224175346
 10
60.64246554904514
 20
169.9779106987846
 10
61.56023898654513
 20
168.9950249565971
 10
62.73157145182291
 20
168.9950249565971
 10
63.99040934244791
 20
168.9950249565971
 10
64.95641411675348
 20
170.1186773003469
 10
65.63027479383679
 20
172.3659819878471
 10
66.20629475911457
 20
174.2796636284719
 10
66.49430474175346
 20
176.6813774956594
 10
66.49430474175346
 20
179.5698833550344
 10
66.49430474175346
 20
182.2388677300344
 10
66.24005669487846
 20
184.4291216362844
 10
65.73293863932291
 20
186.1412651909719
 10
65.08870578342011
 20
188.3364800347219
 10
64.09789632161457
 20
189.4340874565971
 10
62.76119927300346
 20
189.4340874565971
 97
        0
 75
     0
 76
     1
 98
        0
  0
HATCH
  5
2DD
330
2C0
100
AcDbEntity
  8
0
  6
Continuous
100
AcDbHatch
 10
0.0
 20
0.0
 30
0.0
210
0.0
220
0.0
230
1.0
  2
SOLID
 70
     1
 71
     1
 91
        1
 92
        1
 93
        1
 72
     4
 94
        3
 73
     0
 74
     0
 95
       59
 96
       55
 40
0.0
 40
0.0
 40
0.0
 40
0.0
 40
1.0
 40
1.0
 40
1.0
 40
2.0
 40
2.0
 40
2.0
 40
3.0
 40
3.0
 40
3.0
 40
4.0
 40
4.0
 40
4.0
 40
5.0
 40
5.0
 40
5.0
 40
6.0
 40
6.0
 40
6.0
 40
7.0
 40
7.0
 40
7.0
 40
8.0
 40
8.0
 40
8.0
 40
9.0
 40
9.0
 40
9.0
 40
10.0
 40
10.0
 40
10.0
 40
11.0
 40
11.0
 40
11.0
 40
12.0
 40
12.0
 40
12.0
 40
13.0
 40
13.0
 40
13.0
 40
14.0
 40
14.0
 40
14.0
 40
15.0
 40
15.0
 40
15.0
 40
16.0
 40
16.0
 40
16.0
 40
17.0
 40
17.0
 40
17.0
 40
18.0
 40
18.0
 40
18.0
 40
18.0
 10
49.39440104166666
 20
189.0932159288193
 10
49.39440104166666
 20
189.0932159288193
 10
51.24786241319444
 20
189.0932159288193
 10
51.24786241319444
 20
189.0932159288193
 10
51.24786241319444
 20
189.0932159288193
 10
54.04665798611111
 20
172.3887471788193
 10
54.04665798611111
 20
172.3887471788193
 10
54.04665798611111
 20
172.3887471788193
 10
56.83994140624999
 20
189.0932159288193
 10
56.83994140624999
 20
189.0932159288193
 10
56.83994140624999
 20
189.0932159288193
 10
58.69891493055553
 20
189.0932159288193
 10
58.69891493055553
 20
189.0932159288193
 10
58.69891493055553
 20
189.0932159288193
 10
58.69891493055553
 20
169.3358964843748
 10
58.69891493055553
 20
169.3358964843748
 10
58.69891493055553
 20
169.3358964843748
 10
57.46419270833333
 20
169.3358964843748
 10
57.46419270833333
 20
169.3358964843748
 10
57.46419270833333
 20
169.3358964843748
 10
57.46419270833333
 20
180.9964422743055
 10
57.46419270833333
 20
180.9964422743055
 10
57.46419270833333
 20
181.3996011284721
 10
57.47108289930555
 20
182.0677291666664
 10
57.48624131944444
 20
183.0001924913193
 10
57.50071072048609
 20
183.9326558159721
 10
57.50828993055553
 20
184.932312282986
 10
57.50828993055553
 20
185.9997957899304
 10
57.50828993055553
 20
185.9997957899304
 10
54.700537109375
 20
169.3358964843748
 10
54.700537109375
 20
169.3358964843748
 10
54.700537109375
 20
169.3358964843748
 10
53.38382161458333
 20
169.3358964843748
 10
53.38382161458333
 20
169.3358964843748
 10
53.38382161458333
 20
169.3358964843748
 10
50.58502604166665
 20
185.9997957899304
 10
50.58502604166665
 20
185.9997957899304
 10
50.58502604166665
 20
185.9997957899304
 10
50.58502604166665
 20
185.3944236111109
 10
50.58502604166665
 20
185.3944236111109
 10
50.58502604166665
 20
184.9101258680555
 10
50.59191623263888
 20
184.1729029947916
 10
50.60707465277777
 20
183.1821210937499
 10
50.62154405381942
 20
182.1913391927082
 10
50.62912326388889
 20
181.4629908854166
 10
50.62912326388889
 20
180.9964422743055
 10
50.62912326388889
 20
180.9964422743055
 10
50.62912326388889
 20
169.3358964843748
 10
50.62912326388889
 20
169.3358964843748
 10
50.62912326388889
 20
169.3358964843748
 10
49.39440104166666
 20
169.3358964843748
 10
49.39440104166666
 20
169.3358964843748
 10
49.39440104166666
 20
169.3358964843748
 10
49.39440104166666
 20
189.0932159288193
 10
49.39440104166666
 20
189.0932159288193
 97
        1
330
2C5
 75
     0
 76
     1
 98
        1
 10
0.0
 20
0.0
  0
HATCH
  5
2DE
330
2C0
100
AcDbEntity
  8
0
  6
Continuous
100
AcDbHatch
 10
0.0
 20
0.0
 30
0.0
210
0.0
220
0.0
230
1.0
  2
SOLID
 70
     1
 71
     1
 91
        2
 92
       16
 93
        1
 72
     4
 94
        3
 73
     0
 74
     0
 95
       32
 96
       28
 40
0.0
 40
0.0
 40
0.0
 40
0.0
 40
1.0
 40
1.0
 40
1.0
 40
2.0
 40
2.0
 40
2.0
 40
3.0
 40
3.0
 40
3.0
 40
4.0
 40
4.0
 40
4.0
 40
5.0
 40
5.0
 40
5.0
 40
6.0
 40
6.0
 40
6.0
 40
7.0
 40
7.0
 40
7.0
 40
8.0
 40
8.0
 40
8.0
 40
9.0
 40
9.0
 40
9.0
 40
9.0
 10
91.70051812065969
 20
171.6077853732638
 10
91.70051812065969
 20
171.6077853732638
 10
91.70051812065969
 20
186.7401881510414
 10
91.70051812065969
 20
186.7401881510414
 10
91.70051812065969
 20
186.7401881510414
 10
93.98668348524305
 20
186.7401881510414
 10
93.98668348524305
 20
186.7401881510414
 10
95.02159016927082
 20
186.7401881510414
 10
95.77331000434028
 20
186.0644533420138
 10
96.24322102864582
 20
184.7142515190969
 10
96.71313205295138
 20
183.3640496961804
 10
96.94808756510417
 20
181.4680620659721
 10
96.94808756510417
 20
179.0262886284719
 10
96.94808756510417
 20
178.3911232638888
 10
96.91432562934028
 20
177.7027105034721
 10
96.84749077690971
 20
176.9604164496525
 10
96.7324245876736
 20
175.7167094184025
 10
96.55052354600693
 20
174.6974021267359
 10
96.30109863281248
 20
173.901860677083
 10
95.98414984809028
 20
172.9091770833332
 10
95.57693956163193
 20
172.2378795572914
 10
95.07877875434026
 20
171.8892358940971
 10
94.79076877170138
 20
171.7016022135416
 10
94.43178982204859
 20
171.6077853732638
 10
94.00115288628471
 20
171.6077853732638
 10
94.00115288628471
 20
171.6077853732638
 10
91.70051812065969
 20
171.6077853732638
 10
91.70051812065969
 20
171.6077853732638
 97
        1
330
2CA
 92
        1
 93
        1
 72
     4
 94
        3
 73
     0
 74
     0
 95
       26
 96
       22
 40
0.0
 40
0.0
 40
0.0
 40
0.0
 40
1.0
 40
1.0
 40
1.0
 40
2.0
 40
2.0
 40
2.0
 40
3.0
 40
3.0
 40
3.0
 40
4.0
 40
4.0
 40
4.0
 40
5.0
 40
5.0
 40
5.0
 40
6.0
 40
6.0
 40
6.0
 40
7.0
 40
7.0
 40
7.0
 40
7.0
 10
90.37760145399305
 20
169.3358964843748
 10
90.37760145399305
 20
169.3358964843748
 10
94.22990722656248
 20
169.3358964843748
 10
94.22990722656248
 20
169.3358964843748
 10
95.87115071614581
 20
169.3358964843748
 10
97.03008083767359
 20
170.8331625434027
 10
97.70600857204859
 20
173.8283285590275
 10
98.08221299913194
 20
175.5227367621525
 10
98.27100423177082
 20
177.4187243923609
 10
98.27100423177082
 20
179.5169253472221
 10
98.27100423177082
 20
182.233810329861
 10
97.94716525607638
 20
184.4619602864582
 10
97.30086534288195
 20
186.2013752170138
 10
96.57601725260416
 20
188.1290577256944
 10
95.5576470269097
 20
189.0932159288193
 10
94.24437662760416
 20
189.0932159288193
 10
94.24437662760416
 20
189.0932159288193
 10
90.37760145399305
 20
189.0932159288193
 10
90.37760145399305
 20
189.0932159288193
 10
90.37760145399305
 20
189.0932159288193
 10
90.37760145399305
 20
169.3358964843748
 10
90.37760145399305
 20
169.3358964843748
 97
        0
 75
     0
 76
     1
 98
        0
  0
HATCH
  5
2DF
330
2C0
100
AcDbEntity
  8
0
  6
Continuous
100
AcDbHatch
 10
0.0
 20
0.0
 30
0.0
210
0.0
220
0.0
230
1.0
  2
SOLID
 70
     1
 71
     1
 91
        2
 92
       16
 93
        1
 72
     4
 94
        3
 73
     0
 74
     0
 95
       26
 96
       22
 40
0.0
 40
0.0
 40
0.0
 40
0.0
 40
1.0
 40
1.0
 40
1.0
 40
2.0
 40
2.0
 40
2.0
 40
3.0
 40
3.0
 40
3.0
 40
4.0
 40
4.0
 40
4.0
 40
5.0
 40
5.0
 40
5.0
 40
6.0
 40
6.0
 40
6.0
 40
7.0
 40
7.0
 40
7.0
 40
7.0
 10
100.5623372395832
 20
180.046229817708
 10
100.5623372395832
 20
180.046229817708
 10
100.5623372395832
 20
186.7401881510414
 10
100.5623372395832
 20
186.7401881510414
 10
100.5623372395832
 20
186.7401881510414
 10
103.6732584635416
 20
186.7401881510414
 10
103.6732584635416
 20
186.7401881510414
 10
104.1107855902777
 20
186.7401881510414
 10
104.4580512152777
 20
186.6064357638888
 10
104.7150553385415
 20
186.3401987847219
 10
105.2097710503471
 20
185.8330807291664
 10
105.4571289062497
 20
184.8822343749999
 10
105.4571289062497
 20
183.4863919270832
 10
105.4571289062497
 20
182.188169704861
 10
105.280740017361
 20
181.2905707465276
 10
104.9286512586804
 20
180.7929611545138
 10
104.5765624999999
 20
180.2947176649304
 10
104.1011393229166
 20
180.046229817708
 10
103.5023817274304
 20
180.046229817708
 10
103.5023817274304
 20
180.046229817708
 10
100.5623372395832
 20
180.046229817708
 10
100.5623372395832
 20
180.046229817708
 97
        1
330
2CB
 92
        1
 93
        1
 72
     4
 94
        3
 73
     0
 74
     0
 95
       68
 96
       64
 40
0.0
 40
0.0
 40
0.0
 40
0.0
 40
1.0
 40
1.0
 40
1.0
 40
2.0
 40
2.0
 40
2.0
 40
3.0
 40
3.0
 40
3.0
 40
4.0
 40
4.0
 40
4.0
 40
5.0
 40
5.0
 40
5.0
 40
6.0
 40
6.0
 40
6.0
 40
7.0
 40
7.0
 40
7.0
 40
8.0
 40
8.0
 40
8.0
 40
9.0
 40
9.0
 40
9.0
 40
10.0
 40
10.0
 40
10.0
 40
11.0
 40
11.0
 40
11.0
 40
12.0
 40
12.0
 40
12.0
 40
13.0
 40
13.0
 40
13.0
 40
14.0
 40
14.0
 40
14.0
 40
15.0
 40
15.0
 40
15.0
 40
16.0
 40
16.0
 40
16.0
 40
17.0
 40
17.0
 40
17.0
 40
18.0
 40
18.0
 40
18.0
 40
19.0
 40
19.0
 40
19.0
 40
20.0
 40
20.0
 40
20.0
 40
21.0
 40
21.0
 40
21.0
 40
21.0
 10
99.23942057291661
 20
169.3358964843748
 10
99.23942057291661
 20
169.3358964843748
 10
100.5623372395832
 20
169.3358964843748
 10
100.5623372395832
 20
169.3358964843748
 10
100.5623372395832
 20
169.3358964843748
 10
100.5623372395832
 20
177.8149103732638
 10
100.5623372395832
 20
177.8149103732638
 10
100.5623372395832
 20
177.8149103732638
 10
103.4472601996527
 20
177.8149103732638
 10
103.4472601996527
 20
177.8149103732638
 10
103.9681586371527
 20
177.8149103732638
 10
104.3519422743053
 20
177.6938359374999
 10
104.5986111111109
 20
177.4516870659719
 10
105.0244249131943
 20
177.0117621527776
 10
105.2518012152777
 20
176.1458580729166
 10
105.280740017361
 20
174.8539748263888
 10
105.280740017361
 20
174.8539748263888
 10
105.3689344618053
 20
171.5564396701388
 10
105.3689344618053
 20
171.5564396701388
 10
105.3882269965277
 20
170.7843524305554
 10
105.4109646267359
 20
170.2639225260416
 10
105.4357693142359
 20
169.9951499565971
 10
105.4605740017358
 20
169.725743489583
 10
105.4970920138888
 20
169.5057810329859
 10
105.5467013888887
 20
169.3358964843748
 10
105.5467013888887
 20
169.3358964843748
 10
107.1769205729166
 20
169.3358964843748
 10
107.1769205729166
 20
169.3358964843748
 10
107.1769205729166
 20
169.3358964843748
 10
107.1769205729166
 20
169.7821603732638
 10
107.1769205729166
 20
169.7821603732638
 10
106.9750379774303
 20
169.9609194878471
 10
106.8337890624997
 20
170.3628105468748
 10
106.7538628472221
 20
170.9878335503471
 10
106.7028754340274
 20
171.3542263454858
 10
106.6677354600692
 20
171.9120562065971
 10
106.6477539062497
 20
172.6625909288193
 10
106.6477539062497
 20
172.6625909288193
 10
106.6036566840277
 20
175.3205234374999
 10
106.6036566840277
 20
175.3205234374999
 10
106.5836751302082
 20
176.4716814236109
 10
106.4768771701387
 20
177.3033550347219
 10
106.2839518229166
 20
177.8142764756941
 10
106.0903374565971
 20
178.3251979166666
 10
105.8002604166666
 20
178.7372313368055
 10
105.4130316840277
 20
179.0516445312499
 10
105.8443576388886
 20
179.5086846788193
 10
106.179909939236
 20
180.1134229600693
 10
106.4196885850692
 20
180.8664932725691
 10
106.6594672309027
 20
181.6189296874999
 10
106.7800455729166
 20
182.5868912760416
 10
106.7800455729166
 20
183.7697441406249
 10
106.7800455729166
 20
186.0371957465275
 10
106.3328721788193
 20
187.5921464843749
 10
105.4392144097221
 20
188.4345963541666
 10
104.9679253472221
 20
188.8732534722221
 10
104.3719238281249
 20
189.0932159288193
 10
103.6512098524303
 20
189.0932159288193
 10
103.6512098524303
 20
189.0932159288193
 10
99.23942057291661
 20
189.0932159288193
 10
99.23942057291661
 20
189.0932159288193
 10
99.23942057291661
 20
189.0932159288193
 10
99.23942057291661
 20
169.3358964843748
 10
99.23942057291661
 20
169.3358964843748
 97
        0
 75
     0
 76
     1
 98
        0
  0
HATCH
  5
2E0
330
2C0
100
AcDbEntity
  8
0
  6
Continuous
100
AcDbHatch
 10
0.0
 20
0.0
 30
0.0
210
0.0
220
0.0
230
1.0
  2
SOLID
 70
     1
 71
     1
 91
        2
 92
        1
 93
        8
 72
     1
 10
35.47828233506943
 20
189.0932159288193
 11
31.83957248263888
 21
169.3358964843748
 72
     1
 10
31.83957248263888
 20
169.3358964843748
 11
33.22450086805555
 21
169.3358964843748
 72
     1
 10
33.22450086805555
 20
169.3358964843748
 11
34.27043185763887
 21
175.2590353732638
 72
     1
 10
34.27043185763887
 20
175.2590353732638
 11
38.04694552951389
 21
175.2590353732638
 72
     1
 10
38.04694552951389
 20
175.2590353732638
 11
39.05015733506942
 21
169.3358964843748
 72
     1
 10
39.05015733506942
 20
169.3358964843748
 11
40.43508572048611
 21
169.3358964843748
 72
     1
 10
40.43508572048611
 20
169.3358964843748
 11
36.952783203125
 21
189.0932159288193
 72
     1
 10
36.952783203125
 20
189.0932159288193
 11
35.47828233506943
 21
189.0932159288193
 97
        8
330
2DB
330
2D4
330
2D5
330
2D6
330
2D7
330
2D8
330
2D9
330
2DA
 92
       16
 93
        3
 72
     1
 10
37.67556423611111
 20
177.4497853732638
 11
34.65766059027778
 21
177.4497853732638
 72
     1
 10
34.65766059027778
 20
177.4497853732638
 11
36.19830729166666
 21
186.1658769531249
 72
     1
 10
36.19830729166666
 20
186.1658769531249
 11
37.67556423611111
 21
177.4497853732638
 97
        3
330
2D3
330
2D1
330
2D2
 75
     0
 76
     1
 98
        1
 10
0.0
 20
0.0
  0
HATCH
  5
2E1
330
2C0
100
AcDbEntity
  8
0
  6
Continuous
100
AcDbHatch
 10
0.0
 20
0.0
 30
0.0
210
0.0
220
0.0
230
1.0
  2
SOLID
 70
     1
 71
     1
 91
        1
 92
        1
 93
        1
 72
     4
 94
        3
 73
     0
 74
     0
 95
      113
 96
      109
 40
0.0
 40
0.0
 40
0.0
 40
0.0
 40
1.0
 40
1.0
 40
1.0
 40
2.0
 40
2.0
 40
2.0
 40
3.0
 40
3.0
 40
3.0
 40
4.0
 40
4.0
 40
4.0
 40
5.0
 40
5.0
 40
5.0
 40
6.0
 40
6.0
 40
6.0
 40
7.0
 40
7.0
 40
7.0
 40
8.0
 40
8.0
 40
8.0
 40
9.0
 40
9.0
 40
9.0
 40
10.0
 40
10.0
 40
10.0
 40
11.0
 40
11.0
 40
11.0
 40
12.0
 40
12.0
 40
12.0
 40
13.0
 40
13.0
 40
13.0
 40
14.0
 40
14.0
 40
14.0
 40
15.0
 40
15.0
 40
15.0
 40
16.0
 40
16.0
 40
16.0
 40
17.0
 40
17.0
 40
17.0
 40
18.0
 40
18.0
 40
18.0
 40
19.0
 40
19.0
 40
19.0
 40
20.0
 40
20.0
 40
20.0
 40
21.0
 40
21.0
 40
21.0
 40
22.0
 40
22.0
 40
22.0
 40
23.0
 40
23.0
 40
23.0
 40
24.0
 40
24.0
 40
24.0
 40
25.0
 40
25.0
 40
25.0
 40
26.0
 40
26.0
 40
26.0
 40
27.0
 40
27.0
 40
27.0
 40
28.0
 40
28.0
 40
28.0
 40
29.0
 40
29.0
 40
29.0
 40
30.0
 40
30.0
 40
30.0
 40
31.0
 40
31.0
 40
31.0
 40
32.0
 40
32.0
 40
32.0
 40
33.0
 40
33.0
 40
33.0
 40
34.0
 40
34.0
 40
34.0
 40
35.0
 40
35.0
 40
35.0
 40
36.0
 40
36.0
 40
36.0
 40
36.0
 10
193.3039632161458
 20
186.1548733181423
 10
193.3039632161458
 20
186.1860514322916
 10
193.3039632161458
 20
219.6932223849826
 10
193.3039632161458
 20
219.6932223849826
 10
193.3039632161458
 20
219.6932223849826
 10
193.2974175347219
 20
219.7488606770833
 10
193.2974175347219
 20
219.7488606770833
 10
191.5293945312499
 20
235.455740017361
 10
175.1458984374999
 20
235.2467949761284
 10
174.9808783637151
 20
235.2428331163193
 10
174.9808783637151
 20
235.2428331163193
 10
125.8827555338541
 20
235.2430053710937
 10
125.8827555338541
 20
235.2430053710937
 10
125.8827555338541
 20
235.2430053710937
 10
125.8827555338541
 20
255.5278998480901
 10
125.8827555338541
 20
255.5278998480901
 10
125.8827555338541
 20
255.5278998480901
 10
84.5626247829861
 20
255.5278998480901
 10
84.5626247829861
 20
255.5278998480901
 10
84.5626247829861
 20
255.5278998480901
 10
84.55711263020829
 20
233.7919311523436
 10
84.55711263020829
 20
233.7919311523436
 10
84.55711263020829
 20
233.7919311523436
 10
64.42052951388888
 20
233.7919311523436
 10
64.42052951388888
 20
233.7919311523436
 10
64.42052951388888
 20
233.7919311523436
 10
64.41501736111111
 20
255.5278998480901
 10
64.41501736111111
 20
255.5278998480901
 10
64.41501736111111
 20
255.5278998480901
 10
23.91757541232637
 20
255.5278998480901
 10
23.91757541232637
 20
255.5278998480901
 10
23.91757541232637
 20
255.5278998480901
 10
23.91757541232637
 20
233.2393378363715
 10
23.91757541232637
 20
233.2393378363715
 10
23.91757541232637
 20
233.2393378363715
 10
43.65624999999999
 20
233.2393378363715
 10
43.65624999999999
 20
233.2393378363715
 10
43.65624999999999
 20
233.2393378363715
 10
43.65624999999999
 20
211.5188720703125
 10
43.65624999999999
 20
211.5188720703125
 10
43.65624999999999
 20
211.5188720703125
 10
23.91757541232637
 20
211.5188720703125
 10
23.91757541232637
 20
211.5188720703125
 10
23.91757541232637
 20
211.5188720703125
 10
23.91757541232637
 20
189.2303100585936
 10
23.91757541232637
 20
189.2303100585936
 10
23.91757541232637
 20
189.2303100585936
 10
64.41501736111111
 20
189.2303100585936
 10
64.41501736111111
 20
189.2303100585936
 10
64.41501736111111
 20
189.2303100585936
 10
64.42052951388888
 20
211.069976128472
 10
64.42052951388888
 20
211.069976128472
 10
64.42052951388888
 20
211.069976128472
 10
84.55711263020829
 20
211.069976128472
 10
84.55711263020829
 20
211.069976128472
 10
84.55711263020829
 20
211.069976128472
 10
84.5626247829861
 20
189.2303100585936
 10
84.5626247829861
 20
189.2303100585936
 10
84.5626247829861
 20
189.2303100585936
 10
125.8827555338541
 20
189.2303100585936
 10
125.8827555338541
 20
189.2303100585936
 10
125.8827555338541
 20
189.2303100585936
 10
125.8827555338541
 20
211.5188720703125
 10
125.8827555338541
 20
211.5188720703125
 10
125.8827555338541
 20
211.5188720703125
 10
105.3213921440971
 20
211.5188720703125
 10
105.3213921440971
 20
211.5188720703125
 10
105.3213921440971
 20
211.5188720703125
 10
105.3213921440971
 20
233.2393378363715
 10
105.3213921440971
 20
233.2393378363715
 10
105.3213921440971
 20
233.2393378363715
 10
175.0046495225693
 20
233.243127441406
 10
175.0046495225693
 20
233.243127441406
 10
175.6268337673611
 20
233.2560465494791
 10
189.7165852864583
 20
233.3962619357638
 10
191.3037407769094
 20
219.5690266927083
 10
191.3037407769094
 20
219.4332899305555
 10
191.3037407769094
 20
186.1142211914062
 10
191.3037407769094
 20
186.1142211914062
 10
191.3037407769094
 20
186.1142211914062
 10
191.3051188151039
 20
186.0880384657115
 10
191.3051188151039
 20
186.0880384657115
 10
191.3054633246526
 20
186.0787367078991
 10
191.3109754774304
 20
185.9566080729166
 10
191.3109754774304
 20
185.7399115668401
 10
191.3109754774304
 20
184.2090833875865
 10
191.0488037109374
 20
177.9643310546874
 10
186.9866916232638
 20
173.5652886284722
 10
184.2540418836804
 20
170.6064683702255
 10
180.3224989149304
 20
169.0308539496526
 10
175.300927734375
 20
168.8825425889756
 10
175.300927734375
 20
168.8825425889756
 10
107.0094889322916
 20
168.8828870985243
 10
107.0094889322916
 20
168.8828870985243
 10
107.0094889322916
 20
168.8828870985243
 10
107.0094889322916
 20
166.8830091688368
 10
107.0094889322916
 20
166.8830091688368
 10
107.0094889322916
 20
166.8830091688368
 10
175.3305555555555
 20
166.8830091688368
 10
175.3305555555555
 20
166.8830091688368
 10
180.9467502170138
 20
167.0485460069444
 10
185.3571614583333
 20
168.8448187934026
 10
188.4687717013888
 20
172.2223904079861
 10
192.9649658203124
 20
177.1034016927083
 10
193.3136094835069
 20
183.7202243381076
 10
193.3136094835069
 20
185.6520616319443
 10
193.3136094835069
 20
185.9247409396701
 10
193.3070638020833
 20
186.0868326822916
 10
193.3039632161458
 20
186.1548733181423
 97
        1
330
2C1
 75
     0
 76
     1
 98
        1
 10
0.0
 20
0.0
  0
HATCH
  5
2E2
330
2C0
100
AcDbEntity
  8
0
  6
Continuous
100
AcDbHatch
 10
0.0
 20
0.0
 30
0.0
210
0.0
220
0.0
230
1.0
  2
SOLID
 70
     1
 71
     1
 91
        2
 92
        1
 93
        1
 72
     4
 94
        3
 73
     0
 74
     0
 95
       23
 96
       19
 40
0.0
 40
0.0
 40
0.0
 40
0.0
 40
1.0
 40
1.0
 40
1.0
 40
2.0
 40
2.0
 40
2.0
 40
3.0
 40
3.0
 40
3.0
 40
4.0
 40
4.0
 40
4.0
 40
5.0
 40
5.0
 40
5.0
 40
6.0
 40
6.0
 40
6.0
 40
6.0
 10
148.6593153211804
 20
211.3929538302949
 10
148.6593153211804
 20
211.3929538302949
 10
148.6593153211804
 20
189.6308024088541
 10
148.6593153211804
 20
189.6308024088541
 10
148.6593153211804
 20
189.6308024088541
 10
161.3152180989583
 20
189.6308024088541
 10
161.3152180989583
 20
189.6308024088541
 10
162.8431179470483
 20
189.6308024088541
 10
170.4657362196178
 20
190.1880466037324
 10
170.4657362196178
 20
201.1911648220485
 10
170.4657362196178
 20
211.1288872612846
 10
162.3356553819444
 20
211.3914035373263
 10
162.2536621093749
 20
211.3927815755205
 10
162.2536621093749
 20
211.3927815755205
 10
149.6594265407986
 20
211.3929538302949
 10
149.6594265407986
 20
211.3929538302949
 10
149.6594265407986
 20
211.3929538302949
 10
148.6593153211804
 20
211.3929538302949
 10
148.6593153211804
 20
211.3929538302949
 97
        1
330
2C2
 92
       16
 93
        1
 72
     4
 94
        3
 73
     0
 74
     0
 95
       20
 96
       16
 40
0.0
 40
0.0
 40
0.0
 40
0.0
 40
1.0
 40
1.0
 40
1.0
 40
2.0
 40
2.0
 40
2.0
 40
3.0
 40
3.0
 40
3.0
 40
4.0
 40
4.0
 40
4.0
 40
5.0
 40
5.0
 40
5.0
 40
5.0
 10
162.2354031032984
 20
209.3930759006076
 10
162.467947048611
 20
209.3861857096353
 10
168.4655137803819
 20
209.1283203124999
 10
168.4655137803819
 20
201.1911648220485
 10
168.4655137803819
 20
192.3202162000866
 10
162.9926350911458
 20
191.6306803385414
 10
161.3152180989583
 20
191.6306803385414
 10
161.3152180989583
 20
191.6306803385414
 10
152.3310980902776
 20
191.6306803385414
 10
150.6595377604166
 20
191.6306803385414
 10
150.6595377604166
 20
193.3373806423609
 10
150.6595377604166
 20
207.6863755967881
 10
150.6595377604166
 20
209.3930759006076
 10
152.3538357204859
 20
209.3930759006076
 10
162.2354031032984
 20
209.3930759006076
 10
162.2354031032984
 20
209.3930759006076
 97
        0
 75
     0
 76
     1
 98
        0
  0
ENDBLK
  5
2E4
330
2C0
100
AcDbEntity
  8
0
100
AcDbBlockEnd
  0
BLOCK
  5
2E7
330
2E5
100
AcDbEntity
  8
0
100
AcDbBlockBegin
  2
HD logo-new
 70
     0
 10
0.0
 20
0.0
 30
0.0
  3
HD logo-new
  1

  0
INSERT
  5
2E6
330
2E5
100
AcDbEntity
  8
0
 62
     3
100
AcDbBlockReference
  2
HD_LLC_logo_OT5
 10
-27.1607188578505
 20
-68.37367811463031
 30
0.0
 41
0.2999999999999971
 42
0.3000000000000007
 43
0.3
  0
ENDBLK
  5
2E8
330
2E5
100
AcDbEntity
  8
0
100
AcDbBlockEnd
  0
BLOCK
  5
2EB
330
2E9
100
AcDbEntity
  8
0
100
AcDbBlockBegin
  2
HD Logo
 70
     0
 10
0.0
 20
0.0
 30
0.0
  3
HD Logo
  1

  0
INSERT
  5
2EA
330
2E9
100
AcDbEntity
  8
0
100
AcDbBlockReference
  2
HD logo-new
 10
0.9700256734946606
 20
7.273795608420527
 30
0.0
  0
ENDBLK
  5
2EC
330
2E9
100
AcDbEntity
  8
0
100
AcDbBlockEnd
  0
BLOCK
  5
2FA
330
2F8
100
AcDbEntity
  8
0
100
AcDbBlockBegin
  2
HD LLC
 70
     0
 10
0.0
 20
0.0
 30
0.0
  3
HD LLC
  1

  0
MTEXT
  5
2F9
330
2F8
100
AcDbEntity
  8
0
100
AcDbMText
 10
-2.314970886968865
 20
1.247205085865914
 30
0.0
 40
5.675387507387601
 41
236.1828726592229
 71
     5
 72
     5
  1
Harmonic Drive LLC\P800-921-3332\Pwww.harmonicdrive.net
 73
     1
 44
1.0
  0
ENDBLK
  5
2FB
330
2F8
100
AcDbEntity
  8
0
100
AcDbBlockEnd
  0
ENDSEC
  0
SECTION
  2
ENTITIES
  0
TEXT
  5
267
330
A
100
AcDbEntity
  8
1
 62
     0
100
AcDbText
 10
68.49935565117857
 20
-84.88358534940459
 30
0.0
 40
6.898059555165546
  1
RKF-20A-XXX-E200.DXF
 41
0.9
  7
CONVERTER_3
100
AcDbText
  0
TEXT
  5
25B
330
A
100
AcDbEntity
  8
1
100
AcDbText
 10
182.97123109196
 20
103.4445294671559
 30
0.0
 40
3.0
  1
Encoder cable
 41
0.9
  7
CONVERTER_3
100
AcDbText
  0
TEXT
  5
25A
330
A
100
AcDbEntity
  8
1
100
AcDbText
 10
182.755493455938
 20
96.59835335790599
 30
0.0
 40
3.0
  1
AWG26-7P+SHILD
 41
0.9
  7
CONVERTER_3
100
AcDbText
  0
TEXT
  5
259
330
A
100
AcDbEntity
  8
1
100
AcDbText
 10
183.0527661067979
 20
90.90446923173599
 30
0.0
 40
3.0
  1
L=300   mm
 41
0.9
  7
CONVERTER_3
100
AcDbText
  0
TEXT
  5
258
330
A
100
AcDbEntity
  8
1
100
AcDbText
 10
196.834335838367
 20
92.10513040728599
 30
0.0
 40
1.75
  1
\M+1817D50
 41
0.89
  7
CONVERTER_2
100
AcDbText
  0
MTEXT
  5
257
330
A
100
AcDbEntity
  8
1
100
AcDbMText
 10
101.136187008076
 20
103.76654607928
 30
0.0
 40
3.0
 41
0.0
 71
     9
 72
     1
  1
Motor cable
  7
CONVERTER_3
 73
     1
 44
1.0
  0
TEXT
  5
256
330
A
100
AcDbEntity
  8
1
100
AcDbText
 10
75.25972272993398
 20
97.57167018978901
 30
0.0
 40
3.0
  1
AWG18-4C
 41
0.9
  7
CONVERTER_3
100
AcDbText
  0
TEXT
  5
255
330
A
100
AcDbEntity
  8
1
100
AcDbText
 10
190.879693714574
 20
131.435001677939
 30
0.0
 40
3.0
  1
Encoder connector
 41
0.8100000000000001
  7
CONVERTER_1
100
AcDbText
  0
TEXT
  5
254
330
A
100
AcDbEntity
  8
1
100
AcDbText
 10
75.55699538079402
 20
92.17778606361902
 30
0.0
 40
3.0
  1
L=300   mm
 41
0.9
  7
CONVERTER_3
100
AcDbText
  0
TEXT
  5
252
330
A
100
AcDbEntity
  8
1
100
AcDbText
 10
89.33856511236298
 20
93.37844723916999
 30
0.0
 40
1.75
  1
\M+1817D50
 41
0.89
  7
CONVERTER_2
100
AcDbText
  0
TEXT
  5
250
330
A
100
AcDbEntity
  8
1
 62
     0
100
AcDbText
 10
86.10105644184997
 20
141.307784782914
 30
0.0
 40
3.0
  1
Motor connector
 41
0.8100000000000001
  7
CONVERTER_1
100
AcDbText
  0
LEADER
  5
24E
330
A
100
AcDbEntity
  8
1
  6
Continuous
100
AcDbLeader
  3
STANDARD
 71
     0
 76
     3
 10
163.458734174877
 20
85.655436505621
 30
0.0
 10
179.5965269166519
 20
101.7932292473959
 30
0.0
 10
221.5965269166519
 20
101.7932292473959
 30
0.0
  0
LEADER
  5
24C
330
A
100
AcDbEntity
  8
1
  6
Continuous
 62
     0
100
AcDbLeader
  3
STANDARD
 71
     0
 76
     3
 10
129.1904143850979
 20
85.655436505621
 30
0.0
 10
113.0793048114389
 20
102.26654607928
 30
0.0
 10
74.079304811439
 20
102.26654607928
 30
0.0
  0
LEADER
  5
24A
330
A
100
AcDbEntity
  8
1
  6
Continuous
100
AcDbLeader
  3
STANDARD
 71
     0
 76
     3
 10
129.134503131877
 20
129.410254577209
 30
0.0
 10
120.4096663577268
 20
140.356647822327
 30
0.0
 10
85.15387984855799
 20
140.356647822327
 30
0.0
  0
LEADER
  5
248
330
A
100
AcDbEntity
  8
1
  6
Continuous
100
AcDbLeader
  3
STANDARD
 71
     0
 76
     3
 10
174.536721772592
 20
119.198511242615
 30
0.0
 10
188.778360237034
 20
129.956823428624
 30
0.0
 10
229.7034438261599
 20
129.956823428624
 30
0.0
  0
ARC
  5
246
330
A
100
AcDbEntity
  8
1
  6
Continuous
 62
     3
100
AcDbCircle
 10
140.381887065058
 20
-24.299999999998
 30
0.0
 40
0.300000000003
100
AcDbArc
 50
0.0
 51
90.0
  0
ARC
  5
245
330
A
100
AcDbEntity
  8
1
  6
Continuous
 62
     3
100
AcDbCircle
 10
140.381887065058
 20
-29.199999999992
 30
0.0
 40
0.300000000003
100
AcDbArc
 50
-90.0
 51
0.0
  0
ARC
  5
244
330
A
100
AcDbEntity
  8
1
  6
Continuous
 62
     3
100
AcDbCircle
 10
140.381887065058
 20
24.300000000008
 30
0.0
 40
0.300000000003
100
AcDbArc
 50
-90.0
 51
0.0
  0
ARC
  5
243
330
A
100
AcDbEntity
  8
1
  6
Continuous
 62
     3
100
AcDbCircle
 10
140.381887065058
 20
29.200000000002
 30
0.0
 40
0.300000000003
100
AcDbArc
 50
0.0
 51
90.0
  0
ARC
  5
242
330
A
100
AcDbEntity
  8
1
  6
Continuous
 62
     7
100
AcDbCircle
 10
117.6818870650609
 20
-18.999999999995
 30
0.0
 40
1.0
100
AcDbArc
 50
180.0
 51
-90.0
  0
ARC
  5
241
330
A
100
AcDbEntity
  8
1
  6
Continuous
 62
     7
100
AcDbCircle
 10
117.6818870650609
 20
-8.999999999994997
 30
0.0
 40
1.0
100
AcDbArc
 50
90.0
 51
180.0
  0
ARC
  5
240
330
A
100
AcDbEntity
  8
1
  6
Continuous
 62
     7
100
AcDbCircle
 10
117.6818870650609
 20
9.000000000005
 30
0.0
 40
1.0
100
AcDbArc
 50
180.0
 51
-90.0
  0
ARC
  5
23F
330
A
100
AcDbEntity
  8
1
  6
Continuous
 62
     7
100
AcDbCircle
 10
117.6818870650609
 20
19.00000000000498
 30
0.0
 40
1.0
100
AcDbArc
 50
90.0
 51
180.0
  0
ARC
  5
23E
330
A
100
AcDbEntity
  8
1
  6
Continuous
 62
     7
100
AcDbCircle
 10
93.68188706506099
 20
18.998737341533
 30
0.0
 40
1.0
100
AcDbArc
 50
0.0
 51
90.0
  0
ARC
  5
23D
330
A
100
AcDbEntity
  8
1
  6
Continuous
 62
     7
100
AcDbCircle
 10
93.68188706506099
 20
-18.998737341523
 30
0.0
 40
1.0
100
AcDbArc
 50
-90.0
 51
0.0
  0
ARC
  5
23C
330
A
100
AcDbEntity
  8
1
  6
Continuous
 62
     7
100
AcDbCircle
 10
93.68188706506099
 20
8.700000000001999
 30
0.0
 40
1.0
100
AcDbArc
 50
-90.0
 51
0.0
  0
ARC
  5
23B
330
A
100
AcDbEntity
  8
1
  6
Continuous
 62
     7
100
AcDbCircle
 10
93.68188706506099
 20
-8.699999999992
 30
0.0
 40
1.0
100
AcDbArc
 50
0.0
 51
90.0
  0
ARC
  5
23A
330
A
100
AcDbEntity
  8
1
  6
Continuous
 62
     7
100
AcDbCircle
 10
169.181887065061
 20
28.000000000005
 30
0.0
 40
2.0
100
AcDbArc
 50
0.0
 51
90.0
  0
ARC
  5
239
330
A
100
AcDbEntity
  8
1
  6
Continuous
 62
     7
100
AcDbCircle
 10
169.181887065061
 20
-27.99999999999498
 30
0.0
 40
2.0
100
AcDbArc
 50
-90.0
 51
0.0
  0
ARC
  5
238
330
A
100
AcDbEntity
  8
1
  6
Continuous
 62
     7
100
AcDbCircle
 10
128.2009758118659
 20
111.475714050363
 30
0.0
 40
0.5
100
AcDbArc
 50
90.0
 51
180.0
  0
ARC
  5
237
330
A
100
AcDbEntity
  8
1
  6
Continuous
 62
     7
100
AcDbCircle
 10
139.0009758118689
 20
111.475714050363
 30
0.0
 40
0.5
100
AcDbArc
 50
0.0
 51
90.0
  0
ARC
  5
236
330
A
100
AcDbEntity
  8
1
  6
Continuous
 62
     7
100
AcDbCircle
 10
158.641278818344
 20
112.6604810125639
 30
0.0
 40
0.500000000004
100
AcDbArc
 50
79.99999999959698
 51
169.9999999994529
  0
ARC
  5
235
330
A
100
AcDbEntity
  8
1
  6
Continuous
 62
     7
100
AcDbCircle
 10
173.413395113522
 20
110.055758347567
 30
0.0
 40
0.499999999996
100
AcDbArc
 50
-9.999999999722
 51
79.999999999574
  0
ARC
  5
234
330
A
100
AcDbEntity
  8
1
  6
Continuous
 62
     7
100
AcDbCircle
 10
54.658719425992
 20
33.328733848945
 30
0.0
 40
1.5
100
AcDbArc
 50
-90.00000000000403
 51
0.0
  0
ARC
  5
233
330
A
100
AcDbEntity
  8
1
  6
Continuous
 62
     7
100
AcDbCircle
 10
41.658719425991
 20
33.328733848945
 30
0.0
 40
1.5
100
AcDbArc
 50
180.0
 51
-89.999999999995
  0
ARC
  5
232
330
A
100
AcDbEntity
  8
1
  6
Continuous
 62
     7
100
AcDbCircle
 10
24.18188706480899
 20
-51.732691773795
 30
0.0
 40
3.0
100
AcDbArc
 50
119.981639368848
 51
180.0
  0
ARC
  5
231
330
A
100
AcDbEntity
  8
1
  6
Continuous
 62
     7
100
AcDbCircle
 10
24.18188706480899
 20
51.732691773806
 30
0.0
 40
3.0
100
AcDbArc
 50
180.0
 51
-119.981639368847
  0
ARC
  5
230
330
A
100
AcDbEntity
  8
1
  6
Continuous
 62
     7
100
AcDbCircle
 10
34.98521947272998
 20
-45.499999999994
 30
0.0
 40
3.0
100
AcDbArc
 50
90.0
 51
119.9816393688489
  0
ARC
  5
22F
330
A
100
AcDbEntity
  8
1
  6
Continuous
 62
     7
100
AcDbCircle
 10
34.98521947272998
 20
45.50000000000498
 30
0.0
 40
3.0
100
AcDbArc
 50
-119.981639368846
 51
-90.0
  0
ARC
  5
22E
330
A
100
AcDbEntity
  8
1
  6
Continuous
 62
     7
100
AcDbCircle
 10
-119.2845856149119
 20
44.00000000000498
 30
0.0
 40
10.0
100
AcDbArc
 50
0.0
 51
90.0
  0
ARC
  5
22D
330
A
100
AcDbEntity
  8
1
  6
Continuous
 62
     7
100
AcDbCircle
 10
-119.2845856149119
 20
-43.999999999995
 30
0.0
 40
10.0
100
AcDbArc
 50
-90.0
 51
0.0
  0
ARC
  5
22C
330
A
100
AcDbEntity
  8
1
  6
Continuous
 62
     7
100
AcDbCircle
 10
-207.284585614912
 20
-43.999999999995
 30
0.0
 40
10.0
100
AcDbArc
 50
180.0
 51
-90.0
  0
ARC
  5
22B
330
A
100
AcDbEntity
  8
1
  6
Continuous
 62
     7
100
AcDbCircle
 10
-207.284585614912
 20
44.00000000000498
 30
0.0
 40
10.0
100
AcDbArc
 50
90.0
 51
180.0
  0
ARC
  5
22A
330
A
100
AcDbEntity
  8
1
  6
Continuous
 62
     7
100
AcDbCircle
 10
19.681887064809
 20
52.500000000006
 30
0.0
 40
1.5
100
AcDbArc
 50
0.0
 51
90.0
  0
ARC
  5
229
330
A
100
AcDbEntity
  8
1
  6
Continuous
 62
     7
100
AcDbCircle
 10
19.681887064809
 20
-52.499999999995
 30
0.0
 40
1.5
100
AcDbArc
 50
-90.0
 51
0.0
  0
SPLINE
  5
224
330
A
100
AcDbEntity
  8
1
  6
Continuous
 62
     3
100
AcDbSpline
210
0.0
220
0.0
230
1.0
 70
    11
 71
     3
 72
    83
 73
    79
 74
    77
 42
0.0000000001
 43
0.0000000001
 44
0.00000000001
 40
0.0
 40
0.0
 40
0.0
 40
0.0
 40
0.0806050085967826
 40
0.1614193547751616
 40
0.2504925635667492
 40
0.3398659342718566
 40
0.4408037728178375
 40
0.5420056047744052
 40
0.6559915039421075
 40
0.770154064178083
 40
0.8966082925964144
 40
1.023169447905515
 40
1.160324985832811
 40
1.297542895726244
 40
1.44284508364735
 40
1.58818163937543
 40
1.738566537004031
 40
1.888966725501639
 40
2.041081871571581
 40
2.19319701764141
 40
2.34359720613899
 40
2.493982103767729
 40
2.639318659495772
 40
2.7846208474168
 40
2.921838757310126
 40
3.05899429523754
 40
3.185555450546615
 40
3.312009678964988
 40
3.426172239200929
 40
3.540158138368505
 40
3.641359970325181
 40
3.742297808871244
 40
3.83167117957633
 40
3.920744388367714
 40
4.001558734546055
 40
4.082163743142913
 40
4.15973533346219
 40
4.237306923781368
 40
4.317911932378104
 40
4.39872627855647
 40
4.487799487347938
 40
4.577172858053057
 40
4.678110696599047
 40
4.779312528555648
 40
4.893298427723247
 40
5.007460987959237
 40
5.133915216377681
 40
5.260476371686882
 40
5.397631909614179
 40
5.534849819507606
 40
5.680152007428628
 40
5.825488563156692
 40
5.975873460785315
 40
6.126273649282784
 40
6.27838879535284
 40
6.430503941422782
 40
6.58090412992048
 40
6.731289027548964
 40
6.876625583276953
 40
7.021927771197961
 40
7.159145681091377
 40
7.296301219018697
 40
7.422862374327787
 40
7.54931660274619
 40
7.663479162982246
 40
7.777465062149837
 40
7.878666894106481
 40
7.979604732652502
 40
8.06897810335759
 40
8.158051312149105
 40
8.238865658327569
 40
8.319470666924392
 40
8.397379361816559
 40
8.475995780185087
 40
8.515949919428758
 40
8.555904058672457
 40
8.596207831421262
 40
8.635113070149365
 40
8.635113070149365
 40
8.635113070149365
 40
8.635113070149365
 10
133.6498795554416
 20
72.40506120518445
 30
0.0
 10
133.6438858478926
 20
72.4313228232826
 30
0.0
 10
133.6318828666621
 20
72.48391426297785
 30
0.0
 10
133.5962154831967
 20
72.55999820157502
 30
0.0
 10
133.5495330695535
 20
72.63294763840708
 30
0.0
 10
133.4891919188198
 20
72.70420920427
 30
0.0
 10
133.4183738300166
 20
72.77100515402377
 30
0.0
 10
133.3349116286049
 20
72.83556355099197
 30
0.0
 10
133.2424108630056
 20
72.89493300703867
 30
0.0
 10
133.1383116857407
 20
72.95112295813412
 30
0.0
 10
133.0267169395623
 20
73.00161842987027
 30
0.0
 10
132.9050901188687
 20
73.04788183736985
 30
0.0
 10
132.7775567918997
 20
73.08807544543004
 30
0.0
 10
132.6420581215452
 20
73.12309148372472
 30
0.0
 10
132.5022903651182
 20
73.15176035128702
 30
0.0
 10
132.3570045821798
 20
73.17452736063166
 30
0.0
 10
132.2091344142235
 20
73.19076016315619
 30
0.0
 10
132.0584435285536
 20
73.20064119313861
 30
0.0
 10
131.9068870650531
 20
73.20389317231711
 30
0.0
 10
131.7553306015461
 20
73.20064119313929
 30
0.0
 10
131.6046397158955
 20
73.19076016315347
 30
0.0
 10
131.4567695478694
 20
73.17452736064169
 30
0.0
 10
131.3114837651825
 20
73.15176035125119
 30
0.0
 10
131.1717160078413
 20
73.12309148385589
 30
0.0
 10
131.0362173407165
 20
73.08807544497091
 30
0.0
 10
130.9086840021532
 20
73.04788183902987
 30
0.0
 10
130.787057221529
 20
73.00161842420649
 30
0.0
 10
130.6754623332708
 20
72.95112297843974
 30
0.0
 10
130.5713636369405
 20
72.89493293943846
 30
0.0
 10
130.4788611843646
 20
72.83556379173901
 30
0.0
 10
130.3954046026816
 20
72.77100436759148
 30
0.0
 10
130.3245669140578
 20
72.70421200031177
 30
0.0
 10
130.2642908675935
 20
72.6329385346279
 30
0.0
 10
130.2173799810609
 20
72.56003085829061
 30
0.0
 10
130.1824891941132
 20
72.48380497263402
 30
0.0
 10
130.1619232511572
 20
72.40645106075039
 30
0.0
 10
130.1544487601891
 20
72.3278048645119
 30
0.0
 10
130.1619232511572
 20
72.24915866827349
 30
0.0
 10
130.1824891941132
 20
72.1718047563899
 30
0.0
 10
130.2173799810609
 20
72.09557887073334
 30
0.0
 10
130.2642908675934
 20
72.02267119439598
 30
0.0
 10
130.3245669140578
 20
71.95139772871207
 30
0.0
 10
130.3954046026814
 20
71.88460536143232
 30
0.0
 10
130.4788611843644
 20
71.82004593728478
 30
0.0
 10
130.5713636369403
 20
71.76067678958529
 30
0.0
 10
130.6754623332707
 20
71.70448675058413
 30
0.0
 10
130.7870572215291
 20
71.65399130481739
 30
0.0
 10
130.9086840021533
 20
71.60772788999395
 30
0.0
 10
131.0362173407165
 20
71.56753428405294
 30
0.0
 10
131.1717160078413
 20
71.53251824516786
 30
0.0
 10
131.3114837651826
 20
71.50384937777264
 30
0.0
 10
131.4567695478695
 20
71.48108236838216
 30
0.0
 10
131.6046397158954
 20
71.46484956587048
 30
0.0
 10
131.7553306015464
 20
71.45496853588435
 30
0.0
 10
131.9068870650519
 20
71.45171655670742
 30
0.0
 10
132.058443528558
 20
71.45496853588247
 30
0.0
 10
132.2091344142075
 20
71.46484956587788
 30
0.0
 10
132.357004582239
 20
71.48108236835497
 30
0.0
 10
132.5022903649058
 20
71.50384937787059
 30
0.0
 10
132.6420581223196
 20
71.53251824481117
 30
0.0
 10
132.7775567891882
 20
71.56753428530189
 30
0.0
 10
132.9050901286712
 20
71.60772788547856
 30
0.0
 10
133.0267169061168
 20
71.65399132022341
 30
0.0
 10
133.1383118056457
 20
71.70448669535193
 30
0.0
 10
133.2424104638256
 20
71.76067697346019
 30
0.0
 10
133.3349130502224
 20
71.82004528244184
 30
0.0
 10
133.4183691861157
 20
71.88460750056248
 30
0.0
 10
133.4892084295112
 20
71.95139012335603
 30
0.0
 10
133.5494793115262
 20
72.02269595707388
 30
0.0
 10
133.5964083218569
 20
72.09549004303863
 30
0.0
 10
133.6312375046533
 20
72.17210203090613
 30
0.0
 10
133.6520544703287
 20
72.24817358816088
 30
0.0
 10
133.6587407943803
 20
72.33232810066056
 30
0.0
 10
133.6545672705541
 20
72.3821538492842
 30
0.0
 10
133.6386842242168
 20
72.46638860847799
 30
0.0
 10
133.6497205592281
 20
72.4060946138583
 30
0.0
 10
133.6603142604427
 20
72.34732982499719
 30
0.0
 10
133.6533166063344
 20
72.38604526828954
 30
0.0
 10
133.6498795554416
 20
72.40506120518445
 30
0.0
 11
133.6498795554416
 21
72.40506120518445
 31
0.0
 11
133.6291602093249
 21
72.4829577783272
 31
0.0
 11
133.5959432902062
 21
72.55662999040544
 31
0.0
 11
133.547990081128
 21
72.63169347196293
 31
0.0
 11
133.4905583118114
 21
72.70017114178578
 31
0.0
 11
133.4173753087553
 21
72.76968873174698
 31
0.0
 11
133.3374852197615
 21
72.83181267618019
 31
0.0
 11
133.241736810225
 21
72.89365948111222
 31
0.0
 11
133.141358953257
 21
72.94804124266999
 31
0.0
 11
133.026256378941
 21
73.00040601394542
 31
0.0
 11
132.9080061915099
 21
73.04551276738306
 31
0.0
 11
132.7772492383572
 21
73.08691639990875
 31
0.0
 11
132.644414709653
 21
73.12132196311414
 31
0.0
 11
132.5021011733732
 21
73.15064061257482
 31
0.0
 11
132.3585227589699
 21
73.17317843297381
 31
0.0
 11
132.2090442049716
 21
73.18966416405601
 31
0.0
 11
132.0589664591252
 21
73.19950727849222
 31
0.0
 11
131.906887065052
 21
73.20280509021798
 31
0.0
 11
131.7548076709788
 21
73.19950727849222
 31
0.0
 11
131.6047299251325
 21
73.18966416405601
 31
0.0
 11
131.4552513711339
 21
73.17317843297384
 31
0.0
 11
131.3116729567307
 21
73.15064061257491
 31
0.0
 11
131.169359420451
 21
73.1213219631142
 31
0.0
 11
131.036524891747
 21
73.0869163999088
 31
0.0
 11
130.905767938594
 21
73.04551276738307
 31
0.0
 11
130.7875177511629
 21
73.00040601394551
 31
0.0
 11
130.672415176847
 21
72.94804124266997
 31
0.0
 11
130.572037319879
 21
72.89365948111212
 31
0.0
 11
130.4762889103427
 21
72.83181267618015
 31
0.0
 11
130.3963988213488
 21
72.76968873174698
 31
0.0
 11
130.3232158182925
 21
72.70017114178578
 31
0.0
 11
130.2657840489759
 21
72.63169347196296
 31
0.0
 11
130.2178308398979
 21
72.55662999040558
 31
0.0
 11
130.1846139207792
 21
72.48295777832739
 31
0.0
 11
130.1638945746625
 21
72.40506120518457
 31
0.0
 11
130.1569081985971
 21
72.32780486451187
 31
0.0
 11
130.1638945746625
 21
72.25054852383928
 31
0.0
 11
130.1846139207792
 21
72.17265195069659
 31
0.0
 11
130.2178308398979
 21
72.09897973861837
 31
0.0
 11
130.2657840489759
 21
72.02391625706089
 31
0.0
 11
130.3232158182925
 21
71.95543858723802
 31
0.0
 11
130.3963988213487
 21
71.88592099727681
 31
0.0
 11
130.4762889103425
 21
71.82379705284366
 31
0.0
 11
130.5720373198789
 21
71.76195024791168
 31
0.0
 11
130.672415176847
 21
71.70756848635389
 31
0.0
 11
130.7875177511629
 21
71.65520371507837
 31
0.0
 11
130.9057679385942
 21
71.61009696164075
 31
0.0
 11
131.036524891747
 21
71.56869332911504
 31
0.0
 11
131.169359420451
 21
71.53428776590958
 31
0.0
 11
131.3116729567308
 21
71.5049691164489
 31
0.0
 11
131.455251371134
 21
71.48243129605001
 31
0.0
 11
131.6047299251325
 21
71.46594556496786
 31
0.0
 11
131.7548076709786
 21
71.45610245053163
 31
0.0
 11
131.9068870650521
 21
71.45280463880585
 31
0.0
 11
132.0589664591254
 21
71.45610245053163
 31
0.0
 11
132.2090442049718
 21
71.46594556496791
 31
0.0
 11
132.35852275897
 21
71.48243129605006
 31
0.0
 11
132.5021011733732
 21
71.50496911644902
 31
0.0
 11
132.644414709653
 21
71.53428776590962
 31
0.0
 11
132.777249238357
 21
71.56869332911504
 31
0.0
 11
132.9080061915099
 21
71.61009696164073
 31
0.0
 11
133.026256378941
 21
71.65520371507835
 31
0.0
 11
133.141358953257
 21
71.70756848635376
 31
0.0
 11
133.2417368102251
 21
71.76195024791148
 31
0.0
 11
133.3374852197615
 21
71.82379705284349
 31
0.0
 11
133.4173753087553
 21
71.88592099727671
 31
0.0
 11
133.4905583118116
 21
71.95543858723794
 31
0.0
 11
133.547990081128
 21
72.02391625706086
 31
0.0
 11
133.595943290206
 21
72.09897973861834
 31
0.0
 11
133.6291602093249
 21
72.17265195069662
 31
0.0
 11
133.6498795554416
 21
72.25054852383941
 31
0.0
 11
133.6568037055714
 21
72.32814891613727
 31
0.0
 11
133.6496306516991
 21
72.40643741168573
 31
0.0
 11
133.6425198237624
 21
72.44575368527259
 31
0.0
 11
133.6496306516991
 21
72.4064374116857
 31
0.0
 11
133.6568037055714
 21
72.36677708647355
 31
0.0
 11
133.6498795554416
 21
72.40506120518445
 31
0.0
  0
SPLINE
  5
223
330
A
100
AcDbEntity
  8
1
  6
Continuous
 62
     3
100
AcDbSpline
210
0.0
220
0.0
230
1.0
 70
     8
 71
     3
 72
    45
 73
    41
 74
    39
 42
0.0000000001
 43
0.0000000001
 44
0.00000000001
 40
0.0
 40
0.0
 40
0.0
 40
0.0
 40
0.0409296188066772
 40
0.0869850987878662
 40
0.1592959568623564
 40
0.2338396406365079
 40
0.3269188215906564
 40
0.4176054718526813
 40
0.5185433103986819
 40
0.6197451423553431
 40
0.7337310415229814
 40
0.8478936017590184
 40
0.9743478301773439
 40
1.100908985486434
 40
1.238064523413753
 40
1.37528243330717
 40
1.520584621228066
 40
1.665921176956167
 40
1.816306074584763
 40
1.966706263082344
 40
2.118821409152286
 40
2.270936555222228
 40
2.421336743719809
 40
2.571721641348631
 40
2.717058197076592
 40
2.862360384997614
 40
2.999578294890954
 40
3.136733832818351
 40
3.263294988127421
 40
3.389749216545729
 40
3.503911776781779
 40
3.617897675949425
 40
3.719099507906139
 40
3.820037346452146
 40
3.910723996714571
 40
4.003803177669831
 40
4.078346861441968
 40
4.150657719513771
 40
4.196713199485502
 40
4.237642818281146
 40
4.237642818281146
 40
4.237642818281146
 40
4.237642818281146
 10
137.1568870650521
 20
72.32780486453548
 30
0.0
 10
137.1564032928462
 20
72.31416092996632
 30
0.0
 10
137.1553751627452
 20
72.28516434922712
 30
0.0
 10
137.1475620029557
 20
72.23255632218537
 30
0.0
 10
137.1312546739801
 20
72.1700493911875
 30
0.0
 10
137.0971346566332
 20
72.09734828261055
 30
0.0
 10
137.0507189952705
 20
72.02454599740488
 30
0.0
 10
136.9895793081777
 20
71.95164912781994
 30
0.0
 10
136.9183547156181
 20
71.88461920520541
 30
0.0
 10
136.8349174800136
 20
71.82004169934977
 30
0.0
 10
136.7424092199719
 20
71.76067797956689
 30
0.0
 10
136.6383121792723
 20
71.70448639313936
 30
0.0
 10
136.5267168019002
 20
71.65399140452035
 30
0.0
 10
136.4050901592161
 20
71.6077278607719
 30
0.0
 10
136.2775567807396
 20
71.5675342921357
 30
0.0
 10
136.1420581247326
 20
71.53251824285939
 30
0.0
 10
136.0022903642444
 20
71.50384937840567
 30
0.0
 10
135.857004582423
 20
71.48108236820596
 30
0.0
 10
135.7091344141577
 20
71.4648495659186
 30
0.0
 10
135.5584435285706
 20
71.45496853587066
 30
0.0
 10
135.4068870650521
 20
71.45171655671399
 30
0.0
 10
135.2553306015335
 20
71.45496853587063
 30
0.0
 10
135.1046397159463
 20
71.4648495659186
 30
0.0
 10
134.956769547681
 20
71.48108236820596
 30
0.0
 10
134.8114837658596
 20
71.5038493784057
 30
0.0
 10
134.6717160053714
 20
71.53251824285944
 30
0.0
 10
134.5362173493644
 20
71.56753429213583
 30
0.0
 10
134.4086839708878
 20
71.607727860772
 30
0.0
 10
134.2870573282038
 20
71.65399140452035
 30
0.0
 10
134.1754619508316
 20
71.70448639313933
 30
0.0
 10
134.0713649101321
 20
71.7606779795669
 30
0.0
 10
133.9788566500903
 20
71.82004169934979
 30
0.0
 10
133.8954194144858
 20
71.88461920520552
 30
0.0
 10
133.8241948219263
 20
71.95164912782025
 30
0.0
 10
133.7630551348331
 20
72.02454599740562
 30
0.0
 10
133.7166394734707
 20
72.09734828261126
 30
0.0
 10
133.6825194561241
 20
72.17004939118699
 30
0.0
 10
133.6662121271496
 20
72.23255632218026
 30
0.0
 10
133.6583989673606
 20
72.28516434921421
 30
0.0
 10
133.6573708372584
 20
72.31416092994653
 30
0.0
 10
133.6568870650519
 20
72.32780486451196
 30
0.0
 11
137.1568870650521
 21
72.32780486453548
 31
0.0
 11
137.1547187707658
 21
72.28693272004136
 31
0.0
 11
137.1482138879029
 21
72.24133892950759
 31
0.0
 11
137.1293899459502
 21
72.17152117098706
 31
0.0
 11
137.0985279042461
 21
72.10366621411226
 31
0.0
 11
137.0486362346379
 21
72.02508787593436
 31
0.0
 11
136.9905583118115
 21
71.95543858723802
 31
0.0
 11
136.9173753087553
 21
71.8859209972768
 31
0.0
 11
136.8374852197615
 21
71.82379705284354
 31
0.0
 11
136.7417368102251
 21
71.7619502479115
 31
0.0
 11
136.6413589532569
 21
71.70756848635376
 31
0.0
 11
136.526256378941
 21
71.65520371507835
 31
0.0
 11
136.4080061915099
 21
71.61009696164073
 31
0.0
 11
136.277249238357
 21
71.56869332911504
 31
0.0
 11
136.144414709653
 21
71.53428776590962
 31
0.0
 11
136.0021011733734
 21
71.50496911644902
 31
0.0
 11
135.85852275897
 21
71.48243129605006
 31
0.0
 11
135.7090442049716
 21
71.46594556496791
 31
0.0
 11
135.5589664591253
 21
71.4561024505317
 31
0.0
 11
135.4068870650521
 21
71.45280463880593
 31
0.0
 11
135.2548076709788
 21
71.45610245053169
 31
0.0
 11
135.1047299251325
 21
71.46594556496791
 31
0.0
 11
134.9552513711339
 21
71.48243129605006
 31
0.0
 11
134.8116729567307
 21
71.50496911644902
 31
0.0
 11
134.6693594204509
 21
71.5342877659097
 31
0.0
 11
134.536524891747
 21
71.56869332911515
 31
0.0
 11
134.405767938594
 21
71.61009696164082
 31
0.0
 11
134.2875177511629
 21
71.65520371507837
 31
0.0
 11
134.1724151768471
 21
71.70756848635375
 31
0.0
 11
134.0720373198789
 21
71.76195024791152
 31
0.0
 11
133.9762889103425
 21
71.82379705284358
 31
0.0
 11
133.8963988213486
 21
71.88592099727691
 31
0.0
 11
133.8232158182925
 21
71.95543858723823
 31
0.0
 11
133.7651378954658
 21
72.02508787593493
 31
0.0
 11
133.7152462258572
 21
72.10366621411385
 31
0.0
 11
133.6843841841539
 21
72.17152117098675
 31
0.0
 11
133.6655602422017
 21
72.24133892950465
 31
0.0
 11
133.6590553593395
 21
72.28693272002896
 31
0.0
 11
133.6568870650519
 21
72.32780486451196
 31
0.0
  0
SPLINE
  5
222
330
A
100
AcDbEntity
  8
1
  6
Continuous
 62
     3
100
AcDbSpline
210
0.0
220
0.0
230
1.0
 70
     8
 71
     3
 72
    45
 73
    41
 74
    39
 42
0.0000000001
 43
0.0000000001
 44
0.00000000001
 40
0.0
 40
0.0
 40
0.0
 40
0.0
 40
0.0409296188066951
 40
0.0869850987880086
 40
0.159295956862597
 40
0.2338396406368131
 40
0.3269188215908191
 40
0.4176054718527895
 40
0.5185433103987509
 40
0.6197451423553771
 40
0.7337310415229923
 40
0.8478936017590225
 40
0.9743478301773421
 40
1.100908985486438
 40
1.238064523413847
 40
1.375282433307362
 40
1.52058462122827
 40
1.66592117695635
 40
1.816306074584981
 40
1.96670626308245
 40
2.118821409152507
 40
2.270936555222451
 40
2.421336743720037
 40
2.571721641348638
 40
2.717058197076737
 40
2.862360384997641
 40
2.999578294891047
 40
3.13673383281837
 40
3.263294988127471
 40
3.389749216545868
 40
3.503911776781824
 40
3.617897675949352
 40
3.719099507906071
 40
3.820037346452101
 40
3.910723996714559
 40
4.003803177670011
 40
4.078346861442148
 40
4.150657719513897
 40
4.196713199485571
 40
4.237642818281261
 40
4.237642818281261
 40
4.237642818281261
 40
4.237642818281261
 10
130.1568870650521
 20
67.58548931161482
 30
0.0
 10
130.1573708372578
 20
67.59913324618398
 30
0.0
 10
130.1583989673586
 20
67.62812982692324
 30
0.0
 10
130.1662121271484
 20
67.68073785396506
 30
0.0
 10
130.182519456124
 20
67.743244784963
 30
0.0
 10
130.2166394734709
 20
67.81594589353995
 30
0.0
 10
130.2630551348334
 20
67.8887481787457
 30
0.0
 10
130.3241948219263
 20
67.96164504833052
 30
0.0
 10
130.3954194144857
 20
68.02867497094499
 30
0.0
 10
130.4788566500904
 20
68.0932524768006
 30
0.0
 10
130.5713649101321
 20
68.15261619658345
 30
0.0
 10
130.6754619508316
 20
68.20880778301091
 30
0.0
 10
130.7870573282038
 20
68.25930277162997
 30
0.0
 10
130.9086839708878
 20
68.30556631537837
 30
0.0
 10
131.0362173493645
 20
68.34575988401468
 30
0.0
 10
131.1717160053715
 20
68.38077593329083
 30
0.0
 10
131.3114837658597
 20
68.40944479774468
 30
0.0
 10
131.4567695476811
 20
68.43221180794441
 30
0.0
 10
131.6046397159464
 20
68.44844461023185
 30
0.0
 10
131.7553306015335
 20
68.45832564027983
 30
0.0
 10
131.906887065052
 20
68.46157761943655
 30
0.0
 10
132.0584435285705
 20
68.45832564027976
 30
0.0
 10
132.2091344141578
 20
68.44844461023178
 30
0.0
 10
132.357004582423
 20
68.43221180794433
 30
0.0
 10
132.5022903642444
 20
68.4094447977447
 30
0.0
 10
132.6420581247326
 20
68.38077593329086
 30
0.0
 10
132.7775567807396
 20
68.34575988401465
 30
0.0
 10
132.9050901592161
 20
68.3055663153784
 30
0.0
 10
133.0267168019001
 20
68.25930277162993
 30
0.0
 10
133.1383121792723
 20
68.20880778301098
 30
0.0
 10
133.2424092199718
 20
68.15261619658343
 30
0.0
 10
133.3349174800135
 20
68.09325247680056
 30
0.0
 10
133.4183547156181
 20
68.02867497094499
 30
0.0
 10
133.4895793081778
 20
67.96164504833036
 30
0.0
 10
133.5507189952708
 20
67.88874817874483
 30
0.0
 10
133.5971346566333
 20
67.81594589353915
 30
0.0
 10
133.6312546739801
 20
67.74324478496343
 30
0.0
 10
133.6475620029544
 20
67.68073785397014
 30
0.0
 10
133.6553751627436
 20
67.62812982693626
 30
0.0
 10
133.6564032928456
 20
67.59913324620393
 30
0.0
 10
133.6568870650519
 20
67.58548931163847
 30
0.0
 11
130.1568870650521
 21
67.58548931161482
 31
0.0
 11
130.1590553593382
 21
67.62636145610897
 31
0.0
 11
130.1655602422012
 21
67.67195524664285
 31
0.0
 11
130.184384184154
 21
67.74177300516345
 31
0.0
 11
130.215246225858
 21
67.80962796203832
 31
0.0
 11
130.265137895466
 21
67.88820630021618
 31
0.0
 11
130.3232158182925
 21
67.95785558891245
 31
0.0
 11
130.3963988213487
 21
68.02737317887362
 31
0.0
 11
130.4762889103425
 21
68.08949712330681
 31
0.0
 11
130.5720373198789
 21
68.15134392823882
 31
0.0
 11
130.672415176847
 21
68.20572568979653
 31
0.0
 11
130.7875177511629
 21
68.25809046107194
 31
0.0
 11
130.905767938594
 21
68.30319721450957
 31
0.0
 11
131.036524891747
 21
68.34460084703528
 31
0.0
 11
131.1693594204512
 21
68.37900641024067
 31
0.0
 11
131.3116729567308
 21
68.40832505970133
 31
0.0
 11
131.455251371134
 21
68.43086288010032
 31
0.0
 11
131.6047299251325
 21
68.44734861118253
 31
0.0
 11
131.7548076709786
 21
68.45719172561878
 31
0.0
 11
131.9068870650521
 21
68.46048953734459
 31
0.0
 11
132.0589664591254
 21
68.45719172561874
 31
0.0
 11
132.2090442049716
 21
68.44734861118245
 31
0.0
 11
132.35852275897
 21
68.43086288010025
 31
0.0
 11
132.5021011733733
 21
68.40832505970131
 31
0.0
 11
132.644414709653
 21
68.37900641024067
 31
0.0
 11
132.777249238357
 21
68.34460084703528
 31
0.0
 11
132.9080061915099
 21
68.30319721450958
 31
0.0
 11
133.026256378941
 21
68.25809046107194
 31
0.0
 11
133.141358953257
 21
68.20572568979653
 31
0.0
 11
133.241736810225
 21
68.15134392823882
 31
0.0
 11
133.3374852197614
 21
68.08949712330684
 31
0.0
 11
133.4173753087553
 21
68.0273731788736
 31
0.0
 11
133.4905583118114
 21
67.95785558891234
 31
0.0
 11
133.5486362346381
 21
67.8882063002156
 31
0.0
 11
133.5985279042469
 21
67.80962796203652
 31
0.0
 11
133.6293899459503
 21
67.74177300516362
 31
0.0
 11
133.6482138879024
 21
67.67195524664578
 31
0.0
 11
133.6547187707647
 21
67.62636145612153
 31
0.0
 11
133.6568870650519
 21
67.58548931163847
 31
0.0
  0
SPLINE
  5
221
330
A
100
AcDbEntity
  8
1
  6
Continuous
 62
     3
100
AcDbSpline
210
0.0
220
0.0
230
1.0
 70
    11
 71
     3
 72
    83
 73
    79
 74
    77
 42
0.0000000001
 43
0.0000000001
 44
0.00000000001
 40
0.0
 40
0.0
 40
0.0
 40
0.0
 40
0.0806050085967843
 40
0.1614193547750986
 40
0.250492563566555
 40
0.3398659342717059
 40
0.4408037728177163
 40
0.5420056047744011
 40
0.6559915039419293
 40
0.7701540641779596
 40
0.8966082925963027
 40
1.023169447905509
 40
1.160324985832806
 40
1.297542895726129
 40
1.442845083647145
 40
1.588181639375199
 40
1.738566537003943
 40
1.888966725501527
 40
2.041081871571469
 40
2.193197017641299
 40
2.343597206138913
 40
2.493982103767514
 40
2.639318659495585
 40
2.784620847416602
 40
2.921838757310007
 40
3.058994295237416
 40
3.185555450546623
 40
3.312009678964984
 40
3.42617223920088
 40
3.540158138368582
 40
3.641359970325199
 40
3.74229780887105
 40
3.831671179576103
 40
3.920744388367557
 40
4.001558734546034
 40
4.082163743142886
 40
4.159735333462131
 40
4.237306923781305
 40
4.317911932378114
 40
4.398726278556553
 40
4.487799487348044
 40
4.57717285805314
 40
4.678110696599102
 40
4.77931252855572
 40
4.893298427723342
 40
5.007460987959284
 40
5.133915216377687
 40
5.260476371686777
 40
5.397631909614182
 40
5.534849819507509
 40
5.680152007428413
 40
5.825488563156522
 40
5.975873460785011
 40
6.126273649282705
 40
6.278388795352647
 40
6.430503941422589
 40
6.580904129920168
 40
6.731289027548904
 40
6.876625583276942
 40
7.021927771197973
 40
7.159145681091321
 40
7.296301219018626
 40
7.422862374327824
 40
7.549316602746137
 40
7.663479162982181
 40
7.777465062149819
 40
7.878666894106417
 40
7.979604732652418
 40
8.06897810335743
 40
8.158051312148899
 40
8.238865658327238
 40
8.319470666924063
 40
8.397379361816343
 40
8.475995780184938
 40
8.515949919428631
 40
8.555904058672325
 40
8.596207831421228
 40
8.635113070149477
 40
8.635113070149477
 40
8.635113070149477
 40
8.635113070149477
 10
133.6638945746625
 20
67.6627456523111
 30
0.0
 10
133.6698882822115
 20
67.68900727040923
 30
0.0
 10
133.681891263442
 20
67.74159871010446
 30
0.0
 10
133.7175586469075
 20
67.81768264870152
 30
0.0
 10
133.7642410605504
 20
67.89063208553368
 30
0.0
 10
133.8245822112841
 20
67.96189365139653
 30
0.0
 10
133.8954003000873
 20
68.02868960115046
 30
0.0
 10
133.9788625014992
 20
68.09324799811844
 30
0.0
 10
134.0713632670984
 20
68.15261745416529
 30
0.0
 10
134.1754624443633
 20
68.20880740526056
 30
0.0
 10
134.2870571905418
 20
68.25930287699685
 30
0.0
 10
134.4086840112353
 20
68.30556628449631
 30
0.0
 10
134.5362173382044
 20
68.34575989255657
 30
0.0
 10
134.6717160085588
 20
68.38077593085124
 30
0.0
 10
134.8114837649857
 20
68.40944479841349
 30
0.0
 10
134.9567695479242
 20
68.43221180775822
 30
0.0
 10
135.1046397158805
 20
68.44844461028265
 30
0.0
 10
135.2553306015505
 20
68.4583256402652
 30
0.0
 10
135.4068870650509
 20
68.46157761944375
 30
0.0
 10
135.5584435285579
 20
68.45832564026579
 30
0.0
 10
135.7091344142085
 20
68.44844461027989
 30
0.0
 10
135.8570045822345
 20
68.4322118077681
 30
0.0
 10
136.0022903649215
 20
68.40944479837759
 30
0.0
 10
136.1420581222626
 20
68.38077593098237
 30
0.0
 10
136.2775567893875
 20
68.3457598920974
 30
0.0
 10
136.4050901279508
 20
68.30556628615636
 30
0.0
 10
136.526716908575
 20
68.25930287133293
 30
0.0
 10
136.6383117968333
 20
68.20880742556619
 30
0.0
 10
136.7424104931636
 20
68.15261738656495
 30
0.0
 10
136.8349129457396
 20
68.09324823886552
 30
0.0
 10
136.9183695274225
 20
68.02868881471792
 30
0.0
 10
136.9892072160462
 20
67.96189644743825
 30
0.0
 10
137.0494832625105
 20
67.89062298175443
 30
0.0
 10
137.0963941490431
 20
67.81771530541712
 30
0.0
 10
137.1312849359909
 20
67.74148941976051
 30
0.0
 10
137.1518508789467
 20
67.66413550787681
 30
0.0
 10
137.1593253699151
 20
67.58548931163836
 30
0.0
 10
137.1518508789467
 20
67.50684311539997
 30
0.0
 10
137.1312849359909
 20
67.42948920351631
 30
0.0
 10
137.0963941490431
 20
67.35326331785971
 30
0.0
 10
137.0494832625105
 20
67.2803556415224
 30
0.0
 10
136.9892072160461
 20
67.20908217583851
 30
0.0
 10
136.9183695274225
 20
67.14228980855878
 30
0.0
 10
136.8349129457394
 20
67.07773038441121
 30
0.0
 10
136.7424104931637
 20
67.01836123671171
 30
0.0
 10
136.6383117968331
 20
66.96217119771064
 30
0.0
 10
136.5267169085749
 20
66.91167575194405
 30
0.0
 10
136.4050901279507
 20
66.86541233712053
 30
0.0
 10
136.2775567893874
 20
66.82521873117957
 30
0.0
 10
136.1420581222626
 20
66.79020269229454
 30
0.0
 10
136.0022903649215
 20
66.76153382489935
 30
0.0
 10
135.8570045822347
 20
66.73876681550876
 30
0.0
 10
135.7091344142087
 20
66.72253401299698
 30
0.0
 10
135.5584435285577
 20
66.71265298301094
 30
0.0
 10
135.4068870650521
 20
66.70940100383401
 30
0.0
 10
135.2553306015461
 20
66.71265298300909
 30
0.0
 10
135.1046397158965
 20
66.72253401300434
 30
0.0
 10
134.9567695478651
 20
66.73876681548145
 30
0.0
 10
134.811483765198
 20
66.76153382499695
 30
0.0
 10
134.6717160077844
 20
66.79020269193774
 30
0.0
 10
134.5362173409158
 20
66.82521873242848
 30
0.0
 10
134.4086840014328
 20
66.86541233260523
 30
0.0
 10
134.2870572239872
 20
66.91167576735001
 30
0.0
 10
134.1754623244583
 20
66.96217114247855
 30
0.0
 10
134.0713636662784
 20
67.01836142058688
 30
0.0
 10
133.9788610798816
 20
67.07772972956845
 30
0.0
 10
133.8954049439884
 20
67.14229194768929
 30
0.0
 10
133.8245657005929
 20
67.20907457048276
 30
0.0
 10
133.7642948185779
 20
67.28038040420051
 30
0.0
 10
133.717365808247
 20
67.35317449016507
 30
0.0
 10
133.6825366254509
 20
67.42978647803259
 30
0.0
 10
133.6617196597753
 20
67.5058580352873
 30
0.0
 10
133.6550333357237
 20
67.59001254778706
 30
0.0
 10
133.6592068595501
 20
67.63983829641073
 30
0.0
 10
133.6750899058873
 20
67.72407305560458
 30
0.0
 10
133.6640535708762
 20
67.6637790609848
 30
0.0
 10
133.6534598696611
 20
67.60501427212365
 30
0.0
 10
133.6604575237695
 20
67.64372971541613
 30
0.0
 10
133.6638945746625
 20
67.6627456523111
 30
0.0
 11
133.6638945746625
 21
67.6627456523111
 31
0.0
 11
133.6846139207793
 21
67.74064222545383
 31
0.0
 11
133.717830839898
 21
67.81431443753199
 31
0.0
 11
133.765784048976
 21
67.88937791908946
 31
0.0
 11
133.8232158182925
 21
67.95785558891236
 31
0.0
 11
133.8963988213486
 21
68.0273731788736
 31
0.0
 11
133.9762889103425
 21
68.08949712330679
 31
0.0
 11
134.0720373198789
 21
68.15134392823876
 31
0.0
 11
134.1724151768471
 21
68.20572568979648
 31
0.0
 11
134.2875177511629
 21
68.25809046107194
 31
0.0
 11
134.4057679385942
 21
68.30319721450958
 31
0.0
 11
134.536524891747
 21
68.34460084703528
 31
0.0
 11
134.6693594204509
 21
68.37900641024067
 31
0.0
 11
134.8116729567307
 21
68.40832505970131
 31
0.0
 11
134.9552513711339
 21
68.43086288010032
 31
0.0
 11
135.1047299251325
 21
68.44734861118253
 31
0.0
 11
135.2548076709788
 21
68.4571917256188
 31
0.0
 11
135.4068870650521
 21
68.46048953734459
 31
0.0
 11
135.5589664591252
 21
68.45719172561874
 31
0.0
 11
135.7090442049716
 21
68.44734861118245
 31
0.0
 11
135.8585227589699
 21
68.43086288010025
 31
0.0
 11
136.0021011733733
 21
68.40832505970131
 31
0.0
 11
136.144414709653
 21
68.37900641024067
 31
0.0
 11
136.277249238357
 21
68.34460084703528
 31
0.0
 11
136.4080061915099
 21
68.30319721450957
 31
0.0
 11
136.5262563789412
 21
68.25809046107193
 31
0.0
 11
136.6413589532571
 21
68.20572568979642
 31
0.0
 11
136.7417368102251
 21
68.15134392823861
 31
0.0
 11
136.8374852197616
 21
68.08949712330658
 31
0.0
 11
136.9173753087554
 21
68.0273731788734
 31
0.0
 11
136.9905583118115
 21
67.95785558891231
 31
0.0
 11
137.047990081128
 21
67.88937791908953
 31
0.0
 11
137.095943290206
 21
67.81431443753212
 31
0.0
 11
137.1291602093249
 21
67.74064222545383
 31
0.0
 11
137.1498795554416
 21
67.662745652311
 31
0.0
 11
137.1568659315071
 21
67.58548931163836
 31
0.0
 11
137.1498795554416
 21
67.50823297096578
 31
0.0
 11
137.1291602093249
 21
67.430336397823
 31
0.0
 11
137.095943290206
 21
67.35666418574474
 31
0.0
 11
137.047990081128
 21
67.2816007041873
 31
0.0
 11
136.9905583118115
 21
67.21312303436445
 31
0.0
 11
136.9173753087553
 21
67.14360544440329
 31
0.0
 11
136.8374852197615
 21
67.08148149997011
 31
0.0
 11
136.7417368102251
 21
67.01963469503809
 31
0.0
 11
136.6413589532569
 21
66.9652529334804
 31
0.0
 11
136.526256378941
 21
66.91288816220498
 31
0.0
 11
136.4080061915099
 21
66.86778140876737
 31
0.0
 11
136.277249238357
 21
66.82637777624167
 31
0.0
 11
136.144414709653
 21
66.79197221303628
 31
0.0
 11
136.0021011733734
 21
66.76265356357562
 31
0.0
 11
135.85852275897
 21
66.74011574317663
 31
0.0
 11
135.7090442049718
 21
66.72363001209442
 31
0.0
 11
135.5589664591253
 21
66.71378689765821
 31
0.0
 11
135.4068870650521
 21
66.71048908593242
 31
0.0
 11
135.2548076709788
 21
66.71378689765821
 31
0.0
 11
135.1047299251325
 21
66.72363001209439
 31
0.0
 11
134.9552513711339
 21
66.74011574317653
 31
0.0
 11
134.8116729567307
 21
66.76265356357544
 31
0.0
 11
134.6693594204509
 21
66.79197221303616
 31
0.0
 11
134.536524891747
 21
66.82637777624164
 31
0.0
 11
134.4057679385942
 21
66.86778140876737
 31
0.0
 11
134.2875177511629
 21
66.91288816220498
 31
0.0
 11
134.1724151768471
 21
66.96525293348037
 31
0.0
 11
134.0720373198789
 21
67.01963469503812
 31
0.0
 11
133.9762889103425
 21
67.08148149997017
 31
0.0
 11
133.8963988213488
 21
67.14360544440346
 31
0.0
 11
133.8232158182925
 21
67.21312303436466
 31
0.0
 11
133.7657840489762
 21
67.28160070418748
 31
0.0
 11
133.717830839898
 21
67.35666418574483
 31
0.0
 11
133.6846139207793
 21
67.43033639782303
 31
0.0
 11
133.6638945746625
 21
67.50823297096579
 31
0.0
 11
133.6569704245326
 21
67.58583336326376
 31
0.0
 11
133.664143478405
 21
67.66412185881228
 31
0.0
 11
133.6712543063417
 21
67.70343813239917
 31
0.0
 11
133.664143478405
 21
67.66412185881228
 31
0.0
 11
133.6569704245325
 21
67.62446153360007
 31
0.0
 11
133.6638945746625
 21
67.6627456523111
 31
0.0
  0
SPLINE
  5
220
330
A
100
AcDbEntity
  8
1
  6
Continuous
 62
     3
100
AcDbSpline
210
0.0
220
0.0
230
1.0
 70
    11
 71
     3
 72
    83
 73
    79
 74
    77
 42
0.0000000001
 43
0.0000000001
 44
0.00000000001
 40
0.0
 40
0.0
 40
0.0
 40
0.0
 40
0.0690421550272562
 40
0.1382636179909961
 40
0.2145592030571779
 40
0.2911118915681215
 40
0.3775701156701028
 40
0.464254463114912
 40
0.5618889930064145
 40
0.6596748417934525
 40
0.7679891090369547
 40
0.8763949644224034
 40
0.9938754296847589
 40
1.111409319604165
 40
1.235867791340401
 40
1.360355700794052
 40
1.489167763426283
 40
1.61799292344001
 40
1.748287028977313
 40
1.878581134514606
 40
2.007406294528173
 40
2.136218357160422
 40
2.2607062666141
 40
2.385164738350335
 40
2.502698628269909
 40
2.620179093532227
 40
2.728584948917551
 40
2.836899216161028
 40
2.934685064948069
 40
3.03231959483971
 40
3.11900394228448
 40
3.205462166386432
 40
3.282014854897273
 40
3.358310439963502
 40
3.427531902927252
 40
3.496574057954447
 40
3.563017941005385
 40
3.629461824056388
 40
3.698503979083755
 40
3.767725442047495
 40
3.844021027113647
 40
3.92057371562444
 40
4.007031939726472
 40
4.093716287171162
 40
4.191350817062671
 40
4.289136665849787
 40
4.397450933093282
 40
4.505856788478642
 40
4.623337253740997
 40
4.740871143660545
 40
4.865329615396838
 40
4.989817524850514
 40
5.118629587482634
 40
5.247454747496276
 40
5.377748853033634
 40
5.508042958571021
 40
5.636868118584695
 40
5.765680181216868
 40
5.890168090670429
 40
6.01462656240665
 40
6.132160452326227
 40
6.249640917588601
 40
6.358046772973945
 40
6.466361040217429
 40
6.56414688900447
 40
6.661781418896045
 40
6.748465766340784
 40
6.834923990442698
 40
6.911476678953603
 40
6.987772264019854
 40
7.056993726983624
 40
7.12603588201087
 40
7.192768511711619
 40
7.260107341384614
 40
7.294330027091937
 40
7.32855271279924
 40
7.363074876803099
 40
7.396399127620826
 40
7.396399127620826
 40
7.396399127620826
 40
7.396399127620826
 10
151.320592913144
 20
59.00334015804542
 30
0.0
 10
151.3305629503694
 20
59.02414765485897
 30
0.0
 10
151.3505289177953
 20
59.06581668720072
 30
0.0
 10
151.3947045274764
 20
59.12264056030274
 30
0.0
 10
151.4474902588418
 20
59.17476423387404
 30
0.0
 10
151.5113681501098
 20
59.22289670918319
 30
0.0
 10
151.5831550778823
 20
59.26531859563382
 30
0.0
 10
151.6650826305042
 20
59.30348178767641
 30
0.0
 10
151.7535808524091
 20
59.33560190109297
 30
0.0
 10
151.8511680745753
 20
59.36287397638597
 30
0.0
 10
151.9539413482935
 20
59.38397220186996
 30
0.0
 10
152.0642961337969
 20
59.39963902345004
 30
0.0
 10
152.178438473616
 20
59.40911871952881
 30
0.0
 10
152.2982570152397
 20
59.41276764226074
 30
0.0
 10
152.4204427231582
 20
59.41030713263539
 30
0.0
 10
152.5461231678235
 20
59.40187321363435
 30
0.0
 10
152.6727279607823
 20
59.38749196006724
 30
0.0
 10
152.8004890192512
 20
59.36727112610395
 30
0.0
 10
152.9277205356728
 20
59.3413485217365
 30
0.0
 10
153.0537230065069
 20
59.30999222199935
 30
0.0
 10
153.1777496510269
 20
59.27326128637043
 30
0.0
 10
153.2982194556885
 20
59.23175682596046
 30
0.0
 10
153.4152953885565
 20
59.18528176757458
 30
0.0
 10
153.5266460508598
 20
59.13491877012333
 30
0.0
 10
153.6332307080348
 20
59.08005978911735
 30
0.0
 10
153.732182377395
 20
59.02238043793617
 30
0.0
 10
153.8250524413385
 20
58.96074625463608
 30
0.0
 10
153.9087416952599
 20
58.89747216018481
 30
0.0
 10
153.985092197077
 20
58.83085709673558
 30
0.0
 10
154.0511539298329
 20
58.76377739379037
 30
0.0
 10
154.1086775400914
 20
58.69407089153201
 30
0.0
 10
154.1552368105161
 20
58.62488346734254
 30
0.0
 10
154.1921256284442
 20
58.5539481562088
 30
0.0
 10
154.2175397838778
 20
58.48417315202008
 30
0.0
 10
154.232284776599
 20
58.41389739305807
 30
0.0
 10
154.2348489972781
 20
58.34538618037069
 30
0.0
 10
154.2262318366447
 20
58.27826921275013
 30
0.0
 10
154.2051256332693
 20
58.21397713719617
 30
0.0
 10
154.1733264515829
 20
58.1532385700771
 30
0.0
 10
154.1297728215138
 20
58.09614935554561
 30
0.0
 10
154.0768041051929
 20
58.04410374480588
 30
0.0
 10
154.0129783562246
 20
57.9959490251786
 30
0.0
 10
153.9411757308684
 20
57.95353383544156
 30
0.0
 10
153.8592526791125
 20
57.91536872329382
 30
0.0
 10
153.7707531061005
 20
57.88324918627026
 30
0.0
 10
153.6731662691169
 20
57.85597694665536
 30
0.0
 10
153.5703928816063
 20
57.83487876971612
 30
0.0
 10
153.4600381281947
 20
57.81921193444552
 30
0.0
 10
153.3458957790897
 20
57.80973224232809
 30
0.0
 10
153.2260772400526
 20
57.80608331849277
 30
0.0
 10
153.1038915314018
 20
57.8085438284304
 30
0.0
 10
152.9782110869379
 20
57.81697774734548
 30
0.0
 10
152.8516062939234
 20
57.83135900093643
 30
0.0
 10
152.7238452354695
 20
57.8515798348931
 30
0.0
 10
152.5966137190442
 20
57.87750243926289
 30
0.0
 10
152.4706112482102
 20
57.90885873899742
 30
0.0
 10
152.3465846036929
 20
57.94558967463398
 30
0.0
 10
152.2261147990202
 20
57.98709413501609
 30
0.0
 10
152.1090388661926
 20
58.03356919350271
 30
0.0
 10
151.9976882037429
 20
58.08393219058806
 30
0.0
 10
151.8911035470853
 20
58.13879117288707
 30
0.0
 10
151.7921518758674
 20
58.19647051942622
 30
0.0
 10
151.699281818344
 20
58.25810471876888
 30
0.0
 10
151.6155925416581
 20
58.32137875633579
 30
0.0
 10
151.5392421168976
 20
58.38799401233655
 30
0.0
 10
151.4731801138502
 20
58.45507303986749
 30
0.0
 10
151.415657403998
 20
58.52478179209445
 30
0.0
 10
151.3690949932435
 20
58.59396136911133
 30
0.0
 10
151.332216606476
 20
58.66492274601646
 30
0.0
 10
151.306765844574
 20
58.73460627660184
 30
0.0
 10
151.2921452799889
 20
58.80519296121462
 30
0.0
 10
151.2891290187012
 20
58.87268027342855
 30
0.0
 10
151.2994455491861
 20
58.94425019383476
 30
0.0
 10
151.3123478110443
 20
58.98508816878727
 30
0.0
 10
151.3415349589998
 20
59.052460222661
 30
0.0
 10
151.3209210276935
 20
59.00417346816697
 30
0.0
 10
151.3009658645664
 20
58.95708063600546
 30
0.0
 10
151.3141280284318
 20
58.98810289628158
 30
0.0
 10
151.320592913144
 20
59.00334015804542
 30
0.0
 11
151.320592913144
 21
59.00334015804542
 31
0.0
 11
151.3526228007158
 21
59.06450310003602
 31
0.0
 11
151.3942954425538
 21
59.11977517125729
 31
0.0
 11
151.4485423414268
 21
59.17342487082078
 31
0.0
 11
151.5094635367206
 21
59.21978133835477
 31
0.0
 11
151.5837405240286
 21
59.2640301086349
 31
0.0
 11
151.6622237397358
 21
59.30083446903145
 31
0.0
 11
151.7539033292655
 21
59.33441056604706
 31
0.0
 11
151.8480399038394
 21
59.36087521322958
 31
0.0
 11
151.9540970122154
 21
59.38287226420049
 31
0.0
 11
152.0614122368834
 21
59.39821084419705
 31
0.0
 11
152.1784763939804
 21
59.40809228343553
 31
0.0
 11
152.2959538326895
 21
59.41173462800231
 31
0.0
 11
152.4203891865884
 21
59.40933590188816
 31
0.0
 11
152.5445999102559
 21
59.40103314775839
 31
0.0
 11
152.6725962158936
 21
59.38655926705397
 31
0.0
 11
152.7998378652938
 21
59.36642262109434
 31
0.0
 11
152.9275149220404
 21
59.34043948967632
 31
0.0
 11
153.0539456113459
 21
59.3089460818026
 31
0.0
 11
153.1774671765286
 21
59.27236268683553
 31
0.0
 11
153.2992329025665
 21
59.23034298381349
 31
0.0
 11
153.4149257338029
 21
59.1843820395167
 31
0.0
 11
153.5282804642026
 21
59.13299511235703
 31
0.0
 11
153.6327547428356
 21
59.07914958901721
 31
0.0
 11
153.7341709055006
 21
59.01985016517032
 31
0.0
 11
153.824438586666
 21
58.95982037907348
 31
0.0
 11
153.9107050728341
 21
58.89432172372317
 31
0.0
 11
153.9842887284937
 21
58.82992049824748
 31
0.0
 11
154.0525940776447
 21
58.76015746574076
 31
0.0
 11
154.1075983115019
 21
58.69315962734503
 31
0.0
 11
154.1556019794349
 21
58.62125223982576
 31
0.0
 11
154.1906428803984
 21
58.55319014040247
 31
0.0
 11
154.2165204582769
 21
58.48141711438478
 31
0.0
 11
154.2303495923339
 21
58.41359111652203
 31
0.0
 11
154.2329394267401
 21
58.34459755212254
 31
0.0
 11
154.2241771126823
 21
58.27873397002105
 31
0.0
 11
154.2037413415735
 21
58.21551080295321
 31
0.0
 11
154.1717114540016
 21
58.15434786096258
 31
0.0
 11
154.1300388121636
 21
58.09907578974131
 31
0.0
 11
154.0757919132906
 21
58.04542609017786
 31
0.0
 11
154.0148707179971
 21
57.99906962264386
 31
0.0
 11
153.940593730689
 21
57.95482085236368
 31
0.0
 11
153.8621105149819
 21
57.91801649196711
 31
0.0
 11
153.7704309254523
 21
57.88444039495146
 31
0.0
 11
153.6762943508783
 21
57.85797574776896
 31
0.0
 11
153.5702372425023
 21
57.83597869679809
 31
0.0
 11
153.4629220178344
 21
57.82064011680158
 31
0.0
 11
153.3458578607374
 21
57.81075867756309
 31
0.0
 11
153.2283804220281
 21
57.80711633299632
 31
0.0
 11
153.1039450681292
 21
57.80951505911043
 31
0.0
 11
152.9797343444617
 21
57.81781781324014
 31
0.0
 11
152.851738038824
 21
57.83229169394459
 31
0.0
 11
152.724496389424
 21
57.85242833990421
 31
0.0
 11
152.5968193326773
 21
57.87841147132223
 31
0.0
 11
152.4703886433717
 21
57.90990487919589
 31
0.0
 11
152.3468670781888
 21
57.94648827416295
 31
0.0
 11
152.225101352151
 21
57.988507977185
 31
0.0
 11
152.1094085209148
 21
58.03446892148183
 31
0.0
 11
151.9960537905151
 21
58.08585584864159
 31
0.0
 11
151.8915795118821
 21
58.13970137198142
 31
0.0
 11
151.790163349217
 21
58.19900079582828
 31
0.0
 11
151.6998956680516
 21
58.25903058192512
 31
0.0
 11
151.6136291818835
 21
58.32452923727547
 31
0.0
 11
151.5400455262239
 21
58.38893046275116
 31
0.0
 11
151.471740177073
 21
58.4586934952578
 31
0.0
 11
151.4167359432156
 21
58.52569133365345
 31
0.0
 11
151.3687322752828
 21
58.59759872117273
 31
0.0
 11
151.3336913743193
 21
58.66566082059606
 31
0.0
 11
151.3078137964406
 21
58.73743384661377
 31
0.0
 11
151.2939846623839
 21
58.80525984447657
 31
0.0
 11
151.2913948279776
 21
58.87425340887611
 31
0.0
 11
151.300274143386
 21
58.94039266820563
 31
0.0
 11
151.3210609185463
 21
59.00444286695754
 31
0.0
 11
151.3344311710645
 21
59.03594570118912
 31
0.0
 11
151.3210609185463
 21
59.00444286695756
 31
0.0
 11
151.3075736646776
 21
58.97266435549797
 31
0.0
 11
151.320592913144
 21
59.00334015804542
 31
0.0
  0
SPLINE
  5
21F
330
A
100
AcDbEntity
  8
1
  6
Continuous
 62
     3
100
AcDbSpline
210
0.0
220
0.0
230
1.0
 70
     8
 71
     3
 72
    45
 73
    41
 74
    39
 42
0.0000000001
 43
0.0000000001
 44
0.00000000001
 40
0.0
 40
0.0
 40
0.0
 40
0.0
 40
0.0349500033566519
 40
0.0740717307600491
 40
0.1366274525905516
 40
0.2019465517679971
 40
0.283732030908703
 40
0.3625948506704505
 40
0.4486196738013728
 40
0.5351609636602447
 40
0.6327954935517813
 40
0.730581342338944
 40
0.838895609582323
 40
0.9473014649676319
 40
1.064781930229961
 40
1.182315820149677
 40
1.306774291885913
 40
1.431262201339448
 40
1.560074263971505
 40
1.688899423985001
 40
1.81919352952239
 40
1.949487635059669
 40
2.078312795073239
 40
2.207124857705444
 40
2.331612767159044
 40
2.456071238895277
 40
2.573605128814779
 40
2.691085594077044
 40
2.799491449462308
 40
2.907805716705702
 40
3.005591565492898
 40
3.103226095384478
 40
3.189910442829226
 40
3.276368666931285
 40
3.354046243987229
 40
3.43377314127769
 40
3.497623473417575
 40
3.559561280505679
 40
3.599010064672344
 40
3.634068296585475
 40
3.634068296585475
 40
3.634068296585475
 40
3.634068296585475
 10
148.3675307334913
 20
59.60344669907295
 30
0.0
 10
148.3705035849771
 20
59.61471894310697
 30
0.0
 10
148.3768041352974
 20
59.63860891578104
 30
0.0
 10
148.3931802807471
 20
59.68117925643159
 30
0.0
 10
148.4195654992648
 20
59.73061393353995
 30
0.0
 10
148.4653003939936
 20
59.78395941438377
 30
0.0
 10
148.5211192630701
 20
59.83468854038609
 30
0.0
 10
148.5870460199005
 20
59.88405320021985
 30
0.0
 10
148.6592981011328
 20
59.92685503128206
 30
0.0
 10
148.7410779545185
 20
59.96487611934831
 30
0.0
 10
148.8295239604495
 20
59.99699655200663
 30
0.0
 10
148.9271132755888
 20
60.02426389028959
 30
0.0
 10
149.0298859309914
 20
60.04536351520245
 30
0.0
 10
149.1402408908723
 20
60.06102994211501
 30
0.0
 10
149.254383180235
 20
60.07050975239191
 30
0.0
 10
149.3742017359133
 20
60.07415864331374
 30
0.0
 10
149.4963874398536
 20
60.07169814269268
 30
0.0
 10
149.6220678856131
 20
60.063264221215
 30
0.0
 10
149.7486726782683
 20
60.04888296833357
 30
0.0
 10
149.8764337368209
 20
60.02866213418474
 30
0.0
 10
150.0036652532151
 20
60.00273952986493
 30
0.0
 10
150.1296677240733
 20
59.97138323012477
 30
0.0
 10
150.2536943685257
 20
59.93465229446093
 30
0.0
 10
150.3741641734302
 20
59.89314783419171
 30
0.0
 10
150.491240105422
 20
59.84667277529361
 30
0.0
 10
150.6025907709103
 20
59.7963097797051
 30
0.0
 10
150.7091754168334
 20
59.7414507921189
 30
0.0
 10
150.8081271265884
 20
59.68377146456154
 30
0.0
 10
150.9009970509276
 20
59.62213719961813
 30
0.0
 10
150.9846867998631
 20
59.55886339466089
 30
0.0
 10
151.0610356260775
 20
59.49224735128578
 30
0.0
 10
151.1271032363553
 20
59.42517108563278
 30
0.0
 10
151.1846072671617
 20
59.35545313291968
 30
0.0
 10
151.2314448837397
 20
59.28599413166839
 30
0.0
 10
151.268748452582
 20
59.21353935570515
 30
0.0
 10
151.2937687905789
 20
59.14394598207923
 30
0.0
 10
151.3085359212836
 20
59.07676062972655
 30
0.0
 10
151.3103479239478
 20
59.02145798901653
 30
0.0
 10
151.3069341054123
 20
58.97603046532059
 30
0.0
 10
151.3023136001289
 20
58.9516111507396
 30
0.0
 10
151.3001394861421
 20
58.94012098459439
 30
0.0
 11
148.3675307334913
 21
59.60344669907295
 31
0.0
 11
148.3770231635693
 21
59.63708293705888
 31
0.0
 11
148.3909455728189
 21
59.67364351795843
 31
0.0
 11
148.4209692749959
 21
59.72852334705184
 31
0.0
 11
148.4625461853103
 21
59.77890137049521
 31
0.0
 11
148.5226840278178
 21
59.83432974316496
 31
0.0
 11
148.5858901044248
 21
59.88149261225414
 31
0.0
 11
148.6598057041183
 21
59.92550118319961
 31
0.0
 11
148.738168457287
 21
59.96222547715122
 31
0.0
 11
148.8298480468167
 21
59.99580157416686
 31
0.0
 11
148.9239846213908
 21
60.02226622134943
 31
0.0
 11
149.0300417297666
 21
60.04426327232042
 31
0.0
 11
149.1373569544345
 21
60.05960185231698
 31
0.0
 11
149.2544211115315
 21
60.06948329155549
 31
0.0
 11
149.3718985502409
 21
60.07312563612217
 31
0.0
 11
149.4963339041398
 21
60.07072691000801
 31
0.0
 11
149.6205446278072
 21
60.0624241558783
 31
0.0
 11
149.7485409334448
 21
60.0479502751739
 31
0.0
 11
149.8757825828446
 21
60.02781362921432
 31
0.0
 11
150.0034596395914
 21
60.00183049779629
 31
0.0
 11
150.1298903288969
 21
59.97033708992262
 31
0.0
 11
150.2534118940796
 21
59.93375369495554
 31
0.0
 11
150.3751776201174
 21
59.89173399193339
 31
0.0
 11
150.4908704513536
 21
59.84577304763653
 31
0.0
 11
150.6042251817534
 21
59.79438612047693
 31
0.0
 11
150.7086994603865
 21
59.74054059713726
 31
0.0
 11
150.8101156230514
 21
59.68124117329047
 31
0.0
 11
150.9003833042168
 21
59.62121138719361
 31
0.0
 11
150.9866497903848
 21
59.55571273184329
 31
0.0
 11
151.0602334460446
 21
59.49131150636759
 31
0.0
 11
151.1285387951955
 21
59.42154847386095
 31
0.0
 11
151.1835430290528
 21
59.35455063546527
 31
0.0
 11
151.2315466969858
 21
59.28264324794591
 31
0.0
 11
151.2669060237771
 21
59.21348022324232
 31
0.0
 11
151.2937388791389
 21
59.13840442138386
 31
0.0
 11
151.3066999242061
 21
59.07588341511285
 31
0.0
 11
151.3092328982663
 21
59.0139974232464
 31
0.0
 11
151.306051559416
 21
58.97467712752844
 31
0.0
 11
151.3001394861421
 21
58.94012098459439
 31
0.0
  0
SPLINE
  5
21E
330
A
100
AcDbEntity
  8
1
  6
Continuous
 62
     3
100
AcDbSpline
210
0.0
220
0.0
230
1.0
 70
     8
 71
     3
 72
    45
 73
    41
 74
    39
 42
0.0000000001
 43
0.0000000001
 44
0.00000000001
 40
0.0
 40
0.0
 40
0.0
 40
0.0
 40
0.0350582319028469
 40
0.0745070160605158
 40
0.1364448231459283
 40
0.2002951552838663
 40
0.2800220525755943
 40
0.3576996296320154
 40
0.4441578537340166
 40
0.5308422011787523
 40
0.628476731070232
 40
0.7262625798571781
 40
0.8345768471006071
 40
0.942982702486045
 40
1.060463167748373
 40
1.177997057667905
 40
1.302455529404048
 40
1.42694343885769
 40
1.555755501489844
 40
1.684580661503347
 40
1.81487476704071
 40
1.945168872578065
 40
2.073994032591596
 40
2.202806095223856
 40
2.32729400467742
 40
2.451752476413741
 40
2.569286366333176
 40
2.686766831595424
 40
2.795172686980764
 40
2.903486954224184
 40
3.001272803011298
 40
3.098907332902835
 40
3.185591680347616
 40
3.272049904449604
 40
3.34972748150554
 40
3.429454378796032
 40
3.493304710935951
 40
3.55524251802402
 40
3.594691302190724
 40
3.629749534103846
 40
3.629749534103846
 40
3.629749534103846
 40
3.629749534103846
 10
154.8349452892601
 20
61.72378701590468
 30
0.0
 10
154.8371194032457
 20
61.73527718204663
 30
0.0
 10
154.8417399085264
 20
61.75969649662154
 30
0.0
 10
154.8451537270609
 20
61.80512402031015
 30
0.0
 10
154.8433417243967
 20
61.86042666101561
 30
0.0
 10
154.8285745936919
 20
61.92761201336714
 30
0.0
 10
154.8035542556952
 20
61.997205386993
 30
0.0
 10
154.7662506868525
 20
62.06966016295671
 30
0.0
 10
154.7194130702746
 20
62.13911916420821
 30
0.0
 10
154.6619090394682
 20
62.20883711692126
 30
0.0
 10
154.5958414291905
 20
62.27591338257417
 30
0.0
 10
154.5194926029763
 20
62.34252942594941
 30
0.0
 10
154.4358028540409
 20
62.40580323090671
 30
0.0
 10
154.3429329297015
 20
62.46743749584992
 30
0.0
 10
154.2439812199464
 20
62.52511682340737
 30
0.0
 10
154.1373965740234
 20
62.57997581099367
 30
0.0
 10
154.0260459085351
 20
62.63033880658215
 30
0.0
 10
153.9089699765432
 20
62.67681386548063
 30
0.0
 10
153.7885001716395
 20
62.71831832574854
 30
0.0
 10
153.6644735271843
 20
62.7550492614173
 30
0.0
 10
153.5384710563364
 20
62.78640556113869
 30
0.0
 10
153.411239539904
 20
62.81232816552781
 30
0.0
 10
153.2834784814918
 20
62.83254899942078
 30
0.0
 10
153.1568736883198
 20
62.84693025324433
 30
0.0
 10
153.0311932444261
 20
62.85536417131989
 30
0.0
 10
152.909007533702
 20
62.85782468430962
 30
0.0
 10
152.7891890019897
 20
62.85417574969208
 30
0.0
 10
152.6750466265888
 20
62.84469609628299
 30
0.0
 10
152.5646919640559
 20
62.82902912723631
 30
0.0
 10
152.4619182543045
 20
62.80793142464573
 30
0.0
 10
152.364332508093
 20
62.78065757937944
 30
0.0
 10
152.2758291089735
 20
62.74854367450847
 30
0.0
 10
152.1939188029101
 20
62.71035980029336
 30
0.0
 10
152.1217480502794
 20
62.66781925908546
 30
0.0
 10
152.0568940048287
 20
62.61847147699824
 30
0.0
 10
152.0043589372286
 20
62.56642033254994
 30
0.0
 10
151.9621153153861
 20
62.51213022172276
 30
0.0
 10
151.9366795858083
 20
62.46299073572624
 30
0.0
 10
151.9202108466146
 20
62.42051609981834
 30
0.0
 10
151.9138724503241
 20
62.39648535438369
 30
0.0
 10
151.9108900068066
 20
62.38517802400304
 30
0.0
 11
154.8349452892601
 21
61.72378701590468
 31
0.0
 11
154.8408573625307
 21
61.75834315882887
 31
0.0
 11
154.8440387013795
 21
61.79766345453792
 31
0.0
 11
154.8415057273194
 21
61.85954944640168
 31
0.0
 11
154.8285446822524
 21
61.92207045267075
 31
0.0
 11
154.80171182689
 21
61.9971462545304
 31
0.0
 11
154.7663525000985
 21
62.06630927923441
 31
0.0
 11
154.7183488321656
 21
62.13821666675377
 31
0.0
 11
154.6633445983084
 21
62.20521450514946
 31
0.0
 11
154.5950392491576
 21
62.27497753765605
 31
0.0
 11
154.5214555934981
 21
62.33937876313173
 31
0.0
 11
154.4351891073301
 21
62.4048774184821
 31
0.0
 11
154.3449214261644
 21
62.46490720457893
 31
0.0
 11
154.2435052634995
 21
62.52420662842575
 31
0.0
 11
154.1390309848665
 21
62.57805215176548
 31
0.0
 11
154.0256762544668
 21
62.62943907892512
 31
0.0
 11
153.9099834232304
 21
62.67540002322203
 31
0.0
 11
153.7882176971928
 21
62.71741972624418
 31
0.0
 11
153.6646961320101
 21
62.75400312121121
 31
0.0
 11
153.5382654427045
 21
62.78549652908477
 31
0.0
 11
153.4105883859578
 21
62.81147966050277
 31
0.0
 11
153.2833467365579
 21
62.8316163064624
 31
0.0
 11
153.1553504309201
 21
62.84609018716684
 31
0.0
 11
153.0311397072527
 21
62.85439294129658
 31
0.0
 11
152.9067043533536
 21
62.85679166741072
 31
0.0
 11
152.7892269146445
 21
62.85314932284395
 31
0.0
 11
152.6721627575476
 21
62.84326788360539
 31
0.0
 11
152.5648475328798
 21
62.82792930360882
 31
0.0
 11
152.4587904245039
 21
62.8059322526379
 31
0.0
 11
152.3646538499299
 21
62.77946760545541
 31
0.0
 11
152.2729742604001
 21
62.74589150843977
 31
0.0
 11
152.194491044693
 21
62.70908714804322
 31
0.0
 11
152.120214057385
 21
62.66483837776308
 31
0.0
 11
152.0585316372986
 21
62.61762519073268
 31
0.0
 11
152.0020010640475
 21
62.56140533267995
 31
0.0
 11
151.963395071363
 21
62.51054825605113
 31
0.0
 11
151.93447533291
 21
62.45577654186686
 31
0.0
 11
151.9204250585786
 21
62.41891468673929
 31
0.0
 11
151.9108900068066
 21
62.38517802400304
 31
0.0
  0
SPLINE
  5
21D
330
A
100
AcDbEntity
  8
1
  6
Continuous
 62
     3
100
AcDbSpline
210
0.0
220
0.0
230
1.0
 70
    11
 71
     3
 72
    83
 73
    79
 74
    77
 42
0.0000000001
 43
0.0000000001
 44
0.00000000001
 40
0.0
 40
0.0
 40
0.0
 40
0.0
 40
0.0690421550272847
 40
0.1382636179910951
 40
0.2145592030573149
 40
0.2911118915682381
 40
0.377570115670129
 40
0.4642544631148004
 40
0.5618889930064091
 40
0.6596748417934474
 40
0.7679891090370099
 40
0.8763949644223572
 40
0.9938754296847099
 40
1.111409319604261
 40
1.235867791340554
 40
1.36035570079427
 40
1.489167763426327
 40
1.617992923440002
 40
1.748287028977377
 40
1.87858113451465
 40
2.007406294528266
 40
2.136218357160642
 40
2.260706266614379
 40
2.385164738350501
 40
2.50269862827005
 40
2.620179093532186
 40
2.728584948917523
 40
2.83689921616101
 40
2.934685064948034
 40
3.032319594839712
 40
3.119208927155882
 40
3.206288145889887
 40
3.281070969736381
 40
3.354398521084354
 40
3.42146994979952
 40
3.489512711655659
 40
3.55670966391953
 40
3.623906616183475
 40
3.691949378039597
 40
3.759020806754779
 40
3.832348358102668
 40
3.907131181949138
 40
3.994210400683172
 40
4.081099732999504
 40
4.178734262891016
 40
4.276520111678173
 40
4.38483437892172
 40
4.493240234307036
 40
4.610720699569374
 40
4.72825458948883
 40
4.852713061225103
 40
4.977200970678604
 40
5.106013033310756
 40
5.234838193324431
 40
5.365132298861902
 40
5.495426404399286
 40
5.624251564412928
 40
5.753063627045046
 40
5.877551536498698
 40
6.002010008234934
 40
6.119543898154453
 40
6.237024363416699
 40
6.345430218802182
 40
6.453744486045658
 40
6.551530334832803
 40
6.649164864724362
 40
6.735849212168936
 40
6.822307436270935
 40
6.898860124781865
 40
6.975155709848057
 40
7.04437717281182
 40
7.113419327839028
 40
7.180151957539793
 40
7.247490787212787
 40
7.281713472920094
 40
7.3159361586274
 40
7.350458322631249
 40
7.383782573448944
 40
7.383782573448944
 40
7.383782573448944
 40
7.383782573448944
 10
151.9196346649553
 20
62.45104559965122
 30
0.0
 10
151.9195898837691
 20
62.47411834462373
 30
0.0
 10
151.9195002050965
 20
62.52032375631205
 30
0.0
 10
151.9040795856158
 20
62.59062767896114
 30
0.0
 10
151.8788641980037
 20
62.66039439745874
 30
0.0
 10
151.8419187403851
 20
62.73133206963351
 30
0.0
 10
151.7953765214961
 20
62.80051878302514
 30
0.0
 10
151.7378480221619
 20
62.87022548908583
 30
0.0
 10
151.671787757049
 20
62.93730513085173
 30
0.0
 10
151.5954368368265
 20
63.00392021174237
 30
0.0
 10
151.5117477065123
 20
63.06719430104116
 30
0.0
 10
151.4188776077091
 20
63.12882848579447
 30
0.0
 10
151.3199259484355
 20
63.18650783655503
 30
0.0
 10
151.2133412884509
 20
63.2413668176782
 30
0.0
 10
151.1019906269429
 20
63.29172981509611
 30
0.0
 10
150.9849146938559
 20
63.33820487349171
 30
0.0
 10
150.864444889256
 20
63.3797093338974
 30
0.0
 10
150.7404182447157
 20
63.41644026953428
 30
0.0
 10
150.6144157739003
 20
63.4477965692433
 30
0.0
 10
150.4871842574241
 20
63.47371917371437
 30
0.0
 10
150.3594231991527
 20
63.49394000729552
 30
0.0
 10
150.2328184054676
 20
63.50832126226933
 30
0.0
 10
150.107137963425
 20
63.51675517619044
 30
0.0
 10
149.9849522459717
 20
63.51921570428436
 30
0.0
 10
149.8651337380317
 20
63.51556671630713
 30
0.0
 10
149.7509912772886
 20
63.50608725446024
 30
0.0
 10
149.6406369096976
 20
63.4904196233757
 30
0.0
 10
149.5378621541281
 20
63.46932426826739
 30
0.0
 10
149.4402799479691
 20
63.44204247686822
 30
0.0
 10
149.3516998134174
 20
63.40993313011952
 30
0.0
 10
149.2695845894592
 20
63.37153130271667
 30
0.0
 10
149.197938723882
 20
63.32951240413494
 30
0.0
 10
149.1355771448838
 20
63.28142645437338
 30
0.0
 10
149.087948756661
 20
63.22723305327253
 30
0.0
 10
149.0502447610794
 20
63.1686989212644
 30
0.0
 10
149.0199195474271
 20
63.1083075430495
 30
0.0
 10
148.998437693458
 20
63.04394456069683
 30
0.0
 10
148.9901291008294
 20
62.97660192311992
 30
0.0
 10
148.991512250967
 20
62.90903844155298
 30
0.0
 10
149.0003551951758
 20
62.83997587404724
 30
0.0
 10
149.0200245416977
 20
62.77056042263352
 30
0.0
 10
149.0556213126092
 20
62.70031730908998
 30
0.0
 10
149.1022096311156
 20
62.6315550631183
 30
0.0
 10
149.1598048338381
 20
62.56155218477052
 30
0.0
 10
149.2259436715103
 20
62.49444700958129
 30
0.0
 10
149.3022858825648
 20
62.42782531707712
 30
0.0
 10
149.3859775857805
 20
62.36455318101087
 30
0.0
 10
149.478846958973
 20
62.30291844540627
 30
0.0
 10
149.5777988282038
 20
62.24523925403593
 30
0.0
 10
149.6843834297048
 20
62.19038022851459
 30
0.0
 10
149.7957341077674
 20
62.14001724366411
 30
0.0
 10
149.9128100363005
 20
62.09354218181217
 30
0.0
 10
150.0332798421622
 20
62.05203772236195
 30
0.0
 10
150.1573064863565
 20
62.01530678647206
 30
0.0
 10
150.2833089572782
 20
61.98395048680673
 30
0.0
 10
150.4105404736799
 20
61.95802788241635
 30
0.0
 10
150.5383015321406
 20
61.93780704847273
 30
0.0
 10
150.6649063251515
 20
61.9234257948505
 30
0.0
 10
150.7905867696226
 20
61.91499187604392
 30
0.0
 10
150.912772478248
 20
61.9125313657127
 30
0.0
 10
151.0325910173745
 20
61.91618029093781
 30
0.0
 10
151.1467333661586
 20
61.92565997806577
 30
0.0
 10
151.2570881206792
 20
61.94132683058029
 30
0.0
 10
151.3598615042574
 20
61.96242494637559
 30
0.0
 10
151.4574483545522
 20
61.98969739296055
 30
0.0
 10
151.5459478808725
 20
62.02181620399402
 30
0.0
 10
151.6278710881699
 20
62.05998373459116
 30
0.0
 10
151.6996731710468
 20
62.10239048954868
 30
0.0
 10
151.7635007219558
 20
62.1505732267873
 30
0.0
 10
151.8164631146584
 20
62.2025205142569
 30
0.0
 10
151.8600382391808
 20
62.25994393697154
 30
0.0
 10
151.8918048112923
 20
62.31956373266311
 30
0.0
 10
151.913293445299
 20
62.38860663900922
 30
0.0
 10
151.9192222132196
 20
62.43102194603658
 30
0.0
 10
151.9218705580076
 20
62.50439680221244
 30
0.0
 10
151.9196971145228
 20
62.45193900043908
 30
0.0
 10
151.9174428473945
 20
62.40084240900549
 30
0.0
 10
151.9189127098542
 20
62.43450934671312
 30
0.0
 10
151.9196346649553
 20
62.45104559965122
 30
0.0
 11
151.9196346649553
 21
62.45104559965122
 31
0.0
 11
151.9170448305489
 21
62.5200391640508
 31
0.0
 11
151.9032156964922
 21
62.58786516191364
 31
0.0
 11
151.8773381186137
 21
62.65963818793135
 31
0.0
 11
151.8422972176501
 21
62.72770028735472
 31
0.0
 11
151.7942935497174
 21
62.79960767487402
 31
0.0
 11
151.7392893158601
 21
62.8666055132696
 31
0.0
 11
151.670983966709
 21
62.93636854577617
 31
0.0
 11
151.5974003110495
 21
63.0007697712519
 31
0.0
 11
151.5111338248813
 21
63.06626842660234
 31
0.0
 11
151.4208661437159
 21
63.12629821269922
 31
0.0
 11
151.3194499810509
 21
63.18559763654604
 31
0.0
 11
151.2149757024179
 21
63.23944315988581
 31
0.0
 11
151.101620972018
 21
63.2908300870455
 31
0.0
 11
150.9859281407816
 21
63.33679103134239
 31
0.0
 11
150.8641624147441
 21
63.3788107343645
 31
0.0
 11
150.7406408495612
 21
63.41539412933156
 31
0.0
 11
150.6142101602556
 21
63.44688753720517
 31
0.0
 11
150.486533103509
 21
63.47287066862318
 31
0.0
 11
150.359291454109
 21
63.49300731458281
 31
0.0
 11
150.231295148471
 21
63.50748119528728
 31
0.0
 11
150.1070844248035
 21
63.51578394941706
 31
0.0
 11
149.9826490709047
 21
63.51818267553118
 31
0.0
 11
149.8651716321954
 21
63.51454033096439
 31
0.0
 11
149.7481074750987
 21
63.50465889172582
 31
0.0
 11
149.6407922504308
 21
63.48932031172926
 31
0.0
 11
149.5347351420548
 21
63.46732326075843
 31
0.0
 11
149.4405985674809
 21
63.44085861357596
 31
0.0
 11
149.348918977951
 21
63.40728251656022
 31
0.0
 11
149.2702631611549
 21
63.37036343538971
 31
0.0
 11
149.1954683705789
 21
63.32577050278803
 31
0.0
 11
149.1368456475773
 21
63.27933940232355
 31
0.0
 11
149.0881133568671
 21
63.22454803777743
 31
0.0
 11
149.0514522983826
 21
63.16838271626416
 31
0.0
 11
149.0212914520846
 21
63.10738975936256
 31
0.0
 11
149.0006240637171
 21
63.0434500263977
 31
0.0
 11
148.991762438351
 21
62.97683995216388
 31
0.0
 11
148.9927383250366
 21
62.90880418887585
 31
0.0
 11
149.0016592992658
 21
62.84232868384806
 31
0.0
 11
149.022067750524
 21
62.77189839985094
 31
0.0
 11
149.0550018008464
 21
62.70475810590004
 31
0.0
 11
149.103324753268
 21
62.63231721548177
 31
0.0
 11
149.1584354152883
 21
62.56514154278645
 31
0.0
 11
149.226740764439
 21
62.49537851027977
 31
0.0
 11
149.3003244200988
 21
62.43097728480407
 31
0.0
 11
149.386590906267
 21
62.36547862945371
 31
0.0
 11
149.4768585874325
 21
62.30544884335693
 31
0.0
 11
149.5782747500975
 21
62.24614941951014
 31
0.0
 11
149.6827490287303
 21
62.19230389617036
 31
0.0
 11
149.7961037591302
 21
62.14091696901066
 31
0.0
 11
149.9117965903664
 21
62.09495602471385
 31
0.0
 11
150.0335623164041
 21
62.05293632169178
 31
0.0
 11
150.1570838815869
 21
62.01635292672472
 31
0.0
 11
150.2835145708926
 21
61.98485951885105
 31
0.0
 11
150.4111916276394
 21
61.95887638743304
 31
0.0
 11
150.5384332770394
 21
61.93873974147344
 31
0.0
 11
150.6664295826771
 21
61.924265860769
 31
0.0
 11
150.7906403063445
 21
61.91596310663922
 31
0.0
 11
150.9150756602435
 21
61.91356438052505
 31
0.0
 11
151.0325530989526
 21
61.91720672509176
 31
0.0
 11
151.1496172560496
 21
61.9270881643303
 31
0.0
 11
151.2569324807176
 21
61.9424267443269
 31
0.0
 11
151.3629895890935
 21
61.96442379529781
 31
0.0
 11
151.4571261636675
 21
61.99088844248032
 31
0.0
 11
151.5488057531973
 21
62.02446453949602
 31
0.0
 11
151.6272889689042
 21
62.06126889989256
 31
0.0
 11
151.7015659562123
 21
62.10551767017268
 31
0.0
 11
151.762487151506
 21
62.15187413770665
 31
0.0
 11
151.816734050379
 21
62.20552383727016
 31
0.0
 11
151.858406692217
 21
62.26079590849145
 31
0.0
 11
151.8904365797889
 21
62.32195885048195
 31
0.0
 11
151.9108853796335
 21
62.38548121230592
 31
0.0
 11
151.9196867798988
 21
62.45224237867603
 31
0.0
 11
151.9211756301365
 21
62.48643266299762
 31
0.0
 11
151.9196867798988
 21
62.45224237867603
 31
0.0
 11
151.9181849009251
 21
62.41775289959825
 31
0.0
 11
151.9196346649553
 21
62.45104559965122
 31
0.0
  0
CIRCLE
  5
21C
330
A
100
AcDbEntity
  8
1
  6
Continuous
 62
     3
100
AcDbCircle
 10
-184.497789050509
 20
21.213203435602
 30
0.0
 40
2.5
  0
CIRCLE
  5
21B
330
A
100
AcDbEntity
  8
1
  6
Continuous
 62
     7
100
AcDbCircle
 10
-184.497789050509
 20
21.213203435602
 30
0.0
 40
2.0
  0
CIRCLE
  5
21A
330
A
100
AcDbEntity
  8
1
  6
Continuous
 62
     3
100
AcDbCircle
 10
-193.284585614912
 20
0.000000000005
 30
0.0
 40
2.5
  0
CIRCLE
  5
219
330
A
100
AcDbEntity
  8
1
  6
Continuous
 62
     7
100
AcDbCircle
 10
-193.284585614912
 20
0.000000000005
 30
0.0
 40
2.0
  0
CIRCLE
  5
218
330
A
100
AcDbEntity
  8
1
  6
Continuous
 62
     3
100
AcDbCircle
 10
-184.497789050509
 20
-21.21320343559098
 30
0.0
 40
2.5
  0
CIRCLE
  5
217
330
A
100
AcDbEntity
  8
1
  6
Continuous
 62
     7
100
AcDbCircle
 10
-184.497789050509
 20
-21.21320343559098
 30
0.0
 40
2.0
  0
CIRCLE
  5
216
330
A
100
AcDbEntity
  8
1
  6
Continuous
 62
     7
100
AcDbCircle
 10
-205.710992486091
 20
-42.426406871135
 30
0.0
 40
4.500000000012999
  0
CIRCLE
  5
215
330
A
100
AcDbEntity
  8
1
  6
Continuous
 62
     7
100
AcDbCircle
 10
-205.710992486091
 20
42.426406871108
 30
0.0
 40
4.500000000012999
  0
CIRCLE
  5
214
330
A
100
AcDbEntity
  8
1
  6
Continuous
 62
     3
100
AcDbCircle
 10
-142.071382179316
 20
21.213203435602
 30
0.0
 40
2.5
  0
CIRCLE
  5
213
330
A
100
AcDbEntity
  8
1
  6
Continuous
 62
     7
100
AcDbCircle
 10
-142.071382179316
 20
21.213203435602
 30
0.0
 40
2.0
  0
CIRCLE
  5
212
330
A
100
AcDbEntity
  8
1
  6
Continuous
 62
     3
100
AcDbCircle
 10
-133.284585614912
 20
0.000000000005
 30
0.0
 40
2.5
  0
CIRCLE
  5
211
330
A
100
AcDbEntity
  8
1
  6
Continuous
 62
     7
100
AcDbCircle
 10
-133.284585614912
 20
0.000000000005
 30
0.0
 40
2.0
  0
CIRCLE
  5
210
330
A
100
AcDbEntity
  8
1
  6
Continuous
 62
     3
100
AcDbCircle
 10
-142.071382179316
 20
-21.21320343559098
 30
0.0
 40
2.5
  0
CIRCLE
  5
20F
330
A
100
AcDbEntity
  8
1
  6
Continuous
 62
     7
100
AcDbCircle
 10
-142.071382179316
 20
-21.21320343559098
 30
0.0
 40
2.0
  0
CIRCLE
  5
20E
330
A
100
AcDbEntity
  8
1
  6
Continuous
 62
     7
100
AcDbCircle
 10
-195.634720854197
 20
32.35013523929
 30
0.0
 40
3.25
  0
CIRCLE
  5
20D
330
A
100
AcDbEntity
  8
1
  6
Continuous
 62
     7
100
AcDbCircle
 10
-209.034585614912
 20
0.000000000005
 30
0.0
 40
3.25
  0
CIRCLE
  5
20C
330
A
100
AcDbEntity
  8
1
  6
Continuous
 62
     7
100
AcDbCircle
 10
-195.634720854197
 20
-32.350135239279
 30
0.0
 40
3.25
  0
CIRCLE
  5
20B
330
A
100
AcDbEntity
  8
1
  6
Continuous
 62
     7
100
AcDbCircle
 10
-130.9344503756278
 20
-32.350135239279
 30
0.0
 40
3.25
  0
CIRCLE
  5
20A
330
A
100
AcDbEntity
  8
1
  6
Continuous
 62
     7
100
AcDbCircle
 10
-130.9344503756278
 20
32.35013523929
 30
0.0
 40
3.25
  0
CIRCLE
  5
209
330
A
100
AcDbEntity
  8
1
  6
Continuous
 62
     7
100
AcDbCircle
 10
-163.284585614912
 20
-45.74999999999501
 30
0.0
 40
3.25
  0
CIRCLE
  5
208
330
A
100
AcDbEntity
  8
1
  6
Continuous
 62
     7
100
AcDbCircle
 10
-117.5345856149119
 20
0.000000000005
 30
0.0
 40
3.25
  0
CIRCLE
  5
207
330
A
100
AcDbEntity
  8
1
  6
Continuous
 62
     7
100
AcDbCircle
 10
-163.284585614912
 20
45.75000000000499
 30
0.0
 40
3.25
  0
CIRCLE
  5
206
330
A
100
AcDbEntity
  8
1
  6
Continuous
 62
     3
100
AcDbCircle
 10
-163.284585614912
 20
30.000000000005
 30
0.0
 40
2.5
  0
CIRCLE
  5
205
330
A
100
AcDbEntity
  8
1
  6
Continuous
 62
     7
100
AcDbCircle
 10
-163.284585614912
 20
30.000000000005
 30
0.0
 40
2.0
  0
CIRCLE
  5
204
330
A
100
AcDbEntity
  8
1
  6
Continuous
 62
     3
100
AcDbCircle
 10
-163.284585614912
 20
-29.99999999999499
 30
0.0
 40
2.5
  0
CIRCLE
  5
203
330
A
100
AcDbEntity
  8
1
  6
Continuous
 62
     7
100
AcDbCircle
 10
-163.284585614912
 20
-29.99999999999499
 30
0.0
 40
2.0
  0
CIRCLE
  5
202
330
A
100
AcDbEntity
  8
1
  6
DASH_CENTER
 62
     3
100
AcDbCircle
 10
-163.284585614912
 20
0.000000000005
 30
0.0
 40
30.0
  0
CIRCLE
  5
201
330
A
100
AcDbEntity
  8
1
  6
Continuous
 62
     7
100
AcDbCircle
 10
-163.284585614912
 20
0.000000000005
 30
0.0
 40
22.5
  0
CIRCLE
  5
200
330
A
100
AcDbEntity
  8
1
  6
Continuous
 62
     7
100
AcDbCircle
 10
-163.284585614912
 20
0.000000000005
 30
0.0
 40
35.0
  0
CIRCLE
  5
1FF
330
A
100
AcDbEntity
  8
1
  6
Continuous
 62
     7
100
AcDbCircle
 10
-163.284585614912
 20
0.000000000005
 30
0.0
 40
42.0
  0
CIRCLE
  5
1FE
330
A
100
AcDbEntity
  8
1
  6
Continuous
 62
     7
100
AcDbCircle
 10
-163.284585614912
 20
0.000000000005
 30
0.0
 40
49.5
  0
CIRCLE
  5
1FD
330
A
100
AcDbEntity
  8
1
  6
Continuous
 62
     7
100
AcDbCircle
 10
-163.284585614912
 20
0.000000000005
 30
0.0
 40
50.0
  0
CIRCLE
  5
1FC
330
A
100
AcDbEntity
  8
1
  6
Continuous
 62
     7
100
AcDbCircle
 10
-120.858178743734
 20
42.426406871146
 30
0.0
 40
4.500000000012999
  0
CIRCLE
  5
1FB
330
A
100
AcDbEntity
  8
1
  6
Continuous
 62
     7
100
AcDbCircle
 10
-120.858178743734
 20
-42.426406871097
 30
0.0
 40
4.500000000012999
  0
ARC
  5
1FA
330
A
100
AcDbEntity
  8
1
  6
DASH_CENTER
 62
     3
100
AcDbCircle
 10
-163.2845856148929
 20
0.000000000024
 30
0.0
 40
59.99999999989199
100
AcDbArc
 50
-55.000000000025
 51
-30.000000000025
  0
ARC
  5
1F9
330
A
100
AcDbEntity
  8
1
  6
DASHED
 62
     3
100
AcDbCircle
 10
140.006887065058
 20
-25.66746824526699
 30
0.0
 40
0.72168783649
100
AcDbArc
 50
149.999999999562
 51
-150.000000000554
  0
ARC
  5
1F8
330
A
100
AcDbEntity
  8
1
  6
DASHED
 62
     3
100
AcDbCircle
 10
140.006887065058
 20
-27.832531754723
 30
0.0
 40
0.72168783649
100
AcDbArc
 50
149.999999999562
 51
-149.999999999562
  0
ARC
  5
1F7
330
A
100
AcDbEntity
  8
1
  6
DASHED
 62
     3
100
AcDbCircle
 10
140.6318870650578
 20
-26.74999999999498
 30
0.0
 40
1.443375672976999
100
AcDbArc
 50
149.9999999998119
 51
-150.000000000312
  0
ARC
  5
1F6
330
A
100
AcDbEntity
  8
1
  6
DASHED
 62
     3
100
AcDbCircle
 10
140.006887065058
 20
25.667468245277
 30
0.0
 40
0.72168783649
100
AcDbArc
 50
149.999999999562
 51
-149.999999999562
  0
ARC
  5
1F5
330
A
100
AcDbEntity
  8
1
  6
DASHED
 62
     3
100
AcDbCircle
 10
140.006887065058
 20
27.832531754733
 30
0.0
 40
0.72168783649
100
AcDbArc
 50
149.999999999562
 51
-150.000000000562
  0
ARC
  5
1F4
330
A
100
AcDbEntity
  8
1
  6
DASHED
 62
     3
100
AcDbCircle
 10
140.6318870650578
 20
26.750000000005
 30
0.0
 40
1.443375672976999
100
AcDbArc
 50
149.9999999998119
 51
-150.000000000312
  0
ARC
  5
1F3
330
A
100
AcDbEntity
  8
1
  6
Continuous
 62
     7
100
AcDbCircle
 10
159.704810144991
 20
89.48801715236703
 30
0.0
 40
4.872876747655999
100
AcDbArc
 50
-7.205723501292
 51
22.24038152551098
  0
ARC
  5
1F2
330
A
100
AcDbEntity
  8
1
  6
Continuous
 62
     7
100
AcDbCircle
 10
160.387022571653
 20
88.401921771101
 30
0.0
 40
4.399455667726
100
AcDbArc
 50
116.1891939316539
 51
145.635298958479
  0
ARC
  5
1F1
330
A
100
AcDbEntity
  8
1
  6
Continuous
 62
     7
100
AcDbCircle
 10
128.155497324464
 20
121.1302355629578
 30
0.0
 40
0.545478487402
100
AcDbArc
 50
0.0
 51
169.8147721363729
  0
ARC
  5
1F0
330
A
100
AcDbEntity
  8
1
  6
Continuous
 62
     7
100
AcDbCircle
 10
127.603939180961
 20
123.465846240483
 30
0.0
 40
0.29013219013
100
AcDbArc
 50
-90.0
 51
-44.26521395653499
  0
ARC
  5
1EF
330
A
100
AcDbEntity
  8
1
  6
Continuous
 62
     7
100
AcDbCircle
 10
160.2729813182738
 20
122.176225906266
 30
0.0
 40
0.545478487388
100
AcDbArc
 50
-10.00000000053199
 51
159.8147721378389
  0
ARC
  5
1EE
330
A
100
AcDbEntity
  8
1
  6
Continuous
 62
     7
100
AcDbCircle
 10
160.1353771201899
 20
124.572130475993
 30
0.0
 40
0.290132190118
100
AcDbArc
 50
-99.999999997622
 51
-54.26521395389301
  0
ARC
  5
1ED
330
A
100
AcDbEntity
  8
1
  6
Continuous
 62
     7
100
AcDbCircle
 10
224.705458648442
 20
47.581264290806
 30
0.0
 40
71.304027113109
100
AcDbArc
 50
155.986407200905
 51
-171.4659902521789
  0
ARC
  5
1EC
330
A
100
AcDbEntity
  8
1
  6
Continuous
 62
     7
100
AcDbCircle
 10
239.705638425484
 20
47.506811332728
 30
0.0
 40
92.13565272976699
100
AcDbArc
 50
172.4557658825389
 51
-173.451955058353
  0
ARC
  5
1EB
330
A
100
AcDbEntity
  8
1
  6
Continuous
 62
     7
100
AcDbCircle
 10
229.712393437091
 20
46.278345136504
 30
0.0
 40
82.434656678516
100
AcDbArc
 50
157.615324593594
 51
168.2656277504088
  0
ARC
  5
1EA
330
A
100
AcDbEntity
  8
1
  6
DASH_CENTER
 62
     3
100
AcDbCircle
 10
-163.284585614912
 20
0.000000000005
 30
0.0
 40
45.75
100
AcDbArc
 50
-52.5
 51
-37.5
  0
ARC
  5
1E9
330
A
100
AcDbEntity
  8
1
  6
DASH_CENTER
 62
     3
100
AcDbCircle
 10
-163.284585614912
 20
0.000000000005
 30
0.0
 40
45.75
100
AcDbArc
 50
-97.5
 51
-82.5
  0
ARC
  5
1E8
330
A
100
AcDbEntity
  8
1
  6
DASH_CENTER
 62
     3
100
AcDbCircle
 10
-163.284585614912
 20
0.000000000005
 30
0.0
 40
45.75
100
AcDbArc
 50
-142.5
 51
-127.5
  0
ARC
  5
1E7
330
A
100
AcDbEntity
  8
1
  6
DASH_CENTER
 62
     3
100
AcDbCircle
 10
-163.284585614912
 20
0.000000000005
 30
0.0
 40
45.75
100
AcDbArc
 50
172.5
 51
-172.5
  0
ARC
  5
1E6
330
A
100
AcDbEntity
  8
1
  6
DASH_CENTER
 62
     3
100
AcDbCircle
 10
-163.284585614912
 20
0.000000000005
 30
0.0
 40
45.75
100
AcDbArc
 50
127.5
 51
142.5
  0
ARC
  5
1E5
330
A
100
AcDbEntity
  8
1
  6
DASH_CENTER
 62
     3
100
AcDbCircle
 10
-163.284585614912
 20
0.000000000005
 30
0.0
 40
45.75
100
AcDbArc
 50
82.5
 51
97.5
  0
ARC
  5
1E4
330
A
100
AcDbEntity
  8
1
  6
DASH_CENTER
 62
     3
100
AcDbCircle
 10
-163.284585614912
 20
0.000000000005
 30
0.0
 40
45.75
100
AcDbArc
 50
37.5
 51
52.5
  0
ARC
  5
1E3
330
A
100
AcDbEntity
  8
1
  6
DASH_CENTER
 62
     3
100
AcDbCircle
 10
-163.284585614912
 20
0.000000000005
 30
0.0
 40
45.75
100
AcDbArc
 50
-7.499999999999999
 51
7.499999999999999
  0
ARC
  5
1E2
330
A
100
AcDbEntity
  8
1
  6
Continuous
 62
     7
100
AcDbCircle
 10
50.821887064694
 20
24.62028224314499
 30
0.0
 40
1.239999999999998
100
AcDbArc
 50
-90.0
 51
0.0
  0
ARC
  5
1E1
330
A
100
AcDbEntity
  8
1
  6
Continuous
 62
     7
100
AcDbCircle
 10
50.821887064694
 20
21.06641074245198
 30
0.0
 40
1.239999999999998
100
AcDbArc
 50
0.0
 51
90.0
  0
ARC
  5
1E0
330
A
100
AcDbEntity
  8
1
  6
Continuous
 62
     7
100
AcDbCircle
 10
54.541887064694
 20
21.06641074245198
 30
0.0
 40
1.239999999999998
100
AcDbArc
 50
90.0
 51
180.0
  0
ARC
  5
1DF
330
A
100
AcDbEntity
  8
1
  6
Continuous
 62
     7
100
AcDbCircle
 10
54.541887064694
 20
24.62028224314499
 30
0.0
 40
1.239999999999998
100
AcDbArc
 50
180.0
 51
-90.0
  0
ARC
  5
1DE
330
A
100
AcDbEntity
  8
1
  6
DASH_CENTER
 62
     3
100
AcDbCircle
 10
-163.284585614931
 20
-0.000000000014
 30
0.0
 40
59.99999999989199
100
AcDbArc
 50
-145.000000000004
 51
-124.999999999995
  0
ARC
  5
1DD
330
A
100
AcDbEntity
  8
1
  6
DASH_CENTER
 62
     3
100
AcDbCircle
 10
-163.2845856148929
 20
0.000000000024
 30
0.0
 40
59.99999999989199
100
AcDbArc
 50
34.99999999999499
 51
55.00000000000399
  0
LINE
  5
1DC
330
A
100
AcDbEntity
  8
1
  6
Continuous
 62
     7
100
AcDbLine
 10
75.18188706506099
 20
-29.99999999999499
 30
0.0
 11
140.181887065061
 21
-29.99999999999499
 31
0.0
  0
LINE
  5
1DB
330
A
100
AcDbEntity
  8
1
  6
Continuous
 62
     7
100
AcDbLine
 10
141.181887065061
 20
30.000000000005
 30
0.0
 11
119.6818870650609
 21
30.000000000005
 31
0.0
  0
LINE
  5
1DA
330
A
100
AcDbEntity
  8
1
  6
Continuous
 62
     7
100
AcDbLine
 10
91.33635828660102
 20
30.000000000013
 30
0.0
 11
91.68188706506098
 21
30.000000000005
 31
0.0
  0
LINE
  5
1D9
330
A
100
AcDbEntity
  8
1
  6
Continuous
 62
     7
100
AcDbLine
 10
91.33635828660102
 20
30.000000000013
 30
0.0
 11
119.7818870650519
 21
30.000000000005
 31
0.0
  0
LINE
  5
1D8
330
A
100
AcDbEntity
  8
1
  6
Continuous
 62
     7
100
AcDbLine
 10
77.981887065064
 20
-31.022220393448
 30
0.0
 11
75.18188706506099
 21
-31.022220393448
 31
0.0
  0
LINE
  5
1D7
330
A
100
AcDbEntity
  8
1
  6
Continuous
 62
     7
100
AcDbLine
 10
78.18188706506099
 20
-31.22222039344498
 30
0.0
 11
77.981887065064
 21
-31.022220393448
 31
0.0
  0
LINE
  5
1D6
330
A
100
AcDbEntity
  8
1
  6
Continuous
 62
     7
100
AcDbLine
 10
78.18188706506099
 20
-36.322220393444
 30
0.0
 11
78.18188706506099
 21
-31.22222039344498
 31
0.0
  0
LINE
  5
1D5
330
A
100
AcDbEntity
  8
1
  6
Continuous
 62
     7
100
AcDbLine
 10
77.981887065064
 20
-36.522220393448
 30
0.0
 11
78.18188706506099
 21
-36.322220393444
 31
0.0
  0
LINE
  5
1D4
330
A
100
AcDbEntity
  8
1
  6
Continuous
 62
     7
100
AcDbLine
 10
75.18188706506099
 20
-36.522220393448
 30
0.0
 11
77.981887065064
 21
-36.522220393448
 31
0.0
  0
LINE
  5
1D3
330
A
100
AcDbEntity
  8
1
  6
Continuous
 62
     7
100
AcDbLine
 10
77.981887065064
 20
-36.522220393448
 30
0.0
 11
77.981887065064
 21
-31.022220393448
 31
0.0
  0
LINE
  5
1D2
330
A
100
AcDbEntity
  8
1
  6
Continuous
 62
     7
100
AcDbLine
 10
77.981887065064
 20
-2.749999999994999
 30
0.0
 11
77.981887065064
 21
2.750000000005
 31
0.0
  0
LINE
  5
1D1
330
A
100
AcDbEntity
  8
1
  6
Continuous
 62
     7
100
AcDbLine
 10
75.18188706506099
 20
-2.749999999994999
 30
0.0
 11
77.981887065064
 21
-2.749999999994999
 31
0.0
  0
LINE
  5
1D0
330
A
100
AcDbEntity
  8
1
  6
Continuous
 62
     7
100
AcDbLine
 10
77.981887065064
 20
-2.749999999994999
 30
0.0
 11
78.18188706506099
 21
-2.549999999998
 31
0.0
  0
LINE
  5
1CF
330
A
100
AcDbEntity
  8
1
  6
Continuous
 62
     7
100
AcDbLine
 10
78.18188706506099
 20
-2.549999999998
 30
0.0
 11
78.18188706506099
 21
2.550000000008
 31
0.0
  0
LINE
  5
1CE
330
A
100
AcDbEntity
  8
1
  6
Continuous
 62
     7
100
AcDbLine
 10
78.18188706506099
 20
2.550000000008
 30
0.0
 11
77.981887065064
 21
2.750000000005
 31
0.0
  0
LINE
  5
1CD
330
A
100
AcDbEntity
  8
1
  6
Continuous
 62
     7
100
AcDbLine
 10
77.981887065064
 20
2.750000000005
 30
0.0
 11
75.18188706506099
 21
2.750000000005
 31
0.0
  0
LINE
  5
1CC
330
A
100
AcDbEntity
  8
1
  6
Continuous
 62
     7
100
AcDbLine
 10
77.981887065064
 20
36.52776107519299
 30
0.0
 11
75.18188706506099
 21
36.52776107519299
 31
0.0
  0
LINE
  5
1CB
330
A
100
AcDbEntity
  8
1
  6
Continuous
 62
     7
100
AcDbLine
 10
78.18188706506099
 20
36.327761075188
 30
0.0
 11
77.981887065064
 21
36.52776107519299
 31
0.0
  0
LINE
  5
1CA
330
A
100
AcDbEntity
  8
1
  6
Continuous
 62
     7
100
AcDbLine
 10
78.18188706506099
 20
31.227761075197
 30
0.0
 11
78.18188706506099
 21
36.327761075188
 31
0.0
  0
LINE
  5
1C9
330
A
100
AcDbEntity
  8
1
  6
Continuous
 62
     7
100
AcDbLine
 10
77.981887065064
 20
31.027761075193
 30
0.0
 11
78.18188706506099
 21
31.227761075197
 31
0.0
  0
LINE
  5
1C8
330
A
100
AcDbEntity
  8
1
  6
Continuous
 62
     7
100
AcDbLine
 10
75.18188706506099
 20
31.027761075193
 30
0.0
 11
77.981887065064
 21
31.027761075193
 31
0.0
  0
LINE
  5
1C7
330
A
100
AcDbEntity
  8
1
  6
Continuous
 62
     7
100
AcDbLine
 10
77.981887065064
 20
31.027761075193
 30
0.0
 11
77.981887065064
 21
36.52776107519299
 31
0.0
  0
LINE
  5
1C6
330
A
100
AcDbEntity
  8
1
  6
Continuous
 62
     7
100
AcDbLine
 10
85.88188706505802
 20
-29.002054429542
 30
0.0
 11
85.88188706505802
 21
-20.502054429542
 31
0.0
  0
LINE
  5
1C5
330
A
100
AcDbEntity
  8
1
  6
Continuous
 62
     7
100
AcDbLine
 10
85.88188706505802
 20
-20.502054429542
 30
0.0
 11
81.18188706506099
 21
-20.502054429542
 31
0.0
  0
LINE
  5
1C4
330
A
100
AcDbEntity
  8
1
  6
Continuous
 62
     7
100
AcDbLine
 10
86.18188706506098
 20
-20.802054429545
 30
0.0
 11
85.88188706505802
 21
-20.502054429542
 31
0.0
  0
LINE
  5
1C3
330
A
100
AcDbEntity
  8
1
  6
Continuous
 62
     7
100
AcDbLine
 10
86.18188706506098
 20
-28.702054429547
 30
0.0
 11
86.18188706506098
 21
-20.802054429545
 31
0.0
  0
LINE
  5
1C2
330
A
100
AcDbEntity
  8
1
  6
Continuous
 62
     7
100
AcDbLine
 10
85.88188706505802
 20
-29.002054429542
 30
0.0
 11
86.18188706506098
 21
-28.702054429547
 31
0.0
  0
LINE
  5
1C1
330
A
100
AcDbEntity
  8
1
  6
Continuous
 62
     7
100
AcDbLine
 10
81.18188706506099
 20
-29.002054429542
 30
0.0
 11
85.88188706505802
 21
-29.002054429542
 31
0.0
  0
LINE
  5
1C0
330
A
100
AcDbEntity
  8
1
  6
Continuous
 62
     7
100
AcDbLine
 10
81.18188706506099
 20
20.49542025351299
 30
0.0
 11
85.88188706505802
 21
20.49542025351299
 31
0.0
  0
LINE
  5
1BF
330
A
100
AcDbEntity
  8
1
  6
Continuous
 62
     7
100
AcDbLine
 10
85.88188706505802
 20
20.49542025351299
 30
0.0
 11
86.18188706506098
 21
20.79542025350198
 31
0.0
  0
LINE
  5
1BE
330
A
100
AcDbEntity
  8
1
  6
Continuous
 62
     7
100
AcDbLine
 10
86.18188706506098
 20
20.79542025350198
 30
0.0
 11
86.18188706506098
 21
28.69542025351799
 31
0.0
  0
LINE
  5
1BD
330
A
100
AcDbEntity
  8
1
  6
Continuous
 62
     7
100
AcDbLine
 10
86.18188706506098
 20
28.69542025351799
 30
0.0
 11
85.88188706505802
 21
28.995420253513
 31
0.0
  0
LINE
  5
1BC
330
A
100
AcDbEntity
  8
1
  6
Continuous
 62
     7
100
AcDbLine
 10
85.88188706505802
 20
28.995420253513
 30
0.0
 11
81.18188706506099
 21
28.995420253513
 31
0.0
  0
LINE
  5
1BB
330
A
100
AcDbEntity
  8
1
  6
Continuous
 62
     7
100
AcDbLine
 10
85.88188706505802
 20
20.49542025351299
 30
0.0
 11
85.88188706505802
 21
28.995420253513
 31
0.0
  0
LINE
  5
1BA
330
A
100
AcDbEntity
  8
1
  6
Continuous
 62
     1
100
AcDbLine
 10
137.181887065061
 20
23.750000000005
 30
0.0
 11
137.181887065061
 21
29.750000000005
 31
0.0
  0
LINE
  5
1B9
330
A
100
AcDbEntity
  8
1
  6
Continuous
 62
     1
100
AcDbLine
 10
137.681887065061
 20
23.750000000005
 30
0.0
 11
137.181887065061
 21
23.750000000005
 31
0.0
  0
LINE
  5
1B8
330
A
100
AcDbEntity
  8
1
  6
Continuous
 62
     3
100
AcDbLine
 10
137.681887065061
 20
29.750000000005
 30
0.0
 11
137.681887065061
 21
23.750000000005
 31
0.0
  0
LINE
  5
1B7
330
A
100
AcDbEntity
  8
1
  6
Continuous
 62
     1
100
AcDbLine
 10
137.181887065061
 20
29.750000000005
 30
0.0
 11
137.681887065061
 21
29.750000000005
 31
0.0
  0
LINE
  5
1B6
330
A
100
AcDbEntity
  8
1
  6
Continuous
 62
     1
100
AcDbLine
 10
137.181887065061
 20
-29.749999999995
 30
0.0
 11
137.181887065061
 21
-23.74999999999498
 31
0.0
  0
LINE
  5
1B5
330
A
100
AcDbEntity
  8
1
  6
Continuous
 62
     1
100
AcDbLine
 10
137.181887065061
 20
-23.74999999999498
 30
0.0
 11
137.681887065061
 21
-23.74999999999498
 31
0.0
  0
LINE
  5
1B4
330
A
100
AcDbEntity
  8
1
  6
Continuous
 62
     1
100
AcDbLine
 10
137.681887065061
 20
-23.74999999999498
 30
0.0
 11
137.681887065061
 21
-29.749999999995
 31
0.0
  0
LINE
  5
1B3
330
A
100
AcDbEntity
  8
1
  6
Continuous
 62
     1
100
AcDbLine
 10
137.681887065061
 20
-29.749999999995
 30
0.0
 11
137.181887065061
 21
-29.749999999995
 31
0.0
  0
LINE
  5
1B2
330
A
100
AcDbEntity
  8
1
  6
Continuous
 62
     3
100
AcDbLine
 10
137.681887065061
 20
-29.499999999995
 30
0.0
 11
137.681887065061
 21
-23.99999999999498
 31
0.0
  0
LINE
  5
1B1
330
A
100
AcDbEntity
  8
1
  6
Continuous
 62
     3
100
AcDbLine
 10
140.381887065058
 20
-23.99999999999498
 30
0.0
 11
137.681887065061
 21
-23.99999999999498
 31
0.0
  0
LINE
  5
1B0
330
A
100
AcDbEntity
  8
1
  6
Continuous
 62
     3
100
AcDbLine
 10
140.681887065061
 20
-29.199999999992
 30
0.0
 11
140.681887065061
 21
-24.299999999998
 31
0.0
  0
LINE
  5
1AF
330
A
100
AcDbEntity
  8
1
  6
DASHED
 62
     3
100
AcDbLine
 10
139.381887065058
 20
-25.306624327017
 30
0.0
 11
140.681887065061
 21
-25.306624327024
 31
0.0
  0
LINE
  5
1AE
330
A
100
AcDbEntity
  8
1
  6
DASHED
 62
     3
100
AcDbLine
 10
138.54855373173
 20
-26.74999999999498
 30
0.0
 11
139.381887065058
 21
-25.306624327017
 31
0.0
  0
LINE
  5
1AD
330
A
100
AcDbEntity
  8
1
  6
DASHED
 62
     3
100
AcDbLine
 10
139.381887065058
 20
-26.028312163502
 30
0.0
 11
140.681887065061
 21
-26.028312163502
 31
0.0
  0
LINE
  5
1AC
330
A
100
AcDbEntity
  8
1
  6
Continuous
 62
     3
100
AcDbLine
 10
137.681887065061
 20
-29.499999999995
 30
0.0
 11
140.381887065058
 21
-29.499999999995
 31
0.0
  0
LINE
  5
1AB
330
A
100
AcDbEntity
  8
1
  6
DASHED
 62
     3
100
AcDbLine
 10
140.681887065061
 20
-28.193375672972
 30
0.0
 11
139.381887065058
 21
-28.193375672972
 31
0.0
  0
LINE
  5
1AA
330
A
100
AcDbEntity
  8
1
  6
DASHED
 62
     3
100
AcDbLine
 10
139.381887065058
 20
-28.193375672972
 30
0.0
 11
138.54855373173
 21
-26.74999999999498
 31
0.0
  0
LINE
  5
1A9
330
A
100
AcDbEntity
  8
1
  6
DASHED
 62
     3
100
AcDbLine
 10
140.681887065061
 20
-27.471687836473
 30
0.0
 11
139.381887065058
 21
-27.471687836473
 31
0.0
  0
LINE
  5
1A8
330
A
100
AcDbEntity
  8
1
  6
DASH_CENTER
 62
     3
100
AcDbLine
 10
136.181887065061
 20
-26.74999999999498
 30
0.0
 11
142.181887065061
 21
-26.74999999999498
 31
0.0
  0
LINE
  5
1A7
330
A
100
AcDbEntity
  8
1
  6
Continuous
 62
     3
100
AcDbLine
 10
137.681887065061
 20
24.000000000005
 30
0.0
 11
137.681887065061
 21
29.500000000005
 31
0.0
  0
LINE
  5
1A6
330
A
100
AcDbEntity
  8
1
  6
Continuous
 62
     3
100
AcDbLine
 10
137.681887065061
 20
24.000000000005
 30
0.0
 11
140.381887065058
 21
24.000000000005
 31
0.0
  0
LINE
  5
1A5
330
A
100
AcDbEntity
  8
1
  6
Continuous
 62
     3
100
AcDbLine
 10
140.681887065061
 20
24.300000000008
 30
0.0
 11
140.681887065061
 21
29.200000000002
 31
0.0
  0
LINE
  5
1A4
330
A
100
AcDbEntity
  8
1
  6
DASHED
 62
     3
100
AcDbLine
 10
140.681887065061
 20
25.30662432702799
 30
0.0
 11
139.381887065058
 21
25.30662432702799
 31
0.0
  0
LINE
  5
1A3
330
A
100
AcDbEntity
  8
1
  6
DASHED
 62
     3
100
AcDbLine
 10
139.381887065058
 20
25.30662432702799
 30
0.0
 11
138.54855373173
 21
26.750000000005
 31
0.0
  0
LINE
  5
1A2
330
A
100
AcDbEntity
  8
1
  6
DASHED
 62
     3
100
AcDbLine
 10
140.681887065061
 20
26.028312163527
 30
0.0
 11
139.381887065058
 21
26.028312163527
 31
0.0
  0
LINE
  5
1A1
330
A
100
AcDbEntity
  8
1
  6
Continuous
 62
     3
100
AcDbLine
 10
140.381887065058
 20
29.500000000005
 30
0.0
 11
137.681887065061
 21
29.500000000005
 31
0.0
  0
LINE
  5
1A0
330
A
100
AcDbEntity
  8
1
  6
DASHED
 62
     3
100
AcDbLine
 10
139.381887065058
 20
28.19337567298298
 30
0.0
 11
140.681887065061
 21
28.19337567298298
 31
0.0
  0
LINE
  5
19F
330
A
100
AcDbEntity
  8
1
  6
DASHED
 62
     3
100
AcDbLine
 10
138.54855373173
 20
26.750000000005
 30
0.0
 11
139.381887065058
 21
28.19337567298298
 31
0.0
  0
LINE
  5
19E
330
A
100
AcDbEntity
  8
1
  6
DASHED
 62
     3
100
AcDbLine
 10
139.381887065058
 20
27.47168783649799
 30
0.0
 11
140.681887065061
 21
27.47168783649799
 31
0.0
  0
LINE
  5
19D
330
A
100
AcDbEntity
  8
1
  6
DASH_CENTER
 62
     3
100
AcDbLine
 10
142.181887065061
 20
26.750000000005
 30
0.0
 11
136.181887065061
 21
26.750000000005
 31
0.0
  0
LINE
  5
19C
330
A
100
AcDbEntity
  8
1
  6
Continuous
 62
     7
100
AcDbLine
 10
140.181887065061
 20
-29.971687836473
 30
0.0
 11
141.181887065061
 21
-29.971687836473
 31
0.0
  0
LINE
  5
19B
330
A
100
AcDbEntity
  8
1
  6
Continuous
 62
     7
100
AcDbLine
 10
119.6818870650609
 20
-29.99999999999499
 30
0.0
 11
119.7818870650519
 21
-29.99999999999499
 31
0.0
  0
LINE
  5
19A
330
A
100
AcDbEntity
  8
1
  6
Continuous
 62
     7
100
AcDbLine
 10
119.6818870650609
 20
20.000000000005
 30
0.0
 11
119.6818870650609
 21
30.000000000005
 31
0.0
  0
LINE
  5
199
330
A
100
AcDbEntity
  8
1
  6
Continuous
 62
     7
100
AcDbLine
 10
140.181887065061
 20
20.000000000005
 30
0.0
 11
117.6818870650609
 21
20.000000000005
 31
0.0
  0
LINE
  5
198
330
A
100
AcDbEntity
  8
1
  6
Continuous
 62
     7
100
AcDbLine
 10
119.7818870650519
 20
8.000000000005
 30
0.0
 11
117.6818870650609
 21
8.000000000005
 31
0.0
  0
LINE
  5
197
330
A
100
AcDbEntity
  8
1
  6
Continuous
 62
     7
100
AcDbLine
 10
119.6818870650609
 20
-7.999999999995
 30
0.0
 11
119.6818870650609
 21
8.000000000005
 31
0.0
  0
LINE
  5
196
330
A
100
AcDbEntity
  8
1
  6
Continuous
 62
     7
100
AcDbLine
 10
119.7818870650519
 20
-7.999999999995
 30
0.0
 11
117.6818870650609
 21
-7.999999999995
 31
0.0
  0
LINE
  5
195
330
A
100
AcDbEntity
  8
1
  6
Continuous
 62
     7
100
AcDbLine
 10
140.181887065061
 20
-19.999999999995
 30
0.0
 11
117.6818870650609
 21
-19.999999999995
 31
0.0
  0
LINE
  5
194
330
A
100
AcDbEntity
  8
1
  6
Continuous
 62
     7
100
AcDbLine
 10
119.6818870650609
 20
-29.99999999999499
 30
0.0
 11
119.6818870650609
 21
-19.999999999995
 31
0.0
  0
LINE
  5
193
330
A
100
AcDbEntity
  8
1
  6
Continuous
 62
     7
100
AcDbLine
 10
116.6818870650609
 20
9.000000000005
 30
0.0
 11
116.6818870650609
 21
19.00000000000498
 31
0.0
  0
LINE
  5
192
330
A
100
AcDbEntity
  8
1
  6
Continuous
 62
     7
100
AcDbLine
 10
116.6818870650609
 20
-18.999999999995
 30
0.0
 11
116.6818870650609
 21
-8.999999999994997
 31
0.0
  0
LINE
  5
191
330
A
100
AcDbEntity
  8
1
  6
Continuous
 62
     7
100
AcDbLine
 10
119.7818870650519
 20
-19.999999999995
 30
0.0
 11
119.7818870650519
 21
-29.99999999999499
 31
0.0
  0
LINE
  5
190
330
A
100
AcDbEntity
  8
1
  6
Continuous
 62
     7
100
AcDbLine
 10
119.7818870650519
 20
8.000000000005
 30
0.0
 11
119.7818870650519
 21
-7.999999999995
 31
0.0
  0
LINE
  5
18F
330
A
100
AcDbEntity
  8
1
  6
Continuous
 62
     7
100
AcDbLine
 10
119.7818870650519
 20
30.000000000005
 30
0.0
 11
119.7818870650519
 21
20.000000000005
 31
0.0
  0
LINE
  5
18E
330
A
100
AcDbEntity
  8
1
  6
Continuous
 62
     7
100
AcDbLine
 10
120.7818870650519
 20
23.235180670823
 30
0.0
 11
139.181887065061
 21
23.235180670823
 31
0.0
  0
LINE
  5
18D
330
A
100
AcDbEntity
  8
1
  6
Continuous
 62
     7
100
AcDbLine
 10
139.181887065061
 20
-23.235180670812
 30
0.0
 11
120.7818870650519
 21
-23.235180670812
 31
0.0
  0
LINE
  5
18C
330
A
100
AcDbEntity
  8
1
  6
Continuous
 62
     7
100
AcDbLine
 10
140.181887065061
 20
23.500000000005
 30
0.0
 11
137.181887065061
 21
23.500000000005
 31
0.0
  0
LINE
  5
18B
330
A
100
AcDbEntity
  8
1
  6
Continuous
 62
     7
100
AcDbLine
 10
137.181887065061
 20
30.000000000005
 30
0.0
 11
137.181887065061
 21
23.500000000005
 31
0.0
  0
LINE
  5
18A
330
A
100
AcDbEntity
  8
1
  6
Continuous
 62
     7
100
AcDbLine
 10
137.181887065061
 20
-29.99999999999499
 30
0.0
 11
137.181887065061
 21
-23.499999999995
 31
0.0
  0
LINE
  5
189
330
A
100
AcDbEntity
  8
1
  6
Continuous
 62
     7
100
AcDbLine
 10
140.181887065061
 20
-23.499999999995
 30
0.0
 11
137.181887065061
 21
-23.499999999995
 31
0.0
  0
LINE
  5
188
330
A
100
AcDbEntity
  8
1
  6
Continuous
 62
     7
100
AcDbLine
 10
117.6818870650609
 20
12.500000000005
 30
0.0
 11
139.181887065061
 21
12.500000000005
 31
0.0
  0
LINE
  5
187
330
A
100
AcDbEntity
  8
1
  6
Continuous
 62
     7
100
AcDbLine
 10
117.6818870650609
 20
-12.49999999999499
 30
0.0
 11
139.181887065061
 21
-12.49999999999499
 31
0.0
  0
LINE
  5
186
330
A
100
AcDbEntity
  8
1
  6
Continuous
 62
     7
100
AcDbLine
 10
140.181887065061
 20
24.000000000005
 30
0.0
 11
140.181887065061
 21
-23.99999999999498
 31
0.0
  0
LINE
  5
185
330
A
100
AcDbEntity
  8
1
  6
Continuous
 62
     7
100
AcDbLine
 10
140.181887065061
 20
-29.499999999995
 30
0.0
 11
140.181887065061
 21
-29.99999999999499
 31
0.0
  0
LINE
  5
184
330
A
100
AcDbEntity
  8
1
  6
Continuous
 62
     7
100
AcDbLine
 10
140.181887065061
 20
29.500000000005
 30
0.0
 11
140.181887065061
 21
30.000000000005
 31
0.0
  0
LINE
  5
183
330
A
100
AcDbEntity
  8
1
  6
Continuous
 62
     7
100
AcDbLine
 10
119.6818870650609
 20
-25.24999999999498
 30
0.0
 11
91.68188706506098
 21
-25.24999999999498
 31
0.0
  0
LINE
  5
182
330
A
100
AcDbEntity
  8
1
  6
Continuous
 62
     7
100
AcDbLine
 10
100.6818870650609
 20
-27.979499999996
 30
0.0
 11
91.68188706506098
 21
-27.979499999996
 31
0.0
  0
LINE
  5
181
330
A
100
AcDbEntity
  8
1
  6
Continuous
 62
     7
100
AcDbLine
 10
119.6818870650609
 20
28.250000000005
 30
0.0
 11
91.68188706506098
 21
28.250000000005
 31
0.0
  0
LINE
  5
180
330
A
100
AcDbEntity
  8
1
  6
Continuous
 62
     7
100
AcDbLine
 10
91.68188706506098
 20
27.979500000007
 30
0.0
 11
100.6818870650609
 21
27.979500000007
 31
0.0
  0
LINE
  5
17F
330
A
100
AcDbEntity
  8
1
  6
Continuous
 62
     7
100
AcDbLine
 10
91.68188706506098
 20
25.250000000005
 30
0.0
 11
119.6818870650609
 21
25.250000000005
 31
0.0
  0
LINE
  5
17E
330
A
100
AcDbEntity
  8
1
  6
Continuous
 62
     7
100
AcDbLine
 10
100.6818870650609
 20
27.979500000007
 30
0.0
 11
101.1504068085058
 21
28.250000000005
 31
0.0
  0
LINE
  5
17D
330
A
100
AcDbEntity
  8
1
  6
Continuous
 62
     7
100
AcDbLine
 10
100.6818870650609
 20
25.250000000005
 30
0.0
 11
100.6818870650609
 21
28.250000000005
 31
0.0
  0
LINE
  5
17C
330
A
100
AcDbEntity
  8
1
  6
Continuous
 62
     7
100
AcDbLine
 10
100.6818870650609
 20
25.520500000004
 30
0.0
 11
91.68188706506098
 21
25.520500000004
 31
0.0
  0
LINE
  5
17B
330
A
100
AcDbEntity
  8
1
  6
Continuous
 62
     7
100
AcDbLine
 10
101.1504068085058
 20
25.250000000005
 30
0.0
 11
100.6818870650609
 21
25.520500000004
 31
0.0
  0
LINE
  5
17A
330
A
100
AcDbEntity
  8
1
  6
DASH_CENTER
 62
     7
100
AcDbLine
 10
119.6818870650609
 20
26.750000000005
 30
0.0
 11
91.68188706506098
 21
26.750000000005
 31
0.0
  0
LINE
  5
179
330
A
100
AcDbEntity
  8
1
  6
Continuous
 62
     7
100
AcDbLine
 10
91.68188706506098
 20
-28.249999999995
 30
0.0
 11
119.6818870650609
 21
-28.249999999995
 31
0.0
  0
LINE
  5
178
330
A
100
AcDbEntity
  8
1
  6
Continuous
 62
     7
100
AcDbLine
 10
101.1504068085058
 20
-28.249999999995
 30
0.0
 11
100.6818870650609
 21
-27.979499999996
 31
0.0
  0
LINE
  5
177
330
A
100
AcDbEntity
  8
1
  6
Continuous
 62
     7
100
AcDbLine
 10
100.6818870650609
 20
-28.249999999995
 30
0.0
 11
100.6818870650609
 21
-25.24999999999498
 31
0.0
  0
LINE
  5
176
330
A
100
AcDbEntity
  8
1
  6
Continuous
 62
     7
100
AcDbLine
 10
91.68188706506098
 20
-25.520499999993
 30
0.0
 11
100.6818870650609
 21
-25.520499999993
 31
0.0
  0
LINE
  5
175
330
A
100
AcDbEntity
  8
1
  6
Continuous
 62
     7
100
AcDbLine
 10
100.6818870650609
 20
-25.520499999993
 30
0.0
 11
101.1504068085058
 21
-25.24999999999498
 31
0.0
  0
LINE
  5
174
330
A
100
AcDbEntity
  8
1
  6
DASH_CENTER
 62
     7
100
AcDbLine
 10
90.36681222324899
 20
-26.74999999999498
 30
0.0
 11
119.6818870650609
 21
-26.74999999999498
 31
0.0
  0
LINE
  5
173
330
A
100
AcDbEntity
  8
1
  6
Continuous
 62
     7
100
AcDbLine
 10
75.18188706506099
 20
-29.99999999999499
 30
0.0
 11
75.18188706506099
 21
30.000000000005
 31
0.0
  0
LINE
  5
172
330
A
100
AcDbEntity
  8
1
  6
Continuous
 62
     7
100
AcDbLine
 10
75.18188706506099
 20
-25.95751311064899
 30
0.0
 11
75.18188706506099
 21
-26.457513110649
 31
0.0
  0
LINE
  5
171
330
A
100
AcDbEntity
  8
1
  6
Continuous
 62
     7
100
AcDbLine
 10
81.18188706506099
 20
30.000000000005
 30
0.0
 11
81.18188706506099
 21
20.000000000005
 31
0.0
  0
LINE
  5
170
330
A
100
AcDbEntity
  8
1
  6
Continuous
 62
     7
100
AcDbLine
 10
81.18188706506099
 20
26.457513110652
 30
0.0
 11
75.18188706506099
 21
26.457513110652
 31
0.0
  0
LINE
  5
16F
330
A
100
AcDbEntity
  8
1
  6
Continuous
 62
     7
100
AcDbLine
 10
75.18188706506099
 20
30.000000000005
 30
0.0
 11
91.33635828660102
 21
30.000000000013
 31
0.0
  0
LINE
  5
16E
330
A
100
AcDbEntity
  8
1
  6
Continuous
 62
     7
100
AcDbLine
 10
91.68188706506098
 20
30.000000000005
 30
0.0
 11
91.68188706506098
 21
19.998737341533
 31
0.0
  0
LINE
  5
16D
330
A
100
AcDbEntity
  8
1
  6
Continuous
 62
     7
100
AcDbLine
 10
91.68188706506098
 20
20.000000000005
 30
0.0
 11
81.18188706506099
 21
20.000000000005
 31
0.0
  0
LINE
  5
16C
330
A
100
AcDbEntity
  8
1
  6
Continuous
 62
     7
100
AcDbLine
 10
91.68188706506098
 20
-7.699999999991998
 30
0.0
 11
91.68188706506098
 21
7.700000000002
 31
0.0
  0
LINE
  5
16B
330
A
100
AcDbEntity
  8
1
  6
Continuous
 62
     7
100
AcDbLine
 10
93.68188706506099
 20
7.700000000002
 30
0.0
 11
91.68188706506098
 21
7.700000000002
 31
0.0
  0
LINE
  5
16A
330
A
100
AcDbEntity
  8
1
  6
Continuous
 62
     7
100
AcDbLine
 10
94.68188706506099
 20
18.998737341533
 30
0.0
 11
94.68188706506099
 21
8.700000000001999
 31
0.0
  0
LINE
  5
169
330
A
100
AcDbEntity
  8
1
  6
Continuous
 62
     7
100
AcDbLine
 10
91.68188706506098
 20
19.998737341533
 30
0.0
 11
93.68188706506099
 21
19.998737341533
 31
0.0
  0
LINE
  5
168
330
A
100
AcDbEntity
  8
1
  6
Continuous
 62
     7
100
AcDbLine
 10
81.18188706506099
 20
-29.99999999999499
 30
0.0
 11
81.18188706506099
 21
-19.999999999995
 31
0.0
  0
LINE
  5
167
330
A
100
AcDbEntity
  8
1
  6
Continuous
 62
     7
100
AcDbLine
 10
75.18188706506099
 20
-26.457513110649
 30
0.0
 11
81.18188706506099
 21
-26.457513110649
 31
0.0
  0
LINE
  5
166
330
A
100
AcDbEntity
  8
1
  6
Continuous
 62
     7
100
AcDbLine
 10
91.68188706506098
 20
-29.99999999999499
 30
0.0
 11
91.68188706506098
 21
-19.998737341523
 31
0.0
  0
LINE
  5
165
330
A
100
AcDbEntity
  8
1
  6
Continuous
 62
     7
100
AcDbLine
 10
81.18188706506099
 20
-19.999999999995
 30
0.0
 11
91.68188706506098
 21
-19.999999999995
 31
0.0
  0
LINE
  5
164
330
A
100
AcDbEntity
  8
1
  6
Continuous
 62
     7
100
AcDbLine
 10
91.68188706506098
 20
-7.699999999991998
 30
0.0
 11
93.68188706506099
 21
-7.699999999991998
 31
0.0
  0
LINE
  5
163
330
A
100
AcDbEntity
  8
1
  6
Continuous
 62
     7
100
AcDbLine
 10
94.68188706506099
 20
-8.699999999992
 30
0.0
 11
94.68188706506099
 21
-18.998737341523
 31
0.0
  0
LINE
  5
162
330
A
100
AcDbEntity
  8
1
  6
Continuous
 62
     7
100
AcDbLine
 10
93.68188706506099
 20
-19.998737341523
 30
0.0
 11
91.68188706506098
 21
-19.998737341523
 31
0.0
  0
LINE
  5
161
330
A
100
AcDbEntity
  8
1
  6
Continuous
 62
     7
100
AcDbLine
 10
94.68188706506099
 20
-12.49999999999499
 30
0.0
 11
81.18188706506099
 21
-12.49999999999499
 31
0.0
  0
LINE
  5
160
330
A
100
AcDbEntity
  8
1
  6
Continuous
 62
     7
100
AcDbLine
 10
81.18188706506099
 20
-12.49999999999499
 30
0.0
 11
81.18188706506099
 21
-19.999999999995
 31
0.0
  0
LINE
  5
15F
330
A
100
AcDbEntity
  8
1
  6
Continuous
 62
     7
100
AcDbLine
 10
94.68188706506099
 20
12.500000000005
 30
0.0
 11
81.18188706506099
 21
12.500000000005
 31
0.0
  0
LINE
  5
15E
330
A
100
AcDbEntity
  8
1
  6
Continuous
 62
     7
100
AcDbLine
 10
81.18188706506099
 20
12.500000000005
 30
0.0
 11
81.18188706506099
 21
20.000000000005
 31
0.0
  0
LINE
  5
15D
330
A
100
AcDbEntity
  8
1
  6
Continuous
 62
     7
100
AcDbLine
 10
86.18188706506098
 20
-22.99999999999498
 30
0.0
 11
90.68188706506099
 21
-22.99999999999498
 31
0.0
  0
LINE
  5
15C
330
A
100
AcDbEntity
  8
1
  6
Continuous
 62
     7
100
AcDbLine
 10
86.18188706506098
 20
23.000000000005
 30
0.0
 11
90.68188706506099
 21
23.000000000005
 31
0.0
  0
LINE
  5
15B
330
A
100
AcDbEntity
  8
1
  6
DASH_CENTER
 62
     3
100
AcDbLine
 10
79.540370577554
 20
-24.748737341523
 30
0.0
 11
87.88924826172397
 21
-24.748737341523
 31
0.0
  0
LINE
  5
15A
330
A
100
AcDbEntity
  8
1
  6
DASH_CENTER
 62
     3
100
AcDbLine
 10
72.732824158157
 20
-33.771675938997
 30
0.0
 11
79.540370577554
 21
-33.771675938997
 31
0.0
  0
LINE
  5
159
330
A
100
AcDbEntity
  8
1
  6
DASH_CENTER
 62
     3
100
AcDbLine
 10
79.925703393747
 20
24.74542025351299
 30
0.0
 11
88.403025349981
 21
24.74542025351299
 31
0.0
  0
LINE
  5
158
330
A
100
AcDbEntity
  8
1
  6
DASH_CENTER
 62
     3
100
AcDbLine
 10
72.861268430221
 20
33.778305556187
 30
0.0
 11
80.18259193787597
 21
33.778305556187
 31
0.0
  0
LINE
  5
157
330
A
100
AcDbEntity
  8
1
  6
Continuous
 62
     7
100
AcDbLine
 10
167.181887065061
 20
-30.68137062752299
 30
0.0
 11
147.181887065061
 21
-30.68137062752299
 31
0.0
  0
LINE
  5
156
330
A
100
AcDbEntity
  8
1
  6
Continuous
 62
     7
100
AcDbLine
 10
141.181887065061
 20
-29.99999999999499
 30
0.0
 11
151.181887065061
 21
-29.99999999999499
 31
0.0
  0
LINE
  5
155
330
A
100
AcDbEntity
  8
1
  6
Continuous
 62
     7
100
AcDbLine
 10
144.181887065061
 20
32.000000000005
 30
0.0
 11
144.181887065061
 21
30.000000000005
 31
0.0
  0
LINE
  5
154
330
A
100
AcDbEntity
  8
1
  6
Continuous
 62
     7
100
AcDbLine
 10
147.181887065061
 20
37.000000000005
 30
0.0
 11
147.181887065061
 21
32.000000000005
 31
0.0
  0
LINE
  5
153
330
A
100
AcDbEntity
  8
1
  6
Continuous
 62
     7
100
AcDbLine
 10
155.181887065061
 20
37.000000000005
 30
0.0
 11
147.181887065061
 21
37.000000000005
 31
0.0
  0
LINE
  5
152
330
A
100
AcDbEntity
  8
1
  6
Continuous
 62
     7
100
AcDbLine
 10
155.181887065061
 20
32.000000000005
 30
0.0
 11
155.181887065061
 21
37.000000000005
 31
0.0
  0
LINE
  5
151
330
A
100
AcDbEntity
  8
1
  6
Continuous
 62
     7
100
AcDbLine
 10
157.1818870650608
 20
32.000000000005
 30
0.0
 11
157.1818870650608
 21
30.000000000005
 31
0.0
  0
LINE
  5
150
330
A
100
AcDbEntity
  8
1
  6
Continuous
 62
     7
100
AcDbLine
 10
157.1818870650608
 20
32.000000000005
 30
0.0
 11
144.181887065061
 21
32.000000000005
 31
0.0
  0
LINE
  5
14F
330
A
100
AcDbEntity
  8
1
  6
Continuous
 62
     7
100
AcDbLine
 10
164.2151646282439
 20
91.33236804992099
 30
0.0
 11
163.9645265422589
 21
91.37656230688101
 31
0.0
  0
LINE
  5
14E
330
A
100
AcDbEntity
  8
1
  6
Continuous
 62
     7
100
AcDbLine
 10
163.9645265422589
 20
91.37656230688101
 30
0.0
 11
170.949784390257
 21
110.010721655002
 31
0.0
  0
LINE
  5
14D
330
A
100
AcDbEntity
  8
1
  6
Continuous
 62
     7
100
AcDbLine
 10
163.9645265422589
 20
91.37656230688101
 30
0.0
 11
162.971999938105
 21
91.55157152625701
 31
0.0
  0
LINE
  5
14C
330
A
100
AcDbEntity
  8
1
  6
Continuous
 62
     7
100
AcDbLine
 10
162.971999938105
 20
91.55157152625701
 30
0.0
 11
169.957257786103
 21
110.1857308743779
 31
0.0
  0
LINE
  5
14B
330
A
100
AcDbEntity
  8
1
  6
Continuous
 62
     7
100
AcDbLine
 10
162.971999938105
 20
91.55157152625701
 30
0.0
 11
161.822677027813
 21
91.75422816489099
 31
0.0
  0
LINE
  5
14A
330
A
100
AcDbEntity
  8
1
  6
Continuous
 62
     7
100
AcDbLine
 10
166.455303001355
 20
110.803219988163
 30
0.0
 11
161.822677027813
 21
91.75422816489099
 31
0.0
  0
LINE
  5
149
330
A
100
AcDbEntity
  8
1
  6
Continuous
 62
     7
100
AcDbLine
 10
161.3302731513108
 20
91.841052253721
 30
0.0
 11
160.8378692747939
 21
91.927876342552
 31
0.0
  0
LINE
  5
148
330
A
100
AcDbEntity
  8
1
  6
Continuous
 62
     7
100
AcDbLine
 10
160.8378692747939
 20
91.927876342552
 30
0.0
 11
165.470495248351
 21
110.9768681658239
 31
0.0
  0
LINE
  5
147
330
A
100
AcDbEntity
  8
1
  6
Continuous
 62
     7
100
AcDbLine
 10
160.8378692747939
 20
91.927876342552
 30
0.0
 11
159.6745868345319
 21
92.132994422956
 31
0.0
  0
LINE
  5
146
330
A
100
AcDbEntity
  8
1
  6
Continuous
 62
     7
100
AcDbLine
 10
162.2806911396249
 20
111.5393166933639
 30
0.0
 11
159.6745868345319
 21
92.132994422956
 31
0.0
  0
LINE
  5
145
330
A
100
AcDbEntity
  8
1
  6
Continuous
 62
     7
100
AcDbLine
 10
159.6745868345319
 20
92.132994422956
 30
0.0
 11
158.684046059687
 21
92.307653487061
 31
0.0
  0
LINE
  5
144
330
A
100
AcDbEntity
  8
1
  6
Continuous
 62
     7
100
AcDbLine
 10
158.684046059687
 20
92.307653487061
 30
0.0
 11
161.286538946187
 21
111.6600669318789
 31
0.0
  0
LINE
  5
143
330
A
100
AcDbEntity
  8
1
  6
Continuous
 62
     7
100
AcDbLine
 10
161.822677027813
 20
91.75422816489099
 30
0.0
 11
161.3302731513108
 21
91.841052253721
 31
0.0
  0
LINE
  5
142
330
A
100
AcDbEntity
  8
1
  6
Continuous
 62
     7
100
AcDbLine
 10
158.684046059687
 20
92.307653487061
 30
0.0
 11
158.4453816743778
 21
92.349736457521
 31
0.0
  0
LINE
  5
141
330
A
100
AcDbEntity
  8
1
  6
Continuous
 62
     7
100
AcDbLine
 10
156.755441700589
 20
90.88523217240998
 30
0.0
 11
152.6450999199159
 21
77.82023065171799
 31
0.0
  0
LINE
  5
140
330
A
100
AcDbEntity
  8
1
  6
Continuous
 62
     7
100
AcDbLine
 10
171.181887065061
 20
-27.99999999999498
 30
0.0
 11
171.181887065061
 21
28.000000000005
 31
0.0
  0
LINE
  5
13F
330
A
100
AcDbEntity
  8
1
  6
Continuous
 62
     7
100
AcDbLine
 10
169.181887065061
 20
30.000000000005
 30
0.0
 11
144.181887065061
 21
30.000000000005
 31
0.0
  0
LINE
  5
13E
330
A
100
AcDbEntity
  8
1
  6
Continuous
 62
     7
100
AcDbLine
 10
169.181887065061
 20
-29.99999999999499
 30
0.0
 11
151.181887065061
 21
-29.99999999999499
 31
0.0
  0
LINE
  5
13D
330
A
100
AcDbEntity
  8
1
  6
Continuous
 62
     7
100
AcDbLine
 10
134.631887065058
 20
38.627624544437
 30
0.0
 11
134.631887065058
 21
31.000000000005
 31
0.0
  0
LINE
  5
13C
330
A
100
AcDbEntity
  8
1
  6
Continuous
 62
     7
100
AcDbLine
 10
132.581887065055
 20
31.000000000005
 30
0.0
 11
132.581887065055
 21
38.627624544437
 31
0.0
  0
LINE
  5
13B
330
A
100
AcDbEntity
  8
1
  6
Continuous
 62
     7
100
AcDbLine
 10
137.156887065052
 20
38.627624544437
 30
0.0
 11
130.1568870650519
 21
38.627624544437
 31
0.0
  0
LINE
  5
13A
330
A
100
AcDbEntity
  8
1
  6
Continuous
 62
     7
100
AcDbLine
 10
137.156887065052
 20
98.063274464634
 30
0.0
 11
130.1568870650519
 21
98.063274464634
 31
0.0
  0
LINE
  5
139
330
A
100
AcDbEntity
  8
1
  6
Continuous
 62
     7
100
AcDbLine
 10
136.313504004211
 20
98.063274464634
 30
0.0
 11
136.898773263267
 21
110.9757140503699
 31
0.0
  0
LINE
  5
138
330
A
100
AcDbEntity
  8
1
  6
Continuous
 62
     7
100
AcDbLine
 10
134.2635040042079
 20
98.063274464634
 30
0.0
 11
134.848773263264
 21
110.9757140503699
 31
0.0
  0
LINE
  5
137
330
A
100
AcDbEntity
  8
1
  6
Continuous
 62
     7
100
AcDbLine
 10
132.987913868565
 20
98.063274464634
 30
0.0
 11
132.5060913214409
 21
110.9757140503699
 31
0.0
  0
LINE
  5
136
330
A
100
AcDbEntity
  8
1
  6
Continuous
 62
     7
100
AcDbLine
 10
130.9379138685619
 20
98.063274464634
 30
0.0
 11
130.456091321452
 21
110.9757140503699
 31
0.0
  0
LINE
  5
135
330
A
100
AcDbEntity
  8
1
  6
Continuous
 62
     7
100
AcDbLine
 10
164.539201771346
 20
88.876800823336
 30
0.0
 11
160.5610859736339
 21
76.424428731536
 31
0.0
  0
LINE
  5
134
330
A
100
AcDbEntity
  8
1
  6
Continuous
 62
     7
100
AcDbLine
 10
135.681887065061
 20
31.000000000005
 30
0.0
 11
131.679388625606
 21
31.000000000005
 31
0.0
  0
LINE
  5
133
330
A
100
AcDbEntity
  8
1
  6
Continuous
 62
     7
100
AcDbLine
 10
131.679388625606
 20
30.000000000005
 30
0.0
 11
131.679388625606
 21
31.000000000005
 31
0.0
  0
LINE
  5
132
330
A
100
AcDbEntity
  8
1
  6
Continuous
 62
     7
100
AcDbLine
 10
135.681887065061
 20
31.000000000005
 30
0.0
 11
135.681887065061
 21
30.000000000005
 31
0.0
  0
LINE
  5
131
330
A
100
AcDbEntity
  8
1
  6
Continuous
 62
     7
100
AcDbLine
 10
105.7818870650519
 20
7.925150327170999
 30
0.0
 11
105.7818870650519
 21
-5.692199349237998
 31
0.0
  0
LINE
  5
130
330
A
100
AcDbEntity
  8
1
  6
Continuous
 62
     7
100
AcDbLine
 10
103.7818870650519
 20
11.63897296618799
 30
0.0
 11
103.7818870650519
 21
-6.495190528375998
 31
0.0
  0
LINE
  5
12F
330
A
100
AcDbEntity
  8
1
  6
Continuous
 62
     7
100
AcDbLine
 10
107.7818870650519
 20
9.080561814863999
 30
0.0
 11
107.7818870650519
 21
-2.143435494169
 31
0.0
  0
LINE
  5
12E
330
A
100
AcDbEntity
  8
1
  6
Continuous
 62
     7
100
AcDbLine
 10
101.781887065052
 20
9.163091206847999
 30
0.0
 11
101.781887065052
 21
-2.143435494169
 31
0.0
  0
LINE
  5
12D
330
A
100
AcDbEntity
  8
1
  6
Continuous
 62
     7
100
AcDbLine
 10
99.68188706506099
 20
13.784737157612
 30
0.0
 11
99.68188706506099
 21
-3.381376373838
 31
0.0
  0
LINE
  5
12C
330
A
100
AcDbEntity
  8
1
  6
Continuous
 62
     7
100
AcDbLine
 10
97.681887065061
 20
16.095560133011
 30
0.0
 11
97.681887065061
 21
-6.682552052962
 31
0.0
  0
LINE
  5
12B
330
A
100
AcDbEntity
  8
1
  6
Continuous
 62
     7
100
AcDbLine
 10
144.181887065061
 20
30.000000000005
 30
0.0
 11
144.181887065061
 21
-29.971687836473
 31
0.0
  0
LINE
  5
12A
330
A
100
AcDbEntity
  8
1
  6
Continuous
 62
     7
100
AcDbLine
 10
143.181887065061
 20
30.000000000005
 30
0.0
 11
143.181887065061
 21
-29.99999999999499
 31
0.0
  0
LINE
  5
129
330
A
100
AcDbEntity
  8
1
  6
Continuous
 62
     7
100
AcDbLine
 10
171.181887065061
 20
-19.999999999995
 30
0.0
 11
144.181887065061
 21
-19.999999999995
 31
0.0
  0
LINE
  5
128
330
A
100
AcDbEntity
  8
1
  6
Continuous
 62
     7
100
AcDbLine
 10
170.181887065061
 20
-23.23398527508298
 30
0.0
 11
145.181887065061
 21
-23.23398527508298
 31
0.0
  0
LINE
  5
127
330
A
100
AcDbEntity
  8
1
  6
Continuous
 62
     7
100
AcDbLine
 10
142.823681828552
 20
-23.235180670812
 30
0.0
 11
141.006565922944
 21
-23.235180670812
 31
0.0
  0
LINE
  5
126
330
A
100
AcDbEntity
  8
1
  6
Continuous
 62
     7
100
AcDbLine
 10
140.181887065061
 20
-19.999999999995
 30
0.0
 11
144.181887065061
 21
-19.999999999995
 31
0.0
  0
LINE
  5
125
330
A
100
AcDbEntity
  8
1
  6
Continuous
 62
     7
100
AcDbLine
 10
142.561755211529
 20
-12.49999999999499
 30
0.0
 11
140.7610097194848
 21
-12.49999999999499
 31
0.0
  0
LINE
  5
124
330
A
100
AcDbEntity
  8
1
  6
Continuous
 62
     7
100
AcDbLine
 10
170.181887065061
 20
-12.49999999999499
 30
0.0
 11
145.181887065061
 21
-12.49999999999499
 31
0.0
  0
LINE
  5
123
330
A
100
AcDbEntity
  8
1
  6
Continuous
 62
     7
100
AcDbLine
 10
145.181887065061
 20
12.500000000005
 30
0.0
 11
170.181887065061
 21
12.500000000005
 31
0.0
  0
LINE
  5
122
330
A
100
AcDbEntity
  8
1
  6
Continuous
 62
     7
100
AcDbLine
 10
142.627236865781
 20
12.500000000005
 30
0.0
 11
140.613675997404
 21
12.500000000005
 31
0.0
  0
LINE
  5
121
330
A
100
AcDbEntity
  8
1
  6
Continuous
 62
     7
100
AcDbLine
 10
144.181887065061
 20
20.000000000005
 30
0.0
 11
140.181887065061
 21
20.000000000005
 31
0.0
  0
LINE
  5
120
330
A
100
AcDbEntity
  8
1
  6
Continuous
 62
     7
100
AcDbLine
 10
142.774570587863
 20
23.233985275108
 30
0.0
 11
140.8101209601739
 21
23.233985275108
 31
0.0
  0
LINE
  5
11F
330
A
100
AcDbEntity
  8
1
  6
Continuous
 62
     7
100
AcDbLine
 10
145.181887065061
 20
23.233985275108
 30
0.0
 11
170.181887065061
 21
23.233985275108
 31
0.0
  0
LINE
  5
11E
330
A
100
AcDbEntity
  8
1
  6
Continuous
 62
     7
100
AcDbLine
 10
144.181887065061
 20
20.000000000005
 30
0.0
 11
171.181887065061
 21
20.000000000005
 31
0.0
  0
LINE
  5
11D
330
A
100
AcDbEntity
  8
1
  6
Continuous
 62
     7
100
AcDbLine
 10
144.181887065061
 20
30.000000000005
 30
0.0
 11
140.181887065061
 21
30.000000000005
 31
0.0
  0
LINE
  5
11C
330
A
100
AcDbEntity
  8
1
  6
Continuous
 62
     7
100
AcDbLine
 10
75.18188706506099
 20
42.500000000005
 30
0.0
 11
75.18188706506099
 21
-41.999999999995
 31
0.0
  0
LINE
  5
11B
330
A
100
AcDbEntity
  8
1
  6
Continuous
 62
     7
100
AcDbLine
 10
75.18188706506099
 20
-41.999999999995
 30
0.0
 11
75.18188706506099
 21
-42.49999999999499
 31
0.0
  0
LINE
  5
11A
330
A
100
AcDbEntity
  8
1
  6
Continuous
 62
     7
100
AcDbLine
 10
129.60097581186
 20
124.1757140503529
 30
0.0
 11
129.60097581186
 21
134.6757140503529
 31
0.0
  0
LINE
  5
119
330
A
100
AcDbEntity
  8
1
  6
Continuous
 62
     7
100
AcDbLine
 10
133.040975811863
 20
134.6757140503529
 30
0.0
 11
133.040975811863
 21
124.1757140503529
 31
0.0
  0
LINE
  5
118
330
A
100
AcDbEntity
  8
1
  6
Continuous
 62
     7
100
AcDbLine
 10
129.60097581186
 20
134.6757140503529
 30
0.0
 11
133.040975811863
 21
134.6757140503529
 31
0.0
  0
LINE
  5
117
330
A
100
AcDbEntity
  8
1
  6
Continuous
 62
     7
100
AcDbLine
 10
127.700975811866
 20
110.975714050363
 30
0.0
 11
127.700975811866
 21
111.475714050363
 31
0.0
  0
LINE
  5
116
330
A
100
AcDbEntity
  8
1
  6
Continuous
 62
     7
100
AcDbLine
 10
128.7009758118659
 20
111.975714050363
 30
0.0
 11
128.7009758118659
 21
121.1302355629578
 31
0.0
  0
LINE
  5
115
330
A
100
AcDbEntity
  8
1
  6
Continuous
 62
     7
100
AcDbLine
 10
128.2009758118659
 20
111.975714050363
 30
0.0
 11
128.7009758118659
 21
111.975714050363
 31
0.0
  0
LINE
  5
114
330
A
100
AcDbEntity
  8
1
  6
Continuous
 62
     7
100
AcDbLine
 10
137.6009758118599
 20
134.6757140503529
 30
0.0
 11
137.6009758118599
 21
124.1757140503529
 31
0.0
  0
LINE
  5
113
330
A
100
AcDbEntity
  8
1
  6
Continuous
 62
     7
100
AcDbLine
 10
134.160975811858
 20
124.1757140503529
 30
0.0
 11
134.160975811858
 21
134.6757140503529
 31
0.0
  0
LINE
  5
112
330
A
100
AcDbEntity
  8
1
  6
Continuous
 62
     7
100
AcDbLine
 10
134.160975811858
 20
134.6757140503529
 30
0.0
 11
137.6009758118599
 21
134.6757140503529
 31
0.0
  0
LINE
  5
111
330
A
100
AcDbEntity
  8
1
  6
Continuous
 62
     7
100
AcDbLine
 10
139.5009758118689
 20
111.475714050363
 30
0.0
 11
139.5009758118689
 21
110.975714050363
 31
0.0
  0
LINE
  5
110
330
A
100
AcDbEntity
  8
1
  6
Continuous
 62
     7
100
AcDbLine
 10
138.5009758118689
 20
124.1757140503529
 30
0.0
 11
138.5009758118689
 21
111.975714050363
 31
0.0
  0
LINE
  5
10F
330
A
100
AcDbEntity
  8
1
  6
Continuous
 62
     7
100
AcDbLine
 10
138.5009758118689
 20
111.975714050363
 30
0.0
 11
139.0009758118689
 21
111.975714050363
 31
0.0
  0
LINE
  5
10E
330
A
100
AcDbEntity
  8
1
  6
Continuous
 62
     7
100
AcDbLine
 10
127.700975811866
 20
110.975714050363
 30
0.0
 11
139.5009758118689
 21
110.975714050363
 31
0.0
  0
LINE
  5
10D
330
A
100
AcDbEntity
  8
1
  6
Continuous
 62
     7
100
AcDbLine
 10
128.7009758118659
 20
124.1757140503529
 30
0.0
 11
138.5009758118689
 21
124.1757140503529
 31
0.0
  0
LINE
  5
10C
330
A
100
AcDbEntity
  8
1
  6
Continuous
 62
     7
100
AcDbLine
 10
124.800975811857
 20
116.6757140503529
 30
0.0
 11
124.800975811857
 21
125.675714050353
 31
0.0
  0
LINE
  5
10B
330
A
100
AcDbEntity
  8
1
  6
Continuous
 62
     7
100
AcDbLine
 10
125.400975811863
 20
117.475714050363
 30
0.0
 11
125.400975811863
 21
127.675714050353
 31
0.0
  0
LINE
  5
10A
330
A
100
AcDbEntity
  8
1
  6
Continuous
 62
     7
100
AcDbLine
 10
124.800975811857
 20
117.475714050363
 30
0.0
 11
125.400975811863
 21
117.475714050363
 31
0.0
  0
LINE
  5
109
330
A
100
AcDbEntity
  8
1
  6
Continuous
 62
     7
100
AcDbLine
 10
124.800975811857
 20
125.675714050353
 30
0.0
 11
125.400975811863
 21
126.275714050351
 31
0.0
  0
LINE
  5
108
330
A
100
AcDbEntity
  8
1
  6
Continuous
 62
     7
100
AcDbLine
 10
124.800975811857
 20
116.6757140503529
 30
0.0
 11
126.800975811857
 21
116.6757140503529
 31
0.0
  0
LINE
  5
107
330
A
100
AcDbEntity
  8
1
  6
Continuous
 62
     7
100
AcDbLine
 10
126.800975811857
 20
116.6757140503529
 30
0.0
 11
127.618614906184
 21
121.226693062132
 31
0.0
  0
LINE
  5
106
330
A
100
AcDbEntity
  8
1
  6
Continuous
 62
     7
100
AcDbLine
 10
125.400975811863
 20
127.675714050353
 30
0.0
 11
126.400975811863
 21
128.6757140503528
 31
0.0
  0
LINE
  5
105
330
A
100
AcDbEntity
  8
1
  6
Continuous
 62
     7
100
AcDbLine
 10
126.400975811863
 20
128.6757140503528
 30
0.0
 11
127.200975811866
 21
128.6757140503528
 31
0.0
  0
LINE
  5
104
330
A
100
AcDbEntity
  8
1
  6
Continuous
 62
     7
100
AcDbLine
 10
127.200975811866
 20
128.6757140503528
 30
0.0
 11
128.2009758118659
 21
127.675714050353
 31
0.0
  0
LINE
  5
103
330
A
100
AcDbEntity
  8
1
  6
Continuous
 62
     7
100
AcDbLine
 10
128.2009758118659
 20
127.675714050353
 30
0.0
 11
128.2009758118659
 21
126.675714050353
 31
0.0
  0
LINE
  5
102
330
A
100
AcDbEntity
  8
1
  6
Continuous
 62
     7
100
AcDbLine
 10
128.2009758118659
 20
126.675714050353
 30
0.0
 11
127.200975811866
 21
126.675714050353
 31
0.0
  0
LINE
  5
101
330
A
100
AcDbEntity
  8
1
  6
Continuous
 62
     7
100
AcDbLine
 10
125.400975811863
 20
126.675714050353
 30
0.0
 11
126.400975811863
 21
126.675714050353
 31
0.0
  0
LINE
  5
100
330
A
100
AcDbEntity
  8
1
  6
Continuous
 62
     7
100
AcDbLine
 10
125.400975811863
 20
123.1757140503529
 30
0.0
 11
127.603939180961
 21
123.1757140503529
 31
0.0
  0
LINE
  5
FF
330
A
100
AcDbEntity
  8
1
  6
Continuous
 62
     7
100
AcDbLine
 10
126.400975811863
 20
126.675714050353
 30
0.0
 11
126.400975811863
 21
123.1757140503529
 31
0.0
  0
LINE
  5
FE
330
A
100
AcDbEntity
  8
1
  6
Continuous
 62
     7
100
AcDbLine
 10
127.200975811866
 20
123.1757140503529
 30
0.0
 11
127.200975811866
 21
126.675714050353
 31
0.0
  0
LINE
  5
FD
330
A
100
AcDbEntity
  8
1
  6
Continuous
 62
     7
100
AcDbLine
 10
126.400975811863
 20
124.582501841657
 30
0.0
 11
127.200975811866
 21
124.582501841657
 31
0.0
  0
LINE
  5
FC
330
A
100
AcDbEntity
  8
1
  6
Continuous
 62
     7
100
AcDbLine
 10
127.8117076675989
 20
123.263339589458
 30
0.0
 11
128.7009758118659
 21
124.1757140503529
 31
0.0
  0
LINE
  5
FB
330
A
100
AcDbEntity
  8
1
  6
Continuous
 62
     7
100
AcDbLine
 10
162.225341528923
 20
124.92443202708
 30
0.0
 11
164.048647394425
 21
135.264913433711
 31
0.0
  0
LINE
  5
FA
330
A
100
AcDbEntity
  8
1
  6
Continuous
 62
     7
100
AcDbLine
 10
167.396993754671
 20
134.6745096296499
 30
0.0
 11
165.573687889169
 21
124.334028223027
 31
0.0
  0
LINE
  5
F9
330
A
100
AcDbEntity
  8
1
  6
Continuous
 62
     7
100
AcDbLine
 10
164.048647394425
 20
135.264913433711
 30
0.0
 11
167.396993754671
 21
134.6745096296499
 31
0.0
  0
LINE
  5
F8
330
A
100
AcDbEntity
  8
1
  6
Continuous
 62
     7
100
AcDbLine
 10
158.0620508530039
 20
112.254901224892
 30
0.0
 11
158.1488749418419
 21
112.747305101401
 31
0.0
  0
LINE
  5
F7
330
A
100
AcDbEntity
  8
1
  6
Continuous
 62
     7
100
AcDbLine
 10
159.220506783684
 20
113.066060800236
 30
0.0
 11
160.8101727617539
 21
122.08150456097
 31
0.0
  0
LINE
  5
F6
330
A
100
AcDbEntity
  8
1
  6
Continuous
 62
     7
100
AcDbLine
 10
158.728102907182
 20
113.152884889073
 30
0.0
 11
159.220506783684
 21
113.066060800236
 31
0.0
  0
LINE
  5
F5
330
A
100
AcDbEntity
  8
1
  6
Continuous
 62
     7
100
AcDbLine
 10
176.0633019811859
 20
133.146405666186
 30
0.0
 11
174.239996115684
 21
122.80592425954
 31
0.0
  0
LINE
  5
F4
330
A
100
AcDbEntity
  8
1
  6
Continuous
 62
     7
100
AcDbLine
 10
166.558495642188
 20
124.1603800453519
 30
0.0
 11
168.38180150769
 21
134.5008614519819
 31
0.0
  0
LINE
  5
F3
330
A
100
AcDbEntity
  8
1
  6
Continuous
 62
     7
100
AcDbLine
 10
168.38180150769
 20
134.5008614519819
 30
0.0
 11
171.7301478679219
 21
133.910457647914
 31
0.0
  0
LINE
  5
F2
330
A
100
AcDbEntity
  8
1
  6
Continuous
 62
     7
100
AcDbLine
 10
173.9057989900239
 20
109.9689342587369
 30
0.0
 11
173.818974901202
 21
109.476530382227
 31
0.0
  0
LINE
  5
F1
330
A
100
AcDbEntity
  8
1
  6
Continuous
 62
     7
100
AcDbLine
 10
175.126323093391
 20
122.649640899653
 30
0.0
 11
173.0078153258578
 21
110.634986312907
 31
0.0
  0
LINE
  5
F0
330
A
100
AcDbEntity
  8
1
  6
Continuous
 62
     7
100
AcDbLine
 10
173.0078153258578
 20
110.634986312907
 30
0.0
 11
173.50021920236
 21
110.548162224076
 31
0.0
  0
LINE
  5
EF
330
A
100
AcDbEntity
  8
1
  6
Continuous
 62
     7
100
AcDbLine
 10
169.9068420024189
 20
123.569976241284
 30
0.0
 11
161.3390145512159
 21
125.080715386997
 31
0.0
  0
LINE
  5
EE
330
A
100
AcDbEntity
  8
1
  6
Continuous
 62
     7
100
AcDbLine
 10
173.818974901202
 20
109.476530382227
 30
0.0
 11
158.0620508530039
 21
112.254901224892
 31
0.0
  0
LINE
  5
ED
330
A
100
AcDbEntity
  8
1
  6
Continuous
 62
     7
100
AcDbLine
 10
156.195902981962
 20
118.371885132306
 30
0.0
 11
156.334821524106
 21
119.1597313346999
 31
0.0
  0
LINE
  5
EC
330
A
100
AcDbEntity
  8
1
  6
Continuous
 62
     7
100
AcDbLine
 10
156.9257061759049
 20
119.055542428104
 30
0.0
 11
158.453810139377
 21
127.721850654612
 31
0.0
  0
LINE
  5
EB
330
A
100
AcDbEntity
  8
1
  6
Continuous
 62
     7
100
AcDbLine
 10
156.334821524106
 20
119.1597313346999
 30
0.0
 11
156.9257061759049
 21
119.055542428104
 31
0.0
  0
LINE
  5
EA
330
A
100
AcDbEntity
  8
1
  6
Continuous
 62
     7
100
AcDbLine
 10
156.334821524106
 20
119.1597313346999
 30
0.0
 11
157.758736580966
 21
127.235154909416
 31
0.0
  0
LINE
  5
E9
330
A
100
AcDbEntity
  8
1
  6
Continuous
 62
     7
100
AcDbLine
 10
157.758736580966
 20
127.235154909416
 30
0.0
 11
158.453810139377
 21
127.721850654612
 31
0.0
  0
LINE
  5
E8
330
A
100
AcDbEntity
  8
1
  6
Continuous
 62
     7
100
AcDbLine
 10
156.195902981962
 20
118.371885132306
 30
0.0
 11
158.1655184879849
 21
118.024588776963
 31
0.0
  0
LINE
  5
E7
330
A
100
AcDbEntity
  8
1
  6
Continuous
 62
     7
100
AcDbLine
 10
158.1655184879849
 20
118.024588776963
 30
0.0
 11
159.7610050192379
 21
122.3644466528339
 31
0.0
  0
LINE
  5
E6
330
A
100
AcDbEntity
  8
1
  6
Continuous
 62
     7
100
AcDbLine
 10
158.453810139377
 20
127.721850654612
 30
0.0
 11
158.523269410441
 21
128.115773755816
 31
0.0
  0
LINE
  5
E5
330
A
100
AcDbEntity
  8
1
  6
Continuous
 62
     7
100
AcDbLine
 10
158.696917588116
 20
129.1005815088199
 30
0.0
 11
159.855373518796
 21
129.9117410841859
 31
0.0
  0
LINE
  5
E4
330
A
100
AcDbEntity
  8
1
  6
Continuous
 62
     7
100
AcDbLine
 10
159.855373518796
 20
129.9117410841859
 30
0.0
 11
160.643219721205
 21
129.772822542043
 31
0.0
  0
LINE
  5
E3
330
A
100
AcDbEntity
  8
1
  6
Continuous
 62
     7
100
AcDbLine
 10
160.643219721205
 20
129.772822542043
 30
0.0
 11
161.4543792965488
 21
128.6143666113629
 31
0.0
  0
LINE
  5
E2
330
A
100
AcDbEntity
  8
1
  6
Continuous
 62
     7
100
AcDbLine
 10
161.4543792965488
 20
128.6143666113629
 30
0.0
 11
161.2807311188729
 21
127.629558858352
 31
0.0
  0
LINE
  5
E1
330
A
100
AcDbEntity
  8
1
  6
Continuous
 62
     7
100
AcDbLine
 10
161.2807311188729
 20
127.629558858352
 30
0.0
 11
160.295923365869
 21
127.8032070360269
 31
0.0
  0
LINE
  5
E0
330
A
100
AcDbEntity
  8
1
  6
Continuous
 62
     7
100
AcDbLine
 10
158.523269410441
 20
128.115773755816
 30
0.0
 11
159.50807716346
 21
127.942125578156
 31
0.0
  0
LINE
  5
DF
330
A
100
AcDbEntity
  8
1
  6
Continuous
 62
     7
100
AcDbLine
 10
158.523269410441
 20
128.115773755816
 30
0.0
 11
158.696917588116
 21
129.1005815088199
 31
0.0
  0
LINE
  5
DE
330
A
100
AcDbEntity
  8
1
  6
Continuous
 62
     7
100
AcDbLine
 10
157.915500788607
 20
124.668946620273
 30
0.0
 11
158.9003085416258
 21
124.495298442612
 31
0.0
  0
LINE
  5
DD
330
A
100
AcDbEntity
  8
1
  6
Continuous
 62
     7
100
AcDbLine
 10
159.50807716346
 20
127.942125578156
 30
0.0
 11
158.9003085416258
 21
124.495298442612
 31
0.0
  0
LINE
  5
DC
330
A
100
AcDbEntity
  8
1
  6
Continuous
 62
     7
100
AcDbLine
 10
158.9003085416258
 20
124.495298442612
 30
0.0
 11
160.084996194105
 21
124.286406045764
 31
0.0
  0
LINE
  5
DB
330
A
100
AcDbEntity
  8
1
  6
Continuous
 62
     7
100
AcDbLine
 10
159.6881547440349
 20
124.356379900476
 30
0.0
 11
160.295923365869
 21
127.8032070360269
 31
0.0
  0
LINE
  5
DA
330
A
100
AcDbEntity
  8
1
  6
Continuous
 62
     7
100
AcDbLine
 10
159.144594677949
 20
125.880713966332
 30
0.0
 11
159.932440880358
 21
125.741795424197
 31
0.0
  0
LINE
  5
D9
330
A
100
AcDbEntity
  8
1
  6
Continuous
 62
     7
100
AcDbLine
 10
160.304824225757
 20
124.336621736954
 30
0.0
 11
161.3390145512159
 21
125.080715386997
 31
0.0
  0
LINE
  5
D8
330
A
100
AcDbEntity
  8
1
  6
Continuous
 62
     7
100
AcDbLine
 10
171.7301478679219
 20
133.910457647914
 30
0.0
 11
169.9068420024189
 21
123.569976241284
 31
0.0
  0
LINE
  5
D7
330
A
100
AcDbEntity
  8
1
  6
Continuous
 62
     7
100
AcDbLine
 10
169.9068420024189
 20
123.569976241284
 30
0.0
 11
170.891649755438
 21
123.396328063616
 31
0.0
  0
LINE
  5
D6
330
A
100
AcDbEntity
  8
1
  6
Continuous
 62
     7
100
AcDbLine
 10
170.891649755438
 20
123.396328063616
 30
0.0
 11
172.7149556209399
 21
133.7368094702459
 31
0.0
  0
LINE
  5
D5
330
A
100
AcDbEntity
  8
1
  6
Continuous
 62
     7
100
AcDbLine
 10
170.891649755438
 20
123.396328063616
 30
0.0
 11
175.126323093391
 21
122.649640899653
 31
0.0
  0
LINE
  5
D4
330
A
100
AcDbEntity
  8
1
  6
Continuous
 62
     7
100
AcDbLine
 10
172.7149556209399
 20
133.7368094702459
 30
0.0
 11
176.0633019811859
 21
133.146405666186
 31
0.0
  0
LINE
  5
D3
330
A
100
AcDbEntity
  8
1
  6
DASH_CENTER
 62
     3
100
AcDbLine
 10
176.68188706509
 20
0.000000000005
 30
0.0
 11
-14.818112934939
 21
0.000000000005
 31
0.0
  0
LINE
  5
D2
330
A
100
AcDbEntity
  8
1
  6
Continuous
 62
     7
100
AcDbLine
 10
137.156887065052
 20
72.32780486451199
 30
0.0
 11
137.156887065052
 21
98.063274464634
 31
0.0
  0
LINE
  5
D1
330
A
100
AcDbEntity
  8
1
  6
Continuous
 62
     7
100
AcDbLine
 10
130.1568870650519
 20
72.32780486451199
 30
0.0
 11
130.1568870650519
 21
98.063274464634
 31
0.0
  0
LINE
  5
D0
330
A
100
AcDbEntity
  8
1
  6
Continuous
 62
     7
100
AcDbLine
 10
130.1568870650519
 20
38.627624544437
 30
0.0
 11
130.1568870650519
 21
67.585489311638
 31
0.0
  0
LINE
  5
CF
330
A
100
AcDbEntity
  8
1
  6
Continuous
 62
     7
100
AcDbLine
 10
137.156887065052
 20
38.627624544437
 30
0.0
 11
137.156887065052
 21
67.585489311638
 31
0.0
  0
LINE
  5
CE
330
A
100
AcDbEntity
  8
1
  6
Continuous
 62
     7
100
AcDbLine
 10
152.6450999199159
 20
77.82023065171799
 30
0.0
 11
160.5610859736339
 21
76.424428731536
 31
0.0
  0
LINE
  5
CD
330
A
100
AcDbEntity
  8
1
  6
Continuous
 62
     7
100
AcDbLine
 10
53.301887064694
 20
24.62028224314499
 30
0.0
 11
53.301887064694
 21
25.534678751737
 31
0.0
  0
LINE
  5
CC
330
A
100
AcDbEntity
  8
1
  6
Continuous
 62
     7
100
AcDbLine
 10
53.301887064694
 20
25.534678751737
 30
0.0
 11
52.06188706469401
 21
25.534678751737
 31
0.0
  0
LINE
  5
CB
330
A
100
AcDbEntity
  8
1
  6
Continuous
 62
     7
100
AcDbLine
 10
52.06188706469401
 20
25.534678751737
 30
0.0
 11
52.06188706469401
 21
24.62028224314499
 31
0.0
  0
LINE
  5
CA
330
A
100
AcDbEntity
  8
1
  6
Continuous
 62
     7
100
AcDbLine
 10
50.821887064694
 20
23.38028224314498
 30
0.0
 11
49.58188706469499
 21
23.38028224314498
 31
0.0
  0
LINE
  5
C9
330
A
100
AcDbEntity
  8
1
  6
Continuous
 62
     7
100
AcDbLine
 10
49.58188706469499
 20
23.38028224314498
 30
0.0
 11
49.58188706469499
 21
22.306410742452
 31
0.0
  0
LINE
  5
C8
330
A
100
AcDbEntity
  8
1
  6
Continuous
 62
     7
100
AcDbLine
 10
49.58188706469499
 20
22.306410742452
 30
0.0
 11
50.821887064694
 21
22.306410742452
 31
0.0
  0
LINE
  5
C7
330
A
100
AcDbEntity
  8
1
  6
Continuous
 62
     7
100
AcDbLine
 10
53.301887064694
 20
21.06641074245198
 30
0.0
 11
53.30188706469499
 21
20.165321248274
 31
0.0
  0
LINE
  5
C6
330
A
100
AcDbEntity
  8
1
  6
Continuous
 62
     7
100
AcDbLine
 10
53.30188706469499
 20
20.165321248274
 30
0.0
 11
52.06188706469401
 21
20.165321248274
 31
0.0
  0
LINE
  5
C5
330
A
100
AcDbEntity
  8
1
  6
Continuous
 62
     7
100
AcDbLine
 10
52.06188706469401
 20
20.165321248274
 30
0.0
 11
52.06188706469401
 21
21.06641074245198
 31
0.0
  0
LINE
  5
C4
330
A
100
AcDbEntity
  8
1
  6
Continuous
 62
     7
100
AcDbLine
 10
54.541887064694
 20
23.38028224314498
 30
0.0
 11
55.781887064695
 21
23.38028224314498
 31
0.0
  0
LINE
  5
C3
330
A
100
AcDbEntity
  8
1
  6
Continuous
 62
     7
100
AcDbLine
 10
55.781887064695
 20
23.38028224314498
 30
0.0
 11
55.781887064695
 21
22.306410742452
 31
0.0
  0
LINE
  5
C2
330
A
100
AcDbEntity
  8
1
  6
Continuous
 62
     7
100
AcDbLine
 10
55.781887064695
 20
22.306410742452
 30
0.0
 11
54.541887064694
 21
22.306410742452
 31
0.0
  0
LINE
  5
C1
330
A
100
AcDbEntity
  8
1
  6
Continuous
 62
     7
100
AcDbLine
 10
46.782888624151
 20
23.10080265332698
 30
0.0
 11
46.576078996019
 21
21.93237914572398
 31
0.0
  0
LINE
  5
C0
330
A
100
AcDbEntity
  8
1
  6
Continuous
 62
     7
100
AcDbLine
 10
58.580885505238
 20
23.10080265332698
 30
0.0
 11
58.78769513337
 21
21.93237914572398
 31
0.0
  0
LINE
  5
BF
330
A
100
AcDbEntity
  8
1
  6
Continuous
 62
     7
100
AcDbLine
 10
46.181887064694
 20
20.499940651371
 30
0.0
 11
46.181887064694
 21
21.04500261236
 31
0.0
  0
LINE
  5
BE
330
A
100
AcDbEntity
  8
1
  6
Continuous
 62
     7
100
AcDbLine
 10
59.181887064694
 20
20.499940646798
 30
0.0
 11
59.181887064694
 21
21.000000000006
 31
0.0
  0
LINE
  5
BD
330
A
100
AcDbEntity
  8
1
  6
DASH_CENTER
 62
     3
100
AcDbLine
 10
52.681887064694
 20
29.16169119174
 30
0.0
 11
52.681887064694
 21
12.671310134974
 31
0.0
  0
LINE
  5
BC
330
A
100
AcDbEntity
  8
1
  6
DASH_CENTER
 62
     3
100
AcDbLine
 10
61.181887064694
 20
22.850000000005
 30
0.0
 11
44.181887064694
 21
22.850000000005
 31
0.0
  0
LINE
  5
BB
330
A
100
AcDbEntity
  8
1
  6
Continuous
 62
     7
100
AcDbLine
 10
21.18188706480899
 20
-52.499999999995
 30
0.0
 11
21.18188706480899
 21
52.500000000006
 31
0.0
  0
LINE
  5
BA
330
A
100
AcDbEntity
  8
1
  6
Continuous
 62
     7
100
AcDbLine
 10
56.158719425992
 20
33.328733848945
 30
0.0
 11
56.158719425992
 21
42.500000000005
 31
0.0
  0
LINE
  5
B9
330
A
100
AcDbEntity
  8
1
  6
Continuous
 62
     7
100
AcDbLine
 10
41.65871942599198
 20
31.828733848945
 30
0.0
 11
54.658719425992
 21
31.828733848945
 31
0.0
  0
LINE
  5
B8
330
A
100
AcDbEntity
  8
1
  6
Continuous
 62
     7
100
AcDbLine
 10
34.98521947272998
 20
42.500000000005
 30
0.0
 11
61.681887064694
 21
42.500000000005
 31
0.0
  0
LINE
  5
B7
330
A
100
AcDbEntity
  8
1
  6
Continuous
 62
     7
100
AcDbLine
 10
40.158719425991
 20
42.500000000005
 30
0.0
 11
40.158719425991
 21
33.328733848945
 31
0.0
  0
LINE
  5
B6
330
A
100
AcDbEntity
  8
1
  6
DASH_CENTER
 62
     3
100
AcDbLine
 10
-187.149439479958
 20
23.86485386505099
 30
0.0
 11
-181.846138621059
 21
18.56155300615198
 31
0.0
  0
LINE
  5
B5
330
A
100
AcDbEntity
  8
1
  6
DASH_CENTER
 62
     3
100
AcDbLine
 10
-187.149439479958
 20
-23.86485386504098
 30
0.0
 11
-181.846138621059
 21
-18.561553006142
 31
0.0
  0
LINE
  5
B4
330
A
100
AcDbEntity
  8
1
  6
Continuous
 62
     7
100
AcDbLine
 10
34.38853797979
 20
-42.559936872104
 30
0.0
 11
34.38853797979
 21
42.500000000005
 31
0.0
  0
LINE
  5
B3
330
A
100
AcDbEntity
  8
1
  6
Continuous
 62
     7
100
AcDbLine
 10
5.181887065034
 20
49.99999999991398
 30
0.0
 11
5.181887065034
 21
-49.999999999408
 31
0.0
  0
LINE
  5
B2
330
A
100
AcDbEntity
  8
1
  6
Continuous
 62
     7
100
AcDbLine
 10
33.486052112261
 20
-42.90144324184899
 30
0.0
 11
22.68271970433999
 21
-49.13413501564999
 31
0.0
  0
LINE
  5
B1
330
A
100
AcDbEntity
  8
1
  6
Continuous
 62
     7
100
AcDbLine
 10
33.486052112261
 20
42.90144324186
 30
0.0
 11
22.68271970433999
 21
49.13413501566
 31
0.0
  0
LINE
  5
B0
330
A
100
AcDbEntity
  8
1
  6
DOT_CENTER
 62
     3
100
AcDbLine
 10
-200.054138236611
 20
-36.769552621464
 30
0.0
 11
-211.3678467354569
 21
-48.083261120273
 31
0.0
  0
LINE
  5
AF
330
A
100
AcDbEntity
  8
1
  6
DOT_CENTER
 62
     3
100
AcDbLine
 10
-211.3678467354569
 20
48.08326112081701
 30
0.0
 11
-200.054138236611
 21
36.769552621437
 31
0.0
  0
LINE
  5
AE
330
A
100
AcDbEntity
  8
1
  6
Continuous
 62
     7
100
AcDbLine
 10
-217.284585614912
 20
44.00000000000498
 30
0.0
 11
-217.284585614912
 21
-43.999999999995
 31
0.0
  0
LINE
  5
AD
330
A
100
AcDbEntity
  8
1
  6
Continuous
 62
     7
100
AcDbLine
 10
-5.818112934499
 20
-22.499999999868
 30
0.0
 11
-8.818112934939
 21
-22.499999999868
 31
0.0
  0
LINE
  5
AC
330
A
100
AcDbEntity
  8
1
  6
Continuous
 62
     7
100
AcDbLine
 10
-3.818112934539998
 20
-34.999999999974
 30
0.0
 11
-5.818112934499
 21
-34.999999999974
 31
0.0
  0
LINE
  5
AB
330
A
100
AcDbEntity
  8
1
  6
Continuous
 62
     7
100
AcDbLine
 10
-3.818112934539998
 20
-49.499999999601
 30
0.0
 11
-3.818112934539998
 21
49.50000000014499
 31
0.0
  0
LINE
  5
AA
330
A
100
AcDbEntity
  8
1
  6
Continuous
 62
     7
100
AcDbLine
 10
11.181887065475
 20
-49.999999999408
 30
0.0
 11
5.181887065034
 21
-49.999999999408
 31
0.0
  0
LINE
  5
A9
330
A
100
AcDbEntity
  8
1
  6
Continuous
 62
     7
100
AcDbLine
 10
11.181887065475
 20
-53.99999999999501
 30
0.0
 11
11.181887065475
 21
54.00000000000598
 31
0.0
  0
LINE
  5
A8
330
A
100
AcDbEntity
  8
1
  6
Continuous
 62
     7
100
AcDbLine
 10
19.681887064809
 20
-53.99999999999501
 30
0.0
 11
11.181887065475
 21
-53.99999999999501
 31
0.0
  0
LINE
  5
A7
330
A
100
AcDbEntity
  8
1
  6
Continuous
 62
     7
100
AcDbLine
 10
-8.818112934939
 20
22.500000000412
 30
0.0
 11
-8.818112934939
 21
-22.499999999868
 31
0.0
  0
LINE
  5
A6
330
A
100
AcDbEntity
  8
1
  6
Continuous
 62
     7
100
AcDbLine
 10
-5.818112934499
 20
22.500000000412
 30
0.0
 11
-8.818112934939
 21
22.500000000412
 31
0.0
  0
LINE
  5
A5
330
A
100
AcDbEntity
  8
1
  6
Continuous
 62
     7
100
AcDbLine
 10
-5.818112934499
 20
34.99999999994599
 30
0.0
 11
-5.818112934499
 21
-34.999999999974
 31
0.0
  0
LINE
  5
A4
330
A
100
AcDbEntity
  8
1
  6
Continuous
 62
     7
100
AcDbLine
 10
-3.818112934539998
 20
34.99999999994599
 30
0.0
 11
-5.818112934499
 21
34.99999999994599
 31
0.0
  0
LINE
  5
A3
330
A
100
AcDbEntity
  8
1
  6
Continuous
 62
     7
100
AcDbLine
 10
11.181887065475
 20
49.99999999991398
 30
0.0
 11
5.181887065034
 21
49.99999999991398
 31
0.0
  0
LINE
  5
A2
330
A
100
AcDbEntity
  8
1
  6
Continuous
 62
     7
100
AcDbLine
 10
19.681887064809
 20
54.00000000000598
 30
0.0
 11
11.181887065475
 21
54.00000000000598
 31
0.0
  0
LINE
  5
A1
330
A
100
AcDbEntity
  8
1
  6
Continuous
 62
     7
100
AcDbLine
 10
34.98521947272998
 20
-42.499999999994
 30
0.0
 11
61.681887064694
 21
-42.499999999994
 31
0.0
  0
LINE
  5
A0
330
A
100
AcDbEntity
  8
1
  6
Continuous
 62
     7
100
AcDbLine
 10
4.78188706546
 20
49.50000000014499
 30
0.0
 11
4.78188706546
 21
-49.499999999601
 31
0.0
  0
LINE
  5
9F
330
A
100
AcDbEntity
  8
1
  6
Continuous
 62
     7
100
AcDbLine
 10
4.78188706546
 20
49.50000000014499
 30
0.0
 11
-3.818112934539998
 21
49.50000000014499
 31
0.0
  0
LINE
  5
9E
330
A
100
AcDbEntity
  8
1
  6
Continuous
 62
     7
100
AcDbLine
 10
4.78188706546
 20
-49.499999999601
 30
0.0
 11
-3.818112934539998
 21
-49.499999999601
 31
0.0
  0
LINE
  5
9D
330
A
100
AcDbEntity
  8
1
  6
Continuous
 62
     7
100
AcDbLine
 10
4.78188706546
 20
-43.749999999994
 30
0.0
 11
5.181887065034
 21
-43.749999999994
 31
0.0
  0
LINE
  5
9C
330
A
100
AcDbEntity
  8
1
  6
Continuous
 62
     7
100
AcDbLine
 10
4.78188706546
 20
43.750000000005
 30
0.0
 11
5.181887065034
 21
43.750000000005
 31
0.0
  0
LINE
  5
9B
330
A
100
AcDbEntity
  8
1
  6
Continuous
 62
     7
100
AcDbLine
 10
61.681887065061
 20
42.500000000005
 30
0.0
 11
61.681887065061
 21
-42.499999999994
 31
0.0
  0
LINE
  5
9A
330
A
100
AcDbEntity
  8
1
  6
Continuous
 62
     7
100
AcDbLine
 10
61.681887065061
 20
-42.499999999994
 30
0.0
 11
75.18188706506099
 21
-42.49999999999499
 31
0.0
  0
LINE
  5
99
330
A
100
AcDbEntity
  8
1
  6
Continuous
 62
     7
100
AcDbLine
 10
61.681887065061
 20
42.500000000005
 30
0.0
 11
75.18188706506099
 21
42.500000000005
 31
0.0
  0
LINE
  5
98
330
A
100
AcDbEntity
  8
1
  6
DASH_CENTER
 62
     3
100
AcDbLine
 10
-144.7230326087649
 20
18.56155300615198
 30
0.0
 11
-139.419731749866
 21
23.86485386505099
 31
0.0
  0
LINE
  5
97
330
A
100
AcDbEntity
  8
1
  6
DASH_CENTER
 62
     3
100
AcDbLine
 10
-144.7230326087649
 20
-18.561553006142
 30
0.0
 11
-139.419731749866
 21
-23.86485386504098
 31
0.0
  0
LINE
  5
96
330
A
100
AcDbEntity
  8
1
  6
DASH_CENTER
 62
     3
100
AcDbLine
 10
-163.284585614912
 20
-59.99999999990599
 30
0.0
 11
-163.284585614912
 21
59.99999999987799
 31
0.0
  0
LINE
  5
95
330
A
100
AcDbEntity
  8
1
  6
Continuous
 62
     7
100
AcDbLine
 10
-109.2845856149119
 20
44.00000000000498
 30
0.0
 11
-109.2845856149119
 21
-43.999999999995
 31
0.0
  0
LINE
  5
94
330
A
100
AcDbEntity
  8
1
  6
Continuous
 62
     7
100
AcDbLine
 10
-119.2845856149119
 20
-53.99999999999501
 30
0.0
 11
-207.284585614912
 21
-53.99999999999501
 31
0.0
  0
LINE
  5
93
330
A
100
AcDbEntity
  8
1
  6
Continuous
 62
     7
100
AcDbLine
 10
-207.284585614912
 20
54.00000000000499
 30
0.0
 11
-119.2845856149119
 21
54.00000000000499
 31
0.0
  0
LINE
  5
92
330
A
100
AcDbEntity
  8
1
  6
DASH_CENTER
 62
     3
100
AcDbLine
 10
-199.081866412481
 20
35.797280797574
 30
0.0
 11
-192.187575295912
 21
28.902989681005
 31
0.0
  0
LINE
  5
91
330
A
100
AcDbEntity
  8
1
  6
DASH_CENTER
 62
     3
100
AcDbLine
 10
-223.2845856148229
 20
0.000000000005
 30
0.0
 11
-103.284585615001
 21
0.000000000005
 31
0.0
  0
LINE
  5
90
330
A
100
AcDbEntity
  8
1
  6
DASH_CENTER
 62
     3
100
AcDbLine
 10
-199.081866412481
 20
-35.79728079756399
 30
0.0
 11
-192.187575295912
 21
-28.902989680995
 31
0.0
  0
LINE
  5
8F
330
A
100
AcDbEntity
  8
1
  6
DASH_CENTER
 62
     3
100
AcDbLine
 10
-127.487304817343
 20
-35.79728079756399
 30
0.0
 11
-134.3815959339119
 21
-28.902989680995
 31
0.0
  0
LINE
  5
8E
330
A
100
AcDbEntity
  8
1
  6
DASH_CENTER
 62
     3
100
AcDbLine
 10
-127.487304817343
 20
35.797280797574
 30
0.0
 11
-134.3815959339119
 21
28.902989681005
 31
0.0
  0
LINE
  5
8D
330
A
100
AcDbEntity
  8
1
  6
DOT_CENTER
 62
     3
100
AcDbLine
 10
-126.515032993214
 20
36.769552621475
 30
0.0
 11
-115.2013244943679
 21
48.083261120283
 31
0.0
  0
LINE
  5
8C
330
A
100
AcDbEntity
  8
1
  6
DOT_CENTER
 62
     3
100
AcDbLine
 10
-115.2013244943679
 20
-48.083261120806
 30
0.0
 11
-126.515032993214
 21
-36.769552621426
 31
0.0
  0
INSERT
  5
37
330
A
100
AcDbEntity
  8
0
100
AcDbBlockReference
  2
HEX_BOLT_TOP__1
 10
0.0
 20
0.0
 30
0.0
  0
INSERT
  5
38
330
A
100
AcDbEntity
  8
0
100
AcDbBlockReference
  2
HEX_BOLT_TOP__2
 10
0.0
 20
0.0
 30
0.0
  0
INSERT
  5
39
330
A
100
AcDbEntity
  8
0
100
AcDbBlockReference
  2
HEX_BOLT_TOP__3
 10
0.0
 20
0.0
 30
0.0
  0
INSERT
  5
3A
330
A
100
AcDbEntity
  8
0
100
AcDbBlockReference
  2
HEX_BOLT_TOP__4
 10
0.0
 20
0.0
 30
0.0
  0
INSERT
  5
3B
330
A
100
AcDbEntity
  8
0
100
AcDbBlockReference
  2
HEX_BOLT_TOP__5
 10
0.0
 20
0.0
 30
0.0
  0
INSERT
  5
3C
330
A
100
AcDbEntity
  8
0
100
AcDbBlockReference
  2
HEX_BOLT_TOP__6
 10
0.0
 20
0.0
 30
0.0
  0
INSERT
  5
3D
330
A
100
AcDbEntity
  8
0
100
AcDbBlockReference
  2
HEX_BOLT_TOP__7
 10
0.0
 20
0.0
 30
0.0
  0
INSERT
  5
3E
330
A
100
AcDbEntity
  8
0
100
AcDbBlockReference
  2
HEX_BOLT_TOP__8
 10
0.0
 20
0.0
 30
0.0
  0
SOLID
  5
247
330
A
100
AcDbEntity
  8
0
 62
     3
100
AcDbTrace
 10
177.0517072996429
 20
121.67584235799
 30
0.0
 11
177.607191719598
 21
120.940503194667
 31
0.0
 12
174.536721772592
 22
119.198511242615
 32
0.0
 13
174.536721772592
 23
119.198511242615
 33
0.0
  0
SOLID
  5
249
330
A
100
AcDbEntity
  8
0
 62
     3
100
AcDbTrace
 10
126.592665717877
 20
131.8600268558659
 30
0.0
 11
127.3133244493469
 21
132.4344288219879
 31
0.0
 12
129.134503131877
 22
129.410254577209
 32
0.0
 13
129.134503131877
 23
129.410254577209
 33
0.0
  0
SOLID
  5
24B
330
A
100
AcDbEntity
  8
0
 62
     3
100
AcDbTrace
 10
126.422878195023
 20
87.84702613260497
 30
0.0
 11
127.084404838428
 21
88.48864060095399
 31
0.0
 12
129.1904143850979
 22
85.655436505621
 32
0.0
 13
129.1904143850979
 23
85.655436505621
 33
0.0
  0
SOLID
  5
24D
330
A
100
AcDbEntity
  8
0
 62
     3
100
AcDbTrace
 10
165.607784600715
 20
88.45613354808797
 30
0.0
 11
166.259431217344
 21
87.80448693145901
 31
0.0
 12
163.458734174877
 22
85.655436505621
 32
0.0
 13
163.458734174877
 23
85.655436505621
 33
0.0
  0
INSERT
  5
280
330
A
100
AcDbEntity
  8
0
  6
Continuous
100
AcDbBlockReference
  2
NTC
 10
-276.1967154595125
 20
-93.69065185811384
 30
0.0
 41
0.6800000000000001
 42
0.6800000000000001
 43
0.6800000000000001
  0
INSERT
  5
2F3
330
A
100
AcDbEntity
  8
0
  6
Continuous
100
AcDbBlockReference
  2
HD Logo
 10
10.19865933364844
 20
-144.3407702835374
 30
0.0
 41
1.3
 42
1.3
 43
1.3
  0
INSERT
  5
301
330
A
100
AcDbEntity
  8
0
  6
Continuous
100
AcDbBlockReference
  2
HD LLC
 10
151.5437796055709
 20
-141.336883012539
 30
0.0
 41
1.3
 42
1.3
 43
1.3
  0
ENDSEC
  0
SECTION
  2
OBJECTS
  0
DICTIONARY
  5
19
330
0
100
AcDbDictionary
281
     1
  3
ACAD_GROUP
350
1A
  3
ACAD_LAYOUT
350
26F
  3
ACAD_MLINESTYLE
350
1B
  3
ACAD_PLOTSETTINGS
350
270
  3
ACAD_PLOTSTYLENAME
350
26D
  3
AcDbVariableDictionary
350
302
  0
DICTIONARY
  5
1A
102
{ACAD_REACTORS
330
19
102
}
330
19
100
AcDbDictionary
281
     1
  0
DICTIONARY
  5
26F
102
{ACAD_REACTORS
330
19
102
}
330
19
100
AcDbDictionary
281
     1
  3
Layout1
350
272
  3
Model
350
271
  0
DICTIONARY
  5
1B
102
{ACAD_REACTORS
330
19
102
}
330
19
100
AcDbDictionary
281
     1
  3
STANDARD
350
1C
  0
DICTIONARY
  5
270
102
{ACAD_REACTORS
330
19
102
}
330
19
100
AcDbDictionary
281
     1
  0
ACDBDICTIONARYWDFLT
  5
26D
102
{ACAD_REACTORS
330
19
102
}
330
19
100
AcDbDictionary
281
     1
  3
Normal
350
26E
100
AcDbDictionaryWithDefault
340
26E
  0
DICTIONARY
  5
302
102
{ACAD_REACTORS
330
19
102
}
330
19
100
AcDbDictionary
281
     1
  3
DIMASSOC
350
303
  0
LAYOUT
  5
272
102
{ACAD_REACTORS
330
26F
102
}
330
26F
100
AcDbPlotSettings
  1

  2
\\harmonic-nt2\Sales_5100
  4

  6

 40
0.0
 41
0.0
 42
0.0
 43
0.0
 44
0.0
 45
0.0
 46
0.0
 47
0.0
 48
0.0
 49
0.0
140
0.0
141
0.0
142
1.0
143
1.0
 70
   688
 72
     0
 73
     0
 74
     5
  7

 75
    16
147
1.0
148
0.0
149
0.0
100
AcDbLayout
  1
Layout1
 70
     0
 71
     1
 10
0.0
 20
0.0
 11
12.0
 21
9.0
 12
0.0
 22
0.0
 32
0.0
 14
1.000000000000000E+20
 24
1.000000000000000E+20
 34
1.000000000000000E+20
 15
-1.000000000000000E+20
 25
-1.000000000000000E+20
 35
-1.000000000000000E+20
146
0.0
 13
0.0
 23
0.0
 33
0.0
 16
1.0
 26
0.0
 36
0.0
 17
0.0
 27
1.0
 37
0.0
 76
     0
330
B
  0
LAYOUT
  5
271
102
{ACAD_REACTORS
330
26F
102
}
330
26F
100
AcDbPlotSettings
  1

  2
\\harmonic-nt2\Sales_5100
  4

  6

 40
0.0
 41
0.0
 42
0.0
 43
0.0
 44
0.0
 45
0.0
 46
0.0
 47
0.0
 48
0.0
 49
0.0
140
0.0
141
0.0
142
1.0
143
1.0
 70
  1712
 72
     0
 73
     0
 74
     0
  7

 75
     0
147
1.0
148
0.0
149
0.0
100
AcDbLayout
  1
Model
 70
     1
 71
     0
 10
0.0
 20
0.0
 11
12.0
 21
9.0
 12
0.0
 22
0.0
 32
0.0
 14
0.0
 24
0.0
 34
0.0
 15
0.0
 25
0.0
 35
0.0
146
0.0
 13
0.0
 23
0.0
 33
0.0
 16
1.0
 26
0.0
 36
0.0
 17
0.0
 27
1.0
 37
0.0
 76
     0
330
A
  0
MLINESTYLE
  5
1C
102
{ACAD_REACTORS
330
1B
102
}
330
1B
100
AcDbMlineStyle
  2
STANDARD
 70
     0
  3

 62
     0
 51
90.0
 52
90.0
 71
     2
 49
0.5
 62
   256
  6
BYLAYER
 49
-0.5
 62
   256
  6
BYLAYER
  0
ACDBPLACEHOLDER
  5
26E
102
{ACAD_REACTORS
330
26D
102
}
330
26D
  0
DICTIONARYVAR
  5
303
102
{ACAD_REACTORS
330
302
102
}
330
302
100
DictionaryVariables
280
     0
  1
1
  0
ENDSEC
  0
EOF
