  0
SECTION
  2
HEADER
  9
$ACADVER
  1
AC1015
  9
$ACADMAINTVER
 70
    13
  9
$DWGCODEPAGE
  3
ANSI_1252
  9
$INSBASE
 10
0.0
 20
0.0
 30
0.0
  9
$EXTMIN
 10
-228.3066107448798
 20
-245.9297768252424
 30
0.0
  9
$EXTMAX
 10
393.5078196526903
 20
165.3370810411878
 30
0.0
  9
$LIMMIN
 10
0.0
 20
0.0
  9
$LIMMAX
 10
0.0
 20
0.0
  9
$ORTHOMODE
 70
     0
  9
$REGENMODE
 70
     1
  9
$FILLMODE
 70
     1
  9
$QTEXTMODE
 70
     0
  9
$MIRRTEXT
 70
     1
  9
$LTSCALE
 40
1.0
  9
$ATTMODE
 70
     1
  9
$TEXTSIZE
 40
0.0
  9
$TRACEWID
 40
0.05
  9
$TEXTSTYLE
  7
STANDARD
  9
$CLAYER
  8
0
  9
$CELTYPE
  6
CONTINUOUS
  9
$CECOLOR
 62
   256
  9
$CELTSCALE
 40
1.0
  9
$DISPSILH
 70
     0
  9
$DIMSCALE
 40
1.0
  9
$DIMASZ
 40
0.18
  9
$DIMEXO
 40
0.0625
  9
$DIMDLI
 40
0.38
  9
$DIMRND
 40
0.0
  9
$DIMDLE
 40
0.0
  9
$DIMEXE
 40
0.18
  9
$DIMTP
 40
0.0
  9
$DIMTM
 40
0.0
  9
$DIMTXT
 40
0.18
  9
$DIMCEN
 40
0.09
  9
$DIMTSZ
 40
0.0
  9
$DIMTOL
 70
     0
  9
$DIMLIM
 70
     0
  9
$DIMTIH
 70
     1
  9
$DIMTOH
 70
     1
  9
$DIMSE1
 70
     0
  9
$DIMSE2
 70
     0
  9
$DIMTAD
 70
     0
  9
$DIMZIN
 70
     0
  9
$DIMBLK
  1

  9
$DIMASO
 70
     1
  9
$DIMSHO
 70
     1
  9
$DIMPOST
  1

  9
$DIMAPOST
  1

  9
$DIMALT
 70
     0
  9
$DIMALTD
 70
     2
  9
$DIMALTF
 40
25.4
  9
$DIMLFAC
 40
1.0
  9
$DIMTOFL
 70
     0
  9
$DIMTVP
 40
0.0
  9
$DIMTIX
 70
     0
  9
$DIMSOXD
 70
     0
  9
$DIMSAH
 70
     0
  9
$DIMBLK1
  1

  9
$DIMBLK2
  1

  9
$DIMSTYLE
  2
STANDARD
  9
$DIMCLRD
 70
     0
  9
$DIMCLRE
 70
     0
  9
$DIMCLRT
 70
     0
  9
$DIMTFAC
 40
1.0
  9
$DIMGAP
 40
0.09
  9
$DIMJUST
 70
     0
  9
$DIMSD1
 70
     0
  9
$DIMSD2
 70
     0
  9
$DIMTOLJ
 70
     1
  9
$DIMTZIN
 70
     0
  9
$DIMALTZ
 70
     0
  9
$DIMALTTZ
 70
     0
  9
$DIMUPT
 70
     0
  9
$DIMDEC
 70
     4
  9
$DIMTDEC
 70
     4
  9
$DIMALTU
 70
     2
  9
$DIMALTTD
 70
     2
  9
$DIMTXSTY
  7
STANDARD
  9
$DIMAUNIT
 70
     0
  9
$DIMADEC
 70
     0
  9
$DIMALTRND
 40
0.0
  9
$DIMAZIN
 70
     0
  9
$DIMDSEP
 70
    46
  9
$DIMATFIT
 70
     3
  9
$DIMFRAC
 70
     0
  9
$DIMLDRBLK
  1

  9
$DIMLUNIT
 70
     2
  9
$DIMLWD
 70
    -2
  9
$DIMLWE
 70
    -2
  9
$DIMTMOVE
 70
     0
  9
$LUNITS
 70
     2
  9
$LUPREC
 70
     4
  9
$SKETCHINC
 40
0.1
  9
$FILLETRAD
 40
0.0
  9
$AUNITS
 70
     0
  9
$AUPREC
 70
     0
  9
$MENU
  1
acad
  9
$ELEVATION
 40
0.0
  9
$PELEVATION
 40
0.0
  9
$THICKNESS
 40
0.0
  9
$LIMCHECK
 70
     0
  9
$CHAMFERA
 40
0.0
  9
$CHAMFERB
 40
0.0
  9
$CHAMFERC
 40
0.0
  9
$CHAMFERD
 40
0.0
  9
$SKPOLY
 70
     0
  9
$TDCREATE
 40
2311949.261446400
  9
$TDUCREATE
 40
2311949.428113067
  9
$TDUPDATE
 40
2455085.576333148
  9
$TDUUPDATE
 40
2455085.742999814
  9
$TDINDWG
 40
0.0044448380
  9
$TDUSRTIMER
 40
0.0044441204
  9
$USRTIMER
 70
     1
  9
$ANGBASE
 50
0.0
  9
$ANGDIR
 70
     0
  9
$PDMODE
 70
     0
  9
$PDSIZE
 40
0.0
  9
$PLINEWID
 40
0.0
  9
$SPLFRAME
 70
     0
  9
$SPLINETYPE
 70
     6
  9
$SPLINESEGS
 70
     8
  9
$HANDSEED
  5
330
  9
$SURFTAB1
 70
     6
  9
$SURFTAB2
 70
     6
  9
$SURFTYPE
 70
     6
  9
$SURFU
 70
     6
  9
$SURFV
 70
     6
  9
$UCSBASE
  2

  9
$UCSNAME
  2

  9
$UCSORG
 10
0.0
 20
0.0
 30
0.0
  9
$UCSXDIR
 10
1.0
 20
0.0
 30
0.0
  9
$UCSYDIR
 10
0.0
 20
1.0
 30
0.0
  9
$UCSORTHOREF
  2

  9
$UCSORTHOVIEW
 70
     0
  9
$UCSORGTOP
 10
0.0
 20
0.0
 30
0.0
  9
$UCSORGBOTTOM
 10
0.0
 20
0.0
 30
0.0
  9
$UCSORGLEFT
 10
0.0
 20
0.0
 30
0.0
  9
$UCSORGRIGHT
 10
0.0
 20
0.0
 30
0.0
  9
$UCSORGFRONT
 10
0.0
 20
0.0
 30
0.0
  9
$UCSORGBACK
 10
0.0
 20
0.0
 30
0.0
  9
$PUCSBASE
  2

  9
$PUCSNAME
  2

  9
$PUCSORG
 10
0.0
 20
0.0
 30
0.0
  9
$PUCSXDIR
 10
1.0
 20
0.0
 30
0.0
  9
$PUCSYDIR
 10
0.0
 20
1.0
 30
0.0
  9
$PUCSORTHOREF
  2

  9
$PUCSORTHOVIEW
 70
     0
  9
$PUCSORGTOP
 10
0.0
 20
0.0
 30
0.0
  9
$PUCSORGBOTTOM
 10
0.0
 20
0.0
 30
0.0
  9
$PUCSORGLEFT
 10
0.0
 20
0.0
 30
0.0
  9
$PUCSORGRIGHT
 10
0.0
 20
0.0
 30
0.0
  9
$PUCSORGFRONT
 10
0.0
 20
0.0
 30
0.0
  9
$PUCSORGBACK
 10
0.0
 20
0.0
 30
0.0
  9
$USERI1
 70
     0
  9
$USERI2
 70
     0
  9
$USERI3
 70
     0
  9
$USERI4
 70
     0
  9
$USERI5
 70
     0
  9
$USERR1
 40
0.0
  9
$USERR2
 40
0.0
  9
$USERR3
 40
0.0
  9
$USERR4
 40
0.0
  9
$USERR5
 40
0.0
  9
$WORLDVIEW
 70
     1
  9
$SHADEDGE
 70
     3
  9
$SHADEDIF
 70
    70
  9
$TILEMODE
 70
     1
  9
$MAXACTVP
 70
    16
  9
$PINSBASE
 10
0.0
 20
0.0
 30
0.0
  9
$PLIMCHECK
 70
     0
  9
$PEXTMIN
 10
1.000000000000000E+20
 20
1.000000000000000E+20
 30
1.000000000000000E+20
  9
$PEXTMAX
 10
-1.000000000000000E+20
 20
-1.000000000000000E+20
 30
-1.000000000000000E+20
  9
$PLIMMIN
 10
0.0
 20
0.0
  9
$PLIMMAX
 10
12.0
 20
9.0
  9
$UNITMODE
 70
     0
  9
$VISRETAIN
 70
     0
  9
$PLINEGEN
 70
     1
  9
$PSLTSCALE
 70
     0
  9
$TREEDEPTH
 70
  3020
  9
$CMLSTYLE
  2
STANDARD
  9
$CMLJUST
 70
     0
  9
$CMLSCALE
 40
1.0
  9
$PROXYGRAPHICS
 70
     0
  9
$MEASUREMENT
 70
     0
  9
$CELWEIGHT
370
    -1
  9
$ENDCAPS
280
     0
  9
$JOINSTYLE
280
     0
  9
$LWDISPLAY
290
     0
  9
$INSUNITS
 70
     0
  9
$HYPERLINKBASE
  1

  9
$STYLESHEET
  1

  9
$XEDIT
290
     1
  9
$CEPSNTYPE
380
     0
  9
$PSTYLEMODE
290
     1
  9
$FINGERPRINTGUID
  2
{E8669040-EC3F-4135-BFDC-65DFA898B48D}
  9
$VERSIONGUID
  2
{1B73734A-BC64-4D73-9163-7A68D40722CC}
  9
$EXTNAMES
290
     1
  9
$PSVPSCALE
 40
0.0
  9
$OLESTARTUP
290
     0
  0
ENDSEC
  0
SECTION
  2
CLASSES
  0
CLASS
  1
LWPOLYLINE
  2
AcDbPolyline
  3
AutoCAD 2000
 90
    32768
280
     0
281
     1
  0
CLASS
  1
IMAGE
  2
AcDbRasterImage
  3
ISM
 90
    32895
280
     0
281
     1
  0
CLASS
  1
OLE2FRAME
  2
AcDbOle2Frame
  3
AutoCAD 2000
 90
    32768
280
     0
281
     1
  0
CLASS
  1
HATCH
  2
AcDbHatch
  3
AutoCAD 2000
 90
    32768
280
     0
281
     1
  0
CLASS
  1
DICTIONARYVAR
  2
AcDbDictionaryVar
  3
AutoCAD 2000
 90
        0
280
     0
281
     0
  0
CLASS
  1
RASTERVARIABLES
  2
AcDbRasterVariables
  3
ISM
 90
    32768
280
     0
281
     0
  0
CLASS
  1
IMAGEDEF
  2
AcDbRasterImageDef
  3
ISM
 90
    32768
280
     0
281
     0
  0
CLASS
  1
IMAGEDEF_REACTOR
  2
AcDbRasterImageDefReactor
  3
ISM
 90
    32769
280
     0
281
     0
  0
CLASS
  1
IDBUFFER
  2
AcDbIdBuffer
  3
AutoCAD 2000
 90
    32768
280
     0
281
     0
  0
CLASS
  1
SPATIAL_FILTER
  2
AcDbSpatialFilter
  3
AutoCAD 2000
 90
    32768
280
     0
281
     0
  0
CLASS
  1
XRECORD
  2
AcDbXrecord
  3
AutoCAD 2000
 90
    32768
280
     0
281
     0
  0
CLASS
  1
SORTENTSTABLE
  2
AcDbSortentsTable
  3
AutoCAD 2000
 90
    32768
280
     0
281
     0
  0
CLASS
  1
LAYER_INDEX
  2
AcDbLayerIndex
  3
AutoCAD 2000
 90
    32768
280
     0
281
     0
  0
CLASS
  1
SPATIAL_INDEX
  2
AcDbSpatialIndex
  3
AutoCAD 2000
 90
    32768
280
     0
281
     0
  0
CLASS
  1
OBJECT_PTR
  2
CAseDLPNTableRecord
  3
"ASE-LPNTableRecord"
 90
    32769
280
     0
281
     0
  0
CLASS
  1
LAYOUT
  2
AcDbLayout
  3
AutoCAD 2000
 90
        0
280
     0
281
     0
  0
CLASS
  1
PLOTSETTINGS
  2
AcDbPlotSettings
  3
AutoCAD 2000
 90
    32768
280
     0
281
     0
  0
CLASS
  1
ACDBDICTIONARYWDFLT
  2
AcDbDictionaryWithDefault
  3
AutoCAD 2000
 90
        0
280
     0
281
     0
  0
CLASS
  1
ACDBPLACEHOLDER
  2
AcDbPlaceHolder
  3
AutoCAD 2000
 90
        0
280
     0
281
     0
  0
CLASS
  1
VBA_PROJECT
  2
AcDbVbaProject
  3
"acadvba"
 90
    32769
280
     0
281
     0
  0
CLASS
  1
WIPEOUT
  2
AcDbWipeout
  3
WipeOut|AutoCAD Express Tool|expresstools@autodesk.com
 90
    32895
280
     0
281
     1
  0
CLASS
  1
WIPEOUTVARIABLES
  2
AcDbWipeoutVariables
  3
WipeOut|AutoCAD Express Tool|expresstools@autodesk.com
 90
    32768
280
     0
281
     0
  0
CLASS
  1
RTEXT
  2
RText
  3
RText|AutoCAD Express Tool|expresstools@autodesk.com
 90
    32768
280
     0
281
     1
  0
CLASS
  1
ARCALIGNEDTEXT
  2
AcDbArcAlignedText
  3
ATEXT|AutoCAD Express Tool|expresstools@autodesk.com
 90
    32768
280
     0
281
     1
  0
ENDSEC
  0
SECTION
  2
TABLES
  0
TABLE
  2
VPORT
  5
7
330
0
100
AcDbSymbolTable
 70
     2
  0
VPORT
  5
32F
330
7
100
AcDbSymbolTableRecord
100
AcDbViewportTableRecord
  2
*Active
 70
     0
 10
0.0
 20
0.0
 11
1.0
 21
1.0
 12
76.36195554862343
 22
-52.75179435014274
 13
0.0
 23
0.0
 14
1.0
 24
1.0
 15
0.0
 25
0.0
 16
0.0
 26
0.0
 36
1.0
 17
0.0
 27
0.0
 37
0.0
 40
510.6071979705061
 41
1.786259541984732
 42
50.0
 43
0.0
 44
0.0
 50
0.0
 51
0.0
 71
     0
 72
   100
 73
     1
 74
     1
 75
     0
 76
     0
 77
     0
 78
     0
281
     0
 65
     1
110
0.0
120
0.0
130
0.0
111
1.0
121
0.0
131
0.0
112
0.0
122
1.0
132
0.0
 79
     0
146
0.0
  0
ENDTAB
  0
TABLE
  2
LTYPE
  5
4
330
0
100
AcDbSymbolTable
 70
     8
  0
LTYPE
  5
11
330
4
100
AcDbSymbolTableRecord
100
AcDbLinetypeTableRecord
  2
BYBLOCK
 70
     0
  3

 72
    65
 73
     0
 40
0.0
  0
LTYPE
  5
12
330
4
100
AcDbSymbolTableRecord
100
AcDbLinetypeTableRecord
  2
BYLAYER
 70
     0
  3

 72
    65
 73
     0
 40
0.0
  0
LTYPE
  5
13
330
4
100
AcDbSymbolTableRecord
100
AcDbLinetypeTableRecord
  2
CONTINUOUS
 70
     0
  3
Solid line
 72
    65
 73
     0
 40
0.0
  0
LTYPE
  5
1D
330
4
100
AcDbSymbolTableRecord
100
AcDbLinetypeTableRecord
  2
DASHED
 70
     0
  3
Dashed
 72
    65
 73
     2
 40
15.0
 49
12.0
 74
     0
 49
-3.0
 74
     0
  0
LTYPE
  5
1E
330
4
100
AcDbSymbolTableRecord
100
AcDbLinetypeTableRecord
  2
DOTTED
 70
     0
  3
Dotted
 72
    65
 73
     2
 40
3.5
 49
0.5
 74
     0
 49
-3.0
 74
     0
  0
LTYPE
  5
1F
330
4
100
AcDbSymbolTableRecord
100
AcDbLinetypeTableRecord
  2
DOT_CENTER
 70
     0
  3
Dot_Center
 72
    65
 73
     4
 40
2.0
 49
1.25
 74
     0
 49
-0.25
 74
     0
 49
0.25
 74
     0
 49
-0.25
 74
     0
  0
LTYPE
  5
20
330
4
100
AcDbSymbolTableRecord
100
AcDbLinetypeTableRecord
  2
LONG_DASHED
 70
     0
  3
Long_Dashed
 72
    65
 73
     2
 40
2.0
 49
1.5
 74
     0
 49
-0.5
 74
     0
  0
LTYPE
  5
21
330
4
100
AcDbSymbolTableRecord
100
AcDbLinetypeTableRecord
  2
DASH_CENTER
 70
     0
  3
Dash_Center
 72
    65
 73
     4
 40
36.0
 49
24.0
 74
     0
 49
-3.0
 74
     0
 49
6.0
 74
     0
 49
-3.0
 74
     0
  0
LTYPE
  5
22
330
4
100
AcDbSymbolTableRecord
100
AcDbLinetypeTableRecord
  2
PHANTOM
 70
     0
  3
Phantom
 72
    65
 73
     6
 40
2.5
 49
1.25
 74
     0
 49
-0.25
 74
     0
 49
0.25
 74
     0
 49
-0.25
 74
     0
 49
0.25
 74
     0
 49
-0.25
 74
     0
  0
LTYPE
  5
23
330
4
100
AcDbSymbolTableRecord
100
AcDbLinetypeTableRecord
  2
CENTER_DASH_DASH
 70
     0
  3
Center_Dash_Dash
 72
    65
 73
     6
 40
22.0
 49
12.0
 74
     0
 49
-3.0
 74
     0
 49
0.5
 74
     0
 49
-3.0
 74
     0
 49
0.5
 74
     0
 49
-3.0
 74
     0
  0
ENDTAB
  0
TABLE
  2
LAYER
  5
2
330
0
100
AcDbSymbolTable
 70
     4
  0
LAYER
  5
14
330
2
100
AcDbSymbolTableRecord
100
AcDbLayerTableRecord
  2
0
 70
     0
 62
     7
  6
CONTINUOUS
370
    -3
390
299
  0
LAYER
  5
24
330
2
100
AcDbSymbolTableRecord
100
AcDbLayerTableRecord
  2
1
 70
     0
 62
     7
  6
CONTINUOUS
370
    -3
390
299
  0
LAYER
  5
25
330
2
100
AcDbSymbolTableRecord
100
AcDbLayerTableRecord
  2
2
 70
     0
 62
     7
  6
CONTINUOUS
370
    -3
390
299
  0
LAYER
  5
313
330
2
100
AcDbSymbolTableRecord
100
AcDbLayerTableRecord
  2
LAYER_1
 70
     0
 62
     5
  6
CONTINUOUS
370
    -3
390
299
  0
ENDTAB
  0
TABLE
  2
STYLE
  5
3
330
0
100
AcDbSymbolTable
 70
     4
  0
STYLE
  5
17
330
3
100
AcDbSymbolTableRecord
100
AcDbTextStyleTableRecord
  2
STANDARD
 70
     0
 40
0.0
 41
1.0
 50
0.0
 71
     0
 42
0.0
  3
txt
  4

  0
STYLE
  5
27A
330
3
100
AcDbSymbolTableRecord
100
AcDbTextStyleTableRecord
  2
CONVERTER_1
 70
     0
 40
0.0
 41
0.8100000000000001
 50
0.0
 71
     0
 42
0.0
  3
txt.shx
  4

  0
STYLE
  5
27C
330
3
100
AcDbSymbolTableRecord
100
AcDbTextStyleTableRecord
  2
CONVERTER_2
 70
     0
 40
0.0
 41
0.89
 50
0.0
 71
     0
 42
0.0
  3
MS Mincho.ttf
  4

1001
ACAD
1000
MS Mincho
1071
    32785
  0
STYLE
  5
27E
330
3
100
AcDbSymbolTableRecord
100
AcDbTextStyleTableRecord
  2
CONVERTER_3
 70
     0
 40
0.0
 41
0.9
 50
0.0
 71
     0
 42
0.0
  3
txt.shx
  4

  0
ENDTAB
  0
TABLE
  2
VIEW
  5
5
330
0
100
AcDbSymbolTable
 70
     0
  0
ENDTAB
  0
TABLE
  2
UCS
  5
6
330
0
100
AcDbSymbolTable
 70
     0
  0
ENDTAB
  0
TABLE
  2
APPID
  5
8
330
0
100
AcDbSymbolTable
 70
     1
  0
APPID
  5
16
330
8
100
AcDbSymbolTableRecord
100
AcDbRegAppTableRecord
  2
ACAD
 70
     0
  0
ENDTAB
  0
TABLE
  2
DIMSTYLE
  5
9
330
0
100
AcDbSymbolTable
 70
     1
100
AcDbDimStyleTable
 71
     0
  0
DIMSTYLE
105
18
330
9
100
AcDbSymbolTableRecord
100
AcDbDimStyleTableRecord
  2
STANDARD
 70
     0
340
17
  0
ENDTAB
  0
TABLE
  2
BLOCK_RECORD
  5
1
330
0
100
AcDbSymbolTable
 70
    26
  0
BLOCK_RECORD
  5
A
330
1
100
AcDbSymbolTableRecord
100
AcDbBlockTableRecord
  2
*MODEL_SPACE
340
29C
  0
BLOCK_RECORD
  5
B
330
1
100
AcDbSymbolTableRecord
100
AcDbBlockTableRecord
  2
*PAPER_SPACE
340
29D
  0
BLOCK_RECORD
  5
26
330
1
100
AcDbSymbolTableRecord
100
AcDbBlockTableRecord
  2
PAN_SCREW_TOP
340
0
102
{BLKREFS
331
3A
102
}
  0
BLOCK_RECORD
  5
28
330
1
100
AcDbSymbolTableRecord
100
AcDbBlockTableRecord
  2
HEX_BOLT_SIDE__1
340
0
102
{BLKREFS
331
3B
102
}
  0
BLOCK_RECORD
  5
2A
330
1
100
AcDbSymbolTableRecord
100
AcDbBlockTableRecord
  2
HEX_BOLT_SIDE__2
340
0
102
{BLKREFS
331
3C
102
}
  0
BLOCK_RECORD
  5
2C
330
1
100
AcDbSymbolTableRecord
100
AcDbBlockTableRecord
  2
HEX_BOLT_SIDE__3
340
0
102
{BLKREFS
331
3D
102
}
  0
BLOCK_RECORD
  5
2E
330
1
100
AcDbSymbolTableRecord
100
AcDbBlockTableRecord
  2
HEX_BOLT_SIDE__4
340
0
102
{BLKREFS
331
3E
102
}
  0
BLOCK_RECORD
  5
30
330
1
100
AcDbSymbolTableRecord
100
AcDbBlockTableRecord
  2
HEX_BOLT_SIDE__5
340
0
102
{BLKREFS
331
3F
102
}
  0
BLOCK_RECORD
  5
32
330
1
100
AcDbSymbolTableRecord
100
AcDbBlockTableRecord
  2
HEX_BOLT_SIDE__6
340
0
102
{BLKREFS
331
40
102
}
  0
BLOCK_RECORD
  5
34
330
1
100
AcDbSymbolTableRecord
100
AcDbBlockTableRecord
  2
HEX_BOLT_SIDE__7
340
0
102
{BLKREFS
331
41
102
}
  0
BLOCK_RECORD
  5
36
330
1
100
AcDbSymbolTableRecord
100
AcDbBlockTableRecord
  2
HEX_BOLT_SIDE__8
340
0
102
{BLKREFS
331
42
102
}
  0
BLOCK_RECORD
  5
29F
330
1
100
AcDbSymbolTableRecord
100
AcDbBlockTableRecord
  2
NTC
340
0
310
2800000020000000200000000100080000000000000400000000000000000000000000000000000000000000000080000080000000808000800000008000800080800000C0C0C000C0DCC000F0CAA6000020400000206000002080000020A0000020C0000020E00000400000004020000040400000406000004080000040A0
310
000040C0000040E00000600000006020000060400000606000006080000060A0000060C0000060E00000800000008020000080400000806000008080000080A0000080C0000080E00000A0000000A0200000A0400000A0600000A0800000A0A00000A0C00000A0E00000C0000000C0200000C0400000C0600000C0800000C0
310
A00000C0C00000C0E00000E0000000E0200000E0400000E0600000E0800000E0A00000E0C00000E0E00040000000400020004000400040006000400080004000A0004000C0004000E00040200000402020004020400040206000402080004020A0004020C0004020E000404000004040200040404000404060004040800040
310
40A0004040C0004040E00040600000406020004060400040606000406080004060A0004060C0004060E00040800000408020004080400040806000408080004080A0004080C0004080E00040A0000040A0200040A0400040A0600040A0800040A0A00040A0C00040A0E00040C0000040C0200040C0400040C0600040C08000
310
40C0A00040C0C00040C0E00040E0000040E0200040E0400040E0600040E0800040E0A00040E0C00040E0E00080000000800020008000400080006000800080008000A0008000C0008000E00080200000802020008020400080206000802080008020A0008020C0008020E00080400000804020008040400080406000804080
310
008040A0008040C0008040E00080600000806020008060400080606000806080008060A0008060C0008060E00080800000808020008080400080806000808080008080A0008080C0008080E00080A0000080A0200080A0400080A0600080A0800080A0A00080A0C00080A0E00080C0000080C0200080C0400080C0600080C0
310
800080C0A00080C0C00080C0E00080E0000080E0200080E0400080E0600080E0800080E0A00080E0C00080E0E000C0000000C0002000C0004000C0006000C0008000C000A000C000C000C000E000C0200000C0202000C0204000C0206000C0208000C020A000C020C000C020E000C0400000C0402000C0404000C0406000C0
310
408000C040A000C040C000C040E000C0600000C0602000C0604000C0606000C0608000C060A000C060C000C060E000C0800000C0802000C0804000C0806000C0808000C080A000C080C000C080E000C0A00000C0A02000C0A04000C0A06000C0A08000C0A0A000C0A0C000C0A0E000C0C00000C0C02000C0C04000C0C06000
310
C0C08000C0C0A000F0FBFF00A4A0A000808080000000FF0000FF000000FFFF00FF000000FF00FF00FFFF0000FFFFFF00FFFFFFFFFFFFFFFFFFFFFFFFFFFFFFFFFFFFFFFFFFFFFFFFFFFFFFFFFFFFFFFFFFFFFFFFFFFFFFFFFFFFFFFFFFFFFFFFFFFFFFFFFFFFFFFFFFFFFFFFFFFFFFFFFFFFFFFFFFFFFFFFFFFFFFFFFFFFFF
310
FFFFFFFFFFFFFFFFFFFFFFFFFFFFFFFFFFFFFFFFFFFFFFFFFFFFFFFFFFFFFFFFFFFFFFFFFFFFFFFFFFFFFFFFFFFFFFFFFFFFFFFFFFFFFFFFFFFFFFFFFFFFFFFFFFFFFFFFFFFFFFFFFFFFFFFFFFFFFFFFFFFFFFFFFFFFFFFFFFFFFFFFFFFFFFFFFFFFFFFFFFFFFFFFFFFFFFFFFFFFFFFFFFFFFFFFFFFFFFFFFFFFFFFFFFFFFF
310
FFFFFFFFFFFFFFFFFFFFFFFFFFFFFFFFFFFFFFFFFFFFFFFFFFFFFFFFFFFFFFFFFFFFFFFFFFFFFFFFFFFFFFFFFFFFFFFFFFFFFFFFFFFFFFFFFFFFFFFFFFFFFFFFFFFFFFFFFFFFFFFFFFFFFFFFFFFFFFFFFFFFFFFFFFFFFFFFFFFFFFFFFFFFFFFFFFFFFFFFFFFFFFFFFFFFFFFFFFFFFFFFFFFFFFFFFFFFFFFFFFFFFFFFFFFFFF
310
FFFFFFFFFFFFFFFFFFFFFFFFFFFFFFFFFFFFFFFF000000000000000000000000000000000000000000000000000000000000FFFF00FF0000000000000000FFFFFFFFFFFFFFFFFFFFFFFFFFFFFFFFFFFFFF00FFFF00FF0000000000000000FFFFFFFFFFFFFFFFFFFFFFFFFFFFFFFFFFFFFF00FFFF00FF000000000000000000
310
00000000000000000000000000FFFFFFFFFF00FFFF00FF0000000000000000000000000000000000000000000000000000FF00FFFF00FF0000000000000000000000000000000000000000000000000000FF00FFFF00FF0000000000000000000000000000000000000000000000000000FF00FFFF00FF0000000000000000
310
00000000000000000000000000000000FFFFFF00FFFF00FF0000000000FFFFFFFFFFFFFFFFFFFFFFFFFFFFFFFFFFFFFFFFFFFF00FFFF000000000000000000000000000000000000000000000000000000000000FFFFFFFFFFFFFFFFFFFFFFFFFFFFFFFFFFFFFFFFFFFFFFFFFFFFFFFFFFFFFFFFFFFFFFFFFFFFFFFFFFFFFF
310
FFFFFFFFFFFFFFFFFFFFFFFFFFFFFFFFFFFFFFFFFFFFFFFFFFFFFFFFFFFFFFFFFFFFFFFFFFFFFFFFFFFFFFFFFFFFFFFFFFFFFFFFFFFFFFFFFFFFFFFFFFFFFFFFFFFFFFFFFFFFFFFFFFFFFFFFFFFFFFFFFFFFFFFFFFFFFFFFFFFFFFFFFFFFFFFFFFFFFFFFFFFFFFFFFFFFFFFFFFFFFFFFFFFFFFFFFFFFFFFFFFFFFFFFFFFFFF
310
FFFFFFFFFFFFFFFFFFFFFFFFFFFFFFFFFFFFFFFFFFFFFFFFFFFFFFFFFFFFFFFFFFFFFFFFFFFFFFFFFFFFFFFFFFFFFFFFFFFFFFFFFFFFFFFFFFFFFFFFFFFFFFFFFFFFFFFFFFFFFFFFFFFFFFFFFFFFFFFFFFFFFFFFFFFFFFFFFFFFFFFFFFFFFFFFFFFFFFFFFFFFFFFFFFFFFFFFFFFFFFFFFFFFFFFFFFFFFFFFFFFFFFFFFFFFFF
310
FFFFFFFFFFFFFFFFFFFFFFFFFFFFFFFFFFFFFFFFFFFFFFFFFFFFFFFFFFFFFFFFFFFFFFFFFFFFFFFFFFFFFFFFFFFFFFFFFFFFFFFFFFFFFFFF
102
{BLKREFS
331
2A5
331
2AA
102
}
  0
BLOCK_RECORD
  5
2AB
330
1
100
AcDbSymbolTableRecord
100
AcDbBlockTableRecord
  2
AI9-BLK14
340
0
310
2800000020000000200000000100080000000000000400000000000000000000000000000000000000000000000080000080000000808000800000008000800080800000C0C0C000C0DCC000F0CAA6000020400000206000002080000020A0000020C0000020E00000400000004020000040400000406000004080000040A0
310
000040C0000040E00000600000006020000060400000606000006080000060A0000060C0000060E00000800000008020000080400000806000008080000080A0000080C0000080E00000A0000000A0200000A0400000A0600000A0800000A0A00000A0C00000A0E00000C0000000C0200000C0400000C0600000C0800000C0
310
A00000C0C00000C0E00000E0000000E0200000E0400000E0600000E0800000E0A00000E0C00000E0E00040000000400020004000400040006000400080004000A0004000C0004000E00040200000402020004020400040206000402080004020A0004020C0004020E000404000004040200040404000404060004040800040
310
40A0004040C0004040E00040600000406020004060400040606000406080004060A0004060C0004060E00040800000408020004080400040806000408080004080A0004080C0004080E00040A0000040A0200040A0400040A0600040A0800040A0A00040A0C00040A0E00040C0000040C0200040C0400040C0600040C08000
310
40C0A00040C0C00040C0E00040E0000040E0200040E0400040E0600040E0800040E0A00040E0C00040E0E00080000000800020008000400080006000800080008000A0008000C0008000E00080200000802020008020400080206000802080008020A0008020C0008020E00080400000804020008040400080406000804080
310
008040A0008040C0008040E00080600000806020008060400080606000806080008060A0008060C0008060E00080800000808020008080400080806000808080008080A0008080C0008080E00080A0000080A0200080A0400080A0600080A0800080A0A00080A0C00080A0E00080C0000080C0200080C0400080C0600080C0
310
800080C0A00080C0C00080C0E00080E0000080E0200080E0400080E0600080E0800080E0A00080E0C00080E0E000C0000000C0002000C0004000C0006000C0008000C000A000C000C000C000E000C0200000C0202000C0204000C0206000C0208000C020A000C020C000C020E000C0400000C0402000C0404000C0406000C0
310
408000C040A000C040C000C040E000C0600000C0602000C0604000C0606000C0608000C060A000C060C000C060E000C0800000C0802000C0804000C0806000C0808000C080A000C080C000C080E000C0A00000C0A02000C0A04000C0A06000C0A08000C0A0A000C0A0C000C0A0E000C0C00000C0C02000C0C04000C0C06000
310
C0C08000C0C0A000F0FBFF00A4A0A000808080000000FF0000FF000000FFFF00FF000000FF00FF00FFFF0000FFFFFF00FF00FFFFFFFF00FFFFFFFFFFFFFFFFFFFFFFFFFFFFFFFFFFFFFFFFFFFFFFFFFFFF00FFFFFFFF00FFFFFFFFFFFFFFFFFFFFFFFFFFFFFFFFFFFFFFFFFFFFFFFFFFFF00FFFFFFFF00FFFFFFFFFFFFFFFF
310
FFFFFFFFFFFFFFFFFFFFFFFFFFFFFFFFFFFF00FFFFFFFF00FFFFFFFFFFFFFFFFFFFFFFFFFFFFFFFFFFFFFFFFFFFFFFFFFFFF00FFFFFFFF00FFFFFFFFFFFFFFFFFFFFFFFFFFFFFFFFFFFFFFFFFFFFFFFFFFFF00FFFFFFFF00FFFFFFFFFFFFFFFFFFFFFFFFFFFFFFFFFFFFFFFFFFFFFFFFFFFF00FFFFFFFF00FFFFFFFFFFFFFF
310
FFFFFFFFFFFFFFFFFFFFFFFFFFFFFFFFFFFFFF00FFFFFFFF00FFFFFFFFFFFFFFFFFFFFFFFFFFFFFFFFFFFFFFFFFFFFFFFFFFFF00FFFFFFFF00FFFFFFFFFFFFFFFFFFFFFFFFFFFFFFFFFFFFFFFFFFFFFFFFFFFF00FFFFFFFF00FFFFFFFFFFFFFFFFFFFFFFFFFFFFFFFFFFFFFFFFFFFFFFFFFFFF00FFFFFFFF00FFFFFFFFFFFF
310
FFFFFFFFFFFFFFFFFFFFFFFFFFFFFFFFFFFFFFFF00FFFFFFFF00FFFFFFFFFFFFFFFFFFFFFFFFFFFFFFFFFFFFFFFFFFFFFFFFFFFF00FFFFFFFF00FFFFFFFFFFFFFFFFFFFFFFFFFFFFFFFFFFFFFFFFFFFFFFFFFFFF00FFFFFFFF0000000000000000000000000000000000000000000000000000FF00FFFFFFFFFFFFFFFFFFFF
310
FFFFFFFFFFFFFFFFFFFFFFFFFFFFFFFFFFFFFFFFFF00FFFFFFFFFFFFFFFFFFFFFFFFFFFFFFFFFFFFFFFFFFFFFFFFFFFFFFFFFFFFFF00FFFFFFFFFFFFFFFFFFFFFFFFFFFFFFFFFFFFFFFFFFFFFFFFFFFFFFFFFFFFFF00FFFFFFFFFFFFFFFFFFFFFFFFFFFFFFFFFFFFFFFFFFFFFFFFFFFFFFFFFF00FF00000000000000000000
310
0000000000000000000000000000000000000000FFFFFFFFFFFFFFFFFFFFFFFFFFFFFFFFFFFFFFFFFFFFFFFFFFFFFFFFFFFFFFFFFFFFFFFFFFFFFFFFFFFFFFFFFFFFFFFFFFFFFFFFFFFFFFFFFFFFFFFFFFFFFFFFFFFFFFFFFFFFFFFFFFFFFFFFFFFFFFFFFFFFFFFFFFFFFFFFFFFFFFFFFFFFFFFFFFFFFFFFFFFFFFFFFFFFFF
310
FFFFFFFFFFFFFFFFFFFFFFFFFFFFFFFFFFFFFFFFFFFFFFFFFFFFFFFFFFFFFFFFFFFFFFFFFFFFFFFFFFFFFFFFFFFFFFFFFFFFFFFFFFFFFFFFFFFFFFFFFFFFFFFFFFFFFFFFFFFFFFFFFFFFFFFFFFFFFFFFFFFFFFFFFFFFFFFFFFFFFFFFFFFFFFFFFFFFFFFFFFFFFFFFFFFFFFFFFFFFFFFFFFFFFFFFFFFFFFFFFFFFFFFFFFFFFF
310
FFFFFFFFFFFFFFFFFFFFFFFFFFFFFFFFFFFFFFFFFFFFFFFFFFFFFFFFFFFFFFFFFFFFFFFFFFFFFFFFFFFFFFFFFFFFFFFFFFFFFFFFFFFFFFFFFFFFFFFFFFFFFFFFFFFFFFFFFFFFFFFFFFFFFFFFFFFFFFFFFFFFFFFFFFFFFFFFFFFFFFFFFFFFFFFFFFFFFFFFFFFFFFFFFFFFFFFFFFFFFFFFFFFFFFFFFFFFFFFFFFFFFFFFFFFFFF
310
FFFFFFFFFFFFFFFFFFFFFFFFFFFFFFFFFFFFFFFFFFFFFFFFFFFFFFFFFFFFFFFFFFFFFFFFFFFFFFFFFFFFFFFFFFFFFFFFFFFFFFFFFFFFFFFF
102
{BLKREFS
331
2EC
102
}
  0
BLOCK_RECORD
  5
2B0
330
1
100
AcDbSymbolTableRecord
100
AcDbBlockTableRecord
  2
AI9-BLK13
340
0
310
2800000020000000200000000100080000000000000400000000000000000000000000000000000000000000000080000080000000808000800000008000800080800000C0C0C000C0DCC000F0CAA6000020400000206000002080000020A0000020C0000020E00000400000004020000040400000406000004080000040A0
310
000040C0000040E00000600000006020000060400000606000006080000060A0000060C0000060E00000800000008020000080400000806000008080000080A0000080C0000080E00000A0000000A0200000A0400000A0600000A0800000A0A00000A0C00000A0E00000C0000000C0200000C0400000C0600000C0800000C0
310
A00000C0C00000C0E00000E0000000E0200000E0400000E0600000E0800000E0A00000E0C00000E0E00040000000400020004000400040006000400080004000A0004000C0004000E00040200000402020004020400040206000402080004020A0004020C0004020E000404000004040200040404000404060004040800040
310
40A0004040C0004040E00040600000406020004060400040606000406080004060A0004060C0004060E00040800000408020004080400040806000408080004080A0004080C0004080E00040A0000040A0200040A0400040A0600040A0800040A0A00040A0C00040A0E00040C0000040C0200040C0400040C0600040C08000
310
40C0A00040C0C00040C0E00040E0000040E0200040E0400040E0600040E0800040E0A00040E0C00040E0E00080000000800020008000400080006000800080008000A0008000C0008000E00080200000802020008020400080206000802080008020A0008020C0008020E00080400000804020008040400080406000804080
310
008040A0008040C0008040E00080600000806020008060400080606000806080008060A0008060C0008060E00080800000808020008080400080806000808080008080A0008080C0008080E00080A0000080A0200080A0400080A0600080A0800080A0A00080A0C00080A0E00080C0000080C0200080C0400080C0600080C0
310
800080C0A00080C0C00080C0E00080E0000080E0200080E0400080E0600080E0800080E0A00080E0C00080E0E000C0000000C0002000C0004000C0006000C0008000C000A000C000C000C000E000C0200000C0202000C0204000C0206000C0208000C020A000C020C000C020E000C0400000C0402000C0404000C0406000C0
310
408000C040A000C040C000C040E000C0600000C0602000C0604000C0606000C0608000C060A000C060C000C060E000C0800000C0802000C0804000C0806000C0808000C080A000C080C000C080E000C0A00000C0A02000C0A04000C0A06000C0A08000C0A0A000C0A0C000C0A0E000C0C00000C0C02000C0C04000C0C06000
310
C0C08000C0C0A000F0FBFF00A4A0A000808080000000FF0000FF000000FFFF00FF000000FF00FF00FFFF0000FFFFFF00FFFFFFFFFFFFFFFFFFFFFFFFFFFFFFFFFFFFFFFFFFFFFFFFFFFFFFFFFFFFFFFFFFFFFFFFFFFFFFFFFFFFFF0000FFFFFFFFFFFF0000FFFFFFFFFFFFFFFFFFFFFFFFFFFFFFFFFFFFFFFFFFFF0000FFFF
310
FFFFFFFF0000FFFFFFFFFFFFFFFFFFFFFFFFFFFFFFFFFFFFFFFFFFFF0000FFFFFFFFFFFF0000FFFFFFFFFFFFFFFFFFFFFFFFFFFFFFFFFFFFFFFFFFFF0000FFFFFFFFFFFF0000FFFFFFFFFFFFFFFFFFFFFFFFFFFFFFFFFFFFFFFFFFFF0000FFFFFFFFFFFF0000FFFFFFFFFFFFFFFFFFFFFFFFFFFFFFFFFFFFFFFFFFFF0000FF
310
FFFFFFFFFF0000FFFFFFFFFFFFFFFFFFFFFFFFFFFFFFFFFFFFFFFFFFFF0000FFFFFFFFFFFF0000FFFFFFFFFFFFFFFFFFFFFFFFFFFFFFFFFFFFFFFFFFFF0000FFFFFFFFFFFF0000FFFFFFFFFFFFFFFFFFFFFFFFFFFFFFFFFFFFFFFFFFFF0000FFFFFFFFFFFF0000FFFFFFFFFFFFFFFFFFFFFFFFFFFFFFFFFFFFFFFFFFFF0000
310
FFFFFFFFFFFF0000FFFFFFFFFFFFFFFFFFFFFFFFFFFFFFFFFFFFFFFFFFFF0000FFFFFFFFFFFF0000FFFFFFFFFFFFFFFFFFFFFFFFFFFFFFFFFFFFFFFFFFFF0000FFFFFFFFFFFF0000FFFFFFFFFFFFFFFFFFFFFFFFFFFFFFFFFFFFFFFFFFFF0000FFFFFFFFFFFF0000FFFFFFFFFFFFFFFFFFFFFFFFFFFFFFFFFFFFFFFFFFFF00
310
00FFFFFFFFFFFF0000FFFFFFFFFFFFFFFFFFFFFFFFFFFFFFFFFFFFFFFFFFFF00000000000000000000FFFFFFFFFFFFFFFFFFFFFFFFFFFFFFFFFFFFFFFFFFFF00FFFFFFFFFFFFFFFF00FFFFFFFFFFFFFFFFFFFFFFFFFFFFFFFFFFFFFFFFFFFF00FFFFFFFFFFFFFFFF00FFFFFFFFFFFFFFFFFFFFFFFFFFFFFFFFFFFFFFFFFFFF
310
00000000000000000000FFFFFFFFFFFFFFFFFFFFFFFFFFFFFFFFFFFFFFFFFFFF0000FFFFFFFFFFFF0000FFFFFFFFFFFFFFFFFFFFFFFFFFFFFFFFFFFFFFFFFFFF0000FFFFFFFFFFFF0000FFFFFFFFFFFFFFFFFFFFFFFFFFFFFFFFFFFFFFFFFFFF0000FFFFFFFFFFFF0000FFFFFFFFFFFFFFFFFFFFFFFFFFFFFFFFFFFFFFFFFF
310
FF0000FFFFFFFFFFFF0000FFFFFFFFFFFFFFFFFFFFFFFFFFFFFFFFFFFFFFFFFFFF0000FFFFFFFFFFFF0000FFFFFFFFFFFFFFFFFFFFFFFFFFFFFFFFFFFFFFFFFFFF0000FFFFFFFFFFFF0000FFFFFFFFFFFFFFFFFFFFFFFFFFFFFFFFFFFFFFFFFFFF0000FFFFFFFFFFFF0000FFFFFFFFFFFFFFFFFFFFFFFFFFFFFFFFFFFFFFFF
310
FFFF0000FFFFFFFFFFFF0000FFFFFFFFFFFFFFFFFFFFFFFFFFFFFFFFFFFFFFFFFFFF0000FFFFFFFFFFFF0000FFFFFFFFFFFFFFFFFFFFFFFFFFFFFFFFFFFFFFFFFFFF0000FFFFFFFFFFFF0000FFFFFFFFFFFFFFFFFFFFFFFFFFFFFFFFFFFFFFFFFFFF0000FFFFFFFFFFFF0000FFFFFFFFFFFFFFFFFFFFFFFFFFFFFFFFFFFFFF
310
FFFFFF0000FFFFFFFFFFFF0000FFFFFFFFFFFFFFFFFFFFFFFFFFFFFFFFFFFFFFFFFFFFFFFFFFFFFFFFFFFFFFFFFFFFFFFFFFFFFFFFFFFFFF
102
{BLKREFS
331
2ED
102
}
  0
BLOCK_RECORD
  5
2B5
330
1
100
AcDbSymbolTableRecord
100
AcDbBlockTableRecord
  2
AI9-BLK11
340
0
310
2800000020000000200000000100080000000000000400000000000000000000000000000000000000000000000080000080000000808000800000008000800080800000C0C0C000C0DCC000F0CAA6000020400000206000002080000020A0000020C0000020E00000400000004020000040400000406000004080000040A0
310
000040C0000040E00000600000006020000060400000606000006080000060A0000060C0000060E00000800000008020000080400000806000008080000080A0000080C0000080E00000A0000000A0200000A0400000A0600000A0800000A0A00000A0C00000A0E00000C0000000C0200000C0400000C0600000C0800000C0
310
A00000C0C00000C0E00000E0000000E0200000E0400000E0600000E0800000E0A00000E0C00000E0E00040000000400020004000400040006000400080004000A0004000C0004000E00040200000402020004020400040206000402080004020A0004020C0004020E000404000004040200040404000404060004040800040
310
40A0004040C0004040E00040600000406020004060400040606000406080004060A0004060C0004060E00040800000408020004080400040806000408080004080A0004080C0004080E00040A0000040A0200040A0400040A0600040A0800040A0A00040A0C00040A0E00040C0000040C0200040C0400040C0600040C08000
310
40C0A00040C0C00040C0E00040E0000040E0200040E0400040E0600040E0800040E0A00040E0C00040E0E00080000000800020008000400080006000800080008000A0008000C0008000E00080200000802020008020400080206000802080008020A0008020C0008020E00080400000804020008040400080406000804080
310
008040A0008040C0008040E00080600000806020008060400080606000806080008060A0008060C0008060E00080800000808020008080400080806000808080008080A0008080C0008080E00080A0000080A0200080A0400080A0600080A0800080A0A00080A0C00080A0E00080C0000080C0200080C0400080C0600080C0
310
800080C0A00080C0C00080C0E00080E0000080E0200080E0400080E0600080E0800080E0A00080E0C00080E0E000C0000000C0002000C0004000C0006000C0008000C000A000C000C000C000E000C0200000C0202000C0204000C0206000C0208000C020A000C020C000C020E000C0400000C0402000C0404000C0406000C0
310
408000C040A000C040C000C040E000C0600000C0602000C0604000C0606000C0608000C060A000C060C000C060E000C0800000C0802000C0804000C0806000C0808000C080A000C080C000C080E000C0A00000C0A02000C0A04000C0A06000C0A08000C0A0A000C0A0C000C0A0E000C0C00000C0C02000C0C04000C0C06000
310
C0C08000C0C0A000F0FBFF00A4A0A000808080000000FF0000FF000000FFFF00FF000000FF00FF00FFFF0000FFFFFF00FFFFFFFFFFFFFFFFFFFFFFFFFFFFFFFFFFFFFFFFFFFFFFFFFFFFFFFFFFFFFFFFFFFFFFFFFFFFFFFFFFFFFFFFFFFF00000000FFFFFFFFFFFFFFFFFFFFFF000000FFFFFFFFFFFFFFFFFFFFFFFFFFFF00
310
FFFF00FFFFFFFFFFFFFFFFFFFFFF00FFFFFFFFFFFFFFFFFFFFFFFFFFFFFFFF00FFFF00FFFFFFFFFFFFFFFFFFFFFF00FFFFFFFFFFFFFFFFFFFFFFFFFFFFFFFF00FFFF00FFFFFFFFFFFFFFFFFFFFFF00FFFFFFFFFFFFFFFFFFFFFFFFFFFFFFFF00FFFF00FFFFFFFFFFFFFFFFFFFFFF00FFFFFFFFFFFFFFFFFFFFFFFFFFFFFFFF
310
00FFFF00FFFFFFFFFFFFFFFFFFFFFF00FFFFFFFFFFFFFFFFFFFFFFFFFFFFFFFF00FFFF00FFFFFFFFFFFFFFFFFFFFFF00FFFFFFFFFFFFFFFFFFFFFFFFFFFFFFFF00FFFF00FFFFFFFFFFFFFFFFFFFFFF00FFFFFFFFFFFFFFFFFFFFFFFFFFFFFFFF00FFFF00FFFFFFFFFFFFFFFFFFFFFF00FFFFFFFFFFFFFFFFFFFFFFFFFFFFFF
310
FF00FFFF00FFFFFFFFFFFFFFFFFFFFFF00FFFFFFFFFFFFFFFFFFFFFFFFFFFFFFFF00FFFF00FFFFFFFFFFFFFFFFFFFFFF00FFFFFFFFFFFFFFFFFFFFFFFFFFFFFFFF00FFFF00FFFFFFFFFFFFFFFFFFFFFF00FFFFFFFFFFFFFFFFFFFFFFFFFFFFFFFF00FFFF00FFFFFFFFFFFFFFFFFFFFFF00FFFFFFFFFFFFFFFFFFFFFFFFFFFF
310
FFFF00FFFF00FFFFFFFFFFFFFFFFFFFFFF00FFFFFFFFFFFFFFFFFFFFFFFFFFFFFFFF00FFFF00FFFFFFFFFFFFFFFFFFFFFF00FFFFFFFFFFFFFFFFFFFFFFFFFFFFFFFF00FFFF00FFFFFFFFFFFFFFFFFFFFFF00FFFFFFFFFFFFFFFFFFFFFFFFFFFFFFFF00FFFF00FFFFFFFFFFFFFFFFFFFF00FFFFFFFFFFFFFFFFFFFFFFFFFFFF
310
FFFFFF00FFFF00FFFFFFFFFFFFFFFFFFFF00FFFFFFFFFFFFFFFFFFFFFFFFFFFFFFFFFF00FFFF00FFFFFFFFFFFFFFFFFFFF00FFFFFFFFFFFFFFFFFFFFFFFFFFFFFFFFFF00FFFF00FFFFFFFFFFFFFFFFFFFF00FFFFFFFFFFFFFFFFFFFFFFFFFFFFFFFFFF00FFFF00FFFFFFFFFFFFFFFFFFFF00FFFFFFFFFFFFFFFFFFFFFFFFFF
310
FFFFFFFF00FFFF00FFFFFFFFFFFFFFFFFF0000FFFF00FFFFFFFFFFFFFFFFFFFFFFFFFFFF00FFFF00FFFFFFFFFFFFFFFF0000FFFFFF00FFFFFFFFFFFFFFFFFFFFFFFFFFFF00FFFF00000000000000000000FFFFFFFF00FFFFFFFFFFFFFFFFFFFFFFFFFFFF00FFFFFFFFFFFFFFFFFFFFFFFFFFFFFF00FFFFFFFFFFFFFFFFFFFF
310
FFFFFFFFFF00FFFFFFFFFFFFFFFFFFFFFFFFFFFF00FFFFFFFFFFFFFFFFFFFFFFFFFFFFFFFF00FFFFFFFFFFFFFFFFFFFFFFFFFFFF00FFFFFFFFFFFFFFFFFFFFFFFFFFFFFFFF00FFFFFFFFFFFFFFFFFFFFFFFFFFFFFF00FFFFFFFFFFFFFFFFFFFFFFFFFFFFFF00FFFFFFFFFFFFFFFFFFFFFFFFFFFFFF00FFFFFFFFFFFFFFFFFF
310
FFFFFFFFFFFF00FFFF00000000000000000000FFFFFFFF00FFFFFFFFFFFFFFFFFFFFFFFFFFFF00FFFF00FFFFFFFFFFFFFFFFFF0000FFFF00
102
{BLKREFS
331
2EE
102
}
  0
BLOCK_RECORD
  5
2BA
330
1
100
AcDbSymbolTableRecord
100
AcDbBlockTableRecord
  2
AI9-BLK10
340
0
310
2800000020000000200000000100080000000000000400000000000000000000000000000000000000000000000080000080000000808000800000008000800080800000C0C0C000C0DCC000F0CAA6000020400000206000002080000020A0000020C0000020E00000400000004020000040400000406000004080000040A0
310
000040C0000040E00000600000006020000060400000606000006080000060A0000060C0000060E00000800000008020000080400000806000008080000080A0000080C0000080E00000A0000000A0200000A0400000A0600000A0800000A0A00000A0C00000A0E00000C0000000C0200000C0400000C0600000C0800000C0
310
A00000C0C00000C0E00000E0000000E0200000E0400000E0600000E0800000E0A00000E0C00000E0E00040000000400020004000400040006000400080004000A0004000C0004000E00040200000402020004020400040206000402080004020A0004020C0004020E000404000004040200040404000404060004040800040
310
40A0004040C0004040E00040600000406020004060400040606000406080004060A0004060C0004060E00040800000408020004080400040806000408080004080A0004080C0004080E00040A0000040A0200040A0400040A0600040A0800040A0A00040A0C00040A0E00040C0000040C0200040C0400040C0600040C08000
310
40C0A00040C0C00040C0E00040E0000040E0200040E0400040E0600040E0800040E0A00040E0C00040E0E00080000000800020008000400080006000800080008000A0008000C0008000E00080200000802020008020400080206000802080008020A0008020C0008020E00080400000804020008040400080406000804080
310
008040A0008040C0008040E00080600000806020008060400080606000806080008060A0008060C0008060E00080800000808020008080400080806000808080008080A0008080C0008080E00080A0000080A0200080A0400080A0600080A0800080A0A00080A0C00080A0E00080C0000080C0200080C0400080C0600080C0
310
800080C0A00080C0C00080C0E00080E0000080E0200080E0400080E0600080E0800080E0A00080E0C00080E0E000C0000000C0002000C0004000C0006000C0008000C000A000C000C000C000E000C0200000C0202000C0204000C0206000C0208000C020A000C020C000C020E000C0400000C0402000C0404000C0406000C0
310
408000C040A000C040C000C040E000C0600000C0602000C0604000C0606000C0608000C060A000C060C000C060E000C0800000C0802000C0804000C0806000C0808000C080A000C080C000C080E000C0A00000C0A02000C0A04000C0A06000C0A08000C0A0A000C0A0C000C0A0E000C0C00000C0C02000C0C04000C0C06000
310
C0C08000C0C0A000F0FBFF00A4A0A000808080000000FF0000FF000000FFFF00FF000000FF00FF00FFFF0000FFFFFF00FFFFFFFFFFFFFFFFFFFFFFFFFFFFFFFF00FFFFFFFFFFFFFFFFFFFFFFFF00FFFFFFFFFFFFFFFFFFFFFFFFFFFFFFFFFFFF00FFFFFFFFFFFFFFFFFFFFFF00FFFFFFFFFFFFFFFFFFFFFFFFFFFFFFFFFFFF
310
FF00FFFFFFFFFFFFFFFFFFFFFF00FFFFFFFFFFFFFFFFFFFFFFFFFFFFFFFFFFFFFF00FFFFFFFFFFFFFFFFFFFFFF00FFFFFFFFFFFFFFFFFFFFFFFFFFFFFFFFFFFFFF00FFFFFFFFFFFFFFFFFFFFFF00FFFFFFFFFFFFFFFFFFFFFFFFFFFFFFFFFFFFFF00FFFFFFFFFFFFFFFFFFFFFF00FFFFFFFFFFFFFFFFFFFFFFFFFFFFFFFFFF
310
FFFF00FFFFFFFFFFFFFFFFFFFFFF00FFFFFFFFFFFFFFFFFFFFFFFFFFFFFFFFFFFFFF00FFFFFFFFFFFFFFFFFFFF00FFFFFFFFFFFFFFFFFFFFFFFFFFFFFFFFFFFFFFFF00FFFFFFFFFFFFFFFFFFFF00FFFFFFFFFFFFFFFFFFFFFFFFFFFFFFFFFFFFFFFF00FFFFFFFFFFFFFFFFFFFF00FFFFFFFFFFFFFFFFFFFFFFFFFFFFFFFFFF
310
FFFFFF00FFFFFFFFFFFFFFFFFFFF00FFFFFFFFFFFFFFFFFFFFFFFFFFFFFFFFFFFFFFFF00FFFFFFFFFFFFFFFFFFFF00FFFFFFFFFFFFFFFFFFFFFFFFFFFFFFFFFFFFFFFF00FFFFFFFFFFFFFFFFFFFF00FFFFFFFFFFFFFFFFFFFFFFFFFFFFFFFFFFFFFFFF00FFFFFFFFFFFFFFFFFF00FFFFFFFFFFFFFFFFFFFFFFFFFFFFFFFFFF
310
FFFFFFFF00FFFFFFFFFFFFFFFFFF00FFFFFFFFFFFFFFFFFFFFFFFFFFFFFFFFFFFFFFFFFF00FFFFFFFFFFFFFFFFFF00FFFFFFFFFFFFFFFFFFFFFFFFFFFFFFFFFFFFFFFFFF0000000000000000000000FFFFFFFFFFFFFFFFFFFFFFFFFFFFFFFFFFFFFFFFFFFFFFFFFFFFFFFFFFFFFFFFFFFFFFFFFFFFFFFFFFFFFFFFFFFFFFFF
310
FFFFFFFFFFFFFFFFFFFFFFFFFFFFFFFFFFFFFFFFFFFFFFFFFFFFFFFFFFFFFFFFFFFFFFFFFFFFFFFFFFFFFFFFFFFFFFFFFFFFFFFFFFFFFFFFFFFFFFFFFFFFFFFFFFFFFFFFFFFFFFFFFFFFFFFFFFFFFFFFFFFFFFFFFFFFFFFFFFFFFFFFFFFFFFFFFFFFFFFFFFFFFFFFFFFFFFFFFFFFFFFFFFFFFFFFFFFFFFFFFFFFFFFFFFFFFF
310
FFFFFFFFFFFFFFFFFFFFFFFFFFFFFFFFFFFFFFFFFFFFFFFFFFFFFFFFFFFFFFFFFFFFFFFFFFFFFFFFFFFFFFFFFFFFFFFFFFFFFFFFFFFFFFFFFFFFFFFFFFFFFFFFFFFFFFFFFFFFFFFFFFFFFFFFFFFFFFFFFFFFFFFFFFFFFFFFFFFFFFFFFFFFFFFFFFFFFFFFFFFFFFFFFFFFFFFFFFFFFFFFFFFFFFFFFFFFFFFFFFFFFFFFFFFFFF
310
FFFFFFFFFFFFFFFFFFFFFFFFFFFFFFFFFFFFFFFFFFFFFFFFFFFFFFFFFFFFFFFFFFFFFFFFFFFFFFFFFFFFFFFFFFFFFFFFFFFFFFFFFFFFFFFFFFFFFFFFFFFFFFFFFFFFFFFFFFFFFFFFFFFFFFFFFFFFFFFFFFFFFFFFFFFFFFFFFFFFFFFFFFFFFFFFFFFFFFFFFFFFFFFFFFFFFFFFFFFFFFFFFFFFFFFFFFFFFFFFFFFFFFFFFFFFFF
310
FFFFFFFFFFFFFFFFFFFFFFFFFFFFFFFFFFFFFFFFFFFFFFFFFFFFFFFFFFFFFFFFFFFFFFFFFFFFFFFFFFFFFFFFFFFFFFFFFFFFFFFFFFFFFFFF
102
{BLKREFS
331
2EF
102
}
  0
BLOCK_RECORD
  5
2BE
330
1
100
AcDbSymbolTableRecord
100
AcDbBlockTableRecord
  2
AI9-BLK9
340
0
310
2800000020000000200000000100080000000000000400000000000000000000000000000000000000000000000080000080000000808000800000008000800080800000C0C0C000C0DCC000F0CAA6000020400000206000002080000020A0000020C0000020E00000400000004020000040400000406000004080000040A0
310
000040C0000040E00000600000006020000060400000606000006080000060A0000060C0000060E00000800000008020000080400000806000008080000080A0000080C0000080E00000A0000000A0200000A0400000A0600000A0800000A0A00000A0C00000A0E00000C0000000C0200000C0400000C0600000C0800000C0
310
A00000C0C00000C0E00000E0000000E0200000E0400000E0600000E0800000E0A00000E0C00000E0E00040000000400020004000400040006000400080004000A0004000C0004000E00040200000402020004020400040206000402080004020A0004020C0004020E000404000004040200040404000404060004040800040
310
40A0004040C0004040E00040600000406020004060400040606000406080004060A0004060C0004060E00040800000408020004080400040806000408080004080A0004080C0004080E00040A0000040A0200040A0400040A0600040A0800040A0A00040A0C00040A0E00040C0000040C0200040C0400040C0600040C08000
310
40C0A00040C0C00040C0E00040E0000040E0200040E0400040E0600040E0800040E0A00040E0C00040E0E00080000000800020008000400080006000800080008000A0008000C0008000E00080200000802020008020400080206000802080008020A0008020C0008020E00080400000804020008040400080406000804080
310
008040A0008040C0008040E00080600000806020008060400080606000806080008060A0008060C0008060E00080800000808020008080400080806000808080008080A0008080C0008080E00080A0000080A0200080A0400080A0600080A0800080A0A00080A0C00080A0E00080C0000080C0200080C0400080C0600080C0
310
800080C0A00080C0C00080C0E00080E0000080E0200080E0400080E0600080E0800080E0A00080E0C00080E0E000C0000000C0002000C0004000C0006000C0008000C000A000C000C000C000E000C0200000C0202000C0204000C0206000C0208000C020A000C020C000C020E000C0400000C0402000C0404000C0406000C0
310
408000C040A000C040C000C040E000C0600000C0602000C0604000C0606000C0608000C060A000C060C000C060E000C0800000C0802000C0804000C0806000C0808000C080A000C080C000C080E000C0A00000C0A02000C0A04000C0A06000C0A08000C0A0A000C0A0C000C0A0E000C0C00000C0C02000C0C04000C0C06000
310
C0C08000C0C0A000F0FBFF00A4A0A000808080000000FF0000FF000000FFFF00FF000000FF00FF00FFFF0000FFFFFF00FFFFFFFFFFFFFFFFFFFFFFFFFFFFFFFFFFFFFFFFFFFFFFFFFFFFFFFFFFFFFFFFFFFFFFFFFFFFFFFFFFFFFFFFFFFFFF0000FFFFFFFFFFFFFFFFFFFFFFFFFFFFFFFFFFFFFFFFFFFFFFFFFFFFFFFF0000
310
FF0000FFFFFFFFFFFFFFFFFFFFFFFFFFFFFFFFFFFFFFFFFFFFFFFFFFFFFF00FFFFFF0000FFFFFFFFFFFFFFFFFFFFFFFFFFFFFFFFFFFFFFFFFFFFFFFFFFFF00FFFFFFFF0000FFFFFFFFFFFFFFFFFFFFFFFFFFFFFFFFFFFFFFFFFFFFFFFF00FF00000000FF00FFFFFFFFFFFFFFFFFFFFFFFFFFFFFFFFFFFFFFFFFFFFFFFF0000
310
00FFFF00FF00FFFFFFFFFFFFFFFFFFFFFFFFFFFFFFFFFFFFFFFFFFFFFFFF0000FFFFFFFF0000FFFFFFFFFFFFFFFFFFFFFFFFFFFFFFFFFFFFFFFFFFFFFFFF0000FFFFFFFF0000FFFFFFFFFFFFFFFFFFFFFFFFFFFFFFFFFFFFFFFFFFFFFF00FF00FFFFFFFF00FF00FFFFFFFFFFFFFFFFFFFFFFFFFFFFFFFFFFFFFFFFFFFF0000
310
FFFFFFFFFF00FF00FFFFFFFFFFFFFFFFFFFFFFFFFFFFFFFFFFFFFFFFFFFF0000FFFFFFFFFFFF0000FFFFFFFFFFFFFFFFFFFFFFFFFFFFFFFFFFFFFFFFFFFF0000FFFFFFFFFFFF0000FFFFFFFFFFFFFFFFFFFFFFFFFFFFFFFFFFFFFFFFFFFF0000FFFFFFFFFFFF0000FFFFFFFFFFFFFFFFFFFFFFFFFFFFFFFFFFFFFFFFFFFF00
310
00FFFFFFFFFFFF0000FFFFFFFFFFFFFFFFFFFFFFFFFFFFFFFFFFFFFFFFFFFF0000FFFFFFFFFFFF0000FFFFFFFFFFFFFFFFFFFFFFFFFFFFFFFFFFFFFFFFFFFF0000FFFFFFFFFFFF0000FFFFFFFFFFFFFFFFFFFFFFFFFFFFFFFFFFFFFFFFFFFF0000FFFFFFFFFFFF0000FFFFFFFFFFFFFFFFFFFFFFFFFFFFFFFFFFFFFFFFFFFF
310
0000FFFFFFFFFFFF0000FFFFFFFFFFFFFFFFFFFFFFFFFFFFFFFFFFFFFFFFFFFF0000FFFFFFFFFFFF0000FFFFFFFFFFFFFFFFFFFFFFFFFFFFFFFFFFFFFFFFFFFF0000FFFFFFFFFFFF0000FFFFFFFFFFFFFFFFFFFFFFFFFFFFFFFFFFFFFFFFFFFF00FF00FFFFFFFF00FF00FFFFFFFFFFFFFFFFFFFFFFFFFFFFFFFFFFFFFFFFFF
310
FF00FF00FFFFFFFF00FF00FFFFFFFFFFFFFFFFFFFFFFFFFFFFFFFFFFFFFFFFFFFF00FF00FFFFFFFF00FF00FFFFFFFFFFFFFFFFFFFFFFFFFFFFFFFFFFFFFFFFFFFFFF0000FFFFFFFF0000FFFFFFFFFFFFFFFFFFFFFFFFFFFFFFFFFFFFFFFFFFFFFFFF00FF00FFFF00FF00FFFFFFFFFFFFFFFFFFFFFFFFFFFFFFFFFFFFFFFFFF
310
FFFFFF00FF00000000FF00FFFFFFFFFFFFFFFFFFFFFFFFFFFFFFFFFFFFFFFFFFFFFFFFFF00FFFFFFFF0000FFFFFFFFFFFFFFFFFFFFFFFFFFFFFFFFFFFFFFFFFFFFFFFFFF00FFFFFFFF00FFFFFFFFFFFFFFFFFFFFFFFFFFFFFFFFFFFFFFFFFFFFFFFFFFFFFF00000000FFFFFFFFFFFFFFFFFFFFFFFFFFFFFFFFFFFFFFFFFFFF
310
FFFFFFFFFFFFFF0000FFFFFFFFFFFFFFFFFFFFFFFFFFFFFFFFFFFFFFFFFFFFFFFFFFFFFFFFFFFFFFFFFFFFFFFFFFFFFFFFFFFFFFFFFFFFFF
102
{BLKREFS
331
2F0
102
}
  0
BLOCK_RECORD
  5
2C3
330
1
100
AcDbSymbolTableRecord
100
AcDbBlockTableRecord
  2
AI9-BLK8
340
0
310
2800000020000000200000000100080000000000000400000000000000000000000000000000000000000000000080000080000000808000800000008000800080800000C0C0C000C0DCC000F0CAA6000020400000206000002080000020A0000020C0000020E00000400000004020000040400000406000004080000040A0
310
000040C0000040E00000600000006020000060400000606000006080000060A0000060C0000060E00000800000008020000080400000806000008080000080A0000080C0000080E00000A0000000A0200000A0400000A0600000A0800000A0A00000A0C00000A0E00000C0000000C0200000C0400000C0600000C0800000C0
310
A00000C0C00000C0E00000E0000000E0200000E0400000E0600000E0800000E0A00000E0C00000E0E00040000000400020004000400040006000400080004000A0004000C0004000E00040200000402020004020400040206000402080004020A0004020C0004020E000404000004040200040404000404060004040800040
310
40A0004040C0004040E00040600000406020004060400040606000406080004060A0004060C0004060E00040800000408020004080400040806000408080004080A0004080C0004080E00040A0000040A0200040A0400040A0600040A0800040A0A00040A0C00040A0E00040C0000040C0200040C0400040C0600040C08000
310
40C0A00040C0C00040C0E00040E0000040E0200040E0400040E0600040E0800040E0A00040E0C00040E0E00080000000800020008000400080006000800080008000A0008000C0008000E00080200000802020008020400080206000802080008020A0008020C0008020E00080400000804020008040400080406000804080
310
008040A0008040C0008040E00080600000806020008060400080606000806080008060A0008060C0008060E00080800000808020008080400080806000808080008080A0008080C0008080E00080A0000080A0200080A0400080A0600080A0800080A0A00080A0C00080A0E00080C0000080C0200080C0400080C0600080C0
310
800080C0A00080C0C00080C0E00080E0000080E0200080E0400080E0600080E0800080E0A00080E0C00080E0E000C0000000C0002000C0004000C0006000C0008000C000A000C000C000C000E000C0200000C0202000C0204000C0206000C0208000C020A000C020C000C020E000C0400000C0402000C0404000C0406000C0
310
408000C040A000C040C000C040E000C0600000C0602000C0604000C0606000C0608000C060A000C060C000C060E000C0800000C0802000C0804000C0806000C0808000C080A000C080C000C080E000C0A00000C0A02000C0A04000C0A06000C0A08000C0A0A000C0A0C000C0A0E000C0C00000C0C02000C0C04000C0C06000
310
C0C08000C0C0A000F0FBFF00A4A0A000808080000000FF0000FF000000FFFF00FF000000FF00FF00FFFF0000FFFFFF00FFFFFFFFFFFFFFFFFFFFFFFFFFFFFFFFFFFFFFFFFFFFFFFFFFFFFFFFFFFFFFFFFFFFFFFFFFFFFFFFFFFFFF0000FFFFFFFFFFFF0000FFFFFFFFFFFFFFFFFFFFFFFFFFFFFFFFFFFFFFFFFFFF0000FFFF
310
FFFFFFFF0000FFFFFFFFFFFFFFFFFFFFFFFFFFFFFFFFFFFFFFFFFFFF0000FFFFFFFFFF00FF00FFFFFFFFFFFFFFFFFFFFFFFFFFFFFFFFFFFFFFFFFFFF0000FFFFFFFFFF00FF00FFFFFFFFFFFFFFFFFFFFFFFFFFFFFFFFFFFFFFFFFFFF0000FFFFFFFFFF00FF00FFFFFFFFFFFFFFFFFFFFFFFFFFFFFFFFFFFFFFFFFFFF0000FF
310
FFFFFF00FFFF00FFFFFFFFFFFFFFFFFFFFFFFFFFFFFFFFFFFFFFFFFFFF0000FFFFFFFF00FF0000FFFFFFFFFFFFFFFFFFFFFFFFFFFFFFFFFFFFFFFFFFFF0000FFFFFFFF00FF0000FFFFFFFFFFFFFFFFFFFFFFFFFFFFFFFFFFFFFFFFFFFF0000FFFFFFFF00000000FFFFFFFFFFFFFFFFFFFFFFFFFFFFFFFFFFFFFFFFFFFF0000
310
FFFFFF00FF000000FFFFFFFFFFFFFFFFFFFFFFFFFFFFFFFFFFFFFFFFFFFF0000FFFFFF00FF000000FFFFFFFFFFFFFFFFFFFFFFFFFFFFFFFFFFFFFFFFFFFF0000FFFFFF00FF000000FFFFFFFFFFFFFFFFFFFFFFFFFFFFFFFFFFFFFFFFFFFF0000FFFF00FF00FF0000FFFFFFFFFFFFFFFFFFFFFFFFFFFFFFFFFFFFFFFFFFFF00
310
00FFFF00FF00FF0000FFFFFFFFFFFFFFFFFFFFFFFFFFFFFFFFFFFFFFFFFFFF0000FFFF00FF00FF0000FFFFFFFFFFFFFFFFFFFFFFFFFFFFFFFFFFFFFFFFFFFF0000FF00FFFF00FF0000FFFFFFFFFFFFFFFFFFFFFFFFFFFFFFFFFFFFFFFFFFFF0000FF00FF00FFFF0000FFFFFFFFFFFFFFFFFFFFFFFFFFFFFFFFFFFFFFFFFFFF
310
0000FF00FF00FFFF0000FFFFFFFFFFFFFFFFFFFFFFFFFFFFFFFFFFFFFFFFFFFF0000FF00FF00FFFF0000FFFFFFFFFFFFFFFFFFFFFFFFFFFFFFFFFFFFFFFFFFFF000000FFFF00FFFF0000FFFFFFFFFFFFFFFFFFFFFFFFFFFFFFFFFFFFFFFFFFFF000000FF00FFFFFF0000FFFFFFFFFFFFFFFFFFFFFFFFFFFFFFFFFFFFFFFFFF
310
FF000000FF00FFFFFF0000FFFFFFFFFFFFFFFFFFFFFFFFFFFFFFFFFFFFFFFFFFFF0000FFFF00FFFFFF0000FFFFFFFFFFFFFFFFFFFFFFFFFFFFFFFFFFFFFFFFFFFF0000FFFF00FFFFFF0000FFFFFFFFFFFFFFFFFFFFFFFFFFFFFFFFFFFFFFFFFFFF00FFFF00FFFFFFFF0000FFFFFFFFFFFFFFFFFFFFFFFFFFFFFFFFFFFFFFFF
310
FFFF00FFFF00FFFFFFFF0000FFFFFFFFFFFFFFFFFFFFFFFFFFFFFFFFFFFFFFFFFFFF00FFFF00FFFFFFFF0000FFFFFFFFFFFFFFFFFFFFFFFFFFFFFFFFFFFFFFFFFFFF00FFFF00FFFFFFFF0000FFFFFFFFFFFFFFFFFFFFFFFFFFFFFFFFFFFFFFFFFFFF00FF00FFFFFFFFFF0000FFFFFFFFFFFFFFFFFFFFFFFFFFFFFFFFFFFFFF
310
FFFFFF000000FFFFFFFFFF0000FFFFFFFFFFFFFFFFFFFFFFFFFFFFFFFFFFFFFFFFFFFFFFFFFFFFFFFFFFFFFFFFFFFFFFFFFFFFFFFFFFFFFF
102
{BLKREFS
331
2F1
102
}
  0
BLOCK_RECORD
  5
2C8
330
1
100
AcDbSymbolTableRecord
100
AcDbBlockTableRecord
  2
AI9-BLK7
340
0
310
2800000020000000200000000100080000000000000400000000000000000000000000000000000000000000000080000080000000808000800000008000800080800000C0C0C000C0DCC000F0CAA6000020400000206000002080000020A0000020C0000020E00000400000004020000040400000406000004080000040A0
310
000040C0000040E00000600000006020000060400000606000006080000060A0000060C0000060E00000800000008020000080400000806000008080000080A0000080C0000080E00000A0000000A0200000A0400000A0600000A0800000A0A00000A0C00000A0E00000C0000000C0200000C0400000C0600000C0800000C0
310
A00000C0C00000C0E00000E0000000E0200000E0400000E0600000E0800000E0A00000E0C00000E0E00040000000400020004000400040006000400080004000A0004000C0004000E00040200000402020004020400040206000402080004020A0004020C0004020E000404000004040200040404000404060004040800040
310
40A0004040C0004040E00040600000406020004060400040606000406080004060A0004060C0004060E00040800000408020004080400040806000408080004080A0004080C0004080E00040A0000040A0200040A0400040A0600040A0800040A0A00040A0C00040A0E00040C0000040C0200040C0400040C0600040C08000
310
40C0A00040C0C00040C0E00040E0000040E0200040E0400040E0600040E0800040E0A00040E0C00040E0E00080000000800020008000400080006000800080008000A0008000C0008000E00080200000802020008020400080206000802080008020A0008020C0008020E00080400000804020008040400080406000804080
310
008040A0008040C0008040E00080600000806020008060400080606000806080008060A0008060C0008060E00080800000808020008080400080806000808080008080A0008080C0008080E00080A0000080A0200080A0400080A0600080A0800080A0A00080A0C00080A0E00080C0000080C0200080C0400080C0600080C0
310
800080C0A00080C0C00080C0E00080E0000080E0200080E0400080E0600080E0800080E0A00080E0C00080E0E000C0000000C0002000C0004000C0006000C0008000C000A000C000C000C000E000C0200000C0202000C0204000C0206000C0208000C020A000C020C000C020E000C0400000C0402000C0404000C0406000C0
310
408000C040A000C040C000C040E000C0600000C0602000C0604000C0606000C0608000C060A000C060C000C060E000C0800000C0802000C0804000C0806000C0808000C080A000C080C000C080E000C0A00000C0A02000C0A04000C0A06000C0A08000C0A0A000C0A0C000C0A0E000C0C00000C0C02000C0C04000C0C06000
310
C0C08000C0C0A000F0FBFF00A4A0A000808080000000FF0000FF000000FFFF00FF000000FF00FF00FFFF0000FFFFFF00FFFFFFFFFFFFFFFFFFFFFFFFFFFFFFFFFFFFFFFFFFFFFFFFFFFFFFFFFFFFFFFFFFFFFFFFFFFFFFFFFFFFFFFFFFFFFF0000FFFFFFFFFFFFFFFFFFFFFFFFFFFFFFFFFFFFFFFFFFFFFFFFFFFFFFFFFFFF
310
0000FFFFFFFFFFFFFFFFFFFFFFFFFFFFFFFFFFFFFFFFFFFFFFFFFFFFFFFFFFFF0000FFFFFFFFFFFFFFFFFFFFFFFFFFFFFFFFFFFFFFFFFFFFFFFFFFFFFFFFFFFF0000FFFFFFFFFFFFFFFFFFFFFFFFFFFFFFFFFFFFFFFFFFFFFFFFFFFFFFFFFFFF0000FFFFFFFFFFFFFFFFFFFFFFFFFFFFFFFFFFFFFFFFFFFFFFFFFFFFFFFFFF
310
FF0000FFFFFFFFFFFFFFFFFFFFFFFFFFFFFFFFFFFFFFFFFFFFFFFFFFFFFFFFFFFF0000FFFFFFFFFFFFFFFFFFFFFFFFFFFFFFFFFFFFFFFFFFFFFFFFFFFFFFFFFFFF0000FFFFFFFFFFFFFFFFFFFFFFFFFFFFFFFFFFFFFFFFFFFFFFFFFFFFFFFFFFFF0000FFFFFFFFFFFFFFFFFFFFFFFFFFFFFFFFFFFFFFFFFFFFFFFFFFFFFFFF
310
FFFF0000FFFFFFFFFFFFFFFFFFFFFFFFFFFFFFFFFFFFFFFFFFFFFFFFFFFFFFFFFFFF0000FFFFFFFFFFFFFFFFFFFFFFFFFFFFFFFFFFFFFFFFFFFFFFFFFFFFFFFFFFFF0000FFFFFFFFFFFFFFFFFFFFFFFFFFFFFFFFFFFFFFFFFFFFFFFFFFFFFFFFFFFF0000FFFFFFFFFFFFFFFFFFFFFFFFFFFFFFFFFFFFFFFFFFFFFFFFFFFFFF
310
FFFFFF0000FFFFFFFFFFFFFFFFFFFFFFFFFFFFFFFFFFFFFFFFFFFFFFFFFFFFFFFFFFFF0000FFFFFFFFFFFFFFFFFFFFFFFFFFFFFFFFFFFFFFFFFFFFFFFFFFFFFFFFFFFF0000FFFFFFFFFFFFFFFFFFFFFFFFFFFFFFFFFFFFFFFFFFFFFFFFFFFFFFFFFFFF0000FFFFFFFFFFFFFFFFFFFFFFFFFFFFFFFFFFFFFFFFFFFFFFFFFFFF
310
FFFFFFFF0000FFFFFFFFFFFFFFFFFFFFFFFFFFFFFFFFFFFFFFFFFFFFFFFFFFFFFFFFFFFF0000FFFFFFFFFFFFFFFFFFFFFFFFFFFFFFFFFFFFFFFFFFFFFFFFFFFFFFFFFFFF0000FFFFFFFFFFFFFFFFFFFFFFFFFFFFFFFFFFFFFFFFFFFFFFFFFFFFFFFFFFFF0000FFFFFFFFFFFFFFFFFFFFFFFFFFFFFFFFFFFFFFFFFFFFFFFFFF
310
FFFFFFFFFF0000FFFFFFFFFFFFFFFFFFFFFFFFFFFFFFFFFFFFFFFFFFFFFFFFFFFFFFFFFFFF0000FFFFFFFFFFFFFFFFFFFFFFFFFFFFFFFFFFFFFFFFFFFFFFFFFFFFFFFFFFFF0000FFFFFFFFFFFFFFFFFFFFFFFFFFFFFFFFFFFFFFFFFFFFFFFFFFFFFFFFFFFF0000FFFFFFFFFFFFFFFFFFFFFFFFFFFFFFFFFFFFFFFFFFFFFFFF
310
FFFFFFFFFFFF0000FFFFFFFFFFFFFFFFFFFFFFFFFFFFFFFFFFFFFFFFFFFFFFFFFFFFFFFFFFFF0000FFFFFFFFFFFFFFFFFFFFFFFFFFFFFFFFFFFFFFFFFFFFFFFFFFFFFFFFFFFF0000FFFFFFFFFFFFFFFFFFFFFFFFFFFFFFFFFFFFFFFFFFFFFFFFFFFFFFFFFFFF0000FFFFFFFFFFFFFFFFFFFFFFFFFFFFFFFFFFFFFFFFFFFFFF
310
FFFFFFFFFFFFFF0000FFFFFFFFFFFFFFFFFFFFFFFFFFFFFFFFFFFFFFFFFFFFFFFFFFFFFFFFFFFFFFFFFFFFFFFFFFFFFFFFFFFFFFFFFFFFFF
102
{BLKREFS
331
2F2
102
}
  0
BLOCK_RECORD
  5
2CD
330
1
100
AcDbSymbolTableRecord
100
AcDbBlockTableRecord
  2
AI9-BLK6
340
0
310
2800000020000000200000000100080000000000000400000000000000000000000000000000000000000000000080000080000000808000800000008000800080800000C0C0C000C0DCC000F0CAA6000020400000206000002080000020A0000020C0000020E00000400000004020000040400000406000004080000040A0
310
000040C0000040E00000600000006020000060400000606000006080000060A0000060C0000060E00000800000008020000080400000806000008080000080A0000080C0000080E00000A0000000A0200000A0400000A0600000A0800000A0A00000A0C00000A0E00000C0000000C0200000C0400000C0600000C0800000C0
310
A00000C0C00000C0E00000E0000000E0200000E0400000E0600000E0800000E0A00000E0C00000E0E00040000000400020004000400040006000400080004000A0004000C0004000E00040200000402020004020400040206000402080004020A0004020C0004020E000404000004040200040404000404060004040800040
310
40A0004040C0004040E00040600000406020004060400040606000406080004060A0004060C0004060E00040800000408020004080400040806000408080004080A0004080C0004080E00040A0000040A0200040A0400040A0600040A0800040A0A00040A0C00040A0E00040C0000040C0200040C0400040C0600040C08000
310
40C0A00040C0C00040C0E00040E0000040E0200040E0400040E0600040E0800040E0A00040E0C00040E0E00080000000800020008000400080006000800080008000A0008000C0008000E00080200000802020008020400080206000802080008020A0008020C0008020E00080400000804020008040400080406000804080
310
008040A0008040C0008040E00080600000806020008060400080606000806080008060A0008060C0008060E00080800000808020008080400080806000808080008080A0008080C0008080E00080A0000080A0200080A0400080A0600080A0800080A0A00080A0C00080A0E00080C0000080C0200080C0400080C0600080C0
310
800080C0A00080C0C00080C0E00080E0000080E0200080E0400080E0600080E0800080E0A00080E0C00080E0E000C0000000C0002000C0004000C0006000C0008000C000A000C000C000C000E000C0200000C0202000C0204000C0206000C0208000C020A000C020C000C020E000C0400000C0402000C0404000C0406000C0
310
408000C040A000C040C000C040E000C0600000C0602000C0604000C0606000C0608000C060A000C060C000C060E000C0800000C0802000C0804000C0806000C0808000C080A000C080C000C080E000C0A00000C0A02000C0A04000C0A06000C0A08000C0A0A000C0A0C000C0A0E000C0C00000C0C02000C0C04000C0C06000
310
C0C08000C0C0A000F0FBFF00A4A0A000808080000000FF0000FF000000FFFF00FF000000FF00FF00FFFF0000FFFFFF00FFFFFFFFFFFFFFFFFFFFFFFF00FFFFFFFFFFFFFF00FFFFFFFFFFFFFFFFFFFFFFFFFFFFFFFFFFFFFFFFFFFFFF00FFFFFFFFFFFFFF00FFFFFFFFFFFFFFFFFFFFFFFFFFFFFFFFFFFFFFFFFFFFFF00FFFF
310
FFFFFFFFFF00FFFFFFFFFFFFFFFFFFFFFFFFFFFFFFFFFFFFFFFFFFFF00FFFFFFFFFFFFFFFF00FFFFFFFFFFFFFFFFFFFFFFFFFFFFFFFFFFFFFFFFFFFF00FFFFFFFFFFFFFF00FFFFFFFFFFFFFFFFFFFFFFFFFFFFFFFFFFFFFFFFFFFFFF00FFFFFFFFFFFFFF00FFFFFFFFFFFFFFFFFFFFFFFFFFFFFFFFFFFFFFFFFFFF00FFFFFF
310
FFFFFFFFFF00FFFFFFFFFFFFFFFFFFFFFFFFFFFFFFFFFFFFFFFFFFFF00FFFFFFFFFFFFFF00FFFFFFFFFFFFFFFFFFFFFFFFFFFFFFFFFFFFFFFFFFFF00FFFFFFFFFFFFFFFF00FFFFFFFFFFFFFFFFFFFFFFFFFFFFFFFFFFFFFFFFFF00FFFFFFFFFFFFFFFFFF00FFFFFFFFFFFFFFFFFFFFFFFFFFFFFFFFFFFFFFFF00FFFFFFFFFF
310
FFFFFFFFFF00FFFFFFFFFFFFFFFFFFFFFFFFFFFFFFFFFFFFFF00FFFFFFFFFFFFFFFFFFFF00FFFFFFFFFFFFFFFFFFFFFFFFFFFFFFFFFFFF0000FFFFFFFFFFFFFFFFFFFFFF00FFFFFFFFFFFFFFFFFFFFFFFFFFFF00000000FFFFFFFFFFFFFFFFFFFFFFFFFF00FFFFFFFFFFFFFFFFFFFFFFFFFFFFFFFFFFFFFFFFFFFFFFFFFFFF
310
FFFFFFFF00FFFFFFFFFFFFFFFFFFFFFFFFFFFFFFFFFFFFFFFFFFFFFFFFFFFFFFFFFFFFFF00FFFFFFFFFFFFFFFFFFFFFFFFFFFFFFFFFFFFFFFFFFFFFFFFFFFFFFFFFFFFFF00FFFFFFFFFFFFFFFFFFFFFFFFFFFFFFFFFFFFFFFFFFFFFFFFFFFFFFFFFFFF00FFFFFFFFFFFFFFFFFFFFFFFFFFFFFFFFFFFFFFFFFFFFFFFFFFFFFF
310
FFFFFFFF00FFFFFFFFFFFFFFFFFFFFFFFFFFFFFFFFFFFFFFFFFFFFFFFFFFFFFFFFFFFF00FFFFFFFFFFFFFFFFFFFFFFFFFFFFFFFFFFFFFFFFFFFFFFFFFFFFFFFFFFFF00FFFFFFFFFFFFFFFFFFFFFFFFFFFFFFFFFFFFFFFFFFFFFFFFFFFFFFFFFFFF00FFFFFFFFFFFFFFFFFFFFFFFFFFFFFFFFFFFFFFFFFFFFFFFFFFFFFFFFFF
310
FF00FFFFFFFFFFFFFFFFFFFFFFFFFFFFFFFFFFFFFFFFFFFFFFFFFFFFFFFFFFFFFF00FFFFFFFFFFFFFFFFFFFFFFFFFFFFFFFFFFFFFFFFFFFFFFFFFFFFFFFFFFFF00FFFFFFFFFFFFFFFFFFFFFFFFFFFFFFFFFFFFFFFFFFFFFFFFFFFFFFFFFF0000FFFFFFFFFFFFFFFFFFFFFFFFFFFFFFFFFFFFFFFFFFFFFFFFFFFFFFFF0000FF
310
FFFFFFFFFFFFFFFFFFFFFFFFFFFFFFFFFFFFFFFFFFFFFFFFFF00000000FFFFFFFFFFFFFFFFFFFFFFFFFFFFFFFFFFFFFFFFFFFFFFFFFFFF0000FFFFFFFFFFFFFFFFFFFFFFFFFFFFFFFFFFFFFFFFFFFFFFFFFFFFFFFFFFFFFFFFFFFFFFFFFFFFFFFFFFFFFFFFFFFFFFFFFFFFFFFFFFFFFFFFFFFFFFFFFFFFFFFFFFFFFFFFFFFF
310
FFFFFFFFFFFFFFFFFFFFFFFFFFFFFFFFFFFFFFFFFFFFFFFFFFFFFFFFFFFFFFFFFFFFFFFFFFFFFFFFFFFFFFFFFFFFFFFFFFFFFFFFFFFFFFFF
102
{BLKREFS
331
2F3
102
}
  0
BLOCK_RECORD
  5
2D1
330
1
100
AcDbSymbolTableRecord
100
AcDbBlockTableRecord
  2
AI9-BLK5
340
0
310
2800000020000000200000000100080000000000000400000000000000000000000000000000000000000000000080000080000000808000800000008000800080800000C0C0C000C0DCC000F0CAA6000020400000206000002080000020A0000020C0000020E00000400000004020000040400000406000004080000040A0
310
000040C0000040E00000600000006020000060400000606000006080000060A0000060C0000060E00000800000008020000080400000806000008080000080A0000080C0000080E00000A0000000A0200000A0400000A0600000A0800000A0A00000A0C00000A0E00000C0000000C0200000C0400000C0600000C0800000C0
310
A00000C0C00000C0E00000E0000000E0200000E0400000E0600000E0800000E0A00000E0C00000E0E00040000000400020004000400040006000400080004000A0004000C0004000E00040200000402020004020400040206000402080004020A0004020C0004020E000404000004040200040404000404060004040800040
310
40A0004040C0004040E00040600000406020004060400040606000406080004060A0004060C0004060E00040800000408020004080400040806000408080004080A0004080C0004080E00040A0000040A0200040A0400040A0600040A0800040A0A00040A0C00040A0E00040C0000040C0200040C0400040C0600040C08000
310
40C0A00040C0C00040C0E00040E0000040E0200040E0400040E0600040E0800040E0A00040E0C00040E0E00080000000800020008000400080006000800080008000A0008000C0008000E00080200000802020008020400080206000802080008020A0008020C0008020E00080400000804020008040400080406000804080
310
008040A0008040C0008040E00080600000806020008060400080606000806080008060A0008060C0008060E00080800000808020008080400080806000808080008080A0008080C0008080E00080A0000080A0200080A0400080A0600080A0800080A0A00080A0C00080A0E00080C0000080C0200080C0400080C0600080C0
310
800080C0A00080C0C00080C0E00080E0000080E0200080E0400080E0600080E0800080E0A00080E0C00080E0E000C0000000C0002000C0004000C0006000C0008000C000A000C000C000C000E000C0200000C0202000C0204000C0206000C0208000C020A000C020C000C020E000C0400000C0402000C0404000C0406000C0
310
408000C040A000C040C000C040E000C0600000C0602000C0604000C0606000C0608000C060A000C060C000C060E000C0800000C0802000C0804000C0806000C0808000C080A000C080C000C080E000C0A00000C0A02000C0A04000C0A06000C0A08000C0A0A000C0A0C000C0A0E000C0C00000C0C02000C0C04000C0C06000
310
C0C08000C0C0A000F0FBFF00A4A0A000808080000000FF0000FF000000FFFF00FF000000FF00FF00FFFF0000FFFFFF00FFFFFFFFFFFFFFFFFFFFFFFFFFFFFFFFFFFFFFFFFFFFFFFFFFFFFFFFFFFFFFFFFFFFFFFFFFFFFFFF000000000000000000000000000000000000000000000000FFFFFFFFFFFFFFFF00FFFFFFFFFFFF
310
FFFFFFFFFFFFFFFFFFFFFFFFFFFFFFFFFFFFFFFFFFFFFFFFFF00FFFFFFFFFFFFFFFFFFFFFFFFFFFFFFFFFFFFFFFFFFFFFFFFFFFFFFFFFFFFFF00FFFFFFFFFFFFFFFFFFFFFFFFFFFFFFFFFFFFFFFFFFFFFFFFFFFFFFFFFFFFFF00FFFFFFFFFFFFFFFFFFFFFFFFFFFFFFFFFFFFFFFFFFFFFFFFFFFFFFFFFFFFFF00FFFFFFFFFF
310
FFFFFFFFFFFFFFFFFFFFFFFFFFFFFFFFFFFFFFFFFFFFFFFFFFFF00FFFFFFFFFFFFFFFFFFFFFFFFFFFFFFFFFFFFFFFFFFFFFFFFFFFFFFFFFFFFFF00FFFFFFFFFFFFFFFFFFFFFFFFFFFFFFFFFFFFFFFFFFFFFFFFFFFFFFFFFFFFFF00FFFFFFFFFFFFFFFFFFFFFFFFFFFFFFFFFFFFFFFFFFFFFFFFFFFFFFFFFFFFFF00FFFFFFFF
310
FFFFFFFFFFFFFFFFFFFFFFFFFFFFFFFFFFFFFFFFFFFFFFFFFFFFFF00FFFFFFFFFFFFFFFFFFFFFFFFFFFFFFFFFFFFFFFFFFFFFFFFFFFFFFFFFFFFFF00FFFFFFFFFFFFFFFFFFFFFFFFFFFFFFFFFFFFFFFFFFFFFFFFFFFFFFFFFFFFFF00FFFFFFFFFFFFFFFFFFFFFFFFFFFFFFFFFFFFFFFFFFFFFFFFFFFFFFFFFFFFFF00FFFFFF
310
FFFFFFFFFFFFFFFFFFFFFFFFFFFFFFFFFFFFFFFFFFFFFFFFFFFFFFFF00FFFFFFFFFFFFFFFFFFFFFFFFFFFFFFFFFFFFFFFFFFFFFFFFFFFFFFFFFFFFFF00FFFFFFFFFFFFFFFFFFFFFFFFFFFFFFFFFFFFFFFFFFFFFFFFFFFFFFFFFFFFFF00FFFFFFFFFFFFFFFFFFFFFFFFFFFFFFFFFFFFFFFFFFFFFFFFFFFFFFFFFFFFFF00FFFF
310
FFFFFFFFFFFFFFFFFFFFFFFFFFFFFFFFFFFFFFFFFFFFFFFFFFFFFFFFFF00FFFFFFFFFFFFFFFFFFFFFFFFFFFFFFFFFFFFFFFFFFFFFFFFFFFFFFFFFFFFFF00FFFFFFFFFFFFFFFFFFFFFFFFFFFFFFFFFFFFFFFFFFFFFFFFFFFFFFFFFFFFFF00FFFFFFFFFFFFFFFFFFFFFFFFFFFFFFFFFFFFFFFFFFFFFFFFFFFFFFFFFFFFFF00FF
310
FFFFFFFFFFFFFFFFFFFFFFFFFFFFFFFFFFFFFFFFFFFFFFFFFFFFFFFFFFFF00FFFFFFFFFFFFFFFFFFFFFFFFFFFFFFFFFFFFFFFFFFFFFFFFFFFFFFFFFFFFFF00FFFFFFFFFFFFFFFFFFFFFFFFFFFFFFFFFFFFFFFFFFFFFFFFFFFFFFFFFFFFFF00FFFFFFFFFFFFFFFFFFFFFFFFFFFFFFFFFFFFFFFFFFFFFFFFFFFFFFFFFFFFFF00
310
FFFFFFFFFFFFFFFFFFFFFFFFFFFFFFFFFFFFFFFFFFFFFFFFFFFFFFFFFFFFFF00FFFFFFFFFFFFFFFFFFFFFFFFFFFFFFFFFFFFFFFFFFFFFFFFFFFFFFFFFFFFFF00FFFFFFFFFFFFFFFFFFFFFFFFFFFFFFFFFFFFFFFFFFFFFFFFFFFFFFFFFFFFFF00FFFFFFFFFFFFFFFFFFFFFFFFFFFFFFFFFFFFFFFFFFFFFFFFFFFFFFFFFFFFFF
310
00FFFFFFFFFFFFFFFFFFFFFFFFFFFF000000000000000000FFFFFFFFFFFFFFFF00FFFFFFFFFFFFFFFFFFFFFFFFFFFF00FFFFFFFFFFFFFFFF
102
{BLKREFS
331
2F4
102
}
  0
BLOCK_RECORD
  5
2D6
330
1
100
AcDbSymbolTableRecord
100
AcDbBlockTableRecord
  2
AI9-BLK4
340
0
310
2800000020000000200000000100080000000000000400000000000000000000000000000000000000000000000080000080000000808000800000008000800080800000C0C0C000C0DCC000F0CAA6000020400000206000002080000020A0000020C0000020E00000400000004020000040400000406000004080000040A0
310
000040C0000040E00000600000006020000060400000606000006080000060A0000060C0000060E00000800000008020000080400000806000008080000080A0000080C0000080E00000A0000000A0200000A0400000A0600000A0800000A0A00000A0C00000A0E00000C0000000C0200000C0400000C0600000C0800000C0
310
A00000C0C00000C0E00000E0000000E0200000E0400000E0600000E0800000E0A00000E0C00000E0E00040000000400020004000400040006000400080004000A0004000C0004000E00040200000402020004020400040206000402080004020A0004020C0004020E000404000004040200040404000404060004040800040
310
40A0004040C0004040E00040600000406020004060400040606000406080004060A0004060C0004060E00040800000408020004080400040806000408080004080A0004080C0004080E00040A0000040A0200040A0400040A0600040A0800040A0A00040A0C00040A0E00040C0000040C0200040C0400040C0600040C08000
310
40C0A00040C0C00040C0E00040E0000040E0200040E0400040E0600040E0800040E0A00040E0C00040E0E00080000000800020008000400080006000800080008000A0008000C0008000E00080200000802020008020400080206000802080008020A0008020C0008020E00080400000804020008040400080406000804080
310
008040A0008040C0008040E00080600000806020008060400080606000806080008060A0008060C0008060E00080800000808020008080400080806000808080008080A0008080C0008080E00080A0000080A0200080A0400080A0600080A0800080A0A00080A0C00080A0E00080C0000080C0200080C0400080C0600080C0
310
800080C0A00080C0C00080C0E00080E0000080E0200080E0400080E0600080E0800080E0A00080E0C00080E0E000C0000000C0002000C0004000C0006000C0008000C000A000C000C000C000E000C0200000C0202000C0204000C0206000C0208000C020A000C020C000C020E000C0400000C0402000C0404000C0406000C0
310
408000C040A000C040C000C040E000C0600000C0602000C0604000C0606000C0608000C060A000C060C000C060E000C0800000C0802000C0804000C0806000C0808000C080A000C080C000C080E000C0A00000C0A02000C0A04000C0A06000C0A08000C0A0A000C0A0C000C0A0E000C0C00000C0C02000C0C04000C0C06000
310
C0C08000C0C0A000F0FBFF00A4A0A000808080000000FF0000FF000000FFFF00FF000000FF00FF00FFFF0000FFFFFF00FFFFFFFFFFFFFFFFFFFFFFFFFFFFFFFFFFFFFFFFFFFFFFFFFFFFFFFFFFFFFFFFFFFFFFFFFFFFFFFFFFFFFFFFFFFF00000000FFFFFFFFFFFFFFFFFFFFFF000000FFFFFFFFFFFFFFFFFFFFFFFFFFFF00
310
FFFF00FFFFFFFFFFFFFFFFFFFFFF00FFFFFFFFFFFFFFFFFFFFFFFFFFFFFFFF00FFFF00FFFFFFFFFFFFFFFFFFFFFF00FFFFFFFFFFFFFFFFFFFFFFFFFFFFFFFF00FFFF00FFFFFFFFFFFFFFFFFFFFFF00FFFFFFFFFFFFFFFFFFFFFFFFFFFFFFFF00FFFF00FFFFFFFFFFFFFFFFFFFFFF00FFFFFFFFFFFFFFFFFFFFFFFFFFFFFFFF
310
00FFFF00FFFFFFFFFFFFFFFFFFFFFF00FFFFFFFFFFFFFFFFFFFFFFFFFFFFFFFF00FFFF00FFFFFFFFFFFFFFFFFFFFFF00FFFFFFFFFFFFFFFFFFFFFFFFFFFFFFFF00FFFF00FFFFFFFFFFFFFFFFFFFFFF00FFFFFFFFFFFFFFFFFFFFFFFFFFFFFFFF00FFFF00FFFFFFFFFFFFFFFFFFFFFF00FFFFFFFFFFFFFFFFFFFFFFFFFFFFFF
310
FF00FFFF00FFFFFFFFFFFFFFFFFFFFFF00FFFFFFFFFFFFFFFFFFFFFFFFFFFFFFFF00FFFF00FFFFFFFFFFFFFFFFFFFFFF00FFFFFFFFFFFFFFFFFFFFFFFFFFFFFFFF00FFFF00FFFFFFFFFFFFFFFFFFFFFF00FFFFFFFFFFFFFFFFFFFFFFFFFFFFFFFF00FFFF00FFFFFFFFFFFFFFFFFFFFFF00FFFFFFFFFFFFFFFFFFFFFFFFFFFF
310
FFFF00FFFF00FFFFFFFFFFFFFFFFFFFFFF00FFFFFFFFFFFFFFFFFFFFFFFFFFFFFFFF00FFFF00FFFFFFFFFFFFFFFFFFFFFF00FFFFFFFFFFFFFFFFFFFFFFFFFFFFFFFF00FFFF00FFFFFFFFFFFFFFFFFFFFFF00FFFFFFFFFFFFFFFFFFFFFFFFFFFFFFFF00FFFF00FFFFFFFFFFFFFFFFFFFF00FFFFFFFFFFFFFFFFFFFFFFFFFFFF
310
FFFFFF00FFFF00FFFFFFFFFFFFFFFFFFFF00FFFFFFFFFFFFFFFFFFFFFFFFFFFFFFFFFF00FFFF00FFFFFFFFFFFFFFFFFFFF00FFFFFFFFFFFFFFFFFFFFFFFFFFFFFFFFFF00FFFF00FFFFFFFFFFFFFFFFFFFF00FFFFFFFFFFFFFFFFFFFFFFFFFFFFFFFFFF00FFFF00FFFFFFFFFFFFFFFFFFFF00FFFFFFFFFFFFFFFFFFFFFFFFFF
310
FFFFFFFF00FFFF00FFFFFFFFFFFFFFFFFF0000FFFF00FFFFFFFFFFFFFFFFFFFFFFFFFFFF00FFFF00FFFFFFFFFFFFFFFF0000FFFFFF00FFFFFFFFFFFFFFFFFFFFFFFFFFFF00FFFF00000000000000000000FFFFFFFF00FFFFFFFFFFFFFFFFFFFFFFFFFFFF00FFFFFFFFFFFFFFFFFFFFFFFFFFFFFF00FFFFFFFFFFFFFFFFFFFF
310
FFFFFFFFFF00FFFFFFFFFFFFFFFFFFFFFFFFFFFF00FFFFFFFFFFFFFFFFFFFFFFFFFFFFFFFF00FFFFFFFFFFFFFFFFFFFFFFFFFFFF00FFFFFFFFFFFFFFFFFFFFFFFFFFFFFFFF00FFFFFFFFFFFFFFFFFFFFFFFFFFFFFF00FFFFFFFFFFFFFFFFFFFFFFFFFFFFFF00FFFFFFFFFFFFFFFFFFFFFFFFFFFFFF00FFFFFFFFFFFFFFFFFF
310
FFFFFFFFFFFF00FFFF00000000000000000000FFFFFFFF00FFFFFFFFFFFFFFFFFFFFFFFFFFFF00FFFF00FFFFFFFFFFFFFFFFFF0000FFFF00
102
{BLKREFS
331
2F5
102
}
  0
BLOCK_RECORD
  5
2DB
330
1
100
AcDbSymbolTableRecord
100
AcDbBlockTableRecord
  2
AI9-BLK3
340
0
310
2800000020000000200000000100080000000000000400000000000000000000000000000000000000000000000080000080000000808000800000008000800080800000C0C0C000C0DCC000F0CAA6000020400000206000002080000020A0000020C0000020E00000400000004020000040400000406000004080000040A0
310
000040C0000040E00000600000006020000060400000606000006080000060A0000060C0000060E00000800000008020000080400000806000008080000080A0000080C0000080E00000A0000000A0200000A0400000A0600000A0800000A0A00000A0C00000A0E00000C0000000C0200000C0400000C0600000C0800000C0
310
A00000C0C00000C0E00000E0000000E0200000E0400000E0600000E0800000E0A00000E0C00000E0E00040000000400020004000400040006000400080004000A0004000C0004000E00040200000402020004020400040206000402080004020A0004020C0004020E000404000004040200040404000404060004040800040
310
40A0004040C0004040E00040600000406020004060400040606000406080004060A0004060C0004060E00040800000408020004080400040806000408080004080A0004080C0004080E00040A0000040A0200040A0400040A0600040A0800040A0A00040A0C00040A0E00040C0000040C0200040C0400040C0600040C08000
310
40C0A00040C0C00040C0E00040E0000040E0200040E0400040E0600040E0800040E0A00040E0C00040E0E00080000000800020008000400080006000800080008000A0008000C0008000E00080200000802020008020400080206000802080008020A0008020C0008020E00080400000804020008040400080406000804080
310
008040A0008040C0008040E00080600000806020008060400080606000806080008060A0008060C0008060E00080800000808020008080400080806000808080008080A0008080C0008080E00080A0000080A0200080A0400080A0600080A0800080A0A00080A0C00080A0E00080C0000080C0200080C0400080C0600080C0
310
800080C0A00080C0C00080C0E00080E0000080E0200080E0400080E0600080E0800080E0A00080E0C00080E0E000C0000000C0002000C0004000C0006000C0008000C000A000C000C000C000E000C0200000C0202000C0204000C0206000C0208000C020A000C020C000C020E000C0400000C0402000C0404000C0406000C0
310
408000C040A000C040C000C040E000C0600000C0602000C0604000C0606000C0608000C060A000C060C000C060E000C0800000C0802000C0804000C0806000C0808000C080A000C080C000C080E000C0A00000C0A02000C0A04000C0A06000C0A08000C0A0A000C0A0C000C0A0E000C0C00000C0C02000C0C04000C0C06000
310
C0C08000C0C0A000F0FBFF00A4A0A000808080000000FF0000FF000000FFFF00FF000000FF00FF00FFFF0000FFFFFF00FFFFFFFFFFFFFFFFFFFFFFFFFFFFFFFFFFFFFFFFFFFFFFFFFFFFFFFFFFFFFFFFFFFFFFFFFFFFFFFFFFFFFFFFFFFFFF0000FFFFFFFFFFFFFFFFFFFFFFFFFFFFFFFFFFFFFFFFFFFFFFFFFFFFFFFFFFFF
310
0000FFFFFFFFFFFFFFFFFFFFFFFFFFFFFFFFFFFFFFFFFFFFFFFFFFFFFFFFFFFF0000FFFFFFFFFFFFFFFFFFFFFFFFFFFFFFFFFFFFFFFFFFFFFFFFFFFFFFFFFFFF0000FFFFFFFFFFFFFFFFFFFFFFFFFFFFFFFFFFFFFFFFFFFFFFFFFFFFFFFFFFFF0000FFFFFFFFFFFFFFFFFFFFFFFFFFFFFFFFFFFFFFFFFFFFFFFFFFFFFFFFFF
310
FF0000FFFFFFFFFFFFFFFFFFFFFFFFFFFFFFFFFFFFFFFFFFFFFFFFFFFFFFFFFFFF0000FFFFFFFFFFFFFFFFFFFFFFFFFFFFFFFFFFFFFFFFFFFFFFFFFFFFFFFFFFFF0000FFFFFFFFFFFFFFFFFFFFFFFFFFFFFFFFFFFFFFFFFFFFFFFFFFFFFFFFFFFF0000FFFFFFFFFFFFFFFFFFFFFFFFFFFFFFFFFFFFFFFFFFFFFFFFFFFFFFFF
310
FFFF0000FFFFFFFFFFFFFFFFFFFFFFFFFFFFFFFFFFFFFFFFFFFFFFFFFFFFFFFFFFFF0000FFFFFFFFFFFFFFFFFFFFFFFFFFFFFFFFFFFFFFFFFFFFFFFFFFFFFFFFFFFF0000FFFFFFFFFFFFFFFFFFFFFFFFFFFFFFFFFFFFFFFFFFFFFFFFFFFFFFFFFFFF0000FFFFFFFFFFFFFFFFFFFFFFFFFFFFFFFFFFFFFFFFFFFFFFFFFFFFFF
310
FFFFFF0000FFFFFFFFFFFFFFFFFFFFFFFFFFFFFFFFFFFFFFFFFFFFFFFFFFFFFFFFFFFF0000FFFFFFFFFFFFFFFFFFFFFFFFFFFFFFFFFFFFFFFFFFFFFFFFFFFFFFFFFFFF0000FFFFFFFFFFFFFFFFFFFFFFFFFFFFFFFFFFFFFFFFFFFFFFFFFFFFFFFFFFFF0000FFFFFFFFFFFFFFFFFFFFFFFFFFFFFFFFFFFFFFFFFFFFFFFFFFFF
310
FFFFFFFF0000FFFFFFFFFFFFFFFFFFFFFFFFFFFFFFFFFFFFFFFFFFFFFFFFFFFFFFFFFFFF0000FFFFFFFFFFFFFFFFFFFFFFFFFFFFFFFFFFFFFFFFFFFFFFFFFFFFFFFFFFFF0000FFFFFFFFFFFFFFFFFFFFFFFFFFFFFFFFFFFFFFFFFFFFFFFFFFFFFFFFFFFF0000FFFFFFFFFFFFFFFFFFFFFFFFFFFFFFFFFFFFFFFFFFFFFFFFFF
310
FFFFFFFFFF0000FFFFFFFFFFFFFFFFFFFFFFFFFFFFFFFFFFFFFFFFFFFFFFFFFFFFFFFFFFFF0000FFFFFFFFFFFFFFFFFFFFFFFFFFFFFFFFFFFFFFFFFFFFFFFFFFFFFFFFFFFF0000FFFFFFFFFFFFFFFFFFFFFFFFFFFFFFFFFFFFFFFFFFFFFFFFFFFFFFFFFFFF0000FFFFFFFFFFFFFFFFFFFFFFFFFFFFFFFFFFFFFFFFFFFFFFFF
310
FFFFFFFFFFFF0000FFFFFFFFFFFFFFFFFFFFFFFFFFFFFFFFFFFFFFFFFFFFFFFFFFFFFFFFFFFF0000FFFFFFFFFFFFFFFFFFFFFFFFFFFFFFFFFFFFFFFFFFFFFFFFFFFFFFFFFFFF0000FFFFFFFFFFFFFFFFFFFFFFFFFFFFFFFFFFFFFFFFFFFFFFFFFFFFFFFFFFFF0000FFFFFFFFFFFFFFFFFFFFFFFFFFFFFFFFFFFFFFFFFFFFFF
310
FFFFFFFFFFFFFF0000FFFFFFFFFFFFFFFFFFFFFFFFFFFFFFFFFFFFFFFFFFFFFFFFFFFFFFFFFFFFFFFFFFFFFFFFFFFFFFFFFFFFFFFFFFFFFF
102
{BLKREFS
331
2F6
102
}
  0
BLOCK_RECORD
  5
2E0
330
1
100
AcDbSymbolTableRecord
100
AcDbBlockTableRecord
  2
AI9-BLK2
340
0
310
2800000020000000200000000100080000000000000400000000000000000000000000000000000000000000000080000080000000808000800000008000800080800000C0C0C000C0DCC000F0CAA6000020400000206000002080000020A0000020C0000020E00000400000004020000040400000406000004080000040A0
310
000040C0000040E00000600000006020000060400000606000006080000060A0000060C0000060E00000800000008020000080400000806000008080000080A0000080C0000080E00000A0000000A0200000A0400000A0600000A0800000A0A00000A0C00000A0E00000C0000000C0200000C0400000C0600000C0800000C0
310
A00000C0C00000C0E00000E0000000E0200000E0400000E0600000E0800000E0A00000E0C00000E0E00040000000400020004000400040006000400080004000A0004000C0004000E00040200000402020004020400040206000402080004020A0004020C0004020E000404000004040200040404000404060004040800040
310
40A0004040C0004040E00040600000406020004060400040606000406080004060A0004060C0004060E00040800000408020004080400040806000408080004080A0004080C0004080E00040A0000040A0200040A0400040A0600040A0800040A0A00040A0C00040A0E00040C0000040C0200040C0400040C0600040C08000
310
40C0A00040C0C00040C0E00040E0000040E0200040E0400040E0600040E0800040E0A00040E0C00040E0E00080000000800020008000400080006000800080008000A0008000C0008000E00080200000802020008020400080206000802080008020A0008020C0008020E00080400000804020008040400080406000804080
310
008040A0008040C0008040E00080600000806020008060400080606000806080008060A0008060C0008060E00080800000808020008080400080806000808080008080A0008080C0008080E00080A0000080A0200080A0400080A0600080A0800080A0A00080A0C00080A0E00080C0000080C0200080C0400080C0600080C0
310
800080C0A00080C0C00080C0E00080E0000080E0200080E0400080E0600080E0800080E0A00080E0C00080E0E000C0000000C0002000C0004000C0006000C0008000C000A000C000C000C000E000C0200000C0202000C0204000C0206000C0208000C020A000C020C000C020E000C0400000C0402000C0404000C0406000C0
310
408000C040A000C040C000C040E000C0600000C0602000C0604000C0606000C0608000C060A000C060C000C060E000C0800000C0802000C0804000C0806000C0808000C080A000C080C000C080E000C0A00000C0A02000C0A04000C0A06000C0A08000C0A0A000C0A0C000C0A0E000C0C00000C0C02000C0C04000C0C06000
310
C0C08000C0C0A000F0FBFF00A4A0A000808080000000FF0000FF000000FFFF00FF000000FF00FF00FFFF0000FFFFFF00FFFFFFFFFFFFFFFFFFFFFFFFFFFFFFFFFFFFFFFFFFFFFFFFFFFFFFFFFFFFFFFFFFFFFFFFFFFFFFFFFFFFFFFFFFFFFF0000FFFFFFFFFFFFFFFFFFFFFFFFFFFFFFFFFFFFFFFFFFFFFFFFFFFFFFFFFFFF
310
0000FFFFFFFFFFFFFFFFFFFFFFFFFFFFFFFFFFFFFFFFFFFFFFFFFFFFFFFFFFFF0000FFFFFFFFFFFFFFFFFFFFFFFFFFFFFFFFFFFFFFFFFFFFFFFFFFFFFFFFFF00FFFF00FFFFFFFFFFFFFFFFFFFFFFFFFFFFFFFFFFFFFFFFFFFFFFFFFFFFFFFF00FFFF00FFFFFFFFFFFFFFFFFFFFFFFFFFFFFFFFFFFFFFFFFFFFFFFFFFFFFFFF
310
00FF0000FFFFFFFFFFFFFFFFFFFFFFFFFFFFFFFFFFFFFFFFFFFFFFFFFFFFFFFF00FF0000FFFFFFFFFFFFFFFFFFFFFFFFFFFFFFFFFFFFFFFFFFFFFFFFFFFFFFFF00FF0000FFFFFFFFFFFFFFFFFFFFFFFFFFFFFFFFFFFFFFFFFFFFFFFFFFFFFFFF00000000FFFFFFFFFFFFFFFFFFFFFFFFFFFFFFFFFFFFFFFFFFFFFFFFFFFFFF
310
00FF00FF0000FFFFFFFFFFFFFFFFFFFFFFFFFFFFFFFFFFFFFFFFFFFFFFFFFFFF00FF00FF0000FFFFFFFFFFFFFFFFFFFFFFFFFFFFFFFFFFFFFFFFFFFFFFFFFFFF00FF00FF0000FFFFFFFFFFFFFFFFFFFFFFFFFFFFFFFFFFFFFFFFFFFFFFFFFFFF00FF00FF0000FFFFFFFFFFFFFFFFFFFFFFFFFFFFFFFFFFFFFFFFFFFFFFFFFF
310
FF00FF00FF0000FFFFFFFFFFFFFFFFFFFFFFFFFFFFFFFFFFFFFFFFFFFFFFFFFFFF0000FFFF0000FFFFFFFFFFFFFFFFFFFFFFFFFFFFFFFFFFFFFFFFFFFFFFFFFF00FF00FFFF00FF00FFFFFFFFFFFFFFFFFFFFFFFFFFFFFFFFFFFFFFFFFFFFFFFF00FF00FFFF00FF00FFFFFFFFFFFFFFFFFFFFFFFFFFFFFFFFFFFFFFFFFFFFFF
310
FF00FF00FFFFFF0000FFFFFFFFFFFFFFFFFFFFFFFFFFFFFFFFFFFFFFFFFFFFFFFF00FF00FFFFFF0000FFFFFFFFFFFFFFFFFFFFFFFFFFFFFFFFFFFFFFFFFFFFFFFF00FF00FFFFFF0000FFFFFFFFFFFFFFFFFFFFFFFFFFFFFFFFFFFFFFFFFFFFFFFF0000FFFFFFFF0000FFFFFFFFFFFFFFFFFFFFFFFFFFFFFFFFFFFFFFFFFFFF
310
FF00FF00FFFFFFFF00FF00FFFFFFFFFFFFFFFFFFFFFFFFFFFFFFFFFFFFFFFFFFFF00FF00FFFFFFFF00FF00FFFFFFFFFFFFFFFFFFFFFFFFFFFFFFFFFFFFFFFFFFFF00FF00FFFFFFFF00FF00FFFFFFFFFFFFFFFFFFFFFFFFFFFFFFFFFFFFFFFFFFFF00FF00FFFFFFFF00FF00FFFFFFFFFFFFFFFFFFFFFFFFFFFFFFFFFFFFFFFF
310
FFFF00FF00FFFFFFFFFF0000FFFFFFFFFFFFFFFFFFFFFFFFFFFFFFFFFFFFFFFFFFFF0000FFFFFFFFFFFF0000FFFFFFFFFFFFFFFFFFFFFFFFFFFFFFFFFFFFFFFFFF00FF00FFFFFFFFFFFF00FF00FFFFFFFFFFFFFFFFFFFFFFFFFFFFFFFFFFFFFFFF00FF00FFFFFFFFFFFF00FF00FFFFFFFFFFFFFFFFFFFFFFFFFFFFFFFFFFFF
310
FFFF000000FFFFFFFFFFFF000000FFFFFFFFFFFFFFFFFFFFFFFFFFFFFFFFFFFFFFFFFFFFFFFFFFFFFFFFFFFFFFFFFFFFFFFFFFFFFFFFFFFF
102
{BLKREFS
331
2F7
102
}
  0
BLOCK_RECORD
  5
2E5
330
1
100
AcDbSymbolTableRecord
100
AcDbBlockTableRecord
  2
AI9-BLK1
340
0
310
2800000020000000200000000100080000000000000400000000000000000000000000000000000000000000000080000080000000808000800000008000800080800000C0C0C000C0DCC000F0CAA6000020400000206000002080000020A0000020C0000020E00000400000004020000040400000406000004080000040A0
310
000040C0000040E00000600000006020000060400000606000006080000060A0000060C0000060E00000800000008020000080400000806000008080000080A0000080C0000080E00000A0000000A0200000A0400000A0600000A0800000A0A00000A0C00000A0E00000C0000000C0200000C0400000C0600000C0800000C0
310
A00000C0C00000C0E00000E0000000E0200000E0400000E0600000E0800000E0A00000E0C00000E0E00040000000400020004000400040006000400080004000A0004000C0004000E00040200000402020004020400040206000402080004020A0004020C0004020E000404000004040200040404000404060004040800040
310
40A0004040C0004040E00040600000406020004060400040606000406080004060A0004060C0004060E00040800000408020004080400040806000408080004080A0004080C0004080E00040A0000040A0200040A0400040A0600040A0800040A0A00040A0C00040A0E00040C0000040C0200040C0400040C0600040C08000
310
40C0A00040C0C00040C0E00040E0000040E0200040E0400040E0600040E0800040E0A00040E0C00040E0E00080000000800020008000400080006000800080008000A0008000C0008000E00080200000802020008020400080206000802080008020A0008020C0008020E00080400000804020008040400080406000804080
310
008040A0008040C0008040E00080600000806020008060400080606000806080008060A0008060C0008060E00080800000808020008080400080806000808080008080A0008080C0008080E00080A0000080A0200080A0400080A0600080A0800080A0A00080A0C00080A0E00080C0000080C0200080C0400080C0600080C0
310
800080C0A00080C0C00080C0E00080E0000080E0200080E0400080E0600080E0800080E0A00080E0C00080E0E000C0000000C0002000C0004000C0006000C0008000C000A000C000C000C000E000C0200000C0202000C0204000C0206000C0208000C020A000C020C000C020E000C0400000C0402000C0404000C0406000C0
310
408000C040A000C040C000C040E000C0600000C0602000C0604000C0606000C0608000C060A000C060C000C060E000C0800000C0802000C0804000C0806000C0808000C080A000C080C000C080E000C0A00000C0A02000C0A04000C0A06000C0A08000C0A0A000C0A0C000C0A0E000C0C00000C0C02000C0C04000C0C06000
310
C0C08000C0C0A000F0FBFF00A4A0A000808080000000FF0000FF000000FFFF00FF000000FF00FF00FFFF0000FFFFFF00FFFFFFFFFFFFFFFFFFFFFFFFFFFFFFFFFFFFFFFFFFFFFFFFFFFFFFFFFFFFFFFFFFFFFFFFFFFFFFFFFFFFFF00000000000000000000FFFFFFFFFFFFFFFFFFFFFFFFFFFFFFFFFFFFFFFFFFFF00FFFFFF
310
FFFFFFFFFF00FFFFFFFFFFFFFFFFFFFFFFFFFFFFFFFFFFFFFFFFFFFF00FFFFFFFFFFFFFFFF00FFFFFFFFFFFFFFFFFFFFFFFFFFFFFFFFFFFFFFFFFFFF00FFFFFFFFFFFFFFFF00FFFFFFFFFFFFFFFFFFFFFFFFFFFFFFFFFFFFFFFFFFFF00FF0000000000000000FFFFFFFFFFFFFFFFFFFFFFFFFFFFFFFFFFFFFFFFFFFF00FF00
310
FFFFFFFFFFFFFFFFFFFFFFFFFFFFFFFFFFFFFFFFFFFFFFFFFFFFFFFFFF00FF00FFFFFFFFFFFFFFFFFFFFFFFFFFFFFFFFFFFFFFFFFFFFFFFFFFFFFFFFFF00FF00FFFFFFFFFFFFFFFFFFFFFFFFFFFFFFFFFFFFFFFFFFFFFFFFFFFFFFFFFF00FF00FFFFFFFFFFFFFFFFFFFFFFFFFFFFFFFFFFFFFFFFFFFFFFFFFFFFFFFFFF00FF
310
00FFFFFFFFFFFFFFFFFFFFFFFFFFFFFFFFFFFFFFFFFFFFFFFFFFFFFFFFFF00FF00FFFFFFFFFFFFFFFFFFFFFFFFFFFFFFFFFFFFFFFFFFFFFFFFFFFFFFFFFF00FF00FFFFFFFFFFFFFFFFFFFFFFFFFFFFFFFFFFFFFFFFFFFFFFFFFFFFFFFFFF00FF00FFFFFFFFFFFFFFFFFFFFFFFFFFFFFFFFFFFFFFFFFFFFFFFFFFFFFFFFFF00
310
FF00000000000000FFFFFFFFFFFFFFFFFFFFFFFFFFFFFFFFFFFFFFFFFFFFFF00FFFFFFFFFFFFFF00FFFFFFFFFFFFFFFFFFFFFFFFFFFFFFFFFFFFFFFFFFFFFF00FFFFFFFFFFFFFF00FFFFFFFFFFFFFFFFFFFFFFFFFFFFFFFFFFFFFFFFFFFFFF00FFFFFFFFFFFFFF00FFFFFFFFFFFFFFFFFFFFFFFFFFFFFFFFFFFFFFFFFFFFFF
310
00FF00000000000000FFFFFFFFFFFFFFFFFFFFFFFFFFFFFFFFFFFFFFFFFFFFFF00FF00FFFFFFFFFFFFFFFFFFFFFFFFFFFFFFFFFFFFFFFFFFFFFFFFFFFFFFFFFF00FF00FFFFFFFFFFFFFFFFFFFFFFFFFFFFFFFFFFFFFFFFFFFFFFFFFFFFFFFFFF00FF00FFFFFFFFFFFFFFFFFFFFFFFFFFFFFFFFFFFFFFFFFFFFFFFFFFFFFFFF
310
FF00FF00FFFFFFFFFFFFFFFFFFFFFFFFFFFFFFFFFFFFFFFFFFFFFFFFFFFFFFFFFF00FF00FFFFFFFFFFFFFFFFFFFFFFFFFFFFFFFFFFFFFFFFFFFFFFFFFFFFFFFFFF00FF00FFFFFFFFFFFFFFFFFFFFFFFFFFFFFFFFFFFFFFFFFFFFFFFFFFFFFFFFFF00FF00FFFFFFFFFFFFFFFFFFFFFFFFFFFFFFFFFFFFFFFFFFFFFFFFFFFFFF
310
FFFF00FF0000000000000000FFFFFFFFFFFFFFFFFFFFFFFFFFFFFFFFFFFFFFFFFFFF00FFFFFFFFFFFFFFFF00FFFFFFFFFFFFFFFFFFFFFFFFFFFFFFFFFFFFFFFFFFFF00FFFFFFFFFFFFFFFF00FFFFFFFFFFFFFFFFFFFFFFFFFFFFFFFFFFFFFFFFFFFF00FFFFFFFFFFFFFFFF00FFFFFFFFFFFFFFFFFFFFFFFFFFFFFFFFFFFFFF
310
FFFFFF00000000000000000000FFFFFFFFFFFFFFFFFFFFFFFFFFFFFFFFFFFFFFFFFFFFFFFFFFFFFFFFFFFFFFFFFFFFFFFFFFFFFFFFFFFFFF
102
{BLKREFS
331
2F8
102
}
  0
BLOCK_RECORD
  5
2EA
330
1
100
AcDbSymbolTableRecord
100
AcDbBlockTableRecord
  2
HD_LLC_logo_OT5
340
0
310
2800000020000000200000000100080000000000000400000000000000000000000000000000000000000000000080000080000000808000800000008000800080800000C0C0C000C0DCC000F0CAA6000020400000206000002080000020A0000020C0000020E00000400000004020000040400000406000004080000040A0
310
000040C0000040E00000600000006020000060400000606000006080000060A0000060C0000060E00000800000008020000080400000806000008080000080A0000080C0000080E00000A0000000A0200000A0400000A0600000A0800000A0A00000A0C00000A0E00000C0000000C0200000C0400000C0600000C0800000C0
310
A00000C0C00000C0E00000E0000000E0200000E0400000E0600000E0800000E0A00000E0C00000E0E00040000000400020004000400040006000400080004000A0004000C0004000E00040200000402020004020400040206000402080004020A0004020C0004020E000404000004040200040404000404060004040800040
310
40A0004040C0004040E00040600000406020004060400040606000406080004060A0004060C0004060E00040800000408020004080400040806000408080004080A0004080C0004080E00040A0000040A0200040A0400040A0600040A0800040A0A00040A0C00040A0E00040C0000040C0200040C0400040C0600040C08000
310
40C0A00040C0C00040C0E00040E0000040E0200040E0400040E0600040E0800040E0A00040E0C00040E0E00080000000800020008000400080006000800080008000A0008000C0008000E00080200000802020008020400080206000802080008020A0008020C0008020E00080400000804020008040400080406000804080
310
008040A0008040C0008040E00080600000806020008060400080606000806080008060A0008060C0008060E00080800000808020008080400080806000808080008080A0008080C0008080E00080A0000080A0200080A0400080A0600080A0800080A0A00080A0C00080A0E00080C0000080C0200080C0400080C0600080C0
310
800080C0A00080C0C00080C0E00080E0000080E0200080E0400080E0600080E0800080E0A00080E0C00080E0E000C0000000C0002000C0004000C0006000C0008000C000A000C000C000C000E000C0200000C0202000C0204000C0206000C0208000C020A000C020C000C020E000C0400000C0402000C0404000C0406000C0
310
408000C040A000C040C000C040E000C0600000C0602000C0604000C0606000C0608000C060A000C060C000C060E000C0800000C0802000C0804000C0806000C0808000C080A000C080C000C080E000C0A00000C0A02000C0A04000C0A06000C0A08000C0A0A000C0A0C000C0A0E000C0C00000C0C02000C0C04000C0C06000
310
C0C08000C0C0A000F0FBFF00A4A0A000808080000000FF0000FF000000FFFF00FF000000FF00FF00FFFF0000FFFFFF00FFFFFFFFFFFFFFFFFFFFFFFFFFFFFFFFFFFFFFFFFFFFFFFFFFFFFFFFFFFFFFFFFFFFFFFFFFFFFFFFFFFFFFFFFFFFFFFFFFFFFFFFFFFFFFFFFFFFFFFFFFFFFFFFFFFFFFFFFFFFFFFFFFFFFFFFFFFFFF
310
FFFFFFFFFFFFFFFFFFFFFFFFFFFFFFFFFFFFFFFFFFFFFFFFFFFFFFFFFFFFFFFFFFFFFFFFFFFFFFFFFFFFFFFFFFFFFFFFFFFFFFFFFFFFFFFFFFFFFFFFFFFFFFFFFFFFFFFFFFFFFFFFFFFFFFFFFFFFFFFFFFFFFFFFFFFFFFFFFFFFFFFFFFFFFFFFFFFFFFFFFFFFFFFFFFFFFFFFFFFFFFFFFFFFFFFFFFFFFFFFFFFFFFFFFFFFFF
310
FFFFFFFFFFFFFFFFFFFFFFFFFFFFFFFFFFFFFFFFFFFFFFFFFFFFFFFFFFFFFFFFFFFFFFFFFFFFFFFFFFFFFFFFFFFFFFFFFFFFFFFFFFFFFFFFFFFFFFFFFFFFFFFFFFFFFFFFFFFFFFFFFFFFFFFFFFFFFFFFFFFFFFFFFFFFFFFFFFFFFFFFFFFFFFFFFFFFFFFFFFFFFFFFFFFFFFFFFFFFFFFFFFFFFFFFFFFFFFFFFFFFFFFFFFFFFF
310
FFFFFFFFFFFFFFFFFFFFFFFFFFFFFFFFFFFFFFFFFFFFFFFFFFFFFFFFFFFFFFFFFFFFFFFFFFFFFFFFFFFFFFFFFFFFFFFFFFFFFFFF0000000000000000000000000000000000000000000000000000000000FFFFFF0000000000000000000000000000000000FFFFFFFFFFFFFFFFFFFF0000FFFFFF0000000000000000000000
310
00000000000000FFFFFFFFFFFFFFFFFFFF0000FFFF000000000000000000000000000000000000FFFFFF00000000FFFFFF0000FFFF00FFFFFFFFFFFF00FFFFFF00FFFFFFFFFF00FFFFFF0000000000FFFF0000FFFF00FFFFFFFFFFFF00FFFFFF00FFFFFFFFFF00FFFFFF00FFFF0000FFFF0000FFFF00FFFFFFFFFFFF00FFFF
310
00FFFFFFFFFFFF00FFFFFF00FFFF0000FFFF0000FFFF0000000000FFFF00000000FFFFFF00000000FFFFFF00000000FFFFFF0000FFFFFFFFFFFF00FFFFFFFFFFFFFFFFFF00FFFFFFFFFFFFFFFFFFFFFFFFFF0000FFFFFFFFFFFF00FFFFFFFFFFFFFFFFFF00FFFFFFFFFFFFFFFFFFFFFFFFFF0000FFFFFFFFFFFF00FFFFFFFF
310
FFFFFFFFFF00FFFFFFFFFFFFFFFFFFFFFFFF0000FFFFFF0000000000FFFF00000000FFFFFF0000000000000000000000000000FFFFFFFF00FFFFFFFFFFFF00FFFF00FFFFFFFFFFFF00FFFFFFFFFFFFFFFFFFFFFFFFFFFF00FFFFFFFFFFFF00FFFFFF00FFFFFFFFFF00FFFFFFFFFFFFFFFFFFFFFFFFFFFF0000000000000000
310
FFFFFF00000000000000FFFFFFFFFFFFFFFFFFFFFFFFFFFFFFFFFFFFFFFFFFFFFFFFFFFFFFFFFFFFFFFFFFFFFFFFFFFFFFFFFFFFFFFFFFFFFFFFFFFFFFFFFFFFFFFFFFFFFFFFFFFFFFFFFFFFFFFFFFFFFFFFFFFFFFFFFFFFFFFFFFFFFFFFFFFFFFFFFFFFFFFFFFFFFFFFFFFFFFFFFFFFFFFFFFFFFFFFFFFFFFFFFFFFFFFFFF
310
FFFFFFFFFFFFFFFFFFFFFFFFFFFFFFFFFFFFFFFFFFFFFFFFFFFFFFFFFFFFFFFFFFFFFFFFFFFFFFFFFFFFFFFFFFFFFFFFFFFFFFFFFFFFFFFF
102
{BLKREFS
331
310
102
}
  0
BLOCK_RECORD
  5
30F
330
1
100
AcDbSymbolTableRecord
100
AcDbBlockTableRecord
  2
HD logo-new
340
0
310
2800000020000000200000000100080000000000000400000000000000000000000000000000000000000000000080000080000000808000800000008000800080800000C0C0C000C0DCC000F0CAA6000020400000206000002080000020A0000020C0000020E00000400000004020000040400000406000004080000040A0
310
000040C0000040E00000600000006020000060400000606000006080000060A0000060C0000060E00000800000008020000080400000806000008080000080A0000080C0000080E00000A0000000A0200000A0400000A0600000A0800000A0A00000A0C00000A0E00000C0000000C0200000C0400000C0600000C0800000C0
310
A00000C0C00000C0E00000E0000000E0200000E0400000E0600000E0800000E0A00000E0C00000E0E00040000000400020004000400040006000400080004000A0004000C0004000E00040200000402020004020400040206000402080004020A0004020C0004020E000404000004040200040404000404060004040800040
310
40A0004040C0004040E00040600000406020004060400040606000406080004060A0004060C0004060E00040800000408020004080400040806000408080004080A0004080C0004080E00040A0000040A0200040A0400040A0600040A0800040A0A00040A0C00040A0E00040C0000040C0200040C0400040C0600040C08000
310
40C0A00040C0C00040C0E00040E0000040E0200040E0400040E0600040E0800040E0A00040E0C00040E0E00080000000800020008000400080006000800080008000A0008000C0008000E00080200000802020008020400080206000802080008020A0008020C0008020E00080400000804020008040400080406000804080
310
008040A0008040C0008040E00080600000806020008060400080606000806080008060A0008060C0008060E00080800000808020008080400080806000808080008080A0008080C0008080E00080A0000080A0200080A0400080A0600080A0800080A0A00080A0C00080A0E00080C0000080C0200080C0400080C0600080C0
310
800080C0A00080C0C00080C0E00080E0000080E0200080E0400080E0600080E0800080E0A00080E0C00080E0E000C0000000C0002000C0004000C0006000C0008000C000A000C000C000C000E000C0200000C0202000C0204000C0206000C0208000C020A000C020C000C020E000C0400000C0402000C0404000C0406000C0
310
408000C040A000C040C000C040E000C0600000C0602000C0604000C0606000C0608000C060A000C060C000C060E000C0800000C0802000C0804000C0806000C0808000C080A000C080C000C080E000C0A00000C0A02000C0A04000C0A06000C0A08000C0A0A000C0A0C000C0A0E000C0C00000C0C02000C0C04000C0C06000
310
C0C08000C0C0A000F0FBFF00A4A0A000808080000000FF0000FF000000FFFF00FF000000FF00FF00FFFF0000FFFFFF00FFFFFFFFFFFFFFFFFFFFFFFFFFFFFFFFFFFFFFFFFFFFFFFFFFFFFFFFFFFFFFFFFFFFFFFFFFFFFFFFFFFFFFFFFFFFFFFFFFFFFFFFFFFFFFFFFFFFFFFFFFFFFFFFFFFFFFFFFFFFFFFFFFFFFFFFFFFFFF
310
FFFFFFFFFFFFFFFFFFFFFFFFFFFFFFFFFFFFFFFFFFFFFFFFFFFFFFFFFFFFFFFFFFFFFFFFFFFFFFFFFFFFFFFFFFFFFFFFFFFFFFFFFFFFFFFFFFFFFFFFFFFFFFFFFFFFFFFFFFFFFFFFFFFFFFFFFFFFFFFFFFFFFFFFFFFFFFFFFFFFFFFFFFFFFFFFFFFFFFFFFFFFFFFFFFFFFFFFFFFFFFFFFFFFFFFFFFFFFFFFFFFFFFFFFFFFFF
310
FFFFFFFFFFFFFFFFFFFFFFFFFFFFFFFFFFFFFFFFFFFFFFFFFFFFFFFFFFFFFFFFFFFFFFFFFFFFFFFFFFFFFFFFFFFFFFFFFFFFFFFFFFFFFFFFFFFFFFFFFFFFFFFFFFFFFFFFFFFFFFFFFFFFFFFFFFFFFFFFFFFFFFFFFFFFFFFFFFFFFFFFFFFFFFFFFFFFFFFFFFFFFFFFFFFFFFFFFFFFFFFFFFFFFFFFFFFFFFFFFFFFFFFFFFFFFF
310
FFFFFFFFFFFFFFFFFFFFFFFFFFFFFFFFFFFFFFFFFFFFFFFFFFFFFFFFFFFFFFFFFFFFFFFFFFFFFFFFFFFFFFFFFFFFFFFFFFFFFFFF0000000000000000000000000000000000000000000000000000000000FFFFFF0000000000000000000000000000000000FFFFFFFFFFFFFFFFFFFF0000FFFFFF0000000000000000000000
310
00000000000000FFFFFFFFFFFFFFFFFFFF0000FFFF000000000000000000000000000000000000FFFFFF00000000FFFFFF0000FFFF00FFFFFFFFFFFF00FFFFFF00FFFFFFFFFF00FFFFFF0000000000FFFF0000FFFF00FFFFFFFFFFFF00FFFFFF00FFFFFFFFFF00FFFFFF00FFFF0000FFFF0000FFFF00FFFFFFFFFFFF00FFFF
310
00FFFFFFFFFFFF00FFFFFF00FFFF0000FFFF0000FFFF0000000000FFFF00000000FFFFFF00000000FFFFFF00000000FFFFFF0000FFFFFFFFFFFF00FFFFFFFFFFFFFFFFFF00FFFFFFFFFFFFFFFFFFFFFFFFFF0000FFFFFFFFFFFF00FFFFFFFFFFFFFFFFFF00FFFFFFFFFFFFFFFFFFFFFFFFFF0000FFFFFFFFFFFF00FFFFFFFF
310
FFFFFFFFFF00FFFFFFFFFFFFFFFFFFFFFFFF0000FFFFFF0000000000FFFF00000000FFFFFF0000000000000000000000000000FFFFFFFF00FFFFFFFFFFFF00FFFF00FFFFFFFFFFFF00FFFFFFFFFFFFFFFFFFFFFFFFFFFF00FFFFFFFFFFFF00FFFFFF00FFFFFFFFFF00FFFFFFFFFFFFFFFFFFFFFFFFFFFF0000000000000000
310
FFFFFF00000000000000FFFFFFFFFFFFFFFFFFFFFFFFFFFFFFFFFFFFFFFFFFFFFFFFFFFFFFFFFFFFFFFFFFFFFFFFFFFFFFFFFFFFFFFFFFFFFFFFFFFFFFFFFFFFFFFFFFFFFFFFFFFFFFFFFFFFFFFFFFFFFFFFFFFFFFFFFFFFFFFFFFFFFFFFFFFFFFFFFFFFFFFFFFFFFFFFFFFFFFFFFFFFFFFFFFFFFFFFFFFFFFFFFFFFFFFFFF
310
FFFFFFFFFFFFFFFFFFFFFFFFFFFFFFFFFFFFFFFFFFFFFFFFFFFFFFFFFFFFFFFFFFFFFFFFFFFFFFFFFFFFFFFFFFFFFFFFFFFFFFFFFFFFFFFF
102
{BLKREFS
331
315
331
319
102
}
  0
BLOCK_RECORD
  5
31B
330
1
100
AcDbSymbolTableRecord
100
AcDbBlockTableRecord
  2
HD LLC
340
0
310
2800000020000000200000000100080000000000000400000000000000000000000000000000000000000000000080000080000000808000800000008000800080800000C0C0C000C0DCC000F0CAA6000020400000206000002080000020A0000020C0000020E00000400000004020000040400000406000004080000040A0
310
000040C0000040E00000600000006020000060400000606000006080000060A0000060C0000060E00000800000008020000080400000806000008080000080A0000080C0000080E00000A0000000A0200000A0400000A0600000A0800000A0A00000A0C00000A0E00000C0000000C0200000C0400000C0600000C0800000C0
310
A00000C0C00000C0E00000E0000000E0200000E0400000E0600000E0800000E0A00000E0C00000E0E00040000000400020004000400040006000400080004000A0004000C0004000E00040200000402020004020400040206000402080004020A0004020C0004020E000404000004040200040404000404060004040800040
310
40A0004040C0004040E00040600000406020004060400040606000406080004060A0004060C0004060E00040800000408020004080400040806000408080004080A0004080C0004080E00040A0000040A0200040A0400040A0600040A0800040A0A00040A0C00040A0E00040C0000040C0200040C0400040C0600040C08000
310
40C0A00040C0C00040C0E00040E0000040E0200040E0400040E0600040E0800040E0A00040E0C00040E0E00080000000800020008000400080006000800080008000A0008000C0008000E00080200000802020008020400080206000802080008020A0008020C0008020E00080400000804020008040400080406000804080
310
008040A0008040C0008040E00080600000806020008060400080606000806080008060A0008060C0008060E00080800000808020008080400080806000808080008080A0008080C0008080E00080A0000080A0200080A0400080A0600080A0800080A0A00080A0C00080A0E00080C0000080C0200080C0400080C0600080C0
310
800080C0A00080C0C00080C0E00080E0000080E0200080E0400080E0600080E0800080E0A00080E0C00080E0E000C0000000C0002000C0004000C0006000C0008000C000A000C000C000C000E000C0200000C0202000C0204000C0206000C0208000C020A000C020C000C020E000C0400000C0402000C0404000C0406000C0
310
408000C040A000C040C000C040E000C0600000C0602000C0604000C0606000C0608000C060A000C060C000C060E000C0800000C0802000C0804000C0806000C0808000C080A000C080C000C080E000C0A00000C0A02000C0A04000C0A06000C0A08000C0A0A000C0A0C000C0A0E000C0C00000C0C02000C0C04000C0C06000
310
C0C08000C0C0A000F0FBFF00A4A0A000808080000000FF0000FF000000FFFF00FF000000FF00FF00FFFF0000FFFFFF00FFFFFFFFFFFFFFFFFFFFFFFFFFFFFFFFFFFFFFFFFFFFFFFFFFFFFFFFFFFFFFFFFFFFFFFFFFFFFFFFFFFFFFFFFFFFFFFFFFFFFFFFFFFFFFFFFFFFFFFFFFFFFFFFFFFFFFFFFFFFFFFFFFFFFFFFFFFFFF
310
FFFFFFFFFFFFFFFFFFFFFFFFFFFFFFFFFFFFFFFFFFFFFFFFFFFFFFFFFFFFFFFFFFFFFFFFFFFFFFFFFFFFFFFFFFFFFFFFFFFFFFFFFFFFFFFFFFFFFFFFFFFFFFFFFFFFFFFFFFFFFFFFFFFFFFFFFFFFFFFFFFFFFFFFFFFFFFFFFFFFFFFFFFFFFFFFFFFFFFFFFFFFFFFFFFFFFFFFFFFFFFFFFFFFFFFFFFFFFFFFFFFFFFFFFFFFFF
310
FFFFFFFFFFFFFFFFFFFFFFFFFFFFFFFFFFFFFFFFFFFFFFFFFFFFFFFFFFFFFFFFFFFFFFFFFFFFFFFFFFFFFFFFFFFFFFFFFFFFFFFFFFFFFFFFFFFFFFFFFFFFFFFFFFFFFFFFFFFFFFFFFFFFFFFFFFFFFFFFFFFFFFFFFFFFFFFFFFFFFFFFFFFFFFFFFFFFFFFFFFFFFFFFFFFFFFFFFFFFFFFFFFFFFFFFFFFFFFFFFFFFFFFFFFFFFF
310
FFFFFFFFFFFFFFFFFFFFFFFFFFFFFFFFFFFFFFFFFFFFFFFFFFFFFFFFFFFFFFFFFFFFFFFFFFFFFFFFFFFFFFFFFFFFFFFFFFFFFFFFFFFFFFFFFFFFFFFFFFFFFFFFFFFFFFFFFFFFFFFFFFFFFFFFFFFFFFFFFFFFFFFFFFFFFFFFFFFFFFFFFFFFFFFFFFFFFFFFFFFFFFFFFFFFFFFFFFFFFFFFFFFFFFFFFFFFFFFFFFFFFFFFFFFF00
310
000000000000000000FFFFFFFFFFFFFFFFFFFFFFFFFFFFFFFFFFFFFFFFFFFF00000000000000000000FFFFFFFFFFFFFFFFFFFFFFFFFFFFFFFFFFFFFFFFFFFF00000000000000000000FFFFFFFFFFFFFFFFFFFFFFFFFFFFFFFFFFFFFFFFFFFF00000000000000000000FFFFFFFFFFFFFFFFFFFFFFFFFFFFFFFFFFFFFFFFFFFF
310
FFFFFFFFFFFFFFFFFFFFFFFFFFFFFFFFFFFFFFFFFFFFFFFFFFFFFFFFFFFFFFFFFFFFFFFFFFFFFFFFFFFFFFFFFFFFFFFFFFFFFFFFFFFFFFFFFFFFFFFFFFFFFFFFFFFFFFFFFFFFFFFFFFFFFFFFFFFFFFFFFFFFFFFFFFFFFFFFFFFFFFFFFFFFFFFFFFFFFFFFFFFFFFFFFFFFFFFFFFFFFFFFFFFFFFFFFFFFFFFFFFFFFFFFFFFFFF
310
FFFFFFFFFFFFFFFFFFFFFFFFFFFFFFFFFFFFFFFFFFFFFFFFFFFFFFFFFFFFFFFFFFFFFFFFFFFFFFFFFFFFFFFFFFFFFFFFFFFFFFFFFFFFFFFFFFFFFFFFFFFFFFFFFFFFFFFFFFFFFFFFFFFFFFFFFFFFFFFFFFFFFFFFFFFFFFFFFFFFFFFFFFFFFFFFFFFFFFFFFFFFFFFFFFFFFFFFFFFFFFFFFFFFFFFFFFFFFFFFFFFFFFFFFFFFFF
310
FFFFFFFFFFFFFFFFFFFFFFFFFFFFFFFFFFFFFFFFFFFFFFFFFFFFFFFFFFFFFFFFFFFFFFFFFFFFFFFFFFFFFFFFFFFFFFFFFFFFFFFFFFFFFFFFFFFFFFFFFFFFFFFFFFFFFFFFFFFFFFFFFFFFFFFFFFFFFFFFFFFFFFFFFFFFFFFFFFFFFFFFFFFFFFFFFFFFFFFFFFFFFFFFFFFFFFFFFFFFFFFFFFFFFFFFFFFFFFFFFFFFFFFFFFFFFF
310
FFFFFFFFFFFFFFFFFFFFFFFFFFFFFFFFFFFFFFFFFFFFFFFFFFFFFFFFFFFFFFFFFFFFFFFFFFFFFFFFFFFFFFFFFFFFFFFFFFFFFFFFFFFFFFFF
102
{BLKREFS
331
320
331
324
102
}
  0
ENDTAB
  0
ENDSEC
  0
SECTION
  2
BLOCKS
  0
BLOCK
  5
D
330
A
100
AcDbEntity
  8
0
100
AcDbBlockBegin
  2
*MODEL_SPACE
 70
     0
 10
0.0
 20
0.0
 30
0.0
  3
*MODEL_SPACE
  1

  0
ENDBLK
  5
E
330
A
100
AcDbEntity
  8
0
100
AcDbBlockEnd
  0
BLOCK
  5
F
330
B
100
AcDbEntity
 67
     1
  8
0
100
AcDbBlockBegin
  2
*PAPER_SPACE
 70
     0
 10
0.0
 20
0.0
 30
0.0
  3
*PAPER_SPACE
  1

  0
ENDBLK
  5
10
330
B
100
AcDbEntity
 67
     1
  8
0
100
AcDbBlockEnd
  0
BLOCK
  5
27
330
26
100
AcDbEntity
  8
0
100
AcDbBlockBegin
  2
PAN_SCREW_TOP
 70
     0
 10
0.0
 20
0.0
 30
0.0
  3
PAN_SCREW_TOP
  1

  0
ARC
  5
52
330
26
100
AcDbEntity
  8
1
  6
Continuous
 62
     7
100
AcDbCircle
 10
168.116934698536
 20
60.171960071712
 30
0.0
 40
1.239999999999998
100
AcDbArc
 50
-90.0
 51
0.0
  0
ARC
  5
51
330
26
100
AcDbEntity
  8
1
  6
Continuous
 62
     7
100
AcDbCircle
 10
168.116934698536
 20
56.61808857101999
 30
0.0
 40
1.239999999999998
100
AcDbArc
 50
0.0
 51
90.0
  0
ARC
  5
50
330
26
100
AcDbEntity
  8
1
  6
Continuous
 62
     7
100
AcDbCircle
 10
171.836934698536
 20
56.61808857101999
 30
0.0
 40
1.239999999998
100
AcDbArc
 50
90.0
 51
180.0
  0
ARC
  5
4F
330
26
100
AcDbEntity
  8
1
  6
Continuous
 62
     7
100
AcDbCircle
 10
171.836934698536
 20
60.171960071712
 30
0.0
 40
1.239999999999998
100
AcDbArc
 50
180.0
 51
-90.0
  0
LINE
  5
4E
330
26
100
AcDbEntity
  8
1
  6
Continuous
 62
     7
100
AcDbLine
 10
170.5969346985359
 20
60.171960071712
 30
0.0
 11
170.5969346985359
 21
61.086356580305
 31
0.0
  0
LINE
  5
4D
330
26
100
AcDbEntity
  8
1
  6
Continuous
 62
     7
100
AcDbLine
 10
170.5969346985359
 20
61.086356580305
 30
0.0
 11
169.356934698536
 21
61.086356580305
 31
0.0
  0
LINE
  5
4C
330
26
100
AcDbEntity
  8
1
  6
Continuous
 62
     7
100
AcDbLine
 10
169.356934698536
 20
61.086356580305
 30
0.0
 11
169.356934698536
 21
60.171960071712
 31
0.0
  0
LINE
  5
4B
330
26
100
AcDbEntity
  8
1
  6
Continuous
 62
     7
100
AcDbLine
 10
168.116934698536
 20
58.931960071712
 30
0.0
 11
166.8769346985359
 21
58.931960071712
 31
0.0
  0
LINE
  5
4A
330
26
100
AcDbEntity
  8
1
  6
Continuous
 62
     7
100
AcDbLine
 10
166.8769346985359
 20
58.931960071712
 30
0.0
 11
166.8769346985359
 21
57.858088571018
 31
0.0
  0
LINE
  5
49
330
26
100
AcDbEntity
  8
1
  6
Continuous
 62
     7
100
AcDbLine
 10
166.8769346985359
 20
57.858088571018
 30
0.0
 11
168.116934698536
 21
57.858088571018
 31
0.0
  0
LINE
  5
48
330
26
100
AcDbEntity
  8
1
  6
Continuous
 62
     7
100
AcDbLine
 10
170.5969346985359
 20
56.61808857101999
 30
0.0
 11
170.5969346985359
 21
55.71699907683999
 31
0.0
  0
LINE
  5
47
330
26
100
AcDbEntity
  8
1
  6
Continuous
 62
     7
100
AcDbLine
 10
170.5969346985359
 20
55.71699907683999
 30
0.0
 11
169.356934698536
 21
55.71699907683999
 31
0.0
  0
LINE
  5
46
330
26
100
AcDbEntity
  8
1
  6
Continuous
 62
     7
100
AcDbLine
 10
169.356934698536
 20
55.71699907683999
 30
0.0
 11
169.356934698536
 21
56.61808857101999
 31
0.0
  0
LINE
  5
45
330
26
100
AcDbEntity
  8
1
  6
Continuous
 62
     7
100
AcDbLine
 10
171.836934698536
 20
58.931960071712
 30
0.0
 11
173.076934698536
 21
58.931960071712
 31
0.0
  0
LINE
  5
44
330
26
100
AcDbEntity
  8
1
  6
Continuous
 62
     7
100
AcDbLine
 10
173.076934698536
 20
58.931960071712
 30
0.0
 11
173.076934698536
 21
57.858088571018
 31
0.0
  0
LINE
  5
43
330
26
100
AcDbEntity
  8
1
  6
Continuous
 62
     7
100
AcDbLine
 10
173.076934698536
 20
57.858088571018
 30
0.0
 11
171.836934698536
 21
57.858088571018
 31
0.0
  0
ENDBLK
  5
53
330
26
100
AcDbEntity
  8
0
100
AcDbBlockEnd
  0
BLOCK
  5
29
330
28
100
AcDbEntity
  8
0
100
AcDbBlockBegin
  2
HEX_BOLT_SIDE__1
 70
     0
 10
0.0
 20
0.0
 30
0.0
  3
HEX_BOLT_SIDE__1
  1

  0
LINE
  5
57
330
28
100
AcDbEntity
  8
1
  6
Continuous
 62
     7
100
AcDbLine
 10
78.776934699512
 20
-41.509705759628
 30
0.0
 11
78.776934699512
 21
-44.729667640613
 31
0.0
  0
LINE
  5
56
330
28
100
AcDbEntity
  8
1
  6
Continuous
 62
     7
100
AcDbLine
 10
78.476934699512
 20
-41.509705759628
 30
0.0
 11
78.476934699512
 21
-44.429667640612
 31
0.0
  0
LINE
  5
55
330
28
100
AcDbEntity
  8
1
  6
Continuous
 62
     7
100
AcDbLine
 10
78.476934699512
 20
-44.429667640612
 30
0.0
 11
78.776934699512
 21
-44.729667640613
 31
0.0
  0
LINE
  5
54
330
28
100
AcDbEntity
  8
1
  6
Continuous
 62
     7
100
AcDbLine
 10
78.776934699512
 20
-44.729667640613
 30
0.0
 11
82.47693469951199
 21
-44.729667640613
 31
0.0
  0
ENDBLK
  5
58
330
28
100
AcDbEntity
  8
0
100
AcDbBlockEnd
  0
BLOCK
  5
2B
330
2A
100
AcDbEntity
  8
0
100
AcDbBlockBegin
  2
HEX_BOLT_SIDE__2
 70
     0
 10
0.0
 20
0.0
 30
0.0
  3
HEX_BOLT_SIDE__2
  1

  0
LINE
  5
5C
330
2A
100
AcDbEntity
  8
1
  6
Continuous
 62
     7
100
AcDbLine
 10
82.47693469951199
 20
64.80081563143698
 30
0.0
 11
78.776934699512
 21
64.80081563143698
 31
0.0
  0
LINE
  5
5B
330
2A
100
AcDbEntity
  8
1
  6
Continuous
 62
     7
100
AcDbLine
 10
78.776934699512
 20
64.80081563143698
 30
0.0
 11
78.476934699512
 21
64.500815631438
 31
0.0
  0
LINE
  5
5A
330
2A
100
AcDbEntity
  8
1
  6
Continuous
 62
     7
100
AcDbLine
 10
78.476934699512
 20
64.500815631438
 30
0.0
 11
78.476934699512
 21
61.580853750452
 31
0.0
  0
LINE
  5
59
330
2A
100
AcDbEntity
  8
1
  6
Continuous
 62
     7
100
AcDbLine
 10
78.776934699512
 20
64.80081563143698
 30
0.0
 11
78.776934699512
 21
61.580853750452
 31
0.0
  0
ENDBLK
  5
5D
330
2A
100
AcDbEntity
  8
0
100
AcDbBlockEnd
  0
BLOCK
  5
2D
330
2C
100
AcDbEntity
  8
0
100
AcDbBlockBegin
  2
HEX_BOLT_SIDE__3
 70
     0
 10
0.0
 20
0.0
 30
0.0
  3
HEX_BOLT_SIDE__3
  1

  0
LINE
  5
63
330
2C
100
AcDbEntity
  8
1
  6
Continuous
 62
     7
100
AcDbLine
 10
82.47693469951199
 20
13.535573995413
 30
0.0
 11
78.776934699512
 21
13.535573995413
 31
0.0
  0
LINE
  5
62
330
2C
100
AcDbEntity
  8
1
  6
Continuous
 62
     7
100
AcDbLine
 10
78.776934699512
 20
13.535573995413
 30
0.0
 11
78.476934699512
 21
13.235573995413
 31
0.0
  0
LINE
  5
61
330
2C
100
AcDbEntity
  8
1
  6
Continuous
 62
     7
100
AcDbLine
 10
78.476934699512
 20
13.235573995413
 30
0.0
 11
78.476934699512
 21
6.835573995412
 31
0.0
  0
LINE
  5
60
330
2C
100
AcDbEntity
  8
1
  6
Continuous
 62
     7
100
AcDbLine
 10
78.476934699512
 20
6.835573995412
 30
0.0
 11
78.776934699512
 21
6.535573995413
 31
0.0
  0
LINE
  5
5F
330
2C
100
AcDbEntity
  8
1
  6
Continuous
 62
     7
100
AcDbLine
 10
78.776934699512
 20
6.535573995413
 30
0.0
 11
82.47693469951199
 21
6.535573995413
 31
0.0
  0
LINE
  5
5E
330
2C
100
AcDbEntity
  8
1
  6
Continuous
 62
     7
100
AcDbLine
 10
78.776934699512
 20
13.535573995413
 30
0.0
 11
78.776934699512
 21
6.535573995413
 31
0.0
  0
ENDBLK
  5
64
330
2C
100
AcDbEntity
  8
0
100
AcDbBlockEnd
  0
BLOCK
  5
2F
330
2E
100
AcDbEntity
  8
0
100
AcDbBlockBegin
  2
HEX_BOLT_SIDE__4
 70
     0
 10
0.0
 20
0.0
 30
0.0
  3
HEX_BOLT_SIDE__4
  1

  0
LINE
  5
6A
330
2E
100
AcDbEntity
  8
1
  6
Continuous
 62
     7
100
AcDbLine
 10
190.67693469955
 20
5.785573995412
 30
0.0
 11
190.67693469955
 21
14.285573995413
 31
0.0
  0
LINE
  5
69
330
2E
100
AcDbEntity
  8
1
  6
Continuous
 62
     7
100
AcDbLine
 10
190.67693469955
 20
14.285573995413
 30
0.0
 11
185.976934699551
 21
14.285573995413
 31
0.0
  0
LINE
  5
68
330
2E
100
AcDbEntity
  8
1
  6
Continuous
 62
     7
100
AcDbLine
 10
190.976934699551
 20
13.98557399541199
 30
0.0
 11
190.67693469955
 21
14.285573995413
 31
0.0
  0
LINE
  5
67
330
2E
100
AcDbEntity
  8
1
  6
Continuous
 62
     7
100
AcDbLine
 10
190.976934699551
 20
6.085573995412
 30
0.0
 11
190.976934699551
 21
13.98557399541199
 31
0.0
  0
LINE
  5
66
330
2E
100
AcDbEntity
  8
1
  6
Continuous
 62
     7
100
AcDbLine
 10
190.67693469955
 20
5.785573995412
 30
0.0
 11
190.976934699551
 21
6.085573995412
 31
0.0
  0
LINE
  5
65
330
2E
100
AcDbEntity
  8
1
  6
Continuous
 62
     7
100
AcDbLine
 10
185.976934699551
 20
5.785573995412
 30
0.0
 11
190.67693469955
 21
5.785573995412
 31
0.0
  0
ENDBLK
  5
6B
330
2E
100
AcDbEntity
  8
0
100
AcDbBlockEnd
  0
BLOCK
  5
31
330
30
100
AcDbEntity
  8
0
100
AcDbBlockBegin
  2
HEX_BOLT_SIDE__5
 70
     0
 10
0.0
 20
0.0
 30
0.0
  3
HEX_BOLT_SIDE__5
  1

  0
LINE
  5
71
330
30
100
AcDbEntity
  8
1
  6
Continuous
 62
     7
100
AcDbLine
 10
190.67693469955
 20
-46.17595023165399
 30
0.0
 11
190.67693469955
 21
-37.67595023165299
 31
0.0
  0
LINE
  5
70
330
30
100
AcDbEntity
  8
1
  6
Continuous
 62
     7
100
AcDbLine
 10
185.976934699551
 20
-46.17595023165399
 30
0.0
 11
190.67693469955
 21
-46.17595023165399
 31
0.0
  0
LINE
  5
6F
330
30
100
AcDbEntity
  8
1
  6
Continuous
 62
     7
100
AcDbLine
 10
190.67693469955
 20
-46.17595023165399
 30
0.0
 11
190.976934699551
 21
-45.875950231653
 31
0.0
  0
LINE
  5
6E
330
30
100
AcDbEntity
  8
1
  6
Continuous
 62
     7
100
AcDbLine
 10
190.976934699551
 20
-45.875950231653
 30
0.0
 11
190.976934699551
 21
-37.975950231654
 31
0.0
  0
LINE
  5
6D
330
30
100
AcDbEntity
  8
1
  6
Continuous
 62
     7
100
AcDbLine
 10
190.976934699551
 20
-37.975950231654
 30
0.0
 11
190.67693469955
 21
-37.67595023165299
 31
0.0
  0
LINE
  5
6C
330
30
100
AcDbEntity
  8
1
  6
Continuous
 62
     7
100
AcDbLine
 10
190.67693469955
 20
-37.67595023165299
 30
0.0
 11
185.976934699551
 21
-37.67595023165299
 31
0.0
  0
ENDBLK
  5
72
330
30
100
AcDbEntity
  8
0
100
AcDbBlockEnd
  0
BLOCK
  5
33
330
32
100
AcDbEntity
  8
0
100
AcDbBlockBegin
  2
HEX_BOLT_SIDE__6
 70
     0
 10
0.0
 20
0.0
 30
0.0
  3
HEX_BOLT_SIDE__6
  1

  0
LINE
  5
79
330
32
100
AcDbEntity
  8
1
  6
DASH_CENTER
 62
     3
100
AcDbLine
 10
202.886911295298
 20
-21.784231157982
 30
0.0
 11
191.679990375094
 21
-21.784231157982
 31
0.0
  0
LINE
  5
78
330
32
100
AcDbEntity
  8
1
  6
Continuous
 62
     7
100
AcDbLine
 10
199.5769346995508
 20
-26.784231157982
 30
0.0
 11
199.5769346995508
 21
-16.78423115798199
 31
0.0
  0
LINE
  5
77
330
32
100
AcDbEntity
  8
1
  6
Continuous
 62
     7
100
AcDbLine
 10
193.976934699551
 20
-26.784231157982
 30
0.0
 11
199.5769346995508
 21
-26.784231157982
 31
0.0
  0
LINE
  5
76
330
32
100
AcDbEntity
  8
1
  6
Continuous
 62
     7
100
AcDbLine
 10
199.5769346995508
 20
-26.784231157982
 30
0.0
 11
199.976934699551
 21
-26.384231157982
 31
0.0
  0
LINE
  5
75
330
32
100
AcDbEntity
  8
1
  6
Continuous
 62
     7
100
AcDbLine
 10
199.976934699551
 20
-26.384231157982
 30
0.0
 11
199.976934699551
 21
-17.18423115798199
 31
0.0
  0
LINE
  5
74
330
32
100
AcDbEntity
  8
1
  6
Continuous
 62
     7
100
AcDbLine
 10
199.976934699551
 20
-17.18423115798199
 30
0.0
 11
199.5769346995508
 21
-16.78423115798199
 31
0.0
  0
LINE
  5
73
330
32
100
AcDbEntity
  8
1
  6
Continuous
 62
     7
100
AcDbLine
 10
199.5769346995508
 20
-16.78423115798199
 30
0.0
 11
193.976934699551
 21
-16.78423115798199
 31
0.0
  0
ENDBLK
  5
7A
330
32
100
AcDbEntity
  8
0
100
AcDbBlockEnd
  0
BLOCK
  5
35
330
34
100
AcDbEntity
  8
0
100
AcDbBlockBegin
  2
HEX_BOLT_SIDE__7
 70
     0
 10
0.0
 20
0.0
 30
0.0
  3
HEX_BOLT_SIDE__7
  1

  0
LINE
  5
81
330
34
100
AcDbEntity
  8
1
  6
Continuous
 62
     7
100
AcDbLine
 10
193.976934699551
 20
36.855379148807
 30
0.0
 11
199.5769346995508
 21
36.855379148807
 31
0.0
  0
LINE
  5
80
330
34
100
AcDbEntity
  8
1
  6
Continuous
 62
     7
100
AcDbLine
 10
199.5769346995508
 20
36.855379148807
 30
0.0
 11
199.976934699551
 21
37.255379148807
 31
0.0
  0
LINE
  5
7F
330
34
100
AcDbEntity
  8
1
  6
Continuous
 62
     7
100
AcDbLine
 10
199.976934699551
 20
37.255379148807
 30
0.0
 11
199.976934699551
 21
46.455379148807
 31
0.0
  0
LINE
  5
7E
330
34
100
AcDbEntity
  8
1
  6
Continuous
 62
     7
100
AcDbLine
 10
199.976934699551
 20
46.455379148807
 30
0.0
 11
199.5769346995508
 21
46.855379148807
 31
0.0
  0
LINE
  5
7D
330
34
100
AcDbEntity
  8
1
  6
Continuous
 62
     7
100
AcDbLine
 10
199.5769346995508
 20
46.855379148807
 30
0.0
 11
193.976934699551
 21
46.855379148807
 31
0.0
  0
LINE
  5
7C
330
34
100
AcDbEntity
  8
1
  6
Continuous
 62
     7
100
AcDbLine
 10
199.5769346995508
 20
36.855379148807
 30
0.0
 11
199.5769346995508
 21
46.855379148807
 31
0.0
  0
LINE
  5
7B
330
34
100
AcDbEntity
  8
1
  6
DASH_CENTER
 62
     3
100
AcDbLine
 10
191.679990375094
 20
41.855379148807
 30
0.0
 11
202.886911295298
 21
41.855379148807
 31
0.0
  0
ENDBLK
  5
82
330
34
100
AcDbEntity
  8
0
100
AcDbBlockEnd
  0
BLOCK
  5
37
330
36
100
AcDbEntity
  8
0
100
AcDbBlockBegin
  2
HEX_BOLT_SIDE__8
 70
     0
 10
0.0
 20
0.0
 30
0.0
  3
HEX_BOLT_SIDE__8
  1

  0
LINE
  5
88
330
36
100
AcDbEntity
  8
1
  6
Continuous
 62
     7
100
AcDbLine
 10
185.976934699551
 20
57.747098222479
 30
0.0
 11
190.67693469955
 21
57.747098222479
 31
0.0
  0
LINE
  5
87
330
36
100
AcDbEntity
  8
1
  6
Continuous
 62
     7
100
AcDbLine
 10
190.67693469955
 20
57.747098222479
 30
0.0
 11
190.976934699551
 21
58.047098222479
 31
0.0
  0
LINE
  5
86
330
36
100
AcDbEntity
  8
1
  6
Continuous
 62
     7
100
AcDbLine
 10
190.976934699551
 20
58.047098222479
 30
0.0
 11
190.976934699551
 21
65.94709822247899
 31
0.0
  0
LINE
  5
85
330
36
100
AcDbEntity
  8
1
  6
Continuous
 62
     7
100
AcDbLine
 10
190.976934699551
 20
65.94709822247899
 30
0.0
 11
190.67693469955
 21
66.247098222479
 31
0.0
  0
LINE
  5
84
330
36
100
AcDbEntity
  8
1
  6
Continuous
 62
     7
100
AcDbLine
 10
190.67693469955
 20
66.247098222479
 30
0.0
 11
185.976934699551
 21
66.247098222479
 31
0.0
  0
LINE
  5
83
330
36
100
AcDbEntity
  8
1
  6
Continuous
 62
     7
100
AcDbLine
 10
190.67693469955
 20
57.747098222479
 30
0.0
 11
190.67693469955
 21
66.247098222479
 31
0.0
  0
ENDBLK
  5
89
330
36
100
AcDbEntity
  8
0
100
AcDbBlockEnd
  0
BLOCK
  5
2A2
330
29F
100
AcDbEntity
  8
0
100
AcDbBlockBegin
  2
NTC
 70
     0
 10
0.0
 20
0.0
 30
0.0
  3
NTC
  1

  0
LWPOLYLINE
  5
2A0
330
29F
100
AcDbEntity
  8
0
100
AcDbPolyline
 90
        8
 70
     1
 43
0.0
 10
4.581008201925953
 20
-10.78862239032818
 10
319.3921777697513
 20
-10.78862239032818
 42
-0.4142135623730951
 10
324.9046777697513
 20
-16.30112239032816
 10
324.9046777697513
 20
-117.4075202476924
 42
-0.4142135623730951
 10
319.3921777697513
 20
-122.9200202476925
 10
4.581008201925837
 20
-122.9200202476925
 42
-0.4142135623730951
 10
-0.9314917980741483
 20
-117.4075202476924
 10
-0.9314917980740915
 20
-16.30112239032816
 42
-0.4142135623730951
  0
MTEXT
  5
2A1
330
29F
100
AcDbEntity
  8
0
  6
Continuous
370
    30
100
AcDbMText
 10
21.65307678143926
 20
-17.4535155144544
 30
0.0
 40
8.75
 41
294.5432999999998
 71
     1
 72
     5
  3
{\fTxt|b1|i0|c0|p2;Notice:\P\Ftxt.shx;\H0.5714x;All specifications and dimensions shown in the drawing are subject to change without notice. This drawing is the property of Harmonic Drive LLC.   This data is believed to be accurate, however, Harmonic
  1
 Drive LLC assumes no liability for any errors or omissions in the specifications, models, or drawings.\P\PHarmonic Drive LLC\PTel: 800-921-3332\Pwww.harmonicdrive.net}
 73
     1
 44
1.0
  0
ENDBLK
  5
2A3
330
29F
100
AcDbEntity
  8
0
100
AcDbBlockEnd
  0
BLOCK
  5
2AE
330
2AB
100
AcDbEntity
  8
0
 62
     7
100
AcDbBlockBegin
  2
AI9-BLK14
 70
     0
 10
0.0
 20
0.0
 30
0.0
  3
AI9-BLK14
  1

  0
SPLINE
  5
2AC
330
2AB
100
AcDbEntity
  8
LAYER_1
 62
     7
100
AcDbSpline
210
0.0
220
0.0
230
1.0
 70
    11
 71
     3
 72
    23
 73
    19
 74
     0
 42
0.0000000001
 43
0.0000000001
 40
0.0
 40
0.0
 40
0.0
 40
0.0
 40
1.0
 40
1.0
 40
1.0
 40
2.0
 40
2.0
 40
2.0
 40
3.0
 40
3.0
 40
3.0
 40
4.0
 40
4.0
 40
4.0
 40
5.0
 40
5.0
 40
5.0
 40
6.0
 40
6.0
 40
6.0
 40
6.0
 10
-10.90321044921874
 20
10.88107571072048
 30
0.0
 10
-10.90321044921874
 20
10.88107571072048
 30
0.0
 10
-10.90321044921874
 20
-10.88107571072048
 30
0.0
 10
-10.90321044921874
 20
-10.88107571072048
 30
0.0
 10
-10.90321044921874
 20
-10.88107571072048
 30
0.0
 10
1.752692328559025
 20
-10.88107571072048
 30
0.0
 10
1.752692328559025
 20
-10.88107571072048
 30
0.0
 10
3.280592176649305
 20
-10.88107571072048
 30
0.0
 10
10.90321044921874
 20
-10.32383151584201
 30
0.0
 10
10.90321044921874
 20
0.6792867024739583
 30
0.0
 10
10.90321044921874
 20
10.61700914171006
 30
0.0
 10
2.773129611545138
 20
10.87952541775172
 30
0.0
 10
2.691136338975693
 20
10.88090345594618
 30
0.0
 10
2.691136338975693
 20
10.88090345594618
 30
0.0
 10
-9.903099229600693
 20
10.88107571072048
 30
0.0
 10
-9.903099229600693
 20
10.88107571072048
 30
0.0
 10
-9.903099229600693
 20
10.88107571072048
 30
0.0
 10
-10.90321044921874
 20
10.88107571072048
 30
0.0
 10
-10.90321044921874
 20
10.88107571072048
 30
0.0
  0
SPLINE
  5
2AD
330
2AB
100
AcDbEntity
  8
LAYER_1
 62
     7
100
AcDbSpline
210
0.0
220
0.0
230
1.0
 70
    11
 71
     3
 72
    20
 73
    16
 74
     0
 42
0.0000000001
 43
0.0000000001
 40
0.0
 40
0.0
 40
0.0
 40
0.0
 40
1.0
 40
1.0
 40
1.0
 40
2.0
 40
2.0
 40
2.0
 40
3.0
 40
3.0
 40
3.0
 40
4.0
 40
4.0
 40
4.0
 40
5.0
 40
5.0
 40
5.0
 40
5.0
 10
2.672877332899305
 20
8.881197781032986
 30
0.0
 10
2.905421278211805
 20
8.874307590060762
 30
0.0
 10
8.902988009982637
 20
8.616442192925347
 30
0.0
 10
8.902988009982637
 20
0.6792867024739583
 30
0.0
 10
8.902988009982637
 20
-8.191661919487842
 30
0.0
 10
3.430109320746526
 20
-8.881197781032986
 30
0.0
 10
1.752692328559025
 20
-8.881197781032986
 30
0.0
 10
1.752692328559025
 20
-8.881197781032986
 30
0.0
 10
-7.231427680121528
 20
-8.881197781032986
 30
0.0
 10
-8.902988009982637
 20
-8.881197781032986
 30
0.0
 10
-8.902988009982637
 20
-7.174497477213541
 30
0.0
 10
-8.902988009982637
 20
7.174497477213541
 30
0.0
 10
-8.902988009982637
 20
8.881197781032986
 30
0.0
 10
-7.208690049913191
 20
8.881197781032986
 30
0.0
 10
2.672877332899305
 20
8.881197781032986
 30
0.0
 10
2.672877332899305
 20
8.881197781032986
 30
0.0
  0
ENDBLK
  5
2AF
330
2AB
100
AcDbEntity
  8
0
100
AcDbBlockEnd
  0
BLOCK
  5
2B3
330
2B0
100
AcDbEntity
  8
0
 62
     7
100
AcDbBlockBegin
  2
AI9-BLK13
 70
     0
 10
0.0
 20
0.0
 30
0.0
  3
AI9-BLK13
  1

  0
LWPOLYLINE
  5
2B1
330
2B0
100
AcDbEntity
  8
LAYER_1
 62
     7
100
AcDbPolyline
 90
       12
 70
     1
 43
0.0
 10
-3.792361111111107
 20
10.7376736111111
 10
-2.469444444444443
 20
10.7376736111111
 10
-2.469444444444443
 20
1.874131944444444
 10
2.469444444444443
 20
1.874131944444444
 10
2.469444444444443
 20
10.7376736111111
 10
3.792361111111107
 20
10.7376736111111
 10
3.792361111111107
 20
-10.7376736111111
 10
2.469444444444443
 20
-10.7376736111111
 10
2.469444444444443
 20
-0.6835069444444444
 10
-2.469444444444443
 20
-0.6835069444444444
 10
-2.469444444444443
 20
-10.7376736111111
 10
-3.792361111111107
 20
-10.7376736111111
  0
HATCH
  5
2B2
330
2B0
100
AcDbEntity
  8
LAYER_1
 62
     7
100
AcDbHatch
 10
0.0
 20
0.0
 30
0.0
210
0.0
220
0.0
230
1.0
  2
SOLID
 70
     1
 71
     0
 91
        1
 92
        3
 72
     0
 73
     1
 93
       12
 10
-3.792361111111107
 20
10.7376736111111
 10
-2.469444444444443
 20
10.7376736111111
 10
-2.469444444444443
 20
1.874131944444444
 10
2.469444444444443
 20
1.874131944444444
 10
2.469444444444443
 20
10.7376736111111
 10
3.792361111111107
 20
10.7376736111111
 10
3.792361111111107
 20
-10.7376736111111
 10
2.469444444444443
 20
-10.7376736111111
 10
2.469444444444443
 20
-0.6835069444444444
 10
-2.469444444444443
 20
-0.6835069444444444
 10
-2.469444444444443
 20
-10.7376736111111
 10
-3.792361111111107
 20
-10.7376736111111
 97
        0
 75
     2
 76
     1
 98
        1
 10
0.0
 20
0.0
  0
ENDBLK
  5
2B4
330
2B0
100
AcDbEntity
  8
0
100
AcDbBlockEnd
  0
BLOCK
  5
2B8
330
2B5
100
AcDbEntity
  8
0
 62
     7
100
AcDbBlockBegin
  2
AI9-BLK11
 70
     0
 10
0.0
 20
0.0
 30
0.0
  3
AI9-BLK11
  1

  0
SPLINE
  5
2B6
330
2B5
100
AcDbEntity
  8
LAYER_1
 62
     7
100
AcDbSpline
210
0.0
220
0.0
230
1.0
 70
    11
 71
     3
 72
    26
 73
    22
 74
     0
 42
0.0000000001
 43
0.0000000001
 40
0.0
 40
0.0
 40
0.0
 40
0.0
 40
1.0
 40
1.0
 40
1.0
 40
2.0
 40
2.0
 40
2.0
 40
3.0
 40
3.0
 40
3.0
 40
4.0
 40
4.0
 40
4.0
 40
5.0
 40
5.0
 40
5.0
 40
6.0
 40
6.0
 40
6.0
 40
7.0
 40
7.0
 40
7.0
 40
7.0
 10
-2.645833333333333
 20
0.9039930555555551
 30
0.0
 10
-2.645833333333333
 20
0.9039930555555551
 30
0.0
 10
-2.645833333333333
 20
8.180034722222217
 30
0.0
 10
-2.645833333333333
 20
8.180034722222217
 30
0.0
 10
-2.645833333333333
 20
8.180034722222217
 30
0.0
 10
0.465087890625
 20
8.180034722222217
 30
0.0
 10
0.465087890625
 20
8.180034722222217
 30
0.0
 10
0.9026150173611108
 20
8.180034722222217
 30
0.0
 10
1.24988064236111
 20
8.034651692708331
 30
0.0
 10
1.506884765625
 20
7.745263671874997
 30
0.0
 10
2.001600477430554
 20
7.194048394097221
 30
0.0
 10
2.248958333333332
 20
6.160519748263887
 30
0.0
 10
2.248958333333332
 20
4.643299696180553
 30
0.0
 10
2.248958333333332
 20
3.232188585069443
 30
0.0
 10
2.072569444444444
 20
2.256537543402775
 30
0.0
 10
1.720480685763888
 20
1.715657552083333
 30
0.0
 10
1.368391927083333
 20
1.174088541666665
 30
0.0
 10
0.8929687499999998
 20
0.9039930555555551
 30
0.0
 10
0.2942111545138888
 20
0.9039930555555551
 30
0.0
 10
0.2942111545138888
 20
0.9039930555555551
 30
0.0
 10
-2.645833333333333
 20
0.9039930555555551
 30
0.0
 10
-2.645833333333333
 20
0.9039930555555551
 30
0.0
  0
SPLINE
  5
2B7
330
2B5
100
AcDbEntity
  8
LAYER_1
 62
     7
100
AcDbSpline
210
0.0
220
0.0
230
1.0
 70
    11
 71
     3
 72
    68
 73
    64
 74
     0
 42
0.0000000001
 43
0.0000000001
 40
0.0
 40
0.0
 40
0.0
 40
0.0
 40
1.0
 40
1.0
 40
1.0
 40
2.0
 40
2.0
 40
2.0
 40
3.0
 40
3.0
 40
3.0
 40
4.0
 40
4.0
 40
4.0
 40
5.0
 40
5.0
 40
5.0
 40
6.0
 40
6.0
 40
6.0
 40
7.0
 40
7.0
 40
7.0
 40
8.0
 40
8.0
 40
8.0
 40
9.0
 40
9.0
 40
9.0
 40
10.0
 40
10.0
 40
10.0
 40
11.0
 40
11.0
 40
11.0
 40
12.0
 40
12.0
 40
12.0
 40
13.0
 40
13.0
 40
13.0
 40
14.0
 40
14.0
 40
14.0
 40
15.0
 40
15.0
 40
15.0
 40
16.0
 40
16.0
 40
16.0
 40
17.0
 40
17.0
 40
17.0
 40
18.0
 40
18.0
 40
18.0
 40
19.0
 40
19.0
 40
19.0
 40
20.0
 40
20.0
 40
20.0
 40
21.0
 40
21.0
 40
21.0
 40
21.0
 10
-3.968749999999998
 20
-10.7376736111111
 30
0.0
 10
-3.968749999999998
 20
-10.7376736111111
 30
0.0
 10
-2.645833333333333
 20
-10.7376736111111
 30
0.0
 10
-2.645833333333333
 20
-10.7376736111111
 30
0.0
 10
-2.645833333333333
 20
-10.7376736111111
 30
0.0
 10
-2.645833333333333
 20
-1.521354166666665
 30
0.0
 10
-2.645833333333333
 20
-1.521354166666665
 30
0.0
 10
-2.645833333333333
 20
-1.521354166666665
 30
0.0
 10
0.2390896267361111
 20
-1.521354166666665
 30
0.0
 10
0.2390896267361111
 20
-1.521354166666665
 30
0.0
 10
0.7599880642361111
 20
-1.521354166666665
 30
0.0
 10
1.143771701388887
 20
-1.65295681423611
 30
0.0
 10
1.390440538194444
 20
-1.916162109374999
 30
0.0
 10
1.816254340277774
 20
-2.39434136284722
 30
0.0
 10
2.04363064236111
 20
-3.335541449652775
 30
0.0
 10
2.072569444444444
 20
-4.739762369791666
 30
0.0
 10
2.072569444444444
 20
-4.739762369791666
 30
0.0
 10
2.160763888888888
 20
-8.324039713541665
 30
0.0
 10
2.160763888888888
 20
-8.324039713541665
 30
0.0
 10
2.18005642361111
 20
-9.163264973958332
 30
0.0
 10
2.202794053819443
 20
-9.728949652777775
 30
0.0
 10
2.227598741319444
 20
-10.02109374999998
 30
0.0
 10
2.252403428819443
 20
-10.31392686631944
 30
0.0
 10
2.28892144097222
 20
-10.55301649305555
 30
0.0
 10
2.33853081597222
 20
-10.7376736111111
 30
0.0
 10
2.33853081597222
 20
-10.7376736111111
 30
0.0
 10
3.968749999999998
 20
-10.7376736111111
 30
0.0
 10
3.968749999999998
 20
-10.7376736111111
 30
0.0
 10
3.968749999999998
 20
-10.7376736111111
 30
0.0
 10
3.968749999999998
 20
-10.25260416666666
 30
0.0
 10
3.968749999999998
 20
-10.25260416666666
 30
0.0
 10
3.766867404513888
 20
-10.05830078125
 30
0.0
 10
3.625618489583333
 20
-9.621462673611112
 30
0.0
 10
3.545692274305555
 20
-8.942089843749997
 30
0.0
 10
3.49470486111111
 20
-8.543836805555555
 30
0.0
 10
3.459564887152775
 20
-7.937499999999999
 30
0.0
 10
3.439583333333333
 20
-7.121701388888887
 30
0.0
 10
3.439583333333333
 20
-7.121701388888887
 30
0.0
 10
3.395486111111107
 20
-4.232644314236107
 30
0.0
 10
3.395486111111107
 20
-4.232644314236107
 30
0.0
 10
3.375504557291666
 20
-2.981385633680555
 30
0.0
 10
3.26870659722222
 20
-2.077392578125
 30
0.0
 10
3.075781249999999
 20
-1.522043185763888
 30
0.0
 10
2.882166883680555
 20
-0.9666937934027776
 30
0.0
 10
2.592089843749999
 20
-0.5188313802083333
 30
0.0
 10
2.204861111111107
 20
-0.1770779079861111
 30
0.0
 10
2.63618706597222
 20
0.3197048611111111
 30
0.0
 10
2.971739366319443
 20
0.9770290798611107
 30
0.0
 10
3.211518012152775
 20
1.79558376736111
 30
0.0
 10
3.451296657986107
 20
2.613449435763888
 30
0.0
 10
3.571874999999999
 20
3.66558159722222
 30
0.0
 10
3.571874999999999
 20
4.951291232638888
 30
0.0
 10
3.571874999999999
 20
7.415912543402777
 30
0.0
 10
3.124701605902775
 20
9.106076388888887
 30
0.0
 10
2.231043836805555
 20
10.02178276909722
 30
0.0
 10
1.759754774305553
 20
10.498583984375
 30
0.0
 10
1.163753255208332
 20
10.7376736111111
 30
0.0
 10
0.443039279513889
 20
10.7376736111111
 30
0.0
 10
0.443039279513889
 20
10.7376736111111
 30
0.0
 10
-3.968749999999998
 20
10.7376736111111
 30
0.0
 10
-3.968749999999998
 20
10.7376736111111
 30
0.0
 10
-3.968749999999998
 20
10.7376736111111
 30
0.0
 10
-3.968749999999998
 20
-10.7376736111111
 30
0.0
 10
-3.968749999999998
 20
-10.7376736111111
 30
0.0
  0
ENDBLK
  5
2B9
330
2B5
100
AcDbEntity
  8
0
100
AcDbBlockEnd
  0
BLOCK
  5
2BC
330
2BA
100
AcDbEntity
  8
0
 62
     7
100
AcDbBlockBegin
  2
AI9-BLK10
 70
     0
 10
0.0
 20
0.0
 30
0.0
  3
AI9-BLK10
  1

  0
SPLINE
  5
2BB
330
2BA
100
AcDbEntity
  8
LAYER_1
 62
     7
100
AcDbSpline
210
0.0
220
0.0
230
1.0
 70
    11
 71
     3
 72
    59
 73
    55
 74
     0
 42
0.0000000001
 43
0.0000000001
 40
0.0
 40
0.0
 40
0.0
 40
0.0
 40
1.0
 40
1.0
 40
1.0
 40
2.0
 40
2.0
 40
2.0
 40
3.0
 40
3.0
 40
3.0
 40
4.0
 40
4.0
 40
4.0
 40
5.0
 40
5.0
 40
5.0
 40
6.0
 40
6.0
 40
6.0
 40
7.0
 40
7.0
 40
7.0
 40
8.0
 40
8.0
 40
8.0
 40
9.0
 40
9.0
 40
9.0
 40
10.0
 40
10.0
 40
10.0
 40
11.0
 40
11.0
 40
11.0
 40
12.0
 40
12.0
 40
12.0
 40
13.0
 40
13.0
 40
13.0
 40
14.0
 40
14.0
 40
14.0
 40
15.0
 40
15.0
 40
15.0
 40
16.0
 40
16.0
 40
16.0
 40
17.0
 40
17.0
 40
17.0
 40
18.0
 40
18.0
 40
18.0
 40
18.0
 10
-4.652256944444443
 20
10.7376736111111
 30
0.0
 10
-4.652256944444443
 20
10.7376736111111
 30
0.0
 10
-2.798795572916666
 20
10.7376736111111
 30
0.0
 10
-2.798795572916666
 20
10.7376736111111
 30
0.0
 10
-2.798795572916666
 20
10.7376736111111
 30
0.0
 10
0.0
 20
-7.419357638888887
 30
0.0
 10
0.0
 20
-7.419357638888887
 30
0.0
 10
0.0
 20
-7.419357638888887
 30
0.0
 10
2.793283420138888
 20
10.7376736111111
 30
0.0
 10
2.793283420138888
 20
10.7376736111111
 30
0.0
 10
2.793283420138888
 20
10.7376736111111
 30
0.0
 10
4.652256944444443
 20
10.7376736111111
 30
0.0
 10
4.652256944444443
 20
10.7376736111111
 30
0.0
 10
4.652256944444443
 20
10.7376736111111
 30
0.0
 10
4.652256944444443
 20
-10.7376736111111
 30
0.0
 10
4.652256944444443
 20
-10.7376736111111
 30
0.0
 10
4.652256944444443
 20
-10.7376736111111
 30
0.0
 10
3.41753472222222
 20
-10.7376736111111
 30
0.0
 10
3.41753472222222
 20
-10.7376736111111
 30
0.0
 10
3.41753472222222
 20
-10.7376736111111
 30
0.0
 10
3.41753472222222
 20
1.936832682291665
 30
0.0
 10
3.41753472222222
 20
1.936832682291665
 30
0.0
 10
3.41753472222222
 20
2.375048828124999
 30
0.0
 10
3.424424913194443
 20
3.101274956597221
 30
0.0
 10
3.439583333333333
 20
4.11482204861111
 30
0.0
 10
3.454052734374998
 20
5.128369140624998
 30
0.0
 10
3.461631944444443
 20
6.214952256944441
 30
0.0
 10
3.461631944444443
 20
7.375260416666666
 30
0.0
 10
3.461631944444443
 20
7.375260416666666
 30
0.0
 10
0.6538791232638889
 20
-10.7376736111111
 30
0.0
 10
0.6538791232638889
 20
-10.7376736111111
 30
0.0
 10
0.6538791232638889
 20
-10.7376736111111
 30
0.0
 10
-0.6628363715277778
 20
-10.7376736111111
 30
0.0
 10
-0.6628363715277778
 20
-10.7376736111111
 30
0.0
 10
-0.6628363715277778
 20
-10.7376736111111
 30
0.0
 10
-3.461631944444443
 20
7.375260416666666
 30
0.0
 10
-3.461631944444443
 20
7.375260416666666
 30
0.0
 10
-3.461631944444443
 20
7.375260416666666
 30
0.0
 10
-3.461631944444443
 20
6.717247178819441
 30
0.0
 10
-3.461631944444443
 20
6.717247178819441
 30
0.0
 10
-3.461631944444443
 20
6.190836588541666
 30
0.0
 10
-3.45474175347222
 20
5.389507378472222
 30
0.0
 10
-3.439583333333333
 20
4.312570529513888
 30
0.0
 10
-3.425113932291666
 20
3.235633680555555
 30
0.0
 10
-3.41753472222222
 20
2.44395073784722
 30
0.0
 10
-3.41753472222222
 20
1.936832682291665
 30
0.0
 10
-3.41753472222222
 20
1.936832682291665
 30
0.0
 10
-3.41753472222222
 20
-10.7376736111111
 30
0.0
 10
-3.41753472222222
 20
-10.7376736111111
 30
0.0
 10
-3.41753472222222
 20
-10.7376736111111
 30
0.0
 10
-4.652256944444443
 20
-10.7376736111111
 30
0.0
 10
-4.652256944444443
 20
-10.7376736111111
 30
0.0
 10
-4.652256944444443
 20
-10.7376736111111
 30
0.0
 10
-4.652256944444443
 20
10.7376736111111
 30
0.0
 10
-4.652256944444443
 20
10.7376736111111
 30
0.0
  0
ENDBLK
  5
2BD
330
2BA
100
AcDbEntity
  8
0
100
AcDbBlockEnd
  0
BLOCK
  5
2C1
330
2BE
100
AcDbEntity
  8
0
 62
     7
100
AcDbBlockBegin
  2
AI9-BLK9
 70
     0
 10
0.0
 20
0.0
 30
0.0
  3
AI9-BLK9
  1

  0
SPLINE
  5
2BF
330
2BE
100
AcDbEntity
  8
LAYER_1
 62
     7
100
AcDbSpline
210
0.0
220
0.0
230
1.0
 70
    11
 71
     3
 72
    29
 73
    25
 74
     0
 42
0.0000000001
 43
0.0000000001
 40
0.0
 40
0.0
 40
0.0
 40
0.0
 40
1.0
 40
1.0
 40
1.0
 40
2.0
 40
2.0
 40
2.0
 40
3.0
 40
3.0
 40
3.0
 40
4.0
 40
4.0
 40
4.0
 40
5.0
 40
5.0
 40
5.0
 40
6.0
 40
6.0
 40
6.0
 40
7.0
 40
7.0
 40
7.0
 40
8.0
 40
8.0
 40
8.0
 40
8.0
 10
0.0668348524305556
 20
-8.753298611111111
 30
0.0
 10
-0.9067491319444444
 20
-8.753298611111111
 30
0.0
 10
-1.60954861111111
 20
-7.936810980902778
 30
0.0
 10
-2.041563585069444
 20
-6.30383572048611
 30
0.0
 10
-2.474267578124999
 20
-4.670860460069443
 30
0.0
 10
-2.689930555555555
 20
-2.664436848958333
 30
0.0
 10
-2.689930555555555
 20
-0.28525390625
 30
0.0
 10
-2.689930555555555
 20
2.68855251736111
 30
0.0
 10
-2.439127604166666
 20
4.938199869791666
 30
0.0
 10
-1.937521701388888
 20
6.464377170138886
 30
0.0
 10
-1.43591579861111
 20
7.989865451388887
 30
0.0
 10
-0.7827256944444444
 20
8.753298611111111
 30
0.0
 10
0.0220486111111111
 20
8.753298611111111
 30
0.0
 10
0.8468044704861108
 20
8.753298611111111
 30
0.0
 10
1.49792751736111
 20
7.982975260416663
 30
0.0
 10
1.974728732638888
 20
6.442328559027776
 30
0.0
 10
2.451529947916665
 20
4.901681857638886
 30
0.0
 10
2.689930555555555
 20
2.868386501736111
 30
0.0
 10
2.689930555555555
 20
0.3438205295138888
 30
0.0
 10
2.689930555555555
 20
-2.045697699652774
 30
0.0
 10
2.483224826388885
 20
-4.15891927083333
 30
0.0
 10
2.071191406249999
 20
-5.996533203124998
 30
0.0
 10
1.65915798611111
 20
-7.834836154513887
 30
0.0
 10
0.9908094618055557
 20
-8.753298611111111
 30
0.0
 10
0.0668348524305556
 20
-8.753298611111111
 30
0.0
  0
SPLINE
  5
2C0
330
2BE
100
AcDbEntity
  8
LAYER_1
 62
     7
100
AcDbSpline
210
0.0
220
0.0
230
1.0
 70
    11
 71
     3
 72
    29
 73
    25
 74
     0
 42
0.0000000001
 43
0.0000000001
 40
0.0
 40
0.0
 40
0.0
 40
0.0
 40
1.0
 40
1.0
 40
1.0
 40
2.0
 40
2.0
 40
2.0
 40
3.0
 40
3.0
 40
3.0
 40
4.0
 40
4.0
 40
4.0
 40
5.0
 40
5.0
 40
5.0
 40
6.0
 40
6.0
 40
6.0
 40
7.0
 40
7.0
 40
7.0
 40
8.0
 40
8.0
 40
8.0
 40
8.0
 10
-0.0289388020833333
 20
11.35503472222222
 30
0.0
 10
-1.317404513888887
 20
11.35503472222222
 30
0.0
 10
-2.28892144097222
 20
10.02798394097222
 30
0.0
 10
-2.94280056423611
 20
7.374571397569441
 30
0.0
 10
-3.450607638888888
 20
5.30613606770833
 30
0.0
 10
-3.704166666666666
 20
2.81877712673611
 30
0.0
 10
-3.704166666666666
 20
-0.0881944444444445
 30
0.0
 10
-3.704166666666666
 20
-3.307291666666666
 30
0.0
 10
-3.406510416666666
 20
-5.970350477430551
 30
0.0
 10
-2.811197916666666
 20
-8.077370876736106
 30
0.0
 10
-2.147672526041664
 20
-10.26293945312499
 30
0.0
 10
-1.229899088541666
 20
-11.35503472222222
 30
0.0
 10
-0.0585666232638889
 20
-11.35503472222222
 30
0.0
 10
1.20027126736111
 20
-11.35503472222222
 30
0.0
 10
2.166276041666665
 20
-10.10653211805555
 30
0.0
 10
2.840136718749998
 20
-7.609526909722221
 30
0.0
 10
3.416156684027776
 20
-5.483213975694441
 30
0.0
 10
3.704166666666666
 20
-2.814643012152775
 30
0.0
 10
3.704166666666666
 20
0.3948079427083333
 30
0.0
 10
3.704166666666666
 20
3.360346137152776
 30
0.0
 10
3.449918619791666
 20
5.793961588541666
 30
0.0
 10
2.94280056423611
 20
7.696343315972222
 30
0.0
 10
2.298567708333333
 20
10.13547092013888
 30
0.0
 10
1.307758246527777
 20
11.35503472222222
 30
0.0
 10
-0.0289388020833333
 20
11.35503472222222
 30
0.0
  0
ENDBLK
  5
2C2
330
2BE
100
AcDbEntity
  8
0
100
AcDbBlockEnd
  0
BLOCK
  5
2C6
330
2C3
100
AcDbEntity
  8
0
 62
     7
100
AcDbBlockBegin
  2
AI9-BLK8
 70
     0
 10
0.0
 20
0.0
 30
0.0
  3
AI9-BLK8
  1

  0
LWPOLYLINE
  5
2C4
330
2C3
100
AcDbEntity
  8
LAYER_1
 62
     7
100
AcDbPolyline
 90
       10
 70
     1
 43
0.0
 10
-3.792361111111107
 20
10.7376736111111
 10
-2.268939887152774
 20
10.7376736111111
 10
2.557638888888888
 20
-6.505718315972222
 10
2.557638888888888
 20
10.7376736111111
 10
3.792361111111107
 20
10.7376736111111
 10
3.792361111111107
 20
-10.7376736111111
 10
2.32612847222222
 20
-10.7376736111111
 10
-2.557638888888888
 20
6.549815538194441
 10
-2.557638888888888
 20
-10.7376736111111
 10
-3.792361111111107
 20
-10.7376736111111
  0
HATCH
  5
2C5
330
2C3
100
AcDbEntity
  8
LAYER_1
 62
     7
100
AcDbHatch
 10
0.0
 20
0.0
 30
0.0
210
0.0
220
0.0
230
1.0
  2
SOLID
 70
     1
 71
     0
 91
        1
 92
        3
 72
     0
 73
     1
 93
       10
 10
-3.792361111111107
 20
10.7376736111111
 10
-2.268939887152774
 20
10.7376736111111
 10
2.557638888888888
 20
-6.505718315972222
 10
2.557638888888888
 20
10.7376736111111
 10
3.792361111111107
 20
10.7376736111111
 10
3.792361111111107
 20
-10.7376736111111
 10
2.32612847222222
 20
-10.7376736111111
 10
-2.557638888888888
 20
6.549815538194441
 10
-2.557638888888888
 20
-10.7376736111111
 10
-3.792361111111107
 20
-10.7376736111111
 97
        0
 75
     2
 76
     1
 98
        1
 10
0.0
 20
0.0
  0
ENDBLK
  5
2C7
330
2C3
100
AcDbEntity
  8
0
100
AcDbBlockEnd
  0
BLOCK
  5
2CB
330
2C8
100
AcDbEntity
  8
0
 62
     7
100
AcDbBlockBegin
  2
AI9-BLK7
 70
     0
 10
0.0
 20
0.0
 30
0.0
  3
AI9-BLK7
  1

  0
LWPOLYLINE
  5
2C9
330
2C8
100
AcDbEntity
  8
LAYER_1
 62
     7
100
AcDbPolyline
 90
        4
 70
     1
 43
0.0
 10
-0.6614583333333333
 20
10.7376736111111
 10
0.6614583333333333
 20
10.7376736111111
 10
0.6614583333333333
 20
-10.7376736111111
 10
-0.6614583333333333
 20
-10.7376736111111
  0
HATCH
  5
2CA
330
2C8
100
AcDbEntity
  8
LAYER_1
 62
     7
100
AcDbHatch
 10
0.0
 20
0.0
 30
0.0
210
0.0
220
0.0
230
1.0
  2
SOLID
 70
     1
 71
     0
 91
        1
 92
        3
 72
     0
 73
     1
 93
        4
 10
-0.6614583333333333
 20
10.7376736111111
 10
0.6614583333333333
 20
10.7376736111111
 10
0.6614583333333333
 20
-10.7376736111111
 10
-0.6614583333333333
 20
-10.7376736111111
 97
        0
 75
     2
 76
     1
 98
        1
 10
0.0
 20
0.0
  0
ENDBLK
  5
2CC
330
2C8
100
AcDbEntity
  8
0
100
AcDbBlockEnd
  0
BLOCK
  5
2CF
330
2CD
100
AcDbEntity
  8
0
 62
     7
100
AcDbBlockBegin
  2
AI9-BLK6
 70
     0
 10
0.0
 20
0.0
 30
0.0
  3
AI9-BLK6
  1

  0
SPLINE
  5
2CE
330
2CD
100
AcDbEntity
  8
LAYER_1
 62
     7
100
AcDbSpline
210
0.0
220
0.0
230
1.0
 70
    11
 71
     3
 72
    59
 73
    55
 74
     0
 42
0.0000000001
 43
0.0000000001
 40
0.0
 40
0.0
 40
0.0
 40
0.0
 40
1.0
 40
1.0
 40
1.0
 40
2.0
 40
2.0
 40
2.0
 40
3.0
 40
3.0
 40
3.0
 40
4.0
 40
4.0
 40
4.0
 40
5.0
 40
5.0
 40
5.0
 40
6.0
 40
6.0
 40
6.0
 40
7.0
 40
7.0
 40
7.0
 40
8.0
 40
8.0
 40
8.0
 40
9.0
 40
9.0
 40
9.0
 40
10.0
 40
10.0
 40
10.0
 40
11.0
 40
11.0
 40
11.0
 40
12.0
 40
12.0
 40
12.0
 40
13.0
 40
13.0
 40
13.0
 40
14.0
 40
14.0
 40
14.0
 40
15.0
 40
15.0
 40
15.0
 40
16.0
 40
16.0
 40
16.0
 40
17.0
 40
17.0
 40
17.0
 40
18.0
 40
18.0
 40
18.0
 40
18.0
 10
3.062689887152775
 20
9.168088107638887
 30
0.0
 10
3.735172526041666
 20
7.739062499999997
 30
0.0
 10
4.110687934027776
 20
6.116422526041666
 30
0.0
 10
4.189236111111108
 20
4.299479166666666
 30
0.0
 10
4.189236111111108
 20
4.299479166666666
 30
0.0
 10
2.866319444444443
 20
4.299479166666666
 30
0.0
 10
2.866319444444443
 20
4.299479166666666
 30
0.0
 10
2.720936414930555
 20
5.667871093749997
 30
0.0
 10
2.435682508680555
 20
6.752387152777776
 30
0.0
 10
2.009868706597219
 20
7.553027343749997
 30
0.0
 10
1.584054904513888
 20
8.352978515624997
 30
0.0
 10
0.9839192708333332
 20
8.753298611111111
 30
0.0
 10
0.2101508246527778
 20
8.753298611111111
 30
0.0
 10
-0.7386284722222222
 20
8.753298611111111
 30
0.0
 10
-1.503439670138888
 20
8.010536024305555
 30
0.0
 10
-2.083593749999999
 20
6.526388888888886
 30
0.0
 10
-2.664436848958333
 20
5.042241753472221
 30
0.0
 10
-2.954513888888888
 20
2.767100694444443
 30
0.0
 10
-2.954513888888888
 20
-0.2990342881944444
 30
0.0
 10
-2.954513888888888
 20
-2.811197916666666
 30
0.0
 10
-2.693375651041666
 20
-4.847938368055555
 30
0.0
 10
-2.17041015625
 20
-6.409944661458332
 30
0.0
 10
-1.648133680555553
 20
-7.972639973958332
 30
0.0
 10
-0.8640299479166666
 20
-8.753298611111111
 30
0.0
 10
0.1812120225694444
 20
-8.753298611111111
 30
0.0
 10
1.138948567708333
 20
-8.753298611111111
 30
0.0
 10
1.865174696180553
 20
-7.927853732638887
 30
0.0
 10
2.359201388888885
 20
-6.275585937499998
 30
0.0
 10
2.62998589409722
 20
-5.406043836805555
 30
0.0
 10
2.828423394097221
 20
-4.262272135416666
 30
0.0
 10
2.954513888888888
 20
-2.844270833333331
 30
0.0
 10
2.954513888888888
 20
-2.844270833333331
 30
0.0
 10
4.277430555555555
 20
-2.844270833333331
 30
0.0
 10
4.277430555555555
 20
-2.844270833333331
 30
0.0
 10
4.169943576388888
 20
-5.109765624999996
 30
0.0
 10
3.795117187499998
 20
-7.009391276041665
 30
0.0
 10
3.151573350694443
 20
-8.542458767361106
 30
0.0
 10
2.381249999999999
 20
-10.38834092881943
 30
0.0
 10
1.347721354166665
 20
-11.3109375
 30
0.0
 10
0.0509874131944445
 20
-11.3109375
 30
0.0
 10
-1.07004665798611
 20
-11.3109375
 30
0.0
 10
-2.010557725694444
 20
-10.55577256944443
 30
0.0
 10
-2.771234809027776
 20
-9.04475368923611
 30
0.0
 10
-3.775824652777775
 20
-7.046598307291666
 30
0.0
 10
-4.277430555555555
 20
-3.961170789930555
 30
0.0
 10
-4.277430555555555
 20
0.2115288628472222
 30
0.0
 10
-4.277430555555555
 20
3.379638671874998
 30
0.0
 10
-3.902604166666666
 20
5.977929687499997
 30
0.0
 10
-3.151573350694443
 20
8.005712890624996
 30
0.0
 10
-2.333018663194443
 20
10.20919596354165
 30
0.0
 10
-1.20647243923611
 20
11.3109375
 30
0.0
 10
0.2266872829861111
 20
11.3109375
 30
0.0
 10
1.444873046875
 20
11.3109375
 30
0.0
 10
2.390207248263885
 20
10.59642469618055
 30
0.0
 10
3.062689887152775
 20
9.168088107638887
 30
0.0
  0
ENDBLK
  5
2D0
330
2CD
100
AcDbEntity
  8
0
100
AcDbBlockEnd
  0
BLOCK
  5
2D4
330
2D1
100
AcDbEntity
  8
0
 62
     7
100
AcDbBlockBegin
  2
AI9-BLK5
 70
     0
 10
0.0
 20
0.0
 30
0.0
  3
AI9-BLK5
  1

  0
SPLINE
  5
2D2
330
2D1
100
AcDbEntity
  8
LAYER_1
 62
     7
100
AcDbSpline
210
0.0
220
0.0
230
1.0
 70
    11
 71
     3
 72
    32
 73
    28
 74
     0
 42
0.0000000001
 43
0.0000000001
 40
0.0
 40
0.0
 40
0.0
 40
0.0
 40
1.0
 40
1.0
 40
1.0
 40
2.0
 40
2.0
 40
2.0
 40
3.0
 40
3.0
 40
3.0
 40
4.0
 40
4.0
 40
4.0
 40
5.0
 40
5.0
 40
5.0
 40
6.0
 40
6.0
 40
6.0
 40
7.0
 40
7.0
 40
7.0
 40
8.0
 40
8.0
 40
8.0
 40
9.0
 40
9.0
 40
9.0
 40
9.0
 10
-2.62378472222222
 20
-8.268229166666666
 30
0.0
 10
-2.62378472222222
 20
-8.268229166666666
 30
0.0
 10
-2.62378472222222
 20
8.180034722222217
 30
0.0
 10
-2.62378472222222
 20
8.180034722222217
 30
0.0
 10
-2.62378472222222
 20
8.180034722222217
 30
0.0
 10
-0.3376193576388888
 20
8.180034722222217
 30
0.0
 10
-0.3376193576388888
 20
8.180034722222217
 30
0.0
 10
0.6972873263888888
 20
8.180034722222217
 30
0.0
 10
1.449007161458333
 20
7.445540364583332
 30
0.0
 10
1.918918185763885
 20
5.977929687499997
 30
0.0
 10
2.388829210069443
 20
4.510319010416666
 30
0.0
 10
2.62378472222222
 20
2.449462890624999
 30
0.0
 10
2.62378472222222
 20
-0.204638671875
 30
0.0
 10
2.62378472222222
 20
-0.8950358072916666
 30
0.0
 10
2.590022786458332
 20
-1.643310546874999
 30
0.0
 10
2.523187934027774
 20
-2.45015190972222
 30
0.0
 10
2.408121744791666
 20
-3.80200737847222
 30
0.0
 10
2.226220703124999
 20
-4.909950086805555
 30
0.0
 10
1.976795789930553
 20
-5.774669053819441
 30
0.0
 10
1.659847005208333
 20
-6.853672960069442
 30
0.0
 10
1.252636718749998
 20
-7.583344184027778
 30
0.0
 10
0.7544759114583333
 20
-7.962304687499997
 30
0.0
 10
0.4664659288194444
 20
-8.166254340277777
 30
0.0
 10
0.1074869791666666
 20
-8.268229166666666
 30
0.0
 10
-0.3231499565972222
 20
-8.268229166666666
 30
0.0
 10
-0.3231499565972222
 20
-8.268229166666666
 30
0.0
 10
-2.62378472222222
 20
-8.268229166666666
 30
0.0
 10
-2.62378472222222
 20
-8.268229166666666
 30
0.0
  0
SPLINE
  5
2D3
330
2D1
100
AcDbEntity
  8
LAYER_1
 62
     7
100
AcDbSpline
210
0.0
220
0.0
230
1.0
 70
    11
 71
     3
 72
    26
 73
    22
 74
     0
 42
0.0000000001
 43
0.0000000001
 40
0.0
 40
0.0
 40
0.0
 40
0.0
 40
1.0
 40
1.0
 40
1.0
 40
2.0
 40
2.0
 40
2.0
 40
3.0
 40
3.0
 40
3.0
 40
4.0
 40
4.0
 40
4.0
 40
5.0
 40
5.0
 40
5.0
 40
6.0
 40
6.0
 40
6.0
 40
7.0
 40
7.0
 40
7.0
 40
7.0
 10
-3.946701388888888
 20
-10.7376736111111
 30
0.0
 10
-3.946701388888888
 20
-10.7376736111111
 30
0.0
 10
-0.0943956163194444
 20
-10.7376736111111
 30
0.0
 10
-0.0943956163194444
 20
-10.7376736111111
 30
0.0
 10
1.546847873263885
 20
-10.7376736111111
 30
0.0
 10
2.705777994791666
 20
-9.11021050347222
 30
0.0
 10
3.381705729166666
 20
-5.854595269097222
 30
0.0
 10
3.757910156249999
 20
-4.01284722222222
 30
0.0
 10
3.946701388888888
 20
-1.951991102430555
 30
0.0
 10
3.946701388888888
 20
0.328662109375
 30
0.0
 10
3.946701388888888
 20
3.281797960069443
 30
0.0
 10
3.622862413194443
 20
5.703700086805552
 30
0.0
 10
2.976562499999998
 20
7.594368489583332
 30
0.0
 10
2.25171440972222
 20
9.689675564236106
 30
0.0
 10
1.233344184027777
 20
10.7376736111111
 30
0.0
 10
-0.0799262152777778
 20
10.7376736111111
 30
0.0
 10
-0.0799262152777778
 20
10.7376736111111
 30
0.0
 10
-3.946701388888888
 20
10.7376736111111
 30
0.0
 10
-3.946701388888888
 20
10.7376736111111
 30
0.0
 10
-3.946701388888888
 20
10.7376736111111
 30
0.0
 10
-3.946701388888888
 20
-10.7376736111111
 30
0.0
 10
-3.946701388888888
 20
-10.7376736111111
 30
0.0
  0
ENDBLK
  5
2D5
330
2D1
100
AcDbEntity
  8
0
100
AcDbBlockEnd
  0
BLOCK
  5
2D9
330
2D6
100
AcDbEntity
  8
0
 62
     7
100
AcDbBlockBegin
  2
AI9-BLK4
 70
     0
 10
0.0
 20
0.0
 30
0.0
  3
AI9-BLK4
  1

  0
SPLINE
  5
2D7
330
2D6
100
AcDbEntity
  8
LAYER_1
 62
     7
100
AcDbSpline
210
0.0
220
0.0
230
1.0
 70
    11
 71
     3
 72
    26
 73
    22
 74
     0
 42
0.0000000001
 43
0.0000000001
 40
0.0
 40
0.0
 40
0.0
 40
0.0
 40
1.0
 40
1.0
 40
1.0
 40
2.0
 40
2.0
 40
2.0
 40
3.0
 40
3.0
 40
3.0
 40
4.0
 40
4.0
 40
4.0
 40
5.0
 40
5.0
 40
5.0
 40
6.0
 40
6.0
 40
6.0
 40
7.0
 40
7.0
 40
7.0
 40
7.0
 10
-2.645833333333333
 20
0.9039930555555551
 30
0.0
 10
-2.645833333333333
 20
0.9039930555555551
 30
0.0
 10
-2.645833333333333
 20
8.180034722222217
 30
0.0
 10
-2.645833333333333
 20
8.180034722222217
 30
0.0
 10
-2.645833333333333
 20
8.180034722222217
 30
0.0
 10
0.465087890625
 20
8.180034722222217
 30
0.0
 10
0.465087890625
 20
8.180034722222217
 30
0.0
 10
0.9026150173611108
 20
8.180034722222217
 30
0.0
 10
1.24988064236111
 20
8.034651692708331
 30
0.0
 10
1.506884765625
 20
7.745263671874997
 30
0.0
 10
2.001600477430554
 20
7.194048394097221
 30
0.0
 10
2.248958333333332
 20
6.160519748263887
 30
0.0
 10
2.248958333333332
 20
4.643299696180553
 30
0.0
 10
2.248958333333332
 20
3.232188585069443
 30
0.0
 10
2.072569444444444
 20
2.256537543402775
 30
0.0
 10
1.720480685763888
 20
1.715657552083333
 30
0.0
 10
1.368391927083333
 20
1.174088541666665
 30
0.0
 10
0.8929687499999998
 20
0.9039930555555551
 30
0.0
 10
0.2942111545138888
 20
0.9039930555555551
 30
0.0
 10
0.2942111545138888
 20
0.9039930555555551
 30
0.0
 10
-2.645833333333333
 20
0.9039930555555551
 30
0.0
 10
-2.645833333333333
 20
0.9039930555555551
 30
0.0
  0
SPLINE
  5
2D8
330
2D6
100
AcDbEntity
  8
LAYER_1
 62
     7
100
AcDbSpline
210
0.0
220
0.0
230
1.0
 70
    11
 71
     3
 72
    68
 73
    64
 74
     0
 42
0.0000000001
 43
0.0000000001
 40
0.0
 40
0.0
 40
0.0
 40
0.0
 40
1.0
 40
1.0
 40
1.0
 40
2.0
 40
2.0
 40
2.0
 40
3.0
 40
3.0
 40
3.0
 40
4.0
 40
4.0
 40
4.0
 40
5.0
 40
5.0
 40
5.0
 40
6.0
 40
6.0
 40
6.0
 40
7.0
 40
7.0
 40
7.0
 40
8.0
 40
8.0
 40
8.0
 40
9.0
 40
9.0
 40
9.0
 40
10.0
 40
10.0
 40
10.0
 40
11.0
 40
11.0
 40
11.0
 40
12.0
 40
12.0
 40
12.0
 40
13.0
 40
13.0
 40
13.0
 40
14.0
 40
14.0
 40
14.0
 40
15.0
 40
15.0
 40
15.0
 40
16.0
 40
16.0
 40
16.0
 40
17.0
 40
17.0
 40
17.0
 40
18.0
 40
18.0
 40
18.0
 40
19.0
 40
19.0
 40
19.0
 40
20.0
 40
20.0
 40
20.0
 40
21.0
 40
21.0
 40
21.0
 40
21.0
 10
-3.968749999999998
 20
-10.7376736111111
 30
0.0
 10
-3.968749999999998
 20
-10.7376736111111
 30
0.0
 10
-2.645833333333333
 20
-10.7376736111111
 30
0.0
 10
-2.645833333333333
 20
-10.7376736111111
 30
0.0
 10
-2.645833333333333
 20
-10.7376736111111
 30
0.0
 10
-2.645833333333333
 20
-1.521354166666665
 30
0.0
 10
-2.645833333333333
 20
-1.521354166666665
 30
0.0
 10
-2.645833333333333
 20
-1.521354166666665
 30
0.0
 10
0.2390896267361111
 20
-1.521354166666665
 30
0.0
 10
0.2390896267361111
 20
-1.521354166666665
 30
0.0
 10
0.7599880642361111
 20
-1.521354166666665
 30
0.0
 10
1.143771701388887
 20
-1.65295681423611
 30
0.0
 10
1.390440538194444
 20
-1.916162109374999
 30
0.0
 10
1.816254340277774
 20
-2.39434136284722
 30
0.0
 10
2.04363064236111
 20
-3.335541449652775
 30
0.0
 10
2.072569444444444
 20
-4.739762369791666
 30
0.0
 10
2.072569444444444
 20
-4.739762369791666
 30
0.0
 10
2.160763888888888
 20
-8.324039713541665
 30
0.0
 10
2.160763888888888
 20
-8.324039713541665
 30
0.0
 10
2.18005642361111
 20
-9.163264973958332
 30
0.0
 10
2.202794053819443
 20
-9.728949652777775
 30
0.0
 10
2.227598741319444
 20
-10.02109374999998
 30
0.0
 10
2.252403428819443
 20
-10.31392686631944
 30
0.0
 10
2.28892144097222
 20
-10.55301649305555
 30
0.0
 10
2.33853081597222
 20
-10.7376736111111
 30
0.0
 10
2.33853081597222
 20
-10.7376736111111
 30
0.0
 10
3.968749999999998
 20
-10.7376736111111
 30
0.0
 10
3.968749999999998
 20
-10.7376736111111
 30
0.0
 10
3.968749999999998
 20
-10.7376736111111
 30
0.0
 10
3.968749999999998
 20
-10.25260416666666
 30
0.0
 10
3.968749999999998
 20
-10.25260416666666
 30
0.0
 10
3.766867404513888
 20
-10.05830078125
 30
0.0
 10
3.625618489583333
 20
-9.621462673611112
 30
0.0
 10
3.545692274305555
 20
-8.942089843749997
 30
0.0
 10
3.49470486111111
 20
-8.543836805555555
 30
0.0
 10
3.459564887152775
 20
-7.937499999999999
 30
0.0
 10
3.439583333333333
 20
-7.121701388888887
 30
0.0
 10
3.439583333333333
 20
-7.121701388888887
 30
0.0
 10
3.395486111111107
 20
-4.232644314236107
 30
0.0
 10
3.395486111111107
 20
-4.232644314236107
 30
0.0
 10
3.375504557291666
 20
-2.981385633680555
 30
0.0
 10
3.26870659722222
 20
-2.077392578125
 30
0.0
 10
3.075781249999999
 20
-1.522043185763888
 30
0.0
 10
2.882166883680555
 20
-0.9666937934027776
 30
0.0
 10
2.592089843749999
 20
-0.5188313802083333
 30
0.0
 10
2.204861111111107
 20
-0.1770779079861111
 30
0.0
 10
2.63618706597222
 20
0.3197048611111111
 30
0.0
 10
2.971739366319443
 20
0.9770290798611107
 30
0.0
 10
3.211518012152775
 20
1.79558376736111
 30
0.0
 10
3.451296657986107
 20
2.613449435763888
 30
0.0
 10
3.571874999999999
 20
3.66558159722222
 30
0.0
 10
3.571874999999999
 20
4.951291232638888
 30
0.0
 10
3.571874999999999
 20
7.415912543402777
 30
0.0
 10
3.124701605902775
 20
9.106076388888887
 30
0.0
 10
2.231043836805555
 20
10.02178276909722
 30
0.0
 10
1.759754774305553
 20
10.498583984375
 30
0.0
 10
1.163753255208332
 20
10.7376736111111
 30
0.0
 10
0.443039279513889
 20
10.7376736111111
 30
0.0
 10
0.443039279513889
 20
10.7376736111111
 30
0.0
 10
-3.968749999999998
 20
10.7376736111111
 30
0.0
 10
-3.968749999999998
 20
10.7376736111111
 30
0.0
 10
-3.968749999999998
 20
10.7376736111111
 30
0.0
 10
-3.968749999999998
 20
-10.7376736111111
 30
0.0
 10
-3.968749999999998
 20
-10.7376736111111
 30
0.0
  0
ENDBLK
  5
2DA
330
2D6
100
AcDbEntity
  8
0
100
AcDbBlockEnd
  0
BLOCK
  5
2DE
330
2DB
100
AcDbEntity
  8
0
 62
     7
100
AcDbBlockBegin
  2
AI9-BLK3
 70
     0
 10
0.0
 20
0.0
 30
0.0
  3
AI9-BLK3
  1

  0
LWPOLYLINE
  5
2DC
330
2DB
100
AcDbEntity
  8
LAYER_1
 62
     7
100
AcDbPolyline
 90
        4
 70
     1
 43
0.0
 10
-0.6613722059461809
 20
10.7376736111111
 10
0.6613722059461809
 20
10.7376736111111
 10
0.6613722059461809
 20
-10.7376736111111
 10
-0.6613722059461809
 20
-10.7376736111111
  0
HATCH
  5
2DD
330
2DB
100
AcDbEntity
  8
LAYER_1
 62
     7
100
AcDbHatch
 10
0.0
 20
0.0
 30
0.0
210
0.0
220
0.0
230
1.0
  2
SOLID
 70
     1
 71
     0
 91
        1
 92
        3
 72
     0
 73
     1
 93
        4
 10
-0.6613722059461809
 20
10.7376736111111
 10
0.6613722059461809
 20
10.7376736111111
 10
0.6613722059461809
 20
-10.7376736111111
 10
-0.6613722059461809
 20
-10.7376736111111
 97
        0
 75
     2
 76
     1
 98
        1
 10
0.0
 20
0.0
  0
ENDBLK
  5
2DF
330
2DB
100
AcDbEntity
  8
0
100
AcDbBlockEnd
  0
BLOCK
  5
2E3
330
2E0
100
AcDbEntity
  8
0
 62
     7
100
AcDbBlockBegin
  2
AI9-BLK2
 70
     0
 10
0.0
 20
0.0
 30
0.0
  3
AI9-BLK2
  1

  0
LWPOLYLINE
  5
2E1
330
2E0
100
AcDbEntity
  8
LAYER_1
 62
     7
100
AcDbPolyline
 90
        7
 70
     1
 43
0.0
 10
-2.785704210069443
 20
10.7376736111111
 10
0.0
 20
-7.550960286458332
 10
2.771234809027776
 20
10.7376736111111
 10
4.233333333333331
 20
10.7376736111111
 10
0.6910861545138888
 20
-10.7376736111111
 10
-0.7055555555555558
 20
-10.7376736111111
 10
-4.233333333333331
 20
10.7376736111111
  0
HATCH
  5
2E2
330
2E0
100
AcDbEntity
  8
LAYER_1
 62
     7
100
AcDbHatch
 10
0.0
 20
0.0
 30
0.0
210
0.0
220
0.0
230
1.0
  2
SOLID
 70
     1
 71
     0
 91
        1
 92
        3
 72
     0
 73
     1
 93
        7
 10
-2.785704210069443
 20
10.7376736111111
 10
0.0
 20
-7.550960286458332
 10
2.771234809027776
 20
10.7376736111111
 10
4.233333333333331
 20
10.7376736111111
 10
0.6910861545138888
 20
-10.7376736111111
 10
-0.7055555555555558
 20
-10.7376736111111
 10
-4.233333333333331
 20
10.7376736111111
 97
        0
 75
     2
 76
     1
 98
        1
 10
0.0
 20
0.0
  0
ENDBLK
  5
2E4
330
2E0
100
AcDbEntity
  8
0
100
AcDbBlockEnd
  0
BLOCK
  5
2E8
330
2E5
100
AcDbEntity
  8
0
 62
     7
100
AcDbBlockBegin
  2
AI9-BLK1
 70
     0
 10
0.0
 20
0.0
 30
0.0
  3
AI9-BLK1
  1

  0
LWPOLYLINE
  5
2E6
330
2E5
100
AcDbEntity
  8
LAYER_1
 62
     7
100
AcDbPolyline
 90
       12
 70
     1
 43
0.0
 10
-3.571874999999999
 20
10.7376736111111
 10
3.483680555555555
 20
10.7376736111111
 10
3.483680555555555
 20
8.091840277777777
 10
-2.248958333333332
 20
8.091840277777777
 10
-2.248958333333332
 20
1.565451388888888
 10
3.042708333333333
 20
1.565451388888888
 10
3.042708333333333
 20
-0.9039930555555551
 10
-2.248958333333332
 20
-0.9039930555555551
 10
-2.248958333333332
 20
-8.180034722222217
 10
3.571874999999999
 20
-8.180034722222217
 10
3.571874999999999
 20
-10.7376736111111
 10
-3.571874999999999
 20
-10.7376736111111
  0
HATCH
  5
2E7
330
2E5
100
AcDbEntity
  8
LAYER_1
 62
     7
100
AcDbHatch
 10
0.0
 20
0.0
 30
0.0
210
0.0
220
0.0
230
1.0
  2
SOLID
 70
     1
 71
     0
 91
        1
 92
        3
 72
     0
 73
     1
 93
       12
 10
-3.571874999999999
 20
10.7376736111111
 10
3.483680555555555
 20
10.7376736111111
 10
3.483680555555555
 20
8.091840277777777
 10
-2.248958333333332
 20
8.091840277777777
 10
-2.248958333333332
 20
1.565451388888888
 10
3.042708333333333
 20
1.565451388888888
 10
3.042708333333333
 20
-0.9039930555555551
 10
-2.248958333333332
 20
-0.9039930555555551
 10
-2.248958333333332
 20
-8.180034722222217
 10
3.571874999999999
 20
-8.180034722222217
 10
3.571874999999999
 20
-10.7376736111111
 10
-3.571874999999999
 20
-10.7376736111111
 97
        0
 75
     2
 76
     1
 98
        1
 10
0.0
 20
0.0
  0
ENDBLK
  5
2E9
330
2E5
100
AcDbEntity
  8
0
100
AcDbBlockEnd
  0
BLOCK
  5
30D
330
2EA
100
AcDbEntity
  8
0
100
AcDbBlockBegin
  2
HD_LLC_logo_OT5
 70
     0
 10
0.0
 20
0.0
 30
0.0
  3
HD_LLC_logo_OT5
  1

  0
SPLINE
  5
2EB
102
{ACAD_REACTORS
330
30B
102
}
330
2EA
100
AcDbEntity
  8
LAYER_1
 62
     7
100
AcDbSpline
210
0.0
220
0.0
230
1.0
 70
    11
 71
     3
 72
   113
 73
   109
 74
     0
 42
0.0000000001
 43
0.0000000001
 40
0.0
 40
0.0
 40
0.0
 40
0.0
 40
1.0
 40
1.0
 40
1.0
 40
2.0
 40
2.0
 40
2.0
 40
3.0
 40
3.0
 40
3.0
 40
4.0
 40
4.0
 40
4.0
 40
5.0
 40
5.0
 40
5.0
 40
6.0
 40
6.0
 40
6.0
 40
7.0
 40
7.0
 40
7.0
 40
8.0
 40
8.0
 40
8.0
 40
9.0
 40
9.0
 40
9.0
 40
10.0
 40
10.0
 40
10.0
 40
11.0
 40
11.0
 40
11.0
 40
12.0
 40
12.0
 40
12.0
 40
13.0
 40
13.0
 40
13.0
 40
14.0
 40
14.0
 40
14.0
 40
15.0
 40
15.0
 40
15.0
 40
16.0
 40
16.0
 40
16.0
 40
17.0
 40
17.0
 40
17.0
 40
18.0
 40
18.0
 40
18.0
 40
19.0
 40
19.0
 40
19.0
 40
20.0
 40
20.0
 40
20.0
 40
21.0
 40
21.0
 40
21.0
 40
22.0
 40
22.0
 40
22.0
 40
23.0
 40
23.0
 40
23.0
 40
24.0
 40
24.0
 40
24.0
 40
25.0
 40
25.0
 40
25.0
 40
26.0
 40
26.0
 40
26.0
 40
27.0
 40
27.0
 40
27.0
 40
28.0
 40
28.0
 40
28.0
 40
29.0
 40
29.0
 40
29.0
 40
30.0
 40
30.0
 40
30.0
 40
31.0
 40
31.0
 40
31.0
 40
32.0
 40
32.0
 40
32.0
 40
33.0
 40
33.0
 40
33.0
 40
34.0
 40
34.0
 40
34.0
 40
35.0
 40
35.0
 40
35.0
 40
36.0
 40
36.0
 40
36.0
 40
36.0
 10
193.3039632161458
 20
186.1548733181423
 30
0.0
 10
193.3039632161458
 20
186.1860514322916
 30
0.0
 10
193.3039632161458
 20
219.6932223849826
 30
0.0
 10
193.3039632161458
 20
219.6932223849826
 30
0.0
 10
193.3039632161458
 20
219.6932223849826
 30
0.0
 10
193.2974175347219
 20
219.7488606770833
 30
0.0
 10
193.2974175347219
 20
219.7488606770833
 30
0.0
 10
191.5293945312499
 20
235.455740017361
 30
0.0
 10
175.1458984374999
 20
235.2467949761284
 30
0.0
 10
174.9808783637151
 20
235.2428331163193
 30
0.0
 10
174.9808783637151
 20
235.2428331163193
 30
0.0
 10
125.8827555338541
 20
235.2430053710937
 30
0.0
 10
125.8827555338541
 20
235.2430053710937
 30
0.0
 10
125.8827555338541
 20
235.2430053710937
 30
0.0
 10
125.8827555338541
 20
255.5278998480901
 30
0.0
 10
125.8827555338541
 20
255.5278998480901
 30
0.0
 10
125.8827555338541
 20
255.5278998480901
 30
0.0
 10
84.5626247829861
 20
255.5278998480901
 30
0.0
 10
84.5626247829861
 20
255.5278998480901
 30
0.0
 10
84.5626247829861
 20
255.5278998480901
 30
0.0
 10
84.55711263020829
 20
233.7919311523436
 30
0.0
 10
84.55711263020829
 20
233.7919311523436
 30
0.0
 10
84.55711263020829
 20
233.7919311523436
 30
0.0
 10
64.42052951388888
 20
233.7919311523436
 30
0.0
 10
64.42052951388888
 20
233.7919311523436
 30
0.0
 10
64.42052951388888
 20
233.7919311523436
 30
0.0
 10
64.41501736111111
 20
255.5278998480901
 30
0.0
 10
64.41501736111111
 20
255.5278998480901
 30
0.0
 10
64.41501736111111
 20
255.5278998480901
 30
0.0
 10
23.91757541232637
 20
255.5278998480901
 30
0.0
 10
23.91757541232637
 20
255.5278998480901
 30
0.0
 10
23.91757541232637
 20
255.5278998480901
 30
0.0
 10
23.91757541232637
 20
233.2393378363715
 30
0.0
 10
23.91757541232637
 20
233.2393378363715
 30
0.0
 10
23.91757541232637
 20
233.2393378363715
 30
0.0
 10
43.65624999999999
 20
233.2393378363715
 30
0.0
 10
43.65624999999999
 20
233.2393378363715
 30
0.0
 10
43.65624999999999
 20
233.2393378363715
 30
0.0
 10
43.65624999999999
 20
211.5188720703125
 30
0.0
 10
43.65624999999999
 20
211.5188720703125
 30
0.0
 10
43.65624999999999
 20
211.5188720703125
 30
0.0
 10
23.91757541232637
 20
211.5188720703125
 30
0.0
 10
23.91757541232637
 20
211.5188720703125
 30
0.0
 10
23.91757541232637
 20
211.5188720703125
 30
0.0
 10
23.91757541232637
 20
189.2303100585936
 30
0.0
 10
23.91757541232637
 20
189.2303100585936
 30
0.0
 10
23.91757541232637
 20
189.2303100585936
 30
0.0
 10
64.41501736111111
 20
189.2303100585936
 30
0.0
 10
64.41501736111111
 20
189.2303100585936
 30
0.0
 10
64.41501736111111
 20
189.2303100585936
 30
0.0
 10
64.42052951388888
 20
211.069976128472
 30
0.0
 10
64.42052951388888
 20
211.069976128472
 30
0.0
 10
64.42052951388888
 20
211.069976128472
 30
0.0
 10
84.55711263020829
 20
211.069976128472
 30
0.0
 10
84.55711263020829
 20
211.069976128472
 30
0.0
 10
84.55711263020829
 20
211.069976128472
 30
0.0
 10
84.5626247829861
 20
189.2303100585936
 30
0.0
 10
84.5626247829861
 20
189.2303100585936
 30
0.0
 10
84.5626247829861
 20
189.2303100585936
 30
0.0
 10
125.8827555338541
 20
189.2303100585936
 30
0.0
 10
125.8827555338541
 20
189.2303100585936
 30
0.0
 10
125.8827555338541
 20
189.2303100585936
 30
0.0
 10
125.8827555338541
 20
211.5188720703125
 30
0.0
 10
125.8827555338541
 20
211.5188720703125
 30
0.0
 10
125.8827555338541
 20
211.5188720703125
 30
0.0
 10
105.3213921440971
 20
211.5188720703125
 30
0.0
 10
105.3213921440971
 20
211.5188720703125
 30
0.0
 10
105.3213921440971
 20
211.5188720703125
 30
0.0
 10
105.3213921440971
 20
233.2393378363715
 30
0.0
 10
105.3213921440971
 20
233.2393378363715
 30
0.0
 10
105.3213921440971
 20
233.2393378363715
 30
0.0
 10
175.0046495225693
 20
233.243127441406
 30
0.0
 10
175.0046495225693
 20
233.243127441406
 30
0.0
 10
175.6268337673611
 20
233.2560465494791
 30
0.0
 10
189.7165852864583
 20
233.3962619357638
 30
0.0
 10
191.3037407769094
 20
219.5690266927083
 30
0.0
 10
191.3037407769094
 20
219.4332899305555
 30
0.0
 10
191.3037407769094
 20
186.1142211914062
 30
0.0
 10
191.3037407769094
 20
186.1142211914062
 30
0.0
 10
191.3037407769094
 20
186.1142211914062
 30
0.0
 10
191.3051188151039
 20
186.0880384657115
 30
0.0
 10
191.3051188151039
 20
186.0880384657115
 30
0.0
 10
191.3054633246526
 20
186.0787367078991
 30
0.0
 10
191.3109754774304
 20
185.9566080729166
 30
0.0
 10
191.3109754774304
 20
185.7399115668401
 30
0.0
 10
191.3109754774304
 20
184.2090833875865
 30
0.0
 10
191.0488037109374
 20
177.9643310546874
 30
0.0
 10
186.9866916232638
 20
173.5652886284722
 30
0.0
 10
184.2540418836804
 20
170.6064683702255
 30
0.0
 10
180.3224989149304
 20
169.0308539496526
 30
0.0
 10
175.300927734375
 20
168.8825425889756
 30
0.0
 10
175.300927734375
 20
168.8825425889756
 30
0.0
 10
107.0094889322916
 20
168.8828870985243
 30
0.0
 10
107.0094889322916
 20
168.8828870985243
 30
0.0
 10
107.0094889322916
 20
168.8828870985243
 30
0.0
 10
107.0094889322916
 20
166.8830091688368
 30
0.0
 10
107.0094889322916
 20
166.8830091688368
 30
0.0
 10
107.0094889322916
 20
166.8830091688368
 30
0.0
 10
175.3305555555555
 20
166.8830091688368
 30
0.0
 10
175.3305555555555
 20
166.8830091688368
 30
0.0
 10
180.9467502170138
 20
167.0485460069444
 30
0.0
 10
185.3571614583333
 20
168.8448187934026
 30
0.0
 10
188.4687717013888
 20
172.2223904079861
 30
0.0
 10
192.9649658203124
 20
177.1034016927083
 30
0.0
 10
193.3136094835069
 20
183.7202243381076
 30
0.0
 10
193.3136094835069
 20
185.6520616319443
 30
0.0
 10
193.3136094835069
 20
185.9247409396701
 30
0.0
 10
193.3070638020833
 20
186.0868326822916
 30
0.0
 10
193.3039632161458
 20
186.1548733181423
 30
0.0
  0
INSERT
  5
2EC
102
{ACAD_REACTORS
330
30C
102
}
330
2EA
100
AcDbEntity
  8
LAYER_1
 62
     7
100
AcDbBlockReference
  2
AI9-BLK14
 10
159.5625257703993
 20
200.5118781195744
 30
0.0
  0
INSERT
  5
2ED
330
2EA
100
AcDbEntity
  8
LAYER_1
 62
     7
100
AcDbBlockReference
  2
AI9-BLK13
 10
27.69615614149305
 20
179.2145562065971
 30
0.0
 42
0.9200000000000001
  0
INSERT
  5
2EE
102
{ACAD_REACTORS
330
2F9
102
}
330
2EA
100
AcDbEntity
  8
LAYER_1
 62
     7
100
AcDbBlockReference
  2
AI9-BLK11
 10
44.76591525607638
 20
179.2145562065971
 30
0.0
 42
0.9200000000000001
  0
INSERT
  5
2EF
102
{ACAD_REACTORS
330
307
102
}
330
2EA
100
AcDbEntity
  8
LAYER_1
 62
     7
100
AcDbBlockReference
  2
AI9-BLK10
 10
54.04665798611111
 20
179.2145562065971
 30
0.0
 42
0.9200000000000001
  0
INSERT
  5
2F0
102
{ACAD_REACTORS
330
306
102
}
330
2EA
100
AcDbEntity
  8
LAYER_1
 62
     7
100
AcDbBlockReference
  2
AI9-BLK9
 10
62.79013807508679
 20
179.2145562065971
 30
0.0
 42
0.9
  0
INSERT
  5
2F1
330
2EA
100
AcDbEntity
  8
LAYER_1
 62
     7
100
AcDbBlockReference
  2
AI9-BLK8
 10
71.03046196831595
 20
179.2145562065971
 30
0.0
 42
0.9200000000000001
  0
INSERT
  5
2F2
330
2EA
100
AcDbEntity
  8
LAYER_1
 62
     7
100
AcDbBlockReference
  2
AI9-BLK7
 10
76.93793945312498
 20
179.2145562065971
 30
0.0
 42
0.9200000000000001
  0
INSERT
  5
2F3
102
{ACAD_REACTORS
330
2FA
102
}
330
2EA
100
AcDbEntity
  8
LAYER_1
 62
     7
100
AcDbBlockReference
  2
AI9-BLK6
 10
82.55602891710069
 20
179.2145562065971
 30
0.0
 42
0.9
  0
INSERT
  5
2F4
102
{ACAD_REACTORS
330
308
102
}
330
2EA
100
AcDbEntity
  8
LAYER_1
 62
     7
100
AcDbBlockReference
  2
AI9-BLK5
 10
94.32430284288193
 20
179.2145562065971
 30
0.0
 42
0.9200000000000001
  0
INSERT
  5
2F5
102
{ACAD_REACTORS
330
309
102
}
330
2EA
100
AcDbEntity
  8
LAYER_1
 62
     7
100
AcDbBlockReference
  2
AI9-BLK4
 10
103.2081705729166
 20
179.2145562065971
 30
0.0
 42
0.9200000000000001
  0
INSERT
  5
2F6
330
2EA
100
AcDbEntity
  8
LAYER_1
 62
     7
100
AcDbBlockReference
  2
AI9-BLK3
 10
108.850978597005
 20
179.2145562065971
 30
0.0
 42
0.9200000000000001
  0
INSERT
  5
2F7
330
2EA
100
AcDbEntity
  8
LAYER_1
 62
     7
100
AcDbBlockReference
  2
AI9-BLK2
 10
114.2045708550346
 20
179.2145562065971
 30
0.0
 42
0.9200000000000001
  0
INSERT
  5
2F8
330
2EA
100
AcDbEntity
  8
LAYER_1
 62
     7
100
AcDbBlockReference
  2
AI9-BLK1
 10
122.4125108506944
 20
179.2145562065971
 30
0.0
 42
0.9200000000000001
  0
HATCH
  5
2F9
330
2EA
100
AcDbEntity
  8
0
  6
Continuous
100
AcDbHatch
 10
0.0
 20
0.0
 30
0.0
210
0.0
220
0.0
230
1.0
  2
SOLID
 70
     1
 71
     1
 91
        2
 92
       16
 93
        1
 72
     4
 94
        3
 73
     0
 74
     0
 95
       26
 96
       22
 40
0.0
 40
0.0
 40
0.0
 40
0.0
 40
1.0
 40
1.0
 40
1.0
 40
2.0
 40
2.0
 40
2.0
 40
3.0
 40
3.0
 40
3.0
 40
4.0
 40
4.0
 40
4.0
 40
5.0
 40
5.0
 40
5.0
 40
6.0
 40
6.0
 40
6.0
 40
7.0
 40
7.0
 40
7.0
 40
7.0
 10
42.12008192274304
 20
180.046229817708
 10
42.12008192274304
 20
180.046229817708
 10
42.12008192274304
 20
186.7401881510414
 10
42.12008192274304
 20
186.7401881510414
 10
42.12008192274304
 20
186.7401881510414
 10
45.23100314670138
 20
186.7401881510414
 10
45.23100314670138
 20
186.7401881510414
 10
45.66853027343749
 20
186.7401881510414
 10
46.01579589843749
 20
186.6064357638888
 10
46.27280002170138
 20
186.3401987847219
 10
46.76751573350694
 20
185.8330807291664
 10
47.01487358940972
 20
184.8822343749999
 10
47.01487358940972
 20
183.4863919270832
 10
47.01487358940972
 20
182.188169704861
 10
46.83848470052082
 20
181.2905707465276
 10
46.48639594184028
 20
180.7929611545138
 10
46.13430718315971
 20
180.2947176649304
 10
45.65888400607638
 20
180.046229817708
 10
45.06012641059028
 20
180.046229817708
 10
45.06012641059028
 20
180.046229817708
 10
42.12008192274304
 20
180.046229817708
 10
42.12008192274304
 20
180.046229817708
 97
        1
330
2EE
 92
        1
 93
        1
 72
     4
 94
        3
 73
     0
 74
     0
 95
       68
 96
       64
 40
0.0
 40
0.0
 40
0.0
 40
0.0
 40
1.0
 40
1.0
 40
1.0
 40
2.0
 40
2.0
 40
2.0
 40
3.0
 40
3.0
 40
3.0
 40
4.0
 40
4.0
 40
4.0
 40
5.0
 40
5.0
 40
5.0
 40
6.0
 40
6.0
 40
6.0
 40
7.0
 40
7.0
 40
7.0
 40
8.0
 40
8.0
 40
8.0
 40
9.0
 40
9.0
 40
9.0
 40
10.0
 40
10.0
 40
10.0
 40
11.0
 40
11.0
 40
11.0
 40
12.0
 40
12.0
 40
12.0
 40
13.0
 40
13.0
 40
13.0
 40
14.0
 40
14.0
 40
14.0
 40
15.0
 40
15.0
 40
15.0
 40
16.0
 40
16.0
 40
16.0
 40
17.0
 40
17.0
 40
17.0
 40
18.0
 40
18.0
 40
18.0
 40
19.0
 40
19.0
 40
19.0
 40
20.0
 40
20.0
 40
20.0
 40
21.0
 40
21.0
 40
21.0
 40
21.0
 10
40.79716525607638
 20
169.3358964843748
 10
40.79716525607638
 20
169.3358964843748
 10
42.12008192274304
 20
169.3358964843748
 10
42.12008192274304
 20
169.3358964843748
 10
42.12008192274304
 20
169.3358964843748
 10
42.12008192274304
 20
177.8149103732638
 10
42.12008192274304
 20
177.8149103732638
 10
42.12008192274304
 20
177.8149103732638
 10
45.00500488281249
 20
177.8149103732638
 10
45.00500488281249
 20
177.8149103732638
 10
45.52590332031249
 20
177.8149103732638
 10
45.90968695746528
 20
177.6938359374999
 10
46.15635579427083
 20
177.4516870659719
 10
46.58216959635416
 20
177.0117621527776
 10
46.80954589843749
 20
176.1458580729166
 10
46.83848470052082
 20
174.8539748263888
 10
46.83848470052082
 20
174.8539748263888
 10
46.92667914496527
 20
171.5564396701388
 10
46.92667914496527
 20
171.5564396701388
 10
46.94597167968749
 20
170.7843524305554
 10
46.96870930989581
 20
170.2639225260416
 10
46.99351399739582
 20
169.9951499565971
 10
47.01831868489581
 20
169.725743489583
 10
47.0548366970486
 20
169.5057810329859
 10
47.10444607204859
 20
169.3358964843748
 10
47.10444607204859
 20
169.3358964843748
 10
48.73466525607638
 20
169.3358964843748
 10
48.73466525607638
 20
169.3358964843748
 10
48.73466525607638
 20
169.3358964843748
 10
48.73466525607638
 20
169.7821603732638
 10
48.73466525607638
 20
169.7821603732638
 10
48.53278266059028
 20
169.9609194878471
 10
48.39153374565971
 20
170.3628105468748
 10
48.31160753038194
 20
170.9878335503471
 10
48.26062011718749
 20
171.3542263454858
 10
48.22548014322916
 20
171.9120562065971
 10
48.20549858940971
 20
172.6625909288193
 10
48.20549858940971
 20
172.6625909288193
 10
48.16140136718749
 20
175.3205234374999
 10
48.16140136718749
 20
175.3205234374999
 10
48.14141981336803
 20
176.4716814236109
 10
48.03462185329859
 20
177.3033550347219
 10
47.84169650607638
 20
177.8142764756941
 10
47.64808213975693
 20
178.3251979166666
 10
47.35800509982638
 20
178.7372313368055
 10
46.97077636718749
 20
179.0516445312499
 10
47.4021023220486
 20
179.5086846788193
 10
47.73765462239582
 20
180.1134229600693
 10
47.97743326822916
 20
180.8664932725691
 10
48.2172119140625
 20
181.6189296874999
 10
48.33779025607638
 20
182.5868912760416
 10
48.33779025607638
 20
183.7697441406249
 10
48.33779025607638
 20
186.0371957465275
 10
47.89061686197916
 20
187.5921464843749
 10
46.99695909288194
 20
188.4345963541666
 10
46.52567003038194
 20
188.8732534722221
 10
45.92966851128472
 20
189.0932159288193
 10
45.20895453559027
 20
189.0932159288193
 10
45.20895453559027
 20
189.0932159288193
 10
40.79716525607638
 20
189.0932159288193
 10
40.79716525607638
 20
189.0932159288193
 10
40.79716525607638
 20
189.0932159288193
 10
40.79716525607638
 20
169.3358964843748
 10
40.79716525607638
 20
169.3358964843748
 97
        0
 75
     0
 76
     1
 98
        0
  0
HATCH
  5
2FA
330
2EA
100
AcDbEntity
  8
0
  6
Continuous
100
AcDbHatch
 10
0.0
 20
0.0
 30
0.0
210
0.0
220
0.0
230
1.0
  2
SOLID
 70
     1
 71
     1
 91
        1
 92
        1
 93
        1
 72
     4
 94
        3
 73
     0
 74
     0
 95
       59
 96
       55
 40
0.0
 40
0.0
 40
0.0
 40
0.0
 40
1.0
 40
1.0
 40
1.0
 40
2.0
 40
2.0
 40
2.0
 40
3.0
 40
3.0
 40
3.0
 40
4.0
 40
4.0
 40
4.0
 40
5.0
 40
5.0
 40
5.0
 40
6.0
 40
6.0
 40
6.0
 40
7.0
 40
7.0
 40
7.0
 40
8.0
 40
8.0
 40
8.0
 40
9.0
 40
9.0
 40
9.0
 40
10.0
 40
10.0
 40
10.0
 40
11.0
 40
11.0
 40
11.0
 40
12.0
 40
12.0
 40
12.0
 40
13.0
 40
13.0
 40
13.0
 40
14.0
 40
14.0
 40
14.0
 40
15.0
 40
15.0
 40
15.0
 40
16.0
 40
16.0
 40
16.0
 40
17.0
 40
17.0
 40
17.0
 40
18.0
 40
18.0
 40
18.0
 40
18.0
 10
85.61871880425345
 20
187.4658355034721
 10
86.29120144314232
 20
186.1797124565971
 10
86.66671685112847
 20
184.7193364800346
 10
86.7452650282118
 20
183.0840874565969
 10
86.7452650282118
 20
183.0840874565969
 10
85.42234836154511
 20
183.0840874565969
 10
85.42234836154511
 20
183.0840874565969
 10
85.27696533203123
 20
184.3156401909719
 10
84.99171142578125
 20
185.2917046440971
 10
84.56589762369791
 20
186.0122808159719
 10
84.14008382161458
 20
186.7322368706594
 10
83.53994818793401
 20
187.0925249565969
 10
82.76617974175342
 20
187.0925249565969
 10
81.81740044487847
 20
187.0925249565969
 10
81.05258924696178
 20
186.4240386284721
 10
80.47243516710068
 20
185.0883062065971
 10
79.89159206814234
 20
183.7525737847219
 10
79.6015150282118
 20
181.7049468315971
 10
79.6015150282118
 20
178.9454253472221
 10
79.6015150282118
 20
176.6844780815969
 10
79.86265326605901
 20
174.8514116753471
 10
80.38561876085069
 20
173.4456060112846
 10
80.90789523654512
 20
172.0391802300344
 10
81.69199896918403
 20
171.3365874565971
 10
82.73724093967013
 20
171.3365874565971
 10
83.69497748480901
 20
171.3365874565971
 10
84.42120361328125
 20
172.0794878472221
 10
84.91523030598958
 20
173.5665288628469
 10
85.18601481119791
 20
174.3491167534719
 10
85.38445231119791
 20
175.3785112847221
 10
85.51054280598959
 20
176.6547124565971
 10
85.51054280598959
 20
176.6547124565971
 10
86.83345947265625
 20
176.6547124565971
 10
86.83345947265625
 20
176.6547124565971
 10
86.72597249348957
 20
174.6157671440971
 10
86.35114610460069
 20
172.9061040581596
 10
85.70760226779514
 20
171.526343315972
 10
84.93727891710069
 20
169.8650493706596
 10
83.90375027126735
 20
169.0347124565971
 10
82.60701633029514
 20
169.0347124565971
 10
81.48598225911458
 20
169.0347124565971
 10
80.54547119140625
 20
169.7143608940971
 10
79.78479410807292
 20
171.0742778862845
 10
78.78020426432292
 20
172.8726177300344
 10
78.27859836154512
 20
175.6495024956596
 10
78.27859836154512
 20
179.4049321831594
 10
78.27859836154512
 20
182.2562310112846
 10
78.65342475043402
 20
184.5946929253469
 10
79.40445556640622
 20
186.4196978081596
 10
80.22301025390625
 20
188.4028325737846
 10
81.34955647786458
 20
189.3943999565971
 10
82.78271620008679
 20
189.3943999565971
 10
84.00090196397568
 20
189.3943999565971
 10
84.94623616536458
 20
188.7513384331594
 10
85.61871880425345
 20
187.4658355034721
 97
        1
330
2F3
 75
     0
 76
     1
 98
        1
 10
0.0
 20
0.0
  0
LINE
  5
2FB
102
{ACAD_REACTORS
330
30A
102
}
330
2EA
100
AcDbEntity
  8
LAYER_1
 62
     7
100
AcDbLine
 10
34.65766059027778
 20
177.4497853732638
 30
0.0
 11
36.19830729166666
 21
186.1658769531249
 31
0.0
  0
LINE
  5
2FC
102
{ACAD_REACTORS
330
30A
102
}
330
2EA
100
AcDbEntity
  8
LAYER_1
 62
     7
100
AcDbLine
 10
36.19830729166666
 20
186.1658769531249
 30
0.0
 11
37.67556423611111
 21
177.4497853732638
 31
0.0
  0
LINE
  5
2FD
102
{ACAD_REACTORS
330
30A
102
}
330
2EA
100
AcDbEntity
  8
LAYER_1
 62
     7
100
AcDbLine
 10
37.67556423611111
 20
177.4497853732638
 30
0.0
 11
34.65766059027778
 21
177.4497853732638
 31
0.0
  0
LINE
  5
2FE
102
{ACAD_REACTORS
330
30A
102
}
330
2EA
100
AcDbEntity
  8
LAYER_1
 62
     7
100
AcDbLine
 10
31.83957248263888
 20
169.3358964843748
 30
0.0
 11
33.22450086805555
 21
169.3358964843748
 31
0.0
  0
LINE
  5
2FF
102
{ACAD_REACTORS
330
30A
102
}
330
2EA
100
AcDbEntity
  8
LAYER_1
 62
     7
100
AcDbLine
 10
33.22450086805555
 20
169.3358964843748
 30
0.0
 11
34.27043185763887
 21
175.2590353732638
 31
0.0
  0
LINE
  5
300
102
{ACAD_REACTORS
330
30A
102
}
330
2EA
100
AcDbEntity
  8
LAYER_1
 62
     7
100
AcDbLine
 10
34.27043185763887
 20
175.2590353732638
 30
0.0
 11
38.04694552951389
 21
175.2590353732638
 31
0.0
  0
LINE
  5
301
102
{ACAD_REACTORS
330
30A
102
}
330
2EA
100
AcDbEntity
  8
LAYER_1
 62
     7
100
AcDbLine
 10
38.04694552951389
 20
175.2590353732638
 30
0.0
 11
39.05015733506942
 21
169.3358964843748
 31
0.0
  0
LINE
  5
302
102
{ACAD_REACTORS
330
30A
102
}
330
2EA
100
AcDbEntity
  8
LAYER_1
 62
     7
100
AcDbLine
 10
39.05015733506942
 20
169.3358964843748
 30
0.0
 11
40.43508572048611
 21
169.3358964843748
 31
0.0
  0
LINE
  5
303
102
{ACAD_REACTORS
330
30A
102
}
330
2EA
100
AcDbEntity
  8
LAYER_1
 62
     7
100
AcDbLine
 10
40.43508572048611
 20
169.3358964843748
 30
0.0
 11
36.952783203125
 21
189.0932159288193
 31
0.0
  0
LINE
  5
304
102
{ACAD_REACTORS
330
30A
102
}
330
2EA
100
AcDbEntity
  8
LAYER_1
 62
     7
100
AcDbLine
 10
36.952783203125
 20
189.0932159288193
 30
0.0
 11
35.47828233506943
 21
189.0932159288193
 31
0.0
  0
LINE
  5
305
102
{ACAD_REACTORS
330
30A
102
}
330
2EA
100
AcDbEntity
  8
LAYER_1
 62
     7
100
AcDbLine
 10
35.47828233506943
 20
189.0932159288193
 30
0.0
 11
31.83957248263888
 21
169.3358964843748
 31
0.0
  0
HATCH
  5
306
330
2EA
100
AcDbEntity
  8
0
  6
Continuous
100
AcDbHatch
 10
0.0
 20
0.0
 30
0.0
210
0.0
220
0.0
230
1.0
  2
SOLID
 70
     1
 71
     1
 91
        2
 92
       16
 93
        1
 72
     4
 94
        3
 73
     0
 74
     0
 95
       29
 96
       25
 40
0.0
 40
0.0
 40
0.0
 40
0.0
 40
1.0
 40
1.0
 40
1.0
 40
2.0
 40
2.0
 40
2.0
 40
3.0
 40
3.0
 40
3.0
 40
4.0
 40
4.0
 40
4.0
 40
5.0
 40
5.0
 40
5.0
 40
6.0
 40
6.0
 40
6.0
 40
7.0
 40
7.0
 40
7.0
 40
8.0
 40
8.0
 40
8.0
 40
8.0
 10
62.85697292751734
 20
171.3365874565971
 10
61.88338894314235
 20
171.3365874565971
 10
61.18058946397566
 20
172.0714263237844
 10
60.74857449001735
 20
173.5411040581594
 10
60.31587049696178
 20
175.0107817925344
 10
60.10020751953124
 20
176.8165630425344
 10
60.10020751953124
 20
178.9578276909721
 10
60.10020751953124
 20
181.6342534722221
 10
60.35101047092013
 20
183.6589360894094
 10
60.85261637369789
 20
185.0324956597219
 10
61.35422227647566
 20
186.4054351128471
 10
62.00741238064235
 20
187.0925249565969
 10
62.81218668619789
 20
187.0925249565969
 10
63.63694254557291
 20
187.0925249565969
 10
64.2880655924479
 20
186.3992339409721
 10
64.76486680772568
 20
185.0126519097221
 10
65.24166802300347
 20
183.6260698784719
 10
65.48006863064235
 20
181.7961040581594
 10
65.48006863064235
 20
179.5239946831596
 10
65.48006863064235
 20
177.3734282769096
 10
65.27336290147568
 20
175.4715288628469
 10
64.86132948133678
 20
173.8176763237846
 10
64.4492960611979
 20
172.1632036675344
 10
63.78094753689235
 20
171.3365874565971
 10
62.85697292751734
 20
171.3365874565971
 97
        1
330
2F0
 92
        1
 93
        1
 72
     4
 94
        3
 73
     0
 74
     0
 95
       29
 96
       25
 40
0.0
 40
0.0
 40
0.0
 40
0.0
 40
1.0
 40
1.0
 40
1.0
 40
2.0
 40
2.0
 40
2.0
 40
3.0
 40
3.0
 40
3.0
 40
4.0
 40
4.0
 40
4.0
 40
5.0
 40
5.0
 40
5.0
 40
6.0
 40
6.0
 40
6.0
 40
7.0
 40
7.0
 40
7.0
 40
8.0
 40
8.0
 40
8.0
 40
8.0
 10
62.76119927300346
 20
189.4340874565971
 10
61.47273356119789
 20
189.4340874565971
 10
60.50121663411457
 20
188.2397417534719
 10
59.84733751085069
 20
185.8516704644094
 10
59.33953043619791
 20
183.9900786675344
 10
59.08597140842013
 20
181.7514556206596
 10
59.08597140842013
 20
179.1351812065971
 10
59.08597140842013
 20
176.2379937065971
 10
59.3836276584201
 20
173.8412407769094
 10
59.97894015842013
 20
171.9449224175346
 10
60.64246554904514
 20
169.9779106987846
 10
61.56023898654513
 20
168.9950249565971
 10
62.73157145182291
 20
168.9950249565971
 10
63.99040934244791
 20
168.9950249565971
 10
64.95641411675348
 20
170.1186773003469
 10
65.63027479383679
 20
172.3659819878471
 10
66.20629475911457
 20
174.2796636284719
 10
66.49430474175346
 20
176.6813774956594
 10
66.49430474175346
 20
179.5698833550344
 10
66.49430474175346
 20
182.2388677300344
 10
66.24005669487846
 20
184.4291216362844
 10
65.73293863932291
 20
186.1412651909719
 10
65.08870578342011
 20
188.3364800347219
 10
64.09789632161457
 20
189.4340874565971
 10
62.76119927300346
 20
189.4340874565971
 97
        0
 75
     0
 76
     1
 98
        0
  0
HATCH
  5
307
330
2EA
100
AcDbEntity
  8
0
  6
Continuous
100
AcDbHatch
 10
0.0
 20
0.0
 30
0.0
210
0.0
220
0.0
230
1.0
  2
SOLID
 70
     1
 71
     1
 91
        1
 92
        1
 93
        1
 72
     4
 94
        3
 73
     0
 74
     0
 95
       59
 96
       55
 40
0.0
 40
0.0
 40
0.0
 40
0.0
 40
1.0
 40
1.0
 40
1.0
 40
2.0
 40
2.0
 40
2.0
 40
3.0
 40
3.0
 40
3.0
 40
4.0
 40
4.0
 40
4.0
 40
5.0
 40
5.0
 40
5.0
 40
6.0
 40
6.0
 40
6.0
 40
7.0
 40
7.0
 40
7.0
 40
8.0
 40
8.0
 40
8.0
 40
9.0
 40
9.0
 40
9.0
 40
10.0
 40
10.0
 40
10.0
 40
11.0
 40
11.0
 40
11.0
 40
12.0
 40
12.0
 40
12.0
 40
13.0
 40
13.0
 40
13.0
 40
14.0
 40
14.0
 40
14.0
 40
15.0
 40
15.0
 40
15.0
 40
16.0
 40
16.0
 40
16.0
 40
17.0
 40
17.0
 40
17.0
 40
18.0
 40
18.0
 40
18.0
 40
18.0
 10
49.39440104166666
 20
189.0932159288193
 10
49.39440104166666
 20
189.0932159288193
 10
51.24786241319444
 20
189.0932159288193
 10
51.24786241319444
 20
189.0932159288193
 10
51.24786241319444
 20
189.0932159288193
 10
54.04665798611111
 20
172.3887471788193
 10
54.04665798611111
 20
172.3887471788193
 10
54.04665798611111
 20
172.3887471788193
 10
56.83994140624999
 20
189.0932159288193
 10
56.83994140624999
 20
189.0932159288193
 10
56.83994140624999
 20
189.0932159288193
 10
58.69891493055553
 20
189.0932159288193
 10
58.69891493055553
 20
189.0932159288193
 10
58.69891493055553
 20
189.0932159288193
 10
58.69891493055553
 20
169.3358964843748
 10
58.69891493055553
 20
169.3358964843748
 10
58.69891493055553
 20
169.3358964843748
 10
57.46419270833333
 20
169.3358964843748
 10
57.46419270833333
 20
169.3358964843748
 10
57.46419270833333
 20
169.3358964843748
 10
57.46419270833333
 20
180.9964422743055
 10
57.46419270833333
 20
180.9964422743055
 10
57.46419270833333
 20
181.3996011284721
 10
57.47108289930555
 20
182.0677291666664
 10
57.48624131944444
 20
183.0001924913193
 10
57.50071072048609
 20
183.9326558159721
 10
57.50828993055553
 20
184.932312282986
 10
57.50828993055553
 20
185.9997957899304
 10
57.50828993055553
 20
185.9997957899304
 10
54.700537109375
 20
169.3358964843748
 10
54.700537109375
 20
169.3358964843748
 10
54.700537109375
 20
169.3358964843748
 10
53.38382161458333
 20
169.3358964843748
 10
53.38382161458333
 20
169.3358964843748
 10
53.38382161458333
 20
169.3358964843748
 10
50.58502604166665
 20
185.9997957899304
 10
50.58502604166665
 20
185.9997957899304
 10
50.58502604166665
 20
185.9997957899304
 10
50.58502604166665
 20
185.3944236111109
 10
50.58502604166665
 20
185.3944236111109
 10
50.58502604166665
 20
184.9101258680555
 10
50.59191623263888
 20
184.1729029947916
 10
50.60707465277777
 20
183.1821210937499
 10
50.62154405381942
 20
182.1913391927082
 10
50.62912326388889
 20
181.4629908854166
 10
50.62912326388889
 20
180.9964422743055
 10
50.62912326388889
 20
180.9964422743055
 10
50.62912326388889
 20
169.3358964843748
 10
50.62912326388889
 20
169.3358964843748
 10
50.62912326388889
 20
169.3358964843748
 10
49.39440104166666
 20
169.3358964843748
 10
49.39440104166666
 20
169.3358964843748
 10
49.39440104166666
 20
169.3358964843748
 10
49.39440104166666
 20
189.0932159288193
 10
49.39440104166666
 20
189.0932159288193
 97
        1
330
2EF
 75
     0
 76
     1
 98
        1
 10
0.0
 20
0.0
  0
HATCH
  5
308
330
2EA
100
AcDbEntity
  8
0
  6
Continuous
100
AcDbHatch
 10
0.0
 20
0.0
 30
0.0
210
0.0
220
0.0
230
1.0
  2
SOLID
 70
     1
 71
     1
 91
        2
 92
       16
 93
        1
 72
     4
 94
        3
 73
     0
 74
     0
 95
       32
 96
       28
 40
0.0
 40
0.0
 40
0.0
 40
0.0
 40
1.0
 40
1.0
 40
1.0
 40
2.0
 40
2.0
 40
2.0
 40
3.0
 40
3.0
 40
3.0
 40
4.0
 40
4.0
 40
4.0
 40
5.0
 40
5.0
 40
5.0
 40
6.0
 40
6.0
 40
6.0
 40
7.0
 40
7.0
 40
7.0
 40
8.0
 40
8.0
 40
8.0
 40
9.0
 40
9.0
 40
9.0
 40
9.0
 10
91.70051812065969
 20
171.6077853732638
 10
91.70051812065969
 20
171.6077853732638
 10
91.70051812065969
 20
186.7401881510414
 10
91.70051812065969
 20
186.7401881510414
 10
91.70051812065969
 20
186.7401881510414
 10
93.98668348524305
 20
186.7401881510414
 10
93.98668348524305
 20
186.7401881510414
 10
95.02159016927082
 20
186.7401881510414
 10
95.77331000434028
 20
186.0644533420138
 10
96.24322102864582
 20
184.7142515190969
 10
96.71313205295138
 20
183.3640496961804
 10
96.94808756510417
 20
181.4680620659721
 10
96.94808756510417
 20
179.0262886284719
 10
96.94808756510417
 20
178.3911232638888
 10
96.91432562934028
 20
177.7027105034721
 10
96.84749077690971
 20
176.9604164496525
 10
96.7324245876736
 20
175.7167094184025
 10
96.55052354600693
 20
174.6974021267359
 10
96.30109863281248
 20
173.901860677083
 10
95.98414984809028
 20
172.9091770833332
 10
95.57693956163193
 20
172.2378795572914
 10
95.07877875434026
 20
171.8892358940971
 10
94.79076877170138
 20
171.7016022135416
 10
94.43178982204859
 20
171.6077853732638
 10
94.00115288628471
 20
171.6077853732638
 10
94.00115288628471
 20
171.6077853732638
 10
91.70051812065969
 20
171.6077853732638
 10
91.70051812065969
 20
171.6077853732638
 97
        1
330
2F4
 92
        1
 93
        1
 72
     4
 94
        3
 73
     0
 74
     0
 95
       26
 96
       22
 40
0.0
 40
0.0
 40
0.0
 40
0.0
 40
1.0
 40
1.0
 40
1.0
 40
2.0
 40
2.0
 40
2.0
 40
3.0
 40
3.0
 40
3.0
 40
4.0
 40
4.0
 40
4.0
 40
5.0
 40
5.0
 40
5.0
 40
6.0
 40
6.0
 40
6.0
 40
7.0
 40
7.0
 40
7.0
 40
7.0
 10
90.37760145399305
 20
169.3358964843748
 10
90.37760145399305
 20
169.3358964843748
 10
94.22990722656248
 20
169.3358964843748
 10
94.22990722656248
 20
169.3358964843748
 10
95.87115071614581
 20
169.3358964843748
 10
97.03008083767359
 20
170.8331625434027
 10
97.70600857204859
 20
173.8283285590275
 10
98.08221299913194
 20
175.5227367621525
 10
98.27100423177082
 20
177.4187243923609
 10
98.27100423177082
 20
179.5169253472221
 10
98.27100423177082
 20
182.233810329861
 10
97.94716525607638
 20
184.4619602864582
 10
97.30086534288195
 20
186.2013752170138
 10
96.57601725260416
 20
188.1290577256944
 10
95.5576470269097
 20
189.0932159288193
 10
94.24437662760416
 20
189.0932159288193
 10
94.24437662760416
 20
189.0932159288193
 10
90.37760145399305
 20
189.0932159288193
 10
90.37760145399305
 20
189.0932159288193
 10
90.37760145399305
 20
189.0932159288193
 10
90.37760145399305
 20
169.3358964843748
 10
90.37760145399305
 20
169.3358964843748
 97
        0
 75
     0
 76
     1
 98
        0
  0
HATCH
  5
309
330
2EA
100
AcDbEntity
  8
0
  6
Continuous
100
AcDbHatch
 10
0.0
 20
0.0
 30
0.0
210
0.0
220
0.0
230
1.0
  2
SOLID
 70
     1
 71
     1
 91
        2
 92
       16
 93
        1
 72
     4
 94
        3
 73
     0
 74
     0
 95
       26
 96
       22
 40
0.0
 40
0.0
 40
0.0
 40
0.0
 40
1.0
 40
1.0
 40
1.0
 40
2.0
 40
2.0
 40
2.0
 40
3.0
 40
3.0
 40
3.0
 40
4.0
 40
4.0
 40
4.0
 40
5.0
 40
5.0
 40
5.0
 40
6.0
 40
6.0
 40
6.0
 40
7.0
 40
7.0
 40
7.0
 40
7.0
 10
100.5623372395832
 20
180.046229817708
 10
100.5623372395832
 20
180.046229817708
 10
100.5623372395832
 20
186.7401881510414
 10
100.5623372395832
 20
186.7401881510414
 10
100.5623372395832
 20
186.7401881510414
 10
103.6732584635416
 20
186.7401881510414
 10
103.6732584635416
 20
186.7401881510414
 10
104.1107855902777
 20
186.7401881510414
 10
104.4580512152777
 20
186.6064357638888
 10
104.7150553385415
 20
186.3401987847219
 10
105.2097710503471
 20
185.8330807291664
 10
105.4571289062497
 20
184.8822343749999
 10
105.4571289062497
 20
183.4863919270832
 10
105.4571289062497
 20
182.188169704861
 10
105.280740017361
 20
181.2905707465276
 10
104.9286512586804
 20
180.7929611545138
 10
104.5765624999999
 20
180.2947176649304
 10
104.1011393229166
 20
180.046229817708
 10
103.5023817274304
 20
180.046229817708
 10
103.5023817274304
 20
180.046229817708
 10
100.5623372395832
 20
180.046229817708
 10
100.5623372395832
 20
180.046229817708
 97
        1
330
2F5
 92
        1
 93
        1
 72
     4
 94
        3
 73
     0
 74
     0
 95
       68
 96
       64
 40
0.0
 40
0.0
 40
0.0
 40
0.0
 40
1.0
 40
1.0
 40
1.0
 40
2.0
 40
2.0
 40
2.0
 40
3.0
 40
3.0
 40
3.0
 40
4.0
 40
4.0
 40
4.0
 40
5.0
 40
5.0
 40
5.0
 40
6.0
 40
6.0
 40
6.0
 40
7.0
 40
7.0
 40
7.0
 40
8.0
 40
8.0
 40
8.0
 40
9.0
 40
9.0
 40
9.0
 40
10.0
 40
10.0
 40
10.0
 40
11.0
 40
11.0
 40
11.0
 40
12.0
 40
12.0
 40
12.0
 40
13.0
 40
13.0
 40
13.0
 40
14.0
 40
14.0
 40
14.0
 40
15.0
 40
15.0
 40
15.0
 40
16.0
 40
16.0
 40
16.0
 40
17.0
 40
17.0
 40
17.0
 40
18.0
 40
18.0
 40
18.0
 40
19.0
 40
19.0
 40
19.0
 40
20.0
 40
20.0
 40
20.0
 40
21.0
 40
21.0
 40
21.0
 40
21.0
 10
99.23942057291661
 20
169.3358964843748
 10
99.23942057291661
 20
169.3358964843748
 10
100.5623372395832
 20
169.3358964843748
 10
100.5623372395832
 20
169.3358964843748
 10
100.5623372395832
 20
169.3358964843748
 10
100.5623372395832
 20
177.8149103732638
 10
100.5623372395832
 20
177.8149103732638
 10
100.5623372395832
 20
177.8149103732638
 10
103.4472601996527
 20
177.8149103732638
 10
103.4472601996527
 20
177.8149103732638
 10
103.9681586371527
 20
177.8149103732638
 10
104.3519422743053
 20
177.6938359374999
 10
104.5986111111109
 20
177.4516870659719
 10
105.0244249131943
 20
177.0117621527776
 10
105.2518012152777
 20
176.1458580729166
 10
105.280740017361
 20
174.8539748263888
 10
105.280740017361
 20
174.8539748263888
 10
105.3689344618053
 20
171.5564396701388
 10
105.3689344618053
 20
171.5564396701388
 10
105.3882269965277
 20
170.7843524305554
 10
105.4109646267359
 20
170.2639225260416
 10
105.4357693142359
 20
169.9951499565971
 10
105.4605740017358
 20
169.725743489583
 10
105.4970920138888
 20
169.5057810329859
 10
105.5467013888887
 20
169.3358964843748
 10
105.5467013888887
 20
169.3358964843748
 10
107.1769205729166
 20
169.3358964843748
 10
107.1769205729166
 20
169.3358964843748
 10
107.1769205729166
 20
169.3358964843748
 10
107.1769205729166
 20
169.7821603732638
 10
107.1769205729166
 20
169.7821603732638
 10
106.9750379774303
 20
169.9609194878471
 10
106.8337890624997
 20
170.3628105468748
 10
106.7538628472221
 20
170.9878335503471
 10
106.7028754340274
 20
171.3542263454858
 10
106.6677354600692
 20
171.9120562065971
 10
106.6477539062497
 20
172.6625909288193
 10
106.6477539062497
 20
172.6625909288193
 10
106.6036566840277
 20
175.3205234374999
 10
106.6036566840277
 20
175.3205234374999
 10
106.5836751302082
 20
176.4716814236109
 10
106.4768771701387
 20
177.3033550347219
 10
106.2839518229166
 20
177.8142764756941
 10
106.0903374565971
 20
178.3251979166666
 10
105.8002604166666
 20
178.7372313368055
 10
105.4130316840277
 20
179.0516445312499
 10
105.8443576388886
 20
179.5086846788193
 10
106.179909939236
 20
180.1134229600693
 10
106.4196885850692
 20
180.8664932725691
 10
106.6594672309027
 20
181.6189296874999
 10
106.7800455729166
 20
182.5868912760416
 10
106.7800455729166
 20
183.7697441406249
 10
106.7800455729166
 20
186.0371957465275
 10
106.3328721788193
 20
187.5921464843749
 10
105.4392144097221
 20
188.4345963541666
 10
104.9679253472221
 20
188.8732534722221
 10
104.3719238281249
 20
189.0932159288193
 10
103.6512098524303
 20
189.0932159288193
 10
103.6512098524303
 20
189.0932159288193
 10
99.23942057291661
 20
189.0932159288193
 10
99.23942057291661
 20
189.0932159288193
 10
99.23942057291661
 20
189.0932159288193
 10
99.23942057291661
 20
169.3358964843748
 10
99.23942057291661
 20
169.3358964843748
 97
        0
 75
     0
 76
     1
 98
        0
  0
HATCH
  5
30A
330
2EA
100
AcDbEntity
  8
0
  6
Continuous
100
AcDbHatch
 10
0.0
 20
0.0
 30
0.0
210
0.0
220
0.0
230
1.0
  2
SOLID
 70
     1
 71
     1
 91
        2
 92
        1
 93
        8
 72
     1
 10
35.47828233506943
 20
189.0932159288193
 11
31.83957248263888
 21
169.3358964843748
 72
     1
 10
31.83957248263888
 20
169.3358964843748
 11
33.22450086805555
 21
169.3358964843748
 72
     1
 10
33.22450086805555
 20
169.3358964843748
 11
34.27043185763887
 21
175.2590353732638
 72
     1
 10
34.27043185763887
 20
175.2590353732638
 11
38.04694552951389
 21
175.2590353732638
 72
     1
 10
38.04694552951389
 20
175.2590353732638
 11
39.05015733506942
 21
169.3358964843748
 72
     1
 10
39.05015733506942
 20
169.3358964843748
 11
40.43508572048611
 21
169.3358964843748
 72
     1
 10
40.43508572048611
 20
169.3358964843748
 11
36.952783203125
 21
189.0932159288193
 72
     1
 10
36.952783203125
 20
189.0932159288193
 11
35.47828233506943
 21
189.0932159288193
 97
        8
330
305
330
2FE
330
2FF
330
300
330
301
330
302
330
303
330
304
 92
       16
 93
        3
 72
     1
 10
37.67556423611111
 20
177.4497853732638
 11
34.65766059027778
 21
177.4497853732638
 72
     1
 10
34.65766059027778
 20
177.4497853732638
 11
36.19830729166666
 21
186.1658769531249
 72
     1
 10
36.19830729166666
 20
186.1658769531249
 11
37.67556423611111
 21
177.4497853732638
 97
        3
330
2FD
330
2FB
330
2FC
 75
     0
 76
     1
 98
        1
 10
0.0
 20
0.0
  0
HATCH
  5
30B
330
2EA
100
AcDbEntity
  8
0
  6
Continuous
100
AcDbHatch
 10
0.0
 20
0.0
 30
0.0
210
0.0
220
0.0
230
1.0
  2
SOLID
 70
     1
 71
     1
 91
        1
 92
        1
 93
        1
 72
     4
 94
        3
 73
     0
 74
     0
 95
      113
 96
      109
 40
0.0
 40
0.0
 40
0.0
 40
0.0
 40
1.0
 40
1.0
 40
1.0
 40
2.0
 40
2.0
 40
2.0
 40
3.0
 40
3.0
 40
3.0
 40
4.0
 40
4.0
 40
4.0
 40
5.0
 40
5.0
 40
5.0
 40
6.0
 40
6.0
 40
6.0
 40
7.0
 40
7.0
 40
7.0
 40
8.0
 40
8.0
 40
8.0
 40
9.0
 40
9.0
 40
9.0
 40
10.0
 40
10.0
 40
10.0
 40
11.0
 40
11.0
 40
11.0
 40
12.0
 40
12.0
 40
12.0
 40
13.0
 40
13.0
 40
13.0
 40
14.0
 40
14.0
 40
14.0
 40
15.0
 40
15.0
 40
15.0
 40
16.0
 40
16.0
 40
16.0
 40
17.0
 40
17.0
 40
17.0
 40
18.0
 40
18.0
 40
18.0
 40
19.0
 40
19.0
 40
19.0
 40
20.0
 40
20.0
 40
20.0
 40
21.0
 40
21.0
 40
21.0
 40
22.0
 40
22.0
 40
22.0
 40
23.0
 40
23.0
 40
23.0
 40
24.0
 40
24.0
 40
24.0
 40
25.0
 40
25.0
 40
25.0
 40
26.0
 40
26.0
 40
26.0
 40
27.0
 40
27.0
 40
27.0
 40
28.0
 40
28.0
 40
28.0
 40
29.0
 40
29.0
 40
29.0
 40
30.0
 40
30.0
 40
30.0
 40
31.0
 40
31.0
 40
31.0
 40
32.0
 40
32.0
 40
32.0
 40
33.0
 40
33.0
 40
33.0
 40
34.0
 40
34.0
 40
34.0
 40
35.0
 40
35.0
 40
35.0
 40
36.0
 40
36.0
 40
36.0
 40
36.0
 10
193.3039632161458
 20
186.1548733181423
 10
193.3039632161458
 20
186.1860514322916
 10
193.3039632161458
 20
219.6932223849826
 10
193.3039632161458
 20
219.6932223849826
 10
193.3039632161458
 20
219.6932223849826
 10
193.2974175347219
 20
219.7488606770833
 10
193.2974175347219
 20
219.7488606770833
 10
191.5293945312499
 20
235.455740017361
 10
175.1458984374999
 20
235.2467949761284
 10
174.9808783637151
 20
235.2428331163193
 10
174.9808783637151
 20
235.2428331163193
 10
125.8827555338541
 20
235.2430053710937
 10
125.8827555338541
 20
235.2430053710937
 10
125.8827555338541
 20
235.2430053710937
 10
125.8827555338541
 20
255.5278998480901
 10
125.8827555338541
 20
255.5278998480901
 10
125.8827555338541
 20
255.5278998480901
 10
84.5626247829861
 20
255.5278998480901
 10
84.5626247829861
 20
255.5278998480901
 10
84.5626247829861
 20
255.5278998480901
 10
84.55711263020829
 20
233.7919311523436
 10
84.55711263020829
 20
233.7919311523436
 10
84.55711263020829
 20
233.7919311523436
 10
64.42052951388888
 20
233.7919311523436
 10
64.42052951388888
 20
233.7919311523436
 10
64.42052951388888
 20
233.7919311523436
 10
64.41501736111111
 20
255.5278998480901
 10
64.41501736111111
 20
255.5278998480901
 10
64.41501736111111
 20
255.5278998480901
 10
23.91757541232637
 20
255.5278998480901
 10
23.91757541232637
 20
255.5278998480901
 10
23.91757541232637
 20
255.5278998480901
 10
23.91757541232637
 20
233.2393378363715
 10
23.91757541232637
 20
233.2393378363715
 10
23.91757541232637
 20
233.2393378363715
 10
43.65624999999999
 20
233.2393378363715
 10
43.65624999999999
 20
233.2393378363715
 10
43.65624999999999
 20
233.2393378363715
 10
43.65624999999999
 20
211.5188720703125
 10
43.65624999999999
 20
211.5188720703125
 10
43.65624999999999
 20
211.5188720703125
 10
23.91757541232637
 20
211.5188720703125
 10
23.91757541232637
 20
211.5188720703125
 10
23.91757541232637
 20
211.5188720703125
 10
23.91757541232637
 20
189.2303100585936
 10
23.91757541232637
 20
189.2303100585936
 10
23.91757541232637
 20
189.2303100585936
 10
64.41501736111111
 20
189.2303100585936
 10
64.41501736111111
 20
189.2303100585936
 10
64.41501736111111
 20
189.2303100585936
 10
64.42052951388888
 20
211.069976128472
 10
64.42052951388888
 20
211.069976128472
 10
64.42052951388888
 20
211.069976128472
 10
84.55711263020829
 20
211.069976128472
 10
84.55711263020829
 20
211.069976128472
 10
84.55711263020829
 20
211.069976128472
 10
84.5626247829861
 20
189.2303100585936
 10
84.5626247829861
 20
189.2303100585936
 10
84.5626247829861
 20
189.2303100585936
 10
125.8827555338541
 20
189.2303100585936
 10
125.8827555338541
 20
189.2303100585936
 10
125.8827555338541
 20
189.2303100585936
 10
125.8827555338541
 20
211.5188720703125
 10
125.8827555338541
 20
211.5188720703125
 10
125.8827555338541
 20
211.5188720703125
 10
105.3213921440971
 20
211.5188720703125
 10
105.3213921440971
 20
211.5188720703125
 10
105.3213921440971
 20
211.5188720703125
 10
105.3213921440971
 20
233.2393378363715
 10
105.3213921440971
 20
233.2393378363715
 10
105.3213921440971
 20
233.2393378363715
 10
175.0046495225693
 20
233.243127441406
 10
175.0046495225693
 20
233.243127441406
 10
175.6268337673611
 20
233.2560465494791
 10
189.7165852864583
 20
233.3962619357638
 10
191.3037407769094
 20
219.5690266927083
 10
191.3037407769094
 20
219.4332899305555
 10
191.3037407769094
 20
186.1142211914062
 10
191.3037407769094
 20
186.1142211914062
 10
191.3037407769094
 20
186.1142211914062
 10
191.3051188151039
 20
186.0880384657115
 10
191.3051188151039
 20
186.0880384657115
 10
191.3054633246526
 20
186.0787367078991
 10
191.3109754774304
 20
185.9566080729166
 10
191.3109754774304
 20
185.7399115668401
 10
191.3109754774304
 20
184.2090833875865
 10
191.0488037109374
 20
177.9643310546874
 10
186.9866916232638
 20
173.5652886284722
 10
184.2540418836804
 20
170.6064683702255
 10
180.3224989149304
 20
169.0308539496526
 10
175.300927734375
 20
168.8825425889756
 10
175.300927734375
 20
168.8825425889756
 10
107.0094889322916
 20
168.8828870985243
 10
107.0094889322916
 20
168.8828870985243
 10
107.0094889322916
 20
168.8828870985243
 10
107.0094889322916
 20
166.8830091688368
 10
107.0094889322916
 20
166.8830091688368
 10
107.0094889322916
 20
166.8830091688368
 10
175.3305555555555
 20
166.8830091688368
 10
175.3305555555555
 20
166.8830091688368
 10
180.9467502170138
 20
167.0485460069444
 10
185.3571614583333
 20
168.8448187934026
 10
188.4687717013888
 20
172.2223904079861
 10
192.9649658203124
 20
177.1034016927083
 10
193.3136094835069
 20
183.7202243381076
 10
193.3136094835069
 20
185.6520616319443
 10
193.3136094835069
 20
185.9247409396701
 10
193.3070638020833
 20
186.0868326822916
 10
193.3039632161458
 20
186.1548733181423
 97
        1
330
2EB
 75
     0
 76
     1
 98
        1
 10
0.0
 20
0.0
  0
HATCH
  5
30C
330
2EA
100
AcDbEntity
  8
0
  6
Continuous
100
AcDbHatch
 10
0.0
 20
0.0
 30
0.0
210
0.0
220
0.0
230
1.0
  2
SOLID
 70
     1
 71
     1
 91
        2
 92
        1
 93
        1
 72
     4
 94
        3
 73
     0
 74
     0
 95
       23
 96
       19
 40
0.0
 40
0.0
 40
0.0
 40
0.0
 40
1.0
 40
1.0
 40
1.0
 40
2.0
 40
2.0
 40
2.0
 40
3.0
 40
3.0
 40
3.0
 40
4.0
 40
4.0
 40
4.0
 40
5.0
 40
5.0
 40
5.0
 40
6.0
 40
6.0
 40
6.0
 40
6.0
 10
148.6593153211804
 20
211.3929538302949
 10
148.6593153211804
 20
211.3929538302949
 10
148.6593153211804
 20
189.6308024088541
 10
148.6593153211804
 20
189.6308024088541
 10
148.6593153211804
 20
189.6308024088541
 10
161.3152180989583
 20
189.6308024088541
 10
161.3152180989583
 20
189.6308024088541
 10
162.8431179470483
 20
189.6308024088541
 10
170.4657362196178
 20
190.1880466037324
 10
170.4657362196178
 20
201.1911648220485
 10
170.4657362196178
 20
211.1288872612846
 10
162.3356553819444
 20
211.3914035373263
 10
162.2536621093749
 20
211.3927815755205
 10
162.2536621093749
 20
211.3927815755205
 10
149.6594265407986
 20
211.3929538302949
 10
149.6594265407986
 20
211.3929538302949
 10
149.6594265407986
 20
211.3929538302949
 10
148.6593153211804
 20
211.3929538302949
 10
148.6593153211804
 20
211.3929538302949
 97
        1
330
2EC
 92
       16
 93
        1
 72
     4
 94
        3
 73
     0
 74
     0
 95
       20
 96
       16
 40
0.0
 40
0.0
 40
0.0
 40
0.0
 40
1.0
 40
1.0
 40
1.0
 40
2.0
 40
2.0
 40
2.0
 40
3.0
 40
3.0
 40
3.0
 40
4.0
 40
4.0
 40
4.0
 40
5.0
 40
5.0
 40
5.0
 40
5.0
 10
162.2354031032984
 20
209.3930759006076
 10
162.467947048611
 20
209.3861857096353
 10
168.4655137803819
 20
209.1283203124999
 10
168.4655137803819
 20
201.1911648220485
 10
168.4655137803819
 20
192.3202162000866
 10
162.9926350911458
 20
191.6306803385414
 10
161.3152180989583
 20
191.6306803385414
 10
161.3152180989583
 20
191.6306803385414
 10
152.3310980902776
 20
191.6306803385414
 10
150.6595377604166
 20
191.6306803385414
 10
150.6595377604166
 20
193.3373806423609
 10
150.6595377604166
 20
207.6863755967881
 10
150.6595377604166
 20
209.3930759006076
 10
152.3538357204859
 20
209.3930759006076
 10
162.2354031032984
 20
209.3930759006076
 10
162.2354031032984
 20
209.3930759006076
 97
        0
 75
     0
 76
     1
 98
        0
  0
ENDBLK
  5
30E
330
2EA
100
AcDbEntity
  8
0
100
AcDbBlockEnd
  0
BLOCK
  5
311
330
30F
100
AcDbEntity
  8
0
100
AcDbBlockBegin
  2
HD logo-new
 70
     0
 10
0.0
 20
0.0
 30
0.0
  3
HD logo-new
  1

  0
INSERT
  5
310
330
30F
100
AcDbEntity
  8
0
 62
     3
100
AcDbBlockReference
  2
HD_LLC_logo_OT5
 10
-27.1607188578505
 20
-68.37367811463031
 30
0.0
 41
0.2999999999999971
 42
0.3000000000000007
 43
0.3
  0
ENDBLK
  5
312
330
30F
100
AcDbEntity
  8
0
100
AcDbBlockEnd
  0
BLOCK
  5
31D
330
31B
100
AcDbEntity
  8
0
100
AcDbBlockBegin
  2
HD LLC
 70
     0
 10
0.0
 20
0.0
 30
0.0
  3
HD LLC
  1

  0
MTEXT
  5
31C
330
31B
100
AcDbEntity
  8
0
100
AcDbMText
 10
-2.314970886968865
 20
1.247205085865914
 30
0.0
 40
5.675387507387601
 41
236.1828726592229
 71
     5
 72
     5
  1
Harmonic Drive LLC\P800-921-3332\Pwww.harmonicdrive.net
 73
     1
 44
1.0
  0
ENDBLK
  5
31E
330
31B
100
AcDbEntity
  8
0
100
AcDbBlockEnd
  0
ENDSEC
  0
SECTION
  2
ENTITIES
  0
TEXT
  5
292
330
A
100
AcDbEntity
  8
1
 62
     0
100
AcDbText
 10
155.4858958565175
 20
-108.4662032245319
 30
0.0
 40
10.37397912549278
  1
RKF-32A-XXX-E200.DXF
 41
0.9
  7
CONVERTER_3
100
AcDbText
  0
TEXT
  5
286
330
A
100
AcDbEntity
  8
1
 62
     0
100
AcDbText
 10
322.4712310917718
 20
110.638186092359
 30
0.0
 40
3.0
  1
Encoder cable
 41
0.9
  7
CONVERTER_3
100
AcDbText
  0
TEXT
  5
285
330
A
100
AcDbEntity
  8
1
 62
     0
100
AcDbText
 10
322.2554934557508
 20
103.792009983109
 30
0.0
 40
3.0
  1
AWG26-7P+SHILD
 41
0.9
  7
CONVERTER_3
100
AcDbText
  0
TEXT
  5
284
330
A
100
AcDbEntity
  8
1
 62
     0
100
AcDbText
 10
322.5527661066108
 20
98.09812585693899
 30
0.0
 40
3.0
  1
L=300   mm
 41
0.9
  7
CONVERTER_3
100
AcDbText
  0
TEXT
  5
283
330
A
100
AcDbEntity
  8
1
 62
     0
100
AcDbText
 10
336.3343358381798
 20
98.29878703248899
 30
0.0
 40
1.75
  1
\M+1817D50
 41
0.89
  7
CONVERTER_2
100
AcDbText
  0
MTEXT
  5
282
330
A
100
AcDbEntity
  8
1
 62
     0
100
AcDbMText
 10
241.636187007889
 20
124.795842337555
 30
0.0
 40
3.0
 41
0.0
 71
     9
 72
     1
  1
Motor cable
  7
CONVERTER_3
 73
     1
 44
1.0
  0
TEXT
  5
281
330
A
100
AcDbEntity
  8
1
 62
     0
100
AcDbText
 10
215.759722729746
 20
118.6009664480639
 30
0.0
 40
3.0
  1
AWG18-4C
 41
0.9
  7
CONVERTER_3
100
AcDbText
  0
TEXT
  5
280
330
A
100
AcDbEntity
  8
1
 62
     0
100
AcDbText
 10
332.5024127136898
 20
155.409834274473
 30
0.0
 40
3.0
  1
Encoder connector
 41
0.8100000000000001
  7
CONVERTER_1
100
AcDbText
  0
TEXT
  5
27F
330
A
100
AcDbEntity
  8
1
 62
     0
100
AcDbText
 10
216.056995380606
 20
113.207082321894
 30
0.0
 40
3.0
  1
L=300   mm
 41
0.9
  7
CONVERTER_3
100
AcDbText
  0
TEXT
  5
27D
330
A
100
AcDbEntity
  8
1
 62
     0
100
AcDbText
 10
229.8385651121749
 20
114.407743497444
 30
0.0
 40
1.75
  1
\M+1817D50
 41
0.89
  7
CONVERTER_2
100
AcDbText
  0
TEXT
  5
27B
330
A
100
AcDbEntity
  8
1
 62
     0
100
AcDbText
 10
226.601056441663
 20
162.3370810411879
 30
0.0
 40
3.0
  1
Motor connector
 41
0.8100000000000001
  7
CONVERTER_1
100
AcDbText
  0
LEADER
  5
279
330
A
100
AcDbEntity
  8
1
  6
Continuous
 62
     0
100
AcDbLeader
  3
STANDARD
 71
     0
 76
     3
 10
302.9587341746888
 20
92.84909313082399
 30
0.0
 10
319.096526916464
 20
108.9868858725989
 30
0.0
 10
361.096526916464
 20
108.9868858725989
 30
0.0
  0
LEADER
  5
277
330
A
100
AcDbEntity
  8
1
  6
Continuous
 62
     0
100
AcDbLeader
  3
STANDARD
 71
     0
 76
     3
 10
269.6904143849108
 20
106.684732763895
 30
0.0
 10
253.5793048112509
 20
123.2958423375549
 30
0.0
 10
214.5793048112509
 20
123.2958423375549
 30
0.0
  0
LEADER
  5
275
330
A
100
AcDbEntity
  8
1
  6
Continuous
 62
     0
100
AcDbLeader
  3
STANDARD
 71
     0
 76
     3
 10
269.63450313169
 20
150.4395508354839
 30
0.0
 10
260.90966635754
 20
161.385944080602
 30
0.0
 10
225.653879848371
 20
161.385944080602
 30
0.0
  0
LEADER
  5
273
330
A
100
AcDbEntity
  8
1
  6
Continuous
 62
     0
100
AcDbLeader
  3
STANDARD
 71
     0
 76
     3
 10
316.1594407717078
 20
143.673343839149
 30
0.0
 10
330.4010792361488
 20
154.431656025158
 30
0.0
 10
371.326162825276
 20
154.431656025158
 30
0.0
  0
ARC
  5
26D
330
A
100
AcDbEntity
  8
1
  6
Continuous
 62
     7
100
AcDbCircle
 10
172.2269346985359
 20
71.305573995413
 30
0.0
 40
1.0
100
AcDbArc
 50
-90.0
 51
0.0
  0
ARC
  5
26C
330
A
100
AcDbEntity
  8
1
  6
Continuous
 62
     7
100
AcDbCircle
 10
111.47693469825
 20
-70.464426004742
 30
0.0
 40
2.0
100
AcDbArc
 50
-90.0
 51
0.0
  0
ARC
  5
26B
330
A
100
AcDbEntity
  8
1
  6
Continuous
 62
     7
100
AcDbCircle
 10
111.47693469825
 20
90.53557399475499
 30
0.0
 40
2.0
100
AcDbArc
 50
0.0
 51
90.0
  0
ARC
  5
26A
330
A
100
AcDbEntity
  8
1
  6
Continuous
 62
     7
100
AcDbCircle
 10
150.269693544125
 20
78.03557399541301
 30
0.0
 40
3.000000000001
100
AcDbArc
 50
-119.6044507464418
 51
-90.0
  0
ARC
  5
269
330
A
100
AcDbEntity
  8
1
  6
Continuous
 62
     7
100
AcDbCircle
 10
126.6841758523749
 20
84.53557399564299
 30
0.0
 40
3.0
100
AcDbArc
 50
60.395549253547
 51
90.0
  0
ARC
  5
268
330
A
100
AcDbEntity
  8
1
  6
Continuous
 62
     7
100
AcDbCircle
 10
126.684175852414
 20
-64.464426004106
 30
0.0
 40
3.0
100
AcDbArc
 50
-90.0
 51
-60.39554925494499
  0
ARC
  5
267
330
A
100
AcDbEntity
  8
1
  6
Continuous
 62
     7
100
AcDbCircle
 10
150.269693544086
 20
-57.964426004587
 30
0.0
 40
3.0
100
AcDbArc
 50
90.0
 51
119.604450745058
  0
ARC
  5
266
330
A
100
AcDbEntity
  8
1
  6
Continuous
 62
     7
100
AcDbCircle
 10
158.7269346985358
 20
71.80557399541299
 30
0.0
 40
1.5
100
AcDbArc
 50
180.0
 51
-90.0
  0
ARC
  5
265
330
A
100
AcDbEntity
  8
1
  6
Continuous
 62
     7
100
AcDbCircle
 10
256.476934699551
 20
-2.613536645262
 30
0.0
 40
1.0
100
AcDbArc
 50
90.0
 51
180.0
  0
ARC
  5
264
330
A
100
AcDbEntity
  8
1
  6
Continuous
 62
     7
100
AcDbCircle
 10
256.476934699551
 20
-14.96442600458698
 30
0.0
 40
1.0
100
AcDbArc
 50
180.0
 51
-90.0
  0
ARC
  5
263
330
A
100
AcDbEntity
  8
1
  6
Continuous
 62
     7
100
AcDbCircle
 10
256.476934699551
 20
22.684684636086
 30
0.0
 40
1.0
100
AcDbArc
 50
180.0
 51
-90.0
  0
ARC
  5
262
330
A
100
AcDbEntity
  8
1
  6
Continuous
 62
     7
100
AcDbCircle
 10
256.476934699551
 20
35.03557399541298
 30
0.0
 40
1.0
100
AcDbArc
 50
90.0
 51
180.0
  0
ARC
  5
261
330
A
100
AcDbEntity
  8
1
  6
Continuous
 62
     7
100
AcDbCircle
 10
209.4769346995509
 20
35.03557399541298
 30
0.0
 40
1.0
100
AcDbArc
 50
0.0
 51
89.999999999972
  0
ARC
  5
260
330
A
100
AcDbEntity
  8
1
  6
Continuous
 62
     7
100
AcDbCircle
 10
209.4769346995509
 20
22.684684636086
 30
0.0
 40
1.0
100
AcDbArc
 50
-90.0
 51
0.0
  0
ARC
  5
25F
330
A
100
AcDbEntity
  8
1
  6
Continuous
 62
     7
100
AcDbCircle
 10
209.4769346995509
 20
-14.96442600458698
 30
0.0
 40
1.0
100
AcDbArc
 50
-89.999999999972
 51
0.0
  0
ARC
  5
25E
330
A
100
AcDbEntity
  8
1
  6
Continuous
 62
     7
100
AcDbCircle
 10
209.4769346995509
 20
-2.613536645262
 30
0.0
 40
1.0
100
AcDbArc
 50
0.0
 51
90.0
  0
ARC
  5
25D
330
A
100
AcDbEntity
  8
1
  6
Continuous
 62
     7
100
AcDbCircle
 10
311.976934699551
 20
-27.964426004587
 30
0.0
 40
2.0
100
AcDbArc
 50
-90.0
 51
0.0
  0
ARC
  5
25C
330
A
100
AcDbEntity
  8
1
  6
Continuous
 62
     7
100
AcDbCircle
 10
311.976934699551
 20
48.035573995413
 30
0.0
 40
2.0
100
AcDbArc
 50
0.0
 51
90.0
  0
ARC
  5
25B
330
A
100
AcDbEntity
  8
1
  6
Continuous
 62
     7
100
AcDbCircle
 10
283.526934699551
 20
42.93557399541199
 30
0.0
 40
0.399999999999
100
AcDbArc
 50
-90.0
 51
0.0
  0
ARC
  5
25A
330
A
100
AcDbEntity
  8
1
  6
Continuous
 62
     7
100
AcDbCircle
 10
283.526934699551
 20
49.135573995412
 30
0.0
 40
0.4
100
AcDbArc
 50
0.0
 51
90.0
  0
ARC
  5
259
330
A
100
AcDbEntity
  8
1
  6
Continuous
 62
     7
100
AcDbCircle
 10
283.526934699551
 20
-29.06442600458799
 30
0.0
 40
0.399999999999
100
AcDbArc
 50
-90.0
 51
0.0
  0
ARC
  5
258
330
A
100
AcDbEntity
  8
1
  6
Continuous
 62
     7
100
AcDbCircle
 10
283.526934699551
 20
-22.86442600458799
 30
0.0
 40
0.4
100
AcDbArc
 50
0.0
 51
90.0
  0
ARC
  5
257
330
A
100
AcDbEntity
  8
1
  6
Continuous
 62
     7
100
AcDbCircle
 10
279.5262154803609
 20
131.9619931880249
 30
0.0
 40
0.5
100
AcDbArc
 50
0.0
 51
90.0
  0
ARC
  5
256
330
A
100
AcDbEntity
  8
1
  6
Continuous
 62
     7
100
AcDbCircle
 10
268.7262154803609
 20
131.9619931880249
 30
0.0
 40
0.5
100
AcDbArc
 50
90.0
 51
180.0
  0
ARC
  5
255
330
A
100
AcDbEntity
  8
1
  6
Continuous
 62
     7
100
AcDbCircle
 10
299.882125067061
 20
132.557560766875
 30
0.0
 40
0.5
100
AcDbArc
 50
79.999999999965
 51
169.99999999993
  0
ARC
  5
254
330
A
100
AcDbEntity
  8
1
  6
Continuous
 62
     7
100
AcDbCircle
 10
314.6542413622448
 20
129.9528381018709
 30
0.0
 40
0.5
100
AcDbArc
 50
-9.999999999959999
 51
80.000000000016
  0
SPLINE
  5
253
330
A
100
AcDbEntity
  8
1
  6
Continuous
 62
     3
100
AcDbSpline
210
0.0
220
0.0
230
1.0
 70
    11
 71
     3
 72
    83
 73
    79
 74
    77
 42
0.0000000001
 43
0.0000000001
 44
0.00000000001
 40
0.0
 40
0.0
 40
0.0
 40
0.0
 40
0.0806050085970508
 40
0.1614193547756254
 40
0.2504925635671804
 40
0.3398659342721353
 40
0.4408037728178022
 40
0.5420056047741642
 40
0.6559915039419466
 40
0.7701540641780596
 40
0.8966082925966732
 40
1.023169447905764
 40
1.160324985833
 40
1.297542895726333
 40
1.442845083647336
 40
1.588181639375342
 40
1.738566537003932
 40
1.888966725501601
 40
2.041081871571687
 40
2.193197017641603
 40
2.343597206139215
 40
2.493982103767693
 40
2.639318659495755
 40
2.784620847416813
 40
2.921838757310202
 40
3.058994295237438
 40
3.185555450546539
 40
3.312009678965038
 40
3.426172239201151
 40
3.540158138368885
 40
3.6413599703254
 40
3.742297808871096
 40
3.83167117957603
 40
3.920744388367486
 40
4.001558734546146
 40
4.082163743143295
 40
4.159735333462474
 40
4.237306923781443
 40
4.317911932377928
 40
4.398726278556262
 40
4.487799487347869
 40
4.57717285805314
 40
4.678110696599238
 40
4.779312528556064
 40
4.893298427723796
 40
5.007460987959804
 40
5.133915216378084
 40
5.260476371687243
 40
5.397631909614487
 40
5.534849819507904
 40
5.68015200742896
 40
5.82548856315691
 40
5.975873460785506
 40
6.126273649283116
 40
6.278388795353031
 40
6.430503941423231
 40
6.580904129920783
 40
6.731289027549493
 40
6.876625583277387
 40
7.021927771198386
 40
7.159145681091855
 40
7.296301219019266
 40
7.422862374328433
 40
7.549316602746843
 40
7.663479162982737
 40
7.777465062150228
 40
7.878666894106945
 40
7.979604732652986
 40
8.068978103358151
 40
8.158051312149886
 40
8.23886565832808
 40
8.319470666924582
 40
8.397379361816613
 40
8.475995780185199
 40
8.515949919429068
 40
8.555904058672812
 40
8.596207831421791
 40
8.635113070150056
 40
8.635113070150056
 40
8.635113070150056
 40
8.635113070150056
 10
274.1751192239447
 20
87.61303424076457
 30
0.0
 10
274.1691255163956
 20
87.63929585886279
 30
0.0
 10
274.1571225351652
 20
87.69188729855819
 30
0.0
 10
274.1214551516998
 20
87.76797123715558
 30
0.0
 10
274.0747727380565
 20
87.84092067398757
 30
0.0
 10
274.0144315873231
 20
87.91218223985035
 30
0.0
 10
273.9436134985196
 20
87.97897818960366
 30
0.0
 10
273.8601512971079
 20
88.04353658657168
 30
0.0
 10
273.7676505315085
 20
88.10290604261814
 30
0.0
 10
273.6635513542438
 20
88.15909599371414
 30
0.0
 10
273.5519566080653
 20
88.20959146545062
 30
0.0
 10
273.4303297873716
 20
88.25585487295015
 30
0.0
 10
273.3027964604025
 20
88.29604848101004
 30
0.0
 10
273.1672977900482
 20
88.33106451930486
 30
0.0
 10
273.0275300336213
 20
88.35973338686722
 30
0.0
 10
272.882244250683
 20
88.3825003962117
 30
0.0
 10
272.7343740827266
 20
88.39873319873612
 30
0.0
 10
272.5836831970566
 20
88.4086142287186
 30
0.0
 10
272.4321267335561
 20
88.41186620789727
 30
0.0
 10
272.2805702700489
 20
88.40861422871929
 30
0.0
 10
272.1298793843984
 20
88.39873319873339
 30
0.0
 10
271.9820092163725
 20
88.3825003962217
 30
0.0
 10
271.8367234336856
 20
88.3597333868313
 30
0.0
 10
271.6969556763444
 20
88.33106451943598
 30
0.0
 10
271.5614570092196
 20
88.29604848055092
 30
0.0
 10
271.4339236706563
 20
88.25585487461017
 30
0.0
 10
271.3122968900321
 20
88.20959145978669
 30
0.0
 10
271.2007020017739
 20
88.15909601401973
 30
0.0
 10
271.0966033054436
 20
88.10290597501813
 30
0.0
 10
271.0041008528676
 20
88.0435368273187
 30
0.0
 10
270.9206442711844
 20
87.97897740317152
 30
0.0
 10
270.8498065825608
 20
87.91218503589206
 30
0.0
 10
270.7895305360963
 20
87.84091157020842
 30
0.0
 10
270.7426196495638
 20
87.76800389387096
 30
0.0
 10
270.7077288626162
 20
87.69177800821422
 30
0.0
 10
270.68716291966
 20
87.61442409633035
 30
0.0
 10
270.6796884286921
 20
87.53577790009192
 30
0.0
 10
270.6871629196602
 20
87.4571317038537
 30
0.0
 10
270.707728862616
 20
87.37977779197022
 30
0.0
 10
270.742619649564
 20
87.30355190631378
 30
0.0
 10
270.7895305360964
 20
87.23064422997635
 30
0.0
 10
270.8498065825607
 20
87.15937076429222
 30
0.0
 10
270.9206442711845
 20
87.09257839701232
 30
0.0
 10
271.0041008528673
 20
87.02801897286436
 30
0.0
 10
271.0966033054433
 20
86.96864982516462
 30
0.0
 10
271.2007020017739
 20
86.91245978616395
 30
0.0
 10
271.3122968900323
 20
86.86196434039757
 30
0.0
 10
271.4339236706564
 20
86.81570092557411
 30
0.0
 10
271.5614570092196
 20
86.77550731963281
 30
0.0
 10
271.6969556763443
 20
86.74049128074772
 30
0.0
 10
271.8367234336855
 20
86.71182241335245
 30
0.0
 10
271.9820092163724
 20
86.68905540396199
 30
0.0
 10
272.1298793843982
 20
86.67282260145027
 30
0.0
 10
272.2805702700493
 20
86.66294157146422
 30
0.0
 10
272.432126733555
 20
86.65968959228715
 30
0.0
 10
272.583683197061
 20
86.66294157146239
 30
0.0
 10
272.7343740827107
 20
86.67282260145764
 30
0.0
 10
272.8822442507421
 20
86.68905540393479
 30
0.0
 10
273.0275300334091
 20
86.71182241345025
 30
0.0
 10
273.1672977908227
 20
86.74049128039099
 30
0.0
 10
273.3027964576913
 20
86.77550732088176
 30
0.0
 10
273.4303297971744
 20
86.81570092105868
 30
0.0
 10
273.5519565746199
 20
86.86196435580376
 30
0.0
 10
273.6635514741487
 20
86.91245973093236
 30
0.0
 10
273.7676501323285
 20
86.96865000904081
 30
0.0
 10
273.8601527187253
 20
87.02801831802219
 30
0.0
 10
273.9436088546189
 20
87.09258053614266
 30
0.0
 10
274.0144480980144
 20
87.1593631589363
 30
0.0
 10
274.0747189800293
 20
87.23066899265429
 30
0.0
 10
274.1216479903602
 20
87.30346307861898
 30
0.0
 10
274.156477173156
 20
87.38007506648653
 30
0.0
 10
274.1772941388317
 20
87.45614662374096
 30
0.0
 10
274.1839804628833
 20
87.54030113624052
 30
0.0
 10
274.1798069390569
 20
87.59012688486411
 30
0.0
 10
274.16392389272
 20
87.67436164405825
 30
0.0
 10
274.1749602277309
 20
87.61406764943833
 30
0.0
 10
274.1855539289457
 20
87.55530286057704
 30
0.0
 10
274.1785562748375
 20
87.59401830386956
 30
0.0
 10
274.1751192239447
 20
87.61303424076457
 30
0.0
 11
274.1751192239447
 21
87.61303424076457
 31
0.0
 11
274.1543998778279
 21
87.69093081390758
 31
0.0
 11
274.1211829587093
 21
87.76460302598605
 31
0.0
 11
274.0732297496311
 21
87.83966650754349
 31
0.0
 11
274.0157979803145
 21
87.90814417736614
 31
0.0
 11
273.9426149772584
 21
87.97766176732691
 31
0.0
 11
273.8627248882647
 21
88.03978571175981
 31
0.0
 11
273.766976478728
 21
88.10163251669182
 31
0.0
 11
273.66659862176
 21
88.15601427824992
 31
0.0
 11
273.551496047444
 21
88.20837904952574
 31
0.0
 11
273.4332458600129
 21
88.25348580296333
 31
0.0
 11
273.3024889068601
 21
88.29488943548884
 31
0.0
 11
273.1696543781561
 21
88.32929499869427
 31
0.0
 11
273.0273408418764
 21
88.35861364815498
 31
0.0
 11
272.8837624274731
 21
88.38115146855386
 31
0.0
 11
272.7342838734748
 21
88.39763719963597
 31
0.0
 11
272.5842061276284
 21
88.40748031407223
 31
0.0
 11
272.4321267335549
 21
88.41077812579809
 31
0.0
 11
272.2800473394817
 21
88.40748031407223
 31
0.0
 11
272.1299695936354
 21
88.39763719963597
 31
0.0
 11
271.9804910396371
 21
88.38115146855386
 31
0.0
 11
271.8369126252338
 21
88.35861364815498
 31
0.0
 11
271.6945990889541
 21
88.32929499869427
 31
0.0
 11
271.56176456025
 21
88.29488943548884
 31
0.0
 11
271.4310076070972
 21
88.25348580296333
 31
0.0
 11
271.3127574196661
 21
88.2083790495257
 31
0.0
 11
271.1976548453502
 21
88.15601427824992
 31
0.0
 11
271.0972769883821
 21
88.10163251669182
 31
0.0
 11
271.0015285788455
 21
88.03978571175981
 31
0.0
 11
270.9216384898516
 21
87.97766176732695
 31
0.0
 11
270.8484554867955
 21
87.90814417736614
 31
0.0
 11
270.791023717479
 21
87.83966650754351
 31
0.0
 11
270.7430705084009
 21
87.76460302598605
 31
0.0
 11
270.7098535892821
 21
87.69093081390755
 31
0.0
 11
270.6891342431653
 21
87.61303424076444
 31
0.0
 11
270.6821478671001
 21
87.53577790009185
 31
0.0
 11
270.6891342431655
 21
87.45852155941946
 31
0.0
 11
270.7098535892821
 21
87.38062498627698
 31
0.0
 11
270.7430705084009
 21
87.30695277419886
 31
0.0
 11
270.791023717479
 21
87.23188929264125
 31
0.0
 11
270.8484554867955
 21
87.16341162281819
 31
0.0
 11
270.9216384898516
 21
87.0938940328568
 31
0.0
 11
271.0015285788454
 21
87.03177008842327
 31
0.0
 11
271.0972769883819
 21
86.96992328349109
 31
0.0
 11
271.1976548453502
 21
86.91554152193363
 31
0.0
 11
271.3127574196661
 21
86.86317675065851
 31
0.0
 11
271.4310076070973
 21
86.81806999722086
 31
0.0
 11
271.56176456025
 21
86.77666636469497
 31
0.0
 11
271.6945990889541
 21
86.74226080148944
 31
0.0
 11
271.8369126252338
 21
86.71294215202873
 31
0.0
 11
271.980491039637
 21
86.69040433162985
 31
0.0
 11
272.1299695936354
 21
86.67391860054769
 31
0.0
 11
272.2800473394817
 21
86.66407548611147
 31
0.0
 11
272.4321267335549
 21
86.66077767438563
 31
0.0
 11
272.5842061276285
 21
86.66407548611148
 31
0.0
 11
272.7342838734748
 21
86.67391860054769
 31
0.0
 11
272.8837624274733
 21
86.69040433162985
 31
0.0
 11
273.0273408418764
 21
86.71294215202873
 31
0.0
 11
273.1696543781561
 21
86.74226080148944
 31
0.0
 11
273.3024889068602
 21
86.77666636469496
 31
0.0
 11
273.433245860013
 21
86.81806999722086
 31
0.0
 11
273.5514960474441
 21
86.86317675065868
 31
0.0
 11
273.6665986217601
 21
86.91554152193424
 31
0.0
 11
273.766976478728
 21
86.969923283492
 31
0.0
 11
273.8627248882644
 21
87.03177008842381
 31
0.0
 11
273.9426149772584
 21
87.09389403285694
 31
0.0
 11
274.0157979803147
 21
87.16341162281819
 31
0.0
 11
274.0732297496311
 21
87.23188929264122
 31
0.0
 11
274.1211829587093
 21
87.30695277419886
 31
0.0
 11
274.1543998778278
 21
87.38062498627698
 31
0.0
 11
274.1751192239445
 21
87.45852155941944
 31
0.0
 11
274.1820433740743
 21
87.53612195171715
 31
0.0
 11
274.1748703202021
 21
87.61441044726566
 31
0.0
 11
274.1677594922655
 21
87.65372672085275
 31
0.0
 11
274.1748703202021
 21
87.61441044726579
 31
0.0
 11
274.1820433740743
 21
87.57475012205347
 31
0.0
 11
274.1751192239447
 21
87.61303424076457
 31
0.0
  0
SPLINE
  5
252
330
A
100
AcDbEntity
  8
1
  6
Continuous
 62
     3
100
AcDbSpline
210
0.0
220
0.0
230
1.0
 70
     8
 71
     3
 72
    45
 73
    41
 74
    39
 42
0.0000000001
 43
0.0000000001
 44
0.00000000001
 40
0.0
 40
0.0
 40
0.0
 40
0.0
 40
0.040929619014335
 40
0.0869850991760091
 40
0.159295957303306
 40
0.2338396411169458
 40
0.3269188220462242
 40
0.41760547229988
 40
0.5185433108456522
 40
0.619745142802347
 40
0.7337310419702142
 40
0.8478936022060361
 40
0.974347830624085
 40
1.100908985933191
 40
1.23806452386071
 40
1.375282433754185
 40
1.520584621675188
 40
1.665921177403194
 40
1.816306075031897
 40
1.966706263529453
 40
2.118821409599538
 40
2.270936555669453
 40
2.421336744166952
 40
2.571721641795655
 40
2.717058197523605
 40
2.862360385444663
 40
2.999578295338084
 40
3.136733833265441
 40
3.263294988574653
 40
3.389749216992967
 40
3.503911777228882
 40
3.61789767639651
 40
3.719099508353256
 40
3.820037346899475
 40
3.910723997160106
 40
4.003803178110136
 40
4.078346861890423
 40
4.150657719973358
 40
4.196713199982997
 40
4.237642818822108
 40
4.237642818822108
 40
4.237642818822108
 40
4.237642818822108
 10
277.6821267335549
 20
87.53577789961994
 30
0.0
 10
277.6816429613596
 20
87.54942183425889
 30
0.0
 10
277.6806148312819
 20
87.57841841512876
 30
0.0
 10
277.6728016714824
 20
87.63102644231913
 30
0.0
 10
277.6564943424836
 20
87.69353337340497
 30
0.0
 10
277.6223743251315
 20
87.76623448200453
 30
0.0
 10
277.575958663766
 20
87.83903676721113
 30
0.0
 10
277.5148189766783
 20
87.91193363678571
 30
0.0
 10
277.4435943841214
 20
87.97896355939855
 30
0.0
 10
277.3601571485167
 20
88.04354106525426
 30
0.0
 10
277.2676488884751
 20
88.10290478503718
 30
0.0
 10
277.1635518477754
 20
88.1590963714645
 30
0.0
 10
277.0519564704033
 20
88.20959136008314
 30
0.0
 10
276.9303298277193
 20
88.25585490383161
 30
0.0
 10
276.8027964492428
 20
88.29604847246809
 30
0.0
 10
276.6672977932357
 20
88.33106452174451
 30
0.0
 10
276.5275300327474
 20
88.35973338619833
 30
0.0
 10
276.3822442509261
 20
88.38250039639801
 30
0.0
 10
276.2343740826608
 20
88.39873319868525
 30
0.0
 10
276.0836831970735
 20
88.40861422873329
 30
0.0
 10
275.932126733555
 20
88.41186620789002
 30
0.0
 10
275.7805702700365
 20
88.40861422873329
 30
0.0
 10
275.6298793844492
 20
88.39873319868525
 30
0.0
 10
275.4820092161841
 20
88.38250039639797
 30
0.0
 10
275.3367234343627
 20
88.35973338619835
 30
0.0
 10
275.1969556738744
 20
88.33106452174453
 30
0.0
 10
275.0614570178675
 20
88.29604847246807
 30
0.0
 10
274.9339236393909
 20
88.2558549038316
 30
0.0
 10
274.8122969967069
 20
88.2095913600831
 30
0.0
 10
274.7007016193345
 20
88.15909637146452
 30
0.0
 10
274.5966045786349
 20
88.10290478503729
 30
0.0
 10
274.5040963185932
 20
88.04354106525423
 30
0.0
 10
274.4206590829889
 20
87.97896355939819
 30
0.0
 10
274.3494344904296
 20
87.91193363678392
 30
0.0
 10
274.2882948033379
 20
87.83903676720036
 30
0.0
 10
274.2418791419745
 20
87.76623448199488
 30
0.0
 10
274.2077591246265
 20
87.69353337341454
 30
0.0
 10
274.1914517956477
 20
87.63102644240268
 30
0.0
 10
274.1836386358563
 20
87.57841841533759
 30
0.0
 10
274.182610505759
 20
87.5494218345779
 30
0.0
 10
274.1821267335549
 20
87.53577789999784
 30
0.0
 11
277.6821267335549
 21
87.53577789961994
 31
0.0
 11
277.6799584392916
 21
87.57665004432324
 31
0.0
 11
277.6734535564163
 21
87.62224383503754
 31
0.0
 11
277.6546296144516
 21
87.69206159360953
 31
0.0
 11
277.623767572733
 21
87.75991655052107
 31
0.0
 11
277.573875903137
 21
87.83849488867728
 31
0.0
 11
277.5157979803145
 21
87.90814417736608
 31
0.0
 11
277.4426149772584
 21
87.97766176732706
 31
0.0
 11
277.3627248882647
 21
88.03978571176044
 31
0.0
 11
277.2669764787281
 21
88.1016325166926
 31
0.0
 11
277.16659862176
 21
88.1560142782501
 31
0.0
 11
277.0514960474443
 21
88.20837904952517
 31
0.0
 11
276.9332458600131
 21
88.25348580296282
 31
0.0
 11
276.8024889068602
 21
88.29488943548872
 31
0.0
 11
276.6696543781561
 21
88.32929499869427
 31
0.0
 11
276.5273408418764
 21
88.35861364815498
 31
0.0
 11
276.3837624274732
 21
88.38115146855386
 31
0.0
 11
276.2342838734746
 21
88.39763719963597
 31
0.0
 11
276.0842061276284
 21
88.40748031407223
 31
0.0
 11
275.932126733555
 21
88.41077812579806
 31
0.0
 11
275.7800473394817
 21
88.40748031407223
 31
0.0
 11
275.6299695936355
 21
88.39763719963597
 31
0.0
 11
275.4804910396369
 21
88.38115146855386
 31
0.0
 11
275.3369126252338
 21
88.35861364815498
 31
0.0
 11
275.194599088954
 21
88.32929499869427
 31
0.0
 11
275.06176456025
 21
88.29488943548872
 31
0.0
 11
274.9310076070972
 21
88.25348580296282
 31
0.0
 11
274.812757419666
 21
88.20837904952517
 31
0.0
 11
274.6976548453499
 21
88.15601427825008
 31
0.0
 11
274.5972769883818
 21
88.1016325166926
 31
0.0
 11
274.5015285788454
 21
88.03978571176044
 31
0.0
 11
274.4216384898517
 21
87.97766176732691
 31
0.0
 11
274.3484554867955
 21
87.90814417736546
 31
0.0
 11
274.2903775639697
 21
87.83849488867026
 31
0.0
 11
274.2404858943634
 21
87.75991655049608
 31
0.0
 11
274.209623852657
 21
87.69206159361564
 31
0.0
 11
274.1907999107025
 21
87.62224383508685
 31
0.0
 11
274.1842950278376
 21
87.57665004452462
 31
0.0
 11
274.1821267335549
 21
87.53577789999784
 31
0.0
  0
SPLINE
  5
251
330
A
100
AcDbEntity
  8
1
  6
Continuous
 62
     3
100
AcDbSpline
210
0.0
220
0.0
230
1.0
 70
     8
 71
     3
 72
    45
 73
    41
 74
    39
 42
0.0000000001
 43
0.0000000001
 44
0.00000000001
 40
0.0
 40
0.0
 40
0.0
 40
0.0
 40
0.0409296190152238
 40
0.0869850991770748
 40
0.1592959573036941
 40
0.2338396411169304
 40
0.3269188220464202
 40
0.4176054723004507
 40
0.5185433108465773
 40
0.619745142803413
 40
0.733731041971217
 40
0.8478936022071456
 40
0.9743478306253617
 40
1.100908985934573
 40
1.238064523861817
 40
1.375282433755238
 40
1.52058462167629
 40
1.665921177404247
 40
1.816306075032839
 40
1.96670626353045
 40
2.118821409600366
 40
2.270936555670565
 40
2.421336744168123
 40
2.571721641796823
 40
2.717058197524717
 40
2.862360385445722
 40
2.999578295339187
 40
3.136733833266607
 40
3.263294988575768
 40
3.389749216994184
 40
3.503911777230115
 40
3.617897676397558
 40
3.719099508354258
 40
3.820037346900318
 40
3.910723997161197
 40
4.003803178111532
 40
4.078346861891703
 40
4.1506577199743
 40
4.196713199983973
 40
4.237642818823756
 40
4.237642818823756
 40
4.237642818823756
 40
4.237642818823756
 10
270.6821267335549
 20
91.56863060794789
 30
0.0
 10
270.6826105057502
 20
91.55498667330864
 30
0.0
 10
270.6836386358281
 20
91.52599009243845
 30
0.0
 10
270.6914517956277
 20
91.47338206524793
 30
0.0
 10
270.707759124626
 20
91.41087513416227
 30
0.0
 10
270.7418791419784
 20
91.33817402556317
 30
0.0
 10
270.788294803344
 20
91.26537174035663
 30
0.0
 10
270.8494344904315
 20
91.19247487078153
 30
0.0
 10
270.9206590829887
 20
91.12544494816832
 30
0.0
 10
271.0040963185933
 20
91.06086744231243
 30
0.0
 10
271.0966045786351
 20
91.00150372252949
 30
0.0
 10
271.2007016193347
 20
90.94531213610217
 30
0.0
 10
271.312296996707
 20
90.89481714748353
 30
0.0
 10
271.433923639391
 20
90.84855360373508
 30
0.0
 10
271.5614570178676
 20
90.8083600350986
 30
0.0
 10
271.6969556738743
 20
90.77334398582213
 30
0.0
 10
271.8367234343627
 20
90.74467512136839
 30
0.0
 10
271.9820092161839
 20
90.72190811116866
 30
0.0
 10
272.1298793844493
 20
90.70567530888139
 30
0.0
 10
272.2805702700364
 20
90.69579427883338
 30
0.0
 10
272.432126733555
 20
90.69254229967658
 30
0.0
 10
272.5836831970736
 20
90.69579427883338
 30
0.0
 10
272.7343740826609
 20
90.70567530888144
 30
0.0
 10
272.8822442509261
 20
90.72190811116868
 30
0.0
 10
273.0275300327475
 20
90.74467512136829
 30
0.0
 10
273.1672977932357
 20
90.77334398582221
 30
0.0
 10
273.3027964492427
 20
90.80836003509849
 30
0.0
 10
273.4303298277193
 20
90.84855360373506
 30
0.0
 10
273.5519564704033
 20
90.89481714748364
 30
0.0
 10
273.6635518477754
 20
90.94531213610279
 30
0.0
 10
273.7676488884749
 20
91.00150372253034
 30
0.0
 10
273.8601571485166
 20
91.06086744231307
 30
0.0
 10
273.9435943841214
 20
91.12544494816845
 30
0.0
 10
274.0148189766805
 20
91.19247487078281
 30
0.0
 10
274.0759586637723
 20
91.26537174036643
 30
0.0
 10
274.1223743251356
 20
91.33817402557225
 30
0.0
 10
274.1564943424829
 20
91.4108751341528
 30
0.0
 10
274.1728016714624
 20
91.47338206516428
 30
0.0
 10
274.1806148312536
 20
91.52599009222956
 30
0.0
 10
274.1816429613507
 20
91.55498667298951
 30
0.0
 10
274.1821267335549
 20
91.56863060756979
 30
0.0
 11
270.6821267335549
 21
91.56863060794789
 31
0.0
 11
270.6842950278184
 21
91.52775846324372
 31
0.0
 11
270.6907999106937
 21
91.48216467252922
 31
0.0
 11
270.7096238526581
 21
91.41234691395787
 31
0.0
 11
270.7404858943768
 21
91.3444919570468
 31
0.0
 11
270.7903775639729
 21
91.26591361889046
 31
0.0
 11
270.8484554867955
 21
91.19626433020121
 31
0.0
 11
270.9216384898516
 21
91.12674674023976
 31
0.0
 11
271.0015285788454
 21
91.06462279580624
 31
0.0
 11
271.097276988382
 21
91.0027759908741
 31
0.0
 11
271.1976548453502
 21
90.94839422931659
 31
0.0
 11
271.3127574196661
 21
90.8960294580415
 31
0.0
 11
271.4310076070973
 21
90.85092270460384
 31
0.0
 11
271.56176456025
 21
90.80951907207795
 31
0.0
 11
271.6945990889541
 21
90.7751135088724
 31
0.0
 11
271.8369126252338
 21
90.74579485941171
 31
0.0
 11
271.980491039637
 21
90.72325703901279
 31
0.0
 11
272.1299695936354
 21
90.70677130793068
 31
0.0
 11
272.2800473394817
 21
90.69692819349443
 31
0.0
 11
272.4321267335549
 21
90.69363038176858
 31
0.0
 11
272.5842061276285
 21
90.69692819349443
 31
0.0
 11
272.7342838734748
 21
90.70677130793072
 31
0.0
 11
272.8837624274733
 21
90.72325703901279
 31
0.0
 11
273.0273408418764
 21
90.74579485941168
 31
0.0
 11
273.1696543781561
 21
90.7751135088724
 31
0.0
 11
273.3024889068602
 21
90.80951907207792
 31
0.0
 11
273.433245860013
 21
90.85092270460384
 31
0.0
 11
273.5514960474441
 21
90.89602945804164
 31
0.0
 11
273.6665986217601
 21
90.94839422931723
 31
0.0
 11
273.7669764787281
 21
91.00277599087496
 31
0.0
 11
273.8627248882644
 21
91.06462279580677
 31
0.0
 11
273.9426149772584
 21
91.12674674023987
 31
0.0
 11
274.0157979803147
 21
91.19626433020114
 31
0.0
 11
274.0738759031405
 21
91.26591361889657
 31
0.0
 11
274.1237675727467
 21
91.34449195707121
 31
0.0
 11
274.1546296144528
 21
91.41234691395167
 31
0.0
 11
274.1734535564075
 21
91.48216467248005
 31
0.0
 11
274.1799584392724
 21
91.52775846304232
 31
0.0
 11
274.1821267335549
 21
91.56863060756979
 31
0.0
  0
SPLINE
  5
250
330
A
100
AcDbEntity
  8
1
  6
Continuous
 62
     3
100
AcDbSpline
210
0.0
220
0.0
230
1.0
 70
    11
 71
     3
 72
    83
 73
    79
 74
    77
 42
0.0000000001
 43
0.0000000001
 44
0.00000000001
 40
0.0
 40
0.0
 40
0.0
 40
0.0
 40
0.0806050085966654
 40
0.1614193547749913
 40
0.2504925635665609
 40
0.3398659342718937
 40
0.4408037728179128
 40
0.5420056047744694
 40
0.6559915039419204
 40
0.7701540641779507
 40
0.8966082925964702
 40
1.023169447905738
 40
1.160324985833103
 40
1.297542895726513
 40
1.442845083647574
 40
1.588181639375524
 40
1.738566537004116
 40
1.888966725501727
 40
2.041081871571643
 40
2.193197017641729
 40
2.343597206139286
 40
2.49398210376793
 40
2.639318659495992
 40
2.784620847416997
 40
2.921838757310363
 40
3.058994295237824
 40
3.185555450546879
 40
3.312009678965387
 40
3.426172239201331
 40
3.54015813836883
 40
3.641359970325476
 40
3.742297808871495
 40
3.831671179576718
 40
3.920744388368325
 40
4.00155873454663
 40
4.082163743143257
 40
4.159735333462301
 40
4.237306923781458
 40
4.317911932378525
 40
4.398726278557136
 40
4.48779948734849
 40
4.577172858053386
 40
4.678110696599168
 40
4.779312528555855
 40
4.893298427723714
 40
5.00746098795955
 40
5.133915216377594
 40
5.260476371686699
 40
5.397631909614223
 40
5.53484981950771
 40
5.680152007428695
 40
5.825488563156707
 40
5.975873460785411
 40
6.126273649282967
 40
6.278388795353052
 40
6.430503941422966
 40
6.580904129920579
 40
6.731289027549169
 40
6.876625583277125
 40
7.021927771198167
 40
7.159145681091598
 40
7.29630121901896
 40
7.422862374328166
 40
7.549316602746273
 40
7.663479162982102
 40
7.777465062149905
 40
7.878666894106805
 40
7.979604732653
 40
8.068978103358023
 40
8.15805131214932
 40
8.23886565832749
 40
8.31947066692428
 40
8.397379361816508
 40
8.475995780185014
 40
8.515949919428543
 40
8.555904058672151
 40
8.596207831420921
 40
8.635113070148964
 40
8.635113070148964
 40
8.635113070148964
 40
8.635113070148964
 10
274.1891342431655
 20
91.49137426680264
 30
0.0
 10
274.1951279507145
 20
91.46511264870452
 30
0.0
 10
274.2071309319449
 20
91.41252120900933
 30
0.0
 10
274.2427983154104
 20
91.33643727041228
 30
0.0
 10
274.2894807290533
 20
91.26348783357995
 30
0.0
 10
274.3498218797871
 20
91.19222626771701
 30
0.0
 10
274.4206399685901
 20
91.12543031796302
 30
0.0
 10
274.5041021700021
 20
91.06087192099511
 30
0.0
 10
274.5966029356013
 20
91.00150246494841
 30
0.0
 10
274.7007021128664
 20
90.9453125138531
 30
0.0
 10
274.8122968590446
 20
90.89481704211678
 30
0.0
 10
274.9339236797384
 20
90.84855363461711
 30
0.0
 10
275.0614570067074
 20
90.80836002655663
 30
0.0
 10
275.1969556770618
 20
90.77334398826181
 30
0.0
 10
275.3367234334888
 20
90.74467512069944
 30
0.0
 10
275.4820092164272
 20
90.72190811135495
 30
0.0
 10
275.6298793843835
 20
90.70567530883053
 30
0.0
 10
275.7805702700533
 20
90.69579427884807
 30
0.0
 10
275.9321267335539
 20
90.69254229966938
 30
0.0
 10
276.0836831970609
 20
90.69579427884734
 30
0.0
 10
276.2343740827116
 20
90.70567530883336
 30
0.0
 10
276.3822442507377
 20
90.7219081113449
 30
0.0
 10
276.5275300334247
 20
90.74467512073539
 30
0.0
 10
276.6672977907656
 20
90.77334398813063
 30
0.0
 10
276.8027964578906
 20
90.80836002701591
 30
0.0
 10
276.9303297964538
 20
90.84855363295696
 30
0.0
 10
277.0519565770779
 20
90.89481704778076
 30
0.0
 10
277.1635514653361
 20
90.94531249354742
 30
0.0
 10
277.2676501616666
 20
91.00150253254858
 30
0.0
 10
277.3601526142424
 20
91.06087168024792
 30
0.0
 10
277.4436091959257
 20
91.12543110439535
 30
0.0
 10
277.5144468845492
 20
91.19222347167518
 30
0.0
 10
277.5747229310135
 20
91.26349693735932
 30
0.0
 10
277.6216338175461
 20
91.33640461369671
 30
0.0
 10
277.6565246044936
 20
91.41263049935334
 30
0.0
 10
277.6770905474498
 20
91.48998441123671
 30
0.0
 10
277.684565038418
 20
91.56863060747506
 30
0.0
 10
277.6770905474498
 20
91.64727680371347
 30
0.0
 10
277.6565246044937
 20
91.72463071559722
 30
0.0
 10
277.621633817546
 20
91.80085660125399
 30
0.0
 10
277.5747229310136
 20
91.87376427759131
 30
0.0
 10
277.5144468845492
 20
91.94503774327504
 30
0.0
 10
277.4436091959255
 20
92.01183011055453
 30
0.0
 10
277.3601526142426
 20
92.0763895347024
 30
0.0
 10
277.2676501616668
 20
92.13575868240193
 30
0.0
 10
277.1635514653362
 20
92.19194872140281
 30
0.0
 10
277.051956577078
 20
92.24244416716905
 30
0.0
 10
276.9303297964539
 20
92.28870758199262
 30
0.0
 10
276.8027964578907
 20
92.32890118793378
 30
0.0
 10
276.6672977907657
 20
92.36391722681903
 30
0.0
 10
276.5275300334246
 20
92.39258609421419
 30
0.0
 10
276.3822442507377
 20
92.41535310360474
 30
0.0
 10
276.2343740827117
 20
92.43158590611633
 30
0.0
 10
276.0836831970606
 20
92.44146693610248
 30
0.0
 10
275.9321267335551
 20
92.44471891527947
 30
0.0
 10
275.780570270049
 20
92.44146693610435
 30
0.0
 10
275.6298793843996
 20
92.43158590610898
 30
0.0
 10
275.482009216368
 20
92.41535310363195
 30
0.0
 10
275.3367234337011
 20
92.3925860941164
 30
0.0
 10
275.1969556762875
 20
92.36391722717575
 30
0.0
 10
275.0614570094188
 20
92.32890118668491
 30
0.0
 10
274.9339236699359
 20
92.2887075865079
 30
0.0
 10
274.8122968924903
 20
92.24244415176308
 30
0.0
 10
274.7007019929613
 20
92.19194877663488
 30
0.0
 10
274.5966033347814
 20
92.13575849852677
 30
0.0
 10
274.5041007483847
 20
92.07639018954509
 30
0.0
 10
274.4206446124912
 20
92.0118279714242
 30
0.0
 10
274.3498053690959
 20
91.94504534863032
 30
0.0
 10
274.2895344870808
 20
91.87373951491256
 30
0.0
 10
274.2426054767501
 20
91.80094542894815
 30
0.0
 10
274.2077762939536
 20
91.72433344108078
 30
0.0
 10
274.1869593282785
 20
91.64826188382614
 30
0.0
 10
274.1802730042266
 20
91.56410737132643
 30
0.0
 10
274.1844465280531
 20
91.51428162270283
 30
0.0
 10
274.2003295743901
 20
91.4300468635092
 30
0.0
 10
274.189293239379
 20
91.4903408581288
 30
0.0
 10
274.1786995381643
 20
91.5491056469898
 30
0.0
 10
274.1856971922726
 20
91.51039020369752
 30
0.0
 10
274.1891342431655
 20
91.49137426680264
 30
0.0
 11
274.1891342431655
 21
91.49137426680264
 31
0.0
 11
274.2098535892822
 21
91.41347769365999
 31
0.0
 11
274.2430705084009
 21
91.33980548158183
 31
0.0
 11
274.2910237174788
 21
91.26474200002419
 31
0.0
 11
274.3484554867955
 21
91.19626433020114
 31
0.0
 11
274.4216384898516
 21
91.12674674023987
 31
0.0
 11
274.5015285788454
 21
91.06462279580679
 31
0.0
 11
274.5972769883818
 21
91.00277599087496
 31
0.0
 11
274.6976548453499
 21
90.94839422931723
 31
0.0
 11
274.812757419666
 21
90.89602945804164
 31
0.0
 11
274.9310076070972
 21
90.85092270460384
 31
0.0
 11
275.06176456025
 21
90.80951907207792
 31
0.0
 11
275.194599088954
 21
90.7751135088724
 31
0.0
 11
275.3369126252338
 21
90.74579485941168
 31
0.0
 11
275.4804910396369
 21
90.72325703901279
 31
0.0
 11
275.6299695936354
 21
90.70677130793068
 31
0.0
 11
275.7800473394817
 21
90.69692819349443
 31
0.0
 11
275.932126733555
 21
90.69363038176858
 31
0.0
 11
276.0842061276284
 21
90.69692819349443
 31
0.0
 11
276.2342838734746
 21
90.70677130793072
 31
0.0
 11
276.3837624274731
 21
90.72325703901279
 31
0.0
 11
276.5273408418764
 21
90.74579485941168
 31
0.0
 11
276.6696543781561
 21
90.7751135088724
 31
0.0
 11
276.8024889068601
 21
90.80951907207795
 31
0.0
 11
276.933245860013
 21
90.85092270460384
 31
0.0
 11
277.0514960474439
 21
90.89602945804164
 31
0.0
 11
277.16659862176
 21
90.9483942293172
 31
0.0
 11
277.2669764787281
 21
91.00277599087496
 31
0.0
 11
277.3627248882645
 21
91.06462279580679
 31
0.0
 11
277.4426149772584
 21
91.12674674023987
 31
0.0
 11
277.5157979803145
 21
91.19626433020114
 31
0.0
 11
277.573229749631
 21
91.26474200002419
 31
0.0
 11
277.6211829587091
 21
91.33980548158181
 31
0.0
 11
277.6543998778277
 21
91.41347769365999
 31
0.0
 11
277.6751192239445
 21
91.49137426680255
 31
0.0
 11
277.68210560001
 21
91.568630607475
 31
0.0
 11
277.6751192239445
 21
91.64588694814757
 31
0.0
 11
277.6543998778277
 21
91.72378352129056
 31
0.0
 11
277.6211829587089
 21
91.79745573336905
 31
0.0
 11
277.573229749631
 21
91.87251921492643
 31
0.0
 11
277.5157979803145
 21
91.94099688474905
 31
0.0
 11
277.4426149772584
 21
92.01051447471005
 31
0.0
 11
277.3627248882647
 21
92.07263841914341
 31
0.0
 11
277.2669764787281
 21
92.13448522407556
 31
0.0
 11
277.16659862176
 21
92.18886698563308
 31
0.0
 11
277.0514960474443
 21
92.24123175690813
 31
0.0
 11
276.9332458600131
 21
92.28633851034578
 31
0.0
 11
276.8024889068602
 21
92.3277421428717
 31
0.0
 11
276.6696543781561
 21
92.36214770607729
 31
0.0
 11
276.5273408418764
 21
92.39146635553792
 31
0.0
 11
276.3837624274732
 21
92.41400417593686
 31
0.0
 11
276.2342838734746
 21
92.43048990701895
 31
0.0
 11
276.0842061276284
 21
92.44033302145522
 31
0.0
 11
275.932126733555
 21
92.44363083318104
 31
0.0
 11
275.7800473394817
 21
92.44033302145522
 31
0.0
 11
275.6299695936354
 21
92.43048990701895
 31
0.0
 11
275.4804910396369
 21
92.41400417593686
 31
0.0
 11
275.3369126252338
 21
92.39146635553792
 31
0.0
 11
275.194599088954
 21
92.36214770607729
 31
0.0
 11
275.06176456025
 21
92.3277421428717
 31
0.0
 11
274.9310076070972
 21
92.28633851034578
 31
0.0
 11
274.812757419666
 21
92.24123175690815
 31
0.0
 11
274.6976548453502
 21
92.18886698563308
 31
0.0
 11
274.5972769883821
 21
92.13448522407556
 31
0.0
 11
274.5015285788455
 21
92.07263841914343
 31
0.0
 11
274.4216384898516
 21
92.01051447470993
 31
0.0
 11
274.3484554867955
 21
91.94099688474841
 31
0.0
 11
274.2910237174791
 21
91.87251921492556
 31
0.0
 11
274.2430705084009
 21
91.79745573336839
 31
0.0
 11
274.2098535892822
 21
91.7237835212904
 31
0.0
 11
274.1891342431655
 21
91.64588694814764
 31
0.0
 11
274.1822100930356
 21
91.56828655584972
 31
0.0
 11
274.1893831469079
 21
91.48999806030129
 31
0.0
 11
274.1964939748446
 21
91.45068178671456
 31
0.0
 11
274.1893831469079
 21
91.48999806030136
 31
0.0
 11
274.1822100930356
 21
91.52965838551347
 31
0.0
 11
274.1891342431655
 21
91.49137426680264
 31
0.0
  0
SPLINE
  5
24F
330
A
100
AcDbEntity
  8
1
  6
Continuous
 62
     3
100
AcDbSpline
210
0.0
220
0.0
230
1.0
 70
    11
 71
     3
 72
    83
 73
    79
 74
    77
 42
0.0000000001
 43
0.0000000001
 44
0.00000000001
 40
0.0
 40
0.0
 40
0.0
 40
0.0
 40
0.0676953325010146
 40
0.1355664751338887
 40
0.2103737432062598
 40
0.2854330993422969
 40
0.3702047613179359
 40
0.4551981355917392
 40
0.5509280843740916
 40
0.6468064002365547
 40
0.7530077540723182
 40
0.859298909417318
 40
0.9744876539626284
 40
1.089728780997002
 40
1.211759410304805
 40
1.333818903081247
 40
1.460118196702443
 40
1.586430332211157
 40
1.714182758157021
 40
1.841935184102905
 40
1.968247319611328
 40
2.094546613232372
 40
2.21660610600881
 40
2.338636735316633
 40
2.453877862351198
 40
2.569066606896716
 40
2.675357762241695
 40
2.781559116077529
 40
2.877437431940006
 40
2.973167380722381
 40
3.058241792132498
 40
3.143258955903981
 40
3.217636724179904
 40
3.291286914026651
 40
3.358306423448338
 40
3.425610064342361
 40
3.491055216392696
 40
3.556500368442508
 40
3.623804009335725
 40
3.690823518757638
 40
3.764473708605093
 40
3.838851476880909
 40
3.923868640651915
 40
4.008943052061945
 40
4.104673000844642
 40
4.200551316707206
 40
4.306752670543055
 40
4.413043825888242
 40
4.528232570433678
 40
4.643473697468089
 40
4.765504326775865
 40
4.887563819551956
 40
5.013863113173187
 40
5.140175248681859
 40
5.267927674627713
 40
5.395680100573552
 40
5.521992236082248
 40
5.648291529703342
 40
5.770351022479703
 40
5.892381651787387
 40
6.007622778821828
 40
6.122811523367285
 40
6.229102678712364
 40
6.335304032548342
 40
6.431182348410755
 40
6.526912297193116
 40
6.611905671466887
 40
6.696677333442258
 40
6.77173668957807
 40
6.846543957650347
 40
6.914415100283091
 40
6.982110432783966
 40
7.047541292444699
 40
7.113566526783542
 40
7.147121622031059
 40
7.180676717278577
 40
7.214525448824857
 40
7.247199635176072
 40
7.247199635176072
 40
7.247199635176072
 40
7.247199635176072
 10
298.4733645495929
 20
78.9483779697691
 30
0.0
 10
298.4719609115339
 20
78.92579885471319
 30
0.0
 10
298.4691499900566
 20
78.880581984854
 30
0.0
 10
298.4798283382633
 20
78.81082333594619
 30
0.0
 10
298.500124409
 20
78.74097586327652
 30
0.0
 10
298.5318247033542
 20
78.66924675211008
 30
0.0
 10
298.5730251179618
 20
78.59862887819983
 30
0.0
 10
298.6249428078705
 20
78.52681298177393
 30
0.0
 10
298.6853734992513
 20
78.45703238949448
 30
0.0
 10
298.7559025732703
 20
78.38706078399741
 30
0.0
 10
298.8338215617602
 20
78.31989792594312
 30
0.0
 10
298.9208268571028
 20
78.25376372490641
 30
0.0
 10
299.0140309647573
 20
78.19111774132874
 30
0.0
 10
299.1148807737837
 20
78.13075259155448
 30
0.0
 10
299.2206760908104
 20
78.07448769628533
 30
0.0
 10
299.3323174006444
 20
78.02166791441878
 30
0.0
 10
299.4475913862398
 20
77.97349886922225
 30
0.0
 10
299.5666451462716
 20
77.92977750402819
 30
0.0
 10
299.6879693949621
 20
77.89119118030914
 30
0.0
 10
299.810837124637
 20
77.8578445356035
 30
0.0
 10
299.9345806998639
 20
77.83004376018621
 30
0.0
 10
300.0575592312584
 20
77.80802945616503
 30
0.0
 10
300.1800064042654
 20
77.7918925133944
 30
0.0
 10
300.2994087774595
 20
77.78181968537686
 30
0.0
 10
300.416878171782
 20
77.77787337428813
 30
0.0
 10
300.5291593459261
 20
77.77998835226151
 30
0.0
 10
300.6381223941346
 20
77.78839536432823
 30
0.0
 10
300.7400085380556
 20
77.80259104974021
 30
0.0
 10
300.8372049775957
 20
77.82315818351381
 30
0.0
 10
300.9258469535996
 20
77.8490290932763
 30
0.0
 10
301.0084832546414
 20
77.88132041001529
 30
0.0
 10
301.0813359808133
 20
77.918174713197
 30
0.0
 10
301.1462343841385
 20
77.96129366101606
 30
0.0
 10
301.1993896145298
 20
78.00982700337903
 30
0.0
 10
301.243430819103
 20
78.0636556384195
 30
0.0
 10
301.2777754035184
 20
78.12098578158799
 30
0.0
 10
301.3026054956311
 20
78.18259250157348
 30
0.0
 10
301.3151381664955
 20
78.24782174028332
 30
0.0
 10
301.3173573619273
 20
78.3146152352209
 30
0.0
 10
301.3095302106057
 20
78.38372301591718
 30
0.0
 10
301.2911738433705
 20
78.45332192123075
 30
0.0
 10
301.2600144010802
 20
78.52473715469916
 30
0.0
 10
301.2187747553939
 20
78.59520027269238
 30
0.0
 10
301.166840256695
 20
78.6671328468955
 30
0.0
 10
301.1063785784037
 20
78.73692603667821
 30
0.0
 10
301.0358532898759
 20
78.80689987842657
 30
0.0
 10
300.9579331830591
 20
78.87406207583754
 30
0.0
 10
300.8709282031072
 20
78.9401964631892
 30
0.0
 10
300.7777240041936
 20
79.00284239285626
 30
0.0
 10
300.6768742205874
 20
79.06320755764745
 30
0.0
 10
300.5710788963651
 20
79.11947244866571
 30
0.0
 10
300.4594375885106
 20
79.17229223170142
 30
0.0
 10
300.344163602367
 20
79.22046127657471
 30
0.0
 10
300.2251098424852
 20
79.26418264185413
 30
0.0
 10
300.1037855937499
 20
79.30276896555952
 30
0.0
 10
299.9809178641029
 20
79.33611561023333
 30
0.0
 10
299.8571742888088
 20
79.3639163857879
 30
0.0
 10
299.7341957576509
 20
79.38593068929677
 30
0.0
 10
299.6117485837925
 20
79.40206763392099
 30
0.0
 10
299.4923462136934
 20
79.41214045520036
 30
0.0
 10
299.3748768084378
 20
79.41608679009163
 30
0.0
 10
299.2625956735436
 20
79.41397172666539
 30
0.0
 10
299.153632489688
 20
79.40556500992466
 30
0.0
 10
299.0517468267499
 20
79.39136827733377
 30
0.0
 10
298.9545487591024
 20
79.37080468821751
 30
0.0
 10
298.8659384562235
 20
79.34492892212782
 30
0.0
 10
298.7833835115296
 20
79.31272202062571
 30
0.0
 10
298.7104659771219
 20
79.27573216396095
 30
0.0
 10
298.644989039548
 20
79.23259032477375
 30
0.0
 10
298.5899073156349
 20
79.18508331479793
 30
0.0
 10
298.5436673387005
 20
79.13162909053375
 30
0.0
 10
298.5088440500354
 20
79.07528494811443
 30
0.0
 10
298.4834864030949
 20
79.00907566447866
 30
0.0
 10
298.4750242995935
 20
78.96794491426629
 30
0.0
 10
298.467829806818
 20
78.89631495318818
 30
0.0
 10
298.4732473967093
 20
78.94750770936575
 30
0.0
 10
298.4786586764534
 20
78.99736347293672
 30
0.0
 10
298.4751083634766
 20
78.96451313289841
 30
0.0
 10
298.4733645495929
 20
78.9483779697691
 30
0.0
 11
298.4733645495929
 21
78.9483779697691
 31
0.0
 11
298.4715703878566
 21
78.88070641720758
 31
0.0
 11
298.4808469446802
 21
78.8134722183517
 31
0.0
 11
298.501665093246
 21
78.74162006426608
 31
0.0
 11
298.5316822073308
 21
78.67282413556697
 31
0.0
 11
298.5741419460945
 21
78.59945244308116
 31
0.0
 11
298.6237596225797
 21
78.53044548799214
 31
0.0
 11
298.6862187511669
 21
78.45789839742332
 31
0.0
 11
298.7541789867924
 21
78.39026661623762
 31
0.0
 11
298.8344803191667
 21
78.32076536750451
 31
0.0
 11
298.9190398422231
 21
78.25636430567294
 31
0.0
 11
299.0145537919902
 21
78.19197849768833
 31
0.0
 11
299.11340220589
 21
78.13273739346462
 31
0.0
 11
299.2210942360777
 21
78.07534487545654
 31
0.0
 11
299.3314144559036
 21
78.02311491399371
 31
0.0
 11
299.4479241560936
 21
77.97436041337242
 31
0.0
 11
299.5664929600711
 21
77.93081510019027
 31
0.0
 11
299.6882276121796
 21
77.8920677543318
 31
0.0
 11
299.8115274986645
 21
77.85863393421107
 31
0.0
 11
299.9347681221292
 21
77.83094812006841
 31
0.0
 11
300.0591024148538
 21
77.80875588670098
 31
0.0
 11
300.1801197193502
 21
77.79283948669116
 31
0.0
 11
300.3017272067626
 21
77.78268599002787
 31
0.0
 11
300.4169054704983
 21
77.77888008369133
 31
0.0
 11
300.5320707510041
 21
77.78120495701799
 31
0.0
 11
300.6380392103368
 21
77.78948114764003
 31
0.0
 11
300.7431943387822
 21
77.80435147104668
 31
0.0
 11
300.8369656909047
 21
77.82434109269736
 31
0.0
 11
300.928779055937
 21
77.85144328993897
 31
0.0
 11
301.0079535049559
 21
77.8825730522146
 31
0.0
 11
301.0836212445141
 21
77.92133271327974
 31
0.0
 11
301.1452672319556
 21
77.9629479105768
 31
0.0
 11
301.1996629318407
 21
78.01260129211789
 31
0.0
 11
301.2420383918393
 21
78.06452368644862
 31
0.0
 11
301.2765034142296
 21
78.12233322120914
 31
0.0
 11
301.3005751444935
 21
78.18319059322762
 31
0.0
 11
301.3133388440583
 21
78.24737903377763
 31
0.0
 11
301.3157167172796
 21
78.31464065579514
 31
0.0
 11
301.3082559128511
 21
78.38124359146944
 31
0.0
 11
301.2894643533378
 21
78.45245614482644
 31
0.0
 11
301.2602227440253
 21
78.52084459925045
 31
0.0
 11
301.2176505332877
 21
78.59443485002173
 31
0.0
 11
301.1679953661445
 21
78.66351465787281
 31
0.0
 11
301.1055362375573
 21
78.73606174844208
 31
0.0
 11
301.0375760019318
 21
78.80369352962798
 31
0.0
 11
300.9572746695575
 21
78.87319477836109
 31
0.0
 11
300.8727151465008
 21
78.93759584019274
 31
0.0
 11
300.7772011967337
 21
79.00198164817742
 31
0.0
 11
300.6783527828338
 21
79.06122275240119
 31
0.0
 11
300.5706607526462
 21
79.11861527040922
 31
0.0
 11
300.4603405328206
 21
79.17084523187195
 31
0.0
 11
300.3438308326304
 21
79.21959973249319
 31
0.0
 11
300.225262028653
 21
79.26314504567537
 31
0.0
 11
300.1035273765446
 21
79.30189239153381
 31
0.0
 11
299.9802274900596
 21
79.33532621165416
 31
0.0
 11
299.8569868665946
 21
79.36301202579655
 31
0.0
 11
299.7326525738699
 21
79.38520425916427
 31
0.0
 11
299.6116352693737
 21
79.40112065917436
 31
0.0
 11
299.4900277819613
 21
79.41127415583733
 31
0.0
 11
299.3748495182258
 21
79.41508006217357
 31
0.0
 11
299.25968423772
 21
79.41275518884714
 31
0.0
 11
299.1537157783872
 21
79.40447899822527
 31
0.0
 11
299.0485606499418
 21
79.38960867481839
 31
0.0
 11
298.9547892978194
 21
79.36961905316748
 31
0.0
 11
298.862975932787
 21
79.34251685592612
 31
0.0
 11
298.7838724816396
 21
79.31142798835255
 31
0.0
 11
298.7084177356956
 21
79.27279101139262
 31
0.0
 11
298.6458991898326
 21
79.23125381882147
 31
0.0
 11
298.5894537976528
 21
79.18216160907173
 31
0.0
 11
298.5452103329158
 21
79.13069309607262
 31
0.0
 11
298.5100325859368
 21
79.07285552904321
 31
0.0
 11
298.4860387280796
 21
79.01198277503064
 31
0.0
 11
298.4732384767072
 21
78.94721021035778
 31
0.0
 11
298.4696367526418
 21
78.91384897535626
 31
0.0
 11
298.4732384767072
 21
78.94721021035778
 31
0.0
 11
298.476871718994
 21
78.98086338521213
 31
0.0
 11
298.4733645495929
 21
78.9483779697691
 31
0.0
  0
SPLINE
  5
24E
330
A
100
AcDbEntity
  8
1
  6
Continuous
 62
     3
100
AcDbSpline
210
0.0
220
0.0
230
1.0
 70
     8
 71
     3
 72
    45
 73
    41
 74
    39
 42
0.0000000001
 43
0.0000000001
 44
0.00000000001
 40
0.0
 40
0.0
 40
0.0
 40
0.0
 40
0.0343743422351507
 40
0.0730535891280719
 40
0.133783159973413
 40
0.1963879477683421
 40
0.2745595926034432
 40
0.3507218938038073
 40
0.4354935557793241
 40
0.5204869300530826
 40
0.6162168788354938
 40
0.7120951946980173
 40
0.8182965485338909
 40
0.9245877038789814
 40
1.039776448424253
 40
1.155017575458771
 40
1.277048204766727
 40
1.399107697543047
 40
1.525406991163968
 40
1.651719126672547
 40
1.77947155261854
 40
1.907223978564523
 40
2.033536114073103
 40
2.159835407694191
 40
2.281894900470386
 40
2.403925529778172
 40
2.519166656812613
 40
2.634355401357954
 40
2.740646556703128
 40
2.84684791053887
 40
2.942726226401259
 40
3.038456175183713
 40
3.123449549457514
 40
3.208221211433067
 40
3.284383512637429
 40
3.362555157484719
 40
3.425159945260032
 40
3.48588951607914
 40
3.524568762881941
 40
3.558943105013234
 40
3.558943105013234
 40
3.558943105013234
 40
3.558943105013234
 10
295.6664046737333
 20
79.84287904459373
 30
0.0
 10
295.6635565094233
 20
79.83177249570568
 30
0.0
 10
295.6575034881364
 20
79.80816845832373
 30
0.0
 10
295.6513132519853
 20
79.76393252915492
 30
0.0
 10
295.6496168869616
 20
79.70970611961661
 30
0.0
 10
295.6598514487881
 20
79.64303993728091
 30
0.0
 10
295.6799675413418
 20
79.57337431607744
 30
0.0
 10
295.7119230670493
 20
79.50013827761876
 30
0.0
 10
295.753395441665
 20
79.42923544285718
 30
0.0
 10
295.8052884839648
 20
79.3574100767843
 30
0.0
 10
295.8657265742687
 20
79.28763232718186
 30
0.0
 10
295.9362535389536
 20
79.2176599112755
 30
0.0
 10
296.0141731505926
 20
79.15049729263599
 30
0.0
 10
296.1011782701946
 20
79.08436302407949
 30
0.0
 10
296.1943824287001
 20
79.02171706003873
 30
0.0
 10
296.2952322235617
 20
78.9613519048219
 30
0.0
 10
296.4010275445979
 20
78.90508701109283
 30
0.0
 10
296.512668853329
 20
78.85226722880301
 30
0.0
 10
296.6279428392299
 20
78.80409818372391
 30
0.0
 10
296.7469965991783
 20
78.76037681849955
 30
0.0
 10
296.8683208478929
 20
78.72179049478304
 30
0.0
 10
296.9911885775552
 20
78.6884438500976
 30
0.0
 10
297.1149321528088
 20
78.6606430745981
 30
0.0
 10
297.2379106841109
 20
78.63862877088187
 30
0.0
 10
297.3603578574503
 20
78.62249182700978
 30
0.0
 10
297.4797602294362
 20
78.6124190029974
 30
0.0
 10
297.5972296280262
 20
78.6084726777616
 30
0.0
 10
297.7095107868493
 20
78.61058770652457
 30
0.0
 10
297.818473888007
 20
78.61899454306068
 30
0.0
 10
297.9203598441783
 20
78.6331908508747
 30
0.0
 10
298.0175569192438
 20
78.65375587784149
 30
0.0
 10
298.1061707038083
 20
78.67962660037299
 30
0.0
 10
298.1887140501622
 20
78.71185030319168
 30
0.0
 10
298.2620007149353
 20
78.74894793923712
 30
0.0
 10
298.3285551491647
 20
78.79316535930708
 30
0.0
 10
298.3832252578219
 20
78.84080079964848
 30
0.0
 10
298.4279658144669
 20
78.89127266024991
 30
0.0
 10
298.4559370002892
 20
78.93775915188441
 30
0.0
 10
298.4747160162106
 20
78.97828673517563
 30
0.0
 10
298.4824255892377
 20
79.00140279297123
 30
0.0
 10
298.4860532207448
 20
79.01227972990186
 30
0.0
 11
295.6664046737333
 21
79.84287904459373
 31
0.0
 11
295.6584519459287
 21
79.80943731131681
 31
0.0
 11
295.6528723208928
 21
79.77116262092403
 31
0.0
 11
295.6514684118108
 21
79.71044927960313
 31
0.0
 11
295.6602283633491
 21
79.64846038782488
 31
0.0
 11
295.6817740376068
 21
79.57331659249216
 31
0.0
 11
295.7120336602557
 21
79.50342345004395
 31
0.0
 11
295.7544933990192
 21
79.43005175755819
 31
0.0
 11
295.8041110755043
 21
79.36104480246918
 31
0.0
 11
295.8665702040915
 21
79.28849771190034
 31
0.0
 11
295.9345304397171
 21
79.22086593071461
 31
0.0
 11
296.0148317720916
 21
79.15136468198152
 31
0.0
 11
296.0993912951482
 21
79.08696362014996
 31
0.0
 11
296.1949052449151
 21
79.02257781216524
 31
0.0
 11
296.2937536588148
 21
78.96333670794106
 31
0.0
 11
296.4014456890025
 21
78.90594418993265
 31
0.0
 11
296.5117659088284
 21
78.85371422847011
 31
0.0
 11
296.6282756090183
 21
78.80495972784927
 31
0.0
 11
296.7468444129957
 21
78.7614144146672
 31
0.0
 11
296.8685790651043
 21
78.72266706880866
 31
0.0
 11
296.9918789515893
 21
78.68923324868797
 31
0.0
 11
297.1151195750541
 21
78.66154743454536
 31
0.0
 11
297.2394538677789
 21
78.63935520117799
 31
0.0
 11
297.360471172275
 21
78.62343880116831
 31
0.0
 11
297.4820786596874
 21
78.61328530450546
 31
0.0
 11
297.597256923423
 21
78.60947939816923
 31
0.0
 11
297.7124222039286
 21
78.61180427149554
 31
0.0
 11
297.8183906632616
 21
78.62008046211717
 31
0.0
 11
297.9235457917068
 21
78.63495078552357
 31
0.0
 11
298.0173171438293
 21
78.65494040717409
 31
0.0
 11
298.1091305088618
 21
78.6820426044154
 31
0.0
 11
298.1882339600092
 21
78.7131314719892
 31
0.0
 11
298.2636887059531
 21
78.75176844894951
 31
0.0
 11
298.327005843717
 21
78.7940961726083
 31
0.0
 11
298.3858470115989
 21
78.84555997561999
 31
0.0
 11
298.4268128377868
 21
78.89290087270838
 31
0.0
 11
298.4585464043242
 21
78.94467984070394
 31
0.0
 11
298.4746068770463
 21
78.97986713030083
 31
0.0
 11
298.4860532207448
 21
79.01227972990186
 31
0.0
  0
SPLINE
  5
24D
330
A
100
AcDbEntity
  8
1
  6
Continuous
 62
     3
100
AcDbSpline
210
0.0
220
0.0
230
1.0
 70
     8
 71
     3
 72
    45
 73
    41
 74
    39
 42
0.0000000001
 43
0.0000000001
 44
0.00000000001
 40
0.0
 40
0.0
 40
0.0
 40
0.0
 40
0.0344391261667665
 40
0.0733141381761302
 40
0.1336643352385627
 40
0.1953948695430013
 40
0.2723297041526164
 40
0.3477695230605713
 40
0.4327990190176217
 40
0.5178775011613781
 40
0.6136074499439376
 40
0.7094857658062886
 40
0.8156871196420404
 40
0.9219782749869578
 40
1.037167019532483
 40
1.152408146567167
 40
1.274438775875166
 40
1.396498268651314
 40
1.522797562272222
 40
1.649109697780728
 40
1.776862123726701
 40
1.904614549672775
 40
2.030926685181334
 40
2.15722597880242
 40
2.279285471578704
 40
2.401316100886346
 40
2.516557227920877
 40
2.631745972466558
 40
2.738037127811719
 40
2.844238481647563
 40
2.940116797509778
 40
3.035846746292005
 40
3.120840120565758
 40
3.20561178254129
 40
3.281774083745766
 40
3.359945728593211
 40
3.422550516368687
 40
3.483280087188187
 40
3.521959333990447
 40
3.556333676120828
 40
3.556333676120828
 40
3.556333676120828
 40
3.556333676120828
 10
300.3841148627191
 20
74.93756512160873
 30
0.0
 10
300.3867170233313
 20
74.94875424029697
 30
0.0
 10
300.3922565123924
 20
74.97257367722475
 30
0.0
 10
300.3973732723017
 20
75.01690946002539
 30
0.0
 10
300.3982539822973
 20
75.07074170200411
 30
0.0
 10
300.3886393831492
 20
75.13660631931685
 30
0.0
 10
300.3691023092557
 20
75.2055240606504
 30
0.0
 10
300.336049722734
 20
75.27770779871556
 30
0.0
 10
300.2929669567758
 20
75.34749117732449
 30
0.0
 10
300.2394463075145
 20
75.41825290615856
 30
0.0
 10
300.1774208973522
 20
75.48666468512902
 30
0.0
 10
300.1053402097998
 20
75.55503415506215
 30
0.0
 10
300.0259273062189
 20
75.62042488652339
 30
0.0
 10
299.937455720671
 20
75.68458393941553
 30
0.0
 10
299.8428648066079
 20
75.74511575096574
 30
0.0
 10
299.7406816512323
 20
75.80319528965585
 30
0.0
 10
299.6336464970466
 20
75.8570642505951
 30
0.0
 10
299.5208444019926
 20
75.90735737409329
 30
0.0
 10
299.4045152455724
 20
75.95291915835499
 30
0.0
 10
299.2845074000391
 20
75.9939492999481
 30
0.0
 10
299.1623452412449
 20
76.02979458792953
 30
0.0
 10
299.0387579485998
 20
76.06036677788448
 30
0.0
 10
298.9144198811662
 20
76.0853747870494
 30
0.0
 10
298.7909769291123
 20
76.10461501359207
 30
0.0
 10
298.6681975117436
 20
76.11799133173235
 30
0.0
 10
298.5485986398245
 20
76.12537361153434
 30
0.0
 10
298.4310701714422
 20
76.12667446036969
 30
0.0
 10
298.3188650814495
 20
76.12203228920636
 30
0.0
 10
298.2101188496875
 20
76.1111746010523
 30
0.0
 10
298.1085783021973
 20
76.094688229836
 30
0.0
 10
298.0118688204053
 20
76.07194030977878
 30
0.0
 10
297.9238598959195
 20
76.04408126618484
 30
0.0
 10
297.8420628897969
 20
76.0100075103011
 30
0.0
 10
297.7696299415513
 20
75.97126944320741
 30
0.0
 10
297.7040877986048
 20
75.92556495271423
 30
0.0
 10
297.6505039160312
 20
75.8767108486341
 30
0.0
 10
297.6069109226599
 20
75.82524457763632
 30
0.0
 10
297.5799933314771
 20
75.77814017841804
 30
0.0
 10
297.5621314334331
 20
75.73720011192276
 30
0.0
 10
297.5549442039434
 20
75.71391635413954
 30
0.0
 10
297.5515623538652
 20
75.70296050833078
 30
0.0
 11
300.3841148627191
 21
74.93756512160873
 31
0.0
 11
300.3913182791301
 21
74.9712424760645
 31
0.0
 11
300.3960514860965
 21
75.00982826762748
 31
0.0
 11
300.3966418855871
 21
75.07017557671344
 31
0.0
 11
300.3881939068894
 21
75.13132531523645
 31
0.0
 11
300.3671023046952
 21
75.20531256476832
 31
0.0
 11
300.3360998942475
 21
75.2740876825312
 31
0.0
 11
300.2918759100746
 21
75.34671174470473
 31
0.0
 11
300.2406762341116
 21
75.41465982271411
 31
0.0
 11
300.1765997511196
 21
75.48578244514394
 31
0.0
 11
300.1071342088873
 21
75.55186716270384
 31
0.0
 11
300.0252886119517
 21
75.61954305072008
 31
0.0
 11
299.9393007191122
 21
75.68202418378909
 31
0.0
 11
299.8423615191176
 21
75.74424346033898
 31
0.0
 11
299.7422045178359
 21
75.80124427133728
 31
0.0
 11
299.6332477569423
 21
75.85619787672306
 31
0.0
 11
299.5217796921693
 21
75.90593106797928
 31
0.0
 11
299.4042019553488
 21
75.95205034131814
 31
0.0
 11
299.2846829060336
 21
75.99291539273766
 31
0.0
 11
299.1621068229546
 21
76.0289124230608
 31
0.0
 11
299.0380855204996
 21
76.05956203761774
 31
0.0
 11
298.9142528654106
 21
76.08446643703505
 31
0.0
 11
298.7894504899614
 21
76.10385402717482
 31
0.0
 11
298.6681055439603
 21
76.11704204661542
 31
0.0
 11
298.5463002993467
 21
76.12445533696727
 31
0.0
 11
298.4310655462972
 21
76.12566738061808
 31
0.0
 11
298.3159817895696
 21
76.12075049059734
 31
0.0
 11
298.2102264995992
 21
76.11009083075741
 31
0.0
 11
298.1054327818042
 21
76.0928570190127
 31
0.0
 11
298.0121352012306
 21
76.07076147847407
 31
0.0
 11
297.9209552301538
 21
76.04159924316387
 31
0.0
 11
297.8425717000103
 21
76.00873747399865
 31
0.0
 11
297.7680058737573
 21
75.96841164816328
 31
0.0
 11
297.7056576659251
 21
75.92466925333994
 31
0.0
 11
297.6479899654603
 21
75.87189385773505
 31
0.0
 11
297.6081002615338
 21
75.82364273367486
 31
0.0
 11
297.577540387591
 21
75.77116250047686
 31
0.0
 11
297.5622761228633
 21
75.73562257425982
 31
0.0
 11
297.5515623538652
 21
75.70296050833078
 31
0.0
  0
SPLINE
  5
24C
330
A
100
AcDbEntity
  8
1
  6
Continuous
 62
     3
100
AcDbSpline
210
0.0
220
0.0
230
1.0
 70
    11
 71
     3
 72
    83
 73
    79
 74
    77
 42
0.0000000001
 43
0.0000000001
 44
0.00000000001
 40
0.0
 40
0.0
 40
0.0
 40
0.0
 40
0.0676953325011084
 40
0.1355664751340962
 40
0.2103737432063929
 40
0.2854330993423053
 40
0.3702047613175325
 40
0.4551981355912723
 40
0.5509280843736859
 40
0.6468064002362506
 40
0.7530077540721534
 40
0.8592989094171253
 40
0.9744876539624673
 40
1.089728780997038
 40
1.211759410304891
 40
1.333818903081293
 40
1.460118196702206
 40
1.586430332210985
 40
1.714182758156896
 40
1.841935184102746
 40
1.96824731961131
 40
2.094546613232507
 40
2.216606106008792
 40
2.338636735316494
 40
2.453877862351024
 40
2.569066606896418
 40
2.67535776224158
 40
2.781559116077591
 40
2.877437431940053
 40
2.973167380722297
 40
3.058241792132193
 40
3.143258955903397
 40
3.217604111084825
 40
3.291154327739402
 40
3.358517908634928
 40
3.426261095879089
 40
3.491986712028625
 40
3.55781986808553
 40
3.625844011050152
 40
3.693346016083647
 40
3.766842263390099
 40
3.841169812973439
 40
3.926186976744707
 40
4.011261388154604
 40
4.106991336937119
 40
4.202869652799726
 40
4.309071006635719
 40
4.415362161980979
 40
4.530550906526406
 40
4.645792033560844
 40
4.767822662868435
 40
4.889882155644658
 40
5.016181449265687
 40
5.142493584774411
 40
5.270246010720322
 40
5.397998436666292
 40
5.524310572174957
 40
5.650609865796048
 40
5.772669358572445
 40
5.894699987879973
 40
6.00994111491439
 40
6.125129859459669
 40
6.231421014805051
 40
6.33762236864101
 40
6.433500684503407
 40
6.529230633285409
 40
6.614224007559077
 40
6.698995669534586
 40
6.774055025670708
 40
6.848862293743329
 40
6.916733436376281
 40
6.984428768877174
 40
7.049859628537777
 40
7.115884862876605
 40
7.1494399581242
 40
7.182995053371724
 40
7.216843784918032
 40
7.249517971269261
 40
7.249517971269261
 40
7.249517971269261
 40
7.249517971269261
 10
297.5628092501032
 20
75.76713172188171
 30
0.0
 10
297.5637042304053
 20
75.78973671351564
 30
0.0
 10
297.5654965153442
 20
75.83500540373439
 30
0.0
 10
297.5532504635454
 20
75.90450598238817
 30
0.0
 10
297.5313871270147
 20
75.97387884769898
 30
0.0
 10
297.4980800974886
 20
76.04487614226005
 30
0.0
 10
297.4553003715305
 20
76.11454861405744
 30
0.0
 10
297.401779116394
 20
76.1851775369822
 30
0.0
 10
297.3397928360776
 20
76.25358002649929
 30
0.0
 10
297.2677064322391
 20
76.32194614558983
 30
0.0
 10
297.1882952173891
 20
76.38733786697217
 30
0.0
 10
297.0998231555844
 20
76.45149664068629
 30
0.0
 10
297.0052323793275
 20
76.51202853301746
 30
0.0
 10
296.9030491855663
 20
76.57010804920594
 30
0.0
 10
296.7960140422462
 20
76.62397701651475
 30
0.0
 10
296.6832119442031
 20
76.67427013826078
 30
0.0
 10
296.5668827886108
 20
76.71983192300749
 30
0.0
 10
296.4468749428521
 20
76.76086206447002
 30
0.0
 10
296.3247127841203
 20
76.79670735248206
 30
0.0
 10
296.2011254914541
 20
76.82727954244654
 30
0.0
 10
296.0767874240415
 20
76.85228755154352
 30
0.0
 10
295.9533444719259
 20
76.87152777834511
 30
0.0
 10
295.8305650547765
 20
76.88490409554784
 30
0.0
 10
295.7109661820608
 20
76.89228637875915
 30
0.0
 10
295.5934377164918
 20
76.89358721555024
 30
0.0
 10
295.4812326163997
 20
76.8889450876253
 30
0.0
 10
295.3724864195419
 20
76.87808725004015
 30
0.0
 10
295.2709457482867
 20
76.8616014086827
 30
0.0
 10
295.1742366854341
 20
76.83885169507487
 30
0.0
 10
295.0862005066587
 20
76.81099078259086
 30
0.0
 10
295.0043090028293
 20
76.77685083061501
 30
0.0
 10
294.9323247649808
 20
76.73835877492262
 30
0.0
 10
294.8684136585368
 20
76.6938565834642
 30
0.0
 10
294.8164113645608
 20
76.64398481996419
 30
0.0
 10
294.7731153645158
 20
76.58936141472941
 30
0.0
 10
294.7373940802985
 20
76.5325782557036
 30
0.0
 10
294.711559786335
 20
76.47072048331313
 30
0.0
 10
294.7026952016887
 20
76.40418149472823
 30
0.0
 10
294.704874327253
 20
76.33695719325166
 30
0.0
 10
294.7147466041869
 20
76.26783231403244
 30
0.0
 10
294.7345635644678
 20
76.19853597221815
 30
0.0
 10
294.7673501209682
 20
76.12792211102976
 30
0.0
 10
294.8101404653031
 20
76.05841387648712
 30
0.0
 10
294.8636858403789
 20
75.98767030453777
 30
0.0
 10
294.9257019779688
 20
75.91925543248482
 30
0.0
 10
294.9977850481555
 20
75.85088713094655
 30
0.0
 10
295.0771972478483
 20
75.78549605431259
 30
0.0
 10
295.1656690319069
 20
75.7213370987658
 30
0.0
 10
295.2602598885302
 20
75.66080525904801
 30
0.0
 10
295.3624430599056
 20
75.60272572820434
 30
0.0
 10
295.4694782095623
 20
75.54885676504447
 30
0.0
 10
295.5822803058622
 20
75.49856364215759
 30
0.0
 10
295.6986094619376
 20
75.45300185772629
 30
0.0
 10
295.818617307564
 20
75.41197171618029
 30
0.0
 10
295.9407794663357
 20
75.37612642818235
 30
0.0
 10
296.0643667589767
 20
75.34555423824574
 30
0.0
 10
296.1887048264488
 20
75.32054622902439
 30
0.0
 10
296.3121477783548
 20
75.30130600268676
 30
0.0
 10
296.4349271962591
 20
75.28792968380654
 30
0.0
 10
296.5545260662306
 20
75.2805474066945
 30
0.0
 10
296.6720545414938
 20
75.27924654835629
 30
0.0
 10
296.7842596067832
 20
75.28388875363512
 30
0.0
 10
296.8930059239188
 20
75.29474632388562
 30
0.0
 10
296.9945461686878
 20
75.31123311316932
 30
0.0
 10
297.0912566751793
 20
75.33397961808503
 30
0.0
 10
297.1792620053211
 20
75.36184362557913
 30
0.0
 10
297.2610709850761
 20
75.39590084550667
 30
0.0
 10
297.3331373228385
 20
75.4345228506554
 30
0.0
 10
297.3976264557219
 20
75.47912777619654
 30
0.0
 10
297.4516247404664
 20
75.52786274875967
 30
0.0
 10
297.49664963503
 20
75.58234438262072
 30
0.0
 10
297.5301956766691
 20
75.63945818925948
 30
0.0
 10
297.5540563909489
 20
75.70622154606522
 30
0.0
 10
297.561590412649
 20
75.74753237183424
 30
0.0
 10
297.567170545289
 20
75.81930614260103
 30
0.0
 10
297.5629067819563
 20
75.76800439908743
 30
0.0
 10
297.5586192287354
 20
75.71803945140314
 30
0.0
 10
297.5614291136564
 20
75.75096139104221
 30
0.0
 10
297.5628092501032
 20
75.76713172188171
 30
0.0
 11
297.5628092501032
 21
75.76713172188171
 31
0.0
 11
297.5630795321677
 21
75.83482651481323
 31
0.0
 11
297.55229174703
 21
75.90183484037154
 31
0.0
 11
297.5298613355026
 21
75.97320012601628
 31
0.0
 11
297.4983030916141
 21
76.04130287328989
 31
0.0
 11
297.4542023665625
 21
76.11370011580618
 31
0.0
 11
297.403043776973
 21
76.181572587263
 31
0.0
 11
297.3389672939813
 21
76.25269520969279
 31
0.0
 11
297.2695017517488
 21
76.31877992725276
 31
0.0
 11
297.187656154813
 21
76.3864558152691
 31
0.0
 11
297.1016682619735
 21
76.44893694833813
 31
0.0
 11
297.0047290619791
 21
76.51115622488802
 31
0.0
 11
296.9045720606974
 21
76.5681570358863
 31
0.0
 11
296.7956152998041
 21
76.62311064127209
 31
0.0
 11
296.6841472350308
 21
76.6728438325283
 31
0.0
 11
296.5665694982103
 21
76.71896310586717
 31
0.0
 11
296.4470504488948
 21
76.7598281572867
 31
0.0
 11
296.3244743658158
 21
76.79582518760982
 31
0.0
 11
296.2004530633612
 21
76.82647480216674
 31
0.0
 11
296.0766204082721
 21
76.85137920158408
 31
0.0
 11
295.9518180328228
 21
76.87076679172384
 31
0.0
 11
295.8304730868216
 21
76.88395481116446
 31
0.0
 11
295.708667842208
 21
76.89136810151635
 31
0.0
 11
295.5934330891585
 21
76.89258014516706
 31
0.0
 11
295.4783493324312
 21
76.88766325514638
 31
0.0
 11
295.3725940424608
 21
76.87700359530643
 31
0.0
 11
295.2678003246656
 21
76.85976978356173
 31
0.0
 11
295.1745027440918
 21
76.83767424302299
 31
0.0
 11
295.0833227730151
 21
76.80851200771238
 31
0.0
 11
295.0048691836165
 21
76.77560775590198
 31
0.0
 11
294.930093179598
 21
76.73515448213176
 31
0.0
 11
294.8694220679936
 21
76.69218683947315
 31
0.0
 11
294.8162251821701
 21
76.64139583920125
 31
0.0
 11
294.7741893965639
 21
76.58875702500934
 31
0.0
 11
294.7386939662208
 21
76.53105768495456
 31
0.0
 11
294.7143716222821
 21
76.46999804031453
 31
0.0
 11
294.7045809881383
 21
76.40489698103379
 31
0.0
 11
294.7061230819755
 21
76.33689031979631
 31
0.0
 11
294.7159113113531
 21
76.27010176352211
 31
0.0
 11
294.7362694957056
 21
76.19948135076487
 31
0.0
 11
294.7670326739448
 21
76.13181886860758
 31
0.0
 11
294.8112507626611
 21
76.05920565516822
 31
0.0
 11
294.8624484734718
 21
75.99126119340363
 31
0.0
 11
294.9265249564636
 21
75.92013857097376
 31
0.0
 11
294.9959904986963
 21
75.85405385341378
 31
0.0
 11
295.077836095632
 21
75.7863779653973
 31
0.0
 11
295.1638239884717
 21
75.72389683232787
 31
0.0
 11
295.260763188466
 21
75.66167755577781
 31
0.0
 11
295.3609201897476
 21
75.60467674477981
 31
0.0
 11
295.4698769506409
 21
75.54972313939448
 31
0.0
 11
295.5813450154142
 21
75.49998994813846
 31
0.0
 11
295.6989227522348
 21
75.45387067479956
 31
0.0
 11
295.8184418015502
 21
75.41300562338003
 31
0.0
 11
295.9410178846291
 21
75.37700859305691
 31
0.0
 11
296.065039187084
 21
75.34635897849994
 31
0.0
 11
296.1888718421731
 21
75.32145457908267
 31
0.0
 11
296.3136742176223
 21
75.30206698894287
 31
0.0
 11
296.4350191636236
 21
75.28887896950227
 31
0.0
 11
296.5568244082371
 21
75.28146567915041
 31
0.0
 11
296.6720591612864
 21
75.28025363549962
 31
0.0
 11
296.7871429180136
 21
75.28517052552024
 31
0.0
 11
296.8928982079842
 21
75.29583018536013
 31
0.0
 11
296.9976919257794
 21
75.31306399710486
 31
0.0
 11
297.0909895063531
 21
75.33515953764356
 31
0.0
 11
297.1821694774297
 21
75.36432177295373
 31
0.0
 11
297.2605530075732
 21
75.39718354211887
 31
0.0
 11
297.3351188338261
 21
75.43750936795429
 31
0.0
 11
297.3966864486138
 21
75.48044345409708
 31
0.0
 11
297.4520123699461
 21
75.53079392366019
 31
0.0
 11
297.4950859607042
 21
75.5832454039206
 31
0.0
 11
297.5289527507868
 21
75.64186023627478
 31
0.0
 11
297.5515701577965
 21
75.70325771420411
 31
0.0
 11
297.5629090023872
 21
75.76830202350819
 31
0.0
 11
297.565758784078
 21
75.80173588600402
 31
0.0
 11
297.5629090023872
 21
75.76830202350826
 31
0.0
 11
297.5600342826256
 21
75.73457558560583
 31
0.0
 11
297.5628092501032
 21
75.76713172188171
 31
0.0
  0
CIRCLE
  5
24B
330
A
100
AcDbEntity
  8
1
  6
Continuous
 62
     7
100
AcDbCircle
 10
-97.26998628200099
 20
-25.319765063916
 30
0.0
 40
3.000000000036
  0
CIRCLE
  5
24A
330
A
100
AcDbEntity
  8
1
  6
Continuous
 62
     3
100
AcDbCircle
 10
-97.26998628200099
 20
-25.319765063916
 30
0.0
 40
4.000000000031
  0
CIRCLE
  5
249
330
A
100
AcDbEntity
  8
1
  6
Continuous
 62
     7
100
AcDbCircle
 10
-132.6253253412799
 20
-39.964426004545
 30
0.0
 40
2.999999999985
  0
CIRCLE
  5
248
330
A
100
AcDbEntity
  8
1
  6
Continuous
 62
     3
100
AcDbCircle
 10
-132.6253253412799
 20
-39.964426004545
 30
0.0
 40
3.99999999998
  0
CIRCLE
  5
247
330
A
100
AcDbEntity
  8
1
  6
Continuous
 62
     7
100
AcDbCircle
 10
-167.980664400558
 20
-25.319765063916
 30
0.0
 40
2.999999999985
  0
CIRCLE
  5
246
330
A
100
AcDbEntity
  8
1
  6
Continuous
 62
     3
100
AcDbCircle
 10
-167.980664400558
 20
-25.319765063916
 30
0.0
 40
3.99999999998
  0
CIRCLE
  5
245
330
A
100
AcDbEntity
  8
1
  6
Continuous
 62
     7
100
AcDbCircle
 10
-182.6253253412378
 20
10.035573995413
 30
0.0
 40
2.999999999985
  0
CIRCLE
  5
244
330
A
100
AcDbEntity
  8
1
  6
Continuous
 62
     3
100
AcDbCircle
 10
-182.6253253412378
 20
10.035573995413
 30
0.0
 40
3.999999999980998
  0
CIRCLE
  5
243
330
A
100
AcDbEntity
  8
1
  6
Continuous
 62
     7
100
AcDbCircle
 10
-167.980664400558
 20
45.39091305469098
 30
0.0
 40
2.999999999985
  0
CIRCLE
  5
242
330
A
100
AcDbEntity
  8
1
  6
Continuous
 62
     3
100
AcDbCircle
 10
-167.980664400558
 20
45.39091305469098
 30
0.0
 40
3.99999999998
  0
CIRCLE
  5
241
330
A
100
AcDbEntity
  8
1
  6
Continuous
 62
     7
100
AcDbCircle
 10
-132.6253253412799
 20
60.035573995372
 30
0.0
 40
2.999999999985
  0
CIRCLE
  5
240
330
A
100
AcDbEntity
  8
1
  6
Continuous
 62
     3
100
AcDbCircle
 10
-132.6253253412799
 20
60.035573995372
 30
0.0
 40
3.99999999998
  0
CIRCLE
  5
23F
330
A
100
AcDbEntity
  8
1
  6
Continuous
 62
     7
100
AcDbCircle
 10
-97.26998628200099
 20
45.39091305469098
 30
0.0
 40
3.000000000036
  0
CIRCLE
  5
23E
330
A
100
AcDbEntity
  8
1
  6
Continuous
 62
     3
100
AcDbCircle
 10
-97.26998628200099
 20
45.39091305469098
 30
0.0
 40
4.000000000031
  0
CIRCLE
  5
23D
330
A
100
AcDbEntity
  8
1
  6
Continuous
 62
     7
100
AcDbCircle
 10
-82.625325341321
 20
10.035573995413
 30
0.0
 40
2.999999999985
  0
CIRCLE
  5
23C
330
A
100
AcDbEntity
  8
1
  6
Continuous
 62
     3
100
AcDbCircle
 10
-82.625325341321
 20
10.035573995413
 30
0.0
 40
3.99999999998
  0
CIRCLE
  5
23B
330
A
100
AcDbEntity
  8
1
  6
Continuous
 62
     7
100
AcDbCircle
 10
-132.6253253412799
 20
10.035573995413
 30
0.0
 40
39.999999999956
  0
CIRCLE
  5
23A
330
A
100
AcDbEntity
  8
1
  6
DASH_CENTER
 62
     3
100
AcDbCircle
 10
-132.6253253412799
 20
10.035573995413
 30
0.0
 40
49.999999999958
  0
CIRCLE
  5
239
330
A
100
AcDbEntity
  8
1
  6
Continuous
 62
     7
100
AcDbCircle
 10
-198.032702600983
 20
-55.37180326429
 30
0.0
 40
7.000000000017
  0
CIRCLE
  5
238
330
A
100
AcDbEntity
  8
1
  6
Continuous
 62
     7
100
AcDbCircle
 10
-67.21794808157699
 20
-55.37180326429
 30
0.0
 40
6.999999999966
  0
CIRCLE
  5
237
330
A
100
AcDbEntity
  8
1
  6
Continuous
 62
     7
100
AcDbCircle
 10
-198.032702600983
 20
75.442951255065
 30
0.0
 40
7.000000000017
  0
CIRCLE
  5
236
330
A
100
AcDbEntity
  8
1
  6
Continuous
 62
     7
100
AcDbCircle
 10
-67.21794808157699
 20
75.442951255065
 30
0.0
 40
6.999999999966
  0
CIRCLE
  5
235
330
A
100
AcDbEntity
  8
1
  6
Continuous
 62
     7
100
AcDbCircle
 10
-132.6253253412289
 20
10.035573995413
 30
0.0
 40
60.0
  0
CIRCLE
  5
234
330
A
100
AcDbEntity
  8
1
  6
Continuous
 62
     7
100
AcDbCircle
 10
-132.6253253412289
 20
10.035573995413
 30
0.0
 40
77.00000000000098
  0
CIRCLE
  5
233
330
A
100
AcDbEntity
  8
1
  6
Continuous
 62
     7
100
AcDbCircle
 10
-132.6253253412289
 20
82.535573995413
 30
0.0
 40
3.5
  0
CIRCLE
  5
232
330
A
100
AcDbEntity
  8
1
  6
Continuous
 62
     7
100
AcDbCircle
 10
-132.6253253412289
 20
82.535573995413
 30
0.0
 40
2.980384757729
  0
CIRCLE
  5
231
330
A
100
AcDbEntity
  8
1
  6
Continuous
 62
     7
100
AcDbCircle
 10
-183.890566977254
 20
61.300815631437
 30
0.0
 40
3.5
  0
CIRCLE
  5
230
330
A
100
AcDbEntity
  8
1
  6
Continuous
 62
     7
100
AcDbCircle
 10
-183.890566977254
 20
61.300815631437
 30
0.0
 40
2.980384757729
  0
CIRCLE
  5
22F
330
A
100
AcDbEntity
  8
1
  6
Continuous
 62
     7
100
AcDbCircle
 10
-205.1253253412289
 20
10.035573995413
 30
0.0
 40
3.5
  0
CIRCLE
  5
22E
330
A
100
AcDbEntity
  8
1
  6
Continuous
 62
     7
100
AcDbCircle
 10
-205.1253253412289
 20
10.035573995413
 30
0.0
 40
2.980384757729
  0
CIRCLE
  5
22D
330
A
100
AcDbEntity
  8
1
  6
Continuous
 62
     7
100
AcDbCircle
 10
-183.890566977254
 20
-41.22966764061299
 30
0.0
 40
3.5
  0
CIRCLE
  5
22C
330
A
100
AcDbEntity
  8
1
  6
Continuous
 62
     7
100
AcDbCircle
 10
-183.890566977254
 20
-41.22966764061299
 30
0.0
 40
2.980384757729
  0
CIRCLE
  5
22B
330
A
100
AcDbEntity
  8
1
  6
Continuous
 62
     7
100
AcDbCircle
 10
-132.6253253412289
 20
-62.464426004587
 30
0.0
 40
3.5
  0
CIRCLE
  5
22A
330
A
100
AcDbEntity
  8
1
  6
Continuous
 62
     7
100
AcDbCircle
 10
-132.6253253412289
 20
-62.464426004587
 30
0.0
 40
2.980384757729
  0
CIRCLE
  5
229
330
A
100
AcDbEntity
  8
1
  6
Continuous
 62
     7
100
AcDbCircle
 10
-81.360083705204
 20
-41.22966764061299
 30
0.0
 40
3.5
  0
CIRCLE
  5
228
330
A
100
AcDbEntity
  8
1
  6
Continuous
 62
     7
100
AcDbCircle
 10
-81.360083705204
 20
-41.22966764061299
 30
0.0
 40
2.980384757729
  0
CIRCLE
  5
227
330
A
100
AcDbEntity
  8
1
  6
Continuous
 62
     7
100
AcDbCircle
 10
-60.125325341229
 20
10.035573995413
 30
0.0
 40
3.5
  0
CIRCLE
  5
226
330
A
100
AcDbEntity
  8
1
  6
Continuous
 62
     7
100
AcDbCircle
 10
-60.125325341229
 20
10.035573995413
 30
0.0
 40
2.980384757729
  0
CIRCLE
  5
225
330
A
100
AcDbEntity
  8
1
  6
Continuous
 62
     7
100
AcDbCircle
 10
-81.360083705204
 20
61.300815631437
 30
0.0
 40
3.5
  0
CIRCLE
  5
224
330
A
100
AcDbEntity
  8
1
  6
Continuous
 62
     7
100
AcDbCircle
 10
-81.360083705204
 20
61.300815631437
 30
0.0
 40
2.980384757729
  0
CIRCLE
  5
223
330
A
100
AcDbEntity
  8
1
  6
Continuous
 62
     7
100
AcDbCircle
 10
-132.6253253412289
 20
10.035573995413
 30
0.0
 40
77.5
  0
CIRCLE
  5
222
330
A
100
AcDbEntity
  8
1
  6
Continuous
 62
     7
100
AcDbCircle
 10
-132.6253253412289
 20
10.035573995413
 30
0.0
 40
67.5
  0
ARC
  5
221
330
A
100
AcDbEntity
  8
1
  6
DASH_CENTER
 62
     3
100
AcDbCircle
 10
-132.6253253412929
 20
10.03557399539499
 30
0.0
 40
92.499999999952
100
AcDbArc
 50
-52.438188190724
 51
-28.817541212535
  0
ARC
  5
220
330
A
100
AcDbEntity
  8
1
  6
DASH_CENTER
 62
     3
100
AcDbCircle
 10
-132.625325341268
 20
10.03557399542799
 30
0.0
 40
92.49999999988601
100
AcDbArc
 50
125.205154006859
 51
151.309017695009
  0
ARC
  5
21F
330
A
100
AcDbEntity
  8
1
  6
DASH_CENTER
 62
     3
100
AcDbCircle
 10
-132.6253253412289
 20
10.035573995413
 30
0.0
 40
72.5
100
AcDbArc
 50
82.96764212542598
 51
96.31208107263599
  0
ARC
  5
21E
330
A
100
AcDbEntity
  8
1
  6
DASH_CENTER
 62
     3
100
AcDbCircle
 10
-132.6253253412289
 20
10.035573995413
 30
0.0
 40
72.5
100
AcDbArc
 50
129.314760749702
 51
141.525390504676
  0
ARC
  5
21D
330
A
100
AcDbEntity
  8
1
  6
DASH_CENTER
 62
     3
100
AcDbCircle
 10
-132.6253253412289
 20
10.035573995413
 30
0.0
 40
72.5
100
AcDbArc
 50
172.1686989463
 51
-173.290360011598
  0
ARC
  5
21C
330
A
100
AcDbEntity
  8
1
  6
DASH_CENTER
 62
     3
100
AcDbCircle
 10
-132.6253253412289
 20
10.035573995413
 30
0.0
 40
72.5
100
AcDbArc
 50
-141.8060825369209
 51
-128.576793505236
  0
ARC
  5
21B
330
A
100
AcDbEntity
  8
1
  6
DASH_CENTER
 62
     3
100
AcDbCircle
 10
-132.6253253412289
 20
10.035573995413
 30
0.0
 40
72.50000000000098
100
AcDbArc
 50
-96.56091656721901
 51
-83.707382732905
  0
ARC
  5
21A
330
A
100
AcDbEntity
  8
1
  6
DASH_CENTER
 62
     3
100
AcDbCircle
 10
-132.6253253412289
 20
10.035573995413
 30
0.0
 40
72.5
100
AcDbArc
 50
-51.610958083669
 51
-38.31224023233
  0
ARC
  5
219
330
A
100
AcDbEntity
  8
1
  6
DASH_CENTER
 62
     3
100
AcDbCircle
 10
-132.6253253412289
 20
10.035573995413
 30
0.0
 40
72.5
100
AcDbArc
 50
-6.678639694848
 51
7.507853452687999
  0
ARC
  5
218
330
A
100
AcDbEntity
  8
1
  6
DASH_CENTER
 62
     3
100
AcDbCircle
 10
-132.6253253412289
 20
10.035573995413
 30
0.0
 40
72.5
100
AcDbArc
 50
37.774504713186
 51
51.826221665652
  0
ARC
  5
217
330
A
100
AcDbEntity
  8
1
  6
DASH_CENTER
 62
     3
100
AcDbCircle
 10
-132.6253253413639
 20
10.03557399549799
 30
0.0
 40
92.49999999990199
100
AcDbArc
 50
37.561811809183
 51
52.438188190644
  0
ARC
  5
216
330
A
100
AcDbEntity
  8
1
  6
DASH_CENTER
 62
     3
100
AcDbCircle
 10
-132.6253253411699
 20
10.035573995302
 30
0.0
 40
92.49999999993701
100
AcDbArc
 50
-142.438188190813
 51
-127.5618118093589
  0
ARC
  5
215
330
A
100
AcDbEntity
  8
1
  6
Continuous
 62
     7
100
AcDbCircle
 10
-199.1253253412079
 20
-56.464426004567
 30
0.0
 40
15.999999999972
100
AcDbArc
 50
180.0
 51
-90.0
  0
ARC
  5
214
330
A
100
AcDbEntity
  8
1
  6
Continuous
 62
     7
100
AcDbCircle
 10
-66.12532534132601
 20
-56.464426004542
 30
0.0
 40
15.999999999997
100
AcDbArc
 50
-90.00000000009
 51
-0.00000000009
  0
ARC
  5
213
330
A
100
AcDbEntity
  8
1
  6
Continuous
 62
     7
100
AcDbCircle
 10
-199.1253253412079
 20
76.53557399534199
 30
0.0
 40
15.999999999972
100
AcDbArc
 50
90.0
 51
180.0
  0
ARC
  5
212
330
A
100
AcDbEntity
  8
1
  6
Continuous
 62
     7
100
AcDbCircle
 10
-66.12532534132601
 20
76.535573995315
 30
0.0
 40
15.99999999999799
100
AcDbArc
 50
0.000000000097
 51
90.00000000009
  0
ARC
  5
211
330
A
100
AcDbEntity
  8
1
  6
Continuous
 62
     7
100
AcDbCircle
 10
-132.6253253412289
 20
82.535573995413
 30
0.0
 40
4.0
100
AcDbArc
 50
180.0
 51
0.0
  0
ARC
  5
210
330
A
100
AcDbEntity
  8
1
  6
Continuous
 62
     7
100
AcDbCircle
 10
-183.890566977254
 20
61.300815631437
 30
0.0
 40
4.0
100
AcDbArc
 50
-135.0000000000018
 51
44.999999999998
  0
ARC
  5
20F
330
A
100
AcDbEntity
  8
1
  6
Continuous
 62
     7
100
AcDbCircle
 10
-205.1253253412289
 20
10.035573995413
 30
0.0
 40
4.0
100
AcDbArc
 50
-90.0
 51
90.0
  0
ARC
  5
20E
330
A
100
AcDbEntity
  8
1
  6
Continuous
 62
     7
100
AcDbCircle
 10
-183.890566977254
 20
-41.22966764061299
 30
0.0
 40
3.999999999998998
100
AcDbArc
 50
-45.00088692666199
 51
134.999999999993
  0
ARC
  5
20D
330
A
100
AcDbEntity
  8
1
  6
Continuous
 62
     7
100
AcDbCircle
 10
-132.6253253412289
 20
-62.464426004587
 30
0.0
 40
4.0
100
AcDbArc
 50
0.0
 51
180.0
  0
ARC
  5
20C
330
A
100
AcDbEntity
  8
1
  6
Continuous
 62
     7
100
AcDbCircle
 10
-81.360083705204
 20
-41.22966764061299
 30
0.0
 40
4.0
100
AcDbArc
 50
44.99893807657399
 51
-135.000000000011
  0
ARC
  5
20B
330
A
100
AcDbEntity
  8
1
  6
Continuous
 62
     7
100
AcDbCircle
 10
-60.125325341229
 20
10.035573995413
 30
0.0
 40
4.0
100
AcDbArc
 50
90.0
 51
-90.0
  0
ARC
  5
20A
330
A
100
AcDbEntity
  8
1
  6
Continuous
 62
     7
100
AcDbCircle
 10
-81.360083705204
 20
61.300815631437
 30
0.0
 40
4.0
100
AcDbArc
 50
134.998281520928
 51
-44.999999999998
  0
ARC
  5
209
330
A
100
AcDbEntity
  8
1
  6
DASHED
 62
     7
100
AcDbCircle
 10
283.426934699551
 20
46.03557399541299
 30
0.0
 40
1.732050807569
100
AcDbArc
 50
149.999999999984
 51
-149.999999999984
  0
ARC
  5
208
330
A
100
AcDbEntity
  8
1
  6
DASHED
 62
     7
100
AcDbCircle
 10
282.676934699551
 20
44.736535889736
 30
0.0
 40
0.8660254037839999
100
AcDbArc
 50
150.00000000001
 51
-149.9999999999588
  0
ARC
  5
207
330
A
100
AcDbEntity
  8
1
  6
DASHED
 62
     7
100
AcDbCircle
 10
282.676934699551
 20
47.334612101089
 30
0.0
 40
0.866025403785
100
AcDbArc
 50
149.9999999999579
 51
-150.000000000062
  0
ARC
  5
206
330
A
100
AcDbEntity
  8
1
  6
DASHED
 62
     7
100
AcDbCircle
 10
282.676934699551
 20
-27.26346411026398
 30
0.0
 40
0.8660254037839999
100
AcDbArc
 50
150.00000000001
 51
-149.9999999999579
  0
ARC
  5
205
330
A
100
AcDbEntity
  8
1
  6
DASHED
 62
     7
100
AcDbCircle
 10
282.676934699551
 20
-24.66538789891
 30
0.0
 40
0.8660254037839999
100
AcDbArc
 50
150.00000000001
 51
-150.00000000001
  0
ARC
  5
204
330
A
100
AcDbEntity
  8
1
  6
DASHED
 62
     7
100
AcDbCircle
 10
283.426934699551
 20
-25.964426004587
 30
0.0
 40
1.732050807569
100
AcDbArc
 50
149.999999999984
 51
-149.999999999984
  0
ARC
  5
203
330
A
100
AcDbEntity
  8
1
  6
Continuous
 62
     7
100
AcDbCircle
 10
297.4253283468808
 20
109.595690172185
 30
0.0
 40
9.063216497211
100
AcDbArc
 50
-4.341758368457998
 51
12.69314132491899
  0
ARC
  5
202
330
A
100
AcDbEntity
  8
1
  6
Continuous
 62
     7
100
AcDbCircle
 10
305.4551794424068
 20
107.0121543822529
 30
0.0
 40
7.473647349313999
100
AcDbArc
 50
131.558641011179
 51
153.728818674417
  0
ARC
  5
201
330
A
100
AcDbEntity
  8
1
  6
Continuous
 62
     7
100
AcDbCircle
 10
605.484990456618
 20
30.852173234133
 30
0.0
 40
314.101278959901
100
AcDbArc
 50
171.6492279000819
 51
175.2182899137419
  0
ARC
  5
200
330
A
100
AcDbEntity
  8
1
  6
Continuous
 62
     7
100
AcDbCircle
 10
629.224040553235
 20
30.852173234201
 30
0.0
 40
331.7818839328188
100
AcDbArc
 50
172.364262611323
 51
175.473652994959
  0
ARC
  5
1FF
330
A
100
AcDbEntity
  8
1
  6
Continuous
 62
     7
100
AcDbCircle
 10
581.2172852082478
 20
55.542722138006
 30
0.0
 40
280.8307869505118
100
AcDbArc
 50
171.605377604891
 51
175.3758207730689
  0
ARC
  5
1FE
330
A
100
AcDbEntity
  8
1
  6
Continuous
 62
     7
100
AcDbCircle
 10
596.914935813811
 20
57.286905538535
 30
0.0
 40
302.091789783922
100
AcDbArc
 50
172.335623688216
 51
175.7179705903079
  0
ARC
  5
1FD
330
A
100
AcDbEntity
  8
1
  6
Continuous
 62
     7
100
AcDbCircle
 10
268.129178849458
 20
143.952125378146
 30
0.0
 40
0.290132190121
100
AcDbArc
 50
-90.0
 51
-44.26521395547299
  0
ARC
  5
1FC
330
A
100
AcDbEntity
  8
1
  6
Continuous
 62
     7
100
AcDbCircle
 10
268.680736992965
 20
141.616514700629
 30
0.0
 40
0.5454784873960002
100
AcDbArc
 50
0.0
 51
169.814772137108
  0
ARC
  5
1FB
330
A
100
AcDbEntity
  8
1
  6
Continuous
 62
     7
100
AcDbCircle
 10
301.5138275669878
 20
142.0733056605699
 30
0.0
 40
0.5454784873960002
100
AcDbArc
 50
-10.00000000001399
 51
159.814772137084
  0
ARC
  5
1FA
330
A
100
AcDbEntity
  8
1
  6
Continuous
 62
     7
100
AcDbCircle
 10
301.376223368916
 20
144.469210230305
 30
0.0
 40
0.290132190121
100
AcDbArc
 50
-99.99999999992001
 51
-54.265213955458
  0
LINE
  5
1F5
330
A
100
AcDbEntity
  8
1
  6
DASH_CENTER
 62
     3
100
AcDbLine
 10
-41.167032906351
 20
10.035573995413
 30
0.0
 11
-224.125325341125
 21
10.035573995413
 31
0.0
  0
LINE
  5
1F4
330
A
100
AcDbEntity
  8
1
  6
DASH_CENTER
 62
     3
100
AcDbLine
 10
-132.6253253412289
 20
-81.464426004742
 30
0.0
 11
-132.6253253412289
 21
84.26762480298199
 31
0.0
  0
LINE
  5
1F3
330
A
100
AcDbEntity
  8
1
  6
Continuous
 62
     7
100
AcDbLine
 10
127.5778621948439
 20
85.99351355531402
 30
0.0
 11
127.5778621948439
 21
-66.038803336075
 31
0.0
  0
LINE
  5
1F2
330
A
100
AcDbEntity
  8
1
  6
Continuous
 62
     7
100
AcDbLine
 10
164.077936257993
 20
58.65248048189499
 30
0.0
 11
163.8711266298598
 21
57.484056974291
 31
0.0
  0
LINE
  5
1F1
330
A
100
AcDbEntity
  8
1
  6
Continuous
 62
     7
100
AcDbLine
 10
175.875933139079
 20
58.65248048189499
 30
0.0
 11
176.0827427672119
 21
57.484056974291
 31
0.0
  0
LINE
  5
1F0
330
A
100
AcDbEntity
  8
1
  6
Continuous
 62
     7
100
AcDbLine
 10
163.4769346985359
 20
56.051618479939
 30
0.0
 11
163.4769346985359
 21
56.596680440927
 31
0.0
  0
LINE
  5
1EF
330
A
100
AcDbEntity
  8
1
  6
Continuous
 62
     7
100
AcDbLine
 10
176.4769346985359
 20
56.051618475364
 30
0.0
 11
176.4769346985359
 21
56.551677828573
 31
0.0
  0
LINE
  5
1EE
330
A
100
AcDbEntity
  8
1
  6
DASH_CENTER
 62
     3
100
AcDbLine
 10
169.9769346985358
 20
64.71336902030799
 30
0.0
 11
169.9769346985358
 21
48.222987963542
 31
0.0
  0
LINE
  5
1ED
330
A
100
AcDbEntity
  8
1
  6
DASH_CENTER
 62
     3
100
AcDbLine
 10
178.4769346985359
 20
58.401677828572
 30
0.0
 11
161.4769346985359
 21
58.401677828572
 31
0.0
  0
LINE
  5
1EC
330
A
100
AcDbEntity
  8
1
  6
Continuous
 62
     7
100
AcDbLine
 10
173.2269346985359
 20
75.035573995413
 30
0.0
 11
173.2269346985359
 21
71.305573995413
 31
0.0
  0
LINE
  5
1EB
330
A
100
AcDbEntity
  8
1
  6
Continuous
 62
     7
100
AcDbLine
 10
172.2269346985359
 20
70.305573995413
 30
0.0
 11
158.7269346985358
 21
70.305573995413
 31
0.0
  0
LINE
  5
1EA
330
A
100
AcDbEntity
  8
1
  6
DOT_CENTER
 62
     3
100
AcDbLine
 10
-102.926840531283
 20
-19.662910814533
 30
0.0
 11
-91.61313203246599
 21
-30.976619312994
 31
0.0
  0
LINE
  5
1E9
330
A
100
AcDbEntity
  8
1
  6
DOT_CENTER
 62
     3
100
AcDbLine
 10
-162.323810151175
 20
-19.662910814533
 30
0.0
 11
-173.6375186499919
 21
-30.976619312994
 31
0.0
  0
LINE
  5
1E8
330
A
100
AcDbEntity
  8
1
  6
DOT_CENTER
 62
     3
100
AcDbLine
 10
-162.323810151175
 20
39.73405880530799
 30
0.0
 11
-173.6375186499919
 21
51.047767304532
 31
0.0
  0
LINE
  5
1E7
330
A
100
AcDbEntity
  8
1
  6
DOT_CENTER
 62
     3
100
AcDbLine
 10
-102.926840531283
 20
39.73405880530799
 30
0.0
 11
-91.61313203246599
 21
51.047767304532
 31
0.0
  0
LINE
  5
1E6
330
A
100
AcDbEntity
  8
1
  6
DASH_CENTER
 62
     3
100
AcDbLine
 10
-189.5474212268579
 20
-46.88652189026599
 30
0.0
 11
-206.5179839751078
 21
-63.85708463866901
 31
0.0
  0
LINE
  5
1E5
330
A
100
AcDbEntity
  8
1
  6
DASH_CENTER
 62
     3
100
AcDbLine
 10
-75.703229455956
 20
-46.88652189026599
 30
0.0
 11
-58.73266670750201
 21
-63.85708463866901
 31
0.0
  0
LINE
  5
1E4
330
A
100
AcDbEntity
  8
1
  6
Continuous
 62
     7
100
AcDbLine
 10
-66.12532534099599
 20
-72.46442600474201
 30
0.0
 11
-199.125325341056
 21
-72.46442600474201
 31
0.0
  0
LINE
  5
1E3
330
A
100
AcDbEntity
  8
1
  6
DASH_CENTER
 62
     3
100
AcDbLine
 10
-189.5474212268579
 20
66.95766988104201
 30
0.0
 11
-206.5179839751078
 21
83.928232629444
 31
0.0
  0
LINE
  5
1E2
330
A
100
AcDbEntity
  8
1
  6
DASH_CENTER
 62
     3
100
AcDbLine
 10
-75.703229455956
 20
66.95766988104201
 30
0.0
 11
-58.73266670750201
 21
83.928232629444
 31
0.0
  0
LINE
  5
1E1
330
A
100
AcDbEntity
  8
1
  6
Continuous
 62
     7
100
AcDbLine
 10
-215.125325341125
 20
76.53557399523902
 30
0.0
 11
-215.125325341125
 21
-56.46442600446399
 31
0.0
  0
LINE
  5
1E0
330
A
100
AcDbEntity
  8
1
  6
Continuous
 62
     7
100
AcDbLine
 10
-50.125325341125
 20
76.53557399523902
 30
0.0
 11
-50.125325341125
 21
-56.46442600446399
 31
0.0
  0
LINE
  5
1DF
330
A
100
AcDbEntity
  8
1
  6
Continuous
 62
     7
100
AcDbLine
 10
75.976934699512
 20
-29.964426004137
 30
0.0
 11
72.976934699628
 21
-29.964426004137
 31
0.0
  0
LINE
  5
1DE
330
A
100
AcDbEntity
  8
1
  6
Continuous
 62
     7
100
AcDbLine
 10
77.976934699512
 20
-49.964426004293
 30
0.0
 11
75.976934699512
 21
-49.964426004293
 31
0.0
  0
LINE
  5
1DD
330
A
100
AcDbEntity
  8
1
  6
Continuous
 62
     7
100
AcDbLine
 10
98.47693469944099
 20
-67.464426004106
 30
0.0
 11
94.47693469956199
 21
-67.464426004106
 31
0.0
  0
LINE
  5
1DC
330
A
100
AcDbEntity
  8
1
  6
Continuous
 62
     7
100
AcDbLine
 10
98.47693469944099
 20
-72.46442600474201
 30
0.0
 11
111.47693469825
 21
-72.46442600474201
 31
0.0
  0
LINE
  5
1DB
330
A
100
AcDbEntity
  8
1
  6
Continuous
 62
     7
100
AcDbLine
 10
72.976934699628
 20
50.035573995674
 30
0.0
 11
72.976934699628
 21
-29.964426004137
 31
0.0
  0
LINE
  5
1DA
330
A
100
AcDbEntity
  8
1
  6
Continuous
 62
     7
100
AcDbLine
 10
75.976934699512
 20
50.035573995674
 30
0.0
 11
72.976934699628
 21
50.035573995674
 31
0.0
  0
LINE
  5
1D9
330
A
100
AcDbEntity
  8
1
  6
Continuous
 62
     7
100
AcDbLine
 10
77.976934699512
 20
70.03557399583001
 30
0.0
 11
75.976934699512
 21
70.03557399583001
 31
0.0
  0
LINE
  5
1D8
330
A
100
AcDbEntity
  8
1
  6
Continuous
 62
     7
100
AcDbLine
 10
98.47693469944099
 20
87.535573995643
 30
0.0
 11
94.47693469956199
 21
87.535573995643
 31
0.0
  0
LINE
  5
1D7
330
A
100
AcDbEntity
  8
1
  6
Continuous
 62
     7
100
AcDbLine
 10
98.47693469944099
 20
92.535573994755
 30
0.0
 11
98.47693469944099
 21
-72.46442600474201
 31
0.0
  0
LINE
  5
1D6
330
A
100
AcDbEntity
  8
1
  6
Continuous
 62
     7
100
AcDbLine
 10
98.47693469944099
 20
92.535573994755
 30
0.0
 11
111.47693469825
 21
92.535573994755
 31
0.0
  0
LINE
  5
1D5
330
A
100
AcDbEntity
  8
1
  6
Continuous
 62
     7
100
AcDbLine
 10
113.4769346982499
 20
-70.464426004742
 30
0.0
 11
113.4769346982499
 21
90.53557399475499
 31
0.0
  0
LINE
  5
1D4
330
A
100
AcDbEntity
  8
1
  6
Continuous
 62
     7
100
AcDbLine
 10
113.4769346982499
 20
87.535573995643
 30
0.0
 11
126.6841758523749
 21
87.535573995643
 31
0.0
  0
LINE
  5
1D3
330
A
100
AcDbEntity
  8
1
  6
Continuous
 62
     7
100
AcDbLine
 10
148.787665321276
 20
75.427204323245
 30
0.0
 11
128.1662040752238
 21
87.14394366781
 31
0.0
  0
LINE
  5
1D2
330
A
100
AcDbEntity
  8
1
  6
Continuous
 62
     7
100
AcDbLine
 10
113.4769346982499
 20
-67.464426004106
 30
0.0
 11
126.684175852414
 21
-67.464426004106
 31
0.0
  0
LINE
  5
1D1
330
A
100
AcDbEntity
  8
1
  6
Continuous
 62
     7
100
AcDbLine
 10
148.7876653212999
 20
-55.356056332384
 30
0.0
 11
128.1662040752
 21
-67.072795676309
 31
0.0
  0
LINE
  5
1D0
330
A
100
AcDbEntity
  8
1
  6
Continuous
 62
     7
100
AcDbLine
 10
-128.625325341229
 20
86.93160770327002
 30
0.0
 11
-128.625325341229
 21
82.535573995413
 31
0.0
  0
LINE
  5
1CF
330
A
100
AcDbEntity
  8
1
  6
Continuous
 62
     7
100
AcDbLine
 10
-136.6253253412289
 20
86.93160770327002
 30
0.0
 11
-136.6253253412289
 21
82.535573995413
 31
0.0
  0
LINE
  5
1CE
330
A
100
AcDbEntity
  8
1
  6
Continuous
 62
     7
100
AcDbLine
 10
-181.062139852508
 20
64.129242756183
 30
0.0
 11
-184.1706050976699
 21
67.23770800132299
 31
0.0
  0
LINE
  5
1CD
330
A
100
AcDbEntity
  8
1
  6
Continuous
 62
     7
100
AcDbLine
 10
-186.718994102
 20
58.472388506691
 30
0.0
 11
-189.8274593471609
 21
61.580853751831
 31
0.0
  0
LINE
  5
1CC
330
A
100
AcDbEntity
  8
1
  6
Continuous
 62
     7
100
AcDbLine
 10
-205.1253253412289
 20
14.035573995413
 30
0.0
 11
-209.5213590490869
 21
14.035573995413
 31
0.0
  0
LINE
  5
1CB
330
A
100
AcDbEntity
  8
1
  6
Continuous
 62
     7
100
AcDbLine
 10
-209.5213590490869
 20
6.035573995413
 30
0.0
 11
-205.1253253412289
 21
6.035573995413
 31
0.0
  0
LINE
  5
1CA
330
A
100
AcDbEntity
  8
1
  6
Continuous
 62
     7
100
AcDbLine
 10
-186.718994102
 20
-38.401240515866
 30
0.0
 11
-189.827459347518
 21
-41.509705760609
 31
0.0
  0
LINE
  5
1C9
330
A
100
AcDbEntity
  8
1
  6
Continuous
 62
     7
100
AcDbLine
 10
-181.0621836363059
 20
-44.058138548479
 30
0.0
 11
-184.1706050980659
 21
-47.166560010141
 31
0.0
  0
LINE
  5
1C8
330
A
100
AcDbEntity
  8
1
  6
Continuous
 62
     7
100
AcDbLine
 10
-136.6253253412289
 20
-62.464426004587
 30
0.0
 11
-136.6253253412289
 21
-66.860459712445
 31
0.0
  0
LINE
  5
1C7
330
A
100
AcDbEntity
  8
1
  6
Continuous
 62
     7
100
AcDbLine
 10
-128.625325341229
 20
-62.464426004587
 30
0.0
 11
-128.625325341229
 21
-66.860459712445
 31
0.0
  0
LINE
  5
1C6
330
A
100
AcDbEntity
  8
1
  6
Continuous
 62
     7
100
AcDbLine
 10
-75.423191335781
 20
-41.509705761543
 30
0.0
 11
-78.53160415870497
 21
-38.40129293859099
 31
0.0
  0
LINE
  5
1C5
330
A
100
AcDbEntity
  8
1
  6
Continuous
 62
     7
100
AcDbLine
 10
-81.08004558532497
 20
-47.166560010982
 30
0.0
 11
-84.188510829951
 21
-44.05809476535799
 31
0.0
  0
LINE
  5
1C4
330
A
100
AcDbEntity
  8
1
  6
Continuous
 62
     7
100
AcDbLine
 10
-60.125325341229
 20
14.035573995413
 30
0.0
 11
-55.729291633371
 21
14.035573995413
 31
0.0
  0
LINE
  5
1C3
330
A
100
AcDbEntity
  8
1
  6
Continuous
 62
     7
100
AcDbLine
 10
-60.125325341229
 20
6.035573995413
 30
0.0
 11
-55.729291633371
 21
6.035573995413
 31
0.0
  0
LINE
  5
1C2
330
A
100
AcDbEntity
  8
1
  6
Continuous
 62
     7
100
AcDbLine
 10
-81.08004558340999
 20
67.237708000082
 30
0.0
 11
-84.18842599533
 21
64.129327588259
 31
0.0
  0
LINE
  5
1C1
330
A
100
AcDbEntity
  8
1
  6
Continuous
 62
     7
100
AcDbLine
 10
-75.423191334055
 20
61.580853750452
 30
0.0
 11
-78.531656580458
 21
58.472388506691
 31
0.0
  0
LINE
  5
1C0
330
A
100
AcDbEntity
  8
1
  6
Continuous
 62
     7
100
AcDbLine
 10
-131.125325341229
 20
83.40159939919798
 30
0.0
 11
-132.6253253412289
 21
84.26762480298199
 31
0.0
  0
LINE
  5
1BF
330
A
100
AcDbEntity
  8
1
  6
DASH_CENTER
 62
     3
100
AcDbLine
 10
-132.6253253412289
 20
84.26762480298199
 30
0.0
 11
-132.6253253412289
 21
101.5355739947549
 31
0.0
  0
LINE
  5
1BE
330
A
100
AcDbEntity
  8
1
  6
Continuous
 62
     7
100
AcDbLine
 10
-132.6253253412289
 20
84.26762480298199
 30
0.0
 11
-134.125325341229
 21
83.40159939919798
 31
0.0
  0
LINE
  5
1BD
330
A
100
AcDbEntity
  8
1
  6
Continuous
 62
     7
100
AcDbLine
 10
-134.125325341229
 20
83.40159939919798
 30
0.0
 11
-134.125325341229
 21
81.669548591628
 31
0.0
  0
LINE
  5
1BC
330
A
100
AcDbEntity
  8
1
  6
Continuous
 62
     7
100
AcDbLine
 10
-134.125325341229
 20
81.669548591628
 30
0.0
 11
-132.6253253412289
 21
80.80352318784298
 31
0.0
  0
LINE
  5
1BB
330
A
100
AcDbEntity
  8
1
  6
Continuous
 62
     7
100
AcDbLine
 10
-132.6253253412289
 20
80.80352318784298
 30
0.0
 11
-131.125325341229
 21
81.669548591628
 31
0.0
  0
LINE
  5
1BA
330
A
100
AcDbEntity
  8
1
  6
Continuous
 62
     7
100
AcDbLine
 10
-131.125325341229
 20
81.669548591628
 30
0.0
 11
-131.125325341229
 21
83.40159939919798
 31
0.0
  0
LINE
  5
1B9
330
A
100
AcDbEntity
  8
1
  6
Continuous
 62
     7
100
AcDbLine
 10
-183.44227924117
 20
62.973848238913
 30
0.0
 11
-185.1153118486448
 21
62.525560502829
 31
0.0
  0
LINE
  5
1B8
330
A
100
AcDbEntity
  8
1
  6
Continuous
 62
     7
100
AcDbLine
 10
-185.1153118486448
 20
62.525560502829
 30
0.0
 11
-185.5635995847288
 21
60.85252789535299
 31
0.0
  0
LINE
  5
1B7
330
A
100
AcDbEntity
  8
1
  6
Continuous
 62
     7
100
AcDbLine
 10
-185.5635995847288
 20
60.85252789535299
 30
0.0
 11
-184.338854713338
 21
59.627783023961
 31
0.0
  0
LINE
  5
1B6
330
A
100
AcDbEntity
  8
1
  6
Continuous
 62
     7
100
AcDbLine
 10
-184.338854713338
 20
59.627783023961
 30
0.0
 11
-182.665822105862
 21
60.076070760045
 31
0.0
  0
LINE
  5
1B5
330
A
100
AcDbEntity
  8
1
  6
DASH_CENTER
 62
     3
100
AcDbLine
 10
-188.133207664373
 20
65.54345631855699
 30
0.0
 11
-179.647926290134
 21
57.058174944319
 31
0.0
  0
LINE
  5
1B4
330
A
100
AcDbEntity
  8
1
  6
Continuous
 62
     7
100
AcDbLine
 10
-182.665822105862
 20
60.076070760045
 30
0.0
 11
-182.2175343697779
 21
61.749103367521
 31
0.0
  0
LINE
  5
1B3
330
A
100
AcDbEntity
  8
1
  6
Continuous
 62
     7
100
AcDbLine
 10
-182.2175343697779
 20
61.749103367521
 30
0.0
 11
-183.44227924117
 21
62.973848238913
 31
0.0
  0
LINE
  5
1B2
330
A
100
AcDbEntity
  8
1
  6
Continuous
 62
     7
100
AcDbLine
 10
-205.991350745014
 20
11.535573995413
 30
0.0
 11
-206.857376148798
 21
10.035573995413
 31
0.0
  0
LINE
  5
1B1
330
A
100
AcDbEntity
  8
1
  6
Continuous
 62
     7
100
AcDbLine
 10
-206.857376148798
 20
10.035573995413
 30
0.0
 11
-205.991350745014
 21
8.535573995413001
 31
0.0
  0
LINE
  5
1B0
330
A
100
AcDbEntity
  8
1
  6
Continuous
 62
     7
100
AcDbLine
 10
-205.991350745014
 20
8.535573995413001
 30
0.0
 11
-204.2592999374449
 21
8.535573995413001
 31
0.0
  0
LINE
  5
1AF
330
A
100
AcDbEntity
  8
1
  6
Continuous
 62
     7
100
AcDbLine
 10
-204.2592999374449
 20
8.535573995413001
 30
0.0
 11
-203.39327453366
 21
10.035573995413
 31
0.0
  0
LINE
  5
1AE
330
A
100
AcDbEntity
  8
1
  6
Continuous
 62
     7
100
AcDbLine
 10
-203.39327453366
 20
10.035573995413
 30
0.0
 11
-204.2592999374449
 21
11.535573995413
 31
0.0
  0
LINE
  5
1AD
330
A
100
AcDbEntity
  8
1
  6
Continuous
 62
     7
100
AcDbLine
 10
-204.2592999374449
 20
11.535573995413
 30
0.0
 11
-205.991350745014
 21
11.535573995413
 31
0.0
  0
LINE
  5
1AC
330
A
100
AcDbEntity
  8
1
  6
Continuous
 62
     7
100
AcDbLine
 10
-185.5635995847288
 20
-40.781379904527
 30
0.0
 11
-185.1153118486448
 21
-42.454412512003
 31
0.0
  0
LINE
  5
1AB
330
A
100
AcDbEntity
  8
1
  6
Continuous
 62
     7
100
AcDbLine
 10
-185.1153118486448
 20
-42.454412512003
 30
0.0
 11
-183.44227924117
 21
-42.902700248087
 31
0.0
  0
LINE
  5
1AA
330
A
100
AcDbEntity
  8
1
  6
Continuous
 62
     7
100
AcDbLine
 10
-183.44227924117
 20
-42.902700248087
 30
0.0
 11
-182.2175343697779
 21
-41.677955376696
 31
0.0
  0
LINE
  5
1A9
330
A
100
AcDbEntity
  8
1
  6
Continuous
 62
     7
100
AcDbLine
 10
-182.2175343697779
 20
-41.677955376696
 30
0.0
 11
-182.665822105862
 21
-40.00492276922
 31
0.0
  0
LINE
  5
1A8
330
A
100
AcDbEntity
  8
1
  6
DASH_CENTER
 62
     3
100
AcDbLine
 10
-188.133207664373
 20
-45.472308327732
 30
0.0
 11
-179.647926290134
 21
-36.98702695349199
 31
0.0
  0
LINE
  5
1A7
330
A
100
AcDbEntity
  8
1
  6
Continuous
 62
     7
100
AcDbLine
 10
-182.665822105862
 20
-40.00492276922
 30
0.0
 11
-184.338854713338
 21
-39.556635033136
 31
0.0
  0
LINE
  5
1A6
330
A
100
AcDbEntity
  8
1
  6
Continuous
 62
     7
100
AcDbLine
 10
-184.338854713338
 20
-39.556635033136
 30
0.0
 11
-185.5635995847288
 21
-40.781379904527
 31
0.0
  0
LINE
  5
1A5
330
A
100
AcDbEntity
  8
1
  6
Continuous
 62
     7
100
AcDbLine
 10
-134.125325341229
 20
-63.33045140837199
 30
0.0
 11
-132.6253253412289
 21
-64.196476812156
 31
0.0
  0
LINE
  5
1A4
330
A
100
AcDbEntity
  8
1
  6
Continuous
 62
     7
100
AcDbLine
 10
-132.6253253412289
 20
-64.196476812156
 30
0.0
 11
-131.125325341229
 21
-63.33045140837199
 31
0.0
  0
LINE
  5
1A3
330
A
100
AcDbEntity
  8
1
  6
Continuous
 62
     7
100
AcDbLine
 10
-131.125325341229
 20
-63.33045140837199
 30
0.0
 11
-131.125325341229
 21
-61.598400600803
 31
0.0
  0
LINE
  5
1A2
330
A
100
AcDbEntity
  8
1
  6
Continuous
 62
     7
100
AcDbLine
 10
-131.125325341229
 20
-61.598400600803
 30
0.0
 11
-132.6253253412289
 21
-60.732375197018
 31
0.0
  0
LINE
  5
1A1
330
A
100
AcDbEntity
  8
1
  6
Continuous
 62
     7
100
AcDbLine
 10
-132.6253253412289
 20
-60.732375197018
 30
0.0
 11
-134.125325341229
 21
-61.598400600803
 31
0.0
  0
LINE
  5
1A0
330
A
100
AcDbEntity
  8
1
  6
Continuous
 62
     7
100
AcDbLine
 10
-134.125325341229
 20
-61.598400600803
 30
0.0
 11
-134.125325341229
 21
-63.33045140837199
 31
0.0
  0
LINE
  5
19F
330
A
100
AcDbEntity
  8
1
  6
Continuous
 62
     7
100
AcDbLine
 10
-81.80837144128799
 20
-42.902700248087
 30
0.0
 11
-80.13533883381297
 21
-42.454412512003
 31
0.0
  0
LINE
  5
19E
330
A
100
AcDbEntity
  8
1
  6
Continuous
 62
     7
100
AcDbLine
 10
-80.13533883381297
 20
-42.454412512003
 30
0.0
 11
-79.687051097729
 21
-40.78137990452799
 31
0.0
  0
LINE
  5
19D
330
A
100
AcDbEntity
  8
1
  6
Continuous
 62
     7
100
AcDbLine
 10
-79.687051097729
 20
-40.78137990452799
 30
0.0
 11
-80.91179596911999
 21
-39.556635033136
 31
0.0
  0
LINE
  5
19C
330
A
100
AcDbEntity
  8
1
  6
Continuous
 62
     7
100
AcDbLine
 10
-80.91179596911999
 20
-39.556635033136
 30
0.0
 11
-82.58482857659599
 21
-40.00492276922
 31
0.0
  0
LINE
  5
19B
330
A
100
AcDbEntity
  8
1
  6
DASH_CENTER
 62
     3
100
AcDbLine
 10
-77.117443018085
 20
-45.472308327732
 30
0.0
 11
-85.602724392324
 21
-36.98702695349199
 31
0.0
  0
LINE
  5
19A
330
A
100
AcDbEntity
  8
1
  6
Continuous
 62
     7
100
AcDbLine
 10
-82.58482857659599
 20
-40.00492276922
 30
0.0
 11
-83.03311631268
 21
-41.677955376696
 31
0.0
  0
LINE
  5
199
330
A
100
AcDbEntity
  8
1
  6
Continuous
 62
     7
100
AcDbLine
 10
-83.03311631268
 20
-41.677955376696
 30
0.0
 11
-81.80837144128799
 21
-42.902700248087
 31
0.0
  0
LINE
  5
198
330
A
100
AcDbEntity
  8
1
  6
Continuous
 62
     7
100
AcDbLine
 10
-59.259299937445
 20
8.535573995413001
 30
0.0
 11
-58.39327453366
 21
10.035573995413
 31
0.0
  0
LINE
  5
197
330
A
100
AcDbEntity
  8
1
  6
Continuous
 62
     7
100
AcDbLine
 10
-58.39327453366
 20
10.035573995413
 30
0.0
 11
-59.259299937445
 21
11.535573995413
 31
0.0
  0
LINE
  5
196
330
A
100
AcDbEntity
  8
1
  6
Continuous
 62
     7
100
AcDbLine
 10
-59.259299937445
 20
11.535573995413
 30
0.0
 11
-60.991350745013
 21
11.535573995413
 31
0.0
  0
LINE
  5
195
330
A
100
AcDbEntity
  8
1
  6
Continuous
 62
     7
100
AcDbLine
 10
-60.991350745013
 20
11.535573995413
 30
0.0
 11
-61.857376148798
 21
10.035573995413
 31
0.0
  0
LINE
  5
194
330
A
100
AcDbEntity
  8
1
  6
Continuous
 62
     7
100
AcDbLine
 10
-61.857376148798
 20
10.035573995413
 30
0.0
 11
-60.991350745013
 21
8.535573995413001
 31
0.0
  0
LINE
  5
193
330
A
100
AcDbEntity
  8
1
  6
Continuous
 62
     7
100
AcDbLine
 10
-60.991350745013
 20
8.535573995413001
 30
0.0
 11
-59.259299937445
 21
8.535573995413001
 31
0.0
  0
LINE
  5
192
330
A
100
AcDbEntity
  8
1
  6
Continuous
 62
     7
100
AcDbLine
 10
-79.687051097729
 20
60.85252789535299
 30
0.0
 11
-80.13533883381297
 21
62.525560502829
 31
0.0
  0
LINE
  5
191
330
A
100
AcDbEntity
  8
1
  6
Continuous
 62
     7
100
AcDbLine
 10
-80.13533883381297
 20
62.525560502829
 30
0.0
 11
-81.80837144128799
 21
62.973848238913
 31
0.0
  0
LINE
  5
190
330
A
100
AcDbEntity
  8
1
  6
Continuous
 62
     7
100
AcDbLine
 10
-81.80837144128799
 20
62.973848238913
 30
0.0
 11
-83.03311631268
 21
61.749103367521
 31
0.0
  0
LINE
  5
18F
330
A
100
AcDbEntity
  8
1
  6
Continuous
 62
     7
100
AcDbLine
 10
-83.03311631268
 20
61.749103367521
 30
0.0
 11
-82.58482857659599
 21
60.076070760045
 31
0.0
  0
LINE
  5
18E
330
A
100
AcDbEntity
  8
1
  6
DASH_CENTER
 62
     3
100
AcDbLine
 10
-77.117443018085
 20
65.54345631855699
 30
0.0
 11
-85.602724392324
 21
57.058174944319
 31
0.0
  0
LINE
  5
18D
330
A
100
AcDbEntity
  8
1
  6
Continuous
 62
     7
100
AcDbLine
 10
-82.58482857659599
 20
60.076070760045
 30
0.0
 11
-80.91179596911999
 21
59.627783023961
 31
0.0
  0
LINE
  5
18C
330
A
100
AcDbEntity
  8
1
  6
Continuous
 62
     7
100
AcDbLine
 10
-80.91179596911999
 20
59.627783023961
 30
0.0
 11
-79.687051097729
 21
60.85252789535299
 31
0.0
  0
LINE
  5
18B
330
A
100
AcDbEntity
  8
1
  6
Continuous
 62
     7
100
AcDbLine
 10
75.976934699512
 20
-49.964426004293
 30
0.0
 11
75.976934699512
 21
70.03557399583001
 31
0.0
  0
LINE
  5
18A
330
A
100
AcDbEntity
  8
1
  6
Continuous
 62
     7
100
AcDbLine
 10
77.976934699512
 20
-66.46442600416199
 30
0.0
 11
77.976934699512
 21
86.535573994936
 31
0.0
  0
LINE
  5
189
330
A
100
AcDbEntity
  8
1
  6
Continuous
 62
     7
100
AcDbLine
 10
77.976934699512
 20
86.535573994936
 30
0.0
 11
94.47693469956199
 21
86.535573994936
 31
0.0
  0
LINE
  5
188
330
A
100
AcDbEntity
  8
1
  6
Continuous
 62
     7
100
AcDbLine
 10
94.47693469956199
 20
-66.46442600416199
 30
0.0
 11
77.976934699512
 21
-66.46442600416199
 31
0.0
  0
LINE
  5
187
330
A
100
AcDbEntity
  8
1
  6
Continuous
 62
     7
100
AcDbLine
 10
-66.12532534099599
 20
92.535573994755
 30
0.0
 11
-199.125325341056
 21
92.535573994755
 31
0.0
  0
LINE
  5
186
330
A
100
AcDbEntity
  8
1
  6
Continuous
 62
     7
100
AcDbLine
 10
149.701152591334
 20
-55.018791746054
 30
0.0
 11
149.701152591334
 21
75.035573995413
 31
0.0
  0
LINE
  5
185
330
A
100
AcDbEntity
  8
1
  6
Continuous
 62
     7
100
AcDbLine
 10
157.2269346985359
 20
75.035573995413
 30
0.0
 11
157.2269346985359
 21
71.80557399541299
 31
0.0
  0
LINE
  5
184
330
A
100
AcDbEntity
  8
1
  6
DASH_CENTER
 62
     3
100
AcDbLine
 10
65.931162780189
 20
10.035573995413
 30
0.0
 11
321.476934699551
 21
10.035573995413
 31
0.0
  0
LINE
  5
183
330
A
100
AcDbEntity
  8
1
  6
Continuous
 62
     7
100
AcDbLine
 10
94.47693469956199
 20
-67.464426004106
 30
0.0
 11
94.47693469956199
 21
87.535573995643
 31
0.0
  0
LINE
  5
182
330
A
100
AcDbEntity
  8
1
  6
Continuous
 62
     7
100
AcDbLine
 10
77.976934699512
 20
14.035573995413
 30
0.0
 11
82.47693469951199
 21
14.035573995413
 31
0.0
  0
LINE
  5
181
330
A
100
AcDbEntity
  8
1
  6
Continuous
 62
     7
100
AcDbLine
 10
82.47693469951199
 20
14.035573995413
 30
0.0
 11
82.47693469951199
 21
6.035573995413
 31
0.0
  0
LINE
  5
180
330
A
100
AcDbEntity
  8
1
  6
Continuous
 62
     7
100
AcDbLine
 10
82.47693469951199
 20
6.035573995413
 30
0.0
 11
77.976934699512
 21
6.035573995413
 31
0.0
  0
LINE
  5
17F
330
A
100
AcDbEntity
  8
1
  6
Continuous
 62
     7
100
AcDbLine
 10
77.976934699512
 20
67.237708000082
 30
0.0
 11
82.47693469951199
 21
67.237708000082
 31
0.0
  0
LINE
  5
17E
330
A
100
AcDbEntity
  8
1
  6
Continuous
 62
     7
100
AcDbLine
 10
82.47693469951199
 20
67.237708000082
 30
0.0
 11
82.47693469951199
 21
61.580853750452
 31
0.0
  0
LINE
  5
17D
330
A
100
AcDbEntity
  8
1
  6
Continuous
 62
     7
100
AcDbLine
 10
82.47693469951199
 20
61.580853750452
 30
0.0
 11
77.976934699512
 21
61.580853750452
 31
0.0
  0
LINE
  5
17C
330
A
100
AcDbEntity
  8
1
  6
Continuous
 62
     7
100
AcDbLine
 10
82.47693469951199
 20
-47.166560009257
 30
0.0
 11
77.976934699512
 21
-47.166560009257
 31
0.0
  0
LINE
  5
17B
330
A
100
AcDbEntity
  8
1
  6
Continuous
 62
     7
100
AcDbLine
 10
77.976934699512
 20
-41.509705759628
 30
0.0
 11
82.47693469951199
 21
-41.509705759628
 31
0.0
  0
LINE
  5
17A
330
A
100
AcDbEntity
  8
1
  6
Continuous
 62
     7
100
AcDbLine
 10
82.47693469951199
 20
-41.509705759628
 30
0.0
 11
82.47693469951199
 21
-47.166560009257
 31
0.0
  0
LINE
  5
179
330
A
100
AcDbEntity
  8
1
  6
Continuous
 62
     7
100
AcDbLine
 10
185.9769346995449
 20
75.035573995413
 30
0.0
 11
150.269693544125
 21
75.035573995413
 31
0.0
  0
LINE
  5
178
330
A
100
AcDbEntity
  8
1
  6
Continuous
 62
     7
100
AcDbLine
 10
185.9769346995449
 20
-54.964426004587
 30
0.0
 11
150.269693544086
 21
-54.964426004587
 31
0.0
  0
LINE
  5
177
330
A
100
AcDbEntity
  8
1
  6
Continuous
 62
     7
100
AcDbLine
 10
185.976934699551
 20
75.03557399541199
 30
0.0
 11
185.976934699551
 21
-54.964426004587
 31
0.0
  0
LINE
  5
176
330
A
100
AcDbEntity
  8
1
  6
Continuous
 62
     7
100
AcDbLine
 10
180.976934699551
 20
-54.964426004587
 30
0.0
 11
180.976934699551
 21
75.03557399541199
 31
0.0
  0
LINE
  5
175
330
A
100
AcDbEntity
  8
1
  6
DASH_CENTER
 62
     3
100
AcDbLine
 10
192.476934699551
 20
61.997098222479
 30
0.0
 11
177.2560635057098
 21
61.997098222479
 31
0.0
  0
LINE
  5
174
330
A
100
AcDbEntity
  8
1
  6
Continuous
 62
     7
100
AcDbLine
 10
313.17772646455
 20
-5.359230322928
 30
0.0
 11
289.260030077456
 21
-5.359230322928
 31
0.0
  0
LINE
  5
173
330
A
100
AcDbEntity
  8
1
  6
Continuous
 62
     7
100
AcDbLine
 10
284.4769346995508
 20
50.035573995413
 30
0.0
 11
284.4769346995508
 21
-29.964426004587
 31
0.0
  0
LINE
  5
172
330
A
100
AcDbEntity
  8
1
  6
Continuous
 62
     7
100
AcDbLine
 10
311.976934699551
 20
50.035573995413
 30
0.0
 11
258.476934699551
 21
50.035573995413
 31
0.0
  0
LINE
  5
171
330
A
100
AcDbEntity
  8
1
  6
Continuous
 62
     7
100
AcDbLine
 10
287.476934699551
 20
-29.964426004587
 30
0.0
 11
287.476934699551
 21
50.035573995413
 31
0.0
  0
LINE
  5
170
330
A
100
AcDbEntity
  8
1
  6
Continuous
 62
     7
100
AcDbLine
 10
185.976934699551
 20
-29.964426004587
 30
0.0
 11
311.976934699551
 21
-29.964426004587
 31
0.0
  0
LINE
  5
16F
330
A
100
AcDbEntity
  8
1
  6
Continuous
 62
     7
100
AcDbLine
 10
258.476934699551
 20
-15.964426004587
 30
0.0
 11
258.476934699551
 21
-29.964426004587
 31
0.0
  0
LINE
  5
16E
330
A
100
AcDbEntity
  8
1
  6
Continuous
 62
     7
100
AcDbLine
 10
289.000619053735
 20
40.326868124253
 30
0.0
 11
313.281490874038
 21
40.326868124253
 31
0.0
  0
LINE
  5
16D
330
A
100
AcDbEntity
  8
1
  6
Continuous
 62
     7
100
AcDbLine
 10
284.4769346995508
 20
36.03557399541299
 30
0.0
 11
313.976934699551
 21
36.03557399541299
 31
0.0
  0
LINE
  5
16C
330
A
100
AcDbEntity
  8
1
  6
Continuous
 62
     7
100
AcDbLine
 10
289.260030077456
 20
25.430378313753
 30
0.0
 11
313.17772646455
 21
25.430378313753
 31
0.0
  0
LINE
  5
16B
330
A
100
AcDbEntity
  8
1
  6
Continuous
 62
     7
100
AcDbLine
 10
313.281490874038
 20
-20.25572013342999
 30
0.0
 11
289.000619053735
 21
-20.25572013342999
 31
0.0
  0
LINE
  5
16A
330
A
100
AcDbEntity
  8
1
  6
Continuous
 62
     7
100
AcDbLine
 10
313.976934699551
 20
-15.964426004587
 30
0.0
 11
284.4769346995508
 21
-15.964426004587
 31
0.0
  0
LINE
  5
169
330
A
100
AcDbEntity
  8
1
  6
Continuous
 62
     7
100
AcDbLine
 10
259.56207407617
 20
-20.25572013342999
 30
0.0
 11
283.6088401729018
 21
-20.25572013342999
 31
0.0
  0
LINE
  5
168
330
A
100
AcDbEntity
  8
1
  6
Continuous
 62
     7
100
AcDbLine
 10
256.476934699551
 20
-15.964426004587
 30
0.0
 11
284.4769346995508
 21
-15.964426004587
 31
0.0
  0
LINE
  5
167
330
A
100
AcDbEntity
  8
1
  6
Continuous
 62
     7
100
AcDbLine
 10
256.695397358012
 20
-5.359230322928
 30
0.0
 11
283.6088401729018
 21
-5.359230322928
 31
0.0
  0
LINE
  5
166
330
A
100
AcDbEntity
  8
1
  6
Continuous
 62
     7
100
AcDbLine
 10
258.476934699551
 20
-1.613536645261999
 30
0.0
 11
256.476934699551
 21
-1.613536645261999
 31
0.0
  0
LINE
  5
165
330
A
100
AcDbEntity
  8
1
  6
Continuous
 62
     7
100
AcDbLine
 10
255.4769346995509
 20
-14.96442600458698
 30
0.0
 11
255.4769346995509
 21
-2.613536645262
 31
0.0
  0
LINE
  5
164
330
A
100
AcDbEntity
  8
1
  6
Continuous
 62
     7
100
AcDbLine
 10
258.476934699551
 20
21.684684636086
 30
0.0
 11
258.476934699551
 21
-1.613536645261999
 31
0.0
  0
LINE
  5
163
330
A
100
AcDbEntity
  8
1
  6
Continuous
 62
     7
100
AcDbLine
 10
209.4769346995509
 20
36.03557399541299
 30
0.0
 11
193.976934699551
 21
36.03557399541299
 31
0.0
  0
LINE
  5
162
330
A
100
AcDbEntity
  8
1
  6
Continuous
 62
     7
100
AcDbLine
 10
284.4769346995508
 20
36.03557399541299
 30
0.0
 11
256.476934699551
 21
36.03557399541299
 31
0.0
  0
LINE
  5
161
330
A
100
AcDbEntity
  8
1
  6
Continuous
 62
     7
100
AcDbLine
 10
258.476934699551
 20
50.035573995413
 30
0.0
 11
258.476934699551
 21
36.03557399541299
 31
0.0
  0
LINE
  5
160
330
A
100
AcDbEntity
  8
1
  6
Continuous
 62
     7
100
AcDbLine
 10
256.476934699551
 20
21.684684636086
 30
0.0
 11
258.476934699551
 21
21.684684636086
 31
0.0
  0
LINE
  5
15F
330
A
100
AcDbEntity
  8
1
  6
Continuous
 62
     7
100
AcDbLine
 10
255.4769346995509
 20
22.684684636086
 30
0.0
 11
255.4769346995509
 21
35.03557399541298
 31
0.0
  0
LINE
  5
15E
330
A
100
AcDbEntity
  8
1
  6
Continuous
 62
     7
100
AcDbLine
 10
283.6088401729018
 20
25.430378313753
 30
0.0
 11
256.695397358012
 21
25.430378313753
 31
0.0
  0
LINE
  5
15D
330
A
100
AcDbEntity
  8
1
  6
Continuous
 62
     7
100
AcDbLine
 10
283.6088401729018
 20
40.326868124253
 30
0.0
 11
259.56207407617
 21
40.326868124253
 31
0.0
  0
LINE
  5
15C
330
A
100
AcDbEntity
  8
1
  6
Continuous
 62
     7
100
AcDbLine
 10
193.976934699551
 20
-15.964426004587
 30
0.0
 11
209.4769346995509
 21
-15.964426004587
 31
0.0
  0
LINE
  5
15B
330
A
100
AcDbEntity
  8
1
  6
Continuous
 62
     7
100
AcDbLine
 10
207.4769346995509
 20
50.035573995413
 30
0.0
 11
207.4769346995509
 21
36.03557399541299
 31
0.0
  0
LINE
  5
15A
330
A
100
AcDbEntity
  8
1
  6
Continuous
 62
     7
100
AcDbLine
 10
199.976934699551
 20
40.32686812425398
 30
0.0
 11
206.235855468454
 21
40.32686812425398
 31
0.0
  0
LINE
  5
159
330
A
100
AcDbEntity
  8
1
  6
Continuous
 62
     7
100
AcDbLine
 10
193.976934699551
 20
25.430378313753
 30
0.0
 11
193.976934699551
 21
50.035573995413
 31
0.0
  0
LINE
  5
158
330
A
100
AcDbEntity
  8
1
  6
Continuous
 62
     7
100
AcDbLine
 10
210.476934699551
 20
25.430378313753
 30
0.0
 11
193.976934699551
 21
25.430378313753
 31
0.0
  0
LINE
  5
157
330
A
100
AcDbEntity
  8
1
  6
Continuous
 62
     7
100
AcDbLine
 10
209.4769346995509
 20
21.684684636086
 30
0.0
 11
207.376934699551
 21
21.684684636086
 31
0.0
  0
LINE
  5
156
330
A
100
AcDbEntity
  8
1
  6
Continuous
 62
     7
100
AcDbLine
 10
210.476934699551
 20
22.684684636086
 30
0.0
 11
210.476934699551
 21
35.03557399541298
 31
0.0
  0
LINE
  5
155
330
A
100
AcDbEntity
  8
1
  6
Continuous
 62
     7
100
AcDbLine
 10
207.4769346995509
 20
-1.613536645261999
 30
0.0
 11
207.4769346995509
 21
21.684684636086
 31
0.0
  0
LINE
  5
154
330
A
100
AcDbEntity
  8
1
  6
Continuous
 62
     7
100
AcDbLine
 10
193.976934699551
 20
-29.964426004587
 30
0.0
 11
193.976934699551
 21
-5.359230322926999
 31
0.0
  0
LINE
  5
153
330
A
100
AcDbEntity
  8
1
  6
Continuous
 62
     7
100
AcDbLine
 10
207.4769346995509
 20
-15.964426004587
 30
0.0
 11
207.4769346995509
 21
-29.964426004587
 31
0.0
  0
LINE
  5
152
330
A
100
AcDbEntity
  8
1
  6
Continuous
 62
     7
100
AcDbLine
 10
193.976934699551
 20
-5.359230322926999
 30
0.0
 11
210.476934699551
 21
-5.359230322926999
 31
0.0
  0
LINE
  5
151
330
A
100
AcDbEntity
  8
1
  6
Continuous
 62
     7
100
AcDbLine
 10
210.476934699551
 20
-14.96442600458698
 30
0.0
 11
210.476934699551
 21
-2.613536645262
 31
0.0
  0
LINE
  5
150
330
A
100
AcDbEntity
  8
1
  6
Continuous
 62
     7
100
AcDbLine
 10
207.4769346995509
 20
-1.613536645261999
 30
0.0
 11
209.4769346995509
 21
-1.613536645261999
 31
0.0
  0
LINE
  5
14F
330
A
100
AcDbEntity
  8
1
  6
Continuous
 62
     7
100
AcDbLine
 10
288.476934699551
 20
52.03557399541299
 30
0.0
 11
288.476934699551
 21
-29.964426004587
 31
0.0
  0
LINE
  5
14E
330
A
100
AcDbEntity
  8
1
  6
Continuous
 62
     7
100
AcDbLine
 10
246.412921486239
 20
27.068599253591
 30
0.0
 11
246.412921486239
 21
16.834954648296
 31
0.0
  0
LINE
  5
14D
330
A
100
AcDbEntity
  8
1
  6
Continuous
 62
     7
100
AcDbLine
 10
244.412921486239
 20
28.801716485131
 30
0.0
 11
244.412921486239
 21
15.18436680873399
 31
0.0
  0
LINE
  5
14C
330
A
100
AcDbEntity
  8
1
  6
Continuous
 62
     7
100
AcDbLine
 10
242.412921486239
 20
35.429534873872
 30
0.0
 11
242.412921486239
 21
11.496011200202
 31
0.0
  0
LINE
  5
14B
330
A
100
AcDbEntity
  8
1
  6
Continuous
 62
     7
100
AcDbLine
 10
240.412921486239
 20
26.986069861611
 30
0.0
 11
240.412921486239
 21
14.85424924082098
 31
0.0
  0
LINE
  5
14A
330
A
100
AcDbEntity
  8
1
  6
Continuous
 62
     7
100
AcDbLine
 10
238.412921486239
 20
29.214363445023
 30
0.0
 11
238.412921486239
 21
12.873543833344
 31
0.0
  0
LINE
  5
149
330
A
100
AcDbEntity
  8
1
  6
Continuous
 62
     7
100
AcDbLine
 10
236.412921486239
 20
31.44265702843298
 30
0.0
 11
236.412921486239
 21
11.47054416971599
 31
0.0
  0
LINE
  5
148
330
A
100
AcDbEntity
  8
1
  6
Continuous
 62
     7
100
AcDbLine
 10
227.7109331196239
 20
28.497065947706
 30
0.0
 11
227.7109331196239
 21
17.27306863867399
 31
0.0
  0
LINE
  5
147
330
A
100
AcDbEntity
  8
1
  6
Continuous
 62
     7
100
AcDbLine
 10
225.7109331196239
 20
31.880771018811
 30
0.0
 11
225.7109331196239
 21
16.282715934937
 31
0.0
  0
LINE
  5
146
330
A
100
AcDbEntity
  8
1
  6
Continuous
 62
     7
100
AcDbLine
 10
223.710933119624
 20
35.429534873872
 30
0.0
 11
223.710933119624
 21
11.496011200202
 31
0.0
  0
LINE
  5
145
330
A
100
AcDbEntity
  8
1
  6
Continuous
 62
     7
100
AcDbLine
 10
221.7109331196239
 20
28.579595339684
 30
0.0
 11
221.7109331196239
 21
17.27306863867399
 31
0.0
  0
LINE
  5
144
330
A
100
AcDbEntity
  8
1
  6
Continuous
 62
     7
100
AcDbLine
 10
219.7109331196239
 20
33.201241290462
 30
0.0
 11
219.7109331196239
 21
16.035127759003
 31
0.0
  0
LINE
  5
143
330
A
100
AcDbEntity
  8
1
  6
Continuous
 62
     7
100
AcDbLine
 10
217.7109331196239
 20
35.51206426585
 30
0.0
 11
217.7109331196239
 21
12.733952079876
 31
0.0
  0
LINE
  5
142
330
A
100
AcDbEntity
  8
1
  6
Continuous
 62
     7
100
AcDbLine
 10
284.4769346995508
 20
50.035573995413
 30
0.0
 11
284.4769346995508
 21
-29.964426004587
 31
0.0
  0
LINE
  5
141
330
A
100
AcDbEntity
  8
1
  6
Continuous
 62
     7
100
AcDbLine
 10
185.976934699551
 20
-23.968102276426
 30
0.0
 11
193.976934699551
 21
-23.968102276425
 31
0.0
  0
LINE
  5
140
330
A
100
AcDbEntity
  8
1
  6
Continuous
 62
     7
100
AcDbLine
 10
279.476934699551
 20
-21.964426004587
 30
0.0
 11
279.476934699551
 21
-29.964426004587
 31
0.0
  0
LINE
  5
13F
330
A
100
AcDbEntity
  8
1
  6
Continuous
 62
     7
100
AcDbLine
 10
284.4769346995508
 20
-21.964426004587
 30
0.0
 11
279.476934699551
 21
-21.964426004587
 31
0.0
  0
LINE
  5
13E
330
A
100
AcDbEntity
  8
1
  6
Continuous
 62
     7
100
AcDbLine
 10
279.9269346995509
 20
-29.714426004587
 30
0.0
 11
279.476934699551
 21
-29.714426004587
 31
0.0
  0
LINE
  5
13D
330
A
100
AcDbEntity
  8
1
  6
Continuous
 62
     7
100
AcDbLine
 10
279.9269346995509
 20
-28.114426004587
 30
0.0
 11
279.9269346995509
 21
-29.714426004587
 31
0.0
  0
LINE
  5
13C
330
A
100
AcDbEntity
  8
1
  6
Continuous
 62
     7
100
AcDbLine
 10
279.476934699551
 20
-22.214426004587
 30
0.0
 11
279.9269346995509
 21
-22.214426004587
 31
0.0
  0
LINE
  5
13B
330
A
100
AcDbEntity
  8
1
  6
Continuous
 62
     7
100
AcDbLine
 10
279.476934699551
 20
-29.714426004587
 30
0.0
 11
279.476934699551
 21
-22.214426004587
 31
0.0
  0
LINE
  5
13A
330
A
100
AcDbEntity
  8
1
  6
Continuous
 62
     7
100
AcDbLine
 10
279.9269346995509
 20
-22.214426004587
 30
0.0
 11
279.9269346995509
 21
-29.714426004587
 31
0.0
  0
LINE
  5
139
330
A
100
AcDbEntity
  8
1
  6
Continuous
 62
     7
100
AcDbLine
 10
185.976934699551
 20
50.035573995413
 30
0.0
 11
258.476934699551
 21
50.035573995413
 31
0.0
  0
LINE
  5
138
330
A
100
AcDbEntity
  8
1
  6
Continuous
 62
     7
100
AcDbLine
 10
193.976934699551
 20
44.039250267251
 30
0.0
 11
185.976934699551
 21
44.039250267251
 31
0.0
  0
LINE
  5
137
330
A
100
AcDbEntity
  8
1
  6
Continuous
 62
     7
100
AcDbLine
 10
279.476934699551
 20
50.035573995413
 30
0.0
 11
279.476934699551
 21
42.03557399541299
 31
0.0
  0
LINE
  5
136
330
A
100
AcDbEntity
  8
1
  6
Continuous
 62
     7
100
AcDbLine
 10
279.476934699551
 20
42.03557399541299
 30
0.0
 11
284.4769346995508
 21
42.03557399541299
 31
0.0
  0
LINE
  5
135
330
A
100
AcDbEntity
  8
1
  6
Continuous
 62
     7
100
AcDbLine
 10
279.476934699551
 20
49.78557399541299
 30
0.0
 11
279.9269346995509
 21
49.78557399541299
 31
0.0
  0
LINE
  5
134
330
A
100
AcDbEntity
  8
1
  6
Continuous
 62
     7
100
AcDbLine
 10
279.9269346995509
 20
43.885573995413
 30
0.0
 11
279.9269346995509
 21
42.28557399541299
 31
0.0
  0
LINE
  5
133
330
A
100
AcDbEntity
  8
1
  6
Continuous
 62
     7
100
AcDbLine
 10
279.9269346995509
 20
42.28557399541299
 30
0.0
 11
279.476934699551
 21
42.28557399541299
 31
0.0
  0
LINE
  5
132
330
A
100
AcDbEntity
  8
1
  6
Continuous
 62
     7
100
AcDbLine
 10
279.476934699551
 20
42.28557399541299
 30
0.0
 11
279.476934699551
 21
49.78557399541299
 31
0.0
  0
LINE
  5
131
330
A
100
AcDbEntity
  8
1
  6
Continuous
 62
     7
100
AcDbLine
 10
279.9269346995509
 20
49.78557399541299
 30
0.0
 11
279.9269346995509
 21
42.28557399541299
 31
0.0
  0
LINE
  5
130
330
A
100
AcDbEntity
  8
1
  6
Continuous
 62
     7
100
AcDbLine
 10
313.976934699551
 20
-27.964426004587
 30
0.0
 11
313.976934699551
 21
48.035573995413
 31
0.0
  0
LINE
  5
12F
330
A
100
AcDbEntity
  8
1
  6
Continuous
 62
     7
100
AcDbLine
 10
286.883015832751
 20
-20.25572013342999
 30
0.0
 11
285.024894387548
 21
-20.25572013342999
 31
0.0
  0
LINE
  5
12E
330
A
100
AcDbEntity
  8
1
  6
Continuous
 62
     7
100
AcDbLine
 10
286.8585668663659
 20
-5.359230322928
 30
0.0
 11
285.024894387548
 21
-5.359230322928
 31
0.0
  0
LINE
  5
12D
330
A
100
AcDbEntity
  8
1
  6
Continuous
 62
     7
100
AcDbLine
 10
286.5651792697548
 20
25.430378313754
 30
0.0
 11
285.196037152238
 21
25.430378313754
 31
0.0
  0
LINE
  5
12C
330
A
100
AcDbEntity
  8
1
  6
Continuous
 62
     7
100
AcDbLine
 10
286.980811698288
 20
40.326868124253
 30
0.0
 11
285.147139219469
 21
40.326868124253
 31
0.0
  0
LINE
  5
12B
330
A
100
AcDbEntity
  8
1
  6
DASH_CENTER
 62
     7
100
AcDbLine
 10
207.4769346995509
 20
46.03557399541299
 30
0.0
 11
258.476934699551
 21
46.03557399541299
 31
0.0
  0
LINE
  5
12A
330
A
100
AcDbEntity
  8
1
  6
Continuous
 62
     7
100
AcDbLine
 10
207.4769346995509
 20
44.03557399541298
 30
0.0
 11
258.476934699551
 21
44.03557399541298
 31
0.0
  0
LINE
  5
129
330
A
100
AcDbEntity
  8
1
  6
Continuous
 62
     7
100
AcDbLine
 10
258.476934699551
 20
48.035573995413
 30
0.0
 11
207.4769346995509
 21
48.035573995413
 31
0.0
  0
LINE
  5
128
330
A
100
AcDbEntity
  8
1
  6
Continuous
 62
     7
100
AcDbLine
 10
216.9269346995509
 20
44.41457399541199
 30
0.0
 11
207.4769346995509
 21
44.41457399541199
 31
0.0
  0
LINE
  5
127
330
A
100
AcDbEntity
  8
1
  6
Continuous
 62
     7
100
AcDbLine
 10
217.583381955619
 20
44.03557399541298
 30
0.0
 11
216.9269346995509
 21
44.41457399541199
 31
0.0
  0
LINE
  5
126
330
A
100
AcDbEntity
  8
1
  6
Continuous
 62
     7
100
AcDbLine
 10
216.9269346995509
 20
48.035573995413
 30
0.0
 11
216.9269346995509
 21
44.03557399541298
 31
0.0
  0
LINE
  5
125
330
A
100
AcDbEntity
  8
1
  6
Continuous
 62
     7
100
AcDbLine
 10
207.4769346995509
 20
47.65657399541299
 30
0.0
 11
216.9269346995509
 21
47.65657399541299
 31
0.0
  0
LINE
  5
124
330
A
100
AcDbEntity
  8
1
  6
Continuous
 62
     7
100
AcDbLine
 10
216.9269346995509
 20
47.65657399541299
 30
0.0
 11
217.583381955619
 21
48.035573995413
 31
0.0
  0
LINE
  5
123
330
A
100
AcDbEntity
  8
1
  6
DASH_CENTER
 62
     7
100
AcDbLine
 10
258.476934699551
 20
-25.964426004587
 30
0.0
 11
207.4769346995509
 21
-25.964426004587
 31
0.0
  0
LINE
  5
122
330
A
100
AcDbEntity
  8
1
  6
Continuous
 62
     7
100
AcDbLine
 10
258.476934699551
 20
-23.964426004587
 30
0.0
 11
207.4769346995509
 21
-23.964426004587
 31
0.0
  0
LINE
  5
121
330
A
100
AcDbEntity
  8
1
  6
Continuous
 62
     7
100
AcDbLine
 10
207.4769346995509
 20
-27.964426004587
 30
0.0
 11
258.476934699551
 21
-27.964426004587
 31
0.0
  0
LINE
  5
120
330
A
100
AcDbEntity
  8
1
  6
Continuous
 62
     7
100
AcDbLine
 10
207.4769346995509
 20
-24.343426004587
 30
0.0
 11
216.9269346995509
 21
-24.343426004587
 31
0.0
  0
LINE
  5
11F
330
A
100
AcDbEntity
  8
1
  6
Continuous
 62
     7
100
AcDbLine
 10
216.9269346995509
 20
-24.343426004587
 30
0.0
 11
217.583381955619
 21
-23.964426004587
 31
0.0
  0
LINE
  5
11E
330
A
100
AcDbEntity
  8
1
  6
Continuous
 62
     7
100
AcDbLine
 10
216.9269346995509
 20
-23.964426004587
 30
0.0
 11
216.9269346995509
 21
-27.964426004587
 31
0.0
  0
LINE
  5
11D
330
A
100
AcDbEntity
  8
1
  6
Continuous
 62
     7
100
AcDbLine
 10
216.9269346995509
 20
-27.58542600458799
 30
0.0
 11
207.4769346995509
 21
-27.58542600458799
 31
0.0
  0
LINE
  5
11C
330
A
100
AcDbEntity
  8
1
  6
Continuous
 62
     7
100
AcDbLine
 10
217.583381955619
 20
-27.964426004587
 30
0.0
 11
216.9269346995509
 21
-27.58542600458799
 31
0.0
  0
LINE
  5
11B
330
A
100
AcDbEntity
  8
1
  6
DASH_CENTER
 62
     7
100
AcDbLine
 10
278.426934699551
 20
46.03557399541299
 30
0.0
 11
285.426934699551
 21
46.03557399541299
 31
0.0
  0
LINE
  5
11A
330
A
100
AcDbEntity
  8
1
  6
DASHED
 62
     7
100
AcDbLine
 10
283.9269346995509
 20
45.169548591628
 30
0.0
 11
281.9269346995509
 21
45.169548591628
 31
0.0
  0
LINE
  5
119
330
A
100
AcDbEntity
  8
1
  6
DASHED
 62
     7
100
AcDbLine
 10
281.9269346995509
 20
44.303523187843
 30
0.0
 11
280.926934699551
 21
46.03557399541299
 31
0.0
  0
LINE
  5
118
330
A
100
AcDbEntity
  8
1
  6
DASHED
 62
     7
100
AcDbLine
 10
283.9269346995509
 20
44.303523187843
 30
0.0
 11
281.9269346995509
 21
44.303523187843
 31
0.0
  0
LINE
  5
117
330
A
100
AcDbEntity
  8
1
  6
Continuous
 62
     7
100
AcDbLine
 10
279.9269346995509
 20
42.53557399541299
 30
0.0
 11
283.526934699551
 21
42.53557399541299
 31
0.0
  0
LINE
  5
116
330
A
100
AcDbEntity
  8
1
  6
DASHED
 62
     7
100
AcDbLine
 10
281.9269346995509
 20
46.901599399198
 30
0.0
 11
283.9269346995509
 21
46.90159939919699
 31
0.0
  0
LINE
  5
115
330
A
100
AcDbEntity
  8
1
  6
DASHED
 62
     7
100
AcDbLine
 10
280.926934699551
 20
46.03557399541299
 30
0.0
 11
281.9269346995509
 21
47.767624802982
 31
0.0
  0
LINE
  5
114
330
A
100
AcDbEntity
  8
1
  6
DASHED
 62
     7
100
AcDbLine
 10
281.9269346995509
 20
47.767624802982
 30
0.0
 11
283.9269346995509
 21
47.767624802982
 31
0.0
  0
LINE
  5
113
330
A
100
AcDbEntity
  8
1
  6
Continuous
 62
     7
100
AcDbLine
 10
283.9269346995509
 20
42.93557399541199
 30
0.0
 11
283.9269346995509
 21
49.135573995412
 31
0.0
  0
LINE
  5
112
330
A
100
AcDbEntity
  8
1
  6
Continuous
 62
     7
100
AcDbLine
 10
283.526934699551
 20
49.53557399541299
 30
0.0
 11
279.9269346995509
 21
49.53557399541299
 31
0.0
  0
LINE
  5
111
330
A
100
AcDbEntity
  8
1
  6
Continuous
 62
     7
100
AcDbLine
 10
279.9269346995509
 20
42.53557399541299
 30
0.0
 11
279.9269346995509
 21
49.53557399541299
 31
0.0
  0
LINE
  5
110
330
A
100
AcDbEntity
  8
1
  6
Continuous
 62
     7
100
AcDbLine
 10
279.9269346995509
 20
-29.464426004587
 30
0.0
 11
279.9269346995509
 21
-22.464426004587
 31
0.0
  0
LINE
  5
10F
330
A
100
AcDbEntity
  8
1
  6
Continuous
 62
     7
100
AcDbLine
 10
279.9269346995509
 20
-29.464426004587
 30
0.0
 11
283.526934699551
 21
-29.464426004587
 31
0.0
  0
LINE
  5
10E
330
A
100
AcDbEntity
  8
1
  6
Continuous
 62
     7
100
AcDbLine
 10
283.9269346995509
 20
-29.06442600458799
 30
0.0
 11
283.9269346995509
 21
-22.86442600458799
 31
0.0
  0
LINE
  5
10D
330
A
100
AcDbEntity
  8
1
  6
DASHED
 62
     7
100
AcDbLine
 10
283.9269346995509
 20
-27.696476812157
 30
0.0
 11
281.9269346995509
 21
-27.696476812157
 31
0.0
  0
LINE
  5
10C
330
A
100
AcDbEntity
  8
1
  6
DASHED
 62
     7
100
AcDbLine
 10
281.9269346995509
 20
-27.696476812157
 30
0.0
 11
280.926934699551
 21
-25.964426004587
 31
0.0
  0
LINE
  5
10B
330
A
100
AcDbEntity
  8
1
  6
DASHED
 62
     7
100
AcDbLine
 10
283.9269346995509
 20
-26.830451408372
 30
0.0
 11
281.9269346995509
 21
-26.830451408372
 31
0.0
  0
LINE
  5
10A
330
A
100
AcDbEntity
  8
1
  6
Continuous
 62
     7
100
AcDbLine
 10
283.526934699551
 20
-22.464426004587
 30
0.0
 11
279.9269346995509
 21
-22.464426004587
 31
0.0
  0
LINE
  5
109
330
A
100
AcDbEntity
  8
1
  6
DASHED
 62
     7
100
AcDbLine
 10
281.9269346995509
 20
-24.232375197018
 30
0.0
 11
283.9269346995509
 21
-24.232375197018
 31
0.0
  0
LINE
  5
108
330
A
100
AcDbEntity
  8
1
  6
DASHED
 62
     7
100
AcDbLine
 10
280.926934699551
 20
-25.964426004587
 30
0.0
 11
281.9269346995509
 21
-24.232375197018
 31
0.0
  0
LINE
  5
107
330
A
100
AcDbEntity
  8
1
  6
DASHED
 62
     7
100
AcDbLine
 10
281.9269346995509
 20
-25.098400600802
 30
0.0
 11
283.9269346995509
 21
-25.098400600802
 31
0.0
  0
LINE
  5
106
330
A
100
AcDbEntity
  8
1
  6
DASH_CENTER
 62
     7
100
AcDbLine
 10
285.426934699551
 20
-25.964426004587
 30
0.0
 11
278.426934699551
 21
-25.964426004587
 31
0.0
  0
LINE
  5
105
330
A
100
AcDbEntity
  8
1
  6
Continuous
 62
     7
100
AcDbLine
 10
277.6821267335549
 20
58.663198539846
 30
0.0
 11
277.6821267335549
 21
87.53577790009199
 31
0.0
  0
LINE
  5
104
330
A
100
AcDbEntity
  8
1
  6
Continuous
 62
     7
100
AcDbLine
 10
306.2670475725949
 20
111.587145521665
 30
0.0
 11
300.735929004047
 21
112.5624309587968
 31
0.0
  0
LINE
  5
103
330
A
100
AcDbEntity
  8
1
  6
Continuous
 62
     7
100
AcDbLine
 10
306.0164094866109
 20
111.631339778617
 30
0.0
 11
311.675840514714
 21
129.970297224713
 31
0.0
  0
LINE
  5
102
330
A
100
AcDbEntity
  8
1
  6
Continuous
 62
     7
100
AcDbLine
 10
305.023882882462
 20
111.8063489979989
 30
0.0
 11
310.683313910565
 21
130.145306444095
 31
0.0
  0
LINE
  5
101
330
A
100
AcDbEntity
  8
1
  6
Continuous
 62
     7
100
AcDbLine
 10
307.1813591258198
 20
130.7627955578668
 30
0.0
 11
303.874559972167
 21
112.0090056366308
 31
0.0
  0
LINE
  5
100
330
A
100
AcDbEntity
  8
1
  6
Continuous
 62
     7
100
AcDbLine
 10
302.889752219155
 20
112.182653814297
 30
0.0
 11
306.196551372808
 21
130.9364437355339
 31
0.0
  0
LINE
  5
FF
330
A
100
AcDbEntity
  8
1
  6
Continuous
 62
     7
100
AcDbLine
 10
303.006747264086
 20
131.4988922630758
 30
0.0
 11
301.726469778882
 21
112.3877718947019
 31
0.0
  0
LINE
  5
FE
330
A
100
AcDbEntity
  8
1
  6
Continuous
 62
     7
100
AcDbLine
 10
300.735929004047
 20
112.5624309587968
 30
0.0
 11
302.012595070647
 21
131.6196425015879
 31
0.0
  0
LINE
  5
FD
330
A
100
AcDbEntity
  8
1
  6
Continuous
 62
     7
100
AcDbLine
 10
300.735929004047
 20
112.5624309587968
 30
0.0
 11
300.4972646187269
 21
112.604513929263
 31
0.0
  0
LINE
  5
FC
330
A
100
AcDbEntity
  8
1
  6
Continuous
 62
     7
100
AcDbLine
 10
275.2321267335549
 20
58.663198539846
 30
0.0
 11
275.2321267335549
 21
51.03557399541299
 31
0.0
  0
LINE
  5
FB
330
A
100
AcDbEntity
  8
1
  6
Continuous
 62
     7
100
AcDbLine
 10
273.1821267335549
 20
51.03557399541299
 30
0.0
 11
273.1821267335549
 21
58.663198539846
 31
0.0
  0
LINE
  5
FA
330
A
100
AcDbEntity
  8
1
  6
Continuous
 62
     7
100
AcDbLine
 10
277.6821267335549
 20
58.663198539846
 30
0.0
 11
270.6821267335549
 21
58.663198539846
 31
0.0
  0
LINE
  5
F9
330
A
100
AcDbEntity
  8
1
  6
Continuous
 62
     7
100
AcDbLine
 10
277.6821267335549
 20
118.549553602294
 30
0.0
 11
270.6821267335549
 21
118.549553602294
 31
0.0
  0
LINE
  5
F8
330
A
100
AcDbEntity
  8
1
  6
Continuous
 62
     7
100
AcDbLine
 10
276.8387436727069
 20
118.549553602294
 30
0.0
 11
277.4240129317668
 21
131.4619931880249
 31
0.0
  0
LINE
  5
F7
330
A
100
AcDbEntity
  8
1
  6
Continuous
 62
     7
100
AcDbLine
 10
274.7887436727069
 20
118.549553602294
 30
0.0
 11
275.374012931767
 21
131.4619931880249
 31
0.0
  0
LINE
  5
F6
330
A
100
AcDbEntity
  8
1
  6
Continuous
 62
     7
100
AcDbLine
 10
273.513153537055
 20
118.549553602294
 30
0.0
 11
273.031330989942
 21
131.4619931880249
 31
0.0
  0
LINE
  5
F5
330
A
100
AcDbEntity
  8
1
  6
Continuous
 62
     7
100
AcDbLine
 10
271.4631535370549
 20
118.549553602294
 30
0.0
 11
270.981330989942
 21
131.4619931880249
 31
0.0
  0
LINE
  5
F4
330
A
100
AcDbEntity
  8
1
  6
Continuous
 62
     7
100
AcDbLine
 10
270.6821267335549
 20
58.663198539846
 30
0.0
 11
270.6821267335549
 21
87.53577790009199
 31
0.0
  0
LINE
  5
F3
330
A
100
AcDbEntity
  8
1
  6
Continuous
 62
     7
100
AcDbLine
 10
272.204628294105
 20
50.035573995413
 30
0.0
 11
272.204628294105
 21
51.03557399541299
 31
0.0
  0
LINE
  5
F2
330
A
100
AcDbEntity
  8
1
  6
Continuous
 62
     7
100
AcDbLine
 10
276.207126733555
 20
51.03557399541299
 30
0.0
 11
272.204628294105
 21
51.03557399541299
 31
0.0
  0
LINE
  5
F1
330
A
100
AcDbEntity
  8
1
  6
Continuous
 62
     7
100
AcDbLine
 10
276.207126733555
 20
51.03557399541299
 30
0.0
 11
276.207126733555
 21
50.035573995413
 31
0.0
  0
LINE
  5
F0
330
A
100
AcDbEntity
  8
1
  6
Continuous
 62
     7
100
AcDbLine
 10
301.476934699551
 20
52.03557399541299
 30
0.0
 11
288.476934699551
 21
52.03557399541299
 31
0.0
  0
LINE
  5
EF
330
A
100
AcDbEntity
  8
1
  6
Continuous
 62
     7
100
AcDbLine
 10
291.476934699551
 20
57.03557399541299
 30
0.0
 11
291.476934699551
 21
52.03557399541299
 31
0.0
  0
LINE
  5
EE
330
A
100
AcDbEntity
  8
1
  6
Continuous
 62
     7
100
AcDbLine
 10
299.476934699551
 20
57.03557399541299
 30
0.0
 11
291.476934699551
 21
57.03557399541299
 31
0.0
  0
LINE
  5
ED
330
A
100
AcDbEntity
  8
1
  6
Continuous
 62
     7
100
AcDbLine
 10
301.476934699551
 20
52.03557399541299
 30
0.0
 11
301.476934699551
 21
50.035573995413
 31
0.0
  0
LINE
  5
EC
330
A
100
AcDbEntity
  8
1
  6
Continuous
 62
     7
100
AcDbLine
 10
299.476934699551
 20
52.03557399541299
 30
0.0
 11
299.476934699551
 21
57.03557399541299
 31
0.0
  0
LINE
  5
EB
330
A
100
AcDbEntity
  8
1
  6
Continuous
 62
     7
100
AcDbLine
 10
306.462535430357
 20
108.909555050142
 30
0.0
 11
304.254943963858
 21
96.38968170104201
 31
0.0
  0
LINE
  5
EA
330
A
100
AcDbEntity
  8
1
  6
Continuous
 62
     7
100
AcDbLine
 10
298.753491306604
 20
110.320141811543
 30
0.0
 11
296.5371314206258
 21
97.75054028446399
 31
0.0
  0
LINE
  5
E9
330
A
100
AcDbEntity
  8
1
  6
Continuous
 62
     7
100
AcDbLine
 10
296.5371314206258
 20
97.75054028446399
 30
0.0
 11
304.254943963858
 21
96.38968170104201
 31
0.0
  0
LINE
  5
E8
330
A
100
AcDbEntity
  8
1
  6
Continuous
 62
     7
100
AcDbLine
 10
311.476934699551
 20
-30.964426004587
 30
0.0
 11
290.4769346995508
 21
-30.964426004587
 31
0.0
  0
LINE
  5
E7
330
A
100
AcDbEntity
  8
1
  6
Continuous
 62
     7
100
AcDbLine
 10
277.6821267335549
 20
91.568630607475
 30
0.0
 11
277.6821267335549
 21
118.549553602294
 31
0.0
  0
LINE
  5
E6
330
A
100
AcDbEntity
  8
1
  6
Continuous
 62
     7
100
AcDbLine
 10
270.6821267335549
 20
91.568630607475
 30
0.0
 11
270.6821267335549
 21
118.549553602294
 31
0.0
  0
LINE
  5
E5
330
A
100
AcDbEntity
  8
1
  6
Continuous
 62
     7
100
AcDbLine
 10
206.235855468454
 20
-20.25572013342999
 30
0.0
 11
199.976934699551
 21
-20.25572013342999
 31
0.0
  0
LINE
  5
E4
330
A
100
AcDbEntity
  8
1
  6
DASH_CENTER
 62
     3
100
AcDbLine
 10
177.2560635057098
 20
-41.925950231654
 30
0.0
 11
192.476934699551
 21
-41.925950231654
 31
0.0
  0
LINE
  5
E3
330
A
100
AcDbEntity
  8
1
  6
Continuous
 62
     7
100
AcDbLine
 10
268.336947336094
 20
143.74961872713
 30
0.0
 11
269.2262154803608
 21
144.661993188025
 31
0.0
  0
LINE
  5
E2
330
A
100
AcDbEntity
  8
1
  6
Continuous
 62
     7
100
AcDbLine
 10
267.7262154803609
 20
145.068780979332
 30
0.0
 11
267.7262154803609
 21
147.161993188025
 31
0.0
  0
LINE
  5
E1
330
A
100
AcDbEntity
  8
1
  6
Continuous
 62
     7
100
AcDbLine
 10
266.926215480361
 20
145.068780979332
 30
0.0
 11
266.926215480361
 21
143.661993188025
 31
0.0
  0
LINE
  5
E0
330
A
100
AcDbEntity
  8
1
  6
Continuous
 62
     7
100
AcDbLine
 10
266.926215480361
 20
145.068780979332
 30
0.0
 11
267.7262154803609
 21
145.068780979332
 31
0.0
  0
LINE
  5
DF
330
A
100
AcDbEntity
  8
1
  6
Continuous
 62
     7
100
AcDbLine
 10
267.7262154803609
 20
143.661993188025
 30
0.0
 11
268.129178849458
 21
143.661993188025
 31
0.0
  0
LINE
  5
DE
330
A
100
AcDbEntity
  8
1
  6
Continuous
 62
     7
100
AcDbLine
 10
267.7262154803609
 20
143.661993188025
 30
0.0
 11
267.7262154803609
 21
145.068780979332
 31
0.0
  0
LINE
  5
DD
330
A
100
AcDbEntity
  8
1
  6
Continuous
 62
     7
100
AcDbLine
 10
266.926215480361
 20
143.661993188025
 30
0.0
 11
267.7262154803609
 21
143.661993188025
 31
0.0
  0
LINE
  5
DC
330
A
100
AcDbEntity
  8
1
  6
Continuous
 62
     7
100
AcDbLine
 10
266.926215480361
 20
147.161993188025
 30
0.0
 11
266.926215480361
 21
145.068780979332
 31
0.0
  0
LINE
  5
DB
330
A
100
AcDbEntity
  8
1
  6
Continuous
 62
     7
100
AcDbLine
 10
265.9262154803609
 20
143.661993188025
 30
0.0
 11
265.9262154803609
 21
146.761993188025
 31
0.0
  0
LINE
  5
DA
330
A
100
AcDbEntity
  8
1
  6
Continuous
 62
     7
100
AcDbLine
 10
265.9262154803609
 20
143.661993188025
 30
0.0
 11
266.926215480361
 21
143.661993188025
 31
0.0
  0
LINE
  5
D9
330
A
100
AcDbEntity
  8
1
  6
Continuous
 62
     7
100
AcDbLine
 10
265.9262154803609
 20
147.161993188025
 30
0.0
 11
265.9262154803609
 21
148.161993188025
 31
0.0
  0
LINE
  5
D8
330
A
100
AcDbEntity
  8
1
  6
Continuous
 62
     7
100
AcDbLine
 10
265.9262154803609
 20
147.161993188025
 30
0.0
 11
266.926215480361
 21
147.161993188025
 31
0.0
  0
LINE
  5
D7
330
A
100
AcDbEntity
  8
1
  6
Continuous
 62
     7
100
AcDbLine
 10
268.7262154803609
 20
147.161993188025
 30
0.0
 11
267.7262154803609
 21
147.161993188025
 31
0.0
  0
LINE
  5
D6
330
A
100
AcDbEntity
  8
1
  6
Continuous
 62
     7
100
AcDbLine
 10
268.7262154803609
 20
148.161993188025
 30
0.0
 11
268.7262154803609
 21
147.161993188025
 31
0.0
  0
LINE
  5
D5
330
A
100
AcDbEntity
  8
1
  6
Continuous
 62
     7
100
AcDbLine
 10
267.7262154803609
 20
149.161993188025
 30
0.0
 11
268.7262154803609
 21
148.161993188025
 31
0.0
  0
LINE
  5
D4
330
A
100
AcDbEntity
  8
1
  6
Continuous
 62
     7
100
AcDbLine
 10
266.926215480361
 20
149.161993188025
 30
0.0
 11
267.7262154803609
 21
149.161993188025
 31
0.0
  0
LINE
  5
D3
330
A
100
AcDbEntity
  8
1
  6
Continuous
 62
     7
100
AcDbLine
 10
265.9262154803609
 20
148.161993188025
 30
0.0
 11
266.926215480361
 21
149.161993188025
 31
0.0
  0
LINE
  5
D2
330
A
100
AcDbEntity
  8
1
  6
Continuous
 62
     7
100
AcDbLine
 10
265.9262154803609
 20
146.761993188025
 30
0.0
 11
265.9262154803609
 21
147.161993188025
 31
0.0
  0
LINE
  5
D1
330
A
100
AcDbEntity
  8
1
  6
Continuous
 62
     7
100
AcDbLine
 10
267.3262154803609
 20
137.1619931880248
 30
0.0
 11
268.143854574678
 21
141.712972199797
 31
0.0
  0
LINE
  5
D0
330
A
100
AcDbEntity
  8
1
  6
Continuous
 62
     7
100
AcDbLine
 10
265.3262154803609
 20
137.1619931880248
 30
0.0
 11
267.3262154803609
 21
137.1619931880248
 31
0.0
  0
LINE
  5
CF
330
A
100
AcDbEntity
  8
1
  6
Continuous
 62
     7
100
AcDbLine
 10
265.3262154803609
 20
146.161993188025
 30
0.0
 11
265.9262154803609
 21
146.761993188025
 31
0.0
  0
LINE
  5
CE
330
A
100
AcDbEntity
  8
1
  6
Continuous
 62
     7
100
AcDbLine
 10
265.3262154803609
 20
137.961993188025
 30
0.0
 11
265.3262154803609
 21
146.161993188025
 31
0.0
  0
LINE
  5
CD
330
A
100
AcDbEntity
  8
1
  6
Continuous
 62
     7
100
AcDbLine
 10
265.3262154803609
 20
137.961993188025
 30
0.0
 11
265.9262154803609
 21
137.961993188025
 31
0.0
  0
LINE
  5
CC
330
A
100
AcDbEntity
  8
1
  6
Continuous
 62
     7
100
AcDbLine
 10
265.9262154803609
 20
137.961993188025
 30
0.0
 11
265.9262154803609
 21
143.661993188025
 31
0.0
  0
LINE
  5
CB
330
A
100
AcDbEntity
  8
1
  6
Continuous
 62
     7
100
AcDbLine
 10
265.3262154803609
 20
137.1619931880248
 30
0.0
 11
265.3262154803609
 21
137.961993188025
 31
0.0
  0
LINE
  5
CA
330
A
100
AcDbEntity
  8
1
  6
Continuous
 62
     7
100
AcDbLine
 10
268.2262154803609
 20
131.4619931880249
 30
0.0
 11
274.126215480361
 21
131.4619931880249
 31
0.0
  0
LINE
  5
C9
330
A
100
AcDbEntity
  8
1
  6
Continuous
 62
     7
100
AcDbLine
 10
269.2262154803608
 20
144.661993188025
 30
0.0
 11
274.126215480361
 21
144.661993188025
 31
0.0
  0
LINE
  5
C8
330
A
100
AcDbEntity
  8
1
  6
Continuous
 62
     7
100
AcDbLine
 10
274.126215480361
 20
144.661993188025
 30
0.0
 11
279.0262154803609
 21
144.661993188025
 31
0.0
  0
LINE
  5
C7
330
A
100
AcDbEntity
  8
1
  6
Continuous
 62
     7
100
AcDbLine
 10
274.126215480361
 20
131.4619931880249
 30
0.0
 11
280.0262154803609
 21
131.4619931880249
 31
0.0
  0
LINE
  5
C6
330
A
100
AcDbEntity
  8
1
  6
Continuous
 62
     7
100
AcDbLine
 10
279.0262154803609
 20
132.4619931880249
 30
0.0
 11
279.5262154803609
 21
132.4619931880249
 31
0.0
  0
LINE
  5
C5
330
A
100
AcDbEntity
  8
1
  6
Continuous
 62
     7
100
AcDbLine
 10
279.0262154803609
 20
144.661993188025
 30
0.0
 11
279.0262154803609
 21
132.4619931880249
 31
0.0
  0
LINE
  5
C4
330
A
100
AcDbEntity
  8
1
  6
Continuous
 62
     7
100
AcDbLine
 10
280.0262154803609
 20
131.9619931880249
 30
0.0
 11
280.0262154803609
 21
131.4619931880249
 31
0.0
  0
LINE
  5
C3
330
A
100
AcDbEntity
  8
1
  6
Continuous
 62
     7
100
AcDbLine
 10
274.686215480361
 20
155.161993188025
 30
0.0
 11
278.1262154803608
 21
155.161993188025
 31
0.0
  0
LINE
  5
C2
330
A
100
AcDbEntity
  8
1
  6
Continuous
 62
     7
100
AcDbLine
 10
274.686215480361
 20
144.661993188025
 30
0.0
 11
274.686215480361
 21
155.161993188025
 31
0.0
  0
LINE
  5
C1
330
A
100
AcDbEntity
  8
1
  6
Continuous
 62
     7
100
AcDbLine
 10
278.1262154803608
 20
155.161993188025
 30
0.0
 11
278.1262154803608
 21
144.661993188025
 31
0.0
  0
LINE
  5
C0
330
A
100
AcDbEntity
  8
1
  6
DASH_CENTER
 62
     7
100
AcDbLine
 10
274.126215480361
 20
144.661993188025
 30
0.0
 11
274.126215480361
 21
155.815309474824
 31
0.0
  0
LINE
  5
BF
330
A
100
AcDbEntity
  8
1
  6
DASH_CENTER
 62
     7
100
AcDbLine
 10
274.126215480361
 20
131.4619931880249
 30
0.0
 11
274.126215480361
 21
144.661993188025
 31
0.0
  0
LINE
  5
BE
330
A
100
AcDbEntity
  8
1
  6
Continuous
 62
     7
100
AcDbLine
 10
268.7262154803609
 20
132.4619931880249
 30
0.0
 11
269.2262154803608
 21
132.4619931880249
 31
0.0
  0
LINE
  5
BD
330
A
100
AcDbEntity
  8
1
  6
Continuous
 62
     7
100
AcDbLine
 10
269.2262154803608
 20
132.4619931880249
 30
0.0
 11
269.2262154803608
 21
141.616514700629
 31
0.0
  0
LINE
  5
BC
330
A
100
AcDbEntity
  8
1
  6
Continuous
 62
     7
100
AcDbLine
 10
268.2262154803609
 20
131.4619931880249
 30
0.0
 11
268.2262154803609
 21
131.9619931880249
 31
0.0
  0
LINE
  5
BB
330
A
100
AcDbEntity
  8
1
  6
Continuous
 62
     7
100
AcDbLine
 10
270.126215480361
 20
155.161993188025
 30
0.0
 11
273.5662154803609
 21
155.161993188025
 31
0.0
  0
LINE
  5
BA
330
A
100
AcDbEntity
  8
1
  6
Continuous
 62
     7
100
AcDbLine
 10
273.5662154803609
 20
155.161993188025
 30
0.0
 11
273.5662154803609
 21
144.661993188025
 31
0.0
  0
LINE
  5
B9
330
A
100
AcDbEntity
  8
1
  6
Continuous
 62
     7
100
AcDbLine
 10
270.126215480361
 20
144.661993188025
 30
0.0
 11
270.126215480361
 21
155.161993188025
 31
0.0
  0
LINE
  5
B8
330
A
100
AcDbEntity
  8
1
  6
DASH_CENTER
 62
     7
100
AcDbLine
 10
274.126215480361
 20
130.4147058327479
 30
0.0
 11
274.126215480361
 21
131.4619931880249
 31
0.0
  0
LINE
  5
B7
330
A
100
AcDbEntity
  8
1
  6
Continuous
 62
     7
100
AcDbLine
 10
315.1466452387508
 20
129.866014013038
 30
0.0
 11
315.059821149917
 21
129.3736101365319
 31
0.0
  0
LINE
  5
B6
330
A
100
AcDbEntity
  8
1
  6
DASH_CENTER
 62
     7
100
AcDbLine
 10
307.0333714579578
 20
129.9235157875959
 30
0.0
 11
311.4301424892738
 21
154.858843402516
 31
0.0
  0
LINE
  5
B5
330
A
100
AcDbEntity
  8
1
  6
Continuous
 62
     7
100
AcDbLine
 10
303.466187777648
 20
144.8215117813969
 30
0.0
 11
305.2894936431508
 21
155.161993188025
 31
0.0
  0
LINE
  5
B4
330
A
100
AcDbEntity
  8
1
  6
Continuous
 62
     7
100
AcDbLine
 10
308.6378400033928
 20
154.571589383957
 30
0.0
 11
306.8145341378898
 21
144.231107977329
 31
0.0
  0
LINE
  5
B3
330
A
100
AcDbEntity
  8
1
  6
Continuous
 62
     7
100
AcDbLine
 10
305.2894936431508
 20
155.161993188025
 30
0.0
 11
308.6378400033928
 21
154.571589383957
 31
0.0
  0
LINE
  5
B2
330
A
100
AcDbEntity
  8
1
  6
Continuous
 62
     7
100
AcDbLine
 10
299.302897101722
 20
132.1519809792029
 30
0.0
 11
299.3897211905558
 21
132.644384855709
 31
0.0
  0
LINE
  5
B1
330
A
100
AcDbEntity
  8
1
  6
Continuous
 62
     7
100
AcDbLine
 10
300.461353032401
 20
132.963140554548
 30
0.0
 11
302.0510190104768
 21
141.978584315277
 31
0.0
  0
LINE
  5
B0
330
A
100
AcDbEntity
  8
1
  6
Continuous
 62
     7
100
AcDbLine
 10
299.968949155895
 20
133.049964643381
 30
0.0
 11
300.461353032401
 21
132.963140554548
 31
0.0
  0
LINE
  5
AF
330
A
100
AcDbEntity
  8
1
  6
Continuous
 62
     7
100
AcDbLine
 10
317.3041482299
 20
153.0434854204879
 30
0.0
 11
315.480842364398
 21
142.70300401386
 31
0.0
  0
LINE
  5
AE
330
A
100
AcDbEntity
  8
1
  6
Continuous
 62
     7
100
AcDbLine
 10
307.799341890902
 20
144.057459799662
 30
0.0
 11
309.622647756405
 21
154.39794120629
 31
0.0
  0
LINE
  5
AD
330
A
100
AcDbEntity
  8
1
  6
Continuous
 62
     7
100
AcDbLine
 10
309.622647756405
 20
154.39794120629
 30
0.0
 11
312.9709941166468
 21
153.807537402223
 31
0.0
  0
LINE
  5
AC
330
A
100
AcDbEntity
  8
1
  6
Continuous
 62
     7
100
AcDbLine
 10
316.3671693421088
 20
142.54672065396
 30
0.0
 11
314.248661574572
 21
130.5320660672109
 31
0.0
  0
LINE
  5
AB
330
A
100
AcDbEntity
  8
1
  6
Continuous
 62
     7
100
AcDbLine
 10
314.248661574572
 20
130.5320660672109
 30
0.0
 11
314.741065451078
 21
130.4452419783769
 31
0.0
  0
LINE
  5
AA
330
A
100
AcDbEntity
  8
1
  6
Continuous
 62
     7
100
AcDbLine
 10
311.1476882511438
 20
143.4670559955949
 30
0.0
 11
302.5798607999368
 21
144.977795141297
 31
0.0
  0
LINE
  5
A9
330
A
100
AcDbEntity
  8
1
  6
Continuous
 62
     7
100
AcDbLine
 10
315.059821149917
 20
129.3736101365319
 30
0.0
 11
299.302897101722
 21
132.1519809792029
 31
0.0
  0
LINE
  5
A8
330
A
100
AcDbEntity
  8
1
  6
Continuous
 62
     7
100
AcDbLine
 10
297.436749230688
 20
138.268964886606
 30
0.0
 11
297.5756677728218
 21
139.056811089016
 31
0.0
  0
LINE
  5
A7
330
A
100
AcDbEntity
  8
1
  6
Continuous
 62
     7
100
AcDbLine
 10
298.166552424629
 20
138.952622182416
 30
0.0
 11
299.1563470373298
 21
144.566026374585
 31
0.0
  0
LINE
  5
A6
330
A
100
AcDbEntity
  8
1
  6
Continuous
 62
     7
100
AcDbLine
 10
297.5756677728218
 20
139.056811089016
 30
0.0
 11
298.166552424629
 21
138.952622182416
 31
0.0
  0
LINE
  5
A5
330
A
100
AcDbEntity
  8
1
  6
Continuous
 62
     7
100
AcDbLine
 10
297.5756677728218
 20
139.056811089016
 30
0.0
 11
298.9995828296898
 21
147.1322346637158
 31
0.0
  0
LINE
  5
A4
330
A
100
AcDbEntity
  8
1
  6
Continuous
 62
     7
100
AcDbLine
 10
298.9995828296898
 20
147.1322346637158
 30
0.0
 11
299.694656388098
 21
147.6189304089228
 31
0.0
  0
LINE
  5
A3
330
A
100
AcDbEntity
  8
1
  6
Continuous
 62
     7
100
AcDbLine
 10
297.436749230688
 20
138.268964886606
 30
0.0
 11
299.406364736712
 21
137.9216685312719
 31
0.0
  0
LINE
  5
A2
330
A
100
AcDbEntity
  8
1
  6
Continuous
 62
     7
100
AcDbLine
 10
299.406364736712
 20
137.9216685312719
 30
0.0
 11
301.001851267956
 21
142.2615264071438
 31
0.0
  0
LINE
  5
A1
330
A
100
AcDbEntity
  8
1
  6
Continuous
 62
     7
100
AcDbLine
 10
299.694656388098
 20
147.6189304089228
 30
0.0
 11
299.764115659164
 21
148.012853510128
 31
0.0
  0
LINE
  5
A0
330
A
100
AcDbEntity
  8
1
  6
Continuous
 62
     7
100
AcDbLine
 10
299.9377638368319
 20
148.997661263141
 30
0.0
 11
301.096219767511
 21
149.808820838486
 31
0.0
  0
LINE
  5
9F
330
A
100
AcDbEntity
  8
1
  6
Continuous
 62
     7
100
AcDbLine
 10
301.096219767511
 20
149.808820838486
 30
0.0
 11
301.8840659699208
 21
149.669902296352
 31
0.0
  0
LINE
  5
9E
330
A
100
AcDbEntity
  8
1
  6
Continuous
 62
     7
100
AcDbLine
 10
301.8840659699208
 20
149.669902296352
 30
0.0
 11
302.695225545266
 21
148.511446365673
 31
0.0
  0
LINE
  5
9D
330
A
100
AcDbEntity
  8
1
  6
Continuous
 62
     7
100
AcDbLine
 10
302.695225545266
 20
148.511446365673
 30
0.0
 11
302.5215773675988
 21
147.526638612661
 31
0.0
  0
LINE
  5
9C
330
A
100
AcDbEntity
  8
1
  6
Continuous
 62
     7
100
AcDbLine
 10
302.5215773675988
 20
147.526638612661
 30
0.0
 11
301.536769614587
 21
147.700286790328
 31
0.0
  0
LINE
  5
9B
330
A
100
AcDbEntity
  8
1
  6
Continuous
 62
     7
100
AcDbLine
 10
299.764115659164
 20
148.012853510128
 30
0.0
 11
300.748923412177
 21
147.8392053324608
 31
0.0
  0
LINE
  5
9A
330
A
100
AcDbEntity
  8
1
  6
Continuous
 62
     7
100
AcDbLine
 10
299.764115659164
 20
148.012853510128
 30
0.0
 11
299.9377638368319
 21
148.997661263141
 31
0.0
  0
LINE
  5
99
330
A
100
AcDbEntity
  8
1
  6
Continuous
 62
     7
100
AcDbLine
 10
299.1563470373298
 20
144.566026374585
 30
0.0
 11
300.141154790343
 21
144.3923781969189
 31
0.0
  0
LINE
  5
98
330
A
100
AcDbEntity
  8
1
  6
Continuous
 62
     7
100
AcDbLine
 10
299.1563470373298
 20
144.566026374585
 30
0.0
 11
299.694656388098
 21
147.6189304089228
 31
0.0
  0
LINE
  5
97
330
A
100
AcDbEntity
  8
1
  6
Continuous
 62
     7
100
AcDbLine
 10
300.748923412177
 20
147.8392053324608
 30
0.0
 11
300.3854409266669
 21
145.777793720641
 31
0.0
  0
LINE
  5
96
330
A
100
AcDbEntity
  8
1
  6
Continuous
 62
     7
100
AcDbLine
 10
300.141154790343
 20
144.3923781969189
 30
0.0
 11
300.9290009927518
 21
144.2534596547849
 31
0.0
  0
LINE
  5
95
330
A
100
AcDbEntity
  8
1
  6
Continuous
 62
     7
100
AcDbLine
 10
300.9290009927518
 20
144.2534596547849
 30
0.0
 11
301.173287129077
 21
145.6388751785079
 31
0.0
  0
LINE
  5
94
330
A
100
AcDbEntity
  8
1
  6
Continuous
 62
     7
100
AcDbLine
 10
300.9290009927518
 20
144.2534596547849
 30
0.0
 11
301.325842442819
 21
144.183485800075
 31
0.0
  0
LINE
  5
93
330
A
100
AcDbEntity
  8
1
  6
Continuous
 62
     7
100
AcDbLine
 10
300.3854409266669
 20
145.777793720641
 30
0.0
 11
301.173287129077
 21
145.6388751785079
 31
0.0
  0
LINE
  5
92
330
A
100
AcDbEntity
  8
1
  6
Continuous
 62
     7
100
AcDbLine
 10
300.3854409266669
 20
145.777793720641
 30
0.0
 11
300.141154790343
 21
144.3923781969189
 31
0.0
  0
LINE
  5
91
330
A
100
AcDbEntity
  8
1
  6
Continuous
 62
     7
100
AcDbLine
 10
301.173287129077
 20
145.6388751785079
 30
0.0
 11
301.536769614587
 21
147.700286790328
 31
0.0
  0
LINE
  5
90
330
A
100
AcDbEntity
  8
1
  6
Continuous
 62
     7
100
AcDbLine
 10
301.545670474473
 20
144.2337014912669
 30
0.0
 11
302.5798607999368
 21
144.977795141297
 31
0.0
  0
LINE
  5
8F
330
A
100
AcDbEntity
  8
1
  6
Continuous
 62
     7
100
AcDbLine
 10
312.9709941166468
 20
153.807537402223
 30
0.0
 11
311.1476882511438
 21
143.4670559955949
 31
0.0
  0
LINE
  5
8E
330
A
100
AcDbEntity
  8
1
  6
Continuous
 62
     7
100
AcDbLine
 10
311.1476882511438
 20
143.4670559955949
 30
0.0
 11
312.132496004156
 21
143.293407817928
 31
0.0
  0
LINE
  5
8D
330
A
100
AcDbEntity
  8
1
  6
Continuous
 62
     7
100
AcDbLine
 10
312.132496004156
 20
143.293407817928
 30
0.0
 11
313.955801869659
 21
153.633889224556
 31
0.0
  0
LINE
  5
8C
330
A
100
AcDbEntity
  8
1
  6
Continuous
 62
     7
100
AcDbLine
 10
312.132496004156
 20
143.293407817928
 30
0.0
 11
316.3671693421088
 21
142.54672065396
 31
0.0
  0
LINE
  5
8B
330
A
100
AcDbEntity
  8
1
  6
Continuous
 62
     7
100
AcDbLine
 10
313.955801869659
 20
153.633889224556
 30
0.0
 11
317.3041482299
 21
153.0434854204879
 31
0.0
  0
INSERT
  5
3A
330
A
100
AcDbEntity
  8
0
100
AcDbBlockReference
  2
PAN_SCREW_TOP
 10
0.0
 20
0.0
 30
0.0
  0
INSERT
  5
3B
330
A
100
AcDbEntity
  8
0
100
AcDbBlockReference
  2
HEX_BOLT_SIDE__1
 10
0.0
 20
0.0
 30
0.0
  0
INSERT
  5
3C
330
A
100
AcDbEntity
  8
0
100
AcDbBlockReference
  2
HEX_BOLT_SIDE__2
 10
0.0
 20
0.0
 30
0.0
  0
INSERT
  5
3D
330
A
100
AcDbEntity
  8
0
100
AcDbBlockReference
  2
HEX_BOLT_SIDE__3
 10
0.0
 20
0.0
 30
0.0
  0
INSERT
  5
3E
330
A
100
AcDbEntity
  8
0
100
AcDbBlockReference
  2
HEX_BOLT_SIDE__4
 10
0.0
 20
0.0
 30
0.0
  0
INSERT
  5
3F
330
A
100
AcDbEntity
  8
0
100
AcDbBlockReference
  2
HEX_BOLT_SIDE__5
 10
0.0
 20
0.0
 30
0.0
  0
INSERT
  5
40
330
A
100
AcDbEntity
  8
0
100
AcDbBlockReference
  2
HEX_BOLT_SIDE__6
 10
0.0
 20
0.0
 30
0.0
  0
INSERT
  5
41
330
A
100
AcDbEntity
  8
0
100
AcDbBlockReference
  2
HEX_BOLT_SIDE__7
 10
0.0
 20
0.0
 30
0.0
  0
INSERT
  5
42
330
A
100
AcDbEntity
  8
0
100
AcDbBlockReference
  2
HEX_BOLT_SIDE__8
 10
0.0
 20
0.0
 30
0.0
  0
SOLID
  5
272
330
A
100
AcDbEntity
  8
0
 62
     3
100
AcDbTrace
 10
318.6744262987588
 20
146.1506749545239
 30
0.0
 11
319.2299107187138
 21
145.4153357912008
 31
0.0
 12
316.1594407717078
 22
143.673343839149
 32
0.0
 13
316.1594407717078
 23
143.673343839149
 33
0.0
  0
SOLID
  5
274
330
A
100
AcDbEntity
  8
0
 62
     3
100
AcDbTrace
 10
267.0926657176898
 20
152.8893231141398
 30
0.0
 11
267.81332444916
 21
153.463725080263
 31
0.0
 12
269.63450313169
 22
150.4395508354839
 32
0.0
 13
269.63450313169
 23
150.4395508354839
 33
0.0
  0
SOLID
  5
276
330
A
100
AcDbEntity
  8
0
 62
     3
100
AcDbTrace
 10
266.922878194836
 20
108.87632239088
 30
0.0
 11
267.5844048382399
 21
109.5179368592289
 31
0.0
 12
269.6904143849108
 22
106.684732763895
 32
0.0
 13
269.6904143849108
 23
106.684732763895
 33
0.0
  0
SOLID
  5
278
330
A
100
AcDbEntity
  8
0
 62
     3
100
AcDbTrace
 10
305.1077846005278
 20
95.64979017329099
 30
0.0
 11
305.7594312171568
 21
94.99814355666201
 31
0.0
 12
302.9587341746888
 22
92.84909313082399
 32
0.0
 13
302.9587341746888
 23
92.84909313082399
 33
0.0
  0
INSERT
  5
2AA
330
A
100
AcDbEntity
  8
0
  6
Continuous
100
AcDbBlockReference
  2
NTC
 10
-226.5444180049196
 20
-140.4773349031065
 30
0.0
 41
0.85
 42
0.85
 43
0.85
  0
INSERT
  5
319
330
A
100
AcDbEntity
  8
0
  6
Continuous
100
AcDbBlockReference
  2
HD logo-new
 10
132.3153906847923
 20
-186.5557663495803
 30
0.0
 41
2.0
 42
2.0
 43
2.0
  0
INSERT
  5
324
330
A
100
AcDbEntity
  8
0
  6
Continuous
100
AcDbBlockReference
  2
HD LLC
 10
307.2844631903728
 20
-202.6897789320214
 30
0.0
 41
1.768193976430968
 42
1.768193976430968
 43
1.768193976430968
  0
ENDSEC
  0
SECTION
  2
OBJECTS
  0
DICTIONARY
  5
19
330
0
100
AcDbDictionary
281
     1
  3
ACAD_GROUP
350
1A
  3
ACAD_LAYOUT
350
29A
  3
ACAD_MLINESTYLE
350
1B
  3
ACAD_PLOTSETTINGS
350
29B
  3
ACAD_PLOTSTYLENAME
350
298
  3
AcDbVariableDictionary
350
326
  0
DICTIONARY
  5
1A
102
{ACAD_REACTORS
330
19
102
}
330
19
100
AcDbDictionary
281
     1
  0
DICTIONARY
  5
29A
102
{ACAD_REACTORS
330
19
102
}
330
19
100
AcDbDictionary
281
     1
  3
Layout1
350
29D
  3
Model
350
29C
  0
DICTIONARY
  5
1B
102
{ACAD_REACTORS
330
19
102
}
330
19
100
AcDbDictionary
281
     1
  3
STANDARD
350
1C
  0
DICTIONARY
  5
29B
102
{ACAD_REACTORS
330
19
102
}
330
19
100
AcDbDictionary
281
     1
  0
ACDBDICTIONARYWDFLT
  5
298
102
{ACAD_REACTORS
330
19
102
}
330
19
100
AcDbDictionary
281
     1
  3
Normal
350
299
100
AcDbDictionaryWithDefault
340
299
  0
DICTIONARY
  5
326
102
{ACAD_REACTORS
330
19
102
}
330
19
100
AcDbDictionary
281
     1
  3
DIMASSOC
350
327
  0
LAYOUT
  5
29D
102
{ACAD_REACTORS
330
29A
102
}
330
29A
100
AcDbPlotSettings
  1

  2
\\harmonic-nt2\Sales_5100
  4

  6

 40
0.0
 41
0.0
 42
0.0
 43
0.0
 44
0.0
 45
0.0
 46
0.0
 47
0.0
 48
0.0
 49
0.0
140
0.0
141
0.0
142
1.0
143
1.0
 70
   688
 72
     0
 73
     0
 74
     5
  7

 75
    16
147
1.0
148
0.0
149
0.0
100
AcDbLayout
  1
Layout1
 70
     0
 71
     1
 10
0.0
 20
0.0
 11
12.0
 21
9.0
 12
0.0
 22
0.0
 32
0.0
 14
1.000000000000000E+20
 24
1.000000000000000E+20
 34
1.000000000000000E+20
 15
-1.000000000000000E+20
 25
-1.000000000000000E+20
 35
-1.000000000000000E+20
146
0.0
 13
0.0
 23
0.0
 33
0.0
 16
1.0
 26
0.0
 36
0.0
 17
0.0
 27
1.0
 37
0.0
 76
     0
330
B
  0
LAYOUT
  5
29C
102
{ACAD_REACTORS
330
29A
102
}
330
29A
100
AcDbPlotSettings
  1

  2
\\harmonic-nt2\Sales_5100
  4

  6

 40
0.0
 41
0.0
 42
0.0
 43
0.0
 44
0.0
 45
0.0
 46
0.0
 47
0.0
 48
0.0
 49
0.0
140
0.0
141
0.0
142
1.0
143
1.0
 70
  1712
 72
     0
 73
     0
 74
     0
  7

 75
     0
147
1.0
148
0.0
149
0.0
100
AcDbLayout
  1
Model
 70
     1
 71
     0
 10
0.0
 20
0.0
 11
12.0
 21
9.0
 12
0.0
 22
0.0
 32
0.0
 14
0.0
 24
0.0
 34
0.0
 15
0.0
 25
0.0
 35
0.0
146
0.0
 13
0.0
 23
0.0
 33
0.0
 16
1.0
 26
0.0
 36
0.0
 17
0.0
 27
1.0
 37
0.0
 76
     0
330
A
  0
MLINESTYLE
  5
1C
102
{ACAD_REACTORS
330
1B
102
}
330
1B
100
AcDbMlineStyle
  2
STANDARD
 70
     0
  3

 62
     0
 51
90.0
 52
90.0
 71
     2
 49
0.5
 62
   256
  6
BYLAYER
 49
-0.5
 62
   256
  6
BYLAYER
  0
ACDBPLACEHOLDER
  5
299
102
{ACAD_REACTORS
330
298
102
}
330
298
  0
DICTIONARYVAR
  5
327
102
{ACAD_REACTORS
330
326
102
}
330
326
100
DictionaryVariables
280
     0
  1
1
  0
ENDSEC
  0
EOF
