  0
SECTION
  2
HEADER
  9
$ACADVER
  1
AC1018
  9
$ACADMAINTVER
 70
   104
  9
$DWGCODEPAGE
  3
ANSI_1252
  9
$LASTSAVEDBY
  1
mstonge
  9
$INSBASE
 10
0.0
 20
0.0
 30
0.0
  9
$EXTMIN
 10
-568.769093345454
 20
158.978797620473
 30
0.0
  9
$EXTMAX
 10
-57.919925852404
 20
413.1172184871489
 30
0.0
  9
$LIMMIN
 10
0.0
 20
0.0
  9
$LIMMAX
 10
0.0
 20
0.0
  9
$ORTHOMODE
 70
     0
  9
$REGENMODE
 70
     1
  9
$FILLMODE
 70
     1
  9
$QTEXTMODE
 70
     0
  9
$MIRRTEXT
 70
     1
  9
$LTSCALE
 40
1.0
  9
$ATTMODE
 70
     1
  9
$TEXTSIZE
 40
0.0
  9
$TRACEWID
 40
0.05
  9
$TEXTSTYLE
  7
STANDARD
  9
$CLAYER
  8
0
  9
$CELTYPE
  6
CONTINUOUS
  9
$CECOLOR
 62
   256
  9
$CELTSCALE
 40
1.0
  9
$DISPSILH
 70
     0
  9
$DIMSCALE
 40
1.0
  9
$DIMASZ
 40
0.18
  9
$DIMEXO
 40
0.0625
  9
$DIMDLI
 40
0.38
  9
$DIMRND
 40
0.0
  9
$DIMDLE
 40
0.0
  9
$DIMEXE
 40
0.18
  9
$DIMTP
 40
0.0
  9
$DIMTM
 40
0.0
  9
$DIMTXT
 40
0.18
  9
$DIMCEN
 40
0.09
  9
$DIMTSZ
 40
0.0
  9
$DIMTOL
 70
     0
  9
$DIMLIM
 70
     0
  9
$DIMTIH
 70
     1
  9
$DIMTOH
 70
     1
  9
$DIMSE1
 70
     0
  9
$DIMSE2
 70
     0
  9
$DIMTAD
 70
     0
  9
$DIMZIN
 70
     0
  9
$DIMBLK
  1

  9
$DIMASO
 70
     1
  9
$DIMSHO
 70
     1
  9
$DIMPOST
  1

  9
$DIMAPOST
  1

  9
$DIMALT
 70
     0
  9
$DIMALTD
 70
     2
  9
$DIMALTF
 40
25.4
  9
$DIMLFAC
 40
1.0
  9
$DIMTOFL
 70
     0
  9
$DIMTVP
 40
0.0
  9
$DIMTIX
 70
     0
  9
$DIMSOXD
 70
     0
  9
$DIMSAH
 70
     0
  9
$DIMBLK1
  1

  9
$DIMBLK2
  1

  9
$DIMSTYLE
  2
STANDARD
  9
$DIMCLRD
 70
     0
  9
$DIMCLRE
 70
     0
  9
$DIMCLRT
 70
     0
  9
$DIMTFAC
 40
1.0
  9
$DIMGAP
 40
0.09
  9
$DIMJUST
 70
     0
  9
$DIMSD1
 70
     0
  9
$DIMSD2
 70
     0
  9
$DIMTOLJ
 70
     1
  9
$DIMTZIN
 70
     0
  9
$DIMALTZ
 70
     0
  9
$DIMALTTZ
 70
     0
  9
$DIMUPT
 70
     0
  9
$DIMDEC
 70
     4
  9
$DIMTDEC
 70
     4
  9
$DIMALTU
 70
     2
  9
$DIMALTTD
 70
     2
  9
$DIMTXSTY
  7
STANDARD
  9
$DIMAUNIT
 70
     0
  9
$DIMADEC
 70
     0
  9
$DIMALTRND
 40
0.0
  9
$DIMAZIN
 70
     0
  9
$DIMDSEP
 70
    46
  9
$DIMATFIT
 70
     3
  9
$DIMFRAC
 70
     0
  9
$DIMLDRBLK
  1

  9
$DIMLUNIT
 70
     2
  9
$DIMLWD
 70
    -2
  9
$DIMLWE
 70
    -2
  9
$DIMTMOVE
 70
     0
  9
$LUNITS
 70
     2
  9
$LUPREC
 70
     4
  9
$SKETCHINC
 40
0.1
  9
$FILLETRAD
 40
0.0
  9
$AUNITS
 70
     0
  9
$AUPREC
 70
     0
  9
$MENU
  1
acad
  9
$ELEVATION
 40
0.0
  9
$PELEVATION
 40
0.0
  9
$THICKNESS
 40
0.0
  9
$LIMCHECK
 70
     0
  9
$CHAMFERA
 40
0.0
  9
$CHAMFERB
 40
0.0
  9
$CHAMFERC
 40
0.0
  9
$CHAMFERD
 40
0.0
  9
$SKPOLY
 70
     0
  9
$TDCREATE
 40
2305814.000000000
  9
$TDUCREATE
 40
2305814.166666666
  9
$TDUPDATE
 40
2456840.486504039
  9
$TDUUPDATE
 40
2456840.653170706
  9
$TDINDWG
 40
0.0003461111
  9
$TDUSRTIMER
 40
0.0003461111
  9
$USRTIMER
 70
     1
  9
$ANGBASE
 50
0.0
  9
$ANGDIR
 70
     0
  9
$PDMODE
 70
     0
  9
$PDSIZE
 40
0.0
  9
$PLINEWID
 40
0.0
  9
$SPLFRAME
 70
     0
  9
$SPLINETYPE
 70
     6
  9
$SPLINESEGS
 70
     8
  9
$HANDSEED
  5
437
  9
$SURFTAB1
 70
     6
  9
$SURFTAB2
 70
     6
  9
$SURFTYPE
 70
     6
  9
$SURFU
 70
     6
  9
$SURFV
 70
     6
  9
$UCSBASE
  2

  9
$UCSNAME
  2

  9
$UCSORG
 10
0.0
 20
0.0
 30
0.0
  9
$UCSXDIR
 10
1.0
 20
0.0
 30
0.0
  9
$UCSYDIR
 10
0.0
 20
1.0
 30
0.0
  9
$UCSORTHOREF
  2

  9
$UCSORTHOVIEW
 70
     0
  9
$UCSORGTOP
 10
0.0
 20
0.0
 30
0.0
  9
$UCSORGBOTTOM
 10
0.0
 20
0.0
 30
0.0
  9
$UCSORGLEFT
 10
0.0
 20
0.0
 30
0.0
  9
$UCSORGRIGHT
 10
0.0
 20
0.0
 30
0.0
  9
$UCSORGFRONT
 10
0.0
 20
0.0
 30
0.0
  9
$UCSORGBACK
 10
0.0
 20
0.0
 30
0.0
  9
$PUCSBASE
  2

  9
$PUCSNAME
  2

  9
$PUCSORG
 10
0.0
 20
0.0
 30
0.0
  9
$PUCSXDIR
 10
1.0
 20
0.0
 30
0.0
  9
$PUCSYDIR
 10
0.0
 20
1.0
 30
0.0
  9
$PUCSORTHOREF
  2

  9
$PUCSORTHOVIEW
 70
     0
  9
$PUCSORGTOP
 10
0.0
 20
0.0
 30
0.0
  9
$PUCSORGBOTTOM
 10
0.0
 20
0.0
 30
0.0
  9
$PUCSORGLEFT
 10
0.0
 20
0.0
 30
0.0
  9
$PUCSORGRIGHT
 10
0.0
 20
0.0
 30
0.0
  9
$PUCSORGFRONT
 10
0.0
 20
0.0
 30
0.0
  9
$PUCSORGBACK
 10
0.0
 20
0.0
 30
0.0
  9
$USERI1
 70
     0
  9
$USERI2
 70
     0
  9
$USERI3
 70
     0
  9
$USERI4
 70
     0
  9
$USERI5
 70
     0
  9
$USERR1
 40
0.0
  9
$USERR2
 40
0.0
  9
$USERR3
 40
0.0
  9
$USERR4
 40
0.0
  9
$USERR5
 40
0.0
  9
$WORLDVIEW
 70
     1
  9
$SHADEDGE
 70
     3
  9
$SHADEDIF
 70
    70
  9
$TILEMODE
 70
     1
  9
$MAXACTVP
 70
    16
  9
$PINSBASE
 10
0.0
 20
0.0
 30
0.0
  9
$PLIMCHECK
 70
     0
  9
$PEXTMIN
 10
1.000000000000000E+20
 20
1.000000000000000E+20
 30
1.000000000000000E+20
  9
$PEXTMAX
 10
-1.000000000000000E+20
 20
-1.000000000000000E+20
 30
-1.000000000000000E+20
  9
$PLIMMIN
 10
0.0
 20
0.0
  9
$PLIMMAX
 10
12.0
 20
9.0
  9
$UNITMODE
 70
     0
  9
$VISRETAIN
 70
     0
  9
$PLINEGEN
 70
     1
  9
$PSLTSCALE
 70
     0
  9
$TREEDEPTH
 70
  3020
  9
$CMLSTYLE
  2
STANDARD
  9
$CMLJUST
 70
     0
  9
$CMLSCALE
 40
1.0
  9
$PROXYGRAPHICS
 70
     0
  9
$MEASUREMENT
 70
     0
  9
$CELWEIGHT
370
    -1
  9
$ENDCAPS
280
     0
  9
$JOINSTYLE
280
     0
  9
$LWDISPLAY
290
     0
  9
$INSUNITS
 70
     0
  9
$HYPERLINKBASE
  1

  9
$STYLESHEET
  1

  9
$XEDIT
290
     1
  9
$CEPSNTYPE
380
     0
  9
$PSTYLEMODE
290
     1
  9
$FINGERPRINTGUID
  2
{E6856B1E-40BB-460F-B854-9B439A1A907E}
  9
$VERSIONGUID
  2
{BD04493D-4D77-4EC7-939C-76C4BB43043A}
  9
$EXTNAMES
290
     1
  9
$PSVPSCALE
 40
0.0
  9
$OLESTARTUP
290
     0
  9
$SORTENTS
280
   127
  9
$INDEXCTL
280
     0
  9
$HIDETEXT
280
     0
  9
$XCLIPFRAME
290
     0
  9
$HALOGAP
280
     0
  9
$OBSCOLOR
 70
   257
  9
$OBSLTYPE
280
     0
  9
$INTERSECTIONDISPLAY
280
     0
  9
$INTERSECTIONCOLOR
 70
   257
  9
$DIMASSOC
280
     1
  9
$PROJECTNAME
  1

  0
ENDSEC
  0
SECTION
  2
CLASSES
  0
CLASS
  1
IMAGE
  2
AcDbRasterImage
  3
ISM
 90
     2175
 91
        0
280
     0
281
     1
  0
CLASS
  1
DICTIONARYVAR
  2
AcDbDictionaryVar
  3
ObjectDBX Classes
 90
        0
 91
        4
280
     0
281
     0
  0
CLASS
  1
RASTERVARIABLES
  2
AcDbRasterVariables
  3
ISM
 90
        0
 91
        0
280
     0
281
     0
  0
CLASS
  1
IMAGEDEF
  2
AcDbRasterImageDef
  3
ISM
 90
        0
 91
        0
280
     0
281
     0
  0
CLASS
  1
IMAGEDEF_REACTOR
  2
AcDbRasterImageDefReactor
  3
ISM
 90
        1
 91
        0
280
     0
281
     0
  0
CLASS
  1
IDBUFFER
  2
AcDbIdBuffer
  3
ObjectDBX Classes
 90
        0
 91
        0
280
     0
281
     0
  0
CLASS
  1
SPATIAL_FILTER
  2
AcDbSpatialFilter
  3
ObjectDBX Classes
 90
        0
 91
        0
280
     0
281
     0
  0
CLASS
  1
SORTENTSTABLE
  2
AcDbSortentsTable
  3
ObjectDBX Classes
 90
        0
 91
        0
280
     0
281
     0
  0
CLASS
  1
LAYER_INDEX
  2
AcDbLayerIndex
  3
ObjectDBX Classes
 90
        0
 91
        0
280
     0
281
     0
  0
CLASS
  1
SPATIAL_INDEX
  2
AcDbSpatialIndex
  3
ObjectDBX Classes
 90
        0
 91
        0
280
     0
281
     0
  0
CLASS
  1
OBJECT_PTR
  2
CAseDLPNTableRecord
  3
"ASE-LPNTableRecord"
 90
        1
 91
        0
280
     0
281
     0
  0
CLASS
  1
PLOTSETTINGS
  2
AcDbPlotSettings
  3
ObjectDBX Classes
 90
        0
 91
        0
280
     0
281
     0
  0
CLASS
  1
ACDBDICTIONARYWDFLT
  2
AcDbDictionaryWithDefault
  3
ObjectDBX Classes
 90
        0
 91
        1
280
     0
281
     0
  0
CLASS
  1
WIPEOUT
  2
AcDbWipeout
  3
WipeOut|Product Desc: Object Enabler for WipeOut entity | Company: Autodesk, Inc. | WEB Address: www.autodesk.com
 90
     2175
 91
        0
280
     0
281
     1
  0
CLASS
  1
WIPEOUTVARIABLES
  2
AcDbWipeoutVariables
  3
"WipeOut|Product Desc:     WipeOut Dbx Application|Company:          Autodesk, Inc.|WEB Address:      www.autodesk.com"
 90
        0
 91
        0
280
     0
281
     0
  0
CLASS
  1
RTEXT
  2
RText
  3
RText|AutoCAD Express Tool|expresstools@autodesk.com
 90
        0
 91
        0
280
     0
281
     1
  0
CLASS
  1
ARCALIGNEDTEXT
  2
AcDbArcAlignedText
  3
ATEXT|AutoCAD Express Tool|expresstools@autodesk.com
 90
        0
 91
        0
280
     0
281
     1
  0
CLASS
  1
MATERIAL
  2
AcDbMaterial
  3
ObjectDBX Classes
 90
     1153
 91
        3
280
     0
281
     0
  0
CLASS
  1
VISUALSTYLE
  2
AcDbVisualStyle
  3
ObjectDBX Classes
 90
     4095
 91
       24
280
     0
281
     0
  0
CLASS
  1
TABLESTYLE
  2
AcDbTableStyle
  3
ObjectDBX Classes
 90
     4095
 91
        1
280
     0
281
     0
  0
CLASS
  1
SCALE
  2
AcDbScale
  3
ObjectDBX Classes
 90
     1153
 91
       17
280
     0
281
     0
  0
CLASS
  1
MLEADERSTYLE
  2
AcDbMLeaderStyle
  3
ACDB_MLEADERSTYLE_CLASS
 90
     4095
 91
        1
280
     0
281
     0
  0
CLASS
  1
CELLSTYLEMAP
  2
AcDbCellStyleMap
  3
ObjectDBX Classes
 90
     1152
 91
        1
280
     0
281
     0
  0
ENDSEC
  0
SECTION
  2
TABLES
  0
TABLE
  2
VPORT
  5
7
330
0
100
AcDbSymbolTable
 70
     1
  0
VPORT
  5
15
330
7
100
AcDbSymbolTableRecord
100
AcDbViewportTableRecord
  2
*ACTIVE
 70
     0
 10
0.0
 20
0.0
 11
1.0
 21
1.0
 12
13.87468970788036
 22
4.579183999999999
 13
0.0
 23
0.0
 14
1.0
 24
1.0
 15
0.0
 25
0.0
 16
0.0
 26
0.0
 36
1.0
 17
0.0
 27
0.0
 37
0.0
 40
7.217107878632479
 41
2.893478260869565
 42
50.0
 43
0.0
 44
0.0
 50
0.0
 51
0.0
 71
     0
 72
   100
 73
     1
 74
     1
 75
     0
 76
     0
 77
     0
 78
     0
281
     0
 65
     1
110
0.0
120
0.0
130
0.0
111
1.0
121
0.0
131
0.0
112
0.0
122
1.0
132
0.0
 79
     0
146
0.0
1001
ACAD_NAV_VCDISPLAY
1070
     3
  0
ENDTAB
  0
TABLE
  2
LTYPE
  5
4
330
0
100
AcDbSymbolTable
 70
     8
  0
LTYPE
  5
11
330
4
100
AcDbSymbolTableRecord
100
AcDbLinetypeTableRecord
  2
BYBLOCK
 70
     0
  3

 72
    65
 73
     0
 40
0.0
  0
LTYPE
  5
12
330
4
100
AcDbSymbolTableRecord
100
AcDbLinetypeTableRecord
  2
BYLAYER
 70
     0
  3

 72
    65
 73
     0
 40
0.0
  0
LTYPE
  5
13
330
4
100
AcDbSymbolTableRecord
100
AcDbLinetypeTableRecord
  2
CONTINUOUS
 70
     0
  3
Solid line
 72
    65
 73
     0
 40
0.0
  0
LTYPE
  5
1D
330
4
100
AcDbSymbolTableRecord
100
AcDbLinetypeTableRecord
  2
DASHED
 70
     0
  3
Dashed
 72
    65
 73
     2
 40
15.0
 49
12.0
 74
     0
 49
-3.0
 74
     0
  0
LTYPE
  5
1E
330
4
100
AcDbSymbolTableRecord
100
AcDbLinetypeTableRecord
  2
DOTTED
 70
     0
  3
Dotted
 72
    65
 73
     2
 40
3.5
 49
0.5
 74
     0
 49
-3.0
 74
     0
  0
LTYPE
  5
1F
330
4
100
AcDbSymbolTableRecord
100
AcDbLinetypeTableRecord
  2
DOT_CENTER
 70
     0
  3
Dot_Center
 72
    65
 73
     4
 40
2.0
 49
1.25
 74
     0
 49
-0.25
 74
     0
 49
0.25
 74
     0
 49
-0.25
 74
     0
  0
LTYPE
  5
20
330
4
100
AcDbSymbolTableRecord
100
AcDbLinetypeTableRecord
  2
LONG_DASHED
 70
     0
  3
Long_Dashed
 72
    65
 73
     2
 40
2.0
 49
1.5
 74
     0
 49
-0.5
 74
     0
  0
LTYPE
  5
21
330
4
100
AcDbSymbolTableRecord
100
AcDbLinetypeTableRecord
  2
DASH_CENTER
 70
     0
  3
Dash_Center
 72
    65
 73
     4
 40
36.0
 49
24.0
 74
     0
 49
-3.0
 74
     0
 49
6.0
 74
     0
 49
-3.0
 74
     0
  0
LTYPE
  5
22
330
4
100
AcDbSymbolTableRecord
100
AcDbLinetypeTableRecord
  2
PHANTOM
 70
     0
  3
Phantom
 72
    65
 73
     6
 40
2.5
 49
1.25
 74
     0
 49
-0.25
 74
     0
 49
0.25
 74
     0
 49
-0.25
 74
     0
 49
0.25
 74
     0
 49
-0.25
 74
     0
  0
LTYPE
  5
23
330
4
100
AcDbSymbolTableRecord
100
AcDbLinetypeTableRecord
  2
CENTER_DASH_DASH
 70
     0
  3
Center_Dash_Dash
 72
    65
 73
     6
 40
22.0
 49
12.0
 74
     0
 49
-3.0
 74
     0
 49
0.5
 74
     0
 49
-3.0
 74
     0
 49
0.5
 74
     0
 49
-3.0
 74
     0
  0
ENDTAB
  0
TABLE
  2
LAYER
  5
2
330
0
100
AcDbSymbolTable
 70
     4
  0
LAYER
  5
14
330
2
100
AcDbSymbolTableRecord
100
AcDbLayerTableRecord
  2
0
 70
     0
 62
     7
  6
CONTINUOUS
370
    -3
390
3A8
  0
LAYER
  5
24
330
2
100
AcDbSymbolTableRecord
100
AcDbLayerTableRecord
  2
________
 70
     0
 62
     7
  6
CONTINUOUS
370
    -3
390
3A8
  0
LAYER
  5
25
330
2
100
AcDbSymbolTableRecord
100
AcDbLayerTableRecord
  2
1
 70
     0
 62
     7
  6
CONTINUOUS
370
    -3
390
3A8
  0
LAYER
  5
26
330
2
100
AcDbSymbolTableRecord
100
AcDbLayerTableRecord
  2
VIS
 70
     0
 62
     7
  6
CONTINUOUS
370
    -3
390
3A8
  0
ENDTAB
  0
TABLE
  2
STYLE
  5
3
330
0
100
AcDbSymbolTable
 70
     2
  0
STYLE
  5
17
330
3
100
AcDbSymbolTableRecord
100
AcDbTextStyleTableRecord
  2
STANDARD
 70
     0
 40
0.0
 41
1.0
 50
0.0
 71
     0
 42
0.0
  3
txt
  4

  0
STYLE
  5
3A2
330
3
100
AcDbSymbolTableRecord
100
AcDbTextStyleTableRecord
  2
CONVERTER_1
 70
     0
 40
0.0
 41
0.9
 50
0.0
 71
     0
 42
0.0
  3
txt.shx
  4

  0
ENDTAB
  0
TABLE
  2
VIEW
  5
5
330
0
100
AcDbSymbolTable
 70
     0
  0
ENDTAB
  0
TABLE
  2
UCS
  5
6
330
0
100
AcDbSymbolTable
 70
     0
  0
ENDTAB
  0
TABLE
  2
APPID
  5
8
330
0
100
AcDbSymbolTable
 70
     3
  0
APPID
  5
16
330
8
100
AcDbSymbolTableRecord
100
AcDbRegAppTableRecord
  2
ACAD
 70
     0
  0
APPID
  5
3FE
330
8
100
AcDbSymbolTableRecord
100
AcDbRegAppTableRecord
  2
ACAD_NAV_VCDISPLAY
 70
     0
  0
APPID
  5
436
330
8
100
AcDbSymbolTableRecord
100
AcDbRegAppTableRecord
  2
ACAD_MLEADERVER
 70
     0
  0
ENDTAB
  0
TABLE
  2
DIMSTYLE
  5
9
330
0
100
AcDbSymbolTable
 70
     1
100
AcDbDimStyleTable
 71
     0
  0
DIMSTYLE
105
18
330
9
100
AcDbSymbolTableRecord
100
AcDbDimStyleTableRecord
  2
STANDARD
 70
     0
340
17
  0
ENDTAB
  0
TABLE
  2
BLOCK_RECORD
  5
1
330
0
100
AcDbSymbolTable
 70
     0
  0
BLOCK_RECORD
  5
A
330
1
100
AcDbSymbolTableRecord
100
AcDbBlockTableRecord
  2
*MODEL_SPACE
340
3F4
  0
BLOCK_RECORD
  5
B
330
1
100
AcDbSymbolTableRecord
100
AcDbBlockTableRecord
  2
*PAPER_SPACE
340
3F5
  0
ENDTAB
  0
ENDSEC
  0
SECTION
  2
BLOCKS
  0
BLOCK
  5
D
330
A
100
AcDbEntity
  8
0
100
AcDbBlockBegin
  2
*MODEL_SPACE
 70
     0
 10
0.0
 20
0.0
 30
0.0
  3
*MODEL_SPACE
  1

  0
ENDBLK
  5
E
330
A
100
AcDbEntity
  8
0
100
AcDbBlockEnd
  0
BLOCK
  5
F
330
B
100
AcDbEntity
 67
     1
  8
0
100
AcDbBlockBegin
  2
*PAPER_SPACE
 70
     0
 10
0.0
 20
0.0
 30
0.0
  3
*PAPER_SPACE
  1

  0
ENDBLK
  5
10
330
B
100
AcDbEntity
 67
     1
  8
0
100
AcDbBlockEnd
  0
ENDSEC
  0
SECTION
  2
ENTITIES
  0
MTEXT
  5
3A3
330
A
100
AcDbEntity
  8
1
 62
     3
100
AcDbMText
 10
-241.119254072188
 20
161.978797620473
 30
0.0
 40
6.0
 41
0.0
 71
     6
 72
     1
  1
B2T0788
  7
CONVERTER_1
 73
     1
 44
1.0
  0
ARC
  5
3A1
330
A
100
AcDbEntity
  8
1
  6
Continuous
 62
     3
100
AcDbCircle
 10
-260.500000000001
 20
210.206443655352
 30
0.0
 40
1.5
100
AcDbArc
 50
-90.0
 51
0.0
  0
ARC
  5
3A0
330
A
100
AcDbEntity
  8
1
  6
Continuous
 62
     3
100
AcDbCircle
 10
-260.500000000001
 20
228.358758383576
 30
0.0
 40
1.5
100
AcDbArc
 50
0.0
 51
90.0
  0
ARC
  5
39F
330
A
100
AcDbEntity
  8
1
  6
Continuous
 62
     3
100
AcDbCircle
 10
-283.500000000001
 20
228.358758383576
 30
0.0
 40
1.5
100
AcDbArc
 50
90.0
 51
180.0
  0
ARC
  5
39E
330
A
100
AcDbEntity
  8
1
  6
Continuous
 62
     3
100
AcDbCircle
 10
-283.500000000001
 20
210.206443655352
 30
0.0
 40
1.5
100
AcDbArc
 50
180.0
 51
-90.0
  0
ARC
  5
39D
330
A
100
AcDbEntity
  8
1
  6
Continuous
 62
     3
100
AcDbCircle
 10
-497.973370803565
 20
265.49999999999
 30
0.0
 40
3.0
100
AcDbArc
 50
90.0
 51
150.000000000001
  0
ARC
  5
39C
330
A
100
AcDbEntity
  8
1
  6
Continuous
 62
     3
100
AcDbCircle
 10
-504.324223764651
 20
254.49999999999
 30
0.0
 40
3.0
100
AcDbArc
 50
150.0
 51
-150.000000000004
  0
ARC
  5
39B
330
A
100
AcDbEntity
  8
1
  6
Continuous
 62
     3
100
AcDbCircle
 10
-497.973370803565
 20
243.49999999999
 30
0.0
 40
3.0
100
AcDbArc
 50
-150.000000000002
 51
-90.0
  0
ARC
  5
39A
330
A
100
AcDbEntity
  8
1
  6
Continuous
 62
     3
100
AcDbCircle
 10
-485.2716648813929
 20
243.49999999999
 30
0.0
 40
3.0
100
AcDbArc
 50
-90.0
 51
-29.999999999999
  0
ARC
  5
399
330
A
100
AcDbEntity
  8
1
  6
Continuous
 62
     3
100
AcDbCircle
 10
-478.9208119203069
 20
254.49999999999
 30
0.0
 40
3.0
100
AcDbArc
 50
-29.999999999999
 51
29.999999999998
  0
ARC
  5
398
330
A
100
AcDbEntity
  8
1
  6
Continuous
 62
     3
100
AcDbCircle
 10
-485.2716648813929
 20
265.49999999999
 30
0.0
 40
3.0
100
AcDbArc
 50
29.999999999993
 51
90.0
  0
ARC
  5
397
330
A
100
AcDbEntity
  8
1
  6
DASH_CENTER
 62
     3
100
AcDbCircle
 10
-235.0
 20
398.2222184871489
 30
0.0
 40
10.0
100
AcDbArc
 50
0.0
 51
90.0
  0
ARC
  5
396
330
A
100
AcDbEntity
  8
1
  6
DASH_CENTER
 62
     3
100
AcDbCircle
 10
-235.0
 20
349.72221848715
 30
0.0
 40
10.0
100
AcDbArc
 50
-0.000000000001
 51
90.0
  0
ARC
  5
395
330
A
100
AcDbEntity
  8
1
  6
Continuous
 62
     3
100
AcDbCircle
 10
-235.0
 20
349.72221848715
 30
0.0
 40
7.2
100
AcDbArc
 50
-0.000000000001
 51
90.0
  0
ARC
  5
394
330
A
100
AcDbEntity
  8
1
  6
Continuous
 62
     3
100
AcDbCircle
 10
-235.0
 20
398.2222184871489
 30
0.0
 40
13.85
100
AcDbArc
 50
0.0
 51
90.0
  0
ARC
  5
393
330
A
100
AcDbEntity
  8
1
  6
Continuous
 62
     3
100
AcDbCircle
 10
-235.0
 20
398.2222184871489
 30
0.0
 40
6.15
100
AcDbArc
 50
0.0
 51
90.0
  0
ARC
  5
392
330
A
100
AcDbEntity
  8
1
  6
Continuous
 62
     3
100
AcDbCircle
 10
-338.638594857753
 20
306.667218487149
 30
0.0
 40
100.0
100
AcDbArc
 50
85.283778765661
 51
90.0
  0
ARC
  5
391
330
A
100
AcDbEntity
  8
1
  6
Continuous
 62
     3
100
AcDbCircle
 10
-310.402585177938
 20
505.0172184871489
 30
0.0
 40
100.0
100
AcDbArc
 50
-94.716221234338
 51
-90.0
  0
ARC
  5
390
330
A
100
AcDbEntity
  8
1
  6
Continuous
 62
     3
100
AcDbCircle
 10
-325.65260172016
 20
326.667218487149
 30
0.0
 40
80.0
100
AcDbArc
 50
85.28377876566201
 51
90.0
  0
ARC
  5
38F
330
A
100
AcDbEntity
  8
1
  6
Continuous
 62
     3
100
AcDbCircle
 10
-311.18500609752
 20
486.017218487149
 30
0.0
 40
80.0
100
AcDbArc
 50
-94.716221234338
 51
-90.0
  0
ARC
  5
38E
330
A
100
AcDbEntity
  8
1
  6
Continuous
 62
     3
100
AcDbCircle
 10
-311.18500609752
 20
489.3172184871489
 30
0.0
 40
80.0
100
AcDbArc
 50
-94.716221234338
 51
-90.0
  0
ARC
  5
38D
330
A
100
AcDbEntity
  8
1
  6
Continuous
 62
     3
100
AcDbCircle
 10
-310.402585177938
 20
508.3172184871489
 30
0.0
 40
100.0
100
AcDbArc
 50
-94.716221234338
 51
-90.0
  0
ARC
  5
38C
330
A
100
AcDbEntity
  8
1
  6
Continuous
 62
     3
100
AcDbCircle
 10
-325.65260172016
 20
329.967218487149
 30
0.0
 40
80.0
100
AcDbArc
 50
85.28377876566201
 51
90.0
  0
ARC
  5
38B
330
A
100
AcDbEntity
  8
1
  6
Continuous
 62
     3
100
AcDbCircle
 10
-338.638594857753
 20
309.967218487149
 30
0.0
 40
100.0
100
AcDbArc
 50
85.28377876566201
 51
90.0
  0
ARC
  5
38A
330
A
100
AcDbEntity
  8
1
  6
Continuous
 62
     3
100
AcDbCircle
 10
-322.099999993646
 20
301.899999999979
 30
0.0
 40
0.4
100
AcDbArc
 50
180.0
 51
-90.0
  0
ARC
  5
389
330
A
100
AcDbEntity
  8
1
  6
Continuous
 62
     3
100
AcDbCircle
 10
-322.099999993646
 20
207.09999999998
 30
0.0
 40
0.4
100
AcDbArc
 50
90.0
 51
180.0
  0
ARC
  5
388
330
A
100
AcDbEntity
  8
1
  6
DASH_CENTER
 62
     3
100
AcDbCircle
 10
-235.0
 20
300.722218487149
 30
0.0
 40
10.0
100
AcDbArc
 50
-90.0
 51
0.0
  0
ARC
  5
387
330
A
100
AcDbEntity
  8
1
  6
Continuous
 62
     3
100
AcDbCircle
 10
-235.0
 20
300.722218487149
 30
0.0
 40
6.15
100
AcDbArc
 50
-90.0
 51
0.0
  0
ARC
  5
386
330
A
100
AcDbEntity
  8
1
  6
Continuous
 62
     3
100
AcDbCircle
 10
-235.0
 20
300.722218487149
 30
0.0
 40
13.85
100
AcDbArc
 50
-90.0
 51
0.0
  0
LWPOLYLINE
  5
385
330
A
100
AcDbEntity
  8
1
  6
Continuous
 62
     3
 60
     1
100
AcDbPolyline
 90
        4
 70
     0
 43
0.0
 10
-384.500000052139
 20
282.499999999989
 10
-384.000000052139
 20
281.999999999989
 10
-381.000000052138
 20
281.999999999989
 10
-381.000000052138
 20
271.999999999989
  0
SPLINE
  5
384
330
A
100
AcDbEntity
  8
1
  6
Continuous
 62
     3
100
AcDbSpline
210
0.0
220
0.0
230
1.0
 70
  1064
 71
     3
 72
     9
 73
     5
 74
     3
 42
0.0000000001
 43
0.0000000001
 44
0.00000000001
 40
0.0
 40
0.0
 40
0.0
 40
0.0
 40
5.402032167665693
 40
10.87522553529635
 40
10.87522553529635
 40
10.87522553529635
 40
10.87522553529635
 10
-368.9999999999999
 20
264.1176418402343
 30
0.0
 10
-368.1812399840105
 20
262.5137716309597
 30
0.0
 10
-366.5329343914473
 20
259.2849033617911
 30
0.0
 10
-364.7976885443576
 20
256.1019103437402
 30
0.0
 10
-363.9243883970938
 20
254.4999999999896
 30
0.0
 11
-368.9999999999999
 21
264.1176418402343
 31
0.0
 11
-366.5222684012097
 21
259.3173504256584
 31
0.0
 11
-363.9243883970938
 21
254.4999999999896
 31
0.0
  0
SPLINE
  5
383
330
A
100
AcDbEntity
  8
1
  6
Continuous
 62
     3
100
AcDbSpline
210
0.0
220
0.0
230
1.0
 70
  1064
 71
     3
 72
    12
 73
     8
 74
     6
 42
0.0000000001
 43
0.0000000001
 44
0.00000000001
 40
0.0
 40
0.0
 40
0.0
 40
0.0
 40
8.119757508372622
 40
14.61480960913855
 40
21.68039688287379
 40
26.60919910243641
 40
30.25322995980251
 40
30.25322995980251
 40
30.25322995980251
 40
30.25322995980251
 10
-384.5000000521393
 20
286.840939685462
 30
0.0
 10
-381.5823668975158
 20
286.5834192957116
 30
0.0
 10
-376.3308981165622
 20
286.1199065044991
 30
0.0
 10
-372.9630619219427
 20
278.860563039417
 30
0.0
 10
-372.1746243778783
 20
272.8753942084964
 30
0.0
 10
-370.6186023472747
 20
267.8516579268173
 30
0.0
 10
-369.4827946788141
 20
265.2314194769985
 30
0.0
 10
-368.9999999999999
 20
264.1176418402343
 30
0.0
 11
-384.5000000521393
 21
286.840939685462
 31
0.0
 11
-376.6673195949973
 21
284.7009446268044
 31
0.0
 11
-373.4022790602645
 21
279.086212923667
 31
0.0
 11
-371.846857099761
 21
272.1939574113146
 31
0.0
 11
-370.39728508591
 21
267.4831366445876
 31
0.0
 11
-368.9999999999999
 21
264.1176418402343
 31
0.0
  0
CIRCLE
  5
382
330
A
100
AcDbEntity
  8
1
  6
Continuous
 62
     3
100
AcDbCircle
 10
-141.625640038821
 20
290.72222265758
 30
0.0
 40
5.999999999998999
  0
CIRCLE
  5
381
330
A
100
AcDbEntity
  8
1
  6
Continuous
 62
     3
100
AcDbCircle
 10
-141.625640038821
 20
290.72222265758
 30
0.0
 40
2.800006531901
  0
CIRCLE
  5
380
330
A
100
AcDbEntity
  8
1
  6
Continuous
 62
     3
100
AcDbCircle
 10
-122.214211659694
 20
290.7222226558941
 30
0.0
 40
7.0
  0
CIRCLE
  5
37F
330
A
100
AcDbEntity
  8
1
  6
Continuous
 62
     3
100
AcDbCircle
 10
-122.214211659694
 20
290.72222265589
 30
0.0
 40
4.0
  0
CIRCLE
  5
37E
330
A
100
AcDbEntity
  8
1
  6
Continuous
 62
     3
100
AcDbCircle
 10
-163.654060098141
 20
278.850460708375
 30
0.0
 40
2.75
  0
CIRCLE
  5
37D
330
A
100
AcDbEntity
  8
1
  6
Continuous
 62
     3
100
AcDbCircle
 10
-100.185792314432
 20
278.850461289473
 30
0.0
 40
2.75
  0
CIRCLE
  5
37C
330
A
100
AcDbEntity
  8
1
  6
Continuous
 62
     3
100
AcDbCircle
 10
-131.919925852404
 20
214.500004203746
 30
0.0
 40
2.75
  0
CIRCLE
  5
37B
330
A
100
AcDbEntity
  8
1
  6
Continuous
 62
     3
100
AcDbCircle
 10
-118.720154552176
 20
303.762221311162
 30
0.0
 40
2.75
  0
CIRCLE
  5
37A
330
A
100
AcDbEntity
  8
1
  6
Continuous
 62
     3
100
AcDbCircle
 10
-118.720154552174
 20
303.762221311162
 30
0.0
 40
2.403589838485999
  0
CIRCLE
  5
379
330
A
100
AcDbEntity
  8
1
  6
Continuous
 62
     3
100
AcDbCircle
 10
-82.657708711662
 20
241.300232870189
 30
0.0
 40
2.75
  0
CIRCLE
  5
378
330
A
100
AcDbEntity
  8
1
  6
Continuous
 62
     3
100
AcDbCircle
 10
-82.657708711662
 20
241.300232870189
 30
0.0
 40
2.403589838485999
  0
CIRCLE
  5
377
330
A
100
AcDbEntity
  8
1
  6
Continuous
 62
     3
100
AcDbCircle
 10
-145.119697152634
 20
205.237787029678
 30
0.0
 40
2.403589838485999
  0
CIRCLE
  5
376
330
A
100
AcDbEntity
  8
1
  6
Continuous
 62
     3
100
AcDbCircle
 10
-145.119697152632
 20
205.237787029678
 30
0.0
 40
2.75
  0
CIRCLE
  5
375
330
A
100
AcDbEntity
  8
1
  6
Continuous
 62
     3
100
AcDbCircle
 10
-181.182142993146
 20
267.69977547065
 30
0.0
 40
2.403589838485999
  0
CIRCLE
  5
374
330
A
100
AcDbEntity
  8
1
  6
Continuous
 62
     3
100
AcDbCircle
 10
-181.182142993146
 20
267.69977547065
 30
0.0
 40
2.75
  0
CIRCLE
  5
373
330
A
100
AcDbEntity
  8
1
  6
Continuous
 62
     3
100
AcDbCircle
 10
-491.622517842479
 20
305.499999999989
 30
0.0
 40
2.98038475773
  0
CIRCLE
  5
372
330
A
100
AcDbEntity
  8
1
  6
Continuous
 62
     3
100
AcDbCircle
 10
-491.622517842479
 20
305.499999999989
 30
0.0
 40
3.5
  0
CIRCLE
  5
371
330
A
100
AcDbEntity
  8
1
  6
Continuous
 62
     3
100
AcDbCircle
 10
-491.622517842479
 20
203.499999999985
 30
0.0
 40
3.5
  0
CIRCLE
  5
370
330
A
100
AcDbEntity
  8
1
  6
Continuous
 62
     3
100
AcDbCircle
 10
-491.622517842479
 20
203.499999999985
 30
0.0
 40
2.980384757729
  0
CIRCLE
  5
36F
330
A
100
AcDbEntity
  8
1
  6
Continuous
 62
     3
100
AcDbCircle
 10
-517.122517842479
 20
210.332704406978
 30
0.0
 40
3.5
  0
CIRCLE
  5
36E
330
A
100
AcDbEntity
  8
1
  6
Continuous
 62
     3
100
AcDbCircle
 10
-517.122517842479
 20
210.332704406978
 30
0.0
 40
2.980384757729
  0
CIRCLE
  5
36D
330
A
100
AcDbEntity
  8
1
  6
Continuous
 62
     3
100
AcDbCircle
 10
-535.7898134354879
 20
228.999999999985
 30
0.0
 40
2.980384757729
  0
CIRCLE
  5
36C
330
A
100
AcDbEntity
  8
1
  6
Continuous
 62
     3
100
AcDbCircle
 10
-535.7898134354879
 20
228.999999999985
 30
0.0
 40
3.5
  0
CIRCLE
  5
36B
330
A
100
AcDbEntity
  8
1
  6
Continuous
 62
     3
100
AcDbCircle
 10
-440.622517842477
 20
254.499999999987
 30
0.0
 40
2.980384757729
  0
CIRCLE
  5
36A
330
A
100
AcDbEntity
  8
1
  6
Continuous
 62
     3
100
AcDbCircle
 10
-440.622517842477
 20
254.499999999987
 30
0.0
 40
3.5
  0
CIRCLE
  5
369
330
A
100
AcDbEntity
  8
1
  6
Continuous
 62
     3
100
AcDbCircle
 10
-542.6225178424809
 20
254.499999999987
 30
0.0
 40
3.5
  0
CIRCLE
  5
368
330
A
100
AcDbEntity
  8
1
  6
Continuous
 62
     3
100
AcDbCircle
 10
-542.6225178424809
 20
254.499999999987
 30
0.0
 40
2.980384757729
  0
CIRCLE
  5
367
330
A
100
AcDbEntity
  8
1
  6
Continuous
 62
     3
100
AcDbCircle
 10
-466.122517842477
 20
210.332704406978
 30
0.0
 40
3.5
  0
CIRCLE
  5
366
330
A
100
AcDbEntity
  8
1
  6
Continuous
 62
     3
100
AcDbCircle
 10
-466.122517842477
 20
210.332704406978
 30
0.0
 40
2.980384757729
  0
CIRCLE
  5
365
330
A
100
AcDbEntity
  8
1
  6
Continuous
 62
     3
100
AcDbCircle
 10
-447.45522224947
 20
228.999999999988
 30
0.0
 40
2.980384757729
  0
CIRCLE
  5
364
330
A
100
AcDbEntity
  8
1
  6
Continuous
 62
     3
100
AcDbCircle
 10
-447.45522224947
 20
228.999999999988
 30
0.0
 40
3.5
  0
CIRCLE
  5
363
330
A
100
AcDbEntity
  8
1
  6
Continuous
 62
     3
100
AcDbCircle
 10
-466.12251784248
 20
298.6672955929959
 30
0.0
 40
3.5
  0
CIRCLE
  5
362
330
A
100
AcDbEntity
  8
1
  6
Continuous
 62
     3
100
AcDbCircle
 10
-466.12251784248
 20
298.6672955929959
 30
0.0
 40
2.980384757729
  0
CIRCLE
  5
361
330
A
100
AcDbEntity
  8
1
  6
Continuous
 62
     3
100
AcDbCircle
 10
-447.45522224947
 20
279.99999999999
 30
0.0
 40
2.980384757729
  0
CIRCLE
  5
360
330
A
100
AcDbEntity
  8
1
  6
Continuous
 62
     3
100
AcDbCircle
 10
-447.45522224947
 20
279.99999999999
 30
0.0
 40
3.5
  0
CIRCLE
  5
35F
330
A
100
AcDbEntity
  8
1
  6
Continuous
 62
     3
100
AcDbCircle
 10
-517.1225178424809
 20
298.667295592997
 30
0.0
 40
3.5
  0
CIRCLE
  5
35E
330
A
100
AcDbEntity
  8
1
  6
Continuous
 62
     3
100
AcDbCircle
 10
-517.1225178424809
 20
298.667295592997
 30
0.0
 40
2.980384757729
  0
CIRCLE
  5
35D
330
A
100
AcDbEntity
  8
1
  6
Continuous
 62
     3
100
AcDbCircle
 10
-535.7898134354879
 20
279.999999999987
 30
0.0
 40
2.980384757729
  0
CIRCLE
  5
35C
330
A
100
AcDbEntity
  8
1
  6
Continuous
 62
     3
100
AcDbCircle
 10
-535.7898134354879
 20
279.999999999987
 30
0.0
 40
3.5
  0
CIRCLE
  5
35B
330
A
100
AcDbEntity
  8
1
  6
Continuous
 62
     3
100
AcDbCircle
 10
-131.919925852404
 20
254.50000417042
 30
0.0
 40
20.0
  0
CIRCLE
  5
35A
330
A
100
AcDbEntity
  8
1
  6
Continuous
 62
     3
100
AcDbCircle
 10
-491.622517842479
 20
254.499999999987
 30
0.0
 40
27.500000000002
  0
CIRCLE
  5
359
330
A
100
AcDbEntity
  8
1
  6
Continuous
 62
     3
100
AcDbCircle
 10
-491.622517842479
 20
254.499999999987
 30
0.0
 40
55.000000000002
  0
CIRCLE
  5
358
330
A
100
AcDbEntity
  8
1
  6
Continuous
 62
     3
100
AcDbCircle
 10
-178.2354234493439
 20
208.184505832267
 30
0.0
 40
3.299999999999999
  0
CIRCLE
  5
357
330
A
100
AcDbEntity
  8
1
  6
Continuous
 62
     3
100
AcDbCircle
 10
-491.622517842479
 20
254.49999999999
 30
0.0
 40
17.5
  0
CIRCLE
  5
356
330
A
100
AcDbEntity
  8
1
  6
Continuous
 62
     3
100
AcDbCircle
 10
-458.298076835504
 20
263.429257056026
 30
0.0
 40
4.249999999998999
  0
CIRCLE
  5
355
330
A
100
AcDbEntity
  8
1
  6
Continuous
 62
     3
100
AcDbCircle
 10
-500.551774898517
 20
221.175558993015
 30
0.0
 40
4.249999999998999
  0
CIRCLE
  5
354
330
A
100
AcDbEntity
  8
1
  6
Continuous
 62
     3
100
AcDbCircle
 10
-516.0177017934159
 20
278.895183950928
 30
0.0
 40
4.249999999998999
  0
CIRCLE
  5
353
330
A
100
AcDbEntity
  8
1
  6
Continuous
 62
     3
100
AcDbCircle
 10
-482.305032218788
 20
289.273329746396
 30
0.0
 40
3.5
  0
CIRCLE
  5
352
330
A
100
AcDbEntity
  8
1
  6
Continuous
 62
     3
100
AcDbCircle
 10
-445.3070236747589
 20
300.815494167708
 30
0.0
 40
3.299999999999999
  0
CIRCLE
  5
351
330
A
100
AcDbEntity
  8
1
  6
Continuous
 62
     3
100
AcDbCircle
 10
-426.122517842477
 20
254.499999999987
 30
0.0
 40
3.299999999999999
  0
CIRCLE
  5
350
330
A
100
AcDbEntity
  8
1
  6
Continuous
 62
     3
100
AcDbCircle
 10
-445.3070236747589
 20
208.184505832267
 30
0.0
 40
3.299999999999999
  0
CIRCLE
  5
34F
330
A
100
AcDbEntity
  8
1
  6
Continuous
 62
     3
100
AcDbCircle
 10
-491.622517842479
 20
188.999999999986
 30
0.0
 40
3.299999999999999
  0
CIRCLE
  5
34E
330
A
100
AcDbEntity
  8
1
  6
Continuous
 62
     3
100
AcDbCircle
 10
-537.9380120101989
 20
208.184505832267
 30
0.0
 40
3.299999999999999
  0
CIRCLE
  5
34D
330
A
100
AcDbEntity
  8
1
  6
Continuous
 62
     3
100
AcDbCircle
 10
-557.122517842481
 20
254.499999999987
 30
0.0
 40
3.299999999999999
  0
CIRCLE
  5
34C
330
A
100
AcDbEntity
  8
1
  6
Continuous
 62
     3
100
AcDbCircle
 10
-537.9380120101989
 20
300.815494167708
 30
0.0
 40
3.299999999999999
  0
CIRCLE
  5
34B
330
A
100
AcDbEntity
  8
1
  6
Continuous
 62
     3
100
AcDbCircle
 10
-491.622517842479
 20
319.999999999989
 30
0.0
 40
3.299999999999999
  0
CIRCLE
  5
34A
330
A
100
AcDbEntity
  8
1
  6
DASH_CENTER
 62
     3
100
AcDbCircle
 10
-491.622517842479
 20
254.499999999987
 30
0.0
 40
51.000000000002
  0
CIRCLE
  5
349
330
A
100
AcDbEntity
  8
1
  6
Continuous
 62
     3
100
AcDbCircle
 10
-491.622517842479
 20
254.499999999987
 30
0.0
 40
42.000000000002
  0
CIRCLE
  5
348
330
A
100
AcDbEntity
  8
1
  6
DASH_CENTER
 62
     3
100
AcDbCircle
 10
-491.622517842479
 20
254.499999999987
 30
0.0
 40
65.500000000002
  0
CIRCLE
  5
347
330
A
100
AcDbEntity
  8
1
  6
Continuous
 62
     3
100
AcDbCircle
 10
-491.622517842479
 20
254.499999999987
 30
0.0
 40
71.999999999989
  0
CIRCLE
  5
346
330
A
100
AcDbEntity
  8
1
  6
Continuous
 62
     3
100
AcDbCircle
 10
-491.622517842479
 20
254.499999999987
 30
0.0
 40
57.500000000002
  0
CIRCLE
  5
345
330
A
100
AcDbEntity
  8
1
  6
Continuous
 62
     3
100
AcDbCircle
 10
-516.688282662393
 20
315.014109379479
 30
0.0
 40
2.399999999999999
  0
CIRCLE
  5
344
330
A
100
AcDbEntity
  8
1
  6
Continuous
 62
     3
100
AcDbCircle
 10
-516.688282662393
 20
315.014109379479
 30
0.0
 40
3.0
  0
CIRCLE
  5
343
330
A
100
AcDbEntity
  8
1
  6
Continuous
 62
     3
100
AcDbCircle
 10
-466.556753022564
 20
193.985890620496
 30
0.0
 40
2.399999999999999
  0
CIRCLE
  5
342
330
A
100
AcDbEntity
  8
1
  6
Continuous
 62
     3
100
AcDbCircle
 10
-466.556753022564
 20
193.985890620496
 30
0.0
 40
3.0
  0
CIRCLE
  5
341
330
A
100
AcDbEntity
  8
1
  6
Continuous
 62
     3
100
AcDbCircle
 10
-491.622517842479
 20
254.499999999987
 30
0.0
 40
47.05000000000199
  0
CIRCLE
  5
340
330
A
100
AcDbEntity
  8
1
  6
Continuous
 62
     3
100
AcDbCircle
 10
-473.6225178424789
 20
285.676914536229
 30
0.0
 40
2.0
  0
CIRCLE
  5
33F
330
A
100
AcDbEntity
  8
1
  6
Continuous
 62
     3
100
AcDbCircle
 10
-473.6225178424789
 20
285.676914536229
 30
0.0
 40
2.5
  0
CIRCLE
  5
33E
330
A
100
AcDbEntity
  8
1
  6
Continuous
 62
     3
100
AcDbCircle
 10
-491.622517842479
 20
218.845821289894
 30
0.0
 40
2.0
  0
CIRCLE
  5
33D
330
A
100
AcDbEntity
  8
1
  6
Continuous
 62
     3
100
AcDbCircle
 10
-491.622517842479
 20
218.845821289894
 30
0.0
 40
2.5
  0
CIRCLE
  5
33C
330
A
100
AcDbEntity
  8
1
  6
Continuous
 62
     3
100
AcDbCircle
 10
-509.622517842477
 20
223.323085463749
 30
0.0
 40
2.5
  0
CIRCLE
  5
33B
330
A
100
AcDbEntity
  8
1
  6
Continuous
 62
     3
100
AcDbCircle
 10
-509.622517842477
 20
223.323085463749
 30
0.0
 40
2.0
  0
CIRCLE
  5
33A
330
A
100
AcDbEntity
  8
1
  6
Continuous
 62
     3
100
AcDbCircle
 10
-491.622517842479
 20
290.4999999999891
 30
0.0
 40
2.5
  0
CIRCLE
  5
339
330
A
100
AcDbEntity
  8
1
  6
Continuous
 62
     3
100
AcDbCircle
 10
-491.622517842479
 20
290.4999999999891
 30
0.0
 40
2.0
  0
CIRCLE
  5
338
330
A
100
AcDbEntity
  8
1
  6
Continuous
 62
     3
100
AcDbCircle
 10
-491.622517842479
 20
254.49999999999
 30
0.0
 40
13.5
  0
CIRCLE
  5
337
330
A
100
AcDbEntity
  8
1
  6
Continuous
 62
     3
100
AcDbCircle
 10
-131.919938471073
 20
254.50000834085
 30
0.0
 40
71.999999999989
  0
CIRCLE
  5
336
330
A
100
AcDbEntity
  8
1
  6
DASH_CENTER
 62
     3
100
AcDbCircle
 10
-131.919938471073
 20
254.50000834085
 30
0.0
 40
65.500000000002
  0
CIRCLE
  5
335
330
A
100
AcDbEntity
  8
1
  6
Continuous
 62
     3
100
AcDbCircle
 10
-197.4199384710749
 20
254.50000834085
 30
0.0
 40
3.299999999999999
  0
CIRCLE
  5
334
330
A
100
AcDbEntity
  8
1
  6
Continuous
 62
     3
100
AcDbCircle
 10
-131.919938471073
 20
189.000008340848
 30
0.0
 40
3.299999999999999
  0
CIRCLE
  5
333
330
A
100
AcDbEntity
  8
1
  6
Continuous
 62
     3
100
AcDbCircle
 10
-85.604444303353
 20
208.18451417313
 30
0.0
 40
3.299999999999999
  0
CIRCLE
  5
332
330
A
100
AcDbEntity
  8
1
  6
Continuous
 62
     3
100
AcDbCircle
 10
-66.41993847107099
 20
254.50000834085
 30
0.0
 40
3.299999999999999
  0
CIRCLE
  5
331
330
A
100
AcDbEntity
  8
1
  6
Continuous
 62
     3
100
AcDbCircle
 10
-85.604444303352
 20
300.81550250857
 30
0.0
 40
3.299999999999999
  0
CIRCLE
  5
330
330
A
100
AcDbEntity
  8
1
  6
Continuous
 62
     3
100
AcDbCircle
 10
-131.919938471073
 20
320.000008340852
 30
0.0
 40
3.299999999999999
  0
CIRCLE
  5
32F
330
A
100
AcDbEntity
  8
1
  6
Continuous
 62
     3
100
AcDbCircle
 10
-106.854148413822
 20
315.014117720342
 30
0.0
 40
3.0
  0
CIRCLE
  5
32E
330
A
100
AcDbEntity
  8
1
  6
Continuous
 62
     3
100
AcDbCircle
 10
-106.854148413822
 20
315.014117720342
 30
0.0
 40
2.399999999999999
  0
CIRCLE
  5
32D
330
A
100
AcDbEntity
  8
1
  6
Continuous
 62
     3
100
AcDbCircle
 10
-178.2354326387929
 20
300.81550250857
 30
0.0
 40
3.299999999999999
  0
CIRCLE
  5
32C
330
A
100
AcDbEntity
  8
1
  6
Continuous
 62
     3
100
AcDbCircle
 10
-156.98567805365
 20
193.985898961359
 30
0.0
 40
3.0
  0
CIRCLE
  5
32B
330
A
100
AcDbEntity
  8
1
  6
Continuous
 62
     3
100
AcDbCircle
 10
-156.98567805365
 20
193.985898961359
 30
0.0
 40
2.399999999999999
  0
CIRCLE
  5
32A
330
A
100
AcDbEntity
  8
1
  6
Continuous
 62
     3
100
AcDbCircle
 10
-131.919938471073
 20
254.500008340848
 30
0.0
 40
57.500000000002
  0
CIRCLE
  5
329
330
A
100
AcDbEntity
  8
1
  6
Continuous
 62
     3
100
AcDbCircle
 10
-131.919925852404
 20
254.50000417042
 30
0.0
 40
57.0
  0
CIRCLE
  5
328
330
A
100
AcDbEntity
  8
1
  6
Continuous
 62
     3
100
AcDbCircle
 10
-145.119706088851
 20
303.76221563361
 30
0.0
 40
2.25
  0
CIRCLE
  5
327
330
A
100
AcDbEntity
  8
1
  6
Continuous
 62
     3
100
AcDbCircle
 10
-80.91992585240401
 20
254.50000417042
 30
0.0
 40
2.25
  0
CIRCLE
  5
326
330
A
100
AcDbEntity
  8
1
  6
Continuous
 62
     3
100
AcDbCircle
 10
-87.752630259398
 20
280.00000417042
 30
0.0
 40
2.25
  0
CIRCLE
  5
325
330
A
100
AcDbEntity
  8
1
  6
Continuous
 62
     3
100
AcDbCircle
 10
-106.419925852404
 20
298.667299763426
 30
0.0
 40
2.25
  0
CIRCLE
  5
324
330
A
100
AcDbEntity
  8
1
  6
Continuous
 62
     3
100
AcDbCircle
 10
-131.919925852404
 20
305.50000417042
 30
0.0
 40
2.25
  0
CIRCLE
  5
323
330
A
100
AcDbEntity
  8
1
  6
Continuous
 62
     3
100
AcDbCircle
 10
-157.419925852404
 20
298.667299763426
 30
0.0
 40
2.25
  0
CIRCLE
  5
322
330
A
100
AcDbEntity
  8
1
  6
Continuous
 62
     3
100
AcDbCircle
 10
-176.08722144541
 20
280.00000417042
 30
0.0
 40
2.25
  0
CIRCLE
  5
321
330
A
100
AcDbEntity
  8
1
  6
Continuous
 62
     3
100
AcDbCircle
 10
-182.919925852404
 20
254.50000417042
 30
0.0
 40
2.25
  0
CIRCLE
  5
320
330
A
100
AcDbEntity
  8
1
  6
Continuous
 62
     3
100
AcDbCircle
 10
-176.08722144541
 20
229.00000417042
 30
0.0
 40
2.25
  0
CIRCLE
  5
31F
330
A
100
AcDbEntity
  8
1
  6
Continuous
 62
     3
100
AcDbCircle
 10
-157.419925852404
 20
210.332708577413
 30
0.0
 40
2.25
  0
CIRCLE
  5
31E
330
A
100
AcDbEntity
  8
1
  6
Continuous
 62
     3
100
AcDbCircle
 10
-131.919925852404
 20
203.500004170419
 30
0.0
 40
2.25
  0
CIRCLE
  5
31D
330
A
100
AcDbEntity
  8
1
  6
Continuous
 62
     3
100
AcDbCircle
 10
-106.419925852404
 20
210.332708577413
 30
0.0
 40
2.25
  0
CIRCLE
  5
31C
330
A
100
AcDbEntity
  8
1
  6
Continuous
 62
     3
100
AcDbCircle
 10
-87.752630259398
 20
229.000004170419
 30
0.0
 40
2.25
  0
CIRCLE
  5
31B
330
A
100
AcDbEntity
  8
1
  6
Continuous
 62
     3
100
AcDbCircle
 10
-131.919925852404
 20
254.50000417042
 30
0.0
 40
14.518014882867
  0
CIRCLE
  5
31A
330
A
100
AcDbEntity
  8
1
  6
Continuous
 62
     3
100
AcDbCircle
 10
-131.919925852404
 20
254.50000417042
 30
0.0
 40
14.7
  0
CIRCLE
  5
319
330
A
100
AcDbEntity
  8
1
  6
Continuous
 62
     3
100
AcDbCircle
 10
-131.919925852404
 20
254.50000417042
 30
0.0
 40
14.07735026919
  0
CIRCLE
  5
318
330
A
100
AcDbEntity
  8
1
  6
Continuous
 62
     3
100
AcDbCircle
 10
-131.919925852404
 20
254.50000417042
 30
0.0
 40
13.5
  0
CIRCLE
  5
317
330
A
100
AcDbEntity
  8
1
  6
Continuous
 62
     3
100
AcDbCircle
 10
-163.654060098141
 20
278.850460708375
 30
0.0
 40
5.0
  0
CIRCLE
  5
316
330
A
100
AcDbEntity
  8
1
  6
DASH_CENTER
 62
     3
100
AcDbCircle
 10
-131.919925852404
 20
254.50000417042
 30
0.0
 40
51.0
  0
CIRCLE
  5
315
330
A
100
AcDbEntity
  8
1
  6
Continuous
 62
     3
100
AcDbCircle
 10
-100.185792314432
 20
278.850461289473
 30
0.0
 40
5.0
  0
CIRCLE
  5
314
330
A
100
AcDbEntity
  8
1
  6
Continuous
 62
     3
100
AcDbCircle
 10
-131.919925852404
 20
214.500004203746
 30
0.0
 40
5.0
  0
CIRCLE
  5
313
330
A
100
AcDbEntity
  8
1
  6
Continuous
 62
     3
100
AcDbCircle
 10
-131.919925852404
 20
254.50000417042
 30
0.0
 40
47.0
  0
CIRCLE
  5
312
330
A
100
AcDbEntity
  8
1
  6
Continuous
 62
     3
100
AcDbCircle
 10
-460.445603306238
 20
236.499999999992
 30
0.0
 40
2.0
  0
CIRCLE
  5
311
330
A
100
AcDbEntity
  8
1
  6
Continuous
 62
     3
100
AcDbCircle
 10
-460.445603306238
 20
236.499999999992
 30
0.0
 40
2.5
  0
CIRCLE
  5
310
330
A
100
AcDbEntity
  8
1
  6
Continuous
 62
     3
100
AcDbCircle
 10
-522.799432378719
 20
272.499999999989
 30
0.0
 40
2.5
  0
CIRCLE
  5
30F
330
A
100
AcDbEntity
  8
1
  6
Continuous
 62
     3
100
AcDbCircle
 10
-522.799432378719
 20
272.499999999989
 30
0.0
 40
2.0
  0
CIRCLE
  5
30E
330
A
100
AcDbEntity
  8
1
  6
Continuous
 62
     3
100
AcDbCircle
 10
-460.445603306238
 20
272.499999999987
 30
0.0
 40
2.5
  0
CIRCLE
  5
30D
330
A
100
AcDbEntity
  8
1
  6
Continuous
 62
     3
100
AcDbCircle
 10
-460.445603306238
 20
272.499999999987
 30
0.0
 40
2.0
  0
CIRCLE
  5
30C
330
A
100
AcDbEntity
  8
1
  6
Continuous
 62
     3
100
AcDbCircle
 10
-522.799432378719
 20
236.49999999999
 30
0.0
 40
2.0
  0
CIRCLE
  5
30B
330
A
100
AcDbEntity
  8
1
  6
Continuous
 62
     3
100
AcDbCircle
 10
-522.799432378719
 20
236.49999999999
 30
0.0
 40
2.5
  0
CIRCLE
  5
30A
330
A
100
AcDbEntity
  8
1
  6
Continuous
 62
     3
100
AcDbCircle
 10
-473.6225178424789
 20
223.32308546375
 30
0.0
 40
2.5
  0
CIRCLE
  5
309
330
A
100
AcDbEntity
  8
1
  6
Continuous
 62
     3
100
AcDbCircle
 10
-473.6225178424789
 20
223.32308546375
 30
0.0
 40
2.0
  0
CIRCLE
  5
308
330
A
100
AcDbEntity
  8
1
  6
Continuous
 62
     3
100
AcDbCircle
 10
-509.622517842479
 20
285.676914536229
 30
0.0
 40
2.5
  0
CIRCLE
  5
307
330
A
100
AcDbEntity
  8
1
  6
Continuous
 62
     3
100
AcDbCircle
 10
-509.622517842479
 20
285.676914536229
 30
0.0
 40
2.0
  0
CIRCLE
  5
306
330
A
100
AcDbEntity
  8
1
  6
Continuous
 62
     3
100
AcDbCircle
 10
-455.622517842479
 20
254.499999999992
 30
0.0
 40
2.5
  0
CIRCLE
  5
305
330
A
100
AcDbEntity
  8
1
  6
Continuous
 62
     3
100
AcDbCircle
 10
-455.62251784248
 20
254.499999999992
 30
0.0
 40
2.0
  0
CIRCLE
  5
304
330
A
100
AcDbEntity
  8
1
  6
Continuous
 62
     3
100
AcDbCircle
 10
-527.6225178424799
 20
254.499999999989
 30
0.0
 40
2.0
  0
CIRCLE
  5
303
330
A
100
AcDbEntity
  8
1
  6
Continuous
 62
     3
100
AcDbCircle
 10
-527.6225178424799
 20
254.499999999989
 30
0.0
 40
2.5
  0
CIRCLE
  5
302
330
A
100
AcDbEntity
  8
1
  6
Continuous
 62
     3
100
AcDbCircle
 10
-458.298076835504
 20
263.429257056026
 30
0.0
 40
4.949999999999
  0
CIRCLE
  5
301
330
A
100
AcDbEntity
  8
1
  6
Continuous
 62
     3
100
AcDbCircle
 10
-516.0177017934159
 20
278.895183950928
 30
0.0
 40
4.949999999999
  0
CIRCLE
  5
300
330
A
100
AcDbEntity
  8
1
  6
Continuous
 62
     3
100
AcDbCircle
 10
-500.551774898517
 20
221.175558993015
 30
0.0
 40
4.949999999999
  0
ARC
  5
2FF
330
A
100
AcDbEntity
  8
1
  6
Continuous
 62
     3
100
AcDbCircle
 10
-259.784848484848
 20
278.850456463371
 30
0.0
 40
2.859805438164999
100
AcDbArc
 50
31.635343725217
 51
74.071282878766
  0
ARC
  5
2FE
330
A
100
AcDbEntity
  8
VIS
  6
Continuous
 62
     3
100
AcDbCircle
 10
-256.0
 20
285.322218487149
 30
0.0
 40
0.5
100
AcDbArc
 50
180.0
 51
-113.578178478175
  0
ARC
  5
2FD
330
A
100
AcDbEntity
  8
VIS
  6
Continuous
 62
     3
100
AcDbCircle
 10
-244.5375
 20
287.722218487149
 30
0.0
 40
7.962499999999
100
AcDbArc
 50
-172.785246447927
 51
-164.222193899506
  0
ARC
  5
2FC
330
A
100
AcDbEntity
  8
VIS
  6
Continuous
 62
     3
100
AcDbCircle
 10
-256.0
 20
296.122218487149
 30
0.0
 40
0.5
100
AcDbArc
 50
113.57817847818
 51
180.0
  0
ARC
  5
2FB
330
A
100
AcDbEntity
  8
VIS
  6
Continuous
 62
     3
100
AcDbCircle
 10
-259.1375
 20
293.722218487149
 30
0.0
 40
4.9375
100
AcDbArc
 50
22.209002979801
 51
26.007823885646
  0
ARC
  5
2FA
330
A
100
AcDbEntity
  8
VIS
  6
Continuous
 62
     3
100
AcDbCircle
 10
-249.64
 20
293.722218487149
 30
0.0
 40
4.9375
100
AcDbArc
 50
18.312568637548
 51
26.007823885646
  0
ARC
  5
2F9
330
A
100
AcDbEntity
  8
VIS
  6
Continuous
 62
     3
100
AcDbCircle
 10
-259.1375
 20
287.722218487149
 30
0.0
 40
4.9375
100
AcDbArc
 50
-26.007823885644
 51
-22.209002979802
  0
ARC
  5
2F8
330
A
100
AcDbEntity
  8
VIS
  6
Continuous
 62
     3
100
AcDbCircle
 10
-244.5375
 20
293.722218487149
 30
0.0
 40
7.9625
100
AcDbArc
 50
164.222193899504
 51
172.785246447928
  0
ARC
  5
2F7
330
A
100
AcDbEntity
  8
VIS
  6
Continuous
 62
     3
100
AcDbCircle
 10
-249.64
 20
287.722218487149
 30
0.0
 40
4.9375
100
AcDbArc
 50
-26.007823885643
 51
-18.312568637547
  0
ARC
  5
2F6
330
A
100
AcDbEntity
  8
VIS
  6
Continuous
 62
     3
100
AcDbCircle
 10
-249.619589029683
 20
288.222218487149
 30
0.0
 40
4.1875
100
AcDbArc
 50
-28.28553496637101
 51
28.285534966358
  0
ARC
  5
2F5
330
A
100
AcDbEntity
  8
VIS
  6
Continuous
 62
     3
100
AcDbCircle
 10
-258.450000000001
 20
288.222218487149
 30
0.0
 40
4.250000000001
100
AcDbArc
 50
-28.072486935859
 51
28.072486935846
  0
ARC
  5
2F4
330
A
100
AcDbEntity
  8
VIS
  6
Continuous
 62
     3
100
AcDbCircle
 10
-256.0
 20
286.322218487149
 30
0.0
 40
0.5
100
AcDbArc
 50
180.0
 51
-113.578178478186
  0
ARC
  5
2F3
330
A
100
AcDbEntity
  8
VIS
  6
Continuous
 62
     3
100
AcDbCircle
 10
-245.519589029683
 20
288.222218487149
 30
0.0
 40
6.7125
100
AcDbArc
 50
162.805600575138
 51
-162.80560057513
  0
ARC
  5
2F2
330
A
100
AcDbEntity
  8
VIS
  6
Continuous
 62
     3
100
AcDbCircle
 10
-245.519589029683
 20
293.222218487149
 30
0.0
 40
6.7125
100
AcDbArc
 50
162.805600575138
 51
-162.80560057513
  0
ARC
  5
2F1
330
A
100
AcDbEntity
  8
VIS
  6
Continuous
 62
     3
100
AcDbCircle
 10
-256.0
 20
295.122218487149
 30
0.0
 40
0.5
100
AcDbArc
 50
113.578178478186
 51
180.0
  0
ARC
  5
2F0
330
A
100
AcDbEntity
  8
VIS
  6
Continuous
 62
     3
100
AcDbCircle
 10
-258.450000000001
 20
293.222218487149
 30
0.0
 40
4.250000000001
100
AcDbArc
 50
-28.072486935859
 51
28.072486935846
  0
ARC
  5
2EF
330
A
100
AcDbEntity
  8
VIS
  6
Continuous
 62
     3
100
AcDbCircle
 10
-249.619589029683
 20
293.222218487149
 30
0.0
 40
4.1875
100
AcDbArc
 50
-28.28553496637101
 51
28.285534966358
  0
ARC
  5
2EE
330
A
100
AcDbEntity
  8
1
  6
DASH_CENTER
 62
     3
100
AcDbCircle
 10
-491.622517842479
 20
254.499999999987
 30
0.0
 40
34.5
100
AcDbArc
 50
-118.106944823134
 51
-91.89305517687001
  0
ARC
  5
2ED
330
A
100
AcDbEntity
  8
1
  6
DASH_CENTER
 62
     3
100
AcDbCircle
 10
-491.622517842479
 20
254.499999999987
 30
0.0
 40
34.5
100
AcDbArc
 50
1.89305517687
 51
28.106944823134
  0
ARC
  5
2EC
330
A
100
AcDbEntity
  8
1
  6
DASH_CENTER
 62
     3
100
AcDbCircle
 10
-491.622517842479
 20
254.499999999987
 30
0.0
 40
34.5
100
AcDbArc
 50
121.893055176864
 51
148.106944823127
  0
ARC
  5
2EB
330
A
100
AcDbEntity
  8
1
  6
DASH_CENTER
 62
     3
100
AcDbCircle
 10
-491.622517842479
 20
254.49999999999
 30
0.0
 40
36.0
100
AcDbArc
 50
90.0
 51
71.02032647860099
  0
ARC
  5
2EA
330
A
100
AcDbEntity
  8
1
  6
DASH_CENTER
 62
     3
100
AcDbCircle
 10
-491.622517842479
 20
254.49999999999
 30
0.0
 40
36.0
100
AcDbArc
 50
71.02032647860099
 51
74.999999999999
  0
ARC
  5
2E9
330
A
100
AcDbEntity
  8
1
  6
DASH_CENTER
 62
     3
100
AcDbCircle
 10
-491.622517842479
 20
254.49999999999
 30
0.0
 40
36.0
100
AcDbArc
 50
78.97967352139599
 51
90.0
  0
ARC
  5
2E8
330
A
100
AcDbEntity
  8
1
  6
DASH_CENTER
 62
     3
100
AcDbCircle
 10
-491.622517842479
 20
254.49999999999
 30
0.0
 40
36.0
100
AcDbArc
 50
74.999999999999
 51
78.97967352139599
  0
ARC
  5
2E7
330
A
100
AcDbEntity
  8
1
  6
Continuous
 62
     3
100
AcDbCircle
 10
-482.305032218788
 20
289.273329746396
 30
0.0
 40
2.5
100
AcDbArc
 50
74.999999999997
 51
166.989836760694
  0
ARC
  5
2E6
330
A
100
AcDbEntity
  8
1
  6
Continuous
 62
     3
100
AcDbCircle
 10
-482.305032218788
 20
289.273329746396
 30
0.0
 40
2.5
100
AcDbArc
 50
166.989836760694
 51
-104.999999999999
  0
ARC
  5
2E5
330
A
100
AcDbEntity
  8
1
  6
Continuous
 62
     3
100
AcDbCircle
 10
-482.305032218788
 20
289.273329746396
 30
0.0
 40
2.5
100
AcDbArc
 50
-104.999999999999
 51
-16.989836760695
  0
ARC
  5
2E4
330
A
100
AcDbEntity
  8
1
  6
Continuous
 62
     3
100
AcDbCircle
 10
-482.305032218788
 20
289.273329746396
 30
0.0
 40
2.5
100
AcDbArc
 50
-16.989836760695
 51
74.999999999997
  0
ARC
  5
2E3
330
A
100
AcDbEntity
  8
1
  6
Continuous
 62
     3
100
AcDbCircle
 10
-235.0
 20
349.72221848715
 30
0.0
 40
12.8
100
AcDbArc
 50
0.0
 51
90.0
  0
ARC
  5
2E2
330
A
100
AcDbEntity
  8
1
  6
Continuous
 62
     3
100
AcDbCircle
 10
-235.0
 20
300.722218487149
 30
0.0
 40
7.2
100
AcDbArc
 50
-90.0
 51
0.0
  0
ARC
  5
2E1
330
A
100
AcDbEntity
  8
1
  6
Continuous
 62
     3
100
AcDbCircle
 10
-235.0
 20
300.722218487149
 30
0.0
 40
12.8
100
AcDbArc
 50
-90.0
 51
0.0
  0
ARC
  5
2E0
330
A
100
AcDbEntity
  8
1
  6
Continuous
 62
     3
100
AcDbCircle
 10
-252.633333327004
 20
361.1222184871309
 30
0.0
 40
2.333333333324
100
AcDbArc
 50
143.130102353437
 51
-143.130102354146
  0
ARC
  5
2DF
330
A
100
AcDbEntity
  8
1
  6
Continuous
 62
     3
100
AcDbCircle
 10
-252.633333327004
 20
358.322218487168
 30
0.0
 40
2.333333333301999
100
AcDbArc
 50
143.130102354145
 51
-143.13010235343
  0
ARC
  5
2DE
330
A
100
AcDbEntity
  8
1
  6
Continuous
 62
     3
100
AcDbCircle
 10
-256.3666666603459
 20
358.322218487168
 30
0.0
 40
2.333333333324
100
AcDbArc
 50
-36.869897646573
 51
36.86989764585101
  0
ARC
  5
2DD
330
A
100
AcDbEntity
  8
1
  6
Continuous
 62
     3
100
AcDbCircle
 10
-255.633333326945
 20
361.1222184871309
 30
0.0
 40
2.333333333324
100
AcDbArc
 50
143.13010235344
 51
-143.13010235415
  0
ARC
  5
2DC
330
A
100
AcDbEntity
  8
1
  6
Continuous
 62
     3
100
AcDbCircle
 10
-259.366666660287
 20
358.322218487168
 30
0.0
 40
2.333333333324
100
AcDbArc
 50
-36.869897646575
 51
36.869897645852
  0
ARC
  5
2DB
330
A
100
AcDbEntity
  8
1
  6
Continuous
 62
     3
100
AcDbCircle
 10
-259.366666660288
 20
361.1222184871309
 30
0.0
 40
2.333333333302999
100
AcDbArc
 50
-36.869897645852
 51
36.869897646561
  0
ARC
  5
2DA
330
A
100
AcDbEntity
  8
1
  6
Continuous
 62
     3
100
AcDbCircle
 10
-260.066666660305
 20
410.147218487144
 30
0.0
 40
3.208333333324
100
AcDbArc
 50
-36.869897645844
 51
36.869897646569
  0
ARC
  5
2D9
330
A
100
AcDbEntity
  8
1
  6
Continuous
 62
     3
100
AcDbCircle
 10
-260.066666660305
 20
406.297218487155
 30
0.0
 40
3.208333333354
100
AcDbArc
 50
-36.869897646573
 51
36.86989764585101
  0
ARC
  5
2D8
330
A
100
AcDbEntity
  8
1
  6
Continuous
 62
     3
100
AcDbCircle
 10
-254.933333326928
 20
410.147218487144
 30
0.0
 40
3.208333333354
100
AcDbArc
 50
143.13010235343
 51
-143.130102354155
  0
ARC
  5
2D7
330
A
100
AcDbEntity
  8
1
  6
Continuous
 62
     3
100
AcDbCircle
 10
-257.066666660364
 20
406.297218487155
 30
0.0
 40
3.208333333354
100
AcDbArc
 50
-36.869897646572
 51
36.86989764585
  0
ARC
  5
2D6
330
A
100
AcDbEntity
  8
1
  6
Continuous
 62
     3
100
AcDbCircle
 10
-251.933333326987
 20
406.297218487155
 30
0.0
 40
3.208333333324
100
AcDbArc
 50
143.130102354149
 51
-143.130102353427
  0
ARC
  5
2D5
330
A
100
AcDbEntity
  8
1
  6
Continuous
 62
     3
100
AcDbCircle
 10
-251.933333326987
 20
410.147218487144
 30
0.0
 40
3.208333333354
100
AcDbArc
 50
143.130102353427
 51
-143.130102354152
  0
ARC
  5
2D4
330
A
100
AcDbEntity
  8
1
  6
DASH_CENTER
 62
     3
100
AcDbCircle
 10
-131.919938471073
 20
254.50000834085
 30
0.0
 40
37.49999923762401
100
AcDbArc
 50
47.999980720094
 51
130.0
  0
ARC
  5
2D3
330
A
100
AcDbEntity
  8
1
  6
Continuous
 62
     3
100
AcDbCircle
 10
-118.720154552176
 20
303.762221311162
 30
0.0
 40
3.25
100
AcDbArc
 50
-14.999999999975
 51
165.000000000001
  0
ARC
  5
2D2
330
A
100
AcDbEntity
  8
1
  6
Continuous
 62
     3
100
AcDbCircle
 10
-120.345799557946
 20
302.524860686
 30
0.0
 40
2.0
100
AcDbArc
 50
165.000000000002
 51
-103.538214394553
  0
ARC
  5
2D1
330
A
100
AcDbEntity
  8
1
  6
Continuous
 62
     3
100
AcDbCircle
 10
-117.930984992224
 20
301.877813073244
 30
0.0
 40
2.000000000001
100
AcDbArc
 50
-106.461785605442
 51
-15.000000000008
  0
ARC
  5
2D0
330
A
100
AcDbEntity
  8
1
  6
Continuous
 62
     3
100
AcDbCircle
 10
-179.297734755228
 20
268.4889450306
 30
0.0
 40
2.0
100
AcDbArc
 50
-16.461785605443
 51
75.00000000000099
  0
ARC
  5
2CF
330
A
100
AcDbEntity
  8
1
  6
Continuous
 62
     3
100
AcDbCircle
 10
-179.944782367984
 20
266.074130464877
 30
0.0
 40
2.0
100
AcDbArc
 50
-105.000000000001
 51
-13.538214394522
  0
ARC
  5
2CE
330
A
100
AcDbEntity
  8
1
  6
Continuous
 62
     3
100
AcDbCircle
 10
-181.182142993146
 20
267.699775470648
 30
0.0
 40
3.250000000001
100
AcDbArc
 50
75.000000000008
 51
-105.00000000002
  0
ARC
  5
2CD
330
A
100
AcDbEntity
  8
1
  6
Continuous
 62
     3
100
AcDbCircle
 10
-131.919925852404
 20
254.50000417042
 30
0.0
 40
46.49999999999899
100
AcDbArc
 50
44.95718758937
 51
135.042812034935
  0
ARC
  5
2CC
330
A
100
AcDbEntity
  8
1
  6
Continuous
 62
     3
100
AcDbCircle
 10
-163.32642426371
 20
287.422364959014
 30
0.0
 40
1.5
100
AcDbArc
 50
133.650116839316
 51
-127.499999322473
  0
ARC
  5
2CB
330
A
100
AcDbEntity
  8
1
  6
Continuous
 62
     3
100
AcDbCircle
 10
-163.654059973282
 20
278.850460667128
 30
0.0
 40
5.5
100
AcDbArc
 50
-128.934672790411
 51
55.015318846213
  0
ARC
  5
2CA
330
A
100
AcDbEntity
  8
1
  6
DASH_CENTER
 62
     3
100
AcDbCircle
 10
-131.91992598334
 20
254.500004203746
 30
0.0
 40
40.0
100
AcDbArc
 50
132.059296873456
 51
153.316089424404
  0
ARC
  5
2C9
330
A
100
AcDbEntity
  8
1
  6
Continuous
 62
     3
100
AcDbCircle
 10
-171.849084281907
 20
276.315418204201
 30
0.0
 40
1.500000000000999
100
AcDbArc
 50
102.460075633619
 51
151.349883036115
  0
ARC
  5
2C8
330
A
100
AcDbEntity
  8
1
  6
Continuous
 62
     3
100
AcDbCircle
 10
-100.513427213817
 20
287.422365010195
 30
0.0
 40
1.5
100
AcDbArc
 50
-54.936372638774
 51
46.34988303613499
  0
ARC
  5
2C7
330
A
100
AcDbEntity
  8
1
  6
DASH_CENTER
 62
     3
100
AcDbCircle
 10
-131.91992598334
 20
254.500004203746
 30
0.0
 40
39.999999999999
100
AcDbArc
 50
26.37968444678501
 51
48.790055968971
  0
ARC
  5
2C6
330
A
100
AcDbEntity
  8
1
  6
Continuous
 62
     3
100
AcDbCircle
 10
-100.185792175306
 20
278.850461245474
 30
0.0
 40
5.5
100
AcDbArc
 50
127.500000677538
 51
-52.499999322466
  0
ARC
  5
2C5
330
A
100
AcDbEntity
  8
1
  6
Continuous
 62
     3
100
AcDbCircle
 10
-84.54211694958001
 20
240.51106331024
 30
0.0
 40
1.999999999999
100
AcDbArc
 50
163.538214394546
 51
-105.0
  0
ARC
  5
2C4
330
A
100
AcDbEntity
  8
1
  6
Continuous
 62
     3
100
AcDbCircle
 10
-83.89506933682399
 20
242.925877875962
 30
0.0
 40
2.0
100
AcDbArc
 50
74.999999999975
 51
166.461785605466
  0
ARC
  5
2C3
330
A
100
AcDbEntity
  8
1
  6
Continuous
 62
     3
100
AcDbCircle
 10
-82.657708711661
 20
241.300232870191
 30
0.0
 40
3.25
100
AcDbArc
 50
-104.999999999996
 51
75.00000000000399
  0
ARC
  5
2C2
330
A
100
AcDbEntity
  8
1
  6
Continuous
 62
     3
100
AcDbCircle
 10
-138.919925901282
 20
209.541690152702
 30
0.0
 40
1.5
100
AcDbArc
 50
-49.96006567623
 51
0.000000677541
  0
ARC
  5
2C1
330
A
100
AcDbEntity
  8
1
  6
Continuous
 62
     3
100
AcDbCircle
 10
-131.919925728719
 20
214.50000417042
 30
0.0
 40
5.5
100
AcDbArc
 50
0.0
 51
180.0
  0
ARC
  5
2C0
330
A
100
AcDbEntity
  8
1
  6
DASH_CENTER
 62
     3
100
AcDbCircle
 10
-131.919925852404
 20
254.50000417042
 30
0.0
 40
40.000000000001
100
AcDbArc
 50
-99.81780798625601
 51
-79.747741569611
  0
ARC
  5
2BF
330
A
100
AcDbEntity
  8
1
  6
Continuous
 62
     3
100
AcDbCircle
 10
-145.908866712584
 20
207.122195267596
 30
0.0
 40
2.0
100
AcDbArc
 50
73.538214394522
 51
165.000000000004
  0
ARC
  5
2BE
330
A
100
AcDbEntity
  8
1
  6
Continuous
 62
     3
100
AcDbCircle
 10
-145.119697152632
 20
205.237787029678
 30
0.0
 40
3.25
100
AcDbArc
 50
165.000000000024
 51
-15.000000000012
  0
ARC
  5
2BD
330
A
100
AcDbEntity
  8
1
  6
Continuous
 62
     3
100
AcDbCircle
 10
-143.494052146862
 20
206.47514765484
 30
0.0
 40
2.000000000001
100
AcDbArc
 50
-15.000000000002
 51
76.46178560546601
  0
ARC
  5
2BC
330
A
100
AcDbEntity
  8
1
  6
PHANTOM
 62
     3
100
AcDbCircle
 10
-131.919925852404
 20
254.50000417042
 30
0.0
 40
47.817352202038
100
AcDbArc
 50
-148.0
 51
-100.0
  0
ARC
  5
2BB
330
A
100
AcDbEntity
  8
1
  6
PHANTOM
 62
     3
100
AcDbCircle
 10
-131.919925852404
 20
254.50000417042
 30
0.0
 40
47.817352202038
100
AcDbArc
 50
-80.0
 51
-32.0
  0
ARC
  5
2BA
330
A
100
AcDbEntity
  8
1
  6
Continuous
 62
     3
100
AcDbCircle
 10
-131.919925852403
 20
254.50000417042
 30
0.0
 40
46.500000000001
100
AcDbArc
 50
149.957187840486
 51
-97.45718771395202
  0
ARC
  5
2B9
330
A
100
AcDbEntity
  8
1
  6
Continuous
 62
     3
100
AcDbCircle
 10
-171.849084281907
 20
276.315418204201
 30
0.0
 40
1.5
100
AcDbArc
 50
50.06362736127201
 51
102.460075633619
  0
ARC
  5
2B8
330
A
100
AcDbEntity
  8
1
  6
Continuous
 62
     3
100
AcDbCircle
 10
-138.919925901282
 20
209.541690152702
 30
0.0
 40
1.5
100
AcDbArc
 50
-98.84988316069401
 51
-49.96006567623
  0
ARC
  5
2B7
330
A
100
AcDbEntity
  8
1
  6
Continuous
 62
     3
100
AcDbCircle
 10
-91.99076721976998
 20
276.315418236852
 30
0.0
 40
1.5
100
AcDbArc
 50
77.53993432370901
 51
127.500000677511
  0
ARC
  5
2B6
330
A
100
AcDbEntity
  8
1
  6
Continuous
 62
     3
100
AcDbCircle
 10
-124.919925556157
 20
209.541690152702
 30
0.0
 40
1.500000000000999
100
AcDbArc
 50
-130.039935987164
 51
-81.150116839268
  0
ARC
  5
2B5
330
A
100
AcDbEntity
  8
1
  6
Continuous
 62
     3
100
AcDbCircle
 10
-131.919925852404
 20
254.50000417042
 30
0.0
 40
46.5
100
AcDbArc
 50
-82.54281202008
 51
30.042812286047
  0
ARC
  5
2B4
330
A
100
AcDbEntity
  8
1
  6
Continuous
 62
     3
100
AcDbCircle
 10
-91.99076721976998
 20
276.315418236852
 30
0.0
 40
1.5
100
AcDbArc
 50
28.650116839293
 51
77.53993432370901
  0
ARC
  5
2B3
330
A
100
AcDbEntity
  8
1
  6
Continuous
 62
     3
100
AcDbCircle
 10
-124.919925556157
 20
209.541690152702
 30
0.0
 40
1.5
100
AcDbArc
 50
179.999999322458
 51
-130.039935987164
  0
LINE
  5
2B2
330
A
100
AcDbEntity
  8
1
  6
Continuous
 62
     3
100
AcDbLine
 10
-285.000000000001
 20
228.358758383576
 30
0.0
 11
-285.000000000001
 21
210.206443655352
 31
0.0
  0
LINE
  5
2B1
330
A
100
AcDbEntity
  8
1
  6
Continuous
 62
     3
100
AcDbLine
 10
-283.500000000001
 20
208.706443655352
 30
0.0
 11
-260.500000000001
 21
208.706443655352
 31
0.0
  0
LINE
  5
2B0
330
A
100
AcDbEntity
  8
1
  6
Continuous
 62
     3
100
AcDbLine
 10
-259.000000000001
 20
210.206443655352
 30
0.0
 11
-259.000000000001
 21
228.358758383576
 31
0.0
  0
LINE
  5
2AF
330
A
100
AcDbEntity
  8
1
  6
Continuous
 62
     3
100
AcDbLine
 10
-260.500000000001
 20
229.858758383576
 30
0.0
 11
-283.500000000001
 21
229.858758383576
 31
0.0
  0
LINE
  5
2AE
330
A
100
AcDbEntity
  8
1
  6
Continuous
 62
     3
100
AcDbLine
 10
-137.270002824968
 20
287.36552406204
 30
0.0
 11
-138.268941443277
 21
286.36658544373
 31
0.0
  0
LINE
  5
2AD
330
A
100
AcDbEntity
  8
1
  6
Continuous
 62
     3
100
AcDbLine
 10
-142.354807688479
 20
285.27178088294
 30
0.0
 11
-138.268941443277
 21
286.36658544373
 31
0.0
  0
LINE
  5
2AC
330
A
100
AcDbEntity
  8
1
  6
Continuous
 62
     3
100
AcDbLine
 10
-142.354807688479
 20
285.27178088294
 30
0.0
 11
-143.719383217912
 21
285.63741779406
 31
0.0
  0
LINE
  5
2AB
330
A
100
AcDbEntity
  8
1
  6
Continuous
 62
     3
100
AcDbLine
 10
-140.896472389163
 20
296.17266443221
 30
0.0
 11
-144.982338634365
 21
295.07785987143
 31
0.0
  0
LINE
  5
2AA
330
A
100
AcDbEntity
  8
1
  6
Continuous
 62
     3
100
AcDbLine
 10
-136.540835175309
 20
292.8159658366701
 30
0.0
 11
-136.175198264186
 21
291.45139030724
 31
0.0
  0
LINE
  5
2A9
330
A
100
AcDbEntity
  8
1
  6
Continuous
 62
     3
100
AcDbLine
 10
-137.270002824968
 20
287.36552406204
 30
0.0
 11
-136.175198264186
 21
291.45139030724
 31
0.0
  0
LINE
  5
2A8
330
A
100
AcDbEntity
  8
1
  6
Continuous
 62
     3
100
AcDbLine
 10
-140.896472389163
 20
296.17266443221
 30
0.0
 11
-139.5318968597299
 21
295.80702752109
 31
0.0
  0
LINE
  5
2A7
330
A
100
AcDbEntity
  8
1
  6
Continuous
 62
     3
100
AcDbLine
 10
-136.540835175309
 20
292.8159658366701
 30
0.0
 11
-139.5318968597299
 21
295.80702752109
 31
0.0
  0
LINE
  5
2A6
330
A
100
AcDbEntity
  8
1
  6
Continuous
 62
     3
100
AcDbLine
 10
-145.981277252674
 20
294.07892125312
 30
0.0
 11
-147.076081813456
 21
289.99305500791
 31
0.0
  0
LINE
  5
2A5
330
A
100
AcDbEntity
  8
1
  6
Continuous
 62
     3
100
AcDbLine
 10
-146.710444902333
 20
288.62847947848
 30
0.0
 11
-147.076081813456
 21
289.99305500791
 31
0.0
  0
LINE
  5
2A4
330
A
100
AcDbEntity
  8
1
  6
Continuous
 62
     3
100
AcDbLine
 10
-146.710444902333
 20
288.62847947848
 30
0.0
 11
-143.719383217912
 21
285.63741779406
 31
0.0
  0
LINE
  5
2A3
330
A
100
AcDbEntity
  8
1
  6
Continuous
 62
     3
100
AcDbLine
 10
-145.981277252674
 20
294.07892125312
 30
0.0
 11
-144.982338634365
 21
295.07785987143
 31
0.0
  0
LINE
  5
2A2
330
A
100
AcDbEntity
  8
1
  6
Continuous
 62
     3
100
AcDbLine
 10
-119.739337923206
 20
284.71181501677
 30
0.0
 11
-116.203804018647
 21
288.24734892407
 31
0.0
  0
LINE
  5
2A1
330
A
100
AcDbEntity
  8
1
  6
Continuous
 62
     3
100
AcDbLine
 10
-115.771609088869
 20
289.86032236329
 30
0.0
 11
-117.065704316258
 21
294.68995149423
 31
0.0
  0
LINE
  5
2A0
330
A
100
AcDbEntity
  8
1
  6
Continuous
 62
     3
100
AcDbLine
 10
-115.771609088869
 20
289.86032236329
 30
0.0
 11
-116.203804018647
 21
288.24734892407
 31
0.0
  0
LINE
  5
29F
330
A
100
AcDbEntity
  8
1
  6
Continuous
 62
     3
100
AcDbLine
 10
-118.246482825357
 20
295.87073000241
 30
0.0
 11
-117.065704316258
 21
294.68995149423
 31
0.0
  0
LINE
  5
29E
330
A
100
AcDbEntity
  8
1
  6
Continuous
 62
     3
100
AcDbLine
 10
-126.181940494031
 20
285.57371530937
 30
0.0
 11
-127.362719003131
 21
286.75449381755
 31
0.0
  0
LINE
  5
29D
330
A
100
AcDbEntity
  8
1
  6
Continuous
 62
     3
100
AcDbLine
 10
-126.181940494031
 20
285.57371530937
 30
0.0
 11
-121.352311362083
 21
284.27962008573
 31
0.0
  0
LINE
  5
29C
330
A
100
AcDbEntity
  8
1
  6
Continuous
 62
     3
100
AcDbLine
 10
-124.689085396183
 20
296.73263029501
 30
0.0
 11
-128.224619300742
 21
293.19709638771
 31
0.0
  0
LINE
  5
29B
330
A
100
AcDbEntity
  8
1
  6
Continuous
 62
     3
100
AcDbLine
 10
-128.65681423052
 20
291.58412294849
 30
0.0
 11
-127.362719003131
 21
286.75449381755
 31
0.0
  0
LINE
  5
29A
330
A
100
AcDbEntity
  8
1
  6
Continuous
 62
     3
100
AcDbLine
 10
-128.65681423052
 20
291.58412294849
 30
0.0
 11
-128.224619300742
 21
293.19709638771
 31
0.0
  0
LINE
  5
299
330
A
100
AcDbEntity
  8
1
  6
Continuous
 62
     3
100
AcDbLine
 10
-124.689085396183
 20
296.73263029501
 30
0.0
 11
-123.076111957305
 21
297.16482522605
 31
0.0
  0
LINE
  5
298
330
A
100
AcDbEntity
  8
1
  6
Continuous
 62
     3
100
AcDbLine
 10
-118.246482825357
 20
295.87073000241
 30
0.0
 11
-123.076111957305
 21
297.16482522605
 31
0.0
  0
LINE
  5
297
330
A
100
AcDbEntity
  8
1
  6
Continuous
 62
     3
100
AcDbLine
 10
-119.739337923206
 20
284.71181501677
 30
0.0
 11
-121.352311362083
 21
284.27962008573
 31
0.0
  0
LINE
  5
296
330
A
100
AcDbEntity
  8
1
  6
Continuous
 62
     3
100
AcDbLine
 10
-162.654060098141
 20
278.273110439186
 30
0.0
 11
-162.654060098141
 21
279.427810977565
 31
0.0
  0
LINE
  5
295
330
A
100
AcDbEntity
  8
1
  6
Continuous
 62
     3
100
AcDbLine
 10
-163.654060098141
 20
277.695760169996
 30
0.0
 11
-162.654060098141
 21
278.273110439186
 31
0.0
  0
LINE
  5
294
330
A
100
AcDbEntity
  8
1
  6
Continuous
 62
     3
100
AcDbLine
 10
-164.654060098141
 20
278.273110439186
 30
0.0
 11
-163.654060098141
 21
277.695760169996
 31
0.0
  0
LINE
  5
293
330
A
100
AcDbEntity
  8
1
  6
Continuous
 62
     3
100
AcDbLine
 10
-164.654060098141
 20
279.427810977565
 30
0.0
 11
-164.654060098141
 21
278.273110439186
 31
0.0
  0
LINE
  5
292
330
A
100
AcDbEntity
  8
1
  6
Continuous
 62
     3
100
AcDbLine
 10
-163.654060098141
 20
280.0051612467539
 30
0.0
 11
-164.654060098141
 21
279.427810977565
 31
0.0
  0
LINE
  5
291
330
A
100
AcDbEntity
  8
1
  6
Continuous
 62
     3
100
AcDbLine
 10
-162.654060098141
 20
279.427810977565
 30
0.0
 11
-163.654060098141
 21
280.0051612467539
 31
0.0
  0
LINE
  5
290
330
A
100
AcDbEntity
  8
1
  6
Continuous
 62
     3
100
AcDbLine
 10
-99.18579231443199
 20
278.273111020283
 30
0.0
 11
-99.18579231443199
 21
279.427811558663
 31
0.0
  0
LINE
  5
28F
330
A
100
AcDbEntity
  8
1
  6
Continuous
 62
     3
100
AcDbLine
 10
-100.185792314432
 20
277.6957607510941
 30
0.0
 11
-99.18579231443199
 21
278.273111020283
 31
0.0
  0
LINE
  5
28E
330
A
100
AcDbEntity
  8
1
  6
Continuous
 62
     3
100
AcDbLine
 10
-101.185792314432
 20
278.273111020283
 30
0.0
 11
-100.185792314432
 21
277.6957607510941
 31
0.0
  0
LINE
  5
28D
330
A
100
AcDbEntity
  8
1
  6
Continuous
 62
     3
100
AcDbLine
 10
-101.185792314432
 20
279.427811558663
 30
0.0
 11
-101.185792314432
 21
278.273111020283
 31
0.0
  0
LINE
  5
28C
330
A
100
AcDbEntity
  8
1
  6
Continuous
 62
     3
100
AcDbLine
 10
-100.185792314432
 20
280.005161827852
 30
0.0
 11
-101.185792314432
 21
279.427811558663
 31
0.0
  0
LINE
  5
28B
330
A
100
AcDbEntity
  8
1
  6
Continuous
 62
     3
100
AcDbLine
 10
-99.18579231443199
 20
279.427811558663
 30
0.0
 11
-100.185792314432
 21
280.005161827852
 31
0.0
  0
LINE
  5
28A
330
A
100
AcDbEntity
  8
1
  6
Continuous
 62
     3
100
AcDbLine
 10
-130.919925852404
 20
213.922653934556
 30
0.0
 11
-130.919925852404
 21
215.077354472935
 31
0.0
  0
LINE
  5
289
330
A
100
AcDbEntity
  8
1
  6
Continuous
 62
     3
100
AcDbLine
 10
-131.919925852404
 20
213.345303665367
 30
0.0
 11
-130.919925852404
 21
213.922653934556
 31
0.0
  0
LINE
  5
288
330
A
100
AcDbEntity
  8
1
  6
Continuous
 62
     3
100
AcDbLine
 10
-132.919925852404
 20
213.922653934556
 30
0.0
 11
-131.919925852404
 21
213.345303665367
 31
0.0
  0
LINE
  5
287
330
A
100
AcDbEntity
  8
1
  6
Continuous
 62
     3
100
AcDbLine
 10
-132.919925852404
 20
215.077354472935
 30
0.0
 11
-132.919925852404
 21
213.922653934556
 31
0.0
  0
LINE
  5
286
330
A
100
AcDbEntity
  8
1
  6
Continuous
 62
     3
100
AcDbLine
 10
-131.919925852404
 20
215.654704742125
 30
0.0
 11
-132.919925852404
 21
215.077354472935
 31
0.0
  0
LINE
  5
285
330
A
100
AcDbEntity
  8
1
  6
Continuous
 62
     3
100
AcDbLine
 10
-130.919925852404
 20
215.077354472935
 30
0.0
 11
-131.919925852404
 21
215.654704742125
 31
0.0
  0
LINE
  5
284
330
A
100
AcDbEntity
  8
1
  6
Continuous
 62
     3
100
AcDbLine
 10
-119.093727665578
 20
305.156415150726
 30
0.0
 11
-120.114348391738
 21
304.135794424567
 31
0.0
  0
LINE
  5
283
330
A
100
AcDbEntity
  8
1
  6
Continuous
 62
     3
100
AcDbLine
 10
-120.114348391738
 20
304.135794424567
 30
0.0
 11
-119.740775278336
 21
302.741600585003
 31
0.0
  0
LINE
  5
282
330
A
100
AcDbEntity
  8
1
  6
Continuous
 62
     3
100
AcDbLine
 10
-119.740775278336
 20
302.741600585003
 30
0.0
 11
-118.346581438773
 21
302.368027471599
 31
0.0
  0
LINE
  5
281
330
A
100
AcDbEntity
  8
1
  6
Continuous
 62
     3
100
AcDbLine
 10
-118.346581438773
 20
302.368027471599
 30
0.0
 11
-117.325960712613
 21
303.388648197758
 31
0.0
  0
LINE
  5
280
330
A
100
AcDbEntity
  8
1
  6
Continuous
 62
     3
100
AcDbLine
 10
-117.325960712613
 20
303.388648197758
 30
0.0
 11
-117.699533826015
 21
304.782842037321
 31
0.0
  0
LINE
  5
27F
330
A
100
AcDbEntity
  8
1
  6
Continuous
 62
     3
100
AcDbLine
 10
-117.699533826015
 20
304.782842037321
 30
0.0
 11
-119.093727665578
 21
305.156415150726
 31
0.0
  0
LINE
  5
27E
330
A
100
AcDbEntity
  8
1
  6
Continuous
 62
     3
100
AcDbLine
 10
-117.699533826014
 20
304.782842037321
 30
0.0
 11
-119.093727665577
 21
305.156415150725
 31
0.0
  0
LINE
  5
27D
330
A
100
AcDbEntity
  8
1
  6
Continuous
 62
     3
100
AcDbLine
 10
-117.325960712611
 20
303.388648197758
 30
0.0
 11
-117.699533826014
 21
304.782842037321
 31
0.0
  0
LINE
  5
27C
330
A
100
AcDbEntity
  8
1
  6
Continuous
 62
     3
100
AcDbLine
 10
-118.34658143877
 20
302.368027471599
 30
0.0
 11
-117.325960712611
 21
303.388648197758
 31
0.0
  0
LINE
  5
27B
330
A
100
AcDbEntity
  8
1
  6
Continuous
 62
     3
100
AcDbLine
 10
-119.740775278333
 20
302.741600585002
 30
0.0
 11
-118.34658143877
 21
302.368027471599
 31
0.0
  0
LINE
  5
27A
330
A
100
AcDbEntity
  8
1
  6
Continuous
 62
     3
100
AcDbLine
 10
-120.114348391737
 20
304.135794424565
 30
0.0
 11
-119.740775278333
 21
302.741600585002
 31
0.0
  0
LINE
  5
279
330
A
100
AcDbEntity
  8
1
  6
Continuous
 62
     3
100
AcDbLine
 10
-119.093727665577
 20
305.156415150725
 30
0.0
 11
-120.114348391737
 21
304.135794424565
 31
0.0
  0
LINE
  5
278
330
A
100
AcDbEntity
  8
1
  6
Continuous
 62
     3
100
AcDbLine
 10
-81.263514872099
 20
241.673805983593
 30
0.0
 11
-82.28413559825801
 21
242.694426709752
 31
0.0
  0
LINE
  5
277
330
A
100
AcDbEntity
  8
1
  6
Continuous
 62
     3
100
AcDbLine
 10
-82.28413559825801
 20
242.694426709752
 30
0.0
 11
-83.678329437822
 21
242.320853596349
 31
0.0
  0
LINE
  5
276
330
A
100
AcDbEntity
  8
1
  6
Continuous
 62
     3
100
AcDbLine
 10
-83.03128182506501
 20
239.906039030626
 30
0.0
 11
-81.63708798550201
 21
240.27961214403
 31
0.0
  0
LINE
  5
275
330
A
100
AcDbEntity
  8
1
  6
Continuous
 62
     3
100
AcDbLine
 10
-81.63708798550201
 20
240.27961214403
 30
0.0
 11
-81.263514872099
 21
241.673805983593
 31
0.0
  0
LINE
  5
274
330
A
100
AcDbEntity
  8
1
  6
Continuous
 62
     3
100
AcDbLine
 10
-83.678329437822
 20
242.320853596349
 30
0.0
 11
-84.051902551225
 21
240.926659756786
 31
0.0
  0
LINE
  5
273
330
A
100
AcDbEntity
  8
1
  6
Continuous
 62
     3
100
AcDbLine
 10
-84.051902551225
 20
240.926659756786
 30
0.0
 11
-83.03128182506501
 21
239.906039030626
 31
0.0
  0
LINE
  5
272
330
A
100
AcDbEntity
  8
1
  6
Continuous
 62
     3
100
AcDbLine
 10
-146.140317878794
 20
204.217166303518
 30
0.0
 11
-144.746124039231
 21
203.843593190115
 31
0.0
  0
LINE
  5
271
330
A
100
AcDbEntity
  8
1
  6
Continuous
 62
     3
100
AcDbLine
 10
-144.746124039231
 20
203.843593190115
 30
0.0
 11
-143.72550331307
 21
204.864213916273
 31
0.0
  0
LINE
  5
270
330
A
100
AcDbEntity
  8
1
  6
Continuous
 62
     3
100
AcDbLine
 10
-143.72550331307
 20
204.864213916273
 30
0.0
 11
-144.099076426472
 21
206.258407755837
 31
0.0
  0
LINE
  5
26F
330
A
100
AcDbEntity
  8
1
  6
Continuous
 62
     3
100
AcDbLine
 10
-144.099076426472
 20
206.258407755837
 30
0.0
 11
-145.493270266035
 21
206.631980869241
 31
0.0
  0
LINE
  5
26E
330
A
100
AcDbEntity
  8
1
  6
Continuous
 62
     3
100
AcDbLine
 10
-146.140317878794
 20
204.217166303518
 30
0.0
 11
-144.746124039231
 21
203.843593190115
 31
0.0
  0
LINE
  5
26D
330
A
100
AcDbEntity
  8
1
  6
Continuous
 62
     3
100
AcDbLine
 10
-144.099076426475
 20
206.258407755837
 30
0.0
 11
-145.493270266038
 21
206.631980869241
 31
0.0
  0
LINE
  5
26C
330
A
100
AcDbEntity
  8
1
  6
Continuous
 62
     3
100
AcDbLine
 10
-143.725503313071
 20
204.864213916274
 30
0.0
 11
-144.099076426475
 21
206.258407755837
 31
0.0
  0
LINE
  5
26B
330
A
100
AcDbEntity
  8
1
  6
Continuous
 62
     3
100
AcDbLine
 10
-144.746124039231
 20
203.843593190115
 30
0.0
 11
-143.725503313071
 21
204.864213916274
 31
0.0
  0
LINE
  5
26A
330
A
100
AcDbEntity
  8
1
  6
Continuous
 62
     3
100
AcDbLine
 10
-146.513890992197
 20
205.611360143081
 30
0.0
 11
-146.140317878794
 21
204.217166303518
 31
0.0
  0
LINE
  5
269
330
A
100
AcDbEntity
  8
1
  6
Continuous
 62
     3
100
AcDbLine
 10
-145.493270266038
 20
206.631980869241
 30
0.0
 11
-146.513890992197
 21
205.611360143081
 31
0.0
  0
LINE
  5
268
330
A
100
AcDbEntity
  8
1
  6
Continuous
 62
     3
100
AcDbLine
 10
-182.202763719306
 20
268.72039619681
 30
0.0
 11
-182.576336832709
 21
267.326202357247
 31
0.0
  0
LINE
  5
267
330
A
100
AcDbEntity
  8
1
  6
Continuous
 62
     3
100
AcDbLine
 10
-180.808569879743
 20
269.093969310213
 30
0.0
 11
-182.202763719306
 21
268.72039619681
 31
0.0
  0
LINE
  5
266
330
A
100
AcDbEntity
  8
1
  6
Continuous
 62
     3
100
AcDbLine
 10
-179.7879491535829
 20
268.073348584053
 30
0.0
 11
-180.808569879743
 21
269.093969310213
 31
0.0
  0
LINE
  5
265
330
A
100
AcDbEntity
  8
1
  6
Continuous
 62
     3
100
AcDbLine
 10
-180.161522266986
 20
266.6791547444899
 30
0.0
 11
-179.7879491535829
 21
268.073348584053
 31
0.0
  0
LINE
  5
264
330
A
100
AcDbEntity
  8
1
  6
Continuous
 62
     3
100
AcDbLine
 10
-181.55571610655
 20
266.305581631087
 30
0.0
 11
-180.161522266986
 21
266.6791547444899
 31
0.0
  0
LINE
  5
263
330
A
100
AcDbEntity
  8
1
  6
Continuous
 62
     3
100
AcDbLine
 10
-182.576336832709
 20
267.326202357247
 30
0.0
 11
-181.55571610655
 21
266.305581631087
 31
0.0
  0
LINE
  5
262
330
A
100
AcDbEntity
  8
1
  6
Continuous
 62
     3
100
AcDbLine
 10
-257.350000000001
 20
280.350456463371
 30
0.0
 11
-257.350000000001
 21
277.780083882045
 31
0.0
  0
LINE
  5
261
330
A
100
AcDbEntity
  8
1
  6
Continuous
 62
     3
100
AcDbLine
 10
-355.499999993646
 20
413.1172184871489
 30
0.0
 11
-365.499999993646
 21
413.1172184871489
 31
0.0
  0
LINE
  5
260
330
A
100
AcDbEntity
  8
1
  6
Continuous
 62
     3
100
AcDbLine
 10
-355.499999993646
 20
401.8172184871489
 30
0.0
 11
-355.499999993646
 21
413.1172184871489
 31
0.0
  0
LINE
  5
25F
330
A
100
AcDbEntity
  8
1
  6
Continuous
 62
     3
100
AcDbLine
 10
-364.499999993646
 20
401.8172184871489
 30
0.0
 11
-355.499999993646
 21
401.8172184871489
 31
0.0
  0
LINE
  5
25E
330
A
100
AcDbEntity
  8
1
  6
Continuous
 62
     3
100
AcDbLine
 10
-364.499999993646
 20
404.3172184871489
 30
0.0
 11
-365.499999993646
 21
404.3172184871489
 31
0.0
  0
LINE
  5
25D
330
A
100
AcDbEntity
  8
1
  6
Continuous
 62
     3
100
AcDbLine
 10
-365.499999993646
 20
413.1172184871489
 30
0.0
 11
-365.499999993646
 21
404.3172184871489
 31
0.0
  0
LINE
  5
25C
330
A
100
AcDbEntity
  8
1
  6
Continuous
 62
     3
100
AcDbLine
 10
-364.499999993646
 20
401.8172184871489
 30
0.0
 11
-364.499999993646
 21
404.3172184871489
 31
0.0
  0
LINE
  5
25B
330
A
100
AcDbEntity
  8
1
  6
Continuous
 62
     3
100
AcDbLine
 10
-354.329999993646
 20
411.9472184871489
 30
0.0
 11
-355.499999993646
 21
413.1172184871489
 31
0.0
  0
LINE
  5
25A
330
A
100
AcDbEntity
  8
1
  6
Continuous
 62
     3
100
AcDbLine
 10
-344.499999993646
 20
411.9472184871489
 30
0.0
 11
-354.329999993646
 21
411.9472184871489
 31
0.0
  0
LINE
  5
259
330
A
100
AcDbEntity
  8
1
  6
Continuous
 62
     3
100
AcDbLine
 10
-354.329999993646
 20
403.997218487149
 30
0.0
 11
-355.499999993646
 21
401.8172184871489
 31
0.0
  0
LINE
  5
258
330
A
100
AcDbEntity
  8
1
  6
Continuous
 62
     3
100
AcDbLine
 10
-354.329999993646
 20
403.997218487149
 30
0.0
 11
-354.329999993646
 21
411.9472184871489
 31
0.0
  0
LINE
  5
257
330
A
100
AcDbEntity
  8
1
  6
Continuous
 62
     3
100
AcDbLine
 10
-348.499999993646
 20
403.997218487149
 30
0.0
 11
-354.329999993646
 21
403.997218487149
 31
0.0
  0
LINE
  5
256
330
A
100
AcDbEntity
  8
1
  6
Continuous
 62
     3
100
AcDbLine
 10
-348.211324859051
 20
404.497218487149
 30
0.0
 11
-348.499999993646
 21
403.997218487149
 31
0.0
  0
LINE
  5
255
330
A
100
AcDbEntity
  8
1
  6
Continuous
 62
     3
100
AcDbLine
 10
-348.211324859051
 20
404.497218487149
 30
0.0
 11
-344.499999993646
 21
404.497218487149
 31
0.0
  0
LINE
  5
254
330
A
100
AcDbEntity
  8
1
  6
Continuous
 62
     3
100
AcDbLine
 10
-344.499999993646
 20
404.497218487149
 30
0.0
 11
-344.499999993646
 21
411.9472184871489
 31
0.0
  0
LINE
  5
253
330
A
100
AcDbEntity
  8
0
  6
Continuous
 62
     3
100
AcDbLine
 10
-344.411099993646
 20
354.3880967068
 30
0.0
 11
-344.411099993646
 21
353.3720967068
 31
0.0
  0
LINE
  5
252
330
A
100
AcDbEntity
  8
0
  6
Continuous
 62
     3
100
AcDbLine
 10
-344.411099993646
 20
366.0720967068
 30
0.0
 11
-344.411099993646
 21
365.0560967068
 31
0.0
  0
LINE
  5
251
330
A
100
AcDbEntity
  8
0
  6
Continuous
 62
     3
100
AcDbLine
 10
-344.499999993646
 20
352.7370967068
 30
0.0
 11
-344.499999993646
 21
368.2310613646
 31
0.0
  0
LINE
  5
250
330
A
100
AcDbEntity
  8
0
  6
Continuous
 62
     3
100
AcDbLine
 10
-350.087999993646
 20
371.4865896645
 30
0.0
 11
-350.722999993646
 21
371.4865896645
 31
0.0
  0
LINE
  5
24F
330
A
100
AcDbEntity
  8
0
  6
Continuous
 62
     3
100
AcDbLine
 10
-347.039999993646
 20
352.7370967068
 30
0.0
 11
-347.039999993646
 21
366.7070967068
 31
0.0
  0
LINE
  5
24E
330
A
100
AcDbEntity
  8
0
  6
Continuous
 62
     3
100
AcDbLine
 10
-351.484999993646
 20
370.7245896644999
 30
0.0
 11
-367.867999993646
 21
370.2630967068
 31
0.0
  0
LINE
  5
24D
330
A
100
AcDbEntity
  8
0
  6
Continuous
 62
     3
100
AcDbLine
 10
-350.087999993646
 20
369.2470967068
 30
0.0
 11
-357.453999993646
 21
369.2470967068
 31
0.0
  0
LINE
  5
24C
330
A
100
AcDbEntity
  8
0
  6
Continuous
 62
     3
100
AcDbLine
 10
-344.499999993646
 20
368.2310967068
 30
0.0
 11
-350.087999993646
 21
368.2310967068
 31
0.0
  0
LINE
  5
24B
330
A
100
AcDbEntity
  8
0
  6
Continuous
 62
     3
100
AcDbLine
 10
-366.768147730846
 20
367.9770967068
 30
0.0
 11
-358.7239999936461
 21
367.9770967068
 31
0.0
  0
LINE
  5
24A
330
A
100
AcDbEntity
  8
0
  6
Continuous
 62
     3
100
AcDbLine
 10
-357.453999993646
 20
367.8545767816999
 30
0.0
 11
-344.499999993646
 21
367.8545767816999
 31
0.0
  0
LINE
  5
249
330
A
100
AcDbEntity
  8
0
  6
Continuous
 62
     3
100
AcDbLine
 10
-360.249999993646
 20
367.8545767816999
 30
0.0
 11
-358.7239999936461
 21
367.8545767816999
 31
0.0
  0
LINE
  5
248
330
A
100
AcDbEntity
  8
0
  6
Continuous
 62
     3
100
AcDbLine
 10
-357.453999993646
 20
367.9770967068
 30
0.0
 11
-350.087999993646
 21
368.1845896645
 31
0.0
  0
LINE
  5
247
330
A
100
AcDbEntity
  8
0
  6
Continuous
 62
     3
100
AcDbLine
 10
-350.087999993646
 20
368.1845896645
 30
0.0
 11
-350.087999993646
 21
371.4865896645
 31
0.0
  0
LINE
  5
246
330
A
100
AcDbEntity
  8
0
  6
Continuous
 62
     3
100
AcDbLine
 10
-350.087999993646
 20
347.9576037491
 30
0.0
 11
-350.087999993646
 21
351.2596037491001
 31
0.0
  0
LINE
  5
245
330
A
100
AcDbEntity
  8
0
  6
Continuous
 62
     3
100
AcDbLine
 10
-360.249999993646
 20
366.7070967068
 30
0.0
 11
-344.499999993646
 21
366.7070967068
 31
0.0
  0
LINE
  5
244
330
A
100
AcDbEntity
  8
0
  6
Continuous
 62
     3
100
AcDbLine
 10
-347.039999993646
 20
366.3260967068
 30
0.0
 11
-344.499999993646
 21
366.3260967068
 31
0.0
  0
LINE
  5
243
330
A
100
AcDbEntity
  8
0
  6
Continuous
 62
     3
100
AcDbLine
 10
-344.499999993646
 20
366.0720967068
 30
0.0
 11
-344.411099993646
 21
366.0720967068
 31
0.0
  0
LINE
  5
242
330
A
100
AcDbEntity
  8
0
  6
Continuous
 62
     3
100
AcDbLine
 10
-344.499999993646
 20
366.0504796881
 30
0.0
 11
-344.411099993646
 21
366.0504796881
 31
0.0
  0
LINE
  5
241
330
A
100
AcDbEntity
  8
0
  6
Continuous
 62
     3
100
AcDbLine
 10
-344.499999993646
 20
366.0072456507
 30
0.0
 11
-344.411099993646
 21
366.0072456507
 31
0.0
  0
LINE
  5
240
330
A
100
AcDbEntity
  8
0
  6
Continuous
 62
     3
100
AcDbLine
 10
-344.499999993646
 20
365.9207775759
 30
0.0
 11
-344.411099993646
 21
365.9207775759
 31
0.0
  0
LINE
  5
23F
330
A
100
AcDbEntity
  8
0
  6
Continuous
 62
     3
100
AcDbLine
 10
-344.499999993646
 20
365.8343095011
 30
0.0
 11
-344.411099993646
 21
365.8343095011
 31
0.0
  0
LINE
  5
23E
330
A
100
AcDbEntity
  8
0
  6
Continuous
 62
     3
100
AcDbLine
 10
-344.499999993646
 20
365.7910754031
 30
0.0
 11
-344.411099993646
 21
365.7910754031
 31
0.0
  0
LINE
  5
23D
330
A
100
AcDbEntity
  8
0
  6
Continuous
 62
     3
100
AcDbLine
 10
-344.499999993646
 20
365.7046073283
 30
0.0
 11
-344.411099993646
 21
365.7046073283
 31
0.0
  0
LINE
  5
23C
330
A
100
AcDbEntity
  8
0
  6
Continuous
 62
     3
100
AcDbLine
 10
-344.499999993646
 20
365.6613732909
 30
0.0
 11
-344.411099993646
 21
365.6613732909
 31
0.0
  0
LINE
  5
23B
330
A
100
AcDbEntity
  8
0
  6
Continuous
 62
     3
100
AcDbLine
 10
-344.499999993646
 20
365.6181392535
 30
0.0
 11
-344.411099993646
 21
365.6181392535
 31
0.0
  0
LINE
  5
23A
330
A
100
AcDbEntity
  8
0
  6
Continuous
 62
     3
100
AcDbLine
 10
-344.499999993646
 20
365.5316711788
 30
0.0
 11
-344.411099993646
 21
365.5316711788
 31
0.0
  0
LINE
  5
239
330
A
100
AcDbEntity
  8
0
  6
Continuous
 62
     3
100
AcDbLine
 10
-344.499999993646
 20
365.5100541601
 30
0.0
 11
-344.411099993646
 21
365.5100541601
 31
0.0
  0
LINE
  5
238
330
A
100
AcDbEntity
  8
0
  6
Continuous
 62
     3
100
AcDbLine
 10
-344.499999993646
 20
365.4668201227
 30
0.0
 11
-344.411099993646
 21
365.4668201227
 31
0.0
  0
LINE
  5
237
330
A
100
AcDbEntity
  8
0
  6
Continuous
 62
     3
100
AcDbLine
 10
-344.499999993646
 20
365.3803520176
 30
0.0
 11
-344.411099993646
 21
365.3803520176
 31
0.0
  0
LINE
  5
236
330
A
100
AcDbEntity
  8
0
  6
Continuous
 62
     3
100
AcDbLine
 10
-360.630999993646
 20
365.3291467068
 30
0.0
 11
-371.929999993646
 21
365.3291467068
 31
0.0
  0
LINE
  5
235
330
A
100
AcDbEntity
  8
0
  6
Continuous
 62
     3
100
AcDbLine
 10
-344.499999993646
 20
365.2938839428
 30
0.0
 11
-344.411099993646
 21
365.2938839428
 31
0.0
  0
LINE
  5
234
330
A
100
AcDbEntity
  8
0
  6
Continuous
 62
     3
100
AcDbLine
 10
-344.499999993646
 20
365.2290328715
 30
0.0
 11
-344.411099993646
 21
365.2290328715
 31
0.0
  0
LINE
  5
233
330
A
100
AcDbEntity
  8
0
  6
Continuous
 62
     3
100
AcDbLine
 10
-344.499999993646
 20
365.1641818154
 30
0.0
 11
-344.411099993646
 21
365.1641818154
 31
0.0
  0
LINE
  5
232
330
A
100
AcDbEntity
  8
0
  6
Continuous
 62
     3
100
AcDbLine
 10
-344.499999993646
 20
365.1209477705001
 30
0.0
 11
-344.411099993646
 21
365.1209477705001
 31
0.0
  0
LINE
  5
231
330
A
100
AcDbEntity
  8
0
  6
Continuous
 62
     3
100
AcDbLine
 10
-344.499999993646
 20
365.0777137273999
 30
0.0
 11
-344.411099993646
 21
365.0777137273999
 31
0.0
  0
LINE
  5
230
330
A
100
AcDbEntity
  8
0
  6
Continuous
 62
     3
100
AcDbLine
 10
-344.499999993646
 20
365.0560967068
 30
0.0
 11
-344.411099993646
 21
365.0560967068
 31
0.0
  0
LINE
  5
22F
330
A
100
AcDbEntity
  8
0
  6
Continuous
 62
     3
100
AcDbLine
 10
-367.867999993646
 20
368.6120967068
 30
0.0
 11
-366.768147730846
 21
367.9770967068
 31
0.0
  0
LINE
  5
22E
330
A
100
AcDbEntity
  8
0
  6
Continuous
 62
     3
100
AcDbLine
 10
-366.768147730846
 20
351.4670967068
 30
0.0
 11
-367.867999993646
 21
350.8320967068
 31
0.0
  0
LINE
  5
22D
330
A
100
AcDbEntity
  8
0
  6
Continuous
 62
     3
100
AcDbLine
 10
-360.630999678646
 20
360.4650467068
 30
0.0
 11
-371.929999993646
 21
360.4650467068
 31
0.0
  0
LINE
  5
22C
330
A
100
AcDbEntity
  8
0
  6
Continuous
 62
     3
100
AcDbLine
 10
-357.453999993646
 20
366.7070967068
 30
0.0
 11
-357.453999993646
 21
367.9770967068
 31
0.0
  0
LINE
  5
22B
330
A
100
AcDbEntity
  8
0
  6
Continuous
 62
     3
100
AcDbLine
 10
-357.453999993646
 20
350.1970967068
 30
0.0
 11
-357.453999993646
 21
351.4670967068
 31
0.0
  0
LINE
  5
22A
330
A
100
AcDbEntity
  8
0
  6
Continuous
 62
     3
100
AcDbLine
 10
-360.630982453346
 20
360.4650765429
 30
0.0
 11
-360.249981209046
 21
360.2451089865001
 31
0.0
  0
LINE
  5
229
330
A
100
AcDbEntity
  8
0
  6
Continuous
 62
     3
100
AcDbLine
 10
-360.630999678646
 20
358.9791467068
 30
0.0
 11
-371.929999993646
 21
358.9791467068
 31
0.0
  0
LINE
  5
228
330
A
100
AcDbEntity
  8
0
  6
Continuous
 62
     3
100
AcDbLine
 10
-360.630982453346
 20
358.9791168707
 30
0.0
 11
-360.249981209046
 21
359.1990844271
 31
0.0
  0
LINE
  5
227
330
A
100
AcDbEntity
  8
0
  6
Continuous
 62
     3
100
AcDbLine
 10
-358.7239999936461
 20
352.7370967068
 30
0.0
 11
-358.7239999936461
 21
351.4670967068
 31
0.0
  0
LINE
  5
226
330
A
100
AcDbEntity
  8
0
  6
Continuous
 62
     3
100
AcDbLine
 10
-358.7239999936461
 20
367.9770967068
 30
0.0
 11
-358.7239999936461
 21
366.7070967068
 31
0.0
  0
LINE
  5
225
330
A
100
AcDbEntity
  8
0
  6
Continuous
 62
     3
100
AcDbLine
 10
-360.249999993646
 20
352.7370967068
 30
0.0
 11
-360.249999993646
 21
367.9770967068
 31
0.0
  0
LINE
  5
224
330
A
100
AcDbEntity
  8
0
  6
Continuous
 62
     3
100
AcDbLine
 10
-351.484999993646
 20
348.7196037491
 30
0.0
 11
-350.722999993646
 21
347.9576037491
 31
0.0
  0
LINE
  5
223
330
A
100
AcDbEntity
  8
0
  6
Continuous
 62
     3
100
AcDbLine
 10
-350.722999993646
 20
371.4865896645
 30
0.0
 11
-351.484999993646
 21
370.7245896644999
 31
0.0
  0
LINE
  5
222
330
A
100
AcDbEntity
  8
0
  6
Continuous
 62
     3
100
AcDbLine
 10
-360.630999678646
 20
360.4650467068
 30
0.0
 11
-360.630999993646
 21
365.3291467068
 31
0.0
  0
LINE
  5
221
330
A
100
AcDbEntity
  8
0
  6
Continuous
 62
     3
100
AcDbLine
 10
-360.630999678846
 20
354.1150467068
 30
0.0
 11
-360.630999678646
 21
358.9791467068
 31
0.0
  0
LINE
  5
220
330
A
100
AcDbEntity
  8
0
  6
Continuous
 62
     3
100
AcDbLine
 10
-344.499999993646
 20
354.3880967068
 30
0.0
 11
-344.411099993646
 21
354.3880967068
 31
0.0
  0
LINE
  5
21F
330
A
100
AcDbEntity
  8
0
  6
Continuous
 62
     3
100
AcDbLine
 10
-344.499999993646
 20
354.3664796881
 30
0.0
 11
-344.411099993646
 21
354.3664796881
 31
0.0
  0
LINE
  5
21E
330
A
100
AcDbEntity
  8
0
  6
Continuous
 62
     3
100
AcDbLine
 10
-344.499999993646
 20
354.301628632
 30
0.0
 11
-344.411099993646
 21
354.301628632
 31
0.0
  0
LINE
  5
21D
330
A
100
AcDbEntity
  8
0
  6
Continuous
 62
     3
100
AcDbLine
 10
-344.499999993646
 20
354.2151605572
 30
0.0
 11
-344.411099993646
 21
354.2151605572
 31
0.0
  0
LINE
  5
21C
330
A
100
AcDbEntity
  8
0
  6
Continuous
 62
     3
100
AcDbLine
 10
-360.630999678846
 20
354.1150467068
 30
0.0
 11
-371.929999993646
 21
354.1150467068
 31
0.0
  0
LINE
  5
21B
330
A
100
AcDbEntity
  8
0
  6
Continuous
 62
     3
100
AcDbLine
 10
-344.499999993646
 20
354.107075403099
 30
0.0
 11
-344.411099993646
 21
354.107075403099
 31
0.0
  0
LINE
  5
21A
330
A
100
AcDbEntity
  8
0
  6
Continuous
 62
     3
100
AcDbLine
 10
-344.499999993646
 20
353.9557562722
 30
0.0
 11
-344.411099993646
 21
353.9557562722
 31
0.0
  0
LINE
  5
219
330
A
100
AcDbEntity
  8
0
  6
Continuous
 62
     3
100
AcDbLine
 10
-360.630999993646
 20
354.1150467068
 30
0.0
 11
-360.249999993646
 21
353.8950762542
 31
0.0
  0
LINE
  5
218
330
A
100
AcDbEntity
  8
0
  6
Continuous
 62
     3
100
AcDbLine
 10
-344.499999993646
 20
353.8044371414
 30
0.0
 11
-344.411099993646
 21
353.8044371414
 31
0.0
  0
LINE
  5
217
330
A
100
AcDbEntity
  8
0
  6
Continuous
 62
     3
100
AcDbLine
 10
-344.499999993646
 20
353.6531179802
 30
0.0
 11
-344.411099993646
 21
353.6531179802
 31
0.0
  0
LINE
  5
216
330
A
100
AcDbEntity
  8
0
  6
Continuous
 62
     3
100
AcDbLine
 10
-344.499999993646
 20
353.5450328715
 30
0.0
 11
-344.411099993646
 21
353.5450328715
 31
0.0
  0
LINE
  5
215
330
A
100
AcDbEntity
  8
0
  6
Continuous
 62
     3
100
AcDbLine
 10
-344.499999993646
 20
353.4585647891999
 30
0.0
 11
-344.411099993646
 21
353.4585647891999
 31
0.0
  0
LINE
  5
214
330
A
100
AcDbEntity
  8
0
  6
Continuous
 62
     3
100
AcDbLine
 10
-344.499999993646
 20
353.3937137274
 30
0.0
 11
-344.411099993646
 21
353.3937137274
 31
0.0
  0
LINE
  5
213
330
A
100
AcDbEntity
  8
0
  6
Continuous
 62
     3
100
AcDbLine
 10
-344.499999993646
 20
353.3720967068
 30
0.0
 11
-344.411099993646
 21
353.3720967068
 31
0.0
  0
LINE
  5
212
330
A
100
AcDbEntity
  8
0
  6
Continuous
 62
     3
100
AcDbLine
 10
-344.499999993646
 20
353.1180967068
 30
0.0
 11
-347.039999993646
 21
353.1180967068
 31
0.0
  0
LINE
  5
211
330
A
100
AcDbEntity
  8
0
  6
Continuous
 62
     3
100
AcDbLine
 10
-344.499999993646
 20
352.7370967068
 30
0.0
 11
-360.249999993646
 21
352.7370967068
 31
0.0
  0
LINE
  5
210
330
A
100
AcDbEntity
  8
0
  6
Continuous
 62
     3
100
AcDbLine
 10
-360.630999993646
 20
365.3291467068
 30
0.0
 11
-360.249999993646
 21
365.5491171594
 31
0.0
  0
LINE
  5
20F
330
A
100
AcDbEntity
  8
0
  6
Continuous
 62
     3
100
AcDbLine
 10
-350.087999993646
 20
351.2596037491001
 30
0.0
 11
-357.453999993646
 21
351.4670967068
 31
0.0
  0
LINE
  5
20E
330
A
100
AcDbEntity
  8
0
  6
Continuous
 62
     3
100
AcDbLine
 10
-358.7239999936461
 20
351.4670967068
 30
0.0
 11
-366.768147730846
 21
351.4670967068
 31
0.0
  0
LINE
  5
20D
330
A
100
AcDbEntity
  8
0
  6
Continuous
 62
     3
100
AcDbLine
 10
-350.087999993646
 20
350.1970967068
 30
0.0
 11
-357.453999993646
 21
350.1970967068
 31
0.0
  0
LINE
  5
20C
330
A
100
AcDbEntity
  8
0
  6
Continuous
 62
     3
100
AcDbLine
 10
-367.867999993646
 20
350.8320967068
 30
0.0
 11
-367.867999993646
 21
349.1810967068
 31
0.0
  0
LINE
  5
20B
330
A
100
AcDbEntity
  8
0
  6
Continuous
 62
     3
100
AcDbLine
 10
-367.867999993646
 20
370.2630967068
 30
0.0
 11
-367.867999993646
 21
368.6120967068
 31
0.0
  0
LINE
  5
20A
330
A
100
AcDbEntity
  8
0
  6
Continuous
 62
     3
100
AcDbLine
 10
-367.867999993646
 20
349.1810967068
 30
0.0
 11
-351.484999993646
 21
348.7196037491
 31
0.0
  0
LINE
  5
209
330
A
100
AcDbEntity
  8
0
  6
Continuous
 62
     3
100
AcDbLine
 10
-350.722999993646
 20
347.9576037491
 30
0.0
 11
-350.087999993646
 21
347.9576037491
 31
0.0
  0
LINE
  5
208
330
A
100
AcDbEntity
  8
0
  6
Continuous
 62
     3
100
AcDbLine
 10
-371.929999993646
 20
360.4652902675
 30
0.0
 11
-371.929999993646
 21
365.3291467068
 31
0.0
  0
LINE
  5
207
330
A
100
AcDbEntity
  8
0
  6
Continuous
 62
     3
100
AcDbLine
 10
-371.929999993646
 20
354.1152902675
 30
0.0
 11
-371.929999993646
 21
358.9789031461
 31
0.0
  0
LINE
  5
206
330
A
100
AcDbEntity
  8
0
  6
Continuous
 62
     3
100
AcDbLine
 10
-357.453999993646
 20
351.4670967068
 30
0.0
 11
-357.453999993646
 21
352.7370967068
 31
0.0
  0
LINE
  5
205
330
A
100
AcDbEntity
  8
0
  6
Continuous
 62
     3
100
AcDbLine
 10
-357.453999993646
 20
367.9770967068
 30
0.0
 11
-357.453999993646
 21
369.2470967068
 31
0.0
  0
LINE
  5
204
330
A
100
AcDbEntity
  8
1
  6
Continuous
 62
     3
100
AcDbLine
 10
-252.5
 20
285.722218487149
 30
0.0
 11
-254.2
 21
285.722218487149
 31
0.0
  0
LINE
  5
203
330
A
100
AcDbEntity
  8
1
  6
Continuous
 62
     3
100
AcDbLine
 10
-252.5
 20
285.992851487149
 30
0.0
 11
-254.2
 21
285.992851487149
 31
0.0
  0
LINE
  5
202
330
A
100
AcDbEntity
  8
1
  6
Continuous
 62
     3
100
AcDbLine
 10
-254.2
 20
295.451585487149
 30
0.0
 11
-252.5
 21
295.451585487149
 31
0.0
  0
LINE
  5
201
330
A
100
AcDbEntity
  8
1
  6
Continuous
 62
     3
100
AcDbLine
 10
-254.2
 20
295.722218487149
 30
0.0
 11
-252.5
 21
295.722218487149
 31
0.0
  0
LINE
  5
200
330
A
100
AcDbEntity
  8
VIS
  6
Continuous
 62
     3
100
AcDbLine
 10
-256.5
 20
285.322218487149
 30
0.0
 11
-256.5
 21
287.722218487149
 31
0.0
  0
LINE
  5
1FF
330
A
100
AcDbEntity
  8
VIS
  6
Continuous
 62
     3
100
AcDbLine
 10
-256.5
 20
288.501689965596
 30
0.0
 11
-256.5
 21
287.722218487149
 31
0.0
  0
LINE
  5
1FE
330
A
100
AcDbEntity
  8
VIS
  6
Continuous
 62
     3
100
AcDbLine
 10
-243.5
 20
285.922218487149
 30
0.0
 11
-243.0
 21
285.922218487149
 31
0.0
  0
LINE
  5
1FD
330
A
100
AcDbEntity
  8
VIS
  6
Continuous
 62
     3
100
AcDbLine
 10
-243.0
 20
285.922218487149
 30
0.0
 11
-242.0
 21
286.122218487149
 31
0.0
  0
LINE
  5
1FC
330
A
100
AcDbEntity
  8
VIS
  6
Continuous
 62
     3
100
AcDbLine
 10
-254.7
 20
284.722218487149
 30
0.0
 11
-254.2
 21
285.2222184871481
 31
0.0
  0
LINE
  5
1FB
330
A
100
AcDbEntity
  8
VIS
  6
Continuous
 62
     3
100
AcDbLine
 10
-254.7
 20
284.722218487149
 30
0.0
 11
-256.2
 21
284.722218487149
 31
0.0
  0
LINE
  5
1FA
330
A
100
AcDbEntity
  8
VIS
  6
Continuous
 62
     3
100
AcDbLine
 10
-254.7
 20
285.557154977689
 30
0.0
 11
-254.7
 21
284.722218487149
 31
0.0
  0
LINE
  5
1F9
330
A
100
AcDbEntity
  8
VIS
  6
Continuous
 62
     3
100
AcDbLine
 10
-254.7
 20
285.557154977689
 30
0.0
 11
-256.2
 21
285.557154977689
 31
0.0
  0
LINE
  5
1F8
330
A
100
AcDbEntity
  8
VIS
  6
Continuous
 62
     3
100
AcDbLine
 10
-256.2
 20
285.557154977689
 30
0.0
 11
-256.2
 21
284.722218487149
 31
0.0
  0
LINE
  5
1F7
330
A
100
AcDbEntity
  8
VIS
  6
Continuous
 62
     3
100
AcDbLine
 10
-252.2
 20
284.722218487149
 30
0.0
 11
-252.5
 21
285.022218487149
 31
0.0
  0
LINE
  5
1F6
330
A
100
AcDbEntity
  8
VIS
  6
Continuous
 62
     3
100
AcDbLine
 10
-243.5
 20
285.501986515902
 30
0.0
 11
-245.2025
 21
284.722218487149
 31
0.0
  0
LINE
  5
1F5
330
A
100
AcDbEntity
  8
VIS
  6
Continuous
 62
     3
100
AcDbLine
 10
-252.2
 20
285.557154977689
 30
0.0
 11
-245.2025
 21
285.557154977689
 31
0.0
  0
LINE
  5
1F4
330
A
100
AcDbEntity
  8
VIS
  6
Continuous
 62
     3
100
AcDbLine
 10
-245.2025
 20
285.557154977689
 30
0.0
 11
-245.2025
 21
284.722218487149
 31
0.0
  0
LINE
  5
1F3
330
A
100
AcDbEntity
  8
VIS
  6
Continuous
 62
     3
100
AcDbLine
 10
-245.2025
 20
284.722218487149
 30
0.0
 11
-252.2
 21
284.722218487149
 31
0.0
  0
LINE
  5
1F2
330
A
100
AcDbEntity
  8
VIS
  6
Continuous
 62
     3
100
AcDbLine
 10
-252.2
 20
285.557154977689
 30
0.0
 11
-252.2
 21
284.722218487149
 31
0.0
  0
LINE
  5
1F1
330
A
100
AcDbEntity
  8
VIS
  6
Continuous
 62
     3
100
AcDbLine
 10
-243.5
 20
285.501986515902
 30
0.0
 11
-243.5
 21
286.968133105802
 31
0.0
  0
LINE
  5
1F0
330
A
100
AcDbEntity
  8
VIS
  6
Continuous
 62
     3
100
AcDbLine
 10
-256.2
 20
289.887281996611
 30
0.0
 11
-256.2
 21
285.557154977689
 31
0.0
  0
LINE
  5
1EF
330
A
100
AcDbEntity
  8
VIS
  6
Continuous
 62
     3
100
AcDbLine
 10
-256.2
 20
290.722218487149
 30
0.0
 11
-256.2
 21
289.887281996611
 31
0.0
  0
LINE
  5
1EE
330
A
100
AcDbEntity
  8
VIS
  6
Continuous
 62
     3
100
AcDbLine
 10
-243.0
 20
285.922218487149
 30
0.0
 11
-243.0
 21
287.068133105802
 31
0.0
  0
LINE
  5
1ED
330
A
100
AcDbEntity
  8
VIS
  6
Continuous
 62
     3
100
AcDbLine
 10
-256.5
 20
296.122218487149
 30
0.0
 11
-256.5
 21
292.942747008702
 31
0.0
  0
LINE
  5
1EC
330
A
100
AcDbEntity
  8
VIS
  6
Continuous
 62
     3
100
AcDbLine
 10
-243.0
 20
295.522218487149
 30
0.0
 11
-243.5
 21
295.522218487149
 31
0.0
  0
LINE
  5
1EB
330
A
100
AcDbEntity
  8
VIS
  6
Continuous
 62
     3
100
AcDbLine
 10
-252.5
 20
296.422218487149
 30
0.0
 11
-252.5
 21
294.722218487149
 31
0.0
  0
LINE
  5
1EA
330
A
100
AcDbEntity
  8
VIS
  6
Continuous
 62
     3
100
AcDbLine
 10
-242.0
 20
295.322218487149
 30
0.0
 11
-243.0
 21
295.522218487149
 31
0.0
  0
LINE
  5
1E9
330
A
100
AcDbEntity
  8
VIS
  6
Continuous
 62
     3
100
AcDbLine
 10
-254.2
 20
296.22221848715
 30
0.0
 11
-254.7
 21
296.722218487149
 31
0.0
  0
LINE
  5
1E8
330
A
100
AcDbEntity
  8
VIS
  6
Continuous
 62
     3
100
AcDbLine
 10
-256.2
 20
296.722218487149
 30
0.0
 11
-254.7
 21
296.722218487149
 31
0.0
  0
LINE
  5
1E7
330
A
100
AcDbEntity
  8
VIS
  6
Continuous
 62
     3
100
AcDbLine
 10
-256.2
 20
291.557154977689
 30
0.0
 11
-256.2
 21
290.722218487149
 31
0.0
  0
LINE
  5
1E6
330
A
100
AcDbEntity
  8
VIS
  6
Continuous
 62
     3
100
AcDbLine
 10
-256.2
 20
295.887281996611
 30
0.0
 11
-256.2
 21
291.557154977689
 31
0.0
  0
LINE
  5
1E5
330
A
100
AcDbEntity
  8
VIS
  6
Continuous
 62
     3
100
AcDbLine
 10
-254.7
 20
296.722218487149
 30
0.0
 11
-254.7
 21
295.887281996611
 31
0.0
  0
LINE
  5
1E4
330
A
100
AcDbEntity
  8
VIS
  6
Continuous
 62
     3
100
AcDbLine
 10
-256.2
 20
295.887281996611
 30
0.0
 11
-254.7
 21
295.887281996611
 31
0.0
  0
LINE
  5
1E3
330
A
100
AcDbEntity
  8
VIS
  6
Continuous
 62
     3
100
AcDbLine
 10
-256.2
 20
296.722218487149
 30
0.0
 11
-256.2
 21
295.887281996611
 31
0.0
  0
LINE
  5
1E2
330
A
100
AcDbEntity
  8
VIS
  6
Continuous
 62
     3
100
AcDbLine
 10
-252.5
 20
296.422218487149
 30
0.0
 11
-252.2
 21
296.722218487149
 31
0.0
  0
LINE
  5
1E1
330
A
100
AcDbEntity
  8
VIS
  6
Continuous
 62
     3
100
AcDbLine
 10
-245.2025
 20
296.722218487149
 30
0.0
 11
-243.5
 21
295.942450458396
 31
0.0
  0
LINE
  5
1E0
330
A
100
AcDbEntity
  8
VIS
  6
Continuous
 62
     3
100
AcDbLine
 10
-245.2025
 20
295.887281996611
 30
0.0
 11
-252.2
 21
295.887281996611
 31
0.0
  0
LINE
  5
1DF
330
A
100
AcDbEntity
  8
VIS
  6
Continuous
 62
     3
100
AcDbLine
 10
-245.2025
 20
296.722218487149
 30
0.0
 11
-245.2025
 21
295.887281996611
 31
0.0
  0
LINE
  5
1DE
330
A
100
AcDbEntity
  8
VIS
  6
Continuous
 62
     3
100
AcDbLine
 10
-252.2
 20
296.722218487149
 30
0.0
 11
-245.2025
 21
296.722218487149
 31
0.0
  0
LINE
  5
1DD
330
A
100
AcDbEntity
  8
VIS
  6
Continuous
 62
     3
100
AcDbLine
 10
-252.2
 20
296.722218487149
 30
0.0
 11
-252.2
 21
295.887281996611
 31
0.0
  0
LINE
  5
1DC
330
A
100
AcDbEntity
  8
VIS
  6
Continuous
 62
     3
100
AcDbLine
 10
-242.0
 20
295.322218487149
 30
0.0
 11
-242.0
 21
293.522218487149
 31
0.0
  0
LINE
  5
1DB
330
A
100
AcDbEntity
  8
VIS
  6
Continuous
 62
     3
100
AcDbLine
 10
-256.5
 20
292.942747008702
 30
0.0
 11
-256.5
 21
288.501689965596
 31
0.0
  0
LINE
  5
1DA
330
A
100
AcDbEntity
  8
VIS
  6
Continuous
 62
     3
100
AcDbLine
 10
-252.5
 20
286.722218487149
 30
0.0
 11
-252.5
 21
285.022218487149
 31
0.0
  0
LINE
  5
1D9
330
A
100
AcDbEntity
  8
VIS
  6
Continuous
 62
     3
100
AcDbLine
 10
-243.5
 20
294.476303868497
 30
0.0
 11
-243.5
 21
295.942450458396
 31
0.0
  0
LINE
  5
1D8
330
A
100
AcDbEntity
  8
VIS
  6
Continuous
 62
     3
100
AcDbLine
 10
-243.0
 20
294.376303868497
 30
0.0
 11
-243.0
 21
295.522218487149
 31
0.0
  0
LINE
  5
1D7
330
A
100
AcDbEntity
  8
VIS
  6
Continuous
 62
     3
100
AcDbLine
 10
-254.2
 20
296.22221848715
 30
0.0
 11
-254.2
 21
295.22221848715
 31
0.0
  0
LINE
  5
1D6
330
A
100
AcDbEntity
  8
VIS
  6
Continuous
 62
     3
100
AcDbLine
 10
-254.2
 20
286.222218487148
 30
0.0
 11
-254.2
 21
285.2222184871481
 31
0.0
  0
LINE
  5
1D5
330
A
100
AcDbEntity
  8
VIS
  6
Continuous
 62
     3
100
AcDbLine
 10
-242.0
 20
287.922218487149
 30
0.0
 11
-242.0
 21
286.122218487149
 31
0.0
  0
LINE
  5
1D4
330
A
100
AcDbEntity
  8
1
  6
Continuous
 62
     3
100
AcDbLine
 10
-252.232089029683
 20
286.722218487149
 30
0.0
 11
-254.2
 21
286.722218487149
 31
0.0
  0
LINE
  5
1D3
330
A
100
AcDbEntity
  8
1
  6
Continuous
 62
     3
100
AcDbLine
 10
-252.232089029683
 20
287.007215586782
 30
0.0
 11
-254.2
 21
287.007215586782
 31
0.0
  0
LINE
  5
1D2
330
A
100
AcDbEntity
  8
1
  6
Continuous
 62
     3
100
AcDbLine
 10
-254.2
 20
294.437221387516
 30
0.0
 11
-252.232089029683
 21
294.437221387516
 31
0.0
  0
LINE
  5
1D1
330
A
100
AcDbEntity
  8
1
  6
Continuous
 62
     3
100
AcDbLine
 10
-254.2
 20
294.722218487149
 30
0.0
 11
-252.232089029683
 21
294.722218487149
 31
0.0
  0
LINE
  5
1D0
330
A
100
AcDbEntity
  8
VIS
  6
Continuous
 62
     3
100
AcDbLine
 10
-256.5
 20
290.722218487149
 30
0.0
 11
-256.5
 21
286.322218487149
 31
0.0
  0
LINE
  5
1CF
330
A
100
AcDbEntity
  8
VIS
  6
Continuous
 62
     3
100
AcDbLine
 10
-245.932089029683
 20
290.722218487149
 30
0.0
 11
-245.932089029683
 21
290.206531970447
 31
0.0
  0
LINE
  5
1CE
330
A
100
AcDbEntity
  8
VIS
  6
Continuous
 62
     3
100
AcDbLine
 10
-251.932089029683
 20
290.722218487149
 30
0.0
 11
-251.932089029683
 21
290.206531970447
 31
0.0
  0
LINE
  5
1CD
330
A
100
AcDbEntity
  8
VIS
  6
Continuous
 62
     3
100
AcDbLine
 10
-251.932089029683
 20
285.722218487149
 30
0.0
 11
-252.232089029683
 21
286.022218487149
 31
0.0
  0
LINE
  5
1CC
330
A
100
AcDbEntity
  8
VIS
  6
Continuous
 62
     3
100
AcDbLine
 10
-252.232089029683
 20
286.022218487149
 30
0.0
 11
-252.232089029683
 21
290.722218487149
 31
0.0
  0
LINE
  5
1CB
330
A
100
AcDbEntity
  8
VIS
  6
Continuous
 62
     3
100
AcDbLine
 10
-244.229589029683
 20
286.501986515902
 30
0.0
 11
-245.932089029683
 21
285.722218487149
 31
0.0
  0
LINE
  5
1CA
330
A
100
AcDbEntity
  8
VIS
  6
Continuous
 62
     3
100
AcDbLine
 10
-244.229589029683
 20
286.501986515902
 30
0.0
 11
-244.229589029683
 21
290.722218487149
 31
0.0
  0
LINE
  5
1C9
330
A
100
AcDbEntity
  8
VIS
  6
Continuous
 62
     3
100
AcDbLine
 10
-251.932089029683
 20
290.206531970447
 30
0.0
 11
-245.932089029683
 21
290.206531970447
 31
0.0
  0
LINE
  5
1C8
330
A
100
AcDbEntity
  8
VIS
  6
Continuous
 62
     3
100
AcDbLine
 10
-251.932089029683
 20
286.23790500385
 30
0.0
 11
-245.932089029683
 21
286.23790500385
 31
0.0
  0
LINE
  5
1C7
330
A
100
AcDbEntity
  8
VIS
  6
Continuous
 62
     3
100
AcDbLine
 10
-245.932089029683
 20
286.23790500385
 30
0.0
 11
-245.932089029683
 21
285.722218487149
 31
0.0
  0
LINE
  5
1C6
330
A
100
AcDbEntity
  8
VIS
  6
Continuous
 62
     3
100
AcDbLine
 10
-245.932089029683
 20
285.722218487149
 30
0.0
 11
-251.932089029683
 21
285.722218487149
 31
0.0
  0
LINE
  5
1C5
330
A
100
AcDbEntity
  8
VIS
  6
Continuous
 62
     3
100
AcDbLine
 10
-251.932089029683
 20
286.23790500385
 30
0.0
 11
-251.932089029683
 21
285.722218487149
 31
0.0
  0
LINE
  5
1C4
330
A
100
AcDbEntity
  8
VIS
  6
Continuous
 62
     3
100
AcDbLine
 10
-254.7
 20
285.722218487149
 30
0.0
 11
-254.2
 21
286.222218487148
 31
0.0
  0
LINE
  5
1C3
330
A
100
AcDbEntity
  8
VIS
  6
Continuous
 62
     3
100
AcDbLine
 10
-256.2
 20
286.222218487148
 30
0.0
 11
-256.2
 21
285.722218487149
 31
0.0
  0
LINE
  5
1C2
330
A
100
AcDbEntity
  8
VIS
  6
Continuous
 62
     3
100
AcDbLine
 10
-254.7
 20
286.222218487148
 30
0.0
 11
-256.2
 21
286.222218487148
 31
0.0
  0
LINE
  5
1C1
330
A
100
AcDbEntity
  8
VIS
  6
Continuous
 62
     3
100
AcDbLine
 10
-254.7
 20
285.722218487149
 30
0.0
 11
-254.7
 21
286.222218487148
 31
0.0
  0
LINE
  5
1C0
330
A
100
AcDbEntity
  8
VIS
  6
Continuous
 62
     3
100
AcDbLine
 10
-254.7
 20
290.222218487149
 30
0.0
 11
-254.7
 21
290.722218487149
 31
0.0
  0
LINE
  5
1BF
330
A
100
AcDbEntity
  8
VIS
  6
Continuous
 62
     3
100
AcDbLine
 10
-256.2
 20
290.222218487149
 30
0.0
 11
-254.7
 21
290.222218487149
 31
0.0
  0
LINE
  5
1BE
330
A
100
AcDbEntity
  8
VIS
  6
Continuous
 62
     3
100
AcDbLine
 10
-254.7
 20
285.722218487149
 30
0.0
 11
-256.2
 21
285.722218487149
 31
0.0
  0
LINE
  5
1BD
330
A
100
AcDbEntity
  8
VIS
  6
Continuous
 62
     3
100
AcDbLine
 10
-256.2
 20
290.722218487149
 30
0.0
 11
-256.2
 21
290.222218487149
 31
0.0
  0
LINE
  5
1BC
330
A
100
AcDbEntity
  8
VIS
  6
Continuous
 62
     3
100
AcDbLine
 10
-254.2
 20
290.722218487149
 30
0.0
 11
-254.2
 21
286.222218487148
 31
0.0
  0
LINE
  5
1BB
330
A
100
AcDbEntity
  8
VIS
  6
Continuous
 62
     3
100
AcDbLine
 10
-256.2
 20
290.222218487149
 30
0.0
 11
-256.2
 21
286.222218487148
 31
0.0
  0
LINE
  5
1BA
330
A
100
AcDbEntity
  8
VIS
  6
Continuous
 62
     3
100
AcDbLine
 10
-242.729589029683
 20
294.3222184871491
 30
0.0
 11
-242.729589029683
 21
287.122218487149
 31
0.0
  0
LINE
  5
1B9
330
A
100
AcDbEntity
  8
VIS
  6
Continuous
 62
     3
100
AcDbLine
 10
-243.729589029683
 20
286.922218487149
 30
0.0
 11
-242.729589029683
 21
287.122218487149
 31
0.0
  0
LINE
  5
1B8
330
A
100
AcDbEntity
  8
VIS
  6
Continuous
 62
     3
100
AcDbLine
 10
-243.729589029683
 20
286.922218487149
 30
0.0
 11
-243.729589029683
 21
290.722218487149
 31
0.0
  0
LINE
  5
1B7
330
A
100
AcDbEntity
  8
VIS
  6
Continuous
 62
     3
100
AcDbLine
 10
-244.229589029683
 20
286.922218487149
 30
0.0
 11
-243.729589029683
 21
286.922218487149
 31
0.0
  0
LINE
  5
1B6
330
A
100
AcDbEntity
  8
VIS
  6
Continuous
 62
     3
100
AcDbLine
 10
-252.232089029683
 20
287.382083135918
 30
0.0
 11
-252.324500057735
 21
290.722218487151
 31
0.0
  0
LINE
  5
1B5
330
A
100
AcDbEntity
  8
VIS
  6
Continuous
 62
     3
100
AcDbLine
 10
-252.324500057735
 20
290.722218487151
 30
0.0
 11
-252.232089029683
 21
294.06235383838
 31
0.0
  0
LINE
  5
1B4
330
A
100
AcDbEntity
  8
VIS
  6
Continuous
 62
     3
100
AcDbLine
 10
-243.729589029683
 20
294.522218487149
 30
0.0
 11
-244.229589029683
 21
294.522218487149
 31
0.0
  0
LINE
  5
1B3
330
A
100
AcDbEntity
  8
VIS
  6
Continuous
 62
     3
100
AcDbLine
 10
-243.729589029683
 20
290.722218487149
 30
0.0
 11
-243.729589029683
 21
294.522218487149
 31
0.0
  0
LINE
  5
1B2
330
A
100
AcDbEntity
  8
VIS
  6
Continuous
 62
     3
100
AcDbLine
 10
-242.729589029683
 20
294.3222184871491
 30
0.0
 11
-243.729589029683
 21
294.522218487149
 31
0.0
  0
LINE
  5
1B1
330
A
100
AcDbEntity
  8
VIS
  6
Continuous
 62
     3
100
AcDbLine
 10
-256.2
 20
295.222218487149
 30
0.0
 11
-256.2
 21
291.2222184871481
 31
0.0
  0
LINE
  5
1B0
330
A
100
AcDbEntity
  8
VIS
  6
Continuous
 62
     3
100
AcDbLine
 10
-254.2
 20
295.22221848715
 30
0.0
 11
-254.2
 21
290.722218487149
 31
0.0
  0
LINE
  5
1AF
330
A
100
AcDbEntity
  8
VIS
  6
Continuous
 62
     3
100
AcDbLine
 10
-256.2
 20
291.2222184871481
 30
0.0
 11
-256.2
 21
290.722218487149
 31
0.0
  0
LINE
  5
1AE
330
A
100
AcDbEntity
  8
VIS
  6
Continuous
 62
     3
100
AcDbLine
 10
-256.2
 20
295.722218487149
 30
0.0
 11
-254.7
 21
295.722218487149
 31
0.0
  0
LINE
  5
1AD
330
A
100
AcDbEntity
  8
VIS
  6
Continuous
 62
     3
100
AcDbLine
 10
-254.7
 20
291.2222184871481
 30
0.0
 11
-256.2
 21
291.2222184871481
 31
0.0
  0
LINE
  5
1AC
330
A
100
AcDbEntity
  8
VIS
  6
Continuous
 62
     3
100
AcDbLine
 10
-254.7
 20
290.722218487149
 30
0.0
 11
-254.7
 21
291.2222184871481
 31
0.0
  0
LINE
  5
1AB
330
A
100
AcDbEntity
  8
VIS
  6
Continuous
 62
     3
100
AcDbLine
 10
-254.7
 20
295.222218487149
 30
0.0
 11
-254.7
 21
295.722218487149
 31
0.0
  0
LINE
  5
1AA
330
A
100
AcDbEntity
  8
VIS
  6
Continuous
 62
     3
100
AcDbLine
 10
-256.2
 20
295.222218487149
 30
0.0
 11
-254.7
 21
295.222218487149
 31
0.0
  0
LINE
  5
1A9
330
A
100
AcDbEntity
  8
VIS
  6
Continuous
 62
     3
100
AcDbLine
 10
-256.2
 20
295.722218487149
 30
0.0
 11
-256.2
 21
295.222218487149
 31
0.0
  0
LINE
  5
1A8
330
A
100
AcDbEntity
  8
VIS
  6
Continuous
 62
     3
100
AcDbLine
 10
-254.2
 20
295.22221848715
 30
0.0
 11
-254.7
 21
295.722218487149
 31
0.0
  0
LINE
  5
1A7
330
A
100
AcDbEntity
  8
VIS
  6
Continuous
 62
     3
100
AcDbLine
 10
-251.932089029683
 20
295.722218487149
 30
0.0
 11
-251.932089029683
 21
295.206531970447
 31
0.0
  0
LINE
  5
1A6
330
A
100
AcDbEntity
  8
VIS
  6
Continuous
 62
     3
100
AcDbLine
 10
-251.932089029683
 20
295.722218487149
 30
0.0
 11
-245.932089029683
 21
295.722218487149
 31
0.0
  0
LINE
  5
1A5
330
A
100
AcDbEntity
  8
VIS
  6
Continuous
 62
     3
100
AcDbLine
 10
-245.932089029683
 20
295.722218487149
 30
0.0
 11
-245.932089029683
 21
295.206531970447
 31
0.0
  0
LINE
  5
1A4
330
A
100
AcDbEntity
  8
VIS
  6
Continuous
 62
     3
100
AcDbLine
 10
-245.932089029683
 20
295.206531970447
 30
0.0
 11
-251.932089029683
 21
295.206531970447
 31
0.0
  0
LINE
  5
1A3
330
A
100
AcDbEntity
  8
VIS
  6
Continuous
 62
     3
100
AcDbLine
 10
-245.932089029683
 20
291.23790500385
 30
0.0
 11
-251.932089029683
 21
291.23790500385
 31
0.0
  0
LINE
  5
1A2
330
A
100
AcDbEntity
  8
VIS
  6
Continuous
 62
     3
100
AcDbLine
 10
-244.229589029683
 20
290.722218487149
 30
0.0
 11
-244.229589029683
 21
294.942450458396
 31
0.0
  0
LINE
  5
1A1
330
A
100
AcDbEntity
  8
VIS
  6
Continuous
 62
     3
100
AcDbLine
 10
-245.932089029683
 20
295.722218487149
 30
0.0
 11
-244.229589029683
 21
294.942450458396
 31
0.0
  0
LINE
  5
1A0
330
A
100
AcDbEntity
  8
VIS
  6
Continuous
 62
     3
100
AcDbLine
 10
-252.232089029683
 20
290.722218487149
 30
0.0
 11
-252.232089029683
 21
295.422218487149
 31
0.0
  0
LINE
  5
19F
330
A
100
AcDbEntity
  8
VIS
  6
Continuous
 62
     3
100
AcDbLine
 10
-252.232089029683
 20
295.422218487149
 30
0.0
 11
-251.932089029683
 21
295.722218487149
 31
0.0
  0
LINE
  5
19E
330
A
100
AcDbEntity
  8
VIS
  6
Continuous
 62
     3
100
AcDbLine
 10
-251.932089029683
 20
291.23790500385
 30
0.0
 11
-251.932089029683
 21
290.722218487149
 31
0.0
  0
LINE
  5
19D
330
A
100
AcDbEntity
  8
VIS
  6
Continuous
 62
     3
100
AcDbLine
 10
-245.932089029683
 20
291.23790500385
 30
0.0
 11
-245.932089029683
 21
290.722218487149
 31
0.0
  0
LINE
  5
19C
330
A
100
AcDbEntity
  8
VIS
  6
Continuous
 62
     3
100
AcDbLine
 10
-256.5
 20
295.122218487149
 30
0.0
 11
-256.5
 21
290.722218487149
 31
0.0
  0
LINE
  5
19B
330
A
100
AcDbEntity
  8
1
  6
Continuous
 62
     3
100
AcDbLine
 10
-378.699999785558
 20
308.999999999989
 30
0.0
 11
-378.699999785558
 21
302.167295592997
 31
0.0
  0
LINE
  5
19A
330
A
100
AcDbEntity
  8
1
  6
Continuous
 62
     3
100
AcDbLine
 10
-378.999999785558
 20
302.299999999989
 30
0.0
 11
-378.783647582062
 21
302.083647796493
 31
0.0
  0
LINE
  5
199
330
A
100
AcDbEntity
  8
1
  6
Continuous
 62
     3
100
AcDbLine
 10
-378.999999785558
 20
308.699999999989
 30
0.0
 11
-378.999999785558
 21
302.299999999989
 31
0.0
  0
LINE
  5
198
330
A
100
AcDbEntity
  8
1
  6
Continuous
 62
     3
100
AcDbLine
 10
-378.699999785558
 20
308.999999999989
 30
0.0
 11
-378.999999785558
 21
308.699999999989
 31
0.0
  0
LINE
  5
197
330
A
100
AcDbEntity
  8
1
  6
Continuous
 62
     3
100
AcDbLine
 10
-374.999999785558
 20
308.999999999989
 30
0.0
 11
-378.699999785558
 21
308.999999999989
 31
0.0
  0
LINE
  5
196
330
A
100
AcDbEntity
  8
1
  6
Continuous
 62
     3
100
AcDbLine
 10
-490.1225178424789
 20
304.633974596205
 30
0.0
 11
-490.1225178424789
 21
306.366025403774
 31
0.0
  0
LINE
  5
195
330
A
100
AcDbEntity
  8
1
  6
Continuous
 62
     3
100
AcDbLine
 10
-491.622517842479
 20
303.76794919242
 30
0.0
 11
-490.1225178424789
 21
304.633974596205
 31
0.0
  0
LINE
  5
194
330
A
100
AcDbEntity
  8
1
  6
Continuous
 62
     3
100
AcDbLine
 10
-493.122517842479
 20
304.633974596205
 30
0.0
 11
-491.622517842479
 21
303.76794919242
 31
0.0
  0
LINE
  5
193
330
A
100
AcDbEntity
  8
1
  6
Continuous
 62
     3
100
AcDbLine
 10
-493.122517842479
 20
306.366025403774
 30
0.0
 11
-493.122517842479
 21
304.633974596205
 31
0.0
  0
LINE
  5
192
330
A
100
AcDbEntity
  8
1
  6
Continuous
 62
     3
100
AcDbLine
 10
-491.622517842479
 20
307.232050807558
 30
0.0
 11
-493.122517842479
 21
306.366025403774
 31
0.0
  0
LINE
  5
191
330
A
100
AcDbEntity
  8
1
  6
Continuous
 62
     3
100
AcDbLine
 10
-490.1225178424789
 20
306.366025403774
 30
0.0
 11
-491.622517842479
 21
307.232050807558
 31
0.0
  0
LINE
  5
190
330
A
100
AcDbEntity
  8
1
  6
Continuous
 62
     3
100
AcDbLine
 10
-493.122517842479
 20
202.633974596201
 30
0.0
 11
-491.622517842479
 21
201.767949192416
 31
0.0
  0
LINE
  5
18F
330
A
100
AcDbEntity
  8
1
  6
Continuous
 62
     3
100
AcDbLine
 10
-491.622517842479
 20
201.767949192416
 30
0.0
 11
-490.1225178424789
 21
202.633974596201
 31
0.0
  0
LINE
  5
18E
330
A
100
AcDbEntity
  8
1
  6
Continuous
 62
     3
100
AcDbLine
 10
-490.1225178424789
 20
202.633974596201
 30
0.0
 11
-490.1225178424789
 21
204.36602540377
 31
0.0
  0
LINE
  5
18D
330
A
100
AcDbEntity
  8
1
  6
Continuous
 62
     3
100
AcDbLine
 10
-490.1225178424789
 20
204.36602540377
 30
0.0
 11
-491.622517842479
 21
205.232050807554
 31
0.0
  0
LINE
  5
18C
330
A
100
AcDbEntity
  8
1
  6
Continuous
 62
     3
100
AcDbLine
 10
-491.622517842479
 20
205.232050807554
 30
0.0
 11
-493.122517842479
 21
204.36602540377
 31
0.0
  0
LINE
  5
18B
330
A
100
AcDbEntity
  8
1
  6
Continuous
 62
     3
100
AcDbLine
 10
-493.122517842479
 20
204.36602540377
 30
0.0
 11
-493.122517842479
 21
202.633974596201
 31
0.0
  0
LINE
  5
18A
330
A
100
AcDbEntity
  8
1
  6
Continuous
 62
     3
100
AcDbLine
 10
-518.854568650047
 20
210.332704406978
 30
0.0
 11
-517.988543246263
 21
208.832704406978
 31
0.0
  0
LINE
  5
189
330
A
100
AcDbEntity
  8
1
  6
Continuous
 62
     3
100
AcDbLine
 10
-517.988543246263
 20
208.832704406978
 30
0.0
 11
-516.256492438694
 21
208.832704406979
 31
0.0
  0
LINE
  5
188
330
A
100
AcDbEntity
  8
1
  6
Continuous
 62
     3
100
AcDbLine
 10
-516.256492438694
 20
208.832704406979
 30
0.0
 11
-515.3904670349099
 21
210.332704406979
 31
0.0
  0
LINE
  5
187
330
A
100
AcDbEntity
  8
1
  6
Continuous
 62
     3
100
AcDbLine
 10
-515.3904670349099
 20
210.332704406979
 30
0.0
 11
-516.256492438694
 21
211.832704406978
 31
0.0
  0
LINE
  5
186
330
A
100
AcDbEntity
  8
1
  6
Continuous
 62
     3
100
AcDbLine
 10
-516.256492438694
 20
211.832704406978
 30
0.0
 11
-517.988543246263
 21
211.832704406979
 31
0.0
  0
LINE
  5
185
330
A
100
AcDbEntity
  8
1
  6
Continuous
 62
     3
100
AcDbLine
 10
-517.988543246263
 20
211.832704406979
 30
0.0
 11
-518.854568650047
 21
210.332704406978
 31
0.0
  0
LINE
  5
184
330
A
100
AcDbEntity
  8
1
  6
DASH_CENTER
 62
     3
100
AcDbLine
 10
-519.872517842479
 20
205.569564686164
 30
0.0
 11
-514.7766487351659
 21
214.395868888751
 31
0.0
  0
LINE
  5
183
330
A
100
AcDbEntity
  8
1
  6
DASH_CENTER
 62
     3
100
AcDbLine
 10
-540.552953156303
 20
226.249999999985
 30
0.0
 11
-531.726648953716
 21
231.345869107298
 31
0.0
  0
LINE
  5
182
330
A
100
AcDbEntity
  8
1
  6
Continuous
 62
     3
100
AcDbLine
 10
-535.7898134354879
 20
230.732050807554
 30
0.0
 11
-537.289813435488
 21
229.8660254037701
 31
0.0
  0
LINE
  5
181
330
A
100
AcDbEntity
  8
1
  6
Continuous
 62
     3
100
AcDbLine
 10
-534.289813435488
 20
229.866025403769
 30
0.0
 11
-535.7898134354879
 21
230.732050807554
 31
0.0
  0
LINE
  5
180
330
A
100
AcDbEntity
  8
1
  6
Continuous
 62
     3
100
AcDbLine
 10
-534.289813435488
 20
228.133974596201
 30
0.0
 11
-534.289813435488
 21
229.866025403769
 31
0.0
  0
LINE
  5
17F
330
A
100
AcDbEntity
  8
1
  6
Continuous
 62
     3
100
AcDbLine
 10
-535.7898134354879
 20
227.267949192416
 30
0.0
 11
-534.289813435488
 21
228.133974596201
 31
0.0
  0
LINE
  5
17E
330
A
100
AcDbEntity
  8
1
  6
Continuous
 62
     3
100
AcDbLine
 10
-537.289813435488
 20
228.133974596201
 30
0.0
 11
-535.7898134354879
 21
227.267949192416
 31
0.0
  0
LINE
  5
17D
330
A
100
AcDbEntity
  8
1
  6
Continuous
 62
     3
100
AcDbLine
 10
-537.289813435488
 20
229.8660254037701
 30
0.0
 11
-537.289813435488
 21
228.133974596201
 31
0.0
  0
LINE
  5
17C
330
A
100
AcDbEntity
  8
1
  6
Continuous
 62
     3
100
AcDbLine
 10
-441.488543246262
 20
252.999999999987
 30
0.0
 11
-439.7564924386929
 21
252.999999999987
 31
0.0
  0
LINE
  5
17B
330
A
100
AcDbEntity
  8
1
  6
Continuous
 62
     3
100
AcDbLine
 10
-442.3545686500459
 20
254.499999999987
 30
0.0
 11
-441.488543246262
 21
252.999999999987
 31
0.0
  0
LINE
  5
17A
330
A
100
AcDbEntity
  8
1
  6
Continuous
 62
     3
100
AcDbLine
 10
-441.488543246262
 20
255.999999999987
 30
0.0
 11
-442.3545686500459
 21
254.499999999987
 31
0.0
  0
LINE
  5
179
330
A
100
AcDbEntity
  8
1
  6
Continuous
 62
     3
100
AcDbLine
 10
-439.7564924386929
 20
255.999999999987
 30
0.0
 11
-441.488543246262
 21
255.999999999987
 31
0.0
  0
LINE
  5
178
330
A
100
AcDbEntity
  8
1
  6
Continuous
 62
     3
100
AcDbLine
 10
-438.890467034908
 20
254.499999999987
 30
0.0
 11
-439.7564924386929
 21
255.999999999987
 31
0.0
  0
LINE
  5
177
330
A
100
AcDbEntity
  8
1
  6
Continuous
 62
     3
100
AcDbLine
 10
-439.7564924386929
 20
252.999999999987
 30
0.0
 11
-438.890467034908
 21
254.499999999987
 31
0.0
  0
LINE
  5
176
330
A
100
AcDbEntity
  8
1
  6
Continuous
 62
     3
100
AcDbLine
 10
-543.488543246265
 20
255.999999999987
 30
0.0
 11
-544.3545686500499
 21
254.499999999987
 31
0.0
  0
LINE
  5
175
330
A
100
AcDbEntity
  8
1
  6
Continuous
 62
     3
100
AcDbLine
 10
-544.3545686500499
 20
254.499999999987
 30
0.0
 11
-543.488543246265
 21
252.999999999987
 31
0.0
  0
LINE
  5
174
330
A
100
AcDbEntity
  8
1
  6
Continuous
 62
     3
100
AcDbLine
 10
-543.488543246265
 20
252.999999999987
 30
0.0
 11
-541.756492438697
 21
252.999999999987
 31
0.0
  0
LINE
  5
173
330
A
100
AcDbEntity
  8
1
  6
Continuous
 62
     3
100
AcDbLine
 10
-541.756492438697
 20
252.999999999987
 30
0.0
 11
-540.890467034912
 21
254.499999999987
 31
0.0
  0
LINE
  5
172
330
A
100
AcDbEntity
  8
1
  6
Continuous
 62
     3
100
AcDbLine
 10
-540.890467034912
 20
254.499999999987
 30
0.0
 11
-541.756492438697
 21
255.999999999987
 31
0.0
  0
LINE
  5
171
330
A
100
AcDbEntity
  8
1
  6
Continuous
 62
     3
100
AcDbLine
 10
-541.756492438697
 20
255.999999999987
 30
0.0
 11
-543.488543246265
 21
255.999999999987
 31
0.0
  0
LINE
  5
170
330
A
100
AcDbEntity
  8
1
  6
Continuous
 62
     3
100
AcDbLine
 10
-466.9885432462609
 20
208.832704406978
 30
0.0
 11
-465.256492438692
 21
208.832704406978
 31
0.0
  0
LINE
  5
16F
330
A
100
AcDbEntity
  8
1
  6
Continuous
 62
     3
100
AcDbLine
 10
-465.256492438692
 20
208.832704406978
 30
0.0
 11
-464.390467034908
 21
210.332704406978
 31
0.0
  0
LINE
  5
16E
330
A
100
AcDbEntity
  8
1
  6
Continuous
 62
     3
100
AcDbLine
 10
-464.390467034908
 20
210.332704406978
 30
0.0
 11
-465.256492438692
 21
211.832704406978
 31
0.0
  0
LINE
  5
16D
330
A
100
AcDbEntity
  8
1
  6
Continuous
 62
     3
100
AcDbLine
 10
-465.256492438692
 20
211.832704406978
 30
0.0
 11
-466.9885432462609
 21
211.832704406978
 31
0.0
  0
LINE
  5
16C
330
A
100
AcDbEntity
  8
1
  6
Continuous
 62
     3
100
AcDbLine
 10
-466.9885432462609
 20
211.832704406978
 30
0.0
 11
-467.854568650046
 21
210.332704406978
 31
0.0
  0
LINE
  5
16B
330
A
100
AcDbEntity
  8
1
  6
Continuous
 62
     3
100
AcDbLine
 10
-467.854568650046
 20
210.332704406978
 30
0.0
 11
-466.9885432462609
 21
208.832704406978
 31
0.0
  0
LINE
  5
16A
330
A
100
AcDbEntity
  8
1
  6
DASH_CENTER
 62
     3
100
AcDbLine
 10
-463.372517842477
 20
205.569564686164
 30
0.0
 11
-468.46838694979
 21
214.39586888875
 31
0.0
  0
LINE
  5
169
330
A
100
AcDbEntity
  8
1
  6
DASH_CENTER
 62
     3
100
AcDbLine
 10
-442.692082528655
 20
226.249999999988
 30
0.0
 11
-451.5183867312429
 21
231.345869107301
 31
0.0
  0
LINE
  5
168
330
A
100
AcDbEntity
  8
1
  6
Continuous
 62
     3
100
AcDbLine
 10
-448.95522224947
 20
228.133974596203
 30
0.0
 11
-447.45522224947
 21
227.267949192419
 31
0.0
  0
LINE
  5
167
330
A
100
AcDbEntity
  8
1
  6
Continuous
 62
     3
100
AcDbLine
 10
-448.95522224947
 20
229.866025403773
 30
0.0
 11
-448.95522224947
 21
228.133974596203
 31
0.0
  0
LINE
  5
166
330
A
100
AcDbEntity
  8
1
  6
Continuous
 62
     3
100
AcDbLine
 10
-447.45522224947
 20
230.732050807557
 30
0.0
 11
-448.95522224947
 21
229.866025403773
 31
0.0
  0
LINE
  5
165
330
A
100
AcDbEntity
  8
1
  6
Continuous
 62
     3
100
AcDbLine
 10
-445.95522224947
 20
229.866025403772
 30
0.0
 11
-447.45522224947
 21
230.732050807557
 31
0.0
  0
LINE
  5
164
330
A
100
AcDbEntity
  8
1
  6
Continuous
 62
     3
100
AcDbLine
 10
-445.95522224947
 20
228.133974596204
 30
0.0
 11
-445.95522224947
 21
229.866025403772
 31
0.0
  0
LINE
  5
163
330
A
100
AcDbEntity
  8
1
  6
Continuous
 62
     3
100
AcDbLine
 10
-447.45522224947
 20
227.267949192419
 30
0.0
 11
-445.95522224947
 21
228.133974596204
 31
0.0
  0
LINE
  5
162
330
A
100
AcDbEntity
  8
1
  6
Continuous
 62
     3
100
AcDbLine
 10
-464.3904670349109
 20
298.667295592997
 30
0.0
 11
-465.256492438695
 21
300.167295592996
 31
0.0
  0
LINE
  5
161
330
A
100
AcDbEntity
  8
1
  6
Continuous
 62
     3
100
AcDbLine
 10
-465.256492438695
 20
300.167295592996
 30
0.0
 11
-466.988543246264
 21
300.167295592996
 31
0.0
  0
LINE
  5
160
330
A
100
AcDbEntity
  8
1
  6
Continuous
 62
     3
100
AcDbLine
 10
-466.988543246264
 20
300.167295592996
 30
0.0
 11
-467.8545686500489
 21
298.6672955929959
 31
0.0
  0
LINE
  5
15F
330
A
100
AcDbEntity
  8
1
  6
Continuous
 62
     3
100
AcDbLine
 10
-467.8545686500489
 20
298.6672955929959
 30
0.0
 11
-466.988543246264
 21
297.167295592997
 31
0.0
  0
LINE
  5
15E
330
A
100
AcDbEntity
  8
1
  6
Continuous
 62
     3
100
AcDbLine
 10
-466.988543246264
 20
297.167295592997
 30
0.0
 11
-465.256492438695
 21
297.167295592996
 31
0.0
  0
LINE
  5
15D
330
A
100
AcDbEntity
  8
1
  6
Continuous
 62
     3
100
AcDbLine
 10
-465.256492438695
 20
297.167295592996
 30
0.0
 11
-464.3904670349109
 21
298.667295592997
 31
0.0
  0
LINE
  5
15C
330
A
100
AcDbEntity
  8
1
  6
DASH_CENTER
 62
     3
100
AcDbLine
 10
-463.37251784248
 20
303.430435313811
 30
0.0
 11
-468.468386949792
 21
294.604131111224
 31
0.0
  0
LINE
  5
15B
330
A
100
AcDbEntity
  8
1
  6
DASH_CENTER
 62
     3
100
AcDbLine
 10
-442.692082528655
 20
282.74999999999
 30
0.0
 11
-451.518386731242
 21
277.654130892677
 31
0.0
  0
LINE
  5
15A
330
A
100
AcDbEntity
  8
1
  6
Continuous
 62
     3
100
AcDbLine
 10
-447.45522224947
 20
278.267949192421
 30
0.0
 11
-445.95522224947
 21
279.133974596205
 31
0.0
  0
LINE
  5
159
330
A
100
AcDbEntity
  8
1
  6
Continuous
 62
     3
100
AcDbLine
 10
-448.95522224947
 20
279.133974596206
 30
0.0
 11
-447.45522224947
 21
278.267949192421
 31
0.0
  0
LINE
  5
158
330
A
100
AcDbEntity
  8
1
  6
Continuous
 62
     3
100
AcDbLine
 10
-448.95522224947
 20
280.866025403774
 30
0.0
 11
-448.95522224947
 21
279.133974596206
 31
0.0
  0
LINE
  5
157
330
A
100
AcDbEntity
  8
1
  6
Continuous
 62
     3
100
AcDbLine
 10
-447.45522224947
 20
281.732050807558
 30
0.0
 11
-448.95522224947
 21
280.866025403774
 31
0.0
  0
LINE
  5
156
330
A
100
AcDbEntity
  8
1
  6
Continuous
 62
     3
100
AcDbLine
 10
-445.95522224947
 20
280.866025403774
 30
0.0
 11
-447.45522224947
 21
281.732050807558
 31
0.0
  0
LINE
  5
155
330
A
100
AcDbEntity
  8
1
  6
Continuous
 62
     3
100
AcDbLine
 10
-445.95522224947
 20
279.133974596205
 30
0.0
 11
-445.95522224947
 21
280.866025403774
 31
0.0
  0
LINE
  5
154
330
A
100
AcDbEntity
  8
1
  6
Continuous
 62
     3
100
AcDbLine
 10
-516.256492438697
 20
300.167295592997
 30
0.0
 11
-517.9885432462659
 21
300.167295592997
 31
0.0
  0
LINE
  5
153
330
A
100
AcDbEntity
  8
1
  6
Continuous
 62
     3
100
AcDbLine
 10
-517.9885432462659
 20
300.167295592997
 30
0.0
 11
-518.8545686500499
 21
298.667295592997
 31
0.0
  0
LINE
  5
152
330
A
100
AcDbEntity
  8
1
  6
Continuous
 62
     3
100
AcDbLine
 10
-518.8545686500499
 20
298.667295592997
 30
0.0
 11
-517.9885432462659
 21
297.167295592997
 31
0.0
  0
LINE
  5
151
330
A
100
AcDbEntity
  8
1
  6
Continuous
 62
     3
100
AcDbLine
 10
-517.9885432462659
 20
297.167295592997
 30
0.0
 11
-516.256492438697
 21
297.167295592997
 31
0.0
  0
LINE
  5
150
330
A
100
AcDbEntity
  8
1
  6
Continuous
 62
     3
100
AcDbLine
 10
-516.256492438697
 20
297.167295592997
 30
0.0
 11
-515.390467034912
 21
298.667295592997
 31
0.0
  0
LINE
  5
14F
330
A
100
AcDbEntity
  8
1
  6
Continuous
 62
     3
100
AcDbLine
 10
-515.390467034912
 20
298.667295592997
 30
0.0
 11
-516.256492438697
 21
300.167295592997
 31
0.0
  0
LINE
  5
14E
330
A
100
AcDbEntity
  8
1
  6
DASH_CENTER
 62
     3
100
AcDbLine
 10
-519.872517842482
 20
303.430435313811
 30
0.0
 11
-514.776648735168
 21
294.604131111225
 31
0.0
  0
LINE
  5
14D
330
A
100
AcDbEntity
  8
1
  6
DASH_CENTER
 62
     3
100
AcDbLine
 10
-540.552953156303
 20
282.749999999987
 30
0.0
 11
-531.726648953716
 21
277.654130892674
 31
0.0
  0
LINE
  5
14C
330
A
100
AcDbEntity
  8
1
  6
Continuous
 62
     3
100
AcDbLine
 10
-534.289813435488
 20
280.866025403772
 30
0.0
 11
-535.7898134354879
 21
281.732050807556
 31
0.0
  0
LINE
  5
14B
330
A
100
AcDbEntity
  8
1
  6
Continuous
 62
     3
100
AcDbLine
 10
-534.289813435488
 20
279.133974596202
 30
0.0
 11
-534.289813435488
 21
280.866025403772
 31
0.0
  0
LINE
  5
14A
330
A
100
AcDbEntity
  8
1
  6
Continuous
 62
     3
100
AcDbLine
 10
-535.7898134354879
 20
278.267949192418
 30
0.0
 11
-534.289813435488
 21
279.133974596202
 31
0.0
  0
LINE
  5
149
330
A
100
AcDbEntity
  8
1
  6
Continuous
 62
     3
100
AcDbLine
 10
-537.289813435488
 20
279.133974596203
 30
0.0
 11
-535.7898134354879
 21
278.267949192418
 31
0.0
  0
LINE
  5
148
330
A
100
AcDbEntity
  8
1
  6
Continuous
 62
     3
100
AcDbLine
 10
-537.289813435488
 20
280.866025403771
 30
0.0
 11
-537.289813435488
 21
279.133974596203
 31
0.0
  0
LINE
  5
147
330
A
100
AcDbEntity
  8
1
  6
Continuous
 62
     3
100
AcDbLine
 10
-535.7898134354879
 20
281.732050807556
 30
0.0
 11
-537.289813435488
 21
280.866025403771
 31
0.0
  0
LINE
  5
146
330
A
100
AcDbEntity
  8
1
  6
Continuous
 62
     3
100
AcDbLine
 10
-374.999999785558
 20
302.167295592997
 30
0.0
 11
-378.699999785558
 21
302.167295592997
 31
0.0
  0
LINE
  5
145
330
A
100
AcDbEntity
  8
1
  6
Continuous
 62
     3
100
AcDbLine
 10
-378.699999785558
 20
302.167295592997
 30
0.0
 11
-378.999999785558
 21
301.867295592997
 31
0.0
  0
LINE
  5
144
330
A
100
AcDbEntity
  8
1
  6
Continuous
 62
     3
100
AcDbLine
 10
-378.999999785558
 20
301.867295592997
 30
0.0
 11
-378.999999785558
 21
295.467295592996
 31
0.0
  0
LINE
  5
143
330
A
100
AcDbEntity
  8
1
  6
Continuous
 62
     3
100
AcDbLine
 10
-378.999999785558
 20
295.467295592996
 30
0.0
 11
-378.699999785558
 21
295.167295592996
 31
0.0
  0
LINE
  5
142
330
A
100
AcDbEntity
  8
1
  6
Continuous
 62
     3
100
AcDbLine
 10
-378.699999785558
 20
295.167295592996
 30
0.0
 11
-374.999999785558
 21
295.167295592996
 31
0.0
  0
LINE
  5
141
330
A
100
AcDbEntity
  8
1
  6
Continuous
 62
     3
100
AcDbLine
 10
-378.699999785558
 20
302.167295592997
 30
0.0
 11
-378.699999785558
 21
295.167295592996
 31
0.0
  0
LINE
  5
140
330
A
100
AcDbEntity
  8
1
  6
Continuous
 62
     3
100
AcDbLine
 10
-374.999999785558
 20
283.49999999999
 30
0.0
 11
-376.035390577873
 21
283.49999999999
 31
0.0
  0
LINE
  5
13F
330
A
100
AcDbEntity
  8
1
  6
Continuous
 62
     3
100
AcDbLine
 10
-378.699999785558
 20
199.99999999999
 30
0.0
 11
-374.999999785558
 21
199.99999999999
 31
0.0
  0
LINE
  5
13E
330
A
100
AcDbEntity
  8
1
  6
Continuous
 62
     3
100
AcDbLine
 10
-378.999999785558
 20
200.29999999999
 30
0.0
 11
-378.699999785558
 21
199.99999999999
 31
0.0
  0
LINE
  5
13D
330
A
100
AcDbEntity
  8
1
  6
Continuous
 62
     3
100
AcDbLine
 10
-378.999999785558
 20
206.69999999999
 30
0.0
 11
-378.999999785558
 21
200.29999999999
 31
0.0
  0
LINE
  5
13C
330
A
100
AcDbEntity
  8
1
  6
Continuous
 62
     3
100
AcDbLine
 10
-378.783647582062
 20
206.916352203486
 30
0.0
 11
-378.999999785558
 21
206.69999999999
 31
0.0
  0
LINE
  5
13B
330
A
100
AcDbEntity
  8
1
  6
Continuous
 62
     3
100
AcDbLine
 10
-378.699999785558
 20
206.832704406983
 30
0.0
 11
-378.699999785558
 21
199.99999999999
 31
0.0
  0
LINE
  5
13A
330
A
100
AcDbEntity
  8
1
  6
Continuous
 62
     3
100
AcDbLine
 10
-378.699999785558
 20
213.832704406983
 30
0.0
 11
-378.699999785558
 21
206.832704406983
 31
0.0
  0
LINE
  5
139
330
A
100
AcDbEntity
  8
1
  6
Continuous
 62
     3
100
AcDbLine
 10
-374.999999785558
 20
213.832704406983
 30
0.0
 11
-378.699999785558
 21
213.832704406983
 31
0.0
  0
LINE
  5
138
330
A
100
AcDbEntity
  8
1
  6
Continuous
 62
     3
100
AcDbLine
 10
-378.699999785558
 20
213.832704406983
 30
0.0
 11
-378.999999785558
 21
213.532704406983
 31
0.0
  0
LINE
  5
137
330
A
100
AcDbEntity
  8
1
  6
Continuous
 62
     3
100
AcDbLine
 10
-378.999999785558
 20
213.532704406983
 30
0.0
 11
-378.999999785558
 21
207.132704406983
 31
0.0
  0
LINE
  5
136
330
A
100
AcDbEntity
  8
1
  6
Continuous
 62
     3
100
AcDbLine
 10
-378.999999785558
 20
207.132704406983
 30
0.0
 11
-378.699999785558
 21
206.832704406983
 31
0.0
  0
LINE
  5
135
330
A
100
AcDbEntity
  8
1
  6
Continuous
 62
     3
100
AcDbLine
 10
-378.699999785558
 20
206.832704406983
 30
0.0
 11
-374.999999785558
 21
206.832704406983
 31
0.0
  0
LINE
  5
134
330
A
100
AcDbEntity
  8
1
  6
Continuous
 62
     3
100
AcDbLine
 10
-378.699999785558
 20
232.499999999993
 30
0.0
 11
-378.699999785558
 21
225.499999999993
 31
0.0
  0
LINE
  5
133
330
A
100
AcDbEntity
  8
1
  6
Continuous
 62
     3
100
AcDbLine
 10
-374.999999785558
 20
232.499999999993
 30
0.0
 11
-378.699999785558
 21
232.499999999993
 31
0.0
  0
LINE
  5
132
330
A
100
AcDbEntity
  8
1
  6
Continuous
 62
     3
100
AcDbLine
 10
-378.699999785558
 20
232.499999999993
 30
0.0
 11
-378.999999785558
 21
232.199999999993
 31
0.0
  0
LINE
  5
131
330
A
100
AcDbEntity
  8
1
  6
Continuous
 62
     3
100
AcDbLine
 10
-378.999999785558
 20
232.199999999993
 30
0.0
 11
-378.999999785558
 21
225.799999999993
 31
0.0
  0
LINE
  5
130
330
A
100
AcDbEntity
  8
1
  6
Continuous
 62
     3
100
AcDbLine
 10
-378.999999785558
 20
225.799999999993
 30
0.0
 11
-378.699999785558
 21
225.499999999993
 31
0.0
  0
LINE
  5
12F
330
A
100
AcDbEntity
  8
1
  6
Continuous
 62
     3
100
AcDbLine
 10
-378.699999785558
 20
225.499999999993
 30
0.0
 11
-374.999999785558
 21
225.499999999993
 31
0.0
  0
LINE
  5
12E
330
A
100
AcDbEntity
  8
1
  6
Continuous
 62
     3
100
AcDbLine
 10
-378.699999785558
 20
250.999999999994
 30
0.0
 11
-374.999999785558
 21
250.999999999994
 31
0.0
  0
LINE
  5
12D
330
A
100
AcDbEntity
  8
1
  6
Continuous
 62
     3
100
AcDbLine
 10
-378.999999785558
 20
251.299999999994
 30
0.0
 11
-378.699999785558
 21
250.999999999994
 31
0.0
  0
LINE
  5
12C
330
A
100
AcDbEntity
  8
1
  6
Continuous
 62
     3
100
AcDbLine
 10
-378.699999785558
 20
254.49999999999
 30
0.0
 11
-378.699999785558
 21
250.999999999994
 31
0.0
  0
LINE
  5
12B
330
A
100
AcDbEntity
  8
1
  6
Continuous
 62
     3
100
AcDbLine
 10
-378.999999785558
 20
251.299999999994
 30
0.0
 11
-378.999999785558
 21
254.49999999999
 31
0.0
  0
LINE
  5
12A
330
A
100
AcDbEntity
  8
1
  6
DASH_CENTER
 62
     3
100
AcDbLine
 10
-358.499999785607
 20
319.99999999999
 30
0.0
 11
-336.661912899283
 21
319.99999999999
 31
0.0
  0
LINE
  5
129
330
A
100
AcDbEntity
  8
1
  6
Continuous
 62
     3
100
AcDbLine
 10
-257.0
 20
277.780083882045
 30
0.0
 11
-257.0
 21
276.19999999999
 31
0.0
  0
LINE
  5
128
330
A
100
AcDbEntity
  8
1
  6
DASH_CENTER
 62
     3
100
AcDbLine
 10
-89.59426066656602
 20
212.174331384937
 30
0.0
 11
-81.61460956123599
 21
204.194680279604
 31
0.0
  0
LINE
  5
127
330
A
100
AcDbEntity
  8
1
  6
DASH_CENTER
 62
     3
100
AcDbLine
 10
-174.245597896633
 20
212.174331384887
 30
0.0
 11
-182.225249002012
 21
204.194680279604
 31
0.0
  0
LINE
  5
126
330
A
100
AcDbEntity
  8
1
  6
DASH_CENTER
 62
     3
100
AcDbLine
 10
-174.245597896673
 20
296.8256686150411
 30
0.0
 11
-182.225249002012
 21
304.80531972038
 31
0.0
  0
LINE
  5
125
330
A
100
AcDbEntity
  8
1
  6
DASH_CENTER
 62
     3
100
AcDbLine
 10
-89.59426066657199
 20
296.825668615036
 30
0.0
 11
-81.61460956123599
 21
304.80531972038
 31
0.0
  0
LINE
  5
124
330
A
100
AcDbEntity
  8
1
  6
DASH_CENTER
 62
     3
100
AcDbLine
 10
-450.691410953478
 20
265.46745703621
 30
0.0
 11
-465.9047427175299
 21
261.391057075845
 31
0.0
  0
LINE
  5
123
330
A
100
AcDbEntity
  8
1
  6
DASH_CENTER
 62
     3
100
AcDbLine
 10
-502.589974878699
 20
213.568893110988
 30
0.0
 11
-498.5135749183339
 21
228.782224875041
 31
0.0
  0
LINE
  5
122
330
A
100
AcDbEntity
  8
1
  6
DASH_CENTER
 62
     3
100
AcDbLine
 10
-521.58616769526
 20
284.463649852771
 30
0.0
 11
-510.4492358915719
 21
273.326718049083
 31
0.0
  0
LINE
  5
121
330
A
100
AcDbEntity
  8
1
  6
Continuous
 62
     3
100
AcDbLine
 10
-500.5714470149179
 20
266.99999999999
 30
0.0
 11
-506.9222999760039
 21
255.99999999999
 31
0.0
  0
LINE
  5
120
330
A
100
AcDbEntity
  8
1
  6
Continuous
 62
     3
100
AcDbLine
 10
-506.9222999760039
 20
252.99999999999
 30
0.0
 11
-500.5714470149179
 21
241.99999999999
 31
0.0
  0
LINE
  5
11F
330
A
100
AcDbEntity
  8
1
  6
Continuous
 62
     3
100
AcDbLine
 10
-497.973370803565
 20
240.49999999999
 30
0.0
 11
-485.2716648813929
 21
240.49999999999
 31
0.0
  0
LINE
  5
11E
330
A
100
AcDbEntity
  8
1
  6
Continuous
 62
     3
100
AcDbLine
 10
-482.67358867004
 20
241.99999999999
 30
0.0
 11
-476.3227357089539
 21
252.99999999999
 31
0.0
  0
LINE
  5
11D
330
A
100
AcDbEntity
  8
1
  6
Continuous
 62
     3
100
AcDbLine
 10
-476.3227357089539
 20
255.99999999999
 30
0.0
 11
-482.67358867004
 21
266.999999999989
 31
0.0
  0
LINE
  5
11C
330
A
100
AcDbEntity
  8
1
  6
Continuous
 62
     3
100
AcDbLine
 10
-485.2716648813929
 20
268.49999999999
 30
0.0
 11
-497.973370803565
 21
268.49999999999
 31
0.0
  0
LINE
  5
11B
330
A
100
AcDbEntity
  8
1
  6
DASHED
 62
     3
100
AcDbLine
 10
-371.000000269875
 20
240.49999999999
 30
0.0
 11
-376.500000052138
 21
240.49999999999
 31
0.0
  0
LINE
  5
11A
330
A
100
AcDbEntity
  8
1
  6
DASHED
 62
     3
100
AcDbLine
 10
-371.000000269875
 20
239.84529946161
 30
0.0
 11
-371.000000269875
 21
240.49999999999
 31
0.0
  0
LINE
  5
119
330
A
100
AcDbEntity
  8
1
  6
DASHED
 62
     3
100
AcDbLine
 10
-371.000000269875
 20
239.84529946161
 30
0.0
 11
-369.000000269876
 21
240.99999999999
 31
0.0
  0
LINE
  5
118
330
A
100
AcDbEntity
  8
1
  6
Continuous
 62
     3
100
AcDbLine
 10
-370.999999658088
 20
240.49999999999
 30
0.0
 11
-371.000000269875
 21
240.49999999999
 31
0.0
  0
LINE
  5
117
330
A
100
AcDbEntity
  8
1
  6
DASHED
 62
     3
100
AcDbLine
 10
-381.000000052138
 20
236.99999999999
 30
0.0
 11
-376.500000052138
 21
236.99999999999
 31
0.0
  0
LINE
  5
116
330
A
100
AcDbEntity
  8
1
  6
DASHED
 62
     3
100
AcDbLine
 10
-376.500000052138
 20
240.49999999999
 30
0.0
 11
-376.500000052138
 21
236.99999999999
 31
0.0
  0
LINE
  5
115
330
A
100
AcDbEntity
  8
1
  6
Continuous
 62
     3
100
AcDbLine
 10
-334.999999785574
 20
197.29999999999
 30
0.0
 11
-335.299999785574
 21
196.99999999999
 31
0.0
  0
LINE
  5
114
330
A
100
AcDbEntity
  8
1
  6
Continuous
 62
     3
100
AcDbLine
 10
-359.699999785609
 20
196.99999999999
 30
0.0
 11
-359.999999785609
 21
197.29999999999
 31
0.0
  0
LINE
  5
113
330
A
100
AcDbEntity
  8
1
  6
Continuous
 62
     3
100
AcDbLine
 10
-335.299999785576
 20
311.99999999999
 30
0.0
 11
-334.999999785576
 21
311.69999999999
 31
0.0
  0
LINE
  5
112
330
A
100
AcDbEntity
  8
1
  6
Continuous
 62
     3
100
AcDbLine
 10
-359.999999785609
 20
311.699999999989
 30
0.0
 11
-359.699999785609
 21
311.999999999989
 31
0.0
  0
LINE
  5
111
330
A
100
AcDbEntity
  8
1
  6
Continuous
 62
     3
100
AcDbLine
 10
-369.0
 20
264.117641840234
 30
0.0
 11
-369.0
 21
254.49999999999
 31
0.0
  0
LINE
  5
110
330
A
100
AcDbEntity
  8
________
  6
DASH_CENTER
 62
     3
100
AcDbLine
 10
-252.0
 20
254.49999999999
 30
0.0
 11
-388.50000026021
 21
254.49999999999
 31
0.0
  0
LINE
  5
10F
330
A
100
AcDbEntity
  8
1
  6
Continuous
 62
     3
100
AcDbLine
 10
-376.500000052138
 20
268.49999999999
 30
0.0
 11
-376.500000052138
 21
254.49999999999
 31
0.0
  0
LINE
  5
10E
330
A
100
AcDbEntity
  8
1
  6
Continuous
 62
     3
100
AcDbLine
 10
-374.999999785558
 20
281.979370734244
 30
0.0
 11
-374.999999785558
 21
309.499999999989
 31
0.0
  0
LINE
  5
10D
330
A
100
AcDbEntity
  8
1
  6
Continuous
 62
     3
100
AcDbLine
 10
-384.500000052139
 20
286.840939685462
 30
0.0
 11
-384.500000052139
 21
295.999999999989
 31
0.0
  0
LINE
  5
10C
330
A
100
AcDbEntity
  8
1
  6
Continuous
 62
     3
100
AcDbLine
 10
-384.500000052139
 20
226.49999999999
 30
0.0
 11
-384.500000052139
 21
286.840939685462
 31
0.0
  0
LINE
  5
10B
330
A
100
AcDbEntity
  8
1
  6
Continuous
 62
     3
100
AcDbLine
 10
-369.000000269876
 20
267.99999999999
 30
0.0
 11
-371.000000269875
 21
269.154700538369
 31
0.0
  0
LINE
  5
10A
330
A
100
AcDbEntity
  8
1
  6
Continuous
 62
     3
100
AcDbLine
 10
-371.000000269875
 20
269.154700538369
 30
0.0
 11
-371.000000269875
 21
254.49999999999
 31
0.0
  0
LINE
  5
109
330
A
100
AcDbEntity
  8
1
  6
Continuous
 62
     3
100
AcDbLine
 10
-376.500000052138
 20
268.49999999999
 30
0.0
 11
-370.999999658088
 21
268.49999999999
 31
0.0
  0
LINE
  5
108
330
A
100
AcDbEntity
  8
1
  6
Continuous
 62
     3
100
AcDbLine
 10
-376.500000052138
 20
271.99999999999
 30
0.0
 11
-376.500000052138
 21
268.49999999999
 31
0.0
  0
LINE
  5
107
330
A
100
AcDbEntity
  8
1
  6
Continuous
 62
     3
100
AcDbLine
 10
-376.500000052138
 20
271.99999999999
 30
0.0
 11
-381.000000052138
 21
271.999999999989
 31
0.0
  0
LINE
  5
106
330
A
100
AcDbEntity
  8
1
  6
Continuous
 62
     3
100
AcDbLine
 10
-381.000000052138
 20
281.999999999989
 30
0.0
 11
-384.000000052139
 21
281.999999999989
 31
0.0
  0
LINE
  5
105
330
A
100
AcDbEntity
  8
1
  6
Continuous
 62
     3
100
AcDbLine
 10
-384.000000052139
 20
281.999999999989
 30
0.0
 11
-384.500000052139
 21
282.499999999989
 31
0.0
  0
LINE
  5
104
330
A
100
AcDbEntity
  8
1
  6
DOT_CENTER
 62
     3
100
AcDbLine
 10
-372.768949119851
 20
210.332704406983
 30
0.0
 11
-380.999999785558
 21
210.332704406983
 31
0.0
  0
LINE
  5
103
330
A
100
AcDbEntity
  8
1
  6
Continuous
 62
     3
100
AcDbLine
 10
-374.999999785558
 20
199.49999999999
 30
0.0
 11
-374.999999785558
 21
254.49999999999
 31
0.0
  0
LINE
  5
102
330
A
100
AcDbEntity
  8
1
  6
Continuous
 62
     3
100
AcDbLine
 10
-334.499999993646
 20
199.49999999999
 30
0.0
 11
-334.999999785576
 21
199.49999999999
 31
0.0
  0
LINE
  5
101
330
A
100
AcDbEntity
  8
1
  6
Continuous
 62
     3
100
AcDbLine
 10
-359.999999785609
 20
309.499999999989
 30
0.0
 11
-374.999999785558
 21
309.499999999989
 31
0.0
  0
LINE
  5
100
330
A
100
AcDbEntity
  8
1
  6
DASH_CENTER
 62
     3
100
AcDbLine
 10
-482.952079831544
 20
286.858515180673
 30
0.0
 11
-482.305032218788
 21
289.273329746396
 31
0.0
  0
LINE
  5
FF
330
A
100
AcDbEntity
  8
1
  6
DASH_CENTER
 62
     3
100
AcDbLine
 10
-482.305032218788
 20
289.273329746396
 30
0.0
 11
-481.657984606032
 21
291.688144312118
 31
0.0
  0
LINE
  5
FE
330
A
100
AcDbEntity
  8
1
  6
DASH_CENTER
 62
     3
100
AcDbLine
 10
-481.657984606032
 20
291.688144312118
 30
0.0
 11
-481.0169405291989
 21
294.080553376748
 31
0.0
  0
LINE
  5
FD
330
A
100
AcDbEntity
  8
1
  6
DASH_CENTER
 62
     3
100
AcDbLine
 10
-491.622517842479
 20
171.99999999999
 30
0.0
 11
-491.622517842479
 21
336.99999999999
 31
0.0
  0
LINE
  5
FC
330
A
100
AcDbEntity
  8
1
  6
DASH_CENTER
 62
     3
100
AcDbLine
 10
-568.769093345454
 20
254.49999999999
 30
0.0
 11
-415.769093345454
 21
254.499999999988
 31
0.0
  0
LINE
  5
FB
330
A
100
AcDbEntity
  8
1
  6
DOT_CENTER
 62
     3
100
AcDbLine
 10
-372.768949119851
 20
228.999999999993
 30
0.0
 11
-380.999999785558
 21
228.999999999993
 31
0.0
  0
LINE
  5
FA
330
A
100
AcDbEntity
  8
1
  6
DOT_CENTER
 62
     3
100
AcDbLine
 10
-372.768949119851
 20
203.49999999999
 30
0.0
 11
-380.999999785558
 21
203.49999999999
 31
0.0
  0
LINE
  5
F9
330
A
100
AcDbEntity
  8
1
  6
DOT_CENTER
 62
     3
100
AcDbLine
 10
-380.999999785558
 20
298.6672955929959
 30
0.0
 11
-372.768949119851
 21
298.6672955929959
 31
0.0
  0
LINE
  5
F8
330
A
100
AcDbEntity
  8
1
  6
Continuous
 62
     3
100
AcDbLine
 10
-339.499999755364
 20
182.500000000027
 30
0.0
 11
-338.999999755449
 21
183.0000000000289
 31
0.0
  0
LINE
  5
F7
330
A
100
AcDbEntity
  8
1
  6
Continuous
 62
     3
100
AcDbLine
 10
-339.499999755508
 20
326.499999999952
 30
0.0
 11
-355.499999785575
 21
326.499999999988
 31
0.0
  0
LINE
  5
F6
330
A
100
AcDbEntity
  8
1
  6
Continuous
 62
     3
100
AcDbLine
 10
-355.499999785575
 20
326.499999999988
 30
0.0
 11
-355.999999785575
 21
325.99999999999
 31
0.0
  0
LINE
  5
F5
330
A
100
AcDbEntity
  8
1
  6
Continuous
 62
     3
100
AcDbLine
 10
-355.9999997855741
 20
182.99999999999
 30
0.0
 11
-355.4999997855741
 21
182.499999999991
 31
0.0
  0
LINE
  5
F4
330
A
100
AcDbEntity
  8
1
  6
Continuous
 62
     3
100
AcDbLine
 10
-384.500000052139
 20
212.99999999999
 30
0.0
 11
-384.000000052139
 21
212.49999999999
 31
0.0
  0
LINE
  5
F3
330
A
100
AcDbEntity
  8
1
  6
Continuous
 62
     3
100
AcDbLine
 10
-384.000000052139
 20
296.499999999989
 30
0.0
 11
-384.500000052139
 21
295.999999999989
 31
0.0
  0
LINE
  5
F2
330
A
100
AcDbEntity
  8
1
  6
Continuous
 62
     3
100
AcDbLine
 10
-381.000000052138
 20
271.999999999989
 30
0.0
 11
-381.000000052138
 21
254.49999999999
 31
0.0
  0
LINE
  5
F1
330
A
100
AcDbEntity
  8
1
  6
DASH_CENTER
 62
     3
100
AcDbLine
 10
-483.585210086351
 20
284.495640901924
 30
0.0
 11
-482.952079831544
 21
286.858515180673
 31
0.0
  0
LINE
  5
F0
330
A
100
AcDbEntity
  8
1
  6
DASH_CENTER
 62
     3
100
AcDbLine
 10
-441.317198122091
 20
304.80531972038
 30
0.0
 11
-449.296849227431
 21
296.8256686150411
 31
0.0
  0
LINE
  5
EF
330
A
100
AcDbEntity
  8
1
  6
DASH_CENTER
 62
     3
100
AcDbLine
 10
-441.317198122091
 20
204.194680279604
 30
0.0
 11
-449.296849227471
 21
212.174331384887
 31
0.0
  0
LINE
  5
EE
330
A
100
AcDbEntity
  8
1
  6
DASH_CENTER
 62
     3
100
AcDbLine
 10
-541.927837562867
 20
204.194680279604
 30
0.0
 11
-533.948186457538
 21
212.174331384937
 31
0.0
  0
LINE
  5
ED
330
A
100
AcDbEntity
  8
1
  6
DASH_CENTER
 62
     3
100
AcDbLine
 10
-541.927837562867
 20
204.194680279604
 30
0.0
 11
-533.948186457538
 21
212.174331384937
 31
0.0
  0
LINE
  5
EC
330
A
100
AcDbEntity
  8
1
  6
DASH_CENTER
 62
     3
100
AcDbLine
 10
-541.927837562867
 20
304.80531972038
 30
0.0
 11
-533.9481864575319
 21
296.825668615036
 31
0.0
  0
LINE
  5
EB
330
A
100
AcDbEntity
  8
1
  6
Continuous
 62
     3
100
AcDbLine
 10
-514.7507169379779
 20
310.336411929607
 30
0.0
 11
-518.4314579178759
 21
319.22250672286
 31
0.0
  0
LINE
  5
EA
330
A
100
AcDbEntity
  8
1
  6
DASH_CENTER
 62
     3
100
AcDbLine
 10
-468.673090710532
 20
199.09518176935
 30
0.0
 11
-464.502393858658
 21
189.026228865008
 31
0.0
  0
LINE
  5
E9
330
A
100
AcDbEntity
  8
1
  6
DASH_CENTER
 62
     3
100
AcDbLine
 10
-472.090702715693
 20
288.330096163626
 30
0.0
 11
-475.1741065141099
 21
282.989484124516
 31
0.0
  0
LINE
  5
E8
330
A
100
AcDbEntity
  8
1
  6
DASH_CENTER
 62
     3
100
AcDbLine
 10
-511.202928721917
 20
220.585733523724
 30
0.0
 11
-508.1195249234999
 21
225.926345562834
 31
0.0
  0
LINE
  5
E7
330
A
100
AcDbEntity
  8
1
  6
Continuous
 62
     3
100
AcDbLine
 10
-384.000000052139
 20
296.499999999989
 30
0.0
 11
-379.499999785558
 21
296.499999999989
 31
0.0
  0
LINE
  5
E6
330
A
100
AcDbEntity
  8
1
  6
Continuous
 62
     3
100
AcDbLine
 10
-384.500000052139
 20
212.99999999999
 30
0.0
 11
-384.500000052139
 21
226.49999999999
 31
0.0
  0
LINE
  5
E5
330
A
100
AcDbEntity
  8
1
  6
Continuous
 62
     3
100
AcDbLine
 10
-338.999999755508
 20
325.99999999995
 30
0.0
 11
-338.999999755451
 21
325.99999999995
 31
0.0
  0
LINE
  5
E4
330
A
100
AcDbEntity
  8
1
  6
Continuous
 62
     3
100
AcDbLine
 10
-338.999999755451
 20
325.99999999995
 30
0.0
 11
-339.499999755508
 21
326.499999999952
 31
0.0
  0
LINE
  5
E3
330
A
100
AcDbEntity
  8
1
  6
Continuous
 62
     3
100
AcDbLine
 10
-359.999999785609
 20
311.699999999989
 30
0.0
 11
-359.999999785609
 21
199.49999999999
 31
0.0
  0
LINE
  5
E2
330
A
100
AcDbEntity
  8
1
  6
DOT_CENTER
 62
     3
100
AcDbLine
 10
-380.999999785558
 20
305.499999999989
 30
0.0
 11
-372.768949119851
 21
305.499999999989
 31
0.0
  0
LINE
  5
E1
330
A
100
AcDbEntity
  8
1
  6
Continuous
 62
     3
100
AcDbLine
 10
-359.699999785609
 20
311.999999999989
 30
0.0
 11
-355.999999785575
 21
311.99999999999
 31
0.0
  0
LINE
  5
E0
330
A
100
AcDbEntity
  8
1
  6
Continuous
 62
     3
100
AcDbLine
 10
-338.999999755494
 20
311.99999999999
 30
0.0
 11
-335.299999785576
 21
311.99999999999
 31
0.0
  0
LINE
  5
DF
330
A
100
AcDbEntity
  8
1
  6
Continuous
 62
     3
100
AcDbLine
 10
-334.999999785576
 20
311.69999999999
 30
0.0
 11
-334.999999785576
 21
309.499999999989
 31
0.0
  0
LINE
  5
DE
330
A
100
AcDbEntity
  8
1
  6
Continuous
 62
     3
100
AcDbLine
 10
-338.999999755494
 20
311.99999999999
 30
0.0
 11
-338.999999755508
 21
325.99999999995
 31
0.0
  0
LINE
  5
DD
330
A
100
AcDbEntity
  8
1
  6
Continuous
 62
     3
100
AcDbLine
 10
-355.999999785575
 20
325.99999999999
 30
0.0
 11
-355.999999785575
 21
311.99999999999
 31
0.0
  0
LINE
  5
DC
330
A
100
AcDbEntity
  8
1
  6
Continuous
 62
     3
100
AcDbLine
 10
-355.9999997855741
 20
196.99999999999
 30
0.0
 11
-355.9999997855741
 21
192.29999999999
 31
0.0
  0
LINE
  5
DB
330
A
100
AcDbEntity
  8
1
  6
Continuous
 62
     3
100
AcDbLine
 10
-338.999999755503
 20
185.69999999999
 30
0.0
 11
-338.999999755496
 21
192.29999999999
 31
0.0
  0
LINE
  5
DA
330
A
100
AcDbEntity
  8
1
  6
DASHED
 62
     3
100
AcDbLine
 10
-355.9999997855741
 20
316.69999999999
 30
0.0
 11
-338.999999755496
 21
316.69999999999
 31
0.0
  0
LINE
  5
D9
330
A
100
AcDbEntity
  8
1
  6
Continuous
 62
     3
100
AcDbLine
 10
-338.999999755507
 20
183.0000000000289
 30
0.0
 11
-338.999999755503
 21
185.69999999999
 31
0.0
  0
LINE
  5
D8
330
A
100
AcDbEntity
  8
1
  6
Continuous
 62
     3
100
AcDbLine
 10
-355.9999997855741
 20
192.29999999999
 30
0.0
 11
-355.9999997855741
 21
185.69999999999
 31
0.0
  0
LINE
  5
D7
330
A
100
AcDbEntity
  8
1
  6
DASHED
 62
     3
100
AcDbLine
 10
-355.9999997855741
 20
323.29999999999
 30
0.0
 11
-338.999999755503
 21
323.29999999999
 31
0.0
  0
LINE
  5
D6
330
A
100
AcDbEntity
  8
1
  6
Continuous
 62
     3
100
AcDbLine
 10
-334.999999785576
 20
309.499999999989
 30
0.0
 11
-334.999999785574
 21
197.29999999999
 31
0.0
  0
LINE
  5
D5
330
A
100
AcDbEntity
  8
1
  6
Continuous
 62
     3
100
AcDbLine
 10
-335.299999785574
 20
196.99999999999
 30
0.0
 11
-338.9999997554919
 21
196.99999999999
 31
0.0
  0
LINE
  5
D4
330
A
100
AcDbEntity
  8
1
  6
Continuous
 62
     3
100
AcDbLine
 10
-355.9999997855741
 20
196.99999999999
 30
0.0
 11
-359.699999785609
 21
196.99999999999
 31
0.0
  0
LINE
  5
D3
330
A
100
AcDbEntity
  8
1
  6
Continuous
 62
     3
100
AcDbLine
 10
-338.999999755496
 20
192.29999999999
 30
0.0
 11
-338.9999997554919
 21
196.99999999999
 31
0.0
  0
LINE
  5
D2
330
A
100
AcDbEntity
  8
1
  6
Continuous
 62
     3
100
AcDbLine
 10
-355.9999997855741
 20
185.69999999999
 30
0.0
 11
-355.9999997855741
 21
182.99999999999
 31
0.0
  0
LINE
  5
D1
330
A
100
AcDbEntity
  8
1
  6
Continuous
 62
     3
100
AcDbLine
 10
-359.999999785609
 20
199.49999999999
 30
0.0
 11
-359.999999785609
 21
197.29999999999
 31
0.0
  0
LINE
  5
D0
330
A
100
AcDbEntity
  8
1
  6
Continuous
 62
     3
100
AcDbLine
 10
-355.4999997855741
 20
182.499999999991
 30
0.0
 11
-339.499999755364
 21
182.500000000027
 31
0.0
  0
LINE
  5
CF
330
A
100
AcDbEntity
  8
1
  6
Continuous
 62
     3
100
AcDbLine
 10
-338.999999755449
 20
183.0000000000289
 30
0.0
 11
-338.999999755507
 21
183.0000000000289
 31
0.0
  0
LINE
  5
CE
330
A
100
AcDbEntity
  8
1
  6
Continuous
 62
     3
100
AcDbLine
 10
-338.999999755494
 20
311.99999999999
 30
0.0
 11
-338.999999755494
 21
196.99999999999
 31
0.0
  0
LINE
  5
CD
330
A
100
AcDbEntity
  8
1
  6
Continuous
 62
     3
100
AcDbLine
 10
-355.9999997855741
 20
196.99999999999
 30
0.0
 11
-355.9999997855741
 21
311.99999999999
 31
0.0
  0
LINE
  5
CC
330
A
100
AcDbEntity
  8
1
  6
Continuous
 62
     3
100
AcDbLine
 10
-334.999999785576
 20
309.499999999989
 30
0.0
 11
-334.499999993646
 21
309.499999999989
 31
0.0
  0
LINE
  5
CB
330
A
100
AcDbEntity
  8
1
  6
Continuous
 62
     3
100
AcDbLine
 10
-379.499999785558
 20
212.49999999999
 30
0.0
 11
-384.000000052139
 21
212.49999999999
 31
0.0
  0
LINE
  5
CA
330
A
100
AcDbEntity
  8
1
  6
DASHED
 62
     3
100
AcDbLine
 10
-381.000000052138
 20
226.999999999989
 30
0.0
 11
-381.000000052138
 21
236.99999999999
 31
0.0
  0
LINE
  5
C9
330
A
100
AcDbEntity
  8
1
  6
DASHED
 62
     3
100
AcDbLine
 10
-384.500000052139
 20
226.49999999999
 30
0.0
 11
-384.000000052139
 21
226.99999999999
 31
0.0
  0
LINE
  5
C8
330
A
100
AcDbEntity
  8
1
  6
DASHED
 62
     3
100
AcDbLine
 10
-384.000000052139
 20
226.99999999999
 30
0.0
 11
-381.000000052138
 21
226.999999999989
 31
0.0
  0
LINE
  5
C7
330
A
100
AcDbEntity
  8
1
  6
Continuous
 62
     3
100
AcDbLine
 10
-105.110973158338
 20
319.222515063723
 30
0.0
 11
-108.791714138237
 21
310.33642027047
 31
0.0
  0
LINE
  5
C6
330
A
100
AcDbEntity
  8
1
  6
DASH_CENTER
 62
     3
100
AcDbLine
 10
-159.040037217557
 20
189.02623720587
 30
0.0
 11
-154.869340365682
 21
199.0951901102119
 31
0.0
  0
LINE
  5
C5
330
A
100
AcDbEntity
  8
1
  6
Continuous
 62
     3
100
AcDbLine
 10
-228.85
 20
360.9479701323179
 30
0.0
 11
-228.85
 21
398.2222184871489
 31
0.0
  0
LINE
  5
C4
330
A
100
AcDbEntity
  8
1
  6
Continuous
 62
     3
100
AcDbLine
 10
-222.2
 20
349.72221848715
 30
0.0
 11
-222.2
 21
300.722218487149
 31
0.0
  0
LINE
  5
C3
330
A
100
AcDbEntity
  8
1
  6
Continuous
 62
     3
100
AcDbLine
 10
-227.8
 20
349.7222184871489
 30
0.0
 11
-227.8
 21
300.722218487149
 31
0.0
  0
LINE
  5
C2
330
A
100
AcDbEntity
  8
1
  6
Continuous
 62
     3
100
AcDbLine
 10
-242.729589029683
 20
287.922218487149
 30
0.0
 11
-235.0
 21
287.922218487149
 31
0.0
  0
LINE
  5
C1
330
A
100
AcDbEntity
  8
1
  6
Continuous
 62
     3
100
AcDbLine
 10
-242.729589029683
 20
293.522218487149
 30
0.0
 11
-235.0
 21
293.522218487149
 31
0.0
  0
LINE
  5
C0
330
A
100
AcDbEntity
  8
1
  6
Continuous
 62
     3
100
AcDbLine
 10
-221.15
 20
398.2222184871489
 30
0.0
 11
-221.15
 21
300.722218487149
 31
0.0
  0
LINE
  5
BF
330
A
100
AcDbEntity
  8
1
  6
Continuous
 62
     3
100
AcDbLine
 10
-309.499999993646
 20
404.422218487149
 30
0.0
 11
-309.499999993646
 21
412.0222184871489
 31
0.0
  0
LINE
  5
BE
330
A
100
AcDbEntity
  8
1
  6
Continuous
 62
     3
100
AcDbLine
 10
-296.499999993646
 20
412.0222184871489
 30
0.0
 11
-294.499999993646
 21
412.5222184871489
 31
0.0
  0
LINE
  5
BD
330
A
100
AcDbEntity
  8
1
  6
Continuous
 62
     3
100
AcDbLine
 10
-309.499999993646
 20
412.0222184871489
 30
0.0
 11
-296.499999993646
 21
412.0222184871489
 31
0.0
  0
LINE
  5
BC
330
A
100
AcDbEntity
  8
1
  6
Continuous
 62
     3
100
AcDbLine
 10
-296.499999993646
 20
404.422218487149
 30
0.0
 11
-309.499999993646
 21
404.422218487149
 31
0.0
  0
LINE
  5
BB
330
A
100
AcDbEntity
  8
1
  6
Continuous
 62
     3
100
AcDbLine
 10
-294.499999993646
 20
403.922218487149
 30
0.0
 11
-296.499999993646
 21
404.422218487149
 31
0.0
  0
LINE
  5
BA
330
A
100
AcDbEntity
  8
1
  6
Continuous
 62
     3
100
AcDbLine
 10
-284.499999993646
 20
403.922218487149
 30
0.0
 11
-294.499999993646
 21
403.922218487149
 31
0.0
  0
LINE
  5
B9
330
A
100
AcDbEntity
  8
1
  6
Continuous
 62
     3
100
AcDbLine
 10
-284.499999993646
 20
403.922218487149
 30
0.0
 11
-284.499999993646
 21
412.5222184871489
 31
0.0
  0
LINE
  5
B8
330
A
100
AcDbEntity
  8
1
  6
Continuous
 62
     3
100
AcDbLine
 10
-294.499999993646
 20
412.5222184871489
 30
0.0
 11
-284.499999993646
 21
412.5222184871489
 31
0.0
  0
LINE
  5
B7
330
A
100
AcDbEntity
  8
1
  6
Continuous
 62
     3
100
AcDbLine
 10
-309.499999993646
 20
356.422218487149
 30
0.0
 11
-309.499999993646
 21
363.0222184871489
 31
0.0
  0
LINE
  5
B6
330
A
100
AcDbEntity
  8
1
  6
Continuous
 62
     3
100
AcDbLine
 10
-294.499999993646
 20
356.122218487149
 30
0.0
 11
-296.499999993646
 21
356.42221848715
 31
0.0
  0
LINE
  5
B5
330
A
100
AcDbEntity
  8
1
  6
Continuous
 62
     3
100
AcDbLine
 10
-296.499999993646
 20
356.42221848715
 30
0.0
 11
-309.499999993646
 21
356.422218487149
 31
0.0
  0
LINE
  5
B4
330
A
100
AcDbEntity
  8
1
  6
Continuous
 62
     3
100
AcDbLine
 10
-309.499999993646
 20
363.0222184871489
 30
0.0
 11
-296.499999993646
 21
363.0222184871489
 31
0.0
  0
LINE
  5
B3
330
A
100
AcDbEntity
  8
1
  6
Continuous
 62
     3
100
AcDbLine
 10
-296.499999993646
 20
363.0222184871489
 30
0.0
 11
-294.499999993646
 21
363.322218487149
 31
0.0
  0
LINE
  5
B2
330
A
100
AcDbEntity
  8
1
  6
Continuous
 62
     3
100
AcDbLine
 10
-294.499999993646
 20
363.322218487149
 30
0.0
 11
-284.499999993646
 21
363.322218487149
 31
0.0
  0
LINE
  5
B1
330
A
100
AcDbEntity
  8
1
  6
Continuous
 62
     3
100
AcDbLine
 10
-284.499999993646
 20
356.122218487149
 30
0.0
 11
-284.499999993646
 21
363.322218487149
 31
0.0
  0
LINE
  5
B0
330
A
100
AcDbEntity
  8
1
  6
Continuous
 62
     3
100
AcDbLine
 10
-284.499999993646
 20
356.122218487149
 30
0.0
 11
-294.499999993646
 21
356.122218487149
 31
0.0
  0
LINE
  5
AF
330
A
100
AcDbEntity
  8
1
  6
Continuous
 62
     3
100
AcDbLine
 10
-254.499999993646
 20
412.0722184871489
 30
0.0
 11
-235.0
 21
412.0722184871489
 31
0.0
  0
LINE
  5
AE
330
A
100
AcDbEntity
  8
1
  6
Continuous
 62
     3
100
AcDbLine
 10
-254.499999993675
 20
404.3722184871489
 30
0.0
 11
-235.0
 21
404.3722184871489
 31
0.0
  0
LINE
  5
AD
330
A
100
AcDbEntity
  8
1
  6
Continuous
 62
     3
100
AcDbLine
 10
-254.499999993636
 20
362.52221848711
 30
0.0
 11
-235.0
 21
362.52221848711
 31
0.0
  0
LINE
  5
AC
330
A
100
AcDbEntity
  8
1
  6
Continuous
 62
     3
100
AcDbLine
 10
-254.499999993676
 20
356.922218487189
 30
0.0
 11
-235.0
 21
356.922218487149
 31
0.0
  0
LINE
  5
AB
330
A
100
AcDbEntity
  8
1
  6
Continuous
 62
     3
100
AcDbLine
 10
-284.499999993646
 20
362.52221848711
 30
0.0
 11
-257.499999993616
 21
362.52221848711
 31
0.0
  0
LINE
  5
AA
330
A
100
AcDbEntity
  8
1
  6
Continuous
 62
     3
100
AcDbLine
 10
-284.499999993646
 20
356.922218487189
 30
0.0
 11
-257.499999993655
 21
356.922218487189
 31
0.0
  0
LINE
  5
A9
330
A
100
AcDbEntity
  8
1
  6
DASH_CENTER
 62
     3
100
AcDbLine
 10
-376.929999993646
 20
359.722218487149
 30
0.0
 11
-238.0
 21
359.722218487149
 31
0.0
  0
LINE
  5
A8
330
A
100
AcDbEntity
  8
1
  6
DASH_CENTER
 62
     3
100
AcDbLine
 10
-367.499999993646
 20
408.2222184871489
 30
0.0
 11
-235.0
 21
408.2222184871489
 31
0.0
  0
LINE
  5
A7
330
A
100
AcDbEntity
  8
1
  6
Continuous
 62
     3
100
AcDbLine
 10
-284.499999993646
 20
404.3722184871489
 30
0.0
 11
-257.499999993646
 21
404.3722184871489
 31
0.0
  0
LINE
  5
A6
330
A
100
AcDbEntity
  8
1
  6
Continuous
 62
     3
100
AcDbLine
 10
-284.499999993646
 20
412.0722184871489
 30
0.0
 11
-257.499999993587
 21
412.0722184871489
 31
0.0
  0
LINE
  5
A5
330
A
100
AcDbEntity
  8
1
  6
DASH_CENTER
 62
     3
100
AcDbLine
 10
-225.0
 20
357.7122122292621
 30
0.0
 11
-225.0
 21
398.2222184871489
 31
0.0
  0
LINE
  5
A4
330
A
100
AcDbEntity
  8
1
  6
Continuous
 62
     3
100
AcDbLine
 10
-228.85
 20
300.722218487149
 30
0.0
 11
-228.85
 21
353.466213679454
 31
0.0
  0
LINE
  5
A3
330
A
100
AcDbEntity
  8
1
  6
Continuous
 62
     3
100
AcDbLine
 10
-330.416528128984
 20
406.3286333813179
 30
0.0
 11
-318.624651906707
 21
405.355803592981
 31
0.0
  0
LINE
  5
A2
330
A
100
AcDbEntity
  8
1
  6
Continuous
 62
     3
100
AcDbLine
 10
-309.499999993646
 20
405.0172184871489
 30
0.0
 11
-310.402585177938
 21
405.0172184871489
 31
0.0
  0
LINE
  5
A1
330
A
100
AcDbEntity
  8
1
  6
Continuous
 62
     3
100
AcDbLine
 10
-317.762659480536
 20
406.2880865718139
 30
0.0
 11
-319.074948337145
 21
406.3963504024849
 31
0.0
  0
LINE
  5
A0
330
A
100
AcDbEntity
  8
1
  6
Continuous
 62
     3
100
AcDbLine
 10
-309.499999993646
 20
406.0172184871489
 30
0.0
 11
-311.18500609752
 21
406.0172184871489
 31
0.0
  0
LINE
  5
9F
330
A
100
AcDbEntity
  8
1
  6
Continuous
 62
     3
100
AcDbLine
 10
-309.499999993646
 20
409.9672184871489
 30
0.0
 11
-344.499999993646
 21
409.9672184871489
 31
0.0
  0
LINE
  5
9E
330
A
100
AcDbEntity
  8
1
  6
Continuous
 62
     3
100
AcDbLine
 10
-330.416528128984
 20
409.6286333813179
 30
0.0
 11
-318.624651906707
 21
408.6558035929799
 31
0.0
  0
LINE
  5
9D
330
A
100
AcDbEntity
  8
1
  6
Continuous
 62
     3
100
AcDbLine
 10
-309.499999993646
 20
408.3172184871489
 30
0.0
 11
-310.402585177938
 21
408.3172184871489
 31
0.0
  0
LINE
  5
9C
330
A
100
AcDbEntity
  8
1
  6
Continuous
 62
     3
100
AcDbLine
 10
-309.499999993646
 20
409.3172184871489
 30
0.0
 11
-311.18500609752
 21
409.3172184871489
 31
0.0
  0
LINE
  5
9B
330
A
100
AcDbEntity
  8
1
  6
Continuous
 62
     3
100
AcDbLine
 10
-317.762659480536
 20
409.588086571814
 30
0.0
 11
-319.074948337145
 21
409.696350402484
 31
0.0
  0
LINE
  5
9A
330
A
100
AcDbEntity
  8
1
  6
Continuous
 62
     3
100
AcDbLine
 10
-309.499999993646
 20
406.6672184871489
 30
0.0
 11
-344.499999993646
 21
406.6672184871489
 31
0.0
  0
LINE
  5
99
330
A
100
AcDbEntity
  8
1
  6
Continuous
 62
     3
100
AcDbLine
 10
-309.499999993646
 20
407.6672184871489
 30
0.0
 11
-344.499999993646
 21
407.6672184871489
 31
0.0
  0
LINE
  5
98
330
A
100
AcDbEntity
  8
1
  6
Continuous
 62
     3
100
AcDbLine
 10
-309.499999993646
 20
410.9672184871489
 30
0.0
 11
-344.499999993646
 21
410.9672184871489
 31
0.0
  0
LINE
  5
97
330
A
100
AcDbEntity
  8
1
  6
Continuous
 62
     3
100
AcDbLine
 10
-344.499999993646
 20
362.09721848715
 30
0.0
 11
-333.499999993646
 21
362.09721848715
 31
0.0
  0
LINE
  5
96
330
A
100
AcDbEntity
  8
1
  6
Continuous
 62
     3
100
AcDbLine
 10
-344.499999993646
 20
363.6972184871499
 30
0.0
 11
-333.499999993646
 21
363.6972184871499
 31
0.0
  0
LINE
  5
95
330
A
100
AcDbEntity
  8
1
  6
Continuous
 62
     3
100
AcDbLine
 10
-344.499999993646
 20
355.74697492645
 30
0.0
 11
-333.499999993646
 21
355.74697492645
 31
0.0
  0
LINE
  5
94
330
A
100
AcDbEntity
  8
1
  6
Continuous
 62
     3
100
AcDbLine
 10
-333.499999993646
 20
357.34697492645
 30
0.0
 11
-344.499999993646
 21
357.34697492645
 31
0.0
  0
LINE
  5
93
330
A
100
AcDbEntity
  8
1
  6
Continuous
 62
     3
100
AcDbLine
 10
-321.499999993646
 20
362.7222184871489
 30
0.0
 11
-309.499999993646
 21
362.7222184871489
 31
0.0
  0
LINE
  5
92
330
A
100
AcDbEntity
  8
1
  6
Continuous
 62
     3
100
AcDbLine
 10
-333.499999993646
 20
363.6972184871499
 30
0.0
 11
-321.499999993646
 21
362.7222184871489
 31
0.0
  0
LINE
  5
91
330
A
100
AcDbEntity
  8
1
  6
Continuous
 62
     3
100
AcDbLine
 10
-321.499999993646
 20
361.12221848715
 30
0.0
 11
-309.499999993646
 21
361.12221848715
 31
0.0
  0
LINE
  5
90
330
A
100
AcDbEntity
  8
1
  6
Continuous
 62
     3
100
AcDbLine
 10
-333.499999993646
 20
362.09721848715
 30
0.0
 11
-321.499999993646
 21
361.12221848715
 31
0.0
  0
LINE
  5
8F
330
A
100
AcDbEntity
  8
1
  6
Continuous
 62
     3
100
AcDbLine
 10
-321.499999993646
 20
356.722218487149
 30
0.0
 11
-309.499999993646
 21
356.722218487149
 31
0.0
  0
LINE
  5
8E
330
A
100
AcDbEntity
  8
1
  6
Continuous
 62
     3
100
AcDbLine
 10
-333.499999993646
 20
355.74697492645
 30
0.0
 11
-321.499999993646
 21
356.722218487149
 31
0.0
  0
LINE
  5
8D
330
A
100
AcDbEntity
  8
1
  6
Continuous
 62
     3
100
AcDbLine
 10
-321.499999993646
 20
358.32221848715
 30
0.0
 11
-309.499999993646
 21
358.32221848715
 31
0.0
  0
LINE
  5
8C
330
A
100
AcDbEntity
  8
1
  6
Continuous
 62
     3
100
AcDbLine
 10
-333.499999993646
 20
357.34697492645
 30
0.0
 11
-321.499999993646
 21
358.32221848715
 31
0.0
  0
LINE
  5
8B
330
A
100
AcDbEntity
  8
1
  6
Continuous
 62
     3
100
AcDbLine
 10
-333.499999993646
 20
362.09721848715
 30
0.0
 11
-321.499999993646
 21
359.52221848715
 31
0.0
  0
LINE
  5
8A
330
A
100
AcDbEntity
  8
1
  6
Continuous
 62
     3
100
AcDbLine
 10
-321.499999993646
 20
359.52221848715
 30
0.0
 11
-309.499999993646
 21
359.52221848715
 31
0.0
  0
LINE
  5
89
330
A
100
AcDbEntity
  8
1
  6
Continuous
 62
     3
100
AcDbLine
 10
-333.499999993646
 20
357.34697492645
 30
0.0
 11
-322.374884743715
 21
359.734465043902
 31
0.0
  0
LINE
  5
88
330
A
100
AcDbEntity
  8
1
  6
Continuous
 62
     3
100
AcDbLine
 10
-322.499999993646
 20
311.199999999979
 30
0.0
 11
-322.499999993646
 21
197.79999999999
 31
0.0
  0
LINE
  5
87
330
A
100
AcDbEntity
  8
1
  6
Continuous
 62
     3
100
AcDbLine
 10
-257.500000000008
 20
277.780083882045
 30
0.0
 11
-257.5
 21
207.99999999999
 31
0.0
  0
LINE
  5
86
330
A
100
AcDbEntity
  8
1
  6
DASH_CENTER
 62
     3
100
AcDbLine
 10
-169.209607272099
 20
283.109087686283
 30
0.0
 11
-158.10058593463
 21
274.589132680568
 31
0.0
  0
LINE
  5
85
330
A
100
AcDbEntity
  8
1
  6
DASH_CENTER
 62
     3
100
AcDbLine
 10
-206.919925852404
 20
254.50000417042
 30
0.0
 11
-84.91992585240401
 21
254.50000417042
 31
0.0
  0
LINE
  5
84
330
A
100
AcDbEntity
  8
1
  6
DASH_CENTER
 62
     3
100
AcDbLine
 10
-146.21967809432
 20
201.132602267949
 30
0.0
 11
-144.019716210948
 21
209.342971791406
 31
0.0
  0
LINE
  5
83
330
A
100
AcDbEntity
  8
1
  6
DASH_CENTER
 62
     3
100
AcDbLine
 10
-91.00022552358899
 20
278.12500417042
 30
0.0
 11
-84.505034995206
 21
281.87500417042
 31
0.0
  0
LINE
  5
82
330
A
100
AcDbEntity
  8
1
  6
DASH_CENTER
 62
     3
100
AcDbLine
 10
-108.294925852404
 20
295.419704499235
 30
0.0
 11
-104.544925852404
 21
301.914895027618
 31
0.0
  0
LINE
  5
81
330
A
100
AcDbEntity
  8
1
  6
DASH_CENTER
 62
     3
100
AcDbLine
 10
-155.544925852404
 20
295.419704499235
 30
0.0
 11
-159.294925852404
 21
301.914895027618
 31
0.0
  0
LINE
  5
80
330
A
100
AcDbEntity
  8
1
  6
DASH_CENTER
 62
     3
100
AcDbLine
 10
-172.839626181219
 20
278.12500417042
 30
0.0
 11
-179.334816709602
 21
281.87500417042
 31
0.0
  0
LINE
  5
7F
330
A
100
AcDbEntity
  8
1
  6
DASH_CENTER
 62
     3
100
AcDbLine
 10
-172.839626181219
 20
230.87500417042
 30
0.0
 11
-179.334816709602
 21
227.12500417042
 31
0.0
  0
LINE
  5
7E
330
A
100
AcDbEntity
  8
1
  6
DASH_CENTER
 62
     3
100
AcDbLine
 10
-155.544925852404
 20
213.580303841605
 30
0.0
 11
-159.294925852404
 21
207.085113313222
 31
0.0
  0
LINE
  5
7D
330
A
100
AcDbEntity
  8
1
  6
DASH_CENTER
 62
     3
100
AcDbLine
 10
-108.294925852404
 20
213.580303841605
 30
0.0
 11
-104.544925852404
 21
207.085113313222
 31
0.0
  0
LINE
  5
7C
330
A
100
AcDbEntity
  8
1
  6
DASH_CENTER
 62
     3
100
AcDbLine
 10
-91.00022552358899
 20
230.875004170419
 30
0.0
 11
-84.505034995206
 21
227.125004170419
 31
0.0
  0
LINE
  5
7B
330
A
100
AcDbEntity
  8
1
  6
DASH_CENTER
 62
     3
100
AcDbLine
 10
-146.090262807635
 20
307.384441421109
 30
0.0
 11
-139.923647880839
 21
284.370293919456
 31
0.0
  0
LINE
  5
7A
330
A
100
AcDbEntity
  8
1
  6
DASH_CENTER
 62
     3
100
AcDbLine
 10
-117.620173610488
 20
307.86740607289
 30
0.0
 11
-124.155357061434
 21
283.4777796455989
 31
0.0
  0
LINE
  5
79
330
A
100
AcDbEntity
  8
________
  6
DASH_CENTER
 62
     3
100
AcDbLine
 10
-131.919925852404
 20
333.50000417042
 30
0.0
 11
-131.919925852404
 21
177.500004170419
 31
0.0
  0
LINE
  5
78
330
A
100
AcDbEntity
  8
1
  6
DASH_CENTER
 62
     3
100
AcDbLine
 10
-117.752003370427
 20
307.375410710855
 30
0.0
 11
-117.820506808219
 21
307.119752400522
 31
0.0
  0
LINE
  5
77
330
A
100
AcDbEntity
  8
1
  6
Continuous
 62
     3
100
AcDbLine
 10
-118.497736553127
 20
299.959795172333
 30
0.0
 11
-120.813987259025
 21
300.580432678446
 31
0.0
  0
LINE
  5
76
330
A
100
AcDbEntity
  8
1
  6
Continuous
 62
     3
100
AcDbLine
 10
-121.859413487615
 20
304.603383207745
 30
0.0
 11
-122.277651210524
 21
303.042498776205
 31
0.0
  0
LINE
  5
75
330
A
100
AcDbEntity
  8
1
  6
Continuous
 62
     3
100
AcDbLine
 10
-115.57641215246
 20
302.937791931048
 30
0.0
 11
-115.999133339646
 21
301.360174983039
 31
0.0
  0
LINE
  5
74
330
A
100
AcDbEntity
  8
1
  6
Continuous
 62
     3
100
AcDbLine
 10
-177.379716854317
 20
267.922193469697
 30
0.0
 11
-178.00035436043
 21
265.605942763799
 31
0.0
  0
LINE
  5
73
330
A
100
AcDbEntity
  8
1
  6
Continuous
 62
     3
100
AcDbLine
 10
-180.357713613032
 20
270.843517870363
 30
0.0
 11
-178.780096665023
 21
270.420796683178
 31
0.0
  0
LINE
  5
72
330
A
100
AcDbEntity
  8
1
  6
Continuous
 62
     3
100
AcDbLine
 10
-182.02330488973
 20
264.560516535209
 30
0.0
 11
-180.462420458189
 21
264.142278812299
 31
0.0
  0
LINE
  5
71
330
A
100
AcDbEntity
  8
1
  6
DASH_CENTER
 62
     3
100
AcDbLine
 10
-184.539674082506
 20
268.599423214605
 30
0.0
 11
-177.645008991214
 21
266.75200327131
 31
0.0
  0
LINE
  5
70
330
A
100
AcDbEntity
  8
1
  6
Continuous
 62
     3
100
AcDbLine
 10
-164.239566393151
 20
286.232334937779
 30
0.0
 11
-160.50059425218
 21
283.356640195934
 31
0.0
  0
LINE
  5
6F
330
A
100
AcDbEntity
  8
1
  6
Continuous
 62
     3
100
AcDbLine
 10
-167.110446422547
 20
274.572214214042
 30
0.0
 11
-170.886179508157
 21
277.465554890291
 31
0.0
  0
LINE
  5
6E
330
A
100
AcDbEntity
  8
1
  6
Continuous
 62
     3
100
AcDbLine
 10
-103.533980086453
 20
283.213904577483
 30
0.0
 11
-99.651698579028
 21
286.194593142141
 31
0.0
  0
LINE
  5
6D
330
A
100
AcDbEntity
  8
1
  6
DASH_CENTER
 62
     3
100
AcDbLine
 10
-95.34994231431801
 20
282.561139540938
 30
0.0
 11
-105.23857345227
 21
274.973325980611
 31
0.0
  0
LINE
  5
6C
330
A
100
AcDbEntity
  8
1
  6
Continuous
 62
     3
100
AcDbLine
 10
-92.903909377355
 20
277.505448236491
 30
0.0
 11
-96.83760426416
 21
274.487017913466
 31
0.0
  0
LINE
  5
6B
330
A
100
AcDbEntity
  8
1
  6
DASH_CENTER
 62
     3
100
AcDbLine
 10
-78.552523949933
 20
240.200251928504
 30
0.0
 11
-86.76289347339
 21
242.400213811875
 31
0.0
  0
LINE
  5
6A
330
A
100
AcDbEntity
  8
1
  6
Continuous
 62
     3
100
AcDbLine
 10
-86.46013485049
 20
241.077814871143
 30
0.0
 11
-85.839497344377
 21
243.39406557704
 31
0.0
  0
LINE
  5
69
330
A
100
AcDbEntity
  8
1
  6
Continuous
 62
     3
100
AcDbLine
 10
-83.48213809177499
 20
238.156490470477
 30
0.0
 11
-85.059755039785
 21
238.579211657662
 31
0.0
  0
LINE
  5
68
330
A
100
AcDbEntity
  8
1
  6
Continuous
 62
     3
100
AcDbLine
 10
-81.81654681507799
 20
244.439491805631
 30
0.0
 11
-83.377431246618
 21
244.85772952854
 31
0.0
  0
LINE
  5
67
330
A
100
AcDbEntity
  8
1
  6
Continuous
 62
     3
100
AcDbLine
 10
-126.419925728719
 20
214.50000417042
 30
0.0
 11
-126.419925556157
 21
209.54169017044
 31
0.0
  0
LINE
  5
66
330
A
100
AcDbEntity
  8
1
  6
Continuous
 62
     3
100
AcDbLine
 10
-137.419925728719
 20
214.50000417042
 30
0.0
 11
-137.419925901282
 21
209.54169017044
 31
0.0
  0
LINE
  5
65
330
A
100
AcDbEntity
  8
1
  6
Continuous
 62
     3
100
AcDbLine
 10
-148.263439552347
 20
206.062216409791
 30
0.0
 11
-147.840718365162
 21
207.639833357801
 31
0.0
  0
LINE
  5
64
330
A
100
AcDbEntity
  8
1
  6
Continuous
 62
     3
100
AcDbLine
 10
-141.980438217193
 20
204.396625133094
 30
0.0
 11
-141.562200494283
 21
205.957509564635
 31
0.0
  0
LINE
  5
63
330
A
100
AcDbEntity
  8
1
  6
Continuous
 62
     3
100
AcDbLine
 10
-145.34211515168
 20
209.040213168507
 30
0.0
 11
-143.025864445784
 21
208.419575662393
 31
0.0
  0
LINE
  5
62
330
A
100
AcDbEntity
  8
1
  6
Continuous
 62
     3
100
AcDbLine
 10
-146.513890992195
 20
205.611360143082
 30
0.0
 11
-146.140317878794
 21
204.217166303518
 31
0.0
  0
LINE
  5
61
330
A
100
AcDbEntity
  8
1
  6
Continuous
 62
     3
100
AcDbLine
 10
-145.493270266035
 20
206.631980869241
 30
0.0
 11
-146.513890992195
 21
205.611360143082
 31
0.0
  0
LINE
  5
60
330
A
100
AcDbEntity
  8
1
  6
Continuous
 62
     3
100
AcDbLine
 10
-260.0
 20
286.2323307340231
 30
0.0
 11
-257.0
 21
286.2323307340231
 31
0.0
  0
LINE
  5
5F
330
A
100
AcDbEntity
  8
1
  6
Continuous
 62
     3
100
AcDbLine
 10
-260.0
 20
286.2323307340231
 30
0.0
 11
-260.0
 21
283.807112529091
 31
0.0
  0
LINE
  5
5E
330
A
100
AcDbEntity
  8
1
  6
Continuous
 62
     3
100
AcDbLine
 10
-257.0
 20
286.020022010669
 30
0.0
 11
-257.0
 21
277.780083882045
 31
0.0
  0
LINE
  5
5D
330
A
100
AcDbEntity
  8
1
  6
Continuous
 62
     3
100
AcDbLine
 10
-260.0
 20
283.807112529091
 30
0.0
 11
-259.0
 21
283.807112529091
 31
0.0
  0
LINE
  5
5C
330
A
100
AcDbEntity
  8
1
  6
Continuous
 62
     3
100
AcDbLine
 10
-260.0
 20
283.807112529091
 30
0.0
 11
-260.0
 21
277.780083882045
 31
0.0
  0
LINE
  5
5B
330
A
100
AcDbEntity
  8
1
  6
Continuous
 62
     3
100
AcDbLine
 10
-259.0
 20
283.807112529091
 30
0.0
 11
-259.0
 21
277.909711300718
 31
0.0
  0
LINE
  5
5A
330
A
100
AcDbEntity
  8
1
  6
Continuous
 62
     3
100
AcDbLine
 10
-259.0
 20
280.150456463372
 30
0.0
 11
-259.0
 21
281.600456463371
 31
0.0
  0
LINE
  5
59
330
A
100
AcDbEntity
  8
1
  6
Continuous
 62
     3
100
AcDbLine
 10
-259.0
 20
277.780083882045
 30
0.0
 11
-259.0
 21
280.050456463372
 31
0.0
  0
LINE
  5
58
330
A
100
AcDbEntity
  8
1
  6
Continuous
 62
     3
100
AcDbLine
 10
-260.0
 20
277.780083882045
 30
0.0
 11
-257.0
 21
277.780083882045
 31
0.0
  0
LINE
  5
57
330
A
100
AcDbEntity
  8
1
  6
DASH_CENTER
 62
     3
100
AcDbLine
 10
-261.439316279389
 20
278.850456463371
 30
0.0
 11
-256.062095074726
 21
278.850456463371
 31
0.0
  0
LINE
  5
56
330
A
100
AcDbEntity
  8
1
  6
Continuous
 62
     3
100
AcDbLine
 10
-311.499999993646
 20
300.999999999981
 30
0.0
 11
-257.50000000001
 21
300.999999999989
 31
0.0
  0
LINE
  5
55
330
A
100
AcDbEntity
  8
1
  6
Continuous
 62
     3
100
AcDbLine
 10
-319.499999993646
 20
300.999999999979
 30
0.0
 11
-311.499999993646
 21
300.999999999981
 31
0.0
  0
LINE
  5
54
330
A
100
AcDbEntity
  8
1
  6
DASHED
 62
     3
100
AcDbLine
 10
-257.406054703352
 20
267.999999999989
 30
0.0
 11
-369.000000269876
 21
267.99999999999
 31
0.0
  0
LINE
  5
53
330
A
100
AcDbEntity
  8
________
  6
DASH_CENTER
 62
     3
100
AcDbLine
 10
-131.919925852404
 20
333.50000417042
 30
0.0
 11
-131.919925852404
 21
177.500004170419
 31
0.0
  0
LINE
  5
52
330
A
100
AcDbEntity
  8
1
  6
Continuous
 62
     3
100
AcDbLine
 10
-319.999999993646
 20
301.499999999979
 30
0.0
 11
-319.999999993646
 21
207.49999999998
 31
0.0
  0
LINE
  5
51
330
A
100
AcDbEntity
  8
1
  6
Continuous
 62
     3
100
AcDbLine
 10
-319.499999993646
 20
207.99999999998
 30
0.0
 11
-319.499999993646
 21
300.999999999979
 31
0.0
  0
LINE
  5
50
330
A
100
AcDbEntity
  8
1
  6
Continuous
 62
     3
100
AcDbLine
 10
-319.499999993646
 20
207.99999999998
 30
0.0
 11
-319.999999993646
 21
207.49999999998
 31
0.0
  0
LINE
  5
4F
330
A
100
AcDbEntity
  8
1
  6
Continuous
 62
     3
100
AcDbLine
 10
-319.999999993646
 20
301.499999999979
 30
0.0
 11
-319.499999993646
 21
300.999999999979
 31
0.0
  0
LINE
  5
4E
330
A
100
AcDbEntity
  8
1
  6
Continuous
 62
     3
100
AcDbLine
 10
-257.0
 20
300.499999999979
 30
0.0
 11
-257.0
 21
208.49999999999
 31
0.0
  0
LINE
  5
4D
330
A
100
AcDbEntity
  8
1
  6
Continuous
 62
     3
100
AcDbLine
 10
-257.5
 20
207.99999999999
 30
0.0
 11
-257.0
 21
208.49999999999
 31
0.0
  0
LINE
  5
4C
330
A
100
AcDbEntity
  8
1
  6
Continuous
 62
     3
100
AcDbLine
 10
-257.5
 20
207.99999999999
 30
0.0
 11
-319.499999993646
 21
207.99999999998
 31
0.0
  0
LINE
  5
4B
330
A
100
AcDbEntity
  8
1
  6
Continuous
 62
     3
100
AcDbLine
 10
-242.000015936422
 20
294.572218487149
 30
0.0
 11
-235.0
 21
294.57221848715
 31
0.0
  0
LINE
  5
4A
330
A
100
AcDbEntity
  8
1
  6
Continuous
 62
     3
100
AcDbLine
 10
-242.000015936422
 20
286.872218487149
 30
0.0
 11
-235.0
 21
286.87221848715
 31
0.0
  0
LINE
  5
49
330
A
100
AcDbEntity
  8
1
  6
Continuous
 62
     3
100
AcDbLine
 10
-257.0
 20
300.499999999979
 30
0.0
 11
-257.50000000001
 21
300.999999999989
 31
0.0
  0
LINE
  5
48
330
A
100
AcDbEntity
  8
1
  6
DASH_CENTER
 62
     3
100
AcDbLine
 10
-259.0
 20
290.722218487149
 30
0.0
 11
-235.0
 21
290.722218487149
 31
0.0
  0
LINE
  5
47
330
A
100
AcDbEntity
  8
1
  6
Continuous
 62
     3
100
AcDbLine
 10
-322.799999993647
 20
311.499999999979
 30
0.0
 11
-322.499999993646
 21
311.199999999979
 31
0.0
  0
LINE
  5
46
330
A
100
AcDbEntity
  8
1
  6
Continuous
 62
     3
100
AcDbLine
 10
-334.499999993646
 20
311.199999999979
 30
0.0
 11
-334.199999993646
 21
311.499999999979
 31
0.0
  0
LINE
  5
45
330
A
100
AcDbEntity
  8
1
  6
Continuous
 62
     3
100
AcDbLine
 10
-322.799999993647
 20
311.499999999979
 30
0.0
 11
-334.199999993646
 21
311.499999999979
 31
0.0
  0
LINE
  5
44
330
A
100
AcDbEntity
  8
1
  6
Continuous
 62
     3
100
AcDbLine
 10
-302.499999998983
 20
207.99999999998
 30
0.0
 11
-302.499999998983
 21
300.999999999979
 31
0.0
  0
LINE
  5
43
330
A
100
AcDbEntity
  8
1
  6
Continuous
 62
     3
100
AcDbLine
 10
-322.099999993646
 20
301.499999999979
 30
0.0
 11
-319.999999993646
 21
301.499999999979
 31
0.0
  0
LINE
  5
42
330
A
100
AcDbEntity
  8
1
  6
Continuous
 62
     3
100
AcDbLine
 10
-286.499999999999
 20
207.99999999999
 30
0.0
 11
-286.499999999999
 21
300.999999999984
 31
0.0
  0
LINE
  5
41
330
A
100
AcDbEntity
  8
1
  6
Continuous
 62
     3
100
AcDbLine
 10
-322.499999993646
 20
197.79999999999
 30
0.0
 11
-322.799999993647
 21
197.49999999999
 31
0.0
  0
LINE
  5
40
330
A
100
AcDbEntity
  8
1
  6
Continuous
 62
     3
100
AcDbLine
 10
-319.999999993646
 20
207.49999999998
 30
0.0
 11
-322.099999993646
 21
207.49999999998
 31
0.0
  0
LINE
  5
3F
330
A
100
AcDbEntity
  8
1
  6
Continuous
 62
     3
100
AcDbLine
 10
-334.499999993646
 20
197.799999999987
 30
0.0
 11
-334.199999993649
 21
197.49999999999
 31
0.0
  0
LINE
  5
3E
330
A
100
AcDbEntity
  8
1
  6
Continuous
 62
     3
100
AcDbLine
 10
-322.799999993647
 20
197.49999999999
 30
0.0
 11
-334.199999993649
 21
197.49999999999
 31
0.0
  0
LINE
  5
3D
330
A
100
AcDbEntity
  8
1
  6
DASHED
 62
     3
100
AcDbLine
 10
-369.000000269876
 20
240.99999999999
 30
0.0
 11
-257.0
 21
240.99999999999
 31
0.0
  0
LINE
  5
3C
330
A
100
AcDbEntity
  8
1
  6
DASH_CENTER
 62
     3
100
AcDbLine
 10
-206.919925852404
 20
254.50000417042
 30
0.0
 11
-84.91992585240401
 21
254.50000417042
 31
0.0
  0
LINE
  5
3B
330
A
100
AcDbEntity
  8
1
  6
Continuous
 62
     3
100
AcDbLine
 10
-257.50000000001
 20
300.999999999989
 30
0.0
 11
-257.500000000009
 21
286.2323307340231
 31
0.0
  0
LINE
  5
3A
330
A
100
AcDbEntity
  8
1
  6
Continuous
 62
     3
100
AcDbLine
 10
-334.499999993646
 20
311.199999999979
 30
0.0
 11
-334.499999993646
 21
197.799999999987
 31
0.0
  0
LINE
  5
39
330
A
100
AcDbEntity
  8
1
  6
DASH_CENTER
 62
     3
100
AcDbLine
 10
-225.0
 20
300.722218487149
 30
0.0
 11
-225.0
 21
349.7222184871489
 31
0.0
  0
LINE
  5
38
330
A
100
AcDbEntity
  8
1
  6
Continuous
 62
     3
100
AcDbLine
 10
-257.0
 20
296.722218487149
 30
0.0
 11
-256.5
 21
296.722218487149
 31
0.0
  0
LINE
  5
37
330
A
100
AcDbEntity
  8
1
  6
Continuous
 62
     3
100
AcDbLine
 10
-256.5
 20
284.722218487149
 30
0.0
 11
-257.0
 21
284.722218487149
 31
0.0
  0
LINE
  5
36
330
A
100
AcDbEntity
  8
1
  6
Continuous
 62
     3
100
AcDbLine
 10
-257.0
 20
297.722218487149
 30
0.0
 11
-256.5
 21
297.722218487149
 31
0.0
  0
LINE
  5
35
330
A
100
AcDbEntity
  8
1
  6
Continuous
 62
     3
100
AcDbLine
 10
-256.5
 20
297.722218487149
 30
0.0
 11
-256.5
 21
283.722218487149
 31
0.0
  0
LINE
  5
34
330
A
100
AcDbEntity
  8
1
  6
Continuous
 62
     3
100
AcDbLine
 10
-257.0
 20
283.722218487149
 30
0.0
 11
-256.5
 21
283.722218487149
 31
0.0
  0
LINE
  5
33
330
A
100
AcDbEntity
  8
1
  6
Continuous
 62
     3
100
AcDbLine
 10
-359.999999785609
 20
199.49999999999
 30
0.0
 11
-374.999999785558
 21
199.49999999999
 31
0.0
  0
LINE
  5
32
330
A
100
AcDbEntity
  8
1
  6
Continuous
 62
     3
100
AcDbLine
 10
-381.000000052138
 20
271.999999999989
 30
0.0
 11
-381.000000052138
 21
281.999999999989
 31
0.0
  0
LINE
  5
31
330
A
100
AcDbEntity
  8
1
  6
DASH_CENTER
 62
     3
100
AcDbLine
 10
-84.91992585240401
 20
254.50000417042
 30
0.0
 11
-57.919925852404
 21
254.50000417042
 31
0.0
  0
LINE
  5
30
330
A
100
AcDbEntity
  8
1
  6
DASH_CENTER
 62
     3
100
AcDbLine
 10
-84.91992585240401
 20
254.50000417042
 30
0.0
 11
-57.919925852404
 21
254.50000417042
 31
0.0
  0
LINE
  5
2F
330
A
100
AcDbEntity
  8
1
  6
DASH_CENTER
 62
     3
100
AcDbLine
 10
-457.708251366213
 20
234.919589120551
 30
0.0
 11
-463.048863405323
 21
238.002992918969
 31
0.0
  0
LINE
  5
2E
330
A
100
AcDbEntity
  8
1
  6
DASH_CENTER
 62
     3
100
AcDbLine
 10
-525.452614006115
 20
274.031815126776
 30
0.0
 11
-520.1120019670049
 21
270.948411328358
 31
0.0
  0
LINE
  5
2D
330
A
100
AcDbEntity
  8
1
  6
DASH_CENTER
 62
     3
100
AcDbLine
 10
-463.048863405323
 20
270.99700708101
 30
0.0
 11
-457.708251366213
 21
274.080410879428
 31
0.0
  0
LINE
  5
2C
330
A
100
AcDbEntity
  8
1
  6
DASH_CENTER
 62
     3
100
AcDbLine
 10
-520.1120019670049
 20
238.05158867162
 30
0.0
 11
-525.452614006115
 21
234.968184873203
 31
0.0
  0
LINE
  5
2B
330
A
100
AcDbEntity
  8
1
  6
DASH_CENTER
 62
     3
100
AcDbLine
 10
-475.1741065141099
 20
226.010515875464
 30
0.0
 11
-472.090702715693
 21
220.669903836353
 31
0.0
  0
LINE
  5
2A
330
A
100
AcDbEntity
  8
1
  6
DASH_CENTER
 62
     3
100
AcDbLine
 10
-508.070929170848
 20
282.989484124516
 30
0.0
 11
-511.154332969266
 21
288.330096163626
 31
0.0
  0
ENDSEC
  0
SECTION
  2
OBJECTS
  0
DICTIONARY
  5
19
330
0
100
AcDbDictionary
281
     1
  3
ACAD_CIP_PREVIOUS_PRODUCT_INFO
350
3F8
  3
ACAD_COLOR
350
3DB
  3
ACAD_GROUP
350
1A
  3
ACAD_LAYOUT
350
3F2
  3
ACAD_MATERIAL
350
3A9
  3
ACAD_MLEADERSTYLE
350
3F0
  3
ACAD_MLINESTYLE
350
1B
  3
ACAD_PLOTSETTINGS
350
3F3
  3
ACAD_PLOTSTYLENAME
350
3A7
  3
ACAD_SCALELIST
350
3DE
  3
ACAD_TABLESTYLE
350
3DC
  3
ACAD_VISUALSTYLE
350
3C2
  3
ACDB_RECOMPOSE_DATA
350
401
  3
AcDbVariableDictionary
350
3F9
  0
XRECORD
  5
3F8
102
{ACAD_REACTORS
330
19
102
}
330
19
100
AcDbXrecord
280
     1
300
ACDLT
300
2012
300
ACDLT_F_S
  0
DICTIONARY
  5
3DB
102
{ACAD_REACTORS
330
19
102
}
330
19
100
AcDbDictionary
281
     1
  0
DICTIONARY
  5
1A
102
{ACAD_REACTORS
330
19
102
}
330
19
100
AcDbDictionary
281
     1
  0
DICTIONARY
  5
3F2
102
{ACAD_REACTORS
330
19
102
}
330
19
100
AcDbDictionary
281
     1
  3
Layout1
350
3F5
  3
Model
350
3F4
  0
DICTIONARY
  5
3A9
102
{ACAD_REACTORS
330
19
102
}
330
19
100
AcDbDictionary
281
     1
  3
ByBlock
350
3B2
  3
ByLayer
350
3AA
  3
Global
350
3BA
  0
DICTIONARY
  5
3F0
102
{ACAD_REACTORS
330
19
102
}
330
19
100
AcDbDictionary
281
     1
  3
Standard
350
3F1
  0
DICTIONARY
  5
1B
102
{ACAD_REACTORS
330
19
102
}
330
19
100
AcDbDictionary
281
     1
  3
STANDARD
350
1C
  0
DICTIONARY
  5
3F3
102
{ACAD_REACTORS
330
19
102
}
330
19
100
AcDbDictionary
281
     1
  0
ACDBDICTIONARYWDFLT
  5
3A7
102
{ACAD_REACTORS
330
19
102
}
330
19
100
AcDbDictionary
281
     1
  3
Normal
350
3A8
100
AcDbDictionaryWithDefault
340
3A8
  0
DICTIONARY
  5
3DE
102
{ACAD_REACTORS
330
19
102
}
330
19
100
AcDbDictionary
281
     1
  3
A0
350
3DF
  3
A1
350
3E0
  3
A2
350
3E1
  3
A3
350
3E2
  3
A4
350
3E3
  3
A5
350
3E4
  3
A6
350
3E5
  3
A7
350
3E6
  3
A8
350
3E7
  3
A9
350
3E8
  3
B0
350
3E9
  3
B1
350
3EA
  3
B2
350
3EB
  3
B3
350
3EC
  3
B4
350
3ED
  3
B5
350
3EE
  3
B6
350
3EF
  0
DICTIONARY
  5
3DC
102
{ACAD_REACTORS
330
19
102
}
330
19
100
AcDbDictionary
281
     1
  3
Standard
350
3DD
  0
DICTIONARY
  5
3C2
102
{ACAD_REACTORS
330
19
102
}
330
19
100
AcDbDictionary
281
     1
  3
2dWireframe
350
3C8
  3
Basic
350
3C7
  3
Brighten
350
3CE
  3
ColorChange
350
3D2
  3
Conceptual
350
3CB
  3
Dim
350
3CD
  3
EdgeColorOff
350
3DA
  3
Facepattern
350
3D1
  3
Flat
350
3C3
  3
FlatWithEdges
350
3C4
  3
Gouraud
350
3C5
  3
GouraudWithEdges
350
3C6
  3
Hidden
350
3CA
  3
JitterOff
350
3D8
  3
Linepattern
350
3D0
  3
OverhangOff
350
3D9
  3
Realistic
350
3CC
  3
Shaded
350
3D7
  3
Shaded with edges
350
3D6
  3
Shades of Gray
350
3D3
  3
Sketchy
350
3D4
  3
Thicken
350
3CF
  3
Wireframe
350
3C9
  3
X-Ray
350
3D5
  0
XRECORD
  5
401
102
{ACAD_REACTORS
330
19
102
}
330
19
100
AcDbXrecord
280
     1
 90
        1
330
3DD
  0
DICTIONARY
  5
3F9
102
{ACAD_REACTORS
330
19
102
}
330
19
100
AcDbDictionary
281
     1
  3
CANNOSCALE
350
3FC
  3
CMLEADERSTYLE
350
3FB
  3
CTABLESTYLE
350
3FA
  3
XCLIPFRAME
350
3FD
  0
LAYOUT
  5
3F5
102
{ACAD_REACTORS
330
3F2
102
}
330
3F2
100
AcDbPlotSettings
  1

  2
Adobe PDF
  4

  6

 40
0.0
 41
0.0
 42
0.0
 43
0.0
 44
0.0
 45
0.0
 46
0.0
 47
0.0
 48
0.0
 49
0.0
140
0.0
141
0.0
142
1.0
143
1.0
 70
   688
 72
     0
 73
     0
 74
     5
  7

 75
    16
147
1.0
 76
     0
 77
     2
 78
   300
148
0.0
149
0.0
100
AcDbLayout
  1
Layout1
 70
     0
 71
     1
 10
0.0
 20
0.0
 11
12.0
 21
9.0
 12
0.0
 22
0.0
 32
0.0
 14
1.000000000000000E+20
 24
1.000000000000000E+20
 34
1.000000000000000E+20
 15
-1.000000000000000E+20
 25
-1.000000000000000E+20
 35
-1.000000000000000E+20
146
0.0
 13
0.0
 23
0.0
 33
0.0
 16
1.0
 26
0.0
 36
0.0
 17
0.0
 27
1.0
 37
0.0
 76
     0
330
B
  0
LAYOUT
  5
3F4
102
{ACAD_REACTORS
330
3F2
102
}
330
3F2
100
AcDbPlotSettings
  1

  2
Adobe PDF
  4

  6

 40
0.0
 41
0.0
 42
0.0
 43
0.0
 44
0.0
 45
0.0
 46
0.0
 47
0.0
 48
0.0
 49
0.0
140
0.0
141
0.0
142
1.0
143
1.0
 70
  1712
 72
     0
 73
     0
 74
     0
  7

 75
     0
147
1.0
 76
     0
 77
     2
 78
   300
148
0.0
149
0.0
100
AcDbLayout
  1
Model
 70
     1
 71
     0
 10
0.0
 20
0.0
 11
12.0
 21
9.0
 12
0.0
 22
0.0
 32
0.0
 14
0.0
 24
0.0
 34
0.0
 15
0.0
 25
0.0
 35
0.0
146
0.0
 13
0.0
 23
0.0
 33
0.0
 16
1.0
 26
0.0
 36
0.0
 17
0.0
 27
1.0
 37
0.0
 76
     0
330
A
331
15
  0
MATERIAL
  5
3B2
102
{ACAD_XDICTIONARY
360
3B3
102
}
102
{ACAD_REACTORS
330
3A9
102
}
330
3A9
100
AcDbMaterial
  1
ByBlock
 72
     0
 43
0.0208333333333333
 43
0.0
 43
0.0
 43
0.0
 43
0.0
 43
0.0208333333333333
 43
0.0
 43
0.0
 43
0.0
 43
0.0
 43
1.0
 43
0.0
 43
0.0
 43
0.0
 43
0.0
 43
1.0
 77
     0
 47
0.0208333333333333
 47
0.0
 47
0.0
 47
0.0
 47
0.0
 47
0.0208333333333333
 47
0.0
 47
0.0
 47
0.0
 47
0.0
 47
1.0
 47
0.0
 47
0.0
 47
0.0
 47
0.0
 47
1.0
171
     0
 49
0.0208333333333333
 49
0.0
 49
0.0
 49
0.0
 49
0.0
 49
0.0208333333333333
 49
0.0
 49
0.0
 49
0.0
 49
0.0
 49
1.0
 49
0.0
 49
0.0
 49
0.0
 49
0.0
 49
1.0
175
     0
142
0.0208333333333333
142
0.0
142
0.0
142
0.0
142
0.0
142
0.0208333333333333
142
0.0
142
0.0
142
0.0
142
0.0
142
1.0
142
0.0
142
0.0
142
0.0
142
0.0
142
1.0
179
     0
144
0.0208333333333333
144
0.0
144
0.0
144
0.0
144
0.0
144
0.0208333333333333
144
0.0
144
0.0
144
0.0
144
0.0
144
1.0
144
0.0
144
0.0
144
0.0
144
0.0
144
1.0
147
0.0208333333333333
147
0.0
147
0.0
147
0.0
147
0.0
147
0.0208333333333333
147
0.0
147
0.0
147
0.0
147
0.0
147
1.0
147
0.0
147
0.0
147
0.0
147
0.0
147
1.0
  0
MATERIAL
  5
3AA
102
{ACAD_XDICTIONARY
360
3AB
102
}
102
{ACAD_REACTORS
330
3A9
102
}
330
3A9
100
AcDbMaterial
  1
ByLayer
 72
     0
 43
0.0208333333333333
 43
0.0
 43
0.0
 43
0.0
 43
0.0
 43
0.0208333333333333
 43
0.0
 43
0.0
 43
0.0
 43
0.0
 43
1.0
 43
0.0
 43
0.0
 43
0.0
 43
0.0
 43
1.0
 77
     0
 47
0.0208333333333333
 47
0.0
 47
0.0
 47
0.0
 47
0.0
 47
0.0208333333333333
 47
0.0
 47
0.0
 47
0.0
 47
0.0
 47
1.0
 47
0.0
 47
0.0
 47
0.0
 47
0.0
 47
1.0
171
     0
 49
0.0208333333333333
 49
0.0
 49
0.0
 49
0.0
 49
0.0
 49
0.0208333333333333
 49
0.0
 49
0.0
 49
0.0
 49
0.0
 49
1.0
 49
0.0
 49
0.0
 49
0.0
 49
0.0
 49
1.0
175
     0
142
0.0208333333333333
142
0.0
142
0.0
142
0.0
142
0.0
142
0.0208333333333333
142
0.0
142
0.0
142
0.0
142
0.0
142
1.0
142
0.0
142
0.0
142
0.0
142
0.0
142
1.0
179
     0
144
0.0208333333333333
144
0.0
144
0.0
144
0.0
144
0.0
144
0.0208333333333333
144
0.0
144
0.0
144
0.0
144
0.0
144
1.0
144
0.0
144
0.0
144
0.0
144
0.0
144
1.0
147
0.0208333333333333
147
0.0
147
0.0
147
0.0
147
0.0
147
0.0208333333333333
147
0.0
147
0.0
147
0.0
147
0.0
147
1.0
147
0.0
147
0.0
147
0.0
147
0.0
147
1.0
  0
MATERIAL
  5
3BA
102
{ACAD_XDICTIONARY
360
3BB
102
}
102
{ACAD_REACTORS
330
3A9
102
}
330
3A9
100
AcDbMaterial
  1
Global
 72
     0
 43
0.0208333333333333
 43
0.0
 43
0.0
 43
0.0
 43
0.0
 43
0.0208333333333333
 43
0.0
 43
0.0
 43
0.0
 43
0.0
 43
1.0
 43
0.0
 43
0.0
 43
0.0
 43
0.0
 43
1.0
 77
     0
 47
0.0208333333333333
 47
0.0
 47
0.0
 47
0.0
 47
0.0
 47
0.0208333333333333
 47
0.0
 47
0.0
 47
0.0
 47
0.0
 47
1.0
 47
0.0
 47
0.0
 47
0.0
 47
0.0
 47
1.0
171
     0
 49
0.0208333333333333
 49
0.0
 49
0.0
 49
0.0
 49
0.0
 49
0.0208333333333333
 49
0.0
 49
0.0
 49
0.0
 49
0.0
 49
1.0
 49
0.0
 49
0.0
 49
0.0
 49
0.0
 49
1.0
175
     0
142
0.0208333333333333
142
0.0
142
0.0
142
0.0
142
0.0
142
0.0208333333333333
142
0.0
142
0.0
142
0.0
142
0.0
142
1.0
142
0.0
142
0.0
142
0.0
142
0.0
142
1.0
179
     0
144
0.0208333333333333
144
0.0
144
0.0
144
0.0
144
0.0
144
0.0208333333333333
144
0.0
144
0.0
144
0.0
144
0.0
144
1.0
144
0.0
144
0.0
144
0.0
144
0.0
144
1.0
147
0.0208333333333333
147
0.0
147
0.0
147
0.0
147
0.0
147
0.0208333333333333
147
0.0
147
0.0
147
0.0
147
0.0
147
1.0
147
0.0
147
0.0
147
0.0
147
0.0
147
1.0
  0
MLEADERSTYLE
  5
3F1
102
{ACAD_REACTORS
330
3F0
102
}
330
3F0
100
AcDbMLeaderStyle
170
     2
171
     1
172
     0
 90
        2
 40
0.0
 41
0.0
173
     1
 91
-1056964608
340
11
 92
       -2
290
     1
 42
0.09
291
     1
 43
0.36
  3
Standard
 44
0.18
300

342
17
174
     1
178
     6
175
     1
176
     0
 93
-1056964608
 45
0.18
292
     0
297
     0
 46
0.18
 94
-1056964608
 47
1.0
 49
1.0
140
1.0
293
     1
141
0.0
294
     1
177
     0
142
1.0
295
     0
296
     0
143
0.125
1001
ACAD_MLEADERVER
1070
     2
  0
MLINESTYLE
  5
1C
102
{ACAD_REACTORS
330
1B
102
}
330
1B
100
AcDbMlineStyle
  2
STANDARD
 70
     0
  3

 62
     0
 51
90.0
 52
90.0
 71
     2
 49
0.5
 62
   256
  6
BYLAYER
 49
-0.5
 62
   256
  6
BYLAYER
  0
ACDBPLACEHOLDER
  5
3A8
102
{ACAD_REACTORS
330
3A7
102
}
330
3A7
  0
SCALE
  5
3DF
102
{ACAD_REACTORS
330
3DE
102
}
330
3DE
100
AcDbScale
 70
     0
300
1:1
140
1.0
141
1.0
290
     1
  0
SCALE
  5
3E0
102
{ACAD_REACTORS
330
3DE
102
}
330
3DE
100
AcDbScale
 70
     0
300
1/128" = 1'-0"
140
0.0078125
141
12.0
290
     0
  0
SCALE
  5
3E1
102
{ACAD_REACTORS
330
3DE
102
}
330
3DE
100
AcDbScale
 70
     0
300
1/64" = 1'-0"
140
0.015625
141
12.0
290
     0
  0
SCALE
  5
3E2
102
{ACAD_REACTORS
330
3DE
102
}
330
3DE
100
AcDbScale
 70
     0
300
1/32" = 1'-0"
140
0.03125
141
12.0
290
     0
  0
SCALE
  5
3E3
102
{ACAD_REACTORS
330
3DE
102
}
330
3DE
100
AcDbScale
 70
     0
300
1/16" = 1'-0"
140
0.0625
141
12.0
290
     0
  0
SCALE
  5
3E4
102
{ACAD_REACTORS
330
3DE
102
}
330
3DE
100
AcDbScale
 70
     0
300
3/32" = 1'-0"
140
0.09375
141
12.0
290
     0
  0
SCALE
  5
3E5
102
{ACAD_REACTORS
330
3DE
102
}
330
3DE
100
AcDbScale
 70
     0
300
1/8" = 1'-0"
140
0.125
141
12.0
290
     0
  0
SCALE
  5
3E6
102
{ACAD_REACTORS
330
3DE
102
}
330
3DE
100
AcDbScale
 70
     0
300
3/16" = 1'-0"
140
0.1875
141
12.0
290
     0
  0
SCALE
  5
3E7
102
{ACAD_REACTORS
330
3DE
102
}
330
3DE
100
AcDbScale
 70
     0
300
1/4" = 1'-0"
140
0.25
141
12.0
290
     0
  0
SCALE
  5
3E8
102
{ACAD_REACTORS
330
3DE
102
}
330
3DE
100
AcDbScale
 70
     0
300
3/8" = 1'-0"
140
0.375
141
12.0
290
     0
  0
SCALE
  5
3E9
102
{ACAD_REACTORS
330
3DE
102
}
330
3DE
100
AcDbScale
 70
     0
300
1/2" = 1'-0"
140
0.5
141
12.0
290
     0
  0
SCALE
  5
3EA
102
{ACAD_REACTORS
330
3DE
102
}
330
3DE
100
AcDbScale
 70
     0
300
3/4" = 1'-0"
140
0.75
141
12.0
290
     0
  0
SCALE
  5
3EB
102
{ACAD_REACTORS
330
3DE
102
}
330
3DE
100
AcDbScale
 70
     0
300
1" = 1'-0"
140
1.0
141
12.0
290
     0
  0
SCALE
  5
3EC
102
{ACAD_REACTORS
330
3DE
102
}
330
3DE
100
AcDbScale
 70
     0
300
1-1/2" = 1'-0"
140
1.5
141
12.0
290
     0
  0
SCALE
  5
3ED
102
{ACAD_REACTORS
330
3DE
102
}
330
3DE
100
AcDbScale
 70
     0
300
3" = 1'-0"
140
3.0
141
12.0
290
     0
  0
SCALE
  5
3EE
102
{ACAD_REACTORS
330
3DE
102
}
330
3DE
100
AcDbScale
 70
     0
300
6" = 1'-0"
140
6.0
141
12.0
290
     0
  0
SCALE
  5
3EF
102
{ACAD_REACTORS
330
3DE
102
}
330
3DE
100
AcDbScale
 70
     0
300
1'-0" = 1'-0"
140
12.0
141
12.0
290
     0
  0
TABLESTYLE
  5
3DD
102
{ACAD_XDICTIONARY
360
3FF
102
}
102
{ACAD_REACTORS
330
3DC
102
}
330
3DC
100
AcDbTableStyle
  3
Standard
 70
     0
 71
     0
 40
0.06
 41
0.06
280
     0
281
     0
  7
STANDARD
140
0.18
170
     2
 62
     0
 63
     7
283
     0
274
    -2
284
     1
 64
     0
275
    -2
285
     1
 65
     0
276
    -2
286
     1
 66
     0
277
    -2
287
     1
 67
     0
278
    -2
288
     1
 68
     0
279
    -2
289
     1
 69
     0
  7
STANDARD
140
0.25
170
     5
 62
     0
 63
     7
283
     0
274
    -2
284
     1
 64
     0
275
    -2
285
     1
 65
     0
276
    -2
286
     1
 66
     0
277
    -2
287
     1
 67
     0
278
    -2
288
     1
 68
     0
279
    -2
289
     1
 69
     0
  7
STANDARD
140
0.18
170
     5
 62
     0
 63
     7
283
     0
274
    -2
284
     1
 64
     0
275
    -2
285
     1
 65
     0
276
    -2
286
     1
 66
     0
277
    -2
287
     1
 67
     0
278
    -2
288
     1
 68
     0
279
    -2
289
     1
 69
     0
  0
VISUALSTYLE
  5
3C8
102
{ACAD_XDICTIONARY
360
40F
102
}
102
{ACAD_REACTORS
330
3C2
102
}
330
3C2
100
AcDbVisualStyle
  2
2dWireframe
 70
     4
 71
     0
 72
     2
 73
     0
 90
        0
 40
-0.6
 41
-30.0
 62
     5
 63
     7
421
 16777215
 74
     1
 91
        4
 64
     7
 65
   257
 75
     1
175
     1
 42
1.0
 92
        0
 66
   257
 43
1.0
 76
     1
 77
     6
 78
     2
 67
     7
 79
     5
170
     0
171
     0
290
     0
174
     0
 93
        1
 44
0.0
173
     0
291
     0
 45
0.0
1001
ACAD
1000
AcDbSavedByObjectVersion
1070
     0
  0
VISUALSTYLE
  5
3C7
102
{ACAD_XDICTIONARY
360
40D
102
}
102
{ACAD_REACTORS
330
3C2
102
}
330
3C2
100
AcDbVisualStyle
  2
Basic
 70
     7
 71
     1
 72
     0
 73
     1
 90
        0
 40
-0.6
 41
-30.0
 62
     5
 63
     7
421
 16777215
 74
     0
 91
        4
 64
     7
 65
   257
 75
     1
175
     1
 42
1.0
 92
        8
 66
     7
 43
1.0
 76
     1
 77
     6
 78
     2
 67
     7
 79
     5
170
     0
171
     0
290
     0
174
     0
 93
        1
 44
0.0
173
     0
291
     1
 45
0.0
1001
ACAD
1000
AcDbSavedByObjectVersion
1070
     0
  0
VISUALSTYLE
  5
3CE
102
{ACAD_XDICTIONARY
360
41B
102
}
102
{ACAD_REACTORS
330
3C2
102
}
330
3C2
100
AcDbVisualStyle
  2
Brighten
 70
    12
 71
     2
 72
     2
 73
     0
 90
        0
 40
-0.6
 41
-30.0
 62
     5
 63
     7
421
 16777215
 74
     1
 91
        4
 64
     7
 65
   257
 75
     1
175
     1
 42
1.0
 92
        8
 66
     7
 43
1.0
 76
     1
 77
     6
 78
     2
 67
     7
 79
     5
170
     0
171
     0
290
     0
174
     0
 93
        1
 44
50.0
173
     0
291
     1
 45
0.0
1001
ACAD
1000
AcDbSavedByObjectVersion
1070
     0
  0
VISUALSTYLE
  5
3D2
102
{ACAD_XDICTIONARY
360
423
102
}
102
{ACAD_REACTORS
330
3C2
102
}
330
3C2
100
AcDbVisualStyle
  2
ColorChange
 70
    16
 71
     2
 72
     2
 73
     3
 90
        0
 40
-0.6
 41
-30.0
 62
     5
 63
     8
421
  8421504
 74
     1
 91
        4
 64
     7
 65
   257
 75
     1
175
     1
 42
1.0
 92
        8
 66
     8
424
  8421504
 43
1.0
 76
     1
 77
     6
 78
     2
 67
     7
 79
     5
170
     0
171
     0
290
     0
174
     0
 93
        1
 44
0.0
173
     0
291
     1
 45
0.0
1001
ACAD
1000
AcDbSavedByObjectVersion
1070
     0
  0
VISUALSTYLE
  5
3CB
102
{ACAD_XDICTIONARY
360
415
102
}
102
{ACAD_REACTORS
330
3C2
102
}
330
3C2
100
AcDbVisualStyle
  2
Conceptual
 70
     9
 71
     3
 72
     2
 73
     0
 90
        0
 40
-0.6
 41
-30.0
 62
     5
 63
     7
421
 16777215
 74
     2
 91
        2
 64
     7
 65
   257
 75
     1
175
     1
 42
179.0
 92
        8
 66
     7
 43
1.0
 76
     1
 77
     6
 78
     2
 67
     7
 79
     3
170
     0
171
     0
290
     0
174
     0
 93
        1
 44
0.0
173
     0
291
     0
 45
0.0
1001
ACAD
1000
AcDbSavedByObjectVersion
1070
     0
  0
VISUALSTYLE
  5
3CD
102
{ACAD_XDICTIONARY
360
419
102
}
102
{ACAD_REACTORS
330
3C2
102
}
330
3C2
100
AcDbVisualStyle
  2
Dim
 70
    11
 71
     2
 72
     2
 73
     0
 90
        0
 40
-0.6
 41
-30.0
 62
     5
 63
     7
421
 16777215
 74
     1
 91
        4
 64
     7
 65
   257
 75
     1
175
     1
 42
1.0
 92
        8
 66
     7
 43
1.0
 76
     1
 77
     6
 78
     2
 67
     7
 79
     5
170
     0
171
     0
290
     0
174
     0
 93
        1
 44
-50.0
173
     0
291
     1
 45
0.0
1001
ACAD
1000
AcDbSavedByObjectVersion
1070
     0
  0
VISUALSTYLE
  5
3DA
102
{ACAD_XDICTIONARY
360
433
102
}
102
{ACAD_REACTORS
330
3C2
102
}
330
3C2
100
AcDbVisualStyle
  2
EdgeColorOff
 70
    22
 71
     2
 72
     2
 73
     0
 90
        0
 40
-0.6
 41
-30.0
 62
     5
 63
     7
421
 16777215
 74
     1
 91
        4
 64
     7
 65
   257
 75
     1
175
     1
 42
1.0
 92
        8
 66
     7
 43
1.0
 76
     1
 77
     6
 78
     2
 67
     7
 79
     5
170
     0
171
     0
290
     0
174
     0
 93
        1
 44
0.0
173
     0
291
     1
 45
0.0
1001
ACAD
1000
AcDbSavedByObjectVersion
1070
     0
  0
VISUALSTYLE
  5
3D1
102
{ACAD_XDICTIONARY
360
421
102
}
102
{ACAD_REACTORS
330
3C2
102
}
330
3C2
100
AcDbVisualStyle
  2
Facepattern
 70
    15
 71
     2
 72
     2
 73
     0
 90
        0
 40
-0.6
 41
-30.0
 62
     5
 63
     7
421
 16777215
 74
     1
 91
        4
 64
     7
 65
   257
 75
     1
175
     1
 42
1.0
 92
        8
 66
     7
 43
1.0
 76
     1
 77
     6
 78
     2
 67
     7
 79
     5
170
     0
171
     0
290
     0
174
     0
 93
        1
 44
0.0
173
     0
291
     1
 45
0.0
1001
ACAD
1000
AcDbSavedByObjectVersion
1070
     0
  0
VISUALSTYLE
  5
3C3
102
{ACAD_XDICTIONARY
360
405
102
}
102
{ACAD_REACTORS
330
3C2
102
}
330
3C2
100
AcDbVisualStyle
  2
Flat
 70
     0
 71
     2
 72
     1
 73
     1
 90
        2
 40
-0.6
 41
30.0
 62
     5
 63
     7
421
 16777215
 74
     0
 91
        0
 64
     7
 65
   257
 75
     1
175
     1
 42
1.0
 92
        8
 66
     7
 43
1.0
 76
     1
 77
     6
 78
     2
 67
     7
 79
     5
170
     0
171
     0
290
     0
174
     0
 93
       13
 44
0.0
173
     0
291
     1
 45
0.0
1001
ACAD
1000
AcDbSavedByObjectVersion
1070
     0
  0
VISUALSTYLE
  5
3C4
102
{ACAD_XDICTIONARY
360
407
102
}
102
{ACAD_REACTORS
330
3C2
102
}
330
3C2
100
AcDbVisualStyle
  2
FlatWithEdges
 70
     1
 71
     2
 72
     1
 73
     1
 90
        2
 40
-0.6
 41
30.0
 62
     5
 63
     7
421
 16777215
 74
     1
 91
        0
 64
     7
 65
   257
 75
     1
175
     1
 42
1.0
 92
        0
 66
   257
 43
1.0
 76
     1
 77
     6
 78
     2
 67
     7
 79
     5
170
     0
171
     0
290
     0
174
     0
 93
       13
 44
0.0
173
     0
291
     1
 45
0.0
1001
ACAD
1000
AcDbSavedByObjectVersion
1070
     0
  0
VISUALSTYLE
  5
3C5
102
{ACAD_XDICTIONARY
360
409
102
}
102
{ACAD_REACTORS
330
3C2
102
}
330
3C2
100
AcDbVisualStyle
  2
Gouraud
 70
     2
 71
     2
 72
     2
 73
     1
 90
        2
 40
-0.6
 41
30.0
 62
     5
 63
     7
421
 16777215
 74
     0
 91
        0
 64
     7
 65
   257
 75
     1
175
     1
 42
1.0
 92
        0
 66
     7
 43
1.0
 76
     1
 77
     6
 78
     2
 67
     7
 79
     5
170
     0
171
     0
290
     0
174
     0
 93
       13
 44
0.0
173
     0
291
     1
 45
0.0
1001
ACAD
1000
AcDbSavedByObjectVersion
1070
     0
  0
VISUALSTYLE
  5
3C6
102
{ACAD_XDICTIONARY
360
40B
102
}
102
{ACAD_REACTORS
330
3C2
102
}
330
3C2
100
AcDbVisualStyle
  2
GouraudWithEdges
 70
     3
 71
     2
 72
     2
 73
     1
 90
        2
 40
-0.6
 41
30.0
 62
     5
 63
     7
421
 16777215
 74
     1
 91
        0
 64
     7
 65
   257
 75
     1
175
     1
 42
1.0
 92
        0
 66
   257
 43
1.0
 76
     1
 77
     6
 78
     2
 67
     7
 79
     5
170
     0
171
     0
290
     0
174
     0
 93
       13
 44
0.0
173
     0
291
     1
 45
0.0
1001
ACAD
1000
AcDbSavedByObjectVersion
1070
     0
  0
VISUALSTYLE
  5
3CA
102
{ACAD_XDICTIONARY
360
413
102
}
102
{ACAD_REACTORS
330
3C2
102
}
330
3C2
100
AcDbVisualStyle
  2
Hidden
 70
     6
 71
     1
 72
     2
 73
     2
 90
        0
 40
-0.6
 41
-30.0
 62
     5
 63
     7
421
 16777215
 74
     2
 91
        2
 64
     7
 65
   257
 75
     2
175
     1
 42
40.0
 92
        0
 66
   257
 43
1.0
 76
     1
 77
     6
 78
     2
 67
     7
 79
     3
170
     0
171
     0
290
     0
174
     0
 93
        1
 44
0.0
173
     0
291
     0
 45
0.0
1001
ACAD
1000
AcDbSavedByObjectVersion
1070
     0
  0
VISUALSTYLE
  5
3D8
102
{ACAD_XDICTIONARY
360
42F
102
}
102
{ACAD_REACTORS
330
3C2
102
}
330
3C2
100
AcDbVisualStyle
  2
JitterOff
 70
    20
 71
     2
 72
     2
 73
     0
 90
        0
 40
-0.6
 41
-30.0
 62
     5
 63
     7
421
 16777215
 74
     1
 91
        4
 64
     7
 65
   257
 75
     1
175
     1
 42
1.0
 92
       10
 66
     7
 43
1.0
 76
     1
 77
     6
 78
     2
 67
     7
 79
     5
170
     0
171
     0
290
     0
174
     0
 93
        1
 44
0.0
173
     0
291
     1
 45
0.0
1001
ACAD
1000
AcDbSavedByObjectVersion
1070
     0
  0
VISUALSTYLE
  5
3D0
102
{ACAD_XDICTIONARY
360
41F
102
}
102
{ACAD_REACTORS
330
3C2
102
}
330
3C2
100
AcDbVisualStyle
  2
Linepattern
 70
    14
 71
     2
 72
     2
 73
     0
 90
        0
 40
-0.6
 41
-30.0
 62
     5
 63
     7
421
 16777215
 74
     1
 91
        4
 64
     7
 65
   257
 75
     7
175
     7
 42
1.0
 92
        8
 66
     7
 43
1.0
 76
     1
 77
     6
 78
     2
 67
     7
 79
     5
170
     0
171
     0
290
     0
174
     0
 93
        1
 44
0.0
173
     0
291
     1
 45
0.0
1001
ACAD
1000
AcDbSavedByObjectVersion
1070
     0
  0
VISUALSTYLE
  5
3D9
102
{ACAD_XDICTIONARY
360
431
102
}
102
{ACAD_REACTORS
330
3C2
102
}
330
3C2
100
AcDbVisualStyle
  2
OverhangOff
 70
    21
 71
     2
 72
     2
 73
     0
 90
        0
 40
-0.6
 41
-30.0
 62
     5
 63
     7
421
 16777215
 74
     1
 91
        4
 64
     7
 65
   257
 75
     1
175
     1
 42
1.0
 92
        9
 66
     7
 43
1.0
 76
     1
 77
     6
 78
     2
 67
     7
 79
     5
170
     0
171
     0
290
     0
174
     0
 93
        1
 44
0.0
173
     0
291
     1
 45
0.0
1001
ACAD
1000
AcDbSavedByObjectVersion
1070
     0
  0
VISUALSTYLE
  5
3CC
102
{ACAD_XDICTIONARY
360
417
102
}
102
{ACAD_REACTORS
330
3C2
102
}
330
3C2
100
AcDbVisualStyle
  2
Realistic
 70
     8
 71
     2
 72
     3
 73
     0
 90
        2
 40
-0.6
 41
30.0
 62
     5
 63
     7
421
 16777215
 74
     0
 91
        0
 64
     7
 65
   257
 75
     1
175
     1
 42
1.0
 92
        8
 66
   257
 43
1.0
 76
     1
 77
     6
 78
     2
 67
     7
 79
     3
170
     0
171
     0
290
     0
174
     0
 93
       13
 44
0.0
173
     0
291
     0
 45
0.0
1001
ACAD
1000
AcDbSavedByObjectVersion
1070
     0
  0
VISUALSTYLE
  5
3D7
102
{ACAD_XDICTIONARY
360
42D
102
}
102
{ACAD_REACTORS
330
3C2
102
}
330
3C2
100
AcDbVisualStyle
  2
Shaded
 70
    27
 71
     2
 72
     2
 73
     1
 90
        2
 40
-0.6
 41
30.0
 62
     5
 63
     7
421
 16777215
 74
     0
 91
        4
 64
     7
 65
   257
 75
     1
175
     1
 42
1.0
 92
        8
 66
   257
 43
1.0
 76
     1
 77
     6
 78
     2
 67
     8
425
  7895160
 79
     3
170
     0
171
     0
290
     0
174
     0
 93
        5
 44
0.0
173
     0
291
     0
 45
0.0
1001
ACAD
1000
AcDbSavedByObjectVersion
1070
     0
  0
VISUALSTYLE
  5
3D6
102
{ACAD_XDICTIONARY
360
42B
102
}
102
{ACAD_REACTORS
330
3C2
102
}
330
3C2
100
AcDbVisualStyle
  2
Shaded with edges
 70
    26
 71
     2
 72
     2
 73
     1
 90
        2
 40
-0.6
 41
30.0
 62
     5
 63
     7
421
 16777215
 74
     1
 91
       10
 64
     7
 65
   257
 75
     2
175
     1
 42
1.0
 92
        8
 66
   257
 43
1.0
 76
     1
 77
     6
 78
     2
 67
     7
 79
     3
170
     0
171
     0
290
     0
174
     0
 93
        5
 44
0.0
173
     0
291
     0
 45
0.0
1001
ACAD
1000
AcDbSavedByObjectVersion
1070
     0
  0
VISUALSTYLE
  5
3D3
102
{ACAD_XDICTIONARY
360
425
102
}
102
{ACAD_REACTORS
330
3C2
102
}
330
3C2
100
AcDbVisualStyle
  2
Shades of Gray
 70
    23
 71
     2
 72
     2
 73
     3
 90
        0
 40
-0.6
 41
-30.0
 62
     5
 63
     7
421
 16777215
 74
     2
 91
        2
 64
     7
 65
     7
 75
     1
175
     1
 42
40.0
 92
        8
 66
     7
 43
1.0
 76
     1
 77
     6
 78
     2
 67
     7
 79
     3
170
     0
171
     0
290
     0
174
     0
 93
        1
 44
0.0
173
     0
291
     0
 45
0.0
1001
ACAD
1000
AcDbSavedByObjectVersion
1070
     0
  0
VISUALSTYLE
  5
3D4
102
{ACAD_XDICTIONARY
360
427
102
}
102
{ACAD_REACTORS
330
3C2
102
}
330
3C2
100
AcDbVisualStyle
  2
Sketchy
 70
    24
 71
     1
 72
     2
 73
     2
 90
        0
 40
-0.6
 41
-30.0
 62
     5
 63
     7
421
 16777215
 74
     2
 91
        2
 64
     7
 65
     7
 75
     1
175
     1
 42
40.0
 92
       11
 66
     7
 43
1.0
 76
     1
 77
     6
 78
     2
 67
     7
 79
     6
170
     0
171
     0
290
     0
174
     0
 93
        1
 44
0.0
173
     0
291
     0
 45
0.0
1001
ACAD
1000
AcDbSavedByObjectVersion
1070
     0
  0
VISUALSTYLE
  5
3CF
102
{ACAD_XDICTIONARY
360
41D
102
}
102
{ACAD_REACTORS
330
3C2
102
}
330
3C2
100
AcDbVisualStyle
  2
Thicken
 70
    13
 71
     2
 72
     2
 73
     0
 90
        0
 40
-0.6
 41
-30.0
 62
     5
 63
     7
421
 16777215
 74
     1
 91
        4
 64
     7
 65
   257
 75
     1
175
     1
 42
1.0
 92
       12
 66
     7
 43
1.0
 76
     1
 77
     6
 78
     2
 67
     7
 79
     5
170
     0
171
     0
290
     0
174
     0
 93
        1
 44
0.0
173
     0
291
     1
 45
0.0
1001
ACAD
1000
AcDbSavedByObjectVersion
1070
     0
  0
VISUALSTYLE
  5
3C9
102
{ACAD_XDICTIONARY
360
411
102
}
102
{ACAD_REACTORS
330
3C2
102
}
330
3C2
100
AcDbVisualStyle
  2
Wireframe
 70
     5
 71
     0
 72
     2
 73
     0
 90
        0
 40
-0.6
 41
-30.0
 62
     5
 63
     7
421
 16777215
 74
     1
 91
        4
 64
     7
 65
   257
 75
     1
175
     1
 42
1.0
 92
        0
 66
   257
 43
1.0
 76
     1
 77
     6
 78
     2
 67
     7
 79
     3
170
     0
171
     0
290
     0
174
     0
 93
        1
 44
0.0
173
     0
291
     0
 45
0.0
1001
ACAD
1000
AcDbSavedByObjectVersion
1070
     0
  0
VISUALSTYLE
  5
3D5
102
{ACAD_XDICTIONARY
360
429
102
}
102
{ACAD_REACTORS
330
3C2
102
}
330
3C2
100
AcDbVisualStyle
  2
X-Ray
 70
    25
 71
     2
 72
     2
 73
     1
 90
        1
 40
0.5
 41
-30.0
 62
     5
 63
     7
421
 16777215
 74
     1
 91
        0
 64
     7
 65
   257
 75
     1
175
     1
 42
1.0
 92
        8
 66
     7
 43
1.0
 76
     1
 77
     6
 78
     2
 67
     7
 79
     3
170
     0
171
     0
290
     0
174
     0
 93
       13
 44
0.0
173
     0
291
     0
 45
0.0
1001
ACAD
1000
AcDbSavedByObjectVersion
1070
     0
  0
DICTIONARYVAR
  5
3FC
102
{ACAD_REACTORS
330
3F9
102
}
330
3F9
100
DictionaryVariables
280
     0
  1
1:1
  0
DICTIONARYVAR
  5
3FB
102
{ACAD_REACTORS
330
3F9
102
}
330
3F9
100
DictionaryVariables
280
     0
  1
STANDARD
  0
DICTIONARYVAR
  5
3FA
102
{ACAD_REACTORS
330
3F9
102
}
330
3F9
100
DictionaryVariables
280
     0
  1
STANDARD
  0
DICTIONARYVAR
  5
3FD
102
{ACAD_REACTORS
330
3F9
102
}
330
3F9
100
DictionaryVariables
280
     0
  1
2
  0
DICTIONARY
  5
3B3
330
3B2
100
AcDbDictionary
280
     1
281
     1
  3
ACAD_XREC_ROUNDTRIP
360
403
  3
BUMPTILE
360
3B5
  3
DIFFUSETILE
360
3B4
  3
OPACITYTILE
360
3B8
  3
REFLECTIONTILE
360
3B7
  3
REFRACTIONTILE
360
3B9
  3
SPECULARTILE
360
3B6
  0
DICTIONARY
  5
3AB
330
3AA
100
AcDbDictionary
280
     1
281
     1
  3
ACAD_XREC_ROUNDTRIP
360
402
  3
BUMPTILE
360
3AD
  3
DIFFUSETILE
360
3AC
  3
OPACITYTILE
360
3B0
  3
REFLECTIONTILE
360
3AF
  3
REFRACTIONTILE
360
3B1
  3
SPECULARTILE
360
3AE
  0
DICTIONARY
  5
3BB
330
3BA
100
AcDbDictionary
280
     1
281
     1
  3
ACAD_XREC_ROUNDTRIP
360
404
  3
BUMPTILE
360
3BD
  3
DIFFUSETILE
360
3BC
  3
OPACITYTILE
360
3C0
  3
REFLECTIONTILE
360
3BF
  3
REFRACTIONTILE
360
3C1
  3
SPECULARTILE
360
3BE
  0
DICTIONARY
  5
3FF
330
3DD
100
AcDbDictionary
280
     1
281
     1
  3
ACAD_ROUNDTRIP_2008_TABLESTYLE_CELLSTYLEMAP
360
400
  3
ACAD_XREC_ROUNDTRIP
360
435
  0
DICTIONARY
  5
40F
330
3C8
100
AcDbDictionary
280
     1
281
     1
  3
ACAD_XREC_ROUNDTRIP
360
410
  0
DICTIONARY
  5
40D
330
3C7
100
AcDbDictionary
280
     1
281
     1
  3
ACAD_XREC_ROUNDTRIP
360
40E
  0
DICTIONARY
  5
41B
330
3CE
100
AcDbDictionary
280
     1
281
     1
  3
ACAD_XREC_ROUNDTRIP
360
41C
  0
DICTIONARY
  5
423
330
3D2
100
AcDbDictionary
280
     1
281
     1
  3
ACAD_XREC_ROUNDTRIP
360
424
  0
DICTIONARY
  5
415
330
3CB
100
AcDbDictionary
280
     1
281
     1
  3
ACAD_XREC_ROUNDTRIP
360
416
  0
DICTIONARY
  5
419
330
3CD
100
AcDbDictionary
280
     1
281
     1
  3
ACAD_XREC_ROUNDTRIP
360
41A
  0
DICTIONARY
  5
433
330
3DA
100
AcDbDictionary
280
     1
281
     1
  3
ACAD_XREC_ROUNDTRIP
360
434
  0
DICTIONARY
  5
421
330
3D1
100
AcDbDictionary
280
     1
281
     1
  3
ACAD_XREC_ROUNDTRIP
360
422
  0
DICTIONARY
  5
405
330
3C3
100
AcDbDictionary
280
     1
281
     1
  3
ACAD_XREC_ROUNDTRIP
360
406
  0
DICTIONARY
  5
407
330
3C4
100
AcDbDictionary
280
     1
281
     1
  3
ACAD_XREC_ROUNDTRIP
360
408
  0
DICTIONARY
  5
409
330
3C5
100
AcDbDictionary
280
     1
281
     1
  3
ACAD_XREC_ROUNDTRIP
360
40A
  0
DICTIONARY
  5
40B
330
3C6
100
AcDbDictionary
280
     1
281
     1
  3
ACAD_XREC_ROUNDTRIP
360
40C
  0
DICTIONARY
  5
413
330
3CA
100
AcDbDictionary
280
     1
281
     1
  3
ACAD_XREC_ROUNDTRIP
360
414
  0
DICTIONARY
  5
42F
330
3D8
100
AcDbDictionary
280
     1
281
     1
  3
ACAD_XREC_ROUNDTRIP
360
430
  0
DICTIONARY
  5
41F
330
3D0
100
AcDbDictionary
280
     1
281
     1
  3
ACAD_XREC_ROUNDTRIP
360
420
  0
DICTIONARY
  5
431
330
3D9
100
AcDbDictionary
280
     1
281
     1
  3
ACAD_XREC_ROUNDTRIP
360
432
  0
DICTIONARY
  5
417
330
3CC
100
AcDbDictionary
280
     1
281
     1
  3
ACAD_XREC_ROUNDTRIP
360
418
  0
DICTIONARY
  5
42D
330
3D7
100
AcDbDictionary
280
     1
281
     1
  3
ACAD_XREC_ROUNDTRIP
360
42E
  0
DICTIONARY
  5
42B
330
3D6
100
AcDbDictionary
280
     1
281
     1
  3
ACAD_XREC_ROUNDTRIP
360
42C
  0
DICTIONARY
  5
425
330
3D3
100
AcDbDictionary
280
     1
281
     1
  3
ACAD_XREC_ROUNDTRIP
360
426
  0
DICTIONARY
  5
427
330
3D4
100
AcDbDictionary
280
     1
281
     1
  3
ACAD_XREC_ROUNDTRIP
360
428
  0
DICTIONARY
  5
41D
330
3CF
100
AcDbDictionary
280
     1
281
     1
  3
ACAD_XREC_ROUNDTRIP
360
41E
  0
DICTIONARY
  5
411
330
3C9
100
AcDbDictionary
280
     1
281
     1
  3
ACAD_XREC_ROUNDTRIP
360
412
  0
DICTIONARY
  5
429
330
3D5
100
AcDbDictionary
280
     1
281
     1
  3
ACAD_XREC_ROUNDTRIP
360
42A
  0
XRECORD
  5
403
102
{ACAD_REACTORS
330
3B3
102
}
330
3B3
100
AcDbXrecord
280
     1
102
MATERIAL
148
0.0
149
0.0
149
0.0
 93
        0
 94
      127
282
     0
 72
     0
 77
     0
171
     0
175
     0
179
     0
273
     0
  0
XRECORD
  5
3B5
102
{ACAD_REACTORS
330
3B3
102
}
330
3B3
100
AcDbXrecord
280
     1
270
     1
271
     1
  0
XRECORD
  5
3B4
102
{ACAD_REACTORS
330
3B3
102
}
330
3B3
100
AcDbXrecord
280
     1
270
     1
271
     1
  0
XRECORD
  5
3B8
102
{ACAD_REACTORS
330
3B3
102
}
330
3B3
100
AcDbXrecord
280
     1
270
     1
271
     1
  0
XRECORD
  5
3B7
102
{ACAD_REACTORS
330
3B3
102
}
330
3B3
100
AcDbXrecord
280
     1
270
     1
271
     1
  0
XRECORD
  5
3B9
102
{ACAD_REACTORS
330
3B3
102
}
330
3B3
100
AcDbXrecord
280
     1
270
     1
271
     1
  0
XRECORD
  5
3B6
102
{ACAD_REACTORS
330
3B3
102
}
330
3B3
100
AcDbXrecord
280
     1
270
     1
271
     1
  0
XRECORD
  5
402
102
{ACAD_REACTORS
330
3AB
102
}
330
3AB
100
AcDbXrecord
280
     1
102
MATERIAL
148
0.0
149
0.0
149
0.0
 93
        0
 94
      127
282
     0
 72
     0
 77
     0
171
     0
175
     0
179
     0
273
     0
  0
XRECORD
  5
3AD
102
{ACAD_REACTORS
330
3AB
102
}
330
3AB
100
AcDbXrecord
280
     1
270
     1
271
     1
  0
XRECORD
  5
3AC
102
{ACAD_REACTORS
330
3AB
102
}
330
3AB
100
AcDbXrecord
280
     1
270
     1
271
     1
  0
XRECORD
  5
3B0
102
{ACAD_REACTORS
330
3AB
102
}
330
3AB
100
AcDbXrecord
280
     1
270
     1
271
     1
  0
XRECORD
  5
3AF
102
{ACAD_REACTORS
330
3AB
102
}
330
3AB
100
AcDbXrecord
280
     1
270
     1
271
     1
  0
XRECORD
  5
3B1
102
{ACAD_REACTORS
330
3AB
102
}
330
3AB
100
AcDbXrecord
280
     1
270
     1
271
     1
  0
XRECORD
  5
3AE
102
{ACAD_REACTORS
330
3AB
102
}
330
3AB
100
AcDbXrecord
280
     1
270
     1
271
     1
  0
XRECORD
  5
404
102
{ACAD_REACTORS
330
3BB
102
}
330
3BB
100
AcDbXrecord
280
     1
102
MATERIAL
148
0.0
149
0.0
149
0.0
 93
        0
 94
      127
282
     0
 72
     0
 77
     0
171
     0
175
     0
179
     0
273
     0
  0
XRECORD
  5
3BD
102
{ACAD_REACTORS
330
3BB
102
}
330
3BB
100
AcDbXrecord
280
     1
270
     1
271
     1
  0
XRECORD
  5
3BC
102
{ACAD_REACTORS
330
3BB
102
}
330
3BB
100
AcDbXrecord
280
     1
270
     1
271
     1
  0
XRECORD
  5
3C0
102
{ACAD_REACTORS
330
3BB
102
}
330
3BB
100
AcDbXrecord
280
     1
270
     1
271
     1
  0
XRECORD
  5
3BF
102
{ACAD_REACTORS
330
3BB
102
}
330
3BB
100
AcDbXrecord
280
     1
270
     1
271
     1
  0
XRECORD
  5
3C1
102
{ACAD_REACTORS
330
3BB
102
}
330
3BB
100
AcDbXrecord
280
     1
270
     1
271
     1
  0
XRECORD
  5
3BE
102
{ACAD_REACTORS
330
3BB
102
}
330
3BB
100
AcDbXrecord
280
     1
270
     1
271
     1
  0
CELLSTYLEMAP
  5
400
102
{ACAD_REACTORS
330
3FF
102
}
330
3FF
100
AcDbCellStyleMap
 90
        3
300
CELLSTYLE
  1
TABLEFORMAT_BEGIN
 90
        5
170
     1
 91
        0
 92
    32768
 62
   257
 93
        1
300
CONTENTFORMAT
  1
CONTENTFORMAT_BEGIN
 90
        0
 91
        0
 92
      512
 93
        0
300

 40
0.0
140
1.0
 94
        5
 62
     0
340
17
144
0.25
309
CONTENTFORMAT_END
171
     0
 94
        0
309
TABLEFORMAT_END
  1
CELLSTYLE_BEGIN
 90
        1
 91
        1
300
_TITLE
309
CELLSTYLE_END
300
CELLSTYLE
  1
TABLEFORMAT_BEGIN
 90
        5
170
     1
 91
        0
 92
        0
 62
   257
 93
        1
300
CONTENTFORMAT
  1
CONTENTFORMAT_BEGIN
 90
        0
 91
        0
 92
      512
 93
        0
300

 40
0.0
140
1.0
 94
        5
 62
     0
340
17
144
0.18
309
CONTENTFORMAT_END
171
     0
 94
        0
309
TABLEFORMAT_END
  1
CELLSTYLE_BEGIN
 90
        2
 91
        1
300
_HEADER
309
CELLSTYLE_END
300
CELLSTYLE
  1
TABLEFORMAT_BEGIN
 90
        5
170
     1
 91
        0
 92
        0
 62
   257
 93
        1
300
CONTENTFORMAT
  1
CONTENTFORMAT_BEGIN
 90
        0
 91
        0
 92
      512
 93
        0
300

 40
0.0
140
1.0
 94
        2
 62
     0
340
17
144
0.18
309
CONTENTFORMAT_END
171
     0
 94
        0
309
TABLEFORMAT_END
  1
CELLSTYLE_BEGIN
 90
        3
 91
        2
300
_DATA
309
CELLSTYLE_END
  0
XRECORD
  5
435
102
{ACAD_REACTORS
330
3FF
102
}
330
3FF
100
AcDbXrecord
280
     1
102
ACAD_ROUNDTRIP_PRE2007_TABLESTYLE
 90
      512
 91
        0
  1

 92
      512
 93
        0
  2

 94
      512
 95
        0
  3

  0
XRECORD
  5
410
102
{ACAD_REACTORS
330
40F
102
}
330
40F
100
AcDbXrecord
280
     1
102
RTVSPropertyOp0
 70
     1
102
RTVSPropertyOp1
 70
     1
102
RTVSPropertyOp2
 70
     1
102
RTVSPropertyOp3
 70
     1
102
RTVSPropertyOp4
 70
     1
102
RTVSPropertyOp5
 70
     1
102
RTVSPropertyOp6
 70
     1
102
RTVSPropertyOp7
 70
     1
102
RTVSPropertyOp8
 70
     1
102
RTVSPropertyOp9
 70
     1
102
RTVSPropertyOp10
 70
     1
102
RTVSPropertyOp11
 70
     1
102
RTVSPropertyOp12
 70
     1
102
RTVSPropertyOp13
 70
     1
102
RTVSPropertyOp14
 70
     1
102
RTVSPropertyOp15
 70
     1
102
RTVSPropertyOp16
 70
     1
102
RTVSPropertyOp17
 70
     1
102
RTVSPropertyOp18
 70
     1
102
RTVSPropertyOp19
 70
     1
102
RTVSPropertyOp20
 70
     1
102
RTVSPropertyOp21
 70
     1
102
RTVSPropertyOp22
 70
     1
102
RTVSPropertyOp23
 70
     1
102
RTVSPropertyOp24
 70
     1
102
RTVSPropertyOp25
 70
     1
102
RTVSPropertyOp26
 70
     1
102
RTVSPropertyOp27
 70
     1
102
RTVSPropertyOp28
 70
     1
102
RTVSPropertyOp29
 70
     1
102
RTVSPropertyOp30
 70
     1
102
RTVSPropertyOp31
 70
     1
102
RTVSPropertyOp32
 70
     1
  0
XRECORD
  5
40E
102
{ACAD_REACTORS
330
40D
102
}
330
40D
100
AcDbXrecord
280
     1
102
RTVSPropertyOp0
 70
     1
102
RTVSPropertyOp1
 70
     1
102
RTVSPropertyOp2
 70
     1
102
RTVSPropertyOp3
 70
     1
102
RTVSPropertyOp4
 70
     1
102
RTVSPropertyOp5
 70
     1
102
RTVSPropertyOp6
 70
     1
102
RTVSPropertyOp7
 70
     1
102
RTVSPropertyOp8
 70
     1
102
RTVSPropertyOp9
 70
     1
102
RTVSPropertyOp10
 70
     1
102
RTVSPropertyOp11
 70
     1
102
RTVSPropertyOp12
 70
     1
102
RTVSPropertyOp13
 70
     1
102
RTVSPropertyOp14
 70
     1
102
RTVSPropertyOp15
 70
     1
102
RTVSPropertyOp16
 70
     1
102
RTVSPropertyOp17
 70
     1
102
RTVSPropertyOp18
 70
     1
102
RTVSPropertyOp19
 70
     1
102
RTVSPropertyOp20
 70
     1
102
RTVSPropertyOp21
 70
     1
102
RTVSPropertyOp22
 70
     1
102
RTVSPropertyOp23
 70
     1
102
RTVSPropertyOp24
 70
     1
102
RTVSPropertyOp25
 70
     1
102
RTVSPropertyOp26
 70
     1
102
RTVSPropertyOp27
 70
     1
102
RTVSPropertyOp28
 70
     1
102
RTVSPropertyOp29
 70
     1
102
RTVSPropertyOp30
 70
     1
102
RTVSPropertyOp31
 70
     1
102
RTVSPropertyOp32
 70
     1
  0
XRECORD
  5
41C
102
{ACAD_REACTORS
330
41B
102
}
330
41B
100
AcDbXrecord
280
     1
102
RTVSPropertyOp0
 70
     1
102
RTVSPropertyOp1
 70
     1
102
RTVSPropertyOp2
 70
     1
102
RTVSPropertyOp3
 70
     1
102
RTVSPropertyOp4
 70
     1
102
RTVSPropertyOp5
 70
     1
102
RTVSPropertyOp6
 70
     1
102
RTVSPropertyOp7
 70
     1
102
RTVSPropertyOp8
 70
     1
102
RTVSPropertyOp9
 70
     1
102
RTVSPropertyOp10
 70
     1
102
RTVSPropertyOp11
 70
     1
102
RTVSPropertyOp12
 70
     1
102
RTVSPropertyOp13
 70
     1
102
RTVSPropertyOp14
 70
     1
102
RTVSPropertyOp15
 70
     1
102
RTVSPropertyOp16
 70
     1
102
RTVSPropertyOp17
 70
     1
102
RTVSPropertyOp18
 70
     1
102
RTVSPropertyOp19
 70
     1
102
RTVSPropertyOp20
 70
     1
102
RTVSPropertyOp21
 70
     1
102
RTVSPropertyOp22
 70
     1
102
RTVSPropertyOp23
 70
     1
102
RTVSPropertyOp24
 70
     1
102
RTVSPropertyOp25
 70
     1
102
RTVSPropertyOp26
 70
     1
102
RTVSPropertyOp27
 70
     1
102
RTVSPropertyOp28
 70
     1
102
RTVSPropertyOp29
 70
     1
102
RTVSPropertyOp30
 70
     1
102
RTVSPropertyOp31
 70
     1
102
RTVSPropertyOp32
 70
     1
  0
XRECORD
  5
424
102
{ACAD_REACTORS
330
423
102
}
330
423
100
AcDbXrecord
280
     1
102
RTVSPropertyOp0
 70
     1
102
RTVSPropertyOp1
 70
     1
102
RTVSPropertyOp2
 70
     1
102
RTVSPropertyOp3
 70
     1
102
RTVSPropertyOp4
 70
     1
102
RTVSPropertyOp5
 70
     1
102
RTVSPropertyOp6
 70
     1
102
RTVSPropertyOp7
 70
     1
102
RTVSPropertyOp8
 70
     1
102
RTVSPropertyOp9
 70
     1
102
RTVSPropertyOp10
 70
     1
102
RTVSPropertyOp11
 70
     1
102
RTVSPropertyOp12
 70
     1
102
RTVSPropertyOp13
 70
     1
102
RTVSPropertyOp14
 70
     1
102
RTVSPropertyOp15
 70
     1
102
RTVSPropertyOp16
 70
     1
102
RTVSPropertyOp17
 70
     1
102
RTVSPropertyOp18
 70
     1
102
RTVSPropertyOp19
 70
     1
102
RTVSPropertyOp20
 70
     1
102
RTVSPropertyOp21
 70
     1
102
RTVSPropertyOp22
 70
     1
102
RTVSPropertyOp23
 70
     1
102
RTVSPropertyOp24
 70
     1
102
RTVSPropertyOp25
 70
     1
102
RTVSPropertyOp26
 70
     1
102
RTVSPropertyOp27
 70
     1
102
RTVSPropertyOp28
 70
     1
102
RTVSPropertyOp29
 70
     1
102
RTVSPropertyOp30
 70
     1
102
RTVSPropertyOp31
 70
     1
102
RTVSPropertyOp32
 70
     1
  0
XRECORD
  5
416
102
{ACAD_REACTORS
330
415
102
}
330
415
100
AcDbXrecord
280
     1
102
RTVSPropertyOp0
 70
     1
102
RTVSPropertyOp1
 70
     1
102
RTVSPropertyOp2
 70
     1
102
RTVSPropertyOp3
 70
     1
102
RTVSPropertyOp4
 70
     1
102
RTVSPropertyOp5
 70
     1
102
RTVSPropertyOp6
 70
     1
102
RTVSPropertyOp7
 70
     1
102
RTVSPropertyOp8
 70
     1
102
RTVSPropertyOp9
 70
     1
102
RTVSPropertyOp10
 70
     1
102
RTVSPropertyOp11
 70
     1
102
RTVSPropertyOp12
 70
     1
102
RTVSPropertyOp13
 70
     1
102
RTVSPropertyOp14
 70
     1
102
RTVSPropertyOp15
 70
     1
102
RTVSPropertyOp16
 70
     1
102
RTVSPropertyOp17
 70
     1
102
RTVSPropertyOp18
 70
     1
102
RTVSPropertyOp19
 70
     1
102
RTVSPropertyOp20
 70
     1
102
RTVSPropertyOp21
 70
     1
102
RTVSPropertyOp22
 70
     1
102
RTVSPropertyOp23
 70
     1
102
RTVSPropertyOp24
 70
     1
102
RTVSPropertyOp25
 70
     1
102
RTVSPropertyOp26
 70
     1
102
RTVSPropertyOp27
 70
     1
102
RTVSPropertyOp28
 70
     1
102
RTVSPropertyOp29
 70
     1
102
RTVSPropertyOp30
 70
     1
102
RTVSPropertyOp31
 70
     1
102
RTVSPropertyOp32
 70
     1
  0
XRECORD
  5
41A
102
{ACAD_REACTORS
330
419
102
}
330
419
100
AcDbXrecord
280
     1
102
RTVSPropertyOp0
 70
     1
102
RTVSPropertyOp1
 70
     1
102
RTVSPropertyOp2
 70
     1
102
RTVSPropertyOp3
 70
     1
102
RTVSPropertyOp4
 70
     1
102
RTVSPropertyOp5
 70
     1
102
RTVSPropertyOp6
 70
     1
102
RTVSPropertyOp7
 70
     1
102
RTVSPropertyOp8
 70
     1
102
RTVSPropertyOp9
 70
     1
102
RTVSPropertyOp10
 70
     1
102
RTVSPropertyOp11
 70
     1
102
RTVSPropertyOp12
 70
     1
102
RTVSPropertyOp13
 70
     1
102
RTVSPropertyOp14
 70
     1
102
RTVSPropertyOp15
 70
     1
102
RTVSPropertyOp16
 70
     1
102
RTVSPropertyOp17
 70
     1
102
RTVSPropertyOp18
 70
     1
102
RTVSPropertyOp19
 70
     1
102
RTVSPropertyOp20
 70
     1
102
RTVSPropertyOp21
 70
     1
102
RTVSPropertyOp22
 70
     1
102
RTVSPropertyOp23
 70
     1
102
RTVSPropertyOp24
 70
     1
102
RTVSPropertyOp25
 70
     1
102
RTVSPropertyOp26
 70
     1
102
RTVSPropertyOp27
 70
     1
102
RTVSPropertyOp28
 70
     1
102
RTVSPropertyOp29
 70
     1
102
RTVSPropertyOp30
 70
     1
102
RTVSPropertyOp31
 70
     1
102
RTVSPropertyOp32
 70
     1
  0
XRECORD
  5
434
102
{ACAD_REACTORS
330
433
102
}
330
433
100
AcDbXrecord
280
     1
102
RTVSPropertyOp0
 70
     0
102
RTVSPropertyOp1
 70
     0
102
RTVSPropertyOp2
 70
     0
102
RTVSPropertyOp3
 70
     0
102
RTVSPropertyOp4
 70
     0
102
RTVSPropertyOp5
 70
     0
102
RTVSPropertyOp6
 70
     0
102
RTVSPropertyOp7
 70
     0
102
RTVSPropertyOp8
 70
     0
102
RTVSPropertyOp9
 70
     0
102
RTVSPropertyOp10
 70
     0
102
RTVSPropertyOp11
 70
     0
102
RTVSPropertyOp12
 70
     0
102
RTVSPropertyOp13
 70
     0
102
RTVSPropertyOp14
 70
     2
102
RTVSPropertyOp15
 70
     0
102
RTVSPropertyOp16
 70
     0
102
RTVSPropertyOp17
 70
     0
102
RTVSPropertyOp18
 70
     0
102
RTVSPropertyOp19
 70
     0
102
RTVSPropertyOp20
 70
     0
102
RTVSPropertyOp21
 70
     0
102
RTVSPropertyOp22
 70
     0
102
RTVSPropertyOp23
 70
     0
102
RTVSPropertyOp24
 70
     0
102
RTVSPropertyOp25
 70
     0
102
RTVSPropertyOp26
 70
     0
102
RTVSPropertyOp27
 70
     0
102
RTVSPropertyOp28
 70
     0
102
RTVSPropertyOp29
 70
     0
102
RTVSPropertyOp30
 70
     0
102
RTVSPropertyOp31
 70
     0
102
RTVSPropertyOp32
 70
     0
  0
XRECORD
  5
422
102
{ACAD_REACTORS
330
421
102
}
330
421
100
AcDbXrecord
280
     1
102
RTVSPropertyOp0
 70
     1
102
RTVSPropertyOp1
 70
     1
102
RTVSPropertyOp2
 70
     1
102
RTVSPropertyOp3
 70
     1
102
RTVSPropertyOp4
 70
     1
102
RTVSPropertyOp5
 70
     1
102
RTVSPropertyOp6
 70
     1
102
RTVSPropertyOp7
 70
     1
102
RTVSPropertyOp8
 70
     1
102
RTVSPropertyOp9
 70
     1
102
RTVSPropertyOp10
 70
     1
102
RTVSPropertyOp11
 70
     1
102
RTVSPropertyOp12
 70
     1
102
RTVSPropertyOp13
 70
     1
102
RTVSPropertyOp14
 70
     1
102
RTVSPropertyOp15
 70
     1
102
RTVSPropertyOp16
 70
     1
102
RTVSPropertyOp17
 70
     1
102
RTVSPropertyOp18
 70
     1
102
RTVSPropertyOp19
 70
     1
102
RTVSPropertyOp20
 70
     1
102
RTVSPropertyOp21
 70
     1
102
RTVSPropertyOp22
 70
     1
102
RTVSPropertyOp23
 70
     1
102
RTVSPropertyOp24
 70
     1
102
RTVSPropertyOp25
 70
     1
102
RTVSPropertyOp26
 70
     1
102
RTVSPropertyOp27
 70
     1
102
RTVSPropertyOp28
 70
     1
102
RTVSPropertyOp29
 70
     1
102
RTVSPropertyOp30
 70
     1
102
RTVSPropertyOp31
 70
     1
102
RTVSPropertyOp32
 70
     1
  0
XRECORD
  5
406
102
{ACAD_REACTORS
330
405
102
}
330
405
100
AcDbXrecord
280
     1
102
RTVSPropertyOp0
 70
     1
102
RTVSPropertyOp1
 70
     1
102
RTVSPropertyOp2
 70
     1
102
RTVSPropertyOp3
 70
     1
102
RTVSPropertyOp4
 70
     1
102
RTVSPropertyOp5
 70
     1
102
RTVSPropertyOp6
 70
     1
102
RTVSPropertyOp7
 70
     1
102
RTVSPropertyOp8
 70
     1
102
RTVSPropertyOp9
 70
     1
102
RTVSPropertyOp10
 70
     1
102
RTVSPropertyOp11
 70
     1
102
RTVSPropertyOp12
 70
     1
102
RTVSPropertyOp13
 70
     1
102
RTVSPropertyOp14
 70
     1
102
RTVSPropertyOp15
 70
     1
102
RTVSPropertyOp16
 70
     1
102
RTVSPropertyOp17
 70
     1
102
RTVSPropertyOp18
 70
     1
102
RTVSPropertyOp19
 70
     1
102
RTVSPropertyOp20
 70
     1
102
RTVSPropertyOp21
 70
     1
102
RTVSPropertyOp22
 70
     1
102
RTVSPropertyOp23
 70
     1
102
RTVSPropertyOp24
 70
     1
102
RTVSPropertyOp25
 70
     1
102
RTVSPropertyOp26
 70
     1
102
RTVSPropertyOp27
 70
     1
102
RTVSPropertyOp28
 70
     1
102
RTVSPropertyOp29
 70
     1
102
RTVSPropertyOp30
 70
     1
102
RTVSPropertyOp31
 70
     1
102
RTVSPropertyOp32
 70
     1
  0
XRECORD
  5
408
102
{ACAD_REACTORS
330
407
102
}
330
407
100
AcDbXrecord
280
     1
102
RTVSPropertyOp0
 70
     1
102
RTVSPropertyOp1
 70
     1
102
RTVSPropertyOp2
 70
     1
102
RTVSPropertyOp3
 70
     1
102
RTVSPropertyOp4
 70
     1
102
RTVSPropertyOp5
 70
     1
102
RTVSPropertyOp6
 70
     1
102
RTVSPropertyOp7
 70
     1
102
RTVSPropertyOp8
 70
     1
102
RTVSPropertyOp9
 70
     1
102
RTVSPropertyOp10
 70
     1
102
RTVSPropertyOp11
 70
     1
102
RTVSPropertyOp12
 70
     1
102
RTVSPropertyOp13
 70
     1
102
RTVSPropertyOp14
 70
     1
102
RTVSPropertyOp15
 70
     1
102
RTVSPropertyOp16
 70
     1
102
RTVSPropertyOp17
 70
     1
102
RTVSPropertyOp18
 70
     1
102
RTVSPropertyOp19
 70
     1
102
RTVSPropertyOp20
 70
     1
102
RTVSPropertyOp21
 70
     1
102
RTVSPropertyOp22
 70
     1
102
RTVSPropertyOp23
 70
     1
102
RTVSPropertyOp24
 70
     1
102
RTVSPropertyOp25
 70
     1
102
RTVSPropertyOp26
 70
     1
102
RTVSPropertyOp27
 70
     1
102
RTVSPropertyOp28
 70
     1
102
RTVSPropertyOp29
 70
     1
102
RTVSPropertyOp30
 70
     1
102
RTVSPropertyOp31
 70
     1
102
RTVSPropertyOp32
 70
     1
  0
XRECORD
  5
40A
102
{ACAD_REACTORS
330
409
102
}
330
409
100
AcDbXrecord
280
     1
102
RTVSPropertyOp0
 70
     1
102
RTVSPropertyOp1
 70
     1
102
RTVSPropertyOp2
 70
     1
102
RTVSPropertyOp3
 70
     1
102
RTVSPropertyOp4
 70
     1
102
RTVSPropertyOp5
 70
     1
102
RTVSPropertyOp6
 70
     1
102
RTVSPropertyOp7
 70
     1
102
RTVSPropertyOp8
 70
     1
102
RTVSPropertyOp9
 70
     1
102
RTVSPropertyOp10
 70
     1
102
RTVSPropertyOp11
 70
     1
102
RTVSPropertyOp12
 70
     1
102
RTVSPropertyOp13
 70
     1
102
RTVSPropertyOp14
 70
     1
102
RTVSPropertyOp15
 70
     1
102
RTVSPropertyOp16
 70
     1
102
RTVSPropertyOp17
 70
     1
102
RTVSPropertyOp18
 70
     1
102
RTVSPropertyOp19
 70
     1
102
RTVSPropertyOp20
 70
     1
102
RTVSPropertyOp21
 70
     1
102
RTVSPropertyOp22
 70
     1
102
RTVSPropertyOp23
 70
     1
102
RTVSPropertyOp24
 70
     1
102
RTVSPropertyOp25
 70
     1
102
RTVSPropertyOp26
 70
     1
102
RTVSPropertyOp27
 70
     1
102
RTVSPropertyOp28
 70
     1
102
RTVSPropertyOp29
 70
     1
102
RTVSPropertyOp30
 70
     1
102
RTVSPropertyOp31
 70
     1
102
RTVSPropertyOp32
 70
     1
  0
XRECORD
  5
40C
102
{ACAD_REACTORS
330
40B
102
}
330
40B
100
AcDbXrecord
280
     1
102
RTVSPropertyOp0
 70
     1
102
RTVSPropertyOp1
 70
     1
102
RTVSPropertyOp2
 70
     1
102
RTVSPropertyOp3
 70
     1
102
RTVSPropertyOp4
 70
     1
102
RTVSPropertyOp5
 70
     1
102
RTVSPropertyOp6
 70
     1
102
RTVSPropertyOp7
 70
     1
102
RTVSPropertyOp8
 70
     1
102
RTVSPropertyOp9
 70
     1
102
RTVSPropertyOp10
 70
     1
102
RTVSPropertyOp11
 70
     1
102
RTVSPropertyOp12
 70
     1
102
RTVSPropertyOp13
 70
     1
102
RTVSPropertyOp14
 70
     1
102
RTVSPropertyOp15
 70
     1
102
RTVSPropertyOp16
 70
     1
102
RTVSPropertyOp17
 70
     1
102
RTVSPropertyOp18
 70
     1
102
RTVSPropertyOp19
 70
     1
102
RTVSPropertyOp20
 70
     1
102
RTVSPropertyOp21
 70
     1
102
RTVSPropertyOp22
 70
     1
102
RTVSPropertyOp23
 70
     1
102
RTVSPropertyOp24
 70
     1
102
RTVSPropertyOp25
 70
     1
102
RTVSPropertyOp26
 70
     1
102
RTVSPropertyOp27
 70
     1
102
RTVSPropertyOp28
 70
     1
102
RTVSPropertyOp29
 70
     1
102
RTVSPropertyOp30
 70
     1
102
RTVSPropertyOp31
 70
     1
102
RTVSPropertyOp32
 70
     1
  0
XRECORD
  5
414
102
{ACAD_REACTORS
330
413
102
}
330
413
100
AcDbXrecord
280
     1
102
RTVSPropertyOp0
 70
     1
102
RTVSPropertyOp1
 70
     1
102
RTVSPropertyOp2
 70
     1
102
RTVSPropertyOp3
 70
     1
102
RTVSPropertyOp4
 70
     1
102
RTVSPropertyOp5
 70
     1
102
RTVSPropertyOp6
 70
     1
102
RTVSPropertyOp7
 70
     1
102
RTVSPropertyOp8
 70
     1
102
RTVSPropertyOp9
 70
     1
102
RTVSPropertyOp10
 70
     1
102
RTVSPropertyOp11
 70
     1
102
RTVSPropertyOp12
 70
     1
102
RTVSPropertyOp13
 70
     1
102
RTVSPropertyOp14
 70
     1
102
RTVSPropertyOp15
 70
     1
102
RTVSPropertyOp16
 70
     1
102
RTVSPropertyOp17
 70
     1
102
RTVSPropertyOp18
 70
     1
102
RTVSPropertyOp19
 70
     1
102
RTVSPropertyOp20
 70
     1
102
RTVSPropertyOp21
 70
     1
102
RTVSPropertyOp22
 70
     1
102
RTVSPropertyOp23
 70
     1
102
RTVSPropertyOp24
 70
     1
102
RTVSPropertyOp25
 70
     1
102
RTVSPropertyOp26
 70
     1
102
RTVSPropertyOp27
 70
     1
102
RTVSPropertyOp28
 70
     1
102
RTVSPropertyOp29
 70
     1
102
RTVSPropertyOp30
 70
     1
102
RTVSPropertyOp31
 70
     1
102
RTVSPropertyOp32
 70
     1
  0
XRECORD
  5
430
102
{ACAD_REACTORS
330
42F
102
}
330
42F
100
AcDbXrecord
280
     1
102
RTVSPropertyOp0
 70
     0
102
RTVSPropertyOp1
 70
     0
102
RTVSPropertyOp2
 70
     0
102
RTVSPropertyOp3
 70
     0
102
RTVSPropertyOp4
 70
     0
102
RTVSPropertyOp5
 70
     0
102
RTVSPropertyOp6
 70
     0
102
RTVSPropertyOp7
 70
     0
102
RTVSPropertyOp8
 70
     0
102
RTVSPropertyOp9
 70
     0
102
RTVSPropertyOp10
 70
     0
102
RTVSPropertyOp11
 70
     0
102
RTVSPropertyOp12
 70
     0
102
RTVSPropertyOp13
 70
     0
102
RTVSPropertyOp14
 70
     2
102
RTVSPropertyOp15
 70
     0
102
RTVSPropertyOp16
 70
     0
102
RTVSPropertyOp17
 70
     0
102
RTVSPropertyOp18
 70
     0
102
RTVSPropertyOp19
 70
     0
102
RTVSPropertyOp20
 70
     0
102
RTVSPropertyOp21
 70
     0
102
RTVSPropertyOp22
 70
     0
102
RTVSPropertyOp23
 70
     0
102
RTVSPropertyOp24
 70
     0
102
RTVSPropertyOp25
 70
     0
102
RTVSPropertyOp26
 70
     0
102
RTVSPropertyOp27
 70
     0
102
RTVSPropertyOp28
 70
     0
102
RTVSPropertyOp29
 70
     0
102
RTVSPropertyOp30
 70
     0
102
RTVSPropertyOp31
 70
     0
102
RTVSPropertyOp32
 70
     0
  0
XRECORD
  5
420
102
{ACAD_REACTORS
330
41F
102
}
330
41F
100
AcDbXrecord
280
     1
102
RTVSPropertyOp0
 70
     1
102
RTVSPropertyOp1
 70
     1
102
RTVSPropertyOp2
 70
     1
102
RTVSPropertyOp3
 70
     1
102
RTVSPropertyOp4
 70
     1
102
RTVSPropertyOp5
 70
     1
102
RTVSPropertyOp6
 70
     1
102
RTVSPropertyOp7
 70
     1
102
RTVSPropertyOp8
 70
     1
102
RTVSPropertyOp9
 70
     1
102
RTVSPropertyOp10
 70
     1
102
RTVSPropertyOp11
 70
     1
102
RTVSPropertyOp12
 70
     1
102
RTVSPropertyOp13
 70
     1
102
RTVSPropertyOp14
 70
     1
102
RTVSPropertyOp15
 70
     1
102
RTVSPropertyOp16
 70
     1
102
RTVSPropertyOp17
 70
     1
102
RTVSPropertyOp18
 70
     1
102
RTVSPropertyOp19
 70
     1
102
RTVSPropertyOp20
 70
     1
102
RTVSPropertyOp21
 70
     1
102
RTVSPropertyOp22
 70
     1
102
RTVSPropertyOp23
 70
     1
102
RTVSPropertyOp24
 70
     1
102
RTVSPropertyOp25
 70
     1
102
RTVSPropertyOp26
 70
     1
102
RTVSPropertyOp27
 70
     1
102
RTVSPropertyOp28
 70
     1
102
RTVSPropertyOp29
 70
     1
102
RTVSPropertyOp30
 70
     1
102
RTVSPropertyOp31
 70
     1
102
RTVSPropertyOp32
 70
     1
  0
XRECORD
  5
432
102
{ACAD_REACTORS
330
431
102
}
330
431
100
AcDbXrecord
280
     1
102
RTVSPropertyOp0
 70
     0
102
RTVSPropertyOp1
 70
     0
102
RTVSPropertyOp2
 70
     0
102
RTVSPropertyOp3
 70
     0
102
RTVSPropertyOp4
 70
     0
102
RTVSPropertyOp5
 70
     0
102
RTVSPropertyOp6
 70
     0
102
RTVSPropertyOp7
 70
     0
102
RTVSPropertyOp8
 70
     0
102
RTVSPropertyOp9
 70
     0
102
RTVSPropertyOp10
 70
     0
102
RTVSPropertyOp11
 70
     0
102
RTVSPropertyOp12
 70
     0
102
RTVSPropertyOp13
 70
     0
102
RTVSPropertyOp14
 70
     2
102
RTVSPropertyOp15
 70
     0
102
RTVSPropertyOp16
 70
     0
102
RTVSPropertyOp17
 70
     0
102
RTVSPropertyOp18
 70
     0
102
RTVSPropertyOp19
 70
     0
102
RTVSPropertyOp20
 70
     0
102
RTVSPropertyOp21
 70
     0
102
RTVSPropertyOp22
 70
     0
102
RTVSPropertyOp23
 70
     0
102
RTVSPropertyOp24
 70
     0
102
RTVSPropertyOp25
 70
     0
102
RTVSPropertyOp26
 70
     0
102
RTVSPropertyOp27
 70
     0
102
RTVSPropertyOp28
 70
     0
102
RTVSPropertyOp29
 70
     0
102
RTVSPropertyOp30
 70
     0
102
RTVSPropertyOp31
 70
     0
102
RTVSPropertyOp32
 70
     0
  0
XRECORD
  5
418
102
{ACAD_REACTORS
330
417
102
}
330
417
100
AcDbXrecord
280
     1
102
RTVSPropertyOp0
 70
     1
102
RTVSPropertyOp1
 70
     1
102
RTVSPropertyOp2
 70
     1
102
RTVSPropertyOp3
 70
     1
102
RTVSPropertyOp4
 70
     1
102
RTVSPropertyOp5
 70
     1
102
RTVSPropertyOp6
 70
     1
102
RTVSPropertyOp7
 70
     1
102
RTVSPropertyOp8
 70
     1
102
RTVSPropertyOp9
 70
     1
102
RTVSPropertyOp10
 70
     1
102
RTVSPropertyOp11
 70
     1
102
RTVSPropertyOp12
 70
     1
102
RTVSPropertyOp13
 70
     1
102
RTVSPropertyOp14
 70
     1
102
RTVSPropertyOp15
 70
     1
102
RTVSPropertyOp16
 70
     1
102
RTVSPropertyOp17
 70
     1
102
RTVSPropertyOp18
 70
     1
102
RTVSPropertyOp19
 70
     1
102
RTVSPropertyOp20
 70
     1
102
RTVSPropertyOp21
 70
     1
102
RTVSPropertyOp22
 70
     1
102
RTVSPropertyOp23
 70
     1
102
RTVSPropertyOp24
 70
     1
102
RTVSPropertyOp25
 70
     1
102
RTVSPropertyOp26
 70
     1
102
RTVSPropertyOp27
 70
     1
102
RTVSPropertyOp28
 70
     1
102
RTVSPropertyOp29
 70
     1
102
RTVSPropertyOp30
 70
     1
102
RTVSPropertyOp31
 70
     1
102
RTVSPropertyOp32
 70
     1
  0
XRECORD
  5
42E
102
{ACAD_REACTORS
330
42D
102
}
330
42D
100
AcDbXrecord
280
     1
102
RTVSPropertyOp0
 70
     1
102
RTVSPropertyOp1
 70
     1
102
RTVSPropertyOp2
 70
     1
102
RTVSPropertyOp3
 70
     1
102
RTVSPropertyOp4
 70
     1
102
RTVSPropertyOp5
 70
     1
102
RTVSPropertyOp6
 70
     1
102
RTVSPropertyOp7
 70
     1
102
RTVSPropertyOp8
 70
     1
102
RTVSPropertyOp9
 70
     1
102
RTVSPropertyOp10
 70
     1
102
RTVSPropertyOp11
 70
     1
102
RTVSPropertyOp12
 70
     1
102
RTVSPropertyOp13
 70
     1
102
RTVSPropertyOp14
 70
     1
102
RTVSPropertyOp15
 70
     1
102
RTVSPropertyOp16
 70
     1
102
RTVSPropertyOp17
 70
     1
102
RTVSPropertyOp18
 70
     1
102
RTVSPropertyOp19
 70
     1
102
RTVSPropertyOp20
 70
     1
102
RTVSPropertyOp21
 70
     1
102
RTVSPropertyOp22
 70
     1
102
RTVSPropertyOp23
 70
     1
102
RTVSPropertyOp24
 70
     1
102
RTVSPropertyOp25
 70
     1
102
RTVSPropertyOp26
 70
     1
102
RTVSPropertyOp27
 70
     1
102
RTVSPropertyOp28
 70
     1
102
RTVSPropertyOp29
 70
     1
102
RTVSPropertyOp30
 70
     1
102
RTVSPropertyOp31
 70
     1
102
RTVSPropertyOp32
 70
     1
  0
XRECORD
  5
42C
102
{ACAD_REACTORS
330
42B
102
}
330
42B
100
AcDbXrecord
280
     1
102
RTVSPropertyOp0
 70
     1
102
RTVSPropertyOp1
 70
     1
102
RTVSPropertyOp2
 70
     1
102
RTVSPropertyOp3
 70
     1
102
RTVSPropertyOp4
 70
     1
102
RTVSPropertyOp5
 70
     1
102
RTVSPropertyOp6
 70
     1
102
RTVSPropertyOp7
 70
     1
102
RTVSPropertyOp8
 70
     1
102
RTVSPropertyOp9
 70
     1
102
RTVSPropertyOp10
 70
     1
102
RTVSPropertyOp11
 70
     1
102
RTVSPropertyOp12
 70
     1
102
RTVSPropertyOp13
 70
     1
102
RTVSPropertyOp14
 70
     1
102
RTVSPropertyOp15
 70
     1
102
RTVSPropertyOp16
 70
     1
102
RTVSPropertyOp17
 70
     1
102
RTVSPropertyOp18
 70
     1
102
RTVSPropertyOp19
 70
     1
102
RTVSPropertyOp20
 70
     1
102
RTVSPropertyOp21
 70
     1
102
RTVSPropertyOp22
 70
     1
102
RTVSPropertyOp23
 70
     1
102
RTVSPropertyOp24
 70
     1
102
RTVSPropertyOp25
 70
     1
102
RTVSPropertyOp26
 70
     1
102
RTVSPropertyOp27
 70
     1
102
RTVSPropertyOp28
 70
     1
102
RTVSPropertyOp29
 70
     1
102
RTVSPropertyOp30
 70
     1
102
RTVSPropertyOp31
 70
     1
102
RTVSPropertyOp32
 70
     1
  0
XRECORD
  5
426
102
{ACAD_REACTORS
330
425
102
}
330
425
100
AcDbXrecord
280
     1
102
RTVSPropertyOp0
 70
     1
102
RTVSPropertyOp1
 70
     1
102
RTVSPropertyOp2
 70
     1
102
RTVSPropertyOp3
 70
     1
102
RTVSPropertyOp4
 70
     1
102
RTVSPropertyOp5
 70
     1
102
RTVSPropertyOp6
 70
     1
102
RTVSPropertyOp7
 70
     1
102
RTVSPropertyOp8
 70
     1
102
RTVSPropertyOp9
 70
     1
102
RTVSPropertyOp10
 70
     1
102
RTVSPropertyOp11
 70
     1
102
RTVSPropertyOp12
 70
     1
102
RTVSPropertyOp13
 70
     1
102
RTVSPropertyOp14
 70
     1
102
RTVSPropertyOp15
 70
     1
102
RTVSPropertyOp16
 70
     1
102
RTVSPropertyOp17
 70
     1
102
RTVSPropertyOp18
 70
     1
102
RTVSPropertyOp19
 70
     1
102
RTVSPropertyOp20
 70
     1
102
RTVSPropertyOp21
 70
     1
102
RTVSPropertyOp22
 70
     1
102
RTVSPropertyOp23
 70
     1
102
RTVSPropertyOp24
 70
     1
102
RTVSPropertyOp25
 70
     1
102
RTVSPropertyOp26
 70
     1
102
RTVSPropertyOp27
 70
     1
102
RTVSPropertyOp28
 70
     1
102
RTVSPropertyOp29
 70
     1
102
RTVSPropertyOp30
 70
     1
102
RTVSPropertyOp31
 70
     1
102
RTVSPropertyOp32
 70
     1
  0
XRECORD
  5
428
102
{ACAD_REACTORS
330
427
102
}
330
427
100
AcDbXrecord
280
     1
102
RTVSPropertyOp0
 70
     1
102
RTVSPropertyOp1
 70
     1
102
RTVSPropertyOp2
 70
     1
102
RTVSPropertyOp3
 70
     1
102
RTVSPropertyOp4
 70
     1
102
RTVSPropertyOp5
 70
     1
102
RTVSPropertyOp6
 70
     1
102
RTVSPropertyOp7
 70
     1
102
RTVSPropertyOp8
 70
     1
102
RTVSPropertyOp9
 70
     1
102
RTVSPropertyOp10
 70
     1
102
RTVSPropertyOp11
 70
     1
102
RTVSPropertyOp12
 70
     1
102
RTVSPropertyOp13
 70
     1
102
RTVSPropertyOp14
 70
     1
102
RTVSPropertyOp15
 70
     1
102
RTVSPropertyOp16
 70
     1
102
RTVSPropertyOp17
 70
     1
102
RTVSPropertyOp18
 70
     1
102
RTVSPropertyOp19
 70
     1
102
RTVSPropertyOp20
 70
     1
102
RTVSPropertyOp21
 70
     1
102
RTVSPropertyOp22
 70
     1
102
RTVSPropertyOp23
 70
     1
102
RTVSPropertyOp24
 70
     1
102
RTVSPropertyOp25
 70
     1
102
RTVSPropertyOp26
 70
     1
102
RTVSPropertyOp27
 70
     1
102
RTVSPropertyOp28
 70
     1
102
RTVSPropertyOp29
 70
     1
102
RTVSPropertyOp30
 70
     1
102
RTVSPropertyOp31
 70
     1
102
RTVSPropertyOp32
 70
     1
  0
XRECORD
  5
41E
102
{ACAD_REACTORS
330
41D
102
}
330
41D
100
AcDbXrecord
280
     1
102
RTVSPropertyOp0
 70
     1
102
RTVSPropertyOp1
 70
     1
102
RTVSPropertyOp2
 70
     1
102
RTVSPropertyOp3
 70
     1
102
RTVSPropertyOp4
 70
     1
102
RTVSPropertyOp5
 70
     1
102
RTVSPropertyOp6
 70
     1
102
RTVSPropertyOp7
 70
     1
102
RTVSPropertyOp8
 70
     1
102
RTVSPropertyOp9
 70
     1
102
RTVSPropertyOp10
 70
     1
102
RTVSPropertyOp11
 70
     1
102
RTVSPropertyOp12
 70
     1
102
RTVSPropertyOp13
 70
     1
102
RTVSPropertyOp14
 70
     1
102
RTVSPropertyOp15
 70
     1
102
RTVSPropertyOp16
 70
     1
102
RTVSPropertyOp17
 70
     1
102
RTVSPropertyOp18
 70
     1
102
RTVSPropertyOp19
 70
     1
102
RTVSPropertyOp20
 70
     1
102
RTVSPropertyOp21
 70
     1
102
RTVSPropertyOp22
 70
     1
102
RTVSPropertyOp23
 70
     1
102
RTVSPropertyOp24
 70
     1
102
RTVSPropertyOp25
 70
     1
102
RTVSPropertyOp26
 70
     1
102
RTVSPropertyOp27
 70
     1
102
RTVSPropertyOp28
 70
     1
102
RTVSPropertyOp29
 70
     1
102
RTVSPropertyOp30
 70
     1
102
RTVSPropertyOp31
 70
     1
102
RTVSPropertyOp32
 70
     1
  0
XRECORD
  5
412
102
{ACAD_REACTORS
330
411
102
}
330
411
100
AcDbXrecord
280
     1
102
RTVSPropertyOp0
 70
     1
102
RTVSPropertyOp1
 70
     1
102
RTVSPropertyOp2
 70
     1
102
RTVSPropertyOp3
 70
     1
102
RTVSPropertyOp4
 70
     1
102
RTVSPropertyOp5
 70
     1
102
RTVSPropertyOp6
 70
     1
102
RTVSPropertyOp7
 70
     1
102
RTVSPropertyOp8
 70
     1
102
RTVSPropertyOp9
 70
     1
102
RTVSPropertyOp10
 70
     1
102
RTVSPropertyOp11
 70
     1
102
RTVSPropertyOp12
 70
     1
102
RTVSPropertyOp13
 70
     1
102
RTVSPropertyOp14
 70
     1
102
RTVSPropertyOp15
 70
     1
102
RTVSPropertyOp16
 70
     1
102
RTVSPropertyOp17
 70
     1
102
RTVSPropertyOp18
 70
     1
102
RTVSPropertyOp19
 70
     1
102
RTVSPropertyOp20
 70
     1
102
RTVSPropertyOp21
 70
     1
102
RTVSPropertyOp22
 70
     1
102
RTVSPropertyOp23
 70
     1
102
RTVSPropertyOp24
 70
     1
102
RTVSPropertyOp25
 70
     1
102
RTVSPropertyOp26
 70
     1
102
RTVSPropertyOp27
 70
     1
102
RTVSPropertyOp28
 70
     1
102
RTVSPropertyOp29
 70
     1
102
RTVSPropertyOp30
 70
     1
102
RTVSPropertyOp31
 70
     1
102
RTVSPropertyOp32
 70
     1
  0
XRECORD
  5
42A
102
{ACAD_REACTORS
330
429
102
}
330
429
100
AcDbXrecord
280
     1
102
RTVSPropertyOp0
 70
     1
102
RTVSPropertyOp1
 70
     1
102
RTVSPropertyOp2
 70
     1
102
RTVSPropertyOp3
 70
     1
102
RTVSPropertyOp4
 70
     1
102
RTVSPropertyOp5
 70
     1
102
RTVSPropertyOp6
 70
     1
102
RTVSPropertyOp7
 70
     1
102
RTVSPropertyOp8
 70
     1
102
RTVSPropertyOp9
 70
     1
102
RTVSPropertyOp10
 70
     1
102
RTVSPropertyOp11
 70
     1
102
RTVSPropertyOp12
 70
     1
102
RTVSPropertyOp13
 70
     1
102
RTVSPropertyOp14
 70
     1
102
RTVSPropertyOp15
 70
     1
102
RTVSPropertyOp16
 70
     1
102
RTVSPropertyOp17
 70
     1
102
RTVSPropertyOp18
 70
     1
102
RTVSPropertyOp19
 70
     1
102
RTVSPropertyOp20
 70
     1
102
RTVSPropertyOp21
 70
     1
102
RTVSPropertyOp22
 70
     1
102
RTVSPropertyOp23
 70
     1
102
RTVSPropertyOp24
 70
     1
102
RTVSPropertyOp25
 70
     1
102
RTVSPropertyOp26
 70
     1
102
RTVSPropertyOp27
 70
     1
102
RTVSPropertyOp28
 70
     1
102
RTVSPropertyOp29
 70
     1
102
RTVSPropertyOp30
 70
     1
102
RTVSPropertyOp31
 70
     1
102
RTVSPropertyOp32
 70
     1
  0
ENDSEC
  0
EOF
