  0
SECTION
  2
HEADER
  9
$ACADVER
  1
AC1018
  9
$ACADMAINTVER
 70
   104
  9
$DWGCODEPAGE
  3
ANSI_1252
  9
$LASTSAVEDBY
  1
mstonge
  9
$INSBASE
 10
0.0
 20
0.0
 30
0.0
  9
$EXTMIN
 10
-217.970469089524
 20
-111.745914805998
 30
0.0
  9
$EXTMAX
 10
390.760602861662
 20
203.394999999999
 30
0.0
  9
$LIMMIN
 10
0.0
 20
0.0
  9
$LIMMAX
 10
0.0
 20
0.0
  9
$ORTHOMODE
 70
     0
  9
$REGENMODE
 70
     1
  9
$FILLMODE
 70
     1
  9
$QTEXTMODE
 70
     0
  9
$MIRRTEXT
 70
     1
  9
$LTSCALE
 40
1.0
  9
$ATTMODE
 70
     1
  9
$TEXTSIZE
 40
0.0
  9
$TRACEWID
 40
0.05
  9
$TEXTSTYLE
  7
STANDARD
  9
$CLAYER
  8
0
  9
$CELTYPE
  6
CONTINUOUS
  9
$CECOLOR
 62
   256
  9
$CELTSCALE
 40
1.0
  9
$DISPSILH
 70
     0
  9
$DIMSCALE
 40
1.0
  9
$DIMASZ
 40
0.18
  9
$DIMEXO
 40
0.0625
  9
$DIMDLI
 40
0.38
  9
$DIMRND
 40
0.0
  9
$DIMDLE
 40
0.0
  9
$DIMEXE
 40
0.18
  9
$DIMTP
 40
0.0
  9
$DIMTM
 40
0.0
  9
$DIMTXT
 40
0.18
  9
$DIMCEN
 40
0.09
  9
$DIMTSZ
 40
0.0
  9
$DIMTOL
 70
     0
  9
$DIMLIM
 70
     0
  9
$DIMTIH
 70
     1
  9
$DIMTOH
 70
     1
  9
$DIMSE1
 70
     0
  9
$DIMSE2
 70
     0
  9
$DIMTAD
 70
     0
  9
$DIMZIN
 70
     0
  9
$DIMBLK
  1

  9
$DIMASO
 70
     1
  9
$DIMSHO
 70
     1
  9
$DIMPOST
  1

  9
$DIMAPOST
  1

  9
$DIMALT
 70
     0
  9
$DIMALTD
 70
     2
  9
$DIMALTF
 40
25.4
  9
$DIMLFAC
 40
1.0
  9
$DIMTOFL
 70
     0
  9
$DIMTVP
 40
0.0
  9
$DIMTIX
 70
     0
  9
$DIMSOXD
 70
     0
  9
$DIMSAH
 70
     0
  9
$DIMBLK1
  1

  9
$DIMBLK2
  1

  9
$DIMSTYLE
  2
STANDARD
  9
$DIMCLRD
 70
     0
  9
$DIMCLRE
 70
     0
  9
$DIMCLRT
 70
     0
  9
$DIMTFAC
 40
1.0
  9
$DIMGAP
 40
0.09
  9
$DIMJUST
 70
     0
  9
$DIMSD1
 70
     0
  9
$DIMSD2
 70
     0
  9
$DIMTOLJ
 70
     1
  9
$DIMTZIN
 70
     0
  9
$DIMALTZ
 70
     0
  9
$DIMALTTZ
 70
     0
  9
$DIMUPT
 70
     0
  9
$DIMDEC
 70
     4
  9
$DIMTDEC
 70
     4
  9
$DIMALTU
 70
     2
  9
$DIMALTTD
 70
     2
  9
$DIMTXSTY
  7
STANDARD
  9
$DIMAUNIT
 70
     0
  9
$DIMADEC
 70
     0
  9
$DIMALTRND
 40
0.0
  9
$DIMAZIN
 70
     0
  9
$DIMDSEP
 70
    46
  9
$DIMATFIT
 70
     3
  9
$DIMFRAC
 70
     0
  9
$DIMLDRBLK
  1

  9
$DIMLUNIT
 70
     2
  9
$DIMLWD
 70
    -2
  9
$DIMLWE
 70
    -2
  9
$DIMTMOVE
 70
     0
  9
$LUNITS
 70
     2
  9
$LUPREC
 70
     4
  9
$SKETCHINC
 40
0.1
  9
$FILLETRAD
 40
0.0
  9
$AUNITS
 70
     0
  9
$AUPREC
 70
     0
  9
$MENU
  1
acad
  9
$ELEVATION
 40
0.0
  9
$PELEVATION
 40
0.0
  9
$THICKNESS
 40
0.0
  9
$LIMCHECK
 70
     0
  9
$CHAMFERA
 40
0.0
  9
$CHAMFERB
 40
0.0
  9
$CHAMFERC
 40
0.0
  9
$CHAMFERD
 40
0.0
  9
$SKPOLY
 70
     0
  9
$TDCREATE
 40
2305814.000000000
  9
$TDUCREATE
 40
2305814.166666666
  9
$TDUPDATE
 40
2456840.485974468
  9
$TDUUPDATE
 40
2456840.652641135
  9
$TDINDWG
 40
0.0003816088
  9
$TDUSRTIMER
 40
0.0003814352
  9
$USRTIMER
 70
     1
  9
$ANGBASE
 50
0.0
  9
$ANGDIR
 70
     0
  9
$PDMODE
 70
     0
  9
$PDSIZE
 40
0.0
  9
$PLINEWID
 40
0.0
  9
$SPLFRAME
 70
     0
  9
$SPLINETYPE
 70
     6
  9
$SPLINESEGS
 70
     8
  9
$HANDSEED
  5
3CC
  9
$SURFTAB1
 70
     6
  9
$SURFTAB2
 70
     6
  9
$SURFTYPE
 70
     6
  9
$SURFU
 70
     6
  9
$SURFV
 70
     6
  9
$UCSBASE
  2

  9
$UCSNAME
  2

  9
$UCSORG
 10
0.0
 20
0.0
 30
0.0
  9
$UCSXDIR
 10
1.0
 20
0.0
 30
0.0
  9
$UCSYDIR
 10
0.0
 20
1.0
 30
0.0
  9
$UCSORTHOREF
  2

  9
$UCSORTHOVIEW
 70
     0
  9
$UCSORGTOP
 10
0.0
 20
0.0
 30
0.0
  9
$UCSORGBOTTOM
 10
0.0
 20
0.0
 30
0.0
  9
$UCSORGLEFT
 10
0.0
 20
0.0
 30
0.0
  9
$UCSORGRIGHT
 10
0.0
 20
0.0
 30
0.0
  9
$UCSORGFRONT
 10
0.0
 20
0.0
 30
0.0
  9
$UCSORGBACK
 10
0.0
 20
0.0
 30
0.0
  9
$PUCSBASE
  2

  9
$PUCSNAME
  2

  9
$PUCSORG
 10
0.0
 20
0.0
 30
0.0
  9
$PUCSXDIR
 10
1.0
 20
0.0
 30
0.0
  9
$PUCSYDIR
 10
0.0
 20
1.0
 30
0.0
  9
$PUCSORTHOREF
  2

  9
$PUCSORTHOVIEW
 70
     0
  9
$PUCSORGTOP
 10
0.0
 20
0.0
 30
0.0
  9
$PUCSORGBOTTOM
 10
0.0
 20
0.0
 30
0.0
  9
$PUCSORGLEFT
 10
0.0
 20
0.0
 30
0.0
  9
$PUCSORGRIGHT
 10
0.0
 20
0.0
 30
0.0
  9
$PUCSORGFRONT
 10
0.0
 20
0.0
 30
0.0
  9
$PUCSORGBACK
 10
0.0
 20
0.0
 30
0.0
  9
$USERI1
 70
     0
  9
$USERI2
 70
     0
  9
$USERI3
 70
     0
  9
$USERI4
 70
     0
  9
$USERI5
 70
     0
  9
$USERR1
 40
0.0
  9
$USERR2
 40
0.0
  9
$USERR3
 40
0.0
  9
$USERR4
 40
0.0
  9
$USERR5
 40
0.0
  9
$WORLDVIEW
 70
     1
  9
$SHADEDGE
 70
     3
  9
$SHADEDIF
 70
    70
  9
$TILEMODE
 70
     1
  9
$MAXACTVP
 70
    16
  9
$PINSBASE
 10
0.0
 20
0.0
 30
0.0
  9
$PLIMCHECK
 70
     0
  9
$PEXTMIN
 10
1.000000000000000E+20
 20
1.000000000000000E+20
 30
1.000000000000000E+20
  9
$PEXTMAX
 10
-1.000000000000000E+20
 20
-1.000000000000000E+20
 30
-1.000000000000000E+20
  9
$PLIMMIN
 10
0.0
 20
0.0
  9
$PLIMMAX
 10
12.0
 20
9.0
  9
$UNITMODE
 70
     0
  9
$VISRETAIN
 70
     0
  9
$PLINEGEN
 70
     1
  9
$PSLTSCALE
 70
     0
  9
$TREEDEPTH
 70
  3020
  9
$CMLSTYLE
  2
STANDARD
  9
$CMLJUST
 70
     0
  9
$CMLSCALE
 40
1.0
  9
$PROXYGRAPHICS
 70
     0
  9
$MEASUREMENT
 70
     0
  9
$CELWEIGHT
370
    -1
  9
$ENDCAPS
280
     0
  9
$JOINSTYLE
280
     0
  9
$LWDISPLAY
290
     0
  9
$INSUNITS
 70
     0
  9
$HYPERLINKBASE
  1

  9
$STYLESHEET
  1

  9
$XEDIT
290
     1
  9
$CEPSNTYPE
380
     0
  9
$PSTYLEMODE
290
     1
  9
$FINGERPRINTGUID
  2
{E2583ECC-EF90-4C82-B64A-95D23D37D387}
  9
$VERSIONGUID
  2
{A7E1AC8D-6896-4DC6-A8FD-E9C5511F041C}
  9
$EXTNAMES
290
     1
  9
$PSVPSCALE
 40
0.0
  9
$OLESTARTUP
290
     0
  9
$SORTENTS
280
   127
  9
$INDEXCTL
280
     0
  9
$HIDETEXT
280
     0
  9
$XCLIPFRAME
290
     0
  9
$HALOGAP
280
     0
  9
$OBSCOLOR
 70
   257
  9
$OBSLTYPE
280
     0
  9
$INTERSECTIONDISPLAY
280
     0
  9
$INTERSECTIONCOLOR
 70
   257
  9
$DIMASSOC
280
     1
  9
$PROJECTNAME
  1

  0
ENDSEC
  0
SECTION
  2
CLASSES
  0
CLASS
  1
IMAGE
  2
AcDbRasterImage
  3
ISM
 90
     2175
 91
        0
280
     0
281
     1
  0
CLASS
  1
DICTIONARYVAR
  2
AcDbDictionaryVar
  3
ObjectDBX Classes
 90
        0
 91
        4
280
     0
281
     0
  0
CLASS
  1
RASTERVARIABLES
  2
AcDbRasterVariables
  3
ISM
 90
        0
 91
        0
280
     0
281
     0
  0
CLASS
  1
IMAGEDEF
  2
AcDbRasterImageDef
  3
ISM
 90
        0
 91
        0
280
     0
281
     0
  0
CLASS
  1
IMAGEDEF_REACTOR
  2
AcDbRasterImageDefReactor
  3
ISM
 90
        1
 91
        0
280
     0
281
     0
  0
CLASS
  1
IDBUFFER
  2
AcDbIdBuffer
  3
ObjectDBX Classes
 90
        0
 91
        0
280
     0
281
     0
  0
CLASS
  1
SPATIAL_FILTER
  2
AcDbSpatialFilter
  3
ObjectDBX Classes
 90
        0
 91
        0
280
     0
281
     0
  0
CLASS
  1
SORTENTSTABLE
  2
AcDbSortentsTable
  3
ObjectDBX Classes
 90
        0
 91
        0
280
     0
281
     0
  0
CLASS
  1
LAYER_INDEX
  2
AcDbLayerIndex
  3
ObjectDBX Classes
 90
        0
 91
        0
280
     0
281
     0
  0
CLASS
  1
SPATIAL_INDEX
  2
AcDbSpatialIndex
  3
ObjectDBX Classes
 90
        0
 91
        0
280
     0
281
     0
  0
CLASS
  1
OBJECT_PTR
  2
CAseDLPNTableRecord
  3
"ASE-LPNTableRecord"
 90
        1
 91
        0
280
     0
281
     0
  0
CLASS
  1
PLOTSETTINGS
  2
AcDbPlotSettings
  3
ObjectDBX Classes
 90
        0
 91
        0
280
     0
281
     0
  0
CLASS
  1
ACDBDICTIONARYWDFLT
  2
AcDbDictionaryWithDefault
  3
ObjectDBX Classes
 90
        0
 91
        1
280
     0
281
     0
  0
CLASS
  1
WIPEOUT
  2
AcDbWipeout
  3
WipeOut|Product Desc: Object Enabler for WipeOut entity | Company: Autodesk, Inc. | WEB Address: www.autodesk.com
 90
     2175
 91
        0
280
     0
281
     1
  0
CLASS
  1
WIPEOUTVARIABLES
  2
AcDbWipeoutVariables
  3
"WipeOut|Product Desc:     WipeOut Dbx Application|Company:          Autodesk, Inc.|WEB Address:      www.autodesk.com"
 90
        0
 91
        0
280
     0
281
     0
  0
CLASS
  1
RTEXT
  2
RText
  3
RText|AutoCAD Express Tool|expresstools@autodesk.com
 90
        0
 91
        0
280
     0
281
     1
  0
CLASS
  1
ARCALIGNEDTEXT
  2
AcDbArcAlignedText
  3
ATEXT|AutoCAD Express Tool|expresstools@autodesk.com
 90
        0
 91
        0
280
     0
281
     1
  0
CLASS
  1
MATERIAL
  2
AcDbMaterial
  3
ObjectDBX Classes
 90
     1153
 91
        3
280
     0
281
     0
  0
CLASS
  1
VISUALSTYLE
  2
AcDbVisualStyle
  3
ObjectDBX Classes
 90
     4095
 91
       24
280
     0
281
     0
  0
CLASS
  1
TABLESTYLE
  2
AcDbTableStyle
  3
ObjectDBX Classes
 90
     4095
 91
        1
280
     0
281
     0
  0
CLASS
  1
SCALE
  2
AcDbScale
  3
ObjectDBX Classes
 90
     1153
 91
       17
280
     0
281
     0
  0
CLASS
  1
MLEADERSTYLE
  2
AcDbMLeaderStyle
  3
ACDB_MLEADERSTYLE_CLASS
 90
     4095
 91
        1
280
     0
281
     0
  0
CLASS
  1
CELLSTYLEMAP
  2
AcDbCellStyleMap
  3
ObjectDBX Classes
 90
     1152
 91
        1
280
     0
281
     0
  0
ENDSEC
  0
SECTION
  2
TABLES
  0
TABLE
  2
VPORT
  5
7
330
0
100
AcDbSymbolTable
 70
     1
  0
VPORT
  5
15
330
7
100
AcDbSymbolTableRecord
100
AcDbViewportTableRecord
  2
*ACTIVE
 70
     0
 10
0.0
 20
0.0
 11
1.0
 21
1.0
 12
13.87468970788036
 22
4.579183999999999
 13
0.0
 23
0.0
 14
1.0
 24
1.0
 15
0.0
 25
0.0
 16
0.0
 26
0.0
 36
1.0
 17
0.0
 27
0.0
 37
0.0
 40
7.217107878632479
 41
2.893478260869565
 42
50.0
 43
0.0
 44
0.0
 50
0.0
 51
0.0
 71
     0
 72
   100
 73
     1
 74
     1
 75
     0
 76
     0
 77
     0
 78
     0
281
     0
 65
     1
110
0.0
120
0.0
130
0.0
111
1.0
121
0.0
131
0.0
112
0.0
122
1.0
132
0.0
 79
     0
146
0.0
1001
ACAD_NAV_VCDISPLAY
1070
     3
  0
ENDTAB
  0
TABLE
  2
LTYPE
  5
4
330
0
100
AcDbSymbolTable
 70
     8
  0
LTYPE
  5
11
330
4
100
AcDbSymbolTableRecord
100
AcDbLinetypeTableRecord
  2
BYBLOCK
 70
     0
  3

 72
    65
 73
     0
 40
0.0
  0
LTYPE
  5
12
330
4
100
AcDbSymbolTableRecord
100
AcDbLinetypeTableRecord
  2
BYLAYER
 70
     0
  3

 72
    65
 73
     0
 40
0.0
  0
LTYPE
  5
13
330
4
100
AcDbSymbolTableRecord
100
AcDbLinetypeTableRecord
  2
CONTINUOUS
 70
     0
  3
Solid line
 72
    65
 73
     0
 40
0.0
  0
LTYPE
  5
1D
330
4
100
AcDbSymbolTableRecord
100
AcDbLinetypeTableRecord
  2
DASHED
 70
     0
  3
Dashed
 72
    65
 73
     2
 40
15.0
 49
12.0
 74
     0
 49
-3.0
 74
     0
  0
LTYPE
  5
1E
330
4
100
AcDbSymbolTableRecord
100
AcDbLinetypeTableRecord
  2
DOTTED
 70
     0
  3
Dotted
 72
    65
 73
     2
 40
3.5
 49
0.5
 74
     0
 49
-3.0
 74
     0
  0
LTYPE
  5
1F
330
4
100
AcDbSymbolTableRecord
100
AcDbLinetypeTableRecord
  2
DOT_CENTER
 70
     0
  3
Dot_Center
 72
    65
 73
     4
 40
2.0
 49
1.25
 74
     0
 49
-0.25
 74
     0
 49
0.25
 74
     0
 49
-0.25
 74
     0
  0
LTYPE
  5
20
330
4
100
AcDbSymbolTableRecord
100
AcDbLinetypeTableRecord
  2
LONG_DASHED
 70
     0
  3
Long_Dashed
 72
    65
 73
     2
 40
2.0
 49
1.5
 74
     0
 49
-0.5
 74
     0
  0
LTYPE
  5
21
330
4
100
AcDbSymbolTableRecord
100
AcDbLinetypeTableRecord
  2
DASH_CENTER
 70
     0
  3
Dash_Center
 72
    65
 73
     4
 40
36.0
 49
24.0
 74
     0
 49
-3.0
 74
     0
 49
6.0
 74
     0
 49
-3.0
 74
     0
  0
LTYPE
  5
22
330
4
100
AcDbSymbolTableRecord
100
AcDbLinetypeTableRecord
  2
PHANTOM
 70
     0
  3
Phantom
 72
    65
 73
     6
 40
2.5
 49
1.25
 74
     0
 49
-0.25
 74
     0
 49
0.25
 74
     0
 49
-0.25
 74
     0
 49
0.25
 74
     0
 49
-0.25
 74
     0
  0
LTYPE
  5
23
330
4
100
AcDbSymbolTableRecord
100
AcDbLinetypeTableRecord
  2
CENTER_DASH_DASH
 70
     0
  3
Center_Dash_Dash
 72
    65
 73
     6
 40
22.0
 49
12.0
 74
     0
 49
-3.0
 74
     0
 49
0.5
 74
     0
 49
-3.0
 74
     0
 49
0.5
 74
     0
 49
-3.0
 74
     0
  0
ENDTAB
  0
TABLE
  2
LAYER
  5
2
330
0
100
AcDbSymbolTable
 70
     4
  0
LAYER
  5
14
330
2
100
AcDbSymbolTableRecord
100
AcDbLayerTableRecord
  2
0
 70
     0
 62
     7
  6
CONTINUOUS
370
    -3
390
33D
  0
LAYER
  5
24
330
2
100
AcDbSymbolTableRecord
100
AcDbLayerTableRecord
  2
________
 70
     0
 62
     7
  6
CONTINUOUS
370
    -3
390
33D
  0
LAYER
  5
25
330
2
100
AcDbSymbolTableRecord
100
AcDbLayerTableRecord
  2
1
 70
     0
 62
     7
  6
CONTINUOUS
370
    -3
390
33D
  0
LAYER
  5
26
330
2
100
AcDbSymbolTableRecord
100
AcDbLayerTableRecord
  2
____
 70
     0
 62
     7
  6
CONTINUOUS
370
    -3
390
33D
  0
ENDTAB
  0
TABLE
  2
STYLE
  5
3
330
0
100
AcDbSymbolTable
 70
     2
  0
STYLE
  5
17
330
3
100
AcDbSymbolTableRecord
100
AcDbTextStyleTableRecord
  2
STANDARD
 70
     0
 40
0.0
 41
1.0
 50
0.0
 71
     0
 42
0.0
  3
txt
  4

  0
STYLE
  5
337
330
3
100
AcDbSymbolTableRecord
100
AcDbTextStyleTableRecord
  2
CONVERTER_1
 70
     0
 40
0.0
 41
0.9
 50
0.0
 71
     0
 42
0.0
  3
txt.shx
  4

  0
ENDTAB
  0
TABLE
  2
VIEW
  5
5
330
0
100
AcDbSymbolTable
 70
     0
  0
ENDTAB
  0
TABLE
  2
UCS
  5
6
330
0
100
AcDbSymbolTable
 70
     0
  0
ENDTAB
  0
TABLE
  2
APPID
  5
8
330
0
100
AcDbSymbolTable
 70
     3
  0
APPID
  5
16
330
8
100
AcDbSymbolTableRecord
100
AcDbRegAppTableRecord
  2
ACAD
 70
     0
  0
APPID
  5
393
330
8
100
AcDbSymbolTableRecord
100
AcDbRegAppTableRecord
  2
ACAD_NAV_VCDISPLAY
 70
     0
  0
APPID
  5
3CB
330
8
100
AcDbSymbolTableRecord
100
AcDbRegAppTableRecord
  2
ACAD_MLEADERVER
 70
     0
  0
ENDTAB
  0
TABLE
  2
DIMSTYLE
  5
9
330
0
100
AcDbSymbolTable
 70
     1
100
AcDbDimStyleTable
 71
     0
  0
DIMSTYLE
105
18
330
9
100
AcDbSymbolTableRecord
100
AcDbDimStyleTableRecord
  2
STANDARD
 70
     0
340
17
  0
ENDTAB
  0
TABLE
  2
BLOCK_RECORD
  5
1
330
0
100
AcDbSymbolTable
 70
     0
  0
BLOCK_RECORD
  5
A
330
1
100
AcDbSymbolTableRecord
100
AcDbBlockTableRecord
  2
*MODEL_SPACE
340
389
  0
BLOCK_RECORD
  5
B
330
1
100
AcDbSymbolTableRecord
100
AcDbBlockTableRecord
  2
*PAPER_SPACE
340
38A
  0
ENDTAB
  0
ENDSEC
  0
SECTION
  2
BLOCKS
  0
BLOCK
  5
D
330
A
100
AcDbEntity
  8
0
100
AcDbBlockBegin
  2
*MODEL_SPACE
 70
     0
 10
0.0
 20
0.0
 30
0.0
  3
*MODEL_SPACE
  1

  0
ENDBLK
  5
E
330
A
100
AcDbEntity
  8
0
100
AcDbBlockEnd
  0
BLOCK
  5
F
330
B
100
AcDbEntity
 67
     1
  8
0
100
AcDbBlockBegin
  2
*PAPER_SPACE
 70
     0
 10
0.0
 20
0.0
 30
0.0
  3
*PAPER_SPACE
  1

  0
ENDBLK
  5
10
330
B
100
AcDbEntity
 67
     1
  8
0
100
AcDbBlockEnd
  0
ENDSEC
  0
SECTION
  2
ENTITIES
  0
MTEXT
  5
338
330
A
100
AcDbEntity
  8
1
 62
     3
100
AcDbMText
 10
204.244401877072
 20
-108.745914805998
 30
0.0
 40
6.0
 41
0.0
 71
     6
 72
     1
  1
B2T0797
  7
CONVERTER_1
 73
     1
 44
1.0
  0
ARC
  5
336
330
A
100
AcDbEntity
  8
1
  6
Continuous
 62
     3
100
AcDbCircle
 10
-116.634605750356
 20
14.0
 30
0.0
 40
4.0
100
AcDbArc
 50
29.999999999999
 51
90.0
  0
ARC
  5
335
330
A
100
AcDbEntity
  8
1
  6
Continuous
 62
     3
100
AcDbCircle
 10
-108.551701981702
 20
0.0
 30
0.0
 40
4.0
100
AcDbArc
 50
-30.000000000001
 51
30.000000000001
  0
ARC
  5
334
330
A
100
AcDbEntity
  8
1
  6
Continuous
 62
     3
100
AcDbCircle
 10
-116.634605750356
 20
-14.0
 30
0.0
 40
4.0
100
AcDbArc
 50
-90.0
 51
-29.999999999999
  0
ARC
  5
333
330
A
100
AcDbEntity
  8
1
  6
Continuous
 62
     3
100
AcDbCircle
 10
-132.800413287666
 20
-14.0
 30
0.0
 40
4.0
100
AcDbArc
 50
-149.999999999999
 51
-90.0
  0
ARC
  5
332
330
A
100
AcDbEntity
  8
1
  6
Continuous
 62
     3
100
AcDbCircle
 10
-140.883317056321
 20
0.0
 30
0.0
 40
4.0
100
AcDbArc
 50
150.000000000001
 51
-150.000000000001
  0
ARC
  5
331
330
A
100
AcDbEntity
  8
1
  6
Continuous
 62
     3
100
AcDbCircle
 10
-132.800413287666
 20
14.0
 30
0.0
 40
4.0
100
AcDbArc
 50
90.0
 51
150.000000000001
  0
ARC
  5
330
330
A
100
AcDbEntity
  8
1
  6
Continuous
 62
     3
100
AcDbCircle
 10
174.000000390508
 20
60.0
 30
0.0
 40
6.0
100
AcDbArc
 50
-90.0
 51
0.0
  0
ARC
  5
32F
330
A
100
AcDbEntity
  8
1
  6
DASH_CENTER
 62
     3
100
AcDbCircle
 10
174.000000390508
 20
60.0
 30
0.0
 40
10.0
100
AcDbArc
 50
-90.0
 51
0.0
  0
ARC
  5
32E
330
A
100
AcDbEntity
  8
1
  6
Continuous
 62
     3
100
AcDbCircle
 10
174.000000390508
 20
60.0
 30
0.0
 40
14.0
100
AcDbArc
 50
-90.0
 51
0.0
  0
ARC
  5
32D
330
A
100
AcDbEntity
  8
1
  6
DASH_CENTER
 62
     3
100
AcDbCircle
 10
174.000000390508
 20
188.5
 30
0.0
 40
10.0
100
AcDbArc
 50
0.0
 51
90.0
  0
ARC
  5
32C
330
A
100
AcDbEntity
  8
1
  6
DASH_CENTER
 62
     3
100
AcDbCircle
 10
174.000000390508
 20
126.5
 30
0.0
 40
10.0
100
AcDbArc
 50
0.0
 51
90.0
  0
ARC
  5
32B
330
A
100
AcDbEntity
  8
1
  6
Continuous
 62
     3
100
AcDbCircle
 10
174.000000390508
 20
126.5
 30
0.0
 40
6.0
100
AcDbArc
 50
0.0
 51
90.0
  0
ARC
  5
32A
330
A
100
AcDbEntity
  8
1
  6
Continuous
 62
     3
100
AcDbCircle
 10
174.000000390508
 20
126.5
 30
0.0
 40
14.0
100
AcDbArc
 50
0.0
 51
90.0
  0
ARC
  5
329
330
A
100
AcDbEntity
  8
1
  6
Continuous
 62
     3
100
AcDbCircle
 10
174.000000390508
 20
188.5
 30
0.0
 40
14.0
100
AcDbArc
 50
0.0
 51
90.00000000000099
  0
ARC
  5
328
330
A
100
AcDbEntity
  8
1
  6
Continuous
 62
     3
100
AcDbCircle
 10
174.000000390508
 20
188.5
 30
0.0
 40
6.0
100
AcDbArc
 50
0.0
 51
90.0
  0
ARC
  5
327
330
A
100
AcDbEntity
  8
1
  6
Continuous
 62
     3
100
AcDbCircle
 10
65.86140553275601
 20
96.94499999999901
 30
0.0
 40
100.0
100
AcDbArc
 50
85.28377876566201
 51
90.0
  0
ARC
  5
326
330
A
100
AcDbEntity
  8
1
  6
Continuous
 62
     3
100
AcDbCircle
 10
94.09741521257
 20
295.295
 30
0.0
 40
100.0
100
AcDbArc
 50
-94.716221234338
 51
-90.0
  0
ARC
  5
325
330
A
100
AcDbEntity
  8
1
  6
Continuous
 62
     3
100
AcDbCircle
 10
78.84739867034899
 20
116.944999999999
 30
0.0
 40
80.0
100
AcDbArc
 50
85.28377876566201
 51
90.0
  0
ARC
  5
324
330
A
100
AcDbEntity
  8
1
  6
Continuous
 62
     3
100
AcDbCircle
 10
93.314994292988
 20
276.294999999999
 30
0.0
 40
79.999999999999
100
AcDbArc
 50
-94.716221234338
 51
-90.0
  0
ARC
  5
323
330
A
100
AcDbEntity
  8
1
  6
Continuous
 62
     3
100
AcDbCircle
 10
93.314994292988
 20
279.595
 30
0.0
 40
80.0
100
AcDbArc
 50
-94.716221234338
 51
-90.0
  0
ARC
  5
322
330
A
100
AcDbEntity
  8
1
  6
Continuous
 62
     3
100
AcDbCircle
 10
94.09741521257
 20
298.595
 30
0.0
 40
100.0
100
AcDbArc
 50
-94.716221234338
 51
-90.0
  0
ARC
  5
321
330
A
100
AcDbEntity
  8
1
  6
Continuous
 62
     3
100
AcDbCircle
 10
78.84739867034899
 20
120.245
 30
0.0
 40
80.0
100
AcDbArc
 50
85.28377876566201
 51
90.0
  0
ARC
  5
320
330
A
100
AcDbEntity
  8
1
  6
Continuous
 62
     3
100
AcDbCircle
 10
65.86140553275601
 20
100.245
 30
0.0
 40
100.0
100
AcDbArc
 50
85.283778765661
 51
90.0
  0
ARC
  5
31F
330
A
100
AcDbEntity
  8
1
  6
Continuous
 62
     3
100
AcDbCircle
 10
345.463458585689
 20
-18.0
 30
0.0
 40
1.5
100
AcDbArc
 50
-90.0
 51
0.0
  0
ARC
  5
31E
330
A
100
AcDbEntity
  8
1
  6
Continuous
 62
     3
100
AcDbCircle
 10
322.463458585689
 20
-18.0
 30
0.0
 40
1.5
100
AcDbArc
 50
180.0
 51
-90.0
  0
ARC
  5
31D
330
A
100
AcDbEntity
  8
1
  6
Continuous
 62
     3
100
AcDbCircle
 10
322.463458585689
 20
18.0
 30
0.0
 40
1.5
100
AcDbArc
 50
90.0
 51
180.0
  0
ARC
  5
31C
330
A
100
AcDbEntity
  8
1
  6
Continuous
 62
     3
100
AcDbCircle
 10
345.463458585689
 20
18.0
 30
0.0
 40
1.5
100
AcDbArc
 50
0.0
 51
90.0
  0
ARC
  5
31B
330
A
100
AcDbEntity
  8
1
  6
Continuous
 62
     3
100
AcDbCircle
 10
312.713458585513
 20
-50.750000000176
 30
0.0
 40
1.5
100
AcDbArc
 50
-90.0
 51
0.0
  0
ARC
  5
31A
330
A
100
AcDbEntity
  8
1
  6
Continuous
 62
     3
100
AcDbCircle
 10
312.713458585513
 20
-27.750000000176
 30
0.0
 40
1.5
100
AcDbArc
 50
0.0
 51
90.0
  0
ARC
  5
319
330
A
100
AcDbEntity
  8
1
  6
Continuous
 62
     3
100
AcDbCircle
 10
276.713458585513
 20
-27.750000000176
 30
0.0
 40
1.5
100
AcDbArc
 50
90.0
 51
180.0
  0
ARC
  5
318
330
A
100
AcDbEntity
  8
1
  6
Continuous
 62
     3
100
AcDbCircle
 10
276.713458585513
 20
-50.750000000176
 30
0.0
 40
1.5
100
AcDbArc
 50
180.0
 51
-90.0
  0
SPLINE
  5
317
330
A
100
AcDbEntity
  8
1
  6
Continuous
 62
     3
100
AcDbSpline
210
0.0
220
0.0
230
1.0
 70
  1064
 71
     3
 72
    12
 73
     8
 74
     6
 42
0.0000000001
 43
0.0000000001
 44
0.00000000001
 40
0.0
 40
0.0
 40
0.0
 40
0.0
 40
8.231784385034178
 40
16.41606751934345
 40
25.04826257829077
 40
36.98446442084406
 40
49.3436598145311
 40
49.3436598145311
 40
49.3436598145311
 40
49.3436598145311
 10
0.0000000000004008
 20
42.36562181739424
 30
0.0
 10
2.534258955527664
 20
41.14282249085783
 30
0.0
 10
7.588153005652696
 20
38.70427996251802
 30
0.0
 10
11.67542566444227
 20
31.01375799761572
 30
0.0
 10
14.88641623823538
 20
22.0815752765907
 30
0.0
 10
19.15281916608723
 20
11.90461437251289
 30
0.0
 10
21.01878435530261
 20
4.013997825643791
 30
0.0
 10
21.96801058721337
 20
0.0000000000002274
 30
0.0
 11
0.0000000000004008
 21
42.36562181739424
 31
0.0
 11
7.005538607917721
 21
38.04304122535523
 31
0.0
 11
11.39720649731807
 21
31.1368307180112
 31
0.0
 11
14.58225972903021
 21
23.11372487009453
 31
0.0
 11
18.78858219644629
 21
11.94323850081395
 31
0.0
 11
21.96801058721337
 21
0.0000000000002274
 31
0.0
  0
CIRCLE
  5
316
330
A
100
AcDbEntity
  8
1
  6
Continuous
 62
     3
100
AcDbCircle
 10
-136.623185593727
 20
-44.432588009297
 30
0.0
 40
5.95
  0
CIRCLE
  5
315
330
A
100
AcDbEntity
  8
1
  6
Continuous
 62
     3
100
AcDbCircle
 10
-157.244421453593
 20
32.526911934581
 30
0.0
 40
5.95
  0
CIRCLE
  5
314
330
A
100
AcDbEntity
  8
1
  6
Continuous
 62
     3
100
AcDbCircle
 10
-80.284921509714
 20
11.905676074716
 30
0.0
 40
5.95
  0
CIRCLE
  5
313
330
A
100
AcDbEntity
  8
1
  6
Continuous
 62
     3
100
AcDbCircle
 10
-124.717509519011
 20
0.0
 30
0.0
 40
87.5
  0
CIRCLE
  5
312
330
A
100
AcDbEntity
  8
1
  6
Continuous
 62
     3
100
AcDbCircle
 10
-124.717509519011
 20
0.0
 30
0.0
 40
71.0
  0
CIRCLE
  5
311
330
A
100
AcDbEntity
  8
1
  6
Continuous
 62
     3
100
AcDbCircle
 10
-124.717509519011
 20
0.0
 30
0.0
 40
61.0
  0
CIRCLE
  5
310
330
A
100
AcDbEntity
  8
1
  6
Continuous
 62
     3
100
AcDbCircle
 10
-136.623185593727
 20
-44.432588009297
 30
0.0
 40
5.25
  0
CIRCLE
  5
30F
330
A
100
AcDbEntity
  8
1
  6
Continuous
 62
     3
100
AcDbCircle
 10
-80.284921509714
 20
11.905676074716
 30
0.0
 40
5.25
  0
CIRCLE
  5
30E
330
A
100
AcDbEntity
  8
1
  6
Continuous
 62
     3
100
AcDbCircle
 10
-157.244421453593
 20
32.526911934581
 30
0.0
 40
5.25
  0
CIRCLE
  5
30D
330
A
100
AcDbEntity
  8
1
  6
Continuous
 62
     3
100
AcDbCircle
 10
-124.717509519011
 20
0.0
 30
0.0
 40
22.5
  0
CIRCLE
  5
30C
330
A
100
AcDbEntity
  8
1
  6
Continuous
 62
     3
100
AcDbCircle
 10
-124.717509519011
 20
0.0
 30
0.0
 40
17.5
  0
CIRCLE
  5
30B
330
A
100
AcDbEntity
  8
1
  6
Continuous
 62
     3
100
AcDbCircle
 10
-124.717509519011
 20
0.0
 30
0.0
 40
37.499999999994
  0
CIRCLE
  5
30A
330
A
100
AcDbEntity
  8
1
  6
Continuous
 62
     3
100
AcDbCircle
 10
-67.441860242901
 20
-57.27564927611
 30
0.0
 40
3.0
  0
CIRCLE
  5
309
330
A
100
AcDbEntity
  8
1
  6
Continuous
 62
     3
100
AcDbCircle
 10
-67.441860242901
 20
-57.27564927611
 30
0.0
 40
2.399999999999999
  0
CIRCLE
  5
308
330
A
100
AcDbEntity
  8
1
  6
Continuous
 62
     3
100
AcDbCircle
 10
-54.569451812471
 20
-40.49999999999999
 30
0.0
 40
3.299999999999999
  0
CIRCLE
  5
307
330
A
100
AcDbEntity
  8
1
  6
Continuous
 62
     3
100
AcDbCircle
 10
-54.569451812471
 20
40.49999999999999
 30
0.0
 40
3.299999999999999
  0
CIRCLE
  5
306
330
A
100
AcDbEntity
  8
1
  6
Continuous
 62
     3
100
AcDbCircle
 10
-43.717509519011
 20
0.0
 30
0.0
 40
3.299999999999999
  0
CIRCLE
  5
305
330
A
100
AcDbEntity
  8
1
  6
Continuous
 62
     3
100
AcDbCircle
 10
-205.717509519011
 20
0.0
 30
0.0
 40
3.299999999999999
  0
CIRCLE
  5
304
330
A
100
AcDbEntity
  8
1
  6
Continuous
 62
     3
100
AcDbCircle
 10
-165.217509519011
 20
70.14805770654
 30
0.0
 40
3.299999999999999
  0
CIRCLE
  5
303
330
A
100
AcDbEntity
  8
1
  6
Continuous
 62
     3
100
AcDbCircle
 10
-194.865567225551
 20
40.49999999999999
 30
0.0
 40
3.299999999999999
  0
CIRCLE
  5
302
330
A
100
AcDbEntity
  8
1
  6
Continuous
 62
     3
100
AcDbCircle
 10
-194.865567225551
 20
-40.49999999999999
 30
0.0
 40
3.299999999999999
  0
CIRCLE
  5
301
330
A
100
AcDbEntity
  8
1
  6
Continuous
 62
     3
100
AcDbCircle
 10
-165.217509519011
 20
-70.148057706539
 30
0.0
 40
3.299999999999999
  0
CIRCLE
  5
300
330
A
100
AcDbEntity
  8
1
  6
Continuous
 62
     3
100
AcDbCircle
 10
-84.21750951901101
 20
-70.148057706539
 30
0.0
 40
3.299999999999999
  0
CIRCLE
  5
2FF
330
A
100
AcDbEntity
  8
1
  6
Continuous
 62
     3
100
AcDbCircle
 10
-84.21750951901101
 20
70.14805770654
 30
0.0
 40
3.299999999999999
  0
CIRCLE
  5
2FE
330
A
100
AcDbEntity
  8
1
  6
Continuous
 62
     3
100
AcDbCircle
 10
-181.993158795122
 20
57.27564927611
 30
0.0
 40
2.399999999999999
  0
CIRCLE
  5
2FD
330
A
100
AcDbEntity
  8
1
  6
Continuous
 62
     3
100
AcDbCircle
 10
-181.993158795122
 20
57.27564927611
 30
0.0
 40
3.0
  0
CIRCLE
  5
2FC
330
A
100
AcDbEntity
  8
1
  6
Continuous
 62
     3
100
AcDbCircle
 10
-124.717509519011
 20
81.0
 30
0.0
 40
3.299999999999999
  0
CIRCLE
  5
2FB
330
A
100
AcDbEntity
  8
1
  6
Continuous
 62
     3
100
AcDbCircle
 10
-124.717509519011
 20
-81.0
 30
0.0
 40
3.299999999999999
  0
CIRCLE
  5
2FA
330
A
100
AcDbEntity
  8
1
  6
DASH_CENTER
 62
     3
100
AcDbCircle
 10
-124.717509519011
 20
0.0
 30
0.0
 40
81.0
  0
CIRCLE
  5
2F9
330
A
100
AcDbEntity
  8
1
  6
DASH_CENTER
 62
     3
100
AcDbCircle
 10
294.713458585513
 20
0.0
 30
0.0
 40
81.0
  0
CIRCLE
  5
2F8
330
A
100
AcDbEntity
  8
1
  6
Continuous
 62
     3
100
AcDbCircle
 10
294.713458585513
 20
0.0
 30
0.0
 40
87.5
  0
CIRCLE
  5
2F7
330
A
100
AcDbEntity
  8
1
  6
Continuous
 62
     3
100
AcDbCircle
 10
294.713458585513
 20
-81.0
 30
0.0
 40
3.299999999999999
  0
CIRCLE
  5
2F6
330
A
100
AcDbEntity
  8
1
  6
Continuous
 62
     3
100
AcDbCircle
 10
294.713458585513
 20
81.0
 30
0.0
 40
3.299999999999999
  0
CIRCLE
  5
2F5
330
A
100
AcDbEntity
  8
1
  6
Continuous
 62
     3
100
AcDbCircle
 10
351.989107861623
 20
57.27564927611
 30
0.0
 40
3.0
  0
CIRCLE
  5
2F4
330
A
100
AcDbEntity
  8
1
  6
Continuous
 62
     3
100
AcDbCircle
 10
351.989107861623
 20
57.27564927611
 30
0.0
 40
2.399999999999999
  0
CIRCLE
  5
2F3
330
A
100
AcDbEntity
  8
1
  6
Continuous
 62
     3
100
AcDbCircle
 10
335.213458585513
 20
70.14805770654
 30
0.0
 40
3.299999999999999
  0
CIRCLE
  5
2F2
330
A
100
AcDbEntity
  8
1
  6
Continuous
 62
     3
100
AcDbCircle
 10
335.213458585513
 20
-70.148057706539
 30
0.0
 40
3.299999999999999
  0
CIRCLE
  5
2F1
330
A
100
AcDbEntity
  8
1
  6
Continuous
 62
     3
100
AcDbCircle
 10
254.213458585513
 20
-70.148057706539
 30
0.0
 40
3.299999999999999
  0
CIRCLE
  5
2F0
330
A
100
AcDbEntity
  8
1
  6
Continuous
 62
     3
100
AcDbCircle
 10
224.565400878973
 20
-40.49999999999999
 30
0.0
 40
3.299999999999999
  0
CIRCLE
  5
2EF
330
A
100
AcDbEntity
  8
1
  6
Continuous
 62
     3
100
AcDbCircle
 10
224.565400878973
 20
40.49999999999999
 30
0.0
 40
3.299999999999999
  0
CIRCLE
  5
2EE
330
A
100
AcDbEntity
  8
1
  6
Continuous
 62
     3
100
AcDbCircle
 10
254.213458585513
 20
70.14805770654
 30
0.0
 40
3.299999999999999
  0
CIRCLE
  5
2ED
330
A
100
AcDbEntity
  8
1
  6
Continuous
 62
     3
100
AcDbCircle
 10
213.713458585513
 20
0.0
 30
0.0
 40
3.299999999999999
  0
CIRCLE
  5
2EC
330
A
100
AcDbEntity
  8
1
  6
Continuous
 62
     3
100
AcDbCircle
 10
375.713458585513
 20
0.0
 30
0.0
 40
3.299999999999999
  0
CIRCLE
  5
2EB
330
A
100
AcDbEntity
  8
1
  6
Continuous
 62
     3
100
AcDbCircle
 10
364.861516292052
 20
40.49999999999999
 30
0.0
 40
3.299999999999999
  0
CIRCLE
  5
2EA
330
A
100
AcDbEntity
  8
1
  6
Continuous
 62
     3
100
AcDbCircle
 10
364.861516292052
 20
-40.49999999999999
 30
0.0
 40
3.299999999999999
  0
CIRCLE
  5
2E9
330
A
100
AcDbEntity
  8
1
  6
Continuous
 62
     3
100
AcDbCircle
 10
237.437809309402
 20
-57.27564927611
 30
0.0
 40
2.399999999999999
  0
CIRCLE
  5
2E8
330
A
100
AcDbEntity
  8
1
  6
Continuous
 62
     3
100
AcDbCircle
 10
237.437809309402
 20
-57.27564927611
 30
0.0
 40
3.0
  0
CIRCLE
  5
2E7
330
A
100
AcDbEntity
  8
1
  6
Continuous
 62
     3
100
AcDbCircle
 10
-100.717509519011
 20
41.569219381652
 30
0.0
 40
2.399999999999999
  0
CIRCLE
  5
2E6
330
A
100
AcDbEntity
  8
1
  6
Continuous
 62
     3
100
AcDbCircle
 10
-100.717509519011
 20
41.569219381652
 30
0.0
 40
3.0
  0
CIRCLE
  5
2E5
330
A
100
AcDbEntity
  8
1
  6
Continuous
 62
     3
100
AcDbCircle
 10
-83.148290137359
 20
-24.0
 30
0.0
 40
2.399999999999999
  0
CIRCLE
  5
2E4
330
A
100
AcDbEntity
  8
1
  6
Continuous
 62
     3
100
AcDbCircle
 10
-83.148290137359
 20
-24.0
 30
0.0
 40
3.0
  0
CIRCLE
  5
2E3
330
A
100
AcDbEntity
  8
1
  6
Continuous
 62
     3
100
AcDbCircle
 10
-148.717509519011
 20
-41.569219381652
 30
0.0
 40
2.399999999999999
  0
CIRCLE
  5
2E2
330
A
100
AcDbEntity
  8
1
  6
Continuous
 62
     3
100
AcDbCircle
 10
-148.717509519011
 20
-41.569219381652
 30
0.0
 40
3.0
  0
CIRCLE
  5
2E1
330
A
100
AcDbEntity
  8
1
  6
Continuous
 62
     3
100
AcDbCircle
 10
-166.286728900665
 20
24.0
 30
0.0
 40
2.399999999999999
  0
CIRCLE
  5
2E0
330
A
100
AcDbEntity
  8
1
  6
Continuous
 62
     3
100
AcDbCircle
 10
-166.286728900665
 20
24.0
 30
0.0
 40
3.0
  0
CIRCLE
  5
2DF
330
A
100
AcDbEntity
  8
1
  6
Continuous
 62
     3
100
AcDbCircle
 10
-83.148290137359
 20
23.999999999999
 30
0.0
 40
3.0
  0
CIRCLE
  5
2DE
330
A
100
AcDbEntity
  8
1
  6
Continuous
 62
     3
100
AcDbCircle
 10
-83.148290137359
 20
23.999999999999
 30
0.0
 40
2.399999999999999
  0
CIRCLE
  5
2DD
330
A
100
AcDbEntity
  8
1
  6
Continuous
 62
     3
100
AcDbCircle
 10
-76.717509519011
 20
0.0
 30
0.0
 40
3.0
  0
CIRCLE
  5
2DC
330
A
100
AcDbEntity
  8
1
  6
Continuous
 62
     3
100
AcDbCircle
 10
-76.717509519011
 20
0.0
 30
0.0
 40
2.399999999999999
  0
CIRCLE
  5
2DB
330
A
100
AcDbEntity
  8
1
  6
Continuous
 62
     3
100
AcDbCircle
 10
-100.717509519012
 20
-41.569219381652
 30
0.0
 40
3.0
  0
CIRCLE
  5
2DA
330
A
100
AcDbEntity
  8
1
  6
Continuous
 62
     3
100
AcDbCircle
 10
-100.717509519012
 20
-41.569219381652
 30
0.0
 40
2.399999999999999
  0
CIRCLE
  5
2D9
330
A
100
AcDbEntity
  8
1
  6
Continuous
 62
     3
100
AcDbCircle
 10
-124.717509519011
 20
-48.0
 30
0.0
 40
3.0
  0
CIRCLE
  5
2D8
330
A
100
AcDbEntity
  8
1
  6
Continuous
 62
     3
100
AcDbCircle
 10
-124.717509519011
 20
-48.0
 30
0.0
 40
2.399999999999999
  0
CIRCLE
  5
2D7
330
A
100
AcDbEntity
  8
1
  6
Continuous
 62
     3
100
AcDbCircle
 10
-166.286728900664
 20
-23.999999999999
 30
0.0
 40
3.0
  0
CIRCLE
  5
2D6
330
A
100
AcDbEntity
  8
1
  6
Continuous
 62
     3
100
AcDbCircle
 10
-166.286728900664
 20
-23.999999999999
 30
0.0
 40
2.399999999999999
  0
CIRCLE
  5
2D5
330
A
100
AcDbEntity
  8
1
  6
Continuous
 62
     3
100
AcDbCircle
 10
-172.717509519011
 20
0.0
 30
0.0
 40
3.0
  0
CIRCLE
  5
2D4
330
A
100
AcDbEntity
  8
1
  6
Continuous
 62
     3
100
AcDbCircle
 10
-172.717509519011
 20
0.0
 30
0.0
 40
2.399999999999999
  0
CIRCLE
  5
2D3
330
A
100
AcDbEntity
  8
1
  6
Continuous
 62
     3
100
AcDbCircle
 10
-148.717509519011
 20
41.56921938165299
 30
0.0
 40
3.0
  0
CIRCLE
  5
2D2
330
A
100
AcDbEntity
  8
1
  6
Continuous
 62
     3
100
AcDbCircle
 10
-148.717509519011
 20
41.56921938165299
 30
0.0
 40
2.399999999999999
  0
CIRCLE
  5
2D1
330
A
100
AcDbEntity
  8
1
  6
Continuous
 62
     3
100
AcDbCircle
 10
-124.717509519011
 20
48.0
 30
0.0
 40
2.399999999999999
  0
CIRCLE
  5
2D0
330
A
100
AcDbEntity
  8
1
  6
Continuous
 62
     3
100
AcDbCircle
 10
-124.717509519011
 20
48.0
 30
0.0
 40
3.0
  0
CIRCLE
  5
2CF
330
A
100
AcDbEntity
  8
1
  6
DASH_CENTER
 62
     3
100
AcDbCircle
 10
-124.717509519011
 20
0.0
 30
0.0
 40
66.0
  0
CIRCLE
  5
2CE
330
A
100
AcDbEntity
  8
1
  6
Continuous
 62
     3
100
AcDbCircle
 10
-124.717509519011
 20
0.0
 30
0.0
 40
54.99999917359001
  0
CIRCLE
  5
2CD
330
A
100
AcDbEntity
  8
1
  6
Continuous
 62
     3
100
AcDbCircle
 10
-112.2941953540899
 20
46.364439661876
 30
0.0
 40
4.0
  0
CIRCLE
  5
2CC
330
A
100
AcDbEntity
  8
1
  6
Continuous
 62
     3
100
AcDbCircle
 10
-124.717509519011
 20
0.0
 30
0.0
 40
74.0
  0
CIRCLE
  5
2CB
330
A
100
AcDbEntity
  8
1
  6
Continuous
 62
     3
100
AcDbCircle
 10
294.713458585513
 20
0.0
 30
0.0
 40
60.999999999925
  0
CIRCLE
  5
2CA
330
A
100
AcDbEntity
  8
1
  6
Continuous
 62
     3
100
AcDbCircle
 10
294.713458585513
 20
0.0
 30
0.0
 40
60.499999999926
  0
CIRCLE
  5
2C9
330
A
100
AcDbEntity
  8
1
  6
Continuous
 62
     3
100
AcDbCircle
 10
248.044411027239
 20
-46.66904755835
 30
0.0
 40
2.75
  0
CIRCLE
  5
2C8
330
A
100
AcDbEntity
  8
1
  6
Continuous
 62
     3
100
AcDbCircle
 10
351.871135235285
 20
-33.0
 30
0.0
 40
2.749999995253
  0
CIRCLE
  5
2C7
330
A
100
AcDbEntity
  8
1
  6
Continuous
 62
     3
100
AcDbCircle
 10
327.713458585513
 20
-57.15767664977299
 30
0.0
 40
2.749999995253
  0
CIRCLE
  5
2C6
330
A
100
AcDbEntity
  8
1
  6
Continuous
 62
     3
100
AcDbCircle
 10
294.713458585513
 20
-66.0
 30
0.0
 40
2.749999995253
  0
CIRCLE
  5
2C5
330
A
100
AcDbEntity
  8
1
  6
Continuous
 62
     3
100
AcDbCircle
 10
261.713458585513
 20
-57.15767664977299
 30
0.0
 40
2.749999995253
  0
CIRCLE
  5
2C4
330
A
100
AcDbEntity
  8
1
  6
Continuous
 62
     3
100
AcDbCircle
 10
237.55578193574
 20
-33.0
 30
0.0
 40
2.749999995253
  0
CIRCLE
  5
2C3
330
A
100
AcDbEntity
  8
1
  6
Continuous
 62
     3
100
AcDbCircle
 10
228.713458585513
 20
0.0
 30
0.0
 40
2.749999995253
  0
CIRCLE
  5
2C2
330
A
100
AcDbEntity
  8
1
  6
Continuous
 62
     3
100
AcDbCircle
 10
237.55578193574
 20
33.0
 30
0.0
 40
2.749999995253
  0
CIRCLE
  5
2C1
330
A
100
AcDbEntity
  8
1
  6
Continuous
 62
     3
100
AcDbCircle
 10
261.713458585513
 20
57.15767664977299
 30
0.0
 40
2.749999995253
  0
CIRCLE
  5
2C0
330
A
100
AcDbEntity
  8
1
  6
Continuous
 62
     3
100
AcDbCircle
 10
294.713458585513
 20
66.0
 30
0.0
 40
2.749999995253
  0
CIRCLE
  5
2BF
330
A
100
AcDbEntity
  8
1
  6
Continuous
 62
     3
100
AcDbCircle
 10
327.713458585513
 20
57.15767664977299
 30
0.0
 40
2.749999995253
  0
CIRCLE
  5
2BE
330
A
100
AcDbEntity
  8
1
  6
Continuous
 62
     3
100
AcDbCircle
 10
351.871135235285
 20
33.0
 30
0.0
 40
2.749999995253
  0
CIRCLE
  5
2BD
330
A
100
AcDbEntity
  8
1
  6
Continuous
 62
     3
100
AcDbCircle
 10
247.94808678115
 20
27.00000000009
 30
0.0
 40
5.0
  0
CIRCLE
  5
2BC
330
A
100
AcDbEntity
  8
1
  6
Continuous
 62
     3
100
AcDbCircle
 10
321.713458585602
 20
46.765371804362
 30
0.0
 40
5.0
  0
CIRCLE
  5
2BB
330
A
100
AcDbEntity
  8
1
  6
Continuous
 62
     3
100
AcDbCircle
 10
341.478830389874
 20
-27.00000000009
 30
0.0
 40
5.0
  0
CIRCLE
  5
2BA
330
A
100
AcDbEntity
  8
1
  6
Continuous
 62
     3
100
AcDbCircle
 10
294.713458585513
 20
0.0
 30
0.0
 40
73.0
  0
CIRCLE
  5
2B9
330
A
100
AcDbEntity
  8
1
  6
DASH_CENTER
 62
     3
100
AcDbCircle
 10
294.713458585513
 20
0.0
 30
0.0
 40
66.0
  0
CIRCLE
  5
2B8
330
A
100
AcDbEntity
  8
____
  6
Continuous
 62
     3
100
AcDbCircle
 10
294.713458585513
 20
0.0
 30
0.0
 40
22.25
  0
CIRCLE
  5
2B7
330
A
100
AcDbEntity
  8
____
  6
Continuous
 62
     3
100
AcDbCircle
 10
294.713458585513
 20
0.0
 30
0.0
 40
19.5
  0
CIRCLE
  5
2B6
330
A
100
AcDbEntity
  8
____
  6
Continuous
 62
     3
100
AcDbCircle
 10
294.713458585513
 20
0.0
 30
0.0
 40
19.0
  0
CIRCLE
  5
2B5
330
A
100
AcDbEntity
  8
____
  6
Continuous
 62
     3
100
AcDbCircle
 10
294.713458585513
 20
0.0
 30
0.0
 40
17.5
  0
CIRCLE
  5
2B4
330
A
100
AcDbEntity
  8
1
  6
Continuous
 62
     3
100
AcDbCircle
 10
281.772506337138
 20
48.29629131234
 30
0.0
 40
4.0
  0
CIRCLE
  5
2B3
330
A
100
AcDbEntity
  8
1
  6
Continuous
 62
     3
100
AcDbCircle
 10
307.654410840157
 20
48.29629131847
 30
0.0
 40
4.0
  0
CIRCLE
  5
2B2
330
A
100
AcDbEntity
  8
1
  6
Continuous
 62
     3
100
AcDbCircle
 10
360.713458585512
 20
0.0
 30
0.0
 40
2.749999995253
  0
CIRCLE
  5
2B1
330
A
100
AcDbEntity
  8
1
  6
Continuous
 62
     3
100
AcDbCircle
 10
267.7134585854219
 20
-46.765371804362
 30
0.0
 40
5.0
  0
CIRCLE
  5
2B0
330
A
100
AcDbEntity
  8
1
  6
Continuous
 62
     3
100
AcDbCircle
 10
341.478830389874
 20
-27.00000000009
 30
0.0
 40
2.75
  0
CIRCLE
  5
2AF
330
A
100
AcDbEntity
  8
1
  6
Continuous
 62
     3
100
AcDbCircle
 10
341.478830389874
 20
-27.00000000009
 30
0.0
 40
1.5
  0
CIRCLE
  5
2AE
330
A
100
AcDbEntity
  8
1
  6
Continuous
 62
     3
100
AcDbCircle
 10
277.631401594012
 20
-63.75110452173199
 30
0.0
 40
2.98038475773
  0
CIRCLE
  5
2AD
330
A
100
AcDbEntity
  8
1
  6
Continuous
 62
     3
100
AcDbCircle
 10
277.631401594012
 20
-63.75110452173199
 30
0.0
 40
3.5
  0
CIRCLE
  5
2AC
330
A
100
AcDbEntity
  8
1
  6
Continuous
 62
     3
100
AcDbCircle
 10
230.96235406378
 20
17.0820569915
 30
0.0
 40
2.980384757729
  0
CIRCLE
  5
2AB
330
A
100
AcDbEntity
  8
1
  6
Continuous
 62
     3
100
AcDbCircle
 10
230.96235406378
 20
17.0820569915
 30
0.0
 40
3.5
  0
CIRCLE
  5
2AA
330
A
100
AcDbEntity
  8
1
  6
Continuous
 62
     3
100
AcDbCircle
 10
311.795515577012
 20
63.75110452173199
 30
0.0
 40
2.98038475773
  0
CIRCLE
  5
2A9
330
A
100
AcDbEntity
  8
1
  6
Continuous
 62
     3
100
AcDbCircle
 10
311.795515577012
 20
63.75110452173199
 30
0.0
 40
3.5
  0
CIRCLE
  5
2A8
330
A
100
AcDbEntity
  8
1
  6
Continuous
 62
     3
100
AcDbCircle
 10
358.4645631072441
 20
-17.0820569915
 30
0.0
 40
3.5
  0
CIRCLE
  5
2A7
330
A
100
AcDbEntity
  8
1
  6
Continuous
 62
     3
100
AcDbCircle
 10
358.4645631072441
 20
-17.0820569915
 30
0.0
 40
2.980384757729
  0
CIRCLE
  5
2A6
330
A
100
AcDbEntity
  8
1
  6
Continuous
 62
     3
100
AcDbCircle
 10
267.7134585854219
 20
-46.765371804362
 30
0.0
 40
2.75
  0
CIRCLE
  5
2A5
330
A
100
AcDbEntity
  8
1
  6
Continuous
 62
     3
100
AcDbCircle
 10
267.7134585854219
 20
-46.765371804362
 30
0.0
 40
1.5
  0
CIRCLE
  5
2A4
330
A
100
AcDbEntity
  8
1
  6
Continuous
 62
     3
100
AcDbCircle
 10
247.94808678115
 20
27.00000000009
 30
0.0
 40
2.75
  0
CIRCLE
  5
2A3
330
A
100
AcDbEntity
  8
1
  6
Continuous
 62
     3
100
AcDbCircle
 10
247.94808678115
 20
27.00000000009
 30
0.0
 40
1.5
  0
CIRCLE
  5
2A2
330
A
100
AcDbEntity
  8
1
  6
Continuous
 62
     3
100
AcDbCircle
 10
321.713458585602
 20
46.765371804362
 30
0.0
 40
1.5
  0
CIRCLE
  5
2A1
330
A
100
AcDbEntity
  8
1
  6
Continuous
 62
     3
100
AcDbCircle
 10
321.713458585602
 20
46.765371804362
 30
0.0
 40
2.75
  0
CIRCLE
  5
2A0
330
A
100
AcDbEntity
  8
1
  6
Continuous
 62
     3
100
AcDbCircle
 10
-91.71750951901101
 20
57.15767664977299
 30
0.0
 40
4.25
  0
CIRCLE
  5
29F
330
A
100
AcDbEntity
  8
1
  6
Continuous
 62
     3
100
AcDbCircle
 10
-91.71750951901101
 20
57.15767664977299
 30
0.0
 40
3.730384757728999
  0
CIRCLE
  5
29E
330
A
100
AcDbEntity
  8
1
  6
Continuous
 62
     3
100
AcDbCircle
 10
-67.559832869238
 20
33.0
 30
0.0
 40
3.730384757728999
  0
CIRCLE
  5
29D
330
A
100
AcDbEntity
  8
1
  6
Continuous
 62
     3
100
AcDbCircle
 10
-67.559832869238
 20
33.0
 30
0.0
 40
4.25
  0
CIRCLE
  5
29C
330
A
100
AcDbEntity
  8
1
  6
Continuous
 62
     3
100
AcDbCircle
 10
-58.717509519011
 20
0.0
 30
0.0
 40
4.25
  0
CIRCLE
  5
29B
330
A
100
AcDbEntity
  8
1
  6
Continuous
 62
     3
100
AcDbCircle
 10
-58.717509519011
 20
0.0
 30
0.0
 40
3.73038475773
  0
CIRCLE
  5
29A
330
A
100
AcDbEntity
  8
1
  6
Continuous
 62
     3
100
AcDbCircle
 10
-67.559832869239
 20
-33.0
 30
0.0
 40
3.73038475773
  0
CIRCLE
  5
299
330
A
100
AcDbEntity
  8
1
  6
Continuous
 62
     3
100
AcDbCircle
 10
-67.559832869239
 20
-33.0
 30
0.0
 40
4.25
  0
CIRCLE
  5
298
330
A
100
AcDbEntity
  8
1
  6
Continuous
 62
     3
100
AcDbCircle
 10
-91.717509519012
 20
-57.15767664977299
 30
0.0
 40
4.25
  0
CIRCLE
  5
297
330
A
100
AcDbEntity
  8
1
  6
Continuous
 62
     3
100
AcDbCircle
 10
-91.717509519012
 20
-57.15767664977299
 30
0.0
 40
3.730384757728999
  0
CIRCLE
  5
296
330
A
100
AcDbEntity
  8
1
  6
Continuous
 62
     3
100
AcDbCircle
 10
-124.717509519012
 20
-66.0
 30
0.0
 40
3.730384757728999
  0
CIRCLE
  5
295
330
A
100
AcDbEntity
  8
1
  6
Continuous
 62
     3
100
AcDbCircle
 10
-124.717509519012
 20
-66.0
 30
0.0
 40
4.25
  0
CIRCLE
  5
294
330
A
100
AcDbEntity
  8
1
  6
Continuous
 62
     3
100
AcDbCircle
 10
-157.717509519011
 20
-57.15767664977299
 30
0.0
 40
4.25
  0
CIRCLE
  5
293
330
A
100
AcDbEntity
  8
1
  6
Continuous
 62
     3
100
AcDbCircle
 10
-157.717509519011
 20
-57.15767664977299
 30
0.0
 40
3.730384757728999
  0
CIRCLE
  5
292
330
A
100
AcDbEntity
  8
1
  6
Continuous
 62
     3
100
AcDbCircle
 10
-181.875186168785
 20
-33.0
 30
0.0
 40
3.730384757728999
  0
CIRCLE
  5
291
330
A
100
AcDbEntity
  8
1
  6
Continuous
 62
     3
100
AcDbCircle
 10
-181.875186168785
 20
-33.0
 30
0.0
 40
4.25
  0
CIRCLE
  5
290
330
A
100
AcDbEntity
  8
1
  6
Continuous
 62
     3
100
AcDbCircle
 10
-190.717509519011
 20
0.0
 30
0.0
 40
4.25
  0
CIRCLE
  5
28F
330
A
100
AcDbEntity
  8
1
  6
Continuous
 62
     3
100
AcDbCircle
 10
-190.717509519011
 20
0.0
 30
0.0
 40
3.730384757728999
  0
CIRCLE
  5
28E
330
A
100
AcDbEntity
  8
1
  6
Continuous
 62
     3
100
AcDbCircle
 10
-181.875186168784
 20
33.0
 30
0.0
 40
3.730384757728999
  0
CIRCLE
  5
28D
330
A
100
AcDbEntity
  8
1
  6
Continuous
 62
     3
100
AcDbCircle
 10
-181.875186168784
 20
33.0
 30
0.0
 40
4.25
  0
CIRCLE
  5
28C
330
A
100
AcDbEntity
  8
1
  6
Continuous
 62
     3
100
AcDbCircle
 10
-157.717509519011
 20
57.15767664977299
 30
0.0
 40
4.25
  0
CIRCLE
  5
28B
330
A
100
AcDbEntity
  8
1
  6
Continuous
 62
     3
100
AcDbCircle
 10
-157.717509519011
 20
57.15767664977299
 30
0.0
 40
3.730384757728999
  0
CIRCLE
  5
28A
330
A
100
AcDbEntity
  8
1
  6
Continuous
 62
     3
100
AcDbCircle
 10
-124.717509519011
 20
66.0
 30
0.0
 40
3.730384757728999
  0
CIRCLE
  5
289
330
A
100
AcDbEntity
  8
1
  6
Continuous
 62
     3
100
AcDbCircle
 10
-124.717509519011
 20
66.0
 30
0.0
 40
4.25
  0
CIRCLE
  5
288
330
A
100
AcDbEntity
  8
1
  6
DASH_CENTER
 62
     3
100
AcDbCircle
 10
-124.717509519011
 20
0.0
 30
0.0
 40
48.0
  0
CIRCLE
  5
287
330
A
100
AcDbEntity
  8
1
  6
Continuous
 62
     3
100
AcDbCircle
 10
-112.2941953540899
 20
46.364439661876
 30
0.0
 40
3.0
  0
ARC
  5
286
330
A
100
AcDbEntity
  8
1
  6
DASH_CENTER
 62
     3
100
AcDbCircle
 10
-124.717509519011
 20
0.0
 30
0.0
 40
46.0
100
AcDbArc
 50
3.302566679570999
 51
26.697433320429
  0
ARC
  5
285
330
A
100
AcDbEntity
  8
1
  6
DASH_CENTER
 62
     3
100
AcDbCircle
 10
-124.717509519011
 20
0.0
 30
0.0
 40
46.0
100
AcDbArc
 50
-116.697433320429
 51
-93.30256667957099
  0
ARC
  5
284
330
A
100
AcDbEntity
  8
1
  6
DASH_CENTER
 62
     3
100
AcDbCircle
 10
-124.717509519011
 20
0.0
 30
0.0
 40
46.0
100
AcDbArc
 50
123.302566679571
 51
146.697433320429
  0
ARC
  5
283
330
A
100
AcDbEntity
  8
1
  6
Continuous
 62
     3
100
AcDbCircle
 10
141.01515190566
 20
-46.765371804363
 30
0.0
 40
2.859805438166999
100
AcDbArc
 50
-74.071282878764
 51
-68.576462221149
  0
ARC
  5
282
330
A
100
AcDbEntity
  8
1
  6
Continuous
 62
     3
100
AcDbCircle
 10
154.16666706352
 20
138.499999999993
 30
0.0
 40
3.333333333353
100
AcDbArc
 50
143.130102353428
 51
-143.130102354151
  0
ARC
  5
281
330
A
100
AcDbEntity
  8
1
  6
Continuous
 62
     3
100
AcDbCircle
 10
154.16666706352
 20
134.500000000007
 30
0.0
 40
3.333333333321999
100
AcDbArc
 50
143.13010235415
 51
-143.130102353427
  0
ARC
  5
280
330
A
100
AcDbEntity
  8
1
  6
Continuous
 62
     3
100
AcDbCircle
 10
148.833333730146
 20
134.500000000007
 30
0.0
 40
3.333333333354
100
AcDbArc
 50
-36.869897646572
 51
36.869897645849
  0
ARC
  5
27F
330
A
100
AcDbEntity
  8
1
  6
Continuous
 62
     3
100
AcDbCircle
 10
151.166667063579
 20
138.499999999993
 30
0.0
 40
3.333333333354
100
AcDbArc
 50
143.13010235343
 51
-143.130102354153
  0
ARC
  5
27E
330
A
100
AcDbEntity
  8
1
  6
Continuous
 62
     3
100
AcDbCircle
 10
145.833333730205
 20
134.500000000007
 30
0.0
 40
3.333333333353
100
AcDbArc
 50
-36.869897646573
 51
36.86989764585
  0
ARC
  5
27D
330
A
100
AcDbEntity
  8
1
  6
Continuous
 62
     3
100
AcDbCircle
 10
145.833333730205
 20
138.499999999993
 30
0.0
 40
3.333333333321999
100
AcDbArc
 50
-36.86989764584601
 51
36.86989764657
  0
ARC
  5
27C
330
A
100
AcDbEntity
  8
1
  6
Continuous
 62
     3
100
AcDbCircle
 10
145.833333730205
 20
200.499999999993
 30
0.0
 40
3.333333333321999
100
AcDbArc
 50
-36.869897645845
 51
36.869897646568
  0
ARC
  5
27B
330
A
100
AcDbEntity
  8
1
  6
Continuous
 62
     3
100
AcDbCircle
 10
145.833333730205
 20
196.500000000006
 30
0.0
 40
3.333333333354
100
AcDbArc
 50
-36.869897646577
 51
36.86989764585
  0
ARC
  5
27A
330
A
100
AcDbEntity
  8
1
  6
Continuous
 62
     3
100
AcDbCircle
 10
151.166667063579
 20
200.499999999993
 30
0.0
 40
3.333333333353
100
AcDbArc
 50
143.130102353432
 51
-143.130102354155
  0
ARC
  5
279
330
A
100
AcDbEntity
  8
1
  6
Continuous
 62
     3
100
AcDbCircle
 10
148.833333730146
 20
196.500000000006
 30
0.0
 40
3.333333333354
100
AcDbArc
 50
-36.869897646576
 51
36.869897645849
  0
ARC
  5
278
330
A
100
AcDbEntity
  8
1
  6
Continuous
 62
     3
100
AcDbCircle
 10
154.16666706352
 20
196.500000000006
 30
0.0
 40
3.333333333321999
100
AcDbArc
 50
143.13010235415
 51
-143.130102353422
  0
ARC
  5
277
330
A
100
AcDbEntity
  8
1
  6
Continuous
 62
     3
100
AcDbCircle
 10
154.16666706352
 20
200.499999999993
 30
0.0
 40
3.333333333353
100
AcDbArc
 50
143.130102353429
 51
-143.130102354153
  0
ARC
  5
276
330
A
100
AcDbEntity
  8
1
  6
Continuous
 62
     3
100
AcDbCircle
 10
150.737591670385
 20
50.0
 30
0.0
 40
5.826057460893
100
AcDbArc
 50
-25.410879263473
 51
25.410879263469
  0
ARC
  5
275
330
A
100
AcDbEntity
  8
1
  6
Continuous
 62
     3
100
AcDbCircle
 10
154.773793360275
 20
44.85
 30
0.0
 40
1.823755378605
100
AcDbArc
 50
-47.751084436848
 51
47.751084436855
  0
ARC
  5
274
330
A
100
AcDbEntity
  8
1
  6
Continuous
 62
     3
100
AcDbCircle
 10
154.773793360275
 20
55.15
 30
0.0
 40
1.823755378605999
100
AcDbArc
 50
-47.751084436832
 51
47.75108443684399
  0
ARC
  5
273
330
A
100
AcDbEntity
  8
1
  6
Continuous
 62
     3
100
AcDbCircle
 10
73.900000390509
 20
61.4
 30
0.0
 40
0.4
100
AcDbArc
 50
180.0
 51
-90.0
  0
ARC
  5
272
330
A
100
AcDbEntity
  8
1
  6
DASH_CENTER
 62
     3
100
AcDbCircle
 10
294.713458585513
 20
0.0
 30
0.0
 40
54.00000000004699
100
AcDbArc
 50
-37.432440783172
 51
-22.567559216991
  0
ARC
  5
271
330
A
100
AcDbEntity
  8
1
  6
DASH_CENTER
 62
     3
100
AcDbCircle
 10
294.713458585513
 20
0.0
 30
0.0
 40
54.00000000004699
100
AcDbArc
 50
52.567559216828
 51
67.432440783009
  0
ARC
  5
270
330
A
100
AcDbEntity
  8
1
  6
DASH_CENTER
 62
     3
100
AcDbCircle
 10
294.713458585513
 20
0.0
 30
0.0
 40
54.00000000004699
100
AcDbArc
 50
142.567559216828
 51
157.432440783009
  0
ARC
  5
26F
330
A
100
AcDbEntity
  8
1
  6
DASH_CENTER
 62
     3
100
AcDbCircle
 10
294.713458585513
 20
0.0
 30
0.0
 40
54.00000000004699
100
AcDbArc
 50
-127.432440783172
 51
-112.56755921699
  0
ARC
  5
26E
330
A
100
AcDbEntity
  8
1
  6
Continuous
 62
     3
100
AcDbCircle
 10
247.47885500973
 20
35.353814858245
 30
0.0
 40
1.5
100
AcDbArc
 50
143.186145655817
 51
-120.000000000002
  0
ARC
  5
26D
330
A
100
AcDbEntity
  8
1
  6
Continuous
 62
     3
100
AcDbCircle
 10
240.47885500973
 20
23.229459205263
 30
0.0
 40
1.5
100
AcDbArc
 50
59.99999999999699
 51
156.813854344185
  0
ARC
  5
26C
330
A
100
AcDbEntity
  8
1
  6
Continuous
 62
     3
100
AcDbCircle
 10
247.94808678115
 20
27.00000000009
 30
0.0
 40
5.500000000035999
100
AcDbArc
 50
-119.999999998778
 51
59.999999998778
  0
ARC
  5
26B
330
A
100
AcDbEntity
  8
1
  6
Continuous
 62
     3
100
AcDbCircle
 10
259.359643727268
 20
-47.234603575782
 30
0.0
 40
1.5
100
AcDbArc
 50
-126.81385434418
 51
-30.0
  0
ARC
  5
26A
330
A
100
AcDbEntity
  8
1
  6
Continuous
 62
     3
100
AcDbCircle
 10
271.48399938025
 20
-54.234603575782
 30
0.0
 40
1.5
100
AcDbArc
 50
150.0
 51
-113.186145655823
  0
ARC
  5
269
330
A
100
AcDbEntity
  8
1
  6
Continuous
 62
     3
100
AcDbCircle
 10
341.948062161294
 20
-35.353814858245
 30
0.0
 40
1.5
100
AcDbArc
 50
-36.81385434417999
 51
60.00000000000301
  0
ARC
  5
268
330
A
100
AcDbEntity
  8
1
  6
Continuous
 62
     3
100
AcDbCircle
 10
348.9480621612941
 20
-23.229459205262
 30
0.0
 40
1.5
100
AcDbArc
 50
-119.999999999997
 51
-23.186145655823
  0
ARC
  5
267
330
A
100
AcDbEntity
  8
1
  6
Continuous
 62
     3
100
AcDbCircle
 10
330.067273443757
 20
47.234603575782
 30
0.0
 40
1.5
100
AcDbArc
 50
53.186145655825
 51
150.0
  0
ARC
  5
266
330
A
100
AcDbEntity
  8
1
  6
Continuous
 62
     3
100
AcDbCircle
 10
330.067273443757
 20
47.234603575782
 30
0.0
 40
1.5
100
AcDbArc
 50
53.186145655825
 51
150.0
  0
ARC
  5
265
330
A
100
AcDbEntity
  8
1
  6
Continuous
 62
     3
100
AcDbCircle
 10
330.067273443757
 20
47.234603575782
 30
0.0
 40
1.5
100
AcDbArc
 50
53.186145655825
 51
150.0
  0
ARC
  5
264
330
A
100
AcDbEntity
  8
1
  6
Continuous
 62
     3
100
AcDbCircle
 10
317.942917790775
 20
54.234603575782
 30
0.0
 40
1.5
100
AcDbArc
 50
-30.000000000002
 51
66.81385434417901
  0
ARC
  5
263
330
A
100
AcDbEntity
  8
1
  6
Continuous
 62
     3
100
AcDbCircle
 10
267.7134585854219
 20
-46.765371804362
 30
0.0
 40
5.500000000035999
100
AcDbArc
 50
-29.999999998776
 51
150.000000000002
  0
ARC
  5
262
330
A
100
AcDbEntity
  8
1
  6
Continuous
 62
     3
100
AcDbCircle
 10
341.478830389874
 20
-27.00000000009
 30
0.0
 40
5.500000000035999
100
AcDbArc
 50
60.00000000122299
 51
-120.000000001221
  0
ARC
  5
261
330
A
100
AcDbEntity
  8
1
  6
Continuous
 62
     3
100
AcDbCircle
 10
321.713458585602
 20
46.765371804362
 30
0.0
 40
5.500000000035999
100
AcDbArc
 50
150.00000000122
 51
-30.00000000122
  0
ARC
  5
260
330
A
100
AcDbEntity
  8
1
  6
Continuous
 62
     3
100
AcDbCircle
 10
234.408441661301
 20
18.229232945207
 30
0.0
 40
2.0
100
AcDbArc
 50
-16.819219294027
 51
74.99999999998201
  0
ARC
  5
25F
330
A
100
AcDbEntity
  8
1
  6
Continuous
 62
     3
100
AcDbCircle
 10
233.373165480891
 20
14.365529640052
 30
0.0
 40
2.000000000001
100
AcDbArc
 50
-105.000000000019
 51
-13.180780705972
  0
ARC
  5
25E
330
A
100
AcDbEntity
  8
1
  6
Continuous
 62
     3
100
AcDbCircle
 10
230.96235406378
 20
17.0820569915
 30
0.0
 40
4.0
100
AcDbArc
 50
73.263498538568
 51
-103.263498569274
  0
ARC
  5
25D
330
A
100
AcDbEntity
  8
1
  6
Continuous
 62
     3
100
AcDbCircle
 10
276.484225640305
 20
-60.305016924211
 30
0.0
 40
2.0
100
AcDbArc
 50
73.180780705976
 51
164.999999999978
  0
ARC
  5
25C
330
A
100
AcDbEntity
  8
1
  6
Continuous
 62
     3
100
AcDbCircle
 10
280.347928945461
 20
-61.340293104621
 30
0.0
 40
2.000000000001
100
AcDbArc
 50
-15.000000000021
 51
76.819219294033
  0
ARC
  5
25B
330
A
100
AcDbEntity
  8
1
  6
Continuous
 62
     3
100
AcDbCircle
 10
355.018475509723
 20
-18.229232945207
 30
0.0
 40
2.0
100
AcDbArc
 50
163.180780705969
 51
-105.000000000019
  0
ARC
  5
25A
330
A
100
AcDbEntity
  8
1
  6
Continuous
 62
     3
100
AcDbCircle
 10
356.053751690133
 20
-14.365529640051
 30
0.0
 40
2.000000000001
100
AcDbArc
 50
74.999999999979
 51
166.819219294031
  0
ARC
  5
259
330
A
100
AcDbEntity
  8
1
  6
Continuous
 62
     3
100
AcDbCircle
 10
309.078988225564
 20
61.340293104621
 30
0.0
 40
2.000000000001
100
AcDbArc
 50
164.999999999978
 51
-103.180780705969
  0
ARC
  5
258
330
A
100
AcDbEntity
  8
1
  6
Continuous
 62
     3
100
AcDbCircle
 10
312.94269153072
 20
60.305016924211
 30
0.0
 40
2.0
100
AcDbArc
 50
-106.819219294028
 51
-15.000000000019
  0
ARC
  5
257
330
A
100
AcDbEntity
  8
1
  6
Continuous
 62
     3
100
AcDbCircle
 10
277.631401594012
 20
-63.75110452173199
 30
0.0
 40
4.0
100
AcDbArc
 50
163.263498538573
 51
-13.263498569279
  0
ARC
  5
256
330
A
100
AcDbEntity
  8
1
  6
Continuous
 62
     3
100
AcDbCircle
 10
358.4645631072441
 20
-17.0820569915
 30
0.0
 40
4.0
100
AcDbArc
 50
-106.736501461432
 51
76.73650143072499
  0
ARC
  5
255
330
A
100
AcDbEntity
  8
1
  6
Continuous
 62
     3
100
AcDbCircle
 10
311.795515577012
 20
63.75110452173199
 30
0.0
 40
4.0
100
AcDbArc
 50
-16.736501461427
 51
166.736501430721
  0
ARC
  5
254
330
A
100
AcDbEntity
  8
1
  6
DASH_CENTER
 62
     3
100
AcDbCircle
 10
294.713458585513
 20
0.0
 30
0.0
 40
50.0
100
AcDbArc
 50
65.527613105046
 51
130.634097875859
  0
ARC
  5
253
330
A
100
AcDbEntity
  8
1
  6
Continuous
 62
     3
100
AcDbCircle
 10
141.01515190566
 20
26.999999966764
 30
0.0
 40
2.859805438166
100
AcDbArc
 50
31.635343725215
 51
74.071282878764
  0
LINE
  5
252
330
A
100
AcDbEntity
  8
1
  6
DASH_CENTER
 62
     3
100
AcDbLine
 10
-217.970469089524
 20
0.0
 30
0.0
 11
-31.21750951901101
 21
0.0
 31
0.0
  0
LINE
  5
251
330
A
100
AcDbEntity
  8
1
  6
Continuous
 62
     3
100
AcDbLine
 10
34.000000390508
 20
87.000000000001
 30
0.0
 11
34.000000390508
 21
-87.0
 31
0.0
  0
LINE
  5
250
330
A
100
AcDbEntity
  8
1
  6
DASH_CENTER
 62
     3
100
AcDbLine
 10
-139.049614141563
 20
-53.48814263075699
 30
0.0
 11
-134.196757045891
 21
-35.377033387837
 31
0.0
  0
LINE
  5
24F
330
A
100
AcDbEntity
  8
1
  6
DASH_CENTER
 62
     3
100
AcDbLine
 10
-71.22936688825401
 20
14.332104622553
 30
0.0
 11
-89.34047613117398
 21
9.47924752688
 31
0.0
  0
LINE
  5
24E
330
A
100
AcDbEntity
  8
1
  6
DASH_CENTER
 62
     3
100
AcDbLine
 10
-163.873547527217
 20
39.156038008205
 30
0.0
 11
-150.615295379969
 21
25.897785860958
 31
0.0
  0
LINE
  5
24D
330
A
100
AcDbEntity
  8
1
  6
Continuous
 62
     3
100
AcDbLine
 10
-105.087600366564
 20
2.0
 30
0.0
 11
-113.170504135218
 21
16.0
 31
0.0
  0
LINE
  5
24C
330
A
100
AcDbEntity
  8
1
  6
Continuous
 62
     3
100
AcDbLine
 10
-113.170504135218
 20
-16.0
 30
0.0
 11
-105.087600366564
 21
-2.0
 31
0.0
  0
LINE
  5
24B
330
A
100
AcDbEntity
  8
1
  6
Continuous
 62
     3
100
AcDbLine
 10
-132.800413287666
 20
-18.0
 30
0.0
 11
-116.634605750356
 21
-18.0
 31
0.0
  0
LINE
  5
24A
330
A
100
AcDbEntity
  8
1
  6
Continuous
 62
     3
100
AcDbLine
 10
-144.347418671459
 20
-2.0
 30
0.0
 11
-136.264514902804
 21
-16.0
 31
0.0
  0
LINE
  5
249
330
A
100
AcDbEntity
  8
1
  6
Continuous
 62
     3
100
AcDbLine
 10
-136.264514902804
 20
16.0
 30
0.0
 11
-144.347418671459
 21
2.0
 31
0.0
  0
LINE
  5
248
330
A
100
AcDbEntity
  8
1
  6
Continuous
 62
     3
100
AcDbLine
 10
-116.634605750356
 20
18.0
 30
0.0
 11
-132.800413287666
 21
18.0
 31
0.0
  0
LINE
  5
247
330
A
100
AcDbEntity
  8
1
  6
Continuous
 62
     3
100
AcDbLine
 10
58.700000390513
 20
-74.0
 30
0.0
 11
59.000000390513
 21
-73.7
 31
0.0
  0
LINE
  5
246
330
A
100
AcDbEntity
  8
1
  6
Continuous
 62
     3
100
AcDbLine
 10
29.000000390508
 20
-73.7
 30
0.0
 11
29.300000390508
 21
-74.0
 31
0.0
  0
LINE
  5
245
330
A
100
AcDbEntity
  8
1
  6
Continuous
 62
     3
100
AcDbLine
 10
59.000000390513
 20
73.7
 30
0.0
 11
58.700000390513
 21
74.0
 31
0.0
  0
LINE
  5
244
330
A
100
AcDbEntity
  8
1
  6
Continuous
 62
     3
100
AcDbLine
 10
29.300000390508
 20
74.00000000000099
 30
0.0
 11
29.000000390508
 21
73.700000000001
 31
0.0
  0
LINE
  5
243
330
A
100
AcDbEntity
  8
1
  6
Continuous
 62
     3
100
AcDbLine
 10
54.000000390513
 20
-87.0
 30
0.0
 11
53.500000390513
 21
-87.5
 31
0.0
  0
LINE
  5
242
330
A
100
AcDbEntity
  8
1
  6
Continuous
 62
     3
100
AcDbLine
 10
34.000000390508
 20
-87.0
 30
0.0
 11
34.500000390508
 21
-87.5
 31
0.0
  0
LINE
  5
241
330
A
100
AcDbEntity
  8
1
  6
Continuous
 62
     3
100
AcDbLine
 10
34.500000390508
 20
87.50000000000099
 30
0.0
 11
34.000000390508
 21
87.000000000001
 31
0.0
  0
LINE
  5
240
330
A
100
AcDbEntity
  8
1
  6
Continuous
 62
     3
100
AcDbLine
 10
53.500000390513
 20
87.50000000000099
 30
0.0
 11
54.000000390513
 21
87.000000000001
 31
0.0
  0
LINE
  5
23F
330
A
100
AcDbEntity
  8
1
  6
DASHED
 62
     3
100
AcDbLine
 10
3.5
 20
-37.499999999994
 30
0.0
 11
3.5
 21
-22.499999999912
 31
0.0
  0
LINE
  5
23E
330
A
100
AcDbEntity
  8
1
  6
DASHED
 62
     3
100
AcDbLine
 10
0.5
 20
-37.499999999994
 30
0.0
 11
3.5
 21
-37.499999999994
 31
0.0
  0
LINE
  5
23D
330
A
100
AcDbEntity
  8
1
  6
DASHED
 62
     3
100
AcDbLine
 10
3.5
 20
-22.499999999912
 30
0.0
 11
9.500000565365999
 21
-22.499999999912
 31
0.0
  0
LINE
  5
23C
330
A
100
AcDbEntity
  8
1
  6
DASHED
 62
     3
100
AcDbLine
 10
9.500000565365999
 20
-17.999999999913
 30
0.0
 11
9.500000565365999
 21
-22.499999999912
 31
0.0
  0
LINE
  5
23B
330
A
100
AcDbEntity
  8
1
  6
DASHED
 62
     3
100
AcDbLine
 10
16.50000052026
 20
-17.999999999913
 30
0.0
 11
9.500000565365999
 21
-17.999999999913
 31
0.0
  0
LINE
  5
23A
330
A
100
AcDbEntity
  8
1
  6
DASHED
 62
     3
100
AcDbLine
 10
16.50000052026
 20
-18.654700538379
 30
0.0
 11
16.50000052026
 21
-17.999999999913
 31
0.0
  0
LINE
  5
239
330
A
100
AcDbEntity
  8
1
  6
DASHED
 62
     3
100
AcDbLine
 10
18.50000052026
 20
-17.5
 30
0.0
 11
16.50000052026
 21
-18.654700538379
 31
0.0
  0
LINE
  5
238
330
A
100
AcDbEntity
  8
1
  6
Continuous
 62
     3
100
AcDbLine
 10
18.50000052026
 20
0.0
 30
0.0
 11
18.50000052026
 21
12.706748013118
 31
0.0
  0
LINE
  5
237
330
A
100
AcDbEntity
  8
1
  6
Continuous
 62
     3
100
AcDbLine
 10
16.50000052026
 20
0.0
 30
0.0
 11
16.50000052026
 21
17.999999999913
 31
0.0
  0
LINE
  5
236
330
A
100
AcDbEntity
  8
1
  6
Continuous
 62
     3
100
AcDbLine
 10
9.500000565365999
 20
22.499999999912
 30
0.0
 11
9.500000565365999
 21
0.0
 31
0.0
  0
LINE
  5
235
330
A
100
AcDbEntity
  8
________
  6
DASH_CENTER
 62
     3
100
AcDbLine
 10
149.000000390508
 20
0.0
 30
0.0
 11
-7.000000129772
 21
0.0
 31
0.0
  0
LINE
  5
234
330
A
100
AcDbEntity
  8
1
  6
Continuous
 62
     3
100
AcDbLine
 10
3.5
 20
37.499999999994
 30
0.0
 11
3.5
 21
0.0
 31
0.0
  0
LINE
  5
233
330
A
100
AcDbEntity
  8
1
  6
Continuous
 62
     3
100
AcDbLine
 10
10.500000565367
 20
0.0
 30
0.0
 11
10.500000565367
 21
-71.0
 31
0.0
  0
LINE
  5
232
330
A
100
AcDbEntity
  8
1
  6
Continuous
 62
     3
100
AcDbLine
 10
0.0
 20
54.499999173592
 30
0.0
 11
0.0
 21
-54.499999173591
 31
0.0
  0
LINE
  5
231
330
A
100
AcDbEntity
  8
1
  6
Continuous
 62
     3
100
AcDbLine
 10
10.500000565366
 20
71.0
 30
0.0
 11
10.500000565366
 21
33.128927578663
 31
0.0
  0
LINE
  5
230
330
A
100
AcDbEntity
  8
1
  6
DASHED
 62
     3
100
AcDbLine
 10
16.50000052026
 20
18.65470053838
 30
0.0
 11
18.50000052026
 21
17.5
 31
0.0
  0
LINE
  5
22F
330
A
100
AcDbEntity
  8
1
  6
DASHED
 62
     3
100
AcDbLine
 10
16.50000052026
 20
17.999999999913
 30
0.0
 11
16.50000052026
 21
18.65470053838
 31
0.0
  0
LINE
  5
22E
330
A
100
AcDbEntity
  8
1
  6
Continuous
 62
     3
100
AcDbLine
 10
9.500000565365999
 20
17.999999999913
 30
0.0
 11
16.50000052026
 21
17.999999999913
 31
0.0
  0
LINE
  5
22D
330
A
100
AcDbEntity
  8
1
  6
Continuous
 62
     3
100
AcDbLine
 10
9.500000565365999
 20
22.499999999912
 30
0.0
 11
3.5
 21
22.499999999912
 31
0.0
  0
LINE
  5
22C
330
A
100
AcDbEntity
  8
1
  6
DASH_CENTER
 62
     3
100
AcDbLine
 10
-110.93361338992
 20
51.442200680021
 30
0.0
 11
-113.877217747335
 21
40.45651966076899
 31
0.0
  0
LINE
  5
22B
330
A
100
AcDbEntity
  8
1
  6
Continuous
 62
     3
100
AcDbLine
 10
3.5
 20
37.499999999994
 30
0.0
 11
0.5
 21
37.499999999994
 31
0.0
  0
LINE
  5
22A
330
A
100
AcDbEntity
  8
1
  6
Continuous
 62
     3
100
AcDbLine
 10
0.0
 20
-54.499999173591
 30
0.0
 11
0.499999999999
 21
-54.999999173591
 31
0.0
  0
LINE
  5
229
330
A
100
AcDbEntity
  8
1
  6
DASHED
 62
     3
100
AcDbLine
 10
0.0
 20
-37.999999999994
 30
0.0
 11
0.5
 21
-37.499999999994
 31
0.0
  0
LINE
  5
228
330
A
100
AcDbEntity
  8
1
  6
Continuous
 62
     3
100
AcDbLine
 10
0.5
 20
37.499999999994
 30
0.0
 11
0.0
 21
37.999999999995
 31
0.0
  0
LINE
  5
227
330
A
100
AcDbEntity
  8
1
  6
Continuous
 62
     3
100
AcDbLine
 10
0.5
 20
54.999999173592
 30
0.0
 11
0.0
 21
54.499999173592
 31
0.0
  0
LINE
  5
226
330
A
100
AcDbEntity
  8
1
  6
Continuous
 62
     3
100
AcDbLine
 10
0.499999999999
 20
-54.999999173591
 30
0.0
 11
5.500000565366
 21
-54.999999173591
 31
0.0
  0
LINE
  5
225
330
A
100
AcDbEntity
  8
1
  6
Continuous
 62
     3
100
AcDbLine
 10
29.000000390508
 20
71.0
 30
0.0
 11
10.500000565366
 21
71.0
 31
0.0
  0
LINE
  5
224
330
A
100
AcDbEntity
  8
1
  6
DASH_CENTER
 62
     3
100
AcDbLine
 10
-63.941681676027
 20
-60.775827842984
 30
0.0
 11
-70.942038809774
 21
-53.775470709237
 31
0.0
  0
LINE
  5
223
330
A
100
AcDbEntity
  8
1
  6
DASH_CENTER
 62
     3
100
AcDbLine
 10
-58.85627756120499
 20
-38.025
 30
0.0
 11
-50.282626063738
 21
-42.975
 31
0.0
  0
LINE
  5
222
330
A
100
AcDbEntity
  8
1
  6
DASH_CENTER
 62
     3
100
AcDbLine
 10
-58.85627756120499
 20
38.025
 30
0.0
 11
-50.282626063738
 21
42.975
 31
0.0
  0
LINE
  5
221
330
A
100
AcDbEntity
  8
1
  6
DASH_CENTER
 62
     3
100
AcDbLine
 10
-185.493337361995
 20
60.775827842984
 30
0.0
 11
-178.4929802282479
 21
53.775470709237
 31
0.0
  0
LINE
  5
220
330
A
100
AcDbEntity
  8
1
  6
DASH_CENTER
 62
     3
100
AcDbLine
 10
-162.742509519011
 20
65.86123195780699
 30
0.0
 11
-167.692509519011
 21
74.43488345527299
 31
0.0
  0
LINE
  5
21F
330
A
100
AcDbEntity
  8
1
  6
DASH_CENTER
 62
     3
100
AcDbLine
 10
-167.692509519011
 20
74.43488345527299
 30
0.0
 11
-162.742509519011
 21
65.86123195780699
 31
0.0
  0
LINE
  5
21E
330
A
100
AcDbEntity
  8
1
  6
DASH_CENTER
 62
     3
100
AcDbLine
 10
-199.1523929742839
 20
42.975
 30
0.0
 11
-190.578741476818
 21
38.025
 31
0.0
  0
LINE
  5
21D
330
A
100
AcDbEntity
  8
1
  6
DASH_CENTER
 62
     3
100
AcDbLine
 10
-199.1523929742839
 20
-42.975
 30
0.0
 11
-190.578741476818
 21
-38.025
 31
0.0
  0
LINE
  5
21C
330
A
100
AcDbEntity
  8
1
  6
DASH_CENTER
 62
     3
100
AcDbLine
 10
-167.692509519011
 20
-74.434883455272
 30
0.0
 11
-162.742509519011
 21
-65.861231957806
 31
0.0
  0
LINE
  5
21B
330
A
100
AcDbEntity
  8
1
  6
DASH_CENTER
 62
     3
100
AcDbLine
 10
-81.742509519011
 20
-74.434883455272
 30
0.0
 11
-86.692509519011
 21
-65.861231957806
 31
0.0
  0
LINE
  5
21A
330
A
100
AcDbEntity
  8
1
  6
DASH_CENTER
 62
     3
100
AcDbLine
 10
-81.742509519011
 20
74.43488345527299
 30
0.0
 11
-86.692509519011
 21
65.86123195780699
 31
0.0
  0
LINE
  5
219
330
A
100
AcDbEntity
  8
1
  6
DASH_CENTER
 62
     3
100
AcDbLine
 10
337.688458585513
 20
74.43488345527299
 30
0.0
 11
332.738458585513
 21
65.86123195780699
 31
0.0
  0
LINE
  5
218
330
A
100
AcDbEntity
  8
1
  6
DASH_CENTER
 62
     3
100
AcDbLine
 10
337.688458585513
 20
-74.434883455272
 30
0.0
 11
332.738458585512
 21
-65.861231957806
 31
0.0
  0
LINE
  5
217
330
A
100
AcDbEntity
  8
1
  6
DASH_CENTER
 62
     3
100
AcDbLine
 10
251.738458585512
 20
-74.434883455272
 30
0.0
 11
256.688458585512
 21
-65.861231957806
 31
0.0
  0
LINE
  5
216
330
A
100
AcDbEntity
  8
1
  6
DASH_CENTER
 62
     3
100
AcDbLine
 10
220.27857513024
 20
-42.975
 30
0.0
 11
228.852226627706
 21
-38.025
 31
0.0
  0
LINE
  5
215
330
A
100
AcDbEntity
  8
1
  6
DASH_CENTER
 62
     3
100
AcDbLine
 10
220.27857513024
 20
42.975
 30
0.0
 11
228.852226627706
 21
38.025
 31
0.0
  0
LINE
  5
214
330
A
100
AcDbEntity
  8
1
  6
DASH_CENTER
 62
     3
100
AcDbLine
 10
251.738458585513
 20
74.43488345527299
 30
0.0
 11
256.688458585512
 21
65.86123195780699
 31
0.0
  0
LINE
  5
213
330
A
100
AcDbEntity
  8
1
  6
DASH_CENTER
 62
     3
100
AcDbLine
 10
256.688458585512
 20
65.86123195780699
 30
0.0
 11
251.738458585513
 21
74.43488345527299
 31
0.0
  0
LINE
  5
212
330
A
100
AcDbEntity
  8
1
  6
DASH_CENTER
 62
     3
100
AcDbLine
 10
348.488929294749
 20
53.775470709237
 30
0.0
 11
355.489286428496
 21
60.775827842984
 31
0.0
  0
LINE
  5
211
330
A
100
AcDbEntity
  8
1
  6
DASH_CENTER
 62
     3
100
AcDbLine
 10
360.574690543319
 20
38.025
 30
0.0
 11
369.1483420407859
 21
42.975
 31
0.0
  0
LINE
  5
210
330
A
100
AcDbEntity
  8
1
  6
DASH_CENTER
 62
     3
100
AcDbLine
 10
360.574690543319
 20
-38.025
 30
0.0
 11
369.1483420407859
 21
-42.975
 31
0.0
  0
LINE
  5
20F
330
A
100
AcDbEntity
  8
1
  6
DASH_CENTER
 62
     3
100
AcDbLine
 10
240.937987876275
 20
-53.775470709237
 30
0.0
 11
233.937630742529
 21
-60.775827842984
 31
0.0
  0
LINE
  5
20E
330
A
100
AcDbEntity
  8
1
  6
DASH_CENTER
 62
     3
100
AcDbLine
 10
-98.467509519011
 20
45.466333698683
 30
0.0
 11
-102.967509519011
 21
37.672105064623
 31
0.0
  0
LINE
  5
20D
330
A
100
AcDbEntity
  8
1
  6
DASH_CENTER
 62
     3
100
AcDbLine
 10
-79.251175820329
 20
-26.25
 30
0.0
 11
-87.04540445438899
 21
-21.75
 31
0.0
  0
LINE
  5
20C
330
A
100
AcDbEntity
  8
1
  6
DASH_CENTER
 62
     3
100
AcDbLine
 10
-150.967509519011
 20
-45.46633369868199
 30
0.0
 11
-146.467509519011
 21
-37.67210506462201
 31
0.0
  0
LINE
  5
20B
330
A
100
AcDbEntity
  8
1
  6
DASH_CENTER
 62
     3
100
AcDbLine
 10
-170.183843217694
 20
26.250000000001
 30
0.0
 11
-162.389614583635
 21
21.75
 31
0.0
  0
LINE
  5
20A
330
A
100
AcDbEntity
  8
1
  6
DASH_CENTER
 62
     3
100
AcDbLine
 10
-79.251175820329
 20
26.25
 30
0.0
 11
-87.045404454388
 21
21.75
 31
0.0
  0
LINE
  5
209
330
A
100
AcDbEntity
  8
1
  6
DASH_CENTER
 62
     3
100
AcDbLine
 10
-98.46750951901199
 20
-45.466333698683
 30
0.0
 11
-102.967509519012
 21
-37.672105064623
 31
0.0
  0
LINE
  5
208
330
A
100
AcDbEntity
  8
1
  6
DASH_CENTER
 62
     3
100
AcDbLine
 10
-170.183843217694
 20
-26.249999999999
 30
0.0
 11
-162.389614583634
 21
-21.749999999999
 31
0.0
  0
LINE
  5
207
330
A
100
AcDbEntity
  8
1
  6
DASH_CENTER
 62
     3
100
AcDbLine
 10
-150.967509519011
 20
45.46633369868399
 30
0.0
 11
-146.467509519011
 21
37.672105064623
 31
0.0
  0
LINE
  5
206
330
A
100
AcDbEntity
  8
1
  6
DASH_CENTER
 62
     3
100
AcDbLine
 10
-89.655009519011
 20
60.73003144038399
 30
0.0
 11
-93.780009519011
 21
53.585321859162
 31
0.0
  0
LINE
  5
205
330
A
100
AcDbEntity
  8
1
  6
DASH_CENTER
 62
     3
100
AcDbLine
 10
-63.98747807862701
 20
35.0625
 30
0.0
 11
-71.13218765984901
 21
30.9375
 31
0.0
  0
LINE
  5
204
330
A
100
AcDbEntity
  8
1
  6
DASH_CENTER
 62
     3
100
AcDbLine
 10
-63.98747807862799
 20
-35.062500000001
 30
0.0
 11
-71.13218765984901
 21
-30.9375
 31
0.0
  0
LINE
  5
203
330
A
100
AcDbEntity
  8
1
  6
DASH_CENTER
 62
     3
100
AcDbLine
 10
-89.655009519011
 20
-60.730031440385
 30
0.0
 11
-93.780009519011
 21
-53.585321859162
 31
0.0
  0
LINE
  5
202
330
A
100
AcDbEntity
  8
1
  6
DASH_CENTER
 62
     3
100
AcDbLine
 10
-159.780009519012
 20
-60.730031440385
 30
0.0
 11
-155.655009519012
 21
-53.585321859162
 31
0.0
  0
LINE
  5
201
330
A
100
AcDbEntity
  8
1
  6
DASH_CENTER
 62
     3
100
AcDbLine
 10
-185.447540959395
 20
-35.062500000001
 30
0.0
 11
-178.302831378173
 21
-30.937500000001
 31
0.0
  0
LINE
  5
200
330
A
100
AcDbEntity
  8
1
  6
DASH_CENTER
 62
     3
100
AcDbLine
 10
-185.447540959395
 20
35.0625
 30
0.0
 11
-178.302831378175
 21
30.937500000001
 31
0.0
  0
LINE
  5
1FF
330
A
100
AcDbEntity
  8
1
  6
DASH_CENTER
 62
     3
100
AcDbLine
 10
-159.780009519011
 20
60.73003144038399
 30
0.0
 11
-155.655009519011
 21
53.585321859162
 31
0.0
  0
LINE
  5
1FE
330
A
100
AcDbEntity
  8
1
  6
Continuous
 62
     3
100
AcDbLine
 10
59.000000390513
 20
73.7
 30
0.0
 11
59.000000390513
 21
71.0
 31
0.0
  0
LINE
  5
1FD
330
A
100
AcDbEntity
  8
1
  6
Continuous
 62
     3
100
AcDbLine
 10
34.000000390508
 20
74.0
 30
0.0
 11
29.300000390508
 21
74.00000000000099
 31
0.0
  0
LINE
  5
1FC
330
A
100
AcDbEntity
  8
1
  6
Continuous
 62
     3
100
AcDbLine
 10
29.000000390508
 20
73.700000000001
 30
0.0
 11
29.000000390508
 21
-73.7
 31
0.0
  0
LINE
  5
1FB
330
A
100
AcDbEntity
  8
1
  6
Continuous
 62
     3
100
AcDbLine
 10
53.500000390513
 20
87.50000000000099
 30
0.0
 11
34.500000390508
 21
87.50000000000099
 31
0.0
  0
LINE
  5
1FA
330
A
100
AcDbEntity
  8
1
  6
Continuous
 62
     3
100
AcDbLine
 10
58.700000390513
 20
74.0
 30
0.0
 11
54.000000390513
 21
74.0
 31
0.0
  0
LINE
  5
1F9
330
A
100
AcDbEntity
  8
1
  6
Continuous
 62
     3
100
AcDbLine
 10
59.000000390513
 20
71.0
 30
0.0
 11
60.000000390509
 21
71.0
 31
0.0
  0
LINE
  5
1F8
330
A
100
AcDbEntity
  8
1
  6
Continuous
 62
     3
100
AcDbLine
 10
54.000000390513
 20
-87.0
 30
0.0
 11
54.000000390513
 21
87.000000000001
 31
0.0
  0
LINE
  5
1F7
330
A
100
AcDbEntity
  8
1
  6
DASHED
 62
     3
100
AcDbLine
 10
34.000000390508
 20
77.70000000000099
 30
0.0
 11
54.000000390513
 21
77.70000000000099
 31
0.0
  0
LINE
  5
1F6
330
A
100
AcDbEntity
  8
1
  6
DASHED
 62
     3
100
AcDbLine
 10
34.000000390508
 20
84.300000000001
 30
0.0
 11
54.000000390513
 21
84.300000000001
 31
0.0
  0
LINE
  5
1F5
330
A
100
AcDbEntity
  8
1
  6
Continuous
 62
     3
100
AcDbLine
 10
60.000000390509
 20
-71.0
 30
0.0
 11
59.000000390513
 21
-71.0
 31
0.0
  0
LINE
  5
1F4
330
A
100
AcDbEntity
  8
1
  6
Continuous
 62
     3
100
AcDbLine
 10
54.000000390513
 20
-74.0
 30
0.0
 11
58.700000390513
 21
-74.0
 31
0.0
  0
LINE
  5
1F3
330
A
100
AcDbEntity
  8
1
  6
DASH_CENTER
 62
     3
100
AcDbLine
 10
32.117834105216
 20
81.00000000000099
 30
0.0
 11
56.00129413323699
 21
81.00000000000099
 31
0.0
  0
LINE
  5
1F2
330
A
100
AcDbEntity
  8
1
  6
Continuous
 62
     3
100
AcDbLine
 10
34.500000390508
 20
-87.5
 30
0.0
 11
53.500000390513
 21
-87.5
 31
0.0
  0
LINE
  5
1F1
330
A
100
AcDbEntity
  8
1
  6
Continuous
 62
     3
100
AcDbLine
 10
29.300000390508
 20
-74.0
 30
0.0
 11
34.000000390508
 21
-74.0
 31
0.0
  0
LINE
  5
1F0
330
A
100
AcDbEntity
  8
1
  6
Continuous
 62
     3
100
AcDbLine
 10
59.000000390513
 20
-71.0
 30
0.0
 11
59.000000390513
 21
-73.7
 31
0.0
  0
LINE
  5
1EF
330
A
100
AcDbEntity
  8
1
  6
Continuous
 62
     3
100
AcDbLine
 10
59.000000390513
 20
-71.0
 30
0.0
 11
59.000000390513
 21
71.0
 31
0.0
  0
LINE
  5
1EE
330
A
100
AcDbEntity
  8
1
  6
Continuous
 62
     3
100
AcDbLine
 10
143.500000390508
 20
-49.42758139269
 30
0.0
 11
143.500000390508
 21
25.361600941969
 31
0.0
  0
LINE
  5
1ED
330
A
100
AcDbEntity
  8
1
  6
Continuous
 62
     3
100
AcDbLine
 10
144.000000390508
 20
-54.927581392697
 30
0.0
 11
140.800000390508
 21
-54.927581392697
 31
0.0
  0
LINE
  5
1EC
330
A
100
AcDbEntity
  8
1
  6
Continuous
 62
     3
100
AcDbLine
 10
141.800000390508
 20
-51.765371804362
 30
0.0
 11
140.800000390509
 21
-51.765371804362
 31
0.0
  0
LINE
  5
1EB
330
A
100
AcDbEntity
  8
1
  6
Continuous
 62
     3
100
AcDbLine
 10
140.800000390509
 20
-49.42758139269
 30
0.0
 11
140.800000390508
 21
-54.927581392697
 31
0.0
  0
LINE
  5
1EA
330
A
100
AcDbEntity
  8
1
  6
Continuous
 62
     3
100
AcDbLine
 10
141.800000390509
 20
-49.42758139269
 30
0.0
 11
141.800000390508
 21
-51.765371804362
 31
0.0
  0
LINE
  5
1E9
330
A
100
AcDbEntity
  8
1
  6
Continuous
 62
     3
100
AcDbLine
 10
144.000000390508
 20
-49.42758139269
 30
0.0
 11
140.800000390509
 21
-49.42758139269
 31
0.0
  0
LINE
  5
1E8
330
A
100
AcDbEntity
  8
1
  6
Continuous
 62
     3
100
AcDbLine
 10
143.500000390508
 20
34.887880383594
 30
0.0
 11
143.500000390508
 21
60.5
 31
0.0
  0
LINE
  5
1E7
330
A
100
AcDbEntity
  8
1
  6
DASH_CENTER
 62
     3
100
AcDbLine
 10
139.36068411112
 20
26.999999966764
 30
0.0
 11
144.937905315783
 21
26.999999966764
 31
0.0
  0
LINE
  5
1E6
330
A
100
AcDbEntity
  8
1
  6
Continuous
 62
     3
100
AcDbLine
 10
140.800000390509
 20
25.361600941969
 30
0.0
 11
144.000000390508
 21
25.361600941969
 31
0.0
  0
LINE
  5
1E5
330
A
100
AcDbEntity
  8
1
  6
Continuous
 62
     3
100
AcDbLine
 10
141.800000390509
 20
25.361600941969
 30
0.0
 11
141.800000390509
 21
28.199999966764
 31
0.0
  0
LINE
  5
1E4
330
A
100
AcDbEntity
  8
1
  6
Continuous
 62
     3
100
AcDbLine
 10
141.800000390508
 20
32.00000000009
 30
0.0
 11
141.800000390509
 21
25.491228360642
 31
0.0
  0
LINE
  5
1E3
330
A
100
AcDbEntity
  8
1
  6
Continuous
 62
     3
100
AcDbLine
 10
140.800000390509
 20
32.00000000009
 30
0.0
 11
141.800000390508
 21
32.00000000009
 31
0.0
  0
LINE
  5
1E2
330
A
100
AcDbEntity
  8
1
  6
Continuous
 62
     3
100
AcDbLine
 10
140.800000390508
 20
34.887880383594
 30
0.0
 11
140.800000390509
 21
25.361600941969
 31
0.0
  0
LINE
  5
1E1
330
A
100
AcDbEntity
  8
1
  6
Continuous
 62
     3
100
AcDbLine
 10
140.800000390508
 20
34.887880383594
 30
0.0
 11
144.000000390508
 21
34.887880383594
 31
0.0
  0
LINE
  5
1E0
330
A
100
AcDbEntity
  8
1
  6
Continuous
 62
     3
100
AcDbLine
 10
174.000000390508
 20
46.0
 30
0.0
 11
159.000000390508
 21
46.0
 31
0.0
  0
LINE
  5
1DF
330
A
100
AcDbEntity
  8
1
  6
Continuous
 62
     3
100
AcDbLine
 10
188.000000390508
 20
60.0
 30
0.0
 11
188.000000390508
 21
188.5
 31
0.0
  0
LINE
  5
1DE
330
A
100
AcDbEntity
  8
1
  6
DASH_CENTER
 62
     3
100
AcDbLine
 10
184.000000390508
 20
60.0
 30
0.0
 11
184.000000390508
 21
126.5
 31
0.0
  0
LINE
  5
1DD
330
A
100
AcDbEntity
  8
1
  6
Continuous
 62
     3
100
AcDbLine
 10
180.000000390508
 20
60.0
 30
0.0
 11
180.000000390508
 21
126.5
 31
0.0
  0
LINE
  5
1DC
330
A
100
AcDbEntity
  8
1
  6
Continuous
 62
     3
100
AcDbLine
 10
95.000000396863
 20
194.7
 30
0.0
 11
95.000000396863
 21
202.299999999999
 31
0.0
  0
LINE
  5
1DB
330
A
100
AcDbEntity
  8
1
  6
Continuous
 62
     3
100
AcDbLine
 10
108.000000396863
 20
202.299999999999
 30
0.0
 11
110.000000396863
 21
202.799999999999
 31
0.0
  0
LINE
  5
1DA
330
A
100
AcDbEntity
  8
1
  6
Continuous
 62
     3
100
AcDbLine
 10
95.000000396863
 20
202.299999999999
 30
0.0
 11
108.000000396863
 21
202.299999999999
 31
0.0
  0
LINE
  5
1D9
330
A
100
AcDbEntity
  8
1
  6
Continuous
 62
     3
100
AcDbLine
 10
108.000000396863
 20
194.7
 30
0.0
 11
95.000000396863
 21
194.7
 31
0.0
  0
LINE
  5
1D8
330
A
100
AcDbEntity
  8
1
  6
Continuous
 62
     3
100
AcDbLine
 10
110.000000396863
 20
194.2
 30
0.0
 11
108.000000396863
 21
194.7
 31
0.0
  0
LINE
  5
1D7
330
A
100
AcDbEntity
  8
1
  6
Continuous
 62
     3
100
AcDbLine
 10
120.000000396863
 20
194.2
 30
0.0
 11
110.000000396863
 21
194.2
 31
0.0
  0
LINE
  5
1D6
330
A
100
AcDbEntity
  8
1
  6
Continuous
 62
     3
100
AcDbLine
 10
120.000000396863
 20
194.2
 30
0.0
 11
120.000000396863
 21
202.799999999999
 31
0.0
  0
LINE
  5
1D5
330
A
100
AcDbEntity
  8
1
  6
Continuous
 62
     3
100
AcDbLine
 10
110.000000396863
 20
202.799999999999
 30
0.0
 11
120.000000396863
 21
202.799999999999
 31
0.0
  0
LINE
  5
1D4
330
A
100
AcDbEntity
  8
1
  6
Continuous
 62
     3
100
AcDbLine
 10
95.000000396863
 20
132.7
 30
0.0
 11
95.000000396863
 21
140.3
 31
0.0
  0
LINE
  5
1D3
330
A
100
AcDbEntity
  8
1
  6
Continuous
 62
     3
100
AcDbLine
 10
110.000000396863
 20
132.2
 30
0.0
 11
108.000000396863
 21
132.7
 31
0.0
  0
LINE
  5
1D2
330
A
100
AcDbEntity
  8
1
  6
Continuous
 62
     3
100
AcDbLine
 10
108.000000396863
 20
132.7
 30
0.0
 11
95.000000396863
 21
132.7
 31
0.0
  0
LINE
  5
1D1
330
A
100
AcDbEntity
  8
1
  6
Continuous
 62
     3
100
AcDbLine
 10
95.000000396863
 20
140.3
 30
0.0
 11
108.000000396863
 21
140.3
 31
0.0
  0
LINE
  5
1D0
330
A
100
AcDbEntity
  8
1
  6
Continuous
 62
     3
100
AcDbLine
 10
108.000000396863
 20
140.3
 30
0.0
 11
110.000000396863
 21
140.8
 31
0.0
  0
LINE
  5
1CF
330
A
100
AcDbEntity
  8
1
  6
Continuous
 62
     3
100
AcDbLine
 10
110.000000396863
 20
140.8
 30
0.0
 11
120.000000396863
 21
140.8
 31
0.0
  0
LINE
  5
1CE
330
A
100
AcDbEntity
  8
1
  6
Continuous
 62
     3
100
AcDbLine
 10
120.000000396863
 20
132.2
 30
0.0
 11
120.000000396863
 21
140.8
 31
0.0
  0
LINE
  5
1CD
330
A
100
AcDbEntity
  8
1
  6
Continuous
 62
     3
100
AcDbLine
 10
120.000000396863
 20
132.2
 30
0.0
 11
110.000000396863
 21
132.2
 31
0.0
  0
LINE
  5
1CC
330
A
100
AcDbEntity
  8
1
  6
Continuous
 62
     3
100
AcDbLine
 10
151.500000396863
 20
202.5
 30
0.0
 11
174.000000390508
 21
202.5
 31
0.0
  0
LINE
  5
1CB
330
A
100
AcDbEntity
  8
1
  6
Continuous
 62
     3
100
AcDbLine
 10
151.500000396833
 20
194.5
 30
0.0
 11
174.000000390508
 21
194.5
 31
0.0
  0
LINE
  5
1CA
330
A
100
AcDbEntity
  8
1
  6
Continuous
 62
     3
100
AcDbLine
 10
151.500000396872
 20
140.5
 30
0.0
 11
174.000000390508
 21
140.5
 31
0.0
  0
LINE
  5
1C9
330
A
100
AcDbEntity
  8
1
  6
Continuous
 62
     3
100
AcDbLine
 10
151.500000396833
 20
132.5
 30
0.0
 11
174.000000390508
 21
132.5
 31
0.0
  0
LINE
  5
1C8
330
A
100
AcDbEntity
  8
1
  6
Continuous
 62
     3
100
AcDbLine
 10
120.000000396863
 20
140.5
 30
0.0
 11
148.500000396892
 21
140.5
 31
0.0
  0
LINE
  5
1C7
330
A
100
AcDbEntity
  8
1
  6
Continuous
 62
     3
100
AcDbLine
 10
120.000000396863
 20
132.5
 30
0.0
 11
148.500000396853
 21
132.5
 31
0.0
  0
LINE
  5
1C6
330
A
100
AcDbEntity
  8
1
  6
DASH_CENTER
 62
     3
100
AcDbLine
 10
30.570000396863
 20
136.5
 30
0.0
 11
174.000000390508
 21
136.5
 31
0.0
  0
LINE
  5
1C5
330
A
100
AcDbEntity
  8
1
  6
DASH_CENTER
 62
     3
100
AcDbLine
 10
37.000000396863
 20
198.5
 30
0.0
 11
174.000000390508
 21
198.5
 31
0.0
  0
LINE
  5
1C4
330
A
100
AcDbEntity
  8
1
  6
Continuous
 62
     3
100
AcDbLine
 10
120.000000396863
 20
194.5
 30
0.0
 11
148.500000396863
 21
194.5
 31
0.0
  0
LINE
  5
1C3
330
A
100
AcDbEntity
  8
1
  6
Continuous
 62
     3
100
AcDbLine
 10
120.000000396863
 20
202.5
 30
0.0
 11
148.500000396921
 21
202.5
 31
0.0
  0
LINE
  5
1C2
330
A
100
AcDbEntity
  8
1
  6
DASH_CENTER
 62
     3
100
AcDbLine
 10
184.000000390508
 20
136.297958971133
 30
0.0
 11
184.000000390508
 21
188.5
 31
0.0
  0
LINE
  5
1C1
330
A
100
AcDbEntity
  8
1
  6
Continuous
 62
     3
100
AcDbLine
 10
180.000000390508
 20
139.149110640674
 30
0.0
 11
180.000000390508
 21
188.5
 31
0.0
  0
LINE
  5
1C0
330
A
100
AcDbEntity
  8
0
  6
Continuous
 62
     3
100
AcDbLine
 10
47.046000396863
 20
143.48487821965
 30
0.0
 11
47.046000396863
 21
146.02487821965
 31
0.0
  0
LINE
  5
1BF
330
A
100
AcDbEntity
  8
0
  6
Continuous
 62
     3
100
AcDbLine
 10
47.046000396863
 20
126.97487821965
 30
0.0
 11
47.046000396863
 21
129.51487821965
 31
0.0
  0
LINE
  5
1BE
330
A
100
AcDbEntity
  8
1
  6
Continuous
 62
     3
100
AcDbLine
 10
74.083472261525
 20
196.606414894169
 30
0.0
 11
85.875348483801
 21
195.633585105831
 31
0.0
  0
LINE
  5
1BD
330
A
100
AcDbEntity
  8
1
  6
Continuous
 62
     3
100
AcDbLine
 10
95.000000396863
 20
195.294999999999
 30
0.0
 11
94.09741521257
 21
195.294999999999
 31
0.0
  0
LINE
  5
1BC
330
A
100
AcDbEntity
  8
1
  6
Continuous
 62
     3
100
AcDbLine
 10
86.73734090997298
 20
196.565868084665
 30
0.0
 11
85.425052053364
 21
196.674131915335
 31
0.0
  0
LINE
  5
1BB
330
A
100
AcDbEntity
  8
1
  6
Continuous
 62
     3
100
AcDbLine
 10
95.000000396863
 20
196.294999999999
 30
0.0
 11
93.314994292988
 21
196.294999999999
 31
0.0
  0
LINE
  5
1BA
330
A
100
AcDbEntity
  8
1
  6
Continuous
 62
     3
100
AcDbLine
 10
95.000000396863
 20
200.245
 30
0.0
 11
60.000000396863
 21
200.245
 31
0.0
  0
LINE
  5
1B9
330
A
100
AcDbEntity
  8
1
  6
Continuous
 62
     3
100
AcDbLine
 10
74.083472261525
 20
199.906414894168
 30
0.0
 11
85.875348483801
 21
198.93358510583
 31
0.0
  0
LINE
  5
1B8
330
A
100
AcDbEntity
  8
1
  6
Continuous
 62
     3
100
AcDbLine
 10
95.000000396863
 20
198.595
 30
0.0
 11
94.09741521257
 21
198.595
 31
0.0
  0
LINE
  5
1B7
330
A
100
AcDbEntity
  8
1
  6
Continuous
 62
     3
100
AcDbLine
 10
95.000000396863
 20
199.595
 30
0.0
 11
93.314994292988
 21
199.595
 31
0.0
  0
LINE
  5
1B6
330
A
100
AcDbEntity
  8
1
  6
Continuous
 62
     3
100
AcDbLine
 10
86.73734090997298
 20
199.865868084664
 30
0.0
 11
85.425052053364
 21
199.974131915334
 31
0.0
  0
LINE
  5
1B5
330
A
100
AcDbEntity
  8
1
  6
Continuous
 62
     3
100
AcDbLine
 10
95.000000396863
 20
196.944999999999
 30
0.0
 11
60.000000396863
 21
196.944999999999
 31
0.0
  0
LINE
  5
1B4
330
A
100
AcDbEntity
  8
1
  6
Continuous
 62
     3
100
AcDbLine
 10
95.000000396863
 20
197.944999999999
 30
0.0
 11
60.000000396863
 21
197.944999999999
 31
0.0
  0
LINE
  5
1B3
330
A
100
AcDbEntity
  8
1
  6
Continuous
 62
     3
100
AcDbLine
 10
95.000000396863
 20
201.245
 30
0.0
 11
60.000000396863
 21
201.245
 31
0.0
  0
LINE
  5
1B2
330
A
100
AcDbEntity
  8
1
  6
Continuous
 62
     3
100
AcDbLine
 10
60.000000396863
 20
138.875
 30
0.0
 11
71.000000396863
 21
138.875
 31
0.0
  0
LINE
  5
1B1
330
A
100
AcDbEntity
  8
1
  6
Continuous
 62
     3
100
AcDbLine
 10
60.000000396863
 20
140.475
 30
0.0
 11
71.000000396863
 21
140.475
 31
0.0
  0
LINE
  5
1B0
330
A
100
AcDbEntity
  8
1
  6
Continuous
 62
     3
100
AcDbLine
 10
60.000000396863
 20
132.5247564393
 30
0.0
 11
71.000000396863
 21
132.5247564393
 31
0.0
  0
LINE
  5
1AF
330
A
100
AcDbEntity
  8
1
  6
Continuous
 62
     3
100
AcDbLine
 10
71.000000396863
 20
134.1247564393
 30
0.0
 11
60.000000396863
 21
134.1247564393
 31
0.0
  0
LINE
  5
1AE
330
A
100
AcDbEntity
  8
1
  6
Continuous
 62
     3
100
AcDbLine
 10
56.288675531457
 20
194.775
 30
0.0
 11
60.000000396863
 21
194.775
 31
0.0
  0
LINE
  5
1AD
330
A
100
AcDbEntity
  8
1
  6
Continuous
 62
     3
100
AcDbLine
 10
56.288675531457
 20
194.775
 30
0.0
 11
56.000000396863
 21
194.274999999999
 31
0.0
  0
LINE
  5
1AC
330
A
100
AcDbEntity
  8
1
  6
Continuous
 62
     3
100
AcDbLine
 10
56.000000396863
 20
194.274999999999
 30
0.0
 11
50.170000396862
 21
194.274999999999
 31
0.0
  0
LINE
  5
1AB
330
A
100
AcDbEntity
  8
1
  6
Continuous
 62
     3
100
AcDbLine
 10
50.170000396862
 20
194.274999999999
 30
0.0
 11
50.170000396862
 21
202.225
 31
0.0
  0
LINE
  5
1AA
330
A
100
AcDbEntity
  8
1
  6
Continuous
 62
     3
100
AcDbLine
 10
50.170000396862
 20
194.274999999999
 30
0.0
 11
49.000000396863
 21
192.095
 31
0.0
  0
LINE
  5
1A9
330
A
100
AcDbEntity
  8
1
  6
Continuous
 62
     3
100
AcDbLine
 10
60.000000396863
 20
194.775
 30
0.0
 11
60.000000396863
 21
202.225
 31
0.0
  0
LINE
  5
1A8
330
A
100
AcDbEntity
  8
1
  6
Continuous
 62
     3
100
AcDbLine
 10
60.000000396863
 20
202.225
 30
0.0
 11
50.170000396862
 21
202.225
 31
0.0
  0
LINE
  5
1A7
330
A
100
AcDbEntity
  8
1
  6
Continuous
 62
     3
100
AcDbLine
 10
50.170000396862
 20
202.225
 30
0.0
 11
49.000000396863
 21
203.394999999999
 31
0.0
  0
LINE
  5
1A6
330
A
100
AcDbEntity
  8
1
  6
Continuous
 62
     3
100
AcDbLine
 10
40.000000396863
 20
192.094999999999
 30
0.0
 11
40.000000396863
 21
194.595
 31
0.0
  0
LINE
  5
1A5
330
A
100
AcDbEntity
  8
1
  6
Continuous
 62
     3
100
AcDbLine
 10
39.000000396863
 20
203.394999999999
 30
0.0
 11
39.000000396863
 21
194.595
 31
0.0
  0
LINE
  5
1A4
330
A
100
AcDbEntity
  8
1
  6
Continuous
 62
     3
100
AcDbLine
 10
40.000000396863
 20
194.595
 30
0.0
 11
39.000000396863
 21
194.595
 31
0.0
  0
LINE
  5
1A3
330
A
100
AcDbEntity
  8
1
  6
Continuous
 62
     3
100
AcDbLine
 10
40.000000396863
 20
192.094999999999
 30
0.0
 11
49.000000396863
 21
192.095
 31
0.0
  0
LINE
  5
1A2
330
A
100
AcDbEntity
  8
1
  6
Continuous
 62
     3
100
AcDbLine
 10
49.000000396863
 20
192.095
 30
0.0
 11
49.000000396863
 21
203.394999999999
 31
0.0
  0
LINE
  5
1A1
330
A
100
AcDbEntity
  8
1
  6
Continuous
 62
     3
100
AcDbLine
 10
49.000000396863
 20
203.394999999999
 30
0.0
 11
39.000000396863
 21
203.394999999999
 31
0.0
  0
LINE
  5
1A0
330
A
100
AcDbEntity
  8
0
  6
Continuous
 62
     3
100
AcDbLine
 10
32.570000396863
 20
130.89307178035
 30
0.0
 11
32.570000396863
 21
135.75668465895
 31
0.0
  0
LINE
  5
19F
330
A
100
AcDbEntity
  8
0
  6
Continuous
 62
     3
100
AcDbLine
 10
32.570000396863
 20
137.24307178035
 30
0.0
 11
32.570000396863
 21
142.10692821965
 31
0.0
  0
LINE
  5
19E
330
A
100
AcDbEntity
  8
0
  6
Continuous
 62
     3
100
AcDbLine
 10
53.777000396863
 20
124.735385261951
 30
0.0
 11
54.412000396863
 21
124.735385261951
 31
0.0
  0
LINE
  5
19D
330
A
100
AcDbEntity
  8
0
  6
Continuous
 62
     3
100
AcDbLine
 10
36.632000396863
 20
125.95887821965
 30
0.0
 11
53.015000396863
 21
125.49738526195
 31
0.0
  0
LINE
  5
19C
330
A
100
AcDbEntity
  8
0
  6
Continuous
 62
     3
100
AcDbLine
 10
36.632000396863
 20
147.04087821965
 30
0.0
 11
36.632000396863
 21
145.38987821965
 31
0.0
  0
LINE
  5
19B
330
A
100
AcDbEntity
  8
0
  6
Continuous
 62
     3
100
AcDbLine
 10
36.632000396863
 20
127.60987821965
 30
0.0
 11
36.632000396863
 21
125.95887821965
 31
0.0
  0
LINE
  5
19A
330
A
100
AcDbEntity
  8
0
  6
Continuous
 62
     3
100
AcDbLine
 10
54.412000396863
 20
126.97487821965
 30
0.0
 11
47.046000396863
 21
126.97487821965
 31
0.0
  0
LINE
  5
199
330
A
100
AcDbEntity
  8
0
  6
Continuous
 62
     3
100
AcDbLine
 10
45.776000396863
 20
128.24487821965
 30
0.0
 11
37.731852659663
 21
128.24487821965
 31
0.0
  0
LINE
  5
198
330
A
100
AcDbEntity
  8
0
  6
Continuous
 62
     3
100
AcDbLine
 10
54.412000396863
 20
128.03738526195
 30
0.0
 11
47.046000396863
 21
128.24487821965
 31
0.0
  0
LINE
  5
197
330
A
100
AcDbEntity
  8
0
  6
Continuous
 62
     3
100
AcDbLine
 10
43.869000396863
 20
142.10692821965
 30
0.0
 11
44.250000396863
 21
142.32689867225
 31
0.0
  0
LINE
  5
196
330
A
100
AcDbEntity
  8
0
  6
Continuous
 62
     3
100
AcDbLine
 10
60.000000396863
 20
129.51487821965
 30
0.0
 11
44.250000396863
 21
129.51487821965
 31
0.0
  0
LINE
  5
195
330
A
100
AcDbEntity
  8
0
  6
Continuous
 62
     3
100
AcDbLine
 10
60.000000396863
 20
129.89587821965
 30
0.0
 11
57.460000396863
 21
129.89587821965
 31
0.0
  0
LINE
  5
194
330
A
100
AcDbEntity
  8
0
  6
Continuous
 62
     3
100
AcDbLine
 10
60.000000396863
 20
130.14987821965
 30
0.0
 11
60.088900396863
 21
130.14987821965
 31
0.0
  0
LINE
  5
193
330
A
100
AcDbEntity
  8
0
  6
Continuous
 62
     3
100
AcDbLine
 10
60.000000396863
 20
130.171495240251
 30
0.0
 11
60.088900396863
 21
130.171495240251
 31
0.0
  0
LINE
  5
192
330
A
100
AcDbEntity
  8
0
  6
Continuous
 62
     3
100
AcDbLine
 10
60.000000396863
 20
130.23634630205
 30
0.0
 11
60.088900396863
 21
130.23634630205
 31
0.0
  0
LINE
  5
191
330
A
100
AcDbEntity
  8
0
  6
Continuous
 62
     3
100
AcDbLine
 10
60.000000396863
 20
130.32281438435
 30
0.0
 11
60.088900396863
 21
130.32281438435
 31
0.0
  0
LINE
  5
190
330
A
100
AcDbEntity
  8
0
  6
Continuous
 62
     3
100
AcDbLine
 10
60.000000396863
 20
130.43089949305
 30
0.0
 11
60.088900396863
 21
130.43089949305
 31
0.0
  0
LINE
  5
18F
330
A
100
AcDbEntity
  8
0
  6
Continuous
 62
     3
100
AcDbLine
 10
60.000000396863
 20
130.582218654251
 30
0.0
 11
60.088900396863
 21
130.582218654251
 31
0.0
  0
LINE
  5
18E
330
A
100
AcDbEntity
  8
0
  6
Continuous
 62
     3
100
AcDbLine
 10
43.869000396863
 20
130.892828219651
 30
0.0
 11
44.250000396863
 21
130.67285776705
 31
0.0
  0
LINE
  5
18D
330
A
100
AcDbEntity
  8
0
  6
Continuous
 62
     3
100
AcDbLine
 10
60.000000396863
 20
130.73353778505
 30
0.0
 11
60.088900396863
 21
130.73353778505
 31
0.0
  0
LINE
  5
18C
330
A
100
AcDbEntity
  8
0
  6
Continuous
 62
     3
100
AcDbLine
 10
60.000000396863
 20
130.88485691595
 30
0.0
 11
60.088900396863
 21
130.88485691595
 31
0.0
  0
LINE
  5
18B
330
A
100
AcDbEntity
  8
0
  6
Continuous
 62
     3
100
AcDbLine
 10
43.869000711663
 20
130.892828219651
 30
0.0
 11
32.570000396863
 21
130.892828219651
 31
0.0
  0
LINE
  5
18A
330
A
100
AcDbEntity
  8
0
  6
Continuous
 62
     3
100
AcDbLine
 10
60.000000396863
 20
130.99294207005
 30
0.0
 11
60.088900396863
 21
130.99294207005
 31
0.0
  0
LINE
  5
189
330
A
100
AcDbEntity
  8
0
  6
Continuous
 62
     3
100
AcDbLine
 10
60.000000396863
 20
131.07941014485
 30
0.0
 11
60.088900396863
 21
131.07941014485
 31
0.0
  0
LINE
  5
188
330
A
100
AcDbEntity
  8
0
  6
Continuous
 62
     3
100
AcDbLine
 10
60.000000396863
 20
131.14426120095
 30
0.0
 11
60.088900396863
 21
131.14426120095
 31
0.0
  0
LINE
  5
187
330
A
100
AcDbEntity
  8
0
  6
Continuous
 62
     3
100
AcDbLine
 10
60.000000396863
 20
131.16587821965
 30
0.0
 11
60.088900396863
 21
131.16587821965
 31
0.0
  0
LINE
  5
186
330
A
100
AcDbEntity
  8
0
  6
Continuous
 62
     3
100
AcDbLine
 10
43.869000711663
 20
130.892828219651
 30
0.0
 11
43.869000711863
 21
135.75692821965
 31
0.0
  0
LINE
  5
185
330
A
100
AcDbEntity
  8
0
  6
Continuous
 62
     3
100
AcDbLine
 10
43.869000711863
 20
137.24282821965
 30
0.0
 11
43.869000396863
 21
142.10692821965
 31
0.0
  0
LINE
  5
184
330
A
100
AcDbEntity
  8
0
  6
Continuous
 62
     3
100
AcDbLine
 10
53.777000396863
 20
148.26437117735
 30
0.0
 11
53.015000396863
 21
147.50237117735
 31
0.0
  0
LINE
  5
183
330
A
100
AcDbEntity
  8
0
  6
Continuous
 62
     3
100
AcDbLine
 10
53.015000396863
 20
125.49738526195
 30
0.0
 11
53.777000396863
 21
124.735385261951
 31
0.0
  0
LINE
  5
182
330
A
100
AcDbEntity
  8
0
  6
Continuous
 62
     3
100
AcDbLine
 10
44.250000396863
 20
129.51487821965
 30
0.0
 11
44.250000396863
 21
144.75487821965
 31
0.0
  0
LINE
  5
181
330
A
100
AcDbEntity
  8
0
  6
Continuous
 62
     3
100
AcDbLine
 10
45.776000396863
 20
144.75487821965
 30
0.0
 11
45.776000396863
 21
143.48487821965
 31
0.0
  0
LINE
  5
180
330
A
100
AcDbEntity
  8
0
  6
Continuous
 62
     3
100
AcDbLine
 10
45.776000396863
 20
129.51487821965
 30
0.0
 11
45.776000396863
 21
128.24487821965
 31
0.0
  0
LINE
  5
17F
330
A
100
AcDbEntity
  8
0
  6
Continuous
 62
     3
100
AcDbLine
 10
43.869017937163
 20
135.75689838355
 30
0.0
 11
44.250019181463
 21
135.976865939951
 31
0.0
  0
LINE
  5
17E
330
A
100
AcDbEntity
  8
0
  6
Continuous
 62
     3
100
AcDbLine
 10
43.869000711863
 20
135.75692821965
 30
0.0
 11
32.570000396863
 21
135.75692821965
 31
0.0
  0
LINE
  5
17D
330
A
100
AcDbEntity
  8
0
  6
Continuous
 62
     3
100
AcDbLine
 10
43.869017937163
 20
137.24285805575
 30
0.0
 11
44.250019181463
 21
137.02289049935
 31
0.0
  0
LINE
  5
17C
330
A
100
AcDbEntity
  8
0
  6
Continuous
 62
     3
100
AcDbLine
 10
43.869000711863
 20
137.24282821965
 30
0.0
 11
32.570000396863
 21
137.24282821965
 31
0.0
  0
LINE
  5
17B
330
A
100
AcDbEntity
  8
0
  6
Continuous
 62
     3
100
AcDbLine
 10
37.731852659663
 20
128.24487821965
 30
0.0
 11
36.632000396863
 21
127.60987821965
 31
0.0
  0
LINE
  5
17A
330
A
100
AcDbEntity
  8
0
  6
Continuous
 62
     3
100
AcDbLine
 10
36.632000396863
 20
145.38987821965
 30
0.0
 11
37.731852659663
 21
144.75487821965
 31
0.0
  0
LINE
  5
179
330
A
100
AcDbEntity
  8
0
  6
Continuous
 62
     3
100
AcDbLine
 10
60.000000396863
 20
141.83387821965
 30
0.0
 11
60.088900396863
 21
141.83387821965
 31
0.0
  0
LINE
  5
178
330
A
100
AcDbEntity
  8
0
  6
Continuous
 62
     3
100
AcDbLine
 10
60.000000396863
 20
141.85549524025
 30
0.0
 11
60.088900396863
 21
141.85549524025
 31
0.0
  0
LINE
  5
177
330
A
100
AcDbEntity
  8
0
  6
Continuous
 62
     3
100
AcDbLine
 10
60.000000396863
 20
141.89872928335
 30
0.0
 11
60.088900396863
 21
141.89872928335
 31
0.0
  0
LINE
  5
176
330
A
100
AcDbEntity
  8
0
  6
Continuous
 62
     3
100
AcDbLine
 10
60.000000396863
 20
141.94196332825
 30
0.0
 11
60.088900396863
 21
141.94196332825
 31
0.0
  0
LINE
  5
175
330
A
100
AcDbEntity
  8
0
  6
Continuous
 62
     3
100
AcDbLine
 10
60.000000396863
 20
142.00681438435
 30
0.0
 11
60.088900396863
 21
142.00681438435
 31
0.0
  0
LINE
  5
174
330
A
100
AcDbEntity
  8
0
  6
Continuous
 62
     3
100
AcDbLine
 10
60.000000396863
 20
142.07166545565
 30
0.0
 11
60.088900396863
 21
142.07166545565
 31
0.0
  0
LINE
  5
173
330
A
100
AcDbEntity
  8
0
  6
Continuous
 62
     3
100
AcDbLine
 10
43.869000396863
 20
142.10692821965
 30
0.0
 11
32.570000396863
 21
142.10692821965
 31
0.0
  0
LINE
  5
172
330
A
100
AcDbEntity
  8
0
  6
Continuous
 62
     3
100
AcDbLine
 10
60.000000396863
 20
142.15813353045
 30
0.0
 11
60.088900396863
 21
142.15813353045
 31
0.0
  0
LINE
  5
171
330
A
100
AcDbEntity
  8
0
  6
Continuous
 62
     3
100
AcDbLine
 10
60.000000396863
 20
142.24460163555
 30
0.0
 11
60.088900396863
 21
142.24460163555
 31
0.0
  0
LINE
  5
170
330
A
100
AcDbEntity
  8
0
  6
Continuous
 62
     3
100
AcDbLine
 10
60.000000396863
 20
142.28783567295
 30
0.0
 11
60.088900396863
 21
142.28783567295
 31
0.0
  0
LINE
  5
16F
330
A
100
AcDbEntity
  8
0
  6
Continuous
 62
     3
100
AcDbLine
 10
60.000000396863
 20
142.30945269165
 30
0.0
 11
60.088900396863
 21
142.30945269165
 31
0.0
  0
LINE
  5
16E
330
A
100
AcDbEntity
  8
0
  6
Continuous
 62
     3
100
AcDbLine
 10
60.000000396863
 20
142.39592076635
 30
0.0
 11
60.088900396863
 21
142.39592076635
 31
0.0
  0
LINE
  5
16D
330
A
100
AcDbEntity
  8
0
  6
Continuous
 62
     3
100
AcDbLine
 10
60.000000396863
 20
142.43915480375
 30
0.0
 11
60.088900396863
 21
142.43915480375
 31
0.0
  0
LINE
  5
16C
330
A
100
AcDbEntity
  8
0
  6
Continuous
 62
     3
100
AcDbLine
 10
60.000000396863
 20
142.48238884115
 30
0.0
 11
60.088900396863
 21
142.48238884115
 31
0.0
  0
LINE
  5
16B
330
A
100
AcDbEntity
  8
0
  6
Continuous
 62
     3
100
AcDbLine
 10
60.000000396863
 20
142.56885691595
 30
0.0
 11
60.088900396863
 21
142.56885691595
 31
0.0
  0
LINE
  5
16A
330
A
100
AcDbEntity
  8
0
  6
Continuous
 62
     3
100
AcDbLine
 10
60.000000396863
 20
142.61209101395
 30
0.0
 11
60.088900396863
 21
142.61209101395
 31
0.0
  0
LINE
  5
169
330
A
100
AcDbEntity
  8
0
  6
Continuous
 62
     3
100
AcDbLine
 10
60.000000396863
 20
142.69855908875
 30
0.0
 11
60.088900396863
 21
142.69855908875
 31
0.0
  0
LINE
  5
168
330
A
100
AcDbEntity
  8
0
  6
Continuous
 62
     3
100
AcDbLine
 10
60.000000396863
 20
142.78502716355
 30
0.0
 11
60.088900396863
 21
142.78502716355
 31
0.0
  0
LINE
  5
167
330
A
100
AcDbEntity
  8
0
  6
Continuous
 62
     3
100
AcDbLine
 10
60.000000396863
 20
142.82826120095
 30
0.0
 11
60.088900396863
 21
142.82826120095
 31
0.0
  0
LINE
  5
166
330
A
100
AcDbEntity
  8
0
  6
Continuous
 62
     3
100
AcDbLine
 10
60.000000396863
 20
142.84987821965
 30
0.0
 11
60.088900396863
 21
142.84987821965
 31
0.0
  0
LINE
  5
165
330
A
100
AcDbEntity
  8
0
  6
Continuous
 62
     3
100
AcDbLine
 10
57.460000396863
 20
143.10387821965
 30
0.0
 11
60.000000396863
 21
143.10387821965
 31
0.0
  0
LINE
  5
164
330
A
100
AcDbEntity
  8
0
  6
Continuous
 62
     3
100
AcDbLine
 10
44.250000396863
 20
143.48487821965
 30
0.0
 11
60.000000396863
 21
143.48487821965
 31
0.0
  0
LINE
  5
163
330
A
100
AcDbEntity
  8
0
  6
Continuous
 62
     3
100
AcDbLine
 10
54.412000396863
 20
124.735385261951
 30
0.0
 11
54.412000396863
 21
128.03738526195
 31
0.0
  0
LINE
  5
162
330
A
100
AcDbEntity
  8
0
  6
Continuous
 62
     3
100
AcDbLine
 10
54.412000396863
 20
144.96237117735
 30
0.0
 11
54.412000396863
 21
148.26437117735
 31
0.0
  0
LINE
  5
161
330
A
100
AcDbEntity
  8
0
  6
Continuous
 62
     3
100
AcDbLine
 10
47.046000396863
 20
144.75487821965
 30
0.0
 11
54.412000396863
 21
144.96237117735
 31
0.0
  0
LINE
  5
160
330
A
100
AcDbEntity
  8
0
  6
Continuous
 62
     3
100
AcDbLine
 10
44.250000396863
 20
144.63235829455
 30
0.0
 11
45.776000396863
 21
144.63235829455
 31
0.0
  0
LINE
  5
15F
330
A
100
AcDbEntity
  8
0
  6
Continuous
 62
     3
100
AcDbLine
 10
47.046000396863
 20
144.63235829455
 30
0.0
 11
60.000000396863
 21
144.63235829455
 31
0.0
  0
LINE
  5
15E
330
A
100
AcDbEntity
  8
0
  6
Continuous
 62
     3
100
AcDbLine
 10
37.731852659663
 20
144.75487821965
 30
0.0
 11
45.776000396863
 21
144.75487821965
 31
0.0
  0
LINE
  5
15D
330
A
100
AcDbEntity
  8
0
  6
Continuous
 62
     3
100
AcDbLine
 10
60.000000396863
 20
145.008878219651
 30
0.0
 11
54.412000396863
 21
145.008878219651
 31
0.0
  0
LINE
  5
15C
330
A
100
AcDbEntity
  8
0
  6
Continuous
 62
     3
100
AcDbLine
 10
54.412000396863
 20
146.02487821965
 30
0.0
 11
47.046000396863
 21
146.02487821965
 31
0.0
  0
LINE
  5
15B
330
A
100
AcDbEntity
  8
0
  6
Continuous
 62
     3
100
AcDbLine
 10
53.015000396863
 20
147.50237117735
 30
0.0
 11
36.632000396863
 21
147.04087821965
 31
0.0
  0
LINE
  5
15A
330
A
100
AcDbEntity
  8
0
  6
Continuous
 62
     3
100
AcDbLine
 10
57.460000396863
 20
129.51487821965
 30
0.0
 11
57.460000396863
 21
143.48487821965
 31
0.0
  0
LINE
  5
159
330
A
100
AcDbEntity
  8
0
  6
Continuous
 62
     3
100
AcDbLine
 10
54.412000396863
 20
148.26437117735
 30
0.0
 11
53.777000396863
 21
148.26437117735
 31
0.0
  0
LINE
  5
158
330
A
100
AcDbEntity
  8
0
  6
Continuous
 62
     3
100
AcDbLine
 10
60.000000396863
 20
129.51487821965
 30
0.0
 11
60.000000396863
 21
145.00884287745
 31
0.0
  0
LINE
  5
157
330
A
100
AcDbEntity
  8
0
  6
Continuous
 62
     3
100
AcDbLine
 10
60.088900396863
 20
142.84987821965
 30
0.0
 11
60.088900396863
 21
141.83387821965
 31
0.0
  0
LINE
  5
156
330
A
100
AcDbEntity
  8
0
  6
Continuous
 62
     3
100
AcDbLine
 10
60.088900396863
 20
131.16587821965
 30
0.0
 11
60.088900396863
 21
130.14987821965
 31
0.0
  0
LINE
  5
155
330
A
100
AcDbEntity
  8
1
  6
Continuous
 62
     3
100
AcDbLine
 10
83.00000039686301
 20
139.5
 30
0.0
 11
95.000000396863
 21
139.5
 31
0.0
  0
LINE
  5
154
330
A
100
AcDbEntity
  8
1
  6
Continuous
 62
     3
100
AcDbLine
 10
71.000000396863
 20
140.475
 30
0.0
 11
83.00000039686301
 21
139.5
 31
0.0
  0
LINE
  5
153
330
A
100
AcDbEntity
  8
1
  6
Continuous
 62
     3
100
AcDbLine
 10
83.00000039686301
 20
137.9
 30
0.0
 11
95.000000396863
 21
137.9
 31
0.0
  0
LINE
  5
152
330
A
100
AcDbEntity
  8
1
  6
Continuous
 62
     3
100
AcDbLine
 10
71.000000396863
 20
138.875
 30
0.0
 11
83.00000039686301
 21
137.9
 31
0.0
  0
LINE
  5
151
330
A
100
AcDbEntity
  8
1
  6
Continuous
 62
     3
100
AcDbLine
 10
83.00000039686301
 20
133.5
 30
0.0
 11
95.000000396863
 21
133.5
 31
0.0
  0
LINE
  5
150
330
A
100
AcDbEntity
  8
1
  6
Continuous
 62
     3
100
AcDbLine
 10
71.000000396863
 20
132.5247564393
 30
0.0
 11
83.00000039686301
 21
133.5
 31
0.0
  0
LINE
  5
14F
330
A
100
AcDbEntity
  8
1
  6
Continuous
 62
     3
100
AcDbLine
 10
83.00000039686301
 20
135.1
 30
0.0
 11
95.000000396863
 21
135.1
 31
0.0
  0
LINE
  5
14E
330
A
100
AcDbEntity
  8
1
  6
Continuous
 62
     3
100
AcDbLine
 10
71.000000396863
 20
134.1247564393
 30
0.0
 11
83.00000039686301
 21
135.1
 31
0.0
  0
LINE
  5
14D
330
A
100
AcDbEntity
  8
1
  6
Continuous
 62
     3
100
AcDbLine
 10
71.000000396863
 20
138.875
 30
0.0
 11
83.00000039686301
 21
136.3
 31
0.0
  0
LINE
  5
14C
330
A
100
AcDbEntity
  8
1
  6
Continuous
 62
     3
100
AcDbLine
 10
83.00000039686301
 20
136.3
 30
0.0
 11
95.000000396863
 21
136.3
 31
0.0
  0
LINE
  5
14B
330
A
100
AcDbEntity
  8
1
  6
Continuous
 62
     3
100
AcDbLine
 10
71.000000396863
 20
134.1247564393
 30
0.0
 11
82.12511564679301
 21
136.512246556753
 31
0.0
  0
LINE
  5
14A
330
A
100
AcDbEntity
  8
1
  6
Continuous
 62
     3
100
AcDbLine
 10
114.000000390509
 20
-60.5
 30
0.0
 11
114.000000390509
 21
60.5
 31
0.0
  0
LINE
  5
149
330
A
100
AcDbEntity
  8
1
  6
Continuous
 62
     3
100
AcDbLine
 10
157.500000390508
 20
55.5
 30
0.0
 11
156.000000390509
 21
56.5
 31
0.0
  0
LINE
  5
148
330
A
100
AcDbEntity
  8
1
  6
Continuous
 62
     3
100
AcDbLine
 10
144.000000390508
 20
-60.0
 30
0.0
 11
144.000000390508
 21
60.0
 31
0.0
  0
LINE
  5
147
330
A
100
AcDbEntity
  8
1
  6
Continuous
 62
     3
100
AcDbLine
 10
148.500000390509
 20
55.5
 30
0.0
 11
146.000000390509
 21
55.5
 31
0.0
  0
LINE
  5
146
330
A
100
AcDbEntity
  8
1
  6
Continuous
 62
     3
100
AcDbLine
 10
144.000000390509
 20
56.5
 30
0.0
 11
146.000000390509
 21
56.5
 31
0.0
  0
LINE
  5
145
330
A
100
AcDbEntity
  8
1
  6
Continuous
 62
     3
100
AcDbLine
 10
144.000000390508
 20
60.0
 30
0.0
 11
143.500000390508
 21
60.5
 31
0.0
  0
LINE
  5
144
330
A
100
AcDbEntity
  8
1
  6
Continuous
 62
     3
100
AcDbLine
 10
156.000000390509
 20
56.5
 30
0.0
 11
148.500000390508
 21
56.5
 31
0.0
  0
LINE
  5
143
330
A
100
AcDbEntity
  8
1
  6
Continuous
 62
     3
100
AcDbLine
 10
76.000000390509
 20
61.0
 30
0.0
 11
73.900000390509
 21
61.0
 31
0.0
  0
LINE
  5
142
330
A
100
AcDbEntity
  8
1
  6
Continuous
 62
     3
100
AcDbLine
 10
73.000000390509
 20
73.0
 30
0.0
 11
73.500000390509
 21
72.5
 31
0.0
  0
LINE
  5
141
330
A
100
AcDbEntity
  8
1
  6
Continuous
 62
     3
100
AcDbLine
 10
60.000000390509
 20
72.5
 30
0.0
 11
60.500000390509
 21
73.0
 31
0.0
  0
LINE
  5
140
330
A
100
AcDbEntity
  8
1
  6
Continuous
 62
     3
100
AcDbLine
 10
73.000000390509
 20
73.0
 30
0.0
 11
60.500000390509
 21
73.0
 31
0.0
  0
LINE
  5
13F
330
A
100
AcDbEntity
  8
1
  6
Continuous
 62
     3
100
AcDbLine
 10
143.500000390508
 20
60.5
 30
0.0
 11
76.500000390509
 21
60.5
 31
0.0
  0
LINE
  5
13E
330
A
100
AcDbEntity
  8
1
  6
Continuous
 62
     3
100
AcDbLine
 10
174.000000390508
 20
54.0
 30
0.0
 11
159.000000390508
 21
54.0
 31
0.0
  0
LINE
  5
13D
330
A
100
AcDbEntity
  8
1
  6
Continuous
 62
     3
100
AcDbLine
 10
159.000000390508
 20
54.7
 30
0.0
 11
159.000000390508
 21
45.3
 31
0.0
  0
LINE
  5
13C
330
A
100
AcDbEntity
  8
1
  6
Continuous
 62
     3
100
AcDbLine
 10
156.000000390509
 20
53.79999999999999
 30
0.0
 11
156.000000390509
 21
52.5
 31
0.0
  0
LINE
  5
13B
330
A
100
AcDbEntity
  8
1
  6
Continuous
 62
     3
100
AcDbLine
 10
159.000000390508
 20
45.3
 30
0.0
 11
157.500000390508
 21
45.0
 31
0.0
  0
LINE
  5
13A
330
A
100
AcDbEntity
  8
1
  6
Continuous
 62
     3
100
AcDbLine
 10
157.500000390508
 20
44.5
 30
0.0
 11
156.000000390508
 21
43.5
 31
0.0
  0
LINE
  5
139
330
A
100
AcDbEntity
  8
1
  6
Continuous
 62
     3
100
AcDbLine
 10
156.000000390508
 20
46.2
 30
0.0
 11
156.000000390508
 21
47.5
 31
0.0
  0
LINE
  5
138
330
A
100
AcDbEntity
  8
1
  6
Continuous
 62
     3
100
AcDbLine
 10
157.500000390508
 20
55.0
 30
0.0
 11
159.000000390508
 21
54.7
 31
0.0
  0
LINE
  5
137
330
A
100
AcDbEntity
  8
1
  6
Continuous
 62
     3
100
AcDbLine
 10
146.000000390509
 20
52.5
 30
0.0
 11
144.000000390509
 21
52.5
 31
0.0
  0
LINE
  5
136
330
A
100
AcDbEntity
  8
1
  6
Continuous
 62
     3
100
AcDbLine
 10
144.000000390508
 20
47.5
 30
0.0
 11
146.000000390508
 21
47.5
 31
0.0
  0
LINE
  5
135
330
A
100
AcDbEntity
  8
1
  6
Continuous
 62
     3
100
AcDbLine
 10
146.000000390509
 20
53.79999999999999
 30
0.0
 11
144.000000390509
 21
53.79999999999999
 31
0.0
  0
LINE
  5
134
330
A
100
AcDbEntity
  8
1
  6
Continuous
 62
     3
100
AcDbLine
 10
148.500000390508
 20
45.0
 30
0.0
 11
146.000000390508
 21
45.0
 31
0.0
  0
LINE
  5
133
330
A
100
AcDbEntity
  8
1
  6
Continuous
 62
     3
100
AcDbLine
 10
146.000000390508
 20
46.2
 30
0.0
 11
144.000000390508
 21
46.2
 31
0.0
  0
LINE
  5
132
330
A
100
AcDbEntity
  8
1
  6
Continuous
 62
     3
100
AcDbLine
 10
148.500000390508
 20
44.5
 30
0.0
 11
146.000000390508
 21
44.5
 31
0.0
  0
LINE
  5
131
330
A
100
AcDbEntity
  8
1
  6
Continuous
 62
     3
100
AcDbLine
 10
146.000000390508
 20
43.5
 30
0.0
 11
144.000000390508
 21
43.5
 31
0.0
  0
LINE
  5
130
330
A
100
AcDbEntity
  8
1
  6
Continuous
 62
     3
100
AcDbLine
 10
148.500000390508
 20
55.0
 30
0.0
 11
146.000000390508
 21
55.0
 31
0.0
  0
LINE
  5
12F
330
A
100
AcDbEntity
  8
1
  6
DASH_CENTER
 62
     3
100
AcDbLine
 10
174.000000390508
 20
50.0
 30
0.0
 11
142.000000390508
 21
50.0
 31
0.0
  0
LINE
  5
12E
330
A
100
AcDbEntity
  8
1
  6
Continuous
 62
     3
100
AcDbLine
 10
156.000000390508
 20
43.5
 30
0.0
 11
148.500000390508
 21
43.5
 31
0.0
  0
LINE
  5
12D
330
A
100
AcDbEntity
  8
1
  6
Continuous
 62
     3
100
AcDbLine
 10
148.500000390508
 20
46.2
 30
0.0
 11
156.000000390508
 21
46.2
 31
0.0
  0
LINE
  5
12C
330
A
100
AcDbEntity
  8
1
  6
Continuous
 62
     3
100
AcDbLine
 10
156.000000390508
 20
47.5
 30
0.0
 11
148.500000390508
 21
47.5
 31
0.0
  0
LINE
  5
12B
330
A
100
AcDbEntity
  8
1
  6
Continuous
 62
     3
100
AcDbLine
 10
148.500000390508
 20
53.79999999999999
 30
0.0
 11
156.000000390509
 21
53.79999999999999
 31
0.0
  0
LINE
  5
12A
330
A
100
AcDbEntity
  8
1
  6
Continuous
 62
     3
100
AcDbLine
 10
156.000000390509
 20
52.5
 30
0.0
 11
148.500000390508
 21
52.5
 31
0.0
  0
LINE
  5
129
330
A
100
AcDbEntity
  8
1
  6
Continuous
 62
     3
100
AcDbLine
 10
143.500000390508
 20
-60.5
 30
0.0
 11
143.500000390508
 21
-54.927581392697
 31
0.0
  0
LINE
  5
128
330
A
100
AcDbEntity
  8
1
  6
Continuous
 62
     3
100
AcDbLine
 10
144.000000390508
 20
-60.0
 30
0.0
 11
143.500000390508
 21
-60.5
 31
0.0
  0
LINE
  5
127
330
A
100
AcDbEntity
  8
1
  6
Continuous
 62
     3
100
AcDbLine
 10
98.000000390509
 20
60.5
 30
0.0
 11
98.000000390509
 21
-60.5
 31
0.0
  0
LINE
  5
126
330
A
100
AcDbEntity
  8
1
  6
Continuous
 62
     3
100
AcDbLine
 10
73.500000390509
 20
-61.0
 30
0.0
 11
76.000000390509
 21
-61.0
 31
0.0
  0
LINE
  5
125
330
A
100
AcDbEntity
  8
1
  6
Continuous
 62
     3
100
AcDbLine
 10
73.000000390509
 20
-73.0
 30
0.0
 11
73.500000390509
 21
-72.5
 31
0.0
  0
LINE
  5
124
330
A
100
AcDbEntity
  8
1
  6
Continuous
 62
     3
100
AcDbLine
 10
76.500000390509
 20
-60.5
 30
0.0
 11
143.500000390508
 21
-60.5
 31
0.0
  0
LINE
  5
123
330
A
100
AcDbEntity
  8
1
  6
Continuous
 62
     3
100
AcDbLine
 10
60.000000390509
 20
-72.5
 30
0.0
 11
60.500000390509
 21
-73.0
 31
0.0
  0
LINE
  5
122
330
A
100
AcDbEntity
  8
1
  6
Continuous
 62
     3
100
AcDbLine
 10
73.000000390509
 20
-73.0
 30
0.0
 11
60.500000390509
 21
-73.0
 31
0.0
  0
LINE
  5
121
330
A
100
AcDbEntity
  8
1
  6
DASHED
 62
     3
100
AcDbLine
 10
143.500000390508
 20
17.5
 30
0.0
 11
18.50000052026
 21
17.5
 31
0.0
  0
LINE
  5
120
330
A
100
AcDbEntity
  8
1
  6
DASHED
 62
     3
100
AcDbLine
 10
18.50000052026
 20
-17.5
 30
0.0
 11
143.500000390508
 21
-17.5
 31
0.0
  0
LINE
  5
11F
330
A
100
AcDbEntity
  8
1
  6
Continuous
 62
     3
100
AcDbLine
 10
157.500000390508
 20
55.5
 30
0.0
 11
157.500000390508
 21
44.5
 31
0.0
  0
LINE
  5
11E
330
A
100
AcDbEntity
  8
1
  6
Continuous
 62
     3
100
AcDbLine
 10
148.500000390508
 20
56.5
 30
0.0
 11
148.500000390508
 21
43.5
 31
0.0
  0
LINE
  5
11D
330
A
100
AcDbEntity
  8
1
  6
Continuous
 62
     3
100
AcDbLine
 10
146.000000390509
 20
56.5
 30
0.0
 11
146.000000390508
 21
43.5
 31
0.0
  0
LINE
  5
11C
330
A
100
AcDbEntity
  8
1
  6
Continuous
 62
     3
100
AcDbLine
 10
76.500000390509
 20
60.5
 30
0.0
 11
76.500000390509
 21
-60.5
 31
0.0
  0
LINE
  5
11B
330
A
100
AcDbEntity
  8
1
  6
Continuous
 62
     3
100
AcDbLine
 10
76.000000390509
 20
61.0
 30
0.0
 11
76.500000390509
 21
60.5
 31
0.0
  0
LINE
  5
11A
330
A
100
AcDbEntity
  8
1
  6
Continuous
 62
     3
100
AcDbLine
 10
76.500000390509
 20
-60.5
 30
0.0
 11
76.000000390509
 21
-61.0
 31
0.0
  0
LINE
  5
119
330
A
100
AcDbEntity
  8
1
  6
Continuous
 62
     3
100
AcDbLine
 10
76.000000390509
 20
-61.0
 30
0.0
 11
76.000000390509
 21
61.0
 31
0.0
  0
LINE
  5
118
330
A
100
AcDbEntity
  8
1
  6
Continuous
 62
     3
100
AcDbLine
 10
60.000000390509
 20
72.5
 30
0.0
 11
60.000000390509
 21
-72.5
 31
0.0
  0
LINE
  5
117
330
A
100
AcDbEntity
  8
1
  6
Continuous
 62
     3
100
AcDbLine
 10
73.500000390509
 20
72.5
 30
0.0
 11
73.500000390509
 21
-72.5
 31
0.0
  0
LINE
  5
116
330
A
100
AcDbEntity
  8
1
  6
DASH_CENTER
 62
     3
100
AcDbLine
 10
353.152049058712
 20
-15.658261190079
 30
0.0
 11
363.777155151453
 21
-18.505561740987
 31
0.0
  0
LINE
  5
115
330
A
100
AcDbEntity
  8
1
  6
DASH_CENTER
 62
     3
100
AcDbLine
 10
279.055197395434
 20
-58.43859047319999
 30
0.0
 11
276.207896844525
 21
-69.06369656593999
 31
0.0
  0
LINE
  5
114
330
A
100
AcDbEntity
  8
1
  6
DASH_CENTER
 62
     3
100
AcDbLine
 10
348.190527273313
 20
-30.875000002374
 30
0.0
 11
355.551743197258
 21
-35.124999997626
 31
0.0
  0
LINE
  5
113
330
A
100
AcDbEntity
  8
1
  6
DASH_CENTER
 62
     3
100
AcDbLine
 10
325.588458587886
 20
-53.4770686878
 30
0.0
 11
329.838458583139
 21
-60.838284611746
 31
0.0
  0
LINE
  5
112
330
A
100
AcDbEntity
  8
1
  6
DASH_CENTER
 62
     3
100
AcDbLine
 10
263.838458583139
 20
-53.4770686878
 30
0.0
 11
259.588458587886
 21
-60.838284611746
 31
0.0
  0
LINE
  5
111
330
A
100
AcDbEntity
  8
1
  6
DASH_CENTER
 62
     3
100
AcDbLine
 10
241.236389897712
 20
-30.875000002374
 30
0.0
 11
233.875173973767
 21
-35.124999997626
 31
0.0
  0
LINE
  5
110
330
A
100
AcDbEntity
  8
1
  6
DASH_CENTER
 62
     3
100
AcDbLine
 10
241.236389897712
 20
30.875000002374
 30
0.0
 11
233.875173973767
 21
35.124999997627
 31
0.0
  0
LINE
  5
10F
330
A
100
AcDbEntity
  8
1
  6
DASH_CENTER
 62
     3
100
AcDbLine
 10
263.838458583139
 20
53.4770686878
 30
0.0
 11
259.588458587886
 21
60.838284611746
 31
0.0
  0
LINE
  5
10E
330
A
100
AcDbEntity
  8
1
  6
DASH_CENTER
 62
     3
100
AcDbLine
 10
325.588458587886
 20
53.4770686878
 30
0.0
 11
329.838458583139
 21
60.838284611746
 31
0.0
  0
LINE
  5
10D
330
A
100
AcDbEntity
  8
1
  6
DASH_CENTER
 62
     3
100
AcDbLine
 10
348.190527273313
 20
30.875000002374
 30
0.0
 11
355.551743197258
 21
35.124999997627
 31
0.0
  0
LINE
  5
10C
330
A
100
AcDbEntity
  8
1
  6
DASH_CENTER
 62
     3
100
AcDbLine
 10
245.039207207198
 20
-49.674251378393
 30
0.0
 11
251.049614847278
 21
-43.663843738303
 31
0.0
  0
LINE
  5
10B
330
A
100
AcDbEntity
  8
________
  6
DASH_CENTER
 62
     3
100
AcDbLine
 10
294.713458585513
 20
90.0
 30
0.0
 11
294.713458585513
 21
-92.0
 31
0.0
  0
LINE
  5
10A
330
A
100
AcDbEntity
  8
1
  6
Continuous
 62
     3
100
AcDbLine
 10
275.762098697053
 20
45.82141757817999
 30
0.0
 11
279.297632602987
 21
42.28588367224999
 31
0.0
  0
LINE
  5
109
330
A
100
AcDbEntity
  8
1
  6
Continuous
 62
     3
100
AcDbLine
 10
276.623998992157
 20
52.26402014867001
 30
0.0
 11
275.329903766647
 21
47.43439101723
 31
0.0
  0
LINE
  5
108
330
A
100
AcDbEntity
  8
1
  6
Continuous
 62
     3
100
AcDbLine
 10
275.762098697053
 20
45.82141757817999
 30
0.0
 11
275.329903766647
 21
47.43439101723
 31
0.0
  0
LINE
  5
107
330
A
100
AcDbEntity
  8
1
  6
Continuous
 62
     3
100
AcDbLine
 10
282.634406632241
 20
54.73889388283
 30
0.0
 11
284.247380071288
 21
54.30669895242001
 31
0.0
  0
LINE
  5
106
330
A
100
AcDbEntity
  8
1
  6
Continuous
 62
     3
100
AcDbLine
 10
286.921013682118
 20
44.328562476
 30
0.0
 11
288.215108907629
 21
49.15819160745
 31
0.0
  0
LINE
  5
105
330
A
100
AcDbEntity
  8
1
  6
Continuous
 62
     3
100
AcDbLine
 10
276.623998992157
 20
52.26402014867001
 30
0.0
 11
277.804777500798
 21
53.44479865731
 31
0.0
  0
LINE
  5
104
330
A
100
AcDbEntity
  8
1
  6
Continuous
 62
     3
100
AcDbLine
 10
280.910606042033
 20
41.85368874185
 30
0.0
 11
285.740235173477
 21
43.14778396736
 31
0.0
  0
LINE
  5
103
330
A
100
AcDbEntity
  8
1
  6
Continuous
 62
     3
100
AcDbLine
 10
280.910606042033
 20
41.85368874185
 30
0.0
 11
279.297632602987
 21
42.28588367224999
 31
0.0
  0
LINE
  5
102
330
A
100
AcDbEntity
  8
1
  6
Continuous
 62
     3
100
AcDbLine
 10
286.921013682118
 20
44.328562476
 30
0.0
 11
285.740235173477
 21
43.14778396736
 31
0.0
  0
LINE
  5
101
330
A
100
AcDbEntity
  8
1
  6
Continuous
 62
     3
100
AcDbLine
 10
287.782913977222
 20
50.77116504649
 30
0.0
 11
288.215108907629
 21
49.15819160745
 31
0.0
  0
LINE
  5
100
330
A
100
AcDbEntity
  8
1
  6
Continuous
 62
     3
100
AcDbLine
 10
287.782913977222
 20
50.77116504649
 30
0.0
 11
284.247380071288
 21
54.30669895242001
 31
0.0
  0
LINE
  5
FF
330
A
100
AcDbEntity
  8
1
  6
Continuous
 62
     3
100
AcDbLine
 10
282.634406632241
 20
54.73889388283
 30
0.0
 11
277.804777500798
 21
53.44479865731
 31
0.0
  0
LINE
  5
FE
330
A
100
AcDbEntity
  8
1
  6
Continuous
 62
     3
100
AcDbLine
 10
310.1292845766451
 20
42.28588367934
 30
0.0
 11
313.664818481204
 21
45.82141758665
 31
0.0
  0
LINE
  5
FD
330
A
100
AcDbEntity
  8
1
  6
Continuous
 62
     3
100
AcDbLine
 10
311.622139674494
 20
53.44479866499
 30
0.0
 11
306.792510542546
 21
54.73889388862001
 31
0.0
  0
LINE
  5
FC
330
A
100
AcDbEntity
  8
1
  6
Continuous
 62
     3
100
AcDbLine
 10
305.179537103668
 20
54.30669895759
 30
0.0
 11
306.792510542546
 21
54.73889388862001
 31
0.0
  0
LINE
  5
FB
330
A
100
AcDbEntity
  8
1
  6
Continuous
 62
     3
100
AcDbLine
 10
310.1292845766451
 20
42.28588367934
 30
0.0
 11
308.516311137768
 21
41.85368874831
 31
0.0
  0
LINE
  5
FA
330
A
100
AcDbEntity
  8
1
  6
Continuous
 62
     3
100
AcDbLine
 10
301.21180826933
 20
49.15819161107
 30
0.0
 11
302.505903496721
 21
44.32856248012999
 31
0.0
  0
LINE
  5
F9
330
A
100
AcDbEntity
  8
1
  6
Continuous
 62
     3
100
AcDbLine
 10
303.68668200582
 20
43.14778397195
 30
0.0
 11
302.505903496721
 21
44.32856248012999
 31
0.0
  0
LINE
  5
F8
330
A
100
AcDbEntity
  8
1
  6
Continuous
 62
     3
100
AcDbLine
 10
301.21180826933
 20
49.15819161107
 30
0.0
 11
301.644003199109
 21
50.77116505028
 31
0.0
  0
LINE
  5
F7
330
A
100
AcDbEntity
  8
1
  6
Continuous
 62
     3
100
AcDbLine
 10
303.68668200582
 20
43.14778397195
 30
0.0
 11
308.516311137768
 21
41.85368874831
 31
0.0
  0
LINE
  5
F6
330
A
100
AcDbEntity
  8
1
  6
Continuous
 62
     3
100
AcDbLine
 10
305.179537103668
 20
54.30669895759
 30
0.0
 11
301.644003199109
 21
50.77116505028
 31
0.0
  0
LINE
  5
F5
330
A
100
AcDbEntity
  8
1
  6
Continuous
 62
     3
100
AcDbLine
 10
314.097013410982
 20
47.43439102585999
 30
0.0
 11
313.664818481204
 21
45.82141758665
 31
0.0
  0
LINE
  5
F4
330
A
100
AcDbEntity
  8
1
  6
Continuous
 62
     3
100
AcDbLine
 10
314.097013410982
 20
47.43439102585999
 30
0.0
 11
312.802918183592
 21
52.2640201568
 31
0.0
  0
LINE
  5
F3
330
A
100
AcDbEntity
  8
1
  6
Continuous
 62
     3
100
AcDbLine
 10
311.622139674494
 20
53.44479866499
 30
0.0
 11
312.802918183592
 21
52.2640201568
 31
0.0
  0
LINE
  5
F2
330
A
100
AcDbEntity
  8
1
  6
DASH_CENTER
 62
     3
100
AcDbLine
 10
313.2190203265
 20
69.06369656593999
 30
0.0
 11
305.713268014342
 21
41.051847617963
 31
0.0
  0
LINE
  5
F1
330
A
100
AcDbEntity
  8
1
  6
DASH_CENTER
 62
     3
100
AcDbLine
 10
283.713649174542
 20
41.051847614939
 30
0.0
 11
279.831363499736
 21
55.540735009737
 31
0.0
  0
LINE
  5
F0
330
A
100
AcDbEntity
  8
1
  6
DASH_CENTER
 62
     3
100
AcDbLine
 10
347.541008216361
 20
-30.500000000099
 30
0.0
 11
335.416652563388
 21
-23.500000000081
 31
0.0
  0
LINE
  5
EF
330
A
100
AcDbEntity
  8
1
  6
DASH_CENTER
 62
     3
100
AcDbLine
 10
325.213458585611
 20
52.827549630848
 30
0.0
 11
318.213458585594
 21
40.70319397787599
 31
0.0
  0
LINE
  5
EE
330
A
100
AcDbEntity
  8
1
  6
DASH_CENTER
 62
     3
100
AcDbLine
 10
241.885908954664
 20
30.500000000099
 30
0.0
 11
254.010264607636
 21
23.500000000081
 31
0.0
  0
LINE
  5
ED
330
A
100
AcDbEntity
  8
1
  6
DASH_CENTER
 62
     3
100
AcDbLine
 10
264.213458585414
 20
-52.827549630848
 30
0.0
 11
271.213458585431
 21
-40.70319397787599
 31
0.0
  0
LINE
  5
EC
330
A
100
AcDbEntity
  8
1
  6
Continuous
 62
     3
100
AcDbLine
 10
246.72885500973
 20
34.05477675256801
 30
0.0
 11
250.698086781234
 21
31.763139720814
 31
0.0
  0
LINE
  5
EB
330
A
100
AcDbEntity
  8
1
  6
Continuous
 62
     3
100
AcDbLine
 10
241.22885500973
 20
24.52849731093901
 30
0.0
 11
245.198086781234
 21
22.236860279186
 31
0.0
  0
LINE
  5
EA
330
A
100
AcDbEntity
  8
1
  6
Continuous
 62
     3
100
AcDbLine
 10
260.658681832944
 20
-47.984603575782
 30
0.0
 11
262.950318864639
 21
-44.01537180437999
 31
0.0
  0
LINE
  5
E9
330
A
100
AcDbEntity
  8
1
  6
Continuous
 62
     3
100
AcDbLine
 10
270.184961274573
 20
-53.48460357578201
 30
0.0
 11
272.476598306327
 21
-49.515371804278
 31
0.0
  0
LINE
  5
E8
330
A
100
AcDbEntity
  8
1
  6
Continuous
 62
     3
100
AcDbLine
 10
342.698062161294
 20
-34.05477675256801
 30
0.0
 11
338.728830389791
 21
-31.763139720814
 31
0.0
  0
LINE
  5
E7
330
A
100
AcDbEntity
  8
1
  6
Continuous
 62
     3
100
AcDbLine
 10
342.698062161294
 20
-34.05477675256801
 30
0.0
 11
338.728830389791
 21
-31.763139720814
 31
0.0
  0
LINE
  5
E6
330
A
100
AcDbEntity
  8
1
  6
Continuous
 62
     3
100
AcDbLine
 10
348.1980621612941
 20
-24.52849731093901
 30
0.0
 11
344.228830389791
 21
-22.236860279185
 31
0.0
  0
LINE
  5
E5
330
A
100
AcDbEntity
  8
1
  6
Continuous
 62
     3
100
AcDbLine
 10
328.76823533808
 20
47.984603575782
 30
0.0
 11
326.476598306327
 21
44.015371804279
 31
0.0
  0
LINE
  5
E4
330
A
100
AcDbEntity
  8
1
  6
Continuous
 62
     3
100
AcDbLine
 10
328.76823533808
 20
47.984603575782
 30
0.0
 11
326.476598306327
 21
44.015371804279
 31
0.0
  0
LINE
  5
E3
330
A
100
AcDbEntity
  8
1
  6
Continuous
 62
     3
100
AcDbLine
 10
328.76823533808
 20
47.984603575782
 30
0.0
 11
326.476598306327
 21
44.015371804279
 31
0.0
  0
LINE
  5
E2
330
A
100
AcDbEntity
  8
1
  6
Continuous
 62
     3
100
AcDbLine
 10
328.76823533808
 20
47.984603575782
 30
0.0
 11
326.476598306327
 21
44.015371804279
 31
0.0
  0
LINE
  5
E1
330
A
100
AcDbEntity
  8
1
  6
Continuous
 62
     3
100
AcDbLine
 10
319.241955896451
 20
53.48460357578201
 30
0.0
 11
316.950318864698
 21
49.51537180427901
 31
0.0
  0
LINE
  5
E0
330
A
100
AcDbEntity
  8
1
  6
Continuous
 62
     3
100
AcDbLine
 10
230.044635234429
 20
13.188756059096
 30
0.0
 11
232.855527390685
 21
12.433677987473
 31
0.0
  0
LINE
  5
DF
330
A
100
AcDbEntity
  8
1
  6
DASH_CENTER
 62
     3
100
AcDbLine
 10
236.274868112313
 20
15.658261190079
 30
0.0
 11
225.649762019572
 21
18.505561740987
 31
0.0
  0
LINE
  5
DE
330
A
100
AcDbEntity
  8
1
  6
Continuous
 62
     3
100
AcDbLine
 10
232.114236712285
 20
20.912613917597
 30
0.0
 11
234.926079751507
 21
20.161084597785
 31
0.0
  0
LINE
  5
DD
330
A
100
AcDbEntity
  8
1
  6
Continuous
 62
     3
100
AcDbLine
 10
281.524702526416
 20
-64.66882335108301
 30
0.0
 11
282.27978059804
 21
-61.857931194827
 31
0.0
  0
LINE
  5
DC
330
A
100
AcDbEntity
  8
1
  6
Continuous
 62
     3
100
AcDbLine
 10
273.800844667915
 20
-62.599221873227
 30
0.0
 11
274.552373987727
 21
-59.787378834005
 31
0.0
  0
LINE
  5
DB
330
A
100
AcDbEntity
  8
1
  6
Continuous
 62
     3
100
AcDbLine
 10
357.31268045874
 20
-20.912613917597
 30
0.0
 11
354.5008374195179
 21
-20.161084597785
 31
0.0
  0
LINE
  5
DA
330
A
100
AcDbEntity
  8
1
  6
Continuous
 62
     3
100
AcDbLine
 10
359.382281936596
 20
-13.188756059096
 30
0.0
 11
356.5713897803389
 21
-12.433677987472
 31
0.0
  0
LINE
  5
D9
330
A
100
AcDbEntity
  8
1
  6
Continuous
 62
     3
100
AcDbLine
 10
307.902214644609
 20
64.668823351084
 30
0.0
 11
307.147136572985
 21
61.857931194827
 31
0.0
  0
LINE
  5
D8
330
A
100
AcDbEntity
  8
1
  6
Continuous
 62
     3
100
AcDbLine
 10
315.62607250311
 20
62.599221873227
 30
0.0
 11
314.874543183298
 21
59.787378834005
 31
0.0
  0
LINE
  5
D7
330
A
100
AcDbEntity
  8
1
  6
Continuous
 62
     3
100
AcDbLine
 10
10.500000565367
 20
-71.0
 30
0.0
 11
29.000000390508
 21
-71.0
 31
0.0
  0
LINE
  5
D6
330
A
100
AcDbEntity
  8
1
  6
Continuous
 62
     3
100
AcDbLine
 10
59.000000390513
 20
-71.0
 30
0.0
 11
60.000000390509
 21
-71.0
 31
0.0
  0
LINE
  5
D5
330
A
100
AcDbEntity
  8
1
  6
Continuous
 62
     3
100
AcDbLine
 10
5.500000565366
 20
54.999999173592
 30
0.0
 11
0.5
 21
54.999999173592
 31
0.0
  0
LINE
  5
D4
330
A
100
AcDbEntity
  8
1
  6
DASH_CENTER
 62
     3
100
AcDbLine
 10
-124.717509519011
 20
93.49999999999999
 30
0.0
 11
-124.717509519011
 21
-93.49999999999999
 31
0.0
  0
LINE
  5
D3
330
A
100
AcDbEntity
  8
1
  6
DASH_CENTER
 62
     3
100
AcDbLine
 10
201.760602861662
 20
0.0
 30
0.0
 11
390.760602861662
 21
0.0
 31
0.0
  0
LINE
  5
D2
330
A
100
AcDbEntity
  8
1
  6
Continuous
 62
     3
100
AcDbLine
 10
341.478830389876
 20
-25.84529946171
 30
0.0
 11
340.478830389875
 21
-26.422649730899
 31
0.0
  0
LINE
  5
D1
330
A
100
AcDbEntity
  8
1
  6
Continuous
 62
     3
100
AcDbLine
 10
340.478830389875
 20
-26.422649730899
 30
0.0
 11
340.478830389874
 21
-27.57735026927801
 31
0.0
  0
LINE
  5
D0
330
A
100
AcDbEntity
  8
1
  6
Continuous
 62
     3
100
AcDbLine
 10
340.478830389874
 20
-27.57735026927801
 30
0.0
 11
341.478830389873
 21
-28.154700538469
 31
0.0
  0
LINE
  5
CF
330
A
100
AcDbEntity
  8
1
  6
Continuous
 62
     3
100
AcDbLine
 10
341.478830389873
 20
-28.154700538469
 30
0.0
 11
342.478830389874
 21
-27.577350269281
 31
0.0
  0
LINE
  5
CE
330
A
100
AcDbEntity
  8
1
  6
Continuous
 62
     3
100
AcDbLine
 10
342.478830389874
 20
-27.577350269281
 30
0.0
 11
342.478830389875
 21
-26.422649730901
 31
0.0
  0
LINE
  5
CD
330
A
100
AcDbEntity
  8
1
  6
Continuous
 62
     3
100
AcDbLine
 10
342.478830389875
 20
-26.422649730901
 30
0.0
 11
341.478830389876
 21
-25.84529946171
 31
0.0
  0
LINE
  5
CC
330
A
100
AcDbEntity
  8
1
  6
Continuous
 62
     3
100
AcDbLine
 10
5.500000565366
 20
0.0
 30
0.0
 11
5.500000565366
 21
-3.95
 31
0.0
  0
LINE
  5
CB
330
A
100
AcDbEntity
  8
1
  6
Continuous
 62
     3
100
AcDbLine
 10
5.800000565367
 20
0.0
 30
0.0
 11
5.800000565367
 21
-4.25
 31
0.0
  0
LINE
  5
CA
330
A
100
AcDbEntity
  8
1
  6
Continuous
 62
     3
100
AcDbLine
 10
5.800000565366
 20
-70.25000000000099
 30
0.0
 11
10.500000565366
 21
-70.25000000000099
 31
0.0
  0
LINE
  5
C9
330
A
100
AcDbEntity
  8
1
  6
Continuous
 62
     3
100
AcDbLine
 10
5.500000565366
 20
-69.950000000001
 30
0.0
 11
5.800000565366
 21
-70.25000000000099
 31
0.0
  0
LINE
  5
C8
330
A
100
AcDbEntity
  8
1
  6
Continuous
 62
     3
100
AcDbLine
 10
5.500000565366
 20
-62.050000000001
 30
0.0
 11
5.500000565366
 21
-69.950000000001
 31
0.0
  0
LINE
  5
C7
330
A
100
AcDbEntity
  8
1
  6
Continuous
 62
     3
100
AcDbLine
 10
5.800000565366
 20
-61.750000000001
 30
0.0
 11
5.500000565366
 21
-62.050000000001
 31
0.0
  0
LINE
  5
C6
330
A
100
AcDbEntity
  8
1
  6
Continuous
 62
     3
100
AcDbLine
 10
10.500000565366
 20
-61.750000000001
 30
0.0
 11
5.800000565366
 21
-61.750000000001
 31
0.0
  0
LINE
  5
C5
330
A
100
AcDbEntity
  8
1
  6
Continuous
 62
     3
100
AcDbLine
 10
5.800000565366
 20
-61.750000000001
 30
0.0
 11
5.800000565366
 21
-70.25000000000099
 31
0.0
  0
LINE
  5
C4
330
A
100
AcDbEntity
  8
1
  6
DASH_CENTER
 62
     3
100
AcDbLine
 10
11.813714340918
 20
-66.000000000001
 30
0.0
 11
4.000000565366
 21
-66.000000000001
 31
0.0
  0
LINE
  5
C3
330
A
100
AcDbEntity
  8
1
  6
DASH_CENTER
 62
     3
100
AcDbLine
 10
11.813714340918
 20
-57.15767664977399
 30
0.0
 11
4.000000565366
 21
-57.15767664977399
 31
0.0
  0
LINE
  5
C2
330
A
100
AcDbEntity
  8
1
  6
Continuous
 62
     3
100
AcDbLine
 10
5.800000565366
 20
-52.907676649774
 30
0.0
 11
5.800000565366
 21
-61.40767664977399
 31
0.0
  0
LINE
  5
C1
330
A
100
AcDbEntity
  8
1
  6
Continuous
 62
     3
100
AcDbLine
 10
10.500000565366
 20
-52.907676649774
 30
0.0
 11
5.800000565366
 21
-52.907676649774
 31
0.0
  0
LINE
  5
C0
330
A
100
AcDbEntity
  8
1
  6
Continuous
 62
     3
100
AcDbLine
 10
5.800000565366
 20
-52.907676649774
 30
0.0
 11
5.500000565366
 21
-53.207676649774
 31
0.0
  0
LINE
  5
BF
330
A
100
AcDbEntity
  8
1
  6
Continuous
 62
     3
100
AcDbLine
 10
5.500000565366
 20
-53.207676649774
 30
0.0
 11
5.500000565366
 21
-61.107676649774
 31
0.0
  0
LINE
  5
BE
330
A
100
AcDbEntity
  8
1
  6
Continuous
 62
     3
100
AcDbLine
 10
5.500000565366
 20
-61.107676649774
 30
0.0
 11
5.800000565366
 21
-61.40767664977399
 31
0.0
  0
LINE
  5
BD
330
A
100
AcDbEntity
  8
1
  6
Continuous
 62
     3
100
AcDbLine
 10
5.800000565366
 20
-61.40767664977399
 30
0.0
 11
10.500000565366
 21
-61.40767664977399
 31
0.0
  0
LINE
  5
BC
330
A
100
AcDbEntity
  8
1
  6
Continuous
 62
     3
100
AcDbLine
 10
5.800000565366
 20
-37.250000000001
 30
0.0
 11
10.500000565366
 21
-37.250000000001
 31
0.0
  0
LINE
  5
BB
330
A
100
AcDbEntity
  8
1
  6
Continuous
 62
     3
100
AcDbLine
 10
5.500000565366
 20
-36.95
 30
0.0
 11
5.800000565366
 21
-37.250000000001
 31
0.0
  0
LINE
  5
BA
330
A
100
AcDbEntity
  8
1
  6
Continuous
 62
     3
100
AcDbLine
 10
5.500000565366
 20
-29.05
 30
0.0
 11
5.500000565366
 21
-36.95
 31
0.0
  0
LINE
  5
B9
330
A
100
AcDbEntity
  8
1
  6
Continuous
 62
     3
100
AcDbLine
 10
5.800000565366
 20
-28.750000000001
 30
0.0
 11
5.500000565366
 21
-29.05
 31
0.0
  0
LINE
  5
B8
330
A
100
AcDbEntity
  8
1
  6
Continuous
 62
     3
100
AcDbLine
 10
10.500000565366
 20
-28.750000000001
 30
0.0
 11
5.800000565366
 21
-28.750000000001
 31
0.0
  0
LINE
  5
B7
330
A
100
AcDbEntity
  8
1
  6
Continuous
 62
     3
100
AcDbLine
 10
5.800000565366
 20
-28.750000000001
 30
0.0
 11
5.800000565366
 21
-37.250000000001
 31
0.0
  0
LINE
  5
B6
330
A
100
AcDbEntity
  8
1
  6
DASH_CENTER
 62
     3
100
AcDbLine
 10
11.813714340918
 20
-33.0
 30
0.0
 11
4.000000565366
 21
-33.0
 31
0.0
  0
LINE
  5
B5
330
A
100
AcDbEntity
  8
1
  6
Continuous
 62
     3
100
AcDbLine
 10
5.500000565366
 20
-3.95
 30
0.0
 11
5.800000565367
 21
-4.25
 31
0.0
  0
LINE
  5
B4
330
A
100
AcDbEntity
  8
1
  6
Continuous
 62
     3
100
AcDbLine
 10
5.800000565367
 20
-4.25
 30
0.0
 11
10.500000565366
 21
-4.25
 31
0.0
  0
LINE
  5
B3
330
A
100
AcDbEntity
  8
1
  6
Continuous
 62
     3
100
AcDbLine
 10
10.500000565366
 20
61.407676649773
 30
0.0
 11
5.800000565366
 21
61.407676649773
 31
0.0
  0
LINE
  5
B2
330
A
100
AcDbEntity
  8
1
  6
Continuous
 62
     3
100
AcDbLine
 10
5.800000565366
 20
61.407676649773
 30
0.0
 11
5.500000565366
 21
61.10767664977299
 31
0.0
  0
LINE
  5
B1
330
A
100
AcDbEntity
  8
1
  6
Continuous
 62
     3
100
AcDbLine
 10
5.500000565366
 20
61.10767664977299
 30
0.0
 11
5.500000565366
 21
53.20767664977299
 31
0.0
  0
LINE
  5
B0
330
A
100
AcDbEntity
  8
1
  6
Continuous
 62
     3
100
AcDbLine
 10
5.500000565366
 20
53.20767664977299
 30
0.0
 11
5.800000565366
 21
52.90767664977299
 31
0.0
  0
LINE
  5
AF
330
A
100
AcDbEntity
  8
1
  6
Continuous
 62
     3
100
AcDbLine
 10
5.800000565366
 20
52.90767664977299
 30
0.0
 11
10.500000565366
 21
52.90767664977299
 31
0.0
  0
LINE
  5
AE
330
A
100
AcDbEntity
  8
1
  6
Continuous
 62
     3
100
AcDbLine
 10
5.800000565366
 20
61.407676649773
 30
0.0
 11
5.800000565366
 21
52.90767664977299
 31
0.0
  0
LINE
  5
AD
330
A
100
AcDbEntity
  8
1
  6
DASH_CENTER
 62
     3
100
AcDbLine
 10
4.000000565366
 20
57.15767664977299
 30
0.0
 11
11.813714340918
 21
57.15767664977299
 31
0.0
  0
LINE
  5
AC
330
A
100
AcDbEntity
  8
1
  6
DASH_CENTER
 62
     3
100
AcDbLine
 10
4.000000565366
 20
66.0
 30
0.0
 11
11.813714340918
 21
66.0
 31
0.0
  0
LINE
  5
AB
330
A
100
AcDbEntity
  8
1
  6
Continuous
 62
     3
100
AcDbLine
 10
5.800000565366
 20
70.25
 30
0.0
 11
5.800000565366
 21
61.75
 31
0.0
  0
LINE
  5
AA
330
A
100
AcDbEntity
  8
1
  6
Continuous
 62
     3
100
AcDbLine
 10
5.800000565366
 20
61.75
 30
0.0
 11
10.500000565366
 21
61.75
 31
0.0
  0
LINE
  5
A9
330
A
100
AcDbEntity
  8
1
  6
Continuous
 62
     3
100
AcDbLine
 10
5.500000565366
 20
62.05
 30
0.0
 11
5.800000565366
 21
61.75
 31
0.0
  0
LINE
  5
A8
330
A
100
AcDbEntity
  8
1
  6
Continuous
 62
     3
100
AcDbLine
 10
5.500000565366
 20
69.95
 30
0.0
 11
5.500000565366
 21
62.05
 31
0.0
  0
LINE
  5
A7
330
A
100
AcDbEntity
  8
1
  6
Continuous
 62
     3
100
AcDbLine
 10
5.800000565366
 20
70.25
 30
0.0
 11
5.500000565366
 21
69.95
 31
0.0
  0
LINE
  5
A6
330
A
100
AcDbEntity
  8
1
  6
Continuous
 62
     3
100
AcDbLine
 10
10.500000565366
 20
70.25
 30
0.0
 11
5.800000565366
 21
70.25
 31
0.0
  0
LINE
  5
A5
330
A
100
AcDbEntity
  8
1
  6
Continuous
 62
     3
100
AcDbLine
 10
10.500000565366
 20
37.250000000001
 30
0.0
 11
7.944961693387
 21
37.250000000001
 31
0.0
  0
LINE
  5
A4
330
A
100
AcDbEntity
  8
1
  6
Continuous
 62
     3
100
AcDbLine
 10
143.450000390507
 20
28.499999966764
 30
0.0
 11
143.450000390507
 21
25.361600941969
 31
0.0
  0
LINE
  5
A3
330
A
100
AcDbEntity
  8
1
  6
Continuous
 62
     3
100
AcDbLine
 10
276.406656722293
 20
-64.975849392795
 30
0.0
 11
278.079689329648
 21
-65.424137129328
 31
0.0
  0
LINE
  5
A2
330
A
100
AcDbEntity
  8
1
  6
Continuous
 62
     3
100
AcDbLine
 10
275.958368986657
 20
-63.30281678520001
 30
0.0
 11
276.406656722293
 21
-64.975849392795
 31
0.0
  0
LINE
  5
A1
330
A
100
AcDbEntity
  8
1
  6
Continuous
 62
     3
100
AcDbLine
 10
277.183113858377
 20
-62.078071914136
 30
0.0
 11
275.958368986657
 21
-63.30281678520001
 31
0.0
  0
LINE
  5
A0
330
A
100
AcDbEntity
  8
1
  6
Continuous
 62
     3
100
AcDbLine
 10
278.856146465732
 20
-62.526359650669
 30
0.0
 11
277.183113858377
 21
-62.078071914136
 31
0.0
  0
LINE
  5
9F
330
A
100
AcDbEntity
  8
1
  6
Continuous
 62
     3
100
AcDbLine
 10
279.304434201368
 20
-64.199392258264
 30
0.0
 11
278.856146465732
 21
-62.526359650669
 31
0.0
  0
LINE
  5
9E
330
A
100
AcDbEntity
  8
1
  6
Continuous
 62
     3
100
AcDbLine
 10
278.079689329648
 20
-65.424137129328
 30
0.0
 11
279.304434201368
 21
-64.199392258264
 31
0.0
  0
LINE
  5
9D
330
A
100
AcDbEntity
  8
1
  6
Continuous
 62
     3
100
AcDbLine
 10
229.737609192717
 20
18.30680186322
 30
0.0
 11
229.289321456185
 21
16.633769255864
 31
0.0
  0
LINE
  5
9C
330
A
100
AcDbEntity
  8
1
  6
Continuous
 62
     3
100
AcDbLine
 10
231.410641800313
 20
18.755089598856
 30
0.0
 11
229.737609192717
 21
18.30680186322
 31
0.0
  0
LINE
  5
9B
330
A
100
AcDbEntity
  8
1
  6
Continuous
 62
     3
100
AcDbLine
 10
232.635386671376
 20
17.530344727136
 30
0.0
 11
231.410641800313
 21
18.755089598856
 31
0.0
  0
LINE
  5
9A
330
A
100
AcDbEntity
  8
1
  6
Continuous
 62
     3
100
AcDbLine
 10
232.187098934844
 20
15.85731211978
 30
0.0
 11
232.635386671376
 21
17.530344727136
 31
0.0
  0
LINE
  5
99
330
A
100
AcDbEntity
  8
1
  6
Continuous
 62
     3
100
AcDbLine
 10
230.514066327248
 20
15.409024384145
 30
0.0
 11
232.187098934844
 21
15.85731211978
 31
0.0
  0
LINE
  5
98
330
A
100
AcDbEntity
  8
1
  6
Continuous
 62
     3
100
AcDbLine
 10
229.289321456185
 20
16.633769255864
 30
0.0
 11
230.514066327248
 21
15.409024384145
 31
0.0
  0
LINE
  5
97
330
A
100
AcDbEntity
  8
1
  6
Continuous
 62
     3
100
AcDbLine
 10
313.020260448732
 20
64.975849392795
 30
0.0
 11
311.347227841377
 21
65.424137129328
 31
0.0
  0
LINE
  5
96
330
A
100
AcDbEntity
  8
1
  6
Continuous
 62
     3
100
AcDbLine
 10
313.468548184368
 20
63.30281678520001
 30
0.0
 11
313.020260448732
 21
64.975849392795
 31
0.0
  0
LINE
  5
95
330
A
100
AcDbEntity
  8
1
  6
Continuous
 62
     3
100
AcDbLine
 10
312.243803312648
 20
62.07807191413699
 30
0.0
 11
313.468548184368
 21
63.30281678520001
 31
0.0
  0
LINE
  5
94
330
A
100
AcDbEntity
  8
1
  6
Continuous
 62
     3
100
AcDbLine
 10
310.570770705292
 20
62.526359650669
 30
0.0
 11
312.243803312648
 21
62.07807191413699
 31
0.0
  0
LINE
  5
93
330
A
100
AcDbEntity
  8
1
  6
Continuous
 62
     3
100
AcDbLine
 10
310.122482969657
 20
64.199392258265
 30
0.0
 11
310.570770705292
 21
62.526359650669
 31
0.0
  0
LINE
  5
92
330
A
100
AcDbEntity
  8
1
  6
Continuous
 62
     3
100
AcDbLine
 10
311.347227841377
 20
65.424137129328
 30
0.0
 11
310.122482969657
 21
64.199392258265
 31
0.0
  0
LINE
  5
91
330
A
100
AcDbEntity
  8
1
  6
Continuous
 62
     3
100
AcDbLine
 10
360.13759571484
 20
-16.633769255864
 30
0.0
 11
358.912850843777
 21
-15.409024384144
 31
0.0
  0
LINE
  5
90
330
A
100
AcDbEntity
  8
1
  6
Continuous
 62
     3
100
AcDbLine
 10
358.912850843777
 20
-15.409024384144
 30
0.0
 11
357.239818236181
 21
-15.85731211978
 31
0.0
  0
LINE
  5
8F
330
A
100
AcDbEntity
  8
1
  6
Continuous
 62
     3
100
AcDbLine
 10
357.239818236181
 20
-15.85731211978
 30
0.0
 11
356.791530499649
 21
-17.530344727135
 31
0.0
  0
LINE
  5
8E
330
A
100
AcDbEntity
  8
1
  6
Continuous
 62
     3
100
AcDbLine
 10
356.791530499649
 20
-17.530344727135
 30
0.0
 11
358.016275370712
 21
-18.755089598855
 31
0.0
  0
LINE
  5
8D
330
A
100
AcDbEntity
  8
1
  6
Continuous
 62
     3
100
AcDbLine
 10
358.016275370712
 20
-18.755089598855
 30
0.0
 11
359.689307978308
 21
-18.306801863219
 31
0.0
  0
LINE
  5
8C
330
A
100
AcDbEntity
  8
1
  6
Continuous
 62
     3
100
AcDbLine
 10
359.689307978308
 20
-18.306801863219
 30
0.0
 11
360.13759571484
 21
-16.633769255864
 31
0.0
  0
LINE
  5
8B
330
A
100
AcDbEntity
  8
1
  6
Continuous
 62
     3
100
AcDbLine
 10
320.963458585689
 20
18.0
 30
0.0
 11
320.963458585689
 21
-18.0
 31
0.0
  0
LINE
  5
8A
330
A
100
AcDbEntity
  8
1
  6
Continuous
 62
     3
100
AcDbLine
 10
345.463458585689
 20
19.5
 30
0.0
 11
322.463458585689
 21
19.5
 31
0.0
  0
LINE
  5
89
330
A
100
AcDbEntity
  8
1
  6
Continuous
 62
     3
100
AcDbLine
 10
346.963458585689
 20
-18.0
 30
0.0
 11
346.963458585689
 21
18.0
 31
0.0
  0
LINE
  5
88
330
A
100
AcDbEntity
  8
1
  6
Continuous
 62
     3
100
AcDbLine
 10
322.463458585689
 20
-19.5
 30
0.0
 11
345.463458585689
 21
-19.5
 31
0.0
  0
LINE
  5
87
330
A
100
AcDbEntity
  8
1
  6
Continuous
 62
     3
100
AcDbLine
 10
275.213458585513
 20
-27.750000000176
 30
0.0
 11
275.213458585513
 21
-50.750000000176
 31
0.0
  0
LINE
  5
86
330
A
100
AcDbEntity
  8
1
  6
Continuous
 62
     3
100
AcDbLine
 10
276.713458585513
 20
-52.250000000176
 30
0.0
 11
312.713458585513
 21
-52.250000000176
 31
0.0
  0
LINE
  5
85
330
A
100
AcDbEntity
  8
1
  6
Continuous
 62
     3
100
AcDbLine
 10
314.213458585513
 20
-50.750000000176
 30
0.0
 11
314.213458585513
 21
-27.750000000176
 31
0.0
  0
LINE
  5
84
330
A
100
AcDbEntity
  8
1
  6
Continuous
 62
     3
100
AcDbLine
 10
312.713458585513
 20
-26.250000000176
 30
0.0
 11
276.713458585513
 21
-26.250000000176
 31
0.0
  0
LINE
  5
83
330
A
100
AcDbEntity
  8
1
  6
Continuous
 62
     3
100
AcDbLine
 10
268.868159123802
 20
-46.765371804363
 30
0.0
 11
268.290808854614
 21
-45.76537180436299
 31
0.0
  0
LINE
  5
82
330
A
100
AcDbEntity
  8
1
  6
Continuous
 62
     3
100
AcDbLine
 10
268.290808854614
 20
-45.76537180436299
 30
0.0
 11
267.136108316234
 21
-45.765371804361
 31
0.0
  0
LINE
  5
81
330
A
100
AcDbEntity
  8
1
  6
Continuous
 62
     3
100
AcDbLine
 10
267.136108316234
 20
-45.765371804361
 30
0.0
 11
266.558758047043
 21
-46.76537180436
 31
0.0
  0
LINE
  5
80
330
A
100
AcDbEntity
  8
1
  6
Continuous
 62
     3
100
AcDbLine
 10
266.558758047043
 20
-46.76537180436
 30
0.0
 11
267.136108316232
 21
-47.765371804361
 31
0.0
  0
LINE
  5
7F
330
A
100
AcDbEntity
  8
1
  6
Continuous
 62
     3
100
AcDbLine
 10
267.136108316232
 20
-47.765371804361
 30
0.0
 11
268.290808854611
 21
-47.76537180436299
 31
0.0
  0
LINE
  5
7E
330
A
100
AcDbEntity
  8
1
  6
Continuous
 62
     3
100
AcDbLine
 10
268.290808854611
 20
-47.76537180436299
 30
0.0
 11
268.868159123802
 21
-46.765371804363
 31
0.0
  0
LINE
  5
7D
330
A
100
AcDbEntity
  8
1
  6
Continuous
 62
     3
100
AcDbLine
 10
247.948086781149
 20
25.845299461711
 30
0.0
 11
248.94808678115
 21
26.422649730899
 31
0.0
  0
LINE
  5
7C
330
A
100
AcDbEntity
  8
1
  6
Continuous
 62
     3
100
AcDbLine
 10
248.94808678115
 20
26.422649730899
 30
0.0
 11
248.948086781151
 21
27.57735026927801
 31
0.0
  0
LINE
  5
7B
330
A
100
AcDbEntity
  8
1
  6
Continuous
 62
     3
100
AcDbLine
 10
248.948086781151
 20
27.57735026927801
 30
0.0
 11
247.948086781152
 21
28.154700538469
 31
0.0
  0
LINE
  5
7A
330
A
100
AcDbEntity
  8
1
  6
Continuous
 62
     3
100
AcDbLine
 10
247.948086781152
 20
28.154700538469
 30
0.0
 11
246.948086781151
 21
27.577350269281
 31
0.0
  0
LINE
  5
79
330
A
100
AcDbEntity
  8
1
  6
Continuous
 62
     3
100
AcDbLine
 10
246.948086781151
 20
27.577350269281
 30
0.0
 11
246.94808678115
 21
26.422649730902
 31
0.0
  0
LINE
  5
78
330
A
100
AcDbEntity
  8
1
  6
Continuous
 62
     3
100
AcDbLine
 10
246.94808678115
 20
26.422649730902
 30
0.0
 11
247.948086781149
 21
25.845299461711
 31
0.0
  0
LINE
  5
77
330
A
100
AcDbEntity
  8
1
  6
Continuous
 62
     3
100
AcDbLine
 10
321.136108316414
 20
47.76537180436299
 30
0.0
 11
320.558758047223
 21
46.765371804364
 31
0.0
  0
LINE
  5
76
330
A
100
AcDbEntity
  8
1
  6
Continuous
 62
     3
100
AcDbLine
 10
322.290808854794
 20
47.765371804361
 30
0.0
 11
321.136108316414
 21
47.76537180436299
 31
0.0
  0
LINE
  5
75
330
A
100
AcDbEntity
  8
1
  6
Continuous
 62
     3
100
AcDbLine
 10
322.868159123982
 20
46.76537180436
 30
0.0
 11
322.290808854794
 21
47.765371804361
 31
0.0
  0
LINE
  5
74
330
A
100
AcDbEntity
  8
1
  6
Continuous
 62
     3
100
AcDbLine
 10
322.290808854791
 20
45.765371804361
 30
0.0
 11
322.868159123982
 21
46.76537180436
 31
0.0
  0
LINE
  5
73
330
A
100
AcDbEntity
  8
1
  6
Continuous
 62
     3
100
AcDbLine
 10
321.136108316411
 20
45.76537180436299
 30
0.0
 11
322.290808854791
 21
45.765371804361
 31
0.0
  0
LINE
  5
72
330
A
100
AcDbEntity
  8
1
  6
Continuous
 62
     3
100
AcDbLine
 10
320.558758047223
 20
46.765371804364
 30
0.0
 11
321.136108316411
 21
45.76537180436299
 31
0.0
  0
LINE
  5
71
330
A
100
AcDbEntity
  8
1
  6
Continuous
 62
     3
100
AcDbLine
 10
-89.408108442253
 20
57.15767664977299
 30
0.0
 11
-90.56280898063199
 21
59.15767664977299
 31
0.0
  0
LINE
  5
70
330
A
100
AcDbEntity
  8
1
  6
Continuous
 62
     3
100
AcDbLine
 10
-90.56280898063199
 20
59.15767664977299
 30
0.0
 11
-92.87221005739001
 21
59.15767664977299
 31
0.0
  0
LINE
  5
6F
330
A
100
AcDbEntity
  8
1
  6
Continuous
 62
     3
100
AcDbLine
 10
-92.87221005739001
 20
59.15767664977299
 30
0.0
 11
-94.02691059577
 21
57.15767664977299
 31
0.0
  0
LINE
  5
6E
330
A
100
AcDbEntity
  8
1
  6
Continuous
 62
     3
100
AcDbLine
 10
-94.02691059577
 20
57.15767664977299
 30
0.0
 11
-92.87221005739001
 21
55.157676649773
 31
0.0
  0
LINE
  5
6D
330
A
100
AcDbEntity
  8
1
  6
Continuous
 62
     3
100
AcDbLine
 10
-92.87221005739001
 20
55.157676649773
 30
0.0
 11
-90.56280898063199
 21
55.157676649773
 31
0.0
  0
LINE
  5
6C
330
A
100
AcDbEntity
  8
1
  6
Continuous
 62
     3
100
AcDbLine
 10
-90.56280898063199
 20
55.157676649773
 30
0.0
 11
-89.408108442253
 21
57.15767664977299
 31
0.0
  0
LINE
  5
6B
330
A
100
AcDbEntity
  8
1
  6
Continuous
 62
     3
100
AcDbLine
 10
-67.559832869238
 20
30.690598923242
 30
0.0
 11
-65.55983286923801
 21
31.845299461621
 31
0.0
  0
LINE
  5
6A
330
A
100
AcDbEntity
  8
1
  6
Continuous
 62
     3
100
AcDbLine
 10
-69.559832869238
 20
31.845299461621
 30
0.0
 11
-67.559832869238
 21
30.690598923242
 31
0.0
  0
LINE
  5
69
330
A
100
AcDbEntity
  8
1
  6
Continuous
 62
     3
100
AcDbLine
 10
-69.559832869238
 20
34.15470053838
 30
0.0
 11
-69.559832869238
 21
31.845299461621
 31
0.0
  0
LINE
  5
68
330
A
100
AcDbEntity
  8
1
  6
Continuous
 62
     3
100
AcDbLine
 10
-67.559832869238
 20
35.309401076759
 30
0.0
 11
-69.559832869238
 21
34.15470053838
 31
0.0
  0
LINE
  5
67
330
A
100
AcDbEntity
  8
1
  6
Continuous
 62
     3
100
AcDbLine
 10
-65.55983286923801
 20
34.154700538379
 30
0.0
 11
-67.559832869238
 21
35.309401076759
 31
0.0
  0
LINE
  5
66
330
A
100
AcDbEntity
  8
1
  6
Continuous
 62
     3
100
AcDbLine
 10
-65.55983286923801
 20
31.845299461621
 30
0.0
 11
-65.55983286923801
 21
34.154700538379
 31
0.0
  0
LINE
  5
65
330
A
100
AcDbEntity
  8
1
  6
Continuous
 62
     3
100
AcDbLine
 10
-57.562808980632
 20
-2.0
 30
0.0
 11
-56.40810844225299
 21
0.0
 31
0.0
  0
LINE
  5
64
330
A
100
AcDbEntity
  8
1
  6
Continuous
 62
     3
100
AcDbLine
 10
-56.40810844225299
 20
0.0
 30
0.0
 11
-57.562808980632
 21
2.0
 31
0.0
  0
LINE
  5
63
330
A
100
AcDbEntity
  8
1
  6
Continuous
 62
     3
100
AcDbLine
 10
-57.562808980632
 20
2.0
 30
0.0
 11
-59.87221005739001
 21
2.0
 31
0.0
  0
LINE
  5
62
330
A
100
AcDbEntity
  8
1
  6
Continuous
 62
     3
100
AcDbLine
 10
-59.87221005739001
 20
2.0
 30
0.0
 11
-61.02691059577
 21
0.0
 31
0.0
  0
LINE
  5
61
330
A
100
AcDbEntity
  8
1
  6
Continuous
 62
     3
100
AcDbLine
 10
-61.02691059577
 20
0.0
 30
0.0
 11
-59.87221005739001
 21
-2.0
 31
0.0
  0
LINE
  5
60
330
A
100
AcDbEntity
  8
1
  6
Continuous
 62
     3
100
AcDbLine
 10
-59.87221005739001
 20
-2.0
 30
0.0
 11
-57.562808980632
 21
-2.0
 31
0.0
  0
LINE
  5
5F
330
A
100
AcDbEntity
  8
1
  6
Continuous
 62
     3
100
AcDbLine
 10
-69.559832869238
 20
-34.154700538379
 30
0.0
 11
-67.559832869239
 21
-35.309401076758
 31
0.0
  0
LINE
  5
5E
330
A
100
AcDbEntity
  8
1
  6
Continuous
 62
     3
100
AcDbLine
 10
-69.559832869238
 20
-31.845299461621
 30
0.0
 11
-69.559832869238
 21
-34.154700538379
 31
0.0
  0
LINE
  5
5D
330
A
100
AcDbEntity
  8
1
  6
Continuous
 62
     3
100
AcDbLine
 10
-67.559832869238
 20
-30.690598923241
 30
0.0
 11
-69.559832869238
 21
-31.845299461621
 31
0.0
  0
LINE
  5
5C
330
A
100
AcDbEntity
  8
1
  6
Continuous
 62
     3
100
AcDbLine
 10
-65.55983286923801
 20
-31.845299461621
 30
0.0
 11
-67.559832869238
 21
-30.690598923241
 31
0.0
  0
LINE
  5
5B
330
A
100
AcDbEntity
  8
1
  6
Continuous
 62
     3
100
AcDbLine
 10
-65.559832869239
 20
-34.15470053838
 30
0.0
 11
-65.55983286923801
 21
-31.845299461621
 31
0.0
  0
LINE
  5
5A
330
A
100
AcDbEntity
  8
1
  6
Continuous
 62
     3
100
AcDbLine
 10
-67.559832869239
 20
-35.309401076758
 30
0.0
 11
-65.559832869239
 21
-34.15470053838
 31
0.0
  0
LINE
  5
59
330
A
100
AcDbEntity
  8
1
  6
Continuous
 62
     3
100
AcDbLine
 10
-92.872210057391
 20
-59.15767664977299
 30
0.0
 11
-90.56280898063199
 21
-59.15767664977299
 31
0.0
  0
LINE
  5
58
330
A
100
AcDbEntity
  8
1
  6
Continuous
 62
     3
100
AcDbLine
 10
-90.56280898063199
 20
-59.15767664977299
 30
0.0
 11
-89.408108442253
 21
-57.15767664977299
 31
0.0
  0
LINE
  5
57
330
A
100
AcDbEntity
  8
1
  6
Continuous
 62
     3
100
AcDbLine
 10
-89.408108442253
 20
-57.15767664977299
 30
0.0
 11
-90.56280898063199
 21
-55.157676649773
 31
0.0
  0
LINE
  5
56
330
A
100
AcDbEntity
  8
1
  6
Continuous
 62
     3
100
AcDbLine
 10
-90.56280898063199
 20
-55.157676649773
 30
0.0
 11
-92.872210057391
 21
-55.157676649773
 31
0.0
  0
LINE
  5
55
330
A
100
AcDbEntity
  8
1
  6
Continuous
 62
     3
100
AcDbLine
 10
-92.872210057391
 20
-55.157676649773
 30
0.0
 11
-94.02691059577
 21
-57.15767664977299
 31
0.0
  0
LINE
  5
54
330
A
100
AcDbEntity
  8
1
  6
Continuous
 62
     3
100
AcDbLine
 10
-94.02691059577
 20
-57.15767664977299
 30
0.0
 11
-92.872210057391
 21
-59.15767664977299
 31
0.0
  0
LINE
  5
53
330
A
100
AcDbEntity
  8
1
  6
Continuous
 62
     3
100
AcDbLine
 10
-126.717509519012
 20
-64.84529946162099
 30
0.0
 11
-126.717509519012
 21
-67.15470053837901
 31
0.0
  0
LINE
  5
52
330
A
100
AcDbEntity
  8
1
  6
Continuous
 62
     3
100
AcDbLine
 10
-124.717509519012
 20
-63.690598923242
 30
0.0
 11
-126.717509519012
 21
-64.84529946162099
 31
0.0
  0
LINE
  5
51
330
A
100
AcDbEntity
  8
1
  6
Continuous
 62
     3
100
AcDbLine
 10
-122.717509519011
 20
-64.84529946162099
 30
0.0
 11
-124.717509519012
 21
-63.690598923242
 31
0.0
  0
LINE
  5
50
330
A
100
AcDbEntity
  8
1
  6
Continuous
 62
     3
100
AcDbLine
 10
-122.717509519012
 20
-67.15470053837901
 30
0.0
 11
-122.717509519011
 21
-64.84529946162099
 31
0.0
  0
LINE
  5
4F
330
A
100
AcDbEntity
  8
1
  6
Continuous
 62
     3
100
AcDbLine
 10
-124.717509519012
 20
-68.309401076758
 30
0.0
 11
-122.717509519012
 21
-67.15470053837901
 31
0.0
  0
LINE
  5
4E
330
A
100
AcDbEntity
  8
1
  6
Continuous
 62
     3
100
AcDbLine
 10
-126.717509519012
 20
-67.15470053837901
 30
0.0
 11
-124.717509519012
 21
-68.309401076758
 31
0.0
  0
LINE
  5
4D
330
A
100
AcDbEntity
  8
1
  6
Continuous
 62
     3
100
AcDbLine
 10
-160.02691059577
 20
-57.15767664977299
 30
0.0
 11
-158.872210057391
 21
-59.15767664977299
 31
0.0
  0
LINE
  5
4C
330
A
100
AcDbEntity
  8
1
  6
Continuous
 62
     3
100
AcDbLine
 10
-158.872210057391
 20
-59.15767664977299
 30
0.0
 11
-156.562808980632
 21
-59.15767664977299
 31
0.0
  0
LINE
  5
4B
330
A
100
AcDbEntity
  8
1
  6
Continuous
 62
     3
100
AcDbLine
 10
-156.562808980632
 20
-59.15767664977299
 30
0.0
 11
-155.408108442253
 21
-57.15767664977299
 31
0.0
  0
LINE
  5
4A
330
A
100
AcDbEntity
  8
1
  6
Continuous
 62
     3
100
AcDbLine
 10
-155.408108442253
 20
-57.15767664977299
 30
0.0
 11
-156.562808980632
 21
-55.157676649773
 31
0.0
  0
LINE
  5
49
330
A
100
AcDbEntity
  8
1
  6
Continuous
 62
     3
100
AcDbLine
 10
-156.562808980632
 20
-55.157676649773
 30
0.0
 11
-158.872210057391
 21
-55.157676649773
 31
0.0
  0
LINE
  5
48
330
A
100
AcDbEntity
  8
1
  6
Continuous
 62
     3
100
AcDbLine
 10
-158.872210057391
 20
-55.157676649773
 30
0.0
 11
-160.02691059577
 21
-57.15767664977299
 31
0.0
  0
LINE
  5
47
330
A
100
AcDbEntity
  8
1
  6
Continuous
 62
     3
100
AcDbLine
 10
-181.875186168784
 20
-30.690598923241
 30
0.0
 11
-183.8751861687839
 21
-31.84529946162
 31
0.0
  0
LINE
  5
46
330
A
100
AcDbEntity
  8
1
  6
Continuous
 62
     3
100
AcDbLine
 10
-179.875186168785
 20
-31.845299461621
 30
0.0
 11
-181.875186168784
 21
-30.690598923241
 31
0.0
  0
LINE
  5
45
330
A
100
AcDbEntity
  8
1
  6
Continuous
 62
     3
100
AcDbLine
 10
-179.875186168784
 20
-34.154700538379
 30
0.0
 11
-179.875186168785
 21
-31.845299461621
 31
0.0
  0
LINE
  5
44
330
A
100
AcDbEntity
  8
1
  6
Continuous
 62
     3
100
AcDbLine
 10
-181.875186168784
 20
-35.309401076758
 30
0.0
 11
-179.875186168784
 21
-34.154700538379
 31
0.0
  0
LINE
  5
43
330
A
100
AcDbEntity
  8
1
  6
Continuous
 62
     3
100
AcDbLine
 10
-183.875186168785
 20
-34.154700538379
 30
0.0
 11
-181.875186168784
 21
-35.309401076758
 31
0.0
  0
LINE
  5
42
330
A
100
AcDbEntity
  8
1
  6
Continuous
 62
     3
100
AcDbLine
 10
-183.8751861687839
 20
-31.84529946162
 30
0.0
 11
-183.875186168785
 21
-34.154700538379
 31
0.0
  0
LINE
  5
41
330
A
100
AcDbEntity
  8
1
  6
Continuous
 62
     3
100
AcDbLine
 10
-191.872210057391
 20
2.0
 30
0.0
 11
-193.02691059577
 21
0.0
 31
0.0
  0
LINE
  5
40
330
A
100
AcDbEntity
  8
1
  6
Continuous
 62
     3
100
AcDbLine
 10
-193.02691059577
 20
0.0
 30
0.0
 11
-191.872210057391
 21
-2.0
 31
0.0
  0
LINE
  5
3F
330
A
100
AcDbEntity
  8
1
  6
Continuous
 62
     3
100
AcDbLine
 10
-191.872210057391
 20
-2.0
 30
0.0
 11
-189.562808980632
 21
-2.0
 31
0.0
  0
LINE
  5
3E
330
A
100
AcDbEntity
  8
1
  6
Continuous
 62
     3
100
AcDbLine
 10
-189.562808980632
 20
-2.0
 30
0.0
 11
-188.408108442253
 21
0.0
 31
0.0
  0
LINE
  5
3D
330
A
100
AcDbEntity
  8
1
  6
Continuous
 62
     3
100
AcDbLine
 10
-188.408108442253
 20
0.0
 30
0.0
 11
-189.562808980632
 21
2.0
 31
0.0
  0
LINE
  5
3C
330
A
100
AcDbEntity
  8
1
  6
Continuous
 62
     3
100
AcDbLine
 10
-189.562808980632
 20
2.0
 30
0.0
 11
-191.872210057391
 21
2.0
 31
0.0
  0
LINE
  5
3B
330
A
100
AcDbEntity
  8
1
  6
Continuous
 62
     3
100
AcDbLine
 10
-179.875186168784
 20
34.15470053838
 30
0.0
 11
-181.875186168784
 21
35.309401076759
 31
0.0
  0
LINE
  5
3A
330
A
100
AcDbEntity
  8
1
  6
Continuous
 62
     3
100
AcDbLine
 10
-179.875186168784
 20
31.845299461621
 30
0.0
 11
-179.875186168784
 21
34.15470053838
 31
0.0
  0
LINE
  5
39
330
A
100
AcDbEntity
  8
1
  6
Continuous
 62
     3
100
AcDbLine
 10
-181.875186168784
 20
30.690598923242
 30
0.0
 11
-179.875186168784
 21
31.845299461621
 31
0.0
  0
LINE
  5
38
330
A
100
AcDbEntity
  8
1
  6
Continuous
 62
     3
100
AcDbLine
 10
-183.8751861687839
 20
31.845299461621
 30
0.0
 11
-181.875186168784
 21
30.690598923242
 31
0.0
  0
LINE
  5
37
330
A
100
AcDbEntity
  8
1
  6
Continuous
 62
     3
100
AcDbLine
 10
-183.8751861687839
 20
34.15470053838
 30
0.0
 11
-183.8751861687839
 21
31.845299461621
 31
0.0
  0
LINE
  5
36
330
A
100
AcDbEntity
  8
1
  6
Continuous
 62
     3
100
AcDbLine
 10
-181.875186168784
 20
35.309401076759
 30
0.0
 11
-183.8751861687839
 21
34.15470053838
 31
0.0
  0
LINE
  5
35
330
A
100
AcDbEntity
  8
1
  6
Continuous
 62
     3
100
AcDbLine
 10
-156.562808980632
 20
59.15767664977299
 30
0.0
 11
-158.872210057391
 21
59.15767664977299
 31
0.0
  0
LINE
  5
34
330
A
100
AcDbEntity
  8
1
  6
Continuous
 62
     3
100
AcDbLine
 10
-158.872210057391
 20
59.15767664977299
 30
0.0
 11
-160.02691059577
 21
57.15767664977299
 31
0.0
  0
LINE
  5
33
330
A
100
AcDbEntity
  8
1
  6
Continuous
 62
     3
100
AcDbLine
 10
-160.02691059577
 20
57.15767664977299
 30
0.0
 11
-158.872210057391
 21
55.157676649773
 31
0.0
  0
LINE
  5
32
330
A
100
AcDbEntity
  8
1
  6
Continuous
 62
     3
100
AcDbLine
 10
-158.872210057391
 20
55.157676649773
 30
0.0
 11
-156.562808980632
 21
55.157676649773
 31
0.0
  0
LINE
  5
31
330
A
100
AcDbEntity
  8
1
  6
Continuous
 62
     3
100
AcDbLine
 10
-156.562808980632
 20
55.157676649773
 30
0.0
 11
-155.408108442253
 21
57.15767664977299
 31
0.0
  0
LINE
  5
30
330
A
100
AcDbEntity
  8
1
  6
Continuous
 62
     3
100
AcDbLine
 10
-155.408108442253
 20
57.15767664977299
 30
0.0
 11
-156.562808980632
 21
59.15767664977299
 31
0.0
  0
LINE
  5
2F
330
A
100
AcDbEntity
  8
1
  6
Continuous
 62
     3
100
AcDbLine
 10
-122.717509519011
 20
64.84529946162099
 30
0.0
 11
-122.717509519011
 21
67.15470053838
 31
0.0
  0
LINE
  5
2E
330
A
100
AcDbEntity
  8
1
  6
Continuous
 62
     3
100
AcDbLine
 10
-124.717509519011
 20
63.690598923242
 30
0.0
 11
-122.717509519011
 21
64.84529946162099
 31
0.0
  0
LINE
  5
2D
330
A
100
AcDbEntity
  8
1
  6
Continuous
 62
     3
100
AcDbLine
 10
-126.717509519011
 20
64.84529946162099
 30
0.0
 11
-124.717509519011
 21
63.690598923242
 31
0.0
  0
LINE
  5
2C
330
A
100
AcDbEntity
  8
1
  6
Continuous
 62
     3
100
AcDbLine
 10
-126.717509519011
 20
67.15470053838
 30
0.0
 11
-126.717509519011
 21
64.84529946162099
 31
0.0
  0
LINE
  5
2B
330
A
100
AcDbEntity
  8
1
  6
Continuous
 62
     3
100
AcDbLine
 10
-124.717509519011
 20
68.309401076759
 30
0.0
 11
-126.717509519011
 21
67.15470053838
 31
0.0
  0
LINE
  5
2A
330
A
100
AcDbEntity
  8
1
  6
Continuous
 62
     3
100
AcDbLine
 10
-122.717509519011
 20
67.15470053838
 30
0.0
 11
-124.717509519011
 21
68.309401076759
 31
0.0
  0
ENDSEC
  0
SECTION
  2
OBJECTS
  0
DICTIONARY
  5
19
330
0
100
AcDbDictionary
281
     1
  3
ACAD_CIP_PREVIOUS_PRODUCT_INFO
350
38D
  3
ACAD_COLOR
350
370
  3
ACAD_GROUP
350
1A
  3
ACAD_LAYOUT
350
387
  3
ACAD_MATERIAL
350
33E
  3
ACAD_MLEADERSTYLE
350
385
  3
ACAD_MLINESTYLE
350
1B
  3
ACAD_PLOTSETTINGS
350
388
  3
ACAD_PLOTSTYLENAME
350
33C
  3
ACAD_SCALELIST
350
373
  3
ACAD_TABLESTYLE
350
371
  3
ACAD_VISUALSTYLE
350
357
  3
ACDB_RECOMPOSE_DATA
350
396
  3
AcDbVariableDictionary
350
38E
  0
XRECORD
  5
38D
102
{ACAD_REACTORS
330
19
102
}
330
19
100
AcDbXrecord
280
     1
300
ACDLT
300
2012
300
ACDLT_F_S
  0
DICTIONARY
  5
370
102
{ACAD_REACTORS
330
19
102
}
330
19
100
AcDbDictionary
281
     1
  0
DICTIONARY
  5
1A
102
{ACAD_REACTORS
330
19
102
}
330
19
100
AcDbDictionary
281
     1
  0
DICTIONARY
  5
387
102
{ACAD_REACTORS
330
19
102
}
330
19
100
AcDbDictionary
281
     1
  3
Layout1
350
38A
  3
Model
350
389
  0
DICTIONARY
  5
33E
102
{ACAD_REACTORS
330
19
102
}
330
19
100
AcDbDictionary
281
     1
  3
ByBlock
350
347
  3
ByLayer
350
33F
  3
Global
350
34F
  0
DICTIONARY
  5
385
102
{ACAD_REACTORS
330
19
102
}
330
19
100
AcDbDictionary
281
     1
  3
Standard
350
386
  0
DICTIONARY
  5
1B
102
{ACAD_REACTORS
330
19
102
}
330
19
100
AcDbDictionary
281
     1
  3
STANDARD
350
1C
  0
DICTIONARY
  5
388
102
{ACAD_REACTORS
330
19
102
}
330
19
100
AcDbDictionary
281
     1
  0
ACDBDICTIONARYWDFLT
  5
33C
102
{ACAD_REACTORS
330
19
102
}
330
19
100
AcDbDictionary
281
     1
  3
Normal
350
33D
100
AcDbDictionaryWithDefault
340
33D
  0
DICTIONARY
  5
373
102
{ACAD_REACTORS
330
19
102
}
330
19
100
AcDbDictionary
281
     1
  3
A0
350
374
  3
A1
350
375
  3
A2
350
376
  3
A3
350
377
  3
A4
350
378
  3
A5
350
379
  3
A6
350
37A
  3
A7
350
37B
  3
A8
350
37C
  3
A9
350
37D
  3
B0
350
37E
  3
B1
350
37F
  3
B2
350
380
  3
B3
350
381
  3
B4
350
382
  3
B5
350
383
  3
B6
350
384
  0
DICTIONARY
  5
371
102
{ACAD_REACTORS
330
19
102
}
330
19
100
AcDbDictionary
281
     1
  3
Standard
350
372
  0
DICTIONARY
  5
357
102
{ACAD_REACTORS
330
19
102
}
330
19
100
AcDbDictionary
281
     1
  3
2dWireframe
350
35D
  3
Basic
350
35C
  3
Brighten
350
363
  3
ColorChange
350
367
  3
Conceptual
350
360
  3
Dim
350
362
  3
EdgeColorOff
350
36F
  3
Facepattern
350
366
  3
Flat
350
358
  3
FlatWithEdges
350
359
  3
Gouraud
350
35A
  3
GouraudWithEdges
350
35B
  3
Hidden
350
35F
  3
JitterOff
350
36D
  3
Linepattern
350
365
  3
OverhangOff
350
36E
  3
Realistic
350
361
  3
Shaded
350
36C
  3
Shaded with edges
350
36B
  3
Shades of Gray
350
368
  3
Sketchy
350
369
  3
Thicken
350
364
  3
Wireframe
350
35E
  3
X-Ray
350
36A
  0
XRECORD
  5
396
102
{ACAD_REACTORS
330
19
102
}
330
19
100
AcDbXrecord
280
     1
 90
        1
330
372
  0
DICTIONARY
  5
38E
102
{ACAD_REACTORS
330
19
102
}
330
19
100
AcDbDictionary
281
     1
  3
CANNOSCALE
350
391
  3
CMLEADERSTYLE
350
390
  3
CTABLESTYLE
350
38F
  3
XCLIPFRAME
350
392
  0
LAYOUT
  5
38A
102
{ACAD_REACTORS
330
387
102
}
330
387
100
AcDbPlotSettings
  1

  2
Adobe PDF
  4

  6

 40
0.0
 41
0.0
 42
0.0
 43
0.0
 44
0.0
 45
0.0
 46
0.0
 47
0.0
 48
0.0
 49
0.0
140
0.0
141
0.0
142
1.0
143
1.0
 70
   688
 72
     0
 73
     0
 74
     5
  7

 75
    16
147
1.0
 76
     0
 77
     2
 78
   300
148
0.0
149
0.0
100
AcDbLayout
  1
Layout1
 70
     0
 71
     1
 10
0.0
 20
0.0
 11
12.0
 21
9.0
 12
0.0
 22
0.0
 32
0.0
 14
1.000000000000000E+20
 24
1.000000000000000E+20
 34
1.000000000000000E+20
 15
-1.000000000000000E+20
 25
-1.000000000000000E+20
 35
-1.000000000000000E+20
146
0.0
 13
0.0
 23
0.0
 33
0.0
 16
1.0
 26
0.0
 36
0.0
 17
0.0
 27
1.0
 37
0.0
 76
     0
330
B
  0
LAYOUT
  5
389
102
{ACAD_REACTORS
330
387
102
}
330
387
100
AcDbPlotSettings
  1

  2
Adobe PDF
  4

  6

 40
0.0
 41
0.0
 42
0.0
 43
0.0
 44
0.0
 45
0.0
 46
0.0
 47
0.0
 48
0.0
 49
0.0
140
0.0
141
0.0
142
1.0
143
1.0
 70
  1712
 72
     0
 73
     0
 74
     0
  7

 75
     0
147
1.0
 76
     0
 77
     2
 78
   300
148
0.0
149
0.0
100
AcDbLayout
  1
Model
 70
     1
 71
     0
 10
0.0
 20
0.0
 11
12.0
 21
9.0
 12
0.0
 22
0.0
 32
0.0
 14
0.0
 24
0.0
 34
0.0
 15
0.0
 25
0.0
 35
0.0
146
0.0
 13
0.0
 23
0.0
 33
0.0
 16
1.0
 26
0.0
 36
0.0
 17
0.0
 27
1.0
 37
0.0
 76
     0
330
A
331
15
  0
MATERIAL
  5
347
102
{ACAD_XDICTIONARY
360
348
102
}
102
{ACAD_REACTORS
330
33E
102
}
330
33E
100
AcDbMaterial
  1
ByBlock
 72
     0
 43
0.0208333333333333
 43
0.0
 43
0.0
 43
0.0
 43
0.0
 43
0.0208333333333333
 43
0.0
 43
0.0
 43
0.0
 43
0.0
 43
1.0
 43
0.0
 43
0.0
 43
0.0
 43
0.0
 43
1.0
 77
     0
 47
0.0208333333333333
 47
0.0
 47
0.0
 47
0.0
 47
0.0
 47
0.0208333333333333
 47
0.0
 47
0.0
 47
0.0
 47
0.0
 47
1.0
 47
0.0
 47
0.0
 47
0.0
 47
0.0
 47
1.0
171
     0
 49
0.0208333333333333
 49
0.0
 49
0.0
 49
0.0
 49
0.0
 49
0.0208333333333333
 49
0.0
 49
0.0
 49
0.0
 49
0.0
 49
1.0
 49
0.0
 49
0.0
 49
0.0
 49
0.0
 49
1.0
175
     0
142
0.0208333333333333
142
0.0
142
0.0
142
0.0
142
0.0
142
0.0208333333333333
142
0.0
142
0.0
142
0.0
142
0.0
142
1.0
142
0.0
142
0.0
142
0.0
142
0.0
142
1.0
179
     0
144
0.0208333333333333
144
0.0
144
0.0
144
0.0
144
0.0
144
0.0208333333333333
144
0.0
144
0.0
144
0.0
144
0.0
144
1.0
144
0.0
144
0.0
144
0.0
144
0.0
144
1.0
147
0.0208333333333333
147
0.0
147
0.0
147
0.0
147
0.0
147
0.0208333333333333
147
0.0
147
0.0
147
0.0
147
0.0
147
1.0
147
0.0
147
0.0
147
0.0
147
0.0
147
1.0
  0
MATERIAL
  5
33F
102
{ACAD_XDICTIONARY
360
340
102
}
102
{ACAD_REACTORS
330
33E
102
}
330
33E
100
AcDbMaterial
  1
ByLayer
 72
     0
 43
0.0208333333333333
 43
0.0
 43
0.0
 43
0.0
 43
0.0
 43
0.0208333333333333
 43
0.0
 43
0.0
 43
0.0
 43
0.0
 43
1.0
 43
0.0
 43
0.0
 43
0.0
 43
0.0
 43
1.0
 77
     0
 47
0.0208333333333333
 47
0.0
 47
0.0
 47
0.0
 47
0.0
 47
0.0208333333333333
 47
0.0
 47
0.0
 47
0.0
 47
0.0
 47
1.0
 47
0.0
 47
0.0
 47
0.0
 47
0.0
 47
1.0
171
     0
 49
0.0208333333333333
 49
0.0
 49
0.0
 49
0.0
 49
0.0
 49
0.0208333333333333
 49
0.0
 49
0.0
 49
0.0
 49
0.0
 49
1.0
 49
0.0
 49
0.0
 49
0.0
 49
0.0
 49
1.0
175
     0
142
0.0208333333333333
142
0.0
142
0.0
142
0.0
142
0.0
142
0.0208333333333333
142
0.0
142
0.0
142
0.0
142
0.0
142
1.0
142
0.0
142
0.0
142
0.0
142
0.0
142
1.0
179
     0
144
0.0208333333333333
144
0.0
144
0.0
144
0.0
144
0.0
144
0.0208333333333333
144
0.0
144
0.0
144
0.0
144
0.0
144
1.0
144
0.0
144
0.0
144
0.0
144
0.0
144
1.0
147
0.0208333333333333
147
0.0
147
0.0
147
0.0
147
0.0
147
0.0208333333333333
147
0.0
147
0.0
147
0.0
147
0.0
147
1.0
147
0.0
147
0.0
147
0.0
147
0.0
147
1.0
  0
MATERIAL
  5
34F
102
{ACAD_XDICTIONARY
360
350
102
}
102
{ACAD_REACTORS
330
33E
102
}
330
33E
100
AcDbMaterial
  1
Global
 72
     0
 43
0.0208333333333333
 43
0.0
 43
0.0
 43
0.0
 43
0.0
 43
0.0208333333333333
 43
0.0
 43
0.0
 43
0.0
 43
0.0
 43
1.0
 43
0.0
 43
0.0
 43
0.0
 43
0.0
 43
1.0
 77
     0
 47
0.0208333333333333
 47
0.0
 47
0.0
 47
0.0
 47
0.0
 47
0.0208333333333333
 47
0.0
 47
0.0
 47
0.0
 47
0.0
 47
1.0
 47
0.0
 47
0.0
 47
0.0
 47
0.0
 47
1.0
171
     0
 49
0.0208333333333333
 49
0.0
 49
0.0
 49
0.0
 49
0.0
 49
0.0208333333333333
 49
0.0
 49
0.0
 49
0.0
 49
0.0
 49
1.0
 49
0.0
 49
0.0
 49
0.0
 49
0.0
 49
1.0
175
     0
142
0.0208333333333333
142
0.0
142
0.0
142
0.0
142
0.0
142
0.0208333333333333
142
0.0
142
0.0
142
0.0
142
0.0
142
1.0
142
0.0
142
0.0
142
0.0
142
0.0
142
1.0
179
     0
144
0.0208333333333333
144
0.0
144
0.0
144
0.0
144
0.0
144
0.0208333333333333
144
0.0
144
0.0
144
0.0
144
0.0
144
1.0
144
0.0
144
0.0
144
0.0
144
0.0
144
1.0
147
0.0208333333333333
147
0.0
147
0.0
147
0.0
147
0.0
147
0.0208333333333333
147
0.0
147
0.0
147
0.0
147
0.0
147
1.0
147
0.0
147
0.0
147
0.0
147
0.0
147
1.0
  0
MLEADERSTYLE
  5
386
102
{ACAD_REACTORS
330
385
102
}
330
385
100
AcDbMLeaderStyle
170
     2
171
     1
172
     0
 90
        2
 40
0.0
 41
0.0
173
     1
 91
-1056964608
340
11
 92
       -2
290
     1
 42
0.09
291
     1
 43
0.36
  3
Standard
 44
0.18
300

342
17
174
     1
178
     6
175
     1
176
     0
 93
-1056964608
 45
0.18
292
     0
297
     0
 46
0.18
 94
-1056964608
 47
1.0
 49
1.0
140
1.0
293
     1
141
0.0
294
     1
177
     0
142
1.0
295
     0
296
     0
143
0.125
1001
ACAD_MLEADERVER
1070
     2
  0
MLINESTYLE
  5
1C
102
{ACAD_REACTORS
330
1B
102
}
330
1B
100
AcDbMlineStyle
  2
STANDARD
 70
     0
  3

 62
     0
 51
90.0
 52
90.0
 71
     2
 49
0.5
 62
   256
  6
BYLAYER
 49
-0.5
 62
   256
  6
BYLAYER
  0
ACDBPLACEHOLDER
  5
33D
102
{ACAD_REACTORS
330
33C
102
}
330
33C
  0
SCALE
  5
374
102
{ACAD_REACTORS
330
373
102
}
330
373
100
AcDbScale
 70
     0
300
1:1
140
1.0
141
1.0
290
     1
  0
SCALE
  5
375
102
{ACAD_REACTORS
330
373
102
}
330
373
100
AcDbScale
 70
     0
300
1/128" = 1'-0"
140
0.0078125
141
12.0
290
     0
  0
SCALE
  5
376
102
{ACAD_REACTORS
330
373
102
}
330
373
100
AcDbScale
 70
     0
300
1/64" = 1'-0"
140
0.015625
141
12.0
290
     0
  0
SCALE
  5
377
102
{ACAD_REACTORS
330
373
102
}
330
373
100
AcDbScale
 70
     0
300
1/32" = 1'-0"
140
0.03125
141
12.0
290
     0
  0
SCALE
  5
378
102
{ACAD_REACTORS
330
373
102
}
330
373
100
AcDbScale
 70
     0
300
1/16" = 1'-0"
140
0.0625
141
12.0
290
     0
  0
SCALE
  5
379
102
{ACAD_REACTORS
330
373
102
}
330
373
100
AcDbScale
 70
     0
300
3/32" = 1'-0"
140
0.09375
141
12.0
290
     0
  0
SCALE
  5
37A
102
{ACAD_REACTORS
330
373
102
}
330
373
100
AcDbScale
 70
     0
300
1/8" = 1'-0"
140
0.125
141
12.0
290
     0
  0
SCALE
  5
37B
102
{ACAD_REACTORS
330
373
102
}
330
373
100
AcDbScale
 70
     0
300
3/16" = 1'-0"
140
0.1875
141
12.0
290
     0
  0
SCALE
  5
37C
102
{ACAD_REACTORS
330
373
102
}
330
373
100
AcDbScale
 70
     0
300
1/4" = 1'-0"
140
0.25
141
12.0
290
     0
  0
SCALE
  5
37D
102
{ACAD_REACTORS
330
373
102
}
330
373
100
AcDbScale
 70
     0
300
3/8" = 1'-0"
140
0.375
141
12.0
290
     0
  0
SCALE
  5
37E
102
{ACAD_REACTORS
330
373
102
}
330
373
100
AcDbScale
 70
     0
300
1/2" = 1'-0"
140
0.5
141
12.0
290
     0
  0
SCALE
  5
37F
102
{ACAD_REACTORS
330
373
102
}
330
373
100
AcDbScale
 70
     0
300
3/4" = 1'-0"
140
0.75
141
12.0
290
     0
  0
SCALE
  5
380
102
{ACAD_REACTORS
330
373
102
}
330
373
100
AcDbScale
 70
     0
300
1" = 1'-0"
140
1.0
141
12.0
290
     0
  0
SCALE
  5
381
102
{ACAD_REACTORS
330
373
102
}
330
373
100
AcDbScale
 70
     0
300
1-1/2" = 1'-0"
140
1.5
141
12.0
290
     0
  0
SCALE
  5
382
102
{ACAD_REACTORS
330
373
102
}
330
373
100
AcDbScale
 70
     0
300
3" = 1'-0"
140
3.0
141
12.0
290
     0
  0
SCALE
  5
383
102
{ACAD_REACTORS
330
373
102
}
330
373
100
AcDbScale
 70
     0
300
6" = 1'-0"
140
6.0
141
12.0
290
     0
  0
SCALE
  5
384
102
{ACAD_REACTORS
330
373
102
}
330
373
100
AcDbScale
 70
     0
300
1'-0" = 1'-0"
140
12.0
141
12.0
290
     0
  0
TABLESTYLE
  5
372
102
{ACAD_XDICTIONARY
360
394
102
}
102
{ACAD_REACTORS
330
371
102
}
330
371
100
AcDbTableStyle
  3
Standard
 70
     0
 71
     0
 40
0.06
 41
0.06
280
     0
281
     0
  7
STANDARD
140
0.18
170
     2
 62
     0
 63
     7
283
     0
274
    -2
284
     1
 64
     0
275
    -2
285
     1
 65
     0
276
    -2
286
     1
 66
     0
277
    -2
287
     1
 67
     0
278
    -2
288
     1
 68
     0
279
    -2
289
     1
 69
     0
  7
STANDARD
140
0.25
170
     5
 62
     0
 63
     7
283
     0
274
    -2
284
     1
 64
     0
275
    -2
285
     1
 65
     0
276
    -2
286
     1
 66
     0
277
    -2
287
     1
 67
     0
278
    -2
288
     1
 68
     0
279
    -2
289
     1
 69
     0
  7
STANDARD
140
0.18
170
     5
 62
     0
 63
     7
283
     0
274
    -2
284
     1
 64
     0
275
    -2
285
     1
 65
     0
276
    -2
286
     1
 66
     0
277
    -2
287
     1
 67
     0
278
    -2
288
     1
 68
     0
279
    -2
289
     1
 69
     0
  0
VISUALSTYLE
  5
35D
102
{ACAD_XDICTIONARY
360
3A4
102
}
102
{ACAD_REACTORS
330
357
102
}
330
357
100
AcDbVisualStyle
  2
2dWireframe
 70
     4
 71
     0
 72
     2
 73
     0
 90
        0
 40
-0.6
 41
-30.0
 62
     5
 63
     7
421
 16777215
 74
     1
 91
        4
 64
     7
 65
   257
 75
     1
175
     1
 42
1.0
 92
        0
 66
   257
 43
1.0
 76
     1
 77
     6
 78
     2
 67
     7
 79
     5
170
     0
171
     0
290
     0
174
     0
 93
        1
 44
0.0
173
     0
291
     0
 45
0.0
1001
ACAD
1000
AcDbSavedByObjectVersion
1070
     0
  0
VISUALSTYLE
  5
35C
102
{ACAD_XDICTIONARY
360
3A2
102
}
102
{ACAD_REACTORS
330
357
102
}
330
357
100
AcDbVisualStyle
  2
Basic
 70
     7
 71
     1
 72
     0
 73
     1
 90
        0
 40
-0.6
 41
-30.0
 62
     5
 63
     7
421
 16777215
 74
     0
 91
        4
 64
     7
 65
   257
 75
     1
175
     1
 42
1.0
 92
        8
 66
     7
 43
1.0
 76
     1
 77
     6
 78
     2
 67
     7
 79
     5
170
     0
171
     0
290
     0
174
     0
 93
        1
 44
0.0
173
     0
291
     1
 45
0.0
1001
ACAD
1000
AcDbSavedByObjectVersion
1070
     0
  0
VISUALSTYLE
  5
363
102
{ACAD_XDICTIONARY
360
3B0
102
}
102
{ACAD_REACTORS
330
357
102
}
330
357
100
AcDbVisualStyle
  2
Brighten
 70
    12
 71
     2
 72
     2
 73
     0
 90
        0
 40
-0.6
 41
-30.0
 62
     5
 63
     7
421
 16777215
 74
     1
 91
        4
 64
     7
 65
   257
 75
     1
175
     1
 42
1.0
 92
        8
 66
     7
 43
1.0
 76
     1
 77
     6
 78
     2
 67
     7
 79
     5
170
     0
171
     0
290
     0
174
     0
 93
        1
 44
50.0
173
     0
291
     1
 45
0.0
1001
ACAD
1000
AcDbSavedByObjectVersion
1070
     0
  0
VISUALSTYLE
  5
367
102
{ACAD_XDICTIONARY
360
3B8
102
}
102
{ACAD_REACTORS
330
357
102
}
330
357
100
AcDbVisualStyle
  2
ColorChange
 70
    16
 71
     2
 72
     2
 73
     3
 90
        0
 40
-0.6
 41
-30.0
 62
     5
 63
     8
421
  8421504
 74
     1
 91
        4
 64
     7
 65
   257
 75
     1
175
     1
 42
1.0
 92
        8
 66
     8
424
  8421504
 43
1.0
 76
     1
 77
     6
 78
     2
 67
     7
 79
     5
170
     0
171
     0
290
     0
174
     0
 93
        1
 44
0.0
173
     0
291
     1
 45
0.0
1001
ACAD
1000
AcDbSavedByObjectVersion
1070
     0
  0
VISUALSTYLE
  5
360
102
{ACAD_XDICTIONARY
360
3AA
102
}
102
{ACAD_REACTORS
330
357
102
}
330
357
100
AcDbVisualStyle
  2
Conceptual
 70
     9
 71
     3
 72
     2
 73
     0
 90
        0
 40
-0.6
 41
-30.0
 62
     5
 63
     7
421
 16777215
 74
     2
 91
        2
 64
     7
 65
   257
 75
     1
175
     1
 42
179.0
 92
        8
 66
     7
 43
1.0
 76
     1
 77
     6
 78
     2
 67
     7
 79
     3
170
     0
171
     0
290
     0
174
     0
 93
        1
 44
0.0
173
     0
291
     0
 45
0.0
1001
ACAD
1000
AcDbSavedByObjectVersion
1070
     0
  0
VISUALSTYLE
  5
362
102
{ACAD_XDICTIONARY
360
3AE
102
}
102
{ACAD_REACTORS
330
357
102
}
330
357
100
AcDbVisualStyle
  2
Dim
 70
    11
 71
     2
 72
     2
 73
     0
 90
        0
 40
-0.6
 41
-30.0
 62
     5
 63
     7
421
 16777215
 74
     1
 91
        4
 64
     7
 65
   257
 75
     1
175
     1
 42
1.0
 92
        8
 66
     7
 43
1.0
 76
     1
 77
     6
 78
     2
 67
     7
 79
     5
170
     0
171
     0
290
     0
174
     0
 93
        1
 44
-50.0
173
     0
291
     1
 45
0.0
1001
ACAD
1000
AcDbSavedByObjectVersion
1070
     0
  0
VISUALSTYLE
  5
36F
102
{ACAD_XDICTIONARY
360
3C8
102
}
102
{ACAD_REACTORS
330
357
102
}
330
357
100
AcDbVisualStyle
  2
EdgeColorOff
 70
    22
 71
     2
 72
     2
 73
     0
 90
        0
 40
-0.6
 41
-30.0
 62
     5
 63
     7
421
 16777215
 74
     1
 91
        4
 64
     7
 65
   257
 75
     1
175
     1
 42
1.0
 92
        8
 66
     7
 43
1.0
 76
     1
 77
     6
 78
     2
 67
     7
 79
     5
170
     0
171
     0
290
     0
174
     0
 93
        1
 44
0.0
173
     0
291
     1
 45
0.0
1001
ACAD
1000
AcDbSavedByObjectVersion
1070
     0
  0
VISUALSTYLE
  5
366
102
{ACAD_XDICTIONARY
360
3B6
102
}
102
{ACAD_REACTORS
330
357
102
}
330
357
100
AcDbVisualStyle
  2
Facepattern
 70
    15
 71
     2
 72
     2
 73
     0
 90
        0
 40
-0.6
 41
-30.0
 62
     5
 63
     7
421
 16777215
 74
     1
 91
        4
 64
     7
 65
   257
 75
     1
175
     1
 42
1.0
 92
        8
 66
     7
 43
1.0
 76
     1
 77
     6
 78
     2
 67
     7
 79
     5
170
     0
171
     0
290
     0
174
     0
 93
        1
 44
0.0
173
     0
291
     1
 45
0.0
1001
ACAD
1000
AcDbSavedByObjectVersion
1070
     0
  0
VISUALSTYLE
  5
358
102
{ACAD_XDICTIONARY
360
39A
102
}
102
{ACAD_REACTORS
330
357
102
}
330
357
100
AcDbVisualStyle
  2
Flat
 70
     0
 71
     2
 72
     1
 73
     1
 90
        2
 40
-0.6
 41
30.0
 62
     5
 63
     7
421
 16777215
 74
     0
 91
        0
 64
     7
 65
   257
 75
     1
175
     1
 42
1.0
 92
        8
 66
     7
 43
1.0
 76
     1
 77
     6
 78
     2
 67
     7
 79
     5
170
     0
171
     0
290
     0
174
     0
 93
       13
 44
0.0
173
     0
291
     1
 45
0.0
1001
ACAD
1000
AcDbSavedByObjectVersion
1070
     0
  0
VISUALSTYLE
  5
359
102
{ACAD_XDICTIONARY
360
39C
102
}
102
{ACAD_REACTORS
330
357
102
}
330
357
100
AcDbVisualStyle
  2
FlatWithEdges
 70
     1
 71
     2
 72
     1
 73
     1
 90
        2
 40
-0.6
 41
30.0
 62
     5
 63
     7
421
 16777215
 74
     1
 91
        0
 64
     7
 65
   257
 75
     1
175
     1
 42
1.0
 92
        0
 66
   257
 43
1.0
 76
     1
 77
     6
 78
     2
 67
     7
 79
     5
170
     0
171
     0
290
     0
174
     0
 93
       13
 44
0.0
173
     0
291
     1
 45
0.0
1001
ACAD
1000
AcDbSavedByObjectVersion
1070
     0
  0
VISUALSTYLE
  5
35A
102
{ACAD_XDICTIONARY
360
39E
102
}
102
{ACAD_REACTORS
330
357
102
}
330
357
100
AcDbVisualStyle
  2
Gouraud
 70
     2
 71
     2
 72
     2
 73
     1
 90
        2
 40
-0.6
 41
30.0
 62
     5
 63
     7
421
 16777215
 74
     0
 91
        0
 64
     7
 65
   257
 75
     1
175
     1
 42
1.0
 92
        0
 66
     7
 43
1.0
 76
     1
 77
     6
 78
     2
 67
     7
 79
     5
170
     0
171
     0
290
     0
174
     0
 93
       13
 44
0.0
173
     0
291
     1
 45
0.0
1001
ACAD
1000
AcDbSavedByObjectVersion
1070
     0
  0
VISUALSTYLE
  5
35B
102
{ACAD_XDICTIONARY
360
3A0
102
}
102
{ACAD_REACTORS
330
357
102
}
330
357
100
AcDbVisualStyle
  2
GouraudWithEdges
 70
     3
 71
     2
 72
     2
 73
     1
 90
        2
 40
-0.6
 41
30.0
 62
     5
 63
     7
421
 16777215
 74
     1
 91
        0
 64
     7
 65
   257
 75
     1
175
     1
 42
1.0
 92
        0
 66
   257
 43
1.0
 76
     1
 77
     6
 78
     2
 67
     7
 79
     5
170
     0
171
     0
290
     0
174
     0
 93
       13
 44
0.0
173
     0
291
     1
 45
0.0
1001
ACAD
1000
AcDbSavedByObjectVersion
1070
     0
  0
VISUALSTYLE
  5
35F
102
{ACAD_XDICTIONARY
360
3A8
102
}
102
{ACAD_REACTORS
330
357
102
}
330
357
100
AcDbVisualStyle
  2
Hidden
 70
     6
 71
     1
 72
     2
 73
     2
 90
        0
 40
-0.6
 41
-30.0
 62
     5
 63
     7
421
 16777215
 74
     2
 91
        2
 64
     7
 65
   257
 75
     2
175
     1
 42
40.0
 92
        0
 66
   257
 43
1.0
 76
     1
 77
     6
 78
     2
 67
     7
 79
     3
170
     0
171
     0
290
     0
174
     0
 93
        1
 44
0.0
173
     0
291
     0
 45
0.0
1001
ACAD
1000
AcDbSavedByObjectVersion
1070
     0
  0
VISUALSTYLE
  5
36D
102
{ACAD_XDICTIONARY
360
3C4
102
}
102
{ACAD_REACTORS
330
357
102
}
330
357
100
AcDbVisualStyle
  2
JitterOff
 70
    20
 71
     2
 72
     2
 73
     0
 90
        0
 40
-0.6
 41
-30.0
 62
     5
 63
     7
421
 16777215
 74
     1
 91
        4
 64
     7
 65
   257
 75
     1
175
     1
 42
1.0
 92
       10
 66
     7
 43
1.0
 76
     1
 77
     6
 78
     2
 67
     7
 79
     5
170
     0
171
     0
290
     0
174
     0
 93
        1
 44
0.0
173
     0
291
     1
 45
0.0
1001
ACAD
1000
AcDbSavedByObjectVersion
1070
     0
  0
VISUALSTYLE
  5
365
102
{ACAD_XDICTIONARY
360
3B4
102
}
102
{ACAD_REACTORS
330
357
102
}
330
357
100
AcDbVisualStyle
  2
Linepattern
 70
    14
 71
     2
 72
     2
 73
     0
 90
        0
 40
-0.6
 41
-30.0
 62
     5
 63
     7
421
 16777215
 74
     1
 91
        4
 64
     7
 65
   257
 75
     7
175
     7
 42
1.0
 92
        8
 66
     7
 43
1.0
 76
     1
 77
     6
 78
     2
 67
     7
 79
     5
170
     0
171
     0
290
     0
174
     0
 93
        1
 44
0.0
173
     0
291
     1
 45
0.0
1001
ACAD
1000
AcDbSavedByObjectVersion
1070
     0
  0
VISUALSTYLE
  5
36E
102
{ACAD_XDICTIONARY
360
3C6
102
}
102
{ACAD_REACTORS
330
357
102
}
330
357
100
AcDbVisualStyle
  2
OverhangOff
 70
    21
 71
     2
 72
     2
 73
     0
 90
        0
 40
-0.6
 41
-30.0
 62
     5
 63
     7
421
 16777215
 74
     1
 91
        4
 64
     7
 65
   257
 75
     1
175
     1
 42
1.0
 92
        9
 66
     7
 43
1.0
 76
     1
 77
     6
 78
     2
 67
     7
 79
     5
170
     0
171
     0
290
     0
174
     0
 93
        1
 44
0.0
173
     0
291
     1
 45
0.0
1001
ACAD
1000
AcDbSavedByObjectVersion
1070
     0
  0
VISUALSTYLE
  5
361
102
{ACAD_XDICTIONARY
360
3AC
102
}
102
{ACAD_REACTORS
330
357
102
}
330
357
100
AcDbVisualStyle
  2
Realistic
 70
     8
 71
     2
 72
     3
 73
     0
 90
        2
 40
-0.6
 41
30.0
 62
     5
 63
     7
421
 16777215
 74
     0
 91
        0
 64
     7
 65
   257
 75
     1
175
     1
 42
1.0
 92
        8
 66
   257
 43
1.0
 76
     1
 77
     6
 78
     2
 67
     7
 79
     3
170
     0
171
     0
290
     0
174
     0
 93
       13
 44
0.0
173
     0
291
     0
 45
0.0
1001
ACAD
1000
AcDbSavedByObjectVersion
1070
     0
  0
VISUALSTYLE
  5
36C
102
{ACAD_XDICTIONARY
360
3C2
102
}
102
{ACAD_REACTORS
330
357
102
}
330
357
100
AcDbVisualStyle
  2
Shaded
 70
    27
 71
     2
 72
     2
 73
     1
 90
        2
 40
-0.6
 41
30.0
 62
     5
 63
     7
421
 16777215
 74
     0
 91
        4
 64
     7
 65
   257
 75
     1
175
     1
 42
1.0
 92
        8
 66
   257
 43
1.0
 76
     1
 77
     6
 78
     2
 67
     8
425
  7895160
 79
     3
170
     0
171
     0
290
     0
174
     0
 93
        5
 44
0.0
173
     0
291
     0
 45
0.0
1001
ACAD
1000
AcDbSavedByObjectVersion
1070
     0
  0
VISUALSTYLE
  5
36B
102
{ACAD_XDICTIONARY
360
3C0
102
}
102
{ACAD_REACTORS
330
357
102
}
330
357
100
AcDbVisualStyle
  2
Shaded with edges
 70
    26
 71
     2
 72
     2
 73
     1
 90
        2
 40
-0.6
 41
30.0
 62
     5
 63
     7
421
 16777215
 74
     1
 91
       10
 64
     7
 65
   257
 75
     2
175
     1
 42
1.0
 92
        8
 66
   257
 43
1.0
 76
     1
 77
     6
 78
     2
 67
     7
 79
     3
170
     0
171
     0
290
     0
174
     0
 93
        5
 44
0.0
173
     0
291
     0
 45
0.0
1001
ACAD
1000
AcDbSavedByObjectVersion
1070
     0
  0
VISUALSTYLE
  5
368
102
{ACAD_XDICTIONARY
360
3BA
102
}
102
{ACAD_REACTORS
330
357
102
}
330
357
100
AcDbVisualStyle
  2
Shades of Gray
 70
    23
 71
     2
 72
     2
 73
     3
 90
        0
 40
-0.6
 41
-30.0
 62
     5
 63
     7
421
 16777215
 74
     2
 91
        2
 64
     7
 65
     7
 75
     1
175
     1
 42
40.0
 92
        8
 66
     7
 43
1.0
 76
     1
 77
     6
 78
     2
 67
     7
 79
     3
170
     0
171
     0
290
     0
174
     0
 93
        1
 44
0.0
173
     0
291
     0
 45
0.0
1001
ACAD
1000
AcDbSavedByObjectVersion
1070
     0
  0
VISUALSTYLE
  5
369
102
{ACAD_XDICTIONARY
360
3BC
102
}
102
{ACAD_REACTORS
330
357
102
}
330
357
100
AcDbVisualStyle
  2
Sketchy
 70
    24
 71
     1
 72
     2
 73
     2
 90
        0
 40
-0.6
 41
-30.0
 62
     5
 63
     7
421
 16777215
 74
     2
 91
        2
 64
     7
 65
     7
 75
     1
175
     1
 42
40.0
 92
       11
 66
     7
 43
1.0
 76
     1
 77
     6
 78
     2
 67
     7
 79
     6
170
     0
171
     0
290
     0
174
     0
 93
        1
 44
0.0
173
     0
291
     0
 45
0.0
1001
ACAD
1000
AcDbSavedByObjectVersion
1070
     0
  0
VISUALSTYLE
  5
364
102
{ACAD_XDICTIONARY
360
3B2
102
}
102
{ACAD_REACTORS
330
357
102
}
330
357
100
AcDbVisualStyle
  2
Thicken
 70
    13
 71
     2
 72
     2
 73
     0
 90
        0
 40
-0.6
 41
-30.0
 62
     5
 63
     7
421
 16777215
 74
     1
 91
        4
 64
     7
 65
   257
 75
     1
175
     1
 42
1.0
 92
       12
 66
     7
 43
1.0
 76
     1
 77
     6
 78
     2
 67
     7
 79
     5
170
     0
171
     0
290
     0
174
     0
 93
        1
 44
0.0
173
     0
291
     1
 45
0.0
1001
ACAD
1000
AcDbSavedByObjectVersion
1070
     0
  0
VISUALSTYLE
  5
35E
102
{ACAD_XDICTIONARY
360
3A6
102
}
102
{ACAD_REACTORS
330
357
102
}
330
357
100
AcDbVisualStyle
  2
Wireframe
 70
     5
 71
     0
 72
     2
 73
     0
 90
        0
 40
-0.6
 41
-30.0
 62
     5
 63
     7
421
 16777215
 74
     1
 91
        4
 64
     7
 65
   257
 75
     1
175
     1
 42
1.0
 92
        0
 66
   257
 43
1.0
 76
     1
 77
     6
 78
     2
 67
     7
 79
     3
170
     0
171
     0
290
     0
174
     0
 93
        1
 44
0.0
173
     0
291
     0
 45
0.0
1001
ACAD
1000
AcDbSavedByObjectVersion
1070
     0
  0
VISUALSTYLE
  5
36A
102
{ACAD_XDICTIONARY
360
3BE
102
}
102
{ACAD_REACTORS
330
357
102
}
330
357
100
AcDbVisualStyle
  2
X-Ray
 70
    25
 71
     2
 72
     2
 73
     1
 90
        1
 40
0.5
 41
-30.0
 62
     5
 63
     7
421
 16777215
 74
     1
 91
        0
 64
     7
 65
   257
 75
     1
175
     1
 42
1.0
 92
        8
 66
     7
 43
1.0
 76
     1
 77
     6
 78
     2
 67
     7
 79
     3
170
     0
171
     0
290
     0
174
     0
 93
       13
 44
0.0
173
     0
291
     0
 45
0.0
1001
ACAD
1000
AcDbSavedByObjectVersion
1070
     0
  0
DICTIONARYVAR
  5
391
102
{ACAD_REACTORS
330
38E
102
}
330
38E
100
DictionaryVariables
280
     0
  1
1:1
  0
DICTIONARYVAR
  5
390
102
{ACAD_REACTORS
330
38E
102
}
330
38E
100
DictionaryVariables
280
     0
  1
STANDARD
  0
DICTIONARYVAR
  5
38F
102
{ACAD_REACTORS
330
38E
102
}
330
38E
100
DictionaryVariables
280
     0
  1
STANDARD
  0
DICTIONARYVAR
  5
392
102
{ACAD_REACTORS
330
38E
102
}
330
38E
100
DictionaryVariables
280
     0
  1
2
  0
DICTIONARY
  5
348
330
347
100
AcDbDictionary
280
     1
281
     1
  3
ACAD_XREC_ROUNDTRIP
360
398
  3
BUMPTILE
360
34A
  3
DIFFUSETILE
360
349
  3
OPACITYTILE
360
34D
  3
REFLECTIONTILE
360
34C
  3
REFRACTIONTILE
360
34E
  3
SPECULARTILE
360
34B
  0
DICTIONARY
  5
340
330
33F
100
AcDbDictionary
280
     1
281
     1
  3
ACAD_XREC_ROUNDTRIP
360
397
  3
BUMPTILE
360
342
  3
DIFFUSETILE
360
341
  3
OPACITYTILE
360
345
  3
REFLECTIONTILE
360
344
  3
REFRACTIONTILE
360
346
  3
SPECULARTILE
360
343
  0
DICTIONARY
  5
350
330
34F
100
AcDbDictionary
280
     1
281
     1
  3
ACAD_XREC_ROUNDTRIP
360
399
  3
BUMPTILE
360
352
  3
DIFFUSETILE
360
351
  3
OPACITYTILE
360
355
  3
REFLECTIONTILE
360
354
  3
REFRACTIONTILE
360
356
  3
SPECULARTILE
360
353
  0
DICTIONARY
  5
394
330
372
100
AcDbDictionary
280
     1
281
     1
  3
ACAD_ROUNDTRIP_2008_TABLESTYLE_CELLSTYLEMAP
360
395
  3
ACAD_XREC_ROUNDTRIP
360
3CA
  0
DICTIONARY
  5
3A4
330
35D
100
AcDbDictionary
280
     1
281
     1
  3
ACAD_XREC_ROUNDTRIP
360
3A5
  0
DICTIONARY
  5
3A2
330
35C
100
AcDbDictionary
280
     1
281
     1
  3
ACAD_XREC_ROUNDTRIP
360
3A3
  0
DICTIONARY
  5
3B0
330
363
100
AcDbDictionary
280
     1
281
     1
  3
ACAD_XREC_ROUNDTRIP
360
3B1
  0
DICTIONARY
  5
3B8
330
367
100
AcDbDictionary
280
     1
281
     1
  3
ACAD_XREC_ROUNDTRIP
360
3B9
  0
DICTIONARY
  5
3AA
330
360
100
AcDbDictionary
280
     1
281
     1
  3
ACAD_XREC_ROUNDTRIP
360
3AB
  0
DICTIONARY
  5
3AE
330
362
100
AcDbDictionary
280
     1
281
     1
  3
ACAD_XREC_ROUNDTRIP
360
3AF
  0
DICTIONARY
  5
3C8
330
36F
100
AcDbDictionary
280
     1
281
     1
  3
ACAD_XREC_ROUNDTRIP
360
3C9
  0
DICTIONARY
  5
3B6
330
366
100
AcDbDictionary
280
     1
281
     1
  3
ACAD_XREC_ROUNDTRIP
360
3B7
  0
DICTIONARY
  5
39A
330
358
100
AcDbDictionary
280
     1
281
     1
  3
ACAD_XREC_ROUNDTRIP
360
39B
  0
DICTIONARY
  5
39C
330
359
100
AcDbDictionary
280
     1
281
     1
  3
ACAD_XREC_ROUNDTRIP
360
39D
  0
DICTIONARY
  5
39E
330
35A
100
AcDbDictionary
280
     1
281
     1
  3
ACAD_XREC_ROUNDTRIP
360
39F
  0
DICTIONARY
  5
3A0
330
35B
100
AcDbDictionary
280
     1
281
     1
  3
ACAD_XREC_ROUNDTRIP
360
3A1
  0
DICTIONARY
  5
3A8
330
35F
100
AcDbDictionary
280
     1
281
     1
  3
ACAD_XREC_ROUNDTRIP
360
3A9
  0
DICTIONARY
  5
3C4
330
36D
100
AcDbDictionary
280
     1
281
     1
  3
ACAD_XREC_ROUNDTRIP
360
3C5
  0
DICTIONARY
  5
3B4
330
365
100
AcDbDictionary
280
     1
281
     1
  3
ACAD_XREC_ROUNDTRIP
360
3B5
  0
DICTIONARY
  5
3C6
330
36E
100
AcDbDictionary
280
     1
281
     1
  3
ACAD_XREC_ROUNDTRIP
360
3C7
  0
DICTIONARY
  5
3AC
330
361
100
AcDbDictionary
280
     1
281
     1
  3
ACAD_XREC_ROUNDTRIP
360
3AD
  0
DICTIONARY
  5
3C2
330
36C
100
AcDbDictionary
280
     1
281
     1
  3
ACAD_XREC_ROUNDTRIP
360
3C3
  0
DICTIONARY
  5
3C0
330
36B
100
AcDbDictionary
280
     1
281
     1
  3
ACAD_XREC_ROUNDTRIP
360
3C1
  0
DICTIONARY
  5
3BA
330
368
100
AcDbDictionary
280
     1
281
     1
  3
ACAD_XREC_ROUNDTRIP
360
3BB
  0
DICTIONARY
  5
3BC
330
369
100
AcDbDictionary
280
     1
281
     1
  3
ACAD_XREC_ROUNDTRIP
360
3BD
  0
DICTIONARY
  5
3B2
330
364
100
AcDbDictionary
280
     1
281
     1
  3
ACAD_XREC_ROUNDTRIP
360
3B3
  0
DICTIONARY
  5
3A6
330
35E
100
AcDbDictionary
280
     1
281
     1
  3
ACAD_XREC_ROUNDTRIP
360
3A7
  0
DICTIONARY
  5
3BE
330
36A
100
AcDbDictionary
280
     1
281
     1
  3
ACAD_XREC_ROUNDTRIP
360
3BF
  0
XRECORD
  5
398
102
{ACAD_REACTORS
330
348
102
}
330
348
100
AcDbXrecord
280
     1
102
MATERIAL
148
0.0
149
0.0
149
0.0
 93
        0
 94
      127
282
     0
 72
     0
 77
     0
171
     0
175
     0
179
     0
273
     0
  0
XRECORD
  5
34A
102
{ACAD_REACTORS
330
348
102
}
330
348
100
AcDbXrecord
280
     1
270
     1
271
     1
  0
XRECORD
  5
349
102
{ACAD_REACTORS
330
348
102
}
330
348
100
AcDbXrecord
280
     1
270
     1
271
     1
  0
XRECORD
  5
34D
102
{ACAD_REACTORS
330
348
102
}
330
348
100
AcDbXrecord
280
     1
270
     1
271
     1
  0
XRECORD
  5
34C
102
{ACAD_REACTORS
330
348
102
}
330
348
100
AcDbXrecord
280
     1
270
     1
271
     1
  0
XRECORD
  5
34E
102
{ACAD_REACTORS
330
348
102
}
330
348
100
AcDbXrecord
280
     1
270
     1
271
     1
  0
XRECORD
  5
34B
102
{ACAD_REACTORS
330
348
102
}
330
348
100
AcDbXrecord
280
     1
270
     1
271
     1
  0
XRECORD
  5
397
102
{ACAD_REACTORS
330
340
102
}
330
340
100
AcDbXrecord
280
     1
102
MATERIAL
148
0.0
149
0.0
149
0.0
 93
        0
 94
      127
282
     0
 72
     0
 77
     0
171
     0
175
     0
179
     0
273
     0
  0
XRECORD
  5
342
102
{ACAD_REACTORS
330
340
102
}
330
340
100
AcDbXrecord
280
     1
270
     1
271
     1
  0
XRECORD
  5
341
102
{ACAD_REACTORS
330
340
102
}
330
340
100
AcDbXrecord
280
     1
270
     1
271
     1
  0
XRECORD
  5
345
102
{ACAD_REACTORS
330
340
102
}
330
340
100
AcDbXrecord
280
     1
270
     1
271
     1
  0
XRECORD
  5
344
102
{ACAD_REACTORS
330
340
102
}
330
340
100
AcDbXrecord
280
     1
270
     1
271
     1
  0
XRECORD
  5
346
102
{ACAD_REACTORS
330
340
102
}
330
340
100
AcDbXrecord
280
     1
270
     1
271
     1
  0
XRECORD
  5
343
102
{ACAD_REACTORS
330
340
102
}
330
340
100
AcDbXrecord
280
     1
270
     1
271
     1
  0
XRECORD
  5
399
102
{ACAD_REACTORS
330
350
102
}
330
350
100
AcDbXrecord
280
     1
102
MATERIAL
148
0.0
149
0.0
149
0.0
 93
        0
 94
      127
282
     0
 72
     0
 77
     0
171
     0
175
     0
179
     0
273
     0
  0
XRECORD
  5
352
102
{ACAD_REACTORS
330
350
102
}
330
350
100
AcDbXrecord
280
     1
270
     1
271
     1
  0
XRECORD
  5
351
102
{ACAD_REACTORS
330
350
102
}
330
350
100
AcDbXrecord
280
     1
270
     1
271
     1
  0
XRECORD
  5
355
102
{ACAD_REACTORS
330
350
102
}
330
350
100
AcDbXrecord
280
     1
270
     1
271
     1
  0
XRECORD
  5
354
102
{ACAD_REACTORS
330
350
102
}
330
350
100
AcDbXrecord
280
     1
270
     1
271
     1
  0
XRECORD
  5
356
102
{ACAD_REACTORS
330
350
102
}
330
350
100
AcDbXrecord
280
     1
270
     1
271
     1
  0
XRECORD
  5
353
102
{ACAD_REACTORS
330
350
102
}
330
350
100
AcDbXrecord
280
     1
270
     1
271
     1
  0
CELLSTYLEMAP
  5
395
102
{ACAD_REACTORS
330
394
102
}
330
394
100
AcDbCellStyleMap
 90
        3
300
CELLSTYLE
  1
TABLEFORMAT_BEGIN
 90
        5
170
     1
 91
        0
 92
    32768
 62
   257
 93
        1
300
CONTENTFORMAT
  1
CONTENTFORMAT_BEGIN
 90
        0
 91
        0
 92
      512
 93
        0
300

 40
0.0
140
1.0
 94
        5
 62
     0
340
17
144
0.25
309
CONTENTFORMAT_END
171
     0
 94
        0
309
TABLEFORMAT_END
  1
CELLSTYLE_BEGIN
 90
        1
 91
        1
300
_TITLE
309
CELLSTYLE_END
300
CELLSTYLE
  1
TABLEFORMAT_BEGIN
 90
        5
170
     1
 91
        0
 92
        0
 62
   257
 93
        1
300
CONTENTFORMAT
  1
CONTENTFORMAT_BEGIN
 90
        0
 91
        0
 92
      512
 93
        0
300

 40
0.0
140
1.0
 94
        5
 62
     0
340
17
144
0.18
309
CONTENTFORMAT_END
171
     0
 94
        0
309
TABLEFORMAT_END
  1
CELLSTYLE_BEGIN
 90
        2
 91
        1
300
_HEADER
309
CELLSTYLE_END
300
CELLSTYLE
  1
TABLEFORMAT_BEGIN
 90
        5
170
     1
 91
        0
 92
        0
 62
   257
 93
        1
300
CONTENTFORMAT
  1
CONTENTFORMAT_BEGIN
 90
        0
 91
        0
 92
      512
 93
        0
300

 40
0.0
140
1.0
 94
        2
 62
     0
340
17
144
0.18
309
CONTENTFORMAT_END
171
     0
 94
        0
309
TABLEFORMAT_END
  1
CELLSTYLE_BEGIN
 90
        3
 91
        2
300
_DATA
309
CELLSTYLE_END
  0
XRECORD
  5
3CA
102
{ACAD_REACTORS
330
394
102
}
330
394
100
AcDbXrecord
280
     1
102
ACAD_ROUNDTRIP_PRE2007_TABLESTYLE
 90
      512
 91
        0
  1

 92
      512
 93
        0
  2

 94
      512
 95
        0
  3

  0
XRECORD
  5
3A5
102
{ACAD_REACTORS
330
3A4
102
}
330
3A4
100
AcDbXrecord
280
     1
102
RTVSPropertyOp0
 70
     1
102
RTVSPropertyOp1
 70
     1
102
RTVSPropertyOp2
 70
     1
102
RTVSPropertyOp3
 70
     1
102
RTVSPropertyOp4
 70
     1
102
RTVSPropertyOp5
 70
     1
102
RTVSPropertyOp6
 70
     1
102
RTVSPropertyOp7
 70
     1
102
RTVSPropertyOp8
 70
     1
102
RTVSPropertyOp9
 70
     1
102
RTVSPropertyOp10
 70
     1
102
RTVSPropertyOp11
 70
     1
102
RTVSPropertyOp12
 70
     1
102
RTVSPropertyOp13
 70
     1
102
RTVSPropertyOp14
 70
     1
102
RTVSPropertyOp15
 70
     1
102
RTVSPropertyOp16
 70
     1
102
RTVSPropertyOp17
 70
     1
102
RTVSPropertyOp18
 70
     1
102
RTVSPropertyOp19
 70
     1
102
RTVSPropertyOp20
 70
     1
102
RTVSPropertyOp21
 70
     1
102
RTVSPropertyOp22
 70
     1
102
RTVSPropertyOp23
 70
     1
102
RTVSPropertyOp24
 70
     1
102
RTVSPropertyOp25
 70
     1
102
RTVSPropertyOp26
 70
     1
102
RTVSPropertyOp27
 70
     1
102
RTVSPropertyOp28
 70
     1
102
RTVSPropertyOp29
 70
     1
102
RTVSPropertyOp30
 70
     1
102
RTVSPropertyOp31
 70
     1
102
RTVSPropertyOp32
 70
     1
  0
XRECORD
  5
3A3
102
{ACAD_REACTORS
330
3A2
102
}
330
3A2
100
AcDbXrecord
280
     1
102
RTVSPropertyOp0
 70
     1
102
RTVSPropertyOp1
 70
     1
102
RTVSPropertyOp2
 70
     1
102
RTVSPropertyOp3
 70
     1
102
RTVSPropertyOp4
 70
     1
102
RTVSPropertyOp5
 70
     1
102
RTVSPropertyOp6
 70
     1
102
RTVSPropertyOp7
 70
     1
102
RTVSPropertyOp8
 70
     1
102
RTVSPropertyOp9
 70
     1
102
RTVSPropertyOp10
 70
     1
102
RTVSPropertyOp11
 70
     1
102
RTVSPropertyOp12
 70
     1
102
RTVSPropertyOp13
 70
     1
102
RTVSPropertyOp14
 70
     1
102
RTVSPropertyOp15
 70
     1
102
RTVSPropertyOp16
 70
     1
102
RTVSPropertyOp17
 70
     1
102
RTVSPropertyOp18
 70
     1
102
RTVSPropertyOp19
 70
     1
102
RTVSPropertyOp20
 70
     1
102
RTVSPropertyOp21
 70
     1
102
RTVSPropertyOp22
 70
     1
102
RTVSPropertyOp23
 70
     1
102
RTVSPropertyOp24
 70
     1
102
RTVSPropertyOp25
 70
     1
102
RTVSPropertyOp26
 70
     1
102
RTVSPropertyOp27
 70
     1
102
RTVSPropertyOp28
 70
     1
102
RTVSPropertyOp29
 70
     1
102
RTVSPropertyOp30
 70
     1
102
RTVSPropertyOp31
 70
     1
102
RTVSPropertyOp32
 70
     1
  0
XRECORD
  5
3B1
102
{ACAD_REACTORS
330
3B0
102
}
330
3B0
100
AcDbXrecord
280
     1
102
RTVSPropertyOp0
 70
     1
102
RTVSPropertyOp1
 70
     1
102
RTVSPropertyOp2
 70
     1
102
RTVSPropertyOp3
 70
     1
102
RTVSPropertyOp4
 70
     1
102
RTVSPropertyOp5
 70
     1
102
RTVSPropertyOp6
 70
     1
102
RTVSPropertyOp7
 70
     1
102
RTVSPropertyOp8
 70
     1
102
RTVSPropertyOp9
 70
     1
102
RTVSPropertyOp10
 70
     1
102
RTVSPropertyOp11
 70
     1
102
RTVSPropertyOp12
 70
     1
102
RTVSPropertyOp13
 70
     1
102
RTVSPropertyOp14
 70
     1
102
RTVSPropertyOp15
 70
     1
102
RTVSPropertyOp16
 70
     1
102
RTVSPropertyOp17
 70
     1
102
RTVSPropertyOp18
 70
     1
102
RTVSPropertyOp19
 70
     1
102
RTVSPropertyOp20
 70
     1
102
RTVSPropertyOp21
 70
     1
102
RTVSPropertyOp22
 70
     1
102
RTVSPropertyOp23
 70
     1
102
RTVSPropertyOp24
 70
     1
102
RTVSPropertyOp25
 70
     1
102
RTVSPropertyOp26
 70
     1
102
RTVSPropertyOp27
 70
     1
102
RTVSPropertyOp28
 70
     1
102
RTVSPropertyOp29
 70
     1
102
RTVSPropertyOp30
 70
     1
102
RTVSPropertyOp31
 70
     1
102
RTVSPropertyOp32
 70
     1
  0
XRECORD
  5
3B9
102
{ACAD_REACTORS
330
3B8
102
}
330
3B8
100
AcDbXrecord
280
     1
102
RTVSPropertyOp0
 70
     1
102
RTVSPropertyOp1
 70
     1
102
RTVSPropertyOp2
 70
     1
102
RTVSPropertyOp3
 70
     1
102
RTVSPropertyOp4
 70
     1
102
RTVSPropertyOp5
 70
     1
102
RTVSPropertyOp6
 70
     1
102
RTVSPropertyOp7
 70
     1
102
RTVSPropertyOp8
 70
     1
102
RTVSPropertyOp9
 70
     1
102
RTVSPropertyOp10
 70
     1
102
RTVSPropertyOp11
 70
     1
102
RTVSPropertyOp12
 70
     1
102
RTVSPropertyOp13
 70
     1
102
RTVSPropertyOp14
 70
     1
102
RTVSPropertyOp15
 70
     1
102
RTVSPropertyOp16
 70
     1
102
RTVSPropertyOp17
 70
     1
102
RTVSPropertyOp18
 70
     1
102
RTVSPropertyOp19
 70
     1
102
RTVSPropertyOp20
 70
     1
102
RTVSPropertyOp21
 70
     1
102
RTVSPropertyOp22
 70
     1
102
RTVSPropertyOp23
 70
     1
102
RTVSPropertyOp24
 70
     1
102
RTVSPropertyOp25
 70
     1
102
RTVSPropertyOp26
 70
     1
102
RTVSPropertyOp27
 70
     1
102
RTVSPropertyOp28
 70
     1
102
RTVSPropertyOp29
 70
     1
102
RTVSPropertyOp30
 70
     1
102
RTVSPropertyOp31
 70
     1
102
RTVSPropertyOp32
 70
     1
  0
XRECORD
  5
3AB
102
{ACAD_REACTORS
330
3AA
102
}
330
3AA
100
AcDbXrecord
280
     1
102
RTVSPropertyOp0
 70
     1
102
RTVSPropertyOp1
 70
     1
102
RTVSPropertyOp2
 70
     1
102
RTVSPropertyOp3
 70
     1
102
RTVSPropertyOp4
 70
     1
102
RTVSPropertyOp5
 70
     1
102
RTVSPropertyOp6
 70
     1
102
RTVSPropertyOp7
 70
     1
102
RTVSPropertyOp8
 70
     1
102
RTVSPropertyOp9
 70
     1
102
RTVSPropertyOp10
 70
     1
102
RTVSPropertyOp11
 70
     1
102
RTVSPropertyOp12
 70
     1
102
RTVSPropertyOp13
 70
     1
102
RTVSPropertyOp14
 70
     1
102
RTVSPropertyOp15
 70
     1
102
RTVSPropertyOp16
 70
     1
102
RTVSPropertyOp17
 70
     1
102
RTVSPropertyOp18
 70
     1
102
RTVSPropertyOp19
 70
     1
102
RTVSPropertyOp20
 70
     1
102
RTVSPropertyOp21
 70
     1
102
RTVSPropertyOp22
 70
     1
102
RTVSPropertyOp23
 70
     1
102
RTVSPropertyOp24
 70
     1
102
RTVSPropertyOp25
 70
     1
102
RTVSPropertyOp26
 70
     1
102
RTVSPropertyOp27
 70
     1
102
RTVSPropertyOp28
 70
     1
102
RTVSPropertyOp29
 70
     1
102
RTVSPropertyOp30
 70
     1
102
RTVSPropertyOp31
 70
     1
102
RTVSPropertyOp32
 70
     1
  0
XRECORD
  5
3AF
102
{ACAD_REACTORS
330
3AE
102
}
330
3AE
100
AcDbXrecord
280
     1
102
RTVSPropertyOp0
 70
     1
102
RTVSPropertyOp1
 70
     1
102
RTVSPropertyOp2
 70
     1
102
RTVSPropertyOp3
 70
     1
102
RTVSPropertyOp4
 70
     1
102
RTVSPropertyOp5
 70
     1
102
RTVSPropertyOp6
 70
     1
102
RTVSPropertyOp7
 70
     1
102
RTVSPropertyOp8
 70
     1
102
RTVSPropertyOp9
 70
     1
102
RTVSPropertyOp10
 70
     1
102
RTVSPropertyOp11
 70
     1
102
RTVSPropertyOp12
 70
     1
102
RTVSPropertyOp13
 70
     1
102
RTVSPropertyOp14
 70
     1
102
RTVSPropertyOp15
 70
     1
102
RTVSPropertyOp16
 70
     1
102
RTVSPropertyOp17
 70
     1
102
RTVSPropertyOp18
 70
     1
102
RTVSPropertyOp19
 70
     1
102
RTVSPropertyOp20
 70
     1
102
RTVSPropertyOp21
 70
     1
102
RTVSPropertyOp22
 70
     1
102
RTVSPropertyOp23
 70
     1
102
RTVSPropertyOp24
 70
     1
102
RTVSPropertyOp25
 70
     1
102
RTVSPropertyOp26
 70
     1
102
RTVSPropertyOp27
 70
     1
102
RTVSPropertyOp28
 70
     1
102
RTVSPropertyOp29
 70
     1
102
RTVSPropertyOp30
 70
     1
102
RTVSPropertyOp31
 70
     1
102
RTVSPropertyOp32
 70
     1
  0
XRECORD
  5
3C9
102
{ACAD_REACTORS
330
3C8
102
}
330
3C8
100
AcDbXrecord
280
     1
102
RTVSPropertyOp0
 70
     0
102
RTVSPropertyOp1
 70
     0
102
RTVSPropertyOp2
 70
     0
102
RTVSPropertyOp3
 70
     0
102
RTVSPropertyOp4
 70
     0
102
RTVSPropertyOp5
 70
     0
102
RTVSPropertyOp6
 70
     0
102
RTVSPropertyOp7
 70
     0
102
RTVSPropertyOp8
 70
     0
102
RTVSPropertyOp9
 70
     0
102
RTVSPropertyOp10
 70
     0
102
RTVSPropertyOp11
 70
     0
102
RTVSPropertyOp12
 70
     0
102
RTVSPropertyOp13
 70
     0
102
RTVSPropertyOp14
 70
     2
102
RTVSPropertyOp15
 70
     0
102
RTVSPropertyOp16
 70
     0
102
RTVSPropertyOp17
 70
     0
102
RTVSPropertyOp18
 70
     0
102
RTVSPropertyOp19
 70
     0
102
RTVSPropertyOp20
 70
     0
102
RTVSPropertyOp21
 70
     0
102
RTVSPropertyOp22
 70
     0
102
RTVSPropertyOp23
 70
     0
102
RTVSPropertyOp24
 70
     0
102
RTVSPropertyOp25
 70
     0
102
RTVSPropertyOp26
 70
     0
102
RTVSPropertyOp27
 70
     0
102
RTVSPropertyOp28
 70
     0
102
RTVSPropertyOp29
 70
     0
102
RTVSPropertyOp30
 70
     0
102
RTVSPropertyOp31
 70
     0
102
RTVSPropertyOp32
 70
     0
  0
XRECORD
  5
3B7
102
{ACAD_REACTORS
330
3B6
102
}
330
3B6
100
AcDbXrecord
280
     1
102
RTVSPropertyOp0
 70
     1
102
RTVSPropertyOp1
 70
     1
102
RTVSPropertyOp2
 70
     1
102
RTVSPropertyOp3
 70
     1
102
RTVSPropertyOp4
 70
     1
102
RTVSPropertyOp5
 70
     1
102
RTVSPropertyOp6
 70
     1
102
RTVSPropertyOp7
 70
     1
102
RTVSPropertyOp8
 70
     1
102
RTVSPropertyOp9
 70
     1
102
RTVSPropertyOp10
 70
     1
102
RTVSPropertyOp11
 70
     1
102
RTVSPropertyOp12
 70
     1
102
RTVSPropertyOp13
 70
     1
102
RTVSPropertyOp14
 70
     1
102
RTVSPropertyOp15
 70
     1
102
RTVSPropertyOp16
 70
     1
102
RTVSPropertyOp17
 70
     1
102
RTVSPropertyOp18
 70
     1
102
RTVSPropertyOp19
 70
     1
102
RTVSPropertyOp20
 70
     1
102
RTVSPropertyOp21
 70
     1
102
RTVSPropertyOp22
 70
     1
102
RTVSPropertyOp23
 70
     1
102
RTVSPropertyOp24
 70
     1
102
RTVSPropertyOp25
 70
     1
102
RTVSPropertyOp26
 70
     1
102
RTVSPropertyOp27
 70
     1
102
RTVSPropertyOp28
 70
     1
102
RTVSPropertyOp29
 70
     1
102
RTVSPropertyOp30
 70
     1
102
RTVSPropertyOp31
 70
     1
102
RTVSPropertyOp32
 70
     1
  0
XRECORD
  5
39B
102
{ACAD_REACTORS
330
39A
102
}
330
39A
100
AcDbXrecord
280
     1
102
RTVSPropertyOp0
 70
     1
102
RTVSPropertyOp1
 70
     1
102
RTVSPropertyOp2
 70
     1
102
RTVSPropertyOp3
 70
     1
102
RTVSPropertyOp4
 70
     1
102
RTVSPropertyOp5
 70
     1
102
RTVSPropertyOp6
 70
     1
102
RTVSPropertyOp7
 70
     1
102
RTVSPropertyOp8
 70
     1
102
RTVSPropertyOp9
 70
     1
102
RTVSPropertyOp10
 70
     1
102
RTVSPropertyOp11
 70
     1
102
RTVSPropertyOp12
 70
     1
102
RTVSPropertyOp13
 70
     1
102
RTVSPropertyOp14
 70
     1
102
RTVSPropertyOp15
 70
     1
102
RTVSPropertyOp16
 70
     1
102
RTVSPropertyOp17
 70
     1
102
RTVSPropertyOp18
 70
     1
102
RTVSPropertyOp19
 70
     1
102
RTVSPropertyOp20
 70
     1
102
RTVSPropertyOp21
 70
     1
102
RTVSPropertyOp22
 70
     1
102
RTVSPropertyOp23
 70
     1
102
RTVSPropertyOp24
 70
     1
102
RTVSPropertyOp25
 70
     1
102
RTVSPropertyOp26
 70
     1
102
RTVSPropertyOp27
 70
     1
102
RTVSPropertyOp28
 70
     1
102
RTVSPropertyOp29
 70
     1
102
RTVSPropertyOp30
 70
     1
102
RTVSPropertyOp31
 70
     1
102
RTVSPropertyOp32
 70
     1
  0
XRECORD
  5
39D
102
{ACAD_REACTORS
330
39C
102
}
330
39C
100
AcDbXrecord
280
     1
102
RTVSPropertyOp0
 70
     1
102
RTVSPropertyOp1
 70
     1
102
RTVSPropertyOp2
 70
     1
102
RTVSPropertyOp3
 70
     1
102
RTVSPropertyOp4
 70
     1
102
RTVSPropertyOp5
 70
     1
102
RTVSPropertyOp6
 70
     1
102
RTVSPropertyOp7
 70
     1
102
RTVSPropertyOp8
 70
     1
102
RTVSPropertyOp9
 70
     1
102
RTVSPropertyOp10
 70
     1
102
RTVSPropertyOp11
 70
     1
102
RTVSPropertyOp12
 70
     1
102
RTVSPropertyOp13
 70
     1
102
RTVSPropertyOp14
 70
     1
102
RTVSPropertyOp15
 70
     1
102
RTVSPropertyOp16
 70
     1
102
RTVSPropertyOp17
 70
     1
102
RTVSPropertyOp18
 70
     1
102
RTVSPropertyOp19
 70
     1
102
RTVSPropertyOp20
 70
     1
102
RTVSPropertyOp21
 70
     1
102
RTVSPropertyOp22
 70
     1
102
RTVSPropertyOp23
 70
     1
102
RTVSPropertyOp24
 70
     1
102
RTVSPropertyOp25
 70
     1
102
RTVSPropertyOp26
 70
     1
102
RTVSPropertyOp27
 70
     1
102
RTVSPropertyOp28
 70
     1
102
RTVSPropertyOp29
 70
     1
102
RTVSPropertyOp30
 70
     1
102
RTVSPropertyOp31
 70
     1
102
RTVSPropertyOp32
 70
     1
  0
XRECORD
  5
39F
102
{ACAD_REACTORS
330
39E
102
}
330
39E
100
AcDbXrecord
280
     1
102
RTVSPropertyOp0
 70
     1
102
RTVSPropertyOp1
 70
     1
102
RTVSPropertyOp2
 70
     1
102
RTVSPropertyOp3
 70
     1
102
RTVSPropertyOp4
 70
     1
102
RTVSPropertyOp5
 70
     1
102
RTVSPropertyOp6
 70
     1
102
RTVSPropertyOp7
 70
     1
102
RTVSPropertyOp8
 70
     1
102
RTVSPropertyOp9
 70
     1
102
RTVSPropertyOp10
 70
     1
102
RTVSPropertyOp11
 70
     1
102
RTVSPropertyOp12
 70
     1
102
RTVSPropertyOp13
 70
     1
102
RTVSPropertyOp14
 70
     1
102
RTVSPropertyOp15
 70
     1
102
RTVSPropertyOp16
 70
     1
102
RTVSPropertyOp17
 70
     1
102
RTVSPropertyOp18
 70
     1
102
RTVSPropertyOp19
 70
     1
102
RTVSPropertyOp20
 70
     1
102
RTVSPropertyOp21
 70
     1
102
RTVSPropertyOp22
 70
     1
102
RTVSPropertyOp23
 70
     1
102
RTVSPropertyOp24
 70
     1
102
RTVSPropertyOp25
 70
     1
102
RTVSPropertyOp26
 70
     1
102
RTVSPropertyOp27
 70
     1
102
RTVSPropertyOp28
 70
     1
102
RTVSPropertyOp29
 70
     1
102
RTVSPropertyOp30
 70
     1
102
RTVSPropertyOp31
 70
     1
102
RTVSPropertyOp32
 70
     1
  0
XRECORD
  5
3A1
102
{ACAD_REACTORS
330
3A0
102
}
330
3A0
100
AcDbXrecord
280
     1
102
RTVSPropertyOp0
 70
     1
102
RTVSPropertyOp1
 70
     1
102
RTVSPropertyOp2
 70
     1
102
RTVSPropertyOp3
 70
     1
102
RTVSPropertyOp4
 70
     1
102
RTVSPropertyOp5
 70
     1
102
RTVSPropertyOp6
 70
     1
102
RTVSPropertyOp7
 70
     1
102
RTVSPropertyOp8
 70
     1
102
RTVSPropertyOp9
 70
     1
102
RTVSPropertyOp10
 70
     1
102
RTVSPropertyOp11
 70
     1
102
RTVSPropertyOp12
 70
     1
102
RTVSPropertyOp13
 70
     1
102
RTVSPropertyOp14
 70
     1
102
RTVSPropertyOp15
 70
     1
102
RTVSPropertyOp16
 70
     1
102
RTVSPropertyOp17
 70
     1
102
RTVSPropertyOp18
 70
     1
102
RTVSPropertyOp19
 70
     1
102
RTVSPropertyOp20
 70
     1
102
RTVSPropertyOp21
 70
     1
102
RTVSPropertyOp22
 70
     1
102
RTVSPropertyOp23
 70
     1
102
RTVSPropertyOp24
 70
     1
102
RTVSPropertyOp25
 70
     1
102
RTVSPropertyOp26
 70
     1
102
RTVSPropertyOp27
 70
     1
102
RTVSPropertyOp28
 70
     1
102
RTVSPropertyOp29
 70
     1
102
RTVSPropertyOp30
 70
     1
102
RTVSPropertyOp31
 70
     1
102
RTVSPropertyOp32
 70
     1
  0
XRECORD
  5
3A9
102
{ACAD_REACTORS
330
3A8
102
}
330
3A8
100
AcDbXrecord
280
     1
102
RTVSPropertyOp0
 70
     1
102
RTVSPropertyOp1
 70
     1
102
RTVSPropertyOp2
 70
     1
102
RTVSPropertyOp3
 70
     1
102
RTVSPropertyOp4
 70
     1
102
RTVSPropertyOp5
 70
     1
102
RTVSPropertyOp6
 70
     1
102
RTVSPropertyOp7
 70
     1
102
RTVSPropertyOp8
 70
     1
102
RTVSPropertyOp9
 70
     1
102
RTVSPropertyOp10
 70
     1
102
RTVSPropertyOp11
 70
     1
102
RTVSPropertyOp12
 70
     1
102
RTVSPropertyOp13
 70
     1
102
RTVSPropertyOp14
 70
     1
102
RTVSPropertyOp15
 70
     1
102
RTVSPropertyOp16
 70
     1
102
RTVSPropertyOp17
 70
     1
102
RTVSPropertyOp18
 70
     1
102
RTVSPropertyOp19
 70
     1
102
RTVSPropertyOp20
 70
     1
102
RTVSPropertyOp21
 70
     1
102
RTVSPropertyOp22
 70
     1
102
RTVSPropertyOp23
 70
     1
102
RTVSPropertyOp24
 70
     1
102
RTVSPropertyOp25
 70
     1
102
RTVSPropertyOp26
 70
     1
102
RTVSPropertyOp27
 70
     1
102
RTVSPropertyOp28
 70
     1
102
RTVSPropertyOp29
 70
     1
102
RTVSPropertyOp30
 70
     1
102
RTVSPropertyOp31
 70
     1
102
RTVSPropertyOp32
 70
     1
  0
XRECORD
  5
3C5
102
{ACAD_REACTORS
330
3C4
102
}
330
3C4
100
AcDbXrecord
280
     1
102
RTVSPropertyOp0
 70
     0
102
RTVSPropertyOp1
 70
     0
102
RTVSPropertyOp2
 70
     0
102
RTVSPropertyOp3
 70
     0
102
RTVSPropertyOp4
 70
     0
102
RTVSPropertyOp5
 70
     0
102
RTVSPropertyOp6
 70
     0
102
RTVSPropertyOp7
 70
     0
102
RTVSPropertyOp8
 70
     0
102
RTVSPropertyOp9
 70
     0
102
RTVSPropertyOp10
 70
     0
102
RTVSPropertyOp11
 70
     0
102
RTVSPropertyOp12
 70
     0
102
RTVSPropertyOp13
 70
     0
102
RTVSPropertyOp14
 70
     2
102
RTVSPropertyOp15
 70
     0
102
RTVSPropertyOp16
 70
     0
102
RTVSPropertyOp17
 70
     0
102
RTVSPropertyOp18
 70
     0
102
RTVSPropertyOp19
 70
     0
102
RTVSPropertyOp20
 70
     0
102
RTVSPropertyOp21
 70
     0
102
RTVSPropertyOp22
 70
     0
102
RTVSPropertyOp23
 70
     0
102
RTVSPropertyOp24
 70
     0
102
RTVSPropertyOp25
 70
     0
102
RTVSPropertyOp26
 70
     0
102
RTVSPropertyOp27
 70
     0
102
RTVSPropertyOp28
 70
     0
102
RTVSPropertyOp29
 70
     0
102
RTVSPropertyOp30
 70
     0
102
RTVSPropertyOp31
 70
     0
102
RTVSPropertyOp32
 70
     0
  0
XRECORD
  5
3B5
102
{ACAD_REACTORS
330
3B4
102
}
330
3B4
100
AcDbXrecord
280
     1
102
RTVSPropertyOp0
 70
     1
102
RTVSPropertyOp1
 70
     1
102
RTVSPropertyOp2
 70
     1
102
RTVSPropertyOp3
 70
     1
102
RTVSPropertyOp4
 70
     1
102
RTVSPropertyOp5
 70
     1
102
RTVSPropertyOp6
 70
     1
102
RTVSPropertyOp7
 70
     1
102
RTVSPropertyOp8
 70
     1
102
RTVSPropertyOp9
 70
     1
102
RTVSPropertyOp10
 70
     1
102
RTVSPropertyOp11
 70
     1
102
RTVSPropertyOp12
 70
     1
102
RTVSPropertyOp13
 70
     1
102
RTVSPropertyOp14
 70
     1
102
RTVSPropertyOp15
 70
     1
102
RTVSPropertyOp16
 70
     1
102
RTVSPropertyOp17
 70
     1
102
RTVSPropertyOp18
 70
     1
102
RTVSPropertyOp19
 70
     1
102
RTVSPropertyOp20
 70
     1
102
RTVSPropertyOp21
 70
     1
102
RTVSPropertyOp22
 70
     1
102
RTVSPropertyOp23
 70
     1
102
RTVSPropertyOp24
 70
     1
102
RTVSPropertyOp25
 70
     1
102
RTVSPropertyOp26
 70
     1
102
RTVSPropertyOp27
 70
     1
102
RTVSPropertyOp28
 70
     1
102
RTVSPropertyOp29
 70
     1
102
RTVSPropertyOp30
 70
     1
102
RTVSPropertyOp31
 70
     1
102
RTVSPropertyOp32
 70
     1
  0
XRECORD
  5
3C7
102
{ACAD_REACTORS
330
3C6
102
}
330
3C6
100
AcDbXrecord
280
     1
102
RTVSPropertyOp0
 70
     0
102
RTVSPropertyOp1
 70
     0
102
RTVSPropertyOp2
 70
     0
102
RTVSPropertyOp3
 70
     0
102
RTVSPropertyOp4
 70
     0
102
RTVSPropertyOp5
 70
     0
102
RTVSPropertyOp6
 70
     0
102
RTVSPropertyOp7
 70
     0
102
RTVSPropertyOp8
 70
     0
102
RTVSPropertyOp9
 70
     0
102
RTVSPropertyOp10
 70
     0
102
RTVSPropertyOp11
 70
     0
102
RTVSPropertyOp12
 70
     0
102
RTVSPropertyOp13
 70
     0
102
RTVSPropertyOp14
 70
     2
102
RTVSPropertyOp15
 70
     0
102
RTVSPropertyOp16
 70
     0
102
RTVSPropertyOp17
 70
     0
102
RTVSPropertyOp18
 70
     0
102
RTVSPropertyOp19
 70
     0
102
RTVSPropertyOp20
 70
     0
102
RTVSPropertyOp21
 70
     0
102
RTVSPropertyOp22
 70
     0
102
RTVSPropertyOp23
 70
     0
102
RTVSPropertyOp24
 70
     0
102
RTVSPropertyOp25
 70
     0
102
RTVSPropertyOp26
 70
     0
102
RTVSPropertyOp27
 70
     0
102
RTVSPropertyOp28
 70
     0
102
RTVSPropertyOp29
 70
     0
102
RTVSPropertyOp30
 70
     0
102
RTVSPropertyOp31
 70
     0
102
RTVSPropertyOp32
 70
     0
  0
XRECORD
  5
3AD
102
{ACAD_REACTORS
330
3AC
102
}
330
3AC
100
AcDbXrecord
280
     1
102
RTVSPropertyOp0
 70
     1
102
RTVSPropertyOp1
 70
     1
102
RTVSPropertyOp2
 70
     1
102
RTVSPropertyOp3
 70
     1
102
RTVSPropertyOp4
 70
     1
102
RTVSPropertyOp5
 70
     1
102
RTVSPropertyOp6
 70
     1
102
RTVSPropertyOp7
 70
     1
102
RTVSPropertyOp8
 70
     1
102
RTVSPropertyOp9
 70
     1
102
RTVSPropertyOp10
 70
     1
102
RTVSPropertyOp11
 70
     1
102
RTVSPropertyOp12
 70
     1
102
RTVSPropertyOp13
 70
     1
102
RTVSPropertyOp14
 70
     1
102
RTVSPropertyOp15
 70
     1
102
RTVSPropertyOp16
 70
     1
102
RTVSPropertyOp17
 70
     1
102
RTVSPropertyOp18
 70
     1
102
RTVSPropertyOp19
 70
     1
102
RTVSPropertyOp20
 70
     1
102
RTVSPropertyOp21
 70
     1
102
RTVSPropertyOp22
 70
     1
102
RTVSPropertyOp23
 70
     1
102
RTVSPropertyOp24
 70
     1
102
RTVSPropertyOp25
 70
     1
102
RTVSPropertyOp26
 70
     1
102
RTVSPropertyOp27
 70
     1
102
RTVSPropertyOp28
 70
     1
102
RTVSPropertyOp29
 70
     1
102
RTVSPropertyOp30
 70
     1
102
RTVSPropertyOp31
 70
     1
102
RTVSPropertyOp32
 70
     1
  0
XRECORD
  5
3C3
102
{ACAD_REACTORS
330
3C2
102
}
330
3C2
100
AcDbXrecord
280
     1
102
RTVSPropertyOp0
 70
     1
102
RTVSPropertyOp1
 70
     1
102
RTVSPropertyOp2
 70
     1
102
RTVSPropertyOp3
 70
     1
102
RTVSPropertyOp4
 70
     1
102
RTVSPropertyOp5
 70
     1
102
RTVSPropertyOp6
 70
     1
102
RTVSPropertyOp7
 70
     1
102
RTVSPropertyOp8
 70
     1
102
RTVSPropertyOp9
 70
     1
102
RTVSPropertyOp10
 70
     1
102
RTVSPropertyOp11
 70
     1
102
RTVSPropertyOp12
 70
     1
102
RTVSPropertyOp13
 70
     1
102
RTVSPropertyOp14
 70
     1
102
RTVSPropertyOp15
 70
     1
102
RTVSPropertyOp16
 70
     1
102
RTVSPropertyOp17
 70
     1
102
RTVSPropertyOp18
 70
     1
102
RTVSPropertyOp19
 70
     1
102
RTVSPropertyOp20
 70
     1
102
RTVSPropertyOp21
 70
     1
102
RTVSPropertyOp22
 70
     1
102
RTVSPropertyOp23
 70
     1
102
RTVSPropertyOp24
 70
     1
102
RTVSPropertyOp25
 70
     1
102
RTVSPropertyOp26
 70
     1
102
RTVSPropertyOp27
 70
     1
102
RTVSPropertyOp28
 70
     1
102
RTVSPropertyOp29
 70
     1
102
RTVSPropertyOp30
 70
     1
102
RTVSPropertyOp31
 70
     1
102
RTVSPropertyOp32
 70
     1
  0
XRECORD
  5
3C1
102
{ACAD_REACTORS
330
3C0
102
}
330
3C0
100
AcDbXrecord
280
     1
102
RTVSPropertyOp0
 70
     1
102
RTVSPropertyOp1
 70
     1
102
RTVSPropertyOp2
 70
     1
102
RTVSPropertyOp3
 70
     1
102
RTVSPropertyOp4
 70
     1
102
RTVSPropertyOp5
 70
     1
102
RTVSPropertyOp6
 70
     1
102
RTVSPropertyOp7
 70
     1
102
RTVSPropertyOp8
 70
     1
102
RTVSPropertyOp9
 70
     1
102
RTVSPropertyOp10
 70
     1
102
RTVSPropertyOp11
 70
     1
102
RTVSPropertyOp12
 70
     1
102
RTVSPropertyOp13
 70
     1
102
RTVSPropertyOp14
 70
     1
102
RTVSPropertyOp15
 70
     1
102
RTVSPropertyOp16
 70
     1
102
RTVSPropertyOp17
 70
     1
102
RTVSPropertyOp18
 70
     1
102
RTVSPropertyOp19
 70
     1
102
RTVSPropertyOp20
 70
     1
102
RTVSPropertyOp21
 70
     1
102
RTVSPropertyOp22
 70
     1
102
RTVSPropertyOp23
 70
     1
102
RTVSPropertyOp24
 70
     1
102
RTVSPropertyOp25
 70
     1
102
RTVSPropertyOp26
 70
     1
102
RTVSPropertyOp27
 70
     1
102
RTVSPropertyOp28
 70
     1
102
RTVSPropertyOp29
 70
     1
102
RTVSPropertyOp30
 70
     1
102
RTVSPropertyOp31
 70
     1
102
RTVSPropertyOp32
 70
     1
  0
XRECORD
  5
3BB
102
{ACAD_REACTORS
330
3BA
102
}
330
3BA
100
AcDbXrecord
280
     1
102
RTVSPropertyOp0
 70
     1
102
RTVSPropertyOp1
 70
     1
102
RTVSPropertyOp2
 70
     1
102
RTVSPropertyOp3
 70
     1
102
RTVSPropertyOp4
 70
     1
102
RTVSPropertyOp5
 70
     1
102
RTVSPropertyOp6
 70
     1
102
RTVSPropertyOp7
 70
     1
102
RTVSPropertyOp8
 70
     1
102
RTVSPropertyOp9
 70
     1
102
RTVSPropertyOp10
 70
     1
102
RTVSPropertyOp11
 70
     1
102
RTVSPropertyOp12
 70
     1
102
RTVSPropertyOp13
 70
     1
102
RTVSPropertyOp14
 70
     1
102
RTVSPropertyOp15
 70
     1
102
RTVSPropertyOp16
 70
     1
102
RTVSPropertyOp17
 70
     1
102
RTVSPropertyOp18
 70
     1
102
RTVSPropertyOp19
 70
     1
102
RTVSPropertyOp20
 70
     1
102
RTVSPropertyOp21
 70
     1
102
RTVSPropertyOp22
 70
     1
102
RTVSPropertyOp23
 70
     1
102
RTVSPropertyOp24
 70
     1
102
RTVSPropertyOp25
 70
     1
102
RTVSPropertyOp26
 70
     1
102
RTVSPropertyOp27
 70
     1
102
RTVSPropertyOp28
 70
     1
102
RTVSPropertyOp29
 70
     1
102
RTVSPropertyOp30
 70
     1
102
RTVSPropertyOp31
 70
     1
102
RTVSPropertyOp32
 70
     1
  0
XRECORD
  5
3BD
102
{ACAD_REACTORS
330
3BC
102
}
330
3BC
100
AcDbXrecord
280
     1
102
RTVSPropertyOp0
 70
     1
102
RTVSPropertyOp1
 70
     1
102
RTVSPropertyOp2
 70
     1
102
RTVSPropertyOp3
 70
     1
102
RTVSPropertyOp4
 70
     1
102
RTVSPropertyOp5
 70
     1
102
RTVSPropertyOp6
 70
     1
102
RTVSPropertyOp7
 70
     1
102
RTVSPropertyOp8
 70
     1
102
RTVSPropertyOp9
 70
     1
102
RTVSPropertyOp10
 70
     1
102
RTVSPropertyOp11
 70
     1
102
RTVSPropertyOp12
 70
     1
102
RTVSPropertyOp13
 70
     1
102
RTVSPropertyOp14
 70
     1
102
RTVSPropertyOp15
 70
     1
102
RTVSPropertyOp16
 70
     1
102
RTVSPropertyOp17
 70
     1
102
RTVSPropertyOp18
 70
     1
102
RTVSPropertyOp19
 70
     1
102
RTVSPropertyOp20
 70
     1
102
RTVSPropertyOp21
 70
     1
102
RTVSPropertyOp22
 70
     1
102
RTVSPropertyOp23
 70
     1
102
RTVSPropertyOp24
 70
     1
102
RTVSPropertyOp25
 70
     1
102
RTVSPropertyOp26
 70
     1
102
RTVSPropertyOp27
 70
     1
102
RTVSPropertyOp28
 70
     1
102
RTVSPropertyOp29
 70
     1
102
RTVSPropertyOp30
 70
     1
102
RTVSPropertyOp31
 70
     1
102
RTVSPropertyOp32
 70
     1
  0
XRECORD
  5
3B3
102
{ACAD_REACTORS
330
3B2
102
}
330
3B2
100
AcDbXrecord
280
     1
102
RTVSPropertyOp0
 70
     1
102
RTVSPropertyOp1
 70
     1
102
RTVSPropertyOp2
 70
     1
102
RTVSPropertyOp3
 70
     1
102
RTVSPropertyOp4
 70
     1
102
RTVSPropertyOp5
 70
     1
102
RTVSPropertyOp6
 70
     1
102
RTVSPropertyOp7
 70
     1
102
RTVSPropertyOp8
 70
     1
102
RTVSPropertyOp9
 70
     1
102
RTVSPropertyOp10
 70
     1
102
RTVSPropertyOp11
 70
     1
102
RTVSPropertyOp12
 70
     1
102
RTVSPropertyOp13
 70
     1
102
RTVSPropertyOp14
 70
     1
102
RTVSPropertyOp15
 70
     1
102
RTVSPropertyOp16
 70
     1
102
RTVSPropertyOp17
 70
     1
102
RTVSPropertyOp18
 70
     1
102
RTVSPropertyOp19
 70
     1
102
RTVSPropertyOp20
 70
     1
102
RTVSPropertyOp21
 70
     1
102
RTVSPropertyOp22
 70
     1
102
RTVSPropertyOp23
 70
     1
102
RTVSPropertyOp24
 70
     1
102
RTVSPropertyOp25
 70
     1
102
RTVSPropertyOp26
 70
     1
102
RTVSPropertyOp27
 70
     1
102
RTVSPropertyOp28
 70
     1
102
RTVSPropertyOp29
 70
     1
102
RTVSPropertyOp30
 70
     1
102
RTVSPropertyOp31
 70
     1
102
RTVSPropertyOp32
 70
     1
  0
XRECORD
  5
3A7
102
{ACAD_REACTORS
330
3A6
102
}
330
3A6
100
AcDbXrecord
280
     1
102
RTVSPropertyOp0
 70
     1
102
RTVSPropertyOp1
 70
     1
102
RTVSPropertyOp2
 70
     1
102
RTVSPropertyOp3
 70
     1
102
RTVSPropertyOp4
 70
     1
102
RTVSPropertyOp5
 70
     1
102
RTVSPropertyOp6
 70
     1
102
RTVSPropertyOp7
 70
     1
102
RTVSPropertyOp8
 70
     1
102
RTVSPropertyOp9
 70
     1
102
RTVSPropertyOp10
 70
     1
102
RTVSPropertyOp11
 70
     1
102
RTVSPropertyOp12
 70
     1
102
RTVSPropertyOp13
 70
     1
102
RTVSPropertyOp14
 70
     1
102
RTVSPropertyOp15
 70
     1
102
RTVSPropertyOp16
 70
     1
102
RTVSPropertyOp17
 70
     1
102
RTVSPropertyOp18
 70
     1
102
RTVSPropertyOp19
 70
     1
102
RTVSPropertyOp20
 70
     1
102
RTVSPropertyOp21
 70
     1
102
RTVSPropertyOp22
 70
     1
102
RTVSPropertyOp23
 70
     1
102
RTVSPropertyOp24
 70
     1
102
RTVSPropertyOp25
 70
     1
102
RTVSPropertyOp26
 70
     1
102
RTVSPropertyOp27
 70
     1
102
RTVSPropertyOp28
 70
     1
102
RTVSPropertyOp29
 70
     1
102
RTVSPropertyOp30
 70
     1
102
RTVSPropertyOp31
 70
     1
102
RTVSPropertyOp32
 70
     1
  0
XRECORD
  5
3BF
102
{ACAD_REACTORS
330
3BE
102
}
330
3BE
100
AcDbXrecord
280
     1
102
RTVSPropertyOp0
 70
     1
102
RTVSPropertyOp1
 70
     1
102
RTVSPropertyOp2
 70
     1
102
RTVSPropertyOp3
 70
     1
102
RTVSPropertyOp4
 70
     1
102
RTVSPropertyOp5
 70
     1
102
RTVSPropertyOp6
 70
     1
102
RTVSPropertyOp7
 70
     1
102
RTVSPropertyOp8
 70
     1
102
RTVSPropertyOp9
 70
     1
102
RTVSPropertyOp10
 70
     1
102
RTVSPropertyOp11
 70
     1
102
RTVSPropertyOp12
 70
     1
102
RTVSPropertyOp13
 70
     1
102
RTVSPropertyOp14
 70
     1
102
RTVSPropertyOp15
 70
     1
102
RTVSPropertyOp16
 70
     1
102
RTVSPropertyOp17
 70
     1
102
RTVSPropertyOp18
 70
     1
102
RTVSPropertyOp19
 70
     1
102
RTVSPropertyOp20
 70
     1
102
RTVSPropertyOp21
 70
     1
102
RTVSPropertyOp22
 70
     1
102
RTVSPropertyOp23
 70
     1
102
RTVSPropertyOp24
 70
     1
102
RTVSPropertyOp25
 70
     1
102
RTVSPropertyOp26
 70
     1
102
RTVSPropertyOp27
 70
     1
102
RTVSPropertyOp28
 70
     1
102
RTVSPropertyOp29
 70
     1
102
RTVSPropertyOp30
 70
     1
102
RTVSPropertyOp31
 70
     1
102
RTVSPropertyOp32
 70
     1
  0
ENDSEC
  0
EOF
