  0
SECTION
  2
HEADER
  9
$ACADVER
  1
AC1018
  9
$ACADMAINTVER
 70
   104
  9
$DWGCODEPAGE
  3
ANSI_1252
  9
$LASTSAVEDBY
  1
mstonge
  9
$INSBASE
 10
0.0
 20
0.0
 30
0.0
  9
$EXTMIN
 10
-870.472129141449
 20
227.2768878718529
 30
0.0
  9
$EXTMAX
 10
-103.916252495401
 20
597.895
 30
0.0
  9
$LIMMIN
 10
0.0
 20
0.0
  9
$LIMMAX
 10
0.0
 20
0.0
  9
$ORTHOMODE
 70
     0
  9
$REGENMODE
 70
     1
  9
$FILLMODE
 70
     1
  9
$QTEXTMODE
 70
     0
  9
$MIRRTEXT
 70
     1
  9
$LTSCALE
 40
1.0
  9
$ATTMODE
 70
     1
  9
$TEXTSIZE
 40
0.0
  9
$TRACEWID
 40
0.05
  9
$TEXTSTYLE
  7
STANDARD
  9
$CLAYER
  8
0
  9
$CELTYPE
  6
CONTINUOUS
  9
$CECOLOR
 62
   256
  9
$CELTSCALE
 40
1.0
  9
$DISPSILH
 70
     0
  9
$DIMSCALE
 40
1.0
  9
$DIMASZ
 40
0.18
  9
$DIMEXO
 40
0.0625
  9
$DIMDLI
 40
0.38
  9
$DIMRND
 40
0.0
  9
$DIMDLE
 40
0.0
  9
$DIMEXE
 40
0.18
  9
$DIMTP
 40
0.0
  9
$DIMTM
 40
0.0
  9
$DIMTXT
 40
0.18
  9
$DIMCEN
 40
0.09
  9
$DIMTSZ
 40
0.0
  9
$DIMTOL
 70
     0
  9
$DIMLIM
 70
     0
  9
$DIMTIH
 70
     1
  9
$DIMTOH
 70
     1
  9
$DIMSE1
 70
     0
  9
$DIMSE2
 70
     0
  9
$DIMTAD
 70
     0
  9
$DIMZIN
 70
     0
  9
$DIMBLK
  1

  9
$DIMASO
 70
     1
  9
$DIMSHO
 70
     1
  9
$DIMPOST
  1

  9
$DIMAPOST
  1

  9
$DIMALT
 70
     0
  9
$DIMALTD
 70
     2
  9
$DIMALTF
 40
25.4
  9
$DIMLFAC
 40
1.0
  9
$DIMTOFL
 70
     0
  9
$DIMTVP
 40
0.0
  9
$DIMTIX
 70
     0
  9
$DIMSOXD
 70
     0
  9
$DIMSAH
 70
     0
  9
$DIMBLK1
  1

  9
$DIMBLK2
  1

  9
$DIMSTYLE
  2
STANDARD
  9
$DIMCLRD
 70
     0
  9
$DIMCLRE
 70
     0
  9
$DIMCLRT
 70
     0
  9
$DIMTFAC
 40
1.0
  9
$DIMGAP
 40
0.09
  9
$DIMJUST
 70
     0
  9
$DIMSD1
 70
     0
  9
$DIMSD2
 70
     0
  9
$DIMTOLJ
 70
     1
  9
$DIMTZIN
 70
     0
  9
$DIMALTZ
 70
     0
  9
$DIMALTTZ
 70
     0
  9
$DIMUPT
 70
     0
  9
$DIMDEC
 70
     4
  9
$DIMTDEC
 70
     4
  9
$DIMALTU
 70
     2
  9
$DIMALTTD
 70
     2
  9
$DIMTXSTY
  7
STANDARD
  9
$DIMAUNIT
 70
     0
  9
$DIMADEC
 70
     0
  9
$DIMALTRND
 40
0.0
  9
$DIMAZIN
 70
     0
  9
$DIMDSEP
 70
    46
  9
$DIMATFIT
 70
     3
  9
$DIMFRAC
 70
     0
  9
$DIMLDRBLK
  1

  9
$DIMLUNIT
 70
     2
  9
$DIMLWD
 70
    -2
  9
$DIMLWE
 70
    -2
  9
$DIMTMOVE
 70
     0
  9
$LUNITS
 70
     2
  9
$LUPREC
 70
     4
  9
$SKETCHINC
 40
0.1
  9
$FILLETRAD
 40
0.0
  9
$AUNITS
 70
     0
  9
$AUPREC
 70
     0
  9
$MENU
  1
acad
  9
$ELEVATION
 40
0.0
  9
$PELEVATION
 40
0.0
  9
$THICKNESS
 40
0.0
  9
$LIMCHECK
 70
     0
  9
$CHAMFERA
 40
0.0
  9
$CHAMFERB
 40
0.0
  9
$CHAMFERC
 40
0.0
  9
$CHAMFERD
 40
0.0
  9
$SKPOLY
 70
     0
  9
$TDCREATE
 40
2305814.000000000
  9
$TDUCREATE
 40
2305814.166666666
  9
$TDUPDATE
 40
2456840.487145023
  9
$TDUUPDATE
 40
2456840.653811690
  9
$TDINDWG
 40
0.0004034838
  9
$TDUSRTIMER
 40
0.0004034838
  9
$USRTIMER
 70
     1
  9
$ANGBASE
 50
0.0
  9
$ANGDIR
 70
     0
  9
$PDMODE
 70
     0
  9
$PDSIZE
 40
0.0
  9
$PLINEWID
 40
0.0
  9
$SPLFRAME
 70
     0
  9
$SPLINETYPE
 70
     6
  9
$SPLINESEGS
 70
     8
  9
$HANDSEED
  5
3CD
  9
$SURFTAB1
 70
     6
  9
$SURFTAB2
 70
     6
  9
$SURFTYPE
 70
     6
  9
$SURFU
 70
     6
  9
$SURFV
 70
     6
  9
$UCSBASE
  2

  9
$UCSNAME
  2

  9
$UCSORG
 10
0.0
 20
0.0
 30
0.0
  9
$UCSXDIR
 10
1.0
 20
0.0
 30
0.0
  9
$UCSYDIR
 10
0.0
 20
1.0
 30
0.0
  9
$UCSORTHOREF
  2

  9
$UCSORTHOVIEW
 70
     0
  9
$UCSORGTOP
 10
0.0
 20
0.0
 30
0.0
  9
$UCSORGBOTTOM
 10
0.0
 20
0.0
 30
0.0
  9
$UCSORGLEFT
 10
0.0
 20
0.0
 30
0.0
  9
$UCSORGRIGHT
 10
0.0
 20
0.0
 30
0.0
  9
$UCSORGFRONT
 10
0.0
 20
0.0
 30
0.0
  9
$UCSORGBACK
 10
0.0
 20
0.0
 30
0.0
  9
$PUCSBASE
  2

  9
$PUCSNAME
  2

  9
$PUCSORG
 10
0.0
 20
0.0
 30
0.0
  9
$PUCSXDIR
 10
1.0
 20
0.0
 30
0.0
  9
$PUCSYDIR
 10
0.0
 20
1.0
 30
0.0
  9
$PUCSORTHOREF
  2

  9
$PUCSORTHOVIEW
 70
     0
  9
$PUCSORGTOP
 10
0.0
 20
0.0
 30
0.0
  9
$PUCSORGBOTTOM
 10
0.0
 20
0.0
 30
0.0
  9
$PUCSORGLEFT
 10
0.0
 20
0.0
 30
0.0
  9
$PUCSORGRIGHT
 10
0.0
 20
0.0
 30
0.0
  9
$PUCSORGFRONT
 10
0.0
 20
0.0
 30
0.0
  9
$PUCSORGBACK
 10
0.0
 20
0.0
 30
0.0
  9
$USERI1
 70
     0
  9
$USERI2
 70
     0
  9
$USERI3
 70
     0
  9
$USERI4
 70
     0
  9
$USERI5
 70
     0
  9
$USERR1
 40
0.0
  9
$USERR2
 40
0.0
  9
$USERR3
 40
0.0
  9
$USERR4
 40
0.0
  9
$USERR5
 40
0.0
  9
$WORLDVIEW
 70
     1
  9
$SHADEDGE
 70
     3
  9
$SHADEDIF
 70
    70
  9
$TILEMODE
 70
     1
  9
$MAXACTVP
 70
    16
  9
$PINSBASE
 10
0.0
 20
0.0
 30
0.0
  9
$PLIMCHECK
 70
     0
  9
$PEXTMIN
 10
1.000000000000000E+20
 20
1.000000000000000E+20
 30
1.000000000000000E+20
  9
$PEXTMAX
 10
-1.000000000000000E+20
 20
-1.000000000000000E+20
 30
-1.000000000000000E+20
  9
$PLIMMIN
 10
0.0
 20
0.0
  9
$PLIMMAX
 10
12.0
 20
9.0
  9
$UNITMODE
 70
     0
  9
$VISRETAIN
 70
     0
  9
$PLINEGEN
 70
     1
  9
$PSLTSCALE
 70
     0
  9
$TREEDEPTH
 70
  3020
  9
$CMLSTYLE
  2
STANDARD
  9
$CMLJUST
 70
     0
  9
$CMLSCALE
 40
1.0
  9
$PROXYGRAPHICS
 70
     0
  9
$MEASUREMENT
 70
     0
  9
$CELWEIGHT
370
    -1
  9
$ENDCAPS
280
     0
  9
$JOINSTYLE
280
     0
  9
$LWDISPLAY
290
     0
  9
$INSUNITS
 70
     0
  9
$HYPERLINKBASE
  1

  9
$STYLESHEET
  1

  9
$XEDIT
290
     1
  9
$CEPSNTYPE
380
     0
  9
$PSTYLEMODE
290
     1
  9
$FINGERPRINTGUID
  2
{4FDA39DE-60EA-4558-A29D-71824C031EC3}
  9
$VERSIONGUID
  2
{5F97C069-562F-438E-9AE6-744064E3B576}
  9
$EXTNAMES
290
     1
  9
$PSVPSCALE
 40
0.0
  9
$OLESTARTUP
290
     0
  9
$SORTENTS
280
   127
  9
$INDEXCTL
280
     0
  9
$HIDETEXT
280
     0
  9
$XCLIPFRAME
290
     0
  9
$HALOGAP
280
     0
  9
$OBSCOLOR
 70
   257
  9
$OBSLTYPE
280
     0
  9
$INTERSECTIONDISPLAY
280
     0
  9
$INTERSECTIONCOLOR
 70
   257
  9
$DIMASSOC
280
     1
  9
$PROJECTNAME
  1

  0
ENDSEC
  0
SECTION
  2
CLASSES
  0
CLASS
  1
IMAGE
  2
AcDbRasterImage
  3
ISM
 90
     2175
 91
        0
280
     0
281
     1
  0
CLASS
  1
DICTIONARYVAR
  2
AcDbDictionaryVar
  3
ObjectDBX Classes
 90
        0
 91
        4
280
     0
281
     0
  0
CLASS
  1
RASTERVARIABLES
  2
AcDbRasterVariables
  3
ISM
 90
        0
 91
        0
280
     0
281
     0
  0
CLASS
  1
IMAGEDEF
  2
AcDbRasterImageDef
  3
ISM
 90
        0
 91
        0
280
     0
281
     0
  0
CLASS
  1
IMAGEDEF_REACTOR
  2
AcDbRasterImageDefReactor
  3
ISM
 90
        1
 91
        0
280
     0
281
     0
  0
CLASS
  1
IDBUFFER
  2
AcDbIdBuffer
  3
ObjectDBX Classes
 90
        0
 91
        0
280
     0
281
     0
  0
CLASS
  1
SPATIAL_FILTER
  2
AcDbSpatialFilter
  3
ObjectDBX Classes
 90
        0
 91
        0
280
     0
281
     0
  0
CLASS
  1
SORTENTSTABLE
  2
AcDbSortentsTable
  3
ObjectDBX Classes
 90
        0
 91
        0
280
     0
281
     0
  0
CLASS
  1
LAYER_INDEX
  2
AcDbLayerIndex
  3
ObjectDBX Classes
 90
        0
 91
        0
280
     0
281
     0
  0
CLASS
  1
SPATIAL_INDEX
  2
AcDbSpatialIndex
  3
ObjectDBX Classes
 90
        0
 91
        0
280
     0
281
     0
  0
CLASS
  1
OBJECT_PTR
  2
CAseDLPNTableRecord
  3
"ASE-LPNTableRecord"
 90
        1
 91
        0
280
     0
281
     0
  0
CLASS
  1
PLOTSETTINGS
  2
AcDbPlotSettings
  3
ObjectDBX Classes
 90
        0
 91
        0
280
     0
281
     0
  0
CLASS
  1
ACDBDICTIONARYWDFLT
  2
AcDbDictionaryWithDefault
  3
ObjectDBX Classes
 90
        0
 91
        1
280
     0
281
     0
  0
CLASS
  1
WIPEOUT
  2
AcDbWipeout
  3
WipeOut|Product Desc: Object Enabler for WipeOut entity | Company: Autodesk, Inc. | WEB Address: www.autodesk.com
 90
     2175
 91
        0
280
     0
281
     1
  0
CLASS
  1
WIPEOUTVARIABLES
  2
AcDbWipeoutVariables
  3
"WipeOut|Product Desc:     WipeOut Dbx Application|Company:          Autodesk, Inc.|WEB Address:      www.autodesk.com"
 90
        0
 91
        0
280
     0
281
     0
  0
CLASS
  1
RTEXT
  2
RText
  3
RText|AutoCAD Express Tool|expresstools@autodesk.com
 90
        0
 91
        0
280
     0
281
     1
  0
CLASS
  1
ARCALIGNEDTEXT
  2
AcDbArcAlignedText
  3
ATEXT|AutoCAD Express Tool|expresstools@autodesk.com
 90
        0
 91
        0
280
     0
281
     1
  0
CLASS
  1
MATERIAL
  2
AcDbMaterial
  3
ObjectDBX Classes
 90
     1153
 91
        3
280
     0
281
     0
  0
CLASS
  1
VISUALSTYLE
  2
AcDbVisualStyle
  3
ObjectDBX Classes
 90
     4095
 91
       24
280
     0
281
     0
  0
CLASS
  1
TABLESTYLE
  2
AcDbTableStyle
  3
ObjectDBX Classes
 90
     4095
 91
        1
280
     0
281
     0
  0
CLASS
  1
SCALE
  2
AcDbScale
  3
ObjectDBX Classes
 90
     1153
 91
       17
280
     0
281
     0
  0
CLASS
  1
MLEADERSTYLE
  2
AcDbMLeaderStyle
  3
ACDB_MLEADERSTYLE_CLASS
 90
     4095
 91
        1
280
     0
281
     0
  0
CLASS
  1
CELLSTYLEMAP
  2
AcDbCellStyleMap
  3
ObjectDBX Classes
 90
     1152
 91
        1
280
     0
281
     0
  0
ENDSEC
  0
SECTION
  2
TABLES
  0
TABLE
  2
VPORT
  5
7
330
0
100
AcDbSymbolTable
 70
     1
  0
VPORT
  5
15
330
7
100
AcDbSymbolTableRecord
100
AcDbViewportTableRecord
  2
*ACTIVE
 70
     0
 10
0.0
 20
0.0
 11
1.0
 21
1.0
 12
13.87468970788036
 22
4.579183999999999
 13
0.0
 23
0.0
 14
1.0
 24
1.0
 15
0.0
 25
0.0
 16
0.0
 26
0.0
 36
1.0
 17
0.0
 27
0.0
 37
0.0
 40
7.217107878632479
 41
2.893478260869565
 42
50.0
 43
0.0
 44
0.0
 50
0.0
 51
0.0
 71
     0
 72
   100
 73
     1
 74
     1
 75
     0
 76
     0
 77
     0
 78
     0
281
     0
 65
     1
110
0.0
120
0.0
130
0.0
111
1.0
121
0.0
131
0.0
112
0.0
122
1.0
132
0.0
 79
     0
146
0.0
1001
ACAD_NAV_VCDISPLAY
1070
     3
  0
ENDTAB
  0
TABLE
  2
LTYPE
  5
4
330
0
100
AcDbSymbolTable
 70
     8
  0
LTYPE
  5
11
330
4
100
AcDbSymbolTableRecord
100
AcDbLinetypeTableRecord
  2
BYBLOCK
 70
     0
  3

 72
    65
 73
     0
 40
0.0
  0
LTYPE
  5
12
330
4
100
AcDbSymbolTableRecord
100
AcDbLinetypeTableRecord
  2
BYLAYER
 70
     0
  3

 72
    65
 73
     0
 40
0.0
  0
LTYPE
  5
13
330
4
100
AcDbSymbolTableRecord
100
AcDbLinetypeTableRecord
  2
CONTINUOUS
 70
     0
  3
Solid line
 72
    65
 73
     0
 40
0.0
  0
LTYPE
  5
1D
330
4
100
AcDbSymbolTableRecord
100
AcDbLinetypeTableRecord
  2
DASHED
 70
     0
  3
Dashed
 72
    65
 73
     2
 40
15.0
 49
12.0
 74
     0
 49
-3.0
 74
     0
  0
LTYPE
  5
1E
330
4
100
AcDbSymbolTableRecord
100
AcDbLinetypeTableRecord
  2
DOTTED
 70
     0
  3
Dotted
 72
    65
 73
     2
 40
3.5
 49
0.5
 74
     0
 49
-3.0
 74
     0
  0
LTYPE
  5
1F
330
4
100
AcDbSymbolTableRecord
100
AcDbLinetypeTableRecord
  2
DOT_CENTER
 70
     0
  3
Dot_Center
 72
    65
 73
     4
 40
2.0
 49
1.25
 74
     0
 49
-0.25
 74
     0
 49
0.25
 74
     0
 49
-0.25
 74
     0
  0
LTYPE
  5
20
330
4
100
AcDbSymbolTableRecord
100
AcDbLinetypeTableRecord
  2
LONG_DASHED
 70
     0
  3
Long_Dashed
 72
    65
 73
     2
 40
2.0
 49
1.5
 74
     0
 49
-0.5
 74
     0
  0
LTYPE
  5
21
330
4
100
AcDbSymbolTableRecord
100
AcDbLinetypeTableRecord
  2
DASH_CENTER
 70
     0
  3
Dash_Center
 72
    65
 73
     4
 40
36.0
 49
24.0
 74
     0
 49
-3.0
 74
     0
 49
6.0
 74
     0
 49
-3.0
 74
     0
  0
LTYPE
  5
22
330
4
100
AcDbSymbolTableRecord
100
AcDbLinetypeTableRecord
  2
PHANTOM
 70
     0
  3
Phantom
 72
    65
 73
     6
 40
2.5
 49
1.25
 74
     0
 49
-0.25
 74
     0
 49
0.25
 74
     0
 49
-0.25
 74
     0
 49
0.25
 74
     0
 49
-0.25
 74
     0
  0
LTYPE
  5
23
330
4
100
AcDbSymbolTableRecord
100
AcDbLinetypeTableRecord
  2
CENTER_DASH_DASH
 70
     0
  3
Center_Dash_Dash
 72
    65
 73
     6
 40
22.0
 49
12.0
 74
     0
 49
-3.0
 74
     0
 49
0.5
 74
     0
 49
-3.0
 74
     0
 49
0.5
 74
     0
 49
-3.0
 74
     0
  0
ENDTAB
  0
TABLE
  2
LAYER
  5
2
330
0
100
AcDbSymbolTable
 70
     2
  0
LAYER
  5
14
330
2
100
AcDbSymbolTableRecord
100
AcDbLayerTableRecord
  2
0
 70
     0
 62
     7
  6
CONTINUOUS
370
    -3
390
33E
  0
LAYER
  5
24
330
2
100
AcDbSymbolTableRecord
100
AcDbLayerTableRecord
  2
1
 70
     0
 62
     7
  6
CONTINUOUS
370
    -3
390
33E
  0
ENDTAB
  0
TABLE
  2
STYLE
  5
3
330
0
100
AcDbSymbolTable
 70
     2
  0
STYLE
  5
17
330
3
100
AcDbSymbolTableRecord
100
AcDbTextStyleTableRecord
  2
STANDARD
 70
     0
 40
0.0
 41
1.0
 50
0.0
 71
     0
 42
0.0
  3
txt
  4

  0
STYLE
  5
338
330
3
100
AcDbSymbolTableRecord
100
AcDbTextStyleTableRecord
  2
CONVERTER_1
 70
     0
 40
0.0
 41
0.9
 50
0.0
 71
     0
 42
0.0
  3
txt.shx
  4

  0
ENDTAB
  0
TABLE
  2
VIEW
  5
5
330
0
100
AcDbSymbolTable
 70
     0
  0
ENDTAB
  0
TABLE
  2
UCS
  5
6
330
0
100
AcDbSymbolTable
 70
     0
  0
ENDTAB
  0
TABLE
  2
APPID
  5
8
330
0
100
AcDbSymbolTable
 70
     3
  0
APPID
  5
16
330
8
100
AcDbSymbolTableRecord
100
AcDbRegAppTableRecord
  2
ACAD
 70
     0
  0
APPID
  5
394
330
8
100
AcDbSymbolTableRecord
100
AcDbRegAppTableRecord
  2
ACAD_NAV_VCDISPLAY
 70
     0
  0
APPID
  5
3CC
330
8
100
AcDbSymbolTableRecord
100
AcDbRegAppTableRecord
  2
ACAD_MLEADERVER
 70
     0
  0
ENDTAB
  0
TABLE
  2
DIMSTYLE
  5
9
330
0
100
AcDbSymbolTable
 70
     1
100
AcDbDimStyleTable
 71
     0
  0
DIMSTYLE
105
18
330
9
100
AcDbSymbolTableRecord
100
AcDbDimStyleTableRecord
  2
STANDARD
 70
     0
340
17
  0
ENDTAB
  0
TABLE
  2
BLOCK_RECORD
  5
1
330
0
100
AcDbSymbolTable
 70
     0
  0
BLOCK_RECORD
  5
A
330
1
100
AcDbSymbolTableRecord
100
AcDbBlockTableRecord
  2
*MODEL_SPACE
340
38A
  0
BLOCK_RECORD
  5
B
330
1
100
AcDbSymbolTableRecord
100
AcDbBlockTableRecord
  2
*PAPER_SPACE
340
38B
  0
ENDTAB
  0
ENDSEC
  0
SECTION
  2
BLOCKS
  0
BLOCK
  5
D
330
A
100
AcDbEntity
  8
0
100
AcDbBlockBegin
  2
*MODEL_SPACE
 70
     0
 10
0.0
 20
0.0
 30
0.0
  3
*MODEL_SPACE
  1

  0
ENDBLK
  5
E
330
A
100
AcDbEntity
  8
0
100
AcDbBlockEnd
  0
BLOCK
  5
F
330
B
100
AcDbEntity
 67
     1
  8
0
100
AcDbBlockBegin
  2
*PAPER_SPACE
 70
     0
 10
0.0
 20
0.0
 30
0.0
  3
*PAPER_SPACE
  1

  0
ENDBLK
  5
10
330
B
100
AcDbEntity
 67
     1
  8
0
100
AcDbBlockEnd
  0
ENDSEC
  0
SECTION
  2
ENTITIES
  0
MTEXT
  5
339
330
A
100
AcDbEntity
  8
1
 62
     3
100
AcDbMText
 10
-303.897561752237
 20
232.276887871853
 30
0.0
 40
10.0
 41
0.0
 71
     6
 72
     1
  1
B2T0794
  7
CONVERTER_1
 73
     1
 44
1.0
  0
ARC
  5
337
330
A
100
AcDbEntity
  8
1
  6
Continuous
 62
     3
100
AcDbCircle
 10
-378.0
 20
452.0
 30
0.0
 40
6.0
100
AcDbArc
 50
-90.0
 51
-0.000000000002
  0
ARC
  5
336
330
A
100
AcDbEntity
  8
1
  6
DASH_CENTER
 62
     3
100
AcDbCircle
 10
-378.0
 20
452.0
 30
0.0
 40
10.0
100
AcDbArc
 50
-90.0
 51
0.0
  0
ARC
  5
335
330
A
100
AcDbEntity
  8
1
  6
Continuous
 62
     3
100
AcDbCircle
 10
-378.0
 20
452.0
 30
0.0
 40
14.0
100
AcDbArc
 50
-90.0
 51
0.0
  0
ARC
  5
334
330
A
100
AcDbEntity
  8
1
  6
Continuous
 62
     3
100
AcDbCircle
 10
-486.1385948577529
 20
494.7449999999999
 30
0.0
 40
100.0
100
AcDbArc
 50
85.283778765661
 51
90.0
  0
ARC
  5
333
330
A
100
AcDbEntity
  8
1
  6
Continuous
 62
     3
100
AcDbCircle
 10
-473.1526017201599
 20
514.745
 30
0.0
 40
80.0
100
AcDbArc
 50
85.28377876566201
 51
90.0
  0
ARC
  5
332
330
A
100
AcDbEntity
  8
1
  6
Continuous
 62
     3
100
AcDbCircle
 10
-457.902585177938
 20
693.095
 30
0.0
 40
100.0
100
AcDbArc
 50
-94.716221234338
 51
-90.0
  0
ARC
  5
331
330
A
100
AcDbEntity
  8
1
  6
Continuous
 62
     3
100
AcDbCircle
 10
-458.68500609752
 20
674.095
 30
0.0
 40
80.0
100
AcDbArc
 50
-94.716221234338
 51
-90.0
  0
ARC
  5
330
330
A
100
AcDbEntity
  8
1
  6
Continuous
 62
     3
100
AcDbCircle
 10
-458.68500609752
 20
670.7949999999999
 30
0.0
 40
80.0
100
AcDbArc
 50
-94.716221234338
 51
-90.0
  0
ARC
  5
32F
330
A
100
AcDbEntity
  8
1
  6
Continuous
 62
     3
100
AcDbCircle
 10
-473.1526017201599
 20
511.4449999999999
 30
0.0
 40
80.0
100
AcDbArc
 50
85.28377876566201
 51
90.0
  0
ARC
  5
32E
330
A
100
AcDbEntity
  8
1
  6
Continuous
 62
     3
100
AcDbCircle
 10
-457.902585177938
 20
689.7949999999999
 30
0.0
 40
100.0
100
AcDbArc
 50
-94.716221234338
 51
-90.0
  0
ARC
  5
32D
330
A
100
AcDbEntity
  8
1
  6
Continuous
 62
     3
100
AcDbCircle
 10
-486.1385948577529
 20
491.445
 30
0.0
 40
100.0
100
AcDbArc
 50
85.283778765661
 51
90.0
  0
ARC
  5
32C
330
A
100
AcDbEntity
  8
1
  6
Continuous
 62
     3
100
AcDbCircle
 10
-378.0
 20
583.0
 30
0.0
 40
6.0
100
AcDbArc
 50
-0.000000000004
 51
90.00000000000099
  0
ARC
  5
32B
330
A
100
AcDbEntity
  8
1
  6
Continuous
 62
     3
100
AcDbCircle
 10
-378.0
 20
583.0
 30
0.0
 40
14.0
100
AcDbArc
 50
-0.000000000002
 51
90.0
  0
ARC
  5
32A
330
A
100
AcDbEntity
  8
1
  6
Continuous
 62
     3
100
AcDbCircle
 10
-378.0
 20
525.0
 30
0.0
 40
14.0
100
AcDbArc
 50
0.0
 51
90.0
  0
ARC
  5
329
330
A
100
AcDbEntity
  8
1
  6
Continuous
 62
     3
100
AcDbCircle
 10
-378.0
 20
525.0
 30
0.0
 40
6.0
100
AcDbArc
 50
0.0
 51
90.0
  0
ARC
  5
328
330
A
100
AcDbEntity
  8
1
  6
DASH_CENTER
 62
     3
100
AcDbCircle
 10
-378.0
 20
525.0
 30
0.0
 40
10.0
100
AcDbArc
 50
0.0
 51
90.0
  0
ARC
  5
327
330
A
100
AcDbEntity
  8
1
  6
DASH_CENTER
 62
     3
100
AcDbCircle
 10
-378.0
 20
583.0
 30
0.0
 40
10.0
100
AcDbArc
 50
-0.000000000002
 51
90.0
  0
ARC
  5
326
330
A
100
AcDbEntity
  8
1
  6
Continuous
 62
     3
100
AcDbCircle
 10
-764.5401028082879
 20
404.999999999999
 30
0.0
 40
4.0
100
AcDbArc
 50
90.0
 51
149.999999999999
  0
ARC
  5
325
330
A
100
AcDbEntity
  8
1
  6
Continuous
 62
     3
100
AcDbCircle
 10
-775.50975792289
 20
386.0
 30
0.0
 40
4.0
100
AcDbArc
 50
149.999999999999
 51
-149.999999999999
  0
ARC
  5
324
330
A
100
AcDbEntity
  8
1
  6
Continuous
 62
     3
100
AcDbCircle
 10
-764.540102808287
 20
367.000000000001
 30
0.0
 40
4.0
100
AcDbArc
 50
-149.999999999999
 51
-90.0
  0
ARC
  5
323
330
A
100
AcDbEntity
  8
1
  6
Continuous
 62
     3
100
AcDbCircle
 10
-742.600792579082
 20
367.000000000001
 30
0.0
 40
4.0
100
AcDbArc
 50
-90.0
 51
-30.000000000002
  0
ARC
  5
322
330
A
100
AcDbEntity
  8
1
  6
Continuous
 62
     3
100
AcDbCircle
 10
-731.6311374644799
 20
385.999999999999
 30
0.0
 40
4.0
100
AcDbArc
 50
-30.000000000002
 51
30.000000000001
  0
ARC
  5
321
330
A
100
AcDbEntity
  8
1
  6
Continuous
 62
     3
100
AcDbCircle
 10
-742.600792579083
 20
404.999999999999
 30
0.0
 40
4.0
100
AcDbArc
 50
30.0
 51
90.0
  0
ARC
  5
320
330
A
100
AcDbEntity
  8
1
  6
Continuous
 62
     3
100
AcDbCircle
 10
-163.545949461154
 20
368.000006227843
 30
0.0
 40
1.5
100
AcDbArc
 50
-90.0
 51
0.0
  0
ARC
  5
31F
330
A
100
AcDbEntity
  8
1
  6
Continuous
 62
     3
100
AcDbCircle
 10
-186.545949461154
 20
368.000006227843
 30
0.0
 40
1.5
100
AcDbArc
 50
180.0
 51
-90.0
  0
ARC
  5
31E
330
A
100
AcDbEntity
  8
1
  6
Continuous
 62
     3
100
AcDbCircle
 10
-163.545949461154
 20
404.000006227843
 30
0.0
 40
1.5
100
AcDbArc
 50
0.0
 51
90.0
  0
ARC
  5
31D
330
A
100
AcDbEntity
  8
1
  6
Continuous
 62
     3
100
AcDbCircle
 10
-186.545949461154
 20
404.000006227843
 30
0.0
 40
1.5
100
AcDbArc
 50
90.0
 51
180.0
  0
ARC
  5
31C
330
A
100
AcDbEntity
  8
1
  6
Continuous
 62
     3
100
AcDbCircle
 10
-206.72021621448
 20
347.825739474517
 30
0.0
 40
1.5
100
AcDbArc
 50
0.0
 51
90.0
  0
ARC
  5
31B
330
A
100
AcDbEntity
  8
1
  6
Continuous
 62
     3
100
AcDbCircle
 10
-206.72021621448
 20
324.825739474517
 30
0.0
 40
1.5
100
AcDbArc
 50
-90.0
 51
0.0
  0
ARC
  5
31A
330
A
100
AcDbEntity
  8
1
  6
Continuous
 62
     3
100
AcDbCircle
 10
-242.72021621448
 20
347.825739474517
 30
0.0
 40
1.5
100
AcDbArc
 50
90.0
 51
180.0
  0
ARC
  5
319
330
A
100
AcDbEntity
  8
1
  6
Continuous
 62
     3
100
AcDbCircle
 10
-242.72021621448
 20
324.825739474517
 30
0.0
 40
1.5
100
AcDbArc
 50
180.0
 51
-90.0
  0
SPLINE
  5
318
330
A
100
AcDbEntity
  8
1
  6
Continuous
 62
     3
100
AcDbSpline
210
0.0
220
0.0
230
1.0
 70
  1064
 71
     3
 72
    19
 73
    15
 74
    13
 42
0.0000000001
 43
0.0000000001
 44
0.00000000001
 40
0.0
 40
0.0
 40
0.0
 40
0.0
 40
11.33927690405417
 40
22.26437331074095
 40
29.24686067523452
 40
35.77798716797171
 40
38.31921774881949
 40
40.3279214037802
 40
40.84989050951522
 40
41.37997992287057
 40
43.57150431999193
 40
46.36265418403894
 40
52.6617121746743
 40
60.75607455428074
 40
60.75607455428074
 40
60.75607455428074
 40
60.75607455428074
 10
-578.0
 20
437.0073000790481
 30
0.0
 10
-574.5169971754569
 20
435.3439845342179
 30
0.0
 10
-567.6782123231118
 20
432.0781080116669
 30
0.0
 10
-562.5384316736813
 20
423.2338602660615
 30
0.0
 10
-560.277788919847
 20
415.4317680451749
 30
0.0
 10
-559.292899104533
 20
410.1613209943827
 30
0.0
 10
-558.4719656254763
 20
406.5605707566346
 30
0.0
 10
-558.0631380121064
 20
404.9197402663582
 30
0.0
 10
-557.7909452490019
 20
403.9364397071571
 30
0.0
 10
-557.4923491949954
 20
402.8973114070239
 30
0.0
 10
-556.9809616804525
 20
401.1319005150371
 30
0.0
 10
-555.8592382743141
 20
397.5450074810244
 30
0.0
 10
-553.7765161269166
 20
392.1683838371987
 30
0.0
 10
-551.0175377050879
 20
388.2202782119607
 30
0.0
 10
-549.465983552611
 20
386.0
 30
0.0
 11
-578.0
 21
437.0073000790481
 31
0.0
 11
-568.3099843769067
 21
431.1180897813065
 31
0.0
 11
-562.4003465368076
 21
421.9292970371932
 31
0.0
 11
-560.3484474988501
 21
415.2551049412656
 31
0.0
 11
-558.98824229301
 21
408.8671901749167
 31
0.0
 11
-558.4232568761771
 21
406.3895614005032
 31
0.0
 11
-557.9300270116209
 21
404.4423545100669
 31
0.0
 11
-557.7908573939447
 21
403.9392803953902
 31
0.0
 11
-557.645223731086
 21
403.4295887019188
 31
0.0
 11
-557.0301620773253
 21
401.3261443015956
 31
0.0
 11
-556.1893671291167
 21
398.6646444577789
 31
0.0
 11
-553.7997940630178
 21
392.8364309981361
 31
0.0
 11
-549.465983552611
 21
386.0
 31
0.0
  0
CIRCLE
  5
317
330
A
100
AcDbEntity
  8
1
  6
Continuous
 62
     3
100
AcDbCircle
 10
-767.8054951743201
 20
332.874079554099
 30
0.0
 40
6.95
  0
CIRCLE
  5
316
330
A
100
AcDbEntity
  8
1
  6
Continuous
 62
     3
100
AcDbCircle
 10
-792.4613206589529
 20
424.8908729652559
 30
0.0
 40
6.95
  0
CIRCLE
  5
315
330
A
100
AcDbEntity
  8
1
  6
Continuous
 62
     3
100
AcDbCircle
 10
-700.4445272477901
 20
400.235047480645
 30
0.0
 40
6.95
  0
CIRCLE
  5
314
330
A
100
AcDbEntity
  8
1
  6
Continuous
 62
     3
100
AcDbCircle
 10
-753.570447693687
 20
386.0
 30
0.0
 40
112.5
  0
CIRCLE
  5
313
330
A
100
AcDbEntity
  8
1
  6
Continuous
 62
     3
100
AcDbCircle
 10
-703.3409742741901
 20
414.999999999999
 30
0.0
 40
4.0
  0
CIRCLE
  5
312
330
A
100
AcDbEntity
  8
1
  6
Continuous
 62
     3
100
AcDbCircle
 10
-703.3409742741901
 20
414.999999999999
 30
0.0
 40
3.2
  0
CIRCLE
  5
311
330
A
100
AcDbEntity
  8
1
  6
Continuous
 62
     3
100
AcDbCircle
 10
-695.570447693688
 20
386.0
 30
0.0
 40
4.0
  0
CIRCLE
  5
310
330
A
100
AcDbEntity
  8
1
  6
Continuous
 62
     3
100
AcDbCircle
 10
-695.570447693688
 20
386.0
 30
0.0
 40
3.2
  0
CIRCLE
  5
30F
330
A
100
AcDbEntity
  8
1
  6
Continuous
 62
     3
100
AcDbCircle
 10
-703.3409742741901
 20
357.0
 30
0.0
 40
3.2
  0
CIRCLE
  5
30E
330
A
100
AcDbEntity
  8
1
  6
Continuous
 62
     3
100
AcDbCircle
 10
-703.3409742741901
 20
357.0
 30
0.0
 40
4.0
  0
CIRCLE
  5
30D
330
A
100
AcDbEntity
  8
1
  6
Continuous
 62
     3
100
AcDbCircle
 10
-724.570447693687
 20
335.7705265805031
 30
0.0
 40
3.2
  0
CIRCLE
  5
30C
330
A
100
AcDbEntity
  8
1
  6
Continuous
 62
     3
100
AcDbCircle
 10
-724.570447693687
 20
335.7705265805031
 30
0.0
 40
4.0
  0
CIRCLE
  5
30B
330
A
100
AcDbEntity
  8
1
  6
Continuous
 62
     3
100
AcDbCircle
 10
-753.570447693687
 20
328.0
 30
0.0
 40
3.2
  0
CIRCLE
  5
30A
330
A
100
AcDbEntity
  8
1
  6
Continuous
 62
     3
100
AcDbCircle
 10
-753.570447693687
 20
328.0
 30
0.0
 40
4.0
  0
CIRCLE
  5
309
330
A
100
AcDbEntity
  8
1
  6
Continuous
 62
     3
100
AcDbCircle
 10
-782.5704476936861
 20
335.7705265805031
 30
0.0
 40
4.0
  0
CIRCLE
  5
308
330
A
100
AcDbEntity
  8
1
  6
Continuous
 62
     3
100
AcDbCircle
 10
-782.5704476936861
 20
335.7705265805031
 30
0.0
 40
3.2
  0
CIRCLE
  5
307
330
A
100
AcDbEntity
  8
1
  6
Continuous
 62
     3
100
AcDbCircle
 10
-803.799921113184
 20
357.0
 30
0.0
 40
3.2
  0
CIRCLE
  5
306
330
A
100
AcDbEntity
  8
1
  6
Continuous
 62
     3
100
AcDbCircle
 10
-803.799921113184
 20
357.0
 30
0.0
 40
4.0
  0
CIRCLE
  5
305
330
A
100
AcDbEntity
  8
1
  6
Continuous
 62
     3
100
AcDbCircle
 10
-811.570447693686
 20
386.0
 30
0.0
 40
4.0
  0
CIRCLE
  5
304
330
A
100
AcDbEntity
  8
1
  6
Continuous
 62
     3
100
AcDbCircle
 10
-811.570447693686
 20
386.0
 30
0.0
 40
3.2
  0
CIRCLE
  5
303
330
A
100
AcDbEntity
  8
1
  6
Continuous
 62
     3
100
AcDbCircle
 10
-803.799921113184
 20
414.999999999999
 30
0.0
 40
4.0
  0
CIRCLE
  5
302
330
A
100
AcDbEntity
  8
1
  6
Continuous
 62
     3
100
AcDbCircle
 10
-803.799921113184
 20
414.999999999999
 30
0.0
 40
3.2
  0
CIRCLE
  5
301
330
A
100
AcDbEntity
  8
1
  6
Continuous
 62
     3
100
AcDbCircle
 10
-782.570447693687
 20
436.229473419497
 30
0.0
 40
4.0
  0
CIRCLE
  5
300
330
A
100
AcDbEntity
  8
1
  6
Continuous
 62
     3
100
AcDbCircle
 10
-782.570447693687
 20
436.229473419497
 30
0.0
 40
3.2
  0
CIRCLE
  5
2FF
330
A
100
AcDbEntity
  8
1
  6
Continuous
 62
     3
100
AcDbCircle
 10
-753.570447693687
 20
443.999999999999
 30
0.0
 40
4.0
  0
CIRCLE
  5
2FE
330
A
100
AcDbEntity
  8
1
  6
Continuous
 62
     3
100
AcDbCircle
 10
-753.570447693687
 20
443.999999999999
 30
0.0
 40
3.2
  0
CIRCLE
  5
2FD
330
A
100
AcDbEntity
  8
1
  6
Continuous
 62
     3
100
AcDbCircle
 10
-724.570447693687
 20
436.229473419497
 30
0.0
 40
4.0
  0
CIRCLE
  5
2FC
330
A
100
AcDbEntity
  8
1
  6
Continuous
 62
     3
100
AcDbCircle
 10
-724.570447693687
 20
436.229473419497
 30
0.0
 40
3.2
  0
CIRCLE
  5
2FB
330
A
100
AcDbEntity
  8
1
  6
Continuous
 62
     3
100
AcDbCircle
 10
-753.570447693688
 20
386.0
 30
0.0
 40
66.0
  0
CIRCLE
  5
2FA
330
A
100
AcDbEntity
  8
1
  6
Continuous
 62
     3
100
AcDbCircle
 10
-753.570447693688
 20
386.0
 30
0.0
 40
73.0
  0
CIRCLE
  5
2F9
330
A
100
AcDbEntity
  8
1
  6
Continuous
 62
     3
100
AcDbCircle
 10
-738.5589430777389
 20
442.0236979247659
 30
0.0
 40
5.0
  0
CIRCLE
  5
2F8
330
A
100
AcDbEntity
  8
1
  6
Continuous
 62
     3
100
AcDbCircle
 10
-652.070447693687
 20
386.0
 30
0.0
 40
4.0
  0
CIRCLE
  5
2F7
330
A
100
AcDbEntity
  8
1
  6
Continuous
 62
     3
100
AcDbCircle
 10
-652.070447693687
 20
386.0
 30
0.0
 40
5.0
  0
CIRCLE
  5
2F6
330
A
100
AcDbEntity
  8
1
  6
DASH_CENTER
 62
     3
100
AcDbCircle
 10
-753.570447693687
 20
386.0
 30
0.0
 40
101.5
  0
CIRCLE
  5
2F5
330
A
100
AcDbEntity
  8
1
  6
Continuous
 62
     3
100
AcDbCircle
 10
-753.570447693687
 20
386.0
 30
0.0
 40
90.0
  0
CIRCLE
  5
2F4
330
A
100
AcDbEntity
  8
1
  6
Continuous
 62
     3
100
AcDbCircle
 10
-659.7966751437909
 20
347.157631614943
 30
0.0
 40
5.5
  0
CIRCLE
  5
2F3
330
A
100
AcDbEntity
  8
1
  6
Continuous
 62
     3
100
AcDbCircle
 10
-659.7966751437909
 20
424.842368385056
 30
0.0
 40
5.5
  0
CIRCLE
  5
2F2
330
A
100
AcDbEntity
  8
1
  6
Continuous
 62
     3
100
AcDbCircle
 10
-714.72807930863
 20
479.773772549896
 30
0.0
 40
5.499999999998999
  0
CIRCLE
  5
2F1
330
A
100
AcDbEntity
  8
1
  6
Continuous
 62
     3
100
AcDbCircle
 10
-792.4128160787429
 20
479.773772549896
 30
0.0
 40
5.5
  0
CIRCLE
  5
2F0
330
A
100
AcDbEntity
  8
1
  6
Continuous
 62
     3
100
AcDbCircle
 10
-847.3442202435819
 20
424.842368385056
 30
0.0
 40
5.5
  0
CIRCLE
  5
2EF
330
A
100
AcDbEntity
  8
1
  6
Continuous
 62
     3
100
AcDbCircle
 10
-847.3442202435819
 20
347.157631614943
 30
0.0
 40
5.5
  0
CIRCLE
  5
2EE
330
A
100
AcDbEntity
  8
1
  6
Continuous
 62
     3
100
AcDbCircle
 10
-792.4128160787429
 20
292.226227450104
 30
0.0
 40
5.5
  0
CIRCLE
  5
2ED
330
A
100
AcDbEntity
  8
1
  6
Continuous
 62
     3
100
AcDbCircle
 10
-714.72807930863
 20
292.226227450104
 30
0.0
 40
5.5
  0
CIRCLE
  5
2EC
330
A
100
AcDbEntity
  8
1
  6
Continuous
 62
     3
100
AcDbCircle
 10
-855.070447693687
 20
385.999999999999
 30
0.0
 40
4.0
  0
CIRCLE
  5
2EB
330
A
100
AcDbEntity
  8
1
  6
Continuous
 62
     3
100
AcDbCircle
 10
-855.070447693687
 20
385.999999999999
 30
0.0
 40
5.0
  0
CIRCLE
  5
2EA
330
A
100
AcDbEntity
  8
1
  6
Continuous
 62
     3
100
AcDbCircle
 10
-224.720216214479
 20
386.000006227843
 30
0.0
 40
112.5
  0
CIRCLE
  5
2E9
330
A
100
AcDbEntity
  8
1
  6
DASH_CENTER
 62
     3
100
AcDbCircle
 10
-224.720216214479
 20
386.000006227843
 30
0.0
 40
101.5
  0
CIRCLE
  5
2E8
330
A
100
AcDbEntity
  8
1
  6
Continuous
 62
     3
100
AcDbCircle
 10
-185.877847829422
 20
292.226233677947
 30
0.0
 40
5.5
  0
CIRCLE
  5
2E7
330
A
100
AcDbEntity
  8
1
  6
Continuous
 62
     3
100
AcDbCircle
 10
-263.562584599535
 20
292.226233677947
 30
0.0
 40
5.5
  0
CIRCLE
  5
2E6
330
A
100
AcDbEntity
  8
1
  6
Continuous
 62
     3
100
AcDbCircle
 10
-318.493988764374
 20
347.157637842786
 30
0.0
 40
5.5
  0
CIRCLE
  5
2E5
330
A
100
AcDbEntity
  8
1
  6
Continuous
 62
     3
100
AcDbCircle
 10
-326.220216214479
 20
386.000006227842
 30
0.0
 40
5.0
  0
CIRCLE
  5
2E4
330
A
100
AcDbEntity
  8
1
  6
Continuous
 62
     3
100
AcDbCircle
 10
-326.220216214479
 20
386.000006227842
 30
0.0
 40
4.0
  0
CIRCLE
  5
2E3
330
A
100
AcDbEntity
  8
1
  6
Continuous
 62
     3
100
AcDbCircle
 10
-318.493988764374
 20
424.842374612899
 30
0.0
 40
5.5
  0
CIRCLE
  5
2E2
330
A
100
AcDbEntity
  8
1
  6
Continuous
 62
     3
100
AcDbCircle
 10
-263.562584599535
 20
479.773778777739
 30
0.0
 40
5.5
  0
CIRCLE
  5
2E1
330
A
100
AcDbEntity
  8
1
  6
Continuous
 62
     3
100
AcDbCircle
 10
-185.877847829422
 20
479.7737787777379
 30
0.0
 40
5.499999999998999
  0
CIRCLE
  5
2E0
330
A
100
AcDbEntity
  8
1
  6
Continuous
 62
     3
100
AcDbCircle
 10
-130.946443664583
 20
424.842374612899
 30
0.0
 40
5.5
  0
CIRCLE
  5
2DF
330
A
100
AcDbEntity
  8
1
  6
Continuous
 62
     3
100
AcDbCircle
 10
-123.220216214479
 20
386.000006227843
 30
0.0
 40
5.0
  0
CIRCLE
  5
2DE
330
A
100
AcDbEntity
  8
1
  6
Continuous
 62
     3
100
AcDbCircle
 10
-123.220216214479
 20
386.000006227843
 30
0.0
 40
4.0
  0
CIRCLE
  5
2DD
330
A
100
AcDbEntity
  8
1
  6
Continuous
 62
     3
100
AcDbCircle
 10
-130.946443664583
 20
347.157637842786
 30
0.0
 40
5.5
  0
CIRCLE
  5
2DC
330
A
100
AcDbEntity
  8
1
  6
Continuous
 62
     3
100
AcDbCircle
 10
-185.877847829422
 20
292.226233677947
 30
0.0
 40
5.5
  0
CIRCLE
  5
2DB
330
A
100
AcDbEntity
  8
1
  6
Continuous
 62
     3
100
AcDbCircle
 10
-224.72021621448
 20
386.0
 30
0.0
 40
71.50000000000099
  0
CIRCLE
  5
2DA
330
A
100
AcDbEntity
  8
1
  6
Continuous
 62
     3
100
AcDbCircle
 10
-224.72021621448
 20
386.0
 30
0.0
 40
72.5
  0
CIRCLE
  5
2D9
330
A
100
AcDbEntity
  8
1
  6
Continuous
 62
     3
100
AcDbCircle
 10
-239.214082740221
 20
440.091846272188
 30
0.0
 40
4.0
  0
CIRCLE
  5
2D8
330
A
100
AcDbEntity
  8
1
  6
Continuous
 62
     3
100
AcDbCircle
 10
-210.226349688739
 20
440.091846272188
 30
0.0
 40
4.0
  0
CIRCLE
  5
2D7
330
A
100
AcDbEntity
  8
1
  6
Continuous
 62
     3
100
AcDbCircle
 10
-224.72021621448
 20
386.0
 30
0.0
 40
22.5
  0
CIRCLE
  5
2D6
330
A
100
AcDbEntity
  8
1
  6
Continuous
 62
     3
100
AcDbCircle
 10
-210.226349688739
 20
440.091846272188
 30
0.0
 40
6.999999999998999
  0
CIRCLE
  5
2D5
330
A
100
AcDbEntity
  8
1
  6
Continuous
 62
     3
100
AcDbCircle
 10
-239.214082740221
 20
440.091846272188
 30
0.0
 40
6.999999999998999
  0
CIRCLE
  5
2D4
330
A
100
AcDbEntity
  8
1
  6
Continuous
 62
     3
100
AcDbCircle
 10
-753.570447693688
 20
386.0
 30
0.0
 40
22.5
  0
CIRCLE
  5
2D3
330
A
100
AcDbEntity
  8
1
  6
Continuous
 62
     3
100
AcDbCircle
 10
-753.570447693688
 20
386.0
 30
0.0
 40
45.000000000002
  0
CIRCLE
  5
2D2
330
A
100
AcDbEntity
  8
1
  6
Continuous
 62
     3
100
AcDbCircle
 10
-753.5704476936849
 20
386.0
 30
0.0
 40
28.000000000001
  0
CIRCLE
  5
2D1
330
A
100
AcDbEntity
  8
1
  6
Continuous
 62
     3
100
AcDbCircle
 10
-792.4613206589529
 20
424.8908729652559
 30
0.0
 40
6.25
  0
CIRCLE
  5
2D0
330
A
100
AcDbEntity
  8
1
  6
Continuous
 62
     3
100
AcDbCircle
 10
-700.4445272477901
 20
400.235047480645
 30
0.0
 40
6.25
  0
CIRCLE
  5
2CF
330
A
100
AcDbEntity
  8
1
  6
Continuous
 62
     3
100
AcDbCircle
 10
-767.8054951743201
 20
332.874079554099
 30
0.0
 40
6.25
  0
CIRCLE
  5
2CE
330
A
100
AcDbEntity
  8
1
  6
Continuous
 62
     3
100
AcDbCircle
 10
-753.570447693687
 20
386.0
 30
0.0
 40
85.0
  0
CIRCLE
  5
2CD
330
A
100
AcDbEntity
  8
1
  6
Continuous
 62
     3
100
AcDbCircle
 10
-224.72021621448
 20
386.0
 30
0.0
 40
90.0
  0
CIRCLE
  5
2CC
330
A
100
AcDbEntity
  8
1
  6
Continuous
 62
     3
100
AcDbCircle
 10
-674.5704476936879
 20
386.0
 30
0.0
 40
5.0
  0
CIRCLE
  5
2CB
330
A
100
AcDbEntity
  8
1
  6
Continuous
 62
     3
100
AcDbCircle
 10
-674.5704476936879
 20
386.0
 30
0.0
 40
4.307179676971999
  0
CIRCLE
  5
2CA
330
A
100
AcDbEntity
  8
1
  6
Continuous
 62
     3
100
AcDbCircle
 10
-714.070447693688
 20
317.583994
 30
0.0
 40
5.0
  0
CIRCLE
  5
2C9
330
A
100
AcDbEntity
  8
1
  6
Continuous
 62
     3
100
AcDbCircle
 10
-714.070447693688
 20
317.583994
 30
0.0
 40
4.307179676971999
  0
CIRCLE
  5
2C8
330
A
100
AcDbEntity
  8
1
  6
Continuous
 62
     3
100
AcDbCircle
 10
-793.0704460578779
 20
454.4160069444349
 30
0.0
 40
5.0
  0
CIRCLE
  5
2C7
330
A
100
AcDbEntity
  8
1
  6
Continuous
 62
     3
100
AcDbCircle
 10
-793.0704460578779
 20
454.4160069444349
 30
0.0
 40
4.307179676971999
  0
CIRCLE
  5
2C6
330
A
100
AcDbEntity
  8
1
  6
Continuous
 62
     3
100
AcDbCircle
 10
-821.986453693688
 20
425.4999999999999
 30
0.0
 40
5.0
  0
CIRCLE
  5
2C5
330
A
100
AcDbEntity
  8
1
  6
Continuous
 62
     3
100
AcDbCircle
 10
-821.986453693688
 20
425.4999999999999
 30
0.0
 40
4.307179676971999
  0
CIRCLE
  5
2C4
330
A
100
AcDbEntity
  8
1
  6
Continuous
 62
     3
100
AcDbCircle
 10
-832.5704476936881
 20
386.0
 30
0.0
 40
5.0
  0
CIRCLE
  5
2C3
330
A
100
AcDbEntity
  8
1
  6
Continuous
 62
     3
100
AcDbCircle
 10
-832.5704476936881
 20
386.0
 30
0.0
 40
4.307179676971999
  0
CIRCLE
  5
2C2
330
A
100
AcDbEntity
  8
1
  6
Continuous
 62
     3
100
AcDbCircle
 10
-821.986453693688
 20
346.5
 30
0.0
 40
5.0
  0
CIRCLE
  5
2C1
330
A
100
AcDbEntity
  8
1
  6
Continuous
 62
     3
100
AcDbCircle
 10
-821.986453693688
 20
346.5
 30
0.0
 40
4.307179676971999
  0
CIRCLE
  5
2C0
330
A
100
AcDbEntity
  8
1
  6
Continuous
 62
     3
100
AcDbCircle
 10
-793.070447693688
 20
317.583994
 30
0.0
 40
5.0
  0
CIRCLE
  5
2BF
330
A
100
AcDbEntity
  8
1
  6
Continuous
 62
     3
100
AcDbCircle
 10
-793.070447693688
 20
317.583994
 30
0.0
 40
4.307179676971999
  0
CIRCLE
  5
2BE
330
A
100
AcDbEntity
  8
1
  6
Continuous
 62
     3
100
AcDbCircle
 10
-753.570447693688
 20
307.0
 30
0.0
 40
5.0
  0
CIRCLE
  5
2BD
330
A
100
AcDbEntity
  8
1
  6
Continuous
 62
     3
100
AcDbCircle
 10
-753.570447693688
 20
307.0
 30
0.0
 40
4.307179676971999
  0
CIRCLE
  5
2BC
330
A
100
AcDbEntity
  8
1
  6
Continuous
 62
     3
100
AcDbCircle
 10
-685.154439693688
 20
346.5
 30
0.0
 40
5.0
  0
CIRCLE
  5
2BB
330
A
100
AcDbEntity
  8
1
  6
Continuous
 62
     3
100
AcDbCircle
 10
-685.154439693688
 20
346.5
 30
0.0
 40
4.307179676971999
  0
CIRCLE
  5
2BA
330
A
100
AcDbEntity
  8
1
  6
Continuous
 62
     3
100
AcDbCircle
 10
-685.154439693688
 20
425.4999999999999
 30
0.0
 40
5.0
  0
CIRCLE
  5
2B9
330
A
100
AcDbEntity
  8
1
  6
Continuous
 62
     3
100
AcDbCircle
 10
-685.154439693688
 20
425.4999999999999
 30
0.0
 40
4.307179676971999
  0
CIRCLE
  5
2B8
330
A
100
AcDbEntity
  8
1
  6
Continuous
 62
     3
100
AcDbCircle
 10
-714.070447693688
 20
454.416006
 30
0.0
 40
5.0
  0
CIRCLE
  5
2B7
330
A
100
AcDbEntity
  8
1
  6
Continuous
 62
     3
100
AcDbCircle
 10
-714.070447693688
 20
454.416006
 30
0.0
 40
4.307179676971999
  0
CIRCLE
  5
2B6
330
A
100
AcDbEntity
  8
1
  6
Continuous
 62
     3
100
AcDbCircle
 10
-753.570447693688
 20
465.0
 30
0.0
 40
5.0
  0
CIRCLE
  5
2B5
330
A
100
AcDbEntity
  8
1
  6
Continuous
 62
     3
100
AcDbCircle
 10
-753.570447693688
 20
465.0
 30
0.0
 40
4.307179676971999
  0
CIRCLE
  5
2B4
330
A
100
AcDbEntity
  8
1
  6
Continuous
 62
     3
100
AcDbCircle
 10
-148.412075937644
 20
365.5532954369001
 30
0.0
 40
2.98038475773
  0
CIRCLE
  5
2B3
330
A
100
AcDbEntity
  8
1
  6
Continuous
 62
     3
100
AcDbCircle
 10
-148.412075937644
 20
365.5532954369001
 30
0.0
 40
3.5
  0
CIRCLE
  5
2B2
330
A
100
AcDbEntity
  8
1
  6
Continuous
 62
     3
100
AcDbCircle
 10
-168.858780500742
 20
441.861435713737
 30
0.0
 40
3.5
  0
CIRCLE
  5
2B1
330
A
100
AcDbEntity
  8
1
  6
Continuous
 62
     3
100
AcDbCircle
 10
-168.858780500742
 20
441.861435713737
 30
0.0
 40
2.980384757729
  0
CIRCLE
  5
2B0
330
A
100
AcDbEntity
  8
1
  6
Continuous
 62
     3
100
AcDbCircle
 10
-245.166920777578
 20
462.3081402768359
 30
0.0
 40
3.5
  0
CIRCLE
  5
2AF
330
A
100
AcDbEntity
  8
1
  6
Continuous
 62
     3
100
AcDbCircle
 10
-245.166920777578
 20
462.3081402768359
 30
0.0
 40
2.980384757729
  0
CIRCLE
  5
2AE
330
A
100
AcDbEntity
  8
1
  6
Continuous
 62
     3
100
AcDbCircle
 10
-301.028356491316
 20
406.446704563099
 30
0.0
 40
3.5
  0
CIRCLE
  5
2AD
330
A
100
AcDbEntity
  8
1
  6
Continuous
 62
     3
100
AcDbCircle
 10
-301.028356491316
 20
406.446704563099
 30
0.0
 40
2.980384757729
  0
CIRCLE
  5
2AC
330
A
100
AcDbEntity
  8
1
  6
Continuous
 62
     3
100
AcDbCircle
 10
-280.581651928217
 20
330.138564286263
 30
0.0
 40
3.5
  0
CIRCLE
  5
2AB
330
A
100
AcDbEntity
  8
1
  6
Continuous
 62
     3
100
AcDbCircle
 10
-280.581651928217
 20
330.138564286263
 30
0.0
 40
2.980384757729
  0
CIRCLE
  5
2AA
330
A
100
AcDbEntity
  8
1
  6
Continuous
 62
     3
100
AcDbCircle
 10
-204.273511651381
 20
309.691859723164
 30
0.0
 40
3.5
  0
CIRCLE
  5
2A9
330
A
100
AcDbEntity
  8
1
  6
Continuous
 62
     3
100
AcDbCircle
 10
-204.273511651381
 20
309.691859723164
 30
0.0
 40
2.980384757729
  0
CIRCLE
  5
2A8
330
A
100
AcDbEntity
  8
1
  6
Continuous
 62
     3
100
AcDbCircle
 10
-257.22021621448
 20
329.708348754012
 30
0.0
 40
2.75
  0
CIRCLE
  5
2A7
330
A
100
AcDbEntity
  8
1
  6
Continuous
 62
     3
100
AcDbCircle
 10
-257.22021621448
 20
329.708348754012
 30
0.0
 40
2.403589838485999
  0
CIRCLE
  5
2A6
330
A
100
AcDbEntity
  8
1
  6
Continuous
 62
     3
100
AcDbCircle
 10
-168.428564968491
 20
353.5
 30
0.0
 40
2.403589838485999
  0
CIRCLE
  5
2A5
330
A
100
AcDbEntity
  8
1
  6
Continuous
 62
     3
100
AcDbCircle
 10
-168.428564968491
 20
353.5
 30
0.0
 40
2.75
  0
CIRCLE
  5
2A4
330
A
100
AcDbEntity
  8
1
  6
Continuous
 62
     3
100
AcDbCircle
 10
-192.22021621448
 20
442.291651245989
 30
0.0
 40
2.403589838485999
  0
CIRCLE
  5
2A3
330
A
100
AcDbEntity
  8
1
  6
Continuous
 62
     3
100
AcDbCircle
 10
-192.22021621448
 20
442.291651245989
 30
0.0
 40
2.75
  0
CIRCLE
  5
2A2
330
A
100
AcDbEntity
  8
1
  6
Continuous
 62
     3
100
AcDbCircle
 10
-281.011867460469
 20
418.5
 30
0.0
 40
2.403589838485999
  0
CIRCLE
  5
2A1
330
A
100
AcDbEntity
  8
1
  6
Continuous
 62
     3
100
AcDbCircle
 10
-281.011867460469
 20
418.5
 30
0.0
 40
2.75
  0
CIRCLE
  5
2A0
330
A
100
AcDbEntity
  8
1
  6
DASH_CENTER
 62
     3
100
AcDbCircle
 10
-753.570447693688
 20
386.0
 30
0.0
 40
58.0
  0
CIRCLE
  5
29F
330
A
100
AcDbEntity
  8
1
  6
Continuous
 62
     3
100
AcDbCircle
 10
-738.5589430777389
 20
442.0236979247659
 30
0.0
 40
4.0
  0
ARC
  5
29E
330
A
100
AcDbEntity
  8
1
  6
DASH_CENTER
 62
     3
100
AcDbCircle
 10
-753.570447693688
 20
386.0
 30
0.0
 40
78.999999221469
100
AcDbArc
 50
87.60645793996999
 51
87.60645793996999
  0
ARC
  5
29D
330
A
100
AcDbEntity
  8
1
  6
Continuous
 62
     3
100
AcDbCircle
 10
-224.72021621448
 20
386.0
 30
0.0
 40
29.0
100
AcDbArc
 50
90.0
 51
90.0
  0
ARC
  5
29C
330
A
100
AcDbEntity
  8
1
  6
DASH_CENTER
 62
     3
100
AcDbCircle
 10
-224.72021621448
 20
386.0
 30
0.0
 40
65.0
100
AcDbArc
 50
144.047376902131
 51
155.952623097868
  0
ARC
  5
29B
330
A
100
AcDbEntity
  8
1
  6
Continuous
 62
     3
100
AcDbCircle
 10
-281.011867460469
 20
418.5
 30
0.0
 40
5.0
100
AcDbArc
 50
150.000000000002
 51
150.000000000002
  0
ARC
  5
29A
330
A
100
AcDbEntity
  8
1
  6
Continuous
 62
     3
100
AcDbCircle
 10
-281.011867460469
 20
418.5
 30
0.0
 40
5.5
100
AcDbArc
 50
-119.999999999999
 51
59.999999999999
  0
ARC
  5
299
330
A
100
AcDbEntity
  8
1
  6
Continuous
 62
     3
100
AcDbCircle
 10
-288.53812400313
 20
414.7623824722409
 30
0.0
 40
1.5
100
AcDbArc
 50
60.0
 51
155.739170477262
  0
ARC
  5
298
330
A
100
AcDbEntity
  8
1
  6
Continuous
 62
     3
100
AcDbCircle
 10
-281.53812400313
 20
426.8867381252229
 30
0.0
 40
1.5
100
AcDbArc
 50
144.260829522738
 51
-119.999999999997
  0
ARC
  5
297
330
A
100
AcDbEntity
  8
1
  6
DASH_CENTER
 62
     3
100
AcDbCircle
 10
-224.72021621448
 20
386.0
 30
0.0
 40
65.0
100
AcDbArc
 50
54.047376902131
 51
65.952623097868
  0
ARC
  5
296
330
A
100
AcDbEntity
  8
1
  6
Continuous
 62
     3
100
AcDbCircle
 10
-192.22021621448
 20
442.291651245989
 30
0.0
 40
5.0
100
AcDbArc
 50
60.0
 51
60.0
  0
ARC
  5
295
330
A
100
AcDbEntity
  8
1
  6
Continuous
 62
     3
100
AcDbCircle
 10
-192.22021621448
 20
442.291651245989
 30
0.0
 40
5.5
100
AcDbArc
 50
150.0
 51
-30.0
  0
ARC
  5
294
330
A
100
AcDbEntity
  8
1
  6
Continuous
 62
     3
100
AcDbCircle
 10
-195.957833742239
 20
449.8179077886499
 30
0.0
 40
1.5
100
AcDbArc
 50
-29.999999999999
 51
65.739170477269
  0
ARC
  5
293
330
A
100
AcDbEntity
  8
1
  6
Continuous
 62
     3
100
AcDbCircle
 10
-183.833478089257
 20
442.81790778865
 30
0.0
 40
1.5
100
AcDbArc
 50
54.260829522735
 51
150.0
  0
ARC
  5
292
330
A
100
AcDbEntity
  8
1
  6
DASH_CENTER
 62
     3
100
AcDbCircle
 10
-224.72021621448
 20
386.0
 30
0.0
 40
65.0
100
AcDbArc
 50
-35.952623097868
 51
-24.047376902132
  0
ARC
  5
291
330
A
100
AcDbEntity
  8
1
  6
Continuous
 62
     3
100
AcDbCircle
 10
-168.428564968491
 20
353.5
 30
0.0
 40
5.0
100
AcDbArc
 50
-29.999999999997
 51
-29.999999999997
  0
ARC
  5
290
330
A
100
AcDbEntity
  8
1
  6
Continuous
 62
     3
100
AcDbCircle
 10
-168.428564968491
 20
353.5
 30
0.0
 40
5.5
100
AcDbArc
 50
60.000000000001
 51
-120.0
  0
ARC
  5
28F
330
A
100
AcDbEntity
  8
1
  6
Continuous
 62
     3
100
AcDbCircle
 10
-160.90230842583
 20
357.237617527759
 30
0.0
 40
1.5
100
AcDbArc
 50
-120.0000000000009
 51
-24.260829522732
  0
ARC
  5
28E
330
A
100
AcDbEntity
  8
1
  6
Continuous
 62
     3
100
AcDbCircle
 10
-167.90230842583
 20
345.113261874777
 30
0.0
 40
1.5
100
AcDbArc
 50
-35.739170477269
 51
59.999999999998
  0
ARC
  5
28D
330
A
100
AcDbEntity
  8
1
  6
Continuous
 62
     3
100
AcDbCircle
 10
-265.606954339703
 20
329.18209221135
 30
0.0
 40
1.5
100
AcDbArc
 50
-125.739170477262
 51
-29.999999999997
  0
ARC
  5
28C
330
A
100
AcDbEntity
  8
1
  6
Continuous
 62
     3
100
AcDbCircle
 10
-253.482598686721
 20
322.18209221135
 30
0.0
 40
1.5
100
AcDbArc
 50
149.999999999999
 51
-114.260829522733
  0
ARC
  5
28B
330
A
100
AcDbEntity
  8
1
  6
Continuous
 62
     3
100
AcDbCircle
 10
-257.22021621448
 20
329.708348754012
 30
0.0
 40
5.5
100
AcDbArc
 50
-30.0
 51
150.0
  0
ARC
  5
28A
330
A
100
AcDbEntity
  8
1
  6
Continuous
 62
     3
100
AcDbCircle
 10
-301.028356491317
 20
365.553295436904
 30
0.0
 40
3.299999999999999
100
AcDbArc
 50
-165.000000000002
 51
-165.000000000002
  0
ARC
  5
289
330
A
100
AcDbEntity
  8
1
  6
DASH_CENTER
 62
     3
100
AcDbCircle
 10
-224.72021621448
 20
386.000006227843
 30
0.0
 40
56.0
100
AcDbArc
 50
49.999995904191
 51
114.000002591705
  0
ARC
  5
288
330
A
100
AcDbEntity
  8
1
  6
Continuous
 62
     3
100
AcDbCircle
 10
-257.22021621448
 20
329.708348754012
 30
0.0
 40
5.0
100
AcDbArc
 50
-119.999999999997
 51
-119.999999999997
  0
ARC
  5
287
330
A
100
AcDbEntity
  8
1
  6
Continuous
 62
     3
100
AcDbCircle
 10
-204.273511651381
 20
309.691859723164
 30
0.0
 40
4.0
100
AcDbArc
 50
-74.999999999997
 51
-74.999999999997
  0
ARC
  5
286
330
A
100
AcDbEntity
  8
1
  6
Continuous
 62
     3
100
AcDbCircle
 10
-280.581651928217
 20
330.138564286263
 30
0.0
 40
3.999999999998999
100
AcDbArc
 50
-135.000000000007
 51
-135.000000000007
  0
ARC
  5
285
330
A
100
AcDbEntity
  8
1
  6
Continuous
 62
     3
100
AcDbCircle
 10
-301.028356491316
 20
406.446704563099
 30
0.0
 40
4.0
100
AcDbArc
 50
165.000000000001
 51
165.000000000001
  0
ARC
  5
284
330
A
100
AcDbEntity
  8
1
  6
Continuous
 62
     3
100
AcDbCircle
 10
-245.166920777578
 20
462.3081402768359
 30
0.0
 40
4.0
100
AcDbArc
 50
105.000000000004
 51
105.000000000004
  0
ARC
  5
283
330
A
100
AcDbEntity
  8
1
  6
Continuous
 62
     3
100
AcDbCircle
 10
-168.858780500742
 20
441.861435713737
 30
0.0
 40
4.0
100
AcDbArc
 50
45.000000000002
 51
45.000000000002
  0
ARC
  5
282
330
A
100
AcDbEntity
  8
1
  6
Continuous
 62
     3
100
AcDbCircle
 10
-145.72021621448
 20
386.0
 30
0.0
 40
3.299999999999999
100
AcDbArc
 50
-0.000000000005
 51
-0.000000000005
  0
ARC
  5
281
330
A
100
AcDbEntity
  8
1
  6
Continuous
 62
     3
100
AcDbCircle
 10
-156.304209315509
 20
346.5
 30
0.0
 40
3.299999999999999
100
AcDbArc
 50
-30.000000000005
 51
-30.000000000005
  0
ARC
  5
280
330
A
100
AcDbEntity
  8
1
  6
Continuous
 62
     3
100
AcDbCircle
 10
-185.22021621448
 20
317.583993101029
 30
0.0
 40
3.299999999999999
100
AcDbArc
 50
-60.00000000000301
 51
-60.00000000000301
  0
ARC
  5
27F
330
A
100
AcDbEntity
  8
1
  6
Continuous
 62
     3
100
AcDbCircle
 10
-224.72021621448
 20
307.0
 30
0.0
 40
3.299999999999999
100
AcDbArc
 50
-90.00000000000099
 51
-90.00000000000099
  0
ARC
  5
27E
330
A
100
AcDbEntity
  8
1
  6
Continuous
 62
     3
100
AcDbCircle
 10
-264.22021621448
 20
317.583993101029
 30
0.0
 40
3.299999999999999
100
AcDbArc
 50
-120.000000000007
 51
-120.000000000007
  0
ARC
  5
27D
330
A
100
AcDbEntity
  8
1
  6
Continuous
 62
     3
100
AcDbCircle
 10
-293.136223113451
 20
346.5
 30
0.0
 40
3.299999999999999
100
AcDbArc
 50
-150.000000000002
 51
-150.000000000002
  0
ARC
  5
27C
330
A
100
AcDbEntity
  8
1
  6
Continuous
 62
     3
100
AcDbCircle
 10
-303.72021621448
 20
386.0
 30
0.0
 40
3.299999999999999
100
AcDbArc
 50
179.999999999998
 51
179.999999999998
  0
ARC
  5
27B
330
A
100
AcDbEntity
  8
1
  6
Continuous
 62
     3
100
AcDbCircle
 10
-293.136223113451
 20
425.4999999999999
 30
0.0
 40
3.299999999999999
100
AcDbArc
 50
149.99999999999
 51
149.99999999999
  0
ARC
  5
27A
330
A
100
AcDbEntity
  8
1
  6
Continuous
 62
     3
100
AcDbCircle
 10
-264.22021621448
 20
454.416006898971
 30
0.0
 40
3.299999999999999
100
AcDbArc
 50
119.999999999997
 51
119.999999999997
  0
ARC
  5
279
330
A
100
AcDbEntity
  8
1
  6
Continuous
 62
     3
100
AcDbCircle
 10
-224.72021621448
 20
465.0
 30
0.0
 40
3.299999999999999
100
AcDbArc
 50
89.99999999999799
 51
89.99999999999799
  0
ARC
  5
278
330
A
100
AcDbEntity
  8
1
  6
Continuous
 62
     3
100
AcDbCircle
 10
-185.22021621448
 20
454.416006898971
 30
0.0
 40
3.299999999999999
100
AcDbArc
 50
60.0
 51
60.0
  0
ARC
  5
277
330
A
100
AcDbEntity
  8
1
  6
Continuous
 62
     3
100
AcDbCircle
 10
-224.72021621448
 20
386.0
 30
0.0
 40
24.0
100
AcDbArc
 50
0.0
 51
0.0
  0
ARC
  5
276
330
A
100
AcDbEntity
  8
1
  6
Continuous
 62
     3
100
AcDbCircle
 10
-224.72021621448
 20
386.0
 30
0.0
 40
87.5
100
AcDbArc
 50
0.0
 51
0.0
  0
ARC
  5
275
330
A
100
AcDbEntity
  8
1
  6
Continuous
 62
     3
100
AcDbCircle
 10
-156.304209315509
 20
425.4999999999999
 30
0.0
 40
3.299999999999999
100
AcDbArc
 50
29.999999999992
 51
29.999999999992
  0
ARC
  5
274
330
A
100
AcDbEntity
  8
1
  6
DASH_CENTER
 62
     3
100
AcDbCircle
 10
-224.72021621448
 20
386.0
 30
0.0
 40
79.0
100
AcDbArc
 50
0.0
 51
0.0
  0
ARC
  5
273
330
A
100
AcDbEntity
  8
1
  6
Continuous
 62
     3
100
AcDbCircle
 10
-148.412075937644
 20
365.5532954369001
 30
0.0
 40
4.0
100
AcDbArc
 50
-15.000000000001
 51
-15.000000000001
  0
ARC
  5
272
330
A
100
AcDbEntity
  8
1
  6
DASH_CENTER
 62
     3
100
AcDbCircle
 10
-224.72021621448
 20
386.0
 30
0.0
 40
65.0
100
AcDbArc
 50
-125.952623097868
 51
-114.047376902132
  0
ARC
  5
271
330
A
100
AcDbEntity
  8
1
  6
Continuous
 62
     3
100
AcDbCircle
 10
-410.984848484848
 20
329.70834875401
 30
0.0
 40
2.859805438166999
100
AcDbArc
 50
-74.071282878764
 51
-70.49546144688699
  0
ARC
  5
270
330
A
100
AcDbEntity
  8
1
  6
Continuous
 62
     3
100
AcDbCircle
 10
-487.6
 20
458.8999999999999
 30
0.0
 40
0.4
100
AcDbArc
 50
180.0
 51
-90.0
  0
ARC
  5
26F
330
A
100
AcDbEntity
  8
1
  6
Continuous
 62
     3
100
AcDbCircle
 10
-397.833333326989
 20
594.999999999993
 30
0.0
 40
3.333333333353
100
AcDbArc
 50
143.130102353434
 51
-143.130102354147
  0
ARC
  5
26E
330
A
100
AcDbEntity
  8
1
  6
Continuous
 62
     3
100
AcDbCircle
 10
-397.833333326989
 20
591.000000000007
 30
0.0
 40
3.333333333321999
100
AcDbArc
 50
143.130102354154
 51
-143.130102353422
  0
ARC
  5
26D
330
A
100
AcDbEntity
  8
1
  6
Continuous
 62
     3
100
AcDbCircle
 10
-403.1666666603619
 20
591.000000000007
 30
0.0
 40
3.333333333354
100
AcDbArc
 50
-36.86989764657801
 51
36.86989764584601
  0
ARC
  5
26C
330
A
100
AcDbEntity
  8
1
  6
Continuous
 62
     3
100
AcDbCircle
 10
-400.83333332693
 20
594.999999999993
 30
0.0
 40
3.333333333353
100
AcDbArc
 50
143.130102353437
 51
-143.13010235415
  0
ARC
  5
26B
330
A
100
AcDbEntity
  8
1
  6
Continuous
 62
     3
100
AcDbCircle
 10
-406.1666666603029
 20
591.000000000007
 30
0.0
 40
3.333333333354
100
AcDbArc
 50
-36.86989764657801
 51
36.869897645847
  0
ARC
  5
26A
330
A
100
AcDbEntity
  8
1
  6
Continuous
 62
     3
100
AcDbCircle
 10
-406.166666660304
 20
594.999999999993
 30
0.0
 40
3.333333333321999
100
AcDbArc
 50
-36.869897645849
 51
36.869897646562
  0
ARC
  5
269
330
A
100
AcDbEntity
  8
1
  6
Continuous
 62
     3
100
AcDbCircle
 10
-406.166666660304
 20
536.9999999999929
 30
0.0
 40
3.333333333321999
100
AcDbArc
 50
-36.86989764584601
 51
36.869897646562
  0
ARC
  5
268
330
A
100
AcDbEntity
  8
1
  6
Continuous
 62
     3
100
AcDbCircle
 10
-406.1666666603029
 20
533.000000000007
 30
0.0
 40
3.333333333353
100
AcDbArc
 50
-36.86989764657
 51
36.86989764585
  0
ARC
  5
267
330
A
100
AcDbEntity
  8
1
  6
Continuous
 62
     3
100
AcDbCircle
 10
-400.83333332693
 20
536.9999999999929
 30
0.0
 40
3.333333333353
100
AcDbArc
 50
143.130102353437
 51
-143.130102354153
  0
ARC
  5
266
330
A
100
AcDbEntity
  8
1
  6
Continuous
 62
     3
100
AcDbCircle
 10
-403.1666666603619
 20
533.000000000007
 30
0.0
 40
3.333333333353
100
AcDbArc
 50
-36.86989764657
 51
36.869897645849
  0
ARC
  5
265
330
A
100
AcDbEntity
  8
1
  6
Continuous
 62
     3
100
AcDbCircle
 10
-397.833333326989
 20
533.000000000006
 30
0.0
 40
3.333333333321999
100
AcDbArc
 50
143.130102354149
 51
-143.130102353431
  0
ARC
  5
264
330
A
100
AcDbEntity
  8
1
  6
Continuous
 62
     3
100
AcDbCircle
 10
-397.833333326989
 20
536.9999999999929
 30
0.0
 40
3.333333333353
100
AcDbArc
 50
143.130102353434
 51
-143.13010235415
  0
ARC
  5
263
330
A
100
AcDbEntity
  8
1
  6
DASH_CENTER
 62
     3
100
AcDbCircle
 10
-753.570447693688
 20
386.0
 30
0.0
 40
55.0
100
AcDbArc
 50
3.259881379719999
 51
26.740118620294
  0
ARC
  5
262
330
A
100
AcDbEntity
  8
1
  6
DASH_CENTER
 62
     3
100
AcDbCircle
 10
-753.570447693688
 20
386.0
 30
0.0
 40
55.0
100
AcDbArc
 50
123.259881379719
 51
146.740118620293
  0
ARC
  5
261
330
A
100
AcDbEntity
  8
1
  6
DASH_CENTER
 62
     3
100
AcDbCircle
 10
-753.570447693688
 20
386.0
 30
0.0
 40
55.0
100
AcDbArc
 50
-116.74011862028
 51
-93.259881379706
  0
ARC
  5
260
330
A
100
AcDbEntity
  8
1
  6
Continuous
 62
     3
100
AcDbCircle
 10
-397.226207030234
 20
436.8500000000009
 30
0.0
 40
1.823755378607
100
AcDbArc
 50
-47.751084436828
 51
47.75108443682499
  0
ARC
  5
25F
330
A
100
AcDbEntity
  8
1
  6
Continuous
 62
     3
100
AcDbCircle
 10
-397.226207030234
 20
447.150000000001
 30
0.0
 40
1.823755378607
100
AcDbArc
 50
-47.751084436831
 51
47.75108443682499
  0
ARC
  5
25E
330
A
100
AcDbEntity
  8
1
  6
Continuous
 62
     3
100
AcDbCircle
 10
-401.2624087201239
 20
442.0000000000009
 30
0.0
 40
5.826057460894
100
AcDbArc
 50
-25.410879263471
 51
25.410879263471
  0
ARC
  5
25D
330
A
100
AcDbEntity
  8
1
  6
Continuous
 62
     3
100
AcDbCircle
 10
-410.984848484848
 20
418.5
 30
0.0
 40
2.859805438166
100
AcDbArc
 50
31.635343725214
 51
74.071282878764
  0
LINE
  5
25C
330
A
100
AcDbEntity
  8
1
  6
Continuous
 62
     3
100
AcDbLine
 10
-506.707567016511
 20
471.707567016517
 30
0.0
 11
-506.0000000000009
 21
471.0
 31
0.0
  0
LINE
  5
25B
330
A
100
AcDbEntity
  8
1
  6
Continuous
 62
     3
100
AcDbLine
 10
-506.707567016511
 20
300.292432983483
 30
0.0
 11
-510.600000060207
 21
300.156506226402
 31
0.0
  0
LINE
  5
25A
330
A
100
AcDbEntity
  8
1
  6
DASH_CENTER
 62
     3
100
AcDbLine
 10
-736.939698598607
 20
448.066800590763
 30
0.0
 11
-740.381576826806
 21
435.221536169659
 31
0.0
  0
LINE
  5
259
330
A
100
AcDbEntity
  8
1
  6
DASH_CENTER
 62
     3
100
AcDbLine
 10
-342.916252495401
 20
386.0
 30
0.0
 11
-103.916252495401
 21
386.0
 31
0.0
  0
LINE
  5
258
330
A
100
AcDbEntity
  8
1
  6
DASH_CENTER
 62
     3
100
AcDbLine
 10
-870.472129141449
 20
386.0
 30
0.0
 11
-634.4721291414489
 21
386.0
 31
0.0
  0
LINE
  5
257
330
A
100
AcDbEntity
  8
1
  6
Continuous
 62
     3
100
AcDbLine
 10
-538.0
 20
498.0
 30
0.0
 11
-538.0
 21
274.0
 31
0.0
  0
LINE
  5
256
330
A
100
AcDbEntity
  8
1
  6
Continuous
 62
     3
100
AcDbLine
 10
-516.0
 20
274.0
 30
0.0
 11
-516.0
 21
498.0
 31
0.0
  0
LINE
  5
255
330
A
100
AcDbEntity
  8
1
  6
Continuous
 62
     3
100
AcDbLine
 10
-510.600000060207
 20
471.843493773598
 30
0.0
 11
-510.600000060207
 21
300.156506226402
 31
0.0
  0
LINE
  5
254
330
A
100
AcDbEntity
  8
1
  6
Continuous
 62
     3
100
AcDbLine
 10
-516.0000000000009
 20
476.0
 30
0.0
 11
-511.300000000001
 21
476.0
 31
0.0
  0
LINE
  5
253
330
A
100
AcDbEntity
  8
1
  6
Continuous
 62
     3
100
AcDbLine
 10
-510.600000060207
 20
471.843493773598
 30
0.0
 11
-506.707567016511
 21
471.707567016517
 31
0.0
  0
LINE
  5
252
330
A
100
AcDbEntity
  8
1
  6
Continuous
 62
     3
100
AcDbLine
 10
-510.600000060207
 20
475.3000000000029
 30
0.0
 11
-510.600000060207
 21
471.843493773598
 31
0.0
  0
LINE
  5
251
330
A
100
AcDbEntity
  8
1
  6
Continuous
 62
     3
100
AcDbLine
 10
-516.5
 20
498.5
 30
0.0
 11
-537.5
 21
498.5
 31
0.0
  0
LINE
  5
250
330
A
100
AcDbEntity
  8
1
  6
Continuous
 62
     3
100
AcDbLine
 10
-538.0
 20
476.0
 30
0.0
 11
-542.7
 21
476.0
 31
0.0
  0
LINE
  5
24F
330
A
100
AcDbEntity
  8
0
  6
DASHED
 62
     3
100
AcDbLine
 10
-563.199900000001
 20
362.500000000001
 30
0.0
 11
-563.199900000034
 21
362.500000000001
 31
0.0
  0
LINE
  5
24E
330
A
100
AcDbEntity
  8
1
  6
Continuous
 62
     3
100
AcDbLine
 10
-543.0
 20
296.3
 30
0.0
 11
-543.0
 21
475.6999999999999
 31
0.0
  0
LINE
  5
24D
330
A
100
AcDbEntity
  8
1
  6
Continuous
 62
     3
100
AcDbLine
 10
-542.7
 20
296.0
 30
0.0
 11
-538.0
 21
296.0
 31
0.0
  0
LINE
  5
24C
330
A
100
AcDbEntity
  8
1
  6
Continuous
 62
     3
100
AcDbLine
 10
-537.5
 20
273.5
 30
0.0
 11
-516.5
 21
273.5
 31
0.0
  0
LINE
  5
24B
330
A
100
AcDbEntity
  8
1
  6
Continuous
 62
     3
100
AcDbLine
 10
-516.0
 20
290.0
 30
0.0
 11
-516.0000000000009
 21
296.0
 31
0.0
  0
LINE
  5
24A
330
A
100
AcDbEntity
  8
1
  6
Continuous
 62
     3
100
AcDbLine
 10
-510.600000060207
 20
300.156506226402
 30
0.0
 11
-510.600000060207
 21
296.699999939783
 31
0.0
  0
LINE
  5
249
330
A
100
AcDbEntity
  8
1
  6
Continuous
 62
     3
100
AcDbLine
 10
-511.300000000001
 20
296.0
 30
0.0
 11
-516.0000000000009
 21
296.0
 31
0.0
  0
LINE
  5
248
330
A
100
AcDbEntity
  8
1
  6
Continuous
 62
     3
100
AcDbLine
 10
-572.5
 20
320.0
 30
0.0
 11
-577.5
 21
320.0
 31
0.0
  0
LINE
  5
247
330
A
100
AcDbEntity
  8
1
  6
DASH_CENTER
 62
     3
100
AcDbLine
 10
-572.929359588134
 20
307.0
 30
0.0
 11
-565.7293595881339
 21
307.0
 31
0.0
  0
LINE
  5
246
330
A
100
AcDbEntity
  8
1
  6
DASH_CENTER
 62
     3
100
AcDbLine
 10
-572.929359588134
 20
346.5
 30
0.0
 11
-565.7293595881339
 21
346.5
 31
0.0
  0
LINE
  5
245
330
A
100
AcDbEntity
  8
1
  6
DASH_CENTER
 62
     3
100
AcDbLine
 10
-572.929359588134
 20
317.583994
 30
0.0
 11
-565.7293595881339
 21
317.583994
 31
0.0
  0
LINE
  5
244
330
A
100
AcDbEntity
  8
1
  6
DASH_CENTER
 62
     3
100
AcDbLine
 10
-565.7293595881339
 20
454.416006
 30
0.0
 11
-572.929359588134
 21
454.416006
 31
0.0
  0
LINE
  5
243
330
A
100
AcDbEntity
  8
1
  6
DASH_CENTER
 62
     3
100
AcDbLine
 10
-572.929359588134
 20
307.0
 30
0.0
 11
-565.7293595881339
 21
307.0
 31
0.0
  0
LINE
  5
242
330
A
100
AcDbEntity
  8
1
  6
Continuous
 62
     3
100
AcDbLine
 10
-566.5
 20
301.0
 30
0.0
 11
-566.5
 21
386.0
 31
0.0
  0
LINE
  5
241
330
A
100
AcDbEntity
  8
1
  6
Continuous
 62
     3
100
AcDbLine
 10
-578.0
 20
451.4999999999999
 30
0.0
 11
-578.0
 21
320.5
 31
0.0
  0
LINE
  5
240
330
A
100
AcDbEntity
  8
1
  6
DASHED
 62
     3
100
AcDbLine
 10
-577.5
 20
341.0
 30
0.0
 11
-578.0
 21
340.5
 31
0.0
  0
LINE
  5
23F
330
A
100
AcDbEntity
  8
1
  6
DASHED
 62
     3
100
AcDbLine
 10
-577.500000743224
 20
341.0
 30
0.0
 11
-574.5
 21
340.999999999997
 31
0.0
  0
LINE
  5
23E
330
A
100
AcDbEntity
  8
1
  6
Continuous
 62
     3
100
AcDbLine
 10
-577.5
 20
320.0
 30
0.0
 11
-578.0
 21
320.5
 31
0.0
  0
LINE
  5
23D
330
A
100
AcDbEntity
  8
1
  6
Continuous
 62
     3
100
AcDbLine
 10
-543.0
 20
301.0
 30
0.0
 11
-566.5
 21
301.0
 31
0.0
  0
LINE
  5
23C
330
A
100
AcDbEntity
  8
1
  6
DASH_CENTER
 62
     3
100
AcDbLine
 10
-567.929359588134
 20
307.0
 30
0.0
 11
-563.729359588134
 21
307.0
 31
0.0
  0
LINE
  5
23B
330
A
100
AcDbEntity
  8
1
  6
DASH_CENTER
 62
     3
100
AcDbLine
 10
-784.820447693688
 20
440.126587736527
 30
0.0
 11
-780.320447693688
 21
432.3323591024681
 31
0.0
  0
LINE
  5
23A
330
A
100
AcDbEntity
  8
1
  6
DASH_CENTER
 62
     3
100
AcDbLine
 10
-807.6970354302149
 20
417.25
 30
0.0
 11
-799.902806796156
 21
412.75
 31
0.0
  0
LINE
  5
239
330
A
100
AcDbEntity
  8
1
  6
DASH_CENTER
 62
     3
100
AcDbLine
 10
-807.697035430216
 20
354.75
 30
0.0
 11
-799.902806796156
 21
359.25
 31
0.0
  0
LINE
  5
238
330
A
100
AcDbEntity
  8
1
  6
DASH_CENTER
 62
     3
100
AcDbLine
 10
-784.820447693688
 20
331.873412263473
 30
0.0
 11
-780.320447693688
 21
339.667640897532
 31
0.0
  0
LINE
  5
237
330
A
100
AcDbEntity
  8
1
  6
DASH_CENTER
 62
     3
100
AcDbLine
 10
-722.320447693688
 20
331.873412263472
 30
0.0
 11
-726.820447693688
 21
339.667640897532
 31
0.0
  0
LINE
  5
236
330
A
100
AcDbEntity
  8
1
  6
DASH_CENTER
 62
     3
100
AcDbLine
 10
-699.4438599571609
 20
354.75
 30
0.0
 11
-707.238088591221
 21
359.25
 31
0.0
  0
LINE
  5
235
330
A
100
AcDbEntity
  8
1
  6
DASH_CENTER
 62
     3
100
AcDbLine
 10
-699.44385995716
 20
417.249999999999
 30
0.0
 11
-707.23808859122
 21
412.749999999999
 31
0.0
  0
LINE
  5
234
330
A
100
AcDbEntity
  8
1
  6
DASH_CENTER
 62
     3
100
AcDbLine
 10
-722.320447693687
 20
440.126587736527
 30
0.0
 11
-726.820447693687
 21
432.3323591024669
 31
0.0
  0
LINE
  5
233
330
A
100
AcDbEntity
  8
1
  6
DASH_CENTER
 62
     3
100
AcDbLine
 10
-667.418681287009
 20
350.314769931955
 30
0.0
 11
-652.174669000573
 21
344.000493297932
 31
0.0
  0
LINE
  5
232
330
A
100
AcDbEntity
  8
1
  6
DASH_CENTER
 62
     3
100
AcDbLine
 10
-667.418681287009
 20
421.6852300680449
 30
0.0
 11
-652.174669000573
 21
427.999506702068
 31
0.0
  0
LINE
  5
231
330
A
100
AcDbEntity
  8
1
  6
DASH_CENTER
 62
     3
100
AcDbLine
 10
-711.5709409916189
 20
487.395778693114
 30
0.0
 11
-717.885217625642
 21
472.1517664066779
 31
0.0
  0
LINE
  5
230
330
A
100
AcDbEntity
  8
1
  6
DASH_CENTER
 62
     3
100
AcDbLine
 10
-795.569954395755
 20
487.395778693114
 30
0.0
 11
-789.2556777617309
 21
472.1517664066779
 31
0.0
  0
LINE
  5
22F
330
A
100
AcDbEntity
  8
1
  6
DASH_CENTER
 62
     3
100
AcDbLine
 10
-854.9662263868009
 20
427.999506702068
 30
0.0
 11
-839.7222141003641
 21
421.6852300680449
 31
0.0
  0
LINE
  5
22E
330
A
100
AcDbEntity
  8
1
  6
DASH_CENTER
 62
     3
100
AcDbLine
 10
-854.9662263867999
 20
344.000493297932
 30
0.0
 11
-839.7222141003641
 21
350.314769931955
 31
0.0
  0
LINE
  5
22D
330
A
100
AcDbEntity
  8
1
  6
DASH_CENTER
 62
     3
100
AcDbLine
 10
-795.569954395755
 20
284.604221306886
 30
0.0
 11
-789.2556777617309
 21
299.848233593322
 31
0.0
  0
LINE
  5
22C
330
A
100
AcDbEntity
  8
1
  6
DASH_CENTER
 62
     3
100
AcDbLine
 10
-711.5709409916189
 20
284.604221306886
 30
0.0
 11
-717.885217625642
 21
299.848233593322
 31
0.0
  0
LINE
  5
22B
330
A
100
AcDbEntity
  8
1
  6
DASH_CENTER
 62
     3
100
AcDbLine
 10
-753.570447693687
 20
507.999999999998
 30
0.0
 11
-753.570447693687
 21
263.999999999998
 31
0.0
  0
LINE
  5
22A
330
A
100
AcDbEntity
  8
1
  6
DASH_CENTER
 62
     3
100
AcDbLine
 10
-790.420446530771
 20
449.826072930324
 30
0.0
 11
-795.720446363513
 21
459.005942307005
 31
0.0
  0
LINE
  5
229
330
A
100
AcDbEntity
  8
1
  6
DASH_CENTER
 62
     3
100
AcDbLine
 10
-817.396519318814
 20
422.850001097751
 30
0.0
 11
-826.576388507774
 21
428.150001255637
 31
0.0
  0
LINE
  5
228
330
A
100
AcDbEntity
  8
1
  6
DASH_CENTER
 62
     3
100
AcDbLine
 10
-817.3965204921389
 20
349.150000934507
 30
0.0
 11
-826.5763898498539
 21
343.850001068914
 31
0.0
  0
LINE
  5
227
330
A
100
AcDbEntity
  8
1
  6
DASH_CENTER
 62
     3
100
AcDbLine
 10
-790.420448546573
 20
322.1739282335
 30
0.0
 11
-795.72044866924
 21
312.994059024207
 31
0.0
  0
LINE
  5
226
330
A
100
AcDbEntity
  8
1
  6
DASH_CENTER
 62
     3
100
AcDbLine
 10
-716.720448383328
 20
322.173927342923
 30
0.0
 11
-711.4204484825169
 21
312.994058005541
 31
0.0
  0
LINE
  5
225
330
A
100
AcDbEntity
  8
1
  6
DASH_CENTER
 62
     3
100
AcDbLine
 10
-689.7443757858141
 20
349.149999391981
 30
0.0
 11
-680.564506556188
 21
343.849999304533
 31
0.0
  0
LINE
  5
224
330
A
100
AcDbEntity
  8
1
  6
DASH_CENTER
 62
     3
100
AcDbLine
 10
-689.744375177984
 20
422.8499995552259
 30
0.0
 11
-680.5645058609359
 21
428.149999491256
 31
0.0
  0
LINE
  5
223
330
A
100
AcDbEntity
  8
1
  6
DASH_CENTER
 62
     3
100
AcDbLine
 10
-689.744375177984
 20
422.8499995552259
 30
0.0
 11
-680.5645058609359
 21
428.149999491256
 31
0.0
  0
LINE
  5
222
330
A
100
AcDbEntity
  8
1
  6
DASH_CENTER
 62
     3
100
AcDbLine
 10
-716.720447330536
 20
449.826072049247
 30
0.0
 11
-711.420447278305
 21
459.0059412992069
 31
0.0
  0
LINE
  5
221
330
A
100
AcDbEntity
  8
1
  6
DASH_CENTER
 62
     3
100
AcDbLine
 10
-716.720447330536
 20
449.826072049247
 30
0.0
 11
-711.420447278305
 21
459.0059412992069
 31
0.0
  0
LINE
  5
220
330
A
100
AcDbEntity
  8
1
  6
DASH_CENTER
 62
     3
100
AcDbLine
 10
-182.720709512411
 20
284.604227534729
 30
0.0
 11
-189.034986146434
 21
299.848239821165
 31
0.0
  0
LINE
  5
21F
330
A
100
AcDbEntity
  8
1
  6
DASH_CENTER
 62
     3
100
AcDbLine
 10
-266.719722916547
 20
284.604227534729
 30
0.0
 11
-260.405446282523
 21
299.848239821165
 31
0.0
  0
LINE
  5
21E
330
A
100
AcDbEntity
  8
1
  6
DASH_CENTER
 62
     3
100
AcDbLine
 10
-326.115994907592
 20
344.000499525774
 30
0.0
 11
-310.871982621156
 21
350.314776159797
 31
0.0
  0
LINE
  5
21D
330
A
100
AcDbEntity
  8
1
  6
DASH_CENTER
 62
     3
100
AcDbLine
 10
-326.115994907593
 20
427.9995129299109
 30
0.0
 11
-310.871982621156
 21
421.6852362958869
 31
0.0
  0
LINE
  5
21C
330
A
100
AcDbEntity
  8
1
  6
DASH_CENTER
 62
     3
100
AcDbLine
 10
-266.719722916547
 20
487.395784920957
 30
0.0
 11
-260.405446282523
 21
472.151772634521
 31
0.0
  0
LINE
  5
21B
330
A
100
AcDbEntity
  8
1
  6
DASH_CENTER
 62
     3
100
AcDbLine
 10
-182.720709512411
 20
487.3957849209559
 30
0.0
 11
-189.034986146434
 21
472.151772634521
 31
0.0
  0
LINE
  5
21A
330
A
100
AcDbEntity
  8
1
  6
DASH_CENTER
 62
     3
100
AcDbLine
 10
-138.568449807801
 20
421.6852362958869
 30
0.0
 11
-123.324437521365
 21
427.9995129299109
 31
0.0
  0
LINE
  5
219
330
A
100
AcDbEntity
  8
1
  6
DASH_CENTER
 62
     3
100
AcDbLine
 10
-138.568449807801
 20
350.314776159797
 30
0.0
 11
-123.324437521365
 21
344.000499525774
 31
0.0
  0
LINE
  5
218
330
A
100
AcDbEntity
  8
1
  6
DASH_CENTER
 62
     3
100
AcDbLine
 10
-182.720709512411
 20
284.604227534729
 30
0.0
 11
-189.034986146434
 21
299.848239821165
 31
0.0
  0
LINE
  5
217
330
A
100
AcDbEntity
  8
1
  6
DASH_CENTER
 62
     3
100
AcDbLine
 10
-565.7293595881339
 20
465.0
 30
0.0
 11
-572.929359588134
 21
465.0
 31
0.0
  0
LINE
  5
216
330
A
100
AcDbEntity
  8
1
  6
Continuous
 62
     3
100
AcDbLine
 10
-574.5
 20
431.0000000000029
 30
0.0
 11
-574.5
 21
386.0
 31
0.0
  0
LINE
  5
215
330
A
100
AcDbEntity
  8
1
  6
Continuous
 62
     3
100
AcDbLine
 10
-578.0
 20
451.4999999999999
 30
0.0
 11
-577.5
 21
452.0
 31
0.0
  0
LINE
  5
214
330
A
100
AcDbEntity
  8
1
  6
Continuous
 62
     3
100
AcDbLine
 10
-577.5
 20
452.0
 30
0.0
 11
-572.5
 21
452.0
 31
0.0
  0
LINE
  5
213
330
A
100
AcDbEntity
  8
1
  6
Continuous
 62
     3
100
AcDbLine
 10
-574.5
 20
431.0000000000029
 30
0.0
 11
-577.500000743224
 21
431.0
 31
0.0
  0
LINE
  5
212
330
A
100
AcDbEntity
  8
1
  6
Continuous
 62
     3
100
AcDbLine
 10
-578.0
 20
431.5
 30
0.0
 11
-577.5
 21
431.0
 31
0.0
  0
LINE
  5
211
330
A
100
AcDbEntity
  8
1
  6
Continuous
 62
     3
100
AcDbLine
 10
-488.3999999999999
 20
298.5
 30
0.0
 11
-505.6
 21
298.5
 31
0.0
  0
LINE
  5
210
330
A
100
AcDbEntity
  8
1
  6
Continuous
 62
     3
100
AcDbLine
 10
-408.0
 20
449.0000000000009
 30
0.0
 11
-408.0
 21
435.0000000000009
 31
0.0
  0
LINE
  5
20F
330
A
100
AcDbEntity
  8
1
  6
Continuous
 62
     3
100
AcDbLine
 10
-407.5
 20
435.0000000000009
 30
0.0
 11
-408.0
 21
435.0000000000009
 31
0.0
  0
LINE
  5
20E
330
A
100
AcDbEntity
  8
1
  6
Continuous
 62
     3
100
AcDbLine
 10
-407.5
 20
449.0000000000009
 30
0.0
 11
-407.5
 21
435.0000000000009
 31
0.0
  0
LINE
  5
20D
330
A
100
AcDbEntity
  8
1
  6
Continuous
 62
     3
100
AcDbLine
 10
-408.0
 20
449.0000000000009
 30
0.0
 11
-407.5
 21
449.0000000000009
 31
0.0
  0
LINE
  5
20C
330
A
100
AcDbEntity
  8
1
  6
Continuous
 62
     3
100
AcDbLine
 10
-481.2500000000009
 20
457.5
 30
0.0
 11
-408.6249999999999
 21
457.5
 31
0.0
  0
LINE
  5
20B
330
A
100
AcDbEntity
  8
1
  6
Continuous
 62
     3
100
AcDbLine
 10
-458.8
 20
457.5
 30
0.0
 11
-458.8
 21
314.5
 31
0.0
  0
LINE
  5
20A
330
A
100
AcDbEntity
  8
1
  6
DASH_CENTER
 62
     3
100
AcDbLine
 10
-286.857538936014
 20
421.875
 30
0.0
 11
-275.166195984924
 21
415.125
 31
0.0
  0
LINE
  5
209
330
A
100
AcDbEntity
  8
1
  6
Continuous
 62
     3
100
AcDbLine
 10
-283.761867460468
 20
413.736860279186
 30
0.0
 11
-287.78812400313
 21
416.061420577918
 31
0.0
  0
LINE
  5
208
330
A
100
AcDbEntity
  8
1
  6
Continuous
 62
     3
100
AcDbLine
 10
-278.261867460468
 20
423.263139720815
 30
0.0
 11
-282.28812400313
 21
425.5877000195459
 31
0.0
  0
LINE
  5
207
330
A
100
AcDbEntity
  8
1
  6
DASH_CENTER
 62
     3
100
AcDbLine
 10
-188.84521621448
 20
448.1373227215339
 30
0.0
 11
-195.59521621448
 21
436.445979770444
 31
0.0
  0
LINE
  5
206
330
A
100
AcDbEntity
  8
1
  6
Continuous
 62
     3
100
AcDbLine
 10
-196.983355935294
 20
445.041651245989
 30
0.0
 11
-194.658795636562
 21
449.06790778865
 31
0.0
  0
LINE
  5
205
330
A
100
AcDbEntity
  8
1
  6
Continuous
 62
     3
100
AcDbLine
 10
-187.457076493665
 20
439.5416512459889
 30
0.0
 11
-185.132516194934
 21
443.5679077886499
 31
0.0
  0
LINE
  5
204
330
A
100
AcDbEntity
  8
1
  6
DASH_CENTER
 62
     3
100
AcDbLine
 10
-162.582893492946
 20
350.125
 30
0.0
 11
-174.274236444036
 21
356.875
 31
0.0
  0
LINE
  5
203
330
A
100
AcDbEntity
  8
1
  6
Continuous
 62
     3
100
AcDbLine
 10
-165.678564968491
 20
358.263139720814
 30
0.0
 11
-161.65230842583
 21
355.938579422083
 31
0.0
  0
LINE
  5
202
330
A
100
AcDbEntity
  8
1
  6
Continuous
 62
     3
100
AcDbLine
 10
-171.178564968491
 20
348.736860279185
 30
0.0
 11
-167.15230842583
 21
346.412299980454
 31
0.0
  0
LINE
  5
201
330
A
100
AcDbEntity
  8
1
  6
Continuous
 62
     3
100
AcDbLine
 10
-261.983355935295
 20
332.458348754012
 30
0.0
 11
-264.307916234026
 21
328.43209221135
 31
0.0
  0
LINE
  5
200
330
A
100
AcDbEntity
  8
1
  6
Continuous
 62
     3
100
AcDbLine
 10
-252.457076493666
 20
326.958348754012
 30
0.0
 11
-254.781636792398
 21
322.93209221135
 31
0.0
  0
LINE
  5
1FF
330
A
100
AcDbEntity
  8
1
  6
DASH_CENTER
 62
     3
100
AcDbLine
 10
-296.39191252513
 20
366.795626853395
 30
0.0
 11
-305.664800457505
 21
364.310964020412
 31
0.0
  0
LINE
  5
1FE
330
A
100
AcDbEntity
  8
1
  6
Continuous
 62
     3
100
AcDbLine
 10
-240.075983037832
 20
433.6492437020279
 30
0.0
 11
-241.688956476709
 21
434.081438633068
 31
0.0
  0
LINE
  5
1FD
330
A
100
AcDbEntity
  8
1
  6
Continuous
 62
     3
100
AcDbLine
 10
-238.35218244261
 20
446.534448842348
 30
0.0
 11
-243.181811574558
 21
445.2403536187079
 31
0.0
  0
LINE
  5
1FC
330
A
100
AcDbEntity
  8
1
  6
Continuous
 62
     3
100
AcDbLine
 10
-238.35218244261
 20
446.534448842348
 30
0.0
 11
-236.739209003732
 21
446.102253911308
 31
0.0
  0
LINE
  5
1FB
330
A
100
AcDbEntity
  8
1
  6
Continuous
 62
     3
100
AcDbLine
 10
-233.203675099173
 20
442.566720004008
 30
0.0
 11
-232.771480169395
 21
440.9537465647879
 31
0.0
  0
LINE
  5
1FA
330
A
100
AcDbEntity
  8
1
  6
Continuous
 62
     3
100
AcDbLine
 10
-234.065575396784
 20
436.124117433848
 30
0.0
 11
-232.771480169395
 21
440.9537465647879
 31
0.0
  0
LINE
  5
1F9
330
A
100
AcDbEntity
  8
1
  6
Continuous
 62
     3
100
AcDbLine
 10
-233.203675099173
 20
442.566720004008
 30
0.0
 11
-236.739209003732
 21
446.102253911308
 31
0.0
  0
LINE
  5
1F8
330
A
100
AcDbEntity
  8
1
  6
Continuous
 62
     3
100
AcDbLine
 10
-240.075983037832
 20
433.6492437020279
 30
0.0
 11
-235.246353905884
 21
434.943338925668
 31
0.0
  0
LINE
  5
1F7
330
A
100
AcDbEntity
  8
1
  6
Continuous
 62
     3
100
AcDbLine
 10
-234.065575396784
 20
436.124117433848
 30
0.0
 11
-235.246353905884
 21
434.943338925668
 31
0.0
  0
LINE
  5
1F6
330
A
100
AcDbEntity
  8
1
  6
Continuous
 62
     3
100
AcDbLine
 10
-244.362590083657
 20
444.059575110528
 30
0.0
 11
-243.181811574558
 21
445.2403536187079
 31
0.0
  0
LINE
  5
1F5
330
A
100
AcDbEntity
  8
1
  6
Continuous
 62
     3
100
AcDbLine
 10
-245.224490381268
 20
437.6169725403679
 30
0.0
 11
-245.656685311046
 21
439.2299459795879
 31
0.0
  0
LINE
  5
1F4
330
A
100
AcDbEntity
  8
1
  6
Continuous
 62
     3
100
AcDbLine
 10
-244.362590083657
 20
444.059575110528
 30
0.0
 11
-245.656685311046
 21
439.2299459795879
 31
0.0
  0
LINE
  5
1F3
330
A
100
AcDbEntity
  8
1
  6
Continuous
 62
     3
100
AcDbLine
 10
-245.224490381268
 20
437.6169725403679
 30
0.0
 11
-241.688956476709
 21
434.081438633068
 31
0.0
  0
LINE
  5
1F2
330
A
100
AcDbEntity
  8
1
  6
DASH_CENTER
 62
     3
100
AcDbLine
 10
-237.01412085685
 20
431.8814767487309
 30
0.0
 11
-241.414044623592
 21
448.3022157956439
 31
0.0
  0
LINE
  5
1F1
330
A
100
AcDbEntity
  8
1
  6
DASH_CENTER
 62
     3
100
AcDbLine
 10
-208.026387805368
 20
448.3022157956439
 30
0.0
 11
-212.42631157211
 21
431.8814767487309
 31
0.0
  0
LINE
  5
1F0
330
A
100
AcDbEntity
  8
1
  6
Continuous
 62
     3
100
AcDbLine
 10
-207.751475952251
 20
434.081438633068
 30
0.0
 11
-204.215942047692
 21
437.6169725403679
 31
0.0
  0
LINE
  5
1EF
330
A
100
AcDbEntity
  8
1
  6
Continuous
 62
     3
100
AcDbLine
 10
-203.783747117914
 20
439.2299459795879
 30
0.0
 11
-205.077842345303
 21
444.059575110528
 31
0.0
  0
LINE
  5
1EE
330
A
100
AcDbEntity
  8
1
  6
Continuous
 62
     3
100
AcDbLine
 10
-203.783747117914
 20
439.2299459795879
 30
0.0
 11
-204.215942047692
 21
437.6169725403679
 31
0.0
  0
LINE
  5
1ED
330
A
100
AcDbEntity
  8
1
  6
Continuous
 62
     3
100
AcDbLine
 10
-206.258620854402
 20
445.2403536187079
 30
0.0
 11
-205.077842345303
 21
444.059575110528
 31
0.0
  0
LINE
  5
1EC
330
A
100
AcDbEntity
  8
1
  6
Continuous
 62
     3
100
AcDbLine
 10
-214.194078523076
 20
434.943338925668
 30
0.0
 11
-215.374857032176
 21
436.124117433848
 31
0.0
  0
LINE
  5
1EB
330
A
100
AcDbEntity
  8
1
  6
Continuous
 62
     3
100
AcDbLine
 10
-214.194078523076
 20
434.943338925668
 30
0.0
 11
-209.364449391128
 21
433.6492437020279
 31
0.0
  0
LINE
  5
1EA
330
A
100
AcDbEntity
  8
1
  6
Continuous
 62
     3
100
AcDbLine
 10
-212.701223425228
 20
446.102253911308
 30
0.0
 11
-216.236757329787
 21
442.566720004008
 31
0.0
  0
LINE
  5
1E9
330
A
100
AcDbEntity
  8
1
  6
Continuous
 62
     3
100
AcDbLine
 10
-216.668952259565
 20
440.9537465647879
 30
0.0
 11
-215.374857032176
 21
436.124117433848
 31
0.0
  0
LINE
  5
1E8
330
A
100
AcDbEntity
  8
1
  6
Continuous
 62
     3
100
AcDbLine
 10
-216.668952259565
 20
440.9537465647879
 30
0.0
 11
-216.236757329787
 21
442.566720004008
 31
0.0
  0
LINE
  5
1E7
330
A
100
AcDbEntity
  8
1
  6
Continuous
 62
     3
100
AcDbLine
 10
-212.701223425228
 20
446.102253911308
 30
0.0
 11
-211.08824998635
 21
446.534448842348
 31
0.0
  0
LINE
  5
1E6
330
A
100
AcDbEntity
  8
1
  6
Continuous
 62
     3
100
AcDbLine
 10
-206.258620854402
 20
445.2403536187079
 30
0.0
 11
-211.08824998635
 21
446.534448842348
 31
0.0
  0
LINE
  5
1E5
330
A
100
AcDbEntity
  8
1
  6
Continuous
 62
     3
100
AcDbLine
 10
-207.751475952251
 20
434.081438633068
 30
0.0
 11
-209.364449391128
 21
433.6492437020279
 31
0.0
  0
LINE
  5
1E4
330
A
100
AcDbEntity
  8
1
  6
DASH_CENTER
 62
     3
100
AcDbLine
 10
-202.850006903318
 20
304.379267678574
 30
0.0
 11
-205.697016399445
 21
315.004451767753
 31
0.0
  0
LINE
  5
1E3
330
A
100
AcDbEntity
  8
1
  6
DASH_CENTER
 62
     3
100
AcDbLine
 10
-284.470739224743
 20
326.249476989737
 30
0.0
 11
-276.692564631691
 21
334.027651582789
 31
0.0
  0
LINE
  5
1E2
330
A
100
AcDbEntity
  8
1
  6
DASH_CENTER
 62
     3
100
AcDbLine
 10
-306.340948535906
 20
407.870209311163
 30
0.0
 11
-295.715764446726
 21
405.023199815036
 31
0.0
  0
LINE
  5
1E1
330
A
100
AcDbEntity
  8
1
  6
DASH_CENTER
 62
     3
100
AcDbLine
 10
-246.590425525642
 20
467.620732321426
 30
0.0
 11
-243.743416029515
 21
456.995548232247
 31
0.0
  0
LINE
  5
1E0
330
A
100
AcDbEntity
  8
1
  6
DASH_CENTER
 62
     3
100
AcDbLine
 10
-164.969693204216
 20
445.750523010263
 30
0.0
 11
-172.747867797268
 21
437.9723484172109
 31
0.0
  0
LINE
  5
1DF
330
A
100
AcDbEntity
  8
1
  6
DASH_CENTER
 62
     3
100
AcDbLine
 10
-143.099483893054
 20
364.129790688837
 30
0.0
 11
-153.724667982234
 21
366.976800184964
 31
0.0
  0
LINE
  5
1DE
330
A
100
AcDbEntity
  8
1
  6
DASH_CENTER
 62
     3
100
AcDbLine
 10
-160.461131253674
 20
423.0999999999999
 30
0.0
 11
-152.147287377344
 21
427.8999999999999
 31
0.0
  0
LINE
  5
1DD
330
A
100
AcDbEntity
  8
1
  6
DASH_CENTER
 62
     3
100
AcDbLine
 10
-160.461131253674
 20
348.9
 30
0.0
 11
-152.147287377344
 21
344.1
 31
0.0
  0
LINE
  5
1DC
330
A
100
AcDbEntity
  8
1
  6
DASH_CENTER
 62
     3
100
AcDbLine
 10
-187.62021621448
 20
321.740915039194
 30
0.0
 11
-182.82021621448
 21
313.427071162864
 31
0.0
  0
LINE
  5
1DB
330
A
100
AcDbEntity
  8
1
  6
DASH_CENTER
 62
     3
100
AcDbLine
 10
-261.8202162144799
 20
321.740915039194
 30
0.0
 11
-266.6202162144799
 21
313.427071162864
 31
0.0
  0
LINE
  5
1DA
330
A
100
AcDbEntity
  8
1
  6
DASH_CENTER
 62
     3
100
AcDbLine
 10
-288.979301175286
 20
348.9
 30
0.0
 11
-297.293145051616
 21
344.1
 31
0.0
  0
LINE
  5
1D9
330
A
100
AcDbEntity
  8
1
  6
DASH_CENTER
 62
     3
100
AcDbLine
 10
-288.979301175286
 20
423.0999999999999
 30
0.0
 11
-297.293145051616
 21
427.8999999999999
 31
0.0
  0
LINE
  5
1D8
330
A
100
AcDbEntity
  8
1
  6
DASH_CENTER
 62
     3
100
AcDbLine
 10
-261.8202162144799
 20
450.2590849608049
 30
0.0
 11
-266.6202162144799
 21
458.572928837136
 31
0.0
  0
LINE
  5
1D7
330
A
100
AcDbEntity
  8
1
  6
DASH_CENTER
 62
     3
100
AcDbLine
 10
-187.62021621448
 20
450.2590849608059
 30
0.0
 11
-182.82021621448
 21
458.572928837136
 31
0.0
  0
LINE
  5
1D6
330
A
100
AcDbEntity
  8
1
  6
DASH_CENTER
 62
     3
100
AcDbLine
 10
-224.72021621448
 20
504.4999999999999
 30
0.0
 11
-224.72021621448
 21
268.5
 31
0.0
  0
LINE
  5
1D5
330
A
100
AcDbEntity
  8
1
  6
DASH_CENTER
 62
     3
100
AcDbLine
 10
-260.59521621448
 20
323.862677278467
 30
0.0
 11
-253.84521621448
 21
335.554020229556
 31
0.0
  0
LINE
  5
1D4
330
A
100
AcDbEntity
  8
1
  6
Continuous
 62
     3
100
AcDbLine
 10
-408.0
 20
321.512653118229
 30
0.0
 11
-411.2
 21
321.512653118229
 31
0.0
  0
LINE
  5
1D3
330
A
100
AcDbEntity
  8
1
  6
Continuous
 62
     3
100
AcDbLine
 10
-410.2
 20
324.708348754011
 30
0.0
 11
-411.2
 21
324.708348754011
 31
0.0
  0
LINE
  5
1D2
330
A
100
AcDbEntity
  8
1
  6
Continuous
 62
     3
100
AcDbLine
 10
-411.2
 20
327.012653118236
 30
0.0
 11
-411.2
 21
321.512653118229
 31
0.0
  0
LINE
  5
1D1
330
A
100
AcDbEntity
  8
1
  6
Continuous
 62
     3
100
AcDbLine
 10
-410.2
 20
327.012653118236
 30
0.0
 11
-410.2
 21
324.708348754011
 31
0.0
  0
LINE
  5
1D0
330
A
100
AcDbEntity
  8
1
  6
Continuous
 62
     3
100
AcDbLine
 10
-408.0
 20
327.012653118236
 30
0.0
 11
-411.2
 21
327.012653118236
 31
0.0
  0
LINE
  5
1CF
330
A
100
AcDbEntity
  8
1
  6
DASH_CENTER
 62
     3
100
AcDbLine
 10
-412.639316279389
 20
418.5000000000009
 30
0.0
 11
-407.062095074726
 21
418.5
 31
0.0
  0
LINE
  5
1CE
330
A
100
AcDbEntity
  8
1
  6
Continuous
 62
     3
100
AcDbLine
 10
-411.2
 20
416.880934120433
 30
0.0
 11
-408.0
 21
416.880934120433
 31
0.0
  0
LINE
  5
1CD
330
A
100
AcDbEntity
  8
1
  6
Continuous
 62
     3
100
AcDbLine
 10
-410.2
 20
416.880934120433
 30
0.0
 11
-410.2
 21
419.7193331452279
 31
0.0
  0
LINE
  5
1CC
330
A
100
AcDbEntity
  8
1
  6
Continuous
 62
     3
100
AcDbLine
 10
-410.2
 20
423.5193331785529
 30
0.0
 11
-410.2
 21
417.0105615391049
 31
0.0
  0
LINE
  5
1CB
330
A
100
AcDbEntity
  8
1
  6
Continuous
 62
     3
100
AcDbLine
 10
-411.2
 20
423.5193331785529
 30
0.0
 11
-410.2
 21
423.5193331785529
 31
0.0
  0
LINE
  5
1CA
330
A
100
AcDbEntity
  8
1
  6
Continuous
 62
     3
100
AcDbLine
 10
-411.2
 20
426.407213562058
 30
0.0
 11
-411.2
 21
416.880934120433
 31
0.0
  0
LINE
  5
1C9
330
A
100
AcDbEntity
  8
1
  6
Continuous
 62
     3
100
AcDbLine
 10
-411.2
 20
426.407213562058
 30
0.0
 11
-408.0
 21
426.407213562058
 31
0.0
  0
LINE
  5
1C8
330
A
100
AcDbEntity
  8
1
  6
Continuous
 62
     3
100
AcDbLine
 10
-487.6
 20
458.4999999999999
 30
0.0
 11
-482.000000000001
 21
458.4999999999999
 31
0.0
  0
LINE
  5
1C7
330
A
100
AcDbEntity
  8
1
  6
Continuous
 62
     3
100
AcDbLine
 10
-481.2500000000009
 20
314.5
 30
0.0
 11
-408.6249999999999
 21
314.5
 31
0.0
  0
LINE
  5
1C6
330
A
100
AcDbEntity
  8
1
  6
Continuous
 62
     3
100
AcDbLine
 10
-364.0
 20
452.0
 30
0.0
 11
-364.0
 21
583.0
 31
0.0
  0
LINE
  5
1C5
330
A
100
AcDbEntity
  8
1
  6
DASH_CENTER
 62
     3
100
AcDbLine
 10
-368.0
 20
452.0
 30
0.0
 11
-368.0
 21
525.0
 31
0.0
  0
LINE
  5
1C4
330
A
100
AcDbEntity
  8
1
  6
Continuous
 62
     3
100
AcDbLine
 10
-372.0
 20
452.0
 30
0.0
 11
-372.0
 21
525.0
 31
0.0
  0
LINE
  5
1C3
330
A
100
AcDbEntity
  8
1
  6
Continuous
 62
     3
100
AcDbLine
 10
-480.999999993646
 20
532.6247564392999
 30
0.0
 11
-469.8748847437149
 21
535.0122465567519
 31
0.0
  0
LINE
  5
1C2
330
A
100
AcDbEntity
  8
1
  6
Continuous
 62
     3
100
AcDbLine
 10
-468.999999993646
 20
534.7999999999999
 30
0.0
 11
-456.999999993646
 21
534.7999999999999
 31
0.0
  0
LINE
  5
1C1
330
A
100
AcDbEntity
  8
1
  6
Continuous
 62
     3
100
AcDbLine
 10
-480.999999993646
 20
537.375
 30
0.0
 11
-468.999999993646
 21
534.7999999999999
 31
0.0
  0
LINE
  5
1C0
330
A
100
AcDbEntity
  8
1
  6
Continuous
 62
     3
100
AcDbLine
 10
-480.999999993646
 20
532.6247564392999
 30
0.0
 11
-468.999999993646
 21
533.6
 31
0.0
  0
LINE
  5
1BF
330
A
100
AcDbEntity
  8
1
  6
Continuous
 62
     3
100
AcDbLine
 10
-468.999999993646
 20
533.6
 30
0.0
 11
-456.999999993646
 21
533.6
 31
0.0
  0
LINE
  5
1BE
330
A
100
AcDbEntity
  8
1
  6
Continuous
 62
     3
100
AcDbLine
 10
-480.999999993646
 20
531.0247564392999
 30
0.0
 11
-468.999999993646
 21
532.0
 31
0.0
  0
LINE
  5
1BD
330
A
100
AcDbEntity
  8
1
  6
Continuous
 62
     3
100
AcDbLine
 10
-468.999999993646
 20
532.0
 30
0.0
 11
-456.999999993646
 21
532.0
 31
0.0
  0
LINE
  5
1BC
330
A
100
AcDbEntity
  8
1
  6
Continuous
 62
     3
100
AcDbLine
 10
-480.999999993646
 20
537.375
 30
0.0
 11
-468.999999993646
 21
536.3999999999999
 31
0.0
  0
LINE
  5
1BB
330
A
100
AcDbEntity
  8
1
  6
Continuous
 62
     3
100
AcDbLine
 10
-468.999999993646
 20
536.3999999999999
 30
0.0
 11
-456.999999993646
 21
536.3999999999999
 31
0.0
  0
LINE
  5
1BA
330
A
100
AcDbEntity
  8
1
  6
Continuous
 62
     3
100
AcDbLine
 10
-480.999999993646
 20
538.975
 30
0.0
 11
-468.999999993646
 21
538.0
 31
0.0
  0
LINE
  5
1B9
330
A
100
AcDbEntity
  8
1
  6
Continuous
 62
     3
100
AcDbLine
 10
-468.999999993646
 20
538.0
 30
0.0
 11
-456.999999993646
 21
538.0
 31
0.0
  0
LINE
  5
1B8
330
A
100
AcDbEntity
  8
0
  6
Continuous
 62
     3
100
AcDbLine
 10
-491.911099993646
 20
529.6658782196499
 30
0.0
 11
-491.911099993646
 21
528.6498782196499
 31
0.0
  0
LINE
  5
1B7
330
A
100
AcDbEntity
  8
0
  6
Continuous
 62
     3
100
AcDbLine
 10
-491.911099993646
 20
541.34987821965
 30
0.0
 11
-491.911099993646
 21
540.3338782196499
 31
0.0
  0
LINE
  5
1B6
330
A
100
AcDbEntity
  8
0
  6
Continuous
 62
     3
100
AcDbLine
 10
-491.9999999936459
 20
528.01487821965
 30
0.0
 11
-491.9999999936459
 21
543.5088428774499
 31
0.0
  0
LINE
  5
1B5
330
A
100
AcDbEntity
  8
0
  6
Continuous
 62
     3
100
AcDbLine
 10
-497.5879999936459
 20
546.7643711773499
 30
0.0
 11
-498.222999993646
 21
546.7643711773499
 31
0.0
  0
LINE
  5
1B4
330
A
100
AcDbEntity
  8
0
  6
Continuous
 62
     3
100
AcDbLine
 10
-494.5399999936459
 20
528.01487821965
 30
0.0
 11
-494.5399999936459
 21
541.98487821965
 31
0.0
  0
LINE
  5
1B3
330
A
100
AcDbEntity
  8
0
  6
Continuous
 62
     3
100
AcDbLine
 10
-498.984999993646
 20
546.00237117735
 30
0.0
 11
-515.367999993646
 21
545.5408782196498
 31
0.0
  0
LINE
  5
1B2
330
A
100
AcDbEntity
  8
0
  6
Continuous
 62
     3
100
AcDbLine
 10
-497.5879999936459
 20
544.5248782196499
 30
0.0
 11
-504.953999993646
 21
544.5248782196499
 31
0.0
  0
LINE
  5
1B1
330
A
100
AcDbEntity
  8
0
  6
Continuous
 62
     3
100
AcDbLine
 10
-491.9999999936459
 20
543.5088782196499
 30
0.0
 11
-497.5879999936459
 21
543.5088782196499
 31
0.0
  0
LINE
  5
1B0
330
A
100
AcDbEntity
  8
0
  6
Continuous
 62
     3
100
AcDbLine
 10
-514.268147730846
 20
543.25487821965
 30
0.0
 11
-506.223999993646
 21
543.25487821965
 31
0.0
  0
LINE
  5
1AF
330
A
100
AcDbEntity
  8
0
  6
Continuous
 62
     3
100
AcDbLine
 10
-504.953999993646
 20
543.13235829455
 30
0.0
 11
-491.9999999936459
 21
543.13235829455
 31
0.0
  0
LINE
  5
1AE
330
A
100
AcDbEntity
  8
0
  6
Continuous
 62
     3
100
AcDbLine
 10
-507.749999993646
 20
543.13235829455
 30
0.0
 11
-506.223999993646
 21
543.13235829455
 31
0.0
  0
LINE
  5
1AD
330
A
100
AcDbEntity
  8
0
  6
Continuous
 62
     3
100
AcDbLine
 10
-504.953999993646
 20
543.25487821965
 30
0.0
 11
-497.5879999936459
 21
543.4623711773499
 31
0.0
  0
LINE
  5
1AC
330
A
100
AcDbEntity
  8
0
  6
Continuous
 62
     3
100
AcDbLine
 10
-497.5879999936459
 20
543.4623711773499
 30
0.0
 11
-497.5879999936459
 21
546.7643711773499
 31
0.0
  0
LINE
  5
1AB
330
A
100
AcDbEntity
  8
0
  6
Continuous
 62
     3
100
AcDbLine
 10
-497.5879999936459
 20
523.23538526195
 30
0.0
 11
-497.5879999936459
 21
526.53738526195
 31
0.0
  0
LINE
  5
1AA
330
A
100
AcDbEntity
  8
0
  6
Continuous
 62
     3
100
AcDbLine
 10
-507.749999993646
 20
541.98487821965
 30
0.0
 11
-491.9999999936459
 21
541.98487821965
 31
0.0
  0
LINE
  5
1A9
330
A
100
AcDbEntity
  8
0
  6
Continuous
 62
     3
100
AcDbLine
 10
-494.5399999936459
 20
541.6038782196499
 30
0.0
 11
-491.9999999936459
 21
541.6038782196499
 31
0.0
  0
LINE
  5
1A8
330
A
100
AcDbEntity
  8
0
  6
Continuous
 62
     3
100
AcDbLine
 10
-491.9999999936459
 20
541.34987821965
 30
0.0
 11
-491.911099993646
 21
541.34987821965
 31
0.0
  0
LINE
  5
1A7
330
A
100
AcDbEntity
  8
0
  6
Continuous
 62
     3
100
AcDbLine
 10
-491.9999999936459
 20
541.32826120095
 30
0.0
 11
-491.911099993646
 21
541.32826120095
 31
0.0
  0
LINE
  5
1A6
330
A
100
AcDbEntity
  8
0
  6
Continuous
 62
     3
100
AcDbLine
 10
-491.9999999936459
 20
541.28502716355
 30
0.0
 11
-491.911099993646
 21
541.28502716355
 31
0.0
  0
LINE
  5
1A5
330
A
100
AcDbEntity
  8
0
  6
Continuous
 62
     3
100
AcDbLine
 10
-491.9999999936459
 20
541.19855908875
 30
0.0
 11
-491.911099993646
 21
541.19855908875
 31
0.0
  0
LINE
  5
1A4
330
A
100
AcDbEntity
  8
0
  6
Continuous
 62
     3
100
AcDbLine
 10
-491.9999999936459
 20
541.11209101395
 30
0.0
 11
-491.911099993646
 21
541.11209101395
 31
0.0
  0
LINE
  5
1A3
330
A
100
AcDbEntity
  8
0
  6
Continuous
 62
     3
100
AcDbLine
 10
-491.9999999936459
 20
541.06885691595
 30
0.0
 11
-491.911099993646
 21
541.06885691595
 31
0.0
  0
LINE
  5
1A2
330
A
100
AcDbEntity
  8
0
  6
Continuous
 62
     3
100
AcDbLine
 10
-491.9999999936459
 20
540.9823888411499
 30
0.0
 11
-491.911099993646
 21
540.9823888411499
 31
0.0
  0
LINE
  5
1A1
330
A
100
AcDbEntity
  8
0
  6
Continuous
 62
     3
100
AcDbLine
 10
-491.9999999936459
 20
540.9391548037499
 30
0.0
 11
-491.911099993646
 21
540.9391548037499
 31
0.0
  0
LINE
  5
1A0
330
A
100
AcDbEntity
  8
0
  6
Continuous
 62
     3
100
AcDbLine
 10
-491.9999999936459
 20
540.89592076635
 30
0.0
 11
-491.911099993646
 21
540.89592076635
 31
0.0
  0
LINE
  5
19F
330
A
100
AcDbEntity
  8
0
  6
Continuous
 62
     3
100
AcDbLine
 10
-491.9999999936459
 20
540.8094526916499
 30
0.0
 11
-491.911099993646
 21
540.8094526916499
 31
0.0
  0
LINE
  5
19E
330
A
100
AcDbEntity
  8
0
  6
Continuous
 62
     3
100
AcDbLine
 10
-491.9999999936459
 20
540.78783567295
 30
0.0
 11
-491.911099993646
 21
540.78783567295
 31
0.0
  0
LINE
  5
19D
330
A
100
AcDbEntity
  8
0
  6
Continuous
 62
     3
100
AcDbLine
 10
-491.9999999936459
 20
540.74460163555
 30
0.0
 11
-491.911099993646
 21
540.74460163555
 31
0.0
  0
LINE
  5
19C
330
A
100
AcDbEntity
  8
0
  6
Continuous
 62
     3
100
AcDbLine
 10
-491.9999999936459
 20
540.6581335304499
 30
0.0
 11
-491.911099993646
 21
540.6581335304499
 31
0.0
  0
LINE
  5
19B
330
A
100
AcDbEntity
  8
0
  6
Continuous
 62
     3
100
AcDbLine
 10
-508.1309999936459
 20
540.6069282196499
 30
0.0
 11
-519.4299999936459
 21
540.6069282196499
 31
0.0
  0
LINE
  5
19A
330
A
100
AcDbEntity
  8
0
  6
Continuous
 62
     3
100
AcDbLine
 10
-491.9999999936459
 20
540.57166545565
 30
0.0
 11
-491.911099993646
 21
540.57166545565
 31
0.0
  0
LINE
  5
199
330
A
100
AcDbEntity
  8
0
  6
Continuous
 62
     3
100
AcDbLine
 10
-491.9999999936459
 20
540.5068143843509
 30
0.0
 11
-491.911099993646
 21
540.5068143843509
 31
0.0
  0
LINE
  5
198
330
A
100
AcDbEntity
  8
0
  6
Continuous
 62
     3
100
AcDbLine
 10
-491.9999999936459
 20
540.4419633282499
 30
0.0
 11
-491.911099993646
 21
540.4419633282499
 31
0.0
  0
LINE
  5
197
330
A
100
AcDbEntity
  8
0
  6
Continuous
 62
     3
100
AcDbLine
 10
-491.9999999936459
 20
540.39872928335
 30
0.0
 11
-491.911099993646
 21
540.39872928335
 31
0.0
  0
LINE
  5
196
330
A
100
AcDbEntity
  8
0
  6
Continuous
 62
     3
100
AcDbLine
 10
-491.9999999936459
 20
540.3554952402499
 30
0.0
 11
-491.911099993646
 21
540.3554952402499
 31
0.0
  0
LINE
  5
195
330
A
100
AcDbEntity
  8
0
  6
Continuous
 62
     3
100
AcDbLine
 10
-491.9999999936459
 20
540.3338782196499
 30
0.0
 11
-491.911099993646
 21
540.3338782196499
 31
0.0
  0
LINE
  5
194
330
A
100
AcDbEntity
  8
0
  6
Continuous
 62
     3
100
AcDbLine
 10
-515.367999993646
 20
543.8898782196499
 30
0.0
 11
-514.268147730846
 21
543.25487821965
 31
0.0
  0
LINE
  5
193
330
A
100
AcDbEntity
  8
0
  6
Continuous
 62
     3
100
AcDbLine
 10
-514.268147730846
 20
526.744878219651
 30
0.0
 11
-515.367999993646
 21
526.109878219651
 31
0.0
  0
LINE
  5
192
330
A
100
AcDbEntity
  8
0
  6
Continuous
 62
     3
100
AcDbLine
 10
-508.1309996786459
 20
535.7428282196499
 30
0.0
 11
-519.4299999936459
 21
535.7428282196499
 31
0.0
  0
LINE
  5
191
330
A
100
AcDbEntity
  8
0
  6
Continuous
 62
     3
100
AcDbLine
 10
-504.953999993646
 20
541.98487821965
 30
0.0
 11
-504.953999993646
 21
544.5248782196499
 31
0.0
  0
LINE
  5
190
330
A
100
AcDbEntity
  8
0
  6
Continuous
 62
     3
100
AcDbLine
 10
-504.953999993646
 20
525.474878219651
 30
0.0
 11
-504.953999993646
 21
528.01487821965
 31
0.0
  0
LINE
  5
18F
330
A
100
AcDbEntity
  8
0
  6
Continuous
 62
     3
100
AcDbLine
 10
-508.130982453346
 20
535.7428580557499
 30
0.0
 11
-507.749981209046
 21
535.52289049935
 31
0.0
  0
LINE
  5
18E
330
A
100
AcDbEntity
  8
0
  6
Continuous
 62
     3
100
AcDbLine
 10
-508.1309996786459
 20
534.2569282196499
 30
0.0
 11
-519.4299999936459
 21
534.2569282196499
 31
0.0
  0
LINE
  5
18D
330
A
100
AcDbEntity
  8
0
  6
Continuous
 62
     3
100
AcDbLine
 10
-508.130982453346
 20
534.25689838355
 30
0.0
 11
-507.749981209046
 21
534.476865939951
 31
0.0
  0
LINE
  5
18C
330
A
100
AcDbEntity
  8
0
  6
Continuous
 62
     3
100
AcDbLine
 10
-506.223999993646
 20
528.01487821965
 30
0.0
 11
-506.223999993646
 21
526.744878219651
 31
0.0
  0
LINE
  5
18B
330
A
100
AcDbEntity
  8
0
  6
Continuous
 62
     3
100
AcDbLine
 10
-506.223999993646
 20
543.25487821965
 30
0.0
 11
-506.223999993646
 21
541.98487821965
 31
0.0
  0
LINE
  5
18A
330
A
100
AcDbEntity
  8
0
  6
Continuous
 62
     3
100
AcDbLine
 10
-507.749999993646
 20
528.01487821965
 30
0.0
 11
-507.749999993646
 21
543.25487821965
 31
0.0
  0
LINE
  5
189
330
A
100
AcDbEntity
  8
0
  6
Continuous
 62
     3
100
AcDbLine
 10
-498.984999993646
 20
523.9973852619499
 30
0.0
 11
-498.222999993646
 21
523.23538526195
 31
0.0
  0
LINE
  5
188
330
A
100
AcDbEntity
  8
0
  6
Continuous
 62
     3
100
AcDbLine
 10
-498.222999993646
 20
546.7643711773499
 30
0.0
 11
-498.984999993646
 21
546.00237117735
 31
0.0
  0
LINE
  5
187
330
A
100
AcDbEntity
  8
0
  6
Continuous
 62
     3
100
AcDbLine
 10
-508.1309996786459
 20
535.7428282196499
 30
0.0
 11
-508.1309999936459
 21
540.6069282196499
 31
0.0
  0
LINE
  5
186
330
A
100
AcDbEntity
  8
0
  6
Continuous
 62
     3
100
AcDbLine
 10
-508.1309996788459
 20
529.3928282196499
 30
0.0
 11
-508.1309996786459
 21
534.2569282196499
 31
0.0
  0
LINE
  5
185
330
A
100
AcDbEntity
  8
0
  6
Continuous
 62
     3
100
AcDbLine
 10
-491.9999999936459
 20
529.6658782196499
 30
0.0
 11
-491.911099993646
 21
529.6658782196499
 31
0.0
  0
LINE
  5
184
330
A
100
AcDbEntity
  8
0
  6
Continuous
 62
     3
100
AcDbLine
 10
-491.9999999936459
 20
529.64426120095
 30
0.0
 11
-491.911099993646
 21
529.64426120095
 31
0.0
  0
LINE
  5
183
330
A
100
AcDbEntity
  8
0
  6
Continuous
 62
     3
100
AcDbLine
 10
-491.9999999936459
 20
529.57941014485
 30
0.0
 11
-491.911099993646
 21
529.57941014485
 31
0.0
  0
LINE
  5
182
330
A
100
AcDbEntity
  8
0
  6
Continuous
 62
     3
100
AcDbLine
 10
-491.9999999936459
 20
529.4929420700499
 30
0.0
 11
-491.911099993646
 21
529.4929420700499
 31
0.0
  0
LINE
  5
181
330
A
100
AcDbEntity
  8
0
  6
Continuous
 62
     3
100
AcDbLine
 10
-508.1309996788459
 20
529.3928282196499
 30
0.0
 11
-519.4299999936459
 21
529.3928282196499
 31
0.0
  0
LINE
  5
180
330
A
100
AcDbEntity
  8
0
  6
Continuous
 62
     3
100
AcDbLine
 10
-491.9999999936459
 20
529.3848569159499
 30
0.0
 11
-491.911099993646
 21
529.3848569159499
 31
0.0
  0
LINE
  5
17F
330
A
100
AcDbEntity
  8
0
  6
Continuous
 62
     3
100
AcDbLine
 10
-491.9999999936459
 20
529.2335377850499
 30
0.0
 11
-491.911099993646
 21
529.2335377850499
 31
0.0
  0
LINE
  5
17E
330
A
100
AcDbEntity
  8
0
  6
Continuous
 62
     3
100
AcDbLine
 10
-508.1309999936459
 20
529.3928282196499
 30
0.0
 11
-507.749999993646
 21
529.1728577670499
 31
0.0
  0
LINE
  5
17D
330
A
100
AcDbEntity
  8
0
  6
Continuous
 62
     3
100
AcDbLine
 10
-491.9999999936459
 20
529.08221865425
 30
0.0
 11
-491.911099993646
 21
529.08221865425
 31
0.0
  0
LINE
  5
17C
330
A
100
AcDbEntity
  8
0
  6
Continuous
 62
     3
100
AcDbLine
 10
-491.9999999936459
 20
528.930899493051
 30
0.0
 11
-491.911099993646
 21
528.930899493051
 31
0.0
  0
LINE
  5
17B
330
A
100
AcDbEntity
  8
0
  6
Continuous
 62
     3
100
AcDbLine
 10
-491.9999999936459
 20
528.8228143843499
 30
0.0
 11
-491.911099993646
 21
528.8228143843499
 31
0.0
  0
LINE
  5
17A
330
A
100
AcDbEntity
  8
0
  6
Continuous
 62
     3
100
AcDbLine
 10
-491.9999999936459
 20
528.73634630205
 30
0.0
 11
-491.911099993646
 21
528.73634630205
 31
0.0
  0
LINE
  5
179
330
A
100
AcDbEntity
  8
0
  6
Continuous
 62
     3
100
AcDbLine
 10
-491.9999999936459
 20
528.6714952402499
 30
0.0
 11
-491.911099993646
 21
528.6714952402499
 31
0.0
  0
LINE
  5
178
330
A
100
AcDbEntity
  8
0
  6
Continuous
 62
     3
100
AcDbLine
 10
-491.9999999936459
 20
528.6498782196499
 30
0.0
 11
-491.911099993646
 21
528.6498782196499
 31
0.0
  0
LINE
  5
177
330
A
100
AcDbEntity
  8
0
  6
Continuous
 62
     3
100
AcDbLine
 10
-491.9999999936459
 20
528.3958782196499
 30
0.0
 11
-494.5399999936459
 21
528.3958782196499
 31
0.0
  0
LINE
  5
176
330
A
100
AcDbEntity
  8
0
  6
Continuous
 62
     3
100
AcDbLine
 10
-491.9999999936459
 20
528.01487821965
 30
0.0
 11
-507.749999993646
 21
528.01487821965
 31
0.0
  0
LINE
  5
175
330
A
100
AcDbEntity
  8
0
  6
Continuous
 62
     3
100
AcDbLine
 10
-508.1309999936459
 20
540.6069282196499
 30
0.0
 11
-507.749999993646
 21
540.8268986722499
 31
0.0
  0
LINE
  5
174
330
A
100
AcDbEntity
  8
0
  6
Continuous
 62
     3
100
AcDbLine
 10
-497.5879999936459
 20
526.53738526195
 30
0.0
 11
-504.953999993646
 21
526.744878219651
 31
0.0
  0
LINE
  5
173
330
A
100
AcDbEntity
  8
0
  6
Continuous
 62
     3
100
AcDbLine
 10
-506.223999993646
 20
526.744878219651
 30
0.0
 11
-514.268147730846
 21
526.744878219651
 31
0.0
  0
LINE
  5
172
330
A
100
AcDbEntity
  8
0
  6
Continuous
 62
     3
100
AcDbLine
 10
-497.5879999936459
 20
525.474878219651
 30
0.0
 11
-504.953999993646
 21
525.474878219651
 31
0.0
  0
LINE
  5
171
330
A
100
AcDbEntity
  8
0
  6
Continuous
 62
     3
100
AcDbLine
 10
-515.367999993646
 20
526.109878219651
 30
0.0
 11
-515.367999993646
 21
524.4588782196499
 31
0.0
  0
LINE
  5
170
330
A
100
AcDbEntity
  8
0
  6
Continuous
 62
     3
100
AcDbLine
 10
-515.367999993646
 20
545.5408782196498
 30
0.0
 11
-515.367999993646
 21
543.8898782196499
 31
0.0
  0
LINE
  5
16F
330
A
100
AcDbEntity
  8
0
  6
Continuous
 62
     3
100
AcDbLine
 10
-515.367999993646
 20
524.4588782196499
 30
0.0
 11
-498.984999993646
 21
523.9973852619499
 31
0.0
  0
LINE
  5
16E
330
A
100
AcDbEntity
  8
0
  6
Continuous
 62
     3
100
AcDbLine
 10
-498.222999993646
 20
523.23538526195
 30
0.0
 11
-497.5879999936459
 21
523.23538526195
 31
0.0
  0
LINE
  5
16D
330
A
100
AcDbEntity
  8
0
  6
Continuous
 62
     3
100
AcDbLine
 10
-519.4299999936459
 20
535.74307178035
 30
0.0
 11
-519.4299999936459
 21
540.6069282196499
 31
0.0
  0
LINE
  5
16C
330
A
100
AcDbEntity
  8
0
  6
Continuous
 62
     3
100
AcDbLine
 10
-519.4299999936459
 20
529.39307178035
 30
0.0
 11
-519.4299999936459
 21
534.25668465895
 31
0.0
  0
LINE
  5
16B
330
A
100
AcDbEntity
  8
1
  6
Continuous
 62
     3
100
AcDbLine
 10
-502.9999999936459
 20
597.895
 30
0.0
 11
-512.999999993646
 21
597.895
 31
0.0
  0
LINE
  5
16A
330
A
100
AcDbEntity
  8
1
  6
Continuous
 62
     3
100
AcDbLine
 10
-502.9999999936459
 20
586.595
 30
0.0
 11
-502.9999999936459
 21
597.895
 31
0.0
  0
LINE
  5
169
330
A
100
AcDbEntity
  8
1
  6
Continuous
 62
     3
100
AcDbLine
 10
-511.9999999936459
 20
586.595
 30
0.0
 11
-502.9999999936459
 21
586.595
 31
0.0
  0
LINE
  5
168
330
A
100
AcDbEntity
  8
1
  6
Continuous
 62
     3
100
AcDbLine
 10
-511.9999999936459
 20
589.095
 30
0.0
 11
-512.999999993646
 21
589.095
 31
0.0
  0
LINE
  5
167
330
A
100
AcDbEntity
  8
1
  6
Continuous
 62
     3
100
AcDbLine
 10
-512.999999993646
 20
597.895
 30
0.0
 11
-512.999999993646
 21
589.095
 31
0.0
  0
LINE
  5
166
330
A
100
AcDbEntity
  8
1
  6
Continuous
 62
     3
100
AcDbLine
 10
-511.9999999936459
 20
586.595
 30
0.0
 11
-511.9999999936459
 21
589.095
 31
0.0
  0
LINE
  5
165
330
A
100
AcDbEntity
  8
1
  6
Continuous
 62
     3
100
AcDbLine
 10
-501.829999993646
 20
596.7249999999999
 30
0.0
 11
-502.9999999936459
 21
597.895
 31
0.0
  0
LINE
  5
164
330
A
100
AcDbEntity
  8
1
  6
Continuous
 62
     3
100
AcDbLine
 10
-491.9999999936459
 20
596.7249999999999
 30
0.0
 11
-501.829999993646
 21
596.7249999999999
 31
0.0
  0
LINE
  5
163
330
A
100
AcDbEntity
  8
1
  6
Continuous
 62
     3
100
AcDbLine
 10
-491.9999999936459
 20
589.2749999999999
 30
0.0
 11
-491.9999999936459
 21
596.7249999999999
 31
0.0
  0
LINE
  5
162
330
A
100
AcDbEntity
  8
1
  6
Continuous
 62
     3
100
AcDbLine
 10
-501.829999993646
 20
588.7749999999989
 30
0.0
 11
-502.9999999936459
 21
586.595
 31
0.0
  0
LINE
  5
161
330
A
100
AcDbEntity
  8
1
  6
Continuous
 62
     3
100
AcDbLine
 10
-501.829999993646
 20
588.7749999999989
 30
0.0
 11
-501.829999993646
 21
596.7249999999999
 31
0.0
  0
LINE
  5
160
330
A
100
AcDbEntity
  8
1
  6
Continuous
 62
     3
100
AcDbLine
 10
-495.9999999936459
 20
588.7749999999989
 30
0.0
 11
-501.829999993646
 21
588.7749999999989
 31
0.0
  0
LINE
  5
15F
330
A
100
AcDbEntity
  8
1
  6
Continuous
 62
     3
100
AcDbLine
 10
-495.7113248590509
 20
589.2749999999999
 30
0.0
 11
-495.9999999936459
 21
588.7749999999989
 31
0.0
  0
LINE
  5
15E
330
A
100
AcDbEntity
  8
1
  6
Continuous
 62
     3
100
AcDbLine
 10
-495.7113248590509
 20
589.2749999999999
 30
0.0
 11
-491.9999999936459
 21
589.2749999999999
 31
0.0
  0
LINE
  5
15D
330
A
100
AcDbEntity
  8
1
  6
Continuous
 62
     3
100
AcDbLine
 10
-480.999999993646
 20
532.6247564392999
 30
0.0
 11
-491.9999999936459
 21
532.6247564392999
 31
0.0
  0
LINE
  5
15C
330
A
100
AcDbEntity
  8
1
  6
Continuous
 62
     3
100
AcDbLine
 10
-491.9999999936459
 20
531.0247564392999
 30
0.0
 11
-480.999999993646
 21
531.0247564392999
 31
0.0
  0
LINE
  5
15B
330
A
100
AcDbEntity
  8
1
  6
Continuous
 62
     3
100
AcDbLine
 10
-491.9999999936459
 20
538.975
 30
0.0
 11
-480.999999993646
 21
538.975
 31
0.0
  0
LINE
  5
15A
330
A
100
AcDbEntity
  8
1
  6
Continuous
 62
     3
100
AcDbLine
 10
-491.9999999936459
 20
537.375
 30
0.0
 11
-480.999999993646
 21
537.375
 31
0.0
  0
LINE
  5
159
330
A
100
AcDbEntity
  8
1
  6
Continuous
 62
     3
100
AcDbLine
 10
-456.999999993646
 20
595.745
 30
0.0
 11
-491.9999999936459
 21
595.745
 31
0.0
  0
LINE
  5
158
330
A
100
AcDbEntity
  8
1
  6
Continuous
 62
     3
100
AcDbLine
 10
-456.999999993646
 20
592.445
 30
0.0
 11
-491.9999999936459
 21
592.445
 31
0.0
  0
LINE
  5
157
330
A
100
AcDbEntity
  8
1
  6
Continuous
 62
     3
100
AcDbLine
 10
-456.999999993646
 20
591.445
 30
0.0
 11
-491.9999999936459
 21
591.445
 31
0.0
  0
LINE
  5
156
330
A
100
AcDbEntity
  8
1
  6
Continuous
 62
     3
100
AcDbLine
 10
-465.2626594805359
 20
594.3658680846649
 30
0.0
 11
-466.574948337145
 21
594.4741319153349
 31
0.0
  0
LINE
  5
155
330
A
100
AcDbEntity
  8
1
  6
Continuous
 62
     3
100
AcDbLine
 10
-456.999999993646
 20
594.0949999999999
 30
0.0
 11
-458.68500609752
 21
594.0949999999999
 31
0.0
  0
LINE
  5
154
330
A
100
AcDbEntity
  8
1
  6
Continuous
 62
     3
100
AcDbLine
 10
-456.999999993646
 20
593.095
 30
0.0
 11
-457.902585177938
 21
593.095
 31
0.0
  0
LINE
  5
153
330
A
100
AcDbEntity
  8
1
  6
Continuous
 62
     3
100
AcDbLine
 10
-477.916528128984
 20
594.406414894169
 30
0.0
 11
-466.124651906707
 21
593.4335851058309
 31
0.0
  0
LINE
  5
152
330
A
100
AcDbEntity
  8
1
  6
Continuous
 62
     3
100
AcDbLine
 10
-456.999999993646
 20
594.7449999999999
 30
0.0
 11
-491.9999999936459
 21
594.7449999999999
 31
0.0
  0
LINE
  5
151
330
A
100
AcDbEntity
  8
1
  6
Continuous
 62
     3
100
AcDbLine
 10
-456.999999993646
 20
590.7949999999999
 30
0.0
 11
-458.68500609752
 21
590.7949999999999
 31
0.0
  0
LINE
  5
150
330
A
100
AcDbEntity
  8
1
  6
Continuous
 62
     3
100
AcDbLine
 10
-465.2626594805359
 20
591.0658680846649
 30
0.0
 11
-466.574948337145
 21
591.174131915335
 31
0.0
  0
LINE
  5
14F
330
A
100
AcDbEntity
  8
1
  6
Continuous
 62
     3
100
AcDbLine
 10
-456.999999993646
 20
589.7949999999999
 30
0.0
 11
-457.902585177938
 21
589.7949999999999
 31
0.0
  0
LINE
  5
14E
330
A
100
AcDbEntity
  8
1
  6
Continuous
 62
     3
100
AcDbLine
 10
-477.916528128984
 20
591.1064148941689
 30
0.0
 11
-466.124651906707
 21
590.133585105831
 31
0.0
  0
LINE
  5
14D
330
A
100
AcDbEntity
  8
1
  6
Continuous
 62
     3
100
AcDbLine
 10
-372.0
 20
537.6491106406739
 30
0.0
 11
-372.0
 21
583.0
 31
0.0
  0
LINE
  5
14C
330
A
100
AcDbEntity
  8
1
  6
DASH_CENTER
 62
     3
100
AcDbLine
 10
-368.0
 20
534.797958971133
 30
0.0
 11
-368.0
 21
583.0
 31
0.0
  0
LINE
  5
14B
330
A
100
AcDbEntity
  8
1
  6
Continuous
 62
     3
100
AcDbLine
 10
-431.999999993646
 20
597.0
 30
0.0
 11
-403.499999993587
 21
597.0
 31
0.0
  0
LINE
  5
14A
330
A
100
AcDbEntity
  8
1
  6
Continuous
 62
     3
100
AcDbLine
 10
-431.999999993646
 20
589.0
 30
0.0
 11
-403.4999999936459
 21
589.0
 31
0.0
  0
LINE
  5
149
330
A
100
AcDbEntity
  8
1
  6
DASH_CENTER
 62
     3
100
AcDbLine
 10
-514.999999993646
 20
593.0
 30
0.0
 11
-378.0
 21
593.0
 31
0.0
  0
LINE
  5
148
330
A
100
AcDbEntity
  8
1
  6
DASH_CENTER
 62
     3
100
AcDbLine
 10
-521.429999993646
 20
535.0
 30
0.0
 11
-378.0
 21
535.0
 31
0.0
  0
LINE
  5
147
330
A
100
AcDbEntity
  8
1
  6
Continuous
 62
     3
100
AcDbLine
 10
-431.999999993646
 20
531.0
 30
0.0
 11
-403.499999993655
 21
531.0
 31
0.0
  0
LINE
  5
146
330
A
100
AcDbEntity
  8
1
  6
Continuous
 62
     3
100
AcDbLine
 10
-431.999999993646
 20
539.0
 30
0.0
 11
-403.499999993616
 21
539.0
 31
0.0
  0
LINE
  5
145
330
A
100
AcDbEntity
  8
1
  6
Continuous
 62
     3
100
AcDbLine
 10
-400.4999999936759
 20
531.0
 30
0.0
 11
-378.0
 21
531.0
 31
0.0
  0
LINE
  5
144
330
A
100
AcDbEntity
  8
1
  6
Continuous
 62
     3
100
AcDbLine
 10
-400.499999993636
 20
539.0
 30
0.0
 11
-378.0
 21
539.0
 31
0.0
  0
LINE
  5
143
330
A
100
AcDbEntity
  8
1
  6
Continuous
 62
     3
100
AcDbLine
 10
-400.499999993675
 20
589.0
 30
0.0
 11
-378.0
 21
589.0
 31
0.0
  0
LINE
  5
142
330
A
100
AcDbEntity
  8
1
  6
Continuous
 62
     3
100
AcDbLine
 10
-400.4999999936459
 20
597.0
 30
0.0
 11
-378.0
 21
597.0
 31
0.0
  0
LINE
  5
141
330
A
100
AcDbEntity
  8
1
  6
Continuous
 62
     3
100
AcDbLine
 10
-431.999999993646
 20
530.7
 30
0.0
 11
-441.9999999936459
 21
530.7
 31
0.0
  0
LINE
  5
140
330
A
100
AcDbEntity
  8
1
  6
Continuous
 62
     3
100
AcDbLine
 10
-431.999999993646
 20
530.7
 30
0.0
 11
-431.999999993646
 21
539.2999999999999
 31
0.0
  0
LINE
  5
13F
330
A
100
AcDbEntity
  8
1
  6
Continuous
 62
     3
100
AcDbLine
 10
-441.9999999936459
 20
539.2999999999999
 30
0.0
 11
-431.999999993646
 21
539.2999999999999
 31
0.0
  0
LINE
  5
13E
330
A
100
AcDbEntity
  8
1
  6
Continuous
 62
     3
100
AcDbLine
 10
-443.999999993646
 20
538.7999999999999
 30
0.0
 11
-441.9999999936459
 21
539.2999999999999
 31
0.0
  0
LINE
  5
13D
330
A
100
AcDbEntity
  8
1
  6
Continuous
 62
     3
100
AcDbLine
 10
-456.999999993646
 20
538.7999999999999
 30
0.0
 11
-443.999999993646
 21
538.7999999999999
 31
0.0
  0
LINE
  5
13C
330
A
100
AcDbEntity
  8
1
  6
Continuous
 62
     3
100
AcDbLine
 10
-443.999999993646
 20
531.2
 30
0.0
 11
-456.999999993646
 21
531.2
 31
0.0
  0
LINE
  5
13B
330
A
100
AcDbEntity
  8
1
  6
Continuous
 62
     3
100
AcDbLine
 10
-441.9999999936459
 20
530.7
 30
0.0
 11
-443.999999993646
 21
531.2
 31
0.0
  0
LINE
  5
13A
330
A
100
AcDbEntity
  8
1
  6
Continuous
 62
     3
100
AcDbLine
 10
-456.999999993646
 20
531.2
 30
0.0
 11
-456.999999993646
 21
538.7999999999999
 31
0.0
  0
LINE
  5
139
330
A
100
AcDbEntity
  8
1
  6
Continuous
 62
     3
100
AcDbLine
 10
-441.9999999936459
 20
597.2999999999999
 30
0.0
 11
-431.999999993646
 21
597.2999999999999
 31
0.0
  0
LINE
  5
138
330
A
100
AcDbEntity
  8
1
  6
Continuous
 62
     3
100
AcDbLine
 10
-431.999999993646
 20
588.7
 30
0.0
 11
-431.999999993646
 21
597.2999999999999
 31
0.0
  0
LINE
  5
137
330
A
100
AcDbEntity
  8
1
  6
Continuous
 62
     3
100
AcDbLine
 10
-431.999999993646
 20
588.7
 30
0.0
 11
-441.9999999936459
 21
588.7
 31
0.0
  0
LINE
  5
136
330
A
100
AcDbEntity
  8
1
  6
Continuous
 62
     3
100
AcDbLine
 10
-441.9999999936459
 20
588.7
 30
0.0
 11
-443.999999993646
 21
589.2
 31
0.0
  0
LINE
  5
135
330
A
100
AcDbEntity
  8
1
  6
Continuous
 62
     3
100
AcDbLine
 10
-443.999999993646
 20
589.2
 30
0.0
 11
-456.999999993646
 21
589.2
 31
0.0
  0
LINE
  5
134
330
A
100
AcDbEntity
  8
1
  6
Continuous
 62
     3
100
AcDbLine
 10
-456.999999993646
 20
596.7999999999999
 30
0.0
 11
-443.999999993646
 21
596.7999999999999
 31
0.0
  0
LINE
  5
133
330
A
100
AcDbEntity
  8
1
  6
Continuous
 62
     3
100
AcDbLine
 10
-443.999999993646
 20
596.7999999999999
 30
0.0
 11
-441.9999999936459
 21
597.2999999999999
 31
0.0
  0
LINE
  5
132
330
A
100
AcDbEntity
  8
1
  6
Continuous
 62
     3
100
AcDbLine
 10
-456.999999993646
 20
589.2
 30
0.0
 11
-456.999999993646
 21
596.7999999999999
 31
0.0
  0
LINE
  5
131
330
A
100
AcDbEntity
  8
1
  6
Continuous
 62
     3
100
AcDbLine
 10
-506.0000000000009
 20
301.0
 30
0.0
 11
-506.707567016511
 21
300.292432983483
 31
0.0
  0
LINE
  5
130
330
A
100
AcDbEntity
  8
1
  6
DASH_CENTER
 62
     3
100
AcDbLine
 10
-410.0
 20
442.0
 30
0.0
 11
-378.0
 21
442.0
 31
0.0
  0
LINE
  5
12F
330
A
100
AcDbEntity
  8
1
  6
Continuous
 62
     3
100
AcDbLine
 10
-393.0
 20
438.0
 30
0.0
 11
-378.0
 21
438.0
 31
0.0
  0
LINE
  5
12E
330
A
100
AcDbEntity
  8
1
  6
Continuous
 62
     3
100
AcDbLine
 10
-393.0
 20
446.0
 30
0.0
 11
-378.0
 21
446.0
 31
0.0
  0
LINE
  5
12D
330
A
100
AcDbEntity
  8
1
  6
Continuous
 62
     3
100
AcDbLine
 10
-408.6249999999999
 20
314.5
 30
0.0
 11
-408.0
 21
315.125
 31
0.0
  0
LINE
  5
12C
330
A
100
AcDbEntity
  8
1
  6
Continuous
 62
     3
100
AcDbLine
 10
-481.2500000000009
 20
314.5
 30
0.0
 11
-481.2500000000009
 21
457.5
 31
0.0
  0
LINE
  5
12B
330
A
100
AcDbEntity
  8
1
  6
Continuous
 62
     3
100
AcDbLine
 10
-408.0
 20
456.875
 30
0.0
 11
-408.0
 21
315.125
 31
0.0
  0
LINE
  5
12A
330
A
100
AcDbEntity
  8
1
  6
Continuous
 62
     3
100
AcDbLine
 10
-482.000000000001
 20
458.4999999999999
 30
0.0
 11
-481.2500000000009
 21
457.5
 31
0.0
  0
LINE
  5
129
330
A
100
AcDbEntity
  8
1
  6
Continuous
 62
     3
100
AcDbLine
 10
-408.0
 20
456.875
 30
0.0
 11
-408.6249999999999
 21
457.5
 31
0.0
  0
LINE
  5
128
330
A
100
AcDbEntity
  8
1
  6
Continuous
 62
     3
100
AcDbLine
 10
-431.5
 20
314.5
 30
0.0
 11
-431.5
 21
457.5
 31
0.0
  0
LINE
  5
127
330
A
100
AcDbEntity
  8
1
  6
Continuous
 62
     3
100
AcDbLine
 10
-488.0000000000009
 20
473.1
 30
0.0
 11
-488.3999999999999
 21
473.5
 31
0.0
  0
LINE
  5
126
330
A
100
AcDbEntity
  8
1
  6
Continuous
 62
     3
100
AcDbLine
 10
-505.6
 20
473.5
 30
0.0
 11
-506.0000000000009
 21
473.1
 31
0.0
  0
LINE
  5
125
330
A
100
AcDbEntity
  8
1
  6
Continuous
 62
     3
100
AcDbLine
 10
-505.6
 20
473.5
 30
0.0
 11
-488.3999999999999
 21
473.5
 31
0.0
  0
LINE
  5
124
330
A
100
AcDbEntity
  8
1
  6
DASH_CENTER
 62
     3
100
AcDbLine
 10
-588.4926807546309
 20
386.0
 30
0.0
 11
-403.5
 21
386.0
 31
0.0
  0
LINE
  5
123
330
A
100
AcDbEntity
  8
1
  6
Continuous
 62
     3
100
AcDbLine
 10
-444.0
 20
457.5
 30
0.0
 11
-444.0
 21
314.5
 31
0.0
  0
LINE
  5
122
330
A
100
AcDbEntity
  8
1
  6
Continuous
 62
     3
100
AcDbLine
 10
-506.0000000000009
 20
298.9
 30
0.0
 11
-505.6
 21
298.5
 31
0.0
  0
LINE
  5
121
330
A
100
AcDbEntity
  8
1
  6
Continuous
 62
     3
100
AcDbLine
 10
-506.0000000000009
 20
298.9
 30
0.0
 11
-506.0000000000009
 21
473.1
 31
0.0
  0
LINE
  5
120
330
A
100
AcDbEntity
  8
1
  6
Continuous
 62
     3
100
AcDbLine
 10
-482.000000000001
 20
313.5
 30
0.0
 11
-488.0000000000009
 21
313.5
 31
0.0
  0
LINE
  5
11F
330
A
100
AcDbEntity
  8
1
  6
Continuous
 62
     3
100
AcDbLine
 10
-488.3999999999999
 20
298.5
 30
0.0
 11
-488.0000000000009
 21
298.9
 31
0.0
  0
LINE
  5
11E
330
A
100
AcDbEntity
  8
1
  6
DASHED
 62
     3
100
AcDbLine
 10
-408.0
 20
363.5
 30
0.0
 11
-555.4999890231289
 21
363.5
 31
0.0
  0
LINE
  5
11D
330
A
100
AcDbEntity
  8
1
  6
Continuous
 62
     3
100
AcDbLine
 10
-482.000000000001
 20
458.4999999999999
 30
0.0
 11
-482.000000000001
 21
313.5
 31
0.0
  0
LINE
  5
11C
330
A
100
AcDbEntity
  8
1
  6
Continuous
 62
     3
100
AcDbLine
 10
-488.0000000000009
 20
473.1
 30
0.0
 11
-488.0000000000009
 21
298.9
 31
0.0
  0
LINE
  5
11B
330
A
100
AcDbEntity
  8
1
  6
Continuous
 62
     3
100
AcDbLine
 10
-481.2500000000009
 20
314.5
 30
0.0
 11
-482.000000000001
 21
313.5
 31
0.0
  0
LINE
  5
11A
330
A
100
AcDbEntity
  8
1
  6
Continuous
 62
     3
100
AcDbLine
 10
-408.6249999999999
 20
314.5
 30
0.0
 11
-408.6249999999999
 21
321.512653118229
 31
0.0
  0
LINE
  5
119
330
A
100
AcDbEntity
  8
1
  6
Continuous
 62
     3
100
AcDbLine
 10
-408.6249999999999
 20
457.5
 30
0.0
 11
-408.6249999999999
 21
426.407213562058
 31
0.0
  0
LINE
  5
118
330
A
100
AcDbEntity
  8
1
  6
Continuous
 62
     3
100
AcDbLine
 10
-408.6249999999999
 20
327.012653118236
 30
0.0
 11
-408.6249999999999
 21
416.880934120433
 31
0.0
  0
LINE
  5
117
330
A
100
AcDbEntity
  8
1
  6
DASHED
 62
     3
100
AcDbLine
 10
-555.4999890231289
 20
408.4999999999999
 30
0.0
 11
-408.0
 21
408.4999999999999
 31
0.0
  0
LINE
  5
116
330
A
100
AcDbEntity
  8
1
  6
Continuous
 62
     3
100
AcDbLine
 10
-566.5
 20
471.0
 30
0.0
 11
-543.0
 21
471.0
 31
0.0
  0
LINE
  5
115
330
A
100
AcDbEntity
  8
1
  6
Continuous
 62
     3
100
AcDbLine
 10
-566.5
 20
471.0
 30
0.0
 11
-566.5
 21
429.0
 31
0.0
  0
LINE
  5
114
330
A
100
AcDbEntity
  8
1
  6
Continuous
 62
     3
100
AcDbLine
 10
-566.4999890231269
 20
414.0
 30
0.0
 11
-574.499989023128
 21
414.0
 31
0.0
  0
LINE
  5
113
330
A
100
AcDbEntity
  8
1
  6
Continuous
 62
     3
100
AcDbLine
 10
-566.4999890231269
 20
414.0
 30
0.0
 11
-566.4999890231269
 21
386.0
 31
0.0
  0
LINE
  5
112
330
A
100
AcDbEntity
  8
1
  6
Continuous
 62
     3
100
AcDbLine
 10
-566.4999890231269
 20
409.000000000002
 30
0.0
 11
-559.013537839931
 21
409.000000000002
 31
0.0
  0
LINE
  5
111
330
A
100
AcDbEntity
  8
1
  6
DASHED
 62
     3
100
AcDbLine
 10
-557.4999890231289
 20
409.6547005383789
 30
0.0
 11
-557.499989023128
 21
409.6547005383789
 31
0.0
  0
LINE
  5
110
330
A
100
AcDbEntity
  8
1
  6
DASHED
 62
     3
100
AcDbLine
 10
-557.499989023128
 20
409.000000000002
 30
0.0
 11
-557.499989023128
 21
409.6547005383789
 31
0.0
  0
LINE
  5
10F
330
A
100
AcDbEntity
  8
1
  6
DASHED
 62
     3
100
AcDbLine
 10
-557.499989023128
 20
409.6547005383789
 30
0.0
 11
-555.4999890231289
 21
408.4999999999999
 31
0.0
  0
LINE
  5
10E
330
A
100
AcDbEntity
  8
1
  6
Continuous
 62
     3
100
AcDbLine
 10
-538.0
 20
498.0
 30
0.0
 11
-537.5
 21
498.5
 31
0.0
  0
LINE
  5
10D
330
A
100
AcDbEntity
  8
1
  6
Continuous
 62
     3
100
AcDbLine
 10
-516.5
 20
498.5
 30
0.0
 11
-516.0
 21
498.0
 31
0.0
  0
LINE
  5
10C
330
A
100
AcDbEntity
  8
1
  6
Continuous
 62
     3
100
AcDbLine
 10
-537.5
 20
273.5
 30
0.0
 11
-538.0
 21
274.0
 31
0.0
  0
LINE
  5
10B
330
A
100
AcDbEntity
  8
1
  6
Continuous
 62
     3
100
AcDbLine
 10
-516.5
 20
273.5
 30
0.0
 11
-516.0
 21
274.0
 31
0.0
  0
LINE
  5
10A
330
A
100
AcDbEntity
  8
1
  6
Continuous
 62
     3
100
AcDbLine
 10
-542.7
 20
296.0
 30
0.0
 11
-543.0
 21
296.3
 31
0.0
  0
LINE
  5
109
330
A
100
AcDbEntity
  8
1
  6
Continuous
 62
     3
100
AcDbLine
 10
-511.300000000001
 20
296.0
 30
0.0
 11
-510.600000060207
 21
296.699999939783
 31
0.0
  0
LINE
  5
108
330
A
100
AcDbEntity
  8
1
  6
Continuous
 62
     3
100
AcDbLine
 10
-543.0
 20
475.6999999999999
 30
0.0
 11
-542.7
 21
476.0
 31
0.0
  0
LINE
  5
107
330
A
100
AcDbEntity
  8
1
  6
Continuous
 62
     3
100
AcDbLine
 10
-510.600000060207
 20
475.3000000000029
 30
0.0
 11
-511.300000000001
 21
476.0
 31
0.0
  0
LINE
  5
106
330
A
100
AcDbEntity
  8
1
  6
DASHED
 62
     3
100
AcDbLine
 10
-559.013537839931
 20
409.000000000002
 30
0.0
 11
-557.499989023128
 21
409.000000000002
 31
0.0
  0
LINE
  5
105
330
A
100
AcDbEntity
  8
1
  6
Continuous
 62
     3
100
AcDbLine
 10
-557.499989023128
 20
386.0
 30
0.0
 11
-557.499989023128
 21
402.923934006258
 31
0.0
  0
LINE
  5
104
330
A
100
AcDbEntity
  8
1
  6
DASHED
 62
     3
100
AcDbLine
 10
-574.5
 20
358.0
 30
0.0
 11
-574.5
 21
340.999999999997
 31
0.0
  0
LINE
  5
103
330
A
100
AcDbEntity
  8
1
  6
DASHED
 62
     3
100
AcDbLine
 10
-574.499989023128
 20
358.0
 30
0.0
 11
-566.4999890231269
 21
358.0
 31
0.0
  0
LINE
  5
102
330
A
100
AcDbEntity
  8
1
  6
DASHED
 62
     3
100
AcDbLine
 10
-566.4999890231269
 20
362.999999999998
 30
0.0
 11
-566.4999890231269
 21
358.0
 31
0.0
  0
LINE
  5
101
330
A
100
AcDbEntity
  8
1
  6
DASHED
 62
     3
100
AcDbLine
 10
-557.499989023128
 20
362.999999999998
 30
0.0
 11
-566.4999890231269
 21
362.999999999998
 31
0.0
  0
LINE
  5
100
330
A
100
AcDbEntity
  8
1
  6
DASHED
 62
     3
100
AcDbLine
 10
-555.4999890231289
 20
363.5
 30
0.0
 11
-557.499989023128
 21
362.3452994616211
 31
0.0
  0
LINE
  5
FF
330
A
100
AcDbEntity
  8
1
  6
DASHED
 62
     3
100
AcDbLine
 10
-557.499989023128
 20
362.3452994616211
 30
0.0
 11
-557.499989023128
 21
362.999999999998
 31
0.0
  0
LINE
  5
FE
330
A
100
AcDbEntity
  8
1
  6
DASHED
 62
     3
100
AcDbLine
 10
-557.499989023128
 20
362.3452994616211
 30
0.0
 11
-557.4999890231289
 21
362.3452994616211
 31
0.0
  0
LINE
  5
FD
330
A
100
AcDbEntity
  8
1
  6
DASHED
 62
     3
100
AcDbLine
 10
-538.0
 20
482.0
 30
0.0
 11
-516.0
 21
482.0
 31
0.0
  0
LINE
  5
FC
330
A
100
AcDbEntity
  8
1
  6
DASH_CENTER
 62
     3
100
AcDbLine
 10
-540.616835558401
 20
487.5
 30
0.0
 11
-512.849709576854
 21
487.5
 31
0.0
  0
LINE
  5
FB
330
A
100
AcDbEntity
  8
1
  6
DASHED
 62
     3
100
AcDbLine
 10
-538.0
 20
493.0
 30
0.0
 11
-516.0
 21
493.0
 31
0.0
  0
LINE
  5
FA
330
A
100
AcDbEntity
  8
1
  6
Continuous
 62
     3
100
AcDbLine
 10
-742.600792579083
 20
408.999999999999
 30
0.0
 11
-764.5401028082879
 21
408.999999999999
 31
0.0
  0
LINE
  5
F9
330
A
100
AcDbEntity
  8
1
  6
Continuous
 62
     3
100
AcDbLine
 10
-768.004204423425
 20
406.999999999999
 30
0.0
 11
-778.973859538027
 21
388.0
 31
0.0
  0
LINE
  5
F8
330
A
100
AcDbEntity
  8
1
  6
Continuous
 62
     3
100
AcDbLine
 10
-778.973859538027
 20
384.0
 30
0.0
 11
-768.004204423425
 21
365.000000000001
 31
0.0
  0
LINE
  5
F7
330
A
100
AcDbEntity
  8
1
  6
Continuous
 62
     3
100
AcDbLine
 10
-764.540102808287
 20
363.000000000001
 30
0.0
 11
-742.600792579082
 21
363.000000000001
 31
0.0
  0
LINE
  5
F6
330
A
100
AcDbEntity
  8
1
  6
Continuous
 62
     3
100
AcDbLine
 10
-739.136690963945
 20
365.000000000001
 30
0.0
 11
-728.167035849342
 21
383.999999999999
 31
0.0
  0
LINE
  5
F5
330
A
100
AcDbEntity
  8
1
  6
Continuous
 62
     3
100
AcDbLine
 10
-728.167035849342
 20
387.9999999999991
 30
0.0
 11
-739.136690963945
 21
406.999999999999
 31
0.0
  0
LINE
  5
F4
330
A
100
AcDbEntity
  8
1
  6
DASH_CENTER
 62
     3
100
AcDbLine
 10
-800.4162719473029
 20
432.8458242536039
 30
0.0
 11
-784.5063693706038
 21
416.935921676908
 31
0.0
  0
LINE
  5
F3
330
A
100
AcDbEntity
  8
1
  6
DASH_CENTER
 62
     3
100
AcDbLine
 10
-689.5778617020379
 20
403.14676173805
 30
0.0
 11
-711.311192793542
 21
397.32333322324
 31
0.0
  0
LINE
  5
F2
330
A
100
AcDbEntity
  8
1
  6
DASH_CENTER
 62
     3
100
AcDbLine
 10
-770.7172094317219
 20
322.007414008347
 30
0.0
 11
-764.8937809169179
 21
343.740745099851
 31
0.0
  0
LINE
  5
F1
330
A
100
AcDbEntity
  8
1
  6
Continuous
 62
     3
100
AcDbLine
 10
-566.5
 20
430.4999999999999
 30
0.0
 11
-567.8468912404009
 21
430.4999999999999
 31
0.0
  0
LINE
  5
F0
330
A
100
AcDbEntity
  8
1
  6
Continuous
 62
     3
100
AcDbLine
 10
-572.1
 20
386.0
 30
0.0
 11
-572.1
 21
381.0
 31
0.0
  0
LINE
  5
EF
330
A
100
AcDbEntity
  8
1
  6
Continuous
 62
     3
100
AcDbLine
 10
-572.5
 20
386.0
 30
0.0
 11
-572.5
 21
381.4
 31
0.0
  0
LINE
  5
EE
330
A
100
AcDbEntity
  8
1
  6
Continuous
 62
     3
100
AcDbLine
 10
-572.1
 20
312.0
 30
0.0
 11
-572.1
 21
302.0
 31
0.0
  0
LINE
  5
ED
330
A
100
AcDbEntity
  8
1
  6
Continuous
 62
     3
100
AcDbLine
 10
-572.1
 20
302.0
 30
0.0
 11
-566.5
 21
302.0
 31
0.0
  0
LINE
  5
EC
330
A
100
AcDbEntity
  8
1
  6
Continuous
 62
     3
100
AcDbLine
 10
-572.5
 20
302.4
 30
0.0
 11
-572.1
 21
302.0
 31
0.0
  0
LINE
  5
EB
330
A
100
AcDbEntity
  8
1
  6
Continuous
 62
     3
100
AcDbLine
 10
-572.5
 20
311.6
 30
0.0
 11
-572.5
 21
302.4
 31
0.0
  0
LINE
  5
EA
330
A
100
AcDbEntity
  8
1
  6
Continuous
 62
     3
100
AcDbLine
 10
-572.1
 20
312.0
 30
0.0
 11
-572.5
 21
311.6
 31
0.0
  0
LINE
  5
E9
330
A
100
AcDbEntity
  8
1
  6
Continuous
 62
     3
100
AcDbLine
 10
-566.5
 20
312.0
 30
0.0
 11
-572.1
 21
312.0
 31
0.0
  0
LINE
  5
E8
330
A
100
AcDbEntity
  8
1
  6
Continuous
 62
     3
100
AcDbLine
 10
-566.5
 20
322.583994
 30
0.0
 11
-572.1
 21
322.583994
 31
0.0
  0
LINE
  5
E7
330
A
100
AcDbEntity
  8
1
  6
Continuous
 62
     3
100
AcDbLine
 10
-572.1
 20
322.583994
 30
0.0
 11
-572.5
 21
322.183994
 31
0.0
  0
LINE
  5
E6
330
A
100
AcDbEntity
  8
1
  6
Continuous
 62
     3
100
AcDbLine
 10
-572.5
 20
322.183994
 30
0.0
 11
-572.5
 21
312.983994
 31
0.0
  0
LINE
  5
E5
330
A
100
AcDbEntity
  8
1
  6
Continuous
 62
     3
100
AcDbLine
 10
-572.5
 20
312.983994
 30
0.0
 11
-572.1
 21
312.583994
 31
0.0
  0
LINE
  5
E4
330
A
100
AcDbEntity
  8
1
  6
Continuous
 62
     3
100
AcDbLine
 10
-572.1
 20
312.583994
 30
0.0
 11
-566.5
 21
312.583994
 31
0.0
  0
LINE
  5
E3
330
A
100
AcDbEntity
  8
1
  6
Continuous
 62
     3
100
AcDbLine
 10
-572.1
 20
322.583994
 30
0.0
 11
-572.1
 21
312.583994
 31
0.0
  0
LINE
  5
E2
330
A
100
AcDbEntity
  8
1
  6
Continuous
 62
     3
100
AcDbLine
 10
-572.1
 20
351.5
 30
0.0
 11
-572.1
 21
341.5
 31
0.0
  0
LINE
  5
E1
330
A
100
AcDbEntity
  8
1
  6
Continuous
 62
     3
100
AcDbLine
 10
-572.1
 20
341.5
 30
0.0
 11
-566.5
 21
341.5
 31
0.0
  0
LINE
  5
E0
330
A
100
AcDbEntity
  8
1
  6
Continuous
 62
     3
100
AcDbLine
 10
-572.5
 20
341.9
 30
0.0
 11
-572.1
 21
341.5
 31
0.0
  0
LINE
  5
DF
330
A
100
AcDbEntity
  8
1
  6
Continuous
 62
     3
100
AcDbLine
 10
-572.5
 20
351.1
 30
0.0
 11
-572.5
 21
341.9
 31
0.0
  0
LINE
  5
DE
330
A
100
AcDbEntity
  8
1
  6
Continuous
 62
     3
100
AcDbLine
 10
-572.1
 20
351.5
 30
0.0
 11
-572.5
 21
351.1
 31
0.0
  0
LINE
  5
DD
330
A
100
AcDbEntity
  8
1
  6
Continuous
 62
     3
100
AcDbLine
 10
-566.5
 20
351.5
 30
0.0
 11
-572.1
 21
351.5
 31
0.0
  0
LINE
  5
DC
330
A
100
AcDbEntity
  8
1
  6
Continuous
 62
     3
100
AcDbLine
 10
-572.5
 20
381.4
 30
0.0
 11
-572.1
 21
381.0
 31
0.0
  0
LINE
  5
DB
330
A
100
AcDbEntity
  8
1
  6
Continuous
 62
     3
100
AcDbLine
 10
-572.1
 20
381.0
 30
0.0
 11
-566.5
 21
381.0
 31
0.0
  0
LINE
  5
DA
330
A
100
AcDbEntity
  8
1
  6
Continuous
 62
     3
100
AcDbLine
 10
-572.1
 20
459.416006
 30
0.0
 11
-572.1
 21
449.4160059999999
 31
0.0
  0
LINE
  5
D9
330
A
100
AcDbEntity
  8
1
  6
Continuous
 62
     3
100
AcDbLine
 10
-566.5
 20
459.416006
 30
0.0
 11
-572.1
 21
459.416006
 31
0.0
  0
LINE
  5
D8
330
A
100
AcDbEntity
  8
1
  6
Continuous
 62
     3
100
AcDbLine
 10
-572.1
 20
459.416006
 30
0.0
 11
-572.5
 21
459.0160059999999
 31
0.0
  0
LINE
  5
D7
330
A
100
AcDbEntity
  8
1
  6
Continuous
 62
     3
100
AcDbLine
 10
-572.5
 20
459.0160059999999
 30
0.0
 11
-572.5
 21
449.816006
 31
0.0
  0
LINE
  5
D6
330
A
100
AcDbEntity
  8
1
  6
Continuous
 62
     3
100
AcDbLine
 10
-572.5
 20
449.816006
 30
0.0
 11
-572.1
 21
449.4160059999999
 31
0.0
  0
LINE
  5
D5
330
A
100
AcDbEntity
  8
1
  6
Continuous
 62
     3
100
AcDbLine
 10
-572.1
 20
449.4160059999999
 30
0.0
 11
-566.5
 21
449.4160059999999
 31
0.0
  0
LINE
  5
D4
330
A
100
AcDbEntity
  8
1
  6
Continuous
 62
     3
100
AcDbLine
 10
-572.1
 20
460.0
 30
0.0
 11
-566.5
 21
460.0
 31
0.0
  0
LINE
  5
D3
330
A
100
AcDbEntity
  8
1
  6
Continuous
 62
     3
100
AcDbLine
 10
-572.5
 20
460.4
 30
0.0
 11
-572.1
 21
460.0
 31
0.0
  0
LINE
  5
D2
330
A
100
AcDbEntity
  8
1
  6
Continuous
 62
     3
100
AcDbLine
 10
-572.5
 20
469.6
 30
0.0
 11
-572.5
 21
460.4
 31
0.0
  0
LINE
  5
D1
330
A
100
AcDbEntity
  8
1
  6
Continuous
 62
     3
100
AcDbLine
 10
-572.1
 20
470.0
 30
0.0
 11
-572.5
 21
469.6
 31
0.0
  0
LINE
  5
D0
330
A
100
AcDbEntity
  8
1
  6
Continuous
 62
     3
100
AcDbLine
 10
-566.5
 20
470.0
 30
0.0
 11
-572.1
 21
470.0
 31
0.0
  0
LINE
  5
CF
330
A
100
AcDbEntity
  8
1
  6
Continuous
 62
     3
100
AcDbLine
 10
-572.1
 20
470.0
 30
0.0
 11
-572.1
 21
460.0
 31
0.0
  0
LINE
  5
CE
330
A
100
AcDbEntity
  8
1
  6
Continuous
 62
     3
100
AcDbLine
 10
-676.0138233666619
 20
388.5
 30
0.0
 11
-677.4571990396359
 21
386.0
 31
0.0
  0
LINE
  5
CD
330
A
100
AcDbEntity
  8
1
  6
Continuous
 62
     3
100
AcDbLine
 10
-677.4571990396359
 20
386.0
 30
0.0
 11
-676.0138233666619
 21
383.5
 31
0.0
  0
LINE
  5
CC
330
A
100
AcDbEntity
  8
1
  6
Continuous
 62
     3
100
AcDbLine
 10
-676.0138233666619
 20
383.5
 30
0.0
 11
-673.1270720207141
 21
383.5
 31
0.0
  0
LINE
  5
CB
330
A
100
AcDbEntity
  8
1
  6
Continuous
 62
     3
100
AcDbLine
 10
-673.1270720207141
 20
383.5
 30
0.0
 11
-671.6836963477399
 21
386.0
 31
0.0
  0
LINE
  5
CA
330
A
100
AcDbEntity
  8
1
  6
Continuous
 62
     3
100
AcDbLine
 10
-671.6836963477399
 20
386.0
 30
0.0
 11
-673.1270720207141
 21
388.5
 31
0.0
  0
LINE
  5
C9
330
A
100
AcDbEntity
  8
1
  6
Continuous
 62
     3
100
AcDbLine
 10
-673.1270720207141
 20
388.5
 30
0.0
 11
-676.0138233666619
 21
388.5
 31
0.0
  0
LINE
  5
C8
330
A
100
AcDbEntity
  8
1
  6
Continuous
 62
     3
100
AcDbLine
 10
-715.513823366662
 20
320.083994
 30
0.0
 11
-716.9571990396359
 21
317.583994
 31
0.0
  0
LINE
  5
C7
330
A
100
AcDbEntity
  8
1
  6
Continuous
 62
     3
100
AcDbLine
 10
-716.9571990396359
 20
317.583994
 30
0.0
 11
-715.513823366662
 21
315.083994
 31
0.0
  0
LINE
  5
C6
330
A
100
AcDbEntity
  8
1
  6
Continuous
 62
     3
100
AcDbLine
 10
-715.513823366662
 20
315.083994
 30
0.0
 11
-712.627072020714
 21
315.083994
 31
0.0
  0
LINE
  5
C5
330
A
100
AcDbEntity
  8
1
  6
Continuous
 62
     3
100
AcDbLine
 10
-712.627072020714
 20
315.083994
 30
0.0
 11
-711.18369634774
 21
317.583994
 31
0.0
  0
LINE
  5
C4
330
A
100
AcDbEntity
  8
1
  6
Continuous
 62
     3
100
AcDbLine
 10
-711.18369634774
 20
317.583994
 30
0.0
 11
-712.627072020714
 21
320.083994
 31
0.0
  0
LINE
  5
C3
330
A
100
AcDbEntity
  8
1
  6
Continuous
 62
     3
100
AcDbLine
 10
-712.627072020714
 20
320.083994
 30
0.0
 11
-715.513823366662
 21
320.083994
 31
0.0
  0
LINE
  5
C2
330
A
100
AcDbEntity
  8
1
  6
Continuous
 62
     3
100
AcDbLine
 10
-794.5138217308521
 20
456.9160069444349
 30
0.0
 11
-795.9571974038259
 21
454.4160069444349
 31
0.0
  0
LINE
  5
C1
330
A
100
AcDbEntity
  8
1
  6
Continuous
 62
     3
100
AcDbLine
 10
-795.9571974038259
 20
454.4160069444349
 30
0.0
 11
-794.5138217308521
 21
451.916006944435
 31
0.0
  0
LINE
  5
C0
330
A
100
AcDbEntity
  8
1
  6
Continuous
 62
     3
100
AcDbLine
 10
-794.5138217308521
 20
451.916006944435
 30
0.0
 11
-791.6270703849041
 21
451.916006944435
 31
0.0
  0
LINE
  5
BF
330
A
100
AcDbEntity
  8
1
  6
Continuous
 62
     3
100
AcDbLine
 10
-791.6270703849041
 20
451.916006944435
 30
0.0
 11
-790.1836947119289
 21
454.4160069444349
 31
0.0
  0
LINE
  5
BE
330
A
100
AcDbEntity
  8
1
  6
Continuous
 62
     3
100
AcDbLine
 10
-790.1836947119289
 20
454.4160069444349
 30
0.0
 11
-791.6270703849041
 21
456.9160069444349
 31
0.0
  0
LINE
  5
BD
330
A
100
AcDbEntity
  8
1
  6
Continuous
 62
     3
100
AcDbLine
 10
-791.6270703849041
 20
456.9160069444349
 30
0.0
 11
-794.5138217308521
 21
456.9160069444349
 31
0.0
  0
LINE
  5
BC
330
A
100
AcDbEntity
  8
1
  6
Continuous
 62
     3
100
AcDbLine
 10
-823.429829366662
 20
428.0
 30
0.0
 11
-824.8732050396359
 21
425.4999999999999
 31
0.0
  0
LINE
  5
BB
330
A
100
AcDbEntity
  8
1
  6
Continuous
 62
     3
100
AcDbLine
 10
-824.8732050396359
 20
425.4999999999999
 30
0.0
 11
-823.429829366662
 21
423.0
 31
0.0
  0
LINE
  5
BA
330
A
100
AcDbEntity
  8
1
  6
Continuous
 62
     3
100
AcDbLine
 10
-823.429829366662
 20
423.0
 30
0.0
 11
-820.5430780207139
 21
423.0
 31
0.0
  0
LINE
  5
B9
330
A
100
AcDbEntity
  8
1
  6
Continuous
 62
     3
100
AcDbLine
 10
-820.5430780207139
 20
423.0
 30
0.0
 11
-819.09970234774
 21
425.4999999999999
 31
0.0
  0
LINE
  5
B8
330
A
100
AcDbEntity
  8
1
  6
Continuous
 62
     3
100
AcDbLine
 10
-819.09970234774
 20
425.4999999999999
 30
0.0
 11
-820.5430780207139
 21
428.0
 31
0.0
  0
LINE
  5
B7
330
A
100
AcDbEntity
  8
1
  6
Continuous
 62
     3
100
AcDbLine
 10
-820.5430780207139
 20
428.0
 30
0.0
 11
-823.429829366662
 21
428.0
 31
0.0
  0
LINE
  5
B6
330
A
100
AcDbEntity
  8
1
  6
Continuous
 62
     3
100
AcDbLine
 10
-834.0138233666619
 20
388.5
 30
0.0
 11
-835.457199039636
 21
386.0
 31
0.0
  0
LINE
  5
B5
330
A
100
AcDbEntity
  8
1
  6
Continuous
 62
     3
100
AcDbLine
 10
-835.457199039636
 20
386.0
 30
0.0
 11
-834.0138233666619
 21
383.5
 31
0.0
  0
LINE
  5
B4
330
A
100
AcDbEntity
  8
1
  6
Continuous
 62
     3
100
AcDbLine
 10
-834.0138233666619
 20
383.5
 30
0.0
 11
-831.127072020714
 21
383.5
 31
0.0
  0
LINE
  5
B3
330
A
100
AcDbEntity
  8
1
  6
Continuous
 62
     3
100
AcDbLine
 10
-831.127072020714
 20
383.5
 30
0.0
 11
-829.6836963477399
 21
386.0
 31
0.0
  0
LINE
  5
B2
330
A
100
AcDbEntity
  8
1
  6
Continuous
 62
     3
100
AcDbLine
 10
-829.6836963477399
 20
386.0
 30
0.0
 11
-831.127072020714
 21
388.5
 31
0.0
  0
LINE
  5
B1
330
A
100
AcDbEntity
  8
1
  6
Continuous
 62
     3
100
AcDbLine
 10
-831.127072020714
 20
388.5
 30
0.0
 11
-834.0138233666619
 21
388.5
 31
0.0
  0
LINE
  5
B0
330
A
100
AcDbEntity
  8
1
  6
Continuous
 62
     3
100
AcDbLine
 10
-823.429829366662
 20
349.0
 30
0.0
 11
-824.8732050396359
 21
346.5
 31
0.0
  0
LINE
  5
AF
330
A
100
AcDbEntity
  8
1
  6
Continuous
 62
     3
100
AcDbLine
 10
-824.8732050396359
 20
346.5
 30
0.0
 11
-823.429829366662
 21
344.0
 31
0.0
  0
LINE
  5
AE
330
A
100
AcDbEntity
  8
1
  6
Continuous
 62
     3
100
AcDbLine
 10
-823.429829366662
 20
344.0
 30
0.0
 11
-820.5430780207139
 21
344.0
 31
0.0
  0
LINE
  5
AD
330
A
100
AcDbEntity
  8
1
  6
Continuous
 62
     3
100
AcDbLine
 10
-820.5430780207139
 20
344.0
 30
0.0
 11
-819.09970234774
 21
346.5
 31
0.0
  0
LINE
  5
AC
330
A
100
AcDbEntity
  8
1
  6
Continuous
 62
     3
100
AcDbLine
 10
-819.09970234774
 20
346.5
 30
0.0
 11
-820.5430780207139
 21
349.0
 31
0.0
  0
LINE
  5
AB
330
A
100
AcDbEntity
  8
1
  6
Continuous
 62
     3
100
AcDbLine
 10
-820.5430780207139
 20
349.0
 30
0.0
 11
-823.429829366662
 21
349.0
 31
0.0
  0
LINE
  5
AA
330
A
100
AcDbEntity
  8
1
  6
Continuous
 62
     3
100
AcDbLine
 10
-794.513823366662
 20
320.083994
 30
0.0
 11
-795.9571990396359
 21
317.583994
 31
0.0
  0
LINE
  5
A9
330
A
100
AcDbEntity
  8
1
  6
Continuous
 62
     3
100
AcDbLine
 10
-795.9571990396359
 20
317.583994
 30
0.0
 11
-794.513823366662
 21
315.083994
 31
0.0
  0
LINE
  5
A8
330
A
100
AcDbEntity
  8
1
  6
Continuous
 62
     3
100
AcDbLine
 10
-794.513823366662
 20
315.083994
 30
0.0
 11
-791.627072020714
 21
315.083994
 31
0.0
  0
LINE
  5
A7
330
A
100
AcDbEntity
  8
1
  6
Continuous
 62
     3
100
AcDbLine
 10
-791.627072020714
 20
315.083994
 30
0.0
 11
-790.18369634774
 21
317.583994
 31
0.0
  0
LINE
  5
A6
330
A
100
AcDbEntity
  8
1
  6
Continuous
 62
     3
100
AcDbLine
 10
-790.18369634774
 20
317.583994
 30
0.0
 11
-791.627072020714
 21
320.083994
 31
0.0
  0
LINE
  5
A5
330
A
100
AcDbEntity
  8
1
  6
Continuous
 62
     3
100
AcDbLine
 10
-791.627072020714
 20
320.083994
 30
0.0
 11
-794.513823366662
 21
320.083994
 31
0.0
  0
LINE
  5
A4
330
A
100
AcDbEntity
  8
1
  6
Continuous
 62
     3
100
AcDbLine
 10
-755.0138233666619
 20
309.5
 30
0.0
 11
-756.4571990396359
 21
307.0
 31
0.0
  0
LINE
  5
A3
330
A
100
AcDbEntity
  8
1
  6
Continuous
 62
     3
100
AcDbLine
 10
-756.4571990396359
 20
307.0
 30
0.0
 11
-755.0138233666619
 21
304.5
 31
0.0
  0
LINE
  5
A2
330
A
100
AcDbEntity
  8
1
  6
Continuous
 62
     3
100
AcDbLine
 10
-755.0138233666619
 20
304.5
 30
0.0
 11
-752.1270720207139
 21
304.5
 31
0.0
  0
LINE
  5
A1
330
A
100
AcDbEntity
  8
1
  6
Continuous
 62
     3
100
AcDbLine
 10
-752.1270720207139
 20
304.5
 30
0.0
 11
-750.6836963477399
 21
307.0
 31
0.0
  0
LINE
  5
A0
330
A
100
AcDbEntity
  8
1
  6
Continuous
 62
     3
100
AcDbLine
 10
-750.6836963477399
 20
307.0
 30
0.0
 11
-752.1270720207139
 21
309.5
 31
0.0
  0
LINE
  5
9F
330
A
100
AcDbEntity
  8
1
  6
Continuous
 62
     3
100
AcDbLine
 10
-752.1270720207139
 20
309.5
 30
0.0
 11
-755.0138233666619
 21
309.5
 31
0.0
  0
LINE
  5
9E
330
A
100
AcDbEntity
  8
1
  6
Continuous
 62
     3
100
AcDbLine
 10
-686.597815366662
 20
349.0
 30
0.0
 11
-688.0411910396359
 21
346.5
 31
0.0
  0
LINE
  5
9D
330
A
100
AcDbEntity
  8
1
  6
Continuous
 62
     3
100
AcDbLine
 10
-688.0411910396359
 20
346.5
 30
0.0
 11
-686.597815366662
 21
344.0
 31
0.0
  0
LINE
  5
9C
330
A
100
AcDbEntity
  8
1
  6
Continuous
 62
     3
100
AcDbLine
 10
-686.597815366662
 20
344.0
 30
0.0
 11
-683.711064020714
 21
344.0
 31
0.0
  0
LINE
  5
9B
330
A
100
AcDbEntity
  8
1
  6
Continuous
 62
     3
100
AcDbLine
 10
-683.711064020714
 20
344.0
 30
0.0
 11
-682.26768834774
 21
346.5
 31
0.0
  0
LINE
  5
9A
330
A
100
AcDbEntity
  8
1
  6
Continuous
 62
     3
100
AcDbLine
 10
-682.26768834774
 20
346.5
 30
0.0
 11
-683.711064020714
 21
349.0
 31
0.0
  0
LINE
  5
99
330
A
100
AcDbEntity
  8
1
  6
Continuous
 62
     3
100
AcDbLine
 10
-683.711064020714
 20
349.0
 30
0.0
 11
-686.597815366662
 21
349.0
 31
0.0
  0
LINE
  5
98
330
A
100
AcDbEntity
  8
1
  6
Continuous
 62
     3
100
AcDbLine
 10
-686.597815366662
 20
428.0
 30
0.0
 11
-688.0411910396359
 21
425.4999999999999
 31
0.0
  0
LINE
  5
97
330
A
100
AcDbEntity
  8
1
  6
Continuous
 62
     3
100
AcDbLine
 10
-688.0411910396359
 20
425.4999999999999
 30
0.0
 11
-686.597815366662
 21
423.0
 31
0.0
  0
LINE
  5
96
330
A
100
AcDbEntity
  8
1
  6
Continuous
 62
     3
100
AcDbLine
 10
-686.597815366662
 20
423.0
 30
0.0
 11
-683.711064020714
 21
423.0
 31
0.0
  0
LINE
  5
95
330
A
100
AcDbEntity
  8
1
  6
Continuous
 62
     3
100
AcDbLine
 10
-683.711064020714
 20
423.0
 30
0.0
 11
-682.26768834774
 21
425.4999999999999
 31
0.0
  0
LINE
  5
94
330
A
100
AcDbEntity
  8
1
  6
Continuous
 62
     3
100
AcDbLine
 10
-682.26768834774
 20
425.4999999999999
 30
0.0
 11
-683.711064020714
 21
428.0
 31
0.0
  0
LINE
  5
93
330
A
100
AcDbEntity
  8
1
  6
Continuous
 62
     3
100
AcDbLine
 10
-683.711064020714
 20
428.0
 30
0.0
 11
-686.597815366662
 21
428.0
 31
0.0
  0
LINE
  5
92
330
A
100
AcDbEntity
  8
1
  6
Continuous
 62
     3
100
AcDbLine
 10
-715.513823366662
 20
456.9160059999999
 30
0.0
 11
-716.9571990396359
 21
454.416006
 31
0.0
  0
LINE
  5
91
330
A
100
AcDbEntity
  8
1
  6
Continuous
 62
     3
100
AcDbLine
 10
-716.9571990396359
 20
454.416006
 30
0.0
 11
-715.513823366662
 21
451.9160059999999
 31
0.0
  0
LINE
  5
90
330
A
100
AcDbEntity
  8
1
  6
Continuous
 62
     3
100
AcDbLine
 10
-715.513823366662
 20
451.9160059999999
 30
0.0
 11
-712.627072020714
 21
451.9160059999999
 31
0.0
  0
LINE
  5
8F
330
A
100
AcDbEntity
  8
1
  6
Continuous
 62
     3
100
AcDbLine
 10
-712.627072020714
 20
451.9160059999999
 30
0.0
 11
-711.18369634774
 21
454.416006
 31
0.0
  0
LINE
  5
8E
330
A
100
AcDbEntity
  8
1
  6
Continuous
 62
     3
100
AcDbLine
 10
-711.18369634774
 20
454.416006
 30
0.0
 11
-712.627072020714
 21
456.9160059999999
 31
0.0
  0
LINE
  5
8D
330
A
100
AcDbEntity
  8
1
  6
Continuous
 62
     3
100
AcDbLine
 10
-712.627072020714
 20
456.9160059999999
 30
0.0
 11
-715.513823366662
 21
456.9160059999999
 31
0.0
  0
LINE
  5
8C
330
A
100
AcDbEntity
  8
1
  6
Continuous
 62
     3
100
AcDbLine
 10
-755.0138233666619
 20
467.4999999999999
 30
0.0
 11
-756.4571990396359
 21
465.0
 31
0.0
  0
LINE
  5
8B
330
A
100
AcDbEntity
  8
1
  6
Continuous
 62
     3
100
AcDbLine
 10
-756.4571990396359
 20
465.0
 30
0.0
 11
-755.0138233666619
 21
462.5
 31
0.0
  0
LINE
  5
8A
330
A
100
AcDbEntity
  8
1
  6
Continuous
 62
     3
100
AcDbLine
 10
-755.0138233666619
 20
462.5
 30
0.0
 11
-752.1270720207139
 21
462.5
 31
0.0
  0
LINE
  5
89
330
A
100
AcDbEntity
  8
1
  6
Continuous
 62
     3
100
AcDbLine
 10
-752.1270720207139
 20
462.5
 30
0.0
 11
-750.6836963477399
 21
465.0
 31
0.0
  0
LINE
  5
88
330
A
100
AcDbEntity
  8
1
  6
Continuous
 62
     3
100
AcDbLine
 10
-750.6836963477399
 20
465.0
 30
0.0
 11
-752.1270720207139
 21
467.4999999999999
 31
0.0
  0
LINE
  5
87
330
A
100
AcDbEntity
  8
1
  6
Continuous
 62
     3
100
AcDbLine
 10
-752.1270720207139
 20
467.4999999999999
 30
0.0
 11
-755.0138233666619
 21
467.4999999999999
 31
0.0
  0
LINE
  5
86
330
A
100
AcDbEntity
  8
1
  6
Continuous
 62
     3
100
AcDbLine
 10
-393.0
 20
437.3
 30
0.0
 11
-394.5
 21
437.0000000000009
 31
0.0
  0
LINE
  5
85
330
A
100
AcDbEntity
  8
1
  6
Continuous
 62
     3
100
AcDbLine
 10
-393.0
 20
446.700000000001
 30
0.0
 11
-393.0
 21
437.3
 31
0.0
  0
LINE
  5
84
330
A
100
AcDbEntity
  8
1
  6
Continuous
 62
     3
100
AcDbLine
 10
-394.5
 20
447.0000000000009
 30
0.0
 11
-393.0
 21
446.700000000001
 31
0.0
  0
LINE
  5
83
330
A
100
AcDbEntity
  8
1
  6
Continuous
 62
     3
100
AcDbLine
 10
-405.4999999999999
 20
444.500000000001
 30
0.0
 11
-407.5
 21
444.500000000001
 31
0.0
  0
LINE
  5
82
330
A
100
AcDbEntity
  8
1
  6
Continuous
 62
     3
100
AcDbLine
 10
-405.4999999999999
 20
445.8
 30
0.0
 11
-407.5
 21
445.8
 31
0.0
  0
LINE
  5
81
330
A
100
AcDbEntity
  8
1
  6
Continuous
 62
     3
100
AcDbLine
 10
-407.5
 20
448.500000000001
 30
0.0
 11
-405.4999999999999
 21
448.500000000001
 31
0.0
  0
LINE
  5
80
330
A
100
AcDbEntity
  8
1
  6
Continuous
 62
     3
100
AcDbLine
 10
-404.6999999999999
 20
448.500000000001
 30
0.0
 11
-404.6999999999999
 21
435.500000000001
 31
0.0
  0
LINE
  5
7F
330
A
100
AcDbEntity
  8
1
  6
Continuous
 62
     3
100
AcDbLine
 10
-404.6999999999989
 20
447.0000000000009
 30
0.0
 11
-405.4999999999999
 21
447.0000000000009
 31
0.0
  0
LINE
  5
7E
330
A
100
AcDbEntity
  8
1
  6
Continuous
 62
     3
100
AcDbLine
 10
-394.5
 20
447.5000000000009
 30
0.0
 11
-394.5
 21
436.5
 31
0.0
  0
LINE
  5
7D
330
A
100
AcDbEntity
  8
1
  6
Continuous
 62
     3
100
AcDbLine
 10
-394.5
 20
436.5
 30
0.0
 11
-396.0
 21
435.500000000001
 31
0.0
  0
LINE
  5
7C
330
A
100
AcDbEntity
  8
1
  6
Continuous
 62
     3
100
AcDbLine
 10
-394.5
 20
447.5000000000009
 30
0.0
 11
-396.0
 21
448.500000000001
 31
0.0
  0
LINE
  5
7B
330
A
100
AcDbEntity
  8
1
  6
Continuous
 62
     3
100
AcDbLine
 10
-396.0
 20
435.500000000001
 30
0.0
 11
-404.6999999999999
 21
435.500000000001
 31
0.0
  0
LINE
  5
7A
330
A
100
AcDbEntity
  8
1
  6
Continuous
 62
     3
100
AcDbLine
 10
-396.0
 20
448.500000000001
 30
0.0
 11
-404.6999999999999
 21
448.500000000001
 31
0.0
  0
LINE
  5
79
330
A
100
AcDbEntity
  8
1
  6
Continuous
 62
     3
100
AcDbLine
 10
-404.6999999999999
 20
438.200000000001
 30
0.0
 11
-396.0
 21
438.200000000001
 31
0.0
  0
LINE
  5
78
330
A
100
AcDbEntity
  8
1
  6
Continuous
 62
     3
100
AcDbLine
 10
-396.0
 20
438.200000000001
 30
0.0
 11
-396.0
 21
439.5000000000009
 31
0.0
  0
LINE
  5
77
330
A
100
AcDbEntity
  8
1
  6
Continuous
 62
     3
100
AcDbLine
 10
-396.0
 20
439.5000000000009
 30
0.0
 11
-404.6999999999999
 21
439.5000000000009
 31
0.0
  0
LINE
  5
76
330
A
100
AcDbEntity
  8
1
  6
Continuous
 62
     3
100
AcDbLine
 10
-404.6999999999999
 20
445.8
 30
0.0
 11
-396.0
 21
445.8
 31
0.0
  0
LINE
  5
75
330
A
100
AcDbEntity
  8
1
  6
Continuous
 62
     3
100
AcDbLine
 10
-396.0
 20
445.8
 30
0.0
 11
-396.0
 21
444.500000000001
 31
0.0
  0
LINE
  5
74
330
A
100
AcDbEntity
  8
1
  6
Continuous
 62
     3
100
AcDbLine
 10
-396.0
 20
444.500000000001
 30
0.0
 11
-404.6999999999989
 21
444.500000000001
 31
0.0
  0
LINE
  5
73
330
A
100
AcDbEntity
  8
1
  6
Continuous
 62
     3
100
AcDbLine
 10
-404.6999999999989
 20
447.5000000000009
 30
0.0
 11
-405.4999999999999
 21
447.5000000000009
 31
0.0
  0
LINE
  5
72
330
A
100
AcDbEntity
  8
1
  6
Continuous
 62
     3
100
AcDbLine
 10
-405.4999999999999
 20
448.500000000001
 30
0.0
 11
-405.4999999999999
 21
435.500000000001
 31
0.0
  0
LINE
  5
71
330
A
100
AcDbEntity
  8
1
  6
Continuous
 62
     3
100
AcDbLine
 10
-405.4999999999999
 20
435.500000000001
 30
0.0
 11
-407.5
 21
435.500000000001
 31
0.0
  0
LINE
  5
70
330
A
100
AcDbEntity
  8
1
  6
Continuous
 62
     3
100
AcDbLine
 10
-404.6999999999989
 20
437.0000000000009
 30
0.0
 11
-405.4999999999999
 21
437.0000000000009
 31
0.0
  0
LINE
  5
6F
330
A
100
AcDbEntity
  8
1
  6
Continuous
 62
     3
100
AcDbLine
 10
-407.5
 20
439.5000000000009
 30
0.0
 11
-405.4999999999999
 21
439.5000000000009
 31
0.0
  0
LINE
  5
6E
330
A
100
AcDbEntity
  8
1
  6
Continuous
 62
     3
100
AcDbLine
 10
-405.4999999999999
 20
438.200000000001
 30
0.0
 11
-407.5
 21
438.200000000001
 31
0.0
  0
LINE
  5
6D
330
A
100
AcDbEntity
  8
1
  6
Continuous
 62
     3
100
AcDbLine
 10
-404.6999999999999
 20
436.5000000000009
 30
0.0
 11
-405.4999999999999
 21
436.5000000000009
 31
0.0
  0
LINE
  5
6C
330
A
100
AcDbEntity
  8
1
  6
Continuous
 62
     3
100
AcDbLine
 10
-163.545949461154
 20
366.500006227843
 30
0.0
 11
-186.545949461154
 21
366.500006227843
 31
0.0
  0
LINE
  5
6B
330
A
100
AcDbEntity
  8
1
  6
Continuous
 62
     3
100
AcDbLine
 10
-162.045949461154
 20
404.000006227843
 30
0.0
 11
-162.045949461154
 21
368.000006227843
 31
0.0
  0
LINE
  5
6A
330
A
100
AcDbEntity
  8
1
  6
Continuous
 62
     3
100
AcDbLine
 10
-186.545949461154
 20
405.500006227843
 30
0.0
 11
-163.545949461154
 21
405.500006227843
 31
0.0
  0
LINE
  5
69
330
A
100
AcDbEntity
  8
1
  6
Continuous
 62
     3
100
AcDbLine
 10
-188.045949461154
 20
368.000006227843
 30
0.0
 11
-188.045949461154
 21
404.000006227843
 31
0.0
  0
LINE
  5
68
330
A
100
AcDbEntity
  8
1
  6
Continuous
 62
     3
100
AcDbLine
 10
-242.72021621448
 20
349.325739474517
 30
0.0
 11
-206.72021621448
 21
349.325739474517
 31
0.0
  0
LINE
  5
67
330
A
100
AcDbEntity
  8
1
  6
Continuous
 62
     3
100
AcDbLine
 10
-205.22021621448
 20
347.825739474517
 30
0.0
 11
-205.22021621448
 21
324.825739474517
 31
0.0
  0
LINE
  5
66
330
A
100
AcDbEntity
  8
1
  6
Continuous
 62
     3
100
AcDbLine
 10
-206.72021621448
 20
323.325739474517
 30
0.0
 11
-242.72021621448
 21
323.325739474517
 31
0.0
  0
LINE
  5
65
330
A
100
AcDbEntity
  8
1
  6
Continuous
 62
     3
100
AcDbLine
 10
-244.22021621448
 20
324.825739474517
 30
0.0
 11
-244.22021621448
 21
347.825739474517
 31
0.0
  0
LINE
  5
64
330
A
100
AcDbEntity
  8
1
  6
Continuous
 62
     3
100
AcDbLine
 10
-408.5500000000009
 20
420.0
 30
0.0
 11
-408.5500000000009
 21
416.880934120433
 31
0.0
  0
LINE
  5
63
330
A
100
AcDbEntity
  8
1
  6
Continuous
 62
     3
100
AcDbLine
 10
-149.636820809035
 20
366.778040308292
 30
0.0
 11
-150.085108545119
 21
365.105007700816
 31
0.0
  0
LINE
  5
62
330
A
100
AcDbEntity
  8
1
  6
Continuous
 62
     3
100
AcDbLine
 10
-147.96378820156
 20
367.226328044376
 30
0.0
 11
-149.636820809035
 21
366.778040308292
 31
0.0
  0
LINE
  5
61
330
A
100
AcDbEntity
  8
1
  6
Continuous
 62
     3
100
AcDbLine
 10
-146.739043330168
 20
366.001583172984
 30
0.0
 11
-147.96378820156
 21
367.226328044376
 31
0.0
  0
LINE
  5
60
330
A
100
AcDbEntity
  8
1
  6
Continuous
 62
     3
100
AcDbLine
 10
-147.187331066252
 20
364.328550565509
 30
0.0
 11
-146.739043330168
 21
366.001583172984
 31
0.0
  0
LINE
  5
5F
330
A
100
AcDbEntity
  8
1
  6
Continuous
 62
     3
100
AcDbLine
 10
-148.860363673728
 20
363.880262829425
 30
0.0
 11
-147.187331066252
 21
364.328550565509
 31
0.0
  0
LINE
  5
5E
330
A
100
AcDbEntity
  8
1
  6
Continuous
 62
     3
100
AcDbLine
 10
-150.085108545119
 20
365.105007700816
 30
0.0
 11
-148.860363673728
 21
363.880262829425
 31
0.0
  0
LINE
  5
5D
330
A
100
AcDbEntity
  8
1
  6
Continuous
 62
     3
100
AcDbLine
 10
-169.307068236826
 20
440.188403106261
 30
0.0
 11
-167.634035629351
 21
440.6366908423449
 31
0.0
  0
LINE
  5
5C
330
A
100
AcDbEntity
  8
1
  6
Continuous
 62
     3
100
AcDbLine
 10
-167.634035629351
 20
440.6366908423449
 30
0.0
 11
-167.185747893267
 21
442.309723449821
 31
0.0
  0
LINE
  5
5B
330
A
100
AcDbEntity
  8
1
  6
Continuous
 62
     3
100
AcDbLine
 10
-167.185747893267
 20
442.309723449821
 30
0.0
 11
-168.410492764658
 21
443.534468321213
 31
0.0
  0
LINE
  5
5A
330
A
100
AcDbEntity
  8
1
  6
Continuous
 62
     3
100
AcDbLine
 10
-168.410492764658
 20
443.534468321213
 30
0.0
 11
-170.083525372134
 21
443.086180585128
 31
0.0
  0
LINE
  5
59
330
A
100
AcDbEntity
  8
1
  6
Continuous
 62
     3
100
AcDbLine
 10
-170.083525372134
 20
443.086180585128
 30
0.0
 11
-170.531813108218
 21
441.4131479776529
 31
0.0
  0
LINE
  5
58
330
A
100
AcDbEntity
  8
1
  6
Continuous
 62
     3
100
AcDbLine
 10
-170.531813108218
 20
441.4131479776529
 30
0.0
 11
-169.307068236826
 21
440.188403106261
 31
0.0
  0
LINE
  5
57
330
A
100
AcDbEntity
  8
1
  6
Continuous
 62
     3
100
AcDbLine
 10
-243.942175906186
 20
461.083395405445
 30
0.0
 11
-243.493888170103
 21
462.756428012921
 31
0.0
  0
LINE
  5
56
330
A
100
AcDbEntity
  8
1
  6
Continuous
 62
     3
100
AcDbLine
 10
-243.493888170103
 20
462.756428012921
 30
0.0
 11
-244.718633041495
 21
463.9811728843119
 31
0.0
  0
LINE
  5
55
330
A
100
AcDbEntity
  8
1
  6
Continuous
 62
     3
100
AcDbLine
 10
-244.718633041495
 20
463.9811728843119
 30
0.0
 11
-246.39166564897
 21
463.5328851482279
 31
0.0
  0
LINE
  5
54
330
A
100
AcDbEntity
  8
1
  6
Continuous
 62
     3
100
AcDbLine
 10
-246.39166564897
 20
463.5328851482279
 30
0.0
 11
-246.839953385054
 21
461.8598525407519
 31
0.0
  0
LINE
  5
53
330
A
100
AcDbEntity
  8
1
  6
Continuous
 62
     3
100
AcDbLine
 10
-246.839953385054
 20
461.8598525407519
 30
0.0
 11
-245.615208513662
 21
460.6351076693609
 31
0.0
  0
LINE
  5
52
330
A
100
AcDbEntity
  8
1
  6
Continuous
 62
     3
100
AcDbLine
 10
-245.615208513662
 20
460.6351076693609
 30
0.0
 11
-243.942175906186
 21
461.083395405445
 31
0.0
  0
LINE
  5
51
330
A
100
AcDbEntity
  8
1
  6
Continuous
 62
     3
100
AcDbLine
 10
-299.35532388384
 20
406.894992299184
 30
0.0
 11
-300.580068755232
 21
408.119737170575
 31
0.0
  0
LINE
  5
50
330
A
100
AcDbEntity
  8
1
  6
Continuous
 62
     3
100
AcDbLine
 10
-300.580068755232
 20
408.119737170575
 30
0.0
 11
-302.2531013627081
 21
407.6714494344909
 31
0.0
  0
LINE
  5
4F
330
A
100
AcDbEntity
  8
1
  6
Continuous
 62
     3
100
AcDbLine
 10
-302.2531013627081
 20
407.6714494344909
 30
0.0
 11
-302.701389098791
 21
405.998416827016
 31
0.0
  0
LINE
  5
4E
330
A
100
AcDbEntity
  8
1
  6
Continuous
 62
     3
100
AcDbLine
 10
-302.701389098791
 20
405.998416827016
 30
0.0
 11
-301.4766442274
 21
404.7736719556239
 31
0.0
  0
LINE
  5
4D
330
A
100
AcDbEntity
  8
1
  6
Continuous
 62
     3
100
AcDbLine
 10
-301.4766442274
 20
404.7736719556239
 30
0.0
 11
-299.803611619924
 21
405.221959691708
 31
0.0
  0
LINE
  5
4C
330
A
100
AcDbEntity
  8
1
  6
Continuous
 62
     3
100
AcDbLine
 10
-299.803611619924
 20
405.221959691708
 30
0.0
 11
-299.35532388384
 21
406.894992299184
 31
0.0
  0
LINE
  5
4B
330
A
100
AcDbEntity
  8
1
  6
Continuous
 62
     3
100
AcDbLine
 10
-280.133364192133
 20
331.811596893739
 30
0.0
 11
-281.806396799609
 21
331.363309157655
 31
0.0
  0
LINE
  5
4A
330
A
100
AcDbEntity
  8
1
  6
Continuous
 62
     3
100
AcDbLine
 10
-281.806396799609
 20
331.363309157655
 30
0.0
 11
-282.254684535693
 21
329.690276550179
 31
0.0
  0
LINE
  5
49
330
A
100
AcDbEntity
  8
1
  6
Continuous
 62
     3
100
AcDbLine
 10
-282.254684535693
 20
329.690276550179
 30
0.0
 11
-281.029939664301
 21
328.465531678788
 31
0.0
  0
LINE
  5
48
330
A
100
AcDbEntity
  8
1
  6
Continuous
 62
     3
100
AcDbLine
 10
-281.029939664301
 20
328.465531678788
 30
0.0
 11
-279.356907056826
 21
328.913819414872
 31
0.0
  0
LINE
  5
47
330
A
100
AcDbEntity
  8
1
  6
Continuous
 62
     3
100
AcDbLine
 10
-279.356907056826
 20
328.913819414872
 30
0.0
 11
-278.908619320742
 21
330.586852022347
 31
0.0
  0
LINE
  5
46
330
A
100
AcDbEntity
  8
1
  6
Continuous
 62
     3
100
AcDbLine
 10
-278.908619320742
 20
330.586852022347
 30
0.0
 11
-280.133364192133
 21
331.811596893739
 31
0.0
  0
LINE
  5
45
330
A
100
AcDbEntity
  8
1
  6
Continuous
 62
     3
100
AcDbLine
 10
-205.498256522773
 20
310.916604594555
 30
0.0
 11
-205.946544258857
 21
309.243571987079
 31
0.0
  0
LINE
  5
44
330
A
100
AcDbEntity
  8
1
  6
Continuous
 62
     3
100
AcDbLine
 10
-205.946544258857
 20
309.243571987079
 30
0.0
 11
-204.721799387465
 21
308.018827115688
 31
0.0
  0
LINE
  5
43
330
A
100
AcDbEntity
  8
1
  6
Continuous
 62
     3
100
AcDbLine
 10
-204.721799387465
 20
308.018827115688
 30
0.0
 11
-203.04876677999
 21
308.467114851772
 31
0.0
  0
LINE
  5
42
330
A
100
AcDbEntity
  8
1
  6
Continuous
 62
     3
100
AcDbLine
 10
-203.04876677999
 20
308.467114851772
 30
0.0
 11
-202.600479043906
 21
310.140147459248
 31
0.0
  0
LINE
  5
41
330
A
100
AcDbEntity
  8
1
  6
Continuous
 62
     3
100
AcDbLine
 10
-202.600479043906
 20
310.140147459248
 30
0.0
 11
-203.825223915297
 21
311.364892330639
 31
0.0
  0
LINE
  5
40
330
A
100
AcDbEntity
  8
1
  6
Continuous
 62
     3
100
AcDbLine
 10
-203.825223915297
 20
311.364892330639
 30
0.0
 11
-205.498256522773
 21
310.916604594555
 31
0.0
  0
LINE
  5
3F
330
A
100
AcDbEntity
  8
1
  6
Continuous
 62
     3
100
AcDbLine
 10
-257.22021621448
 20
331.151724426985
 30
0.0
 11
-258.47021621448
 21
330.430036590499
 31
0.0
  0
LINE
  5
3E
330
A
100
AcDbEntity
  8
1
  6
Continuous
 62
     3
100
AcDbLine
 10
-258.47021621448
 20
330.430036590499
 30
0.0
 11
-258.47021621448
 21
328.986660917524
 31
0.0
  0
LINE
  5
3D
330
A
100
AcDbEntity
  8
1
  6
Continuous
 62
     3
100
AcDbLine
 10
-258.47021621448
 20
328.986660917524
 30
0.0
 11
-257.22021621448
 21
328.264973081037
 31
0.0
  0
LINE
  5
3C
330
A
100
AcDbEntity
  8
1
  6
Continuous
 62
     3
100
AcDbLine
 10
-257.22021621448
 20
328.264973081037
 30
0.0
 11
-255.97021621448
 21
328.986660917524
 31
0.0
  0
LINE
  5
3B
330
A
100
AcDbEntity
  8
1
  6
Continuous
 62
     3
100
AcDbLine
 10
-255.97021621448
 20
328.986660917524
 30
0.0
 11
-255.97021621448
 21
330.430036590499
 31
0.0
  0
LINE
  5
3A
330
A
100
AcDbEntity
  8
1
  6
Continuous
 62
     3
100
AcDbLine
 10
-255.97021621448
 20
330.430036590499
 30
0.0
 11
-257.22021621448
 21
331.151724426985
 31
0.0
  0
LINE
  5
39
330
A
100
AcDbEntity
  8
1
  6
Continuous
 62
     3
100
AcDbLine
 10
-169.150252804978
 20
354.75
 30
0.0
 11
-169.871940641465
 21
353.5
 31
0.0
  0
LINE
  5
38
330
A
100
AcDbEntity
  8
1
  6
Continuous
 62
     3
100
AcDbLine
 10
-167.706877132004
 20
354.75
 30
0.0
 11
-169.150252804978
 21
354.75
 31
0.0
  0
LINE
  5
37
330
A
100
AcDbEntity
  8
1
  6
Continuous
 62
     3
100
AcDbLine
 10
-166.985189295517
 20
353.5
 30
0.0
 11
-167.706877132004
 21
354.75
 31
0.0
  0
LINE
  5
36
330
A
100
AcDbEntity
  8
1
  6
Continuous
 62
     3
100
AcDbLine
 10
-167.706877132004
 20
352.25
 30
0.0
 11
-166.985189295517
 21
353.5
 31
0.0
  0
LINE
  5
35
330
A
100
AcDbEntity
  8
1
  6
Continuous
 62
     3
100
AcDbLine
 10
-169.150252804978
 20
352.25
 30
0.0
 11
-167.706877132004
 21
352.25
 31
0.0
  0
LINE
  5
34
330
A
100
AcDbEntity
  8
1
  6
Continuous
 62
     3
100
AcDbLine
 10
-169.871940641465
 20
353.5
 30
0.0
 11
-169.150252804978
 21
352.25
 31
0.0
  0
LINE
  5
33
330
A
100
AcDbEntity
  8
1
  6
Continuous
 62
     3
100
AcDbLine
 10
-193.47021621448
 20
441.569963409502
 30
0.0
 11
-192.22021621448
 21
440.8482755730149
 31
0.0
  0
LINE
  5
32
330
A
100
AcDbEntity
  8
1
  6
Continuous
 62
     3
100
AcDbLine
 10
-193.47021621448
 20
443.0133390824759
 30
0.0
 11
-193.47021621448
 21
441.569963409502
 31
0.0
  0
LINE
  5
31
330
A
100
AcDbEntity
  8
1
  6
Continuous
 62
     3
100
AcDbLine
 10
-192.22021621448
 20
443.735026918963
 30
0.0
 11
-193.47021621448
 21
443.0133390824759
 31
0.0
  0
LINE
  5
30
330
A
100
AcDbEntity
  8
1
  6
Continuous
 62
     3
100
AcDbLine
 10
-190.97021621448
 20
443.0133390824759
 30
0.0
 11
-192.22021621448
 21
443.735026918963
 31
0.0
  0
LINE
  5
2F
330
A
100
AcDbEntity
  8
1
  6
Continuous
 62
     3
100
AcDbLine
 10
-190.97021621448
 20
441.569963409502
 30
0.0
 11
-190.97021621448
 21
443.0133390824759
 31
0.0
  0
LINE
  5
2E
330
A
100
AcDbEntity
  8
1
  6
Continuous
 62
     3
100
AcDbLine
 10
-192.22021621448
 20
440.8482755730149
 30
0.0
 11
-190.97021621448
 21
441.569963409502
 31
0.0
  0
LINE
  5
2D
330
A
100
AcDbEntity
  8
1
  6
Continuous
 62
     3
100
AcDbLine
 10
-280.290179623981
 20
417.25
 30
0.0
 11
-279.568491787494
 21
418.5
 31
0.0
  0
LINE
  5
2C
330
A
100
AcDbEntity
  8
1
  6
Continuous
 62
     3
100
AcDbLine
 10
-281.733555296956
 20
417.25
 30
0.0
 11
-280.290179623981
 21
417.25
 31
0.0
  0
LINE
  5
2B
330
A
100
AcDbEntity
  8
1
  6
Continuous
 62
     3
100
AcDbLine
 10
-282.455243133442
 20
418.5
 30
0.0
 11
-281.733555296956
 21
417.25
 31
0.0
  0
LINE
  5
2A
330
A
100
AcDbEntity
  8
1
  6
Continuous
 62
     3
100
AcDbLine
 10
-281.733555296956
 20
419.7499999999999
 30
0.0
 11
-282.455243133442
 21
418.5
 31
0.0
  0
LINE
  5
29
330
A
100
AcDbEntity
  8
1
  6
Continuous
 62
     3
100
AcDbLine
 10
-280.290179623981
 20
419.7499999999999
 30
0.0
 11
-281.733555296956
 21
419.7499999999999
 31
0.0
  0
LINE
  5
28
330
A
100
AcDbEntity
  8
1
  6
Continuous
 62
     3
100
AcDbLine
 10
-279.568491787494
 20
418.5
 30
0.0
 11
-280.290179623981
 21
419.7499999999999
 31
0.0
  0
ENDSEC
  0
SECTION
  2
OBJECTS
  0
DICTIONARY
  5
19
330
0
100
AcDbDictionary
281
     1
  3
ACAD_CIP_PREVIOUS_PRODUCT_INFO
350
38E
  3
ACAD_COLOR
350
371
  3
ACAD_GROUP
350
1A
  3
ACAD_LAYOUT
350
388
  3
ACAD_MATERIAL
350
33F
  3
ACAD_MLEADERSTYLE
350
386
  3
ACAD_MLINESTYLE
350
1B
  3
ACAD_PLOTSETTINGS
350
389
  3
ACAD_PLOTSTYLENAME
350
33D
  3
ACAD_SCALELIST
350
374
  3
ACAD_TABLESTYLE
350
372
  3
ACAD_VISUALSTYLE
350
358
  3
ACDB_RECOMPOSE_DATA
350
397
  3
AcDbVariableDictionary
350
38F
  0
XRECORD
  5
38E
102
{ACAD_REACTORS
330
19
102
}
330
19
100
AcDbXrecord
280
     1
300
ACDLT
300
2012
300
ACDLT_F_S
  0
DICTIONARY
  5
371
102
{ACAD_REACTORS
330
19
102
}
330
19
100
AcDbDictionary
281
     1
  0
DICTIONARY
  5
1A
102
{ACAD_REACTORS
330
19
102
}
330
19
100
AcDbDictionary
281
     1
  0
DICTIONARY
  5
388
102
{ACAD_REACTORS
330
19
102
}
330
19
100
AcDbDictionary
281
     1
  3
Layout1
350
38B
  3
Model
350
38A
  0
DICTIONARY
  5
33F
102
{ACAD_REACTORS
330
19
102
}
330
19
100
AcDbDictionary
281
     1
  3
ByBlock
350
348
  3
ByLayer
350
340
  3
Global
350
350
  0
DICTIONARY
  5
386
102
{ACAD_REACTORS
330
19
102
}
330
19
100
AcDbDictionary
281
     1
  3
Standard
350
387
  0
DICTIONARY
  5
1B
102
{ACAD_REACTORS
330
19
102
}
330
19
100
AcDbDictionary
281
     1
  3
STANDARD
350
1C
  0
DICTIONARY
  5
389
102
{ACAD_REACTORS
330
19
102
}
330
19
100
AcDbDictionary
281
     1
  0
ACDBDICTIONARYWDFLT
  5
33D
102
{ACAD_REACTORS
330
19
102
}
330
19
100
AcDbDictionary
281
     1
  3
Normal
350
33E
100
AcDbDictionaryWithDefault
340
33E
  0
DICTIONARY
  5
374
102
{ACAD_REACTORS
330
19
102
}
330
19
100
AcDbDictionary
281
     1
  3
A0
350
375
  3
A1
350
376
  3
A2
350
377
  3
A3
350
378
  3
A4
350
379
  3
A5
350
37A
  3
A6
350
37B
  3
A7
350
37C
  3
A8
350
37D
  3
A9
350
37E
  3
B0
350
37F
  3
B1
350
380
  3
B2
350
381
  3
B3
350
382
  3
B4
350
383
  3
B5
350
384
  3
B6
350
385
  0
DICTIONARY
  5
372
102
{ACAD_REACTORS
330
19
102
}
330
19
100
AcDbDictionary
281
     1
  3
Standard
350
373
  0
DICTIONARY
  5
358
102
{ACAD_REACTORS
330
19
102
}
330
19
100
AcDbDictionary
281
     1
  3
2dWireframe
350
35E
  3
Basic
350
35D
  3
Brighten
350
364
  3
ColorChange
350
368
  3
Conceptual
350
361
  3
Dim
350
363
  3
EdgeColorOff
350
370
  3
Facepattern
350
367
  3
Flat
350
359
  3
FlatWithEdges
350
35A
  3
Gouraud
350
35B
  3
GouraudWithEdges
350
35C
  3
Hidden
350
360
  3
JitterOff
350
36E
  3
Linepattern
350
366
  3
OverhangOff
350
36F
  3
Realistic
350
362
  3
Shaded
350
36D
  3
Shaded with edges
350
36C
  3
Shades of Gray
350
369
  3
Sketchy
350
36A
  3
Thicken
350
365
  3
Wireframe
350
35F
  3
X-Ray
350
36B
  0
XRECORD
  5
397
102
{ACAD_REACTORS
330
19
102
}
330
19
100
AcDbXrecord
280
     1
 90
        1
330
373
  0
DICTIONARY
  5
38F
102
{ACAD_REACTORS
330
19
102
}
330
19
100
AcDbDictionary
281
     1
  3
CANNOSCALE
350
392
  3
CMLEADERSTYLE
350
391
  3
CTABLESTYLE
350
390
  3
XCLIPFRAME
350
393
  0
LAYOUT
  5
38B
102
{ACAD_REACTORS
330
388
102
}
330
388
100
AcDbPlotSettings
  1

  2
Adobe PDF
  4

  6

 40
0.0
 41
0.0
 42
0.0
 43
0.0
 44
0.0
 45
0.0
 46
0.0
 47
0.0
 48
0.0
 49
0.0
140
0.0
141
0.0
142
1.0
143
1.0
 70
   688
 72
     0
 73
     0
 74
     5
  7

 75
    16
147
1.0
 76
     0
 77
     2
 78
   300
148
0.0
149
0.0
100
AcDbLayout
  1
Layout1
 70
     0
 71
     1
 10
0.0
 20
0.0
 11
12.0
 21
9.0
 12
0.0
 22
0.0
 32
0.0
 14
1.000000000000000E+20
 24
1.000000000000000E+20
 34
1.000000000000000E+20
 15
-1.000000000000000E+20
 25
-1.000000000000000E+20
 35
-1.000000000000000E+20
146
0.0
 13
0.0
 23
0.0
 33
0.0
 16
1.0
 26
0.0
 36
0.0
 17
0.0
 27
1.0
 37
0.0
 76
     0
330
B
  0
LAYOUT
  5
38A
102
{ACAD_REACTORS
330
388
102
}
330
388
100
AcDbPlotSettings
  1

  2
Adobe PDF
  4

  6

 40
0.0
 41
0.0
 42
0.0
 43
0.0
 44
0.0
 45
0.0
 46
0.0
 47
0.0
 48
0.0
 49
0.0
140
0.0
141
0.0
142
1.0
143
1.0
 70
  1712
 72
     0
 73
     0
 74
     0
  7

 75
     0
147
1.0
 76
     0
 77
     2
 78
   300
148
0.0
149
0.0
100
AcDbLayout
  1
Model
 70
     1
 71
     0
 10
0.0
 20
0.0
 11
12.0
 21
9.0
 12
0.0
 22
0.0
 32
0.0
 14
0.0
 24
0.0
 34
0.0
 15
0.0
 25
0.0
 35
0.0
146
0.0
 13
0.0
 23
0.0
 33
0.0
 16
1.0
 26
0.0
 36
0.0
 17
0.0
 27
1.0
 37
0.0
 76
     0
330
A
331
15
  0
MATERIAL
  5
348
102
{ACAD_XDICTIONARY
360
349
102
}
102
{ACAD_REACTORS
330
33F
102
}
330
33F
100
AcDbMaterial
  1
ByBlock
 72
     0
 43
0.0208333333333333
 43
0.0
 43
0.0
 43
0.0
 43
0.0
 43
0.0208333333333333
 43
0.0
 43
0.0
 43
0.0
 43
0.0
 43
1.0
 43
0.0
 43
0.0
 43
0.0
 43
0.0
 43
1.0
 77
     0
 47
0.0208333333333333
 47
0.0
 47
0.0
 47
0.0
 47
0.0
 47
0.0208333333333333
 47
0.0
 47
0.0
 47
0.0
 47
0.0
 47
1.0
 47
0.0
 47
0.0
 47
0.0
 47
0.0
 47
1.0
171
     0
 49
0.0208333333333333
 49
0.0
 49
0.0
 49
0.0
 49
0.0
 49
0.0208333333333333
 49
0.0
 49
0.0
 49
0.0
 49
0.0
 49
1.0
 49
0.0
 49
0.0
 49
0.0
 49
0.0
 49
1.0
175
     0
142
0.0208333333333333
142
0.0
142
0.0
142
0.0
142
0.0
142
0.0208333333333333
142
0.0
142
0.0
142
0.0
142
0.0
142
1.0
142
0.0
142
0.0
142
0.0
142
0.0
142
1.0
179
     0
144
0.0208333333333333
144
0.0
144
0.0
144
0.0
144
0.0
144
0.0208333333333333
144
0.0
144
0.0
144
0.0
144
0.0
144
1.0
144
0.0
144
0.0
144
0.0
144
0.0
144
1.0
147
0.0208333333333333
147
0.0
147
0.0
147
0.0
147
0.0
147
0.0208333333333333
147
0.0
147
0.0
147
0.0
147
0.0
147
1.0
147
0.0
147
0.0
147
0.0
147
0.0
147
1.0
  0
MATERIAL
  5
340
102
{ACAD_XDICTIONARY
360
341
102
}
102
{ACAD_REACTORS
330
33F
102
}
330
33F
100
AcDbMaterial
  1
ByLayer
 72
     0
 43
0.0208333333333333
 43
0.0
 43
0.0
 43
0.0
 43
0.0
 43
0.0208333333333333
 43
0.0
 43
0.0
 43
0.0
 43
0.0
 43
1.0
 43
0.0
 43
0.0
 43
0.0
 43
0.0
 43
1.0
 77
     0
 47
0.0208333333333333
 47
0.0
 47
0.0
 47
0.0
 47
0.0
 47
0.0208333333333333
 47
0.0
 47
0.0
 47
0.0
 47
0.0
 47
1.0
 47
0.0
 47
0.0
 47
0.0
 47
0.0
 47
1.0
171
     0
 49
0.0208333333333333
 49
0.0
 49
0.0
 49
0.0
 49
0.0
 49
0.0208333333333333
 49
0.0
 49
0.0
 49
0.0
 49
0.0
 49
1.0
 49
0.0
 49
0.0
 49
0.0
 49
0.0
 49
1.0
175
     0
142
0.0208333333333333
142
0.0
142
0.0
142
0.0
142
0.0
142
0.0208333333333333
142
0.0
142
0.0
142
0.0
142
0.0
142
1.0
142
0.0
142
0.0
142
0.0
142
0.0
142
1.0
179
     0
144
0.0208333333333333
144
0.0
144
0.0
144
0.0
144
0.0
144
0.0208333333333333
144
0.0
144
0.0
144
0.0
144
0.0
144
1.0
144
0.0
144
0.0
144
0.0
144
0.0
144
1.0
147
0.0208333333333333
147
0.0
147
0.0
147
0.0
147
0.0
147
0.0208333333333333
147
0.0
147
0.0
147
0.0
147
0.0
147
1.0
147
0.0
147
0.0
147
0.0
147
0.0
147
1.0
  0
MATERIAL
  5
350
102
{ACAD_XDICTIONARY
360
351
102
}
102
{ACAD_REACTORS
330
33F
102
}
330
33F
100
AcDbMaterial
  1
Global
 72
     0
 43
0.0208333333333333
 43
0.0
 43
0.0
 43
0.0
 43
0.0
 43
0.0208333333333333
 43
0.0
 43
0.0
 43
0.0
 43
0.0
 43
1.0
 43
0.0
 43
0.0
 43
0.0
 43
0.0
 43
1.0
 77
     0
 47
0.0208333333333333
 47
0.0
 47
0.0
 47
0.0
 47
0.0
 47
0.0208333333333333
 47
0.0
 47
0.0
 47
0.0
 47
0.0
 47
1.0
 47
0.0
 47
0.0
 47
0.0
 47
0.0
 47
1.0
171
     0
 49
0.0208333333333333
 49
0.0
 49
0.0
 49
0.0
 49
0.0
 49
0.0208333333333333
 49
0.0
 49
0.0
 49
0.0
 49
0.0
 49
1.0
 49
0.0
 49
0.0
 49
0.0
 49
0.0
 49
1.0
175
     0
142
0.0208333333333333
142
0.0
142
0.0
142
0.0
142
0.0
142
0.0208333333333333
142
0.0
142
0.0
142
0.0
142
0.0
142
1.0
142
0.0
142
0.0
142
0.0
142
0.0
142
1.0
179
     0
144
0.0208333333333333
144
0.0
144
0.0
144
0.0
144
0.0
144
0.0208333333333333
144
0.0
144
0.0
144
0.0
144
0.0
144
1.0
144
0.0
144
0.0
144
0.0
144
0.0
144
1.0
147
0.0208333333333333
147
0.0
147
0.0
147
0.0
147
0.0
147
0.0208333333333333
147
0.0
147
0.0
147
0.0
147
0.0
147
1.0
147
0.0
147
0.0
147
0.0
147
0.0
147
1.0
  0
MLEADERSTYLE
  5
387
102
{ACAD_REACTORS
330
386
102
}
330
386
100
AcDbMLeaderStyle
170
     2
171
     1
172
     0
 90
        2
 40
0.0
 41
0.0
173
     1
 91
-1056964608
340
11
 92
       -2
290
     1
 42
0.09
291
     1
 43
0.36
  3
Standard
 44
0.18
300

342
17
174
     1
178
     6
175
     1
176
     0
 93
-1056964608
 45
0.18
292
     0
297
     0
 46
0.18
 94
-1056964608
 47
1.0
 49
1.0
140
1.0
293
     1
141
0.0
294
     1
177
     0
142
1.0
295
     0
296
     0
143
0.125
1001
ACAD_MLEADERVER
1070
     2
  0
MLINESTYLE
  5
1C
102
{ACAD_REACTORS
330
1B
102
}
330
1B
100
AcDbMlineStyle
  2
STANDARD
 70
     0
  3

 62
     0
 51
90.0
 52
90.0
 71
     2
 49
0.5
 62
   256
  6
BYLAYER
 49
-0.5
 62
   256
  6
BYLAYER
  0
ACDBPLACEHOLDER
  5
33E
102
{ACAD_REACTORS
330
33D
102
}
330
33D
  0
SCALE
  5
375
102
{ACAD_REACTORS
330
374
102
}
330
374
100
AcDbScale
 70
     0
300
1:1
140
1.0
141
1.0
290
     1
  0
SCALE
  5
376
102
{ACAD_REACTORS
330
374
102
}
330
374
100
AcDbScale
 70
     0
300
1/128" = 1'-0"
140
0.0078125
141
12.0
290
     0
  0
SCALE
  5
377
102
{ACAD_REACTORS
330
374
102
}
330
374
100
AcDbScale
 70
     0
300
1/64" = 1'-0"
140
0.015625
141
12.0
290
     0
  0
SCALE
  5
378
102
{ACAD_REACTORS
330
374
102
}
330
374
100
AcDbScale
 70
     0
300
1/32" = 1'-0"
140
0.03125
141
12.0
290
     0
  0
SCALE
  5
379
102
{ACAD_REACTORS
330
374
102
}
330
374
100
AcDbScale
 70
     0
300
1/16" = 1'-0"
140
0.0625
141
12.0
290
     0
  0
SCALE
  5
37A
102
{ACAD_REACTORS
330
374
102
}
330
374
100
AcDbScale
 70
     0
300
3/32" = 1'-0"
140
0.09375
141
12.0
290
     0
  0
SCALE
  5
37B
102
{ACAD_REACTORS
330
374
102
}
330
374
100
AcDbScale
 70
     0
300
1/8" = 1'-0"
140
0.125
141
12.0
290
     0
  0
SCALE
  5
37C
102
{ACAD_REACTORS
330
374
102
}
330
374
100
AcDbScale
 70
     0
300
3/16" = 1'-0"
140
0.1875
141
12.0
290
     0
  0
SCALE
  5
37D
102
{ACAD_REACTORS
330
374
102
}
330
374
100
AcDbScale
 70
     0
300
1/4" = 1'-0"
140
0.25
141
12.0
290
     0
  0
SCALE
  5
37E
102
{ACAD_REACTORS
330
374
102
}
330
374
100
AcDbScale
 70
     0
300
3/8" = 1'-0"
140
0.375
141
12.0
290
     0
  0
SCALE
  5
37F
102
{ACAD_REACTORS
330
374
102
}
330
374
100
AcDbScale
 70
     0
300
1/2" = 1'-0"
140
0.5
141
12.0
290
     0
  0
SCALE
  5
380
102
{ACAD_REACTORS
330
374
102
}
330
374
100
AcDbScale
 70
     0
300
3/4" = 1'-0"
140
0.75
141
12.0
290
     0
  0
SCALE
  5
381
102
{ACAD_REACTORS
330
374
102
}
330
374
100
AcDbScale
 70
     0
300
1" = 1'-0"
140
1.0
141
12.0
290
     0
  0
SCALE
  5
382
102
{ACAD_REACTORS
330
374
102
}
330
374
100
AcDbScale
 70
     0
300
1-1/2" = 1'-0"
140
1.5
141
12.0
290
     0
  0
SCALE
  5
383
102
{ACAD_REACTORS
330
374
102
}
330
374
100
AcDbScale
 70
     0
300
3" = 1'-0"
140
3.0
141
12.0
290
     0
  0
SCALE
  5
384
102
{ACAD_REACTORS
330
374
102
}
330
374
100
AcDbScale
 70
     0
300
6" = 1'-0"
140
6.0
141
12.0
290
     0
  0
SCALE
  5
385
102
{ACAD_REACTORS
330
374
102
}
330
374
100
AcDbScale
 70
     0
300
1'-0" = 1'-0"
140
12.0
141
12.0
290
     0
  0
TABLESTYLE
  5
373
102
{ACAD_XDICTIONARY
360
395
102
}
102
{ACAD_REACTORS
330
372
102
}
330
372
100
AcDbTableStyle
  3
Standard
 70
     0
 71
     0
 40
0.06
 41
0.06
280
     0
281
     0
  7
STANDARD
140
0.18
170
     2
 62
     0
 63
     7
283
     0
274
    -2
284
     1
 64
     0
275
    -2
285
     1
 65
     0
276
    -2
286
     1
 66
     0
277
    -2
287
     1
 67
     0
278
    -2
288
     1
 68
     0
279
    -2
289
     1
 69
     0
  7
STANDARD
140
0.25
170
     5
 62
     0
 63
     7
283
     0
274
    -2
284
     1
 64
     0
275
    -2
285
     1
 65
     0
276
    -2
286
     1
 66
     0
277
    -2
287
     1
 67
     0
278
    -2
288
     1
 68
     0
279
    -2
289
     1
 69
     0
  7
STANDARD
140
0.18
170
     5
 62
     0
 63
     7
283
     0
274
    -2
284
     1
 64
     0
275
    -2
285
     1
 65
     0
276
    -2
286
     1
 66
     0
277
    -2
287
     1
 67
     0
278
    -2
288
     1
 68
     0
279
    -2
289
     1
 69
     0
  0
VISUALSTYLE
  5
35E
102
{ACAD_XDICTIONARY
360
3A5
102
}
102
{ACAD_REACTORS
330
358
102
}
330
358
100
AcDbVisualStyle
  2
2dWireframe
 70
     4
 71
     0
 72
     2
 73
     0
 90
        0
 40
-0.6
 41
-30.0
 62
     5
 63
     7
421
 16777215
 74
     1
 91
        4
 64
     7
 65
   257
 75
     1
175
     1
 42
1.0
 92
        0
 66
   257
 43
1.0
 76
     1
 77
     6
 78
     2
 67
     7
 79
     5
170
     0
171
     0
290
     0
174
     0
 93
        1
 44
0.0
173
     0
291
     0
 45
0.0
1001
ACAD
1000
AcDbSavedByObjectVersion
1070
     0
  0
VISUALSTYLE
  5
35D
102
{ACAD_XDICTIONARY
360
3A3
102
}
102
{ACAD_REACTORS
330
358
102
}
330
358
100
AcDbVisualStyle
  2
Basic
 70
     7
 71
     1
 72
     0
 73
     1
 90
        0
 40
-0.6
 41
-30.0
 62
     5
 63
     7
421
 16777215
 74
     0
 91
        4
 64
     7
 65
   257
 75
     1
175
     1
 42
1.0
 92
        8
 66
     7
 43
1.0
 76
     1
 77
     6
 78
     2
 67
     7
 79
     5
170
     0
171
     0
290
     0
174
     0
 93
        1
 44
0.0
173
     0
291
     1
 45
0.0
1001
ACAD
1000
AcDbSavedByObjectVersion
1070
     0
  0
VISUALSTYLE
  5
364
102
{ACAD_XDICTIONARY
360
3B1
102
}
102
{ACAD_REACTORS
330
358
102
}
330
358
100
AcDbVisualStyle
  2
Brighten
 70
    12
 71
     2
 72
     2
 73
     0
 90
        0
 40
-0.6
 41
-30.0
 62
     5
 63
     7
421
 16777215
 74
     1
 91
        4
 64
     7
 65
   257
 75
     1
175
     1
 42
1.0
 92
        8
 66
     7
 43
1.0
 76
     1
 77
     6
 78
     2
 67
     7
 79
     5
170
     0
171
     0
290
     0
174
     0
 93
        1
 44
50.0
173
     0
291
     1
 45
0.0
1001
ACAD
1000
AcDbSavedByObjectVersion
1070
     0
  0
VISUALSTYLE
  5
368
102
{ACAD_XDICTIONARY
360
3B9
102
}
102
{ACAD_REACTORS
330
358
102
}
330
358
100
AcDbVisualStyle
  2
ColorChange
 70
    16
 71
     2
 72
     2
 73
     3
 90
        0
 40
-0.6
 41
-30.0
 62
     5
 63
     8
421
  8421504
 74
     1
 91
        4
 64
     7
 65
   257
 75
     1
175
     1
 42
1.0
 92
        8
 66
     8
424
  8421504
 43
1.0
 76
     1
 77
     6
 78
     2
 67
     7
 79
     5
170
     0
171
     0
290
     0
174
     0
 93
        1
 44
0.0
173
     0
291
     1
 45
0.0
1001
ACAD
1000
AcDbSavedByObjectVersion
1070
     0
  0
VISUALSTYLE
  5
361
102
{ACAD_XDICTIONARY
360
3AB
102
}
102
{ACAD_REACTORS
330
358
102
}
330
358
100
AcDbVisualStyle
  2
Conceptual
 70
     9
 71
     3
 72
     2
 73
     0
 90
        0
 40
-0.6
 41
-30.0
 62
     5
 63
     7
421
 16777215
 74
     2
 91
        2
 64
     7
 65
   257
 75
     1
175
     1
 42
179.0
 92
        8
 66
     7
 43
1.0
 76
     1
 77
     6
 78
     2
 67
     7
 79
     3
170
     0
171
     0
290
     0
174
     0
 93
        1
 44
0.0
173
     0
291
     0
 45
0.0
1001
ACAD
1000
AcDbSavedByObjectVersion
1070
     0
  0
VISUALSTYLE
  5
363
102
{ACAD_XDICTIONARY
360
3AF
102
}
102
{ACAD_REACTORS
330
358
102
}
330
358
100
AcDbVisualStyle
  2
Dim
 70
    11
 71
     2
 72
     2
 73
     0
 90
        0
 40
-0.6
 41
-30.0
 62
     5
 63
     7
421
 16777215
 74
     1
 91
        4
 64
     7
 65
   257
 75
     1
175
     1
 42
1.0
 92
        8
 66
     7
 43
1.0
 76
     1
 77
     6
 78
     2
 67
     7
 79
     5
170
     0
171
     0
290
     0
174
     0
 93
        1
 44
-50.0
173
     0
291
     1
 45
0.0
1001
ACAD
1000
AcDbSavedByObjectVersion
1070
     0
  0
VISUALSTYLE
  5
370
102
{ACAD_XDICTIONARY
360
3C9
102
}
102
{ACAD_REACTORS
330
358
102
}
330
358
100
AcDbVisualStyle
  2
EdgeColorOff
 70
    22
 71
     2
 72
     2
 73
     0
 90
        0
 40
-0.6
 41
-30.0
 62
     5
 63
     7
421
 16777215
 74
     1
 91
        4
 64
     7
 65
   257
 75
     1
175
     1
 42
1.0
 92
        8
 66
     7
 43
1.0
 76
     1
 77
     6
 78
     2
 67
     7
 79
     5
170
     0
171
     0
290
     0
174
     0
 93
        1
 44
0.0
173
     0
291
     1
 45
0.0
1001
ACAD
1000
AcDbSavedByObjectVersion
1070
     0
  0
VISUALSTYLE
  5
367
102
{ACAD_XDICTIONARY
360
3B7
102
}
102
{ACAD_REACTORS
330
358
102
}
330
358
100
AcDbVisualStyle
  2
Facepattern
 70
    15
 71
     2
 72
     2
 73
     0
 90
        0
 40
-0.6
 41
-30.0
 62
     5
 63
     7
421
 16777215
 74
     1
 91
        4
 64
     7
 65
   257
 75
     1
175
     1
 42
1.0
 92
        8
 66
     7
 43
1.0
 76
     1
 77
     6
 78
     2
 67
     7
 79
     5
170
     0
171
     0
290
     0
174
     0
 93
        1
 44
0.0
173
     0
291
     1
 45
0.0
1001
ACAD
1000
AcDbSavedByObjectVersion
1070
     0
  0
VISUALSTYLE
  5
359
102
{ACAD_XDICTIONARY
360
39B
102
}
102
{ACAD_REACTORS
330
358
102
}
330
358
100
AcDbVisualStyle
  2
Flat
 70
     0
 71
     2
 72
     1
 73
     1
 90
        2
 40
-0.6
 41
30.0
 62
     5
 63
     7
421
 16777215
 74
     0
 91
        0
 64
     7
 65
   257
 75
     1
175
     1
 42
1.0
 92
        8
 66
     7
 43
1.0
 76
     1
 77
     6
 78
     2
 67
     7
 79
     5
170
     0
171
     0
290
     0
174
     0
 93
       13
 44
0.0
173
     0
291
     1
 45
0.0
1001
ACAD
1000
AcDbSavedByObjectVersion
1070
     0
  0
VISUALSTYLE
  5
35A
102
{ACAD_XDICTIONARY
360
39D
102
}
102
{ACAD_REACTORS
330
358
102
}
330
358
100
AcDbVisualStyle
  2
FlatWithEdges
 70
     1
 71
     2
 72
     1
 73
     1
 90
        2
 40
-0.6
 41
30.0
 62
     5
 63
     7
421
 16777215
 74
     1
 91
        0
 64
     7
 65
   257
 75
     1
175
     1
 42
1.0
 92
        0
 66
   257
 43
1.0
 76
     1
 77
     6
 78
     2
 67
     7
 79
     5
170
     0
171
     0
290
     0
174
     0
 93
       13
 44
0.0
173
     0
291
     1
 45
0.0
1001
ACAD
1000
AcDbSavedByObjectVersion
1070
     0
  0
VISUALSTYLE
  5
35B
102
{ACAD_XDICTIONARY
360
39F
102
}
102
{ACAD_REACTORS
330
358
102
}
330
358
100
AcDbVisualStyle
  2
Gouraud
 70
     2
 71
     2
 72
     2
 73
     1
 90
        2
 40
-0.6
 41
30.0
 62
     5
 63
     7
421
 16777215
 74
     0
 91
        0
 64
     7
 65
   257
 75
     1
175
     1
 42
1.0
 92
        0
 66
     7
 43
1.0
 76
     1
 77
     6
 78
     2
 67
     7
 79
     5
170
     0
171
     0
290
     0
174
     0
 93
       13
 44
0.0
173
     0
291
     1
 45
0.0
1001
ACAD
1000
AcDbSavedByObjectVersion
1070
     0
  0
VISUALSTYLE
  5
35C
102
{ACAD_XDICTIONARY
360
3A1
102
}
102
{ACAD_REACTORS
330
358
102
}
330
358
100
AcDbVisualStyle
  2
GouraudWithEdges
 70
     3
 71
     2
 72
     2
 73
     1
 90
        2
 40
-0.6
 41
30.0
 62
     5
 63
     7
421
 16777215
 74
     1
 91
        0
 64
     7
 65
   257
 75
     1
175
     1
 42
1.0
 92
        0
 66
   257
 43
1.0
 76
     1
 77
     6
 78
     2
 67
     7
 79
     5
170
     0
171
     0
290
     0
174
     0
 93
       13
 44
0.0
173
     0
291
     1
 45
0.0
1001
ACAD
1000
AcDbSavedByObjectVersion
1070
     0
  0
VISUALSTYLE
  5
360
102
{ACAD_XDICTIONARY
360
3A9
102
}
102
{ACAD_REACTORS
330
358
102
}
330
358
100
AcDbVisualStyle
  2
Hidden
 70
     6
 71
     1
 72
     2
 73
     2
 90
        0
 40
-0.6
 41
-30.0
 62
     5
 63
     7
421
 16777215
 74
     2
 91
        2
 64
     7
 65
   257
 75
     2
175
     1
 42
40.0
 92
        0
 66
   257
 43
1.0
 76
     1
 77
     6
 78
     2
 67
     7
 79
     3
170
     0
171
     0
290
     0
174
     0
 93
        1
 44
0.0
173
     0
291
     0
 45
0.0
1001
ACAD
1000
AcDbSavedByObjectVersion
1070
     0
  0
VISUALSTYLE
  5
36E
102
{ACAD_XDICTIONARY
360
3C5
102
}
102
{ACAD_REACTORS
330
358
102
}
330
358
100
AcDbVisualStyle
  2
JitterOff
 70
    20
 71
     2
 72
     2
 73
     0
 90
        0
 40
-0.6
 41
-30.0
 62
     5
 63
     7
421
 16777215
 74
     1
 91
        4
 64
     7
 65
   257
 75
     1
175
     1
 42
1.0
 92
       10
 66
     7
 43
1.0
 76
     1
 77
     6
 78
     2
 67
     7
 79
     5
170
     0
171
     0
290
     0
174
     0
 93
        1
 44
0.0
173
     0
291
     1
 45
0.0
1001
ACAD
1000
AcDbSavedByObjectVersion
1070
     0
  0
VISUALSTYLE
  5
366
102
{ACAD_XDICTIONARY
360
3B5
102
}
102
{ACAD_REACTORS
330
358
102
}
330
358
100
AcDbVisualStyle
  2
Linepattern
 70
    14
 71
     2
 72
     2
 73
     0
 90
        0
 40
-0.6
 41
-30.0
 62
     5
 63
     7
421
 16777215
 74
     1
 91
        4
 64
     7
 65
   257
 75
     7
175
     7
 42
1.0
 92
        8
 66
     7
 43
1.0
 76
     1
 77
     6
 78
     2
 67
     7
 79
     5
170
     0
171
     0
290
     0
174
     0
 93
        1
 44
0.0
173
     0
291
     1
 45
0.0
1001
ACAD
1000
AcDbSavedByObjectVersion
1070
     0
  0
VISUALSTYLE
  5
36F
102
{ACAD_XDICTIONARY
360
3C7
102
}
102
{ACAD_REACTORS
330
358
102
}
330
358
100
AcDbVisualStyle
  2
OverhangOff
 70
    21
 71
     2
 72
     2
 73
     0
 90
        0
 40
-0.6
 41
-30.0
 62
     5
 63
     7
421
 16777215
 74
     1
 91
        4
 64
     7
 65
   257
 75
     1
175
     1
 42
1.0
 92
        9
 66
     7
 43
1.0
 76
     1
 77
     6
 78
     2
 67
     7
 79
     5
170
     0
171
     0
290
     0
174
     0
 93
        1
 44
0.0
173
     0
291
     1
 45
0.0
1001
ACAD
1000
AcDbSavedByObjectVersion
1070
     0
  0
VISUALSTYLE
  5
362
102
{ACAD_XDICTIONARY
360
3AD
102
}
102
{ACAD_REACTORS
330
358
102
}
330
358
100
AcDbVisualStyle
  2
Realistic
 70
     8
 71
     2
 72
     3
 73
     0
 90
        2
 40
-0.6
 41
30.0
 62
     5
 63
     7
421
 16777215
 74
     0
 91
        0
 64
     7
 65
   257
 75
     1
175
     1
 42
1.0
 92
        8
 66
   257
 43
1.0
 76
     1
 77
     6
 78
     2
 67
     7
 79
     3
170
     0
171
     0
290
     0
174
     0
 93
       13
 44
0.0
173
     0
291
     0
 45
0.0
1001
ACAD
1000
AcDbSavedByObjectVersion
1070
     0
  0
VISUALSTYLE
  5
36D
102
{ACAD_XDICTIONARY
360
3C3
102
}
102
{ACAD_REACTORS
330
358
102
}
330
358
100
AcDbVisualStyle
  2
Shaded
 70
    27
 71
     2
 72
     2
 73
     1
 90
        2
 40
-0.6
 41
30.0
 62
     5
 63
     7
421
 16777215
 74
     0
 91
        4
 64
     7
 65
   257
 75
     1
175
     1
 42
1.0
 92
        8
 66
   257
 43
1.0
 76
     1
 77
     6
 78
     2
 67
     8
425
  7895160
 79
     3
170
     0
171
     0
290
     0
174
     0
 93
        5
 44
0.0
173
     0
291
     0
 45
0.0
1001
ACAD
1000
AcDbSavedByObjectVersion
1070
     0
  0
VISUALSTYLE
  5
36C
102
{ACAD_XDICTIONARY
360
3C1
102
}
102
{ACAD_REACTORS
330
358
102
}
330
358
100
AcDbVisualStyle
  2
Shaded with edges
 70
    26
 71
     2
 72
     2
 73
     1
 90
        2
 40
-0.6
 41
30.0
 62
     5
 63
     7
421
 16777215
 74
     1
 91
       10
 64
     7
 65
   257
 75
     2
175
     1
 42
1.0
 92
        8
 66
   257
 43
1.0
 76
     1
 77
     6
 78
     2
 67
     7
 79
     3
170
     0
171
     0
290
     0
174
     0
 93
        5
 44
0.0
173
     0
291
     0
 45
0.0
1001
ACAD
1000
AcDbSavedByObjectVersion
1070
     0
  0
VISUALSTYLE
  5
369
102
{ACAD_XDICTIONARY
360
3BB
102
}
102
{ACAD_REACTORS
330
358
102
}
330
358
100
AcDbVisualStyle
  2
Shades of Gray
 70
    23
 71
     2
 72
     2
 73
     3
 90
        0
 40
-0.6
 41
-30.0
 62
     5
 63
     7
421
 16777215
 74
     2
 91
        2
 64
     7
 65
     7
 75
     1
175
     1
 42
40.0
 92
        8
 66
     7
 43
1.0
 76
     1
 77
     6
 78
     2
 67
     7
 79
     3
170
     0
171
     0
290
     0
174
     0
 93
        1
 44
0.0
173
     0
291
     0
 45
0.0
1001
ACAD
1000
AcDbSavedByObjectVersion
1070
     0
  0
VISUALSTYLE
  5
36A
102
{ACAD_XDICTIONARY
360
3BD
102
}
102
{ACAD_REACTORS
330
358
102
}
330
358
100
AcDbVisualStyle
  2
Sketchy
 70
    24
 71
     1
 72
     2
 73
     2
 90
        0
 40
-0.6
 41
-30.0
 62
     5
 63
     7
421
 16777215
 74
     2
 91
        2
 64
     7
 65
     7
 75
     1
175
     1
 42
40.0
 92
       11
 66
     7
 43
1.0
 76
     1
 77
     6
 78
     2
 67
     7
 79
     6
170
     0
171
     0
290
     0
174
     0
 93
        1
 44
0.0
173
     0
291
     0
 45
0.0
1001
ACAD
1000
AcDbSavedByObjectVersion
1070
     0
  0
VISUALSTYLE
  5
365
102
{ACAD_XDICTIONARY
360
3B3
102
}
102
{ACAD_REACTORS
330
358
102
}
330
358
100
AcDbVisualStyle
  2
Thicken
 70
    13
 71
     2
 72
     2
 73
     0
 90
        0
 40
-0.6
 41
-30.0
 62
     5
 63
     7
421
 16777215
 74
     1
 91
        4
 64
     7
 65
   257
 75
     1
175
     1
 42
1.0
 92
       12
 66
     7
 43
1.0
 76
     1
 77
     6
 78
     2
 67
     7
 79
     5
170
     0
171
     0
290
     0
174
     0
 93
        1
 44
0.0
173
     0
291
     1
 45
0.0
1001
ACAD
1000
AcDbSavedByObjectVersion
1070
     0
  0
VISUALSTYLE
  5
35F
102
{ACAD_XDICTIONARY
360
3A7
102
}
102
{ACAD_REACTORS
330
358
102
}
330
358
100
AcDbVisualStyle
  2
Wireframe
 70
     5
 71
     0
 72
     2
 73
     0
 90
        0
 40
-0.6
 41
-30.0
 62
     5
 63
     7
421
 16777215
 74
     1
 91
        4
 64
     7
 65
   257
 75
     1
175
     1
 42
1.0
 92
        0
 66
   257
 43
1.0
 76
     1
 77
     6
 78
     2
 67
     7
 79
     3
170
     0
171
     0
290
     0
174
     0
 93
        1
 44
0.0
173
     0
291
     0
 45
0.0
1001
ACAD
1000
AcDbSavedByObjectVersion
1070
     0
  0
VISUALSTYLE
  5
36B
102
{ACAD_XDICTIONARY
360
3BF
102
}
102
{ACAD_REACTORS
330
358
102
}
330
358
100
AcDbVisualStyle
  2
X-Ray
 70
    25
 71
     2
 72
     2
 73
     1
 90
        1
 40
0.5
 41
-30.0
 62
     5
 63
     7
421
 16777215
 74
     1
 91
        0
 64
     7
 65
   257
 75
     1
175
     1
 42
1.0
 92
        8
 66
     7
 43
1.0
 76
     1
 77
     6
 78
     2
 67
     7
 79
     3
170
     0
171
     0
290
     0
174
     0
 93
       13
 44
0.0
173
     0
291
     0
 45
0.0
1001
ACAD
1000
AcDbSavedByObjectVersion
1070
     0
  0
DICTIONARYVAR
  5
392
102
{ACAD_REACTORS
330
38F
102
}
330
38F
100
DictionaryVariables
280
     0
  1
1:1
  0
DICTIONARYVAR
  5
391
102
{ACAD_REACTORS
330
38F
102
}
330
38F
100
DictionaryVariables
280
     0
  1
STANDARD
  0
DICTIONARYVAR
  5
390
102
{ACAD_REACTORS
330
38F
102
}
330
38F
100
DictionaryVariables
280
     0
  1
STANDARD
  0
DICTIONARYVAR
  5
393
102
{ACAD_REACTORS
330
38F
102
}
330
38F
100
DictionaryVariables
280
     0
  1
2
  0
DICTIONARY
  5
349
330
348
100
AcDbDictionary
280
     1
281
     1
  3
ACAD_XREC_ROUNDTRIP
360
399
  3
BUMPTILE
360
34B
  3
DIFFUSETILE
360
34A
  3
OPACITYTILE
360
34E
  3
REFLECTIONTILE
360
34D
  3
REFRACTIONTILE
360
34F
  3
SPECULARTILE
360
34C
  0
DICTIONARY
  5
341
330
340
100
AcDbDictionary
280
     1
281
     1
  3
ACAD_XREC_ROUNDTRIP
360
398
  3
BUMPTILE
360
343
  3
DIFFUSETILE
360
342
  3
OPACITYTILE
360
346
  3
REFLECTIONTILE
360
345
  3
REFRACTIONTILE
360
347
  3
SPECULARTILE
360
344
  0
DICTIONARY
  5
351
330
350
100
AcDbDictionary
280
     1
281
     1
  3
ACAD_XREC_ROUNDTRIP
360
39A
  3
BUMPTILE
360
353
  3
DIFFUSETILE
360
352
  3
OPACITYTILE
360
356
  3
REFLECTIONTILE
360
355
  3
REFRACTIONTILE
360
357
  3
SPECULARTILE
360
354
  0
DICTIONARY
  5
395
330
373
100
AcDbDictionary
280
     1
281
     1
  3
ACAD_ROUNDTRIP_2008_TABLESTYLE_CELLSTYLEMAP
360
396
  3
ACAD_XREC_ROUNDTRIP
360
3CB
  0
DICTIONARY
  5
3A5
330
35E
100
AcDbDictionary
280
     1
281
     1
  3
ACAD_XREC_ROUNDTRIP
360
3A6
  0
DICTIONARY
  5
3A3
330
35D
100
AcDbDictionary
280
     1
281
     1
  3
ACAD_XREC_ROUNDTRIP
360
3A4
  0
DICTIONARY
  5
3B1
330
364
100
AcDbDictionary
280
     1
281
     1
  3
ACAD_XREC_ROUNDTRIP
360
3B2
  0
DICTIONARY
  5
3B9
330
368
100
AcDbDictionary
280
     1
281
     1
  3
ACAD_XREC_ROUNDTRIP
360
3BA
  0
DICTIONARY
  5
3AB
330
361
100
AcDbDictionary
280
     1
281
     1
  3
ACAD_XREC_ROUNDTRIP
360
3AC
  0
DICTIONARY
  5
3AF
330
363
100
AcDbDictionary
280
     1
281
     1
  3
ACAD_XREC_ROUNDTRIP
360
3B0
  0
DICTIONARY
  5
3C9
330
370
100
AcDbDictionary
280
     1
281
     1
  3
ACAD_XREC_ROUNDTRIP
360
3CA
  0
DICTIONARY
  5
3B7
330
367
100
AcDbDictionary
280
     1
281
     1
  3
ACAD_XREC_ROUNDTRIP
360
3B8
  0
DICTIONARY
  5
39B
330
359
100
AcDbDictionary
280
     1
281
     1
  3
ACAD_XREC_ROUNDTRIP
360
39C
  0
DICTIONARY
  5
39D
330
35A
100
AcDbDictionary
280
     1
281
     1
  3
ACAD_XREC_ROUNDTRIP
360
39E
  0
DICTIONARY
  5
39F
330
35B
100
AcDbDictionary
280
     1
281
     1
  3
ACAD_XREC_ROUNDTRIP
360
3A0
  0
DICTIONARY
  5
3A1
330
35C
100
AcDbDictionary
280
     1
281
     1
  3
ACAD_XREC_ROUNDTRIP
360
3A2
  0
DICTIONARY
  5
3A9
330
360
100
AcDbDictionary
280
     1
281
     1
  3
ACAD_XREC_ROUNDTRIP
360
3AA
  0
DICTIONARY
  5
3C5
330
36E
100
AcDbDictionary
280
     1
281
     1
  3
ACAD_XREC_ROUNDTRIP
360
3C6
  0
DICTIONARY
  5
3B5
330
366
100
AcDbDictionary
280
     1
281
     1
  3
ACAD_XREC_ROUNDTRIP
360
3B6
  0
DICTIONARY
  5
3C7
330
36F
100
AcDbDictionary
280
     1
281
     1
  3
ACAD_XREC_ROUNDTRIP
360
3C8
  0
DICTIONARY
  5
3AD
330
362
100
AcDbDictionary
280
     1
281
     1
  3
ACAD_XREC_ROUNDTRIP
360
3AE
  0
DICTIONARY
  5
3C3
330
36D
100
AcDbDictionary
280
     1
281
     1
  3
ACAD_XREC_ROUNDTRIP
360
3C4
  0
DICTIONARY
  5
3C1
330
36C
100
AcDbDictionary
280
     1
281
     1
  3
ACAD_XREC_ROUNDTRIP
360
3C2
  0
DICTIONARY
  5
3BB
330
369
100
AcDbDictionary
280
     1
281
     1
  3
ACAD_XREC_ROUNDTRIP
360
3BC
  0
DICTIONARY
  5
3BD
330
36A
100
AcDbDictionary
280
     1
281
     1
  3
ACAD_XREC_ROUNDTRIP
360
3BE
  0
DICTIONARY
  5
3B3
330
365
100
AcDbDictionary
280
     1
281
     1
  3
ACAD_XREC_ROUNDTRIP
360
3B4
  0
DICTIONARY
  5
3A7
330
35F
100
AcDbDictionary
280
     1
281
     1
  3
ACAD_XREC_ROUNDTRIP
360
3A8
  0
DICTIONARY
  5
3BF
330
36B
100
AcDbDictionary
280
     1
281
     1
  3
ACAD_XREC_ROUNDTRIP
360
3C0
  0
XRECORD
  5
399
102
{ACAD_REACTORS
330
349
102
}
330
349
100
AcDbXrecord
280
     1
102
MATERIAL
148
0.0
149
0.0
149
0.0
 93
        0
 94
      127
282
     0
 72
     0
 77
     0
171
     0
175
     0
179
     0
273
     0
  0
XRECORD
  5
34B
102
{ACAD_REACTORS
330
349
102
}
330
349
100
AcDbXrecord
280
     1
270
     1
271
     1
  0
XRECORD
  5
34A
102
{ACAD_REACTORS
330
349
102
}
330
349
100
AcDbXrecord
280
     1
270
     1
271
     1
  0
XRECORD
  5
34E
102
{ACAD_REACTORS
330
349
102
}
330
349
100
AcDbXrecord
280
     1
270
     1
271
     1
  0
XRECORD
  5
34D
102
{ACAD_REACTORS
330
349
102
}
330
349
100
AcDbXrecord
280
     1
270
     1
271
     1
  0
XRECORD
  5
34F
102
{ACAD_REACTORS
330
349
102
}
330
349
100
AcDbXrecord
280
     1
270
     1
271
     1
  0
XRECORD
  5
34C
102
{ACAD_REACTORS
330
349
102
}
330
349
100
AcDbXrecord
280
     1
270
     1
271
     1
  0
XRECORD
  5
398
102
{ACAD_REACTORS
330
341
102
}
330
341
100
AcDbXrecord
280
     1
102
MATERIAL
148
0.0
149
0.0
149
0.0
 93
        0
 94
      127
282
     0
 72
     0
 77
     0
171
     0
175
     0
179
     0
273
     0
  0
XRECORD
  5
343
102
{ACAD_REACTORS
330
341
102
}
330
341
100
AcDbXrecord
280
     1
270
     1
271
     1
  0
XRECORD
  5
342
102
{ACAD_REACTORS
330
341
102
}
330
341
100
AcDbXrecord
280
     1
270
     1
271
     1
  0
XRECORD
  5
346
102
{ACAD_REACTORS
330
341
102
}
330
341
100
AcDbXrecord
280
     1
270
     1
271
     1
  0
XRECORD
  5
345
102
{ACAD_REACTORS
330
341
102
}
330
341
100
AcDbXrecord
280
     1
270
     1
271
     1
  0
XRECORD
  5
347
102
{ACAD_REACTORS
330
341
102
}
330
341
100
AcDbXrecord
280
     1
270
     1
271
     1
  0
XRECORD
  5
344
102
{ACAD_REACTORS
330
341
102
}
330
341
100
AcDbXrecord
280
     1
270
     1
271
     1
  0
XRECORD
  5
39A
102
{ACAD_REACTORS
330
351
102
}
330
351
100
AcDbXrecord
280
     1
102
MATERIAL
148
0.0
149
0.0
149
0.0
 93
        0
 94
      127
282
     0
 72
     0
 77
     0
171
     0
175
     0
179
     0
273
     0
  0
XRECORD
  5
353
102
{ACAD_REACTORS
330
351
102
}
330
351
100
AcDbXrecord
280
     1
270
     1
271
     1
  0
XRECORD
  5
352
102
{ACAD_REACTORS
330
351
102
}
330
351
100
AcDbXrecord
280
     1
270
     1
271
     1
  0
XRECORD
  5
356
102
{ACAD_REACTORS
330
351
102
}
330
351
100
AcDbXrecord
280
     1
270
     1
271
     1
  0
XRECORD
  5
355
102
{ACAD_REACTORS
330
351
102
}
330
351
100
AcDbXrecord
280
     1
270
     1
271
     1
  0
XRECORD
  5
357
102
{ACAD_REACTORS
330
351
102
}
330
351
100
AcDbXrecord
280
     1
270
     1
271
     1
  0
XRECORD
  5
354
102
{ACAD_REACTORS
330
351
102
}
330
351
100
AcDbXrecord
280
     1
270
     1
271
     1
  0
CELLSTYLEMAP
  5
396
102
{ACAD_REACTORS
330
395
102
}
330
395
100
AcDbCellStyleMap
 90
        3
300
CELLSTYLE
  1
TABLEFORMAT_BEGIN
 90
        5
170
     1
 91
        0
 92
    32768
 62
   257
 93
        1
300
CONTENTFORMAT
  1
CONTENTFORMAT_BEGIN
 90
        0
 91
        0
 92
      512
 93
        0
300

 40
0.0
140
1.0
 94
        5
 62
     0
340
17
144
0.25
309
CONTENTFORMAT_END
171
     0
 94
        0
309
TABLEFORMAT_END
  1
CELLSTYLE_BEGIN
 90
        1
 91
        1
300
_TITLE
309
CELLSTYLE_END
300
CELLSTYLE
  1
TABLEFORMAT_BEGIN
 90
        5
170
     1
 91
        0
 92
        0
 62
   257
 93
        1
300
CONTENTFORMAT
  1
CONTENTFORMAT_BEGIN
 90
        0
 91
        0
 92
      512
 93
        0
300

 40
0.0
140
1.0
 94
        5
 62
     0
340
17
144
0.18
309
CONTENTFORMAT_END
171
     0
 94
        0
309
TABLEFORMAT_END
  1
CELLSTYLE_BEGIN
 90
        2
 91
        1
300
_HEADER
309
CELLSTYLE_END
300
CELLSTYLE
  1
TABLEFORMAT_BEGIN
 90
        5
170
     1
 91
        0
 92
        0
 62
   257
 93
        1
300
CONTENTFORMAT
  1
CONTENTFORMAT_BEGIN
 90
        0
 91
        0
 92
      512
 93
        0
300

 40
0.0
140
1.0
 94
        2
 62
     0
340
17
144
0.18
309
CONTENTFORMAT_END
171
     0
 94
        0
309
TABLEFORMAT_END
  1
CELLSTYLE_BEGIN
 90
        3
 91
        2
300
_DATA
309
CELLSTYLE_END
  0
XRECORD
  5
3CB
102
{ACAD_REACTORS
330
395
102
}
330
395
100
AcDbXrecord
280
     1
102
ACAD_ROUNDTRIP_PRE2007_TABLESTYLE
 90
      512
 91
        0
  1

 92
      512
 93
        0
  2

 94
      512
 95
        0
  3

  0
XRECORD
  5
3A6
102
{ACAD_REACTORS
330
3A5
102
}
330
3A5
100
AcDbXrecord
280
     1
102
RTVSPropertyOp0
 70
     1
102
RTVSPropertyOp1
 70
     1
102
RTVSPropertyOp2
 70
     1
102
RTVSPropertyOp3
 70
     1
102
RTVSPropertyOp4
 70
     1
102
RTVSPropertyOp5
 70
     1
102
RTVSPropertyOp6
 70
     1
102
RTVSPropertyOp7
 70
     1
102
RTVSPropertyOp8
 70
     1
102
RTVSPropertyOp9
 70
     1
102
RTVSPropertyOp10
 70
     1
102
RTVSPropertyOp11
 70
     1
102
RTVSPropertyOp12
 70
     1
102
RTVSPropertyOp13
 70
     1
102
RTVSPropertyOp14
 70
     1
102
RTVSPropertyOp15
 70
     1
102
RTVSPropertyOp16
 70
     1
102
RTVSPropertyOp17
 70
     1
102
RTVSPropertyOp18
 70
     1
102
RTVSPropertyOp19
 70
     1
102
RTVSPropertyOp20
 70
     1
102
RTVSPropertyOp21
 70
     1
102
RTVSPropertyOp22
 70
     1
102
RTVSPropertyOp23
 70
     1
102
RTVSPropertyOp24
 70
     1
102
RTVSPropertyOp25
 70
     1
102
RTVSPropertyOp26
 70
     1
102
RTVSPropertyOp27
 70
     1
102
RTVSPropertyOp28
 70
     1
102
RTVSPropertyOp29
 70
     1
102
RTVSPropertyOp30
 70
     1
102
RTVSPropertyOp31
 70
     1
102
RTVSPropertyOp32
 70
     1
  0
XRECORD
  5
3A4
102
{ACAD_REACTORS
330
3A3
102
}
330
3A3
100
AcDbXrecord
280
     1
102
RTVSPropertyOp0
 70
     1
102
RTVSPropertyOp1
 70
     1
102
RTVSPropertyOp2
 70
     1
102
RTVSPropertyOp3
 70
     1
102
RTVSPropertyOp4
 70
     1
102
RTVSPropertyOp5
 70
     1
102
RTVSPropertyOp6
 70
     1
102
RTVSPropertyOp7
 70
     1
102
RTVSPropertyOp8
 70
     1
102
RTVSPropertyOp9
 70
     1
102
RTVSPropertyOp10
 70
     1
102
RTVSPropertyOp11
 70
     1
102
RTVSPropertyOp12
 70
     1
102
RTVSPropertyOp13
 70
     1
102
RTVSPropertyOp14
 70
     1
102
RTVSPropertyOp15
 70
     1
102
RTVSPropertyOp16
 70
     1
102
RTVSPropertyOp17
 70
     1
102
RTVSPropertyOp18
 70
     1
102
RTVSPropertyOp19
 70
     1
102
RTVSPropertyOp20
 70
     1
102
RTVSPropertyOp21
 70
     1
102
RTVSPropertyOp22
 70
     1
102
RTVSPropertyOp23
 70
     1
102
RTVSPropertyOp24
 70
     1
102
RTVSPropertyOp25
 70
     1
102
RTVSPropertyOp26
 70
     1
102
RTVSPropertyOp27
 70
     1
102
RTVSPropertyOp28
 70
     1
102
RTVSPropertyOp29
 70
     1
102
RTVSPropertyOp30
 70
     1
102
RTVSPropertyOp31
 70
     1
102
RTVSPropertyOp32
 70
     1
  0
XRECORD
  5
3B2
102
{ACAD_REACTORS
330
3B1
102
}
330
3B1
100
AcDbXrecord
280
     1
102
RTVSPropertyOp0
 70
     1
102
RTVSPropertyOp1
 70
     1
102
RTVSPropertyOp2
 70
     1
102
RTVSPropertyOp3
 70
     1
102
RTVSPropertyOp4
 70
     1
102
RTVSPropertyOp5
 70
     1
102
RTVSPropertyOp6
 70
     1
102
RTVSPropertyOp7
 70
     1
102
RTVSPropertyOp8
 70
     1
102
RTVSPropertyOp9
 70
     1
102
RTVSPropertyOp10
 70
     1
102
RTVSPropertyOp11
 70
     1
102
RTVSPropertyOp12
 70
     1
102
RTVSPropertyOp13
 70
     1
102
RTVSPropertyOp14
 70
     1
102
RTVSPropertyOp15
 70
     1
102
RTVSPropertyOp16
 70
     1
102
RTVSPropertyOp17
 70
     1
102
RTVSPropertyOp18
 70
     1
102
RTVSPropertyOp19
 70
     1
102
RTVSPropertyOp20
 70
     1
102
RTVSPropertyOp21
 70
     1
102
RTVSPropertyOp22
 70
     1
102
RTVSPropertyOp23
 70
     1
102
RTVSPropertyOp24
 70
     1
102
RTVSPropertyOp25
 70
     1
102
RTVSPropertyOp26
 70
     1
102
RTVSPropertyOp27
 70
     1
102
RTVSPropertyOp28
 70
     1
102
RTVSPropertyOp29
 70
     1
102
RTVSPropertyOp30
 70
     1
102
RTVSPropertyOp31
 70
     1
102
RTVSPropertyOp32
 70
     1
  0
XRECORD
  5
3BA
102
{ACAD_REACTORS
330
3B9
102
}
330
3B9
100
AcDbXrecord
280
     1
102
RTVSPropertyOp0
 70
     1
102
RTVSPropertyOp1
 70
     1
102
RTVSPropertyOp2
 70
     1
102
RTVSPropertyOp3
 70
     1
102
RTVSPropertyOp4
 70
     1
102
RTVSPropertyOp5
 70
     1
102
RTVSPropertyOp6
 70
     1
102
RTVSPropertyOp7
 70
     1
102
RTVSPropertyOp8
 70
     1
102
RTVSPropertyOp9
 70
     1
102
RTVSPropertyOp10
 70
     1
102
RTVSPropertyOp11
 70
     1
102
RTVSPropertyOp12
 70
     1
102
RTVSPropertyOp13
 70
     1
102
RTVSPropertyOp14
 70
     1
102
RTVSPropertyOp15
 70
     1
102
RTVSPropertyOp16
 70
     1
102
RTVSPropertyOp17
 70
     1
102
RTVSPropertyOp18
 70
     1
102
RTVSPropertyOp19
 70
     1
102
RTVSPropertyOp20
 70
     1
102
RTVSPropertyOp21
 70
     1
102
RTVSPropertyOp22
 70
     1
102
RTVSPropertyOp23
 70
     1
102
RTVSPropertyOp24
 70
     1
102
RTVSPropertyOp25
 70
     1
102
RTVSPropertyOp26
 70
     1
102
RTVSPropertyOp27
 70
     1
102
RTVSPropertyOp28
 70
     1
102
RTVSPropertyOp29
 70
     1
102
RTVSPropertyOp30
 70
     1
102
RTVSPropertyOp31
 70
     1
102
RTVSPropertyOp32
 70
     1
  0
XRECORD
  5
3AC
102
{ACAD_REACTORS
330
3AB
102
}
330
3AB
100
AcDbXrecord
280
     1
102
RTVSPropertyOp0
 70
     1
102
RTVSPropertyOp1
 70
     1
102
RTVSPropertyOp2
 70
     1
102
RTVSPropertyOp3
 70
     1
102
RTVSPropertyOp4
 70
     1
102
RTVSPropertyOp5
 70
     1
102
RTVSPropertyOp6
 70
     1
102
RTVSPropertyOp7
 70
     1
102
RTVSPropertyOp8
 70
     1
102
RTVSPropertyOp9
 70
     1
102
RTVSPropertyOp10
 70
     1
102
RTVSPropertyOp11
 70
     1
102
RTVSPropertyOp12
 70
     1
102
RTVSPropertyOp13
 70
     1
102
RTVSPropertyOp14
 70
     1
102
RTVSPropertyOp15
 70
     1
102
RTVSPropertyOp16
 70
     1
102
RTVSPropertyOp17
 70
     1
102
RTVSPropertyOp18
 70
     1
102
RTVSPropertyOp19
 70
     1
102
RTVSPropertyOp20
 70
     1
102
RTVSPropertyOp21
 70
     1
102
RTVSPropertyOp22
 70
     1
102
RTVSPropertyOp23
 70
     1
102
RTVSPropertyOp24
 70
     1
102
RTVSPropertyOp25
 70
     1
102
RTVSPropertyOp26
 70
     1
102
RTVSPropertyOp27
 70
     1
102
RTVSPropertyOp28
 70
     1
102
RTVSPropertyOp29
 70
     1
102
RTVSPropertyOp30
 70
     1
102
RTVSPropertyOp31
 70
     1
102
RTVSPropertyOp32
 70
     1
  0
XRECORD
  5
3B0
102
{ACAD_REACTORS
330
3AF
102
}
330
3AF
100
AcDbXrecord
280
     1
102
RTVSPropertyOp0
 70
     1
102
RTVSPropertyOp1
 70
     1
102
RTVSPropertyOp2
 70
     1
102
RTVSPropertyOp3
 70
     1
102
RTVSPropertyOp4
 70
     1
102
RTVSPropertyOp5
 70
     1
102
RTVSPropertyOp6
 70
     1
102
RTVSPropertyOp7
 70
     1
102
RTVSPropertyOp8
 70
     1
102
RTVSPropertyOp9
 70
     1
102
RTVSPropertyOp10
 70
     1
102
RTVSPropertyOp11
 70
     1
102
RTVSPropertyOp12
 70
     1
102
RTVSPropertyOp13
 70
     1
102
RTVSPropertyOp14
 70
     1
102
RTVSPropertyOp15
 70
     1
102
RTVSPropertyOp16
 70
     1
102
RTVSPropertyOp17
 70
     1
102
RTVSPropertyOp18
 70
     1
102
RTVSPropertyOp19
 70
     1
102
RTVSPropertyOp20
 70
     1
102
RTVSPropertyOp21
 70
     1
102
RTVSPropertyOp22
 70
     1
102
RTVSPropertyOp23
 70
     1
102
RTVSPropertyOp24
 70
     1
102
RTVSPropertyOp25
 70
     1
102
RTVSPropertyOp26
 70
     1
102
RTVSPropertyOp27
 70
     1
102
RTVSPropertyOp28
 70
     1
102
RTVSPropertyOp29
 70
     1
102
RTVSPropertyOp30
 70
     1
102
RTVSPropertyOp31
 70
     1
102
RTVSPropertyOp32
 70
     1
  0
XRECORD
  5
3CA
102
{ACAD_REACTORS
330
3C9
102
}
330
3C9
100
AcDbXrecord
280
     1
102
RTVSPropertyOp0
 70
     0
102
RTVSPropertyOp1
 70
     0
102
RTVSPropertyOp2
 70
     0
102
RTVSPropertyOp3
 70
     0
102
RTVSPropertyOp4
 70
     0
102
RTVSPropertyOp5
 70
     0
102
RTVSPropertyOp6
 70
     0
102
RTVSPropertyOp7
 70
     0
102
RTVSPropertyOp8
 70
     0
102
RTVSPropertyOp9
 70
     0
102
RTVSPropertyOp10
 70
     0
102
RTVSPropertyOp11
 70
     0
102
RTVSPropertyOp12
 70
     0
102
RTVSPropertyOp13
 70
     0
102
RTVSPropertyOp14
 70
     2
102
RTVSPropertyOp15
 70
     0
102
RTVSPropertyOp16
 70
     0
102
RTVSPropertyOp17
 70
     0
102
RTVSPropertyOp18
 70
     0
102
RTVSPropertyOp19
 70
     0
102
RTVSPropertyOp20
 70
     0
102
RTVSPropertyOp21
 70
     0
102
RTVSPropertyOp22
 70
     0
102
RTVSPropertyOp23
 70
     0
102
RTVSPropertyOp24
 70
     0
102
RTVSPropertyOp25
 70
     0
102
RTVSPropertyOp26
 70
     0
102
RTVSPropertyOp27
 70
     0
102
RTVSPropertyOp28
 70
     0
102
RTVSPropertyOp29
 70
     0
102
RTVSPropertyOp30
 70
     0
102
RTVSPropertyOp31
 70
     0
102
RTVSPropertyOp32
 70
     0
  0
XRECORD
  5
3B8
102
{ACAD_REACTORS
330
3B7
102
}
330
3B7
100
AcDbXrecord
280
     1
102
RTVSPropertyOp0
 70
     1
102
RTVSPropertyOp1
 70
     1
102
RTVSPropertyOp2
 70
     1
102
RTVSPropertyOp3
 70
     1
102
RTVSPropertyOp4
 70
     1
102
RTVSPropertyOp5
 70
     1
102
RTVSPropertyOp6
 70
     1
102
RTVSPropertyOp7
 70
     1
102
RTVSPropertyOp8
 70
     1
102
RTVSPropertyOp9
 70
     1
102
RTVSPropertyOp10
 70
     1
102
RTVSPropertyOp11
 70
     1
102
RTVSPropertyOp12
 70
     1
102
RTVSPropertyOp13
 70
     1
102
RTVSPropertyOp14
 70
     1
102
RTVSPropertyOp15
 70
     1
102
RTVSPropertyOp16
 70
     1
102
RTVSPropertyOp17
 70
     1
102
RTVSPropertyOp18
 70
     1
102
RTVSPropertyOp19
 70
     1
102
RTVSPropertyOp20
 70
     1
102
RTVSPropertyOp21
 70
     1
102
RTVSPropertyOp22
 70
     1
102
RTVSPropertyOp23
 70
     1
102
RTVSPropertyOp24
 70
     1
102
RTVSPropertyOp25
 70
     1
102
RTVSPropertyOp26
 70
     1
102
RTVSPropertyOp27
 70
     1
102
RTVSPropertyOp28
 70
     1
102
RTVSPropertyOp29
 70
     1
102
RTVSPropertyOp30
 70
     1
102
RTVSPropertyOp31
 70
     1
102
RTVSPropertyOp32
 70
     1
  0
XRECORD
  5
39C
102
{ACAD_REACTORS
330
39B
102
}
330
39B
100
AcDbXrecord
280
     1
102
RTVSPropertyOp0
 70
     1
102
RTVSPropertyOp1
 70
     1
102
RTVSPropertyOp2
 70
     1
102
RTVSPropertyOp3
 70
     1
102
RTVSPropertyOp4
 70
     1
102
RTVSPropertyOp5
 70
     1
102
RTVSPropertyOp6
 70
     1
102
RTVSPropertyOp7
 70
     1
102
RTVSPropertyOp8
 70
     1
102
RTVSPropertyOp9
 70
     1
102
RTVSPropertyOp10
 70
     1
102
RTVSPropertyOp11
 70
     1
102
RTVSPropertyOp12
 70
     1
102
RTVSPropertyOp13
 70
     1
102
RTVSPropertyOp14
 70
     1
102
RTVSPropertyOp15
 70
     1
102
RTVSPropertyOp16
 70
     1
102
RTVSPropertyOp17
 70
     1
102
RTVSPropertyOp18
 70
     1
102
RTVSPropertyOp19
 70
     1
102
RTVSPropertyOp20
 70
     1
102
RTVSPropertyOp21
 70
     1
102
RTVSPropertyOp22
 70
     1
102
RTVSPropertyOp23
 70
     1
102
RTVSPropertyOp24
 70
     1
102
RTVSPropertyOp25
 70
     1
102
RTVSPropertyOp26
 70
     1
102
RTVSPropertyOp27
 70
     1
102
RTVSPropertyOp28
 70
     1
102
RTVSPropertyOp29
 70
     1
102
RTVSPropertyOp30
 70
     1
102
RTVSPropertyOp31
 70
     1
102
RTVSPropertyOp32
 70
     1
  0
XRECORD
  5
39E
102
{ACAD_REACTORS
330
39D
102
}
330
39D
100
AcDbXrecord
280
     1
102
RTVSPropertyOp0
 70
     1
102
RTVSPropertyOp1
 70
     1
102
RTVSPropertyOp2
 70
     1
102
RTVSPropertyOp3
 70
     1
102
RTVSPropertyOp4
 70
     1
102
RTVSPropertyOp5
 70
     1
102
RTVSPropertyOp6
 70
     1
102
RTVSPropertyOp7
 70
     1
102
RTVSPropertyOp8
 70
     1
102
RTVSPropertyOp9
 70
     1
102
RTVSPropertyOp10
 70
     1
102
RTVSPropertyOp11
 70
     1
102
RTVSPropertyOp12
 70
     1
102
RTVSPropertyOp13
 70
     1
102
RTVSPropertyOp14
 70
     1
102
RTVSPropertyOp15
 70
     1
102
RTVSPropertyOp16
 70
     1
102
RTVSPropertyOp17
 70
     1
102
RTVSPropertyOp18
 70
     1
102
RTVSPropertyOp19
 70
     1
102
RTVSPropertyOp20
 70
     1
102
RTVSPropertyOp21
 70
     1
102
RTVSPropertyOp22
 70
     1
102
RTVSPropertyOp23
 70
     1
102
RTVSPropertyOp24
 70
     1
102
RTVSPropertyOp25
 70
     1
102
RTVSPropertyOp26
 70
     1
102
RTVSPropertyOp27
 70
     1
102
RTVSPropertyOp28
 70
     1
102
RTVSPropertyOp29
 70
     1
102
RTVSPropertyOp30
 70
     1
102
RTVSPropertyOp31
 70
     1
102
RTVSPropertyOp32
 70
     1
  0
XRECORD
  5
3A0
102
{ACAD_REACTORS
330
39F
102
}
330
39F
100
AcDbXrecord
280
     1
102
RTVSPropertyOp0
 70
     1
102
RTVSPropertyOp1
 70
     1
102
RTVSPropertyOp2
 70
     1
102
RTVSPropertyOp3
 70
     1
102
RTVSPropertyOp4
 70
     1
102
RTVSPropertyOp5
 70
     1
102
RTVSPropertyOp6
 70
     1
102
RTVSPropertyOp7
 70
     1
102
RTVSPropertyOp8
 70
     1
102
RTVSPropertyOp9
 70
     1
102
RTVSPropertyOp10
 70
     1
102
RTVSPropertyOp11
 70
     1
102
RTVSPropertyOp12
 70
     1
102
RTVSPropertyOp13
 70
     1
102
RTVSPropertyOp14
 70
     1
102
RTVSPropertyOp15
 70
     1
102
RTVSPropertyOp16
 70
     1
102
RTVSPropertyOp17
 70
     1
102
RTVSPropertyOp18
 70
     1
102
RTVSPropertyOp19
 70
     1
102
RTVSPropertyOp20
 70
     1
102
RTVSPropertyOp21
 70
     1
102
RTVSPropertyOp22
 70
     1
102
RTVSPropertyOp23
 70
     1
102
RTVSPropertyOp24
 70
     1
102
RTVSPropertyOp25
 70
     1
102
RTVSPropertyOp26
 70
     1
102
RTVSPropertyOp27
 70
     1
102
RTVSPropertyOp28
 70
     1
102
RTVSPropertyOp29
 70
     1
102
RTVSPropertyOp30
 70
     1
102
RTVSPropertyOp31
 70
     1
102
RTVSPropertyOp32
 70
     1
  0
XRECORD
  5
3A2
102
{ACAD_REACTORS
330
3A1
102
}
330
3A1
100
AcDbXrecord
280
     1
102
RTVSPropertyOp0
 70
     1
102
RTVSPropertyOp1
 70
     1
102
RTVSPropertyOp2
 70
     1
102
RTVSPropertyOp3
 70
     1
102
RTVSPropertyOp4
 70
     1
102
RTVSPropertyOp5
 70
     1
102
RTVSPropertyOp6
 70
     1
102
RTVSPropertyOp7
 70
     1
102
RTVSPropertyOp8
 70
     1
102
RTVSPropertyOp9
 70
     1
102
RTVSPropertyOp10
 70
     1
102
RTVSPropertyOp11
 70
     1
102
RTVSPropertyOp12
 70
     1
102
RTVSPropertyOp13
 70
     1
102
RTVSPropertyOp14
 70
     1
102
RTVSPropertyOp15
 70
     1
102
RTVSPropertyOp16
 70
     1
102
RTVSPropertyOp17
 70
     1
102
RTVSPropertyOp18
 70
     1
102
RTVSPropertyOp19
 70
     1
102
RTVSPropertyOp20
 70
     1
102
RTVSPropertyOp21
 70
     1
102
RTVSPropertyOp22
 70
     1
102
RTVSPropertyOp23
 70
     1
102
RTVSPropertyOp24
 70
     1
102
RTVSPropertyOp25
 70
     1
102
RTVSPropertyOp26
 70
     1
102
RTVSPropertyOp27
 70
     1
102
RTVSPropertyOp28
 70
     1
102
RTVSPropertyOp29
 70
     1
102
RTVSPropertyOp30
 70
     1
102
RTVSPropertyOp31
 70
     1
102
RTVSPropertyOp32
 70
     1
  0
XRECORD
  5
3AA
102
{ACAD_REACTORS
330
3A9
102
}
330
3A9
100
AcDbXrecord
280
     1
102
RTVSPropertyOp0
 70
     1
102
RTVSPropertyOp1
 70
     1
102
RTVSPropertyOp2
 70
     1
102
RTVSPropertyOp3
 70
     1
102
RTVSPropertyOp4
 70
     1
102
RTVSPropertyOp5
 70
     1
102
RTVSPropertyOp6
 70
     1
102
RTVSPropertyOp7
 70
     1
102
RTVSPropertyOp8
 70
     1
102
RTVSPropertyOp9
 70
     1
102
RTVSPropertyOp10
 70
     1
102
RTVSPropertyOp11
 70
     1
102
RTVSPropertyOp12
 70
     1
102
RTVSPropertyOp13
 70
     1
102
RTVSPropertyOp14
 70
     1
102
RTVSPropertyOp15
 70
     1
102
RTVSPropertyOp16
 70
     1
102
RTVSPropertyOp17
 70
     1
102
RTVSPropertyOp18
 70
     1
102
RTVSPropertyOp19
 70
     1
102
RTVSPropertyOp20
 70
     1
102
RTVSPropertyOp21
 70
     1
102
RTVSPropertyOp22
 70
     1
102
RTVSPropertyOp23
 70
     1
102
RTVSPropertyOp24
 70
     1
102
RTVSPropertyOp25
 70
     1
102
RTVSPropertyOp26
 70
     1
102
RTVSPropertyOp27
 70
     1
102
RTVSPropertyOp28
 70
     1
102
RTVSPropertyOp29
 70
     1
102
RTVSPropertyOp30
 70
     1
102
RTVSPropertyOp31
 70
     1
102
RTVSPropertyOp32
 70
     1
  0
XRECORD
  5
3C6
102
{ACAD_REACTORS
330
3C5
102
}
330
3C5
100
AcDbXrecord
280
     1
102
RTVSPropertyOp0
 70
     0
102
RTVSPropertyOp1
 70
     0
102
RTVSPropertyOp2
 70
     0
102
RTVSPropertyOp3
 70
     0
102
RTVSPropertyOp4
 70
     0
102
RTVSPropertyOp5
 70
     0
102
RTVSPropertyOp6
 70
     0
102
RTVSPropertyOp7
 70
     0
102
RTVSPropertyOp8
 70
     0
102
RTVSPropertyOp9
 70
     0
102
RTVSPropertyOp10
 70
     0
102
RTVSPropertyOp11
 70
     0
102
RTVSPropertyOp12
 70
     0
102
RTVSPropertyOp13
 70
     0
102
RTVSPropertyOp14
 70
     2
102
RTVSPropertyOp15
 70
     0
102
RTVSPropertyOp16
 70
     0
102
RTVSPropertyOp17
 70
     0
102
RTVSPropertyOp18
 70
     0
102
RTVSPropertyOp19
 70
     0
102
RTVSPropertyOp20
 70
     0
102
RTVSPropertyOp21
 70
     0
102
RTVSPropertyOp22
 70
     0
102
RTVSPropertyOp23
 70
     0
102
RTVSPropertyOp24
 70
     0
102
RTVSPropertyOp25
 70
     0
102
RTVSPropertyOp26
 70
     0
102
RTVSPropertyOp27
 70
     0
102
RTVSPropertyOp28
 70
     0
102
RTVSPropertyOp29
 70
     0
102
RTVSPropertyOp30
 70
     0
102
RTVSPropertyOp31
 70
     0
102
RTVSPropertyOp32
 70
     0
  0
XRECORD
  5
3B6
102
{ACAD_REACTORS
330
3B5
102
}
330
3B5
100
AcDbXrecord
280
     1
102
RTVSPropertyOp0
 70
     1
102
RTVSPropertyOp1
 70
     1
102
RTVSPropertyOp2
 70
     1
102
RTVSPropertyOp3
 70
     1
102
RTVSPropertyOp4
 70
     1
102
RTVSPropertyOp5
 70
     1
102
RTVSPropertyOp6
 70
     1
102
RTVSPropertyOp7
 70
     1
102
RTVSPropertyOp8
 70
     1
102
RTVSPropertyOp9
 70
     1
102
RTVSPropertyOp10
 70
     1
102
RTVSPropertyOp11
 70
     1
102
RTVSPropertyOp12
 70
     1
102
RTVSPropertyOp13
 70
     1
102
RTVSPropertyOp14
 70
     1
102
RTVSPropertyOp15
 70
     1
102
RTVSPropertyOp16
 70
     1
102
RTVSPropertyOp17
 70
     1
102
RTVSPropertyOp18
 70
     1
102
RTVSPropertyOp19
 70
     1
102
RTVSPropertyOp20
 70
     1
102
RTVSPropertyOp21
 70
     1
102
RTVSPropertyOp22
 70
     1
102
RTVSPropertyOp23
 70
     1
102
RTVSPropertyOp24
 70
     1
102
RTVSPropertyOp25
 70
     1
102
RTVSPropertyOp26
 70
     1
102
RTVSPropertyOp27
 70
     1
102
RTVSPropertyOp28
 70
     1
102
RTVSPropertyOp29
 70
     1
102
RTVSPropertyOp30
 70
     1
102
RTVSPropertyOp31
 70
     1
102
RTVSPropertyOp32
 70
     1
  0
XRECORD
  5
3C8
102
{ACAD_REACTORS
330
3C7
102
}
330
3C7
100
AcDbXrecord
280
     1
102
RTVSPropertyOp0
 70
     0
102
RTVSPropertyOp1
 70
     0
102
RTVSPropertyOp2
 70
     0
102
RTVSPropertyOp3
 70
     0
102
RTVSPropertyOp4
 70
     0
102
RTVSPropertyOp5
 70
     0
102
RTVSPropertyOp6
 70
     0
102
RTVSPropertyOp7
 70
     0
102
RTVSPropertyOp8
 70
     0
102
RTVSPropertyOp9
 70
     0
102
RTVSPropertyOp10
 70
     0
102
RTVSPropertyOp11
 70
     0
102
RTVSPropertyOp12
 70
     0
102
RTVSPropertyOp13
 70
     0
102
RTVSPropertyOp14
 70
     2
102
RTVSPropertyOp15
 70
     0
102
RTVSPropertyOp16
 70
     0
102
RTVSPropertyOp17
 70
     0
102
RTVSPropertyOp18
 70
     0
102
RTVSPropertyOp19
 70
     0
102
RTVSPropertyOp20
 70
     0
102
RTVSPropertyOp21
 70
     0
102
RTVSPropertyOp22
 70
     0
102
RTVSPropertyOp23
 70
     0
102
RTVSPropertyOp24
 70
     0
102
RTVSPropertyOp25
 70
     0
102
RTVSPropertyOp26
 70
     0
102
RTVSPropertyOp27
 70
     0
102
RTVSPropertyOp28
 70
     0
102
RTVSPropertyOp29
 70
     0
102
RTVSPropertyOp30
 70
     0
102
RTVSPropertyOp31
 70
     0
102
RTVSPropertyOp32
 70
     0
  0
XRECORD
  5
3AE
102
{ACAD_REACTORS
330
3AD
102
}
330
3AD
100
AcDbXrecord
280
     1
102
RTVSPropertyOp0
 70
     1
102
RTVSPropertyOp1
 70
     1
102
RTVSPropertyOp2
 70
     1
102
RTVSPropertyOp3
 70
     1
102
RTVSPropertyOp4
 70
     1
102
RTVSPropertyOp5
 70
     1
102
RTVSPropertyOp6
 70
     1
102
RTVSPropertyOp7
 70
     1
102
RTVSPropertyOp8
 70
     1
102
RTVSPropertyOp9
 70
     1
102
RTVSPropertyOp10
 70
     1
102
RTVSPropertyOp11
 70
     1
102
RTVSPropertyOp12
 70
     1
102
RTVSPropertyOp13
 70
     1
102
RTVSPropertyOp14
 70
     1
102
RTVSPropertyOp15
 70
     1
102
RTVSPropertyOp16
 70
     1
102
RTVSPropertyOp17
 70
     1
102
RTVSPropertyOp18
 70
     1
102
RTVSPropertyOp19
 70
     1
102
RTVSPropertyOp20
 70
     1
102
RTVSPropertyOp21
 70
     1
102
RTVSPropertyOp22
 70
     1
102
RTVSPropertyOp23
 70
     1
102
RTVSPropertyOp24
 70
     1
102
RTVSPropertyOp25
 70
     1
102
RTVSPropertyOp26
 70
     1
102
RTVSPropertyOp27
 70
     1
102
RTVSPropertyOp28
 70
     1
102
RTVSPropertyOp29
 70
     1
102
RTVSPropertyOp30
 70
     1
102
RTVSPropertyOp31
 70
     1
102
RTVSPropertyOp32
 70
     1
  0
XRECORD
  5
3C4
102
{ACAD_REACTORS
330
3C3
102
}
330
3C3
100
AcDbXrecord
280
     1
102
RTVSPropertyOp0
 70
     1
102
RTVSPropertyOp1
 70
     1
102
RTVSPropertyOp2
 70
     1
102
RTVSPropertyOp3
 70
     1
102
RTVSPropertyOp4
 70
     1
102
RTVSPropertyOp5
 70
     1
102
RTVSPropertyOp6
 70
     1
102
RTVSPropertyOp7
 70
     1
102
RTVSPropertyOp8
 70
     1
102
RTVSPropertyOp9
 70
     1
102
RTVSPropertyOp10
 70
     1
102
RTVSPropertyOp11
 70
     1
102
RTVSPropertyOp12
 70
     1
102
RTVSPropertyOp13
 70
     1
102
RTVSPropertyOp14
 70
     1
102
RTVSPropertyOp15
 70
     1
102
RTVSPropertyOp16
 70
     1
102
RTVSPropertyOp17
 70
     1
102
RTVSPropertyOp18
 70
     1
102
RTVSPropertyOp19
 70
     1
102
RTVSPropertyOp20
 70
     1
102
RTVSPropertyOp21
 70
     1
102
RTVSPropertyOp22
 70
     1
102
RTVSPropertyOp23
 70
     1
102
RTVSPropertyOp24
 70
     1
102
RTVSPropertyOp25
 70
     1
102
RTVSPropertyOp26
 70
     1
102
RTVSPropertyOp27
 70
     1
102
RTVSPropertyOp28
 70
     1
102
RTVSPropertyOp29
 70
     1
102
RTVSPropertyOp30
 70
     1
102
RTVSPropertyOp31
 70
     1
102
RTVSPropertyOp32
 70
     1
  0
XRECORD
  5
3C2
102
{ACAD_REACTORS
330
3C1
102
}
330
3C1
100
AcDbXrecord
280
     1
102
RTVSPropertyOp0
 70
     1
102
RTVSPropertyOp1
 70
     1
102
RTVSPropertyOp2
 70
     1
102
RTVSPropertyOp3
 70
     1
102
RTVSPropertyOp4
 70
     1
102
RTVSPropertyOp5
 70
     1
102
RTVSPropertyOp6
 70
     1
102
RTVSPropertyOp7
 70
     1
102
RTVSPropertyOp8
 70
     1
102
RTVSPropertyOp9
 70
     1
102
RTVSPropertyOp10
 70
     1
102
RTVSPropertyOp11
 70
     1
102
RTVSPropertyOp12
 70
     1
102
RTVSPropertyOp13
 70
     1
102
RTVSPropertyOp14
 70
     1
102
RTVSPropertyOp15
 70
     1
102
RTVSPropertyOp16
 70
     1
102
RTVSPropertyOp17
 70
     1
102
RTVSPropertyOp18
 70
     1
102
RTVSPropertyOp19
 70
     1
102
RTVSPropertyOp20
 70
     1
102
RTVSPropertyOp21
 70
     1
102
RTVSPropertyOp22
 70
     1
102
RTVSPropertyOp23
 70
     1
102
RTVSPropertyOp24
 70
     1
102
RTVSPropertyOp25
 70
     1
102
RTVSPropertyOp26
 70
     1
102
RTVSPropertyOp27
 70
     1
102
RTVSPropertyOp28
 70
     1
102
RTVSPropertyOp29
 70
     1
102
RTVSPropertyOp30
 70
     1
102
RTVSPropertyOp31
 70
     1
102
RTVSPropertyOp32
 70
     1
  0
XRECORD
  5
3BC
102
{ACAD_REACTORS
330
3BB
102
}
330
3BB
100
AcDbXrecord
280
     1
102
RTVSPropertyOp0
 70
     1
102
RTVSPropertyOp1
 70
     1
102
RTVSPropertyOp2
 70
     1
102
RTVSPropertyOp3
 70
     1
102
RTVSPropertyOp4
 70
     1
102
RTVSPropertyOp5
 70
     1
102
RTVSPropertyOp6
 70
     1
102
RTVSPropertyOp7
 70
     1
102
RTVSPropertyOp8
 70
     1
102
RTVSPropertyOp9
 70
     1
102
RTVSPropertyOp10
 70
     1
102
RTVSPropertyOp11
 70
     1
102
RTVSPropertyOp12
 70
     1
102
RTVSPropertyOp13
 70
     1
102
RTVSPropertyOp14
 70
     1
102
RTVSPropertyOp15
 70
     1
102
RTVSPropertyOp16
 70
     1
102
RTVSPropertyOp17
 70
     1
102
RTVSPropertyOp18
 70
     1
102
RTVSPropertyOp19
 70
     1
102
RTVSPropertyOp20
 70
     1
102
RTVSPropertyOp21
 70
     1
102
RTVSPropertyOp22
 70
     1
102
RTVSPropertyOp23
 70
     1
102
RTVSPropertyOp24
 70
     1
102
RTVSPropertyOp25
 70
     1
102
RTVSPropertyOp26
 70
     1
102
RTVSPropertyOp27
 70
     1
102
RTVSPropertyOp28
 70
     1
102
RTVSPropertyOp29
 70
     1
102
RTVSPropertyOp30
 70
     1
102
RTVSPropertyOp31
 70
     1
102
RTVSPropertyOp32
 70
     1
  0
XRECORD
  5
3BE
102
{ACAD_REACTORS
330
3BD
102
}
330
3BD
100
AcDbXrecord
280
     1
102
RTVSPropertyOp0
 70
     1
102
RTVSPropertyOp1
 70
     1
102
RTVSPropertyOp2
 70
     1
102
RTVSPropertyOp3
 70
     1
102
RTVSPropertyOp4
 70
     1
102
RTVSPropertyOp5
 70
     1
102
RTVSPropertyOp6
 70
     1
102
RTVSPropertyOp7
 70
     1
102
RTVSPropertyOp8
 70
     1
102
RTVSPropertyOp9
 70
     1
102
RTVSPropertyOp10
 70
     1
102
RTVSPropertyOp11
 70
     1
102
RTVSPropertyOp12
 70
     1
102
RTVSPropertyOp13
 70
     1
102
RTVSPropertyOp14
 70
     1
102
RTVSPropertyOp15
 70
     1
102
RTVSPropertyOp16
 70
     1
102
RTVSPropertyOp17
 70
     1
102
RTVSPropertyOp18
 70
     1
102
RTVSPropertyOp19
 70
     1
102
RTVSPropertyOp20
 70
     1
102
RTVSPropertyOp21
 70
     1
102
RTVSPropertyOp22
 70
     1
102
RTVSPropertyOp23
 70
     1
102
RTVSPropertyOp24
 70
     1
102
RTVSPropertyOp25
 70
     1
102
RTVSPropertyOp26
 70
     1
102
RTVSPropertyOp27
 70
     1
102
RTVSPropertyOp28
 70
     1
102
RTVSPropertyOp29
 70
     1
102
RTVSPropertyOp30
 70
     1
102
RTVSPropertyOp31
 70
     1
102
RTVSPropertyOp32
 70
     1
  0
XRECORD
  5
3B4
102
{ACAD_REACTORS
330
3B3
102
}
330
3B3
100
AcDbXrecord
280
     1
102
RTVSPropertyOp0
 70
     1
102
RTVSPropertyOp1
 70
     1
102
RTVSPropertyOp2
 70
     1
102
RTVSPropertyOp3
 70
     1
102
RTVSPropertyOp4
 70
     1
102
RTVSPropertyOp5
 70
     1
102
RTVSPropertyOp6
 70
     1
102
RTVSPropertyOp7
 70
     1
102
RTVSPropertyOp8
 70
     1
102
RTVSPropertyOp9
 70
     1
102
RTVSPropertyOp10
 70
     1
102
RTVSPropertyOp11
 70
     1
102
RTVSPropertyOp12
 70
     1
102
RTVSPropertyOp13
 70
     1
102
RTVSPropertyOp14
 70
     1
102
RTVSPropertyOp15
 70
     1
102
RTVSPropertyOp16
 70
     1
102
RTVSPropertyOp17
 70
     1
102
RTVSPropertyOp18
 70
     1
102
RTVSPropertyOp19
 70
     1
102
RTVSPropertyOp20
 70
     1
102
RTVSPropertyOp21
 70
     1
102
RTVSPropertyOp22
 70
     1
102
RTVSPropertyOp23
 70
     1
102
RTVSPropertyOp24
 70
     1
102
RTVSPropertyOp25
 70
     1
102
RTVSPropertyOp26
 70
     1
102
RTVSPropertyOp27
 70
     1
102
RTVSPropertyOp28
 70
     1
102
RTVSPropertyOp29
 70
     1
102
RTVSPropertyOp30
 70
     1
102
RTVSPropertyOp31
 70
     1
102
RTVSPropertyOp32
 70
     1
  0
XRECORD
  5
3A8
102
{ACAD_REACTORS
330
3A7
102
}
330
3A7
100
AcDbXrecord
280
     1
102
RTVSPropertyOp0
 70
     1
102
RTVSPropertyOp1
 70
     1
102
RTVSPropertyOp2
 70
     1
102
RTVSPropertyOp3
 70
     1
102
RTVSPropertyOp4
 70
     1
102
RTVSPropertyOp5
 70
     1
102
RTVSPropertyOp6
 70
     1
102
RTVSPropertyOp7
 70
     1
102
RTVSPropertyOp8
 70
     1
102
RTVSPropertyOp9
 70
     1
102
RTVSPropertyOp10
 70
     1
102
RTVSPropertyOp11
 70
     1
102
RTVSPropertyOp12
 70
     1
102
RTVSPropertyOp13
 70
     1
102
RTVSPropertyOp14
 70
     1
102
RTVSPropertyOp15
 70
     1
102
RTVSPropertyOp16
 70
     1
102
RTVSPropertyOp17
 70
     1
102
RTVSPropertyOp18
 70
     1
102
RTVSPropertyOp19
 70
     1
102
RTVSPropertyOp20
 70
     1
102
RTVSPropertyOp21
 70
     1
102
RTVSPropertyOp22
 70
     1
102
RTVSPropertyOp23
 70
     1
102
RTVSPropertyOp24
 70
     1
102
RTVSPropertyOp25
 70
     1
102
RTVSPropertyOp26
 70
     1
102
RTVSPropertyOp27
 70
     1
102
RTVSPropertyOp28
 70
     1
102
RTVSPropertyOp29
 70
     1
102
RTVSPropertyOp30
 70
     1
102
RTVSPropertyOp31
 70
     1
102
RTVSPropertyOp32
 70
     1
  0
XRECORD
  5
3C0
102
{ACAD_REACTORS
330
3BF
102
}
330
3BF
100
AcDbXrecord
280
     1
102
RTVSPropertyOp0
 70
     1
102
RTVSPropertyOp1
 70
     1
102
RTVSPropertyOp2
 70
     1
102
RTVSPropertyOp3
 70
     1
102
RTVSPropertyOp4
 70
     1
102
RTVSPropertyOp5
 70
     1
102
RTVSPropertyOp6
 70
     1
102
RTVSPropertyOp7
 70
     1
102
RTVSPropertyOp8
 70
     1
102
RTVSPropertyOp9
 70
     1
102
RTVSPropertyOp10
 70
     1
102
RTVSPropertyOp11
 70
     1
102
RTVSPropertyOp12
 70
     1
102
RTVSPropertyOp13
 70
     1
102
RTVSPropertyOp14
 70
     1
102
RTVSPropertyOp15
 70
     1
102
RTVSPropertyOp16
 70
     1
102
RTVSPropertyOp17
 70
     1
102
RTVSPropertyOp18
 70
     1
102
RTVSPropertyOp19
 70
     1
102
RTVSPropertyOp20
 70
     1
102
RTVSPropertyOp21
 70
     1
102
RTVSPropertyOp22
 70
     1
102
RTVSPropertyOp23
 70
     1
102
RTVSPropertyOp24
 70
     1
102
RTVSPropertyOp25
 70
     1
102
RTVSPropertyOp26
 70
     1
102
RTVSPropertyOp27
 70
     1
102
RTVSPropertyOp28
 70
     1
102
RTVSPropertyOp29
 70
     1
102
RTVSPropertyOp30
 70
     1
102
RTVSPropertyOp31
 70
     1
102
RTVSPropertyOp32
 70
     1
  0
ENDSEC
  0
EOF
