  0
SECTION
  2
HEADER
  9
$ACADVER
  1
AC1014
  9
$ACADMAINTVER
 70
           0
  9
$DWGCODEPAGE
  3
DOS932
  9
$INSBASE
 10
0.0
 20
0.0
 30
0.0
  9
$EXTMIN
 10
1.000000000000E+20
 20
1.000000000000E+20
 30
1.000000000000E+20
  9
$EXTMAX
 10
-1.000000000000E+20
 20
-1.000000000000E+20
 30
-1.000000000000E+20
  9
$LIMMIN
 10
0.0
 20
0.0
  9
$LIMMAX
 10
0.0
 20
0.0
  9
$ORTHOMODE
 70
           0
  9
$REGENMODE
 70
           1
  9
$FILLMODE
 70
           1
  9
$QTEXTMODE
 70
           0
  9
$MIRRTEXT
 70
           1
  9
$DRAGMODE
 70
           2
  9
$LTSCALE
 40
1.0
  9
$OSMODE
 70
           0
  9
$ATTMODE
 70
           1
  9
$TEXTSIZE
 40
0.2
  9
$TRACEWID
 40
0.05
  9
$TEXTSTYLE
  7
STANDARD
  9
$CLAYER
  8
0
  9
$CELTYPE
  6
CONTINUOUS
  9
$CECOLOR
 62
         256
  9
$CELTSCALE
 40
1.0
  9
$DELOBJ
 70
           1
  9
$DISPSILH
 70
           0
  9
$DIMSCALE
 40
1.0
  9
$DIMASZ
 40
0.18
  9
$DIMEXO
 40
0.0625
  9
$DIMDLI
 40
0.38
  9
$DIMRND
 40
0.0
  9
$DIMDLE
 40
0.0
  9
$DIMEXE
 40
0.18
  9
$DIMTP
 40
0.0
  9
$DIMTM
 40
0.0
  9
$DIMTXT
 40
0.18
  9
$DIMCEN
 40
0.09
  9
$DIMTSZ
 40
0.0
  9
$DIMTOL
 70
           0
  9
$DIMLIM
 70
           0
  9
$DIMTIH
 70
           1
  9
$DIMTOH
 70
           1
  9
$DIMSE1
 70
           0
  9
$DIMSE2
 70
           0
  9
$DIMTAD
 70
           0
  9
$DIMZIN
 70
           0
  9
$DIMBLK
  1

  9
$DIMASO
 70
           1
  9
$DIMSHO
 70
           1
  9
$DIMPOST
  1

  9
$DIMAPOST
  1

  9
$DIMALT
 70
           0
  9
$DIMALTD
 70
           2
  9
$DIMALTF
 40
25.4
  9
$DIMLFAC
 40
1.0
  9
$DIMTOFL
 70
           0
  9
$DIMTVP
 40
0.0
  9
$DIMTIX
 70
           0
  9
$DIMSOXD
 70
           0
  9
$DIMSAH
 70
           0
  9
$DIMBLK1
  1

  9
$DIMBLK2
  1

  9
$DIMSTYLE
  2
STANDARD
  9
$DIMCLRD
 70
           0
  9
$DIMCLRE
 70
           0
  9
$DIMCLRT
 70
           0
  9
$DIMTFAC
 40
1.0
  9
$DIMGAP
 40
0.09
  9
$DIMJUST
 70
           0
  9
$DIMSD1
 70
           0
  9
$DIMSD2
 70
           0
  9
$DIMTOLJ
 70
           1
  9
$DIMTZIN
 70
           0
  9
$DIMALTZ
 70
           0
  9
$DIMALTTZ
 70
           0
  9
$DIMFIT
 70
           3
  9
$DIMUPT
 70
           0
  9
$DIMUNIT
 70
           2
  9
$DIMDEC
 70
           4
  9
$DIMTDEC
 70
           4
  9
$DIMALTU
 70
           2
  9
$DIMALTTD
 70
           2
  9
$DIMTXSTY
  7
STANDARD
  9
$DIMAUNIT
 70
           0
  9
$LUNITS
 70
           2
  9
$LUPREC
 70
           4
  9
$SKETCHINC
 40
0.1
  9
$FILLETRAD
 40
0.0
  9
$AUNITS
 70
           0
  9
$AUPREC
 70
           0
  9
$MENU
  1
acad
  9
$ELEVATION
 40
0.0
  9
$PELEVATION
 40
0.0
  9
$THICKNESS
 40
0.0
  9
$LIMCHECK
 70
           0
  9
$BLIPMODE
 70
           1
  9
$CHAMFERA
 40
0.0
  9
$CHAMFERB
 40
0.0
  9
$CHAMFERC
 40
0.0
  9
$CHAMFERD
 40
0.0
  9
$SKPOLY
 70
           0
  9
$TDCREATE
 40
0.000000000
  9
$TDUPDATE
 40
0.000000000
  9
$TDINDWG
 40
0.0000000000
  9
$TDUSRTIMER
 40
0.0000000000
  9
$USRTIMER
 70
           1
  9
$ANGBASE
 50
0.0
  9
$ANGDIR
 70
           0
  9
$PDMODE
 70
           0
  9
$PDSIZE
 40
0.0
  9
$PLINEWID
 40
0.0
  9
$COORDS
 70
           0
  9
$SPLFRAME
 70
           0
  9
$SPLINETYPE
 70
           6
  9
$SPLINESEGS
 70
           8
  9
$ATTDIA
 70
           0
  9
$ATTREQ
 70
           1
  9
$HANDLING
 70
           1
  9
$HANDSEED
  5
743
  9
$SURFTAB1
 70
           6
  9
$SURFTAB2
 70
           6
  9
$SURFTYPE
 70
           6
  9
$SURFU
 70
           6
  9
$SURFV
 70
           6
  9
$UCSNAME
  2

  9
$UCSORG
 10
0.0
 20
0.0
 30
0.0
  9
$UCSXDIR
 10
1.0
 20
0.0
 30
0.0
  9
$UCSYDIR
 10
0.0
 20
1.0
 30
0.0
  9
$PUCSNAME
  2

  9
$PUCSORG
 10
0.0
 20
0.0
 30
0.0
  9
$PUCSXDIR
 10
1.0
 20
0.0
 30
0.0
  9
$PUCSYDIR
 10
0.0
 20
1.0
 30
0.0
  9
$USERI1
 70
           0
  9
$USERI2
 70
           0
  9
$USERI3
 70
           0
  9
$USERI4
 70
           0
  9
$USERI5
 70
           0
  9
$USERR1
 40
0.0
  9
$USERR2
 40
0.0
  9
$USERR3
 40
0.0
  9
$USERR4
 40
0.0
  9
$USERR5
 40
0.0
  9
$WORLDVIEW
 70
           1
  9
$SHADEDGE
 70
           3
  9
$SHADEDIF
 70
          70
  9
$TILEMODE
 70
           1
  9
$MAXACTVP
 70
          16
  9
$PINSBASE
 10
0.0
 20
0.0
 30
0.0
  9
$PLIMCHECK
 70
           0
  9
$PEXTMIN
 10
1.000000000000E+20
 20
1.000000000000E+20
 30
1.000000000000E+20
  9
$PEXTMAX
 10
-1.000000000000E+20
 20
-1.000000000000E+20
 30
-1.000000000000E+20
  9
$PLIMMIN
 10
0.0
 20
0.0
  9
$PLIMMAX
 10
12.0
 20
9.0
  9
$UNITMODE
 70
           0
  9
$VISRETAIN
 70
           0
  9
$PLINEGEN
 70
           1
  9
$PSLTSCALE
 70
           0
  9
$TREEDEPTH
 70
        3020
  9
$PICKSTYLE
 70
           1
  9
$CMLSTYLE
  2
STANDARD
  9
$CMLJUST
 70
           0
  9
$CMLSCALE
 40
1.0
  9
$PROXYGRAPHICS
 70
           0
  9
$MEASUREMENT
 70
           0
  0
ENDSEC
  0
SECTION
  2
CLASSES
  0
CLASS
  1
LWPOLYLINE
  2
AcDbPolyline
  3
"AutoCAD"
 90
        0
280
           0
281
           1
  0
CLASS
  1
IMAGE
  2
AcDbRasterImage
  3
ISM
 90
      127
280
           0
281
           1
  0
CLASS
  1
OLE2FRAME
  2
AcDbOle2Frame
  3
""
 90
        0
280
           0
281
           1
  0
CLASS
  1
HATCH
  2
AcDbHatch
  3
"ACAD_SEDONA"
 90
        0
280
           0
281
           1
  0
CLASS
  1
DICTIONARYVAR
  2
AcDbDictionaryVar
  3
"AutoCAD"
 90
        0
280
           0
281
           0
  0
CLASS
  1
RASTERVARIABLES
  2
AcDbRasterVariables
  3
ISM
 90
        0
280
           0
281
           0
  0
CLASS
  1
IMAGEDEF
  2
AcDbRasterImageDef
  3
ISM
 90
        0
280
           0
281
           0
  0
CLASS
  1
IMAGEDEF_REACTOR
  2
AcDbRasterImageDefReactor
  3
ISM
 90
        1
280
           0
281
           0
  0
CLASS
  1
IDBUFFER
  2
AcDbIdBuffer
  3
"Acad"
 90
        0
280
           0
281
           0
  0
CLASS
  1
SPATIAL_FILTER
  2
AcDbSpatialFilter
  3
"Acad"
 90
        0
280
           0
281
           0
  0
CLASS
  1
XRECORD
  2
AcDbXrecord
  3
"<Built In>"
 90
        0
280
           0
281
           0
  0
CLASS
  1
SORTENTSTABLE
  2
AcDbSortentsTable
  3
"AutoCAD"
 90
        0
280
           0
281
           0
  0
CLASS
  1
LAYER_INDEX
  2
AcDbLayerIndex
  3
"Acad"
 90
        0
280
           0
281
           0
  0
CLASS
  1
SPATIAL_INDEX
  2
AcDbSpatialIndex
  3
"Acad"
 90
        0
280
           0
281
           0
  0
CLASS
  1
OBJECT_PTR
  2
CAseDLPNTableRecord
  3
"ASE-LPNTableRecord"
 90
        1
280
           0
281
           0
  0
CLASS
  1
LAYOUT
  2
AcDbLayout
  3
"AutoCAD 2000"
 90
        1
280
           0
281
           0
  0
CLASS
  1
PLOTSETTINGS
  2
AcDbPlotSettings
  3
"AutoCAD 2000"
 90
        1
280
           0
281
           0
  0
CLASS
  1
ACDBDICTIONARYWDFLT
  2
AcDbDictionaryWithDefault
  3
"AutoCAD 2000"
 90
        1
280
           0
281
           0
  0
CLASS
  1
ACDBPLACEHOLDER
  2
AcDbPlaceHolder
  3
"AutoCAD 2000"
 90
        1
280
           0
281
           0
  0
CLASS
  1
VBA_PROJECT
  2
AcDbVbaProject
  3
"acadvba"
 90
        1
280
           0
281
           0
  0
CLASS
  1
WIPEOUT
  2
AcDbWipeout
  3
WipeOut|AutoCAD Express Tool|expresstools@autodesk.com
 90
      127
280
           0
281
           1
  0
CLASS
  1
WIPEOUTVARIABLES
  2
AcDbWipeoutVariables
  3
WipeOut|AutoCAD Express Tool|expresstools@autodesk.com
 90
        0
280
           0
281
           0
  0
CLASS
  1
RTEXT
  2
RText
  3
RText|AutoCAD Express Tool|expresstools@autodesk.com
 90
        0
280
           0
281
           1
  0
CLASS
  1
ARCALIGNEDTEXT
  2
AcDbArcAlignedText
  3
ATEXT|AutoCAD Express Tool|expresstools@autodesk.com
 90
        0
280
           0
281
           1
  0
ENDSEC
  0
SECTION
  2
TABLES
  0
TABLE
  2
VPORT
  5
7
100
AcDbSymbolTable
 70
           1
  0
VPORT
  5
15
100
AcDbSymbolTableRecord
100
AcDbViewportTableRecord
  2
*ACTIVE
 70
           0
 10
0.0
 20
0.0
 11
1.0
 21
1.0
 12
6.591288
 22
4.579184
 13
0.0
 23
0.0
 14
1.0
 24
1.0
 15
0.0
 25
0.0
 16
0.0
 26
0.0
 36
1.0
 17
0.0
 27
0.0
 37
0.0
 40
9.158369
 41
0.688564
 42
50.0
 43
0.0
 44
0.0
 50
0.0
 51
0.0
 71
           0
 72
         100
 73
           1
 74
           1
 75
           0
 76
           0
 77
           0
 78
           0
  0
ENDTAB
  0
TABLE
  2
LTYPE
  5
4
100
AcDbSymbolTable
 70
          10
  0
LTYPE
  5
11
100
AcDbSymbolTableRecord
100
AcDbLinetypeTableRecord
  2
BYBLOCK
 70
          64
  3

 72
          65
 73
           0
 40
0.0
  0
LTYPE
  5
12
100
AcDbSymbolTableRecord
100
AcDbLinetypeTableRecord
  2
BYLAYER
 70
          64
  3

 72
          65
 73
           0
 40
0.0
  0
LTYPE
  5
13
100
AcDbSymbolTableRecord
100
AcDbLinetypeTableRecord
  2
CONTINUOUS
 70
          64
  3
Solid line
 72
          65
 73
           0
 40
0.0
  0
LTYPE
  5
1D
100
AcDbSymbolTableRecord
100
AcDbLinetypeTableRecord
  2
DASHED
 70
          64
  3
Dashed
 72
          65
 73
           2
 40
15.0
 49
12.0
 74
           0
 49
-3.0
 74
           0
  0
LTYPE
  5
1E
100
AcDbSymbolTableRecord
100
AcDbLinetypeTableRecord
  2
DOTTED
 70
          64
  3
Dotted
 72
          65
 73
           2
 40
3.5
 49
0.5
 74
           0
 49
-3.0
 74
           0
  0
LTYPE
  5
1F
100
AcDbSymbolTableRecord
100
AcDbLinetypeTableRecord
  2
DOT_CENTER
 70
          64
  3
Dot_Center
 72
          65
 73
           4
 40
2.0
 49
1.25
 74
           0
 49
-0.25
 74
           0
 49
0.25
 74
           0
 49
-0.25
 74
           0
  0
LTYPE
  5
20
100
AcDbSymbolTableRecord
100
AcDbLinetypeTableRecord
  2
LONG_DASHED
 70
          64
  3
Long_Dashed
 72
          65
 73
           2
 40
2.0
 49
1.5
 74
           0
 49
-0.5
 74
           0
  0
LTYPE
  5
21
100
AcDbSymbolTableRecord
100
AcDbLinetypeTableRecord
  2
DASH_CENTER
 70
          64
  3
Dash_Center
 72
          65
 73
           4
 40
36.0
 49
24.0
 74
           0
 49
-3.0
 74
           0
 49
6.0
 74
           0
 49
-3.0
 74
           0
  0
LTYPE
  5
22
100
AcDbSymbolTableRecord
100
AcDbLinetypeTableRecord
  2
PHANTOM
 70
          64
  3
Phantom
 72
          65
 73
           6
 40
2.5
 49
1.25
 74
           0
 49
-0.25
 74
           0
 49
0.25
 74
           0
 49
-0.25
 74
           0
 49
0.25
 74
           0
 49
-0.25
 74
           0
  0
LTYPE
  5
23
100
AcDbSymbolTableRecord
100
AcDbLinetypeTableRecord
  2
CENTER_DASH_DASH
 70
          64
  3
Center_Dash_Dash
 72
          65
 73
           6
 40
22.0
 49
12.0
 74
           0
 49
-3.0
 74
           0
 49
0.5
 74
           0
 49
-3.0
 74
           0
 49
0.5
 74
           0
 49
-3.0
 74
           0
  0
ENDTAB
  0
TABLE
  2
LAYER
  5
2
100
AcDbSymbolTable
 70
           3
  0
LAYER
  5
14
100
AcDbSymbolTableRecord
100
AcDbLayerTableRecord
  2
0
 70
           0
 62
           7
  6
CONTINUOUS
  0
LAYER
  5
24
100
AcDbSymbolTableRecord
100
AcDbLayerTableRecord
  2
1
 70
           0
 62
           7
  6
CONTINUOUS
  0
LAYER
  5
25
100
AcDbSymbolTableRecord
100
AcDbLayerTableRecord
  2
____
 70
           0
 62
           7
  6
CONTINUOUS
  0
ENDTAB
  0
TABLE
  2
STYLE
  5
3
100
AcDbSymbolTable
 70
           3
  0
STYLE
  5
17
100
AcDbSymbolTableRecord
100
AcDbTextStyleTableRecord
  2
STANDARD
 70
           0
 40
0.0
 41
1.0
 50
0.0
 71
           0
 42
0.0
  3
txt
  4

  0
STYLE
  5
731
100
AcDbSymbolTableRecord
100
AcDbTextStyleTableRecord
  2
CONVERTER_1
 70
           0
 40
0.0
 41
0.81
 50
0.0
 71
           0
 42
0.0
  3
txt.shx
  4

  0
STYLE
  5
73C
100
AcDbSymbolTableRecord
100
AcDbTextStyleTableRecord
  2
CONVERTER_2
 70
           0
 40
0.0
 41
0.9
 50
0.0
 71
           0
 42
0.0
  3
txt.shx
  4

  0
ENDTAB
  0
TABLE
  2
VIEW
  5
5
100
AcDbSymbolTable
 70
           0
  0
ENDTAB
  0
TABLE
  2
UCS
  5
6
100
AcDbSymbolTable
 70
           0
  0
ENDTAB
  0
TABLE
  2
APPID
  5
8
100
AcDbSymbolTable
 70
           1
  0
APPID
  5
16
100
AcDbSymbolTableRecord
100
AcDbRegAppTableRecord
  2
ACAD
 70
           0
  0
ENDTAB
  0
TABLE
  2
DIMSTYLE
  5
9
100
AcDbSymbolTable
 70
           1
  0
DIMSTYLE
105
18
100
AcDbSymbolTableRecord
100
AcDbDimStyleTableRecord
  2
STANDARD
 70
           0
  3

  4

  5

  6

  7

 40
1.0
 41
0.18
 42
0.0625
 43
0.38
 44
0.18
 45
0.0
 46
0.0
 47
0.0
 48
0.0
 71
           0
 72
           0
 73
           1
 74
           1
 75
           0
 76
           0
 77
           0
 78
           0
140
0.18
141
0.09
142
0.0
143
25.4
144
1.0
145
0.0
146
1.0
147
0.09
170
           0
171
           2
172
           0
173
           0
174
           0
175
           0
176
           0
177
           0
178
           0
270
           2
271
           4
272
           4
273
           2
274
           2
275
           0
280
           0
281
           0
282
           0
283
           1
284
           0
285
           0
286
           0
287
           0
288
           0
340
17
  0
ENDTAB
  0
TABLE
  2
BLOCK_RECORD
  5
1
100
AcDbSymbolTable
 70
         186
  0
BLOCK_RECORD
  5
A
100
AcDbSymbolTableRecord
100
AcDbBlockTableRecord
  2
*MODEL_SPACE
  0
BLOCK_RECORD
  5
B
100
AcDbSymbolTableRecord
100
AcDbBlockTableRecord
  2
*PAPER_SPACE
  0
BLOCK_RECORD
  5
26
100
AcDbSymbolTableRecord
100
AcDbBlockTableRecord
  2
SHG_65_2UH__G______1
  0
BLOCK_RECORD
  5
28
100
AcDbSymbolTableRecord
100
AcDbBlockTableRecord
  2
SHG_65_2UH__G______2
  0
BLOCK_RECORD
  5
2B
100
AcDbSymbolTableRecord
100
AcDbBlockTableRecord
  2
SHG_65_2UH__G______3
  0
BLOCK_RECORD
  5
2D
100
AcDbSymbolTableRecord
100
AcDbBlockTableRecord
  2
SHG_65_2UH__G______4
  0
BLOCK_RECORD
  5
2F
100
AcDbSymbolTableRecord
100
AcDbBlockTableRecord
  2
SHG_65_2UH__G______5
  0
BLOCK_RECORD
  5
31
100
AcDbSymbolTableRecord
100
AcDbBlockTableRecord
  2
SHG_65_2UH__G______6
  0
BLOCK_RECORD
  5
33
100
AcDbSymbolTableRecord
100
AcDbBlockTableRecord
  2
SHG_65_2UH__G______7
  0
BLOCK_RECORD
  5
35
100
AcDbSymbolTableRecord
100
AcDbBlockTableRecord
  2
SHG_65_2UH__G______8
  0
BLOCK_RECORD
  5
37
100
AcDbSymbolTableRecord
100
AcDbBlockTableRecord
  2
SHG_65_2UH__G______9
  0
BLOCK_RECORD
  5
39
100
AcDbSymbolTableRecord
100
AcDbBlockTableRecord
  2
SHG_65_2UH__G______10
  0
BLOCK_RECORD
  5
3B
100
AcDbSymbolTableRecord
100
AcDbBlockTableRecord
  2
SHG_65_2UH__G______11
  0
BLOCK_RECORD
  5
3D
100
AcDbSymbolTableRecord
100
AcDbBlockTableRecord
  2
SHG_65_2UH__G______12
  0
BLOCK_RECORD
  5
3F
100
AcDbSymbolTableRecord
100
AcDbBlockTableRecord
  2
SHG_65_2UH__G______13
  0
BLOCK_RECORD
  5
41
100
AcDbSymbolTableRecord
100
AcDbBlockTableRecord
  2
SHG_65_2UH__G______14
  0
BLOCK_RECORD
  5
44
100
AcDbSymbolTableRecord
100
AcDbBlockTableRecord
  2
SHG_65_2UH__G______15
  0
BLOCK_RECORD
  5
46
100
AcDbSymbolTableRecord
100
AcDbBlockTableRecord
  2
SHG_65_2UH__G______16
  0
BLOCK_RECORD
  5
48
100
AcDbSymbolTableRecord
100
AcDbBlockTableRecord
  2
SHG_65_2UH__G______17
  0
BLOCK_RECORD
  5
4B
100
AcDbSymbolTableRecord
100
AcDbBlockTableRecord
  2
SHG_65_2UH__G______18
  0
BLOCK_RECORD
  5
4D
100
AcDbSymbolTableRecord
100
AcDbBlockTableRecord
  2
SHG_65_2UH__G______19
  0
BLOCK_RECORD
  5
4F
100
AcDbSymbolTableRecord
100
AcDbBlockTableRecord
  2
SHG_65_2UH__G______20
  0
BLOCK_RECORD
  5
51
100
AcDbSymbolTableRecord
100
AcDbBlockTableRecord
  2
SHG_65_2UH__G______21
  0
BLOCK_RECORD
  5
53
100
AcDbSymbolTableRecord
100
AcDbBlockTableRecord
  2
SHG_65_2UH__G______22
  0
BLOCK_RECORD
  5
55
100
AcDbSymbolTableRecord
100
AcDbBlockTableRecord
  2
SHG_65_2UH__G______23
  0
BLOCK_RECORD
  5
57
100
AcDbSymbolTableRecord
100
AcDbBlockTableRecord
  2
SHG_65_2UH__G______24
  0
BLOCK_RECORD
  5
5A
100
AcDbSymbolTableRecord
100
AcDbBlockTableRecord
  2
SHG_65_2UH__G______25
  0
BLOCK_RECORD
  5
5C
100
AcDbSymbolTableRecord
100
AcDbBlockTableRecord
  2
SHG_65_2UH__G______26
  0
BLOCK_RECORD
  5
5E
100
AcDbSymbolTableRecord
100
AcDbBlockTableRecord
  2
SHG_65_2UH__G______27
  0
BLOCK_RECORD
  5
60
100
AcDbSymbolTableRecord
100
AcDbBlockTableRecord
  2
SHG_65_2UH__G______28
  0
BLOCK_RECORD
  5
62
100
AcDbSymbolTableRecord
100
AcDbBlockTableRecord
  2
SHG_65_2UH__G______29
  0
BLOCK_RECORD
  5
64
100
AcDbSymbolTableRecord
100
AcDbBlockTableRecord
  2
SHG_65_2UH__G______30
  0
BLOCK_RECORD
  5
66
100
AcDbSymbolTableRecord
100
AcDbBlockTableRecord
  2
SHG_65_2UH__G______31
  0
BLOCK_RECORD
  5
68
100
AcDbSymbolTableRecord
100
AcDbBlockTableRecord
  2
SHG_65_2UH__G______32
  0
BLOCK_RECORD
  5
6A
100
AcDbSymbolTableRecord
100
AcDbBlockTableRecord
  2
SHG_65_2UH__G______33
  0
BLOCK_RECORD
  5
6C
100
AcDbSymbolTableRecord
100
AcDbBlockTableRecord
  2
SHG_65_2UH__G______34
  0
BLOCK_RECORD
  5
6E
100
AcDbSymbolTableRecord
100
AcDbBlockTableRecord
  2
SHG_65_2UH__G______35
  0
BLOCK_RECORD
  5
70
100
AcDbSymbolTableRecord
100
AcDbBlockTableRecord
  2
SHG_65_2UH__G______36
  0
BLOCK_RECORD
  5
72
100
AcDbSymbolTableRecord
100
AcDbBlockTableRecord
  2
SHG_65_2UH__G______37
  0
BLOCK_RECORD
  5
74
100
AcDbSymbolTableRecord
100
AcDbBlockTableRecord
  2
SHG_65_2UH__G______38
  0
BLOCK_RECORD
  5
77
100
AcDbSymbolTableRecord
100
AcDbBlockTableRecord
  2
SHG_65_2UH__G______39
  0
BLOCK_RECORD
  5
79
100
AcDbSymbolTableRecord
100
AcDbBlockTableRecord
  2
SHG_65_2UH__G______40
  0
BLOCK_RECORD
  5
7B
100
AcDbSymbolTableRecord
100
AcDbBlockTableRecord
  2
SHG_65_2UH__G______41
  0
BLOCK_RECORD
  5
7D
100
AcDbSymbolTableRecord
100
AcDbBlockTableRecord
  2
SHG_65_2UH__G______42
  0
BLOCK_RECORD
  5
7F
100
AcDbSymbolTableRecord
100
AcDbBlockTableRecord
  2
SHG_65_2UH__G______43
  0
BLOCK_RECORD
  5
81
100
AcDbSymbolTableRecord
100
AcDbBlockTableRecord
  2
SHG_65_2UH__G______44
  0
BLOCK_RECORD
  5
83
100
AcDbSymbolTableRecord
100
AcDbBlockTableRecord
  2
SHG_65_2UH__G______45
  0
BLOCK_RECORD
  5
86
100
AcDbSymbolTableRecord
100
AcDbBlockTableRecord
  2
SHG_65_2UH__G______46
  0
BLOCK_RECORD
  5
88
100
AcDbSymbolTableRecord
100
AcDbBlockTableRecord
  2
SHG_65_2UH__G______47
  0
BLOCK_RECORD
  5
8A
100
AcDbSymbolTableRecord
100
AcDbBlockTableRecord
  2
SHG_65_2UH__G______48
  0
BLOCK_RECORD
  5
8D
100
AcDbSymbolTableRecord
100
AcDbBlockTableRecord
  2
SHG_65_2UH__G______49
  0
BLOCK_RECORD
  5
8F
100
AcDbSymbolTableRecord
100
AcDbBlockTableRecord
  2
SHG_65_2UH__G______50
  0
BLOCK_RECORD
  5
91
100
AcDbSymbolTableRecord
100
AcDbBlockTableRecord
  2
SHG_65_2UH__G______51
  0
BLOCK_RECORD
  5
93
100
AcDbSymbolTableRecord
100
AcDbBlockTableRecord
  2
SHG_65_2UH__G______52
  0
BLOCK_RECORD
  5
95
100
AcDbSymbolTableRecord
100
AcDbBlockTableRecord
  2
SHG_65_2UH__G______53
  0
BLOCK_RECORD
  5
97
100
AcDbSymbolTableRecord
100
AcDbBlockTableRecord
  2
SHG_65_2UH__G______54
  0
BLOCK_RECORD
  5
99
100
AcDbSymbolTableRecord
100
AcDbBlockTableRecord
  2
SHG_65_2UH__G______55
  0
BLOCK_RECORD
  5
9B
100
AcDbSymbolTableRecord
100
AcDbBlockTableRecord
  2
SHG_65_2UH__G______56
  0
BLOCK_RECORD
  5
9D
100
AcDbSymbolTableRecord
100
AcDbBlockTableRecord
  2
SHG_65_2UH__G______57
  0
BLOCK_RECORD
  5
9F
100
AcDbSymbolTableRecord
100
AcDbBlockTableRecord
  2
SHG_65_2UH__G______58
  0
BLOCK_RECORD
  5
A1
100
AcDbSymbolTableRecord
100
AcDbBlockTableRecord
  2
SHG_65_2UH__G______59
  0
BLOCK_RECORD
  5
A3
100
AcDbSymbolTableRecord
100
AcDbBlockTableRecord
  2
SHG_65_2UH__G______60
  0
BLOCK_RECORD
  5
A6
100
AcDbSymbolTableRecord
100
AcDbBlockTableRecord
  2
CSD_25_2A_W____61
  0
BLOCK_RECORD
  5
A8
100
AcDbSymbolTableRecord
100
AcDbBlockTableRecord
  2
KS0206__62
  0
BLOCK_RECORD
  5
AA
100
AcDbSymbolTableRecord
100
AcDbBlockTableRecord
  2
KS0206__63
  0
BLOCK_RECORD
  5
AC
100
AcDbSymbolTableRecord
100
AcDbBlockTableRecord
  2
CSD_25_2A_W____64
  0
BLOCK_RECORD
  5
AE
100
AcDbSymbolTableRecord
100
AcDbBlockTableRecord
  2
SHG_65_2UH__G______65
  0
BLOCK_RECORD
  5
B0
100
AcDbSymbolTableRecord
100
AcDbBlockTableRecord
  2
SHG_65_2UH__G______66
  0
BLOCK_RECORD
  5
B3
100
AcDbSymbolTableRecord
100
AcDbBlockTableRecord
  2
SHG_65_2UH__G______67
  0
BLOCK_RECORD
  5
B5
100
AcDbSymbolTableRecord
100
AcDbBlockTableRecord
  2
SHG_65_2UH__G______68
  0
BLOCK_RECORD
  5
B7
100
AcDbSymbolTableRecord
100
AcDbBlockTableRecord
  2
SHG_65_2UH__G______69
  0
BLOCK_RECORD
  5
B9
100
AcDbSymbolTableRecord
100
AcDbBlockTableRecord
  2
SHG_65_2UH__G______70
  0
BLOCK_RECORD
  5
BB
100
AcDbSymbolTableRecord
100
AcDbBlockTableRecord
  2
SHG_65_2UH__G______71
  0
BLOCK_RECORD
  5
BD
100
AcDbSymbolTableRecord
100
AcDbBlockTableRecord
  2
SHG_65_2UH__G______72
  0
BLOCK_RECORD
  5
BF
100
AcDbSymbolTableRecord
100
AcDbBlockTableRecord
  2
SHG_65_2UH__G______73
  0
BLOCK_RECORD
  5
C1
100
AcDbSymbolTableRecord
100
AcDbBlockTableRecord
  2
SHG_65_2UH__G______74
  0
BLOCK_RECORD
  5
C3
100
AcDbSymbolTableRecord
100
AcDbBlockTableRecord
  2
SHG_65_2UH__G______75
  0
BLOCK_RECORD
  5
C5
100
AcDbSymbolTableRecord
100
AcDbBlockTableRecord
  2
SHG_65_2UH__G______76
  0
BLOCK_RECORD
  5
C7
100
AcDbSymbolTableRecord
100
AcDbBlockTableRecord
  2
SHG_65_2UH__G______77
  0
BLOCK_RECORD
  5
C9
100
AcDbSymbolTableRecord
100
AcDbBlockTableRecord
  2
SHG_65_2UH__G______78
  0
BLOCK_RECORD
  5
CC
100
AcDbSymbolTableRecord
100
AcDbBlockTableRecord
  2
SHG_65_2UH__G______79
  0
BLOCK_RECORD
  5
CE
100
AcDbSymbolTableRecord
100
AcDbBlockTableRecord
  2
SHG_65_2UH__G______80
  0
BLOCK_RECORD
  5
D0
100
AcDbSymbolTableRecord
100
AcDbBlockTableRecord
  2
SHG_65_2UH__G______81
  0
BLOCK_RECORD
  5
D3
100
AcDbSymbolTableRecord
100
AcDbBlockTableRecord
  2
SHG_65_2UH__G______82
  0
BLOCK_RECORD
  5
D5
100
AcDbSymbolTableRecord
100
AcDbBlockTableRecord
  2
SHG_65_2UH__G______83
  0
BLOCK_RECORD
  5
D7
100
AcDbSymbolTableRecord
100
AcDbBlockTableRecord
  2
SHG_65_2UH__G______84
  0
BLOCK_RECORD
  5
D9
100
AcDbSymbolTableRecord
100
AcDbBlockTableRecord
  2
SHG_65_2UH__G______85
  0
BLOCK_RECORD
  5
DB
100
AcDbSymbolTableRecord
100
AcDbBlockTableRecord
  2
SHG_65_2UH__G______86
  0
BLOCK_RECORD
  5
DD
100
AcDbSymbolTableRecord
100
AcDbBlockTableRecord
  2
SHG_65_2UH__G______87
  0
BLOCK_RECORD
  5
DF
100
AcDbSymbolTableRecord
100
AcDbBlockTableRecord
  2
SHG_65_2UH__G______88
  0
BLOCK_RECORD
  5
E2
100
AcDbSymbolTableRecord
100
AcDbBlockTableRecord
  2
SHG_65_2UH__G______89
  0
BLOCK_RECORD
  5
E4
100
AcDbSymbolTableRecord
100
AcDbBlockTableRecord
  2
SHG_65_2UH__G______90
  0
BLOCK_RECORD
  5
E6
100
AcDbSymbolTableRecord
100
AcDbBlockTableRecord
  2
SHG_65_2UH__G______91
  0
BLOCK_RECORD
  5
E8
100
AcDbSymbolTableRecord
100
AcDbBlockTableRecord
  2
SHG_65_2UH__G______92
  0
BLOCK_RECORD
  5
EA
100
AcDbSymbolTableRecord
100
AcDbBlockTableRecord
  2
SHG_65_2UH__G______93
  0
BLOCK_RECORD
  5
EC
100
AcDbSymbolTableRecord
100
AcDbBlockTableRecord
  2
SHG_65_2UH__G______94
  0
BLOCK_RECORD
  5
EE
100
AcDbSymbolTableRecord
100
AcDbBlockTableRecord
  2
SHG_65_2UH__G______95
  0
BLOCK_RECORD
  5
F0
100
AcDbSymbolTableRecord
100
AcDbBlockTableRecord
  2
SHG_65_2UH__G______96
  0
BLOCK_RECORD
  5
F2
100
AcDbSymbolTableRecord
100
AcDbBlockTableRecord
  2
SHG_65_2UH__G______97
  0
BLOCK_RECORD
  5
F4
100
AcDbSymbolTableRecord
100
AcDbBlockTableRecord
  2
SHG_65_2UH__G______98
  0
BLOCK_RECORD
  5
F6
100
AcDbSymbolTableRecord
100
AcDbBlockTableRecord
  2
SHG_65_2UH__G______99
  0
BLOCK_RECORD
  5
F8
100
AcDbSymbolTableRecord
100
AcDbBlockTableRecord
  2
SHG_65_2UH__G______100
  0
BLOCK_RECORD
  5
FA
100
AcDbSymbolTableRecord
100
AcDbBlockTableRecord
  2
SHG_65_2UH__G______101
  0
BLOCK_RECORD
  5
FC
100
AcDbSymbolTableRecord
100
AcDbBlockTableRecord
  2
SHG_65_2UH__G______102
  0
BLOCK_RECORD
  5
FF
100
AcDbSymbolTableRecord
100
AcDbBlockTableRecord
  2
SHG_65_2UH__G______103
  0
BLOCK_RECORD
  5
101
100
AcDbSymbolTableRecord
100
AcDbBlockTableRecord
  2
SHG_65_2UH__G______104
  0
BLOCK_RECORD
  5
103
100
AcDbSymbolTableRecord
100
AcDbBlockTableRecord
  2
SHG_65_2UH__G______105
  0
BLOCK_RECORD
  5
105
100
AcDbSymbolTableRecord
100
AcDbBlockTableRecord
  2
SHG_65_2UH__G______106
  0
BLOCK_RECORD
  5
107
100
AcDbSymbolTableRecord
100
AcDbBlockTableRecord
  2
SHG_65_2UH__G______107
  0
BLOCK_RECORD
  5
109
100
AcDbSymbolTableRecord
100
AcDbBlockTableRecord
  2
SHG_65_2UH__G______108
  0
BLOCK_RECORD
  5
10B
100
AcDbSymbolTableRecord
100
AcDbBlockTableRecord
  2
SHG_65_2UH__G______109
  0
BLOCK_RECORD
  5
10E
100
AcDbSymbolTableRecord
100
AcDbBlockTableRecord
  2
SHG_65_2UH__G______110
  0
BLOCK_RECORD
  5
110
100
AcDbSymbolTableRecord
100
AcDbBlockTableRecord
  2
SHG_65_2UH__G______111
  0
BLOCK_RECORD
  5
112
100
AcDbSymbolTableRecord
100
AcDbBlockTableRecord
  2
SHG_65_2UH__G______112
  0
BLOCK_RECORD
  5
115
100
AcDbSymbolTableRecord
100
AcDbBlockTableRecord
  2
SHG_65_2UH__G______113
  0
BLOCK_RECORD
  5
117
100
AcDbSymbolTableRecord
100
AcDbBlockTableRecord
  2
SHG_65_2UH__G______114
  0
BLOCK_RECORD
  5
119
100
AcDbSymbolTableRecord
100
AcDbBlockTableRecord
  2
SHG_65_2UH__G______115
  0
BLOCK_RECORD
  5
11B
100
AcDbSymbolTableRecord
100
AcDbBlockTableRecord
  2
SHG_65_2UH__G______116
  0
BLOCK_RECORD
  5
11D
100
AcDbSymbolTableRecord
100
AcDbBlockTableRecord
  2
SHG_65_2UH__G______117
  0
BLOCK_RECORD
  5
11F
100
AcDbSymbolTableRecord
100
AcDbBlockTableRecord
  2
SHG_65_2UH__G______118
  0
BLOCK_RECORD
  5
121
100
AcDbSymbolTableRecord
100
AcDbBlockTableRecord
  2
SHG_65_2UH__G______119
  0
BLOCK_RECORD
  5
123
100
AcDbSymbolTableRecord
100
AcDbBlockTableRecord
  2
SHG_65_2UH__G______120
  0
BLOCK_RECORD
  5
125
100
AcDbSymbolTableRecord
100
AcDbBlockTableRecord
  2
SHG_65_2UH__G______121
  0
BLOCK_RECORD
  5
127
100
AcDbSymbolTableRecord
100
AcDbBlockTableRecord
  2
SHG_65_2UH__G______122
  0
BLOCK_RECORD
  5
129
100
AcDbSymbolTableRecord
100
AcDbBlockTableRecord
  2
SHG_65_2UH__G______123
  0
BLOCK_RECORD
  5
12B
100
AcDbSymbolTableRecord
100
AcDbBlockTableRecord
  2
SHG_65_2UH__G______124
  0
BLOCK_RECORD
  5
12E
100
AcDbSymbolTableRecord
100
AcDbBlockTableRecord
  2
KS0206__125
  0
BLOCK_RECORD
  5
130
100
AcDbSymbolTableRecord
100
AcDbBlockTableRecord
  2
CSD_25_2A_W____126
  0
BLOCK_RECORD
  5
132
100
AcDbSymbolTableRecord
100
AcDbBlockTableRecord
  2
SHG_65_2UH__G______127
  0
BLOCK_RECORD
  5
134
100
AcDbSymbolTableRecord
100
AcDbBlockTableRecord
  2
SHG_65_2UH__G______128
  0
BLOCK_RECORD
  5
137
100
AcDbSymbolTableRecord
100
AcDbBlockTableRecord
  2
SHG_65_2UH__G______129
  0
BLOCK_RECORD
  5
139
100
AcDbSymbolTableRecord
100
AcDbBlockTableRecord
  2
SHG_65_2UH__G______130
  0
BLOCK_RECORD
  5
13B
100
AcDbSymbolTableRecord
100
AcDbBlockTableRecord
  2
SHG_65_2UH__G______131
  0
BLOCK_RECORD
  5
13D
100
AcDbSymbolTableRecord
100
AcDbBlockTableRecord
  2
SHG_65_2UH__G______132
  0
BLOCK_RECORD
  5
13F
100
AcDbSymbolTableRecord
100
AcDbBlockTableRecord
  2
SHG_65_2UH__G______133
  0
BLOCK_RECORD
  5
141
100
AcDbSymbolTableRecord
100
AcDbBlockTableRecord
  2
SHG_65_2UH__G______134
  0
BLOCK_RECORD
  5
143
100
AcDbSymbolTableRecord
100
AcDbBlockTableRecord
  2
SHG_65_2UH__G______135
  0
BLOCK_RECORD
  5
145
100
AcDbSymbolTableRecord
100
AcDbBlockTableRecord
  2
SHG_65_2UH__G______136
  0
BLOCK_RECORD
  5
147
100
AcDbSymbolTableRecord
100
AcDbBlockTableRecord
  2
SHG_65_2UH__G______137
  0
BLOCK_RECORD
  5
149
100
AcDbSymbolTableRecord
100
AcDbBlockTableRecord
  2
SHG_65_2UH__G______138
  0
BLOCK_RECORD
  5
14B
100
AcDbSymbolTableRecord
100
AcDbBlockTableRecord
  2
SHG_65_2UH__G______139
  0
BLOCK_RECORD
  5
14D
100
AcDbSymbolTableRecord
100
AcDbBlockTableRecord
  2
SHG_65_2UH__G______140
  0
BLOCK_RECORD
  5
150
100
AcDbSymbolTableRecord
100
AcDbBlockTableRecord
  2
SHG_65_2UH__G______141
  0
BLOCK_RECORD
  5
152
100
AcDbSymbolTableRecord
100
AcDbBlockTableRecord
  2
SHG_65_2UH__G______142
  0
BLOCK_RECORD
  5
154
100
AcDbSymbolTableRecord
100
AcDbBlockTableRecord
  2
SHG_65_2UH__G______143
  0
BLOCK_RECORD
  5
157
100
AcDbSymbolTableRecord
100
AcDbBlockTableRecord
  2
SHG_65_2UH__G______144
  0
BLOCK_RECORD
  5
159
100
AcDbSymbolTableRecord
100
AcDbBlockTableRecord
  2
SHG_65_2UH__G______145
  0
BLOCK_RECORD
  5
15B
100
AcDbSymbolTableRecord
100
AcDbBlockTableRecord
  2
SHG_65_2UH__G______146
  0
BLOCK_RECORD
  5
15D
100
AcDbSymbolTableRecord
100
AcDbBlockTableRecord
  2
SHG_65_2UH__G______147
  0
BLOCK_RECORD
  5
15F
100
AcDbSymbolTableRecord
100
AcDbBlockTableRecord
  2
SHG_65_2UH__G______148
  0
BLOCK_RECORD
  5
161
100
AcDbSymbolTableRecord
100
AcDbBlockTableRecord
  2
SHG_65_2UH__G______149
  0
BLOCK_RECORD
  5
163
100
AcDbSymbolTableRecord
100
AcDbBlockTableRecord
  2
SHG_65_2UH__G______150
  0
BLOCK_RECORD
  5
166
100
AcDbSymbolTableRecord
100
AcDbBlockTableRecord
  2
SHG_65_2UH__G______151
  0
BLOCK_RECORD
  5
168
100
AcDbSymbolTableRecord
100
AcDbBlockTableRecord
  2
SHG_65_2UH__G______152
  0
BLOCK_RECORD
  5
16A
100
AcDbSymbolTableRecord
100
AcDbBlockTableRecord
  2
SHG_65_2UH__G______153
  0
BLOCK_RECORD
  5
16C
100
AcDbSymbolTableRecord
100
AcDbBlockTableRecord
  2
SHG_65_2UH__G______154
  0
BLOCK_RECORD
  5
16E
100
AcDbSymbolTableRecord
100
AcDbBlockTableRecord
  2
SHG_65_2UH__G______155
  0
BLOCK_RECORD
  5
170
100
AcDbSymbolTableRecord
100
AcDbBlockTableRecord
  2
SHG_65_2UH__G______156
  0
BLOCK_RECORD
  5
172
100
AcDbSymbolTableRecord
100
AcDbBlockTableRecord
  2
SHG_65_2UH__G______157
  0
BLOCK_RECORD
  5
174
100
AcDbSymbolTableRecord
100
AcDbBlockTableRecord
  2
SHG_65_2UH__G______158
  0
BLOCK_RECORD
  5
176
100
AcDbSymbolTableRecord
100
AcDbBlockTableRecord
  2
SHG_65_2UH__G______159
  0
BLOCK_RECORD
  5
178
100
AcDbSymbolTableRecord
100
AcDbBlockTableRecord
  2
SHG_65_2UH__G______160
  0
BLOCK_RECORD
  5
17A
100
AcDbSymbolTableRecord
100
AcDbBlockTableRecord
  2
SHG_65_2UH__G______161
  0
BLOCK_RECORD
  5
17C
100
AcDbSymbolTableRecord
100
AcDbBlockTableRecord
  2
SHG_65_2UH__G______162
  0
BLOCK_RECORD
  5
17E
100
AcDbSymbolTableRecord
100
AcDbBlockTableRecord
  2
SHG_65_2UH__G______163
  0
BLOCK_RECORD
  5
180
100
AcDbSymbolTableRecord
100
AcDbBlockTableRecord
  2
SHG_65_2UH__G______164
  0
BLOCK_RECORD
  5
183
100
AcDbSymbolTableRecord
100
AcDbBlockTableRecord
  2
SHG_65_2UH__G______165
  0
BLOCK_RECORD
  5
185
100
AcDbSymbolTableRecord
100
AcDbBlockTableRecord
  2
SHG_65_2UH__G______166
  0
BLOCK_RECORD
  5
187
100
AcDbSymbolTableRecord
100
AcDbBlockTableRecord
  2
SHG_65_2UH__G______167
  0
BLOCK_RECORD
  5
189
100
AcDbSymbolTableRecord
100
AcDbBlockTableRecord
  2
SHG_65_2UH__G______168
  0
BLOCK_RECORD
  5
18B
100
AcDbSymbolTableRecord
100
AcDbBlockTableRecord
  2
SHG_65_2UH__G______169
  0
BLOCK_RECORD
  5
18D
100
AcDbSymbolTableRecord
100
AcDbBlockTableRecord
  2
SHG_65_2UH__G______170
  0
BLOCK_RECORD
  5
18F
100
AcDbSymbolTableRecord
100
AcDbBlockTableRecord
  2
SHG_65_2UH__G______171
  0
BLOCK_RECORD
  5
192
100
AcDbSymbolTableRecord
100
AcDbBlockTableRecord
  2
SHG_65_2UH__G______172
  0
BLOCK_RECORD
  5
194
100
AcDbSymbolTableRecord
100
AcDbBlockTableRecord
  2
SHG_65_2UH__G______173
  0
BLOCK_RECORD
  5
196
100
AcDbSymbolTableRecord
100
AcDbBlockTableRecord
  2
SHG_65_2UH__G______174
  0
BLOCK_RECORD
  5
199
100
AcDbSymbolTableRecord
100
AcDbBlockTableRecord
  2
SHG_65_2UH__G______175
  0
BLOCK_RECORD
  5
19B
100
AcDbSymbolTableRecord
100
AcDbBlockTableRecord
  2
SHG_65_2UH__G______176
  0
BLOCK_RECORD
  5
19D
100
AcDbSymbolTableRecord
100
AcDbBlockTableRecord
  2
SHG_65_2UH__G______177
  0
BLOCK_RECORD
  5
19F
100
AcDbSymbolTableRecord
100
AcDbBlockTableRecord
  2
SHG_65_2UH__G______178
  0
BLOCK_RECORD
  5
1A1
100
AcDbSymbolTableRecord
100
AcDbBlockTableRecord
  2
SHG_65_2UH__G______179
  0
BLOCK_RECORD
  5
1A3
100
AcDbSymbolTableRecord
100
AcDbBlockTableRecord
  2
SHG_65_2UH__G______180
  0
BLOCK_RECORD
  5
1A5
100
AcDbSymbolTableRecord
100
AcDbBlockTableRecord
  2
SHG_65_2UH__G______181
  0
BLOCK_RECORD
  5
1A7
100
AcDbSymbolTableRecord
100
AcDbBlockTableRecord
  2
SHG_65_2UH__G______182
  0
BLOCK_RECORD
  5
1A9
100
AcDbSymbolTableRecord
100
AcDbBlockTableRecord
  2
SHG_65_2UH__G______183
  0
BLOCK_RECORD
  5
1AB
100
AcDbSymbolTableRecord
100
AcDbBlockTableRecord
  2
SHG_65_2UH__G______184
  0
BLOCK_RECORD
  5
1AD
100
AcDbSymbolTableRecord
100
AcDbBlockTableRecord
  2
SHG_65_2UH__G______185
  0
BLOCK_RECORD
  5
1AF
100
AcDbSymbolTableRecord
100
AcDbBlockTableRecord
  2
SHG_65_2UH__G______186
  0
ENDTAB
  0
ENDSEC
  0
SECTION
  2
BLOCKS
  0
BLOCK
  5
D
100
AcDbEntity
  8
0
100
AcDbBlockBegin
  2
*MODEL_SPACE
 70
           0
 10
0.0
 20
0.0
 30
0.0
  3
*MODEL_SPACE
  1

  0
ENDBLK
  5
E
100
AcDbEntity
  8
0
100
AcDbBlockEnd
  0
BLOCK
  5
F
100
AcDbEntity
 67
           1
  8
0
100
AcDbBlockBegin
  2
*PAPER_SPACE
 70
           0
 10
0.0
 20
0.0
 30
0.0
  3
*PAPER_SPACE
  1

  0
ENDBLK
  5
10
100
AcDbEntity
 67
           1
  8
0
100
AcDbBlockEnd
  0
BLOCK
  5
27
100
AcDbEntity
  8
0
100
AcDbBlockBegin
  2
SHG_65_2UH__G______1
 70
           0
 10
0.0
 20
0.0
 30
0.0
  3
SHG_65_2UH__G______1
  1

  0
ENDBLK
  5
256
100
AcDbEntity
  8
0
100
AcDbBlockEnd
  0
BLOCK
  5
29
100
AcDbEntity
  8
0
100
AcDbBlockBegin
  2
SHG_65_2UH__G______2
 70
           0
 10
0.0
 20
0.0
 30
0.0
  3
SHG_65_2UH__G______2
  1

  0
INSERT
  5
2A
100
AcDbEntity
  8
0
100
AcDbBlockReference
  2
SHG_65_2UH__G______1
 10
0.0
 20
0.0
 41
1.0
 42
1.0
 43
1.0
  0
ENDBLK
  5
257
100
AcDbEntity
  8
0
100
AcDbBlockEnd
  0
BLOCK
  5
2C
100
AcDbEntity
  8
0
100
AcDbBlockBegin
  2
SHG_65_2UH__G______3
 70
           0
 10
0.0
 20
0.0
 30
0.0
  3
SHG_65_2UH__G______3
  1

  0
ENDBLK
  5
258
100
AcDbEntity
  8
0
100
AcDbBlockEnd
  0
BLOCK
  5
2E
100
AcDbEntity
  8
0
100
AcDbBlockBegin
  2
SHG_65_2UH__G______4
 70
           0
 10
0.0
 20
0.0
 30
0.0
  3
SHG_65_2UH__G______4
  1

  0
ENDBLK
  5
259
100
AcDbEntity
  8
0
100
AcDbBlockEnd
  0
BLOCK
  5
30
100
AcDbEntity
  8
0
100
AcDbBlockBegin
  2
SHG_65_2UH__G______5
 70
           0
 10
0.0
 20
0.0
 30
0.0
  3
SHG_65_2UH__G______5
  1

  0
ENDBLK
  5
25A
100
AcDbEntity
  8
0
100
AcDbBlockEnd
  0
BLOCK
  5
32
100
AcDbEntity
  8
0
100
AcDbBlockBegin
  2
SHG_65_2UH__G______6
 70
           0
 10
0.0
 20
0.0
 30
0.0
  3
SHG_65_2UH__G______6
  1

  0
ENDBLK
  5
25B
100
AcDbEntity
  8
0
100
AcDbBlockEnd
  0
BLOCK
  5
34
100
AcDbEntity
  8
0
100
AcDbBlockBegin
  2
SHG_65_2UH__G______7
 70
           0
 10
0.0
 20
0.0
 30
0.0
  3
SHG_65_2UH__G______7
  1

  0
ENDBLK
  5
25C
100
AcDbEntity
  8
0
100
AcDbBlockEnd
  0
BLOCK
  5
36
100
AcDbEntity
  8
0
100
AcDbBlockBegin
  2
SHG_65_2UH__G______8
 70
           0
 10
0.0
 20
0.0
 30
0.0
  3
SHG_65_2UH__G______8
  1

  0
ENDBLK
  5
25D
100
AcDbEntity
  8
0
100
AcDbBlockEnd
  0
BLOCK
  5
38
100
AcDbEntity
  8
0
100
AcDbBlockBegin
  2
SHG_65_2UH__G______9
 70
           0
 10
0.0
 20
0.0
 30
0.0
  3
SHG_65_2UH__G______9
  1

  0
ENDBLK
  5
25E
100
AcDbEntity
  8
0
100
AcDbBlockEnd
  0
BLOCK
  5
3A
100
AcDbEntity
  8
0
100
AcDbBlockBegin
  2
SHG_65_2UH__G______10
 70
           0
 10
0.0
 20
0.0
 30
0.0
  3
SHG_65_2UH__G______10
  1

  0
ENDBLK
  5
25F
100
AcDbEntity
  8
0
100
AcDbBlockEnd
  0
BLOCK
  5
3C
100
AcDbEntity
  8
0
100
AcDbBlockBegin
  2
SHG_65_2UH__G______11
 70
           0
 10
0.0
 20
0.0
 30
0.0
  3
SHG_65_2UH__G______11
  1

  0
ENDBLK
  5
260
100
AcDbEntity
  8
0
100
AcDbBlockEnd
  0
BLOCK
  5
3E
100
AcDbEntity
  8
0
100
AcDbBlockBegin
  2
SHG_65_2UH__G______12
 70
           0
 10
0.0
 20
0.0
 30
0.0
  3
SHG_65_2UH__G______12
  1

  0
ENDBLK
  5
261
100
AcDbEntity
  8
0
100
AcDbBlockEnd
  0
BLOCK
  5
40
100
AcDbEntity
  8
0
100
AcDbBlockBegin
  2
SHG_65_2UH__G______13
 70
           0
 10
0.0
 20
0.0
 30
0.0
  3
SHG_65_2UH__G______13
  1

  0
ENDBLK
  5
262
100
AcDbEntity
  8
0
100
AcDbBlockEnd
  0
BLOCK
  5
42
100
AcDbEntity
  8
0
100
AcDbBlockBegin
  2
SHG_65_2UH__G______14
 70
           0
 10
0.0
 20
0.0
 30
0.0
  3
SHG_65_2UH__G______14
  1

  0
INSERT
  5
43
100
AcDbEntity
  8
0
100
AcDbBlockReference
  2
SHG_65_2UH__G______13
 10
0.0
 20
0.0
 41
1.0
 42
1.0
 43
1.0
  0
ENDBLK
  5
263
100
AcDbEntity
  8
0
100
AcDbBlockEnd
  0
BLOCK
  5
45
100
AcDbEntity
  8
0
100
AcDbBlockBegin
  2
SHG_65_2UH__G______15
 70
           0
 10
0.0
 20
0.0
 30
0.0
  3
SHG_65_2UH__G______15
  1

  0
ENDBLK
  5
264
100
AcDbEntity
  8
0
100
AcDbBlockEnd
  0
BLOCK
  5
47
100
AcDbEntity
  8
0
100
AcDbBlockBegin
  2
SHG_65_2UH__G______16
 70
           0
 10
0.0
 20
0.0
 30
0.0
  3
SHG_65_2UH__G______16
  1

  0
ENDBLK
  5
265
100
AcDbEntity
  8
0
100
AcDbBlockEnd
  0
BLOCK
  5
49
100
AcDbEntity
  8
0
100
AcDbBlockBegin
  2
SHG_65_2UH__G______17
 70
           0
 10
0.0
 20
0.0
 30
0.0
  3
SHG_65_2UH__G______17
  1

  0
INSERT
  5
4A
100
AcDbEntity
  8
0
100
AcDbBlockReference
  2
SHG_65_2UH__G______16
 10
0.0
 20
0.0
 41
1.0
 42
1.0
 43
1.0
  0
ENDBLK
  5
266
100
AcDbEntity
  8
0
100
AcDbBlockEnd
  0
BLOCK
  5
4C
100
AcDbEntity
  8
0
100
AcDbBlockBegin
  2
SHG_65_2UH__G______18
 70
           0
 10
0.0
 20
0.0
 30
0.0
  3
SHG_65_2UH__G______18
  1

  0
ENDBLK
  5
267
100
AcDbEntity
  8
0
100
AcDbBlockEnd
  0
BLOCK
  5
4E
100
AcDbEntity
  8
0
100
AcDbBlockBegin
  2
SHG_65_2UH__G______19
 70
           0
 10
0.0
 20
0.0
 30
0.0
  3
SHG_65_2UH__G______19
  1

  0
ENDBLK
  5
268
100
AcDbEntity
  8
0
100
AcDbBlockEnd
  0
BLOCK
  5
50
100
AcDbEntity
  8
0
100
AcDbBlockBegin
  2
SHG_65_2UH__G______20
 70
           0
 10
0.0
 20
0.0
 30
0.0
  3
SHG_65_2UH__G______20
  1

  0
ENDBLK
  5
269
100
AcDbEntity
  8
0
100
AcDbBlockEnd
  0
BLOCK
  5
52
100
AcDbEntity
  8
0
100
AcDbBlockBegin
  2
SHG_65_2UH__G______21
 70
           0
 10
0.0
 20
0.0
 30
0.0
  3
SHG_65_2UH__G______21
  1

  0
ENDBLK
  5
26A
100
AcDbEntity
  8
0
100
AcDbBlockEnd
  0
BLOCK
  5
54
100
AcDbEntity
  8
0
100
AcDbBlockBegin
  2
SHG_65_2UH__G______22
 70
           0
 10
0.0
 20
0.0
 30
0.0
  3
SHG_65_2UH__G______22
  1

  0
ENDBLK
  5
26B
100
AcDbEntity
  8
0
100
AcDbBlockEnd
  0
BLOCK
  5
56
100
AcDbEntity
  8
0
100
AcDbBlockBegin
  2
SHG_65_2UH__G______23
 70
           0
 10
0.0
 20
0.0
 30
0.0
  3
SHG_65_2UH__G______23
  1

  0
ENDBLK
  5
26C
100
AcDbEntity
  8
0
100
AcDbBlockEnd
  0
BLOCK
  5
58
100
AcDbEntity
  8
0
100
AcDbBlockBegin
  2
SHG_65_2UH__G______24
 70
           0
 10
0.0
 20
0.0
 30
0.0
  3
SHG_65_2UH__G______24
  1

  0
INSERT
  5
59
100
AcDbEntity
  8
0
100
AcDbBlockReference
  2
SHG_65_2UH__G______23
 10
0.0
 20
0.0
 41
1.0
 42
1.0
 43
1.0
  0
ENDBLK
  5
26D
100
AcDbEntity
  8
0
100
AcDbBlockEnd
  0
BLOCK
  5
5B
100
AcDbEntity
  8
0
100
AcDbBlockBegin
  2
SHG_65_2UH__G______25
 70
           0
 10
0.0
 20
0.0
 30
0.0
  3
SHG_65_2UH__G______25
  1

  0
ENDBLK
  5
26E
100
AcDbEntity
  8
0
100
AcDbBlockEnd
  0
BLOCK
  5
5D
100
AcDbEntity
  8
0
100
AcDbBlockBegin
  2
SHG_65_2UH__G______26
 70
           0
 10
0.0
 20
0.0
 30
0.0
  3
SHG_65_2UH__G______26
  1

  0
ENDBLK
  5
26F
100
AcDbEntity
  8
0
100
AcDbBlockEnd
  0
BLOCK
  5
5F
100
AcDbEntity
  8
0
100
AcDbBlockBegin
  2
SHG_65_2UH__G______27
 70
           0
 10
0.0
 20
0.0
 30
0.0
  3
SHG_65_2UH__G______27
  1

  0
ENDBLK
  5
270
100
AcDbEntity
  8
0
100
AcDbBlockEnd
  0
BLOCK
  5
61
100
AcDbEntity
  8
0
100
AcDbBlockBegin
  2
SHG_65_2UH__G______28
 70
           0
 10
0.0
 20
0.0
 30
0.0
  3
SHG_65_2UH__G______28
  1

  0
ENDBLK
  5
271
100
AcDbEntity
  8
0
100
AcDbBlockEnd
  0
BLOCK
  5
63
100
AcDbEntity
  8
0
100
AcDbBlockBegin
  2
SHG_65_2UH__G______29
 70
           0
 10
0.0
 20
0.0
 30
0.0
  3
SHG_65_2UH__G______29
  1

  0
ENDBLK
  5
272
100
AcDbEntity
  8
0
100
AcDbBlockEnd
  0
BLOCK
  5
65
100
AcDbEntity
  8
0
100
AcDbBlockBegin
  2
SHG_65_2UH__G______30
 70
           0
 10
0.0
 20
0.0
 30
0.0
  3
SHG_65_2UH__G______30
  1

  0
ENDBLK
  5
273
100
AcDbEntity
  8
0
100
AcDbBlockEnd
  0
BLOCK
  5
67
100
AcDbEntity
  8
0
100
AcDbBlockBegin
  2
SHG_65_2UH__G______31
 70
           0
 10
0.0
 20
0.0
 30
0.0
  3
SHG_65_2UH__G______31
  1

  0
ENDBLK
  5
274
100
AcDbEntity
  8
0
100
AcDbBlockEnd
  0
BLOCK
  5
69
100
AcDbEntity
  8
0
100
AcDbBlockBegin
  2
SHG_65_2UH__G______32
 70
           0
 10
0.0
 20
0.0
 30
0.0
  3
SHG_65_2UH__G______32
  1

  0
ENDBLK
  5
275
100
AcDbEntity
  8
0
100
AcDbBlockEnd
  0
BLOCK
  5
6B
100
AcDbEntity
  8
0
100
AcDbBlockBegin
  2
SHG_65_2UH__G______33
 70
           0
 10
0.0
 20
0.0
 30
0.0
  3
SHG_65_2UH__G______33
  1

  0
ENDBLK
  5
276
100
AcDbEntity
  8
0
100
AcDbBlockEnd
  0
BLOCK
  5
6D
100
AcDbEntity
  8
0
100
AcDbBlockBegin
  2
SHG_65_2UH__G______34
 70
           0
 10
0.0
 20
0.0
 30
0.0
  3
SHG_65_2UH__G______34
  1

  0
ENDBLK
  5
277
100
AcDbEntity
  8
0
100
AcDbBlockEnd
  0
BLOCK
  5
6F
100
AcDbEntity
  8
0
100
AcDbBlockBegin
  2
SHG_65_2UH__G______35
 70
           0
 10
0.0
 20
0.0
 30
0.0
  3
SHG_65_2UH__G______35
  1

  0
ENDBLK
  5
278
100
AcDbEntity
  8
0
100
AcDbBlockEnd
  0
BLOCK
  5
71
100
AcDbEntity
  8
0
100
AcDbBlockBegin
  2
SHG_65_2UH__G______36
 70
           0
 10
0.0
 20
0.0
 30
0.0
  3
SHG_65_2UH__G______36
  1

  0
ENDBLK
  5
279
100
AcDbEntity
  8
0
100
AcDbBlockEnd
  0
BLOCK
  5
73
100
AcDbEntity
  8
0
100
AcDbBlockBegin
  2
SHG_65_2UH__G______37
 70
           0
 10
0.0
 20
0.0
 30
0.0
  3
SHG_65_2UH__G______37
  1

  0
ENDBLK
  5
27A
100
AcDbEntity
  8
0
100
AcDbBlockEnd
  0
BLOCK
  5
75
100
AcDbEntity
  8
0
100
AcDbBlockBegin
  2
SHG_65_2UH__G______38
 70
           0
 10
0.0
 20
0.0
 30
0.0
  3
SHG_65_2UH__G______38
  1

  0
INSERT
  5
76
100
AcDbEntity
  8
0
100
AcDbBlockReference
  2
SHG_65_2UH__G______37
 10
0.0
 20
0.0
 41
1.0
 42
1.0
 43
1.0
  0
ENDBLK
  5
27B
100
AcDbEntity
  8
0
100
AcDbBlockEnd
  0
BLOCK
  5
78
100
AcDbEntity
  8
0
100
AcDbBlockBegin
  2
SHG_65_2UH__G______39
 70
           0
 10
0.0
 20
0.0
 30
0.0
  3
SHG_65_2UH__G______39
  1

  0
ENDBLK
  5
27C
100
AcDbEntity
  8
0
100
AcDbBlockEnd
  0
BLOCK
  5
7A
100
AcDbEntity
  8
0
100
AcDbBlockBegin
  2
SHG_65_2UH__G______40
 70
           0
 10
0.0
 20
0.0
 30
0.0
  3
SHG_65_2UH__G______40
  1

  0
ENDBLK
  5
27D
100
AcDbEntity
  8
0
100
AcDbBlockEnd
  0
BLOCK
  5
7C
100
AcDbEntity
  8
0
100
AcDbBlockBegin
  2
SHG_65_2UH__G______41
 70
           0
 10
0.0
 20
0.0
 30
0.0
  3
SHG_65_2UH__G______41
  1

  0
ENDBLK
  5
27E
100
AcDbEntity
  8
0
100
AcDbBlockEnd
  0
BLOCK
  5
7E
100
AcDbEntity
  8
0
100
AcDbBlockBegin
  2
SHG_65_2UH__G______42
 70
           0
 10
0.0
 20
0.0
 30
0.0
  3
SHG_65_2UH__G______42
  1

  0
ENDBLK
  5
27F
100
AcDbEntity
  8
0
100
AcDbBlockEnd
  0
BLOCK
  5
80
100
AcDbEntity
  8
0
100
AcDbBlockBegin
  2
SHG_65_2UH__G______43
 70
           0
 10
0.0
 20
0.0
 30
0.0
  3
SHG_65_2UH__G______43
  1

  0
ENDBLK
  5
280
100
AcDbEntity
  8
0
100
AcDbBlockEnd
  0
BLOCK
  5
82
100
AcDbEntity
  8
0
100
AcDbBlockBegin
  2
SHG_65_2UH__G______44
 70
           0
 10
0.0
 20
0.0
 30
0.0
  3
SHG_65_2UH__G______44
  1

  0
ENDBLK
  5
281
100
AcDbEntity
  8
0
100
AcDbBlockEnd
  0
BLOCK
  5
84
100
AcDbEntity
  8
0
100
AcDbBlockBegin
  2
SHG_65_2UH__G______45
 70
           0
 10
0.0
 20
0.0
 30
0.0
  3
SHG_65_2UH__G______45
  1

  0
INSERT
  5
85
100
AcDbEntity
  8
0
100
AcDbBlockReference
  2
SHG_65_2UH__G______44
 10
0.0
 20
0.0
 41
1.0
 42
1.0
 43
1.0
  0
ENDBLK
  5
282
100
AcDbEntity
  8
0
100
AcDbBlockEnd
  0
BLOCK
  5
87
100
AcDbEntity
  8
0
100
AcDbBlockBegin
  2
SHG_65_2UH__G______46
 70
           0
 10
0.0
 20
0.0
 30
0.0
  3
SHG_65_2UH__G______46
  1

  0
ENDBLK
  5
283
100
AcDbEntity
  8
0
100
AcDbBlockEnd
  0
BLOCK
  5
89
100
AcDbEntity
  8
0
100
AcDbBlockBegin
  2
SHG_65_2UH__G______47
 70
           0
 10
0.0
 20
0.0
 30
0.0
  3
SHG_65_2UH__G______47
  1

  0
ENDBLK
  5
284
100
AcDbEntity
  8
0
100
AcDbBlockEnd
  0
BLOCK
  5
8B
100
AcDbEntity
  8
0
100
AcDbBlockBegin
  2
SHG_65_2UH__G______48
 70
           0
 10
0.0
 20
0.0
 30
0.0
  3
SHG_65_2UH__G______48
  1

  0
INSERT
  5
8C
100
AcDbEntity
  8
0
100
AcDbBlockReference
  2
SHG_65_2UH__G______47
 10
0.0
 20
0.0
 41
1.0
 42
1.0
 43
1.0
  0
ENDBLK
  5
285
100
AcDbEntity
  8
0
100
AcDbBlockEnd
  0
BLOCK
  5
8E
100
AcDbEntity
  8
0
100
AcDbBlockBegin
  2
SHG_65_2UH__G______49
 70
           0
 10
0.0
 20
0.0
 30
0.0
  3
SHG_65_2UH__G______49
  1

  0
ENDBLK
  5
286
100
AcDbEntity
  8
0
100
AcDbBlockEnd
  0
BLOCK
  5
90
100
AcDbEntity
  8
0
100
AcDbBlockBegin
  2
SHG_65_2UH__G______50
 70
           0
 10
0.0
 20
0.0
 30
0.0
  3
SHG_65_2UH__G______50
  1

  0
ENDBLK
  5
287
100
AcDbEntity
  8
0
100
AcDbBlockEnd
  0
BLOCK
  5
92
100
AcDbEntity
  8
0
100
AcDbBlockBegin
  2
SHG_65_2UH__G______51
 70
           0
 10
0.0
 20
0.0
 30
0.0
  3
SHG_65_2UH__G______51
  1

  0
ENDBLK
  5
288
100
AcDbEntity
  8
0
100
AcDbBlockEnd
  0
BLOCK
  5
94
100
AcDbEntity
  8
0
100
AcDbBlockBegin
  2
SHG_65_2UH__G______52
 70
           0
 10
0.0
 20
0.0
 30
0.0
  3
SHG_65_2UH__G______52
  1

  0
ENDBLK
  5
289
100
AcDbEntity
  8
0
100
AcDbBlockEnd
  0
BLOCK
  5
96
100
AcDbEntity
  8
0
100
AcDbBlockBegin
  2
SHG_65_2UH__G______53
 70
           0
 10
0.0
 20
0.0
 30
0.0
  3
SHG_65_2UH__G______53
  1

  0
ENDBLK
  5
28A
100
AcDbEntity
  8
0
100
AcDbBlockEnd
  0
BLOCK
  5
98
100
AcDbEntity
  8
0
100
AcDbBlockBegin
  2
SHG_65_2UH__G______54
 70
           0
 10
0.0
 20
0.0
 30
0.0
  3
SHG_65_2UH__G______54
  1

  0
ENDBLK
  5
28B
100
AcDbEntity
  8
0
100
AcDbBlockEnd
  0
BLOCK
  5
9A
100
AcDbEntity
  8
0
100
AcDbBlockBegin
  2
SHG_65_2UH__G______55
 70
           0
 10
0.0
 20
0.0
 30
0.0
  3
SHG_65_2UH__G______55
  1

  0
ENDBLK
  5
28C
100
AcDbEntity
  8
0
100
AcDbBlockEnd
  0
BLOCK
  5
9C
100
AcDbEntity
  8
0
100
AcDbBlockBegin
  2
SHG_65_2UH__G______56
 70
           0
 10
0.0
 20
0.0
 30
0.0
  3
SHG_65_2UH__G______56
  1

  0
ENDBLK
  5
28D
100
AcDbEntity
  8
0
100
AcDbBlockEnd
  0
BLOCK
  5
9E
100
AcDbEntity
  8
0
100
AcDbBlockBegin
  2
SHG_65_2UH__G______57
 70
           0
 10
0.0
 20
0.0
 30
0.0
  3
SHG_65_2UH__G______57
  1

  0
ENDBLK
  5
28E
100
AcDbEntity
  8
0
100
AcDbBlockEnd
  0
BLOCK
  5
A0
100
AcDbEntity
  8
0
100
AcDbBlockBegin
  2
SHG_65_2UH__G______58
 70
           0
 10
0.0
 20
0.0
 30
0.0
  3
SHG_65_2UH__G______58
  1

  0
ENDBLK
  5
28F
100
AcDbEntity
  8
0
100
AcDbBlockEnd
  0
BLOCK
  5
A2
100
AcDbEntity
  8
0
100
AcDbBlockBegin
  2
SHG_65_2UH__G______59
 70
           0
 10
0.0
 20
0.0
 30
0.0
  3
SHG_65_2UH__G______59
  1

  0
ENDBLK
  5
290
100
AcDbEntity
  8
0
100
AcDbBlockEnd
  0
BLOCK
  5
A4
100
AcDbEntity
  8
0
100
AcDbBlockBegin
  2
SHG_65_2UH__G______60
 70
           0
 10
0.0
 20
0.0
 30
0.0
  3
SHG_65_2UH__G______60
  1

  0
INSERT
  5
A5
100
AcDbEntity
  8
0
100
AcDbBlockReference
  2
SHG_65_2UH__G______59
 10
0.0
 20
0.0
 41
1.0
 42
1.0
 43
1.0
  0
ENDBLK
  5
291
100
AcDbEntity
  8
0
100
AcDbBlockEnd
  0
BLOCK
  5
A7
100
AcDbEntity
  8
0
100
AcDbBlockBegin
  2
CSD_25_2A_W____61
 70
           0
 10
0.0
 20
0.0
 30
0.0
  3
CSD_25_2A_W____61
  1

  0
ENDBLK
  5
292
100
AcDbEntity
  8
0
100
AcDbBlockEnd
  0
BLOCK
  5
A9
100
AcDbEntity
  8
0
100
AcDbBlockBegin
  2
KS0206__62
 70
           0
 10
0.0
 20
0.0
 30
0.0
  3
KS0206__62
  1

  0
ENDBLK
  5
293
100
AcDbEntity
  8
0
100
AcDbBlockEnd
  0
BLOCK
  5
AB
100
AcDbEntity
  8
0
100
AcDbBlockBegin
  2
KS0206__63
 70
           0
 10
0.0
 20
0.0
 30
0.0
  3
KS0206__63
  1

  0
ENDBLK
  5
294
100
AcDbEntity
  8
0
100
AcDbBlockEnd
  0
BLOCK
  5
AD
100
AcDbEntity
  8
0
100
AcDbBlockBegin
  2
CSD_25_2A_W____64
 70
           0
 10
0.0
 20
0.0
 30
0.0
  3
CSD_25_2A_W____64
  1

  0
ENDBLK
  5
295
100
AcDbEntity
  8
0
100
AcDbBlockEnd
  0
BLOCK
  5
AF
100
AcDbEntity
  8
0
100
AcDbBlockBegin
  2
SHG_65_2UH__G______65
 70
           0
 10
0.0
 20
0.0
 30
0.0
  3
SHG_65_2UH__G______65
  1

  0
ENDBLK
  5
296
100
AcDbEntity
  8
0
100
AcDbBlockEnd
  0
BLOCK
  5
B1
100
AcDbEntity
  8
0
100
AcDbBlockBegin
  2
SHG_65_2UH__G______66
 70
           0
 10
0.0
 20
0.0
 30
0.0
  3
SHG_65_2UH__G______66
  1

  0
INSERT
  5
B2
100
AcDbEntity
  8
0
100
AcDbBlockReference
  2
SHG_65_2UH__G______65
 10
0.0
 20
0.0
 41
1.0
 42
1.0
 43
1.0
  0
ENDBLK
  5
297
100
AcDbEntity
  8
0
100
AcDbBlockEnd
  0
BLOCK
  5
B4
100
AcDbEntity
  8
0
100
AcDbBlockBegin
  2
SHG_65_2UH__G______67
 70
           0
 10
0.0
 20
0.0
 30
0.0
  3
SHG_65_2UH__G______67
  1

  0
ENDBLK
  5
298
100
AcDbEntity
  8
0
100
AcDbBlockEnd
  0
BLOCK
  5
B6
100
AcDbEntity
  8
0
100
AcDbBlockBegin
  2
SHG_65_2UH__G______68
 70
           0
 10
0.0
 20
0.0
 30
0.0
  3
SHG_65_2UH__G______68
  1

  0
ENDBLK
  5
299
100
AcDbEntity
  8
0
100
AcDbBlockEnd
  0
BLOCK
  5
B8
100
AcDbEntity
  8
0
100
AcDbBlockBegin
  2
SHG_65_2UH__G______69
 70
           0
 10
0.0
 20
0.0
 30
0.0
  3
SHG_65_2UH__G______69
  1

  0
ENDBLK
  5
29A
100
AcDbEntity
  8
0
100
AcDbBlockEnd
  0
BLOCK
  5
BA
100
AcDbEntity
  8
0
100
AcDbBlockBegin
  2
SHG_65_2UH__G______70
 70
           0
 10
0.0
 20
0.0
 30
0.0
  3
SHG_65_2UH__G______70
  1

  0
ENDBLK
  5
29B
100
AcDbEntity
  8
0
100
AcDbBlockEnd
  0
BLOCK
  5
BC
100
AcDbEntity
  8
0
100
AcDbBlockBegin
  2
SHG_65_2UH__G______71
 70
           0
 10
0.0
 20
0.0
 30
0.0
  3
SHG_65_2UH__G______71
  1

  0
ENDBLK
  5
29C
100
AcDbEntity
  8
0
100
AcDbBlockEnd
  0
BLOCK
  5
BE
100
AcDbEntity
  8
0
100
AcDbBlockBegin
  2
SHG_65_2UH__G______72
 70
           0
 10
0.0
 20
0.0
 30
0.0
  3
SHG_65_2UH__G______72
  1

  0
ENDBLK
  5
29D
100
AcDbEntity
  8
0
100
AcDbBlockEnd
  0
BLOCK
  5
C0
100
AcDbEntity
  8
0
100
AcDbBlockBegin
  2
SHG_65_2UH__G______73
 70
           0
 10
0.0
 20
0.0
 30
0.0
  3
SHG_65_2UH__G______73
  1

  0
ENDBLK
  5
29E
100
AcDbEntity
  8
0
100
AcDbBlockEnd
  0
BLOCK
  5
C2
100
AcDbEntity
  8
0
100
AcDbBlockBegin
  2
SHG_65_2UH__G______74
 70
           0
 10
0.0
 20
0.0
 30
0.0
  3
SHG_65_2UH__G______74
  1

  0
ENDBLK
  5
29F
100
AcDbEntity
  8
0
100
AcDbBlockEnd
  0
BLOCK
  5
C4
100
AcDbEntity
  8
0
100
AcDbBlockBegin
  2
SHG_65_2UH__G______75
 70
           0
 10
0.0
 20
0.0
 30
0.0
  3
SHG_65_2UH__G______75
  1

  0
ENDBLK
  5
2A0
100
AcDbEntity
  8
0
100
AcDbBlockEnd
  0
BLOCK
  5
C6
100
AcDbEntity
  8
0
100
AcDbBlockBegin
  2
SHG_65_2UH__G______76
 70
           0
 10
0.0
 20
0.0
 30
0.0
  3
SHG_65_2UH__G______76
  1

  0
ENDBLK
  5
2A1
100
AcDbEntity
  8
0
100
AcDbBlockEnd
  0
BLOCK
  5
C8
100
AcDbEntity
  8
0
100
AcDbBlockBegin
  2
SHG_65_2UH__G______77
 70
           0
 10
0.0
 20
0.0
 30
0.0
  3
SHG_65_2UH__G______77
  1

  0
ENDBLK
  5
2A2
100
AcDbEntity
  8
0
100
AcDbBlockEnd
  0
BLOCK
  5
CA
100
AcDbEntity
  8
0
100
AcDbBlockBegin
  2
SHG_65_2UH__G______78
 70
           0
 10
0.0
 20
0.0
 30
0.0
  3
SHG_65_2UH__G______78
  1

  0
INSERT
  5
CB
100
AcDbEntity
  8
0
100
AcDbBlockReference
  2
SHG_65_2UH__G______77
 10
0.0
 20
0.0
 41
1.0
 42
1.0
 43
1.0
  0
ENDBLK
  5
2A3
100
AcDbEntity
  8
0
100
AcDbBlockEnd
  0
BLOCK
  5
CD
100
AcDbEntity
  8
0
100
AcDbBlockBegin
  2
SHG_65_2UH__G______79
 70
           0
 10
0.0
 20
0.0
 30
0.0
  3
SHG_65_2UH__G______79
  1

  0
ENDBLK
  5
2A4
100
AcDbEntity
  8
0
100
AcDbBlockEnd
  0
BLOCK
  5
CF
100
AcDbEntity
  8
0
100
AcDbBlockBegin
  2
SHG_65_2UH__G______80
 70
           0
 10
0.0
 20
0.0
 30
0.0
  3
SHG_65_2UH__G______80
  1

  0
ENDBLK
  5
2A5
100
AcDbEntity
  8
0
100
AcDbBlockEnd
  0
BLOCK
  5
D1
100
AcDbEntity
  8
0
100
AcDbBlockBegin
  2
SHG_65_2UH__G______81
 70
           0
 10
0.0
 20
0.0
 30
0.0
  3
SHG_65_2UH__G______81
  1

  0
INSERT
  5
D2
100
AcDbEntity
  8
0
100
AcDbBlockReference
  2
SHG_65_2UH__G______80
 10
0.0
 20
0.0
 41
1.0
 42
1.0
 43
1.0
  0
ENDBLK
  5
2A6
100
AcDbEntity
  8
0
100
AcDbBlockEnd
  0
BLOCK
  5
D4
100
AcDbEntity
  8
0
100
AcDbBlockBegin
  2
SHG_65_2UH__G______82
 70
           0
 10
0.0
 20
0.0
 30
0.0
  3
SHG_65_2UH__G______82
  1

  0
ENDBLK
  5
2A7
100
AcDbEntity
  8
0
100
AcDbBlockEnd
  0
BLOCK
  5
D6
100
AcDbEntity
  8
0
100
AcDbBlockBegin
  2
SHG_65_2UH__G______83
 70
           0
 10
0.0
 20
0.0
 30
0.0
  3
SHG_65_2UH__G______83
  1

  0
ENDBLK
  5
2A8
100
AcDbEntity
  8
0
100
AcDbBlockEnd
  0
BLOCK
  5
D8
100
AcDbEntity
  8
0
100
AcDbBlockBegin
  2
SHG_65_2UH__G______84
 70
           0
 10
0.0
 20
0.0
 30
0.0
  3
SHG_65_2UH__G______84
  1

  0
ENDBLK
  5
2A9
100
AcDbEntity
  8
0
100
AcDbBlockEnd
  0
BLOCK
  5
DA
100
AcDbEntity
  8
0
100
AcDbBlockBegin
  2
SHG_65_2UH__G______85
 70
           0
 10
0.0
 20
0.0
 30
0.0
  3
SHG_65_2UH__G______85
  1

  0
ENDBLK
  5
2AA
100
AcDbEntity
  8
0
100
AcDbBlockEnd
  0
BLOCK
  5
DC
100
AcDbEntity
  8
0
100
AcDbBlockBegin
  2
SHG_65_2UH__G______86
 70
           0
 10
0.0
 20
0.0
 30
0.0
  3
SHG_65_2UH__G______86
  1

  0
ENDBLK
  5
2AB
100
AcDbEntity
  8
0
100
AcDbBlockEnd
  0
BLOCK
  5
DE
100
AcDbEntity
  8
0
100
AcDbBlockBegin
  2
SHG_65_2UH__G______87
 70
           0
 10
0.0
 20
0.0
 30
0.0
  3
SHG_65_2UH__G______87
  1

  0
ENDBLK
  5
2AC
100
AcDbEntity
  8
0
100
AcDbBlockEnd
  0
BLOCK
  5
E0
100
AcDbEntity
  8
0
100
AcDbBlockBegin
  2
SHG_65_2UH__G______88
 70
           0
 10
0.0
 20
0.0
 30
0.0
  3
SHG_65_2UH__G______88
  1

  0
INSERT
  5
E1
100
AcDbEntity
  8
0
100
AcDbBlockReference
  2
SHG_65_2UH__G______87
 10
0.0
 20
0.0
 41
1.0
 42
1.0
 43
1.0
  0
ENDBLK
  5
2AD
100
AcDbEntity
  8
0
100
AcDbBlockEnd
  0
BLOCK
  5
E3
100
AcDbEntity
  8
0
100
AcDbBlockBegin
  2
SHG_65_2UH__G______89
 70
           0
 10
0.0
 20
0.0
 30
0.0
  3
SHG_65_2UH__G______89
  1

  0
ENDBLK
  5
2AE
100
AcDbEntity
  8
0
100
AcDbBlockEnd
  0
BLOCK
  5
E5
100
AcDbEntity
  8
0
100
AcDbBlockBegin
  2
SHG_65_2UH__G______90
 70
           0
 10
0.0
 20
0.0
 30
0.0
  3
SHG_65_2UH__G______90
  1

  0
ENDBLK
  5
2AF
100
AcDbEntity
  8
0
100
AcDbBlockEnd
  0
BLOCK
  5
E7
100
AcDbEntity
  8
0
100
AcDbBlockBegin
  2
SHG_65_2UH__G______91
 70
           0
 10
0.0
 20
0.0
 30
0.0
  3
SHG_65_2UH__G______91
  1

  0
ENDBLK
  5
2B0
100
AcDbEntity
  8
0
100
AcDbBlockEnd
  0
BLOCK
  5
E9
100
AcDbEntity
  8
0
100
AcDbBlockBegin
  2
SHG_65_2UH__G______92
 70
           0
 10
0.0
 20
0.0
 30
0.0
  3
SHG_65_2UH__G______92
  1

  0
ENDBLK
  5
2B1
100
AcDbEntity
  8
0
100
AcDbBlockEnd
  0
BLOCK
  5
EB
100
AcDbEntity
  8
0
100
AcDbBlockBegin
  2
SHG_65_2UH__G______93
 70
           0
 10
0.0
 20
0.0
 30
0.0
  3
SHG_65_2UH__G______93
  1

  0
ENDBLK
  5
2B2
100
AcDbEntity
  8
0
100
AcDbBlockEnd
  0
BLOCK
  5
ED
100
AcDbEntity
  8
0
100
AcDbBlockBegin
  2
SHG_65_2UH__G______94
 70
           0
 10
0.0
 20
0.0
 30
0.0
  3
SHG_65_2UH__G______94
  1

  0
ENDBLK
  5
2B3
100
AcDbEntity
  8
0
100
AcDbBlockEnd
  0
BLOCK
  5
EF
100
AcDbEntity
  8
0
100
AcDbBlockBegin
  2
SHG_65_2UH__G______95
 70
           0
 10
0.0
 20
0.0
 30
0.0
  3
SHG_65_2UH__G______95
  1

  0
ENDBLK
  5
2B4
100
AcDbEntity
  8
0
100
AcDbBlockEnd
  0
BLOCK
  5
F1
100
AcDbEntity
  8
0
100
AcDbBlockBegin
  2
SHG_65_2UH__G______96
 70
           0
 10
0.0
 20
0.0
 30
0.0
  3
SHG_65_2UH__G______96
  1

  0
ENDBLK
  5
2B5
100
AcDbEntity
  8
0
100
AcDbBlockEnd
  0
BLOCK
  5
F3
100
AcDbEntity
  8
0
100
AcDbBlockBegin
  2
SHG_65_2UH__G______97
 70
           0
 10
0.0
 20
0.0
 30
0.0
  3
SHG_65_2UH__G______97
  1

  0
ENDBLK
  5
2B6
100
AcDbEntity
  8
0
100
AcDbBlockEnd
  0
BLOCK
  5
F5
100
AcDbEntity
  8
0
100
AcDbBlockBegin
  2
SHG_65_2UH__G______98
 70
           0
 10
0.0
 20
0.0
 30
0.0
  3
SHG_65_2UH__G______98
  1

  0
ENDBLK
  5
2B7
100
AcDbEntity
  8
0
100
AcDbBlockEnd
  0
BLOCK
  5
F7
100
AcDbEntity
  8
0
100
AcDbBlockBegin
  2
SHG_65_2UH__G______99
 70
           0
 10
0.0
 20
0.0
 30
0.0
  3
SHG_65_2UH__G______99
  1

  0
ENDBLK
  5
2B8
100
AcDbEntity
  8
0
100
AcDbBlockEnd
  0
BLOCK
  5
F9
100
AcDbEntity
  8
0
100
AcDbBlockBegin
  2
SHG_65_2UH__G______100
 70
           0
 10
0.0
 20
0.0
 30
0.0
  3
SHG_65_2UH__G______100
  1

  0
ENDBLK
  5
2B9
100
AcDbEntity
  8
0
100
AcDbBlockEnd
  0
BLOCK
  5
FB
100
AcDbEntity
  8
0
100
AcDbBlockBegin
  2
SHG_65_2UH__G______101
 70
           0
 10
0.0
 20
0.0
 30
0.0
  3
SHG_65_2UH__G______101
  1

  0
ENDBLK
  5
2BA
100
AcDbEntity
  8
0
100
AcDbBlockEnd
  0
BLOCK
  5
FD
100
AcDbEntity
  8
0
100
AcDbBlockBegin
  2
SHG_65_2UH__G______102
 70
           0
 10
0.0
 20
0.0
 30
0.0
  3
SHG_65_2UH__G______102
  1

  0
INSERT
  5
FE
100
AcDbEntity
  8
0
100
AcDbBlockReference
  2
SHG_65_2UH__G______101
 10
0.0
 20
0.0
 41
1.0
 42
1.0
 43
1.0
  0
ENDBLK
  5
2BB
100
AcDbEntity
  8
0
100
AcDbBlockEnd
  0
BLOCK
  5
100
100
AcDbEntity
  8
0
100
AcDbBlockBegin
  2
SHG_65_2UH__G______103
 70
           0
 10
0.0
 20
0.0
 30
0.0
  3
SHG_65_2UH__G______103
  1

  0
ENDBLK
  5
2BC
100
AcDbEntity
  8
0
100
AcDbBlockEnd
  0
BLOCK
  5
102
100
AcDbEntity
  8
0
100
AcDbBlockBegin
  2
SHG_65_2UH__G______104
 70
           0
 10
0.0
 20
0.0
 30
0.0
  3
SHG_65_2UH__G______104
  1

  0
ENDBLK
  5
2BD
100
AcDbEntity
  8
0
100
AcDbBlockEnd
  0
BLOCK
  5
104
100
AcDbEntity
  8
0
100
AcDbBlockBegin
  2
SHG_65_2UH__G______105
 70
           0
 10
0.0
 20
0.0
 30
0.0
  3
SHG_65_2UH__G______105
  1

  0
ENDBLK
  5
2BE
100
AcDbEntity
  8
0
100
AcDbBlockEnd
  0
BLOCK
  5
106
100
AcDbEntity
  8
0
100
AcDbBlockBegin
  2
SHG_65_2UH__G______106
 70
           0
 10
0.0
 20
0.0
 30
0.0
  3
SHG_65_2UH__G______106
  1

  0
ENDBLK
  5
2BF
100
AcDbEntity
  8
0
100
AcDbBlockEnd
  0
BLOCK
  5
108
100
AcDbEntity
  8
0
100
AcDbBlockBegin
  2
SHG_65_2UH__G______107
 70
           0
 10
0.0
 20
0.0
 30
0.0
  3
SHG_65_2UH__G______107
  1

  0
ENDBLK
  5
2C0
100
AcDbEntity
  8
0
100
AcDbBlockEnd
  0
BLOCK
  5
10A
100
AcDbEntity
  8
0
100
AcDbBlockBegin
  2
SHG_65_2UH__G______108
 70
           0
 10
0.0
 20
0.0
 30
0.0
  3
SHG_65_2UH__G______108
  1

  0
ENDBLK
  5
2C1
100
AcDbEntity
  8
0
100
AcDbBlockEnd
  0
BLOCK
  5
10C
100
AcDbEntity
  8
0
100
AcDbBlockBegin
  2
SHG_65_2UH__G______109
 70
           0
 10
0.0
 20
0.0
 30
0.0
  3
SHG_65_2UH__G______109
  1

  0
INSERT
  5
10D
100
AcDbEntity
  8
0
100
AcDbBlockReference
  2
SHG_65_2UH__G______108
 10
0.0
 20
0.0
 41
1.0
 42
1.0
 43
1.0
  0
ENDBLK
  5
2C2
100
AcDbEntity
  8
0
100
AcDbBlockEnd
  0
BLOCK
  5
10F
100
AcDbEntity
  8
0
100
AcDbBlockBegin
  2
SHG_65_2UH__G______110
 70
           0
 10
0.0
 20
0.0
 30
0.0
  3
SHG_65_2UH__G______110
  1

  0
ENDBLK
  5
2C3
100
AcDbEntity
  8
0
100
AcDbBlockEnd
  0
BLOCK
  5
111
100
AcDbEntity
  8
0
100
AcDbBlockBegin
  2
SHG_65_2UH__G______111
 70
           0
 10
0.0
 20
0.0
 30
0.0
  3
SHG_65_2UH__G______111
  1

  0
ENDBLK
  5
2C4
100
AcDbEntity
  8
0
100
AcDbBlockEnd
  0
BLOCK
  5
113
100
AcDbEntity
  8
0
100
AcDbBlockBegin
  2
SHG_65_2UH__G______112
 70
           0
 10
0.0
 20
0.0
 30
0.0
  3
SHG_65_2UH__G______112
  1

  0
INSERT
  5
114
100
AcDbEntity
  8
0
100
AcDbBlockReference
  2
SHG_65_2UH__G______111
 10
0.0
 20
0.0
 41
1.0
 42
1.0
 43
1.0
  0
ENDBLK
  5
2C5
100
AcDbEntity
  8
0
100
AcDbBlockEnd
  0
BLOCK
  5
116
100
AcDbEntity
  8
0
100
AcDbBlockBegin
  2
SHG_65_2UH__G______113
 70
           0
 10
0.0
 20
0.0
 30
0.0
  3
SHG_65_2UH__G______113
  1

  0
ENDBLK
  5
2C6
100
AcDbEntity
  8
0
100
AcDbBlockEnd
  0
BLOCK
  5
118
100
AcDbEntity
  8
0
100
AcDbBlockBegin
  2
SHG_65_2UH__G______114
 70
           0
 10
0.0
 20
0.0
 30
0.0
  3
SHG_65_2UH__G______114
  1

  0
ENDBLK
  5
2C7
100
AcDbEntity
  8
0
100
AcDbBlockEnd
  0
BLOCK
  5
11A
100
AcDbEntity
  8
0
100
AcDbBlockBegin
  2
SHG_65_2UH__G______115
 70
           0
 10
0.0
 20
0.0
 30
0.0
  3
SHG_65_2UH__G______115
  1

  0
ENDBLK
  5
2C8
100
AcDbEntity
  8
0
100
AcDbBlockEnd
  0
BLOCK
  5
11C
100
AcDbEntity
  8
0
100
AcDbBlockBegin
  2
SHG_65_2UH__G______116
 70
           0
 10
0.0
 20
0.0
 30
0.0
  3
SHG_65_2UH__G______116
  1

  0
ENDBLK
  5
2C9
100
AcDbEntity
  8
0
100
AcDbBlockEnd
  0
BLOCK
  5
11E
100
AcDbEntity
  8
0
100
AcDbBlockBegin
  2
SHG_65_2UH__G______117
 70
           0
 10
0.0
 20
0.0
 30
0.0
  3
SHG_65_2UH__G______117
  1

  0
ENDBLK
  5
2CA
100
AcDbEntity
  8
0
100
AcDbBlockEnd
  0
BLOCK
  5
120
100
AcDbEntity
  8
0
100
AcDbBlockBegin
  2
SHG_65_2UH__G______118
 70
           0
 10
0.0
 20
0.0
 30
0.0
  3
SHG_65_2UH__G______118
  1

  0
ENDBLK
  5
2CB
100
AcDbEntity
  8
0
100
AcDbBlockEnd
  0
BLOCK
  5
122
100
AcDbEntity
  8
0
100
AcDbBlockBegin
  2
SHG_65_2UH__G______119
 70
           0
 10
0.0
 20
0.0
 30
0.0
  3
SHG_65_2UH__G______119
  1

  0
ENDBLK
  5
2CC
100
AcDbEntity
  8
0
100
AcDbBlockEnd
  0
BLOCK
  5
124
100
AcDbEntity
  8
0
100
AcDbBlockBegin
  2
SHG_65_2UH__G______120
 70
           0
 10
0.0
 20
0.0
 30
0.0
  3
SHG_65_2UH__G______120
  1

  0
ENDBLK
  5
2CD
100
AcDbEntity
  8
0
100
AcDbBlockEnd
  0
BLOCK
  5
126
100
AcDbEntity
  8
0
100
AcDbBlockBegin
  2
SHG_65_2UH__G______121
 70
           0
 10
0.0
 20
0.0
 30
0.0
  3
SHG_65_2UH__G______121
  1

  0
ENDBLK
  5
2CE
100
AcDbEntity
  8
0
100
AcDbBlockEnd
  0
BLOCK
  5
128
100
AcDbEntity
  8
0
100
AcDbBlockBegin
  2
SHG_65_2UH__G______122
 70
           0
 10
0.0
 20
0.0
 30
0.0
  3
SHG_65_2UH__G______122
  1

  0
ENDBLK
  5
2CF
100
AcDbEntity
  8
0
100
AcDbBlockEnd
  0
BLOCK
  5
12A
100
AcDbEntity
  8
0
100
AcDbBlockBegin
  2
SHG_65_2UH__G______123
 70
           0
 10
0.0
 20
0.0
 30
0.0
  3
SHG_65_2UH__G______123
  1

  0
ENDBLK
  5
2D0
100
AcDbEntity
  8
0
100
AcDbBlockEnd
  0
BLOCK
  5
12C
100
AcDbEntity
  8
0
100
AcDbBlockBegin
  2
SHG_65_2UH__G______124
 70
           0
 10
0.0
 20
0.0
 30
0.0
  3
SHG_65_2UH__G______124
  1

  0
INSERT
  5
12D
100
AcDbEntity
  8
0
100
AcDbBlockReference
  2
SHG_65_2UH__G______123
 10
0.0
 20
0.0
 41
1.0
 42
1.0
 43
1.0
  0
ENDBLK
  5
2D1
100
AcDbEntity
  8
0
100
AcDbBlockEnd
  0
BLOCK
  5
12F
100
AcDbEntity
  8
0
100
AcDbBlockBegin
  2
KS0206__125
 70
           0
 10
0.0
 20
0.0
 30
0.0
  3
KS0206__125
  1

  0
ENDBLK
  5
2D2
100
AcDbEntity
  8
0
100
AcDbBlockEnd
  0
BLOCK
  5
131
100
AcDbEntity
  8
0
100
AcDbBlockBegin
  2
CSD_25_2A_W____126
 70
           0
 10
0.0
 20
0.0
 30
0.0
  3
CSD_25_2A_W____126
  1

  0
ENDBLK
  5
2D3
100
AcDbEntity
  8
0
100
AcDbBlockEnd
  0
BLOCK
  5
133
100
AcDbEntity
  8
0
100
AcDbBlockBegin
  2
SHG_65_2UH__G______127
 70
           0
 10
0.0
 20
0.0
 30
0.0
  3
SHG_65_2UH__G______127
  1

  0
ENDBLK
  5
2D4
100
AcDbEntity
  8
0
100
AcDbBlockEnd
  0
BLOCK
  5
135
100
AcDbEntity
  8
0
100
AcDbBlockBegin
  2
SHG_65_2UH__G______128
 70
           0
 10
0.0
 20
0.0
 30
0.0
  3
SHG_65_2UH__G______128
  1

  0
INSERT
  5
136
100
AcDbEntity
  8
0
100
AcDbBlockReference
  2
SHG_65_2UH__G______127
 10
0.0
 20
0.0
 41
1.0
 42
1.0
 43
1.0
  0
ENDBLK
  5
2D5
100
AcDbEntity
  8
0
100
AcDbBlockEnd
  0
BLOCK
  5
138
100
AcDbEntity
  8
0
100
AcDbBlockBegin
  2
SHG_65_2UH__G______129
 70
           0
 10
0.0
 20
0.0
 30
0.0
  3
SHG_65_2UH__G______129
  1

  0
ENDBLK
  5
2D6
100
AcDbEntity
  8
0
100
AcDbBlockEnd
  0
BLOCK
  5
13A
100
AcDbEntity
  8
0
100
AcDbBlockBegin
  2
SHG_65_2UH__G______130
 70
           0
 10
0.0
 20
0.0
 30
0.0
  3
SHG_65_2UH__G______130
  1

  0
ENDBLK
  5
2D7
100
AcDbEntity
  8
0
100
AcDbBlockEnd
  0
BLOCK
  5
13C
100
AcDbEntity
  8
0
100
AcDbBlockBegin
  2
SHG_65_2UH__G______131
 70
           0
 10
0.0
 20
0.0
 30
0.0
  3
SHG_65_2UH__G______131
  1

  0
ENDBLK
  5
2D8
100
AcDbEntity
  8
0
100
AcDbBlockEnd
  0
BLOCK
  5
13E
100
AcDbEntity
  8
0
100
AcDbBlockBegin
  2
SHG_65_2UH__G______132
 70
           0
 10
0.0
 20
0.0
 30
0.0
  3
SHG_65_2UH__G______132
  1

  0
ENDBLK
  5
2D9
100
AcDbEntity
  8
0
100
AcDbBlockEnd
  0
BLOCK
  5
140
100
AcDbEntity
  8
0
100
AcDbBlockBegin
  2
SHG_65_2UH__G______133
 70
           0
 10
0.0
 20
0.0
 30
0.0
  3
SHG_65_2UH__G______133
  1

  0
ENDBLK
  5
2DA
100
AcDbEntity
  8
0
100
AcDbBlockEnd
  0
BLOCK
  5
142
100
AcDbEntity
  8
0
100
AcDbBlockBegin
  2
SHG_65_2UH__G______134
 70
           0
 10
0.0
 20
0.0
 30
0.0
  3
SHG_65_2UH__G______134
  1

  0
ENDBLK
  5
2DB
100
AcDbEntity
  8
0
100
AcDbBlockEnd
  0
BLOCK
  5
144
100
AcDbEntity
  8
0
100
AcDbBlockBegin
  2
SHG_65_2UH__G______135
 70
           0
 10
0.0
 20
0.0
 30
0.0
  3
SHG_65_2UH__G______135
  1

  0
ENDBLK
  5
2DC
100
AcDbEntity
  8
0
100
AcDbBlockEnd
  0
BLOCK
  5
146
100
AcDbEntity
  8
0
100
AcDbBlockBegin
  2
SHG_65_2UH__G______136
 70
           0
 10
0.0
 20
0.0
 30
0.0
  3
SHG_65_2UH__G______136
  1

  0
ENDBLK
  5
2DD
100
AcDbEntity
  8
0
100
AcDbBlockEnd
  0
BLOCK
  5
148
100
AcDbEntity
  8
0
100
AcDbBlockBegin
  2
SHG_65_2UH__G______137
 70
           0
 10
0.0
 20
0.0
 30
0.0
  3
SHG_65_2UH__G______137
  1

  0
ENDBLK
  5
2DE
100
AcDbEntity
  8
0
100
AcDbBlockEnd
  0
BLOCK
  5
14A
100
AcDbEntity
  8
0
100
AcDbBlockBegin
  2
SHG_65_2UH__G______138
 70
           0
 10
0.0
 20
0.0
 30
0.0
  3
SHG_65_2UH__G______138
  1

  0
ENDBLK
  5
2DF
100
AcDbEntity
  8
0
100
AcDbBlockEnd
  0
BLOCK
  5
14C
100
AcDbEntity
  8
0
100
AcDbBlockBegin
  2
SHG_65_2UH__G______139
 70
           0
 10
0.0
 20
0.0
 30
0.0
  3
SHG_65_2UH__G______139
  1

  0
ENDBLK
  5
2E0
100
AcDbEntity
  8
0
100
AcDbBlockEnd
  0
BLOCK
  5
14E
100
AcDbEntity
  8
0
100
AcDbBlockBegin
  2
SHG_65_2UH__G______140
 70
           0
 10
0.0
 20
0.0
 30
0.0
  3
SHG_65_2UH__G______140
  1

  0
INSERT
  5
14F
100
AcDbEntity
  8
0
100
AcDbBlockReference
  2
SHG_65_2UH__G______139
 10
0.0
 20
0.0
 41
1.0
 42
1.0
 43
1.0
  0
ENDBLK
  5
2E1
100
AcDbEntity
  8
0
100
AcDbBlockEnd
  0
BLOCK
  5
151
100
AcDbEntity
  8
0
100
AcDbBlockBegin
  2
SHG_65_2UH__G______141
 70
           0
 10
0.0
 20
0.0
 30
0.0
  3
SHG_65_2UH__G______141
  1

  0
ENDBLK
  5
2E2
100
AcDbEntity
  8
0
100
AcDbBlockEnd
  0
BLOCK
  5
153
100
AcDbEntity
  8
0
100
AcDbBlockBegin
  2
SHG_65_2UH__G______142
 70
           0
 10
0.0
 20
0.0
 30
0.0
  3
SHG_65_2UH__G______142
  1

  0
ENDBLK
  5
2E3
100
AcDbEntity
  8
0
100
AcDbBlockEnd
  0
BLOCK
  5
155
100
AcDbEntity
  8
0
100
AcDbBlockBegin
  2
SHG_65_2UH__G______143
 70
           0
 10
0.0
 20
0.0
 30
0.0
  3
SHG_65_2UH__G______143
  1

  0
INSERT
  5
156
100
AcDbEntity
  8
0
100
AcDbBlockReference
  2
SHG_65_2UH__G______142
 10
0.0
 20
0.0
 41
1.0
 42
1.0
 43
1.0
  0
ENDBLK
  5
2E4
100
AcDbEntity
  8
0
100
AcDbBlockEnd
  0
BLOCK
  5
158
100
AcDbEntity
  8
0
100
AcDbBlockBegin
  2
SHG_65_2UH__G______144
 70
           0
 10
0.0
 20
0.0
 30
0.0
  3
SHG_65_2UH__G______144
  1

  0
ENDBLK
  5
2E5
100
AcDbEntity
  8
0
100
AcDbBlockEnd
  0
BLOCK
  5
15A
100
AcDbEntity
  8
0
100
AcDbBlockBegin
  2
SHG_65_2UH__G______145
 70
           0
 10
0.0
 20
0.0
 30
0.0
  3
SHG_65_2UH__G______145
  1

  0
ENDBLK
  5
2E6
100
AcDbEntity
  8
0
100
AcDbBlockEnd
  0
BLOCK
  5
15C
100
AcDbEntity
  8
0
100
AcDbBlockBegin
  2
SHG_65_2UH__G______146
 70
           0
 10
0.0
 20
0.0
 30
0.0
  3
SHG_65_2UH__G______146
  1

  0
ENDBLK
  5
2E7
100
AcDbEntity
  8
0
100
AcDbBlockEnd
  0
BLOCK
  5
15E
100
AcDbEntity
  8
0
100
AcDbBlockBegin
  2
SHG_65_2UH__G______147
 70
           0
 10
0.0
 20
0.0
 30
0.0
  3
SHG_65_2UH__G______147
  1

  0
ENDBLK
  5
2E8
100
AcDbEntity
  8
0
100
AcDbBlockEnd
  0
BLOCK
  5
160
100
AcDbEntity
  8
0
100
AcDbBlockBegin
  2
SHG_65_2UH__G______148
 70
           0
 10
0.0
 20
0.0
 30
0.0
  3
SHG_65_2UH__G______148
  1

  0
ENDBLK
  5
2E9
100
AcDbEntity
  8
0
100
AcDbBlockEnd
  0
BLOCK
  5
162
100
AcDbEntity
  8
0
100
AcDbBlockBegin
  2
SHG_65_2UH__G______149
 70
           0
 10
0.0
 20
0.0
 30
0.0
  3
SHG_65_2UH__G______149
  1

  0
ENDBLK
  5
2EA
100
AcDbEntity
  8
0
100
AcDbBlockEnd
  0
BLOCK
  5
164
100
AcDbEntity
  8
0
100
AcDbBlockBegin
  2
SHG_65_2UH__G______150
 70
           0
 10
0.0
 20
0.0
 30
0.0
  3
SHG_65_2UH__G______150
  1

  0
INSERT
  5
165
100
AcDbEntity
  8
0
100
AcDbBlockReference
  2
SHG_65_2UH__G______149
 10
0.0
 20
0.0
 41
1.0
 42
1.0
 43
1.0
  0
ENDBLK
  5
2EB
100
AcDbEntity
  8
0
100
AcDbBlockEnd
  0
BLOCK
  5
167
100
AcDbEntity
  8
0
100
AcDbBlockBegin
  2
SHG_65_2UH__G______151
 70
           0
 10
0.0
 20
0.0
 30
0.0
  3
SHG_65_2UH__G______151
  1

  0
ENDBLK
  5
2EC
100
AcDbEntity
  8
0
100
AcDbBlockEnd
  0
BLOCK
  5
169
100
AcDbEntity
  8
0
100
AcDbBlockBegin
  2
SHG_65_2UH__G______152
 70
           0
 10
0.0
 20
0.0
 30
0.0
  3
SHG_65_2UH__G______152
  1

  0
ENDBLK
  5
2ED
100
AcDbEntity
  8
0
100
AcDbBlockEnd
  0
BLOCK
  5
16B
100
AcDbEntity
  8
0
100
AcDbBlockBegin
  2
SHG_65_2UH__G______153
 70
           0
 10
0.0
 20
0.0
 30
0.0
  3
SHG_65_2UH__G______153
  1

  0
ENDBLK
  5
2EE
100
AcDbEntity
  8
0
100
AcDbBlockEnd
  0
BLOCK
  5
16D
100
AcDbEntity
  8
0
100
AcDbBlockBegin
  2
SHG_65_2UH__G______154
 70
           0
 10
0.0
 20
0.0
 30
0.0
  3
SHG_65_2UH__G______154
  1

  0
ENDBLK
  5
2EF
100
AcDbEntity
  8
0
100
AcDbBlockEnd
  0
BLOCK
  5
16F
100
AcDbEntity
  8
0
100
AcDbBlockBegin
  2
SHG_65_2UH__G______155
 70
           0
 10
0.0
 20
0.0
 30
0.0
  3
SHG_65_2UH__G______155
  1

  0
ENDBLK
  5
2F0
100
AcDbEntity
  8
0
100
AcDbBlockEnd
  0
BLOCK
  5
171
100
AcDbEntity
  8
0
100
AcDbBlockBegin
  2
SHG_65_2UH__G______156
 70
           0
 10
0.0
 20
0.0
 30
0.0
  3
SHG_65_2UH__G______156
  1

  0
ENDBLK
  5
2F1
100
AcDbEntity
  8
0
100
AcDbBlockEnd
  0
BLOCK
  5
173
100
AcDbEntity
  8
0
100
AcDbBlockBegin
  2
SHG_65_2UH__G______157
 70
           0
 10
0.0
 20
0.0
 30
0.0
  3
SHG_65_2UH__G______157
  1

  0
ENDBLK
  5
2F2
100
AcDbEntity
  8
0
100
AcDbBlockEnd
  0
BLOCK
  5
175
100
AcDbEntity
  8
0
100
AcDbBlockBegin
  2
SHG_65_2UH__G______158
 70
           0
 10
0.0
 20
0.0
 30
0.0
  3
SHG_65_2UH__G______158
  1

  0
ENDBLK
  5
2F3
100
AcDbEntity
  8
0
100
AcDbBlockEnd
  0
BLOCK
  5
177
100
AcDbEntity
  8
0
100
AcDbBlockBegin
  2
SHG_65_2UH__G______159
 70
           0
 10
0.0
 20
0.0
 30
0.0
  3
SHG_65_2UH__G______159
  1

  0
ENDBLK
  5
2F4
100
AcDbEntity
  8
0
100
AcDbBlockEnd
  0
BLOCK
  5
179
100
AcDbEntity
  8
0
100
AcDbBlockBegin
  2
SHG_65_2UH__G______160
 70
           0
 10
0.0
 20
0.0
 30
0.0
  3
SHG_65_2UH__G______160
  1

  0
ENDBLK
  5
2F5
100
AcDbEntity
  8
0
100
AcDbBlockEnd
  0
BLOCK
  5
17B
100
AcDbEntity
  8
0
100
AcDbBlockBegin
  2
SHG_65_2UH__G______161
 70
           0
 10
0.0
 20
0.0
 30
0.0
  3
SHG_65_2UH__G______161
  1

  0
ENDBLK
  5
2F6
100
AcDbEntity
  8
0
100
AcDbBlockEnd
  0
BLOCK
  5
17D
100
AcDbEntity
  8
0
100
AcDbBlockBegin
  2
SHG_65_2UH__G______162
 70
           0
 10
0.0
 20
0.0
 30
0.0
  3
SHG_65_2UH__G______162
  1

  0
ENDBLK
  5
2F7
100
AcDbEntity
  8
0
100
AcDbBlockEnd
  0
BLOCK
  5
17F
100
AcDbEntity
  8
0
100
AcDbBlockBegin
  2
SHG_65_2UH__G______163
 70
           0
 10
0.0
 20
0.0
 30
0.0
  3
SHG_65_2UH__G______163
  1

  0
ENDBLK
  5
2F8
100
AcDbEntity
  8
0
100
AcDbBlockEnd
  0
BLOCK
  5
181
100
AcDbEntity
  8
0
100
AcDbBlockBegin
  2
SHG_65_2UH__G______164
 70
           0
 10
0.0
 20
0.0
 30
0.0
  3
SHG_65_2UH__G______164
  1

  0
INSERT
  5
182
100
AcDbEntity
  8
0
100
AcDbBlockReference
  2
SHG_65_2UH__G______163
 10
0.0
 20
0.0
 41
1.0
 42
1.0
 43
1.0
  0
ENDBLK
  5
2F9
100
AcDbEntity
  8
0
100
AcDbBlockEnd
  0
BLOCK
  5
184
100
AcDbEntity
  8
0
100
AcDbBlockBegin
  2
SHG_65_2UH__G______165
 70
           0
 10
0.0
 20
0.0
 30
0.0
  3
SHG_65_2UH__G______165
  1

  0
ENDBLK
  5
2FA
100
AcDbEntity
  8
0
100
AcDbBlockEnd
  0
BLOCK
  5
186
100
AcDbEntity
  8
0
100
AcDbBlockBegin
  2
SHG_65_2UH__G______166
 70
           0
 10
0.0
 20
0.0
 30
0.0
  3
SHG_65_2UH__G______166
  1

  0
ENDBLK
  5
2FB
100
AcDbEntity
  8
0
100
AcDbBlockEnd
  0
BLOCK
  5
188
100
AcDbEntity
  8
0
100
AcDbBlockBegin
  2
SHG_65_2UH__G______167
 70
           0
 10
0.0
 20
0.0
 30
0.0
  3
SHG_65_2UH__G______167
  1

  0
ENDBLK
  5
2FC
100
AcDbEntity
  8
0
100
AcDbBlockEnd
  0
BLOCK
  5
18A
100
AcDbEntity
  8
0
100
AcDbBlockBegin
  2
SHG_65_2UH__G______168
 70
           0
 10
0.0
 20
0.0
 30
0.0
  3
SHG_65_2UH__G______168
  1

  0
ENDBLK
  5
2FD
100
AcDbEntity
  8
0
100
AcDbBlockEnd
  0
BLOCK
  5
18C
100
AcDbEntity
  8
0
100
AcDbBlockBegin
  2
SHG_65_2UH__G______169
 70
           0
 10
0.0
 20
0.0
 30
0.0
  3
SHG_65_2UH__G______169
  1

  0
ENDBLK
  5
2FE
100
AcDbEntity
  8
0
100
AcDbBlockEnd
  0
BLOCK
  5
18E
100
AcDbEntity
  8
0
100
AcDbBlockBegin
  2
SHG_65_2UH__G______170
 70
           0
 10
0.0
 20
0.0
 30
0.0
  3
SHG_65_2UH__G______170
  1

  0
ENDBLK
  5
2FF
100
AcDbEntity
  8
0
100
AcDbBlockEnd
  0
BLOCK
  5
190
100
AcDbEntity
  8
0
100
AcDbBlockBegin
  2
SHG_65_2UH__G______171
 70
           0
 10
0.0
 20
0.0
 30
0.0
  3
SHG_65_2UH__G______171
  1

  0
INSERT
  5
191
100
AcDbEntity
  8
0
100
AcDbBlockReference
  2
SHG_65_2UH__G______170
 10
0.0
 20
0.0
 41
1.0
 42
1.0
 43
1.0
  0
ENDBLK
  5
300
100
AcDbEntity
  8
0
100
AcDbBlockEnd
  0
BLOCK
  5
193
100
AcDbEntity
  8
0
100
AcDbBlockBegin
  2
SHG_65_2UH__G______172
 70
           0
 10
0.0
 20
0.0
 30
0.0
  3
SHG_65_2UH__G______172
  1

  0
ENDBLK
  5
301
100
AcDbEntity
  8
0
100
AcDbBlockEnd
  0
BLOCK
  5
195
100
AcDbEntity
  8
0
100
AcDbBlockBegin
  2
SHG_65_2UH__G______173
 70
           0
 10
0.0
 20
0.0
 30
0.0
  3
SHG_65_2UH__G______173
  1

  0
ENDBLK
  5
302
100
AcDbEntity
  8
0
100
AcDbBlockEnd
  0
BLOCK
  5
197
100
AcDbEntity
  8
0
100
AcDbBlockBegin
  2
SHG_65_2UH__G______174
 70
           0
 10
0.0
 20
0.0
 30
0.0
  3
SHG_65_2UH__G______174
  1

  0
INSERT
  5
198
100
AcDbEntity
  8
0
100
AcDbBlockReference
  2
SHG_65_2UH__G______173
 10
0.0
 20
0.0
 41
1.0
 42
1.0
 43
1.0
  0
ENDBLK
  5
303
100
AcDbEntity
  8
0
100
AcDbBlockEnd
  0
BLOCK
  5
19A
100
AcDbEntity
  8
0
100
AcDbBlockBegin
  2
SHG_65_2UH__G______175
 70
           0
 10
0.0
 20
0.0
 30
0.0
  3
SHG_65_2UH__G______175
  1

  0
ENDBLK
  5
304
100
AcDbEntity
  8
0
100
AcDbBlockEnd
  0
BLOCK
  5
19C
100
AcDbEntity
  8
0
100
AcDbBlockBegin
  2
SHG_65_2UH__G______176
 70
           0
 10
0.0
 20
0.0
 30
0.0
  3
SHG_65_2UH__G______176
  1

  0
ENDBLK
  5
305
100
AcDbEntity
  8
0
100
AcDbBlockEnd
  0
BLOCK
  5
19E
100
AcDbEntity
  8
0
100
AcDbBlockBegin
  2
SHG_65_2UH__G______177
 70
           0
 10
0.0
 20
0.0
 30
0.0
  3
SHG_65_2UH__G______177
  1

  0
ENDBLK
  5
306
100
AcDbEntity
  8
0
100
AcDbBlockEnd
  0
BLOCK
  5
1A0
100
AcDbEntity
  8
0
100
AcDbBlockBegin
  2
SHG_65_2UH__G______178
 70
           0
 10
0.0
 20
0.0
 30
0.0
  3
SHG_65_2UH__G______178
  1

  0
ENDBLK
  5
307
100
AcDbEntity
  8
0
100
AcDbBlockEnd
  0
BLOCK
  5
1A2
100
AcDbEntity
  8
0
100
AcDbBlockBegin
  2
SHG_65_2UH__G______179
 70
           0
 10
0.0
 20
0.0
 30
0.0
  3
SHG_65_2UH__G______179
  1

  0
ENDBLK
  5
308
100
AcDbEntity
  8
0
100
AcDbBlockEnd
  0
BLOCK
  5
1A4
100
AcDbEntity
  8
0
100
AcDbBlockBegin
  2
SHG_65_2UH__G______180
 70
           0
 10
0.0
 20
0.0
 30
0.0
  3
SHG_65_2UH__G______180
  1

  0
ENDBLK
  5
309
100
AcDbEntity
  8
0
100
AcDbBlockEnd
  0
BLOCK
  5
1A6
100
AcDbEntity
  8
0
100
AcDbBlockBegin
  2
SHG_65_2UH__G______181
 70
           0
 10
0.0
 20
0.0
 30
0.0
  3
SHG_65_2UH__G______181
  1

  0
ENDBLK
  5
30A
100
AcDbEntity
  8
0
100
AcDbBlockEnd
  0
BLOCK
  5
1A8
100
AcDbEntity
  8
0
100
AcDbBlockBegin
  2
SHG_65_2UH__G______182
 70
           0
 10
0.0
 20
0.0
 30
0.0
  3
SHG_65_2UH__G______182
  1

  0
ENDBLK
  5
30B
100
AcDbEntity
  8
0
100
AcDbBlockEnd
  0
BLOCK
  5
1AA
100
AcDbEntity
  8
0
100
AcDbBlockBegin
  2
SHG_65_2UH__G______183
 70
           0
 10
0.0
 20
0.0
 30
0.0
  3
SHG_65_2UH__G______183
  1

  0
ENDBLK
  5
30C
100
AcDbEntity
  8
0
100
AcDbBlockEnd
  0
BLOCK
  5
1AC
100
AcDbEntity
  8
0
100
AcDbBlockBegin
  2
SHG_65_2UH__G______184
 70
           0
 10
0.0
 20
0.0
 30
0.0
  3
SHG_65_2UH__G______184
  1

  0
ENDBLK
  5
30D
100
AcDbEntity
  8
0
100
AcDbBlockEnd
  0
BLOCK
  5
1AE
100
AcDbEntity
  8
0
100
AcDbBlockBegin
  2
SHG_65_2UH__G______185
 70
           0
 10
0.0
 20
0.0
 30
0.0
  3
SHG_65_2UH__G______185
  1

  0
ENDBLK
  5
30E
100
AcDbEntity
  8
0
100
AcDbBlockEnd
  0
BLOCK
  5
1B0
100
AcDbEntity
  8
0
100
AcDbBlockBegin
  2
SHG_65_2UH__G______186
 70
           0
 10
0.0
 20
0.0
 30
0.0
  3
SHG_65_2UH__G______186
  1

  0
INSERT
  5
1B1
100
AcDbEntity
  8
0
100
AcDbBlockReference
  2
SHG_65_2UH__G______185
 10
0.0
 20
0.0
 41
1.0
 42
1.0
 43
1.0
  0
ENDBLK
  5
30F
100
AcDbEntity
  8
0
100
AcDbBlockEnd
  0
ENDSEC
  0
SECTION
  2
ENTITIES
  0
HATCH
  5
741
100
AcDbEntity
  8
0
  6
CONTINUOUS
 62
           7
100
AcDbHatch
 10
0.0
 20
0.0
 30
0.0
210
0.0
220
0.0
230
1.0
  2
USER
 70
           0
 71
           1
 91
        1
 92
        1
 93
        3
 72
           1
 10
-196.84473623092609
 20
354.8508848717895
 11
-198.7730990599857
 21
352.55275154243259
 72
           2
 10
-196.84473623092609
 20
354.8508848717895
 40
3.0000000000000444
 50
140.000000000001
 51
-130.0
 73
           1
 72
           1
 10
-196.84473623092609
 20
354.8508848717895
 11
-199.14286956028309
 21
356.77924770084911
 97
        3
330
59B
330
656
330
59C
 75
           1
 76
           0
 52
45.0
 41
0.5
 77
           0
 78
           1
 53
45.0
 43
0.0
 44
0.0
 45
-0.3535533905932737
 46
0.3535533905932737
 79
           0
 98
        1
 10
0.0
 20
0.0
  0
HATCH
  5
740
100
AcDbEntity
  8
0
  6
CONTINUOUS
 62
           7
100
AcDbHatch
 10
0.0
 20
0.0
 30
0.0
210
0.0
220
0.0
230
1.0
  2
USER
 70
           0
 71
           1
 91
        1
 92
        1
 93
        3
 72
           1
 10
-626.25579634290932
 20
278.88266684282411
 11
-630.11949964806593
 21
279.9179430232341
 72
           1
 10
-626.25579634290932
 20
278.88266684282411
 11
-627.2910725233196
 21
275.01896353766779
 72
           2
 10
-626.25579634290932
 20
278.88266684282411
 40
4.0000000000002975
 50
165.000000000002
 51
-105.000000000002
 73
           1
 97
        3
330
598
330
599
330
655
 75
           1
 76
           0
 52
45.0
 41
0.5
 77
           0
 78
           1
 53
45.0
 43
0.0
 44
0.0
 45
-0.3535533905932737
 46
0.3535533905932737
 79
           0
 98
        1
 10
0.0
 20
0.0
  0
HATCH
  5
73F
100
AcDbEntity
  8
0
  6
CONTINUOUS
 62
           7
100
AcDbHatch
 10
0.0
 20
0.0
 30
0.0
210
0.0
220
0.0
230
1.0
  2
USER
 70
           0
 71
           1
 91
        1
 92
        1
 93
        3
 72
           1
 10
-626.25579634290932
 20
278.88266684282411
 11
-622.39209303775328
 21
277.84739066241377
 72
           1
 10
-626.25579634290932
 20
278.88266684282411
 11
-625.22052016249938
 21
282.74637014798009
 72
           2
 10
-626.25579634290932
 20
278.88266684282411
 40
3.9999999999998366
 50
-15.000000000004
 51
75.000000000001
 73
           1
 97
        3
330
597
330
596
330
652
 75
           1
 76
           0
 52
45.0
 41
0.5
 77
           0
 78
           1
 53
45.0
 43
0.0
 44
0.0
 45
-0.3535533905932737
 46
0.3535533905932737
 79
           0
 98
        1
 10
0.0
 20
0.0
  0
HATCH
  5
73E
100
AcDbEntity
  8
0
  6
CONTINUOUS
 62
           7
100
AcDbHatch
 10
0.0
 20
0.0
 30
0.0
210
0.0
220
0.0
230
1.0
  2
USER
 70
           0
 71
           1
 91
        1
 92
        1
 93
        3
 72
           1
 10
-196.84473623092609
 20
354.8508848717895
 11
-194.91637340186651
 21
357.14901820114642
 72
           2
 10
-196.84473623092609
 20
354.8508848717895
 40
2.9999999999999574
 50
-40.0
 51
50.0
 73
           1
 72
           1
 10
-196.84473623092609
 20
354.8508848717895
 11
-194.5466029015692
 21
352.9225220427299
 97
        3
330
59E
330
65A
330
59D
 75
           1
 76
           0
 52
45.0
 41
0.5
 77
           0
 78
           1
 53
45.0
 43
0.0
 44
0.0
 45
-0.3535533905932737
 46
0.3535533905932737
 79
           0
 98
        1
 10
0.0
 20
0.0
  0
MTEXT
  5
73D
100
AcDbEntity
  8
1
 62
           3
100
AcDbMText
 10
-470.752590124137
 20
124.41962995485
 30
0.0
 40
10.0
 41
0.0
 71
           6
 72
           1
  1
C002480
  7
CONVERTER_2
  0
MTEXT
  5
73B
100
AcDbEntity
  8
1
 62
           3
100
AcDbMText
 10
-417.795925016918
 20
146.499898227988
 30
0.0
 40
10.0
 41
0.0
 71
           5
 72
           1
  1
SHA45A51SG-D16A200-10S17bA-C
  7
CONVERTER_1
  0
TEXT
  5
73A
100
AcDbEntity
  8
1
 62
           7
100
AcDbText
 10
-769.870467594414
 20
128.603188484509
 40
5.0
  1
The reference drawing
 41
0.81
  7
CONVERTER_1
100
AcDbText
  0
TEXT
  5
739
100
AcDbEntity
  8
1
 62
           3
100
AcDbText
 10
-770.626067998047
 20
123.093550647656
 40
2.8
  1
All speciffcations and dimensions mentioned in the drawing are
 41
0.81
  7
CONVERTER_1
100
AcDbText
  0
TEXT
  5
738
100
AcDbEntity
  8
1
 62
           3
100
AcDbText
 10
-770.626067998047
 20
118.613550647656
 40
2.8
  1
subject to change without notification.
 41
0.81
  7
CONVERTER_1
100
AcDbText
  0
TEXT
  5
737
100
AcDbEntity
  8
1
 62
           3
100
AcDbText
 10
-770.626067998047
 20
114.133550647656
 40
2.8
  1
This drawing itself is also a property of Harmonic Drive Systems,Ins.
 41
0.81
  7
CONVERTER_1
100
AcDbText
  0
TEXT
  5
736
100
AcDbEntity
  8
1
 62
           3
100
AcDbText
 10
-770.626067998047
 20
105.173550647656
 40
2.8
  1
Harmonic Drive Systems,Inc.
 41
0.81
  7
CONVERTER_1
100
AcDbText
  0
TEXT
  5
735
100
AcDbEntity
  8
1
 62
           3
100
AcDbText
 10
-770.626067998047
 20
100.693550647656
 40
2.8
  1
Ichigo Omori Building 7F Minamiohi 6-25-3 Shinagawa-ku, Tokyo 140-0013
 41
0.81
  7
CONVERTER_1
100
AcDbText
  0
TEXT
  5
734
100
AcDbEntity
  8
1
 62
           3
100
AcDbText
 10
-770.626067998047
 20
96.213550647656
 40
2.8
  1
JAPAN
 41
0.81
  7
CONVERTER_1
100
AcDbText
  0
TEXT
  5
733
100
AcDbEntity
  8
1
 62
           3
100
AcDbText
 10
-770.626067998047
 20
91.733550647656
 40
2.8
  1
Tel.03-5471-7800 Fax.03-5471-7811
 41
0.81
  7
CONVERTER_1
100
AcDbText
  0
TEXT
  5
732
100
AcDbEntity
  8
1
 62
           3
100
AcDbText
 10
-770.626067998047
 20
87.253550647656
 40
2.8
  1
http://www.hds.co.jp
 41
0.81
  7
CONVERTER_1
100
AcDbText
  0
ARC
  5
730
100
AcDbEntity
  8
1
  6
CONTINUOUS
 62
           7
100
AcDbCircle
 10
-416.279786643682
 20
214.6
 40
0.4
100
AcDbArc
 50
90.0
 51
180.0
  0
ARC
  5
72F
100
AcDbEntity
  8
1
  6
CONTINUOUS
 62
           7
100
AcDbCircle
 10
-416.279786643682
 20
379.400000000001
 40
0.4
100
AcDbArc
 50
180.0
 51
-90.0
  0
ARC
  5
72E
100
AcDbEntity
  8
1
  6
CONTINUOUS
 62
           7
100
AcDbCircle
 10
-306.679786643681
 20
363.000000000001
 40
6.0
100
AcDbArc
 50
-90.0
 51
-0.000000000002
  0
ARC
  5
72D
100
AcDbEntity
  8
1
  6
DASH_CENTER
 62
           3
100
AcDbCircle
 10
-306.679786643681
 20
363.000000000001
 40
10.0
100
AcDbArc
 50
-90.0
 51
0.0
  0
ARC
  5
72C
100
AcDbEntity
  8
1
  6
CONTINUOUS
 62
           7
100
AcDbCircle
 10
-306.679786643681
 20
363.000000000001
 40
14.0
100
AcDbArc
 50
-90.0
 51
0.0
  0
ARC
  5
72B
100
AcDbEntity
  8
1
  6
CONTINUOUS
 62
           7
100
AcDbCircle
 10
-414.818381501434
 20
382.745
 40
100.0
100
AcDbArc
 50
85.283778765662
 51
90.0
  0
ARC
  5
72A
100
AcDbEntity
  8
1
  6
CONTINUOUS
 62
           7
100
AcDbCircle
 10
-401.83238836384
 20
402.745
 40
80.0
100
AcDbArc
 50
85.283778765662
 51
90.0
  0
ARC
  5
729
100
AcDbEntity
  8
1
  6
CONTINUOUS
 62
           7
100
AcDbCircle
 10
-386.582371821619
 20
581.095
 40
100.0
100
AcDbArc
 50
-94.716221234338
 51
-90.0
  0
ARC
  5
728
100
AcDbEntity
  8
1
  6
CONTINUOUS
 62
           7
100
AcDbCircle
 10
-387.364792741201
 20
562.095
 40
80.0
100
AcDbArc
 50
-94.716221234338
 51
-90.0
  0
ARC
  5
727
100
AcDbEntity
  8
1
  6
CONTINUOUS
 62
           7
100
AcDbCircle
 10
-387.364792741201
 20
558.795
 40
80.0
100
AcDbArc
 50
-94.716221234338
 51
-90.0
  0
ARC
  5
726
100
AcDbEntity
  8
1
  6
CONTINUOUS
 62
           7
100
AcDbCircle
 10
-401.83238836384
 20
399.445
 40
80.0
100
AcDbArc
 50
85.283778765662
 51
90.0
  0
ARC
  5
725
100
AcDbEntity
  8
1
  6
CONTINUOUS
 62
           7
100
AcDbCircle
 10
-386.582371821619
 20
577.795000000001
 40
100.0
100
AcDbArc
 50
-94.716221234338
 51
-90.0
  0
ARC
  5
724
100
AcDbEntity
  8
1
  6
CONTINUOUS
 62
           7
100
AcDbCircle
 10
-414.818381501434
 20
379.445
 40
100.0
100
AcDbArc
 50
85.283778765662
 51
90.0
  0
ARC
  5
723
100
AcDbEntity
  8
1
  6
CONTINUOUS
 62
           7
100
AcDbCircle
 10
-306.679786643681
 20
471.000000000001
 40
6.0
100
AcDbArc
 50
-0.000000000002
 51
90.0
  0
ARC
  5
722
100
AcDbEntity
  8
1
  6
CONTINUOUS
 62
           7
100
AcDbCircle
 10
-307.303126457425
 20
470.376660186257
 40
14.636619139393
100
AcDbArc
 50
-2.440833163011
 51
87.559166836989
  0
ARC
  5
721
100
AcDbEntity
  8
1
  6
CONTINUOUS
 62
           7
100
AcDbCircle
 10
-306.679786643681
 20
426.000000000001
 40
14.0
100
AcDbArc
 50
-0.000000000001
 51
90.0
  0
ARC
  5
720
100
AcDbEntity
  8
1
  6
CONTINUOUS
 62
           7
100
AcDbCircle
 10
-306.679786643681
 20
426.000000000001
 40
6.0
100
AcDbArc
 50
-0.000000000002
 51
90.0
  0
ARC
  5
71F
100
AcDbEntity
  8
1
  6
DASH_CENTER
 62
           3
100
AcDbCircle
 10
-306.679786643681
 20
426.000000000001
 40
10.0
100
AcDbArc
 50
-0.000000000001
 51
90.0
  0
ARC
  5
71E
100
AcDbEntity
  8
1
  6
DASH_CENTER
 62
           3
100
AcDbCircle
 10
-306.679786643681
 20
471.000000000001
 40
10.0
100
AcDbArc
 50
-0.000000000001
 51
90.0
  0
ARC
  5
71D
100
AcDbEntity
  8
1
  6
CONTINUOUS
 62
           3
100
AcDbCircle
 10
-145.900736350218
 20
241.0
 40
1.5
100
AcDbArc
 50
180.0
 51
-90.0
  0
ARC
  5
71C
100
AcDbEntity
  8
1
  6
CONTINUOUS
 62
           3
100
AcDbCircle
 10
-145.900736350218
 20
264.0
 40
1.5
100
AcDbArc
 50
90.0
 51
180.0
  0
ARC
  5
71B
100
AcDbEntity
  8
1
  6
CONTINUOUS
 62
           3
100
AcDbCircle
 10
-109.900736350218
 20
264.0
 40
1.5
100
AcDbArc
 50
0.0
 51
90.0
  0
ARC
  5
71A
100
AcDbEntity
  8
1
  6
CONTINUOUS
 62
           3
100
AcDbCircle
 10
-109.900736350218
 20
241.0
 40
1.5
100
AcDbArc
 50
-90.0
 51
0.0
  0
ARC
  5
719
100
AcDbEntity
  8
1
  6
CONTINUOUS
 62
           3
100
AcDbCircle
 10
-71.648274634243
 20
318.324559566688
 40
1.5
100
AcDbArc
 50
0.0
 51
90.0
  0
ARC
  5
718
100
AcDbEntity
  8
1
  6
CONTINUOUS
 62
           3
100
AcDbCircle
 10
-94.648274634243
 20
318.324559566688
 40
1.5
100
AcDbArc
 50
90.0
 51
180.0
  0
ARC
  5
717
100
AcDbEntity
  8
1
  6
CONTINUOUS
 62
           3
100
AcDbCircle
 10
-94.648274634243
 20
275.324559566688
 40
1.5
100
AcDbArc
 50
180.0
 51
-90.0
  0
ARC
  5
716
100
AcDbEntity
  8
1
  6
CONTINUOUS
 62
           3
100
AcDbCircle
 10
-71.648274634243
 20
275.324559566688
 40
1.5
100
AcDbArc
 50
-90.0
 51
0.0
  0
SPLINE
  5
715
100
AcDbEntity
  8
0
  6
CONTINUOUS
 62
           3
100
AcDbSpline
210
0.0
220
0.0
230
1.0
 70
           0
 71
           3
 72
           9
 73
           6
 74
           9
 42
0.00000000001
 43
0.00000000001
 44
0.00000000001
 40
0.0
 40
0.0
 40
0.0
 40
0.2417389605459004
 40
0.428524704691733
 40
0.5978042735123248
 40
0.7928346610123761
 40
0.7928346610123761
 40
0.7928346610123761
 10
-464.1257866373266
 20
429.80231159035048
 30
0.0
 10
-464.1257546697376
 20
429.6684226632488
 30
0.0
 10
-464.13918868593072
 20
429.45314135246713
 30
0.0
 10
-464.15541481262358
 20
429.29610600320342
 30
0.0
 10
-464.18133276096262
 20
429.11728679843242
 30
0.0
 10
-464.20305264182679
 20
429.01487821965048
 30
0.0
 11
-464.1257866373266
 21
429.80231159035048
 31
0.0
 11
-464.12765725783606
 21
429.67153382148308
 31
0.0
 11
-464.13333305454228
 21
429.54697836908429
 31
0.0
 11
-464.13985276488722
 21
429.45600609523456
 31
0.0
 11
-464.14770063314535
 21
429.37076330691968
 31
0.0
 11
-464.1564970138532
 21
429.29399788155371
 31
0.0
 11
-464.16745779702035
 21
429.21301621288808
 31
0.0
 11
-464.18329399019308
 21
429.11561700735086
 31
0.0
 11
-464.20305264182679
 21
429.01487821965048
 31
0.0
  0
SPLINE
  5
714
100
AcDbEntity
  8
0
  6
CONTINUOUS
 62
           3
100
AcDbSpline
210
0.0
220
0.0
230
1.0
 70
           0
 71
           3
 72
           9
 73
           6
 74
           9
 42
0.00000000001
 43
0.00000000001
 44
0.00000000001
 40
0.0
 40
0.0
 40
0.0
 40
0.1090410884838217
 40
0.2207265853584509
 40
0.3695479274379076
 40
0.5748423313080792
 40
0.5748423313080792
 40
0.5748423313080792
 10
-464.1257866373266
 20
432.4972438016506
 30
0.0
 10
-464.13747600952343
 20
432.44268713503237
 30
0.0
 10
-464.22944068196142
 20
432.38899240774379
 30
0.0
 10
-464.3405808704976
 20
432.3528196092679
 30
0.0
 10
-464.51887517178068
 20
432.3230406333609
 30
0.0
 10
-464.63378663732658
 20
432.3234975688506
 30
0.0
 11
-464.1257866373266
 21
432.4972438016506
 31
0.0
 11
-464.14591152802092
 21
432.44969487178923
 31
0.0
 11
-464.18290745571016
 21
432.41616141544182
 31
0.0
 11
-464.22971948798386
 21
432.39190762424442
 31
0.0
 11
-464.27708913230242
 21
432.37348426604837
 31
0.0
 11
-464.34344050962386
 21
432.35485703151147
 31
0.0
 11
-464.41551116519804
 21
432.34030464146167
 31
0.0
 11
-464.52176203652152
 21
432.32747086925855
 31
0.0
 11
-464.63378663732658
 21
432.3234975688506
 31
0.0
  0
SPLINE
  5
713
100
AcDbEntity
  8
0
  6
CONTINUOUS
 62
           3
100
AcDbSpline
210
0.0
220
0.0
230
1.0
 70
           0
 71
           3
 72
           9
 73
           6
 74
           9
 42
0.00000000001
 43
0.00000000001
 44
0.00000000001
 40
0.0
 40
0.0
 40
0.0
 40
0.1090410756880814
 40
0.220726637306844
 40
0.3695480177652428
 40
0.5748423321161118
 40
0.5748423321161118
 40
0.5748423321161118
 10
-486.98578663732678
 20
432.4972438016506
 30
0.0
 10
-486.99747599147952
 20
432.44268715899119
 30
0.0
 10
-487.0894406797176
 20
432.38899240159861
 30
0.0
 10
-487.20058096769338
 20
432.35281958338879
 30
0.0
 10
-487.37887524934058
 20
432.32304063503659
 30
0.0
 10
-487.49378663732671
 20
432.3234975688506
 30
0.0
 11
-486.98578663732678
 21
432.4972438016506
 31
0.0
 11
-487.00591151243344
 21
432.44969488837938
 31
0.0
 11
-487.04290742944795
 21
432.41616143388461
 31
0.0
 11
-487.08971949258353
 21
432.39190762141845
 31
0.0
 11
-487.13708918145068
 21
432.37348424859169
 31
0.0
 11
-487.20344060028083
 21
432.35485700937426
 31
0.0
 11
-487.27551128428627
 21
432.34030462212797
 31
0.0
 11
-487.38176210507356
 21
432.32747086526291
 31
0.0
 11
-487.49378663732671
 21
432.3234975688506
 31
0.0
  0
SPLINE
  5
712
100
AcDbEntity
  8
0
  6
CONTINUOUS
 62
           3
100
AcDbSpline
210
0.0
220
0.0
230
1.0
 70
           0
 71
           3
 72
          16
 73
          13
 74
          23
 42
0.00000000001
 43
0.00000000001
 44
0.00000000001
 40
0.0
 40
0.0
 40
0.0
 40
0.2851699207687645
 40
0.5031049177936227
 40
0.6777587687166472
 40
0.8376599215365942
 40
0.9839686396354948
 40
1.1176881191915942
 40
1.2396703483821159
 40
1.3506361953612247
 40
1.4511421056519542
 40
1.5515214434666127
 40
1.6653684244936724
 40
1.6653684244936724
 40
1.6653684244936724
 10
-486.98578663732678
 20
430.5001708549508
 30
0.0
 10
-486.98572260259738
 20
430.34176517069818
 30
0.0
 10
-487.00448190347072
 20
430.08893170348449
 30
0.0
 10
-487.02680388335978
 20
429.90796162601072
 30
0.0
 10
-487.05554745234667
 20
429.7434882113252
 30
0.0
 10
-487.08997905146032
 20
429.59458101223009
 30
0.0
 10
-487.1297055164128
 20
429.46056379035679
 30
0.0
 10
-487.17465776541258
 20
429.34108250754758
 30
0.0
 10
-487.22509611059161
 20
429.23628154610611
 30
0.0
 10
-487.28167772668951
 20
429.1470899424607
 30
0.0
 10
-487.34526668940367
 20
429.0759906690044
 30
0.0
 10
-487.43266706578868
 20
429.01713166029668
 30
0.0
 10
-487.49378663732671
 20
429.01487821965048
 30
0.0
 11
-486.98578663732678
 21
430.5001708549508
 31
0.0
 11
-486.98839689792851
 21
430.34553882638721
 31
0.0
 11
-486.99635574919273
 21
430.19845410920186
 31
0.0
 11
-487.00554822456161
 21
430.09119715359077
 31
0.0
 11
-487.01687334211226
 21
429.98847109819224
 31
0.0
 11
-487.02807263044889
 21
429.90662322988584
 31
0.0
 11
-487.0418094129638
 21
429.8220985693298
 31
0.0
 11
-487.05660794161315
 21
429.74370116557952
 31
0.0
 11
-487.07352744879546
 21
429.66572967033812
 31
0.0
 11
-487.09105520694135
 21
429.59486289684276
 31
0.0
 11
-487.11073527604935
 21
429.5245598925726
 31
0.0
 11
-487.13083991288448
 21
429.46094210004588
 31
0.0
 11
-487.15321334266309
 21
429.39808092689742
 31
0.0
 11
-487.17589961378565
 21
429.34161247246772
 31
0.0
 11
-487.20106958165417
 21
429.28620394787822
 31
0.0
 11
-487.22651201439083
 21
429.23706174034629
 31
0.0
 11
-487.25478625472624
 21
429.18947992129472
 31
0.0
 11
-487.28290848725322
 21
429.14879442826594
 31
0.0
 11
-487.31349224090746
 21
429.11151790684767
 31
0.0
 11
-487.3475613056562
 21
429.07797763432274
 31
0.0
 11
-487.38621960290993
 21
429.04841129243454
 31
0.0
 11
-487.43633509295353
 21
429.02438820816957
 31
0.0
 11
-487.49378663732671
 21
429.01487821965048
 31
0.0
  0
SPLINE
  5
711
100
AcDbEntity
  8
0
  6
CONTINUOUS
 62
           3
100
AcDbSpline
210
0.0
220
0.0
230
1.0
 70
           0
 71
           3
 72
           9
 73
           6
 74
           9
 42
0.00000000001
 43
0.00000000001
 44
0.00000000001
 40
0.0
 40
0.0
 40
0.0
 40
0.109041088043894
 40
0.2207265846941007
 40
0.3695479269111459
 40
0.5748423313303223
 40
0.5748423313303223
 40
0.5748423313303223
 10
-489.52578663732692
 20
432.4972438016506
 30
0.0
 10
-489.51409726524849
 20
432.44268713527123
 30
0.0
 10
-489.42213259328662
 20
432.38899240788737
 30
0.0
 10
-489.31099240482348
 20
432.35281960946401
 30
0.0
 10
-489.13269810324027
 20
432.32304063316332
 30
0.0
 10
-489.01778663732659
 20
432.3234975688506
 30
0.0
 11
-489.52578663732692
 21
432.4972438016506
 31
0.0
 11
-489.50566174679187
 21
432.4496948719634
 31
0.0
 11
-489.46866581934353
 21
432.41616141566084
 31
0.0
 11
-489.42185378724332
 21
432.39190762441899
 31
0.0
 11
-489.37448414305675
 21
432.37348426624044
 31
0.0
 11
-489.30813276569421
 21
432.35485703166836
 31
0.0
 11
-489.23606211007291
 21
432.34030464150499
 31
0.0
 11
-489.12981123846998
 21
432.32747086917061
 31
0.0
 11
-489.01778663732659
 21
432.3234975688506
 31
0.0
  0
SPLINE
  5
710
100
AcDbEntity
  8
0
  6
CONTINUOUS
 62
           3
100
AcDbSpline
210
0.0
220
0.0
230
1.0
 70
           0
 71
           3
 72
           9
 73
           6
 74
           9
 42
0.00000000001
 43
0.00000000001
 44
0.00000000001
 40
0.0
 40
0.0
 40
0.0
 40
0.1950303874996269
 40
0.3643099563205329
 40
0.5510957004663724
 40
0.792834661012271
 40
0.792834661012271
 40
0.792834661012271
 10
-489.44852063282701
 20
429.01487821965048
 30
0.0
 10
-489.47024051369061
 20
429.11728679843179
 30
0.0
 10
-489.4961584620296
 20
429.29610600320342
 30
0.0
 10
-489.51238458872263
 20
429.45314135246713
 30
0.0
 10
-489.52581860491568
 20
429.6684226632488
 30
0.0
 10
-489.52578663732692
 20
429.80231159035048
 30
0.0
 11
-489.44852063282701
 21
429.01487821965048
 31
0.0
 11
-489.46827928446032
 21
429.11561700735041
 31
0.0
 11
-489.48411547763283
 21
429.21301621288757
 31
0.0
 11
-489.49507626079998
 21
429.29399788155359
 31
0.0
 11
-489.50387264150788
 21
429.37076330691968
 31
0.0
 11
-489.51172050976606
 21
429.45600609523456
 31
0.0
 11
-489.51824022011101
 21
429.54697836908434
 31
0.0
 11
-489.52391601681728
 21
429.67153382148302
 31
0.0
 11
-489.52578663732692
 21
429.80231159035048
 31
0.0
  0
SPLINE
  5
70F
100
AcDbEntity
  8
0
  6
CONTINUOUS
 62
           3
100
AcDbSpline
210
0.0
220
0.0
230
1.0
 70
           0
 71
           3
 72
           9
 73
           6
 74
           9
 42
0.00000000001
 43
0.00000000001
 44
0.00000000001
 40
0.0
 40
0.0
 40
0.0
 40
0.1090410884836041
 40
0.2207265853583928
 40
0.3695479274376783
 40
0.5748423313077384
 40
0.5748423313077384
 40
0.5748423313077384
 10
-489.52578663732692
 20
439.5025126376508
 30
0.0
 10
-489.51409726512981
 20
439.55706930426851
 30
0.0
 10
-489.42213259269153
 20
439.61076403155749
 30
0.0
 10
-489.31099240415551
 20
439.6469368300335
 30
0.0
 10
-489.1326981028725
 20
439.67671580593952
 30
0.0
 10
-489.01778663732659
 20
439.67625887045079
 30
0.0
 11
-489.52578663732692
 21
439.5025126376508
 31
0.0
 11
-489.50566174663237
 21
439.5500615675117
 31
0.0
 11
-489.46866581894295
 21
439.58359502385917
 31
0.0
 11
-489.42185378666909
 21
439.60784881505674
 31
0.0
 11
-489.37448414235052
 21
439.62627217325297
 31
0.0
 11
-489.3081327650292
 21
439.64489940778986
 31
0.0
 11
-489.23606210945513
 21
439.65945179783932
 31
0.0
 11
-489.12981123813165
 21
439.67228557004228
 31
0.0
 11
-489.01778663732659
 21
439.67625887045079
 31
0.0
  0
SPLINE
  5
70E
100
AcDbEntity
  8
0
  6
CONTINUOUS
 62
           3
100
AcDbSpline
210
0.0
220
0.0
230
1.0
 70
           0
 71
           3
 72
           9
 73
           6
 74
           9
 42
0.00000000001
 43
0.00000000001
 44
0.00000000001
 40
0.0
 40
0.0
 40
0.0
 40
0.2417389605465236
 40
0.4285247046922222
 40
0.5978042735129581
 40
0.7928346610122801
 40
0.7928346610122801
 40
0.7928346610122801
 10
-489.52578663732692
 20
442.1974448489504
 30
0.0
 10
-489.52581860491568
 20
442.33133377605259
 30
0.0
 10
-489.51238458872263
 20
442.54661508683449
 30
0.0
 10
-489.4961584620296
 20
442.70365043609769
 30
0.0
 10
-489.47024051369061
 20
442.88246964086949
 30
0.0
 10
-489.44852063282701
 20
442.9848782196504
 30
0.0
 11
-489.52578663732692
 21
442.1974448489504
 31
0.0
 11
-489.52391601681734
 21
442.32822261781826
 31
0.0
 11
-489.51824022011101
 21
442.45277807021733
 31
0.0
 11
-489.51172050976606
 21
442.54375034406701
 31
0.0
 11
-489.503872641508
 21
442.62899313238165
 31
0.0
 11
-489.49507626079998
 21
442.70575855774769
 31
0.0
 11
-489.48411547763283
 21
442.7867402264136
 31
0.0
 11
-489.46827928446027
 21
442.88413943195076
 31
0.0
 11
-489.44852063282701
 21
442.9848782196504
 31
0.0
  0
SPLINE
  5
70D
100
AcDbEntity
  8
0
  6
CONTINUOUS
 62
           3
100
AcDbSpline
210
0.0
220
0.0
230
1.0
 70
           0
 71
           3
 72
           9
 73
           6
 74
           9
 42
0.00000000001
 43
0.00000000001
 44
0.00000000001
 40
0.0
 40
0.0
 40
0.0
 40
0.1090410880858527
 40
0.2207265847482119
 40
0.3695479269607577
 40
0.5748423312999816
 40
0.5748423312999816
 40
0.5748423312999816
 10
-486.98578663732678
 20
439.5025126376508
 30
0.0
 10
-486.99747600944471
 20
439.5570693040608
 30
0.0
 10
-487.08944068141869
 20
439.61076403143869
 30
0.0
 10
-487.20058086990872
 20
439.64693682983392
 30
0.0
 10
-487.37887517147971
 20
439.67671580605082
 30
0.0
 10
-487.49378663732671
 20
439.67625887045079
 30
0.0
 11
-486.98578663732678
 21
439.5025126376508
 31
0.0
 11
-487.00591152789457
 21
439.55006156736113
 31
0.0
 11
-487.04290745536207
 21
439.58359502367193
 31
0.0
 11
-487.08971948746586
 21
439.60784881490605
 31
0.0
 11
-487.13708913166386
 21
439.62627217307477
 31
0.0
 11
-487.20344050903776
 21
439.64489940762564
 31
0.0
 11
-487.27551116466975
 21
439.65945179776031
 31
0.0
 11
-487.38176203623891
 21
439.6722855700782
 31
0.0
 11
-487.49378663732671
 21
439.67625887045079
 31
0.0
  0
SPLINE
  5
70C
100
AcDbEntity
  8
0
  6
CONTINUOUS
 62
           3
100
AcDbSpline
210
0.0
220
0.0
230
1.0
 70
           0
 71
           3
 72
          16
 73
          13
 74
          23
 42
0.00000000001
 43
0.00000000001
 44
0.00000000001
 40
0.0
 40
0.0
 40
0.0
 40
0.1138469810002847
 40
0.2142263187741756
 40
0.3147322290527234
 40
0.42569807603319
 40
0.5476803052323976
 40
0.6813997848177174
 40
0.8277085029483078
 40
0.9876096557848691
 40
1.1622635067117024
 40
1.3801985037367184
 40
1.665368424505014
 40
1.665368424505014
 40
1.665368424505014
 10
-487.49378663732671
 20
442.9848782196504
 30
0.0
 10
-487.43266706578868
 20
442.98262477903671
 30
0.0
 10
-487.34526668951457
 20
442.9237657702559
 30
0.0
 10
-487.28167772666262
 20
442.85266649696359
 30
0.0
 10
-487.2250961105965
 20
442.76347489329089
 30
0.0
 10
-487.17465776541599
 20
442.6586739318538
 30
0.0
 10
-487.12970551638227
 20
442.53919264903527
 30
0.0
 10
-487.08997905160891
 20
442.40517542706948
 30
0.0
 10
-487.05554745231962
 20
442.2562682279887
 30
0.0
 10
-487.02680388336557
 20
442.09179481328971
 30
0.0
 10
-487.00448190346958
 20
441.91082473581679
 30
0.0
 10
-486.98572260259738
 20
441.6579912686027
 30
0.0
 10
-486.98578663732678
 20
441.49958558435071
 30
0.0
 11
-487.49378663732671
 21
442.9848782196504
 31
0.0
 11
-487.43633509296734
 21
442.97536823114535
 31
0.0
 11
-487.38621960296513
 21
442.95134514685753
 31
0.0
 11
-487.34756130573709
 21
442.92177880496718
 31
0.0
 11
-487.31349224095402
 21
442.8882385324996
 31
0.0
 11
-487.2829084872489
 21
442.85096201113657
 31
0.0
 11
-487.25478625471635
 21
442.81027651811951
 31
0.0
 11
-487.22651201439203
 21
442.76269469905588
 31
0.0
 11
-487.20106958165906
 21
442.71355249152242
 31
0.0
 11
-487.1758996137857
 21
442.65814396693349
 31
0.0
 11
-487.15321334265201
 21
442.6016755125039
 31
0.0
 11
-487.13083991288028
 21
442.53881433933742
 31
0.0
 11
-487.11073527610438
 21
442.47519654677518
 31
0.0
 11
-487.09105520704537
 21
442.40489354246961
 31
0.0
 11
-487.07352744885918
 21
442.33402676896412
 31
0.0
 11
-487.05660794161253
 21
442.25605527372898
 31
0.0
 11
-487.04180941295181
 21
442.17765786997438
 31
0.0
 11
-487.02807263044951
 21
442.09313320941538
 31
0.0
 11
-487.01687334211488
 21
442.01128534110762
 31
0.0
 11
-487.00554822456149
 21
441.90855928571
 31
0.0
 11
-486.99635574919205
 21
441.80130233009913
 31
0.0
 11
-486.9883968979284
 21
441.65421761291384
 31
0.0
 11
-486.98578663732678
 21
441.49958558435071
 31
0.0
  0
SPLINE
  5
70B
100
AcDbEntity
  8
0
  6
CONTINUOUS
 62
           3
100
AcDbSpline
210
0.0
220
0.0
230
1.0
 70
           0
 71
           3
 72
           9
 73
           6
 74
           9
 42
0.00000000001
 43
0.00000000001
 44
0.00000000001
 40
0.0
 40
0.0
 40
0.0
 40
0.1090410880858208
 40
0.2207265847480868
 40
0.3695479269606443
 40
0.5748423312998485
 40
0.5748423312998485
 40
0.5748423312998485
 10
-466.66578663732662
 20
432.4972438016506
 30
0.0
 10
-466.65409726520852
 20
432.44268713524059
 30
0.0
 10
-466.56213259323459
 20
432.38899240786287
 30
0.0
 10
-466.45099240474451
 20
432.35281960946799
 30
0.0
 10
-466.27269810317352
 20
432.32304063325063
 30
0.0
 10
-466.15778663732658
 20
432.3234975688506
 30
0.0
 11
-466.66578663732662
 21
432.4972438016506
 31
0.0
 11
-466.64566174675872
 21
432.44969487194032
 31
0.0
 11
-466.60866581929122
 21
432.41616141562952
 31
0.0
 11
-466.56185378718743
 21
432.39190762439557
 31
0.0
 11
-466.51448414298943
 21
432.37348426622697
 31
0.0
 11
-466.44813276561547
 21
432.35485703167598
 31
0.0
 11
-466.37606210998342
 21
432.34030464154148
 31
0.0
 11
-466.26981123841432
 21
432.32747086922336
 31
0.0
 11
-466.15778663732658
 21
432.3234975688506
 31
0.0
  0
SPLINE
  5
70A
100
AcDbEntity
  8
0
  6
CONTINUOUS
 62
           3
100
AcDbSpline
210
0.0
220
0.0
230
1.0
 70
           0
 71
           3
 72
          16
 73
          13
 74
          23
 42
0.00000000001
 43
0.00000000001
 44
0.00000000001
 40
0.0
 40
0.0
 40
0.0
 40
0.1138469809998094
 40
0.2142263187733654
 40
0.3147322290520432
 40
0.4256980760331204
 40
0.5476803052320477
 40
0.6813997848169624
 40
0.8277085029481321
 40
0.987609655785083
 40
1.1622635067116243
 40
1.380198503736394
 40
1.6653684245048517
 40
1.6653684245048517
 40
1.6653684245048517
 10
-466.15778663732658
 20
429.01487821965048
 30
0.0
 10
-466.21890620886438
 20
429.01713166026519
 30
0.0
 10
-466.30630658513849
 20
429.07599066904498
 30
0.0
 10
-466.36989554799061
 20
429.147089942337
 30
0.0
 10
-466.42647716405651
 20
429.23628154601028
 30
0.0
 10
-466.47691550923747
 20
429.34108250744811
 30
0.0
 10
-466.52186775827062
 20
429.46056379026533
 30
0.0
 10
-466.56159422304461
 20
429.59458101223157
 30
0.0
 10
-466.59602582233362
 20
429.74348821131298
 30
0.0
 10
-466.62476939128771
 20
429.9079616260122
 30
0.0
 10
-466.64709137118348
 20
430.08893170348432
 30
0.0
 10
-466.66585067205472
 20
430.34176517069881
 30
0.0
 10
-466.66578663732662
 20
430.5001708549508
 30
0.0
 11
-466.15778663732658
 21
429.01487821965048
 31
0.0
 11
-466.21523818168583
 21
429.02438820815621
 31
0.0
 11
-466.26535367168793
 21
429.04841129244386
 31
0.0
 11
-466.30401196891597
 21
429.07797763433365
 31
0.0
 11
-466.33808103369904
 21
429.11151790680105
 31
0.0
 11
-466.36866478740421
 21
429.14879442816402
 31
0.0
 11
-466.39678701993665
 21
429.18947992118126
 31
0.0
 11
-466.42506126026092
 21
429.23706174024522
 31
0.0
 11
-466.45050369299429
 21
429.28620394777931
 31
0.0
 11
-466.47567366086759
 21
429.34161247236818
 31
0.0
 11
-466.49835993200122
 21
429.39808092679738
 31
0.0
 11
-466.52073336177284
 21
429.46094209996335
 31
0.0
 11
-466.5408379985488
 21
429.52455989252542
 31
0.0
 11
-466.56051806760803
 21
429.59486289683144
 31
0.0
 11
-466.57804582579422
 21
429.66572967033733
 31
0.0
 11
-466.59496533304076
 21
429.7437011655727
 31
0.0
 11
-466.60976386170148
 21
429.82209856932764
 31
0.0
 11
-466.62350064420377
 21
429.90662322988641
 31
0.0
 11
-466.6346999325383
 21
429.98847109819388
 31
0.0
 11
-466.6460250500914
 21
430.09119715359117
 31
0.0
 11
-466.65521752546061
 21
430.19845410920209
 31
0.0
 11
-466.66317637672415
 21
430.34553882638761
 31
0.0
 11
-466.66578663732662
 21
430.5001708549508
 31
0.0
  0
SPLINE
  5
709
100
AcDbEntity
  8
0
  6
CONTINUOUS
 62
           3
100
AcDbSpline
210
0.0
220
0.0
230
1.0
 70
           0
 71
           3
 72
           9
 73
           6
 74
           9
 42
0.00000000001
 43
0.00000000001
 44
0.00000000001
 40
0.0
 40
0.0
 40
0.0
 40
0.1090410880434574
 40
0.2207265846938096
 40
0.3695479269108839
 40
0.5748423313302316
 40
0.5748423313302316
 40
0.5748423313302316
 10
-464.1257866373266
 20
439.5025126376508
 30
0.0
 10
-464.13747600940451
 20
439.55706930402982
 30
0.0
 10
-464.22944068136633
 20
439.61076403141379
 30
0.0
 10
-464.34058086982952
 20
439.6469368298379
 30
0.0
 10
-464.51887517141262
 20
439.67671580613791
 30
0.0
 10
-464.63378663732658
 20
439.67625887045079
 30
0.0
 11
-464.1257866373266
 21
439.5025126376508
 31
0.0
 11
-464.14591152786124
 21
439.55006156733771
 31
0.0
 11
-464.18290745530931
 21
439.58359502364021
 31
0.0
 11
-464.22971948740962
 21
439.60784881488229
 31
0.0
 11
-464.27708913159626
 21
439.62627217306101
 31
0.0
 11
-464.34344050895885
 21
439.64489940763332
 31
0.0
 11
-464.41551116457993
 21
439.65945179779658
 31
0.0
 11
-464.52176203618285
 21
439.67228557013073
 31
0.0
 11
-464.63378663732658
 21
439.67625887045079
 31
0.0
  0
SPLINE
  5
708
100
AcDbEntity
  8
0
  6
CONTINUOUS
 62
           3
100
AcDbSpline
210
0.0
220
0.0
230
1.0
 70
           0
 71
           3
 72
           9
 73
           6
 74
           9
 42
0.00000000001
 43
0.00000000001
 44
0.00000000001
 40
0.0
 40
0.0
 40
0.0
 40
0.1950303874994441
 40
0.3643099563201753
 40
0.5510957004658668
 40
0.7928346610123923
 40
0.7928346610123923
 40
0.7928346610123923
 10
-464.20305264182679
 20
442.9848782196504
 30
0.0
 10
-464.18133276096262
 20
442.88246964086949
 30
0.0
 10
-464.15541481262358
 20
442.70365043609769
 30
0.0
 10
-464.13918868593072
 20
442.54661508683449
 30
0.0
 10
-464.1257546697376
 20
442.33133377605259
 30
0.0
 10
-464.1257866373266
 20
442.1974448489504
 30
0.0
 11
-464.20305264182679
 21
442.9848782196504
 31
0.0
 11
-464.18329399019302
 21
442.8841394319507
 31
0.0
 11
-464.16745779702035
 21
442.7867402264136
 31
0.0
 11
-464.15649701385314
 21
442.70575855774757
 31
0.0
 11
-464.14770063314529
 21
442.62899313238165
 31
0.0
 11
-464.13985276488728
 21
442.54375034406701
 31
0.0
 11
-464.13333305454233
 21
442.45277807021739
 31
0.0
 11
-464.12765725783595
 21
442.32822261781826
 31
0.0
 11
-464.1257866373266
 21
442.1974448489504
 31
0.0
  0
SPLINE
  5
707
100
AcDbEntity
  8
0
  6
CONTINUOUS
 62
           3
100
AcDbSpline
210
0.0
220
0.0
230
1.0
 70
           0
 71
           3
 72
           9
 73
           6
 74
           9
 42
0.00000000001
 43
0.00000000001
 44
0.00000000001
 40
0.0
 40
0.0
 40
0.0
 40
0.1090410756883907
 40
0.2207266373070406
 40
0.3695480177653954
 40
0.5748423321160578
 40
0.5748423321160578
 40
0.5748423321160578
 10
-466.66578663732662
 20
439.5025126376508
 30
0.0
 10
-466.65409728317348
 20
439.55706928031071
 30
0.0
 10
-466.56213259493558
 20
439.61076403770249
 30
0.0
 10
-466.45099230695951
 20
439.64693685591249
 30
0.0
 10
-466.27269802531271
 20
439.67671580426457
 30
0.0
 10
-466.15778663732658
 20
439.67625887045079
 30
0.0
 11
-466.66578663732662
 21
439.5025126376508
 31
0.0
 11
-466.64566176221967
 21
439.55006155092235
 31
0.0
 11
-466.608665845205
 21
439.5835950054169
 31
0.0
 11
-466.56185378206965
 21
439.60784881788288
 31
0.0
 11
-466.51448409320238
 21
439.62627219070953
 31
0.0
 11
-466.44813267437206
 21
439.64489942992691
 31
0.0
 11
-466.37606199036674
 21
439.65945181717325
 31
0.0
 11
-466.26981116957967
 21
439.67228557403831
 31
0.0
 11
-466.15778663732658
 21
439.67625887045079
 31
0.0
  0
SPLINE
  5
706
100
AcDbEntity
  8
0
  6
CONTINUOUS
 62
           3
100
AcDbSpline
210
0.0
220
0.0
230
1.0
 70
           0
 71
           3
 72
          16
 73
          13
 74
          23
 42
0.00000000001
 43
0.00000000001
 44
0.00000000001
 40
0.0
 40
0.0
 40
0.0
 40
0.2851699207683248
 40
0.5031049177933337
 40
0.677758768716372
 40
0.837659921536189
 40
0.9839686396351861
 40
1.1176881191913948
 40
1.2396703483821232
 40
1.3506361953612691
 40
1.4511421056515865
 40
1.551521443466382
 40
1.6653684244934084
 40
1.6653684244934084
 40
1.6653684244934084
 10
-466.66578663732662
 20
441.49958558435071
 30
0.0
 10
-466.66585067205563
 20
441.6579912686027
 30
0.0
 10
-466.64709137118263
 20
441.91082473581679
 30
0.0
 10
-466.62476939129368
 20
442.09179481329051
 30
0.0
 10
-466.59602582230622
 20
442.25626822797602
 30
0.0
 10
-466.56159422319269
 20
442.40517542707079
 30
0.0
 10
-466.52186775824038
 20
442.53919264894472
 30
0.0
 10
-466.47691550924048
 20
442.65867393175353
 30
0.0
 10
-466.42647716406162
 20
442.76347489319591
 30
0.0
 10
-466.36989554796372
 20
442.85266649684053
 30
0.0
 10
-466.30630658524979
 20
442.92376577029682
 30
0.0
 10
-466.21890620886438
 20
442.98262477900471
 30
0.0
 10
-466.15778663732658
 20
442.9848782196504
 30
0.0
 11
-466.66578663732662
 21
441.49958558435071
 31
0.0
 11
-466.66317637672461
 21
441.65421761291384
 31
0.0
 11
-466.65521752546044
 21
441.80130233009913
 31
0.0
 11
-466.64602505009174
 21
441.90855928571045
 31
0.0
 11
-466.63469993254114
 21
442.01128534110904
 31
0.0
 11
-466.62350064420446
 21
442.09313320941544
 31
0.0
 11
-466.60976386168943
 21
442.17765786997154
 31
0.0
 11
-466.5949653330398
 21
442.25605527372159
 31
0.0
 11
-466.57804582585754
 21
442.33402676896287
 31
0.0
 11
-466.56051806771154
 21
442.40489354245824
 31
0.0
 11
-466.54083799860371
 21
442.47519654672857
 31
0.0
 11
-466.52073336176863
 21
442.53881433925551
 31
0.0
 11
-466.49835993198997
 21
442.60167551240386
 31
0.0
 11
-466.47567366086747
 21
442.65814396683356
 31
0.0
 11
-466.45050369299895
 21
442.7135524914234
 31
0.0
 11
-466.42506126026228
 21
442.7626946989555
 31
0.0
 11
-466.39678701992693
 21
442.81027651800696
 31
0.0
 11
-466.36866478740018
 21
442.85096201103545
 31
0.0
 11
-466.33808103374599
 21
442.88823853245344
 31
0.0
 11
-466.3040119689972
 21
442.92177880497849
 31
0.0
 11
-466.26535367174336
 21
442.95134514686674
 31
0.0
 11
-466.21523818169965
 21
442.97536823113165
 31
0.0
 11
-466.15778663732658
 21
442.9848782196504
 31
0.0
  0
SPLINE
  5
705
100
AcDbEntity
  8
1
  6
CONTINUOUS
 62
           3
100
AcDbSpline
210
0.0
220
0.0
230
1.0
 70
           0
 71
           4
 72
          11
 73
           7
 74
           9
 42
0.00000000001
 43
0.00000000001
 44
0.00000000001
 40
0.0
 40
0.0
 40
0.0
 40
0.0
 40
9.6338415425031485
 40
17.645892309248303
 40
24.433065082297276
 40
31.724911433489869
 40
31.724911433489869
 40
31.724911433489869
 40
31.724911433489869
 10
-432.47457536006351
 20
199.50000000000051
 30
0.0
 10
-433.11268667098972
 20
203.5292590699714
 30
0.0
 10
-434.3240503256477
 20
208.9499221228229
 30
0.0
 10
-430.44771065544307
 20
215.96183685776509
 30
0.0
 10
-423.8259487963258
 20
214.47254704971661
 30
0.0
 10
-419.82567810661402
 20
214.5837958389946
 30
0.0
 10
-416.67978664368172
 20
213.62064584448669
 30
0.0
 11
-432.47457536006351
 21
199.50000000000051
 31
0.0
 11
-433.29682639758215
 21
204.86196146815786
 31
0.0
 11
-433.23987010943779
 21
209.34184293409226
 31
0.0
 11
-431.98020381668772
 21
212.66301055590452
 31
0.0
 11
-429.64136132878201
 21
214.77611381367075
 31
0.0
 11
-426.98037823177441
 21
215.08582635114007
 31
0.0
 11
-424.02832643649572
 21
214.75300500353208
 31
0.0
 11
-420.73470963194268
 21
214.46294637459772
 31
0.0
 11
-416.67978664368172
 21
213.62064584448669
 31
0.0
  0
SPLINE
  5
704
100
AcDbEntity
  8
1
  6
CONTINUOUS
 62
           3
100
AcDbSpline
210
0.0
220
0.0
230
1.0
 70
           0
 71
           4
 72
          10
 73
           6
 74
           7
 42
0.00000000001
 43
0.00000000001
 44
0.00000000001
 40
8.0231878496695419
 40
8.0231878496695419
 40
8.0231878496695419
 40
8.0231878496695419
 40
14.267113146084668
 40
24.280832834204332
 40
39.063742828871511
 40
39.063742828871511
 40
39.063742828871511
 40
39.063742828871511
 10
-482.17978664368178
 20
237.19786308889141
 30
0.0
 10
-479.87198046504687
 20
237.13703294083089
 30
0.0
 10
-475.94797888080882
 20
236.83881172848169
 30
0.0
 10
-466.71614050243397
 20
232.95966979400691
 30
0.0
 10
-472.0880934422413
 20
222.5581591123217
 30
0.0
 10
-472.4198759725075
 20
219.5000000000004
 30
0.0
 11
-482.17978664368178
 21
237.19786308889141
 31
0.0
 11
-479.20174564442641
 21
237.04109029465096
 31
0.0
 11
-476.72346212254212
 21
236.65226691920603
 31
0.0
 11
-472.81849203326061
 21
235.20172603387374
 31
0.0
 11
-470.21332244751716
 21
232.36474291261484
 31
0.0
 11
-470.69425379795587
 21
225.72709771718158
 31
0.0
 11
-472.4198759725075
 21
219.5000000000004
 31
0.0
  0
SPLINE
  5
703
100
AcDbEntity
  8
1
  6
CONTINUOUS
 62
           3
100
AcDbSpline
210
0.0
220
0.0
230
1.0
 70
           0
 71
           4
 72
           8
 73
           4
 74
           3
 42
0.00000000001
 43
0.00000000001
 44
0.00000000001
 40
0.0
 40
0.0
 40
0.0
 40
0.0
 40
8.0232578067909444
 40
8.0232578067909444
 40
8.0232578067909444
 40
8.0232578067909444
 10
-490.17978664368161
 20
237.5285450737947
 30
0.0
 10
-487.44073437870981
 20
237.1875919493159
 30
0.0
 10
-484.81075742171458
 20
237.267211348486
 30
0.0
 10
-482.17978664368178
 20
237.19786308889141
 30
0.0
 11
-490.17978664368161
 21
237.5285450737947
 31
0.0
 11
-486.13925608607957
 21
237.26135225701148
 31
0.0
 11
-482.17978664368178
 21
237.19786308889141
 31
0.0
  0
CIRCLE
  5
702
100
AcDbEntity
  8
0
  6
CONTINUOUS
 62
           3
100
AcDbCircle
 10
-476.825786637327
 20
432.82487821965
 40
2.17805
  0
CIRCLE
  5
701
100
AcDbEntity
  8
0
  6
CONTINUOUS
 62
           3
100
AcDbCircle
 10
-470.475786637327
 20
439.174878219651
 40
2.17805
  0
CIRCLE
  5
700
100
AcDbEntity
  8
0
  6
CONTINUOUS
 62
           3
100
AcDbCircle
 10
-483.175786637326
 20
439.174878219651
 40
2.17805
  0
CIRCLE
  5
6FF
100
AcDbEntity
  8
0
  6
CONTINUOUS
 62
           3
100
AcDbCircle
 10
-470.475786637327
 20
432.82487821965
 40
2.17805
  0
CIRCLE
  5
6FE
100
AcDbEntity
  8
0
  6
CONTINUOUS
 62
           3
100
AcDbCircle
 10
-483.175786637326
 20
432.82487821965
 40
2.17805
  0
CIRCLE
  5
6FD
100
AcDbEntity
  8
0
  6
CONTINUOUS
 62
           3
100
AcDbCircle
 10
-476.825786637327
 20
439.174878219651
 40
2.17805
  0
CIRCLE
  5
6FC
100
AcDbEntity
  8
0
  6
CONTINUOUS
 62
           3
100
AcDbCircle
 10
-476.825786637327
 20
439.174878219651
 40
2.6519859027
  0
CIRCLE
  5
6FB
100
AcDbEntity
  8
0
  6
CONTINUOUS
 62
           3
100
AcDbCircle
 10
-483.175786637326
 20
432.82487821965
 40
2.6519859027
  0
CIRCLE
  5
6FA
100
AcDbEntity
  8
0
  6
CONTINUOUS
 62
           3
100
AcDbCircle
 10
-470.475786637327
 20
432.82487821965
 40
2.6519859027
  0
CIRCLE
  5
6F9
100
AcDbEntity
  8
0
  6
CONTINUOUS
 62
           3
100
AcDbCircle
 10
-470.475786637327
 20
432.82487821965
 40
2.43205
  0
CIRCLE
  5
6F8
100
AcDbEntity
  8
0
  6
CONTINUOUS
 62
           3
100
AcDbCircle
 10
-483.175786637326
 20
432.82487821965
 40
2.43205
  0
CIRCLE
  5
6F7
100
AcDbEntity
  8
0
  6
CONTINUOUS
 62
           3
100
AcDbCircle
 10
-476.825786637327
 20
439.174878219651
 40
2.43205
  0
CIRCLE
  5
6F6
100
AcDbEntity
  8
0
  6
CONTINUOUS
 62
           3
100
AcDbCircle
 10
-470.475786637327
 20
432.82487821965
 40
1.778
  0
CIRCLE
  5
6F5
100
AcDbEntity
  8
0
  6
CONTINUOUS
 62
           3
100
AcDbCircle
 10
-476.825786637327
 20
432.82487821965
 40
1.778
  0
CIRCLE
  5
6F4
100
AcDbEntity
  8
0
  6
CONTINUOUS
 62
           3
100
AcDbCircle
 10
-483.175786637326
 20
432.82487821965
 40
1.778
  0
CIRCLE
  5
6F3
100
AcDbEntity
  8
0
  6
CONTINUOUS
 62
           3
100
AcDbCircle
 10
-470.475786637327
 20
439.174878219651
 40
1.778
  0
CIRCLE
  5
6F2
100
AcDbEntity
  8
0
  6
CONTINUOUS
 62
           3
100
AcDbCircle
 10
-476.825786637327
 20
439.174878219651
 40
1.778
  0
CIRCLE
  5
6F1
100
AcDbEntity
  8
0
  6
CONTINUOUS
 62
           3
100
AcDbCircle
 10
-483.175786637326
 20
439.174878219651
 40
1.778
  0
CIRCLE
  5
6F0
100
AcDbEntity
  8
1
  6
CONTINUOUS
 62
           7
100
AcDbCircle
 10
-127.900736350218
 20
297.000000000001
 40
28.5
  0
CIRCLE
  5
6EF
100
AcDbEntity
  8
1
  6
CONTINUOUS
 62
           7
100
AcDbCircle
 10
-127.900736350218
 20
297.000000000001
 40
22.5
  0
CIRCLE
  5
6EE
100
AcDbEntity
  8
1
  6
CONTINUOUS
 62
           7
100
AcDbCircle
 10
-196.844736230926
 20
354.85088487179
 40
3.3
  0
CIRCLE
  5
6ED
100
AcDbEntity
  8
1
  6
CONTINUOUS
 62
           7
100
AcDbCircle
 10
-626.255796342909
 20
278.882666842824
 40
4.5
  0
CIRCLE
  5
6EC
100
AcDbEntity
  8
1
  6
DASH_CENTER
 62
           3
100
AcDbCircle
 10
-693.870604183144
 20
297.000000000001
 40
70.0
  0
CIRCLE
  5
6EB
100
AcDbEntity
  8
1
  6
CONTINUOUS
 62
           7
100
AcDbCircle
 10
-113.406869824477
 20
351.091846272189
 40
4.0
  0
CIRCLE
  5
6EA
100
AcDbEntity
  8
1
  6
CONTINUOUS
 62
           7
100
AcDbCircle
 10
-113.406869824477
 20
351.091846272189
 40
7.0
  0
CIRCLE
  5
6E9
100
AcDbEntity
  8
1
  6
CONTINUOUS
 62
           7
100
AcDbCircle
 10
-142.394602875958
 20
351.091846272189
 40
7.0
  0
CIRCLE
  5
6E8
100
AcDbEntity
  8
1
  6
CONTINUOUS
 62
           7
100
AcDbCircle
 10
-142.394602875958
 20
351.091846272189
 40
4.0
  0
CIRCLE
  5
6E7
100
AcDbEntity
  8
1
  6
CONTINUOUS
 62
           7
100
AcDbCircle
 10
-127.900736350218
 20
297.000000000001
 40
71.755236
  0
CIRCLE
  5
6E6
100
AcDbEntity
  8
1
  6
CONTINUOUS
 62
           7
100
AcDbCircle
 10
-112.272398199255
 20
208.367302609934
 40
4.0
  0
CIRCLE
  5
6E5
100
AcDbEntity
  8
1
  6
CONTINUOUS
 62
           7
100
AcDbCircle
 10
-43.328399729
 20
266.218189162635
 40
4.0
  0
CIRCLE
  5
6E4
100
AcDbEntity
  8
1
  6
CONTINUOUS
 62
           7
100
AcDbCircle
 10
-58.956737879963
 20
354.850886552702
 40
4.0
  0
CIRCLE
  5
6E3
100
AcDbEntity
  8
1
  6
CONTINUOUS
 62
           7
100
AcDbCircle
 10
-143.529074501181
 20
385.632697390068
 40
4.0
  0
CIRCLE
  5
6E2
100
AcDbEntity
  8
1
  6
CONTINUOUS
 62
           7
100
AcDbCircle
 10
-212.473072971436
 20
327.781810837367
 40
4.0
  0
CIRCLE
  5
6E1
100
AcDbEntity
  8
1
  6
CONTINUOUS
 62
           7
100
AcDbCircle
 10
-196.844734820473
 20
239.1491134473
 40
4.0
  0
CIRCLE
  5
6E0
100
AcDbEntity
  8
1
  6
CONTINUOUS
 62
           7
100
AcDbCircle
 10
-49.9584503127
 20
342.000000524954
 40
3.3
  0
CIRCLE
  5
6DF
100
AcDbEntity
  8
1
  6
CONTINUOUS
 62
           7
100
AcDbCircle
 10
-70.049851942777
 20
365.944000270343
 40
3.3
  0
CIRCLE
  5
6DE
100
AcDbEntity
  8
1
  6
CONTINUOUS
 62
           7
100
AcDbCircle
 10
-97.118924020515
 20
381.572336078053
 40
3.3
  0
CIRCLE
  5
6DD
100
AcDbEntity
  8
1
  6
CONTINUOUS
 62
           7
100
AcDbCircle
 10
-127.900736956381
 20
387.000000000001
 40
3.3
  0
CIRCLE
  5
6DC
100
AcDbEntity
  8
1
  6
CONTINUOUS
 62
           7
100
AcDbCircle
 10
-158.682549819135
 20
381.572335663413
 40
3.3
  0
CIRCLE
  5
6DB
100
AcDbEntity
  8
1
  6
CONTINUOUS
 62
           7
100
AcDbCircle
 10
-185.751621686354
 20
365.943999491075
 40
3.3
  0
CIRCLE
  5
6DA
100
AcDbEntity
  8
1
  6
CONTINUOUS
 62
           7
100
AcDbCircle
 10
-205.843022993899
 20
341.999999475048
 40
3.3
  0
CIRCLE
  5
6D9
100
AcDbEntity
  8
1
  6
CONTINUOUS
 62
           7
100
AcDbCircle
 10
-216.533434226576
 20
312.62833539307
 40
3.3
  0
CIRCLE
  5
6D8
100
AcDbEntity
  8
1
  6
CONTINUOUS
 62
           7
100
AcDbCircle
 10
-205.843022387736
 20
251.999999475048
 40
3.3
  0
CIRCLE
  5
6D7
100
AcDbEntity
  8
1
  6
CONTINUOUS
 62
           7
100
AcDbCircle
 10
-185.751620757659
 20
228.055999729658
 40
3.3
  0
CIRCLE
  5
6D6
100
AcDbEntity
  8
1
  6
CONTINUOUS
 62
           7
100
AcDbCircle
 10
-158.682548679921
 20
212.427663921949
 40
3.3
  0
CIRCLE
  5
6D5
100
AcDbEntity
  8
1
  6
CONTINUOUS
 62
           7
100
AcDbCircle
 10
-127.900735744055
 20
207.0
 40
3.3
  0
CIRCLE
  5
6D4
100
AcDbEntity
  8
1
  6
CONTINUOUS
 62
           7
100
AcDbCircle
 10
-97.118922881301
 20
212.427664336589
 40
3.3
  0
CIRCLE
  5
6D3
100
AcDbEntity
  8
1
  6
CONTINUOUS
 62
           7
100
AcDbCircle
 10
-70.049851014081
 20
228.056000508927
 40
3.3
  0
CIRCLE
  5
6D2
100
AcDbEntity
  8
1
  6
CONTINUOUS
 62
           7
100
AcDbCircle
 10
-49.958449706536
 20
252.000000524953
 40
3.3
  0
CIRCLE
  5
6D1
100
AcDbEntity
  8
1
  6
CONTINUOUS
 62
           7
100
AcDbCircle
 10
-39.26803847386
 20
281.371664606931
 40
3.3
  0
CIRCLE
  5
6D0
100
AcDbEntity
  8
1
  6
CONTINUOUS
 62
           7
100
AcDbCircle
 10
-39.268038684378
 20
312.628336586979
 40
3.3
  0
CIRCLE
  5
6CF
100
AcDbEntity
  8
1
  6
CONTINUOUS
 62
           7
100
AcDbCircle
 10
-693.870604183144
 20
297.000000000001
 40
97.5
  0
CIRCLE
  5
6CE
100
AcDbEntity
  8
1
  6
CONTINUOUS
 62
           7
100
AcDbCircle
 10
-693.870604183144
 20
297.000000000001
 40
95.0
  0
CIRCLE
  5
6CD
100
AcDbEntity
  8
1
  6
CONTINUOUS
 62
           7
100
AcDbCircle
 10
-724.652417082454
 20
381.572335870732
 40
3.3
  0
CIRCLE
  5
6CC
100
AcDbEntity
  8
1
  6
CONTINUOUS
 62
           7
100
AcDbCircle
 10
-751.721489054933
 20
365.943999880708
 40
3.299999999999
  0
CIRCLE
  5
6CB
100
AcDbEntity
  8
1
  6
CONTINUOUS
 62
           7
100
AcDbCircle
 10
-771.812890523744
 20
342.0
 40
3.3
  0
CIRCLE
  5
6CA
100
AcDbEntity
  8
1
  6
CONTINUOUS
 62
           7
100
AcDbCircle
 10
-782.503301954243
 20
312.628335990024
 40
3.3
  0
CIRCLE
  5
6C9
100
AcDbEntity
  8
1
  6
CONTINUOUS
 62
           7
100
AcDbCircle
 10
-782.503301954243
 20
281.371664009976
 40
3.3
  0
CIRCLE
  5
6C8
100
AcDbEntity
  8
1
  6
CONTINUOUS
 62
           7
100
AcDbCircle
 10
-771.812890523743
 20
252.0
 40
3.3
  0
CIRCLE
  5
6C7
100
AcDbEntity
  8
1
  6
CONTINUOUS
 62
           7
100
AcDbCircle
 10
-751.721489054932
 20
228.056000119292
 40
3.3
  0
CIRCLE
  5
6C6
100
AcDbEntity
  8
1
  6
CONTINUOUS
 62
           7
100
AcDbCircle
 10
-724.652417082454
 20
212.427664129268
 40
3.300000000001
  0
CIRCLE
  5
6C5
100
AcDbEntity
  8
1
  6
CONTINUOUS
 62
           7
100
AcDbCircle
 10
-693.870604183144
 20
207.0
 40
3.3
  0
CIRCLE
  5
6C4
100
AcDbEntity
  8
1
  6
CONTINUOUS
 62
           7
100
AcDbCircle
 10
-663.088791283834
 20
212.427664129268
 40
3.3
  0
CIRCLE
  5
6C3
100
AcDbEntity
  8
1
  6
CONTINUOUS
 62
           7
100
AcDbCircle
 10
-636.019719311355
 20
228.056000119292
 40
3.3
  0
CIRCLE
  5
6C2
100
AcDbEntity
  8
1
  6
CONTINUOUS
 62
           7
100
AcDbCircle
 10
-615.928317842545
 20
252.000000000001
 40
3.3
  0
CIRCLE
  5
6C1
100
AcDbEntity
  8
1
  6
CONTINUOUS
 62
           7
100
AcDbCircle
 10
-605.237906412046
 20
281.371664009977
 40
3.3
  0
CIRCLE
  5
6C0
100
AcDbEntity
  8
1
  6
CONTINUOUS
 62
           7
100
AcDbCircle
 10
-605.237906412046
 20
312.628335990024
 40
3.3
  0
CIRCLE
  5
6BF
100
AcDbEntity
  8
1
  6
CONTINUOUS
 62
           7
100
AcDbCircle
 10
-615.928317842545
 20
342.000000000001
 40
3.3
  0
CIRCLE
  5
6BE
100
AcDbEntity
  8
1
  6
CONTINUOUS
 62
           7
100
AcDbCircle
 10
-636.019719311356
 20
365.943999880709
 40
3.3
  0
CIRCLE
  5
6BD
100
AcDbEntity
  8
1
  6
CONTINUOUS
 62
           7
100
AcDbCircle
 10
-663.088791283834
 20
381.572335870732
 40
3.3
  0
CIRCLE
  5
6BC
100
AcDbEntity
  8
1
  6
CONTINUOUS
 62
           7
100
AcDbCircle
 10
-693.870604183144
 20
387.0
 40
3.3
  0
CIRCLE
  5
6BB
100
AcDbEntity
  8
1
  6
DASH_CENTER
 62
           3
100
AcDbCircle
 10
-693.870604183144
 20
297.000000000001
 40
90.0
  0
CIRCLE
  5
6BA
100
AcDbEntity
  8
1
  6
CONTINUOUS
 62
           3
100
AcDbCircle
 10
-693.870604183144
 20
367.0
 40
4.0
  0
CIRCLE
  5
6B9
100
AcDbEntity
  8
1
  6
CONTINUOUS
 62
           7
100
AcDbCircle
 10
-693.870604183144
 20
367.0
 40
4.5
  0
CIRCLE
  5
6B8
100
AcDbEntity
  8
1
  6
CONTINUOUS
 62
           7
100
AcDbCircle
 10
-693.870604183144
 20
367.0
 40
3.2
  0
CIRCLE
  5
6B7
100
AcDbEntity
  8
1
  6
CONTINUOUS
 62
           3
100
AcDbCircle
 10
-658.870604183144
 20
357.621778264911
 40
4.0
  0
CIRCLE
  5
6B6
100
AcDbEntity
  8
1
  6
CONTINUOUS
 62
           7
100
AcDbCircle
 10
-658.870604183144
 20
357.621778264911
 40
4.5
  0
CIRCLE
  5
6B5
100
AcDbEntity
  8
1
  6
CONTINUOUS
 62
           7
100
AcDbCircle
 10
-658.870604183144
 20
357.621778264911
 40
3.2
  0
CIRCLE
  5
6B4
100
AcDbEntity
  8
1
  6
CONTINUOUS
 62
           3
100
AcDbCircle
 10
-633.248825918234
 20
332.0
 40
4.0
  0
CIRCLE
  5
6B3
100
AcDbEntity
  8
1
  6
CONTINUOUS
 62
           7
100
AcDbCircle
 10
-633.248825918234
 20
332.0
 40
4.5
  0
CIRCLE
  5
6B2
100
AcDbEntity
  8
1
  6
CONTINUOUS
 62
           7
100
AcDbCircle
 10
-633.248825918234
 20
332.0
 40
3.2
  0
CIRCLE
  5
6B1
100
AcDbEntity
  8
1
  6
CONTINUOUS
 62
           3
100
AcDbCircle
 10
-623.870604183144
 20
297.000000000001
 40
4.0
  0
CIRCLE
  5
6B0
100
AcDbEntity
  8
1
  6
CONTINUOUS
 62
           7
100
AcDbCircle
 10
-623.870604183144
 20
297.000000000001
 40
4.5
  0
CIRCLE
  5
6AF
100
AcDbEntity
  8
1
  6
CONTINUOUS
 62
           7
100
AcDbCircle
 10
-623.870604183144
 20
297.000000000001
 40
3.2
  0
CIRCLE
  5
6AE
100
AcDbEntity
  8
1
  6
CONTINUOUS
 62
           3
100
AcDbCircle
 10
-633.248825918234
 20
262.000000000001
 40
4.0
  0
CIRCLE
  5
6AD
100
AcDbEntity
  8
1
  6
CONTINUOUS
 62
           7
100
AcDbCircle
 10
-633.248825918234
 20
262.000000000001
 40
4.5
  0
CIRCLE
  5
6AC
100
AcDbEntity
  8
1
  6
CONTINUOUS
 62
           7
100
AcDbCircle
 10
-633.248825918234
 20
262.000000000001
 40
3.2
  0
CIRCLE
  5
6AB
100
AcDbEntity
  8
1
  6
CONTINUOUS
 62
           3
100
AcDbCircle
 10
-658.870604183144
 20
236.37822173509
 40
4.0
  0
CIRCLE
  5
6AA
100
AcDbEntity
  8
1
  6
CONTINUOUS
 62
           7
100
AcDbCircle
 10
-658.870604183144
 20
236.37822173509
 40
4.5
  0
CIRCLE
  5
6A9
100
AcDbEntity
  8
1
  6
CONTINUOUS
 62
           7
100
AcDbCircle
 10
-658.870604183144
 20
236.37822173509
 40
3.2
  0
CIRCLE
  5
6A8
100
AcDbEntity
  8
1
  6
CONTINUOUS
 62
           3
100
AcDbCircle
 10
-693.870604183144
 20
227.0
 40
4.0
  0
CIRCLE
  5
6A7
100
AcDbEntity
  8
1
  6
CONTINUOUS
 62
           7
100
AcDbCircle
 10
-693.870604183144
 20
227.0
 40
4.5
  0
CIRCLE
  5
6A6
100
AcDbEntity
  8
1
  6
CONTINUOUS
 62
           7
100
AcDbCircle
 10
-693.870604183144
 20
227.0
 40
3.2
  0
CIRCLE
  5
6A5
100
AcDbEntity
  8
1
  6
CONTINUOUS
 62
           3
100
AcDbCircle
 10
-728.870604183144
 20
236.37822173509
 40
3.999999999999
  0
CIRCLE
  5
6A4
100
AcDbEntity
  8
1
  6
CONTINUOUS
 62
           7
100
AcDbCircle
 10
-728.870604183144
 20
236.37822173509
 40
4.5
  0
CIRCLE
  5
6A3
100
AcDbEntity
  8
1
  6
CONTINUOUS
 62
           7
100
AcDbCircle
 10
-728.870604183144
 20
236.37822173509
 40
3.2
  0
CIRCLE
  5
6A2
100
AcDbEntity
  8
1
  6
CONTINUOUS
 62
           3
100
AcDbCircle
 10
-754.492382448055
 20
262.000000000001
 40
4.0
  0
CIRCLE
  5
6A1
100
AcDbEntity
  8
1
  6
CONTINUOUS
 62
           7
100
AcDbCircle
 10
-754.492382448055
 20
262.000000000001
 40
4.5
  0
CIRCLE
  5
6A0
100
AcDbEntity
  8
1
  6
CONTINUOUS
 62
           7
100
AcDbCircle
 10
-754.492382448055
 20
262.000000000001
 40
3.2
  0
CIRCLE
  5
69F
100
AcDbEntity
  8
1
  6
CONTINUOUS
 62
           3
100
AcDbCircle
 10
-763.870604183144
 20
297.000000000001
 40
4.0
  0
CIRCLE
  5
69E
100
AcDbEntity
  8
1
  6
CONTINUOUS
 62
           7
100
AcDbCircle
 10
-763.870604183144
 20
297.000000000001
 40
4.5
  0
CIRCLE
  5
69D
100
AcDbEntity
  8
1
  6
CONTINUOUS
 62
           7
100
AcDbCircle
 10
-763.870604183144
 20
297.000000000001
 40
3.2
  0
CIRCLE
  5
69C
100
AcDbEntity
  8
1
  6
CONTINUOUS
 62
           3
100
AcDbCircle
 10
-754.492382448055
 20
332.0
 40
4.0
  0
CIRCLE
  5
69B
100
AcDbEntity
  8
1
  6
CONTINUOUS
 62
           7
100
AcDbCircle
 10
-754.492382448055
 20
332.0
 40
4.5
  0
CIRCLE
  5
69A
100
AcDbEntity
  8
1
  6
CONTINUOUS
 62
           7
100
AcDbCircle
 10
-754.492382448055
 20
332.0
 40
3.2
  0
CIRCLE
  5
699
100
AcDbEntity
  8
1
  6
CONTINUOUS
 62
           3
100
AcDbCircle
 10
-728.870604183144
 20
357.621778264911
 40
4.0
  0
CIRCLE
  5
698
100
AcDbEntity
  8
1
  6
CONTINUOUS
 62
           7
100
AcDbCircle
 10
-728.870604183144
 20
357.621778264911
 40
4.5
  0
CIRCLE
  5
697
100
AcDbEntity
  8
1
  6
CONTINUOUS
 62
           7
100
AcDbCircle
 10
-728.870604183144
 20
357.621778264911
 40
3.200000000001
  0
CIRCLE
  5
696
100
AcDbEntity
  8
1
  6
CONTINUOUS
 62
           7
100
AcDbCircle
 10
-693.870604183144
 20
297.000000000001
 40
60.0
  0
CIRCLE
  5
695
100
AcDbEntity
  8
1
  6
CONTINUOUS
 62
           7
100
AcDbCircle
 10
-693.870604183144
 20
297.000000000001
 40
80.0
  0
CIRCLE
  5
694
100
AcDbEntity
  8
1
  6
CONTINUOUS
 62
           7
100
AcDbCircle
 10
-693.870604183144
 20
297.000000000001
 40
85.0
  0
CIRCLE
  5
693
100
AcDbEntity
  8
1
  6
CONTINUOUS
 62
           7
100
AcDbCircle
 10
-761.485412023379
 20
278.882666842824
 40
4.75
  0
CIRCLE
  5
692
100
AcDbEntity
  8
1
  6
CONTINUOUS
 62
           7
100
AcDbCircle
 10
-711.98793734032
 20
364.614807840235
 40
4.75
  0
CIRCLE
  5
691
100
AcDbEntity
  8
1
  6
CONTINUOUS
 62
           7
100
AcDbCircle
 10
-626.255796342909
 20
315.117333157177
 40
4.75
  0
CIRCLE
  5
690
100
AcDbEntity
  8
1
  6
CONTINUOUS
 62
           7
100
AcDbCircle
 10
-675.753271025968
 20
229.385192159766
 40
4.75
  0
CIRCLE
  5
68F
100
AcDbEntity
  8
1
  6
CONTINUOUS
 62
           7
100
AcDbCircle
 10
-675.753271025968
 20
229.385192159766
 40
3.730384757729
  0
CIRCLE
  5
68E
100
AcDbEntity
  8
1
  6
CONTINUOUS
 62
           7
100
AcDbCircle
 10
-675.753271025968
 20
229.385192159766
 40
4.25
  0
CIRCLE
  5
68D
100
AcDbEntity
  8
1
  6
CONTINUOUS
 62
           7
100
AcDbCircle
 10
-626.255796342909
 20
315.117333157177
 40
3.730384757729
  0
CIRCLE
  5
68C
100
AcDbEntity
  8
1
  6
CONTINUOUS
 62
           7
100
AcDbCircle
 10
-626.255796342909
 20
315.117333157177
 40
4.25
  0
CIRCLE
  5
68B
100
AcDbEntity
  8
1
  6
CONTINUOUS
 62
           7
100
AcDbCircle
 10
-711.98793734032
 20
364.614807840235
 40
3.730384757729
  0
CIRCLE
  5
68A
100
AcDbEntity
  8
1
  6
CONTINUOUS
 62
           7
100
AcDbCircle
 10
-711.98793734032
 20
364.614807840235
 40
4.25
  0
CIRCLE
  5
689
100
AcDbEntity
  8
1
  6
CONTINUOUS
 62
           7
100
AcDbCircle
 10
-761.485412023379
 20
278.882666842824
 40
4.25
  0
CIRCLE
  5
688
100
AcDbEntity
  8
1
  6
CONTINUOUS
 62
           7
100
AcDbCircle
 10
-761.485412023379
 20
278.882666842824
 40
3.730384757729
  0
CIRCLE
  5
687
100
AcDbEntity
  8
1
  6
CONTINUOUS
 62
           7
100
AcDbCircle
 10
-216.533434016058
 20
281.371663413023
 40
3.3
  0
CIRCLE
  5
686
100
AcDbEntity
  8
1
  6
CONTINUOUS
 62
           7
100
AcDbCircle
 10
-184.192387596206
 20
329.500000000001
 40
2.403589838486
  0
CIRCLE
  5
685
100
AcDbEntity
  8
1
  6
CONTINUOUS
 62
           7
100
AcDbCircle
 10
-184.192387596206
 20
329.500000000001
 40
2.75
  0
CIRCLE
  5
684
100
AcDbEntity
  8
1
  6
CONTINUOUS
 62
           7
100
AcDbCircle
 10
-95.400736350218
 20
353.291651245989
 40
2.403589838486
  0
CIRCLE
  5
683
100
AcDbEntity
  8
1
  6
CONTINUOUS
 62
           7
100
AcDbCircle
 10
-95.400736350218
 20
353.291651245989
 40
2.75
  0
CIRCLE
  5
682
100
AcDbEntity
  8
1
  6
CONTINUOUS
 62
           7
100
AcDbCircle
 10
-71.609085104229
 20
264.5
 40
2.403589838486
  0
CIRCLE
  5
681
100
AcDbEntity
  8
1
  6
CONTINUOUS
 62
           7
100
AcDbCircle
 10
-71.609085104229
 20
264.5
 40
2.75
  0
CIRCLE
  5
680
100
AcDbEntity
  8
1
  6
CONTINUOUS
 62
           7
100
AcDbCircle
 10
-160.400736350218
 20
240.708348754012
 40
2.75
  0
CIRCLE
  5
67F
100
AcDbEntity
  8
1
  6
CONTINUOUS
 62
           7
100
AcDbCircle
 10
-160.400736350218
 20
240.708348754012
 40
2.403589838486
  0
CIRCLE
  5
67E
100
AcDbEntity
  8
1
  6
CONTINUOUS
 62
           7
100
AcDbCircle
 10
-112.272395448983
 20
208.367301133227
 40
2.980384757729
  0
CIRCLE
  5
67D
100
AcDbEntity
  8
1
  6
CONTINUOUS
 62
           7
100
AcDbCircle
 10
-112.272395448983
 20
208.367301133227
 40
3.5
  0
CIRCLE
  5
67C
100
AcDbEntity
  8
1
  6
CONTINUOUS
 62
           7
100
AcDbCircle
 10
-43.328397074998
 20
266.218190806087
 40
3.5
  0
CIRCLE
  5
67B
100
AcDbEntity
  8
1
  6
CONTINUOUS
 62
           7
100
AcDbCircle
 10
-43.328397074998
 20
266.218190806087
 40
2.980384757729
  0
CIRCLE
  5
67A
100
AcDbEntity
  8
1
  6
CONTINUOUS
 62
           7
100
AcDbCircle
 10
-58.956737976233
 20
354.85088967286
 40
3.5
  0
CIRCLE
  5
679
100
AcDbEntity
  8
1
  6
CONTINUOUS
 62
           7
100
AcDbCircle
 10
-58.956737976233
 20
354.85088967286
 40
2.980384757729
  0
CIRCLE
  5
678
100
AcDbEntity
  8
1
  6
CONTINUOUS
 62
           7
100
AcDbCircle
 10
-143.529077251453
 20
385.632698866774
 40
3.5
  0
CIRCLE
  5
677
100
AcDbEntity
  8
1
  6
CONTINUOUS
 62
           7
100
AcDbCircle
 10
-143.529077251453
 20
385.632698866774
 40
2.980384757729
  0
CIRCLE
  5
676
100
AcDbEntity
  8
1
  6
CONTINUOUS
 62
           7
100
AcDbCircle
 10
-212.473075625437
 20
327.781809193915
 40
3.5
  0
CIRCLE
  5
675
100
AcDbEntity
  8
1
  6
CONTINUOUS
 62
           7
100
AcDbCircle
 10
-212.473075625437
 20
327.781809193915
 40
2.980384757729
  0
CIRCLE
  5
674
100
AcDbEntity
  8
1
  6
CONTINUOUS
 62
           7
100
AcDbCircle
 10
-196.844734724202
 20
239.149110327141
 40
3.5
  0
CIRCLE
  5
673
100
AcDbEntity
  8
1
  6
CONTINUOUS
 62
           7
100
AcDbCircle
 10
-196.844734724202
 20
239.149110327141
 40
2.980384757729
  0
ARC
  5
672
100
AcDbEntity
  8
0
  6
CONTINUOUS
 62
           3
100
AcDbCircle
 10
-470.475786637327
 20
439.174878219651
 40
2.6519859027
100
AcDbArc
 50
180.0
 51
0.0
  0
ARC
  5
671
100
AcDbEntity
  8
0
  6
CONTINUOUS
 62
           3
100
AcDbCircle
 10
-476.825786637327
 20
432.82487821965
 40
2.6519859027
100
AcDbArc
 50
0.0
 51
180.0
  0
ARC
  5
670
100
AcDbEntity
  8
0
  6
CONTINUOUS
 62
           3
100
AcDbCircle
 10
-483.175786637326
 20
439.174878219651
 40
2.6519859027
100
AcDbArc
 50
180.0
 51
0.0
  0
ARC
  5
66F
100
AcDbEntity
  8
0
  6
CONTINUOUS
 62
           7
100
AcDbCircle
 10
-463.490786637326
 20
429.395878219651
 40
0.381
100
AcDbArc
 50
-90.0
 51
0.0
  0
ARC
  5
66E
100
AcDbEntity
  8
0
  6
CONTINUOUS
 62
           7
100
AcDbCircle
 10
-463.490786637326
 20
442.60387821965
 40
0.381
100
AcDbArc
 50
0.0
 51
90.0
  0
ARC
  5
66D
100
AcDbEntity
  8
0
  6
CONTINUOUS
 62
           7
100
AcDbCircle
 10
-490.160786637327
 20
429.395878219651
 40
0.381
100
AcDbArc
 50
180.0
 51
-90.0
  0
ARC
  5
66C
100
AcDbEntity
  8
0
  6
CONTINUOUS
 62
           7
100
AcDbCircle
 10
-490.160786637327
 20
442.60387821965
 40
0.381
100
AcDbArc
 50
90.0
 51
180.0
  0
ARC
  5
66B
100
AcDbEntity
  8
0
  6
CONTINUOUS
 62
           3
100
AcDbCircle
 10
-470.475786637327
 20
439.174878219651
 40
2.43205
100
AcDbArc
 50
180.0
 51
0.0
  0
ARC
  5
66A
100
AcDbEntity
  8
0
  6
CONTINUOUS
 62
           3
100
AcDbCircle
 10
-483.175786637326
 20
439.174878219651
 40
2.43205
100
AcDbArc
 50
180.0
 51
0.0
  0
ARC
  5
669
100
AcDbEntity
  8
0
  6
CONTINUOUS
 62
           3
100
AcDbCircle
 10
-476.825786637327
 20
432.82487821965
 40
2.43205
100
AcDbArc
 50
0.0
 51
180.0
  0
ARC
  5
668
100
AcDbEntity
  8
0
  6
CONTINUOUS
 62
           3
100
AcDbCircle
 10
-487.493786637327
 20
433.332878219651
 40
0.508
100
AcDbArc
 50
-90.0
 51
0.0
  0
ARC
  5
667
100
AcDbEntity
  8
0
  6
CONTINUOUS
 62
           3
100
AcDbCircle
 10
-489.017786637327
 20
433.332878219651
 40
0.508
100
AcDbArc
 50
180.0
 51
-90.0
  0
ARC
  5
666
100
AcDbEntity
  8
0
  6
CONTINUOUS
 62
           3
100
AcDbCircle
 10
-489.017786637327
 20
438.666878219651
 40
0.508
100
AcDbArc
 50
90.0
 51
180.0
  0
ARC
  5
665
100
AcDbEntity
  8
0
  6
CONTINUOUS
 62
           3
100
AcDbCircle
 10
-487.493786637327
 20
438.666878219651
 40
0.508
100
AcDbArc
 50
0.0
 51
90.0
  0
ARC
  5
664
100
AcDbEntity
  8
0
  6
CONTINUOUS
 62
           3
100
AcDbCircle
 10
-464.633786637327
 20
433.332878219651
 40
0.508
100
AcDbArc
 50
-90.0
 51
0.0
  0
ARC
  5
663
100
AcDbEntity
  8
0
  6
CONTINUOUS
 62
           3
100
AcDbCircle
 10
-466.157786637327
 20
433.332878219651
 40
0.508
100
AcDbArc
 50
180.0
 51
-90.0
  0
ARC
  5
662
100
AcDbEntity
  8
0
  6
CONTINUOUS
 62
           3
100
AcDbCircle
 10
-464.633786637327
 20
438.666878219651
 40
0.508
100
AcDbArc
 50
0.0
 51
90.0
  0
ARC
  5
661
100
AcDbEntity
  8
0
  6
CONTINUOUS
 62
           3
100
AcDbCircle
 10
-466.157786637327
 20
438.666878219651
 40
0.508
100
AcDbArc
 50
90.0
 51
180.0
  0
ARC
  5
660
100
AcDbEntity
  8
0
  6
CONTINUOUS
 62
           7
100
AcDbCircle
 10
-483.175786637326
 20
432.82487821965
 40
3.81
100
AcDbArc
 50
180.0
 51
-90.0
  0
ARC
  5
65F
100
AcDbEntity
  8
0
  6
CONTINUOUS
 62
           7
100
AcDbCircle
 10
-470.475786637327
 20
432.82487821965
 40
3.81
100
AcDbArc
 50
-90.0
 51
0.000000000008
  0
ARC
  5
65E
100
AcDbEntity
  8
0
  6
CONTINUOUS
 62
           7
100
AcDbCircle
 10
-470.475786637327
 20
439.174878219651
 40
3.81
100
AcDbArc
 50
0.0
 51
90.0
  0
ARC
  5
65D
100
AcDbEntity
  8
0
  6
CONTINUOUS
 62
           7
100
AcDbCircle
 10
-483.175786637326
 20
439.174878219651
 40
3.809999999999
100
AcDbArc
 50
90.0
 51
98.79223932591
  0
ARC
  5
65C
100
AcDbEntity
  8
0
  6
CONTINUOUS
 62
           7
100
AcDbCircle
 10
-484.568306562427
 20
444.000878219651
 40
0.508000000041
100
AcDbArc
 50
14.999999997344
 51
-164.999999999712
  0
ARC
  5
65B
100
AcDbEntity
  8
0
  6
CONTINUOUS
 62
           7
100
AcDbCircle
 10
-483.175786637326
 20
439.174878219651
 40
3.81
100
AcDbArc
 50
114.121763711303
 51
180.0
  0
ARC
  5
65A
100
AcDbEntity
  8
1
  6
CONTINUOUS
 62
           7
100
AcDbCircle
 10
-196.844736230926
 20
354.85088487179
 40
3.0
100
AcDbArc
 50
-40.0
 51
50.0
  0
ARC
  5
659
100
AcDbEntity
  8
1
  6
CONTINUOUS
 62
           7
100
AcDbCircle
 10
-196.844736230926
 20
354.85088487179
 40
3.0
100
AcDbArc
 50
-130.0
 51
-40.0
  0
ARC
  5
658
100
AcDbEntity
  8
1
  6
CONTINUOUS
 62
           7
100
AcDbCircle
 10
-196.844736230926
 20
354.85088487179
 40
3.0
100
AcDbArc
 50
50.0
 51
140.000000000001
  0
ARC
  5
657
100
AcDbEntity
  8
1
  6
DASH_CENTER
 62
           3
100
AcDbCircle
 10
-127.900736350218
 20
297.000000000001
 40
90.0
100
AcDbArc
 50
90.000000385895
 51
140.0
  0
ARC
  5
656
100
AcDbEntity
  8
1
  6
CONTINUOUS
 62
           7
100
AcDbCircle
 10
-196.844736230926
 20
354.85088487179
 40
3.0
100
AcDbArc
 50
140.000000000001
 51
-130.0
  0
ARC
  5
655
100
AcDbEntity
  8
1
  6
CONTINUOUS
 62
           7
100
AcDbCircle
 10
-626.255796342909
 20
278.882666842824
 40
4.0
100
AcDbArc
 50
165.000000000002
 51
-105.000000000002
  0
ARC
  5
654
100
AcDbEntity
  8
1
  6
CONTINUOUS
 62
           7
100
AcDbCircle
 10
-626.255796342909
 20
278.882666842824
 40
4.0
100
AcDbArc
 50
75.000000000001
 51
165.000000000002
  0
ARC
  5
653
100
AcDbEntity
  8
1
  6
CONTINUOUS
 62
           7
100
AcDbCircle
 10
-626.255796342909
 20
278.882666842824
 40
4.0
100
AcDbArc
 50
-105.000000000002
 51
-15.000000000004
  0
ARC
  5
652
100
AcDbEntity
  8
1
  6
CONTINUOUS
 62
           7
100
AcDbCircle
 10
-626.255796342909
 20
278.882666842824
 40
4.0
100
AcDbArc
 50
-15.000000000004
 51
75.000000000001
  0
ARC
  5
651
100
AcDbEntity
  8
1
  6
CONTINUOUS
 62
           7
100
AcDbCircle
 10
-127.900736350218
 20
297.000000000001
 40
82.0
100
AcDbArc
 50
90.0
 51
90.0
  0
ARC
  5
650
100
AcDbEntity
  8
1
  6
CONTINUOUS
 62
           7
100
AcDbCircle
 10
-95.400736350218
 20
353.291651245989
 40
5.5
100
AcDbArc
 50
147.575224055045
 51
-32.424775944939
  0
ARC
  5
64F
100
AcDbEntity
  8
1
  6
CONTINUOUS
 62
           7
100
AcDbCircle
 10
-71.609085104229
 20
264.5
 40
5.5
100
AcDbArc
 50
57.575224055047
 51
-122.424775944941
  0
ARC
  5
64E
100
AcDbEntity
  8
1
  6
CONTINUOUS
 62
           7
100
AcDbCircle
 10
-160.400736350218
 20
240.708348754012
 40
5.5
100
AcDbArc
 50
-32.424775944954
 51
147.57522405506
  0
ARC
  5
64D
100
AcDbEntity
  8
1
  6
CONTINUOUS
 62
           7
100
AcDbCircle
 10
-99.461229136566
 20
360.248822352418
 40
1.5
100
AcDbArc
 50
-30.0
 51
65.789178859633
  0
ARC
  5
64C
100
AcDbEntity
  8
1
  6
CONTINUOUS
 62
           7
100
AcDbCircle
 10
-64.6519139978
 20
268.560492786349
 40
1.5
100
AcDbArc
 50
-119.999999999998
 51
-24.210821140376
  0
ARC
  5
64B
100
AcDbEntity
  8
1
  6
CONTINUOUS
 62
           7
100
AcDbCircle
 10
-156.34024356387
 20
233.751177647583
 40
1.5
100
AcDbArc
 50
149.999999999997
 51
-114.21082114037
  0
ARC
  5
64A
100
AcDbEntity
  8
1
  6
CONTINUOUS
 62
           7
100
AcDbCircle
 10
-87.345403040401
 20
353.253746894343
 40
1.5
100
AcDbArc
 50
54.210821140369
 51
149.999999999998
  0
ARC
  5
649
100
AcDbEntity
  8
1
  6
CONTINUOUS
 62
           7
100
AcDbCircle
 10
-71.646989455875
 20
256.444666690184
 40
1.5
100
AcDbArc
 50
-35.789178859629
 51
60.000000000003
  0
ARC
  5
648
100
AcDbEntity
  8
1
  6
CONTINUOUS
 62
           7
100
AcDbCircle
 10
-168.456069660035
 20
240.746253105658
 40
1.5
100
AcDbArc
 50
-125.789178859635
 51
-29.999999999999
  0
ARC
  5
647
100
AcDbEntity
  8
1
  6
CONTINUOUS
 62
           7
100
AcDbCircle
 10
-191.149558702635
 20
325.439507213653
 40
1.5
100
AcDbArc
 50
60.0
 51
155.789178859632
  0
ARC
  5
646
100
AcDbEntity
  8
1
  6
CONTINUOUS
 62
           7
100
AcDbCircle
 10
-184.192387596206
 20
329.500000000001
 40
5.5
100
AcDbArc
 50
-122.424775944953
 51
57.575224055062
  0
ARC
  5
645
100
AcDbEntity
  8
1
  6
CONTINUOUS
 62
           7
100
AcDbCircle
 10
-184.15448324456
 20
337.555333309818
 40
1.5
100
AcDbArc
 50
144.210821140369
 51
-119.999999999997
  0
ARC
  5
644
100
AcDbEntity
  8
1
  6
CONTINUOUS
 62
           7
100
AcDbCircle
 10
-184.192387596206
 20
329.500000000001
 40
5.0
100
AcDbArc
 50
57.795772496029
 51
57.795772496029
  0
ARC
  5
643
100
AcDbEntity
  8
1
  6
CONTINUOUS
 62
           7
100
AcDbCircle
 10
-95.400736350218
 20
353.291651245989
 40
5.0
100
AcDbArc
 50
-32.204227503972
 51
-32.204227503972
  0
ARC
  5
642
100
AcDbEntity
  8
1
  6
CONTINUOUS
 62
           7
100
AcDbCircle
 10
-71.609085104229
 20
264.5
 40
5.0
100
AcDbArc
 50
-122.204227503972
 51
-122.204227503972
  0
ARC
  5
641
100
AcDbEntity
  8
1
  6
CONTINUOUS
 62
           7
100
AcDbCircle
 10
-160.400736350218
 20
240.708348754012
 40
5.0
100
AcDbArc
 50
147.79577249603
 51
147.79577249603
  0
ARC
  5
640
100
AcDbEntity
  8
1
  6
CONTINUOUS
 62
           7
100
AcDbCircle
 10
-113.406869824477
 20
351.091846272189
 40
6.5
100
AcDbArc
 50
37.61986494804
 51
52.380135051961
  0
ARC
  5
63F
100
AcDbEntity
  8
1
  6
CONTINUOUS
 62
           7
100
AcDbCircle
 10
-113.406869824477
 20
351.091846272189
 40
6.5
100
AcDbArc
 50
-22.380135051962
 51
-7.619864948039
  0
ARC
  5
63E
100
AcDbEntity
  8
1
  6
CONTINUOUS
 62
           7
100
AcDbCircle
 10
-113.406869824477
 20
351.091846272189
 40
6.5
100
AcDbArc
 50
-82.38013505196
 51
-67.619864948038
  0
ARC
  5
63D
100
AcDbEntity
  8
1
  6
CONTINUOUS
 62
           7
100
AcDbCircle
 10
-113.406869824477
 20
351.091846272189
 40
6.5
100
AcDbArc
 50
-142.38013505196
 51
-127.619864948038
  0
ARC
  5
63C
100
AcDbEntity
  8
1
  6
CONTINUOUS
 62
           7
100
AcDbCircle
 10
-113.406869824477
 20
351.091846272189
 40
6.5
100
AcDbArc
 50
157.61986494804
 51
172.380135051961
  0
ARC
  5
63B
100
AcDbEntity
  8
1
  6
CONTINUOUS
 62
           7
100
AcDbCircle
 10
-113.406869824477
 20
351.091846272189
 40
6.5
100
AcDbArc
 50
97.619864948042
 51
112.380135051961
  0
ARC
  5
63A
100
AcDbEntity
  8
1
  6
DASH_CENTER
 62
           3
100
AcDbCircle
 10
-127.900736350218
 20
297.000000000001
 40
65.0
100
AcDbArc
 50
142.0
 51
67.0
  0
ARC
  5
639
100
AcDbEntity
  8
1
  6
CONTINUOUS
 62
           7
100
AcDbCircle
 10
-142.394602875958
 20
351.091846272189
 40
6.5
100
AcDbArc
 50
67.619864948039
 51
82.380135051958
  0
ARC
  5
638
100
AcDbEntity
  8
1
  6
CONTINUOUS
 62
           7
100
AcDbCircle
 10
-142.394602875958
 20
351.091846272189
 40
6.5
100
AcDbArc
 50
7.619864948038
 51
22.380135051959
  0
ARC
  5
637
100
AcDbEntity
  8
1
  6
CONTINUOUS
 62
           7
100
AcDbCircle
 10
-142.394602875958
 20
351.091846272189
 40
6.5
100
AcDbArc
 50
-52.380135051962
 51
-37.61986494804
  0
ARC
  5
636
100
AcDbEntity
  8
1
  6
CONTINUOUS
 62
           7
100
AcDbCircle
 10
-142.394602875958
 20
351.091846272189
 40
6.5
100
AcDbArc
 50
-112.380135051962
 51
-97.619864948039
  0
ARC
  5
635
100
AcDbEntity
  8
1
  6
CONTINUOUS
 62
           7
100
AcDbCircle
 10
-142.394602875958
 20
351.091846272189
 40
6.5
100
AcDbArc
 50
-172.38013505196
 51
-157.619864948037
  0
ARC
  5
634
100
AcDbEntity
  8
1
  6
CONTINUOUS
 62
           7
100
AcDbCircle
 10
-142.394602875958
 20
351.091846272189
 40
6.5
100
AcDbArc
 50
127.619864948039
 51
142.380135051959
  0
ARC
  5
633
100
AcDbEntity
  8
1
  6
CONTINUOUS
 62
           7
100
AcDbCircle
 10
-127.900736350218
 20
297.000000000001
 40
71.348533506651
100
AcDbArc
 50
90.0
 51
90.0
  0
ARC
  5
632
100
AcDbEntity
  8
1
  6
CONTINUOUS
 62
           7
100
AcDbCircle
 10
-127.900736350218
 20
297.000000000001
 40
70.848533506651
100
AcDbArc
 50
90.0
 51
90.0
  0
ARC
  5
631
100
AcDbEntity
  8
1
  6
CONTINUOUS
 62
           7
100
AcDbCircle
 10
-127.900736350218
 20
297.000000000001
 40
24.0
100
AcDbArc
 50
90.0
 51
90.0
  0
ARC
  5
630
100
AcDbEntity
  8
1
  6
DASH_CENTER
 62
           3
100
AcDbCircle
 10
-127.900736350218
 20
297.000000000001
 40
90.0
100
AcDbArc
 50
140.0
 51
90.000000385895
  0
ARC
  5
62F
100
AcDbEntity
  8
1
  6
CONTINUOUS
 62
           7
100
AcDbCircle
 10
-127.900736350218
 20
297.000000000001
 40
97.5
100
AcDbArc
 50
90.0
 51
90.0
  0
ARC
  5
62E
100
AcDbEntity
  8
1
  6
CONTINUOUS
 62
           7
100
AcDbCircle
 10
-127.900736350218
 20
297.000000000001
 40
97.1
100
AcDbArc
 50
90.000000382324
 51
90.0
  0
ARC
  5
62D
100
AcDbEntity
  8
1
  6
CONTINUOUS
 62
           7
100
AcDbCircle
 10
-693.870604183144
 20
297.000000000001
 40
30.0
100
AcDbArc
 50
90.0
 51
90.0
  0
ARC
  5
62C
100
AcDbEntity
  8
1
  6
CONTINUOUS
 62
           7
100
AcDbCircle
 10
-693.870604183144
 20
297.000000000001
 40
24.0
100
AcDbArc
 50
90.0
 51
90.0
  0
ARC
  5
62B
100
AcDbEntity
  8
1
  6
CONTINUOUS
 62
           7
100
AcDbCircle
 10
-693.870604183144
 20
297.000000000001
 40
22.5
100
AcDbArc
 50
90.0
 51
90.0
  0
ARC
  5
62A
100
AcDbEntity
  8
1
  6
CONTINUOUS
 62
           3
100
AcDbCircle
 10
-326.513119970669
 20
482.999999999994
 40
3.333333333353
100
AcDbArc
 50
143.130102353435
 51
-143.130102354143
  0
ARC
  5
629
100
AcDbEntity
  8
1
  6
CONTINUOUS
 62
           3
100
AcDbCircle
 10
-326.513119970669
 20
479.000000000007
 40
3.333333333322
100
AcDbArc
 50
143.130102354154
 51
-143.13010235342
  0
ARC
  5
628
100
AcDbEntity
  8
1
  6
CONTINUOUS
 62
           3
100
AcDbCircle
 10
-331.846453304043
 20
479.000000000007
 40
3.333333333354
100
AcDbArc
 50
-36.869897646576
 51
36.869897645842
  0
ARC
  5
627
100
AcDbEntity
  8
1
  6
CONTINUOUS
 62
           3
100
AcDbCircle
 10
-329.51311997061
 20
482.999999999994
 40
3.333333333353
100
AcDbArc
 50
143.130102353441
 51
-143.13010235415
  0
ARC
  5
626
100
AcDbEntity
  8
1
  6
CONTINUOUS
 62
           3
100
AcDbCircle
 10
-334.846453303984
 20
479.000000000007
 40
3.333333333353
100
AcDbArc
 50
-36.869897646582
 51
36.869897645848
  0
ARC
  5
625
100
AcDbEntity
  8
1
  6
CONTINUOUS
 62
           3
100
AcDbCircle
 10
-334.846453303984
 20
482.999999999994
 40
3.333333333322
100
AcDbArc
 50
-36.869897645854
 51
36.869897646562
  0
ARC
  5
624
100
AcDbEntity
  8
1
  6
CONTINUOUS
 62
           3
100
AcDbCircle
 10
-334.846453303984
 20
437.999999999994
 40
3.333333333322
100
AcDbArc
 50
-36.869897645848
 51
36.86989764656
  0
ARC
  5
623
100
AcDbEntity
  8
1
  6
CONTINUOUS
 62
           3
100
AcDbCircle
 10
-334.846453303984
 20
434.000000000007
 40
3.333333333353
100
AcDbArc
 50
-36.869897646574
 51
36.869897645854
  0
ARC
  5
622
100
AcDbEntity
  8
1
  6
CONTINUOUS
 62
           3
100
AcDbCircle
 10
-329.51311997061
 20
437.999999999994
 40
3.333333333353
100
AcDbArc
 50
143.130102353443
 51
-143.130102354155
  0
ARC
  5
621
100
AcDbEntity
  8
1
  6
CONTINUOUS
 62
           3
100
AcDbCircle
 10
-331.846453304043
 20
434.000000000007
 40
3.333333333354
100
AcDbArc
 50
-36.869897646568
 51
36.869897645848
  0
ARC
  5
620
100
AcDbEntity
  8
1
  6
CONTINUOUS
 62
           3
100
AcDbCircle
 10
-326.513119970669
 20
434.000000000007
 40
3.333333333322
100
AcDbArc
 50
143.130102354145
 51
-143.130102353431
  0
ARC
  5
61F
100
AcDbEntity
  8
1
  6
CONTINUOUS
 62
           3
100
AcDbCircle
 10
-326.513119970669
 20
437.999999999994
 40
3.333333333353
100
AcDbArc
 50
143.130102353437
 51
-143.130102354149
  0
ARC
  5
61E
100
AcDbEntity
  8
1
  6
DASH_CENTER
 62
           3
100
AcDbCircle
 10
-127.900736350218
 20
297.000000000001
 40
56.0
100
AcDbArc
 50
58.891955483898
 51
121.108044516102
  0
ARC
  5
61D
100
AcDbEntity
  8
1
  6
CONTINUOUS
 62
           7
100
AcDbCircle
 10
-329.942195363805
 20
353.000000000001
 40
5.826057460894
100
AcDbArc
 50
-25.410879263471
 51
25.41087926347
  0
ARC
  5
61C
100
AcDbEntity
  8
1
  6
CONTINUOUS
 62
           7
100
AcDbCircle
 10
-325.905993673915
 20
358.150000000001
 40
1.823755378606
100
AcDbArc
 50
-47.751084436836
 51
47.75108443683
  0
ARC
  5
61B
100
AcDbEntity
  8
1
  6
CONTINUOUS
 62
           7
100
AcDbCircle
 10
-325.905993673915
 20
347.85
 40
1.823755378606
100
AcDbArc
 50
-47.751084436829
 51
47.751084436837
  0
ARC
  5
61A
100
AcDbEntity
  8
1
  6
CONTINUOUS
 62
           7
100
AcDbCircle
 10
-339.664635128529
 20
329.500000000001
 40
2.859805438166
100
AcDbArc
 50
31.635343725213
 51
74.071282878764
  0
ARC
  5
619
100
AcDbEntity
  8
1
  6
PHANTOM
 62
           7
100
AcDbCircle
 10
-612.626067998047
 20
87.759403354972
 40
6.0
100
AcDbArc
 50
-90.0
 51
0.0
  0
ARC
  5
618
100
AcDbEntity
  8
1
  6
PHANTOM
 62
           7
100
AcDbCircle
 10
-612.626067998047
 20
131.759403354972
 40
6.0
100
AcDbArc
 50
0.0
 51
90.0
  0
ARC
  5
617
100
AcDbEntity
  8
1
  6
PHANTOM
 62
           7
100
AcDbCircle
 10
-768.626067998047
 20
131.759403354972
 40
6.0
100
AcDbArc
 50
90.0
 51
180.0
  0
ARC
  5
616
100
AcDbEntity
  8
1
  6
PHANTOM
 62
           7
100
AcDbCircle
 10
-768.626067998047
 20
87.759403354972
 40
6.0
100
AcDbArc
 50
180.0
 51
-90.0
  0
LINE
  5
615
100
AcDbEntity
  8
0
  6
CONTINUOUS
 62
           7
100
AcDbLine
 10
-466.665786637327
 20
432.497243801651
 11
-466.665786637327
 21
439.502512637651
  0
LINE
  5
614
100
AcDbEntity
  8
0
  6
CONTINUOUS
 62
           3
100
AcDbLine
 10
-466.665786637327
 20
439.502512637651
 11
-466.665786637327
 21
441.499585584351
  0
LINE
  5
613
100
AcDbEntity
  8
0
  6
CONTINUOUS
 62
           3
100
AcDbLine
 10
-486.985786637327
 20
432.82487821965
 11
-486.985786637327
 21
430.500170854951
  0
LINE
  5
612
100
AcDbEntity
  8
0
  6
CONTINUOUS
 62
           7
100
AcDbLine
 10
-486.985786637327
 20
439.174878219651
 11
-486.985786637327
 21
432.82487821965
  0
LINE
  5
611
100
AcDbEntity
  8
0
  6
CONTINUOUS
 62
           7
100
AcDbLine
 10
-463.109786637327
 20
442.60387821965
 11
-463.109786637327
 21
429.395878219651
  0
LINE
  5
610
100
AcDbEntity
  8
0
  6
CONTINUOUS
 62
           3
100
AcDbLine
 10
-464.125786637327
 20
442.19744484895
 11
-464.125786637327
 21
429.80231159035
  0
LINE
  5
60F
100
AcDbEntity
  8
0
  6
CONTINUOUS
 62
           7
100
AcDbLine
 10
-482.223286637327
 20
447.76437117735
 11
-471.428286637326
 21
447.76437117735
  0
LINE
  5
60E
100
AcDbEntity
  8
0
  6
CONTINUOUS
 62
           3
100
AcDbLine
 10
-464.633786637327
 20
439.174878219651
 11
-464.633786637327
 21
442.98487821965
  0
LINE
  5
60D
100
AcDbEntity
  8
0
  6
CONTINUOUS
 62
           3
100
AcDbLine
 10
-464.633786637327
 20
429.01487821965
 11
-464.633786637327
 21
432.82487821965
  0
LINE
  5
60C
100
AcDbEntity
  8
0
  6
CONTINUOUS
 62
           3
100
AcDbLine
 10
-482.223286637327
 20
447.00237117735
 11
-471.428286637326
 21
447.00237117735
  0
LINE
  5
60B
100
AcDbEntity
  8
0
  6
CONTINUOUS
 62
           3
100
AcDbLine
 10
-482.223286637327
 20
446.54087821965
 11
-471.428286637326
 21
446.54087821965
  0
LINE
  5
60A
100
AcDbEntity
  8
0
  6
CONTINUOUS
 62
           3
100
AcDbLine
 10
-466.157786637327
 20
432.82487821965
 11
-466.157786637327
 21
429.01487821965
  0
LINE
  5
609
100
AcDbEntity
  8
0
  6
CONTINUOUS
 62
           3
100
AcDbLine
 10
-466.157786637327
 20
442.98487821965
 11
-466.157786637327
 21
439.174878219651
  0
LINE
  5
608
100
AcDbEntity
  8
0
  6
CONTINUOUS
 62
           3
100
AcDbLine
 10
-466.665786637327
 20
430.500170854951
 11
-466.665786637327
 21
432.497243801651
  0
LINE
  5
607
100
AcDbEntity
  8
0
  6
CONTINUOUS
 62
           3
100
AcDbLine
 10
-482.223286637327
 20
444.88987821965
 11
-471.428286637326
 21
444.88987821965
  0
LINE
  5
606
100
AcDbEntity
  8
0
  6
CONTINUOUS
 62
           3
100
AcDbLine
 10
-467.823766184727
 20
439.174878219651
 11
-467.823766184727
 21
441.826898672251
  0
LINE
  5
605
100
AcDbEntity
  8
0
  6
CONTINUOUS
 62
           3
100
AcDbLine
 10
-468.043736637327
 20
439.174878219651
 11
-468.043736637327
 21
441.606928219651
  0
LINE
  5
604
100
AcDbEntity
  8
0
  6
CONTINUOUS
 62
           3
100
AcDbLine
 10
-482.223286637327
 20
444.25487821965
 11
-471.428286637326
 21
444.25487821965
  0
LINE
  5
603
100
AcDbEntity
  8
0
  6
CONTINUOUS
 62
           3
100
AcDbLine
 10
-472.907836637327
 20
441.606928219651
 11
-473.127807089926
 21
441.826898672251
  0
LINE
  5
602
100
AcDbEntity
  8
0
  6
CONTINUOUS
 62
           7
100
AcDbLine
 10
-483.758151504427
 20
442.98487821965
 11
-463.490786637326
 21
442.98487821965
  0
LINE
  5
601
100
AcDbEntity
  8
0
  6
CONTINUOUS
 62
           7
100
AcDbLine
 10
-490.160786637327
 20
442.98487821965
 11
-484.821990482526
 21
442.98487821965
  0
LINE
  5
600
100
AcDbEntity
  8
0
  6
CONTINUOUS
 62
           3
100
AcDbLine
 10
-480.523766184727
 20
441.826898672251
 11
-485.827807089927
 21
441.826898672251
  0
LINE
  5
5FF
100
AcDbEntity
  8
0
  6
CONTINUOUS
 62
           3
100
AcDbLine
 10
-467.823766184727
 20
441.826898672251
 11
-473.127807089926
 21
441.826898672251
  0
LINE
  5
5FE
100
AcDbEntity
  8
0
  6
CONTINUOUS
 62
           3
100
AcDbLine
 10
-480.743736637327
 20
441.606928219651
 11
-485.607836637326
 21
441.606928219651
  0
LINE
  5
5FD
100
AcDbEntity
  8
0
  6
CONTINUOUS
 62
           3
100
AcDbLine
 10
-468.043736637327
 20
441.606928219651
 11
-472.907836637327
 21
441.606928219651
  0
LINE
  5
5FC
100
AcDbEntity
  8
0
  6
CONTINUOUS
 62
           7
100
AcDbLine
 10
-471.428286637326
 20
429.01487821965
 11
-471.428286637326
 21
424.235385261951
  0
LINE
  5
5FB
100
AcDbEntity
  8
0
  6
CONTINUOUS
 62
           7
100
AcDbLine
 10
-471.428286637326
 20
447.76437117735
 11
-471.428286637326
 21
442.98487821965
  0
LINE
  5
5FA
100
AcDbEntity
  8
0
  6
CONTINUOUS
 62
           3
100
AcDbLine
 10
-472.907836637327
 20
441.606928219651
 11
-472.907836637327
 21
439.174878219651
  0
LINE
  5
5F9
100
AcDbEntity
  8
0
  6
CONTINUOUS
 62
           3
100
AcDbLine
 10
-466.157786637327
 20
439.676258870451
 11
-464.633786637327
 21
439.676258870451
  0
LINE
  5
5F8
100
AcDbEntity
  8
0
  6
CONTINUOUS
 62
           3
100
AcDbLine
 10
-489.017786637327
 20
439.676258870451
 11
-487.493786637327
 21
439.676258870451
  0
LINE
  5
5F7
100
AcDbEntity
  8
0
  6
CONTINUOUS
 62
           3
100
AcDbLine
 10
-467.823766184727
 20
439.174878219651
 11
-468.043736640326
 21
439.174878365251
  0
LINE
  5
5F6
100
AcDbEntity
  8
0
  6
CONTINUOUS
 62
           3
100
AcDbLine
 10
-473.127807089926
 20
439.174878219651
 11
-472.907836637327
 21
439.174878219651
  0
LINE
  5
5F5
100
AcDbEntity
  8
0
  6
CONTINUOUS
 62
           3
100
AcDbLine
 10
-485.827807089927
 20
439.174878219651
 11
-485.607836637326
 21
439.174878219651
  0
LINE
  5
5F4
100
AcDbEntity
  8
0
  6
CONTINUOUS
 62
           3
100
AcDbLine
 10
-489.017786637327
 20
439.174878219651
 11
-487.493786637327
 21
439.174878219651
  0
LINE
  5
5F3
100
AcDbEntity
  8
0
  6
CONTINUOUS
 62
           3
100
AcDbLine
 10
-464.633786637327
 20
439.174878219651
 11
-466.157786637327
 21
439.174878219651
  0
LINE
  5
5F2
100
AcDbEntity
  8
0
  6
CONTINUOUS
 62
           3
100
AcDbLine
 10
-480.523766184727
 20
439.174878219651
 11
-480.743736640327
 21
439.174878365251
  0
LINE
  5
5F1
100
AcDbEntity
  8
0
  6
CONTINUOUS
 62
           3
100
AcDbLine
 10
-473.127807089926
 20
441.826898672251
 11
-473.127807089926
 21
439.174878219651
  0
LINE
  5
5F0
100
AcDbEntity
  8
0
  6
CONTINUOUS
 62
           3
100
AcDbLine
 10
-474.173766184727
 20
430.172857767051
 11
-474.173766184727
 21
432.82487821965
  0
LINE
  5
5EF
100
AcDbEntity
  8
0
  6
CONTINUOUS
 62
           3
100
AcDbLine
 10
-468.043736637327
 20
441.606928219651
 11
-467.823766184727
 21
441.826898672251
  0
LINE
  5
5EE
100
AcDbEntity
  8
0
  6
CONTINUOUS
 62
           3
100
AcDbLine
 10
-479.257836637327
 20
430.392828219651
 11
-479.477807089926
 21
430.172857767051
  0
LINE
  5
5ED
100
AcDbEntity
  8
0
  6
CONTINUOUS
 62
           3
100
AcDbLine
 10
-474.393736637327
 20
430.392828219651
 11
-474.393736637327
 21
432.82487821965
  0
LINE
  5
5EC
100
AcDbEntity
  8
0
  6
CONTINUOUS
 62
           3
100
AcDbLine
 10
-474.603286637326
 20
429.01487821965
 11
-474.603286637326
 21
427.744878219651
  0
LINE
  5
5EB
100
AcDbEntity
  8
0
  6
CONTINUOUS
 62
           3
100
AcDbLine
 10
-474.603286637326
 20
444.25487821965
 11
-474.603286637326
 21
442.98487821965
  0
LINE
  5
5EA
100
AcDbEntity
  8
0
  6
CONTINUOUS
 62
           3
100
AcDbLine
 10
-474.393736637327
 20
430.392828219651
 11
-474.173766184727
 21
430.172857767051
  0
LINE
  5
5E9
100
AcDbEntity
  8
0
  6
CONTINUOUS
 62
           3
100
AcDbLine
 10
-485.827807089927
 20
441.826898672251
 11
-485.607836637326
 21
441.606928219651
  0
LINE
  5
5E8
100
AcDbEntity
  8
0
  6
CONTINUOUS
 62
           3
100
AcDbLine
 10
-479.048286637327
 20
429.01487821965
 11
-479.048286637327
 21
427.744878219651
  0
LINE
  5
5E7
100
AcDbEntity
  8
0
  6
CONTINUOUS
 62
           3
100
AcDbLine
 10
-479.048286637327
 20
444.25487821965
 11
-479.048286637327
 21
442.98487821965
  0
LINE
  5
5E6
100
AcDbEntity
  8
0
  6
CONTINUOUS
 62
           3
100
AcDbLine
 10
-466.157786637327
 20
432.82487821965
 11
-464.633786637327
 21
432.82487821965
  0
LINE
  5
5E5
100
AcDbEntity
  8
0
  6
CONTINUOUS
 62
           3
100
AcDbLine
 10
-489.017786637327
 20
432.82487821965
 11
-487.493786637327
 21
432.82487821965
  0
LINE
  5
5E4
100
AcDbEntity
  8
0
  6
CONTINUOUS
 62
           3
100
AcDbLine
 10
-474.173766184727
 20
432.82487821965
 11
-474.393736637327
 21
432.82487821965
  0
LINE
  5
5E3
100
AcDbEntity
  8
0
  6
CONTINUOUS
 62
           3
100
AcDbLine
 10
-479.477807089926
 20
432.82487821965
 11
-479.257836634327
 21
432.824878074051
  0
LINE
  5
5E2
100
AcDbEntity
  8
0
  6
CONTINUOUS
 62
           3
100
AcDbLine
 10
-479.257836637327
 20
432.82487821965
 11
-479.257836637327
 21
430.392828219651
  0
LINE
  5
5E1
100
AcDbEntity
  8
0
  6
CONTINUOUS
 62
           3
100
AcDbLine
 10
-479.477807089926
 20
432.82487821965
 11
-479.477807089926
 21
430.172857767051
  0
LINE
  5
5E0
100
AcDbEntity
  8
0
  6
CONTINUOUS
 62
           3
100
AcDbLine
 10
-466.157786637327
 20
432.323497568851
 11
-464.633786637327
 21
432.323497568851
  0
LINE
  5
5DF
100
AcDbEntity
  8
0
  6
CONTINUOUS
 62
           3
100
AcDbLine
 10
-489.017786637327
 20
432.323497568851
 11
-487.493786637327
 21
432.323497568851
  0
LINE
  5
5DE
100
AcDbEntity
  8
0
  6
CONTINUOUS
 62
           3
100
AcDbLine
 10
-480.523766184727
 20
439.174878219651
 11
-480.523766184727
 21
441.826898672251
  0
LINE
  5
5DD
100
AcDbEntity
  8
0
  6
CONTINUOUS
 62
           3
100
AcDbLine
 10
-480.743736637327
 20
439.174878219651
 11
-480.743736637327
 21
441.606928219651
  0
LINE
  5
5DC
100
AcDbEntity
  8
0
  6
CONTINUOUS
 62
           7
100
AcDbLine
 10
-483.758151504427
 20
442.94009966035
 11
-484.077616242626
 21
444.132358294551
  0
LINE
  5
5DB
100
AcDbEntity
  8
0
  6
CONTINUOUS
 62
           3
100
AcDbLine
 10
-479.257836637327
 20
430.392828219651
 11
-474.393736637327
 21
430.392828219651
  0
LINE
  5
5DA
100
AcDbEntity
  8
0
  6
CONTINUOUS
 62
           3
100
AcDbLine
 10
-479.477807089926
 20
430.172857767051
 11
-474.173766184727
 21
430.172857767051
  0
LINE
  5
5D9
100
AcDbEntity
  8
0
  6
CONTINUOUS
 62
           7
100
AcDbLine
 10
-482.223286637327
 20
429.01487821965
 11
-482.223286637327
 21
424.235385261951
  0
LINE
  5
5D8
100
AcDbEntity
  8
0
  6
CONTINUOUS
 62
           7
100
AcDbLine
 10
-482.223286637327
 20
447.76437117735
 11
-482.223286637327
 21
442.98487821965
  0
LINE
  5
5D7
100
AcDbEntity
  8
0
  6
CONTINUOUS
 62
           7
100
AcDbLine
 10
-485.058996882126
 20
443.869398144751
 11
-484.732844197627
 21
442.65217975495
  0
LINE
  5
5D6
100
AcDbEntity
  8
0
  6
CONTINUOUS
 62
           7
100
AcDbLine
 10
-490.160786637327
 20
429.01487821965
 11
-463.490786637326
 21
429.01487821965
  0
LINE
  5
5D5
100
AcDbEntity
  8
0
  6
CONTINUOUS
 62
           3
100
AcDbLine
 10
-480.743736637327
 20
441.606928219651
 11
-480.523766184727
 21
441.826898672251
  0
LINE
  5
5D4
100
AcDbEntity
  8
0
  6
CONTINUOUS
 62
           3
100
AcDbLine
 10
-482.223286637327
 20
427.744878219651
 11
-471.428286637326
 21
427.744878219651
  0
LINE
  5
5D3
100
AcDbEntity
  8
0
  6
CONTINUOUS
 62
           3
100
AcDbLine
 10
-482.223286637327
 20
427.10987821965
 11
-471.428286637326
 21
427.10987821965
  0
LINE
  5
5D2
100
AcDbEntity
  8
0
  6
CONTINUOUS
 62
           3
100
AcDbLine
 10
-485.607836637326
 20
441.606928219651
 11
-485.607836637326
 21
439.174878219651
  0
LINE
  5
5D1
100
AcDbEntity
  8
0
  6
CONTINUOUS
 62
           3
100
AcDbLine
 10
-485.827807089927
 20
441.826898672251
 11
-485.827807089927
 21
439.174878219651
  0
LINE
  5
5D0
100
AcDbEntity
  8
0
  6
CONTINUOUS
 62
           3
100
AcDbLine
 10
-482.223286637327
 20
425.458878219651
 11
-471.428286637326
 21
425.458878219651
  0
LINE
  5
5CF
100
AcDbEntity
  8
0
  6
CONTINUOUS
 62
           3
100
AcDbLine
 10
-486.985786637327
 20
441.499585584351
 11
-486.985786637327
 21
439.174878219651
  0
LINE
  5
5CE
100
AcDbEntity
  8
0
  6
CONTINUOUS
 62
           3
100
AcDbLine
 10
-487.493786637327
 20
439.174878219651
 11
-487.493786637327
 21
442.98487821965
  0
LINE
  5
5CD
100
AcDbEntity
  8
0
  6
CONTINUOUS
 62
           3
100
AcDbLine
 10
-487.493786637327
 20
429.01487821965
 11
-487.493786637327
 21
432.82487821965
  0
LINE
  5
5CC
100
AcDbEntity
  8
0
  6
CONTINUOUS
 62
           3
100
AcDbLine
 10
-482.223286637327
 20
424.997385261951
 11
-471.428286637326
 21
424.997385261951
  0
LINE
  5
5CB
100
AcDbEntity
  8
0
  6
CONTINUOUS
 62
           7
100
AcDbLine
 10
-482.223286637327
 20
424.235385261951
 11
-471.428286637326
 21
424.235385261951
  0
LINE
  5
5CA
100
AcDbEntity
  8
0
  6
CONTINUOUS
 62
           3
100
AcDbLine
 10
-489.017786637327
 20
432.82487821965
 11
-489.017786637327
 21
429.01487821965
  0
LINE
  5
5C9
100
AcDbEntity
  8
0
  6
CONTINUOUS
 62
           3
100
AcDbLine
 10
-489.017786637327
 20
442.98487821965
 11
-489.017786637327
 21
439.174878219651
  0
LINE
  5
5C8
100
AcDbEntity
  8
0
  6
CONTINUOUS
 62
           3
100
AcDbLine
 10
-489.525786637327
 20
442.19744484895
 11
-489.525786637327
 21
429.80231159035
  0
LINE
  5
5C7
100
AcDbEntity
  8
0
  6
CONTINUOUS
 62
           7
100
AcDbLine
 10
-490.541786637327
 20
442.60387821965
 11
-490.541786637327
 21
429.395878219651
  0
LINE
  5
5C6
100
AcDbEntity
  8
1
  6
CONTINUOUS
 62
           7
100
AcDbLine
 10
-336.679786643681
 20
367.848533506652
 11
-336.679786643681
 21
226.151466493349
  0
LINE
  5
5C5
100
AcDbEntity
  8
1
  6
DASH_CENTER
 62
           3
100
AcDbLine
 10
-431.628100575199
 20
207.0
 11
-414.628100575199
 21
207.0
  0
LINE
  5
5C4
100
AcDbEntity
  8
1
  6
CONTINUOUS
 62
           7
100
AcDbLine
 10
-432.880874953203
 20
202.000000000001
 11
-430.179786643682
 21
202.000000000001
  0
LINE
  5
5C3
100
AcDbEntity
  8
1
  6
CONTINUOUS
 62
           7
100
AcDbLine
 10
-432.474575360064
 20
199.500000000001
 11
-434.279786643681
 21
199.500000000001
  0
LINE
  5
5C2
100
AcDbEntity
  8
1
  6
CONTINUOUS
 62
           7
100
AcDbLine
 10
-430.179786643682
 20
202.000000000001
 11
-425.679786643681
 21
202.000000000001
  0
LINE
  5
5C1
100
AcDbEntity
  8
1
  6
CONTINUOUS
 62
           7
100
AcDbLine
 10
-430.179786643682
 20
202.000000000001
 11
-430.179786643682
 21
215.0
  0
LINE
  5
5C0
100
AcDbEntity
  8
1
  6
CONTINUOUS
 62
           7
100
AcDbLine
 10
-425.679786643681
 20
204.0
 11
-425.679786643681
 21
210.0
  0
LINE
  5
5BF
100
AcDbEntity
  8
1
  6
CONTINUOUS
 62
           7
100
AcDbLine
 10
-425.679786643681
 20
204.0
 11
-430.179786643682
 21
204.0
  0
LINE
  5
5BE
100
AcDbEntity
  8
1
  6
CONTINUOUS
 62
           7
100
AcDbLine
 10
-425.679786643681
 20
210.0
 11
-425.679786643681
 21
210.3
  0
LINE
  5
5BD
100
AcDbEntity
  8
1
  6
CONTINUOUS
 62
           7
100
AcDbLine
 10
-425.679786643681
 20
210.0
 11
-430.179786643682
 21
210.0
  0
LINE
  5
5BC
100
AcDbEntity
  8
1
  6
CONTINUOUS
 62
           7
100
AcDbLine
 10
-425.679786643681
 20
203.700000000001
 11
-425.679786643681
 21
204.0
  0
LINE
  5
5BB
100
AcDbEntity
  8
1
  6
CONTINUOUS
 62
           7
100
AcDbLine
 10
-416.679786643682
 20
203.700000000001
 11
-416.679786643682
 21
210.3
  0
LINE
  5
5BA
100
AcDbEntity
  8
1
  6
CONTINUOUS
 62
           7
100
AcDbLine
 10
-425.679786643681
 20
203.700000000001
 11
-416.679786643682
 21
203.700000000001
  0
LINE
  5
5B9
100
AcDbEntity
  8
1
  6
CONTINUOUS
 62
           7
100
AcDbLine
 10
-425.679786643681
 20
210.3
 11
-425.679786643681
 21
215.0
  0
LINE
  5
5B8
100
AcDbEntity
  8
1
  6
CONTINUOUS
 62
           7
100
AcDbLine
 10
-416.679786643682
 20
210.3
 11
-416.679786643682
 21
213.620645844487
  0
LINE
  5
5B7
100
AcDbEntity
  8
1
  6
CONTINUOUS
 62
           7
100
AcDbLine
 10
-425.679786643681
 20
210.3
 11
-416.679786643682
 21
210.3
  0
LINE
  5
5B6
100
AcDbEntity
  8
1
  6
CONTINUOUS
 62
           7
100
AcDbLine
 10
-425.679786643681
 20
202.000000000001
 11
-425.679786643681
 21
203.700000000001
  0
LINE
  5
5B5
100
AcDbEntity
  8
1
  6
DASH_CENTER
 62
           3
100
AcDbLine
 10
-493.279126419157
 20
227.0
 11
-468.279126419157
 21
227.0
  0
LINE
  5
5B4
100
AcDbEntity
  8
1
  6
CONTINUOUS
 62
           7
100
AcDbLine
 10
-475.179786643681
 20
223.5
 11
-475.179786643681
 21
223.0
  0
LINE
  5
5B3
100
AcDbEntity
  8
1
  6
CONTINUOUS
 62
           7
100
AcDbLine
 10
-475.179786643681
 20
223.5
 11
-475.179786643681
 21
230.5
  0
LINE
  5
5B2
100
AcDbEntity
  8
1
  6
CONTINUOUS
 62
           7
100
AcDbLine
 10
-475.179786643681
 20
223.5
 11
-471.341907687224
 21
223.5
  0
LINE
  5
5B1
100
AcDbEntity
  8
1
  6
CONTINUOUS
 62
           7
100
AcDbLine
 10
-475.179786643681
 20
230.5
 11
-475.179786643681
 21
231.0
  0
LINE
  5
5B0
100
AcDbEntity
  8
1
  6
CONTINUOUS
 62
           7
100
AcDbLine
 10
-475.179786643681
 20
230.5
 11
-475.179786643681
 21
223.5
  0
LINE
  5
5AF
100
AcDbEntity
  8
1
  6
CONTINUOUS
 62
           7
100
AcDbLine
 10
-475.179786643681
 20
230.5
 11
-469.880391413979
 21
230.5
  0
LINE
  5
5AE
100
AcDbEntity
  8
1
  6
CONTINUOUS
 62
           7
100
AcDbLine
 10
-482.179786643682
 20
231.5
 11
-482.179786643682
 21
237.197863088891
  0
LINE
  5
5AD
100
AcDbEntity
  8
1
  6
CONTINUOUS
 62
           7
100
AcDbLine
 10
-482.179786643682
 20
219.5
 11
-482.179786643682
 21
222.5
  0
LINE
  5
5AC
100
AcDbEntity
  8
1
  6
CONTINUOUS
 62
           7
100
AcDbLine
 10
-475.179786643681
 20
219.5
 11
-482.179786643682
 21
219.5
  0
LINE
  5
5AB
100
AcDbEntity
  8
1
  6
CONTINUOUS
 62
           7
100
AcDbLine
 10
-472.419875972508
 20
219.5
 11
-463.579786643682
 21
219.5
  0
LINE
  5
5AA
100
AcDbEntity
  8
1
  6
CONTINUOUS
 62
           7
100
AcDbLine
 10
-482.179786643682
 20
223.0
 11
-482.179786643682
 21
222.5
  0
LINE
  5
5A9
100
AcDbEntity
  8
1
  6
CONTINUOUS
 62
           7
100
AcDbLine
 10
-475.179786643681
 20
223.0
 11
-482.179786643682
 21
223.0
  0
LINE
  5
5A8
100
AcDbEntity
  8
1
  6
CONTINUOUS
 62
           7
100
AcDbLine
 10
-475.179786643681
 20
223.0
 11
-475.179786643681
 21
223.5
  0
LINE
  5
5A7
100
AcDbEntity
  8
1
  6
CONTINUOUS
 62
           7
100
AcDbLine
 10
-475.179786643681
 20
231.0
 11
-475.179786643681
 21
230.5
  0
LINE
  5
5A6
100
AcDbEntity
  8
1
  6
CONTINUOUS
 62
           7
100
AcDbLine
 10
-482.179786643682
 20
231.0
 11
-482.179786643682
 21
223.0
  0
LINE
  5
5A5
100
AcDbEntity
  8
1
  6
CONTINUOUS
 62
           7
100
AcDbLine
 10
-482.179786643682
 20
231.0
 11
-475.179786643681
 21
231.0
  0
LINE
  5
5A4
100
AcDbEntity
  8
1
  6
CONTINUOUS
 62
           7
100
AcDbLine
 10
-490.179786643682
 20
222.5
 11
-490.179786643682
 21
231.5
  0
LINE
  5
5A3
100
AcDbEntity
  8
1
  6
CONTINUOUS
 62
           7
100
AcDbLine
 10
-482.179786643682
 20
222.5
 11
-490.179786643682
 21
222.5
  0
LINE
  5
5A2
100
AcDbEntity
  8
1
  6
CONTINUOUS
 62
           7
100
AcDbLine
 10
-482.179786643682
 20
231.5
 11
-482.179786643682
 21
231.0
  0
LINE
  5
5A1
100
AcDbEntity
  8
1
  6
CONTINUOUS
 62
           7
100
AcDbLine
 10
-490.179786643682
 20
231.5
 11
-490.179786643682
 21
237.528545073795
  0
LINE
  5
5A0
100
AcDbEntity
  8
1
  6
CONTINUOUS
 62
           7
100
AcDbLine
 10
-490.179786643682
 20
231.5
 11
-482.179786643682
 21
231.5
  0
LINE
  5
59F
100
AcDbEntity
  8
1
  6
DASH_CENTER
 62
           3
100
AcDbLine
 10
-200.077331732265
 20
357.563354564708
 11
-193.688822811534
 21
352.20275908555
  0
LINE
  5
59E
100
AcDbEntity
  8
1
  6
CONTINUOUS
 62
         250
100
AcDbLine
 10
-196.844736230926
 20
354.85088487179
 11
-194.916373401867
 21
357.149018201146
  0
LINE
  5
59D
100
AcDbEntity
  8
1
  6
CONTINUOUS
 62
         250
100
AcDbLine
 10
-196.844736230926
 20
354.85088487179
 11
-194.546602901569
 21
352.92252204273
  0
LINE
  5
59C
100
AcDbEntity
  8
1
  6
CONTINUOUS
 62
         250
100
AcDbLine
 10
-196.844736230926
 20
354.85088487179
 11
-199.142869560283
 21
356.779247700849
  0
LINE
  5
59B
100
AcDbEntity
  8
1
  6
CONTINUOUS
 62
         250
100
AcDbLine
 10
-196.844736230926
 20
354.85088487179
 11
-198.773099059986
 21
352.552751542433
  0
LINE
  5
59A
100
AcDbEntity
  8
1
  6
DASH_CENTER
 62
           3
100
AcDbLine
 10
-632.134507861756
 20
280.457862846834
 11
-619.696564493487
 21
277.125125965803
  0
LINE
  5
599
100
AcDbEntity
  8
1
  6
CONTINUOUS
 62
         250
100
AcDbLine
 10
-626.255796342909
 20
278.882666842824
 11
-627.29107252332
 21
275.018963537668
  0
LINE
  5
598
100
AcDbEntity
  8
1
  6
CONTINUOUS
 62
         250
100
AcDbLine
 10
-626.255796342909
 20
278.882666842824
 11
-630.119499648066
 21
279.917943023234
  0
LINE
  5
597
100
AcDbEntity
  8
1
  6
CONTINUOUS
 62
         250
100
AcDbLine
 10
-626.255796342909
 20
278.882666842824
 11
-622.392093037753
 21
277.847390662414
  0
LINE
  5
596
100
AcDbEntity
  8
1
  6
CONTINUOUS
 62
         250
100
AcDbLine
 10
-626.255796342909
 20
278.882666842824
 11
-625.220520162499
 21
282.74637014798
  0
LINE
  5
595
100
AcDbEntity
  8
1
  6
CONTINUOUS
 62
         250
100
AcDbLine
 10
-626.255796342909
 20
278.882666842824
 11
-626.255796342909
 21
274.882666842824
  0
LINE
  5
594
100
AcDbEntity
  8
1
  6
CONTINUOUS
 62
         250
100
AcDbLine
 10
-626.255796342909
 20
278.882666842824
 11
-630.25579634291
 21
278.882666842824
  0
LINE
  5
593
100
AcDbEntity
  8
1
  6
CONTINUOUS
 62
         250
100
AcDbLine
 10
-626.255796342909
 20
278.882666842824
 11
-626.255796342909
 21
282.882666842824
  0
LINE
  5
592
100
AcDbEntity
  8
1
  6
CONTINUOUS
 62
           7
100
AcDbLine
 10
-416.679786643682
 20
213.620645844487
 11
-416.679786643681
 21
394.1
  0
LINE
  5
591
100
AcDbEntity
  8
1
  6
CONTINUOUS
 62
           7
100
AcDbLine
 10
-410.679786643681
 20
215.0
 11
-410.679786643681
 21
379.000000000001
  0
LINE
  5
590
100
AcDbEntity
  8
1
  6
CONTINUOUS
 62
           7
100
AcDbLine
 10
-400.429786643682
 20
368.750000000001
 11
-400.429786643682
 21
225.25
  0
LINE
  5
58F
100
AcDbEntity
  8
1
  6
CONTINUOUS
 62
           7
100
AcDbLine
 10
-400.429786643682
 20
225.25
 11
-388.479786643681
 21
225.250000000001
  0
LINE
  5
58E
100
AcDbEntity
  8
1
  6
CONTINUOUS
 62
           7
100
AcDbLine
 10
-410.679786643681
 20
215.0
 11
-416.279786643682
 21
215.0
  0
LINE
  5
58D
100
AcDbEntity
  8
1
  6
CONTINUOUS
 62
           7
100
AcDbLine
 10
-400.429786643682
 20
225.25
 11
-410.679786643681
 21
215.0
  0
LINE
  5
58C
100
AcDbEntity
  8
1
  6
CONTINUOUS
 62
           7
100
AcDbLine
 10
-400.429786643682
 20
225.25
 11
-410.679786643681
 21
215.0
  0
LINE
  5
58B
100
AcDbEntity
  8
1
  6
CONTINUOUS
 62
           7
100
AcDbLine
 10
-388.479786643681
 20
368.750000000001
 11
-400.429786643682
 21
368.750000000001
  0
LINE
  5
58A
100
AcDbEntity
  8
1
  6
CONTINUOUS
 62
           7
100
AcDbLine
 10
-410.679786643681
 20
379.000000000001
 11
-400.429786643682
 21
368.750000000001
  0
LINE
  5
589
100
AcDbEntity
  8
1
  6
CONTINUOUS
 62
           7
100
AcDbLine
 10
-416.279786643682
 20
379.000000000001
 11
-410.679786643681
 21
379.000000000001
  0
LINE
  5
588
100
AcDbEntity
  8
1
  6
CONTINUOUS
 62
           7
100
AcDbLine
 10
-416.679786643681
 20
199.900000000001
 11
-416.679786643682
 21
203.700000000001
  0
LINE
  5
587
100
AcDbEntity
  8
1
  6
CONTINUOUS
 62
           7
100
AcDbLine
 10
-417.079786643682
 20
199.500000000001
 11
-416.679786643681
 21
199.900000000001
  0
LINE
  5
586
100
AcDbEntity
  8
1
  6
CONTINUOUS
 62
           7
100
AcDbLine
 10
-360.179786643681
 20
368.55799428579
 11
-360.179786643681
 21
225.442005714211
  0
LINE
  5
585
100
AcDbEntity
  8
1
  6
CONTINUOUS
 62
           7
100
AcDbLine
 10
-371.279786643681
 20
228.000000000001
 11
-371.179786643681
 21
228.000000000001
  0
LINE
  5
584
100
AcDbEntity
  8
1
  6
CONTINUOUS
 62
           7
100
AcDbLine
 10
-371.279786643681
 20
366.000000000001
 11
-371.179786643681
 21
366.000000000001
  0
LINE
  5
583
100
AcDbEntity
  8
1
  6
DASH_CENTER
 62
           3
100
AcDbLine
 10
-495.179786643682
 20
297.000000000001
 11
-331.679786643681
 21
297.000000000001
  0
LINE
  5
582
100
AcDbEntity
  8
1
  6
CONTINUOUS
 62
           7
100
AcDbLine
 10
-462.879786643682
 20
373.000000000001
 11
-462.179786643682
 21
373.000000000001
  0
LINE
  5
581
100
AcDbEntity
  8
1
  6
CONTINUOUS
 62
           7
100
AcDbLine
 10
-434.679786643682
 20
392.0
 11
-461.679786643682
 21
392.0
  0
LINE
  5
580
100
AcDbEntity
  8
1
  6
DASHED
 62
           3
100
AcDbLine
 10
-489.879786643682
 20
319.5
 11
-336.679786643681
 21
319.5
  0
LINE
  5
57F
100
AcDbEntity
  8
1
  6
CONTINUOUS
 62
           7
100
AcDbLine
 10
-371.179786643681
 20
368.750000000001
 11
-371.179786643681
 21
225.250000000001
  0
LINE
  5
57E
100
AcDbEntity
  8
1
  6
CONTINUOUS
 62
           7
100
AcDbLine
 10
-360.179786643681
 20
368.55799428579
 11
-371.179786643681
 21
368.750000000001
  0
LINE
  5
57D
100
AcDbEntity
  8
1
  6
CONTINUOUS
 62
           7
100
AcDbLine
 10
-371.179786643681
 20
225.250000000001
 11
-360.179786643681
 21
225.442005714211
  0
LINE
  5
57C
100
AcDbEntity
  8
1
  6
CONTINUOUS
 62
           7
100
AcDbLine
 10
-371.279786643681
 20
368.750000000001
 11
-371.279786643681
 21
225.250000000001
  0
LINE
  5
57B
100
AcDbEntity
  8
1
  6
CONTINUOUS
 62
           7
100
AcDbLine
 10
-387.979786643681
 20
368.750000000001
 11
-371.279786643681
 21
368.750000000001
  0
LINE
  5
57A
100
AcDbEntity
  8
1
  6
CONTINUOUS
 62
           7
100
AcDbLine
 10
-371.279786643681
 20
225.250000000001
 11
-387.979786643681
 21
225.250000000001
  0
LINE
  5
579
100
AcDbEntity
  8
1
  6
CONTINUOUS
 62
           7
100
AcDbLine
 10
-388.479786643681
 20
225.750000000001
 11
-387.979786643681
 21
225.250000000001
  0
LINE
  5
578
100
AcDbEntity
  8
1
  6
CONTINUOUS
 62
           7
100
AcDbLine
 10
-462.179786643682
 20
391.5
 11
-461.679786643682
 21
392.0
  0
LINE
  5
577
100
AcDbEntity
  8
1
  6
CONTINUOUS
 62
           7
100
AcDbLine
 10
-462.179786643682
 20
391.5
 11
-462.179786643682
 21
202.5
  0
LINE
  5
576
100
AcDbEntity
  8
1
  6
CONTINUOUS
 62
           7
100
AcDbLine
 10
-462.879786643682
 20
373.000000000001
 11
-463.179786643682
 21
372.7
  0
LINE
  5
575
100
AcDbEntity
  8
1
  6
CONTINUOUS
 62
           7
100
AcDbLine
 10
-461.679786643682
 20
202.0
 11
-462.179786643682
 21
202.5
  0
LINE
  5
574
100
AcDbEntity
  8
1
  6
CONTINUOUS
 62
           7
100
AcDbLine
 10
-462.879786643682
 20
221.0
 11
-462.179786643682
 21
221.0
  0
LINE
  5
573
100
AcDbEntity
  8
1
  6
CONTINUOUS
 62
           7
100
AcDbLine
 10
-461.679786643682
 20
202.0
 11
-434.679786643682
 21
202.000000000001
  0
LINE
  5
572
100
AcDbEntity
  8
1
  6
CONTINUOUS
 62
           7
100
AcDbLine
 10
-463.179786643682
 20
221.3
 11
-462.879786643682
 21
221.0
  0
LINE
  5
571
100
AcDbEntity
  8
1
  6
CONTINUOUS
 62
           7
100
AcDbLine
 10
-475.179786643681
 20
376.500000000001
 11
-475.179786643681
 21
236.287122110723
  0
LINE
  5
570
100
AcDbEntity
  8
1
  6
CONTINUOUS
 62
           7
100
AcDbLine
 10
-475.179786643681
 20
376.500000000001
 11
-475.679786643682
 21
377.000000000001
  0
LINE
  5
56F
100
AcDbEntity
  8
1
  6
CONTINUOUS
 62
           7
100
AcDbLine
 10
-489.679786643682
 20
377.000000000001
 11
-490.179786643682
 21
376.500000000001
  0
LINE
  5
56E
100
AcDbEntity
  8
1
  6
CONTINUOUS
 62
           7
100
AcDbLine
 10
-489.679786643682
 20
377.000000000001
 11
-475.679786643682
 21
377.000000000001
  0
LINE
  5
56D
100
AcDbEntity
  8
1
  6
CONTINUOUS
 62
           7
100
AcDbLine
 10
-475.679786643682
 20
217.0
 11
-489.679786643682
 21
217.0
  0
LINE
  5
56C
100
AcDbEntity
  8
1
  6
CONTINUOUS
 62
           7
100
AcDbLine
 10
-490.179786643682
 20
217.5
 11
-489.679786643682
 21
217.0
  0
LINE
  5
56B
100
AcDbEntity
  8
1
  6
CONTINUOUS
 62
           7
100
AcDbLine
 10
-475.679786643682
 20
217.0
 11
-475.179786643681
 21
217.5
  0
LINE
  5
56A
100
AcDbEntity
  8
1
  6
CONTINUOUS
 62
           7
100
AcDbLine
 10
-475.179786643681
 20
219.5
 11
-475.179786643681
 21
217.5
  0
LINE
  5
569
100
AcDbEntity
  8
1
  6
CONTINUOUS
 62
           7
100
AcDbLine
 10
-490.179786643682
 20
217.5
 11
-490.179786643682
 21
222.5
  0
LINE
  5
568
100
AcDbEntity
  8
1
  6
CONTINUOUS
 62
           7
100
AcDbLine
 10
-463.179786643682
 20
219.9
 11
-463.579786643682
 21
219.5
  0
LINE
  5
567
100
AcDbEntity
  8
1
  6
CONTINUOUS
 62
           7
100
AcDbLine
 10
-463.179786643682
 20
374.1
 11
-463.179786643682
 21
219.9
  0
LINE
  5
566
100
AcDbEntity
  8
1
  6
CONTINUOUS
 62
           7
100
AcDbLine
 10
-475.179786643681
 20
219.5
 11
-472.419875972508
 21
219.5
  0
LINE
  5
565
100
AcDbEntity
  8
1
  6
CONTINUOUS
 62
           7
100
AcDbLine
 10
-463.579786643682
 20
374.5
 11
-463.179786643682
 21
374.1
  0
LINE
  5
564
100
AcDbEntity
  8
1
  6
CONTINUOUS
 62
           7
100
AcDbLine
 10
-463.579786643682
 20
374.5
 11
-475.179786643681
 21
374.5
  0
LINE
  5
563
100
AcDbEntity
  8
1
  6
CONTINUOUS
 62
           7
100
AcDbLine
 10
-489.879786643682
 20
274.500000000001
 11
-490.179786643682
 21
274.2
  0
LINE
  5
562
100
AcDbEntity
  8
____
  6
CONTINUOUS
 62
           7
100
AcDbLine
 10
-490.179786643682
 20
237.528545073795
 11
-490.179786643682
 21
376.500000000001
  0
LINE
  5
561
100
AcDbEntity
  8
1
  6
CONTINUOUS
 62
           7
100
AcDbLine
 10
-490.179786643682
 20
319.800000000001
 11
-489.879786643682
 21
319.5
  0
LINE
  5
560
100
AcDbEntity
  8
1
  6
CONTINUOUS
 62
           7
100
AcDbLine
 10
-434.679786643681
 20
199.900000000001
 11
-434.279786643681
 21
199.500000000001
  0
LINE
  5
55F
100
AcDbEntity
  8
1
  6
CONTINUOUS
 62
           7
100
AcDbLine
 10
-417.079786643682
 20
199.500000000001
 11
-432.474575360064
 21
199.500000000001
  0
LINE
  5
55E
100
AcDbEntity
  8
1
  6
CONTINUOUS
 62
           7
100
AcDbLine
 10
-434.679786643681
 20
199.900000000001
 11
-434.679786643681
 21
394.1
  0
LINE
  5
55D
100
AcDbEntity
  8
1
  6
CONTINUOUS
 62
           7
100
AcDbLine
 10
-88.644441146078
 20
354.003746894343
 11
-90.758207561658
 21
350.342596067225
  0
LINE
  5
55C
100
AcDbEntity
  8
1
  6
CONTINUOUS
 62
           7
100
AcDbLine
 10
-70.896989455875
 20
257.743704795861
 11
-74.558140282994
 21
259.857471211441
  0
LINE
  5
55B
100
AcDbEntity
  8
1
  6
CONTINUOUS
 62
           7
100
AcDbLine
 10
-167.157031554358
 20
239.996253105658
 11
-165.043265138777
 21
243.657403932776
  0
LINE
  5
55A
100
AcDbEntity
  8
1
  6
CONTINUOUS
 62
           7
100
AcDbLine
 10
-100.043265138776
 20
356.240706424755
 11
-98.162191030889
 21
359.498822352418
  0
LINE
  5
559
100
AcDbEntity
  8
1
  6
CONTINUOUS
 62
           7
100
AcDbLine
 10
-68.660029925464
 20
269.142528788559
 11
-65.4019139978
 21
267.261454680672
  0
LINE
  5
558
100
AcDbEntity
  8
1
  6
CONTINUOUS
 62
           7
100
AcDbLine
 10
-155.758207561659
 20
237.759293575246
 11
-157.639281669547
 21
234.501177647583
  0
LINE
  5
557
100
AcDbEntity
  8
1
  6
CONTINUOUS
 62
           7
100
AcDbLine
 10
-187.141442774972
 20
324.857471211442
 11
-190.399558702635
 21
326.73854531933
  0
LINE
  5
556
100
AcDbEntity
  8
1
  6
CONTINUOUS
 62
           7
100
AcDbLine
 10
-184.90448324456
 20
336.256295204141
 11
-181.243332417442
 21
334.14252878856
  0
LINE
  5
555
100
AcDbEntity
  8
1
  6
DASH_CENTER
 62
           3
100
AcDbLine
 10
-139.806412424933
 20
341.432588009298
 11
-144.982793326984
 21
360.751104535079
  0
LINE
  5
554
100
AcDbEntity
  8
1
  6
DASH_CENTER
 62
           3
100
AcDbLine
 10
-110.818679373452
 20
360.751104535079
 11
-115.995060275502
 21
341.432588009298
  0
LINE
  5
553
100
AcDbEntity
  8
1
  6
DASH_CENTER
 62
           3
100
AcDbLine
 10
-111.352060820706
 20
203.147821458614
 11
-113.192731758486
 21
213.586783595666
  0
LINE
  5
552
100
AcDbEntity
  8
1
  6
DASH_CENTER
 62
           3
100
AcDbLine
 10
-190.254565422698
 20
333.000000000001
 11
-178.130209769715
 21
326.000000000001
  0
LINE
  5
551
100
AcDbEntity
  8
1
  6
DASH_CENTER
 62
           3
100
AcDbLine
 10
-91.900736350218
 20
359.35382907248
 11
-98.900736350218
 21
347.229473419498
  0
LINE
  5
550
100
AcDbEntity
  8
1
  6
DASH_CENTER
 62
           3
100
AcDbLine
 10
-65.546907277738
 20
261.0
 11
-77.67126293072
 21
268.000000000001
  0
LINE
  5
54F
100
AcDbEntity
  8
1
  6
DASH_CENTER
 62
           3
100
AcDbLine
 10
-163.900736350218
 20
234.646170927521
 11
-156.900736350218
 21
246.770526580503
  0
LINE
  5
54E
100
AcDbEntity
  8
1
  6
DASH_CENTER
 62
           3
100
AcDbLine
 10
-232.900736350218
 20
297.000000000001
 11
-22.900736350218
 21
297.000000000001
  0
LINE
  5
54D
100
AcDbEntity
  8
1
  6
CONTINUOUS
 62
           7
100
AcDbLine
 10
-114.268770119585
 20
357.534448842679
 11
-109.43914098814
 21
356.240353617167
  0
LINE
  5
54C
100
AcDbEntity
  8
1
  6
CONTINUOUS
 62
           7
100
AcDbLine
 10
-108.258362479499
 20
355.059575108526
 11
-106.964267253987
 21
350.229945977081
  0
LINE
  5
54B
100
AcDbEntity
  8
1
  6
CONTINUOUS
 62
           7
100
AcDbLine
 10
-107.396462184392
 20
348.616972538035
 11
-110.931996090324
 21
345.081438632103
  0
LINE
  5
54A
100
AcDbEntity
  8
1
  6
CONTINUOUS
 62
           7
100
AcDbLine
 10
-112.54496952937
 20
344.649243701698
 11
-117.374598660815
 21
345.94333892721
  0
LINE
  5
549
100
AcDbEntity
  8
1
  6
CONTINUOUS
 62
           7
100
AcDbLine
 10
-118.555377169456
 20
347.124117435851
 11
-119.849472394968
 21
351.953746567296
  0
LINE
  5
548
100
AcDbEntity
  8
1
  6
CONTINUOUS
 62
           7
100
AcDbLine
 10
-119.417277464563
 20
353.566720006341
 11
-115.88174355863
 21
357.102253912274
  0
LINE
  5
547
100
AcDbEntity
  8
1
  6
CONTINUOUS
 62
           7
100
AcDbLine
 10
-434.279786643681
 20
394.5
 11
-417.079786643682
 21
394.5
  0
LINE
  5
546
100
AcDbEntity
  8
1
  6
CONTINUOUS
 62
           7
100
AcDbLine
 10
-434.279786643681
 20
394.5
 11
-434.679786643681
 21
394.1
  0
LINE
  5
545
100
AcDbEntity
  8
1
  6
CONTINUOUS
 62
           7
100
AcDbLine
 10
-416.679786643681
 20
394.1
 11
-417.079786643682
 21
394.5
  0
LINE
  5
544
100
AcDbEntity
  8
1
  6
CONTINUOUS
 62
           7
100
AcDbLine
 10
-337.179786643681
 20
368.500000000001
 11
-360.179786643681
 21
368.750000000001
  0
LINE
  5
543
100
AcDbEntity
  8
1
  6
CONTINUOUS
 62
           7
100
AcDbLine
 10
-360.179786643681
 20
368.55799428579
 11
-360.179786643681
 21
368.750000000001
  0
LINE
  5
542
100
AcDbEntity
  8
1
  6
CONTINUOUS
 62
           7
100
AcDbLine
 10
-336.679786643681
 20
367.848533506652
 11
-337.179786643681
 21
368.500000000001
  0
LINE
  5
541
100
AcDbEntity
  8
1
  6
CONTINUOUS
 62
           7
100
AcDbLine
 10
-139.919729141805
 20
357.102253912274
 11
-136.384195235873
 21
353.566720006341
  0
LINE
  5
540
100
AcDbEntity
  8
1
  6
CONTINUOUS
 62
           7
100
AcDbLine
 10
-135.952000305468
 20
351.953746567296
 11
-137.24609553098
 21
347.124117435851
  0
LINE
  5
53F
100
AcDbEntity
  8
1
  6
CONTINUOUS
 62
           7
100
AcDbLine
 10
-138.426874039621
 20
345.94333892721
 11
-143.256503171066
 21
344.649243701698
  0
LINE
  5
53E
100
AcDbEntity
  8
1
  6
CONTINUOUS
 62
           7
100
AcDbLine
 10
-144.869476610111
 20
345.081438632103
 11
-148.405010516044
 21
348.616972538035
  0
LINE
  5
53D
100
AcDbEntity
  8
1
  6
CONTINUOUS
 62
           7
100
AcDbLine
 10
-148.837205446449
 20
350.229945977081
 11
-147.543110220937
 21
355.059575108526
  0
LINE
  5
53C
100
AcDbEntity
  8
1
  6
CONTINUOUS
 62
           7
100
AcDbLine
 10
-146.362331712296
 20
356.240353617167
 11
-141.532702580851
 21
357.534448842679
  0
LINE
  5
53B
100
AcDbEntity
  8
1
  6
CONTINUOUS
 62
           7
100
AcDbLine
 10
-360.179786643681
 20
225.250000000001
 11
-337.179786643681
 21
225.5
  0
LINE
  5
53A
100
AcDbEntity
  8
1
  6
CONTINUOUS
 62
           7
100
AcDbLine
 10
-337.179786643681
 20
225.5
 11
-336.679786643681
 21
226.151466493349
  0
LINE
  5
539
100
AcDbEntity
  8
1
  6
CONTINUOUS
 62
           7
100
AcDbLine
 10
-360.179786643681
 20
225.442005714211
 11
-360.179786643681
 21
225.250000000001
  0
LINE
  5
538
100
AcDbEntity
  8
1
  6
CONTINUOUS
 62
           7
100
AcDbLine
 10
-336.679786643681
 20
360.000000000001
 11
-336.179786643681
 21
360.000000000001
  0
LINE
  5
537
100
AcDbEntity
  8
1
  6
CONTINUOUS
 62
           7
100
AcDbLine
 10
-336.179786643681
 20
360.000000000001
 11
-336.179786643681
 21
346.000000000001
  0
LINE
  5
536
100
AcDbEntity
  8
1
  6
CONTINUOUS
 62
           7
100
AcDbLine
 10
-336.179786643681
 20
346.000000000001
 11
-336.679786643681
 21
346.000000000001
  0
LINE
  5
535
100
AcDbEntity
  8
1
  6
DASHED
 62
           3
100
AcDbLine
 10
-336.679786643681
 20
274.500000000001
 11
-489.879786643682
 21
274.500000000001
  0
LINE
  5
534
100
AcDbEntity
  8
1
  6
DASH_CENTER
 62
           3
100
AcDbLine
 10
-38.348027768109
 20
264.40548413685
 11
-48.30876963683
 21
268.030897413251
  0
LINE
  5
533
100
AcDbEntity
  8
1
  6
DASH_CENTER
 62
           3
100
AcDbLine
 10
-54.89670329762
 20
358.257662678237
 11
-63.016774228561
 21
351.444113817586
  0
LINE
  5
532
100
AcDbEntity
  8
1
  6
DASH_CENTER
 62
           3
100
AcDbLine
 10
-144.449411879729
 20
390.852178541387
 11
-142.608740941949
 21
380.413216404335
  0
LINE
  5
531
100
AcDbEntity
  8
1
  6
DASH_CENTER
 62
           3
100
AcDbLine
 10
-217.453444932327
 20
329.594515863151
 11
-207.492703063606
 21
325.96910258675
  0
LINE
  5
530
100
AcDbEntity
  8
1
  6
DASH_CENTER
 62
           3
100
AcDbLine
 10
-200.904769402815
 20
235.742337321765
 11
-192.784698471874
 21
242.555886182416
  0
LINE
  5
52F
100
AcDbEntity
  8
1
  6
DASH_CENTER
 62
           3
100
AcDbLine
 10
-45.368515354755
 20
344.65000153142
 11
-54.548384528352
 21
339.350001346925
  0
LINE
  5
52E
100
AcDbEntity
  8
1
  6
DASH_CENTER
 62
           3
100
AcDbLine
 10
-127.900736350218
 20
402.000000000001
 11
-127.900736350218
 21
192.000000000001
  0
LINE
  5
52D
100
AcDbEntity
  8
1
  6
DASH_CENTER
 62
           3
100
AcDbLine
 10
-66.643077656954
 20
370.004036873366
 11
-73.456626156436
 21
361.883965639368
  0
LINE
  5
52C
100
AcDbEntity
  8
1
  6
DASH_CENTER
 62
           3
100
AcDbLine
 10
-95.306217664317
 20
386.55270794355
 11
-98.93163098338
 21
376.591966090356
  0
LINE
  5
52B
100
AcDbEntity
  8
1
  6
DASH_CENTER
 62
           3
100
AcDbLine
 10
-127.900737669063
 20
392.300000778532
 11
-127.900737456026
 21
381.700000778533
  0
LINE
  5
52A
100
AcDbEntity
  8
1
  6
DASH_CENTER
 62
           3
100
AcDbLine
 10
-160.495257514736
 20
386.552707041407
 11
-156.869843795295
 21
376.591965333939
  0
LINE
  5
529
100
AcDbEntity
  8
1
  6
DASH_CENTER
 62
           3
100
AcDbLine
 10
-189.158397064069
 20
370.004035177892
 11
-182.344848238197
 21
361.883964217769
  0
LINE
  5
528
100
AcDbEntity
  8
1
  6
DASH_CENTER
 62
           3
100
AcDbLine
 10
-210.432958664525
 20
344.649999247113
 11
-201.253089277892
 21
339.349999431609
  0
LINE
  5
527
100
AcDbEntity
  8
1
  6
DASH_CENTER
 62
           3
100
AcDbLine
 10
-221.752916208
 20
313.548670168041
 11
-211.313953989078
 21
311.707999694572
  0
LINE
  5
526
100
AcDbEntity
  8
1
  6
DASH_CENTER
 62
           3
100
AcDbLine
 10
-210.432957345681
 20
249.349998468582
 11
-201.253088172084
 21
254.649998653077
  0
LINE
  5
525
100
AcDbEntity
  8
1
  6
DASH_CENTER
 62
           3
100
AcDbLine
 10
-189.158395043482
 20
223.995963126635
 11
-182.344846544
 21
232.116034360633
  0
LINE
  5
524
100
AcDbEntity
  8
1
  6
DASH_CENTER
 62
           3
100
AcDbLine
 10
-160.495255036119
 20
207.447292056452
 11
-156.869841717056
 21
217.408033909645
  0
LINE
  5
523
100
AcDbEntity
  8
1
  6
DASH_CENTER
 62
           3
100
AcDbLine
 10
-95.306215185699
 20
207.447292958594
 11
-98.93162890514
 21
217.408034666062
  0
LINE
  5
522
100
AcDbEntity
  8
1
  6
DASH_CENTER
 62
           3
100
AcDbLine
 10
-66.643075636366
 20
223.995964822109
 11
-73.456624462239
 21
232.116035782233
  0
LINE
  5
521
100
AcDbEntity
  8
1
  6
DASH_CENTER
 62
           3
100
AcDbLine
 10
-45.36851403591
 20
249.350000752888
 11
-54.548383422543
 21
254.650000568393
  0
LINE
  5
520
100
AcDbEntity
  8
1
  6
DASH_CENTER
 62
           3
100
AcDbLine
 10
-34.048556492435
 20
280.45132983196
 11
-44.487518711358
 21
282.29200030543
  0
LINE
  5
51F
100
AcDbEntity
  8
1
  6
DASH_CENTER
 62
           3
100
AcDbLine
 10
-34.048556950465
 20
313.548672765658
 11
-44.487519095401
 21
311.708001872589
  0
LINE
  5
51E
100
AcDbEntity
  8
1
  6
DASH_CENTER
 62
           3
100
AcDbLine
 10
-791.370604183144
 20
297.000000000001
 11
-798.870604183144
 21
297.000000000001
  0
LINE
  5
51D
100
AcDbEntity
  8
1
  6
DASH_CENTER
 62
           3
100
AcDbLine
 10
-693.870604183144
 20
391.95
 11
-693.870604183144
 21
402.000000000001
  0
LINE
  5
51C
100
AcDbEntity
  8
1
  6
DASH_CENTER
 62
           3
100
AcDbLine
 10
-693.870604183144
 20
192.0
 11
-693.870604183144
 21
382.05
  0
LINE
  5
51B
100
AcDbEntity
  8
1
  6
DASH_CENTER
 62
           3
100
AcDbLine
 10
-788.870604183144
 20
297.000000000001
 11
-791.370604183144
 21
297.000000000001
  0
LINE
  5
51A
100
AcDbEntity
  8
1
  6
DASH_CENTER
 62
           3
100
AcDbLine
 10
-783.870604183144
 20
297.000000000001
 11
-788.870604183144
 21
297.000000000001
  0
LINE
  5
519
100
AcDbEntity
  8
1
  6
DASH_CENTER
 62
           3
100
AcDbLine
 10
-722.959417372992
 20
376.920857397842
 11
-726.345416791916
 21
386.223814343622
  0
LINE
  5
518
100
AcDbEntity
  8
1
  6
DASH_CENTER
 62
           3
100
AcDbLine
 10
-748.539690386984
 20
362.152079887269
 11
-754.903287722881
 21
369.735919874147
  0
LINE
  5
517
100
AcDbEntity
  8
1
  6
DASH_CENTER
 62
           3
100
AcDbLine
 10
-767.526064775011
 20
339.525
 11
-776.099716272477
 21
344.475
  0
LINE
  5
516
100
AcDbEntity
  8
1
  6
DASH_CENTER
 62
           3
100
AcDbLine
 10
-777.628503576832
 20
311.768777510572
 11
-787.378100331653
 21
313.487894469475
  0
LINE
  5
515
100
AcDbEntity
  8
1
  6
DASH_CENTER
 62
           3
100
AcDbLine
 10
-777.628503576832
 20
282.231222489428
 11
-787.378100331653
 21
280.512105530525
  0
LINE
  5
514
100
AcDbEntity
  8
1
  6
DASH_CENTER
 62
           3
100
AcDbLine
 10
-767.526064775011
 20
254.475
 11
-776.099716272476
 21
249.525
  0
LINE
  5
513
100
AcDbEntity
  8
1
  6
DASH_CENTER
 62
           3
100
AcDbLine
 10
-748.539690386984
 20
231.847920112731
 11
-754.903287722881
 21
224.264080125853
  0
LINE
  5
512
100
AcDbEntity
  8
1
  6
DASH_CENTER
 62
           3
100
AcDbLine
 10
-722.959417372992
 20
217.079142602158
 11
-726.345416791916
 21
207.776185656378
  0
LINE
  5
511
100
AcDbEntity
  8
1
  6
DASH_CENTER
 62
           3
100
AcDbLine
 10
-693.870604183144
 20
211.95
 11
-693.870604183144
 21
202.05
  0
LINE
  5
510
100
AcDbEntity
  8
1
  6
DASH_CENTER
 62
           3
100
AcDbLine
 10
-664.781790993296
 20
217.079142602159
 11
-661.395791574372
 21
207.776185656378
  0
LINE
  5
50F
100
AcDbEntity
  8
1
  6
DASH_CENTER
 62
           3
100
AcDbLine
 10
-639.201517979304
 20
231.847920112731
 11
-632.837920643407
 21
224.264080125853
  0
LINE
  5
50E
100
AcDbEntity
  8
1
  6
DASH_CENTER
 62
           3
100
AcDbLine
 10
-620.215143591278
 20
254.475
 11
-611.641492093812
 21
249.525
  0
LINE
  5
50D
100
AcDbEntity
  8
1
  6
DASH_CENTER
 62
           3
100
AcDbLine
 10
-610.112704789456
 20
282.231222489428
 11
-600.363108034635
 21
280.512105530525
  0
LINE
  5
50C
100
AcDbEntity
  8
1
  6
DASH_CENTER
 62
           3
100
AcDbLine
 10
-610.112704789456
 20
311.768777510573
 11
-600.363108034635
 21
313.487894469476
  0
LINE
  5
50B
100
AcDbEntity
  8
1
  6
DASH_CENTER
 62
           3
100
AcDbLine
 10
-620.215143591278
 20
339.525000000001
 11
-611.641492093812
 21
344.475
  0
LINE
  5
50A
100
AcDbEntity
  8
1
  6
DASH_CENTER
 62
           3
100
AcDbLine
 10
-639.201517979304
 20
362.15207988727
 11
-632.837920643407
 21
369.735919874148
  0
LINE
  5
509
100
AcDbEntity
  8
1
  6
DASH_CENTER
 62
           3
100
AcDbLine
 10
-664.781790993296
 20
376.920857397842
 11
-661.395791574372
 21
386.223814343623
  0
LINE
  5
508
100
AcDbEntity
  8
1
  6
DASH_CENTER
 62
           3
100
AcDbLine
 10
-693.870604183144
 20
382.05
 11
-693.870604183144
 21
391.95
  0
LINE
  5
507
100
AcDbEntity
  8
1
  6
DASH_CENTER
 62
           3
100
AcDbLine
 10
-693.870604183144
 20
382.05
 11
-693.870604183144
 21
391.95
  0
LINE
  5
506
100
AcDbEntity
  8
1
  6
DASH_CENTER
 62
           3
100
AcDbLine
 10
-588.870604183144
 20
297.000000000001
 11
-783.870604183144
 21
297.000000000001
  0
LINE
  5
505
100
AcDbEntity
  8
1
  6
DASH_CENTER
 62
           3
100
AcDbLine
 10
-662.245604183145
 20
351.776106789366
 11
-655.495604183144
 21
363.467449740456
  0
LINE
  5
504
100
AcDbEntity
  8
1
  6
DASH_CENTER
 62
           3
100
AcDbLine
 10
-639.094497393779
 20
328.625000000001
 11
-627.403154442689
 21
335.375
  0
LINE
  5
503
100
AcDbEntity
  8
1
  6
DASH_CENTER
 62
           3
100
AcDbLine
 10
-639.094497393779
 20
265.375000000001
 11
-627.403154442689
 21
258.625000000001
  0
LINE
  5
502
100
AcDbEntity
  8
1
  6
DASH_CENTER
 62
           3
100
AcDbLine
 10
-662.245604183145
 20
242.223893210635
 11
-655.495604183144
 21
230.532550259545
  0
LINE
  5
501
100
AcDbEntity
  8
1
  6
DASH_CENTER
 62
           3
100
AcDbLine
 10
-693.870604183144
 20
233.75
 11
-693.870604183144
 21
220.250000000001
  0
LINE
  5
500
100
AcDbEntity
  8
1
  6
DASH_CENTER
 62
           3
100
AcDbLine
 10
-725.495604183144
 20
242.223893210635
 11
-732.245604183144
 21
230.532550259545
  0
LINE
  5
4FF
100
AcDbEntity
  8
1
  6
DASH_CENTER
 62
           3
100
AcDbLine
 10
-748.64671097251
 20
265.375000000001
 11
-760.3380539236
 21
258.625000000001
  0
LINE
  5
4FE
100
AcDbEntity
  8
1
  6
DASH_CENTER
 62
           3
100
AcDbLine
 10
-748.64671097251
 20
328.625000000001
 11
-760.3380539236
 21
335.375
  0
LINE
  5
4FD
100
AcDbEntity
  8
1
  6
DASH_CENTER
 62
           3
100
AcDbLine
 10
-725.495604183144
 20
351.776106789366
 11
-732.245604183144
 21
363.467449740456
  0
LINE
  5
4FC
100
AcDbEntity
  8
1
  6
DASH_CENTER
 62
           3
100
AcDbLine
 10
-769.223607045929
 20
276.809223735657
 11
-754.421685464602
 21
280.775386669803
  0
LINE
  5
4FB
100
AcDbEntity
  8
1
  6
DASH_CENTER
 62
           3
100
AcDbLine
 10
-714.061380447487
 20
372.353002862786
 11
-710.095217513342
 21
357.551081281458
  0
LINE
  5
4FA
100
AcDbEntity
  8
1
  6
DASH_CENTER
 62
           3
100
AcDbLine
 10
-618.517601320359
 20
317.190776264344
 11
-633.319522901686
 21
313.224613330198
  0
LINE
  5
4F9
100
AcDbEntity
  8
1
  6
DASH_CENTER
 62
           3
100
AcDbLine
 10
-673.679827918801
 20
221.646997137215
 11
-677.645990852946
 21
236.448918718543
  0
LINE
  5
4F8
100
AcDbEntity
  8
1
  6
CONTINUOUS
 62
           7
100
AcDbLine
 10
-676.350988007413
 20
227.154482016465
 11
-674.120277864112
 21
227.75219899791
  0
LINE
  5
4F7
100
AcDbEntity
  8
1
  6
CONTINUOUS
 62
           7
100
AcDbLine
 10
-674.120277864112
 20
227.75219899791
 11
-673.522560882667
 21
229.982909141211
  0
LINE
  5
4F6
100
AcDbEntity
  8
1
  6
CONTINUOUS
 62
           7
100
AcDbLine
 10
-673.522560882667
 20
229.982909141211
 11
-675.155554044522
 21
231.615902303067
  0
LINE
  5
4F5
100
AcDbEntity
  8
1
  6
CONTINUOUS
 62
           7
100
AcDbLine
 10
-675.155554044522
 20
231.615902303067
 11
-677.386264187823
 21
231.018185321621
  0
LINE
  5
4F4
100
AcDbEntity
  8
1
  6
CONTINUOUS
 62
           7
100
AcDbLine
 10
-677.386264187823
 20
231.018185321621
 11
-677.983981169269
 21
228.78747517832
  0
LINE
  5
4F3
100
AcDbEntity
  8
1
  6
CONTINUOUS
 62
           7
100
AcDbLine
 10
-677.983981169269
 20
228.78747517832
 11
-676.350988007413
 21
227.154482016465
  0
LINE
  5
4F2
100
AcDbEntity
  8
1
  6
CONTINUOUS
 62
           7
100
AcDbLine
 10
-624.025086199609
 20
314.519616175732
 11
-624.622803181054
 21
316.750326319032
  0
LINE
  5
4F1
100
AcDbEntity
  8
1
  6
CONTINUOUS
 62
           7
100
AcDbLine
 10
-624.622803181054
 20
316.750326319032
 11
-626.853513324355
 21
317.348043300478
  0
LINE
  5
4F0
100
AcDbEntity
  8
1
  6
CONTINUOUS
 62
           7
100
AcDbLine
 10
-626.853513324355
 20
317.348043300478
 11
-628.48650648621
 21
315.715050138622
  0
LINE
  5
4EF
100
AcDbEntity
  8
1
  6
CONTINUOUS
 62
           7
100
AcDbLine
 10
-628.48650648621
 20
315.715050138622
 11
-627.888789504765
 21
313.484339995321
  0
LINE
  5
4EE
100
AcDbEntity
  8
1
  6
CONTINUOUS
 62
           7
100
AcDbLine
 10
-627.888789504765
 20
313.484339995321
 11
-625.658079361464
 21
312.886623013876
  0
LINE
  5
4ED
100
AcDbEntity
  8
1
  6
CONTINUOUS
 62
           7
100
AcDbLine
 10
-625.658079361464
 20
312.886623013876
 11
-624.025086199609
 21
314.519616175732
  0
LINE
  5
4EC
100
AcDbEntity
  8
1
  6
CONTINUOUS
 62
           7
100
AcDbLine
 10
-711.390220358875
 20
366.845517983536
 11
-713.620930502176
 21
366.247801002091
  0
LINE
  5
4EB
100
AcDbEntity
  8
1
  6
CONTINUOUS
 62
           7
100
AcDbLine
 10
-713.620930502176
 20
366.247801002091
 11
-714.218647483621
 21
364.01709085879
  0
LINE
  5
4EA
100
AcDbEntity
  8
1
  6
CONTINUOUS
 62
           7
100
AcDbLine
 10
-714.218647483621
 20
364.01709085879
 11
-712.585654321766
 21
362.384097696934
  0
LINE
  5
4E9
100
AcDbEntity
  8
1
  6
CONTINUOUS
 62
           7
100
AcDbLine
 10
-712.585654321766
 20
362.384097696934
 11
-710.354944178465
 21
362.98181467838
  0
LINE
  5
4E8
100
AcDbEntity
  8
1
  6
CONTINUOUS
 62
           7
100
AcDbLine
 10
-710.354944178465
 20
362.98181467838
 11
-709.75722719702
 21
365.212524821681
  0
LINE
  5
4E7
100
AcDbEntity
  8
1
  6
CONTINUOUS
 62
           7
100
AcDbLine
 10
-709.75722719702
 20
365.212524821681
 11
-711.390220358875
 21
366.845517983536
  0
LINE
  5
4E6
100
AcDbEntity
  8
1
  6
CONTINUOUS
 62
           7
100
AcDbLine
 10
-762.083129004824
 20
281.113376986125
 11
-763.71612216668
 21
279.480383824269
  0
LINE
  5
4E5
100
AcDbEntity
  8
1
  6
CONTINUOUS
 62
           7
100
AcDbLine
 10
-759.852418861523
 20
280.515660004679
 11
-762.083129004824
 21
281.113376986125
  0
LINE
  5
4E4
100
AcDbEntity
  8
1
  6
CONTINUOUS
 62
           7
100
AcDbLine
 10
-759.254701880078
 20
278.284949861379
 11
-759.852418861523
 21
280.515660004679
  0
LINE
  5
4E3
100
AcDbEntity
  8
1
  6
CONTINUOUS
 62
           7
100
AcDbLine
 10
-760.887695041933
 20
276.651956699523
 11
-759.254701880078
 21
278.284949861379
  0
LINE
  5
4E2
100
AcDbEntity
  8
1
  6
CONTINUOUS
 62
           7
100
AcDbLine
 10
-763.118405185234
 20
277.249673680968
 11
-760.887695041933
 21
276.651956699523
  0
LINE
  5
4E1
100
AcDbEntity
  8
1
  6
CONTINUOUS
 62
           7
100
AcDbLine
 10
-763.71612216668
 20
279.480383824269
 11
-763.118405185234
 21
277.249673680968
  0
LINE
  5
4E0
100
AcDbEntity
  8
1
  6
DASH_CENTER
 62
           3
100
AcDbLine
 10
-221.75291574997
 20
280.451327234343
 11
-211.313953605035
 21
282.291998127413
  0
LINE
  5
4DF
100
AcDbEntity
  8
1
  6
DASH_CENTER
 62
           3
100
AcDbLine
 10
-306.679785135789
 20
353.000000000001
 11
-342.179786643681
 21
353.000000000001
  0
LINE
  5
4DE
100
AcDbEntity
  8
1
  6
CONTINUOUS
 62
           7
100
AcDbLine
 10
-387.979786643681
 20
368.750000000001
 11
-388.479786643681
 21
368.250000000001
  0
LINE
  5
4DD
100
AcDbEntity
  8
1
  6
CONTINUOUS
 62
           7
100
AcDbLine
 10
-388.479786643681
 20
368.750000000001
 11
-388.479786643681
 21
225.250000000001
  0
LINE
  5
4DC
100
AcDbEntity
  8
1
  6
CONTINUOUS
 62
           7
100
AcDbLine
 10
-336.679786643681
 20
233.080662115051
 11
-339.879786643681
 21
233.080662115051
  0
LINE
  5
4DB
100
AcDbEntity
  8
1
  6
CONTINUOUS
 62
           7
100
AcDbLine
 10
-338.879786643681
 20
235.708348754012
 11
-339.879786643681
 21
235.708348754012
  0
LINE
  5
4DA
100
AcDbEntity
  8
1
  6
CONTINUOUS
 62
           7
100
AcDbLine
 10
-339.879786643681
 20
238.575737573126
 11
-339.879786643681
 21
233.080662115051
  0
LINE
  5
4D9
100
AcDbEntity
  8
1
  6
CONTINUOUS
 62
           7
100
AcDbLine
 10
-338.879786643681
 20
238.575737573126
 11
-338.879786643681
 21
235.708348754012
  0
LINE
  5
4D8
100
AcDbEntity
  8
1
  6
CONTINUOUS
 62
           7
100
AcDbLine
 10
-336.679786643681
 20
238.575737573126
 11
-339.879786643681
 21
238.575737573126
  0
LINE
  5
4D7
100
AcDbEntity
  8
1
  6
DASH_CENTER
 62
           3
100
AcDbLine
 10
-341.31910292307
 20
329.500000000001
 11
-335.741881718407
 21
329.500000000001
  0
LINE
  5
4D6
100
AcDbEntity
  8
1
  6
CONTINUOUS
 62
           7
100
AcDbLine
 10
-339.879786643681
 20
327.558680344425
 11
-336.679786643681
 21
327.558680344425
  0
LINE
  5
4D5
100
AcDbEntity
  8
1
  6
CONTINUOUS
 62
           7
100
AcDbLine
 10
-338.879786643681
 20
327.558680344425
 11
-338.879786643681
 21
330.719333145228
  0
LINE
  5
4D4
100
AcDbEntity
  8
1
  6
CONTINUOUS
 62
           7
100
AcDbLine
 10
-338.879786643681
 20
334.500000000001
 11
-338.879786643681
 21
327.688307763098
  0
LINE
  5
4D3
100
AcDbEntity
  8
1
  6
CONTINUOUS
 62
           7
100
AcDbLine
 10
-339.879786643681
 20
334.500000000001
 11
-338.879786643681
 21
334.500000000001
  0
LINE
  5
4D2
100
AcDbEntity
  8
1
  6
CONTINUOUS
 62
           7
100
AcDbLine
 10
-339.879786643681
 20
337.076430229236
 11
-336.679786643681
 21
337.076430229236
  0
LINE
  5
4D1
100
AcDbEntity
  8
1
  6
CONTINUOUS
 62
           7
100
AcDbLine
 10
-339.879786643681
 20
337.076430229236
 11
-339.879786643681
 21
327.558680344425
  0
LINE
  5
4D0
100
AcDbEntity
  8
1
  6
CONTINUOUS
 62
           7
100
AcDbLine
 10
-292.679786643681
 20
361.753320372512
 11
-292.679786643681
 21
469.753320372512
  0
LINE
  5
4CF
100
AcDbEntity
  8
1
  6
DASH_CENTER
 62
           3
100
AcDbLine
 10
-296.679786643681
 20
363.000000000001
 11
-296.679786643681
 21
426.000000000001
  0
LINE
  5
4CE
100
AcDbEntity
  8
1
  6
CONTINUOUS
 62
           7
100
AcDbLine
 10
-300.679786643681
 20
363.0
 11
-300.679786643681
 21
426.000000000001
  0
LINE
  5
4CD
100
AcDbEntity
  8
1
  6
CONTINUOUS
 62
           7
100
AcDbLine
 10
-409.679786637327
 20
433.624756439301
 11
-398.554671387396
 21
436.012246556753
  0
LINE
  5
4CC
100
AcDbEntity
  8
1
  6
CONTINUOUS
 62
           7
100
AcDbLine
 10
-397.679786637327
 20
435.800000000001
 11
-385.679786637327
 21
435.800000000001
  0
LINE
  5
4CB
100
AcDbEntity
  8
1
  6
CONTINUOUS
 62
           7
100
AcDbLine
 10
-409.679786637327
 20
438.375000000001
 11
-397.679786637327
 21
435.800000000001
  0
LINE
  5
4CA
100
AcDbEntity
  8
1
  6
CONTINUOUS
 62
           7
100
AcDbLine
 10
-409.679786637327
 20
433.624756439301
 11
-397.679786637327
 21
434.600000000001
  0
LINE
  5
4C9
100
AcDbEntity
  8
1
  6
CONTINUOUS
 62
           7
100
AcDbLine
 10
-397.679786637327
 20
434.600000000001
 11
-385.679786637327
 21
434.600000000001
  0
LINE
  5
4C8
100
AcDbEntity
  8
1
  6
CONTINUOUS
 62
           7
100
AcDbLine
 10
-409.679786637327
 20
432.024756439301
 11
-397.679786637327
 21
433.000000000001
  0
LINE
  5
4C7
100
AcDbEntity
  8
1
  6
CONTINUOUS
 62
           7
100
AcDbLine
 10
-397.679786637327
 20
433.000000000001
 11
-385.679786637327
 21
433.000000000001
  0
LINE
  5
4C6
100
AcDbEntity
  8
1
  6
CONTINUOUS
 62
           7
100
AcDbLine
 10
-409.679786637327
 20
438.375000000001
 11
-397.679786637327
 21
437.400000000001
  0
LINE
  5
4C5
100
AcDbEntity
  8
1
  6
CONTINUOUS
 62
           7
100
AcDbLine
 10
-397.679786637327
 20
437.400000000001
 11
-385.679786637327
 21
437.400000000001
  0
LINE
  5
4C4
100
AcDbEntity
  8
1
  6
CONTINUOUS
 62
           7
100
AcDbLine
 10
-409.679786637327
 20
439.975000000001
 11
-397.679786637327
 21
439.000000000001
  0
LINE
  5
4C3
100
AcDbEntity
  8
1
  6
CONTINUOUS
 62
           7
100
AcDbLine
 10
-397.679786637327
 20
439.000000000001
 11
-385.679786637327
 21
439.000000000001
  0
LINE
  5
4C2
100
AcDbEntity
  8
0
  6
CONTINUOUS
 62
           7
100
AcDbLine
 10
-420.590886637327
 20
430.66587821965
 11
-420.590886637327
 21
429.649878219651
  0
LINE
  5
4C1
100
AcDbEntity
  8
0
  6
CONTINUOUS
 62
           7
100
AcDbLine
 10
-420.590886637327
 20
442.349878219651
 11
-420.590886637327
 21
441.333878219651
  0
LINE
  5
4C0
100
AcDbEntity
  8
0
  6
CONTINUOUS
 62
           7
100
AcDbLine
 10
-420.679786637327
 20
429.014878219651
 11
-420.679786637327
 21
444.508842877451
  0
LINE
  5
4BF
100
AcDbEntity
  8
0
  6
CONTINUOUS
 62
           7
100
AcDbLine
 10
-426.267786637327
 20
447.76437117735
 11
-426.902786637327
 21
447.76437117735
  0
LINE
  5
4BE
100
AcDbEntity
  8
0
  6
CONTINUOUS
 62
           3
100
AcDbLine
 10
-423.219786637327
 20
429.014878219651
 11
-423.219786637327
 21
442.984878219651
  0
LINE
  5
4BD
100
AcDbEntity
  8
0
  6
CONTINUOUS
 62
           7
100
AcDbLine
 10
-427.664786637326
 20
447.00237117735
 11
-444.047786637327
 21
446.54087821965
  0
LINE
  5
4BC
100
AcDbEntity
  8
0
  6
CONTINUOUS
 62
           3
100
AcDbLine
 10
-426.267786637327
 20
445.524878219651
 11
-433.633786637327
 21
445.524878219651
  0
LINE
  5
4BB
100
AcDbEntity
  8
0
  6
CONTINUOUS
 62
           7
100
AcDbLine
 10
-420.679786637327
 20
444.508878219651
 11
-426.267786637327
 21
444.508878219651
  0
LINE
  5
4BA
100
AcDbEntity
  8
0
  6
CONTINUOUS
 62
           7
100
AcDbLine
 10
-442.947934374527
 20
444.25487821965
 11
-434.903786637327
 21
444.25487821965
  0
LINE
  5
4B9
100
AcDbEntity
  8
0
  6
CONTINUOUS
 62
           3
100
AcDbLine
 10
-433.633786637327
 20
444.132358294551
 11
-420.679786637327
 21
444.132358294551
  0
LINE
  5
4B8
100
AcDbEntity
  8
0
  6
CONTINUOUS
 62
           3
100
AcDbLine
 10
-436.429786637327
 20
444.132358294551
 11
-434.903786637327
 21
444.132358294551
  0
LINE
  5
4B7
100
AcDbEntity
  8
0
  6
CONTINUOUS
 62
           7
100
AcDbLine
 10
-433.633786637327
 20
444.25487821965
 11
-426.267786637327
 21
444.462371177351
  0
LINE
  5
4B6
100
AcDbEntity
  8
0
  6
CONTINUOUS
 62
           7
100
AcDbLine
 10
-426.267786637327
 20
444.462371177351
 11
-426.267786637327
 21
447.76437117735
  0
LINE
  5
4B5
100
AcDbEntity
  8
0
  6
CONTINUOUS
 62
           7
100
AcDbLine
 10
-426.267786637327
 20
424.235385261951
 11
-426.267786637327
 21
427.537385261951
  0
LINE
  5
4B4
100
AcDbEntity
  8
0
  6
CONTINUOUS
 62
           7
100
AcDbLine
 10
-436.429786637327
 20
442.984878219651
 11
-420.679786637327
 21
442.984878219651
  0
LINE
  5
4B3
100
AcDbEntity
  8
0
  6
CONTINUOUS
 62
           3
100
AcDbLine
 10
-423.219786637327
 20
442.60387821965
 11
-420.679786637327
 21
442.60387821965
  0
LINE
  5
4B2
100
AcDbEntity
  8
0
  6
CONTINUOUS
 62
           7
100
AcDbLine
 10
-420.679786637327
 20
442.349878219651
 11
-420.590886637327
 21
442.349878219651
  0
LINE
  5
4B1
100
AcDbEntity
  8
0
  6
CONTINUOUS
 62
           3
100
AcDbLine
 10
-420.679786637327
 20
442.328261200951
 11
-420.590886637327
 21
442.328261200951
  0
LINE
  5
4B0
100
AcDbEntity
  8
0
  6
CONTINUOUS
 62
           3
100
AcDbLine
 10
-420.679786637327
 20
442.285027163551
 11
-420.590886637327
 21
442.285027163551
  0
LINE
  5
4AF
100
AcDbEntity
  8
0
  6
CONTINUOUS
 62
           3
100
AcDbLine
 10
-420.679786637327
 20
442.198559088751
 11
-420.590886637327
 21
442.198559088751
  0
LINE
  5
4AE
100
AcDbEntity
  8
0
  6
CONTINUOUS
 62
           3
100
AcDbLine
 10
-420.679786637327
 20
442.112091013951
 11
-420.590886637327
 21
442.112091013951
  0
LINE
  5
4AD
100
AcDbEntity
  8
0
  6
CONTINUOUS
 62
           3
100
AcDbLine
 10
-420.679786637327
 20
442.068856915951
 11
-420.590886637327
 21
442.068856915951
  0
LINE
  5
4AC
100
AcDbEntity
  8
0
  6
CONTINUOUS
 62
           3
100
AcDbLine
 10
-420.679786637327
 20
441.982388841151
 11
-420.590886637327
 21
441.982388841151
  0
LINE
  5
4AB
100
AcDbEntity
  8
0
  6
CONTINUOUS
 62
           3
100
AcDbLine
 10
-420.679786637327
 20
441.939154803751
 11
-420.590886637327
 21
441.939154803751
  0
LINE
  5
4AA
100
AcDbEntity
  8
0
  6
CONTINUOUS
 62
           3
100
AcDbLine
 10
-420.679786637327
 20
441.895920766351
 11
-420.590886637327
 21
441.895920766351
  0
LINE
  5
4A9
100
AcDbEntity
  8
0
  6
CONTINUOUS
 62
           3
100
AcDbLine
 10
-420.679786637327
 20
441.809452691651
 11
-420.590886637327
 21
441.809452691651
  0
LINE
  5
4A8
100
AcDbEntity
  8
0
  6
CONTINUOUS
 62
           3
100
AcDbLine
 10
-420.679786637327
 20
441.787835672951
 11
-420.590886637327
 21
441.787835672951
  0
LINE
  5
4A7
100
AcDbEntity
  8
0
  6
CONTINUOUS
 62
           3
100
AcDbLine
 10
-420.679786637327
 20
441.744601635551
 11
-420.590886637327
 21
441.744601635551
  0
LINE
  5
4A6
100
AcDbEntity
  8
0
  6
CONTINUOUS
 62
           3
100
AcDbLine
 10
-420.679786637327
 20
441.658133530451
 11
-420.590886637327
 21
441.658133530451
  0
LINE
  5
4A5
100
AcDbEntity
  8
0
  6
CONTINUOUS
 62
           7
100
AcDbLine
 10
-436.810786637327
 20
441.606928219651
 11
-448.109786637327
 21
441.606928219651
  0
LINE
  5
4A4
100
AcDbEntity
  8
0
  6
CONTINUOUS
 62
           3
100
AcDbLine
 10
-420.679786637327
 20
441.571665455651
 11
-420.590886637327
 21
441.571665455651
  0
LINE
  5
4A3
100
AcDbEntity
  8
0
  6
CONTINUOUS
 62
           3
100
AcDbLine
 10
-420.679786637327
 20
441.506814384352
 11
-420.590886637327
 21
441.506814384352
  0
LINE
  5
4A2
100
AcDbEntity
  8
0
  6
CONTINUOUS
 62
           3
100
AcDbLine
 10
-420.679786637327
 20
441.44196332825
 11
-420.590886637327
 21
441.44196332825
  0
LINE
  5
4A1
100
AcDbEntity
  8
0
  6
CONTINUOUS
 62
           3
100
AcDbLine
 10
-420.679786637327
 20
441.398729283351
 11
-420.590886637327
 21
441.398729283351
  0
LINE
  5
4A0
100
AcDbEntity
  8
0
  6
CONTINUOUS
 62
           3
100
AcDbLine
 10
-420.679786637327
 20
441.355495240251
 11
-420.590886637327
 21
441.355495240251
  0
LINE
  5
49F
100
AcDbEntity
  8
0
  6
CONTINUOUS
 62
           7
100
AcDbLine
 10
-420.679786637327
 20
441.333878219651
 11
-420.590886637327
 21
441.333878219651
  0
LINE
  5
49E
100
AcDbEntity
  8
0
  6
CONTINUOUS
 62
           7
100
AcDbLine
 10
-444.047786637327
 20
444.889878219651
 11
-442.947934374527
 21
444.25487821965
  0
LINE
  5
49D
100
AcDbEntity
  8
0
  6
CONTINUOUS
 62
           7
100
AcDbLine
 10
-442.947934374527
 20
427.744878219651
 11
-444.047786637327
 21
427.109878219651
  0
LINE
  5
49C
100
AcDbEntity
  8
0
  6
CONTINUOUS
 62
           7
100
AcDbLine
 10
-436.810786322327
 20
436.742828219651
 11
-448.109786637327
 21
436.742828219651
  0
LINE
  5
49B
100
AcDbEntity
  8
0
  6
CONTINUOUS
 62
           7
100
AcDbLine
 10
-433.633786637327
 20
442.984878219651
 11
-433.633786637327
 21
444.25487821965
  0
LINE
  5
49A
100
AcDbEntity
  8
0
  6
CONTINUOUS
 62
           3
100
AcDbLine
 10
-433.633786637327
 20
426.474878219651
 11
-433.633786637327
 21
427.744878219651
  0
LINE
  5
499
100
AcDbEntity
  8
0
  6
CONTINUOUS
 62
           7
100
AcDbLine
 10
-436.810769097026
 20
436.742858055751
 11
-436.429767852727
 21
436.522890499351
  0
LINE
  5
498
100
AcDbEntity
  8
0
  6
CONTINUOUS
 62
           7
100
AcDbLine
 10
-436.810786322327
 20
435.256928219651
 11
-448.109786637327
 21
435.256928219651
  0
LINE
  5
497
100
AcDbEntity
  8
0
  6
CONTINUOUS
 62
           7
100
AcDbLine
 10
-436.810769097026
 20
435.256898383551
 11
-436.429767852727
 21
435.476865939951
  0
LINE
  5
496
100
AcDbEntity
  8
0
  6
CONTINUOUS
 62
           7
100
AcDbLine
 10
-434.903786637327
 20
429.014878219651
 11
-434.903786637327
 21
427.744878219651
  0
LINE
  5
495
100
AcDbEntity
  8
0
  6
CONTINUOUS
 62
           7
100
AcDbLine
 10
-434.903786637327
 20
444.25487821965
 11
-434.903786637327
 21
442.984878219651
  0
LINE
  5
494
100
AcDbEntity
  8
0
  6
CONTINUOUS
 62
           7
100
AcDbLine
 10
-436.429786637327
 20
429.014878219651
 11
-436.429786637327
 21
444.25487821965
  0
LINE
  5
493
100
AcDbEntity
  8
0
  6
CONTINUOUS
 62
           7
100
AcDbLine
 10
-427.664786637326
 20
424.997385261951
 11
-426.902786637327
 21
424.235385261951
  0
LINE
  5
492
100
AcDbEntity
  8
0
  6
CONTINUOUS
 62
           7
100
AcDbLine
 10
-426.902786637327
 20
447.76437117735
 11
-427.664786637326
 21
447.00237117735
  0
LINE
  5
491
100
AcDbEntity
  8
0
  6
CONTINUOUS
 62
           3
100
AcDbLine
 10
-436.810786322327
 20
436.742828219651
 11
-436.810786637327
 21
441.606928219651
  0
LINE
  5
490
100
AcDbEntity
  8
0
  6
CONTINUOUS
 62
           3
100
AcDbLine
 10
-436.810786322527
 20
430.392828219651
 11
-436.810786322327
 21
435.256928219651
  0
LINE
  5
48F
100
AcDbEntity
  8
0
  6
CONTINUOUS
 62
           7
100
AcDbLine
 10
-420.679786637327
 20
430.66587821965
 11
-420.590886637327
 21
430.66587821965
  0
LINE
  5
48E
100
AcDbEntity
  8
0
  6
CONTINUOUS
 62
           3
100
AcDbLine
 10
-420.679786637327
 20
430.64426120095
 11
-420.590886637327
 21
430.64426120095
  0
LINE
  5
48D
100
AcDbEntity
  8
0
  6
CONTINUOUS
 62
           3
100
AcDbLine
 10
-420.679786637327
 20
430.57941014485
 11
-420.590886637327
 21
430.57941014485
  0
LINE
  5
48C
100
AcDbEntity
  8
0
  6
CONTINUOUS
 62
           3
100
AcDbLine
 10
-420.679786637327
 20
430.492942070051
 11
-420.590886637327
 21
430.492942070051
  0
LINE
  5
48B
100
AcDbEntity
  8
0
  6
CONTINUOUS
 62
           7
100
AcDbLine
 10
-436.810786322527
 20
430.392828219651
 11
-448.109786637327
 21
430.392828219651
  0
LINE
  5
48A
100
AcDbEntity
  8
0
  6
CONTINUOUS
 62
           3
100
AcDbLine
 10
-420.679786637327
 20
430.384856915951
 11
-420.590886637327
 21
430.384856915951
  0
LINE
  5
489
100
AcDbEntity
  8
0
  6
CONTINUOUS
 62
           3
100
AcDbLine
 10
-420.679786637327
 20
430.233537785051
 11
-420.590886637327
 21
430.233537785051
  0
LINE
  5
488
100
AcDbEntity
  8
0
  6
CONTINUOUS
 62
           7
100
AcDbLine
 10
-436.810786637327
 20
430.392828219651
 11
-436.429786637327
 21
430.172857767051
  0
LINE
  5
487
100
AcDbEntity
  8
0
  6
CONTINUOUS
 62
           3
100
AcDbLine
 10
-420.679786637327
 20
430.082218654251
 11
-420.590886637327
 21
430.082218654251
  0
LINE
  5
486
100
AcDbEntity
  8
0
  6
CONTINUOUS
 62
           3
100
AcDbLine
 10
-420.679786637327
 20
429.930899493051
 11
-420.590886637327
 21
429.930899493051
  0
LINE
  5
485
100
AcDbEntity
  8
0
  6
CONTINUOUS
 62
           3
100
AcDbLine
 10
-420.679786637327
 20
429.822814384351
 11
-420.590886637327
 21
429.822814384351
  0
LINE
  5
484
100
AcDbEntity
  8
0
  6
CONTINUOUS
 62
           3
100
AcDbLine
 10
-420.679786637327
 20
429.736346302051
 11
-420.590886637327
 21
429.736346302051
  0
LINE
  5
483
100
AcDbEntity
  8
0
  6
CONTINUOUS
 62
           3
100
AcDbLine
 10
-420.679786637327
 20
429.671495240251
 11
-420.590886637327
 21
429.671495240251
  0
LINE
  5
482
100
AcDbEntity
  8
0
  6
CONTINUOUS
 62
           7
100
AcDbLine
 10
-420.679786637327
 20
429.649878219651
 11
-420.590886637327
 21
429.649878219651
  0
LINE
  5
481
100
AcDbEntity
  8
0
  6
CONTINUOUS
 62
           3
100
AcDbLine
 10
-420.679786637327
 20
429.395878219651
 11
-423.219786637327
 21
429.395878219651
  0
LINE
  5
480
100
AcDbEntity
  8
0
  6
CONTINUOUS
 62
           7
100
AcDbLine
 10
-420.679786637327
 20
429.014878219651
 11
-436.429786637327
 21
429.014878219651
  0
LINE
  5
47F
100
AcDbEntity
  8
0
  6
CONTINUOUS
 62
           7
100
AcDbLine
 10
-436.810786637327
 20
441.606928219651
 11
-436.429786637327
 21
441.826898672251
  0
LINE
  5
47E
100
AcDbEntity
  8
0
  6
CONTINUOUS
 62
           7
100
AcDbLine
 10
-426.267786637327
 20
427.537385261951
 11
-433.633786637327
 21
427.744878219651
  0
LINE
  5
47D
100
AcDbEntity
  8
0
  6
CONTINUOUS
 62
           7
100
AcDbLine
 10
-434.903786637327
 20
427.744878219651
 11
-442.947934374527
 21
427.744878219651
  0
LINE
  5
47C
100
AcDbEntity
  8
0
  6
CONTINUOUS
 62
           3
100
AcDbLine
 10
-426.267786637327
 20
426.474878219651
 11
-433.633786637327
 21
426.474878219651
  0
LINE
  5
47B
100
AcDbEntity
  8
0
  6
CONTINUOUS
 62
           7
100
AcDbLine
 10
-444.047786637327
 20
427.109878219651
 11
-444.047786637327
 21
425.458878219651
  0
LINE
  5
47A
100
AcDbEntity
  8
0
  6
CONTINUOUS
 62
           7
100
AcDbLine
 10
-444.047786637327
 20
446.54087821965
 11
-444.047786637327
 21
444.889878219651
  0
LINE
  5
479
100
AcDbEntity
  8
0
  6
CONTINUOUS
 62
           7
100
AcDbLine
 10
-444.047786637327
 20
425.458878219651
 11
-427.664786637326
 21
424.997385261951
  0
LINE
  5
478
100
AcDbEntity
  8
0
  6
CONTINUOUS
 62
           7
100
AcDbLine
 10
-426.902786637327
 20
424.235385261951
 11
-426.267786637327
 21
424.235385261951
  0
LINE
  5
477
100
AcDbEntity
  8
0
  6
CONTINUOUS
 62
           7
100
AcDbLine
 10
-448.109786637327
 20
436.743071780351
 11
-448.109786637327
 21
441.606928219651
  0
LINE
  5
476
100
AcDbEntity
  8
0
  6
CONTINUOUS
 62
           7
100
AcDbLine
 10
-448.109786637327
 20
430.393071780351
 11
-448.109786637327
 21
435.256684658951
  0
LINE
  5
475
100
AcDbEntity
  8
1
  6
CONTINUOUS
 62
           7
100
AcDbLine
 10
-431.679786637327
 20
485.895
 11
-441.679786637327
 21
485.895
  0
LINE
  5
474
100
AcDbEntity
  8
1
  6
CONTINUOUS
 62
           3
100
AcDbLine
 10
-431.679786637327
 20
474.595
 11
-431.679786637327
 21
485.895
  0
LINE
  5
473
100
AcDbEntity
  8
1
  6
CONTINUOUS
 62
           7
100
AcDbLine
 10
-440.679786637327
 20
474.595
 11
-431.679786637327
 21
474.595
  0
LINE
  5
472
100
AcDbEntity
  8
1
  6
CONTINUOUS
 62
           7
100
AcDbLine
 10
-440.679786637327
 20
477.095
 11
-441.679786637327
 21
477.095
  0
LINE
  5
471
100
AcDbEntity
  8
1
  6
CONTINUOUS
 62
           7
100
AcDbLine
 10
-441.679786637327
 20
485.895
 11
-441.679786637327
 21
477.095
  0
LINE
  5
470
100
AcDbEntity
  8
1
  6
CONTINUOUS
 62
           7
100
AcDbLine
 10
-440.679786637327
 20
474.595
 11
-440.679786637327
 21
477.095
  0
LINE
  5
46F
100
AcDbEntity
  8
1
  6
CONTINUOUS
 62
           7
100
AcDbLine
 10
-430.509786637327
 20
484.725000000001
 11
-431.679786637327
 21
485.895
  0
LINE
  5
46E
100
AcDbEntity
  8
1
  6
CONTINUOUS
 62
           7
100
AcDbLine
 10
-420.679786637327
 20
484.725000000001
 11
-430.509786637327
 21
484.725000000001
  0
LINE
  5
46D
100
AcDbEntity
  8
1
  6
CONTINUOUS
 62
           7
100
AcDbLine
 10
-420.679786637327
 20
477.275
 11
-420.679786637327
 21
484.725000000001
  0
LINE
  5
46C
100
AcDbEntity
  8
1
  6
CONTINUOUS
 62
           7
100
AcDbLine
 10
-430.509786637327
 20
476.775
 11
-431.679786637327
 21
474.595
  0
LINE
  5
46B
100
AcDbEntity
  8
1
  6
CONTINUOUS
 62
           7
100
AcDbLine
 10
-430.509786637327
 20
476.775
 11
-430.509786637327
 21
484.725000000001
  0
LINE
  5
46A
100
AcDbEntity
  8
1
  6
CONTINUOUS
 62
           7
100
AcDbLine
 10
-424.679786637327
 20
476.775
 11
-430.509786637327
 21
476.775
  0
LINE
  5
469
100
AcDbEntity
  8
1
  6
CONTINUOUS
 62
           7
100
AcDbLine
 10
-424.391111502732
 20
477.275
 11
-424.679786637327
 21
476.775
  0
LINE
  5
468
100
AcDbEntity
  8
1
  6
CONTINUOUS
 62
           7
100
AcDbLine
 10
-424.391111502732
 20
477.275
 11
-420.679786637327
 21
477.275
  0
LINE
  5
467
100
AcDbEntity
  8
1
  6
CONTINUOUS
 62
           7
100
AcDbLine
 10
-409.679786637327
 20
433.624756439301
 11
-420.679786637327
 21
433.624756439301
  0
LINE
  5
466
100
AcDbEntity
  8
1
  6
CONTINUOUS
 62
           7
100
AcDbLine
 10
-420.679786637327
 20
432.024756439301
 11
-409.679786637327
 21
432.024756439301
  0
LINE
  5
465
100
AcDbEntity
  8
1
  6
CONTINUOUS
 62
           7
100
AcDbLine
 10
-420.679786637327
 20
439.975000000001
 11
-409.679786637327
 21
439.975000000001
  0
LINE
  5
464
100
AcDbEntity
  8
1
  6
CONTINUOUS
 62
           7
100
AcDbLine
 10
-420.679786637327
 20
438.375000000001
 11
-409.679786637327
 21
438.375000000001
  0
LINE
  5
463
100
AcDbEntity
  8
1
  6
CONTINUOUS
 62
           7
100
AcDbLine
 10
-385.679786637327
 20
483.745
 11
-420.679786637327
 21
483.745
  0
LINE
  5
462
100
AcDbEntity
  8
1
  6
CONTINUOUS
 62
           7
100
AcDbLine
 10
-385.679786637327
 20
480.445000000001
 11
-420.679786637327
 21
480.445000000001
  0
LINE
  5
461
100
AcDbEntity
  8
1
  6
CONTINUOUS
 62
           7
100
AcDbLine
 10
-385.679786637327
 20
479.445
 11
-420.679786637327
 21
479.445
  0
LINE
  5
460
100
AcDbEntity
  8
1
  6
CONTINUOUS
 62
           7
100
AcDbLine
 10
-393.942446124216
 20
482.365868084665
 11
-395.254734980825
 21
482.474131915335
  0
LINE
  5
45F
100
AcDbEntity
  8
1
  6
CONTINUOUS
 62
           7
100
AcDbLine
 10
-385.679786637327
 20
482.095
 11
-387.364792741201
 21
482.095
  0
LINE
  5
45E
100
AcDbEntity
  8
1
  6
CONTINUOUS
 62
           7
100
AcDbLine
 10
-385.679786637327
 20
481.095
 11
-386.582371821619
 21
481.095
  0
LINE
  5
45D
100
AcDbEntity
  8
1
  6
CONTINUOUS
 62
           7
100
AcDbLine
 10
-406.596314772665
 20
482.406414894169
 11
-394.804438550388
 21
481.433585105831
  0
LINE
  5
45C
100
AcDbEntity
  8
1
  6
CONTINUOUS
 62
           7
100
AcDbLine
 10
-385.679786637327
 20
482.745000000001
 11
-420.679786637327
 21
482.745000000001
  0
LINE
  5
45B
100
AcDbEntity
  8
1
  6
CONTINUOUS
 62
           7
100
AcDbLine
 10
-385.679786637327
 20
478.795
 11
-387.364792741201
 21
478.795
  0
LINE
  5
45A
100
AcDbEntity
  8
1
  6
CONTINUOUS
 62
           7
100
AcDbLine
 10
-393.942446124216
 20
479.065868084666
 11
-395.254734980825
 21
479.174131915336
  0
LINE
  5
459
100
AcDbEntity
  8
1
  6
CONTINUOUS
 62
           7
100
AcDbLine
 10
-385.679786637327
 20
477.795
 11
-386.582371821619
 21
477.795
  0
LINE
  5
458
100
AcDbEntity
  8
1
  6
CONTINUOUS
 62
           7
100
AcDbLine
 10
-406.596314772665
 20
479.10641489417
 11
-394.804438550388
 21
478.133585105832
  0
LINE
  5
457
100
AcDbEntity
  8
0
  6
CONTINUOUS
 62
           7
100
AcDbLine
 10
-433.633786637327
 20
427.744878219651
 11
-433.633786637327
 21
429.014878219651
  0
LINE
  5
456
100
AcDbEntity
  8
0
  6
CONTINUOUS
 62
           3
100
AcDbLine
 10
-433.633786637327
 20
444.25487821965
 11
-433.633786637327
 21
445.524878219651
  0
LINE
  5
455
100
AcDbEntity
  8
1
  6
CONTINUOUS
 62
           7
100
AcDbLine
 10
-300.679786643681
 20
438.649110640674
 11
-300.679786643681
 21
471.000000000001
  0
LINE
  5
454
100
AcDbEntity
  8
1
  6
DASH_CENTER
 62
           3
100
AcDbLine
 10
-296.679786643681
 20
435.797958971134
 11
-296.679786643681
 21
471.000000000001
  0
LINE
  5
453
100
AcDbEntity
  8
1
  6
CONTINUOUS
 62
           7
100
AcDbLine
 10
-360.679786637327
 20
485.000000000001
 11
-332.179786637268
 21
485.0
  0
LINE
  5
452
100
AcDbEntity
  8
1
  6
CONTINUOUS
 62
           7
100
AcDbLine
 10
-360.679786637327
 20
477.0
 11
-332.179786637327
 21
477.0
  0
LINE
  5
451
100
AcDbEntity
  8
1
  6
DASH_CENTER
 62
           3
100
AcDbLine
 10
-443.679786637327
 20
481.0
 11
-306.679786643681
 21
481.000000000001
  0
LINE
  5
450
100
AcDbEntity
  8
1
  6
DASH_CENTER
 62
           3
100
AcDbLine
 10
-450.109786637327
 20
436.000000000001
 11
-306.679786643681
 21
436.000000000001
  0
LINE
  5
44F
100
AcDbEntity
  8
1
  6
CONTINUOUS
 62
           7
100
AcDbLine
 10
-360.679786637327
 20
432.000000000001
 11
-332.179786637336
 21
432.000000000001
  0
LINE
  5
44E
100
AcDbEntity
  8
1
  6
CONTINUOUS
 62
           7
100
AcDbLine
 10
-360.679786637327
 20
440.000000000001
 11
-332.179786637297
 21
440.000000000001
  0
LINE
  5
44D
100
AcDbEntity
  8
1
  6
CONTINUOUS
 62
           7
100
AcDbLine
 10
-329.179786637356
 20
432.000000000001
 11
-306.679786643681
 21
432.000000000001
  0
LINE
  5
44C
100
AcDbEntity
  8
1
  6
CONTINUOUS
 62
           7
100
AcDbLine
 10
-329.179786637317
 20
440.000000000001
 11
-306.679786643681
 21
440.000000000001
  0
LINE
  5
44B
100
AcDbEntity
  8
1
  6
CONTINUOUS
 62
           7
100
AcDbLine
 10
-329.179786637356
 20
477.0
 11
-306.679786643681
 21
477.0
  0
LINE
  5
44A
100
AcDbEntity
  8
1
  6
CONTINUOUS
 62
           7
100
AcDbLine
 10
-329.179786637327
 20
485.0
 11
-306.679786643681
 21
485.0
  0
LINE
  5
449
100
AcDbEntity
  8
1
  6
CONTINUOUS
 62
           7
100
AcDbLine
 10
-360.679786637327
 20
431.7
 11
-370.679786637327
 21
431.7
  0
LINE
  5
448
100
AcDbEntity
  8
1
  6
CONTINUOUS
 62
           7
100
AcDbLine
 10
-360.679786637327
 20
431.7
 11
-360.679786637327
 21
440.300000000001
  0
LINE
  5
447
100
AcDbEntity
  8
1
  6
CONTINUOUS
 62
           7
100
AcDbLine
 10
-370.679786637327
 20
440.300000000001
 11
-360.679786637327
 21
440.300000000001
  0
LINE
  5
446
100
AcDbEntity
  8
1
  6
CONTINUOUS
 62
           7
100
AcDbLine
 10
-372.679786637327
 20
439.800000000001
 11
-370.679786637327
 21
440.300000000001
  0
LINE
  5
445
100
AcDbEntity
  8
1
  6
CONTINUOUS
 62
           7
100
AcDbLine
 10
-385.679786637327
 20
439.800000000001
 11
-372.679786637327
 21
439.800000000001
  0
LINE
  5
444
100
AcDbEntity
  8
1
  6
CONTINUOUS
 62
           7
100
AcDbLine
 10
-372.679786637327
 20
432.200000000001
 11
-385.679786637327
 21
432.2
  0
LINE
  5
443
100
AcDbEntity
  8
1
  6
CONTINUOUS
 62
           7
100
AcDbLine
 10
-370.679786637327
 20
431.7
 11
-372.679786637327
 21
432.200000000001
  0
LINE
  5
442
100
AcDbEntity
  8
1
  6
CONTINUOUS
 62
           7
100
AcDbLine
 10
-385.679786637327
 20
432.2
 11
-385.679786637327
 21
439.800000000001
  0
LINE
  5
441
100
AcDbEntity
  8
1
  6
CONTINUOUS
 62
           7
100
AcDbLine
 10
-370.679786637327
 20
485.3
 11
-360.679786637327
 21
485.3
  0
LINE
  5
440
100
AcDbEntity
  8
1
  6
CONTINUOUS
 62
           7
100
AcDbLine
 10
-360.679786637327
 20
476.700000000001
 11
-360.679786637327
 21
485.3
  0
LINE
  5
43F
100
AcDbEntity
  8
1
  6
CONTINUOUS
 62
           7
100
AcDbLine
 10
-360.679786637327
 20
476.700000000001
 11
-370.679786637327
 21
476.700000000001
  0
LINE
  5
43E
100
AcDbEntity
  8
1
  6
CONTINUOUS
 62
           7
100
AcDbLine
 10
-370.679786637327
 20
476.700000000001
 11
-372.679786637327
 21
477.2
  0
LINE
  5
43D
100
AcDbEntity
  8
1
  6
CONTINUOUS
 62
           7
100
AcDbLine
 10
-372.679786637327
 20
477.2
 11
-385.679786637327
 21
477.2
  0
LINE
  5
43C
100
AcDbEntity
  8
1
  6
CONTINUOUS
 62
           7
100
AcDbLine
 10
-385.679786637327
 20
484.8
 11
-372.679786637327
 21
484.8
  0
LINE
  5
43B
100
AcDbEntity
  8
1
  6
CONTINUOUS
 62
           7
100
AcDbLine
 10
-372.679786637327
 20
484.8
 11
-370.679786637327
 21
485.3
  0
LINE
  5
43A
100
AcDbEntity
  8
1
  6
CONTINUOUS
 62
           7
100
AcDbLine
 10
-385.679786637327
 20
477.2
 11
-385.679786637327
 21
484.8
  0
LINE
  5
439
100
AcDbEntity
  8
1
  6
DASH_CENTER
 62
           3
100
AcDbLine
 10
-338.679786643681
 20
353.000000000001
 11
-306.679786643681
 21
353.000000000001
  0
LINE
  5
438
100
AcDbEntity
  8
1
  6
CONTINUOUS
 62
           7
100
AcDbLine
 10
-321.679786643681
 20
349.000000000001
 11
-306.679786643681
 21
349.000000000001
  0
LINE
  5
437
100
AcDbEntity
  8
1
  6
CONTINUOUS
 62
           7
100
AcDbLine
 10
-321.679786643681
 20
357.000000000001
 11
-306.679786643681
 21
357.000000000001
  0
LINE
  5
436
100
AcDbEntity
  8
1
  6
CONTINUOUS
 62
           3
100
AcDbLine
 10
-109.900736350218
 20
265.5
 11
-145.900736350218
 21
265.5
  0
LINE
  5
435
100
AcDbEntity
  8
1
  6
CONTINUOUS
 62
           3
100
AcDbLine
 10
-108.400736350218
 20
241.0
 11
-108.400736350218
 21
264.0
  0
LINE
  5
434
100
AcDbEntity
  8
1
  6
CONTINUOUS
 62
           3
100
AcDbLine
 10
-145.900736350218
 20
239.5
 11
-109.900736350218
 21
239.5
  0
LINE
  5
433
100
AcDbEntity
  8
1
  6
CONTINUOUS
 62
           3
100
AcDbLine
 10
-147.400736350218
 20
264.0
 11
-147.400736350218
 21
241.0
  0
LINE
  5
432
100
AcDbEntity
  8
1
  6
CONTINUOUS
 62
           3
100
AcDbLine
 10
-94.648274634243
 20
273.824559566688
 11
-71.648274634243
 21
273.824559566688
  0
LINE
  5
431
100
AcDbEntity
  8
1
  6
CONTINUOUS
 62
           3
100
AcDbLine
 10
-70.148274634243
 20
274.973678700063
 11
-70.148274634243
 21
318.324559566688
  0
LINE
  5
430
100
AcDbEntity
  8
1
  6
CONTINUOUS
 62
           3
100
AcDbLine
 10
-71.648274634243
 20
319.824559566688
 11
-94.648274634243
 21
319.824559566688
  0
LINE
  5
42F
100
AcDbEntity
  8
1
  6
CONTINUOUS
 62
           3
100
AcDbLine
 10
-96.148274634243
 20
318.675440433314
 11
-96.148274634243
 21
275.324559566688
  0
LINE
  5
42E
100
AcDbEntity
  8
1
  6
CONTINUOUS
 62
           7
100
AcDbLine
 10
-183.470699759719
 20
328.250000000001
 11
-182.749011923232
 21
329.500000000001
  0
LINE
  5
42D
100
AcDbEntity
  8
1
  6
CONTINUOUS
 62
           7
100
AcDbLine
 10
-184.914075432693
 20
328.250000000001
 11
-183.470699759719
 21
328.250000000001
  0
LINE
  5
42C
100
AcDbEntity
  8
1
  6
CONTINUOUS
 62
           7
100
AcDbLine
 10
-185.635763269181
 20
329.500000000001
 11
-184.914075432693
 21
328.250000000001
  0
LINE
  5
42B
100
AcDbEntity
  8
1
  6
CONTINUOUS
 62
           7
100
AcDbLine
 10
-184.914075432693
 20
330.750000000001
 11
-185.635763269181
 21
329.500000000001
  0
LINE
  5
42A
100
AcDbEntity
  8
1
  6
CONTINUOUS
 62
           7
100
AcDbLine
 10
-183.470699759719
 20
330.750000000001
 11
-184.914075432693
 21
330.750000000001
  0
LINE
  5
429
100
AcDbEntity
  8
1
  6
CONTINUOUS
 62
           7
100
AcDbLine
 10
-182.749011923232
 20
329.500000000001
 11
-183.470699759719
 21
330.750000000001
  0
LINE
  5
428
100
AcDbEntity
  8
1
  6
CONTINUOUS
 62
           7
100
AcDbLine
 10
-96.650736350218
 20
352.569963409502
 11
-95.400736350218
 21
351.848275573015
  0
LINE
  5
427
100
AcDbEntity
  8
1
  6
CONTINUOUS
 62
           7
100
AcDbLine
 10
-96.650736350218
 20
354.013339082476
 11
-96.650736350218
 21
352.569963409502
  0
LINE
  5
426
100
AcDbEntity
  8
1
  6
CONTINUOUS
 62
           7
100
AcDbLine
 10
-95.400736350218
 20
354.735026918963
 11
-96.650736350218
 21
354.013339082476
  0
LINE
  5
425
100
AcDbEntity
  8
1
  6
CONTINUOUS
 62
           7
100
AcDbLine
 10
-94.150736350218
 20
354.013339082476
 11
-95.400736350218
 21
354.735026918963
  0
LINE
  5
424
100
AcDbEntity
  8
1
  6
CONTINUOUS
 62
           7
100
AcDbLine
 10
-94.150736350218
 20
352.569963409502
 11
-94.150736350218
 21
354.013339082476
  0
LINE
  5
423
100
AcDbEntity
  8
1
  6
CONTINUOUS
 62
           7
100
AcDbLine
 10
-95.400736350218
 20
351.848275573015
 11
-94.150736350218
 21
352.569963409502
  0
LINE
  5
422
100
AcDbEntity
  8
1
  6
CONTINUOUS
 62
           7
100
AcDbLine
 10
-72.330772940716
 20
265.750000000001
 11
-73.052460777203
 21
264.5
  0
LINE
  5
421
100
AcDbEntity
  8
1
  6
CONTINUOUS
 62
           7
100
AcDbLine
 10
-70.887397267742
 20
265.750000000001
 11
-72.330772940716
 21
265.750000000001
  0
LINE
  5
420
100
AcDbEntity
  8
1
  6
CONTINUOUS
 62
           7
100
AcDbLine
 10
-70.165709431255
 20
264.500000000001
 11
-70.887397267742
 21
265.750000000001
  0
LINE
  5
41F
100
AcDbEntity
  8
1
  6
CONTINUOUS
 62
           7
100
AcDbLine
 10
-70.887397267742
 20
263.25
 11
-70.165709431255
 21
264.500000000001
  0
LINE
  5
41E
100
AcDbEntity
  8
1
  6
CONTINUOUS
 62
           7
100
AcDbLine
 10
-72.330772940716
 20
263.250000000001
 11
-70.887397267742
 21
263.25
  0
LINE
  5
41D
100
AcDbEntity
  8
1
  6
CONTINUOUS
 62
           7
100
AcDbLine
 10
-73.052460777203
 20
264.5
 11
-72.330772940716
 21
263.250000000001
  0
LINE
  5
41C
100
AcDbEntity
  8
1
  6
CONTINUOUS
 62
           7
100
AcDbLine
 10
-160.400736350218
 20
242.151724426986
 11
-161.650736350218
 21
241.430036590499
  0
LINE
  5
41B
100
AcDbEntity
  8
1
  6
CONTINUOUS
 62
           7
100
AcDbLine
 10
-161.650736350218
 20
241.430036590499
 11
-161.650736350218
 21
239.986660917525
  0
LINE
  5
41A
100
AcDbEntity
  8
1
  6
CONTINUOUS
 62
           7
100
AcDbLine
 10
-161.650736350218
 20
239.986660917525
 11
-160.400736350218
 21
239.264973081038
  0
LINE
  5
419
100
AcDbEntity
  8
1
  6
CONTINUOUS
 62
           7
100
AcDbLine
 10
-160.400736350218
 20
239.264973081038
 11
-159.150736350218
 21
239.986660917525
  0
LINE
  5
418
100
AcDbEntity
  8
1
  6
CONTINUOUS
 62
           7
100
AcDbLine
 10
-159.150736350218
 20
239.986660917525
 11
-159.150736350218
 21
241.430036590499
  0
LINE
  5
417
100
AcDbEntity
  8
1
  6
CONTINUOUS
 62
           7
100
AcDbLine
 10
-159.150736350218
 20
241.430036590499
 11
-160.400736350218
 21
242.151724426986
  0
LINE
  5
416
100
AcDbEntity
  8
1
  6
CONTINUOUS
 62
           7
100
AcDbLine
 10
-112.864791662682
 20
206.739705751692
 11
-111.159054608341
 21
207.040473272291
  0
LINE
  5
415
100
AcDbEntity
  8
1
  6
CONTINUOUS
 62
           7
100
AcDbLine
 10
-113.978132503324
 20
208.066533612629
 11
-112.864791662682
 21
206.739705751692
  0
LINE
  5
414
100
AcDbEntity
  8
1
  6
CONTINUOUS
 62
           7
100
AcDbLine
 10
-113.385736289625
 20
209.694128994164
 11
-113.978132503324
 21
208.066533612629
  0
LINE
  5
413
100
AcDbEntity
  8
1
  6
CONTINUOUS
 62
           7
100
AcDbLine
 10
-111.679999235284
 20
209.994896514763
 11
-113.385736289625
 21
209.694128994164
  0
LINE
  5
412
100
AcDbEntity
  8
1
  6
CONTINUOUS
 62
           7
100
AcDbLine
 10
-110.566658394642
 20
208.668068653826
 11
-111.679999235284
 21
209.994896514763
  0
LINE
  5
411
100
AcDbEntity
  8
1
  6
CONTINUOUS
 62
           7
100
AcDbLine
 10
-111.159054608341
 20
207.040473272291
 11
-110.566658394642
 21
208.668068653826
  0
LINE
  5
410
100
AcDbEntity
  8
1
  6
CONTINUOUS
 62
           7
100
AcDbLine
 10
-41.622660020657
 20
266.518958326686
 11
-42.736000861299
 21
267.845786187622
  0
LINE
  5
40F
100
AcDbEntity
  8
1
  6
CONTINUOUS
 62
           7
100
AcDbLine
 10
-42.736000861299
 20
267.845786187622
 11
-44.441737915641
 21
267.545018667024
  0
LINE
  5
40E
100
AcDbEntity
  8
1
  6
CONTINUOUS
 62
           7
100
AcDbLine
 10
-44.441737915641
 20
267.545018667024
 11
-45.03413412934
 21
265.917423285489
  0
LINE
  5
40D
100
AcDbEntity
  8
1
  6
CONTINUOUS
 62
           7
100
AcDbLine
 10
-45.03413412934
 20
265.917423285489
 11
-43.920793288698
 21
264.590595424552
  0
LINE
  5
40C
100
AcDbEntity
  8
1
  6
CONTINUOUS
 62
           7
100
AcDbLine
 10
-43.920793288698
 20
264.590595424552
 11
-42.215056234356
 21
264.89136294515
  0
LINE
  5
40B
100
AcDbEntity
  8
1
  6
CONTINUOUS
 62
           7
100
AcDbLine
 10
-42.215056234356
 20
264.89136294515
 11
-41.622660020657
 21
266.518958326686
  0
LINE
  5
40A
100
AcDbEntity
  8
1
  6
CONTINUOUS
 62
           7
100
AcDbLine
 10
-58.364341762534
 20
356.478485054395
 11
-60.070078816876
 21
356.177717533797
  0
LINE
  5
409
100
AcDbEntity
  8
1
  6
CONTINUOUS
 62
           7
100
AcDbLine
 10
-60.070078816876
 20
356.177717533797
 11
-60.662475030575
 21
354.550122152262
  0
LINE
  5
408
100
AcDbEntity
  8
1
  6
CONTINUOUS
 62
           7
100
AcDbLine
 10
-60.662475030575
 20
354.550122152262
 11
-59.549134189933
 21
353.223294291325
  0
LINE
  5
407
100
AcDbEntity
  8
1
  6
CONTINUOUS
 62
           7
100
AcDbLine
 10
-59.549134189933
 20
353.223294291325
 11
-57.843397135591
 21
353.524061811923
  0
LINE
  5
406
100
AcDbEntity
  8
1
  6
CONTINUOUS
 62
           7
100
AcDbLine
 10
-57.843397135591
 20
353.524061811923
 11
-57.251000921892
 21
355.151657193459
  0
LINE
  5
405
100
AcDbEntity
  8
1
  6
CONTINUOUS
 62
           7
100
AcDbLine
 10
-57.251000921892
 20
355.151657193459
 11
-58.364341762534
 21
356.478485054395
  0
LINE
  5
404
100
AcDbEntity
  8
1
  6
CONTINUOUS
 62
           7
100
AcDbLine
 10
-144.642418092095
 20
386.959526727711
 11
-145.234814305794
 21
385.331931346176
  0
LINE
  5
403
100
AcDbEntity
  8
1
  6
CONTINUOUS
 62
           7
100
AcDbLine
 10
-145.234814305794
 20
385.331931346176
 11
-144.121473465152
 21
384.005103485239
  0
LINE
  5
402
100
AcDbEntity
  8
1
  6
CONTINUOUS
 62
           7
100
AcDbLine
 10
-144.121473465152
 20
384.005103485239
 11
-142.415736410811
 21
384.305871005837
  0
LINE
  5
401
100
AcDbEntity
  8
1
  6
CONTINUOUS
 62
           7
100
AcDbLine
 10
-142.415736410811
 20
384.305871005837
 11
-141.823340197111
 21
385.933466387372
  0
LINE
  5
400
100
AcDbEntity
  8
1
  6
CONTINUOUS
 62
           7
100
AcDbLine
 10
-141.823340197111
 20
385.933466387372
 11
-142.936681037754
 21
387.260294248309
  0
LINE
  5
3FF
100
AcDbEntity
  8
1
  6
CONTINUOUS
 62
           7
100
AcDbLine
 10
-142.936681037754
 20
387.260294248309
 11
-144.642418092095
 21
386.959526727711
  0
LINE
  5
3FE
100
AcDbEntity
  8
1
  6
CONTINUOUS
 62
           7
100
AcDbLine
 10
-214.178812679778
 20
327.481041673316
 11
-213.065471839136
 21
326.154213812379
  0
LINE
  5
3FD
100
AcDbEntity
  8
1
  6
CONTINUOUS
 62
           7
100
AcDbLine
 10
-213.065471839136
 20
326.154213812379
 11
-211.359734784795
 21
326.454981332978
  0
LINE
  5
3FC
100
AcDbEntity
  8
1
  6
CONTINUOUS
 62
           7
100
AcDbLine
 10
-211.359734784795
 20
326.454981332978
 11
-210.767338571096
 21
328.082576714513
  0
LINE
  5
3FB
100
AcDbEntity
  8
1
  6
CONTINUOUS
 62
           7
100
AcDbLine
 10
-210.767338571096
 20
328.082576714513
 11
-211.880679411738
 21
329.40940457545
  0
LINE
  5
3FA
100
AcDbEntity
  8
1
  6
CONTINUOUS
 62
           7
100
AcDbLine
 10
-211.880679411738
 20
329.40940457545
 11
-213.586416466079
 21
329.108637054851
  0
LINE
  5
3F9
100
AcDbEntity
  8
1
  6
CONTINUOUS
 62
           7
100
AcDbLine
 10
-213.586416466079
 20
329.108637054851
 11
-214.178812679778
 21
327.481041673316
  0
LINE
  5
3F8
100
AcDbEntity
  8
1
  6
CONTINUOUS
 62
           7
100
AcDbLine
 10
-197.437130937901
 20
237.521514945606
 11
-195.73139388356
 21
237.822282466205
  0
LINE
  5
3F7
100
AcDbEntity
  8
1
  6
CONTINUOUS
 62
           7
100
AcDbLine
 10
-195.73139388356
 20
237.822282466205
 11
-195.138997669861
 21
239.44987784774
  0
LINE
  5
3F6
100
AcDbEntity
  8
1
  6
CONTINUOUS
 62
           7
100
AcDbLine
 10
-195.138997669861
 20
239.44987784774
 11
-196.252338510503
 21
240.776705708677
  0
LINE
  5
3F5
100
AcDbEntity
  8
1
  6
CONTINUOUS
 62
           7
100
AcDbLine
 10
-196.252338510503
 20
240.776705708677
 11
-197.958075564844
 21
240.475938188078
  0
LINE
  5
3F4
100
AcDbEntity
  8
1
  6
CONTINUOUS
 62
           7
100
AcDbLine
 10
-197.958075564844
 20
240.475938188078
 11
-198.550471778543
 21
238.848342806543
  0
LINE
  5
3F3
100
AcDbEntity
  8
1
  6
CONTINUOUS
 62
           7
100
AcDbLine
 10
-198.550471778543
 20
238.848342806543
 11
-197.437130937901
 21
237.521514945606
  0
LINE
  5
3F2
100
AcDbEntity
  8
1
  6
CONTINUOUS
 62
           3
100
AcDbLine
 10
-481.075786637327
 20
477.995000000001
 11
-480.075786637327
 21
477.995000000001
  0
LINE
  5
3F1
100
AcDbEntity
  8
1
  6
CONTINUOUS
 62
           3
100
AcDbLine
 10
-481.075786637327
 20
478.095
 11
-480.075786637327
 21
478.095
  0
LINE
  5
3F0
100
AcDbEntity
  8
1
  6
CONTINUOUS
 62
           3
100
AcDbLine
 10
-481.075786637327
 20
478.195
 11
-480.075786637327
 21
478.195
  0
LINE
  5
3EF
100
AcDbEntity
  8
1
  6
CONTINUOUS
 62
           3
100
AcDbLine
 10
-481.075786637327
 20
478.295
 11
-480.075786637327
 21
478.295
  0
LINE
  5
3EE
100
AcDbEntity
  8
1
  6
CONTINUOUS
 62
           3
100
AcDbLine
 10
-479.975786637327
 20
477.445
 11
-479.975786637327
 21
478.945
  0
LINE
  5
3ED
100
AcDbEntity
  8
1
  6
CONTINUOUS
 62
           3
100
AcDbLine
 10
-479.975786637327
 20
480.745
 11
-479.975786637327
 21
482.245000000001
  0
LINE
  5
3EC
100
AcDbEntity
  8
1
  6
CONTINUOUS
 62
           3
100
AcDbLine
 10
-480.075786637327
 20
478.845
 11
-480.075786637327
 21
477.445
  0
LINE
  5
3EB
100
AcDbEntity
  8
1
  6
CONTINUOUS
 62
           3
100
AcDbLine
 10
-481.075786637327
 20
478.845
 11
-481.075786637327
 21
477.445
  0
LINE
  5
3EA
100
AcDbEntity
  8
1
  6
CONTINUOUS
 62
           3
100
AcDbLine
 10
-479.875786637327
 20
482.245000000001
 11
-479.875786637327
 21
484.295
  0
LINE
  5
3E9
100
AcDbEntity
  8
1
  6
CONTINUOUS
 62
           3
100
AcDbLine
 10
-479.875786637327
 20
478.945
 11
-481.175786637327
 21
478.945
  0
LINE
  5
3E8
100
AcDbEntity
  8
1
  6
CONTINUOUS
 62
           3
100
AcDbLine
 10
-481.175786637327
 20
478.945
 11
-481.175786637327
 21
477.445
  0
LINE
  5
3E7
100
AcDbEntity
  8
1
  6
CONTINUOUS
 62
           3
100
AcDbLine
 10
-481.175786637327
 20
477.445
 11
-479.975786637327
 21
477.445
  0
LINE
  5
3E6
100
AcDbEntity
  8
1
  6
CONTINUOUS
 62
           3
100
AcDbLine
 10
-481.175786637327
 20
480.745
 11
-479.875786637327
 21
480.745
  0
LINE
  5
3E5
100
AcDbEntity
  8
1
  6
CONTINUOUS
 62
           3
100
AcDbLine
 10
-481.175786637327
 20
482.245000000001
 11
-481.175786637327
 21
480.745
  0
LINE
  5
3E4
100
AcDbEntity
  8
1
  6
CONTINUOUS
 62
           3
100
AcDbLine
 10
-479.875786637327
 20
482.245000000001
 11
-481.175786637327
 21
482.245000000001
  0
LINE
  5
3E3
100
AcDbEntity
  8
1
  6
CONTINUOUS
 62
           3
100
AcDbLine
 10
-477.325786637326
 20
482.245000000001
 11
-477.325786637326
 21
484.295
  0
LINE
  5
3E2
100
AcDbEntity
  8
1
  6
CONTINUOUS
 62
           3
100
AcDbLine
 10
-477.325786637326
 20
484.295
 11
-476.325786637327
 21
484.295
  0
LINE
  5
3E1
100
AcDbEntity
  8
1
  6
CONTINUOUS
 62
           3
100
AcDbLine
 10
-478.825786637326
 20
484.295
 11
-478.825786637326
 21
482.245000000001
  0
LINE
  5
3E0
100
AcDbEntity
  8
1
  6
CONTINUOUS
 62
           3
100
AcDbLine
 10
-479.875786637327
 20
484.295
 11
-478.825786637326
 21
484.295
  0
LINE
  5
3DF
100
AcDbEntity
  8
1
  6
CONTINUOUS
 62
           3
100
AcDbLine
 10
-479.875786637327
 20
478.945
 11
-479.875786637327
 21
480.745
  0
LINE
  5
3DE
100
AcDbEntity
  8
1
  6
CONTINUOUS
 62
           3
100
AcDbLine
 10
-481.025786637327
 20
480.145
 11
-481.025786637327
 21
479.545
  0
LINE
  5
3DD
100
AcDbEntity
  8
1
  6
CONTINUOUS
 62
           3
100
AcDbLine
 10
-481.025786637327
 20
479.545
 11
-480.125786637327
 21
479.545
  0
LINE
  5
3DC
100
AcDbEntity
  8
1
  6
CONTINUOUS
 62
           3
100
AcDbLine
 10
-480.125786637327
 20
479.545
 11
-480.125786637327
 21
480.145
  0
LINE
  5
3DB
100
AcDbEntity
  8
1
  6
CONTINUOUS
 62
           3
100
AcDbLine
 10
-480.125786637327
 20
480.145
 11
-481.025786637327
 21
480.145
  0
LINE
  5
3DA
100
AcDbEntity
  8
1
  6
CONTINUOUS
 62
           3
100
AcDbLine
 10
-477.575786637327
 20
480.145
 11
-478.575786637326
 21
480.145
  0
LINE
  5
3D9
100
AcDbEntity
  8
1
  6
CONTINUOUS
 62
           3
100
AcDbLine
 10
-477.575786637327
 20
479.545
 11
-477.575786637327
 21
480.145
  0
LINE
  5
3D8
100
AcDbEntity
  8
1
  6
CONTINUOUS
 62
           3
100
AcDbLine
 10
-478.575786637326
 20
479.545
 11
-477.575786637327
 21
479.545
  0
LINE
  5
3D7
100
AcDbEntity
  8
1
  6
CONTINUOUS
 62
           3
100
AcDbLine
 10
-478.575786637326
 20
480.145
 11
-478.575786637326
 21
479.545
  0
LINE
  5
3D6
100
AcDbEntity
  8
1
  6
CONTINUOUS
 62
           3
100
AcDbLine
 10
-478.575786637326
 20
483.445
 11
-478.575786637326
 21
482.845
  0
LINE
  5
3D5
100
AcDbEntity
  8
1
  6
CONTINUOUS
 62
           3
100
AcDbLine
 10
-478.575786637326
 20
482.845
 11
-477.575786637327
 21
482.845
  0
LINE
  5
3D4
100
AcDbEntity
  8
1
  6
CONTINUOUS
 62
           3
100
AcDbLine
 10
-477.575786637327
 20
482.845
 11
-477.575786637327
 21
483.445
  0
LINE
  5
3D3
100
AcDbEntity
  8
1
  6
CONTINUOUS
 62
           3
100
AcDbLine
 10
-477.575786637327
 20
483.445
 11
-478.575786637326
 21
483.445
  0
LINE
  5
3D2
100
AcDbEntity
  8
1
  6
CONTINUOUS
 62
           3
100
AcDbLine
 10
-480.075786637327
 20
483.445
 11
-481.075786637327
 21
483.445
  0
LINE
  5
3D1
100
AcDbEntity
  8
1
  6
CONTINUOUS
 62
           3
100
AcDbLine
 10
-480.075786637327
 20
482.845
 11
-480.075786637327
 21
483.445
  0
LINE
  5
3D0
100
AcDbEntity
  8
1
  6
CONTINUOUS
 62
           3
100
AcDbLine
 10
-481.075786637327
 20
482.845
 11
-480.075786637327
 21
482.845
  0
LINE
  5
3CF
100
AcDbEntity
  8
1
  6
CONTINUOUS
 62
           3
100
AcDbLine
 10
-481.075786637327
 20
483.445
 11
-481.075786637327
 21
482.845
  0
LINE
  5
3CE
100
AcDbEntity
  8
1
  6
CONTINUOUS
 62
           7
100
AcDbLine
 10
-483.075786637326
 20
485.895
 11
-470.575786637326
 21
485.895
  0
LINE
  5
3CD
100
AcDbEntity
  8
1
  6
CONTINUOUS
 62
           7
100
AcDbLine
 10
-470.325786637326
 20
485.645
 11
-470.325786637326
 21
475.595
  0
LINE
  5
3CC
100
AcDbEntity
  8
1
  6
CONTINUOUS
 62
           7
100
AcDbLine
 10
-471.325786637326
 20
474.595
 11
-482.325786637326
 21
474.595
  0
LINE
  5
3CB
100
AcDbEntity
  8
1
  6
CONTINUOUS
 62
           7
100
AcDbLine
 10
-483.325786637326
 20
475.595
 11
-483.325786637326
 21
485.645
  0
LINE
  5
3CA
100
AcDbEntity
  8
1
  6
CONTINUOUS
 62
           3
100
AcDbLine
 10
-470.825786637326
 20
485.295
 11
-471.325786637326
 21
484.795
  0
LINE
  5
3C9
100
AcDbEntity
  8
1
  6
CONTINUOUS
 62
           3
100
AcDbLine
 10
-482.825786637326
 20
485.295
 11
-482.325786637326
 21
484.795
  0
LINE
  5
3C8
100
AcDbEntity
  8
1
  6
CONTINUOUS
 62
           3
100
AcDbLine
 10
-470.825786637326
 20
485.295
 11
-470.825786637326
 21
477.095
  0
LINE
  5
3C7
100
AcDbEntity
  8
1
  6
CONTINUOUS
 62
           3
100
AcDbLine
 10
-482.825786637326
 20
485.295
 11
-482.825786637326
 21
477.095
  0
LINE
  5
3C6
100
AcDbEntity
  8
1
  6
CONTINUOUS
 62
           3
100
AcDbLine
 10
-482.825786637326
 20
485.295
 11
-470.825786637326
 21
485.295
  0
LINE
  5
3C5
100
AcDbEntity
  8
1
  6
CONTINUOUS
 62
           3
100
AcDbLine
 10
-475.325786637326
 20
484.795
 11
-471.325786637326
 21
484.795
  0
LINE
  5
3C4
100
AcDbEntity
  8
1
  6
CONTINUOUS
 62
           3
100
AcDbLine
 10
-475.575786637326
 20
485.045
 11
-475.325786637326
 21
484.795
  0
LINE
  5
3C3
100
AcDbEntity
  8
1
  6
CONTINUOUS
 62
           3
100
AcDbLine
 10
-478.075786637326
 20
485.045
 11
-475.575786637326
 21
485.045
  0
LINE
  5
3C2
100
AcDbEntity
  8
1
  6
CONTINUOUS
 62
           3
100
AcDbLine
 10
-478.325786637326
 20
484.795
 11
-478.075786637326
 21
485.045
  0
LINE
  5
3C1
100
AcDbEntity
  8
1
  6
CONTINUOUS
 62
           3
100
AcDbLine
 10
-483.325786637326
 20
485.645
 11
-470.325786637326
 21
485.645
  0
LINE
  5
3C0
100
AcDbEntity
  8
1
  6
CONTINUOUS
 62
           3
100
AcDbLine
 10
-470.575786637326
 20
485.895
 11
-470.575786637326
 21
477.095
  0
LINE
  5
3BF
100
AcDbEntity
  8
1
  6
CONTINUOUS
 62
           3
100
AcDbLine
 10
-483.075786637326
 20
477.095
 11
-483.075786637326
 21
485.895
  0
LINE
  5
3BE
100
AcDbEntity
  8
1
  6
CONTINUOUS
 62
           7
100
AcDbLine
 10
-470.575786637326
 20
485.895
 11
-470.325786637326
 21
485.645
  0
LINE
  5
3BD
100
AcDbEntity
  8
1
  6
CONTINUOUS
 62
           7
100
AcDbLine
 10
-483.075786637326
 20
485.895
 11
-483.325786637326
 21
485.645
  0
LINE
  5
3BC
100
AcDbEntity
  8
1
  6
CONTINUOUS
 62
           3
100
AcDbLine
 10
-471.325786637326
 20
477.095
 11
-470.325786637326
 21
477.095
  0
LINE
  5
3BB
100
AcDbEntity
  8
1
  6
CONTINUOUS
 62
           3
100
AcDbLine
 10
-483.325786637326
 20
477.095
 11
-482.325786637326
 21
477.095
  0
LINE
  5
3BA
100
AcDbEntity
  8
1
  6
CONTINUOUS
 62
           7
100
AcDbLine
 10
-471.325786637326
 20
474.595
 11
-470.325786637326
 21
475.595
  0
LINE
  5
3B9
100
AcDbEntity
  8
1
  6
CONTINUOUS
 62
           7
100
AcDbLine
 10
-483.325786637326
 20
475.595
 11
-482.325786637326
 21
474.595
  0
LINE
  5
3B8
100
AcDbEntity
  8
1
  6
CONTINUOUS
 62
           3
100
AcDbLine
 10
-474.325786637326
 20
475.695
 11
-479.325786637326
 21
475.695
  0
LINE
  5
3B7
100
AcDbEntity
  8
1
  6
CONTINUOUS
 62
           3
100
AcDbLine
 10
-480.325786637327
 20
475.695
 11
-482.325786637326
 21
475.695
  0
LINE
  5
3B6
100
AcDbEntity
  8
1
  6
CONTINUOUS
 62
           3
100
AcDbLine
 10
-471.325786637326
 20
475.695
 11
-473.325786637326
 21
475.695
  0
LINE
  5
3B5
100
AcDbEntity
  8
1
  6
CONTINUOUS
 62
           3
100
AcDbLine
 10
-473.325786637326
 20
476.695
 11
-473.325786637326
 21
475.695
  0
LINE
  5
3B4
100
AcDbEntity
  8
1
  6
CONTINUOUS
 62
           3
100
AcDbLine
 10
-474.325786637326
 20
476.695
 11
-473.325786637326
 21
476.695
  0
LINE
  5
3B3
100
AcDbEntity
  8
1
  6
CONTINUOUS
 62
           3
100
AcDbLine
 10
-474.325786637326
 20
475.695
 11
-474.325786637326
 21
476.695
  0
LINE
  5
3B2
100
AcDbEntity
  8
1
  6
CONTINUOUS
 62
           3
100
AcDbLine
 10
-479.325786637326
 20
477.195
 11
-479.325786637326
 21
475.695
  0
LINE
  5
3B1
100
AcDbEntity
  8
1
  6
CONTINUOUS
 62
           3
100
AcDbLine
 10
-480.325786637327
 20
477.195
 11
-479.325786637326
 21
477.195
  0
LINE
  5
3B0
100
AcDbEntity
  8
1
  6
CONTINUOUS
 62
           3
100
AcDbLine
 10
-480.325786637327
 20
475.695
 11
-480.325786637327
 21
477.195
  0
LINE
  5
3AF
100
AcDbEntity
  8
1
  6
CONTINUOUS
 62
           3
100
AcDbLine
 10
-482.325786637326
 20
475.695
 11
-482.325786637326
 21
484.795
  0
LINE
  5
3AE
100
AcDbEntity
  8
1
  6
CONTINUOUS
 62
           3
100
AcDbLine
 10
-471.325786637326
 20
484.795
 11
-471.325786637326
 21
475.695
  0
LINE
  5
3AD
100
AcDbEntity
  8
1
  6
CONTINUOUS
 62
           3
100
AcDbLine
 10
-482.325786637326
 20
484.795
 11
-478.325786637326
 21
484.795
  0
LINE
  5
3AC
100
AcDbEntity
  8
1
  6
CONTINUOUS
 62
           3
100
AcDbLine
 10
-481.075786637327
 20
478.845
 11
-480.075786637327
 21
478.845
  0
LINE
  5
3AB
100
AcDbEntity
  8
1
  6
CONTINUOUS
 62
           3
100
AcDbLine
 10
-481.075786637327
 20
478.245000000001
 11
-481.175786637327
 21
478.245000000001
  0
LINE
  5
3AA
100
AcDbEntity
  8
1
  6
CONTINUOUS
 62
           3
100
AcDbLine
 10
-480.075786637327
 20
478.045
 11
-479.975786637327
 21
478.045
  0
LINE
  5
3A9
100
AcDbEntity
  8
1
  6
CONTINUOUS
 62
           3
100
AcDbLine
 10
-479.975786637327
 20
478.545
 11
-478.675786637327
 21
478.545
  0
LINE
  5
3A8
100
AcDbEntity
  8
1
  6
CONTINUOUS
 62
           3
100
AcDbLine
 10
-481.075786637327
 20
481.545
 11
-481.175786637327
 21
481.545
  0
LINE
  5
3A7
100
AcDbEntity
  8
1
  6
CONTINUOUS
 62
           3
100
AcDbLine
 10
-481.075786637327
 20
482.145
 11
-480.075786637327
 21
482.145
  0
LINE
  5
3A6
100
AcDbEntity
  8
1
  6
CONTINUOUS
 62
           3
100
AcDbLine
 10
-481.075786637327
 20
481.595
 11
-480.075786637327
 21
481.595
  0
LINE
  5
3A5
100
AcDbEntity
  8
1
  6
CONTINUOUS
 62
           3
100
AcDbLine
 10
-481.075786637327
 20
481.495
 11
-480.075786637327
 21
481.495
  0
LINE
  5
3A4
100
AcDbEntity
  8
1
  6
CONTINUOUS
 62
           3
100
AcDbLine
 10
-481.075786637327
 20
481.395
 11
-480.075786637327
 21
481.395
  0
LINE
  5
3A3
100
AcDbEntity
  8
1
  6
CONTINUOUS
 62
           3
100
AcDbLine
 10
-481.075786637327
 20
481.295
 11
-480.075786637327
 21
481.295
  0
LINE
  5
3A2
100
AcDbEntity
  8
1
  6
CONTINUOUS
 62
           3
100
AcDbLine
 10
-480.075786637327
 20
482.145
 11
-480.075786637327
 21
480.745
  0
LINE
  5
3A1
100
AcDbEntity
  8
1
  6
CONTINUOUS
 62
           3
100
AcDbLine
 10
-481.075786637327
 20
482.145
 11
-481.075786637327
 21
480.745
  0
LINE
  5
3A0
100
AcDbEntity
  8
1
  6
CONTINUOUS
 62
           3
100
AcDbLine
 10
-480.075786637327
 20
481.345
 11
-479.975786637327
 21
481.345
  0
LINE
  5
39F
100
AcDbEntity
  8
1
  6
CONTINUOUS
 62
           3
100
AcDbLine
 10
-478.675786637327
 20
481.145
 11
-479.975786637327
 21
481.145
  0
LINE
  5
39E
100
AcDbEntity
  8
1
  6
CONTINUOUS
 62
           3
100
AcDbLine
 10
-477.575786637327
 20
481.345
 11
-477.475786637327
 21
481.345
  0
LINE
  5
39D
100
AcDbEntity
  8
1
  6
CONTINUOUS
 62
           3
100
AcDbLine
 10
-478.575786637326
 20
482.145
 11
-478.575786637326
 21
480.745
  0
LINE
  5
39C
100
AcDbEntity
  8
1
  6
CONTINUOUS
 62
           3
100
AcDbLine
 10
-477.575786637327
 20
482.145
 11
-477.575786637327
 21
480.745
  0
LINE
  5
39B
100
AcDbEntity
  8
1
  6
CONTINUOUS
 62
           3
100
AcDbLine
 10
-478.575786637326
 20
481.295
 11
-477.575786637327
 21
481.295
  0
LINE
  5
39A
100
AcDbEntity
  8
1
  6
CONTINUOUS
 62
           3
100
AcDbLine
 10
-478.575786637326
 20
481.395
 11
-477.575786637327
 21
481.395
  0
LINE
  5
399
100
AcDbEntity
  8
1
  6
CONTINUOUS
 62
           3
100
AcDbLine
 10
-478.575786637326
 20
481.495
 11
-477.575786637327
 21
481.495
  0
LINE
  5
398
100
AcDbEntity
  8
1
  6
CONTINUOUS
 62
           3
100
AcDbLine
 10
-478.575786637326
 20
481.595
 11
-477.575786637327
 21
481.595
  0
LINE
  5
397
100
AcDbEntity
  8
1
  6
CONTINUOUS
 62
           3
100
AcDbLine
 10
-478.575786637326
 20
482.145
 11
-477.575786637327
 21
482.145
  0
LINE
  5
396
100
AcDbEntity
  8
1
  6
CONTINUOUS
 62
           3
100
AcDbLine
 10
-478.575786637326
 20
481.545
 11
-478.675786637327
 21
481.545
  0
LINE
  5
395
100
AcDbEntity
  8
1
  6
CONTINUOUS
 62
           3
100
AcDbLine
 10
-477.325786637326
 20
482.245000000001
 11
-478.825786637326
 21
482.245000000001
  0
LINE
  5
394
100
AcDbEntity
  8
1
  6
CONTINUOUS
 62
           3
100
AcDbLine
 10
-478.675786637327
 20
482.245000000001
 11
-478.675786637327
 21
480.745
  0
LINE
  5
393
100
AcDbEntity
  8
1
  6
CONTINUOUS
 62
           3
100
AcDbLine
 10
-478.775786637327
 20
480.745
 11
-477.375786637327
 21
480.745
  0
LINE
  5
392
100
AcDbEntity
  8
1
  6
CONTINUOUS
 62
           3
100
AcDbLine
 10
-477.475786637327
 20
480.745
 11
-477.475786637327
 21
482.245000000001
  0
LINE
  5
391
100
AcDbEntity
  8
1
  6
CONTINUOUS
 62
           3
100
AcDbLine
 10
-477.375786637327
 20
478.945
 11
-477.375786637327
 21
480.745
  0
LINE
  5
390
100
AcDbEntity
  8
1
  6
CONTINUOUS
 62
           3
100
AcDbLine
 10
-477.575786637327
 20
478.045
 11
-477.475786637327
 21
478.045
  0
LINE
  5
38F
100
AcDbEntity
  8
1
  6
CONTINUOUS
 62
           3
100
AcDbLine
 10
-478.575786637326
 20
478.245000000001
 11
-478.675786637327
 21
478.245000000001
  0
LINE
  5
38E
100
AcDbEntity
  8
1
  6
CONTINUOUS
 62
           3
100
AcDbLine
 10
-478.575786637326
 20
478.845
 11
-477.575786637327
 21
478.845
  0
LINE
  5
38D
100
AcDbEntity
  8
1
  6
CONTINUOUS
 62
           3
100
AcDbLine
 10
-478.675786637327
 20
477.445
 11
-477.475786637327
 21
477.445
  0
LINE
  5
38C
100
AcDbEntity
  8
1
  6
CONTINUOUS
 62
           3
100
AcDbLine
 10
-478.675786637327
 20
478.945
 11
-478.675786637327
 21
477.445
  0
LINE
  5
38B
100
AcDbEntity
  8
1
  6
CONTINUOUS
 62
           3
100
AcDbLine
 10
-477.375786637327
 20
478.945
 11
-478.775786637327
 21
478.945
  0
LINE
  5
38A
100
AcDbEntity
  8
1
  6
CONTINUOUS
 62
           3
100
AcDbLine
 10
-478.575786637326
 20
478.845
 11
-478.575786637326
 21
477.445
  0
LINE
  5
389
100
AcDbEntity
  8
1
  6
CONTINUOUS
 62
           3
100
AcDbLine
 10
-477.575786637327
 20
478.845
 11
-477.575786637327
 21
477.445
  0
LINE
  5
388
100
AcDbEntity
  8
1
  6
CONTINUOUS
 62
           3
100
AcDbLine
 10
-477.475786637327
 20
477.445
 11
-477.475786637327
 21
478.945
  0
LINE
  5
387
100
AcDbEntity
  8
1
  6
CONTINUOUS
 62
           3
100
AcDbLine
 10
-478.575786637326
 20
478.295
 11
-477.575786637327
 21
478.295
  0
LINE
  5
386
100
AcDbEntity
  8
1
  6
CONTINUOUS
 62
           3
100
AcDbLine
 10
-478.575786637326
 20
478.195
 11
-477.575786637327
 21
478.195
  0
LINE
  5
385
100
AcDbEntity
  8
1
  6
CONTINUOUS
 62
           3
100
AcDbLine
 10
-478.575786637326
 20
478.095
 11
-477.575786637327
 21
478.095
  0
LINE
  5
384
100
AcDbEntity
  8
1
  6
CONTINUOUS
 62
           3
100
AcDbLine
 10
-478.575786637326
 20
477.995000000001
 11
-477.575786637327
 21
477.995000000001
  0
LINE
  5
383
100
AcDbEntity
  8
1
  6
CONTINUOUS
 62
           3
100
AcDbLine
 10
-478.775786637327
 20
480.745
 11
-478.775786637327
 21
478.945
  0
LINE
  5
382
100
AcDbEntity
  8
1
  6
CONTINUOUS
 62
           3
100
AcDbLine
 10
-476.275786637327
 20
480.745
 11
-476.275786637327
 21
478.945
  0
LINE
  5
381
100
AcDbEntity
  8
1
  6
CONTINUOUS
 62
           3
100
AcDbLine
 10
-476.075786637327
 20
477.995000000001
 11
-475.075786637326
 21
477.995000000001
  0
LINE
  5
380
100
AcDbEntity
  8
1
  6
CONTINUOUS
 62
           3
100
AcDbLine
 10
-476.075786637327
 20
478.095
 11
-475.075786637326
 21
478.095
  0
LINE
  5
37F
100
AcDbEntity
  8
1
  6
CONTINUOUS
 62
           3
100
AcDbLine
 10
-476.075786637327
 20
478.195
 11
-475.075786637326
 21
478.195
  0
LINE
  5
37E
100
AcDbEntity
  8
1
  6
CONTINUOUS
 62
           3
100
AcDbLine
 10
-476.075786637327
 20
478.295
 11
-475.075786637326
 21
478.295
  0
LINE
  5
37D
100
AcDbEntity
  8
1
  6
CONTINUOUS
 62
           3
100
AcDbLine
 10
-474.975786637327
 20
477.445
 11
-474.975786637327
 21
478.945
  0
LINE
  5
37C
100
AcDbEntity
  8
1
  6
CONTINUOUS
 62
           3
100
AcDbLine
 10
-475.075786637326
 20
478.845
 11
-475.075786637326
 21
477.445
  0
LINE
  5
37B
100
AcDbEntity
  8
1
  6
CONTINUOUS
 62
           3
100
AcDbLine
 10
-476.075786637327
 20
478.845
 11
-476.075786637327
 21
477.445
  0
LINE
  5
37A
100
AcDbEntity
  8
1
  6
CONTINUOUS
 62
           3
100
AcDbLine
 10
-474.875786637327
 20
478.945
 11
-476.275786637327
 21
478.945
  0
LINE
  5
379
100
AcDbEntity
  8
1
  6
CONTINUOUS
 62
           3
100
AcDbLine
 10
-476.175786637326
 20
478.945
 11
-476.175786637326
 21
477.445
  0
LINE
  5
378
100
AcDbEntity
  8
1
  6
CONTINUOUS
 62
           3
100
AcDbLine
 10
-476.175786637326
 20
477.445
 11
-474.975786637327
 21
477.445
  0
LINE
  5
377
100
AcDbEntity
  8
1
  6
CONTINUOUS
 62
           3
100
AcDbLine
 10
-476.075786637327
 20
478.845
 11
-475.075786637326
 21
478.845
  0
LINE
  5
376
100
AcDbEntity
  8
1
  6
CONTINUOUS
 62
           3
100
AcDbLine
 10
-476.075786637327
 20
478.245000000001
 11
-476.175786637326
 21
478.245000000001
  0
LINE
  5
375
100
AcDbEntity
  8
1
  6
CONTINUOUS
 62
           3
100
AcDbLine
 10
-475.075786637326
 20
478.045
 11
-474.975786637327
 21
478.045
  0
LINE
  5
374
100
AcDbEntity
  8
1
  6
CONTINUOUS
 62
           3
100
AcDbLine
 10
-474.875786637327
 20
478.945
 11
-474.875786637327
 21
480.745
  0
LINE
  5
373
100
AcDbEntity
  8
1
  6
CONTINUOUS
 62
           3
100
AcDbLine
 10
-474.975786637327
 20
480.745
 11
-474.975786637327
 21
482.245000000001
  0
LINE
  5
372
100
AcDbEntity
  8
1
  6
CONTINUOUS
 62
           3
100
AcDbLine
 10
-476.275786637327
 20
480.745
 11
-474.875786637327
 21
480.745
  0
LINE
  5
371
100
AcDbEntity
  8
1
  6
CONTINUOUS
 62
           3
100
AcDbLine
 10
-476.175786637326
 20
482.245000000001
 11
-476.175786637326
 21
480.745
  0
LINE
  5
370
100
AcDbEntity
  8
1
  6
CONTINUOUS
 62
           3
100
AcDbLine
 10
-474.825786637326
 20
482.245000000001
 11
-476.325786637327
 21
482.245000000001
  0
LINE
  5
36F
100
AcDbEntity
  8
1
  6
CONTINUOUS
 62
           3
100
AcDbLine
 10
-476.075786637327
 20
481.545
 11
-476.175786637326
 21
481.545
  0
LINE
  5
36E
100
AcDbEntity
  8
1
  6
CONTINUOUS
 62
           3
100
AcDbLine
 10
-476.075786637327
 20
482.145
 11
-475.075786637326
 21
482.145
  0
LINE
  5
36D
100
AcDbEntity
  8
1
  6
CONTINUOUS
 62
           3
100
AcDbLine
 10
-476.075786637327
 20
481.595
 11
-475.075786637326
 21
481.595
  0
LINE
  5
36C
100
AcDbEntity
  8
1
  6
CONTINUOUS
 62
           3
100
AcDbLine
 10
-476.075786637327
 20
481.495
 11
-475.075786637326
 21
481.495
  0
LINE
  5
36B
100
AcDbEntity
  8
1
  6
CONTINUOUS
 62
           3
100
AcDbLine
 10
-476.075786637327
 20
481.395
 11
-475.075786637326
 21
481.395
  0
LINE
  5
36A
100
AcDbEntity
  8
1
  6
CONTINUOUS
 62
           3
100
AcDbLine
 10
-476.075786637327
 20
481.295
 11
-475.075786637326
 21
481.295
  0
LINE
  5
369
100
AcDbEntity
  8
1
  6
CONTINUOUS
 62
           3
100
AcDbLine
 10
-475.075786637326
 20
482.145
 11
-475.075786637326
 21
480.745
  0
LINE
  5
368
100
AcDbEntity
  8
1
  6
CONTINUOUS
 62
           3
100
AcDbLine
 10
-476.075786637327
 20
482.145
 11
-476.075786637327
 21
480.745
  0
LINE
  5
367
100
AcDbEntity
  8
1
  6
CONTINUOUS
 62
           3
100
AcDbLine
 10
-475.075786637326
 20
481.345
 11
-474.975786637327
 21
481.345
  0
LINE
  5
366
100
AcDbEntity
  8
1
  6
CONTINUOUS
 62
           3
100
AcDbLine
 10
-475.075786637326
 20
483.445
 11
-476.075786637327
 21
483.445
  0
LINE
  5
365
100
AcDbEntity
  8
1
  6
CONTINUOUS
 62
           3
100
AcDbLine
 10
-475.075786637326
 20
482.845
 11
-475.075786637326
 21
483.445
  0
LINE
  5
364
100
AcDbEntity
  8
1
  6
CONTINUOUS
 62
           3
100
AcDbLine
 10
-476.075786637327
 20
482.845
 11
-475.075786637326
 21
482.845
  0
LINE
  5
363
100
AcDbEntity
  8
1
  6
CONTINUOUS
 62
           3
100
AcDbLine
 10
-476.075786637327
 20
483.445
 11
-476.075786637327
 21
482.845
  0
LINE
  5
362
100
AcDbEntity
  8
1
  6
CONTINUOUS
 62
           3
100
AcDbLine
 10
-476.325786637327
 20
484.295
 11
-476.325786637327
 21
482.245000000001
  0
LINE
  5
361
100
AcDbEntity
  8
1
  6
CONTINUOUS
 62
           3
100
AcDbLine
 10
-474.825786637326
 20
482.245000000001
 11
-474.825786637326
 21
484.295
  0
LINE
  5
360
100
AcDbEntity
  8
1
  6
CONTINUOUS
 62
           3
100
AcDbLine
 10
-475.075786637326
 20
479.545
 11
-475.075786637326
 21
480.145
  0
LINE
  5
35F
100
AcDbEntity
  8
1
  6
CONTINUOUS
 62
           3
100
AcDbLine
 10
-476.075786637327
 20
479.545
 11
-475.075786637326
 21
479.545
  0
LINE
  5
35E
100
AcDbEntity
  8
1
  6
CONTINUOUS
 62
           3
100
AcDbLine
 10
-475.075786637326
 20
479.545
 11
-475.075786637326
 21
480.145
  0
LINE
  5
35D
100
AcDbEntity
  8
1
  6
CONTINUOUS
 62
           3
100
AcDbLine
 10
-476.075786637327
 20
479.545
 11
-475.075786637326
 21
479.545
  0
LINE
  5
35C
100
AcDbEntity
  8
1
  6
CONTINUOUS
 62
           3
100
AcDbLine
 10
-475.075786637326
 20
480.145
 11
-476.075786637327
 21
480.145
  0
LINE
  5
35B
100
AcDbEntity
  8
1
  6
CONTINUOUS
 62
           3
100
AcDbLine
 10
-476.075786637327
 20
480.145
 11
-476.075786637327
 21
479.545
  0
LINE
  5
35A
100
AcDbEntity
  8
1
  6
CONTINUOUS
 62
           3
100
AcDbLine
 10
-475.075786637326
 20
480.145
 11
-476.075786637327
 21
480.145
  0
LINE
  5
359
100
AcDbEntity
  8
1
  6
CONTINUOUS
 62
           3
100
AcDbLine
 10
-476.075786637327
 20
480.145
 11
-476.075786637327
 21
479.545
  0
LINE
  5
358
100
AcDbEntity
  8
1
  6
CONTINUOUS
 62
           3
100
AcDbLine
 10
-474.825786637326
 20
484.295
 11
-473.825786637327
 21
484.295
  0
LINE
  5
357
100
AcDbEntity
  8
1
  6
CONTINUOUS
 62
           3
100
AcDbLine
 10
-473.675786637327
 20
481.345
 11
-473.575786637327
 21
481.345
  0
LINE
  5
356
100
AcDbEntity
  8
1
  6
CONTINUOUS
 62
           3
100
AcDbLine
 10
-472.575786637327
 20
480.745
 11
-472.575786637327
 21
482.145
  0
LINE
  5
355
100
AcDbEntity
  8
1
  6
CONTINUOUS
 62
           3
100
AcDbLine
 10
-473.575786637327
 20
480.745
 11
-473.575786637327
 21
482.145
  0
LINE
  5
354
100
AcDbEntity
  8
1
  6
CONTINUOUS
 62
           3
100
AcDbLine
 10
-473.575786637327
 20
481.295
 11
-472.575786637327
 21
481.295
  0
LINE
  5
353
100
AcDbEntity
  8
1
  6
CONTINUOUS
 62
           3
100
AcDbLine
 10
-473.575786637327
 20
481.395
 11
-472.575786637327
 21
481.395
  0
LINE
  5
352
100
AcDbEntity
  8
1
  6
CONTINUOUS
 62
           3
100
AcDbLine
 10
-473.575786637327
 20
481.495
 11
-472.575786637327
 21
481.495
  0
LINE
  5
351
100
AcDbEntity
  8
1
  6
CONTINUOUS
 62
           3
100
AcDbLine
 10
-473.575786637327
 20
481.595
 11
-472.575786637327
 21
481.595
  0
LINE
  5
350
100
AcDbEntity
  8
1
  6
CONTINUOUS
 62
           3
100
AcDbLine
 10
-473.575786637327
 20
482.145
 11
-472.575786637327
 21
482.145
  0
LINE
  5
34F
100
AcDbEntity
  8
1
  6
CONTINUOUS
 62
           3
100
AcDbLine
 10
-472.475786637327
 20
481.545
 11
-472.575786637327
 21
481.545
  0
LINE
  5
34E
100
AcDbEntity
  8
1
  6
CONTINUOUS
 62
           3
100
AcDbLine
 10
-473.675786637327
 20
478.045
 11
-473.575786637327
 21
478.045
  0
LINE
  5
34D
100
AcDbEntity
  8
1
  6
CONTINUOUS
 62
           3
100
AcDbLine
 10
-472.475786637327
 20
478.245000000001
 11
-472.575786637327
 21
478.245000000001
  0
LINE
  5
34C
100
AcDbEntity
  8
1
  6
CONTINUOUS
 62
           3
100
AcDbLine
 10
-473.575786637327
 20
478.845
 11
-472.575786637327
 21
478.845
  0
LINE
  5
34B
100
AcDbEntity
  8
1
  6
CONTINUOUS
 62
           3
100
AcDbLine
 10
-472.575786637327
 20
482.845
 11
-472.575786637327
 21
483.445
  0
LINE
  5
34A
100
AcDbEntity
  8
1
  6
CONTINUOUS
 62
           3
100
AcDbLine
 10
-473.575786637327
 20
482.845
 11
-472.575786637327
 21
482.845
  0
LINE
  5
349
100
AcDbEntity
  8
1
  6
CONTINUOUS
 62
           3
100
AcDbLine
 10
-473.575786637327
 20
483.445
 11
-473.575786637327
 21
482.845
  0
LINE
  5
348
100
AcDbEntity
  8
1
  6
CONTINUOUS
 62
           3
100
AcDbLine
 10
-472.575786637327
 20
483.445
 11
-473.575786637327
 21
483.445
  0
LINE
  5
347
100
AcDbEntity
  8
1
  6
CONTINUOUS
 62
           3
100
AcDbLine
 10
-472.625786637327
 20
480.145
 11
-473.525786637327
 21
480.145
  0
LINE
  5
346
100
AcDbEntity
  8
1
  6
CONTINUOUS
 62
           3
100
AcDbLine
 10
-473.525786637327
 20
480.145
 11
-473.525786637327
 21
479.545
  0
LINE
  5
345
100
AcDbEntity
  8
1
  6
CONTINUOUS
 62
           3
100
AcDbLine
 10
-473.525786637327
 20
479.545
 11
-472.625786637327
 21
479.545
  0
LINE
  5
344
100
AcDbEntity
  8
1
  6
CONTINUOUS
 62
           3
100
AcDbLine
 10
-472.625786637327
 20
479.545
 11
-472.625786637327
 21
480.145
  0
LINE
  5
343
100
AcDbEntity
  8
1
  6
CONTINUOUS
 62
           3
100
AcDbLine
 10
-473.775786637327
 20
480.745
 11
-473.775786637327
 21
478.945
  0
LINE
  5
342
100
AcDbEntity
  8
1
  6
CONTINUOUS
 62
           3
100
AcDbLine
 10
-472.475786637327
 20
482.245000000001
 11
-473.775786637327
 21
482.245000000001
  0
LINE
  5
341
100
AcDbEntity
  8
1
  6
CONTINUOUS
 62
           3
100
AcDbLine
 10
-472.475786637327
 20
480.745
 11
-472.475786637327
 21
482.245000000001
  0
LINE
  5
340
100
AcDbEntity
  8
1
  6
CONTINUOUS
 62
           3
100
AcDbLine
 10
-473.775786637327
 20
480.745
 11
-472.475786637327
 21
480.745
  0
LINE
  5
33F
100
AcDbEntity
  8
1
  6
CONTINUOUS
 62
           3
100
AcDbLine
 10
-473.675786637327
 20
477.445
 11
-472.475786637327
 21
477.445
  0
LINE
  5
33E
100
AcDbEntity
  8
1
  6
CONTINUOUS
 62
           3
100
AcDbLine
 10
-472.475786637327
 20
477.445
 11
-472.475786637327
 21
478.945
  0
LINE
  5
33D
100
AcDbEntity
  8
1
  6
CONTINUOUS
 62
           3
100
AcDbLine
 10
-472.475786637327
 20
478.945
 11
-473.775786637327
 21
478.945
  0
LINE
  5
33C
100
AcDbEntity
  8
1
  6
CONTINUOUS
 62
           3
100
AcDbLine
 10
-473.775786637327
 20
484.295
 11
-473.775786637327
 21
482.245000000001
  0
LINE
  5
33B
100
AcDbEntity
  8
1
  6
CONTINUOUS
 62
           3
100
AcDbLine
 10
-472.575786637327
 20
477.445
 11
-472.575786637327
 21
478.845
  0
LINE
  5
33A
100
AcDbEntity
  8
1
  6
CONTINUOUS
 62
           3
100
AcDbLine
 10
-473.575786637327
 20
477.445
 11
-473.575786637327
 21
478.845
  0
LINE
  5
339
100
AcDbEntity
  8
1
  6
CONTINUOUS
 62
           3
100
AcDbLine
 10
-473.675786637327
 20
482.245000000001
 11
-473.675786637327
 21
480.745
  0
LINE
  5
338
100
AcDbEntity
  8
1
  6
CONTINUOUS
 62
           3
100
AcDbLine
 10
-473.675786637327
 20
478.945
 11
-473.675786637327
 21
477.445
  0
LINE
  5
337
100
AcDbEntity
  8
1
  6
CONTINUOUS
 62
           3
100
AcDbLine
 10
-473.575786637327
 20
478.295
 11
-472.575786637327
 21
478.295
  0
LINE
  5
336
100
AcDbEntity
  8
1
  6
CONTINUOUS
 62
           3
100
AcDbLine
 10
-473.575786637327
 20
478.195
 11
-472.575786637327
 21
478.195
  0
LINE
  5
335
100
AcDbEntity
  8
1
  6
CONTINUOUS
 62
           3
100
AcDbLine
 10
-473.575786637327
 20
478.095
 11
-472.575786637327
 21
478.095
  0
LINE
  5
334
100
AcDbEntity
  8
1
  6
CONTINUOUS
 62
           3
100
AcDbLine
 10
-473.575786637327
 20
477.995000000001
 11
-472.575786637327
 21
477.995000000001
  0
LINE
  5
333
100
AcDbEntity
  8
1
  6
CONTINUOUS
 62
           7
100
AcDbLine
 10
-333.379786643681
 20
347.500000000001
 11
-334.179786643681
 21
347.500000000001
  0
LINE
  5
332
100
AcDbEntity
  8
1
  6
CONTINUOUS
 62
           7
100
AcDbLine
 10
-334.179786643681
 20
349.200000000001
 11
-336.179786643681
 21
349.200000000001
  0
LINE
  5
331
100
AcDbEntity
  8
1
  6
CONTINUOUS
 62
           7
100
AcDbLine
 10
-336.179786643681
 20
350.500000000001
 11
-334.179786643681
 21
350.500000000001
  0
LINE
  5
330
100
AcDbEntity
  8
1
  6
CONTINUOUS
 62
           3
100
AcDbLine
 10
-333.37978664368
 20
348.000000000001
 11
-334.179786643681
 21
348.000000000001
  0
LINE
  5
32F
100
AcDbEntity
  8
1
  6
CONTINUOUS
 62
           7
100
AcDbLine
 10
-334.179786643681
 20
346.500000000001
 11
-336.179786643681
 21
346.500000000001
  0
LINE
  5
32E
100
AcDbEntity
  8
1
  6
CONTINUOUS
 62
           7
100
AcDbLine
 10
-334.179786643681
 20
359.500000000001
 11
-334.179786643681
 21
346.500000000001
  0
LINE
  5
32D
100
AcDbEntity
  8
1
  6
CONTINUOUS
 62
           7
100
AcDbLine
 10
-333.379786643681
 20
358.500000000001
 11
-334.179786643681
 21
358.500000000001
  0
LINE
  5
32C
100
AcDbEntity
  8
1
  6
CONTINUOUS
 62
           7
100
AcDbLine
 10
-324.679786643681
 20
355.500000000001
 11
-333.379786643681
 21
355.500000000001
  0
LINE
  5
32B
100
AcDbEntity
  8
1
  6
CONTINUOUS
 62
           7
100
AcDbLine
 10
-324.679786643681
 20
356.800000000001
 11
-324.679786643681
 21
355.500000000001
  0
LINE
  5
32A
100
AcDbEntity
  8
1
  6
CONTINUOUS
 62
           7
100
AcDbLine
 10
-333.379786643681
 20
356.800000000001
 11
-324.679786643681
 21
356.800000000001
  0
LINE
  5
329
100
AcDbEntity
  8
1
  6
CONTINUOUS
 62
           7
100
AcDbLine
 10
-324.679786643681
 20
350.500000000001
 11
-333.379786643681
 21
350.500000000001
  0
LINE
  5
328
100
AcDbEntity
  8
1
  6
CONTINUOUS
 62
           7
100
AcDbLine
 10
-324.679786643681
 20
349.200000000001
 11
-324.679786643681
 21
350.500000000001
  0
LINE
  5
327
100
AcDbEntity
  8
1
  6
CONTINUOUS
 62
           7
100
AcDbLine
 10
-333.379786643681
 20
349.200000000001
 11
-324.679786643681
 21
349.200000000001
  0
LINE
  5
326
100
AcDbEntity
  8
1
  6
CONTINUOUS
 62
           7
100
AcDbLine
 10
-324.679786643681
 20
359.500000000001
 11
-333.379786643681
 21
359.500000000001
  0
LINE
  5
325
100
AcDbEntity
  8
1
  6
CONTINUOUS
 62
           7
100
AcDbLine
 10
-324.679786643681
 20
346.500000000001
 11
-333.379786643681
 21
346.500000000001
  0
LINE
  5
324
100
AcDbEntity
  8
1
  6
CONTINUOUS
 62
           7
100
AcDbLine
 10
-323.179786643681
 20
358.500000000001
 11
-324.679786643681
 21
359.500000000001
  0
LINE
  5
323
100
AcDbEntity
  8
1
  6
CONTINUOUS
 62
           7
100
AcDbLine
 10
-323.179786643681
 20
347.5
 11
-324.679786643681
 21
346.500000000001
  0
LINE
  5
322
100
AcDbEntity
  8
1
  6
CONTINUOUS
 62
           7
100
AcDbLine
 10
-323.179786643681
 20
358.500000000001
 11
-323.179786643681
 21
347.5
  0
LINE
  5
321
100
AcDbEntity
  8
1
  6
CONTINUOUS
 62
           3
100
AcDbLine
 10
-333.379786643681
 20
358.000000000001
 11
-334.179786643681
 21
358.000000000001
  0
LINE
  5
320
100
AcDbEntity
  8
1
  6
CONTINUOUS
 62
           7
100
AcDbLine
 10
-333.379786643681
 20
359.500000000001
 11
-333.379786643681
 21
346.500000000001
  0
LINE
  5
31F
100
AcDbEntity
  8
1
  6
CONTINUOUS
 62
           7
100
AcDbLine
 10
-336.179786643681
 20
359.500000000001
 11
-334.179786643681
 21
359.500000000001
  0
LINE
  5
31E
100
AcDbEntity
  8
1
  6
CONTINUOUS
 62
           7
100
AcDbLine
 10
-334.179786643681
 20
356.800000000001
 11
-336.179786643681
 21
356.800000000001
  0
LINE
  5
31D
100
AcDbEntity
  8
1
  6
CONTINUOUS
 62
           7
100
AcDbLine
 10
-334.179786643681
 20
355.500000000001
 11
-336.179786643681
 21
355.500000000001
  0
LINE
  5
31C
100
AcDbEntity
  8
1
  6
CONTINUOUS
 62
           7
100
AcDbLine
 10
-323.179786643681
 20
358.000000000001
 11
-321.679786643681
 21
357.700000000001
  0
LINE
  5
31B
100
AcDbEntity
  8
1
  6
CONTINUOUS
 62
           7
100
AcDbLine
 10
-321.679786643681
 20
357.700000000001
 11
-321.679786643681
 21
348.300000000001
  0
LINE
  5
31A
100
AcDbEntity
  8
1
  6
CONTINUOUS
 62
           7
100
AcDbLine
 10
-321.679786643681
 20
348.300000000001
 11
-323.179786643681
 21
348.000000000001
  0
LINE
  5
319
100
AcDbEntity
  8
1
  6
CONTINUOUS
 62
           7
100
AcDbLine
 10
-337.229786643682
 20
331.000000000001
 11
-337.229786643682
 21
327.558680344425
  0
LINE
  5
318
100
AcDbEntity
  8
1
  6
PHANTOM
 62
           7
100
AcDbLine
 10
-612.626067998047
 20
137.759403354972
 11
-768.626067998047
 21
137.759403354972
  0
LINE
  5
317
100
AcDbEntity
  8
1
  6
PHANTOM
 62
           7
100
AcDbLine
 10
-606.626067998047
 20
87.759403354972
 11
-606.626067998047
 21
131.759403354972
  0
LINE
  5
316
100
AcDbEntity
  8
1
  6
PHANTOM
 62
           7
100
AcDbLine
 10
-768.626067998047
 20
81.759403354972
 11
-612.626067998047
 21
81.759403354972
  0
LINE
  5
315
100
AcDbEntity
  8
1
  6
PHANTOM
 62
           7
100
AcDbLine
 10
-774.626067998047
 20
131.759403354972
 11
-774.626067998047
 21
87.759403354972
  0
POINT
  5
314
100
AcDbEntity
  8
1
 62
         250
100
AcDbPoint
 10
-337.179786643681
 20
225.660194025814
  0
POINT
  5
313
100
AcDbEntity
  8
1
 62
         250
100
AcDbPoint
 10
-337.179786643681
 20
225.660194025814
  0
POINT
  5
312
100
AcDbEntity
  8
1
 62
         250
100
AcDbPoint
 10
-336.679786643681
 20
226.311660519163
  0
POINT
  5
311
100
AcDbEntity
  8
1
 62
         250
100
AcDbPoint
 10
-336.679786643681
 20
368.339805974188
  0
INSERT
  5
1B4
100
AcDbEntity
  8
0
100
AcDbBlockReference
  2
SHG_65_2UH__G______2
 10
0.0
 20
0.0
 41
1.0
 42
1.0
 43
1.0
  0
INSERT
  5
1B5
100
AcDbEntity
  8
0
100
AcDbBlockReference
  2
SHG_65_2UH__G______3
 10
0.0
 20
0.0
  0
INSERT
  5
1B6
100
AcDbEntity
  8
0
100
AcDbBlockReference
  2
SHG_65_2UH__G______4
 10
0.0
 20
0.0
  0
INSERT
  5
1B7
100
AcDbEntity
  8
0
100
AcDbBlockReference
  2
SHG_65_2UH__G______5
 10
0.0
 20
0.0
  0
INSERT
  5
1B8
100
AcDbEntity
  8
0
100
AcDbBlockReference
  2
SHG_65_2UH__G______6
 10
0.0
 20
0.0
  0
INSERT
  5
1B9
100
AcDbEntity
  8
0
100
AcDbBlockReference
  2
SHG_65_2UH__G______7
 10
0.0
 20
0.0
  0
INSERT
  5
1BA
100
AcDbEntity
  8
0
100
AcDbBlockReference
  2
SHG_65_2UH__G______8
 10
0.0
 20
0.0
  0
INSERT
  5
1BB
100
AcDbEntity
  8
0
100
AcDbBlockReference
  2
SHG_65_2UH__G______9
 10
0.0
 20
0.0
  0
INSERT
  5
1BC
100
AcDbEntity
  8
0
100
AcDbBlockReference
  2
SHG_65_2UH__G______10
 10
0.0
 20
0.0
  0
INSERT
  5
1BD
100
AcDbEntity
  8
0
100
AcDbBlockReference
  2
SHG_65_2UH__G______11
 10
0.0
 20
0.0
  0
INSERT
  5
1BE
100
AcDbEntity
  8
0
100
AcDbBlockReference
  2
SHG_65_2UH__G______12
 10
0.0
 20
0.0
  0
INSERT
  5
1BF
100
AcDbEntity
  8
0
100
AcDbBlockReference
  2
SHG_65_2UH__G______14
 10
0.0
 20
0.0
 41
1.0
 42
1.0
 43
1.0
  0
INSERT
  5
1C0
100
AcDbEntity
  8
0
100
AcDbBlockReference
  2
SHG_65_2UH__G______15
 10
0.0
 20
0.0
  0
INSERT
  5
1C1
100
AcDbEntity
  8
0
100
AcDbBlockReference
  2
SHG_65_2UH__G______17
 10
0.0
 20
0.0
 41
1.0
 42
1.0
 43
1.0
  0
INSERT
  5
1C2
100
AcDbEntity
  8
0
100
AcDbBlockReference
  2
SHG_65_2UH__G______18
 10
0.0
 20
0.0
  0
INSERT
  5
1C3
100
AcDbEntity
  8
0
100
AcDbBlockReference
  2
SHG_65_2UH__G______19
 10
0.0
 20
0.0
  0
INSERT
  5
1C4
100
AcDbEntity
  8
0
100
AcDbBlockReference
  2
SHG_65_2UH__G______20
 10
0.0
 20
0.0
  0
INSERT
  5
1C5
100
AcDbEntity
  8
0
100
AcDbBlockReference
  2
SHG_65_2UH__G______21
 10
0.0
 20
0.0
  0
INSERT
  5
1C6
100
AcDbEntity
  8
0
100
AcDbBlockReference
  2
SHG_65_2UH__G______22
 10
0.0
 20
0.0
  0
INSERT
  5
1C7
100
AcDbEntity
  8
0
100
AcDbBlockReference
  2
SHG_65_2UH__G______24
 10
0.0
 20
0.0
 41
1.0
 42
1.0
 43
1.0
  0
INSERT
  5
1C8
100
AcDbEntity
  8
0
100
AcDbBlockReference
  2
SHG_65_2UH__G______25
 10
0.0
 20
0.0
  0
INSERT
  5
1C9
100
AcDbEntity
  8
0
100
AcDbBlockReference
  2
SHG_65_2UH__G______26
 10
0.0
 20
0.0
  0
INSERT
  5
1CA
100
AcDbEntity
  8
0
100
AcDbBlockReference
  2
SHG_65_2UH__G______27
 10
0.0
 20
0.0
  0
INSERT
  5
1CB
100
AcDbEntity
  8
0
100
AcDbBlockReference
  2
SHG_65_2UH__G______28
 10
0.0
 20
0.0
  0
INSERT
  5
1CC
100
AcDbEntity
  8
0
100
AcDbBlockReference
  2
SHG_65_2UH__G______29
 10
0.0
 20
0.0
  0
INSERT
  5
1CD
100
AcDbEntity
  8
0
100
AcDbBlockReference
  2
SHG_65_2UH__G______30
 10
0.0
 20
0.0
  0
INSERT
  5
1CE
100
AcDbEntity
  8
0
100
AcDbBlockReference
  2
SHG_65_2UH__G______31
 10
0.0
 20
0.0
  0
INSERT
  5
1CF
100
AcDbEntity
  8
0
100
AcDbBlockReference
  2
SHG_65_2UH__G______32
 10
0.0
 20
0.0
  0
INSERT
  5
1D0
100
AcDbEntity
  8
0
100
AcDbBlockReference
  2
SHG_65_2UH__G______33
 10
0.0
 20
0.0
  0
INSERT
  5
1D1
100
AcDbEntity
  8
0
100
AcDbBlockReference
  2
SHG_65_2UH__G______34
 10
0.0
 20
0.0
  0
INSERT
  5
1D2
100
AcDbEntity
  8
0
100
AcDbBlockReference
  2
SHG_65_2UH__G______35
 10
0.0
 20
0.0
  0
INSERT
  5
1D3
100
AcDbEntity
  8
0
100
AcDbBlockReference
  2
SHG_65_2UH__G______36
 10
0.0
 20
0.0
  0
INSERT
  5
1D4
100
AcDbEntity
  8
0
100
AcDbBlockReference
  2
SHG_65_2UH__G______38
 10
0.0
 20
0.0
 41
1.0
 42
1.0
 43
1.0
  0
INSERT
  5
1D5
100
AcDbEntity
  8
0
100
AcDbBlockReference
  2
SHG_65_2UH__G______39
 10
0.0
 20
0.0
  0
INSERT
  5
1D6
100
AcDbEntity
  8
0
100
AcDbBlockReference
  2
SHG_65_2UH__G______40
 10
0.0
 20
0.0
  0
INSERT
  5
1D7
100
AcDbEntity
  8
0
100
AcDbBlockReference
  2
SHG_65_2UH__G______41
 10
0.0
 20
0.0
  0
INSERT
  5
1D8
100
AcDbEntity
  8
0
100
AcDbBlockReference
  2
SHG_65_2UH__G______42
 10
0.0
 20
0.0
  0
INSERT
  5
1D9
100
AcDbEntity
  8
0
100
AcDbBlockReference
  2
SHG_65_2UH__G______43
 10
0.0
 20
0.0
  0
INSERT
  5
1DA
100
AcDbEntity
  8
0
100
AcDbBlockReference
  2
SHG_65_2UH__G______45
 10
0.0
 20
0.0
 41
1.0
 42
1.0
 43
1.0
  0
INSERT
  5
1DB
100
AcDbEntity
  8
0
100
AcDbBlockReference
  2
SHG_65_2UH__G______46
 10
0.0
 20
0.0
  0
INSERT
  5
1DC
100
AcDbEntity
  8
0
100
AcDbBlockReference
  2
SHG_65_2UH__G______48
 10
0.0
 20
0.0
 41
1.0
 42
1.0
 43
1.0
  0
INSERT
  5
1DD
100
AcDbEntity
  8
0
100
AcDbBlockReference
  2
SHG_65_2UH__G______49
 10
0.0
 20
0.0
  0
INSERT
  5
1DE
100
AcDbEntity
  8
0
100
AcDbBlockReference
  2
SHG_65_2UH__G______50
 10
0.0
 20
0.0
  0
INSERT
  5
1DF
100
AcDbEntity
  8
0
100
AcDbBlockReference
  2
SHG_65_2UH__G______51
 10
0.0
 20
0.0
  0
INSERT
  5
1E0
100
AcDbEntity
  8
0
100
AcDbBlockReference
  2
SHG_65_2UH__G______52
 10
0.0
 20
0.0
  0
INSERT
  5
1E1
100
AcDbEntity
  8
0
100
AcDbBlockReference
  2
SHG_65_2UH__G______53
 10
0.0
 20
0.0
  0
INSERT
  5
1E2
100
AcDbEntity
  8
0
100
AcDbBlockReference
  2
SHG_65_2UH__G______54
 10
0.0
 20
0.0
  0
INSERT
  5
1E3
100
AcDbEntity
  8
0
100
AcDbBlockReference
  2
SHG_65_2UH__G______55
 10
0.0
 20
0.0
  0
INSERT
  5
1E4
100
AcDbEntity
  8
0
100
AcDbBlockReference
  2
SHG_65_2UH__G______56
 10
0.0
 20
0.0
  0
INSERT
  5
1E5
100
AcDbEntity
  8
0
100
AcDbBlockReference
  2
SHG_65_2UH__G______57
 10
0.0
 20
0.0
  0
INSERT
  5
1E6
100
AcDbEntity
  8
0
100
AcDbBlockReference
  2
SHG_65_2UH__G______58
 10
0.0
 20
0.0
  0
INSERT
  5
1E7
100
AcDbEntity
  8
0
100
AcDbBlockReference
  2
SHG_65_2UH__G______60
 10
0.0
 20
0.0
 41
1.0
 42
1.0
 43
1.0
  0
INSERT
  5
1E8
100
AcDbEntity
  8
0
100
AcDbBlockReference
  2
CSD_25_2A_W____61
 10
0.0
 20
0.0
  0
INSERT
  5
1E9
100
AcDbEntity
  8
0
100
AcDbBlockReference
  2
KS0206__62
 10
0.0
 20
0.0
  0
INSERT
  5
1EA
100
AcDbEntity
  8
0
100
AcDbBlockReference
  2
KS0206__63
 10
0.0
 20
0.0
  0
INSERT
  5
1EB
100
AcDbEntity
  8
0
100
AcDbBlockReference
  2
CSD_25_2A_W____64
 10
0.0
 20
0.0
  0
INSERT
  5
1EC
100
AcDbEntity
  8
0
100
AcDbBlockReference
  2
SHG_65_2UH__G______66
 10
0.0
 20
0.0
 41
1.0
 42
1.0
 43
1.0
  0
INSERT
  5
1ED
100
AcDbEntity
  8
0
100
AcDbBlockReference
  2
SHG_65_2UH__G______67
 10
0.0
 20
0.0
  0
INSERT
  5
1EE
100
AcDbEntity
  8
0
100
AcDbBlockReference
  2
SHG_65_2UH__G______68
 10
0.0
 20
0.0
  0
INSERT
  5
1EF
100
AcDbEntity
  8
0
100
AcDbBlockReference
  2
SHG_65_2UH__G______69
 10
0.0
 20
0.0
  0
INSERT
  5
1F0
100
AcDbEntity
  8
0
100
AcDbBlockReference
  2
SHG_65_2UH__G______70
 10
0.0
 20
0.0
  0
INSERT
  5
1F1
100
AcDbEntity
  8
0
100
AcDbBlockReference
  2
SHG_65_2UH__G______71
 10
0.0
 20
0.0
  0
INSERT
  5
1F2
100
AcDbEntity
  8
0
100
AcDbBlockReference
  2
SHG_65_2UH__G______72
 10
0.0
 20
0.0
  0
INSERT
  5
1F3
100
AcDbEntity
  8
0
100
AcDbBlockReference
  2
SHG_65_2UH__G______73
 10
0.0
 20
0.0
  0
INSERT
  5
1F4
100
AcDbEntity
  8
0
100
AcDbBlockReference
  2
SHG_65_2UH__G______74
 10
0.0
 20
0.0
  0
INSERT
  5
1F5
100
AcDbEntity
  8
0
100
AcDbBlockReference
  2
SHG_65_2UH__G______75
 10
0.0
 20
0.0
  0
INSERT
  5
1F6
100
AcDbEntity
  8
0
100
AcDbBlockReference
  2
SHG_65_2UH__G______76
 10
0.0
 20
0.0
  0
INSERT
  5
1F7
100
AcDbEntity
  8
0
100
AcDbBlockReference
  2
SHG_65_2UH__G______78
 10
0.0
 20
0.0
 41
1.0
 42
1.0
 43
1.0
  0
INSERT
  5
1F8
100
AcDbEntity
  8
0
100
AcDbBlockReference
  2
SHG_65_2UH__G______79
 10
0.0
 20
0.0
  0
INSERT
  5
1F9
100
AcDbEntity
  8
0
100
AcDbBlockReference
  2
SHG_65_2UH__G______81
 10
0.0
 20
0.0
 41
1.0
 42
1.0
 43
1.0
  0
INSERT
  5
1FA
100
AcDbEntity
  8
0
100
AcDbBlockReference
  2
SHG_65_2UH__G______82
 10
0.0
 20
0.0
  0
INSERT
  5
1FB
100
AcDbEntity
  8
0
100
AcDbBlockReference
  2
SHG_65_2UH__G______83
 10
0.0
 20
0.0
  0
INSERT
  5
1FC
100
AcDbEntity
  8
0
100
AcDbBlockReference
  2
SHG_65_2UH__G______84
 10
0.0
 20
0.0
  0
INSERT
  5
1FD
100
AcDbEntity
  8
0
100
AcDbBlockReference
  2
SHG_65_2UH__G______85
 10
0.0
 20
0.0
  0
INSERT
  5
1FE
100
AcDbEntity
  8
0
100
AcDbBlockReference
  2
SHG_65_2UH__G______86
 10
0.0
 20
0.0
  0
INSERT
  5
1FF
100
AcDbEntity
  8
0
100
AcDbBlockReference
  2
SHG_65_2UH__G______88
 10
0.0
 20
0.0
 41
1.0
 42
1.0
 43
1.0
  0
INSERT
  5
200
100
AcDbEntity
  8
0
100
AcDbBlockReference
  2
SHG_65_2UH__G______89
 10
0.0
 20
0.0
  0
INSERT
  5
201
100
AcDbEntity
  8
0
100
AcDbBlockReference
  2
SHG_65_2UH__G______90
 10
0.0
 20
0.0
  0
INSERT
  5
202
100
AcDbEntity
  8
0
100
AcDbBlockReference
  2
SHG_65_2UH__G______91
 10
0.0
 20
0.0
  0
INSERT
  5
203
100
AcDbEntity
  8
0
100
AcDbBlockReference
  2
SHG_65_2UH__G______92
 10
0.0
 20
0.0
  0
INSERT
  5
204
100
AcDbEntity
  8
0
100
AcDbBlockReference
  2
SHG_65_2UH__G______93
 10
0.0
 20
0.0
  0
INSERT
  5
205
100
AcDbEntity
  8
0
100
AcDbBlockReference
  2
SHG_65_2UH__G______94
 10
0.0
 20
0.0
  0
INSERT
  5
206
100
AcDbEntity
  8
0
100
AcDbBlockReference
  2
SHG_65_2UH__G______95
 10
0.0
 20
0.0
  0
INSERT
  5
207
100
AcDbEntity
  8
0
100
AcDbBlockReference
  2
SHG_65_2UH__G______96
 10
0.0
 20
0.0
  0
INSERT
  5
208
100
AcDbEntity
  8
0
100
AcDbBlockReference
  2
SHG_65_2UH__G______97
 10
0.0
 20
0.0
  0
INSERT
  5
209
100
AcDbEntity
  8
0
100
AcDbBlockReference
  2
SHG_65_2UH__G______98
 10
0.0
 20
0.0
  0
INSERT
  5
20A
100
AcDbEntity
  8
0
100
AcDbBlockReference
  2
SHG_65_2UH__G______99
 10
0.0
 20
0.0
  0
INSERT
  5
20B
100
AcDbEntity
  8
0
100
AcDbBlockReference
  2
SHG_65_2UH__G______100
 10
0.0
 20
0.0
  0
INSERT
  5
20C
100
AcDbEntity
  8
0
100
AcDbBlockReference
  2
SHG_65_2UH__G______102
 10
0.0
 20
0.0
 41
1.0
 42
1.0
 43
1.0
  0
INSERT
  5
20D
100
AcDbEntity
  8
0
100
AcDbBlockReference
  2
SHG_65_2UH__G______103
 10
0.0
 20
0.0
  0
INSERT
  5
20E
100
AcDbEntity
  8
0
100
AcDbBlockReference
  2
SHG_65_2UH__G______104
 10
0.0
 20
0.0
  0
INSERT
  5
20F
100
AcDbEntity
  8
0
100
AcDbBlockReference
  2
SHG_65_2UH__G______105
 10
0.0
 20
0.0
  0
INSERT
  5
210
100
AcDbEntity
  8
0
100
AcDbBlockReference
  2
SHG_65_2UH__G______106
 10
0.0
 20
0.0
  0
INSERT
  5
211
100
AcDbEntity
  8
0
100
AcDbBlockReference
  2
SHG_65_2UH__G______107
 10
0.0
 20
0.0
  0
INSERT
  5
212
100
AcDbEntity
  8
0
100
AcDbBlockReference
  2
SHG_65_2UH__G______109
 10
0.0
 20
0.0
 41
1.0
 42
1.0
 43
1.0
  0
INSERT
  5
213
100
AcDbEntity
  8
0
100
AcDbBlockReference
  2
SHG_65_2UH__G______110
 10
0.0
 20
0.0
  0
INSERT
  5
214
100
AcDbEntity
  8
0
100
AcDbBlockReference
  2
SHG_65_2UH__G______112
 10
0.0
 20
0.0
 41
1.0
 42
1.0
 43
1.0
  0
INSERT
  5
215
100
AcDbEntity
  8
0
100
AcDbBlockReference
  2
SHG_65_2UH__G______113
 10
0.0
 20
0.0
  0
INSERT
  5
216
100
AcDbEntity
  8
0
100
AcDbBlockReference
  2
SHG_65_2UH__G______114
 10
0.0
 20
0.0
  0
INSERT
  5
217
100
AcDbEntity
  8
0
100
AcDbBlockReference
  2
SHG_65_2UH__G______115
 10
0.0
 20
0.0
  0
INSERT
  5
218
100
AcDbEntity
  8
0
100
AcDbBlockReference
  2
SHG_65_2UH__G______116
 10
0.0
 20
0.0
  0
INSERT
  5
219
100
AcDbEntity
  8
0
100
AcDbBlockReference
  2
SHG_65_2UH__G______117
 10
0.0
 20
0.0
  0
INSERT
  5
21A
100
AcDbEntity
  8
0
100
AcDbBlockReference
  2
SHG_65_2UH__G______118
 10
0.0
 20
0.0
  0
INSERT
  5
21B
100
AcDbEntity
  8
0
100
AcDbBlockReference
  2
SHG_65_2UH__G______119
 10
0.0
 20
0.0
  0
INSERT
  5
21C
100
AcDbEntity
  8
0
100
AcDbBlockReference
  2
SHG_65_2UH__G______120
 10
0.0
 20
0.0
  0
INSERT
  5
21D
100
AcDbEntity
  8
0
100
AcDbBlockReference
  2
SHG_65_2UH__G______121
 10
0.0
 20
0.0
  0
INSERT
  5
21E
100
AcDbEntity
  8
0
100
AcDbBlockReference
  2
SHG_65_2UH__G______122
 10
0.0
 20
0.0
  0
INSERT
  5
21F
100
AcDbEntity
  8
0
100
AcDbBlockReference
  2
SHG_65_2UH__G______124
 10
0.0
 20
0.0
 41
1.0
 42
1.0
 43
1.0
  0
INSERT
  5
220
100
AcDbEntity
  8
0
100
AcDbBlockReference
  2
KS0206__125
 10
0.0
 20
0.0
  0
INSERT
  5
221
100
AcDbEntity
  8
0
100
AcDbBlockReference
  2
CSD_25_2A_W____126
 10
0.0
 20
0.0
  0
INSERT
  5
222
100
AcDbEntity
  8
0
100
AcDbBlockReference
  2
SHG_65_2UH__G______128
 10
0.0
 20
0.0
 41
1.0
 42
1.0
 43
1.0
  0
INSERT
  5
223
100
AcDbEntity
  8
0
100
AcDbBlockReference
  2
SHG_65_2UH__G______129
 10
0.0
 20
0.0
  0
INSERT
  5
224
100
AcDbEntity
  8
0
100
AcDbBlockReference
  2
SHG_65_2UH__G______130
 10
0.0
 20
0.0
  0
INSERT
  5
225
100
AcDbEntity
  8
0
100
AcDbBlockReference
  2
SHG_65_2UH__G______131
 10
0.0
 20
0.0
  0
INSERT
  5
226
100
AcDbEntity
  8
0
100
AcDbBlockReference
  2
SHG_65_2UH__G______132
 10
0.0
 20
0.0
  0
INSERT
  5
227
100
AcDbEntity
  8
0
100
AcDbBlockReference
  2
SHG_65_2UH__G______133
 10
0.0
 20
0.0
  0
INSERT
  5
228
100
AcDbEntity
  8
0
100
AcDbBlockReference
  2
SHG_65_2UH__G______134
 10
0.0
 20
0.0
  0
INSERT
  5
229
100
AcDbEntity
  8
0
100
AcDbBlockReference
  2
SHG_65_2UH__G______135
 10
0.0
 20
0.0
  0
INSERT
  5
22A
100
AcDbEntity
  8
0
100
AcDbBlockReference
  2
SHG_65_2UH__G______136
 10
0.0
 20
0.0
  0
INSERT
  5
22B
100
AcDbEntity
  8
0
100
AcDbBlockReference
  2
SHG_65_2UH__G______137
 10
0.0
 20
0.0
  0
INSERT
  5
22C
100
AcDbEntity
  8
0
100
AcDbBlockReference
  2
SHG_65_2UH__G______138
 10
0.0
 20
0.0
  0
INSERT
  5
22D
100
AcDbEntity
  8
0
100
AcDbBlockReference
  2
SHG_65_2UH__G______140
 10
0.0
 20
0.0
 41
1.0
 42
1.0
 43
1.0
  0
INSERT
  5
22E
100
AcDbEntity
  8
0
100
AcDbBlockReference
  2
SHG_65_2UH__G______141
 10
0.0
 20
0.0
  0
INSERT
  5
22F
100
AcDbEntity
  8
0
100
AcDbBlockReference
  2
SHG_65_2UH__G______143
 10
0.0
 20
0.0
 41
1.0
 42
1.0
 43
1.0
  0
INSERT
  5
230
100
AcDbEntity
  8
0
100
AcDbBlockReference
  2
SHG_65_2UH__G______144
 10
0.0
 20
0.0
  0
INSERT
  5
231
100
AcDbEntity
  8
0
100
AcDbBlockReference
  2
SHG_65_2UH__G______145
 10
0.0
 20
0.0
  0
INSERT
  5
232
100
AcDbEntity
  8
0
100
AcDbBlockReference
  2
SHG_65_2UH__G______146
 10
0.0
 20
0.0
  0
INSERT
  5
233
100
AcDbEntity
  8
0
100
AcDbBlockReference
  2
SHG_65_2UH__G______147
 10
0.0
 20
0.0
  0
INSERT
  5
234
100
AcDbEntity
  8
0
100
AcDbBlockReference
  2
SHG_65_2UH__G______148
 10
0.0
 20
0.0
  0
INSERT
  5
235
100
AcDbEntity
  8
0
100
AcDbBlockReference
  2
SHG_65_2UH__G______150
 10
0.0
 20
0.0
 41
1.0
 42
1.0
 43
1.0
  0
INSERT
  5
236
100
AcDbEntity
  8
0
100
AcDbBlockReference
  2
SHG_65_2UH__G______151
 10
0.0
 20
0.0
  0
INSERT
  5
237
100
AcDbEntity
  8
0
100
AcDbBlockReference
  2
SHG_65_2UH__G______152
 10
0.0
 20
0.0
  0
INSERT
  5
238
100
AcDbEntity
  8
0
100
AcDbBlockReference
  2
SHG_65_2UH__G______153
 10
0.0
 20
0.0
  0
INSERT
  5
239
100
AcDbEntity
  8
0
100
AcDbBlockReference
  2
SHG_65_2UH__G______154
 10
0.0
 20
0.0
  0
INSERT
  5
23A
100
AcDbEntity
  8
0
100
AcDbBlockReference
  2
SHG_65_2UH__G______155
 10
0.0
 20
0.0
  0
INSERT
  5
23B
100
AcDbEntity
  8
0
100
AcDbBlockReference
  2
SHG_65_2UH__G______156
 10
0.0
 20
0.0
  0
INSERT
  5
23C
100
AcDbEntity
  8
0
100
AcDbBlockReference
  2
SHG_65_2UH__G______157
 10
0.0
 20
0.0
  0
INSERT
  5
23D
100
AcDbEntity
  8
0
100
AcDbBlockReference
  2
SHG_65_2UH__G______158
 10
0.0
 20
0.0
  0
INSERT
  5
23E
100
AcDbEntity
  8
0
100
AcDbBlockReference
  2
SHG_65_2UH__G______159
 10
0.0
 20
0.0
  0
INSERT
  5
23F
100
AcDbEntity
  8
0
100
AcDbBlockReference
  2
SHG_65_2UH__G______160
 10
0.0
 20
0.0
  0
INSERT
  5
240
100
AcDbEntity
  8
0
100
AcDbBlockReference
  2
SHG_65_2UH__G______161
 10
0.0
 20
0.0
  0
INSERT
  5
241
100
AcDbEntity
  8
0
100
AcDbBlockReference
  2
SHG_65_2UH__G______162
 10
0.0
 20
0.0
  0
INSERT
  5
242
100
AcDbEntity
  8
0
100
AcDbBlockReference
  2
SHG_65_2UH__G______164
 10
0.0
 20
0.0
 41
1.0
 42
1.0
 43
1.0
  0
INSERT
  5
243
100
AcDbEntity
  8
0
100
AcDbBlockReference
  2
SHG_65_2UH__G______165
 10
0.0
 20
0.0
  0
INSERT
  5
244
100
AcDbEntity
  8
0
100
AcDbBlockReference
  2
SHG_65_2UH__G______166
 10
0.0
 20
0.0
  0
INSERT
  5
245
100
AcDbEntity
  8
0
100
AcDbBlockReference
  2
SHG_65_2UH__G______167
 10
0.0
 20
0.0
  0
INSERT
  5
246
100
AcDbEntity
  8
0
100
AcDbBlockReference
  2
SHG_65_2UH__G______168
 10
0.0
 20
0.0
  0
INSERT
  5
247
100
AcDbEntity
  8
0
100
AcDbBlockReference
  2
SHG_65_2UH__G______169
 10
0.0
 20
0.0
  0
INSERT
  5
248
100
AcDbEntity
  8
0
100
AcDbBlockReference
  2
SHG_65_2UH__G______171
 10
0.0
 20
0.0
 41
1.0
 42
1.0
 43
1.0
  0
INSERT
  5
249
100
AcDbEntity
  8
0
100
AcDbBlockReference
  2
SHG_65_2UH__G______172
 10
0.0
 20
0.0
  0
INSERT
  5
24A
100
AcDbEntity
  8
0
100
AcDbBlockReference
  2
SHG_65_2UH__G______174
 10
0.0
 20
0.0
 41
1.0
 42
1.0
 43
1.0
  0
INSERT
  5
24B
100
AcDbEntity
  8
0
100
AcDbBlockReference
  2
SHG_65_2UH__G______175
 10
0.0
 20
0.0
  0
INSERT
  5
24C
100
AcDbEntity
  8
0
100
AcDbBlockReference
  2
SHG_65_2UH__G______176
 10
0.0
 20
0.0
  0
INSERT
  5
24D
100
AcDbEntity
  8
0
100
AcDbBlockReference
  2
SHG_65_2UH__G______177
 10
0.0
 20
0.0
  0
INSERT
  5
24E
100
AcDbEntity
  8
0
100
AcDbBlockReference
  2
SHG_65_2UH__G______178
 10
0.0
 20
0.0
  0
INSERT
  5
24F
100
AcDbEntity
  8
0
100
AcDbBlockReference
  2
SHG_65_2UH__G______179
 10
0.0
 20
0.0
  0
INSERT
  5
250
100
AcDbEntity
  8
0
100
AcDbBlockReference
  2
SHG_65_2UH__G______180
 10
0.0
 20
0.0
  0
INSERT
  5
251
100
AcDbEntity
  8
0
100
AcDbBlockReference
  2
SHG_65_2UH__G______181
 10
0.0
 20
0.0
  0
INSERT
  5
252
100
AcDbEntity
  8
0
100
AcDbBlockReference
  2
SHG_65_2UH__G______182
 10
0.0
 20
0.0
  0
INSERT
  5
253
100
AcDbEntity
  8
0
100
AcDbBlockReference
  2
SHG_65_2UH__G______183
 10
0.0
 20
0.0
  0
INSERT
  5
254
100
AcDbEntity
  8
0
100
AcDbBlockReference
  2
SHG_65_2UH__G______184
 10
0.0
 20
0.0
  0
INSERT
  5
255
100
AcDbEntity
  8
0
100
AcDbBlockReference
  2
SHG_65_2UH__G______186
 10
0.0
 20
0.0
 41
1.0
 42
1.0
 43
1.0
  0
ENDSEC
  0
SECTION
  2
OBJECTS
  0
DICTIONARY
  5
19
100
AcDbDictionary
  3
ACAD_GROUP
350
1A
  3
ACAD_MLINESTYLE
350
1B
  0
DICTIONARY
  5
1A
102
{ACAD_REACTORS
330
19
102
}
100
AcDbDictionary
  0
DICTIONARY
  5
1B
102
{ACAD_REACTORS
330
19
102
}
100
AcDbDictionary
  3
STANDARD
350
1C
  0
MLINESTYLE
  5
1C
102
{ACAD_REACTORS
330
1B
102
}
100
AcDbMlineStyle
  2
STANDARD
 70
           0
  3

 62
           0
 51
90.0
 52
90.0
 71
           2
 49
0.5
 62
         256
  6
BYLAYER
 49
-0.5
 62
         256
  6
BYLAYER
  0
ENDSEC
  0
EOF
