  0
SECTION
  2
HEADER
  9
$ACADVER
  1
AC1015
  9
$ACADMAINTVER
 70
    13
  9
$DWGCODEPAGE
  3
ANSI_1252
  9
$INSBASE
 10
0.0
 20
0.0
 30
0.0
  9
$EXTMIN
 10
-2.651176647148979
 20
4.398363088929173
 30
0.0
  9
$EXTMAX
 10
366.1137034375445
 20
263.0243289650139
 30
0.0
  9
$LIMMIN
 10
0.0
 20
0.0
  9
$LIMMAX
 10
420.0
 20
297.0
  9
$ORTHOMODE
 70
     1
  9
$REGENMODE
 70
     1
  9
$FILLMODE
 70
     1
  9
$QTEXTMODE
 70
     0
  9
$MIRRTEXT
 70
     1
  9
$LTSCALE
 40
1.0
  9
$ATTMODE
 70
     1
  9
$TEXTSIZE
 40
2.5
  9
$TRACEWID
 40
1.0
  9
$TEXTSTYLE
  7
STANDARD
  9
$CLAYER
  8
AM_0
  9
$CELTYPE
  6
ByLayer
  9
$CECOLOR
 62
   256
  9
$CELTSCALE
 40
1.0
  9
$DISPSILH
 70
     0
  9
$DIMSCALE
 40
1.0
  9
$DIMASZ
 40
2.5
  9
$DIMEXO
 40
0.625
  9
$DIMDLI
 40
3.75
  9
$DIMRND
 40
0.0
  9
$DIMDLE
 40
0.0
  9
$DIMEXE
 40
1.25
  9
$DIMTP
 40
0.0
  9
$DIMTM
 40
0.0
  9
$DIMTXT
 40
2.5
  9
$DIMCEN
 40
2.5
  9
$DIMTSZ
 40
0.0
  9
$DIMTOL
 70
     0
  9
$DIMLIM
 70
     0
  9
$DIMTIH
 70
     0
  9
$DIMTOH
 70
     0
  9
$DIMSE1
 70
     0
  9
$DIMSE2
 70
     0
  9
$DIMTAD
 70
     1
  9
$DIMZIN
 70
     8
  9
$DIMBLK
  1

  9
$DIMASO
 70
     1
  9
$DIMSHO
 70
     1
  9
$DIMPOST
  1

  9
$DIMAPOST
  1

  9
$DIMALT
 70
     0
  9
$DIMALTD
 70
     3
  9
$DIMALTF
 40
0.03937007874016
  9
$DIMLFAC
 40
1.0
  9
$DIMTOFL
 70
     1
  9
$DIMTVP
 40
0.0
  9
$DIMTIX
 70
     0
  9
$DIMSOXD
 70
     0
  9
$DIMSAH
 70
     0
  9
$DIMBLK1
  1

  9
$DIMBLK2
  1

  9
$DIMSTYLE
  2
ISO-25
  9
$DIMCLRD
 70
     0
  9
$DIMCLRE
 70
     0
  9
$DIMCLRT
 70
     0
  9
$DIMTFAC
 40
1.0
  9
$DIMGAP
 40
0.625
  9
$DIMJUST
 70
     0
  9
$DIMSD1
 70
     0
  9
$DIMSD2
 70
     0
  9
$DIMTOLJ
 70
     1
  9
$DIMTZIN
 70
     0
  9
$DIMALTZ
 70
     0
  9
$DIMALTTZ
 70
     0
  9
$DIMUPT
 70
     0
  9
$DIMDEC
 70
     4
  9
$DIMTDEC
 70
     4
  9
$DIMALTU
 70
     2
  9
$DIMALTTD
 70
     2
  9
$DIMTXSTY
  7
STANDARD
  9
$DIMAUNIT
 70
     0
  9
$DIMADEC
 70
     0
  9
$DIMALTRND
 40
0.0
  9
$DIMAZIN
 70
     0
  9
$DIMDSEP
 70
    46
  9
$DIMATFIT
 70
     3
  9
$DIMFRAC
 70
     0
  9
$DIMLDRBLK
  1

  9
$DIMLUNIT
 70
     2
  9
$DIMLWD
 70
    -2
  9
$DIMLWE
 70
    -2
  9
$DIMTMOVE
 70
     0
  9
$LUNITS
 70
     2
  9
$LUPREC
 70
     2
  9
$SKETCHINC
 40
1.0
  9
$FILLETRAD
 40
2.5
  9
$AUNITS
 70
     0
  9
$AUPREC
 70
     0
  9
$MENU
  1
.
  9
$ELEVATION
 40
0.0
  9
$PELEVATION
 40
0.0
  9
$THICKNESS
 40
0.0
  9
$LIMCHECK
 70
     0
  9
$CHAMFERA
 40
2.5
  9
$CHAMFERB
 40
2.5
  9
$CHAMFERC
 40
0.0
  9
$CHAMFERD
 40
0.0
  9
$SKPOLY
 70
     0
  9
$TDCREATE
 40
2452801.734359085
  9
$TDUCREATE
 40
2452801.901025752
  9
$TDUPDATE
 40
2453865.615645069
  9
$TDUUPDATE
 40
2453865.782311736
  9
$TDINDWG
 40
0.0743373843
  9
$TDUSRTIMER
 40
0.0743371991
  9
$USRTIMER
 70
     1
  9
$ANGBASE
 50
0.0
  9
$ANGDIR
 70
     0
  9
$PDMODE
 70
     0
  9
$PDSIZE
 40
0.0
  9
$PLINEWID
 40
0.0
  9
$SPLFRAME
 70
     0
  9
$SPLINETYPE
 70
     6
  9
$SPLINESEGS
 70
     8
  9
$HANDSEED
  5
2962
  9
$SURFTAB1
 70
     6
  9
$SURFTAB2
 70
     6
  9
$SURFTYPE
 70
     6
  9
$SURFU
 70
     6
  9
$SURFV
 70
     6
  9
$UCSBASE
  2

  9
$UCSNAME
  2

  9
$UCSORG
 10
0.0
 20
0.0
 30
0.0
  9
$UCSXDIR
 10
1.0
 20
0.0
 30
0.0
  9
$UCSYDIR
 10
0.0
 20
1.0
 30
0.0
  9
$UCSORTHOREF
  2

  9
$UCSORTHOVIEW
 70
     0
  9
$UCSORGTOP
 10
0.0
 20
0.0
 30
0.0
  9
$UCSORGBOTTOM
 10
0.0
 20
0.0
 30
0.0
  9
$UCSORGLEFT
 10
0.0
 20
0.0
 30
0.0
  9
$UCSORGRIGHT
 10
0.0
 20
0.0
 30
0.0
  9
$UCSORGFRONT
 10
0.0
 20
0.0
 30
0.0
  9
$UCSORGBACK
 10
0.0
 20
0.0
 30
0.0
  9
$PUCSBASE
  2

  9
$PUCSNAME
  2

  9
$PUCSORG
 10
0.0
 20
0.0
 30
0.0
  9
$PUCSXDIR
 10
1.0
 20
0.0
 30
0.0
  9
$PUCSYDIR
 10
0.0
 20
1.0
 30
0.0
  9
$PUCSORTHOREF
  2

  9
$PUCSORTHOVIEW
 70
     0
  9
$PUCSORGTOP
 10
0.0
 20
0.0
 30
0.0
  9
$PUCSORGBOTTOM
 10
0.0
 20
0.0
 30
0.0
  9
$PUCSORGLEFT
 10
0.0
 20
0.0
 30
0.0
  9
$PUCSORGRIGHT
 10
0.0
 20
0.0
 30
0.0
  9
$PUCSORGFRONT
 10
0.0
 20
0.0
 30
0.0
  9
$PUCSORGBACK
 10
0.0
 20
0.0
 30
0.0
  9
$USERI1
 70
     0
  9
$USERI2
 70
     0
  9
$USERI3
 70
     0
  9
$USERI4
 70
     0
  9
$USERI5
 70
     0
  9
$USERR1
 40
0.0
  9
$USERR2
 40
0.0
  9
$USERR3
 40
0.0
  9
$USERR4
 40
0.0
  9
$USERR5
 40
0.0
  9
$WORLDVIEW
 70
     1
  9
$SHADEDGE
 70
     3
  9
$SHADEDIF
 70
    70
  9
$TILEMODE
 70
     1
  9
$MAXACTVP
 70
    64
  9
$PINSBASE
 10
0.0
 20
0.0
 30
0.0
  9
$PLIMCHECK
 70
     0
  9
$PEXTMIN
 10
1.000000000000000E+20
 20
1.000000000000000E+20
 30
1.000000000000000E+20
  9
$PEXTMAX
 10
-1.000000000000000E+20
 20
-1.000000000000000E+20
 30
-1.000000000000000E+20
  9
$PLIMMIN
 10
0.0
 20
0.0
  9
$PLIMMAX
 10
420.0
 20
297.0
  9
$UNITMODE
 70
     0
  9
$VISRETAIN
 70
     1
  9
$PLINEGEN
 70
     0
  9
$PSLTSCALE
 70
     1
  9
$TREEDEPTH
 70
  3020
  9
$CMLSTYLE
  2
Standard
  9
$CMLJUST
 70
     0
  9
$CMLSCALE
 40
1.0
  9
$PROXYGRAPHICS
 70
     1
  9
$MEASUREMENT
 70
     0
  9
$CELWEIGHT
370
    -1
  9
$ENDCAPS
280
     0
  9
$JOINSTYLE
280
     0
  9
$LWDISPLAY
290
     0
  9
$INSUNITS
 70
     0
  9
$HYPERLINKBASE
  1

  9
$STYLESHEET
  1

  9
$XEDIT
290
     1
  9
$CEPSNTYPE
380
     0
  9
$PSTYLEMODE
290
     1
  9
$FINGERPRINTGUID
  2
{D1AA469D-7403-467B-BD5A-339535CBD247}
  9
$VERSIONGUID
  2
{91F77570-C02F-415D-BEA3-0387186F9D47}
  9
$EXTNAMES
290
     1
  9
$PSVPSCALE
 40
0.0
  9
$OLESTARTUP
290
     0
  0
ENDSEC
  0
SECTION
  2
CLASSES
  0
CLASS
  1
ACDBDICTIONARYWDFLT
  2
AcDbDictionaryWithDefault
  3
AutoCAD 2000
 90
        0
280
     0
281
     0
  0
CLASS
  1
ACDBPLACEHOLDER
  2
AcDbPlaceHolder
  3
AutoCAD 2000
 90
        0
280
     0
281
     0
  0
CLASS
  1
LAYOUT
  2
AcDbLayout
  3
AutoCAD 2000
 90
        0
280
     0
281
     0
  0
CLASS
  1
DICTIONARYVAR
  2
AcDbDictionaryVar
  3
AutoCAD 2000
 90
        0
280
     0
281
     0
  0
ENDSEC
  0
SECTION
  2
TABLES
  0
TABLE
  2
VPORT
  5
2664
330
0
100
AcDbSymbolTable
 70
     2
  0
VPORT
  5
2961
330
2664
100
AcDbSymbolTableRecord
100
AcDbViewportTableRecord
  2
*Active
 70
     0
 10
0.0
 20
0.0
 11
1.0
 21
1.0
 12
193.177185589499
 22
162.6054162900589
 13
0.0
 23
0.0
 14
2.5
 24
2.5
 15
10.0
 25
10.0
 16
0.0
 26
0.0
 36
1.0
 17
0.0
 27
0.0
 37
0.0
 40
366.4934939693316
 41
1.182835820895522
 42
50.0
 43
0.0
 44
0.0
 50
0.0
 51
0.0
 71
     0
 72
   100
 73
     1
 74
     3
 75
     0
 76
     0
 77
     0
 78
     0
281
     0
 65
     1
110
0.0
120
0.0
130
0.0
111
1.0
121
0.0
131
0.0
112
0.0
122
1.0
132
0.0
 79
     0
146
0.0
  0
ENDTAB
  0
TABLE
  2
LTYPE
  5
2661
330
0
100
AcDbSymbolTable
 70
     5
  0
LTYPE
  5
266F
330
2661
100
AcDbSymbolTableRecord
100
AcDbLinetypeTableRecord
  2
ByBlock
 70
     0
  3

 72
    65
 73
     0
 40
0.0
  0
LTYPE
  5
2670
330
2661
100
AcDbSymbolTableRecord
100
AcDbLinetypeTableRecord
  2
ByLayer
 70
     0
  3

 72
    65
 73
     0
 40
0.0
  0
LTYPE
  5
2671
330
2661
100
AcDbSymbolTableRecord
100
AcDbLinetypeTableRecord
  2
CONTINUOUS
 70
     0
  3
Solid line
 72
    65
 73
     0
 40
0.0
  0
LTYPE
  5
2680
330
2661
100
AcDbSymbolTableRecord
100
AcDbLinetypeTableRecord
  2
CENTER
 70
     0
  3
Center ____ _ ____ _ ____ _ ____ _ ____ _ ____
 72
    65
 73
     4
 40
50.8
 49
31.75
 74
     0
 49
-6.349999999999997
 74
     0
 49
6.349999999999997
 74
     0
 49
-6.349999999999997
 74
     0
  0
LTYPE
  5
2681
330
2661
100
AcDbSymbolTableRecord
100
AcDbLinetypeTableRecord
  2
DASHDOT
 70
     0
  3
__ . __ . __ .
 72
    65
 73
     4
 40
6.999999895422129
 49
3.499999947711064
 74
     0
 49
-1.749999973855534
 74
     0
 49
0.0
 74
     0
 49
-1.749999973855534
 74
     0
  0
LTYPE
  5
2682
330
2661
100
AcDbSymbolTableRecord
100
AcDbLinetypeTableRecord
  2
DIVIDE
 70
     0
  3
__ . . __ . . 
 72
    65
 73
     6
 40
8.749999869277667
 49
3.499999947711064
 74
     0
 49
-1.749999973855534
 74
     0
 49
0.0
 74
     0
 49
-1.749999973855534
 74
     0
 49
0.0
 74
     0
 49
-1.749999973855534
 74
     0
  0
LTYPE
  5
2683
330
2661
100
AcDbSymbolTableRecord
100
AcDbLinetypeTableRecord
  2
PHANTOM
 70
     0
  3
_____ _ _ _____ _ _ 
 72
    65
 73
     6
 40
17.49999973855533
 49
8.749999869277667
 74
     0
 49
-1.749999973855534
 74
     0
 49
1.749999973855534
 74
     0
 49
-1.749999973855534
 74
     0
 49
1.749999973855534
 74
     0
 49
-1.749999973855534
 74
     0
  0
ENDTAB
  0
TABLE
  2
LAYER
  5
265E
330
0
100
AcDbSymbolTable
 70
     5
  0
LAYER
  5
266C
330
265E
100
AcDbSymbolTableRecord
100
AcDbLayerTableRecord
  2
0
 70
     0
 62
     7
  6
CONTINUOUS
370
    -3
390
266B
  0
LAYER
  5
267E
330
265E
100
AcDbSymbolTableRecord
100
AcDbLayerTableRecord
  2
AM_0
 70
     0
 62
     7
  6
CONTINUOUS
370
    -3
390
266B
  0
LAYER
  5
2684
330
265E
100
AcDbSymbolTableRecord
100
AcDbLayerTableRecord
  2
1
 70
     0
 62
     7
  6
CONTINUOUS
370
    -3
390
266B
  0
LAYER
  5
2685
330
265E
100
AcDbSymbolTableRecord
100
AcDbLayerTableRecord
  2
2
 70
     0
 62
     7
  6
CONTINUOUS
370
    -3
390
266B
  0
LAYER
  5
292F
330
265E
100
AcDbSymbolTableRecord
100
AcDbLayerTableRecord
  2
LAYER_1
 70
     0
 62
     5
  6
CONTINUOUS
370
    -3
390
266B
  0
ENDTAB
  0
TABLE
  2
STYLE
  5
265F
330
0
100
AcDbSymbolTable
 70
     1
  0
STYLE
  5
266D
330
265F
100
AcDbSymbolTableRecord
100
AcDbTextStyleTableRecord
  2
STANDARD
 70
     0
 40
0.0
 41
1.0
 50
0.0
 71
     0
 42
2.5
  3
ISOCP.SHX
  4

  0
ENDTAB
  0
TABLE
  2
VIEW
  5
2662
330
0
100
AcDbSymbolTable
 70
     0
  0
ENDTAB
  0
TABLE
  2
UCS
  5
2663
330
0
100
AcDbSymbolTable
 70
     0
  0
ENDTAB
  0
TABLE
  2
APPID
  5
2665
330
0
100
AcDbSymbolTable
 70
    13
  0
APPID
  5
266E
330
2665
100
AcDbSymbolTableRecord
100
AcDbRegAppTableRecord
  2
ACAD
 70
     0
  0
APPID
  5
2686
330
2665
100
AcDbSymbolTableRecord
100
AcDbRegAppTableRecord
  2
GENIUS_GENDIM_13
 70
     0
  0
APPID
  5
2687
330
2665
100
AcDbSymbolTableRecord
100
AcDbRegAppTableRecord
  2
GENIUS_GENDTOL_13
 70
     0
  0
APPID
  5
2688
330
2665
100
AcDbSymbolTableRecord
100
AcDbRegAppTableRecord
  2
GENIUS_GE3DTOL_13
 70
     0
  0
APPID
  5
2689
330
2665
100
AcDbSymbolTableRecord
100
AcDbRegAppTableRecord
  2
MCAD_NO_VIS
 70
     0
  0
APPID
  5
268A
330
2665
100
AcDbSymbolTableRecord
100
AcDbRegAppTableRecord
  2
ACAD_TEMP_GRAPHIC
 70
     0
  0
APPID
  5
268B
330
2665
100
AcDbSymbolTableRecord
100
AcDbRegAppTableRecord
  2
AD_DRAW
 70
     0
  0
APPID
  5
268C
330
2665
100
AcDbSymbolTableRecord
100
AcDbRegAppTableRecord
  2
ACATTRIBSERVICES
 70
     0
  0
APPID
  5
268D
330
2665
100
AcDbSymbolTableRecord
100
AcDbRegAppTableRecord
  2
ASURF_PCURVE_APPNAME
 70
     0
  0
APPID
  5
268E
330
2665
100
AcDbSymbolTableRecord
100
AcDbRegAppTableRecord
  2
DESIGNERASSEMBLIES
 70
     0
  0
APPID
  5
268F
330
2665
100
AcDbSymbolTableRecord
100
AcDbRegAppTableRecord
  2
ACADM_DIM_EDIT
 70
     0
  0
APPID
  5
2690
330
2665
100
AcDbSymbolTableRecord
100
AcDbRegAppTableRecord
  2
G3V_ENTHND
 70
     0
  0
APPID
  5
2691
330
2665
100
AcDbSymbolTableRecord
100
AcDbRegAppTableRecord
  2
GENIUS_GENDIMSH_14
 70
     0
  0
ENDTAB
  0
TABLE
  2
DIMSTYLE
  5
2666
330
0
100
AcDbSymbolTable
 70
     2
100
AcDbDimStyleTable
 71
     0
  0
DIMSTYLE
105
2692
330
2666
100
AcDbSymbolTableRecord
100
AcDbDimStyleTableRecord
  2
ISO-25
 70
     0
 41
2.5
 42
0.625
 43
3.75
 44
1.25
 73
     0
 74
     0
 77
     1
 78
     8
140
2.5
141
2.5
143
0.03937007874016
147
0.625
171
     3
172
     1
271
     2
272
     2
274
     3
279
     2
284
     8
285
     8
286
     8
340
266D
  0
DIMSTYLE
105
2930
330
2666
100
AcDbSymbolTableRecord
100
AcDbDimStyleTableRecord
  2
Standard
 70
     0
340
266D
  0
ENDTAB
  0
TABLE
  2
BLOCK_RECORD
  5
265D
330
0
100
AcDbSymbolTable
 70
    21
  0
BLOCK_RECORD
  5
267A
330
265D
100
AcDbSymbolTableRecord
100
AcDbBlockTableRecord
  2
*Model_Space
340
267D
  0
BLOCK_RECORD
  5
2676
330
265D
100
AcDbSymbolTableRecord
100
AcDbBlockTableRecord
  2
*Paper_Space
340
2679
  0
BLOCK_RECORD
  5
2694
330
265D
100
AcDbSymbolTableRecord
100
AcDbBlockTableRecord
  2
$MODEL_SPACE
340
0
  0
BLOCK_RECORD
  5
2697
330
265D
100
AcDbSymbolTableRecord
100
AcDbBlockTableRecord
  2
$PAPER_SPACE
340
0
  0
BLOCK_RECORD
  5
28C3
330
265D
100
AcDbSymbolTableRecord
100
AcDbBlockTableRecord
  2
AI9-BLK14
340
0
310
2800000020000000200000000100080000000000000400000000000000000000000000000000000000000000000080000080000000808000800000008000800080800000C0C0C000C0DCC000F0CAA6000020400000206000002080000020A0000020C0000020E00000400000004020000040400000406000004080000040A0
310
000040C0000040E00000600000006020000060400000606000006080000060A0000060C0000060E00000800000008020000080400000806000008080000080A0000080C0000080E00000A0000000A0200000A0400000A0600000A0800000A0A00000A0C00000A0E00000C0000000C0200000C0400000C0600000C0800000C0
310
A00000C0C00000C0E00000E0000000E0200000E0400000E0600000E0800000E0A00000E0C00000E0E00040000000400020004000400040006000400080004000A0004000C0004000E00040200000402020004020400040206000402080004020A0004020C0004020E000404000004040200040404000404060004040800040
310
40A0004040C0004040E00040600000406020004060400040606000406080004060A0004060C0004060E00040800000408020004080400040806000408080004080A0004080C0004080E00040A0000040A0200040A0400040A0600040A0800040A0A00040A0C00040A0E00040C0000040C0200040C0400040C0600040C08000
310
40C0A00040C0C00040C0E00040E0000040E0200040E0400040E0600040E0800040E0A00040E0C00040E0E00080000000800020008000400080006000800080008000A0008000C0008000E00080200000802020008020400080206000802080008020A0008020C0008020E00080400000804020008040400080406000804080
310
008040A0008040C0008040E00080600000806020008060400080606000806080008060A0008060C0008060E00080800000808020008080400080806000808080008080A0008080C0008080E00080A0000080A0200080A0400080A0600080A0800080A0A00080A0C00080A0E00080C0000080C0200080C0400080C0600080C0
310
800080C0A00080C0C00080C0E00080E0000080E0200080E0400080E0600080E0800080E0A00080E0C00080E0E000C0000000C0002000C0004000C0006000C0008000C000A000C000C000C000E000C0200000C0202000C0204000C0206000C0208000C020A000C020C000C020E000C0400000C0402000C0404000C0406000C0
310
408000C040A000C040C000C040E000C0600000C0602000C0604000C0606000C0608000C060A000C060C000C060E000C0800000C0802000C0804000C0806000C0808000C080A000C080C000C080E000C0A00000C0A02000C0A04000C0A06000C0A08000C0A0A000C0A0C000C0A0E000C0C00000C0C02000C0C04000C0C06000
310
C0C08000C0C0A000F0FBFF00A4A0A000808080000000FF0000FF000000FFFF00FF000000FF00FF00FFFF0000FFFFFF00FF00FFFFFFFF00FFFFFFFFFFFFFFFFFFFFFFFFFFFFFFFFFFFFFFFFFFFFFFFFFFFF00FFFFFFFF00FFFFFFFFFFFFFFFFFFFFFFFFFFFFFFFFFFFFFFFFFFFFFFFFFFFF00FFFFFFFF00FFFFFFFFFFFFFFFF
310
FFFFFFFFFFFFFFFFFFFFFFFFFFFFFFFFFFFF00FFFFFFFF00FFFFFFFFFFFFFFFFFFFFFFFFFFFFFFFFFFFFFFFFFFFFFFFFFFFF00FFFFFFFF00FFFFFFFFFFFFFFFFFFFFFFFFFFFFFFFFFFFFFFFFFFFFFFFFFFFF00FFFFFFFF00FFFFFFFFFFFFFFFFFFFFFFFFFFFFFFFFFFFFFFFFFFFFFFFFFFFF00FFFFFFFF00FFFFFFFFFFFFFF
310
FFFFFFFFFFFFFFFFFFFFFFFFFFFFFFFFFFFFFF00FFFFFFFF00FFFFFFFFFFFFFFFFFFFFFFFFFFFFFFFFFFFFFFFFFFFFFFFFFFFF00FFFFFFFF00FFFFFFFFFFFFFFFFFFFFFFFFFFFFFFFFFFFFFFFFFFFFFFFFFFFF00FFFFFFFF00FFFFFFFFFFFFFFFFFFFFFFFFFFFFFFFFFFFFFFFFFFFFFFFFFFFF00FFFFFFFF00FFFFFFFFFFFF
310
FFFFFFFFFFFFFFFFFFFFFFFFFFFFFFFFFFFFFFFF00FFFFFFFF00FFFFFFFFFFFFFFFFFFFFFFFFFFFFFFFFFFFFFFFFFFFFFFFFFFFF00FFFFFFFF00FFFFFFFFFFFFFFFFFFFFFFFFFFFFFFFFFFFFFFFFFFFFFFFFFFFF00FFFFFFFF0000000000000000000000000000000000000000000000000000FF00FFFFFFFFFFFFFFFFFFFF
310
FFFFFFFFFFFFFFFFFFFFFFFFFFFFFFFFFFFFFFFFFF00FFFFFFFFFFFFFFFFFFFFFFFFFFFFFFFFFFFFFFFFFFFFFFFFFFFFFFFFFFFFFF00FFFFFFFFFFFFFFFFFFFFFFFFFFFFFFFFFFFFFFFFFFFFFFFFFFFFFFFFFFFFFF00FFFFFFFFFFFFFFFFFFFFFFFFFFFFFFFFFFFFFFFFFFFFFFFFFFFFFFFFFF00FF00000000000000000000
310
0000000000000000000000000000000000000000FFFFFFFFFFFFFFFFFFFFFFFFFFFFFFFFFFFFFFFFFFFFFFFFFFFFFFFFFFFFFFFFFFFFFFFFFFFFFFFFFFFFFFFFFFFFFFFFFFFFFFFFFFFFFFFFFFFFFFFFFFFFFFFFFFFFFFFFFFFFFFFFFFFFFFFFFFFFFFFFFFFFFFFFFFFFFFFFFFFFFFFFFFFFFFFFFFFFFFFFFFFFFFFFFFFFFF
310
FFFFFFFFFFFFFFFFFFFFFFFFFFFFFFFFFFFFFFFFFFFFFFFFFFFFFFFFFFFFFFFFFFFFFFFFFFFFFFFFFFFFFFFFFFFFFFFFFFFFFFFFFFFFFFFFFFFFFFFFFFFFFFFFFFFFFFFFFFFFFFFFFFFFFFFFFFFFFFFFFFFFFFFFFFFFFFFFFFFFFFFFFFFFFFFFFFFFFFFFFFFFFFFFFFFFFFFFFFFFFFFFFFFFFFFFFFFFFFFFFFFFFFFFFFFFFF
310
FFFFFFFFFFFFFFFFFFFFFFFFFFFFFFFFFFFFFFFFFFFFFFFFFFFFFFFFFFFFFFFFFFFFFFFFFFFFFFFFFFFFFFFFFFFFFFFFFFFFFFFFFFFFFFFFFFFFFFFFFFFFFFFFFFFFFFFFFFFFFFFFFFFFFFFFFFFFFFFFFFFFFFFFFFFFFFFFFFFFFFFFFFFFFFFFFFFFFFFFFFFFFFFFFFFFFFFFFFFFFFFFFFFFFFFFFFFFFFFFFFFFFFFFFFFFFF
310
FFFFFFFFFFFFFFFFFFFFFFFFFFFFFFFFFFFFFFFFFFFFFFFFFFFFFFFFFFFFFFFFFFFFFFFFFFFFFFFFFFFFFFFFFFFFFFFFFFFFFFFFFFFFFFFF
102
{BLKREFS
331
2904
102
}
  0
BLOCK_RECORD
  5
28C8
330
265D
100
AcDbSymbolTableRecord
100
AcDbBlockTableRecord
  2
AI9-BLK13
340
0
310
2800000020000000200000000100080000000000000400000000000000000000000000000000000000000000000080000080000000808000800000008000800080800000C0C0C000C0DCC000F0CAA6000020400000206000002080000020A0000020C0000020E00000400000004020000040400000406000004080000040A0
310
000040C0000040E00000600000006020000060400000606000006080000060A0000060C0000060E00000800000008020000080400000806000008080000080A0000080C0000080E00000A0000000A0200000A0400000A0600000A0800000A0A00000A0C00000A0E00000C0000000C0200000C0400000C0600000C0800000C0
310
A00000C0C00000C0E00000E0000000E0200000E0400000E0600000E0800000E0A00000E0C00000E0E00040000000400020004000400040006000400080004000A0004000C0004000E00040200000402020004020400040206000402080004020A0004020C0004020E000404000004040200040404000404060004040800040
310
40A0004040C0004040E00040600000406020004060400040606000406080004060A0004060C0004060E00040800000408020004080400040806000408080004080A0004080C0004080E00040A0000040A0200040A0400040A0600040A0800040A0A00040A0C00040A0E00040C0000040C0200040C0400040C0600040C08000
310
40C0A00040C0C00040C0E00040E0000040E0200040E0400040E0600040E0800040E0A00040E0C00040E0E00080000000800020008000400080006000800080008000A0008000C0008000E00080200000802020008020400080206000802080008020A0008020C0008020E00080400000804020008040400080406000804080
310
008040A0008040C0008040E00080600000806020008060400080606000806080008060A0008060C0008060E00080800000808020008080400080806000808080008080A0008080C0008080E00080A0000080A0200080A0400080A0600080A0800080A0A00080A0C00080A0E00080C0000080C0200080C0400080C0600080C0
310
800080C0A00080C0C00080C0E00080E0000080E0200080E0400080E0600080E0800080E0A00080E0C00080E0E000C0000000C0002000C0004000C0006000C0008000C000A000C000C000C000E000C0200000C0202000C0204000C0206000C0208000C020A000C020C000C020E000C0400000C0402000C0404000C0406000C0
310
408000C040A000C040C000C040E000C0600000C0602000C0604000C0606000C0608000C060A000C060C000C060E000C0800000C0802000C0804000C0806000C0808000C080A000C080C000C080E000C0A00000C0A02000C0A04000C0A06000C0A08000C0A0A000C0A0C000C0A0E000C0C00000C0C02000C0C04000C0C06000
310
C0C08000C0C0A000F0FBFF00A4A0A000808080000000FF0000FF000000FFFF00FF000000FF00FF00FFFF0000FFFFFF00FFFFFFFFFFFFFFFFFFFFFFFFFFFFFFFFFFFFFFFFFFFFFFFFFFFFFFFFFFFFFFFFFFFFFFFFFFFFFFFFFFFFFF0000FFFFFFFFFFFF0000FFFFFFFFFFFFFFFFFFFFFFFFFFFFFFFFFFFFFFFFFFFF0000FFFF
310
FFFFFFFF0000FFFFFFFFFFFFFFFFFFFFFFFFFFFFFFFFFFFFFFFFFFFF0000FFFFFFFFFFFF0000FFFFFFFFFFFFFFFFFFFFFFFFFFFFFFFFFFFFFFFFFFFF0000FFFFFFFFFFFF0000FFFFFFFFFFFFFFFFFFFFFFFFFFFFFFFFFFFFFFFFFFFF0000FFFFFFFFFFFF0000FFFFFFFFFFFFFFFFFFFFFFFFFFFFFFFFFFFFFFFFFFFF0000FF
310
FFFFFFFFFF0000FFFFFFFFFFFFFFFFFFFFFFFFFFFFFFFFFFFFFFFFFFFF0000FFFFFFFFFFFF0000FFFFFFFFFFFFFFFFFFFFFFFFFFFFFFFFFFFFFFFFFFFF0000FFFFFFFFFFFF0000FFFFFFFFFFFFFFFFFFFFFFFFFFFFFFFFFFFFFFFFFFFF0000FFFFFFFFFFFF0000FFFFFFFFFFFFFFFFFFFFFFFFFFFFFFFFFFFFFFFFFFFF0000
310
FFFFFFFFFFFF0000FFFFFFFFFFFFFFFFFFFFFFFFFFFFFFFFFFFFFFFFFFFF0000FFFFFFFFFFFF0000FFFFFFFFFFFFFFFFFFFFFFFFFFFFFFFFFFFFFFFFFFFF0000FFFFFFFFFFFF0000FFFFFFFFFFFFFFFFFFFFFFFFFFFFFFFFFFFFFFFFFFFF0000FFFFFFFFFFFF0000FFFFFFFFFFFFFFFFFFFFFFFFFFFFFFFFFFFFFFFFFFFF00
310
00FFFFFFFFFFFF0000FFFFFFFFFFFFFFFFFFFFFFFFFFFFFFFFFFFFFFFFFFFF00000000000000000000FFFFFFFFFFFFFFFFFFFFFFFFFFFFFFFFFFFFFFFFFFFF00FFFFFFFFFFFFFFFF00FFFFFFFFFFFFFFFFFFFFFFFFFFFFFFFFFFFFFFFFFFFF00FFFFFFFFFFFFFFFF00FFFFFFFFFFFFFFFFFFFFFFFFFFFFFFFFFFFFFFFFFFFF
310
00000000000000000000FFFFFFFFFFFFFFFFFFFFFFFFFFFFFFFFFFFFFFFFFFFF0000FFFFFFFFFFFF0000FFFFFFFFFFFFFFFFFFFFFFFFFFFFFFFFFFFFFFFFFFFF0000FFFFFFFFFFFF0000FFFFFFFFFFFFFFFFFFFFFFFFFFFFFFFFFFFFFFFFFFFF0000FFFFFFFFFFFF0000FFFFFFFFFFFFFFFFFFFFFFFFFFFFFFFFFFFFFFFFFF
310
FF0000FFFFFFFFFFFF0000FFFFFFFFFFFFFFFFFFFFFFFFFFFFFFFFFFFFFFFFFFFF0000FFFFFFFFFFFF0000FFFFFFFFFFFFFFFFFFFFFFFFFFFFFFFFFFFFFFFFFFFF0000FFFFFFFFFFFF0000FFFFFFFFFFFFFFFFFFFFFFFFFFFFFFFFFFFFFFFFFFFF0000FFFFFFFFFFFF0000FFFFFFFFFFFFFFFFFFFFFFFFFFFFFFFFFFFFFFFF
310
FFFF0000FFFFFFFFFFFF0000FFFFFFFFFFFFFFFFFFFFFFFFFFFFFFFFFFFFFFFFFFFF0000FFFFFFFFFFFF0000FFFFFFFFFFFFFFFFFFFFFFFFFFFFFFFFFFFFFFFFFFFF0000FFFFFFFFFFFF0000FFFFFFFFFFFFFFFFFFFFFFFFFFFFFFFFFFFFFFFFFFFF0000FFFFFFFFFFFF0000FFFFFFFFFFFFFFFFFFFFFFFFFFFFFFFFFFFFFF
310
FFFFFF0000FFFFFFFFFFFF0000FFFFFFFFFFFFFFFFFFFFFFFFFFFFFFFFFFFFFFFFFFFFFFFFFFFFFFFFFFFFFFFFFFFFFFFFFFFFFFFFFFFFFF
102
{BLKREFS
331
2905
102
}
  0
BLOCK_RECORD
  5
28CD
330
265D
100
AcDbSymbolTableRecord
100
AcDbBlockTableRecord
  2
AI9-BLK11
340
0
310
2800000020000000200000000100080000000000000400000000000000000000000000000000000000000000000080000080000000808000800000008000800080800000C0C0C000C0DCC000F0CAA6000020400000206000002080000020A0000020C0000020E00000400000004020000040400000406000004080000040A0
310
000040C0000040E00000600000006020000060400000606000006080000060A0000060C0000060E00000800000008020000080400000806000008080000080A0000080C0000080E00000A0000000A0200000A0400000A0600000A0800000A0A00000A0C00000A0E00000C0000000C0200000C0400000C0600000C0800000C0
310
A00000C0C00000C0E00000E0000000E0200000E0400000E0600000E0800000E0A00000E0C00000E0E00040000000400020004000400040006000400080004000A0004000C0004000E00040200000402020004020400040206000402080004020A0004020C0004020E000404000004040200040404000404060004040800040
310
40A0004040C0004040E00040600000406020004060400040606000406080004060A0004060C0004060E00040800000408020004080400040806000408080004080A0004080C0004080E00040A0000040A0200040A0400040A0600040A0800040A0A00040A0C00040A0E00040C0000040C0200040C0400040C0600040C08000
310
40C0A00040C0C00040C0E00040E0000040E0200040E0400040E0600040E0800040E0A00040E0C00040E0E00080000000800020008000400080006000800080008000A0008000C0008000E00080200000802020008020400080206000802080008020A0008020C0008020E00080400000804020008040400080406000804080
310
008040A0008040C0008040E00080600000806020008060400080606000806080008060A0008060C0008060E00080800000808020008080400080806000808080008080A0008080C0008080E00080A0000080A0200080A0400080A0600080A0800080A0A00080A0C00080A0E00080C0000080C0200080C0400080C0600080C0
310
800080C0A00080C0C00080C0E00080E0000080E0200080E0400080E0600080E0800080E0A00080E0C00080E0E000C0000000C0002000C0004000C0006000C0008000C000A000C000C000C000E000C0200000C0202000C0204000C0206000C0208000C020A000C020C000C020E000C0400000C0402000C0404000C0406000C0
310
408000C040A000C040C000C040E000C0600000C0602000C0604000C0606000C0608000C060A000C060C000C060E000C0800000C0802000C0804000C0806000C0808000C080A000C080C000C080E000C0A00000C0A02000C0A04000C0A06000C0A08000C0A0A000C0A0C000C0A0E000C0C00000C0C02000C0C04000C0C06000
310
C0C08000C0C0A000F0FBFF00A4A0A000808080000000FF0000FF000000FFFF00FF000000FF00FF00FFFF0000FFFFFF00FFFFFFFFFFFFFFFFFFFFFFFFFFFFFFFFFFFFFFFFFFFFFFFFFFFFFFFFFFFFFFFFFFFFFFFFFFFFFFFFFFFFFFFFFFFF00000000FFFFFFFFFFFFFFFFFFFFFF000000FFFFFFFFFFFFFFFFFFFFFFFFFFFF00
310
FFFF00FFFFFFFFFFFFFFFFFFFFFF00FFFFFFFFFFFFFFFFFFFFFFFFFFFFFFFF00FFFF00FFFFFFFFFFFFFFFFFFFFFF00FFFFFFFFFFFFFFFFFFFFFFFFFFFFFFFF00FFFF00FFFFFFFFFFFFFFFFFFFFFF00FFFFFFFFFFFFFFFFFFFFFFFFFFFFFFFF00FFFF00FFFFFFFFFFFFFFFFFFFFFF00FFFFFFFFFFFFFFFFFFFFFFFFFFFFFFFF
310
00FFFF00FFFFFFFFFFFFFFFFFFFFFF00FFFFFFFFFFFFFFFFFFFFFFFFFFFFFFFF00FFFF00FFFFFFFFFFFFFFFFFFFFFF00FFFFFFFFFFFFFFFFFFFFFFFFFFFFFFFF00FFFF00FFFFFFFFFFFFFFFFFFFFFF00FFFFFFFFFFFFFFFFFFFFFFFFFFFFFFFF00FFFF00FFFFFFFFFFFFFFFFFFFFFF00FFFFFFFFFFFFFFFFFFFFFFFFFFFFFF
310
FF00FFFF00FFFFFFFFFFFFFFFFFFFFFF00FFFFFFFFFFFFFFFFFFFFFFFFFFFFFFFF00FFFF00FFFFFFFFFFFFFFFFFFFFFF00FFFFFFFFFFFFFFFFFFFFFFFFFFFFFFFF00FFFF00FFFFFFFFFFFFFFFFFFFFFF00FFFFFFFFFFFFFFFFFFFFFFFFFFFFFFFF00FFFF00FFFFFFFFFFFFFFFFFFFFFF00FFFFFFFFFFFFFFFFFFFFFFFFFFFF
310
FFFF00FFFF00FFFFFFFFFFFFFFFFFFFFFF00FFFFFFFFFFFFFFFFFFFFFFFFFFFFFFFF00FFFF00FFFFFFFFFFFFFFFFFFFFFF00FFFFFFFFFFFFFFFFFFFFFFFFFFFFFFFF00FFFF00FFFFFFFFFFFFFFFFFFFFFF00FFFFFFFFFFFFFFFFFFFFFFFFFFFFFFFF00FFFF00FFFFFFFFFFFFFFFFFFFF00FFFFFFFFFFFFFFFFFFFFFFFFFFFF
310
FFFFFF00FFFF00FFFFFFFFFFFFFFFFFFFF00FFFFFFFFFFFFFFFFFFFFFFFFFFFFFFFFFF00FFFF00FFFFFFFFFFFFFFFFFFFF00FFFFFFFFFFFFFFFFFFFFFFFFFFFFFFFFFF00FFFF00FFFFFFFFFFFFFFFFFFFF00FFFFFFFFFFFFFFFFFFFFFFFFFFFFFFFFFF00FFFF00FFFFFFFFFFFFFFFFFFFF00FFFFFFFFFFFFFFFFFFFFFFFFFF
310
FFFFFFFF00FFFF00FFFFFFFFFFFFFFFFFF0000FFFF00FFFFFFFFFFFFFFFFFFFFFFFFFFFF00FFFF00FFFFFFFFFFFFFFFF0000FFFFFF00FFFFFFFFFFFFFFFFFFFFFFFFFFFF00FFFF00000000000000000000FFFFFFFF00FFFFFFFFFFFFFFFFFFFFFFFFFFFF00FFFFFFFFFFFFFFFFFFFFFFFFFFFFFF00FFFFFFFFFFFFFFFFFFFF
310
FFFFFFFFFF00FFFFFFFFFFFFFFFFFFFFFFFFFFFF00FFFFFFFFFFFFFFFFFFFFFFFFFFFFFFFF00FFFFFFFFFFFFFFFFFFFFFFFFFFFF00FFFFFFFFFFFFFFFFFFFFFFFFFFFFFFFF00FFFFFFFFFFFFFFFFFFFFFFFFFFFFFF00FFFFFFFFFFFFFFFFFFFFFFFFFFFFFF00FFFFFFFFFFFFFFFFFFFFFFFFFFFFFF00FFFFFFFFFFFFFFFFFF
310
FFFFFFFFFFFF00FFFF00000000000000000000FFFFFFFF00FFFFFFFFFFFFFFFFFFFFFFFFFFFF00FFFF00FFFFFFFFFFFFFFFFFF0000FFFF00
102
{BLKREFS
331
2906
102
}
  0
BLOCK_RECORD
  5
28D2
330
265D
100
AcDbSymbolTableRecord
100
AcDbBlockTableRecord
  2
AI9-BLK10
340
0
310
2800000020000000200000000100080000000000000400000000000000000000000000000000000000000000000080000080000000808000800000008000800080800000C0C0C000C0DCC000F0CAA6000020400000206000002080000020A0000020C0000020E00000400000004020000040400000406000004080000040A0
310
000040C0000040E00000600000006020000060400000606000006080000060A0000060C0000060E00000800000008020000080400000806000008080000080A0000080C0000080E00000A0000000A0200000A0400000A0600000A0800000A0A00000A0C00000A0E00000C0000000C0200000C0400000C0600000C0800000C0
310
A00000C0C00000C0E00000E0000000E0200000E0400000E0600000E0800000E0A00000E0C00000E0E00040000000400020004000400040006000400080004000A0004000C0004000E00040200000402020004020400040206000402080004020A0004020C0004020E000404000004040200040404000404060004040800040
310
40A0004040C0004040E00040600000406020004060400040606000406080004060A0004060C0004060E00040800000408020004080400040806000408080004080A0004080C0004080E00040A0000040A0200040A0400040A0600040A0800040A0A00040A0C00040A0E00040C0000040C0200040C0400040C0600040C08000
310
40C0A00040C0C00040C0E00040E0000040E0200040E0400040E0600040E0800040E0A00040E0C00040E0E00080000000800020008000400080006000800080008000A0008000C0008000E00080200000802020008020400080206000802080008020A0008020C0008020E00080400000804020008040400080406000804080
310
008040A0008040C0008040E00080600000806020008060400080606000806080008060A0008060C0008060E00080800000808020008080400080806000808080008080A0008080C0008080E00080A0000080A0200080A0400080A0600080A0800080A0A00080A0C00080A0E00080C0000080C0200080C0400080C0600080C0
310
800080C0A00080C0C00080C0E00080E0000080E0200080E0400080E0600080E0800080E0A00080E0C00080E0E000C0000000C0002000C0004000C0006000C0008000C000A000C000C000C000E000C0200000C0202000C0204000C0206000C0208000C020A000C020C000C020E000C0400000C0402000C0404000C0406000C0
310
408000C040A000C040C000C040E000C0600000C0602000C0604000C0606000C0608000C060A000C060C000C060E000C0800000C0802000C0804000C0806000C0808000C080A000C080C000C080E000C0A00000C0A02000C0A04000C0A06000C0A08000C0A0A000C0A0C000C0A0E000C0C00000C0C02000C0C04000C0C06000
310
C0C08000C0C0A000F0FBFF00A4A0A000808080000000FF0000FF000000FFFF00FF000000FF00FF00FFFF0000FFFFFF00FFFFFFFFFFFFFFFFFFFFFFFFFFFFFFFF00FFFFFFFFFFFFFFFFFFFFFFFF00FFFFFFFFFFFFFFFFFFFFFFFFFFFFFFFFFFFF00FFFFFFFFFFFFFFFFFFFFFF00FFFFFFFFFFFFFFFFFFFFFFFFFFFFFFFFFFFF
310
FF00FFFFFFFFFFFFFFFFFFFFFF00FFFFFFFFFFFFFFFFFFFFFFFFFFFFFFFFFFFFFF00FFFFFFFFFFFFFFFFFFFFFF00FFFFFFFFFFFFFFFFFFFFFFFFFFFFFFFFFFFFFF00FFFFFFFFFFFFFFFFFFFFFF00FFFFFFFFFFFFFFFFFFFFFFFFFFFFFFFFFFFFFF00FFFFFFFFFFFFFFFFFFFFFF00FFFFFFFFFFFFFFFFFFFFFFFFFFFFFFFFFF
310
FFFF00FFFFFFFFFFFFFFFFFFFFFF00FFFFFFFFFFFFFFFFFFFFFFFFFFFFFFFFFFFFFF00FFFFFFFFFFFFFFFFFFFF00FFFFFFFFFFFFFFFFFFFFFFFFFFFFFFFFFFFFFFFF00FFFFFFFFFFFFFFFFFFFF00FFFFFFFFFFFFFFFFFFFFFFFFFFFFFFFFFFFFFFFF00FFFFFFFFFFFFFFFFFFFF00FFFFFFFFFFFFFFFFFFFFFFFFFFFFFFFFFF
310
FFFFFF00FFFFFFFFFFFFFFFFFFFF00FFFFFFFFFFFFFFFFFFFFFFFFFFFFFFFFFFFFFFFF00FFFFFFFFFFFFFFFFFFFF00FFFFFFFFFFFFFFFFFFFFFFFFFFFFFFFFFFFFFFFF00FFFFFFFFFFFFFFFFFFFF00FFFFFFFFFFFFFFFFFFFFFFFFFFFFFFFFFFFFFFFF00FFFFFFFFFFFFFFFFFF00FFFFFFFFFFFFFFFFFFFFFFFFFFFFFFFFFF
310
FFFFFFFF00FFFFFFFFFFFFFFFFFF00FFFFFFFFFFFFFFFFFFFFFFFFFFFFFFFFFFFFFFFFFF00FFFFFFFFFFFFFFFFFF00FFFFFFFFFFFFFFFFFFFFFFFFFFFFFFFFFFFFFFFFFF0000000000000000000000FFFFFFFFFFFFFFFFFFFFFFFFFFFFFFFFFFFFFFFFFFFFFFFFFFFFFFFFFFFFFFFFFFFFFFFFFFFFFFFFFFFFFFFFFFFFFFFF
310
FFFFFFFFFFFFFFFFFFFFFFFFFFFFFFFFFFFFFFFFFFFFFFFFFFFFFFFFFFFFFFFFFFFFFFFFFFFFFFFFFFFFFFFFFFFFFFFFFFFFFFFFFFFFFFFFFFFFFFFFFFFFFFFFFFFFFFFFFFFFFFFFFFFFFFFFFFFFFFFFFFFFFFFFFFFFFFFFFFFFFFFFFFFFFFFFFFFFFFFFFFFFFFFFFFFFFFFFFFFFFFFFFFFFFFFFFFFFFFFFFFFFFFFFFFFFFF
310
FFFFFFFFFFFFFFFFFFFFFFFFFFFFFFFFFFFFFFFFFFFFFFFFFFFFFFFFFFFFFFFFFFFFFFFFFFFFFFFFFFFFFFFFFFFFFFFFFFFFFFFFFFFFFFFFFFFFFFFFFFFFFFFFFFFFFFFFFFFFFFFFFFFFFFFFFFFFFFFFFFFFFFFFFFFFFFFFFFFFFFFFFFFFFFFFFFFFFFFFFFFFFFFFFFFFFFFFFFFFFFFFFFFFFFFFFFFFFFFFFFFFFFFFFFFFFF
310
FFFFFFFFFFFFFFFFFFFFFFFFFFFFFFFFFFFFFFFFFFFFFFFFFFFFFFFFFFFFFFFFFFFFFFFFFFFFFFFFFFFFFFFFFFFFFFFFFFFFFFFFFFFFFFFFFFFFFFFFFFFFFFFFFFFFFFFFFFFFFFFFFFFFFFFFFFFFFFFFFFFFFFFFFFFFFFFFFFFFFFFFFFFFFFFFFFFFFFFFFFFFFFFFFFFFFFFFFFFFFFFFFFFFFFFFFFFFFFFFFFFFFFFFFFFFFF
310
FFFFFFFFFFFFFFFFFFFFFFFFFFFFFFFFFFFFFFFFFFFFFFFFFFFFFFFFFFFFFFFFFFFFFFFFFFFFFFFFFFFFFFFFFFFFFFFFFFFFFFFFFFFFFFFF
102
{BLKREFS
331
2907
102
}
  0
BLOCK_RECORD
  5
28D6
330
265D
100
AcDbSymbolTableRecord
100
AcDbBlockTableRecord
  2
AI9-BLK9
340
0
310
2800000020000000200000000100080000000000000400000000000000000000000000000000000000000000000080000080000000808000800000008000800080800000C0C0C000C0DCC000F0CAA6000020400000206000002080000020A0000020C0000020E00000400000004020000040400000406000004080000040A0
310
000040C0000040E00000600000006020000060400000606000006080000060A0000060C0000060E00000800000008020000080400000806000008080000080A0000080C0000080E00000A0000000A0200000A0400000A0600000A0800000A0A00000A0C00000A0E00000C0000000C0200000C0400000C0600000C0800000C0
310
A00000C0C00000C0E00000E0000000E0200000E0400000E0600000E0800000E0A00000E0C00000E0E00040000000400020004000400040006000400080004000A0004000C0004000E00040200000402020004020400040206000402080004020A0004020C0004020E000404000004040200040404000404060004040800040
310
40A0004040C0004040E00040600000406020004060400040606000406080004060A0004060C0004060E00040800000408020004080400040806000408080004080A0004080C0004080E00040A0000040A0200040A0400040A0600040A0800040A0A00040A0C00040A0E00040C0000040C0200040C0400040C0600040C08000
310
40C0A00040C0C00040C0E00040E0000040E0200040E0400040E0600040E0800040E0A00040E0C00040E0E00080000000800020008000400080006000800080008000A0008000C0008000E00080200000802020008020400080206000802080008020A0008020C0008020E00080400000804020008040400080406000804080
310
008040A0008040C0008040E00080600000806020008060400080606000806080008060A0008060C0008060E00080800000808020008080400080806000808080008080A0008080C0008080E00080A0000080A0200080A0400080A0600080A0800080A0A00080A0C00080A0E00080C0000080C0200080C0400080C0600080C0
310
800080C0A00080C0C00080C0E00080E0000080E0200080E0400080E0600080E0800080E0A00080E0C00080E0E000C0000000C0002000C0004000C0006000C0008000C000A000C000C000C000E000C0200000C0202000C0204000C0206000C0208000C020A000C020C000C020E000C0400000C0402000C0404000C0406000C0
310
408000C040A000C040C000C040E000C0600000C0602000C0604000C0606000C0608000C060A000C060C000C060E000C0800000C0802000C0804000C0806000C0808000C080A000C080C000C080E000C0A00000C0A02000C0A04000C0A06000C0A08000C0A0A000C0A0C000C0A0E000C0C00000C0C02000C0C04000C0C06000
310
C0C08000C0C0A000F0FBFF00A4A0A000808080000000FF0000FF000000FFFF00FF000000FF00FF00FFFF0000FFFFFF00FFFFFFFFFFFFFFFFFFFFFFFFFFFFFFFFFFFFFFFFFFFFFFFFFFFFFFFFFFFFFFFFFFFFFFFFFFFFFFFFFFFFFFFFFFFFFF0000FFFFFFFFFFFFFFFFFFFFFFFFFFFFFFFFFFFFFFFFFFFFFFFFFFFFFFFF0000
310
FF0000FFFFFFFFFFFFFFFFFFFFFFFFFFFFFFFFFFFFFFFFFFFFFFFFFFFFFF00FFFFFF0000FFFFFFFFFFFFFFFFFFFFFFFFFFFFFFFFFFFFFFFFFFFFFFFFFFFF00FFFFFFFF0000FFFFFFFFFFFFFFFFFFFFFFFFFFFFFFFFFFFFFFFFFFFFFFFF00FF00000000FF00FFFFFFFFFFFFFFFFFFFFFFFFFFFFFFFFFFFFFFFFFFFFFFFF0000
310
00FFFF00FF00FFFFFFFFFFFFFFFFFFFFFFFFFFFFFFFFFFFFFFFFFFFFFFFF0000FFFFFFFF0000FFFFFFFFFFFFFFFFFFFFFFFFFFFFFFFFFFFFFFFFFFFFFFFF0000FFFFFFFF0000FFFFFFFFFFFFFFFFFFFFFFFFFFFFFFFFFFFFFFFFFFFFFF00FF00FFFFFFFF00FF00FFFFFFFFFFFFFFFFFFFFFFFFFFFFFFFFFFFFFFFFFFFF0000
310
FFFFFFFFFF00FF00FFFFFFFFFFFFFFFFFFFFFFFFFFFFFFFFFFFFFFFFFFFF0000FFFFFFFFFFFF0000FFFFFFFFFFFFFFFFFFFFFFFFFFFFFFFFFFFFFFFFFFFF0000FFFFFFFFFFFF0000FFFFFFFFFFFFFFFFFFFFFFFFFFFFFFFFFFFFFFFFFFFF0000FFFFFFFFFFFF0000FFFFFFFFFFFFFFFFFFFFFFFFFFFFFFFFFFFFFFFFFFFF00
310
00FFFFFFFFFFFF0000FFFFFFFFFFFFFFFFFFFFFFFFFFFFFFFFFFFFFFFFFFFF0000FFFFFFFFFFFF0000FFFFFFFFFFFFFFFFFFFFFFFFFFFFFFFFFFFFFFFFFFFF0000FFFFFFFFFFFF0000FFFFFFFFFFFFFFFFFFFFFFFFFFFFFFFFFFFFFFFFFFFF0000FFFFFFFFFFFF0000FFFFFFFFFFFFFFFFFFFFFFFFFFFFFFFFFFFFFFFFFFFF
310
0000FFFFFFFFFFFF0000FFFFFFFFFFFFFFFFFFFFFFFFFFFFFFFFFFFFFFFFFFFF0000FFFFFFFFFFFF0000FFFFFFFFFFFFFFFFFFFFFFFFFFFFFFFFFFFFFFFFFFFF0000FFFFFFFFFFFF0000FFFFFFFFFFFFFFFFFFFFFFFFFFFFFFFFFFFFFFFFFFFF00FF00FFFFFFFF00FF00FFFFFFFFFFFFFFFFFFFFFFFFFFFFFFFFFFFFFFFFFF
310
FF00FF00FFFFFFFF00FF00FFFFFFFFFFFFFFFFFFFFFFFFFFFFFFFFFFFFFFFFFFFF00FF00FFFFFFFF00FF00FFFFFFFFFFFFFFFFFFFFFFFFFFFFFFFFFFFFFFFFFFFFFF0000FFFFFFFF0000FFFFFFFFFFFFFFFFFFFFFFFFFFFFFFFFFFFFFFFFFFFFFFFF00FF00FFFF00FF00FFFFFFFFFFFFFFFFFFFFFFFFFFFFFFFFFFFFFFFFFF
310
FFFFFF00FF00000000FF00FFFFFFFFFFFFFFFFFFFFFFFFFFFFFFFFFFFFFFFFFFFFFFFFFF00FFFFFFFF0000FFFFFFFFFFFFFFFFFFFFFFFFFFFFFFFFFFFFFFFFFFFFFFFFFF00FFFFFFFF00FFFFFFFFFFFFFFFFFFFFFFFFFFFFFFFFFFFFFFFFFFFFFFFFFFFFFF00000000FFFFFFFFFFFFFFFFFFFFFFFFFFFFFFFFFFFFFFFFFFFF
310
FFFFFFFFFFFFFF0000FFFFFFFFFFFFFFFFFFFFFFFFFFFFFFFFFFFFFFFFFFFFFFFFFFFFFFFFFFFFFFFFFFFFFFFFFFFFFFFFFFFFFFFFFFFFFF
102
{BLKREFS
331
2908
102
}
  0
BLOCK_RECORD
  5
28DB
330
265D
100
AcDbSymbolTableRecord
100
AcDbBlockTableRecord
  2
AI9-BLK8
340
0
310
2800000020000000200000000100080000000000000400000000000000000000000000000000000000000000000080000080000000808000800000008000800080800000C0C0C000C0DCC000F0CAA6000020400000206000002080000020A0000020C0000020E00000400000004020000040400000406000004080000040A0
310
000040C0000040E00000600000006020000060400000606000006080000060A0000060C0000060E00000800000008020000080400000806000008080000080A0000080C0000080E00000A0000000A0200000A0400000A0600000A0800000A0A00000A0C00000A0E00000C0000000C0200000C0400000C0600000C0800000C0
310
A00000C0C00000C0E00000E0000000E0200000E0400000E0600000E0800000E0A00000E0C00000E0E00040000000400020004000400040006000400080004000A0004000C0004000E00040200000402020004020400040206000402080004020A0004020C0004020E000404000004040200040404000404060004040800040
310
40A0004040C0004040E00040600000406020004060400040606000406080004060A0004060C0004060E00040800000408020004080400040806000408080004080A0004080C0004080E00040A0000040A0200040A0400040A0600040A0800040A0A00040A0C00040A0E00040C0000040C0200040C0400040C0600040C08000
310
40C0A00040C0C00040C0E00040E0000040E0200040E0400040E0600040E0800040E0A00040E0C00040E0E00080000000800020008000400080006000800080008000A0008000C0008000E00080200000802020008020400080206000802080008020A0008020C0008020E00080400000804020008040400080406000804080
310
008040A0008040C0008040E00080600000806020008060400080606000806080008060A0008060C0008060E00080800000808020008080400080806000808080008080A0008080C0008080E00080A0000080A0200080A0400080A0600080A0800080A0A00080A0C00080A0E00080C0000080C0200080C0400080C0600080C0
310
800080C0A00080C0C00080C0E00080E0000080E0200080E0400080E0600080E0800080E0A00080E0C00080E0E000C0000000C0002000C0004000C0006000C0008000C000A000C000C000C000E000C0200000C0202000C0204000C0206000C0208000C020A000C020C000C020E000C0400000C0402000C0404000C0406000C0
310
408000C040A000C040C000C040E000C0600000C0602000C0604000C0606000C0608000C060A000C060C000C060E000C0800000C0802000C0804000C0806000C0808000C080A000C080C000C080E000C0A00000C0A02000C0A04000C0A06000C0A08000C0A0A000C0A0C000C0A0E000C0C00000C0C02000C0C04000C0C06000
310
C0C08000C0C0A000F0FBFF00A4A0A000808080000000FF0000FF000000FFFF00FF000000FF00FF00FFFF0000FFFFFF00FFFFFFFFFFFFFFFFFFFFFFFFFFFFFFFFFFFFFFFFFFFFFFFFFFFFFFFFFFFFFFFFFFFFFFFFFFFFFFFFFFFFFF0000FFFFFFFFFFFF0000FFFFFFFFFFFFFFFFFFFFFFFFFFFFFFFFFFFFFFFFFFFF0000FFFF
310
FFFFFFFF0000FFFFFFFFFFFFFFFFFFFFFFFFFFFFFFFFFFFFFFFFFFFF0000FFFFFFFFFF00FF00FFFFFFFFFFFFFFFFFFFFFFFFFFFFFFFFFFFFFFFFFFFF0000FFFFFFFFFF00FF00FFFFFFFFFFFFFFFFFFFFFFFFFFFFFFFFFFFFFFFFFFFF0000FFFFFFFFFF00FF00FFFFFFFFFFFFFFFFFFFFFFFFFFFFFFFFFFFFFFFFFFFF0000FF
310
FFFFFF00FFFF00FFFFFFFFFFFFFFFFFFFFFFFFFFFFFFFFFFFFFFFFFFFF0000FFFFFFFF00FF0000FFFFFFFFFFFFFFFFFFFFFFFFFFFFFFFFFFFFFFFFFFFF0000FFFFFFFF00FF0000FFFFFFFFFFFFFFFFFFFFFFFFFFFFFFFFFFFFFFFFFFFF0000FFFFFFFF00000000FFFFFFFFFFFFFFFFFFFFFFFFFFFFFFFFFFFFFFFFFFFF0000
310
FFFFFF00FF000000FFFFFFFFFFFFFFFFFFFFFFFFFFFFFFFFFFFFFFFFFFFF0000FFFFFF00FF000000FFFFFFFFFFFFFFFFFFFFFFFFFFFFFFFFFFFFFFFFFFFF0000FFFFFF00FF000000FFFFFFFFFFFFFFFFFFFFFFFFFFFFFFFFFFFFFFFFFFFF0000FFFF00FF00FF0000FFFFFFFFFFFFFFFFFFFFFFFFFFFFFFFFFFFFFFFFFFFF00
310
00FFFF00FF00FF0000FFFFFFFFFFFFFFFFFFFFFFFFFFFFFFFFFFFFFFFFFFFF0000FFFF00FF00FF0000FFFFFFFFFFFFFFFFFFFFFFFFFFFFFFFFFFFFFFFFFFFF0000FF00FFFF00FF0000FFFFFFFFFFFFFFFFFFFFFFFFFFFFFFFFFFFFFFFFFFFF0000FF00FF00FFFF0000FFFFFFFFFFFFFFFFFFFFFFFFFFFFFFFFFFFFFFFFFFFF
310
0000FF00FF00FFFF0000FFFFFFFFFFFFFFFFFFFFFFFFFFFFFFFFFFFFFFFFFFFF0000FF00FF00FFFF0000FFFFFFFFFFFFFFFFFFFFFFFFFFFFFFFFFFFFFFFFFFFF000000FFFF00FFFF0000FFFFFFFFFFFFFFFFFFFFFFFFFFFFFFFFFFFFFFFFFFFF000000FF00FFFFFF0000FFFFFFFFFFFFFFFFFFFFFFFFFFFFFFFFFFFFFFFFFF
310
FF000000FF00FFFFFF0000FFFFFFFFFFFFFFFFFFFFFFFFFFFFFFFFFFFFFFFFFFFF0000FFFF00FFFFFF0000FFFFFFFFFFFFFFFFFFFFFFFFFFFFFFFFFFFFFFFFFFFF0000FFFF00FFFFFF0000FFFFFFFFFFFFFFFFFFFFFFFFFFFFFFFFFFFFFFFFFFFF00FFFF00FFFFFFFF0000FFFFFFFFFFFFFFFFFFFFFFFFFFFFFFFFFFFFFFFF
310
FFFF00FFFF00FFFFFFFF0000FFFFFFFFFFFFFFFFFFFFFFFFFFFFFFFFFFFFFFFFFFFF00FFFF00FFFFFFFF0000FFFFFFFFFFFFFFFFFFFFFFFFFFFFFFFFFFFFFFFFFFFF00FFFF00FFFFFFFF0000FFFFFFFFFFFFFFFFFFFFFFFFFFFFFFFFFFFFFFFFFFFF00FF00FFFFFFFFFF0000FFFFFFFFFFFFFFFFFFFFFFFFFFFFFFFFFFFFFF
310
FFFFFF000000FFFFFFFFFF0000FFFFFFFFFFFFFFFFFFFFFFFFFFFFFFFFFFFFFFFFFFFFFFFFFFFFFFFFFFFFFFFFFFFFFFFFFFFFFFFFFFFFFF
102
{BLKREFS
331
2909
102
}
  0
BLOCK_RECORD
  5
28E0
330
265D
100
AcDbSymbolTableRecord
100
AcDbBlockTableRecord
  2
AI9-BLK7
340
0
310
2800000020000000200000000100080000000000000400000000000000000000000000000000000000000000000080000080000000808000800000008000800080800000C0C0C000C0DCC000F0CAA6000020400000206000002080000020A0000020C0000020E00000400000004020000040400000406000004080000040A0
310
000040C0000040E00000600000006020000060400000606000006080000060A0000060C0000060E00000800000008020000080400000806000008080000080A0000080C0000080E00000A0000000A0200000A0400000A0600000A0800000A0A00000A0C00000A0E00000C0000000C0200000C0400000C0600000C0800000C0
310
A00000C0C00000C0E00000E0000000E0200000E0400000E0600000E0800000E0A00000E0C00000E0E00040000000400020004000400040006000400080004000A0004000C0004000E00040200000402020004020400040206000402080004020A0004020C0004020E000404000004040200040404000404060004040800040
310
40A0004040C0004040E00040600000406020004060400040606000406080004060A0004060C0004060E00040800000408020004080400040806000408080004080A0004080C0004080E00040A0000040A0200040A0400040A0600040A0800040A0A00040A0C00040A0E00040C0000040C0200040C0400040C0600040C08000
310
40C0A00040C0C00040C0E00040E0000040E0200040E0400040E0600040E0800040E0A00040E0C00040E0E00080000000800020008000400080006000800080008000A0008000C0008000E00080200000802020008020400080206000802080008020A0008020C0008020E00080400000804020008040400080406000804080
310
008040A0008040C0008040E00080600000806020008060400080606000806080008060A0008060C0008060E00080800000808020008080400080806000808080008080A0008080C0008080E00080A0000080A0200080A0400080A0600080A0800080A0A00080A0C00080A0E00080C0000080C0200080C0400080C0600080C0
310
800080C0A00080C0C00080C0E00080E0000080E0200080E0400080E0600080E0800080E0A00080E0C00080E0E000C0000000C0002000C0004000C0006000C0008000C000A000C000C000C000E000C0200000C0202000C0204000C0206000C0208000C020A000C020C000C020E000C0400000C0402000C0404000C0406000C0
310
408000C040A000C040C000C040E000C0600000C0602000C0604000C0606000C0608000C060A000C060C000C060E000C0800000C0802000C0804000C0806000C0808000C080A000C080C000C080E000C0A00000C0A02000C0A04000C0A06000C0A08000C0A0A000C0A0C000C0A0E000C0C00000C0C02000C0C04000C0C06000
310
C0C08000C0C0A000F0FBFF00A4A0A000808080000000FF0000FF000000FFFF00FF000000FF00FF00FFFF0000FFFFFF00FFFFFFFFFFFFFFFFFFFFFFFFFFFFFFFFFFFFFFFFFFFFFFFFFFFFFFFFFFFFFFFFFFFFFFFFFFFFFFFFFFFFFFFFFFFFFF0000FFFFFFFFFFFFFFFFFFFFFFFFFFFFFFFFFFFFFFFFFFFFFFFFFFFFFFFFFFFF
310
0000FFFFFFFFFFFFFFFFFFFFFFFFFFFFFFFFFFFFFFFFFFFFFFFFFFFFFFFFFFFF0000FFFFFFFFFFFFFFFFFFFFFFFFFFFFFFFFFFFFFFFFFFFFFFFFFFFFFFFFFFFF0000FFFFFFFFFFFFFFFFFFFFFFFFFFFFFFFFFFFFFFFFFFFFFFFFFFFFFFFFFFFF0000FFFFFFFFFFFFFFFFFFFFFFFFFFFFFFFFFFFFFFFFFFFFFFFFFFFFFFFFFF
310
FF0000FFFFFFFFFFFFFFFFFFFFFFFFFFFFFFFFFFFFFFFFFFFFFFFFFFFFFFFFFFFF0000FFFFFFFFFFFFFFFFFFFFFFFFFFFFFFFFFFFFFFFFFFFFFFFFFFFFFFFFFFFF0000FFFFFFFFFFFFFFFFFFFFFFFFFFFFFFFFFFFFFFFFFFFFFFFFFFFFFFFFFFFF0000FFFFFFFFFFFFFFFFFFFFFFFFFFFFFFFFFFFFFFFFFFFFFFFFFFFFFFFF
310
FFFF0000FFFFFFFFFFFFFFFFFFFFFFFFFFFFFFFFFFFFFFFFFFFFFFFFFFFFFFFFFFFF0000FFFFFFFFFFFFFFFFFFFFFFFFFFFFFFFFFFFFFFFFFFFFFFFFFFFFFFFFFFFF0000FFFFFFFFFFFFFFFFFFFFFFFFFFFFFFFFFFFFFFFFFFFFFFFFFFFFFFFFFFFF0000FFFFFFFFFFFFFFFFFFFFFFFFFFFFFFFFFFFFFFFFFFFFFFFFFFFFFF
310
FFFFFF0000FFFFFFFFFFFFFFFFFFFFFFFFFFFFFFFFFFFFFFFFFFFFFFFFFFFFFFFFFFFF0000FFFFFFFFFFFFFFFFFFFFFFFFFFFFFFFFFFFFFFFFFFFFFFFFFFFFFFFFFFFF0000FFFFFFFFFFFFFFFFFFFFFFFFFFFFFFFFFFFFFFFFFFFFFFFFFFFFFFFFFFFF0000FFFFFFFFFFFFFFFFFFFFFFFFFFFFFFFFFFFFFFFFFFFFFFFFFFFF
310
FFFFFFFF0000FFFFFFFFFFFFFFFFFFFFFFFFFFFFFFFFFFFFFFFFFFFFFFFFFFFFFFFFFFFF0000FFFFFFFFFFFFFFFFFFFFFFFFFFFFFFFFFFFFFFFFFFFFFFFFFFFFFFFFFFFF0000FFFFFFFFFFFFFFFFFFFFFFFFFFFFFFFFFFFFFFFFFFFFFFFFFFFFFFFFFFFF0000FFFFFFFFFFFFFFFFFFFFFFFFFFFFFFFFFFFFFFFFFFFFFFFFFF
310
FFFFFFFFFF0000FFFFFFFFFFFFFFFFFFFFFFFFFFFFFFFFFFFFFFFFFFFFFFFFFFFFFFFFFFFF0000FFFFFFFFFFFFFFFFFFFFFFFFFFFFFFFFFFFFFFFFFFFFFFFFFFFFFFFFFFFF0000FFFFFFFFFFFFFFFFFFFFFFFFFFFFFFFFFFFFFFFFFFFFFFFFFFFFFFFFFFFF0000FFFFFFFFFFFFFFFFFFFFFFFFFFFFFFFFFFFFFFFFFFFFFFFF
310
FFFFFFFFFFFF0000FFFFFFFFFFFFFFFFFFFFFFFFFFFFFFFFFFFFFFFFFFFFFFFFFFFFFFFFFFFF0000FFFFFFFFFFFFFFFFFFFFFFFFFFFFFFFFFFFFFFFFFFFFFFFFFFFFFFFFFFFF0000FFFFFFFFFFFFFFFFFFFFFFFFFFFFFFFFFFFFFFFFFFFFFFFFFFFFFFFFFFFF0000FFFFFFFFFFFFFFFFFFFFFFFFFFFFFFFFFFFFFFFFFFFFFF
310
FFFFFFFFFFFFFF0000FFFFFFFFFFFFFFFFFFFFFFFFFFFFFFFFFFFFFFFFFFFFFFFFFFFFFFFFFFFFFFFFFFFFFFFFFFFFFFFFFFFFFFFFFFFFFF
102
{BLKREFS
331
290A
102
}
  0
BLOCK_RECORD
  5
28E5
330
265D
100
AcDbSymbolTableRecord
100
AcDbBlockTableRecord
  2
AI9-BLK6
340
0
310
2800000020000000200000000100080000000000000400000000000000000000000000000000000000000000000080000080000000808000800000008000800080800000C0C0C000C0DCC000F0CAA6000020400000206000002080000020A0000020C0000020E00000400000004020000040400000406000004080000040A0
310
000040C0000040E00000600000006020000060400000606000006080000060A0000060C0000060E00000800000008020000080400000806000008080000080A0000080C0000080E00000A0000000A0200000A0400000A0600000A0800000A0A00000A0C00000A0E00000C0000000C0200000C0400000C0600000C0800000C0
310
A00000C0C00000C0E00000E0000000E0200000E0400000E0600000E0800000E0A00000E0C00000E0E00040000000400020004000400040006000400080004000A0004000C0004000E00040200000402020004020400040206000402080004020A0004020C0004020E000404000004040200040404000404060004040800040
310
40A0004040C0004040E00040600000406020004060400040606000406080004060A0004060C0004060E00040800000408020004080400040806000408080004080A0004080C0004080E00040A0000040A0200040A0400040A0600040A0800040A0A00040A0C00040A0E00040C0000040C0200040C0400040C0600040C08000
310
40C0A00040C0C00040C0E00040E0000040E0200040E0400040E0600040E0800040E0A00040E0C00040E0E00080000000800020008000400080006000800080008000A0008000C0008000E00080200000802020008020400080206000802080008020A0008020C0008020E00080400000804020008040400080406000804080
310
008040A0008040C0008040E00080600000806020008060400080606000806080008060A0008060C0008060E00080800000808020008080400080806000808080008080A0008080C0008080E00080A0000080A0200080A0400080A0600080A0800080A0A00080A0C00080A0E00080C0000080C0200080C0400080C0600080C0
310
800080C0A00080C0C00080C0E00080E0000080E0200080E0400080E0600080E0800080E0A00080E0C00080E0E000C0000000C0002000C0004000C0006000C0008000C000A000C000C000C000E000C0200000C0202000C0204000C0206000C0208000C020A000C020C000C020E000C0400000C0402000C0404000C0406000C0
310
408000C040A000C040C000C040E000C0600000C0602000C0604000C0606000C0608000C060A000C060C000C060E000C0800000C0802000C0804000C0806000C0808000C080A000C080C000C080E000C0A00000C0A02000C0A04000C0A06000C0A08000C0A0A000C0A0C000C0A0E000C0C00000C0C02000C0C04000C0C06000
310
C0C08000C0C0A000F0FBFF00A4A0A000808080000000FF0000FF000000FFFF00FF000000FF00FF00FFFF0000FFFFFF00FFFFFFFFFFFFFFFFFFFFFFFF00FFFFFFFFFFFFFF00FFFFFFFFFFFFFFFFFFFFFFFFFFFFFFFFFFFFFFFFFFFFFF00FFFFFFFFFFFFFF00FFFFFFFFFFFFFFFFFFFFFFFFFFFFFFFFFFFFFFFFFFFFFF00FFFF
310
FFFFFFFFFF00FFFFFFFFFFFFFFFFFFFFFFFFFFFFFFFFFFFFFFFFFFFF00FFFFFFFFFFFFFFFF00FFFFFFFFFFFFFFFFFFFFFFFFFFFFFFFFFFFFFFFFFFFF00FFFFFFFFFFFFFF00FFFFFFFFFFFFFFFFFFFFFFFFFFFFFFFFFFFFFFFFFFFFFF00FFFFFFFFFFFFFF00FFFFFFFFFFFFFFFFFFFFFFFFFFFFFFFFFFFFFFFFFFFF00FFFFFF
310
FFFFFFFFFF00FFFFFFFFFFFFFFFFFFFFFFFFFFFFFFFFFFFFFFFFFFFF00FFFFFFFFFFFFFF00FFFFFFFFFFFFFFFFFFFFFFFFFFFFFFFFFFFFFFFFFFFF00FFFFFFFFFFFFFFFF00FFFFFFFFFFFFFFFFFFFFFFFFFFFFFFFFFFFFFFFFFF00FFFFFFFFFFFFFFFFFF00FFFFFFFFFFFFFFFFFFFFFFFFFFFFFFFFFFFFFFFF00FFFFFFFFFF
310
FFFFFFFFFF00FFFFFFFFFFFFFFFFFFFFFFFFFFFFFFFFFFFFFF00FFFFFFFFFFFFFFFFFFFF00FFFFFFFFFFFFFFFFFFFFFFFFFFFFFFFFFFFF0000FFFFFFFFFFFFFFFFFFFFFF00FFFFFFFFFFFFFFFFFFFFFFFFFFFF00000000FFFFFFFFFFFFFFFFFFFFFFFFFF00FFFFFFFFFFFFFFFFFFFFFFFFFFFFFFFFFFFFFFFFFFFFFFFFFFFF
310
FFFFFFFF00FFFFFFFFFFFFFFFFFFFFFFFFFFFFFFFFFFFFFFFFFFFFFFFFFFFFFFFFFFFFFF00FFFFFFFFFFFFFFFFFFFFFFFFFFFFFFFFFFFFFFFFFFFFFFFFFFFFFFFFFFFFFF00FFFFFFFFFFFFFFFFFFFFFFFFFFFFFFFFFFFFFFFFFFFFFFFFFFFFFFFFFFFF00FFFFFFFFFFFFFFFFFFFFFFFFFFFFFFFFFFFFFFFFFFFFFFFFFFFFFF
310
FFFFFFFF00FFFFFFFFFFFFFFFFFFFFFFFFFFFFFFFFFFFFFFFFFFFFFFFFFFFFFFFFFFFF00FFFFFFFFFFFFFFFFFFFFFFFFFFFFFFFFFFFFFFFFFFFFFFFFFFFFFFFFFFFF00FFFFFFFFFFFFFFFFFFFFFFFFFFFFFFFFFFFFFFFFFFFFFFFFFFFFFFFFFFFF00FFFFFFFFFFFFFFFFFFFFFFFFFFFFFFFFFFFFFFFFFFFFFFFFFFFFFFFFFF
310
FF00FFFFFFFFFFFFFFFFFFFFFFFFFFFFFFFFFFFFFFFFFFFFFFFFFFFFFFFFFFFFFF00FFFFFFFFFFFFFFFFFFFFFFFFFFFFFFFFFFFFFFFFFFFFFFFFFFFFFFFFFFFF00FFFFFFFFFFFFFFFFFFFFFFFFFFFFFFFFFFFFFFFFFFFFFFFFFFFFFFFFFF0000FFFFFFFFFFFFFFFFFFFFFFFFFFFFFFFFFFFFFFFFFFFFFFFFFFFFFFFF0000FF
310
FFFFFFFFFFFFFFFFFFFFFFFFFFFFFFFFFFFFFFFFFFFFFFFFFF00000000FFFFFFFFFFFFFFFFFFFFFFFFFFFFFFFFFFFFFFFFFFFFFFFFFFFF0000FFFFFFFFFFFFFFFFFFFFFFFFFFFFFFFFFFFFFFFFFFFFFFFFFFFFFFFFFFFFFFFFFFFFFFFFFFFFFFFFFFFFFFFFFFFFFFFFFFFFFFFFFFFFFFFFFFFFFFFFFFFFFFFFFFFFFFFFFFFF
310
FFFFFFFFFFFFFFFFFFFFFFFFFFFFFFFFFFFFFFFFFFFFFFFFFFFFFFFFFFFFFFFFFFFFFFFFFFFFFFFFFFFFFFFFFFFFFFFFFFFFFFFFFFFFFFFF
102
{BLKREFS
331
290B
102
}
  0
BLOCK_RECORD
  5
28E9
330
265D
100
AcDbSymbolTableRecord
100
AcDbBlockTableRecord
  2
AI9-BLK5
340
0
310
2800000020000000200000000100080000000000000400000000000000000000000000000000000000000000000080000080000000808000800000008000800080800000C0C0C000C0DCC000F0CAA6000020400000206000002080000020A0000020C0000020E00000400000004020000040400000406000004080000040A0
310
000040C0000040E00000600000006020000060400000606000006080000060A0000060C0000060E00000800000008020000080400000806000008080000080A0000080C0000080E00000A0000000A0200000A0400000A0600000A0800000A0A00000A0C00000A0E00000C0000000C0200000C0400000C0600000C0800000C0
310
A00000C0C00000C0E00000E0000000E0200000E0400000E0600000E0800000E0A00000E0C00000E0E00040000000400020004000400040006000400080004000A0004000C0004000E00040200000402020004020400040206000402080004020A0004020C0004020E000404000004040200040404000404060004040800040
310
40A0004040C0004040E00040600000406020004060400040606000406080004060A0004060C0004060E00040800000408020004080400040806000408080004080A0004080C0004080E00040A0000040A0200040A0400040A0600040A0800040A0A00040A0C00040A0E00040C0000040C0200040C0400040C0600040C08000
310
40C0A00040C0C00040C0E00040E0000040E0200040E0400040E0600040E0800040E0A00040E0C00040E0E00080000000800020008000400080006000800080008000A0008000C0008000E00080200000802020008020400080206000802080008020A0008020C0008020E00080400000804020008040400080406000804080
310
008040A0008040C0008040E00080600000806020008060400080606000806080008060A0008060C0008060E00080800000808020008080400080806000808080008080A0008080C0008080E00080A0000080A0200080A0400080A0600080A0800080A0A00080A0C00080A0E00080C0000080C0200080C0400080C0600080C0
310
800080C0A00080C0C00080C0E00080E0000080E0200080E0400080E0600080E0800080E0A00080E0C00080E0E000C0000000C0002000C0004000C0006000C0008000C000A000C000C000C000E000C0200000C0202000C0204000C0206000C0208000C020A000C020C000C020E000C0400000C0402000C0404000C0406000C0
310
408000C040A000C040C000C040E000C0600000C0602000C0604000C0606000C0608000C060A000C060C000C060E000C0800000C0802000C0804000C0806000C0808000C080A000C080C000C080E000C0A00000C0A02000C0A04000C0A06000C0A08000C0A0A000C0A0C000C0A0E000C0C00000C0C02000C0C04000C0C06000
310
C0C08000C0C0A000F0FBFF00A4A0A000808080000000FF0000FF000000FFFF00FF000000FF00FF00FFFF0000FFFFFF00FFFFFFFFFFFFFFFFFFFFFFFFFFFFFFFFFFFFFFFFFFFFFFFFFFFFFFFFFFFFFFFFFFFFFFFFFFFFFFFF000000000000000000000000000000000000000000000000FFFFFFFFFFFFFFFF00FFFFFFFFFFFF
310
FFFFFFFFFFFFFFFFFFFFFFFFFFFFFFFFFFFFFFFFFFFFFFFFFF00FFFFFFFFFFFFFFFFFFFFFFFFFFFFFFFFFFFFFFFFFFFFFFFFFFFFFFFFFFFFFF00FFFFFFFFFFFFFFFFFFFFFFFFFFFFFFFFFFFFFFFFFFFFFFFFFFFFFFFFFFFFFF00FFFFFFFFFFFFFFFFFFFFFFFFFFFFFFFFFFFFFFFFFFFFFFFFFFFFFFFFFFFFFF00FFFFFFFFFF
310
FFFFFFFFFFFFFFFFFFFFFFFFFFFFFFFFFFFFFFFFFFFFFFFFFFFF00FFFFFFFFFFFFFFFFFFFFFFFFFFFFFFFFFFFFFFFFFFFFFFFFFFFFFFFFFFFFFF00FFFFFFFFFFFFFFFFFFFFFFFFFFFFFFFFFFFFFFFFFFFFFFFFFFFFFFFFFFFFFF00FFFFFFFFFFFFFFFFFFFFFFFFFFFFFFFFFFFFFFFFFFFFFFFFFFFFFFFFFFFFFF00FFFFFFFF
310
FFFFFFFFFFFFFFFFFFFFFFFFFFFFFFFFFFFFFFFFFFFFFFFFFFFFFF00FFFFFFFFFFFFFFFFFFFFFFFFFFFFFFFFFFFFFFFFFFFFFFFFFFFFFFFFFFFFFF00FFFFFFFFFFFFFFFFFFFFFFFFFFFFFFFFFFFFFFFFFFFFFFFFFFFFFFFFFFFFFF00FFFFFFFFFFFFFFFFFFFFFFFFFFFFFFFFFFFFFFFFFFFFFFFFFFFFFFFFFFFFFF00FFFFFF
310
FFFFFFFFFFFFFFFFFFFFFFFFFFFFFFFFFFFFFFFFFFFFFFFFFFFFFFFF00FFFFFFFFFFFFFFFFFFFFFFFFFFFFFFFFFFFFFFFFFFFFFFFFFFFFFFFFFFFFFF00FFFFFFFFFFFFFFFFFFFFFFFFFFFFFFFFFFFFFFFFFFFFFFFFFFFFFFFFFFFFFF00FFFFFFFFFFFFFFFFFFFFFFFFFFFFFFFFFFFFFFFFFFFFFFFFFFFFFFFFFFFFFF00FFFF
310
FFFFFFFFFFFFFFFFFFFFFFFFFFFFFFFFFFFFFFFFFFFFFFFFFFFFFFFFFF00FFFFFFFFFFFFFFFFFFFFFFFFFFFFFFFFFFFFFFFFFFFFFFFFFFFFFFFFFFFFFF00FFFFFFFFFFFFFFFFFFFFFFFFFFFFFFFFFFFFFFFFFFFFFFFFFFFFFFFFFFFFFF00FFFFFFFFFFFFFFFFFFFFFFFFFFFFFFFFFFFFFFFFFFFFFFFFFFFFFFFFFFFFFF00FF
310
FFFFFFFFFFFFFFFFFFFFFFFFFFFFFFFFFFFFFFFFFFFFFFFFFFFFFFFFFFFF00FFFFFFFFFFFFFFFFFFFFFFFFFFFFFFFFFFFFFFFFFFFFFFFFFFFFFFFFFFFFFF00FFFFFFFFFFFFFFFFFFFFFFFFFFFFFFFFFFFFFFFFFFFFFFFFFFFFFFFFFFFFFF00FFFFFFFFFFFFFFFFFFFFFFFFFFFFFFFFFFFFFFFFFFFFFFFFFFFFFFFFFFFFFF00
310
FFFFFFFFFFFFFFFFFFFFFFFFFFFFFFFFFFFFFFFFFFFFFFFFFFFFFFFFFFFFFF00FFFFFFFFFFFFFFFFFFFFFFFFFFFFFFFFFFFFFFFFFFFFFFFFFFFFFFFFFFFFFF00FFFFFFFFFFFFFFFFFFFFFFFFFFFFFFFFFFFFFFFFFFFFFFFFFFFFFFFFFFFFFF00FFFFFFFFFFFFFFFFFFFFFFFFFFFFFFFFFFFFFFFFFFFFFFFFFFFFFFFFFFFFFF
310
00FFFFFFFFFFFFFFFFFFFFFFFFFFFF000000000000000000FFFFFFFFFFFFFFFF00FFFFFFFFFFFFFFFFFFFFFFFFFFFF00FFFFFFFFFFFFFFFF
102
{BLKREFS
331
290C
102
}
  0
BLOCK_RECORD
  5
28EE
330
265D
100
AcDbSymbolTableRecord
100
AcDbBlockTableRecord
  2
AI9-BLK4
340
0
310
2800000020000000200000000100080000000000000400000000000000000000000000000000000000000000000080000080000000808000800000008000800080800000C0C0C000C0DCC000F0CAA6000020400000206000002080000020A0000020C0000020E00000400000004020000040400000406000004080000040A0
310
000040C0000040E00000600000006020000060400000606000006080000060A0000060C0000060E00000800000008020000080400000806000008080000080A0000080C0000080E00000A0000000A0200000A0400000A0600000A0800000A0A00000A0C00000A0E00000C0000000C0200000C0400000C0600000C0800000C0
310
A00000C0C00000C0E00000E0000000E0200000E0400000E0600000E0800000E0A00000E0C00000E0E00040000000400020004000400040006000400080004000A0004000C0004000E00040200000402020004020400040206000402080004020A0004020C0004020E000404000004040200040404000404060004040800040
310
40A0004040C0004040E00040600000406020004060400040606000406080004060A0004060C0004060E00040800000408020004080400040806000408080004080A0004080C0004080E00040A0000040A0200040A0400040A0600040A0800040A0A00040A0C00040A0E00040C0000040C0200040C0400040C0600040C08000
310
40C0A00040C0C00040C0E00040E0000040E0200040E0400040E0600040E0800040E0A00040E0C00040E0E00080000000800020008000400080006000800080008000A0008000C0008000E00080200000802020008020400080206000802080008020A0008020C0008020E00080400000804020008040400080406000804080
310
008040A0008040C0008040E00080600000806020008060400080606000806080008060A0008060C0008060E00080800000808020008080400080806000808080008080A0008080C0008080E00080A0000080A0200080A0400080A0600080A0800080A0A00080A0C00080A0E00080C0000080C0200080C0400080C0600080C0
310
800080C0A00080C0C00080C0E00080E0000080E0200080E0400080E0600080E0800080E0A00080E0C00080E0E000C0000000C0002000C0004000C0006000C0008000C000A000C000C000C000E000C0200000C0202000C0204000C0206000C0208000C020A000C020C000C020E000C0400000C0402000C0404000C0406000C0
310
408000C040A000C040C000C040E000C0600000C0602000C0604000C0606000C0608000C060A000C060C000C060E000C0800000C0802000C0804000C0806000C0808000C080A000C080C000C080E000C0A00000C0A02000C0A04000C0A06000C0A08000C0A0A000C0A0C000C0A0E000C0C00000C0C02000C0C04000C0C06000
310
C0C08000C0C0A000F0FBFF00A4A0A000808080000000FF0000FF000000FFFF00FF000000FF00FF00FFFF0000FFFFFF00FFFFFFFFFFFFFFFFFFFFFFFFFFFFFFFFFFFFFFFFFFFFFFFFFFFFFFFFFFFFFFFFFFFFFFFFFFFFFFFFFFFFFFFFFFFF00000000FFFFFFFFFFFFFFFFFFFFFF000000FFFFFFFFFFFFFFFFFFFFFFFFFFFF00
310
FFFF00FFFFFFFFFFFFFFFFFFFFFF00FFFFFFFFFFFFFFFFFFFFFFFFFFFFFFFF00FFFF00FFFFFFFFFFFFFFFFFFFFFF00FFFFFFFFFFFFFFFFFFFFFFFFFFFFFFFF00FFFF00FFFFFFFFFFFFFFFFFFFFFF00FFFFFFFFFFFFFFFFFFFFFFFFFFFFFFFF00FFFF00FFFFFFFFFFFFFFFFFFFFFF00FFFFFFFFFFFFFFFFFFFFFFFFFFFFFFFF
310
00FFFF00FFFFFFFFFFFFFFFFFFFFFF00FFFFFFFFFFFFFFFFFFFFFFFFFFFFFFFF00FFFF00FFFFFFFFFFFFFFFFFFFFFF00FFFFFFFFFFFFFFFFFFFFFFFFFFFFFFFF00FFFF00FFFFFFFFFFFFFFFFFFFFFF00FFFFFFFFFFFFFFFFFFFFFFFFFFFFFFFF00FFFF00FFFFFFFFFFFFFFFFFFFFFF00FFFFFFFFFFFFFFFFFFFFFFFFFFFFFF
310
FF00FFFF00FFFFFFFFFFFFFFFFFFFFFF00FFFFFFFFFFFFFFFFFFFFFFFFFFFFFFFF00FFFF00FFFFFFFFFFFFFFFFFFFFFF00FFFFFFFFFFFFFFFFFFFFFFFFFFFFFFFF00FFFF00FFFFFFFFFFFFFFFFFFFFFF00FFFFFFFFFFFFFFFFFFFFFFFFFFFFFFFF00FFFF00FFFFFFFFFFFFFFFFFFFFFF00FFFFFFFFFFFFFFFFFFFFFFFFFFFF
310
FFFF00FFFF00FFFFFFFFFFFFFFFFFFFFFF00FFFFFFFFFFFFFFFFFFFFFFFFFFFFFFFF00FFFF00FFFFFFFFFFFFFFFFFFFFFF00FFFFFFFFFFFFFFFFFFFFFFFFFFFFFFFF00FFFF00FFFFFFFFFFFFFFFFFFFFFF00FFFFFFFFFFFFFFFFFFFFFFFFFFFFFFFF00FFFF00FFFFFFFFFFFFFFFFFFFF00FFFFFFFFFFFFFFFFFFFFFFFFFFFF
310
FFFFFF00FFFF00FFFFFFFFFFFFFFFFFFFF00FFFFFFFFFFFFFFFFFFFFFFFFFFFFFFFFFF00FFFF00FFFFFFFFFFFFFFFFFFFF00FFFFFFFFFFFFFFFFFFFFFFFFFFFFFFFFFF00FFFF00FFFFFFFFFFFFFFFFFFFF00FFFFFFFFFFFFFFFFFFFFFFFFFFFFFFFFFF00FFFF00FFFFFFFFFFFFFFFFFFFF00FFFFFFFFFFFFFFFFFFFFFFFFFF
310
FFFFFFFF00FFFF00FFFFFFFFFFFFFFFFFF0000FFFF00FFFFFFFFFFFFFFFFFFFFFFFFFFFF00FFFF00FFFFFFFFFFFFFFFF0000FFFFFF00FFFFFFFFFFFFFFFFFFFFFFFFFFFF00FFFF00000000000000000000FFFFFFFF00FFFFFFFFFFFFFFFFFFFFFFFFFFFF00FFFFFFFFFFFFFFFFFFFFFFFFFFFFFF00FFFFFFFFFFFFFFFFFFFF
310
FFFFFFFFFF00FFFFFFFFFFFFFFFFFFFFFFFFFFFF00FFFFFFFFFFFFFFFFFFFFFFFFFFFFFFFF00FFFFFFFFFFFFFFFFFFFFFFFFFFFF00FFFFFFFFFFFFFFFFFFFFFFFFFFFFFFFF00FFFFFFFFFFFFFFFFFFFFFFFFFFFFFF00FFFFFFFFFFFFFFFFFFFFFFFFFFFFFF00FFFFFFFFFFFFFFFFFFFFFFFFFFFFFF00FFFFFFFFFFFFFFFFFF
310
FFFFFFFFFFFF00FFFF00000000000000000000FFFFFFFF00FFFFFFFFFFFFFFFFFFFFFFFFFFFF00FFFF00FFFFFFFFFFFFFFFFFF0000FFFF00
102
{BLKREFS
331
290D
102
}
  0
BLOCK_RECORD
  5
28F3
330
265D
100
AcDbSymbolTableRecord
100
AcDbBlockTableRecord
  2
AI9-BLK3
340
0
310
2800000020000000200000000100080000000000000400000000000000000000000000000000000000000000000080000080000000808000800000008000800080800000C0C0C000C0DCC000F0CAA6000020400000206000002080000020A0000020C0000020E00000400000004020000040400000406000004080000040A0
310
000040C0000040E00000600000006020000060400000606000006080000060A0000060C0000060E00000800000008020000080400000806000008080000080A0000080C0000080E00000A0000000A0200000A0400000A0600000A0800000A0A00000A0C00000A0E00000C0000000C0200000C0400000C0600000C0800000C0
310
A00000C0C00000C0E00000E0000000E0200000E0400000E0600000E0800000E0A00000E0C00000E0E00040000000400020004000400040006000400080004000A0004000C0004000E00040200000402020004020400040206000402080004020A0004020C0004020E000404000004040200040404000404060004040800040
310
40A0004040C0004040E00040600000406020004060400040606000406080004060A0004060C0004060E00040800000408020004080400040806000408080004080A0004080C0004080E00040A0000040A0200040A0400040A0600040A0800040A0A00040A0C00040A0E00040C0000040C0200040C0400040C0600040C08000
310
40C0A00040C0C00040C0E00040E0000040E0200040E0400040E0600040E0800040E0A00040E0C00040E0E00080000000800020008000400080006000800080008000A0008000C0008000E00080200000802020008020400080206000802080008020A0008020C0008020E00080400000804020008040400080406000804080
310
008040A0008040C0008040E00080600000806020008060400080606000806080008060A0008060C0008060E00080800000808020008080400080806000808080008080A0008080C0008080E00080A0000080A0200080A0400080A0600080A0800080A0A00080A0C00080A0E00080C0000080C0200080C0400080C0600080C0
310
800080C0A00080C0C00080C0E00080E0000080E0200080E0400080E0600080E0800080E0A00080E0C00080E0E000C0000000C0002000C0004000C0006000C0008000C000A000C000C000C000E000C0200000C0202000C0204000C0206000C0208000C020A000C020C000C020E000C0400000C0402000C0404000C0406000C0
310
408000C040A000C040C000C040E000C0600000C0602000C0604000C0606000C0608000C060A000C060C000C060E000C0800000C0802000C0804000C0806000C0808000C080A000C080C000C080E000C0A00000C0A02000C0A04000C0A06000C0A08000C0A0A000C0A0C000C0A0E000C0C00000C0C02000C0C04000C0C06000
310
C0C08000C0C0A000F0FBFF00A4A0A000808080000000FF0000FF000000FFFF00FF000000FF00FF00FFFF0000FFFFFF00FFFFFFFFFFFFFFFFFFFFFFFFFFFFFFFFFFFFFFFFFFFFFFFFFFFFFFFFFFFFFFFFFFFFFFFFFFFFFFFFFFFFFFFFFFFFFF0000FFFFFFFFFFFFFFFFFFFFFFFFFFFFFFFFFFFFFFFFFFFFFFFFFFFFFFFFFFFF
310
0000FFFFFFFFFFFFFFFFFFFFFFFFFFFFFFFFFFFFFFFFFFFFFFFFFFFFFFFFFFFF0000FFFFFFFFFFFFFFFFFFFFFFFFFFFFFFFFFFFFFFFFFFFFFFFFFFFFFFFFFFFF0000FFFFFFFFFFFFFFFFFFFFFFFFFFFFFFFFFFFFFFFFFFFFFFFFFFFFFFFFFFFF0000FFFFFFFFFFFFFFFFFFFFFFFFFFFFFFFFFFFFFFFFFFFFFFFFFFFFFFFFFF
310
FF0000FFFFFFFFFFFFFFFFFFFFFFFFFFFFFFFFFFFFFFFFFFFFFFFFFFFFFFFFFFFF0000FFFFFFFFFFFFFFFFFFFFFFFFFFFFFFFFFFFFFFFFFFFFFFFFFFFFFFFFFFFF0000FFFFFFFFFFFFFFFFFFFFFFFFFFFFFFFFFFFFFFFFFFFFFFFFFFFFFFFFFFFF0000FFFFFFFFFFFFFFFFFFFFFFFFFFFFFFFFFFFFFFFFFFFFFFFFFFFFFFFF
310
FFFF0000FFFFFFFFFFFFFFFFFFFFFFFFFFFFFFFFFFFFFFFFFFFFFFFFFFFFFFFFFFFF0000FFFFFFFFFFFFFFFFFFFFFFFFFFFFFFFFFFFFFFFFFFFFFFFFFFFFFFFFFFFF0000FFFFFFFFFFFFFFFFFFFFFFFFFFFFFFFFFFFFFFFFFFFFFFFFFFFFFFFFFFFF0000FFFFFFFFFFFFFFFFFFFFFFFFFFFFFFFFFFFFFFFFFFFFFFFFFFFFFF
310
FFFFFF0000FFFFFFFFFFFFFFFFFFFFFFFFFFFFFFFFFFFFFFFFFFFFFFFFFFFFFFFFFFFF0000FFFFFFFFFFFFFFFFFFFFFFFFFFFFFFFFFFFFFFFFFFFFFFFFFFFFFFFFFFFF0000FFFFFFFFFFFFFFFFFFFFFFFFFFFFFFFFFFFFFFFFFFFFFFFFFFFFFFFFFFFF0000FFFFFFFFFFFFFFFFFFFFFFFFFFFFFFFFFFFFFFFFFFFFFFFFFFFF
310
FFFFFFFF0000FFFFFFFFFFFFFFFFFFFFFFFFFFFFFFFFFFFFFFFFFFFFFFFFFFFFFFFFFFFF0000FFFFFFFFFFFFFFFFFFFFFFFFFFFFFFFFFFFFFFFFFFFFFFFFFFFFFFFFFFFF0000FFFFFFFFFFFFFFFFFFFFFFFFFFFFFFFFFFFFFFFFFFFFFFFFFFFFFFFFFFFF0000FFFFFFFFFFFFFFFFFFFFFFFFFFFFFFFFFFFFFFFFFFFFFFFFFF
310
FFFFFFFFFF0000FFFFFFFFFFFFFFFFFFFFFFFFFFFFFFFFFFFFFFFFFFFFFFFFFFFFFFFFFFFF0000FFFFFFFFFFFFFFFFFFFFFFFFFFFFFFFFFFFFFFFFFFFFFFFFFFFFFFFFFFFF0000FFFFFFFFFFFFFFFFFFFFFFFFFFFFFFFFFFFFFFFFFFFFFFFFFFFFFFFFFFFF0000FFFFFFFFFFFFFFFFFFFFFFFFFFFFFFFFFFFFFFFFFFFFFFFF
310
FFFFFFFFFFFF0000FFFFFFFFFFFFFFFFFFFFFFFFFFFFFFFFFFFFFFFFFFFFFFFFFFFFFFFFFFFF0000FFFFFFFFFFFFFFFFFFFFFFFFFFFFFFFFFFFFFFFFFFFFFFFFFFFFFFFFFFFF0000FFFFFFFFFFFFFFFFFFFFFFFFFFFFFFFFFFFFFFFFFFFFFFFFFFFFFFFFFFFF0000FFFFFFFFFFFFFFFFFFFFFFFFFFFFFFFFFFFFFFFFFFFFFF
310
FFFFFFFFFFFFFF0000FFFFFFFFFFFFFFFFFFFFFFFFFFFFFFFFFFFFFFFFFFFFFFFFFFFFFFFFFFFFFFFFFFFFFFFFFFFFFFFFFFFFFFFFFFFFFF
102
{BLKREFS
331
290E
102
}
  0
BLOCK_RECORD
  5
28F8
330
265D
100
AcDbSymbolTableRecord
100
AcDbBlockTableRecord
  2
AI9-BLK2
340
0
310
2800000020000000200000000100080000000000000400000000000000000000000000000000000000000000000080000080000000808000800000008000800080800000C0C0C000C0DCC000F0CAA6000020400000206000002080000020A0000020C0000020E00000400000004020000040400000406000004080000040A0
310
000040C0000040E00000600000006020000060400000606000006080000060A0000060C0000060E00000800000008020000080400000806000008080000080A0000080C0000080E00000A0000000A0200000A0400000A0600000A0800000A0A00000A0C00000A0E00000C0000000C0200000C0400000C0600000C0800000C0
310
A00000C0C00000C0E00000E0000000E0200000E0400000E0600000E0800000E0A00000E0C00000E0E00040000000400020004000400040006000400080004000A0004000C0004000E00040200000402020004020400040206000402080004020A0004020C0004020E000404000004040200040404000404060004040800040
310
40A0004040C0004040E00040600000406020004060400040606000406080004060A0004060C0004060E00040800000408020004080400040806000408080004080A0004080C0004080E00040A0000040A0200040A0400040A0600040A0800040A0A00040A0C00040A0E00040C0000040C0200040C0400040C0600040C08000
310
40C0A00040C0C00040C0E00040E0000040E0200040E0400040E0600040E0800040E0A00040E0C00040E0E00080000000800020008000400080006000800080008000A0008000C0008000E00080200000802020008020400080206000802080008020A0008020C0008020E00080400000804020008040400080406000804080
310
008040A0008040C0008040E00080600000806020008060400080606000806080008060A0008060C0008060E00080800000808020008080400080806000808080008080A0008080C0008080E00080A0000080A0200080A0400080A0600080A0800080A0A00080A0C00080A0E00080C0000080C0200080C0400080C0600080C0
310
800080C0A00080C0C00080C0E00080E0000080E0200080E0400080E0600080E0800080E0A00080E0C00080E0E000C0000000C0002000C0004000C0006000C0008000C000A000C000C000C000E000C0200000C0202000C0204000C0206000C0208000C020A000C020C000C020E000C0400000C0402000C0404000C0406000C0
310
408000C040A000C040C000C040E000C0600000C0602000C0604000C0606000C0608000C060A000C060C000C060E000C0800000C0802000C0804000C0806000C0808000C080A000C080C000C080E000C0A00000C0A02000C0A04000C0A06000C0A08000C0A0A000C0A0C000C0A0E000C0C00000C0C02000C0C04000C0C06000
310
C0C08000C0C0A000F0FBFF00A4A0A000808080000000FF0000FF000000FFFF00FF000000FF00FF00FFFF0000FFFFFF00FFFFFFFFFFFFFFFFFFFFFFFFFFFFFFFFFFFFFFFFFFFFFFFFFFFFFFFFFFFFFFFFFFFFFFFFFFFFFFFFFFFFFFFFFFFFFF0000FFFFFFFFFFFFFFFFFFFFFFFFFFFFFFFFFFFFFFFFFFFFFFFFFFFFFFFFFFFF
310
0000FFFFFFFFFFFFFFFFFFFFFFFFFFFFFFFFFFFFFFFFFFFFFFFFFFFFFFFFFFFF0000FFFFFFFFFFFFFFFFFFFFFFFFFFFFFFFFFFFFFFFFFFFFFFFFFFFFFFFFFF00FFFF00FFFFFFFFFFFFFFFFFFFFFFFFFFFFFFFFFFFFFFFFFFFFFFFFFFFFFFFF00FFFF00FFFFFFFFFFFFFFFFFFFFFFFFFFFFFFFFFFFFFFFFFFFFFFFFFFFFFFFF
310
00FF0000FFFFFFFFFFFFFFFFFFFFFFFFFFFFFFFFFFFFFFFFFFFFFFFFFFFFFFFF00FF0000FFFFFFFFFFFFFFFFFFFFFFFFFFFFFFFFFFFFFFFFFFFFFFFFFFFFFFFF00FF0000FFFFFFFFFFFFFFFFFFFFFFFFFFFFFFFFFFFFFFFFFFFFFFFFFFFFFFFF00000000FFFFFFFFFFFFFFFFFFFFFFFFFFFFFFFFFFFFFFFFFFFFFFFFFFFFFF
310
00FF00FF0000FFFFFFFFFFFFFFFFFFFFFFFFFFFFFFFFFFFFFFFFFFFFFFFFFFFF00FF00FF0000FFFFFFFFFFFFFFFFFFFFFFFFFFFFFFFFFFFFFFFFFFFFFFFFFFFF00FF00FF0000FFFFFFFFFFFFFFFFFFFFFFFFFFFFFFFFFFFFFFFFFFFFFFFFFFFF00FF00FF0000FFFFFFFFFFFFFFFFFFFFFFFFFFFFFFFFFFFFFFFFFFFFFFFFFF
310
FF00FF00FF0000FFFFFFFFFFFFFFFFFFFFFFFFFFFFFFFFFFFFFFFFFFFFFFFFFFFF0000FFFF0000FFFFFFFFFFFFFFFFFFFFFFFFFFFFFFFFFFFFFFFFFFFFFFFFFF00FF00FFFF00FF00FFFFFFFFFFFFFFFFFFFFFFFFFFFFFFFFFFFFFFFFFFFFFFFF00FF00FFFF00FF00FFFFFFFFFFFFFFFFFFFFFFFFFFFFFFFFFFFFFFFFFFFFFF
310
FF00FF00FFFFFF0000FFFFFFFFFFFFFFFFFFFFFFFFFFFFFFFFFFFFFFFFFFFFFFFF00FF00FFFFFF0000FFFFFFFFFFFFFFFFFFFFFFFFFFFFFFFFFFFFFFFFFFFFFFFF00FF00FFFFFF0000FFFFFFFFFFFFFFFFFFFFFFFFFFFFFFFFFFFFFFFFFFFFFFFF0000FFFFFFFF0000FFFFFFFFFFFFFFFFFFFFFFFFFFFFFFFFFFFFFFFFFFFF
310
FF00FF00FFFFFFFF00FF00FFFFFFFFFFFFFFFFFFFFFFFFFFFFFFFFFFFFFFFFFFFF00FF00FFFFFFFF00FF00FFFFFFFFFFFFFFFFFFFFFFFFFFFFFFFFFFFFFFFFFFFF00FF00FFFFFFFF00FF00FFFFFFFFFFFFFFFFFFFFFFFFFFFFFFFFFFFFFFFFFFFF00FF00FFFFFFFF00FF00FFFFFFFFFFFFFFFFFFFFFFFFFFFFFFFFFFFFFFFF
310
FFFF00FF00FFFFFFFFFF0000FFFFFFFFFFFFFFFFFFFFFFFFFFFFFFFFFFFFFFFFFFFF0000FFFFFFFFFFFF0000FFFFFFFFFFFFFFFFFFFFFFFFFFFFFFFFFFFFFFFFFF00FF00FFFFFFFFFFFF00FF00FFFFFFFFFFFFFFFFFFFFFFFFFFFFFFFFFFFFFFFF00FF00FFFFFFFFFFFF00FF00FFFFFFFFFFFFFFFFFFFFFFFFFFFFFFFFFFFF
310
FFFF000000FFFFFFFFFFFF000000FFFFFFFFFFFFFFFFFFFFFFFFFFFFFFFFFFFFFFFFFFFFFFFFFFFFFFFFFFFFFFFFFFFFFFFFFFFFFFFFFFFF
102
{BLKREFS
331
290F
102
}
  0
BLOCK_RECORD
  5
28FD
330
265D
100
AcDbSymbolTableRecord
100
AcDbBlockTableRecord
  2
AI9-BLK1
340
0
310
2800000020000000200000000100080000000000000400000000000000000000000000000000000000000000000080000080000000808000800000008000800080800000C0C0C000C0DCC000F0CAA6000020400000206000002080000020A0000020C0000020E00000400000004020000040400000406000004080000040A0
310
000040C0000040E00000600000006020000060400000606000006080000060A0000060C0000060E00000800000008020000080400000806000008080000080A0000080C0000080E00000A0000000A0200000A0400000A0600000A0800000A0A00000A0C00000A0E00000C0000000C0200000C0400000C0600000C0800000C0
310
A00000C0C00000C0E00000E0000000E0200000E0400000E0600000E0800000E0A00000E0C00000E0E00040000000400020004000400040006000400080004000A0004000C0004000E00040200000402020004020400040206000402080004020A0004020C0004020E000404000004040200040404000404060004040800040
310
40A0004040C0004040E00040600000406020004060400040606000406080004060A0004060C0004060E00040800000408020004080400040806000408080004080A0004080C0004080E00040A0000040A0200040A0400040A0600040A0800040A0A00040A0C00040A0E00040C0000040C0200040C0400040C0600040C08000
310
40C0A00040C0C00040C0E00040E0000040E0200040E0400040E0600040E0800040E0A00040E0C00040E0E00080000000800020008000400080006000800080008000A0008000C0008000E00080200000802020008020400080206000802080008020A0008020C0008020E00080400000804020008040400080406000804080
310
008040A0008040C0008040E00080600000806020008060400080606000806080008060A0008060C0008060E00080800000808020008080400080806000808080008080A0008080C0008080E00080A0000080A0200080A0400080A0600080A0800080A0A00080A0C00080A0E00080C0000080C0200080C0400080C0600080C0
310
800080C0A00080C0C00080C0E00080E0000080E0200080E0400080E0600080E0800080E0A00080E0C00080E0E000C0000000C0002000C0004000C0006000C0008000C000A000C000C000C000E000C0200000C0202000C0204000C0206000C0208000C020A000C020C000C020E000C0400000C0402000C0404000C0406000C0
310
408000C040A000C040C000C040E000C0600000C0602000C0604000C0606000C0608000C060A000C060C000C060E000C0800000C0802000C0804000C0806000C0808000C080A000C080C000C080E000C0A00000C0A02000C0A04000C0A06000C0A08000C0A0A000C0A0C000C0A0E000C0C00000C0C02000C0C04000C0C06000
310
C0C08000C0C0A000F0FBFF00A4A0A000808080000000FF0000FF000000FFFF00FF000000FF00FF00FFFF0000FFFFFF00FFFFFFFFFFFFFFFFFFFFFFFFFFFFFFFFFFFFFFFFFFFFFFFFFFFFFFFFFFFFFFFFFFFFFFFFFFFFFFFFFFFFFF00000000000000000000FFFFFFFFFFFFFFFFFFFFFFFFFFFFFFFFFFFFFFFFFFFF00FFFFFF
310
FFFFFFFFFF00FFFFFFFFFFFFFFFFFFFFFFFFFFFFFFFFFFFFFFFFFFFF00FFFFFFFFFFFFFFFF00FFFFFFFFFFFFFFFFFFFFFFFFFFFFFFFFFFFFFFFFFFFF00FFFFFFFFFFFFFFFF00FFFFFFFFFFFFFFFFFFFFFFFFFFFFFFFFFFFFFFFFFFFF00FF0000000000000000FFFFFFFFFFFFFFFFFFFFFFFFFFFFFFFFFFFFFFFFFFFF00FF00
310
FFFFFFFFFFFFFFFFFFFFFFFFFFFFFFFFFFFFFFFFFFFFFFFFFFFFFFFFFF00FF00FFFFFFFFFFFFFFFFFFFFFFFFFFFFFFFFFFFFFFFFFFFFFFFFFFFFFFFFFF00FF00FFFFFFFFFFFFFFFFFFFFFFFFFFFFFFFFFFFFFFFFFFFFFFFFFFFFFFFFFF00FF00FFFFFFFFFFFFFFFFFFFFFFFFFFFFFFFFFFFFFFFFFFFFFFFFFFFFFFFFFF00FF
310
00FFFFFFFFFFFFFFFFFFFFFFFFFFFFFFFFFFFFFFFFFFFFFFFFFFFFFFFFFF00FF00FFFFFFFFFFFFFFFFFFFFFFFFFFFFFFFFFFFFFFFFFFFFFFFFFFFFFFFFFF00FF00FFFFFFFFFFFFFFFFFFFFFFFFFFFFFFFFFFFFFFFFFFFFFFFFFFFFFFFFFF00FF00FFFFFFFFFFFFFFFFFFFFFFFFFFFFFFFFFFFFFFFFFFFFFFFFFFFFFFFFFF00
310
FF00000000000000FFFFFFFFFFFFFFFFFFFFFFFFFFFFFFFFFFFFFFFFFFFFFF00FFFFFFFFFFFFFF00FFFFFFFFFFFFFFFFFFFFFFFFFFFFFFFFFFFFFFFFFFFFFF00FFFFFFFFFFFFFF00FFFFFFFFFFFFFFFFFFFFFFFFFFFFFFFFFFFFFFFFFFFFFF00FFFFFFFFFFFFFF00FFFFFFFFFFFFFFFFFFFFFFFFFFFFFFFFFFFFFFFFFFFFFF
310
00FF00000000000000FFFFFFFFFFFFFFFFFFFFFFFFFFFFFFFFFFFFFFFFFFFFFF00FF00FFFFFFFFFFFFFFFFFFFFFFFFFFFFFFFFFFFFFFFFFFFFFFFFFFFFFFFFFF00FF00FFFFFFFFFFFFFFFFFFFFFFFFFFFFFFFFFFFFFFFFFFFFFFFFFFFFFFFFFF00FF00FFFFFFFFFFFFFFFFFFFFFFFFFFFFFFFFFFFFFFFFFFFFFFFFFFFFFFFF
310
FF00FF00FFFFFFFFFFFFFFFFFFFFFFFFFFFFFFFFFFFFFFFFFFFFFFFFFFFFFFFFFF00FF00FFFFFFFFFFFFFFFFFFFFFFFFFFFFFFFFFFFFFFFFFFFFFFFFFFFFFFFFFF00FF00FFFFFFFFFFFFFFFFFFFFFFFFFFFFFFFFFFFFFFFFFFFFFFFFFFFFFFFFFF00FF00FFFFFFFFFFFFFFFFFFFFFFFFFFFFFFFFFFFFFFFFFFFFFFFFFFFFFF
310
FFFF00FF0000000000000000FFFFFFFFFFFFFFFFFFFFFFFFFFFFFFFFFFFFFFFFFFFF00FFFFFFFFFFFFFFFF00FFFFFFFFFFFFFFFFFFFFFFFFFFFFFFFFFFFFFFFFFFFF00FFFFFFFFFFFFFFFF00FFFFFFFFFFFFFFFFFFFFFFFFFFFFFFFFFFFFFFFFFFFF00FFFFFFFFFFFFFFFF00FFFFFFFFFFFFFFFFFFFFFFFFFFFFFFFFFFFFFF
310
FFFFFF00000000000000000000FFFFFFFFFFFFFFFFFFFFFFFFFFFFFFFFFFFFFFFFFFFFFFFFFFFFFFFFFFFFFFFFFFFFFFFFFFFFFFFFFFFFFF
102
{BLKREFS
331
2910
102
}
  0
BLOCK_RECORD
  5
2902
330
265D
100
AcDbSymbolTableRecord
100
AcDbBlockTableRecord
  2
HD_LLC_logo_OT5
340
0
310
2800000020000000200000000100080000000000000400000000000000000000000000000000000000000000000080000080000000808000800000008000800080800000C0C0C000C0DCC000F0CAA6000020400000206000002080000020A0000020C0000020E00000400000004020000040400000406000004080000040A0
310
000040C0000040E00000600000006020000060400000606000006080000060A0000060C0000060E00000800000008020000080400000806000008080000080A0000080C0000080E00000A0000000A0200000A0400000A0600000A0800000A0A00000A0C00000A0E00000C0000000C0200000C0400000C0600000C0800000C0
310
A00000C0C00000C0E00000E0000000E0200000E0400000E0600000E0800000E0A00000E0C00000E0E00040000000400020004000400040006000400080004000A0004000C0004000E00040200000402020004020400040206000402080004020A0004020C0004020E000404000004040200040404000404060004040800040
310
40A0004040C0004040E00040600000406020004060400040606000406080004060A0004060C0004060E00040800000408020004080400040806000408080004080A0004080C0004080E00040A0000040A0200040A0400040A0600040A0800040A0A00040A0C00040A0E00040C0000040C0200040C0400040C0600040C08000
310
40C0A00040C0C00040C0E00040E0000040E0200040E0400040E0600040E0800040E0A00040E0C00040E0E00080000000800020008000400080006000800080008000A0008000C0008000E00080200000802020008020400080206000802080008020A0008020C0008020E00080400000804020008040400080406000804080
310
008040A0008040C0008040E00080600000806020008060400080606000806080008060A0008060C0008060E00080800000808020008080400080806000808080008080A0008080C0008080E00080A0000080A0200080A0400080A0600080A0800080A0A00080A0C00080A0E00080C0000080C0200080C0400080C0600080C0
310
800080C0A00080C0C00080C0E00080E0000080E0200080E0400080E0600080E0800080E0A00080E0C00080E0E000C0000000C0002000C0004000C0006000C0008000C000A000C000C000C000E000C0200000C0202000C0204000C0206000C0208000C020A000C020C000C020E000C0400000C0402000C0404000C0406000C0
310
408000C040A000C040C000C040E000C0600000C0602000C0604000C0606000C0608000C060A000C060C000C060E000C0800000C0802000C0804000C0806000C0808000C080A000C080C000C080E000C0A00000C0A02000C0A04000C0A06000C0A08000C0A0A000C0A0C000C0A0E000C0C00000C0C02000C0C04000C0C06000
310
C0C08000C0C0A000F0FBFF00A4A0A000808080000000FF0000FF000000FFFF00FF000000FF00FF00FFFF0000FFFFFF00FFFFFFFFFFFFFFFFFFFFFFFFFFFFFFFFFFFFFFFFFFFFFFFFFFFFFFFFFFFFFFFFFFFFFFFFFFFFFFFFFFFFFFFFFFFFFFFFFFFFFFFFFFFFFFFFFFFFFFFFFFFFFFFFFFFFFFFFFFFFFFFFFFFFFFFFFFFFFF
310
FFFFFFFFFFFFFFFFFFFFFFFFFFFFFFFFFFFFFFFFFFFFFFFFFFFFFFFFFFFFFFFFFFFFFFFFFFFFFFFFFFFFFFFFFFFFFFFFFFFFFFFFFFFFFFFFFFFFFFFFFFFFFFFFFFFFFFFFFFFFFFFFFFFFFFFFFFFFFFFFFFFFFFFFFFFFFFFFFFFFFFFFFFFFFFFFFFFFFFFFFFFFFFFFFFFFFFFFFFFFFFFFFFFFFFFFFFFFFFFFFFFFFFFFFFFFFF
310
FFFFFFFFFFFFFFFFFFFFFFFFFFFFFFFFFFFFFFFFFFFFFFFFFFFFFFFFFFFFFFFFFFFFFFFFFFFFFFFFFFFFFFFFFFFFFFFFFFFFFFFFFFFFFFFFFFFFFFFFFFFFFFFFFFFFFFFFFFFFFFFFFFFFFFFFFFFFFFFFFFFFFFFFFFFFFFFFFFFFFFFFFFFFFFFFFFFFFFFFFFFFFFFFFFFFFFFFFFFFFFFFFFFFFFFFFFFFFFFFFFFFFFFFFFFFFF
310
FFFFFFFFFFFFFFFFFFFFFFFFFFFFFFFFFFFFFFFFFFFFFFFFFFFFFFFFFFFFFFFFFFFFFFFFFFFFFFFFFFFFFFFFFFFFFFFFFFFFFFFF0000000000000000000000000000000000000000000000000000000000FFFFFF0000000000000000000000000000000000FFFFFFFFFFFFFFFFFFFF0000FFFFFF0000000000000000000000
310
00000000000000FFFFFFFFFFFFFFFFFFFF0000FFFF000000000000000000000000000000000000FFFFFF00000000FFFFFF0000FFFF00FFFFFFFFFFFF00FFFFFF00FFFFFFFFFF00FFFFFF0000000000FFFF0000FFFF00FFFFFFFFFFFF00FFFFFF00FFFFFFFFFF00FFFFFF00FFFF0000FFFF0000FFFF00FFFFFFFFFFFF00FFFF
310
00FFFFFFFFFFFF00FFFFFF00FFFF0000FFFF0000FFFF0000000000FFFF00000000FFFFFF00000000FFFFFF00000000FFFFFF0000FFFFFFFFFFFF00FFFFFFFFFFFFFFFFFF00FFFFFFFFFFFFFFFFFFFFFFFFFF0000FFFFFFFFFFFF00FFFFFFFFFFFFFFFFFF00FFFFFFFFFFFFFFFFFFFFFFFFFF0000FFFFFFFFFFFF00FFFFFFFF
310
FFFFFFFFFF00FFFFFFFFFFFFFFFFFFFFFFFF0000FFFFFF0000000000FFFF00000000FFFFFF0000000000000000000000000000FFFFFFFF00FFFFFFFFFFFF00FFFF00FFFFFFFFFFFF00FFFFFFFFFFFFFFFFFFFFFFFFFFFF00FFFFFFFFFFFF00FFFFFF00FFFFFFFFFF00FFFFFFFFFFFFFFFFFFFFFFFFFFFF0000000000000000
310
FFFFFF00000000000000FFFFFFFFFFFFFFFFFFFFFFFFFFFFFFFFFFFFFFFFFFFFFFFFFFFFFFFFFFFFFFFFFFFFFFFFFFFFFFFFFFFFFFFFFFFFFFFFFFFFFFFFFFFFFFFFFFFFFFFFFFFFFFFFFFFFFFFFFFFFFFFFFFFFFFFFFFFFFFFFFFFFFFFFFFFFFFFFFFFFFFFFFFFFFFFFFFFFFFFFFFFFFFFFFFFFFFFFFFFFFFFFFFFFFFFFFF
310
FFFFFFFFFFFFFFFFFFFFFFFFFFFFFFFFFFFFFFFFFFFFFFFFFFFFFFFFFFFFFFFFFFFFFFFFFFFFFFFFFFFFFFFFFFFFFFFFFFFFFFFFFFFFFFFF
102
{BLKREFS
331
2928
102
}
  0
BLOCK_RECORD
  5
2927
330
265D
100
AcDbSymbolTableRecord
100
AcDbBlockTableRecord
  2
HD logo-new
340
0
310
2800000020000000200000000100080000000000000400000000000000000000000000000000000000000000000080000080000000808000800000008000800080800000C0C0C000C0DCC000F0CAA6000020400000206000002080000020A0000020C0000020E00000400000004020000040400000406000004080000040A0
310
000040C0000040E00000600000006020000060400000606000006080000060A0000060C0000060E00000800000008020000080400000806000008080000080A0000080C0000080E00000A0000000A0200000A0400000A0600000A0800000A0A00000A0C00000A0E00000C0000000C0200000C0400000C0600000C0800000C0
310
A00000C0C00000C0E00000E0000000E0200000E0400000E0600000E0800000E0A00000E0C00000E0E00040000000400020004000400040006000400080004000A0004000C0004000E00040200000402020004020400040206000402080004020A0004020C0004020E000404000004040200040404000404060004040800040
310
40A0004040C0004040E00040600000406020004060400040606000406080004060A0004060C0004060E00040800000408020004080400040806000408080004080A0004080C0004080E00040A0000040A0200040A0400040A0600040A0800040A0A00040A0C00040A0E00040C0000040C0200040C0400040C0600040C08000
310
40C0A00040C0C00040C0E00040E0000040E0200040E0400040E0600040E0800040E0A00040E0C00040E0E00080000000800020008000400080006000800080008000A0008000C0008000E00080200000802020008020400080206000802080008020A0008020C0008020E00080400000804020008040400080406000804080
310
008040A0008040C0008040E00080600000806020008060400080606000806080008060A0008060C0008060E00080800000808020008080400080806000808080008080A0008080C0008080E00080A0000080A0200080A0400080A0600080A0800080A0A00080A0C00080A0E00080C0000080C0200080C0400080C0600080C0
310
800080C0A00080C0C00080C0E00080E0000080E0200080E0400080E0600080E0800080E0A00080E0C00080E0E000C0000000C0002000C0004000C0006000C0008000C000A000C000C000C000E000C0200000C0202000C0204000C0206000C0208000C020A000C020C000C020E000C0400000C0402000C0404000C0406000C0
310
408000C040A000C040C000C040E000C0600000C0602000C0604000C0606000C0608000C060A000C060C000C060E000C0800000C0802000C0804000C0806000C0808000C080A000C080C000C080E000C0A00000C0A02000C0A04000C0A06000C0A08000C0A0A000C0A0C000C0A0E000C0C00000C0C02000C0C04000C0C06000
310
C0C08000C0C0A000F0FBFF00A4A0A000808080000000FF0000FF000000FFFF00FF000000FF00FF00FFFF0000FFFFFF00FFFFFFFFFFFFFFFFFFFFFFFFFFFFFFFFFFFFFFFFFFFFFFFFFFFFFFFFFFFFFFFFFFFFFFFFFFFFFFFFFFFFFFFFFFFFFFFFFFFFFFFFFFFFFFFFFFFFFFFFFFFFFFFFFFFFFFFFFFFFFFFFFFFFFFFFFFFFFF
310
FFFFFFFFFFFFFFFFFFFFFFFFFFFFFFFFFFFFFFFFFFFFFFFFFFFFFFFFFFFFFFFFFFFFFFFFFFFFFFFFFFFFFFFFFFFFFFFFFFFFFFFFFFFFFFFFFFFFFFFFFFFFFFFFFFFFFFFFFFFFFFFFFFFFFFFFFFFFFFFFFFFFFFFFFFFFFFFFFFFFFFFFFFFFFFFFFFFFFFFFFFFFFFFFFFFFFFFFFFFFFFFFFFFFFFFFFFFFFFFFFFFFFFFFFFFFFF
310
FFFFFFFFFFFFFFFFFFFFFFFFFFFFFFFFFFFFFFFFFFFFFFFFFFFFFFFFFFFFFFFFFFFFFFFFFFFFFFFFFFFFFFFFFFFFFFFFFFFFFFFFFFFFFFFFFFFFFFFFFFFFFFFFFFFFFFFFFFFFFFFFFFFFFFFFFFFFFFFFFFFFFFFFFFFFFFFFFFFFFFFFFFFFFFFFFFFFFFFFFFFFFFFFFFFFFFFFFFFFFFFFFFFFFFFFFFFFFFFFFFFFFFFFFFFFFF
310
FFFFFFFFFFFFFFFFFFFFFFFFFFFFFFFFFFFFFFFFFFFFFFFFFFFFFFFFFFFFFFFFFFFFFFFFFFFFFFFFFFFFFFFFFFFFFFFFFFFFFFFF0000000000000000000000000000000000000000000000000000000000FFFFFF0000000000000000000000000000000000FFFFFFFFFFFFFFFFFFFF0000FFFFFF0000000000000000000000
310
00000000000000FFFFFFFFFFFFFFFFFFFF0000FFFF000000000000000000000000000000000000FFFFFF00000000FFFFFF0000FFFF00FFFFFFFFFFFF00FFFFFF00FFFFFFFFFF00FFFFFF0000000000FFFF0000FFFF00FFFFFFFFFFFF00FFFFFF00FFFFFFFFFF00FFFFFF00FFFF0000FFFF0000FFFF00FFFFFFFFFFFF00FFFF
310
00FFFFFFFFFFFF00FFFFFF00FFFF0000FFFF0000FFFF0000000000FFFF00000000FFFFFF00000000FFFFFF00000000FFFFFF0000FFFFFFFFFFFF00FFFFFFFFFFFFFFFFFF00FFFFFFFFFFFFFFFFFFFFFFFFFF0000FFFFFFFFFFFF00FFFFFFFFFFFFFFFFFF00FFFFFFFFFFFFFFFFFFFFFFFFFF0000FFFFFFFFFFFF00FFFFFFFF
310
FFFFFFFFFF00FFFFFFFFFFFFFFFFFFFFFFFF0000FFFFFF0000000000FFFF00000000FFFFFF0000000000000000000000000000FFFFFFFF00FFFFFFFFFFFF00FFFF00FFFFFFFFFFFF00FFFFFFFFFFFFFFFFFFFFFFFFFFFF00FFFFFFFFFFFF00FFFFFF00FFFFFFFFFF00FFFFFFFFFFFFFFFFFFFFFFFFFFFF0000000000000000
310
FFFFFF00000000000000FFFFFFFFFFFFFFFFFFFFFFFFFFFFFFFFFFFFFFFFFFFFFFFFFFFFFFFFFFFFFFFFFFFFFFFFFFFFFFFFFFFFFFFFFFFFFFFFFFFFFFFFFFFFFFFFFFFFFFFFFFFFFFFFFFFFFFFFFFFFFFFFFFFFFFFFFFFFFFFFFFFFFFFFFFFFFFFFFFFFFFFFFFFFFFFFFFFFFFFFFFFFFFFFFFFFFFFFFFFFFFFFFFFFFFFFFF
310
FFFFFFFFFFFFFFFFFFFFFFFFFFFFFFFFFFFFFFFFFFFFFFFFFFFFFFFFFFFFFFFFFFFFFFFFFFFFFFFFFFFFFFFFFFFFFFFFFFFFFFFFFFFFFFFF
102
{BLKREFS
331
292C
102
}
  0
BLOCK_RECORD
  5
292B
330
265D
100
AcDbSymbolTableRecord
100
AcDbBlockTableRecord
  2
HD Logo
340
0
310
2800000020000000200000000100080000000000000400000000000000000000000000000000000000000000000080000080000000808000800000008000800080800000C0C0C000C0DCC000F0CAA6000020400000206000002080000020A0000020C0000020E00000400000004020000040400000406000004080000040A0
310
000040C0000040E00000600000006020000060400000606000006080000060A0000060C0000060E00000800000008020000080400000806000008080000080A0000080C0000080E00000A0000000A0200000A0400000A0600000A0800000A0A00000A0C00000A0E00000C0000000C0200000C0400000C0600000C0800000C0
310
A00000C0C00000C0E00000E0000000E0200000E0400000E0600000E0800000E0A00000E0C00000E0E00040000000400020004000400040006000400080004000A0004000C0004000E00040200000402020004020400040206000402080004020A0004020C0004020E000404000004040200040404000404060004040800040
310
40A0004040C0004040E00040600000406020004060400040606000406080004060A0004060C0004060E00040800000408020004080400040806000408080004080A0004080C0004080E00040A0000040A0200040A0400040A0600040A0800040A0A00040A0C00040A0E00040C0000040C0200040C0400040C0600040C08000
310
40C0A00040C0C00040C0E00040E0000040E0200040E0400040E0600040E0800040E0A00040E0C00040E0E00080000000800020008000400080006000800080008000A0008000C0008000E00080200000802020008020400080206000802080008020A0008020C0008020E00080400000804020008040400080406000804080
310
008040A0008040C0008040E00080600000806020008060400080606000806080008060A0008060C0008060E00080800000808020008080400080806000808080008080A0008080C0008080E00080A0000080A0200080A0400080A0600080A0800080A0A00080A0C00080A0E00080C0000080C0200080C0400080C0600080C0
310
800080C0A00080C0C00080C0E00080E0000080E0200080E0400080E0600080E0800080E0A00080E0C00080E0E000C0000000C0002000C0004000C0006000C0008000C000A000C000C000C000E000C0200000C0202000C0204000C0206000C0208000C020A000C020C000C020E000C0400000C0402000C0404000C0406000C0
310
408000C040A000C040C000C040E000C0600000C0602000C0604000C0606000C0608000C060A000C060C000C060E000C0800000C0802000C0804000C0806000C0808000C080A000C080C000C080E000C0A00000C0A02000C0A04000C0A06000C0A08000C0A0A000C0A0C000C0A0E000C0C00000C0C02000C0C04000C0C06000
310
C0C08000C0C0A000F0FBFF00A4A0A000808080000000FF0000FF000000FFFF00FF000000FF00FF00FFFF0000FFFFFF00FFFFFFFFFFFFFFFFFFFFFFFFFFFFFFFFFFFFFFFFFFFFFFFFFFFFFFFFFFFFFFFFFFFFFFFFFFFFFFFFFFFFFFFFFFFFFFFFFFFFFFFFFFFFFFFFFFFFFFFFFFFFFFFFFFFFFFFFFFFFFFFFFFFFFFFFFFFFFF
310
FFFFFFFFFFFFFFFFFFFFFFFFFFFFFFFFFFFFFFFFFFFFFFFFFFFFFFFFFFFFFFFFFFFFFFFFFFFFFFFFFFFFFFFFFFFFFFFFFFFFFFFFFFFFFFFFFFFFFFFFFFFFFFFFFFFFFFFFFFFFFFFFFFFFFFFFFFFFFFFFFFFFFFFFFFFFFFFFFFFFFFFFFFFFFFFFFFFFFFFFFFFFFFFFFFFFFFFFFFFFFFFFFFFFFFFFFFFFFFFFFFFFFFFFFFFFFF
310
FFFFFFFFFFFFFFFFFFFFFFFFFFFFFFFFFFFFFFFFFFFFFFFFFFFFFFFFFFFFFFFFFFFFFFFFFFFFFFFFFFFFFFFFFFFFFFFFFFFFFFFFFFFFFFFFFFFFFFFFFFFFFFFFFFFFFFFFFFFFFFFFFFFFFFFFFFFFFFFFFFFFFFFFFFFFFFFFFFFFFFFFFFFFFFFFFFFFFFFFFFFFFFFFFFFFFFFFFFFFFFFFFFFFFFFFFFFFFFFFFFFFFFFFFFFFFF
310
FFFFFFFFFFFFFFFFFFFFFFFFFFFFFFFFFFFFFFFFFFFFFFFFFFFFFFFFFFFFFFFFFFFFFFFFFFFFFFFFFFFFFFFFFFFFFFFFFFFFFFFF0000000000000000000000000000000000000000000000000000000000FFFFFF0000000000000000000000000000000000FFFFFFFFFFFFFFFFFFFF0000FFFFFF0000000000000000000000
310
00000000000000FFFFFFFFFFFFFFFFFFFF0000FFFF000000000000000000000000000000000000FFFFFF00000000FFFFFF0000FFFF00FFFFFFFFFFFF00FFFFFF00FFFFFFFFFF00FFFFFF0000000000FFFF0000FFFF00FFFFFFFFFFFF00FFFFFF00FFFFFFFFFF00FFFFFF00FFFF0000FFFF0000FFFF00FFFFFFFFFFFF00FFFF
310
00FFFFFFFFFFFF00FFFFFF00FFFF0000FFFF0000FFFF0000000000FFFF00000000FFFFFF00000000FFFFFF00000000FFFFFF0000FFFFFFFFFFFF00FFFFFFFFFFFFFFFFFF00FFFFFFFFFFFFFFFFFFFFFFFFFF0000FFFFFFFFFFFF00FFFFFFFFFFFFFFFFFF00FFFFFFFFFFFFFFFFFFFFFFFFFF0000FFFFFFFFFFFF00FFFFFFFF
310
FFFFFFFFFF00FFFFFFFFFFFFFFFFFFFFFFFF0000FFFFFF0000000000FFFF00000000FFFFFF0000000000000000000000000000FFFFFFFF00FFFFFFFFFFFF00FFFF00FFFFFFFFFFFF00FFFFFFFFFFFFFFFFFFFFFFFFFFFF00FFFFFFFFFFFF00FFFFFF00FFFFFFFFFF00FFFFFFFFFFFFFFFFFFFFFFFFFFFF0000000000000000
310
FFFFFF00000000000000FFFFFFFFFFFFFFFFFFFFFFFFFFFFFFFFFFFFFFFFFFFFFFFFFFFFFFFFFFFFFFFFFFFFFFFFFFFFFFFFFFFFFFFFFFFFFFFFFFFFFFFFFFFFFFFFFFFFFFFFFFFFFFFFFFFFFFFFFFFFFFFFFFFFFFFFFFFFFFFFFFFFFFFFFFFFFFFFFFFFFFFFFFFFFFFFFFFFFFFFFFFFFFFFFFFFFFFFFFFFFFFFFFFFFFFFFF
310
FFFFFFFFFFFFFFFFFFFFFFFFFFFFFFFFFFFFFFFFFFFFFFFFFFFFFFFFFFFFFFFFFFFFFFFFFFFFFFFFFFFFFFFFFFFFFFFFFFFFFFFFFFFFFFFF
102
{BLKREFS
331
2932
331
2936
102
}
  0
BLOCK_RECORD
  5
2943
330
265D
100
AcDbSymbolTableRecord
100
AcDbBlockTableRecord
  2
Harmonic Drive LLC
340
0
310
2800000020000000200000000100080000000000000400000000000000000000000000000000000000000000000080000080000000808000800000008000800080800000C0C0C000C0DCC000F0CAA6000020400000206000002080000020A0000020C0000020E00000400000004020000040400000406000004080000040A0
310
000040C0000040E00000600000006020000060400000606000006080000060A0000060C0000060E00000800000008020000080400000806000008080000080A0000080C0000080E00000A0000000A0200000A0400000A0600000A0800000A0A00000A0C00000A0E00000C0000000C0200000C0400000C0600000C0800000C0
310
A00000C0C00000C0E00000E0000000E0200000E0400000E0600000E0800000E0A00000E0C00000E0E00040000000400020004000400040006000400080004000A0004000C0004000E00040200000402020004020400040206000402080004020A0004020C0004020E000404000004040200040404000404060004040800040
310
40A0004040C0004040E00040600000406020004060400040606000406080004060A0004060C0004060E00040800000408020004080400040806000408080004080A0004080C0004080E00040A0000040A0200040A0400040A0600040A0800040A0A00040A0C00040A0E00040C0000040C0200040C0400040C0600040C08000
310
40C0A00040C0C00040C0E00040E0000040E0200040E0400040E0600040E0800040E0A00040E0C00040E0E00080000000800020008000400080006000800080008000A0008000C0008000E00080200000802020008020400080206000802080008020A0008020C0008020E00080400000804020008040400080406000804080
310
008040A0008040C0008040E00080600000806020008060400080606000806080008060A0008060C0008060E00080800000808020008080400080806000808080008080A0008080C0008080E00080A0000080A0200080A0400080A0600080A0800080A0A00080A0C00080A0E00080C0000080C0200080C0400080C0600080C0
310
800080C0A00080C0C00080C0E00080E0000080E0200080E0400080E0600080E0800080E0A00080E0C00080E0E000C0000000C0002000C0004000C0006000C0008000C000A000C000C000C000E000C0200000C0202000C0204000C0206000C0208000C020A000C020C000C020E000C0400000C0402000C0404000C0406000C0
310
408000C040A000C040C000C040E000C0600000C0602000C0604000C0606000C0608000C060A000C060C000C060E000C0800000C0802000C0804000C0806000C0808000C080A000C080C000C080E000C0A00000C0A02000C0A04000C0A06000C0A08000C0A0A000C0A0C000C0A0E000C0C00000C0C02000C0C04000C0C06000
310
C0C08000C0C0A000F0FBFF00A4A0A000808080000000FF0000FF000000FFFF00FF000000FF00FF00FFFF0000FFFFFF00FFFFFFFFFFFFFFFFFFFFFFFFFFFFFFFFFFFFFFFFFFFFFFFFFFFFFFFFFFFFFFFFFFFFFFFFFFFFFFFFFFFFFFFFFFFFFFFFFFFFFFFFFFFFFFFFFFFFFFFFFFFFFFFFFFFFFFFFFFFFFFFFFFFFFFFFFFFFFF
310
FFFFFFFFFFFFFFFFFFFFFFFFFFFFFFFFFFFFFFFFFFFFFFFFFFFFFFFFFFFFFFFFFFFFFFFFFFFFFFFFFFFFFFFFFFFFFFFFFFFFFFFFFFFFFFFFFFFFFFFFFFFFFFFFFFFFFFFFFFFFFFFFFFFFFFFFFFFFFFFFFFFFFFFFFFFFFFFFFFFFFFFFFFFFFFFFFFFFFFFFFFFFFFFFFFFFFFFFFFFFFFFFFFFFFFFFFFFFFFFFFFFFFFFFFFFFFF
310
FFFFFFFFFFFFFFFFFFFFFFFFFFFFFFFFFFFFFFFFFFFFFFFFFFFFFFFFFFFFFFFFFFFFFFFFFFFFFFFFFFFFFFFFFFFFFFFFFFFFFFFFFFFFFFFFFFFFFFFFFFFFFFFFFFFFFFFFFFFFFFFFFFFFFFFFFFFFFFFFFFFFFFFFFFFFFFFFFFFFFFFFFFFFFFFFFFFFFFFFFFFFFFFFFFFFFFFFFFFFFFFFFFFFFFFFFFFFFFFFFFFFFFFFFFFFFF
310
FFFFFFFFFFFFFFFFFFFFFFFFFFFFFFFFFFFFFFFFFFFFFFFFFFFFFFFFFFFFFFFFFFFFFFFFFFFFFFFFFFFFFFFFFFFFFFFFFFFFFFFFFFFFFFFFFFFFFFFFFFFFFFFFFFFFFFFFFFFFFFFFFFFFFFFFFFFFFFFFFFFFFFFFFFFFFF000000000000000000000000000000000000000000000000FFFFFFFFFFFFFFFF0000000000000000
310
00000000000000000000000000000000FFFFFFFFFFFFFFFFFFFFFFFF00000000FF00000000FF000000000000FFFFFFFFFFFFFFFFFFFFFFFFFFFFFFFF00000000000000000000000000000000FFFFFFFFFFFFFFFFFFFFFFFFFF00000000000000000000FF000000000000FF00000000FFFFFFFFFFFFFFFFFFFF000000000000
310
00000000FF000000000000FF00000000FFFFFFFFFFFFFFFFFFFFFFFFFFFFFFFFFFFFFFFFFFFFFFFFFFFFFFFFFFFFFFFFFFFFFFFFFFFFFFFFFFFFFFFFFFFFFFFFFFFFFFFFFFFFFFFFFFFFFFFFFFFFFFFFFFFFFFFFFFFFFFFFFFFFFFFFFFFFFFFFFFFFFFFFFFFFFFFFFFFFFFFFFFFFFFFFFFFFFFFFFFFFFFFFFFFFFFFFFFFFFF
310
FFFFFFFFFFFFFFFFFFFFFFFFFFFFFFFFFFFFFFFFFFFFFFFFFFFFFFFFFFFFFFFFFFFFFFFFFFFFFFFFFFFFFFFFFFFFFFFFFFFFFFFFFFFFFFFFFFFFFFFFFFFFFFFFFFFFFFFFFFFFFFFFFFFFFFFFFFFFFFFFFFFFFFFFFFFFFFFFFFFFFFFFFFFFFFFFFFFFFFFFFFFFFFFFFFFFFFFFFFFFFFFFFFFFFFFFFFFFFFFFFFFFFFFFFFFFFF
310
FFFFFFFFFFFFFFFFFFFFFFFFFFFFFFFFFFFFFFFFFFFFFFFFFFFFFFFFFFFFFFFFFFFFFFFFFFFFFFFFFFFFFFFFFFFFFFFFFFFFFFFFFFFFFFFFFFFFFFFFFFFFFFFFFFFFFFFFFFFFFFFFFFFFFFFFFFFFFFFFFFFFFFFFFFFFFFFFFFFFFFFFFFFFFFFFFFFFFFFFFFFFFFFFFFFFFFFFFFFFFFFFFFFFFFFFFFFFFFFFFFFFFFFFFFFFFF
310
FFFFFFFFFFFFFFFFFFFFFFFFFFFFFFFFFFFFFFFFFFFFFFFFFFFFFFFFFFFFFFFFFFFFFFFFFFFFFFFFFFFFFFFFFFFFFFFFFFFFFFFFFFFFFFFF
102
{BLKREFS
331
2948
331
294C
102
}
  0
BLOCK_RECORD
  5
2954
330
265D
100
AcDbSymbolTableRecord
100
AcDbBlockTableRecord
  2
NTC
340
0
310
2800000020000000200000000100080000000000000400000000000000000000000000000000000000000000000080000080000000808000800000008000800080800000C0C0C000C0DCC000F0CAA6000020400000206000002080000020A0000020C0000020E00000400000004020000040400000406000004080000040A0
310
000040C0000040E00000600000006020000060400000606000006080000060A0000060C0000060E00000800000008020000080400000806000008080000080A0000080C0000080E00000A0000000A0200000A0400000A0600000A0800000A0A00000A0C00000A0E00000C0000000C0200000C0400000C0600000C0800000C0
310
A00000C0C00000C0E00000E0000000E0200000E0400000E0600000E0800000E0A00000E0C00000E0E00040000000400020004000400040006000400080004000A0004000C0004000E00040200000402020004020400040206000402080004020A0004020C0004020E000404000004040200040404000404060004040800040
310
40A0004040C0004040E00040600000406020004060400040606000406080004060A0004060C0004060E00040800000408020004080400040806000408080004080A0004080C0004080E00040A0000040A0200040A0400040A0600040A0800040A0A00040A0C00040A0E00040C0000040C0200040C0400040C0600040C08000
310
40C0A00040C0C00040C0E00040E0000040E0200040E0400040E0600040E0800040E0A00040E0C00040E0E00080000000800020008000400080006000800080008000A0008000C0008000E00080200000802020008020400080206000802080008020A0008020C0008020E00080400000804020008040400080406000804080
310
008040A0008040C0008040E00080600000806020008060400080606000806080008060A0008060C0008060E00080800000808020008080400080806000808080008080A0008080C0008080E00080A0000080A0200080A0400080A0600080A0800080A0A00080A0C00080A0E00080C0000080C0200080C0400080C0600080C0
310
800080C0A00080C0C00080C0E00080E0000080E0200080E0400080E0600080E0800080E0A00080E0C00080E0E000C0000000C0002000C0004000C0006000C0008000C000A000C000C000C000E000C0200000C0202000C0204000C0206000C0208000C020A000C020C000C020E000C0400000C0402000C0404000C0406000C0
310
408000C040A000C040C000C040E000C0600000C0602000C0604000C0606000C0608000C060A000C060C000C060E000C0800000C0802000C0804000C0806000C0808000C080A000C080C000C080E000C0A00000C0A02000C0A04000C0A06000C0A08000C0A0A000C0A0C000C0A0E000C0C00000C0C02000C0C04000C0C06000
310
C0C08000C0C0A000F0FBFF00A4A0A000808080000000FF0000FF000000FFFF00FF000000FF00FF00FFFF0000FFFFFF00FFFFFFFFFFFFFFFFFFFFFFFFFFFFFFFFFFFFFFFFFFFFFFFFFFFFFFFFFFFFFFFFFFFFFFFFFFFFFFFFFFFFFFFFFFFFFFFFFFFFFFFFFFFFFFFFFFFFFFFFFFFFFFFFFFFFFFFFFFFFFFFFFFFFFFFFFFFFFF
310
FFFFFFFFFFFFFFFFFFFFFFFFFFFFFFFFFFFFFFFFFFFFFFFFFFFFFFFFFFFFFFFFFFFFFFFFFFFFFFFFFFFFFFFFFFFFFFFFFFFFFFFFFFFFFFFFFFFFFFFFFFFFFFFFFFFFFFFFFFFFFFFFFFFFFFFFFFFFFFFFFFFFFFFFFFFFFFFFFFFFFFFFFFFFFFFFFFFFFFFFFFFFFFFFFFFFFFFFFFFFFFFFFFFFFFFFFFFFFFFFFFFFFFFFFFFFFF
310
FFFFFFFFFFFFFFFFFFFFFFFFFFFFFFFFFFFFFFFFFFFFFFFFFFFFFFFFFFFFFFFFFFFFFFFFFFFFFFFFFFFFFFFFFFFFFFFFFFFFFFFFFFFFFFFFFFFFFFFFFFFFFFFFFFFFFFFFFFFFFFFFFFFFFFFFFFFFFFFFFFFFFFFFFFFFFFFFFFFFFFFFFFFFFFFFFFFFFFFFFFFFFFFFFFFFFFFFFFFFFFFFFFFFFFFFFFFFFFFFFFFFFFFFFFFFFF
310
FFFFFFFFFFFFFFFFFFFFFFFFFFFFFFFFFFFFFFFF000000000000000000000000000000000000000000000000000000000000FFFF00FF0000000000000000FFFFFFFFFFFFFFFFFFFFFFFFFFFFFFFFFFFFFF00FFFF00FF0000000000000000FFFFFFFFFFFFFFFFFFFFFFFFFFFFFFFFFFFFFF00FFFF00FF000000000000000000
310
00000000000000000000000000FFFFFFFFFF00FFFF00FF0000000000000000000000000000000000000000000000000000FF00FFFF00FF0000000000000000000000000000000000000000000000000000FF00FFFF00FF0000000000000000000000000000000000000000000000000000FF00FFFF00FF0000000000000000
310
00000000000000000000000000000000FFFFFF00FFFF00FF0000000000FFFFFFFFFFFFFFFFFFFFFFFFFFFFFFFFFFFFFFFFFFFF00FFFF000000000000000000000000000000000000000000000000000000000000FFFFFFFFFFFFFFFFFFFFFFFFFFFFFFFFFFFFFFFFFFFFFFFFFFFFFFFFFFFFFFFFFFFFFFFFFFFFFFFFFFFFFF
310
FFFFFFFFFFFFFFFFFFFFFFFFFFFFFFFFFFFFFFFFFFFFFFFFFFFFFFFFFFFFFFFFFFFFFFFFFFFFFFFFFFFFFFFFFFFFFFFFFFFFFFFFFFFFFFFFFFFFFFFFFFFFFFFFFFFFFFFFFFFFFFFFFFFFFFFFFFFFFFFFFFFFFFFFFFFFFFFFFFFFFFFFFFFFFFFFFFFFFFFFFFFFFFFFFFFFFFFFFFFFFFFFFFFFFFFFFFFFFFFFFFFFFFFFFFFFFF
310
FFFFFFFFFFFFFFFFFFFFFFFFFFFFFFFFFFFFFFFFFFFFFFFFFFFFFFFFFFFFFFFFFFFFFFFFFFFFFFFFFFFFFFFFFFFFFFFFFFFFFFFFFFFFFFFFFFFFFFFFFFFFFFFFFFFFFFFFFFFFFFFFFFFFFFFFFFFFFFFFFFFFFFFFFFFFFFFFFFFFFFFFFFFFFFFFFFFFFFFFFFFFFFFFFFFFFFFFFFFFFFFFFFFFFFFFFFFFFFFFFFFFFFFFFFFFFF
310
FFFFFFFFFFFFFFFFFFFFFFFFFFFFFFFFFFFFFFFFFFFFFFFFFFFFFFFFFFFFFFFFFFFFFFFFFFFFFFFFFFFFFFFFFFFFFFFFFFFFFFFFFFFFFFFF
102
{BLKREFS
331
295A
331
2960
102
}
  0
ENDTAB
  0
ENDSEC
  0
SECTION
  2
BLOCKS
  0
BLOCK
  5
267B
330
267A
100
AcDbEntity
  8
0
100
AcDbBlockBegin
  2
*Model_Space
 70
     0
 10
0.0
 20
0.0
 30
0.0
  3
*Model_Space
  1

  0
ENDBLK
  5
267C
330
267A
100
AcDbEntity
  8
0
100
AcDbBlockEnd
  0
BLOCK
  5
2677
330
2676
100
AcDbEntity
 67
     1
  8
0
100
AcDbBlockBegin
  2
*Paper_Space
 70
     0
 10
0.0
 20
0.0
 30
0.0
  3
*Paper_Space
  1

  0
ENDBLK
  5
2678
330
2676
100
AcDbEntity
 67
     1
  8
0
100
AcDbBlockEnd
  0
BLOCK
  5
2695
330
2694
100
AcDbEntity
  8
0
100
AcDbBlockBegin
  2
$MODEL_SPACE
 70
     0
 10
0.0
 20
0.0
 30
0.0
  3
$MODEL_SPACE
  1

  0
ENDBLK
  5
2696
330
2694
100
AcDbEntity
  8
0
100
AcDbBlockEnd
  0
BLOCK
  5
2698
330
2697
100
AcDbEntity
  8
0
100
AcDbBlockBegin
  2
$PAPER_SPACE
 70
     0
 10
0.0
 20
0.0
 30
0.0
  3
$PAPER_SPACE
  1

  0
ENDBLK
  5
2699
330
2697
100
AcDbEntity
  8
0
100
AcDbBlockEnd
  0
BLOCK
  5
28C6
330
28C3
100
AcDbEntity
  8
0
 62
     7
100
AcDbBlockBegin
  2
AI9-BLK14
 70
     0
 10
0.0
 20
0.0
 30
0.0
  3
AI9-BLK14
  1

  0
SPLINE
  5
28C4
330
28C3
100
AcDbEntity
  8
LAYER_1
 62
     7
100
AcDbSpline
210
0.0
220
0.0
230
1.0
 70
    11
 71
     3
 72
    23
 73
    19
 74
     0
 42
0.0000000001
 43
0.0000000001
 40
0.0
 40
0.0
 40
0.0
 40
0.0
 40
1.0
 40
1.0
 40
1.0
 40
2.0
 40
2.0
 40
2.0
 40
3.0
 40
3.0
 40
3.0
 40
4.0
 40
4.0
 40
4.0
 40
5.0
 40
5.0
 40
5.0
 40
6.0
 40
6.0
 40
6.0
 40
6.0
 10
-10.90321044921874
 20
10.88107571072048
 30
0.0
 10
-10.90321044921874
 20
10.88107571072048
 30
0.0
 10
-10.90321044921874
 20
-10.88107571072048
 30
0.0
 10
-10.90321044921874
 20
-10.88107571072048
 30
0.0
 10
-10.90321044921874
 20
-10.88107571072048
 30
0.0
 10
1.752692328559025
 20
-10.88107571072048
 30
0.0
 10
1.752692328559025
 20
-10.88107571072048
 30
0.0
 10
3.280592176649305
 20
-10.88107571072048
 30
0.0
 10
10.90321044921874
 20
-10.32383151584201
 30
0.0
 10
10.90321044921874
 20
0.6792867024739583
 30
0.0
 10
10.90321044921874
 20
10.61700914171006
 30
0.0
 10
2.773129611545138
 20
10.87952541775172
 30
0.0
 10
2.691136338975693
 20
10.88090345594618
 30
0.0
 10
2.691136338975693
 20
10.88090345594618
 30
0.0
 10
-9.903099229600693
 20
10.88107571072048
 30
0.0
 10
-9.903099229600693
 20
10.88107571072048
 30
0.0
 10
-9.903099229600693
 20
10.88107571072048
 30
0.0
 10
-10.90321044921874
 20
10.88107571072048
 30
0.0
 10
-10.90321044921874
 20
10.88107571072048
 30
0.0
  0
SPLINE
  5
28C5
330
28C3
100
AcDbEntity
  8
LAYER_1
 62
     7
100
AcDbSpline
210
0.0
220
0.0
230
1.0
 70
    11
 71
     3
 72
    20
 73
    16
 74
     0
 42
0.0000000001
 43
0.0000000001
 40
0.0
 40
0.0
 40
0.0
 40
0.0
 40
1.0
 40
1.0
 40
1.0
 40
2.0
 40
2.0
 40
2.0
 40
3.0
 40
3.0
 40
3.0
 40
4.0
 40
4.0
 40
4.0
 40
5.0
 40
5.0
 40
5.0
 40
5.0
 10
2.672877332899305
 20
8.881197781032986
 30
0.0
 10
2.905421278211805
 20
8.874307590060762
 30
0.0
 10
8.902988009982637
 20
8.616442192925347
 30
0.0
 10
8.902988009982637
 20
0.6792867024739583
 30
0.0
 10
8.902988009982637
 20
-8.191661919487842
 30
0.0
 10
3.430109320746526
 20
-8.881197781032986
 30
0.0
 10
1.752692328559025
 20
-8.881197781032986
 30
0.0
 10
1.752692328559025
 20
-8.881197781032986
 30
0.0
 10
-7.231427680121528
 20
-8.881197781032986
 30
0.0
 10
-8.902988009982637
 20
-8.881197781032986
 30
0.0
 10
-8.902988009982637
 20
-7.174497477213541
 30
0.0
 10
-8.902988009982637
 20
7.174497477213541
 30
0.0
 10
-8.902988009982637
 20
8.881197781032986
 30
0.0
 10
-7.208690049913191
 20
8.881197781032986
 30
0.0
 10
2.672877332899305
 20
8.881197781032986
 30
0.0
 10
2.672877332899305
 20
8.881197781032986
 30
0.0
  0
ENDBLK
  5
28C7
330
28C3
100
AcDbEntity
  8
0
100
AcDbBlockEnd
  0
BLOCK
  5
28CB
330
28C8
100
AcDbEntity
  8
0
 62
     7
100
AcDbBlockBegin
  2
AI9-BLK13
 70
     0
 10
0.0
 20
0.0
 30
0.0
  3
AI9-BLK13
  1

  0
LWPOLYLINE
  5
28C9
330
28C8
100
AcDbEntity
  8
LAYER_1
 62
     7
100
AcDbPolyline
 90
       12
 70
     1
 43
0.0
 10
-3.792361111111107
 20
10.7376736111111
 10
-2.469444444444443
 20
10.7376736111111
 10
-2.469444444444443
 20
1.874131944444444
 10
2.469444444444443
 20
1.874131944444444
 10
2.469444444444443
 20
10.7376736111111
 10
3.792361111111107
 20
10.7376736111111
 10
3.792361111111107
 20
-10.7376736111111
 10
2.469444444444443
 20
-10.7376736111111
 10
2.469444444444443
 20
-0.6835069444444444
 10
-2.469444444444443
 20
-0.6835069444444444
 10
-2.469444444444443
 20
-10.7376736111111
 10
-3.792361111111107
 20
-10.7376736111111
  0
HATCH
  5
28CA
330
28C8
100
AcDbEntity
  8
LAYER_1
 62
     7
100
AcDbHatch
 10
0.0
 20
0.0
 30
0.0
210
0.0
220
0.0
230
1.0
  2
SOLID
 70
     1
 71
     0
 91
        1
 92
        3
 72
     0
 73
     1
 93
       12
 10
-3.792361111111107
 20
10.7376736111111
 10
-2.469444444444443
 20
10.7376736111111
 10
-2.469444444444443
 20
1.874131944444444
 10
2.469444444444443
 20
1.874131944444444
 10
2.469444444444443
 20
10.7376736111111
 10
3.792361111111107
 20
10.7376736111111
 10
3.792361111111107
 20
-10.7376736111111
 10
2.469444444444443
 20
-10.7376736111111
 10
2.469444444444443
 20
-0.6835069444444444
 10
-2.469444444444443
 20
-0.6835069444444444
 10
-2.469444444444443
 20
-10.7376736111111
 10
-3.792361111111107
 20
-10.7376736111111
 97
        0
 75
     2
 76
     1
 98
        1
 10
0.0
 20
0.0
  0
ENDBLK
  5
28CC
330
28C8
100
AcDbEntity
  8
0
100
AcDbBlockEnd
  0
BLOCK
  5
28D0
330
28CD
100
AcDbEntity
  8
0
 62
     7
100
AcDbBlockBegin
  2
AI9-BLK11
 70
     0
 10
0.0
 20
0.0
 30
0.0
  3
AI9-BLK11
  1

  0
SPLINE
  5
28CE
330
28CD
100
AcDbEntity
  8
LAYER_1
 62
     7
100
AcDbSpline
210
0.0
220
0.0
230
1.0
 70
    11
 71
     3
 72
    26
 73
    22
 74
     0
 42
0.0000000001
 43
0.0000000001
 40
0.0
 40
0.0
 40
0.0
 40
0.0
 40
1.0
 40
1.0
 40
1.0
 40
2.0
 40
2.0
 40
2.0
 40
3.0
 40
3.0
 40
3.0
 40
4.0
 40
4.0
 40
4.0
 40
5.0
 40
5.0
 40
5.0
 40
6.0
 40
6.0
 40
6.0
 40
7.0
 40
7.0
 40
7.0
 40
7.0
 10
-2.645833333333333
 20
0.9039930555555551
 30
0.0
 10
-2.645833333333333
 20
0.9039930555555551
 30
0.0
 10
-2.645833333333333
 20
8.180034722222217
 30
0.0
 10
-2.645833333333333
 20
8.180034722222217
 30
0.0
 10
-2.645833333333333
 20
8.180034722222217
 30
0.0
 10
0.465087890625
 20
8.180034722222217
 30
0.0
 10
0.465087890625
 20
8.180034722222217
 30
0.0
 10
0.9026150173611108
 20
8.180034722222217
 30
0.0
 10
1.24988064236111
 20
8.034651692708331
 30
0.0
 10
1.506884765625
 20
7.745263671874997
 30
0.0
 10
2.001600477430554
 20
7.194048394097221
 30
0.0
 10
2.248958333333332
 20
6.160519748263887
 30
0.0
 10
2.248958333333332
 20
4.643299696180553
 30
0.0
 10
2.248958333333332
 20
3.232188585069443
 30
0.0
 10
2.072569444444444
 20
2.256537543402775
 30
0.0
 10
1.720480685763888
 20
1.715657552083333
 30
0.0
 10
1.368391927083333
 20
1.174088541666665
 30
0.0
 10
0.8929687499999998
 20
0.9039930555555551
 30
0.0
 10
0.2942111545138888
 20
0.9039930555555551
 30
0.0
 10
0.2942111545138888
 20
0.9039930555555551
 30
0.0
 10
-2.645833333333333
 20
0.9039930555555551
 30
0.0
 10
-2.645833333333333
 20
0.9039930555555551
 30
0.0
  0
SPLINE
  5
28CF
330
28CD
100
AcDbEntity
  8
LAYER_1
 62
     7
100
AcDbSpline
210
0.0
220
0.0
230
1.0
 70
    11
 71
     3
 72
    68
 73
    64
 74
     0
 42
0.0000000001
 43
0.0000000001
 40
0.0
 40
0.0
 40
0.0
 40
0.0
 40
1.0
 40
1.0
 40
1.0
 40
2.0
 40
2.0
 40
2.0
 40
3.0
 40
3.0
 40
3.0
 40
4.0
 40
4.0
 40
4.0
 40
5.0
 40
5.0
 40
5.0
 40
6.0
 40
6.0
 40
6.0
 40
7.0
 40
7.0
 40
7.0
 40
8.0
 40
8.0
 40
8.0
 40
9.0
 40
9.0
 40
9.0
 40
10.0
 40
10.0
 40
10.0
 40
11.0
 40
11.0
 40
11.0
 40
12.0
 40
12.0
 40
12.0
 40
13.0
 40
13.0
 40
13.0
 40
14.0
 40
14.0
 40
14.0
 40
15.0
 40
15.0
 40
15.0
 40
16.0
 40
16.0
 40
16.0
 40
17.0
 40
17.0
 40
17.0
 40
18.0
 40
18.0
 40
18.0
 40
19.0
 40
19.0
 40
19.0
 40
20.0
 40
20.0
 40
20.0
 40
21.0
 40
21.0
 40
21.0
 40
21.0
 10
-3.968749999999998
 20
-10.7376736111111
 30
0.0
 10
-3.968749999999998
 20
-10.7376736111111
 30
0.0
 10
-2.645833333333333
 20
-10.7376736111111
 30
0.0
 10
-2.645833333333333
 20
-10.7376736111111
 30
0.0
 10
-2.645833333333333
 20
-10.7376736111111
 30
0.0
 10
-2.645833333333333
 20
-1.521354166666665
 30
0.0
 10
-2.645833333333333
 20
-1.521354166666665
 30
0.0
 10
-2.645833333333333
 20
-1.521354166666665
 30
0.0
 10
0.2390896267361111
 20
-1.521354166666665
 30
0.0
 10
0.2390896267361111
 20
-1.521354166666665
 30
0.0
 10
0.7599880642361111
 20
-1.521354166666665
 30
0.0
 10
1.143771701388887
 20
-1.65295681423611
 30
0.0
 10
1.390440538194444
 20
-1.916162109374999
 30
0.0
 10
1.816254340277773
 20
-2.39434136284722
 30
0.0
 10
2.04363064236111
 20
-3.335541449652775
 30
0.0
 10
2.072569444444444
 20
-4.739762369791666
 30
0.0
 10
2.072569444444444
 20
-4.739762369791666
 30
0.0
 10
2.160763888888888
 20
-8.324039713541665
 30
0.0
 10
2.160763888888888
 20
-8.324039713541665
 30
0.0
 10
2.18005642361111
 20
-9.163264973958332
 30
0.0
 10
2.202794053819443
 20
-9.728949652777775
 30
0.0
 10
2.227598741319444
 20
-10.02109374999998
 30
0.0
 10
2.252403428819443
 20
-10.31392686631944
 30
0.0
 10
2.28892144097222
 20
-10.55301649305555
 30
0.0
 10
2.33853081597222
 20
-10.7376736111111
 30
0.0
 10
2.33853081597222
 20
-10.7376736111111
 30
0.0
 10
3.968749999999998
 20
-10.7376736111111
 30
0.0
 10
3.968749999999998
 20
-10.7376736111111
 30
0.0
 10
3.968749999999998
 20
-10.7376736111111
 30
0.0
 10
3.968749999999998
 20
-10.25260416666666
 30
0.0
 10
3.968749999999998
 20
-10.25260416666666
 30
0.0
 10
3.766867404513888
 20
-10.05830078125
 30
0.0
 10
3.625618489583333
 20
-9.621462673611112
 30
0.0
 10
3.545692274305555
 20
-8.942089843749997
 30
0.0
 10
3.49470486111111
 20
-8.543836805555555
 30
0.0
 10
3.459564887152775
 20
-7.937499999999999
 30
0.0
 10
3.439583333333333
 20
-7.121701388888887
 30
0.0
 10
3.439583333333333
 20
-7.121701388888887
 30
0.0
 10
3.395486111111106
 20
-4.232644314236106
 30
0.0
 10
3.395486111111106
 20
-4.232644314236106
 30
0.0
 10
3.375504557291666
 20
-2.981385633680555
 30
0.0
 10
3.26870659722222
 20
-2.077392578125
 30
0.0
 10
3.075781249999999
 20
-1.522043185763888
 30
0.0
 10
2.882166883680555
 20
-0.9666937934027776
 30
0.0
 10
2.592089843749999
 20
-0.5188313802083333
 30
0.0
 10
2.204861111111104
 20
-0.1770779079861111
 30
0.0
 10
2.63618706597222
 20
0.3197048611111111
 30
0.0
 10
2.971739366319443
 20
0.9770290798611107
 30
0.0
 10
3.211518012152775
 20
1.79558376736111
 30
0.0
 10
3.451296657986107
 20
2.613449435763888
 30
0.0
 10
3.571874999999999
 20
3.66558159722222
 30
0.0
 10
3.571874999999999
 20
4.951291232638888
 30
0.0
 10
3.571874999999999
 20
7.415912543402777
 30
0.0
 10
3.124701605902775
 20
9.106076388888887
 30
0.0
 10
2.231043836805555
 20
10.02178276909722
 30
0.0
 10
1.759754774305553
 20
10.498583984375
 30
0.0
 10
1.163753255208332
 20
10.7376736111111
 30
0.0
 10
0.443039279513889
 20
10.7376736111111
 30
0.0
 10
0.443039279513889
 20
10.7376736111111
 30
0.0
 10
-3.968749999999998
 20
10.7376736111111
 30
0.0
 10
-3.968749999999998
 20
10.7376736111111
 30
0.0
 10
-3.968749999999998
 20
10.7376736111111
 30
0.0
 10
-3.968749999999998
 20
-10.7376736111111
 30
0.0
 10
-3.968749999999998
 20
-10.7376736111111
 30
0.0
  0
ENDBLK
  5
28D1
330
28CD
100
AcDbEntity
  8
0
100
AcDbBlockEnd
  0
BLOCK
  5
28D4
330
28D2
100
AcDbEntity
  8
0
 62
     7
100
AcDbBlockBegin
  2
AI9-BLK10
 70
     0
 10
0.0
 20
0.0
 30
0.0
  3
AI9-BLK10
  1

  0
SPLINE
  5
28D3
330
28D2
100
AcDbEntity
  8
LAYER_1
 62
     7
100
AcDbSpline
210
0.0
220
0.0
230
1.0
 70
    11
 71
     3
 72
    59
 73
    55
 74
     0
 42
0.0000000001
 43
0.0000000001
 40
0.0
 40
0.0
 40
0.0
 40
0.0
 40
1.0
 40
1.0
 40
1.0
 40
2.0
 40
2.0
 40
2.0
 40
3.0
 40
3.0
 40
3.0
 40
4.0
 40
4.0
 40
4.0
 40
5.0
 40
5.0
 40
5.0
 40
6.0
 40
6.0
 40
6.0
 40
7.0
 40
7.0
 40
7.0
 40
8.0
 40
8.0
 40
8.0
 40
9.0
 40
9.0
 40
9.0
 40
10.0
 40
10.0
 40
10.0
 40
11.0
 40
11.0
 40
11.0
 40
12.0
 40
12.0
 40
12.0
 40
13.0
 40
13.0
 40
13.0
 40
14.0
 40
14.0
 40
14.0
 40
15.0
 40
15.0
 40
15.0
 40
16.0
 40
16.0
 40
16.0
 40
17.0
 40
17.0
 40
17.0
 40
18.0
 40
18.0
 40
18.0
 40
18.0
 10
-4.652256944444443
 20
10.7376736111111
 30
0.0
 10
-4.652256944444443
 20
10.7376736111111
 30
0.0
 10
-2.798795572916666
 20
10.7376736111111
 30
0.0
 10
-2.798795572916666
 20
10.7376736111111
 30
0.0
 10
-2.798795572916666
 20
10.7376736111111
 30
0.0
 10
0.0
 20
-7.419357638888887
 30
0.0
 10
0.0
 20
-7.419357638888887
 30
0.0
 10
0.0
 20
-7.419357638888887
 30
0.0
 10
2.793283420138888
 20
10.7376736111111
 30
0.0
 10
2.793283420138888
 20
10.7376736111111
 30
0.0
 10
2.793283420138888
 20
10.7376736111111
 30
0.0
 10
4.652256944444443
 20
10.7376736111111
 30
0.0
 10
4.652256944444443
 20
10.7376736111111
 30
0.0
 10
4.652256944444443
 20
10.7376736111111
 30
0.0
 10
4.652256944444443
 20
-10.7376736111111
 30
0.0
 10
4.652256944444443
 20
-10.7376736111111
 30
0.0
 10
4.652256944444443
 20
-10.7376736111111
 30
0.0
 10
3.41753472222222
 20
-10.7376736111111
 30
0.0
 10
3.41753472222222
 20
-10.7376736111111
 30
0.0
 10
3.41753472222222
 20
-10.7376736111111
 30
0.0
 10
3.41753472222222
 20
1.936832682291665
 30
0.0
 10
3.41753472222222
 20
1.936832682291665
 30
0.0
 10
3.41753472222222
 20
2.375048828124999
 30
0.0
 10
3.424424913194443
 20
3.101274956597221
 30
0.0
 10
3.439583333333333
 20
4.11482204861111
 30
0.0
 10
3.454052734374998
 20
5.128369140624998
 30
0.0
 10
3.461631944444443
 20
6.214952256944441
 30
0.0
 10
3.461631944444443
 20
7.375260416666666
 30
0.0
 10
3.461631944444443
 20
7.375260416666666
 30
0.0
 10
0.6538791232638889
 20
-10.7376736111111
 30
0.0
 10
0.6538791232638889
 20
-10.7376736111111
 30
0.0
 10
0.6538791232638889
 20
-10.7376736111111
 30
0.0
 10
-0.6628363715277778
 20
-10.7376736111111
 30
0.0
 10
-0.6628363715277778
 20
-10.7376736111111
 30
0.0
 10
-0.6628363715277778
 20
-10.7376736111111
 30
0.0
 10
-3.461631944444443
 20
7.375260416666666
 30
0.0
 10
-3.461631944444443
 20
7.375260416666666
 30
0.0
 10
-3.461631944444443
 20
7.375260416666666
 30
0.0
 10
-3.461631944444443
 20
6.717247178819441
 30
0.0
 10
-3.461631944444443
 20
6.717247178819441
 30
0.0
 10
-3.461631944444443
 20
6.190836588541666
 30
0.0
 10
-3.45474175347222
 20
5.389507378472222
 30
0.0
 10
-3.439583333333333
 20
4.312570529513888
 30
0.0
 10
-3.425113932291666
 20
3.235633680555555
 30
0.0
 10
-3.41753472222222
 20
2.44395073784722
 30
0.0
 10
-3.41753472222222
 20
1.936832682291665
 30
0.0
 10
-3.41753472222222
 20
1.936832682291665
 30
0.0
 10
-3.41753472222222
 20
-10.7376736111111
 30
0.0
 10
-3.41753472222222
 20
-10.7376736111111
 30
0.0
 10
-3.41753472222222
 20
-10.7376736111111
 30
0.0
 10
-4.652256944444443
 20
-10.7376736111111
 30
0.0
 10
-4.652256944444443
 20
-10.7376736111111
 30
0.0
 10
-4.652256944444443
 20
-10.7376736111111
 30
0.0
 10
-4.652256944444443
 20
10.7376736111111
 30
0.0
 10
-4.652256944444443
 20
10.7376736111111
 30
0.0
  0
ENDBLK
  5
28D5
330
28D2
100
AcDbEntity
  8
0
100
AcDbBlockEnd
  0
BLOCK
  5
28D9
330
28D6
100
AcDbEntity
  8
0
 62
     7
100
AcDbBlockBegin
  2
AI9-BLK9
 70
     0
 10
0.0
 20
0.0
 30
0.0
  3
AI9-BLK9
  1

  0
SPLINE
  5
28D7
330
28D6
100
AcDbEntity
  8
LAYER_1
 62
     7
100
AcDbSpline
210
0.0
220
0.0
230
1.0
 70
    11
 71
     3
 72
    29
 73
    25
 74
     0
 42
0.0000000001
 43
0.0000000001
 40
0.0
 40
0.0
 40
0.0
 40
0.0
 40
1.0
 40
1.0
 40
1.0
 40
2.0
 40
2.0
 40
2.0
 40
3.0
 40
3.0
 40
3.0
 40
4.0
 40
4.0
 40
4.0
 40
5.0
 40
5.0
 40
5.0
 40
6.0
 40
6.0
 40
6.0
 40
7.0
 40
7.0
 40
7.0
 40
8.0
 40
8.0
 40
8.0
 40
8.0
 10
0.0668348524305556
 20
-8.753298611111111
 30
0.0
 10
-0.9067491319444444
 20
-8.753298611111111
 30
0.0
 10
-1.60954861111111
 20
-7.936810980902778
 30
0.0
 10
-2.041563585069444
 20
-6.30383572048611
 30
0.0
 10
-2.474267578124999
 20
-4.670860460069443
 30
0.0
 10
-2.689930555555555
 20
-2.664436848958333
 30
0.0
 10
-2.689930555555555
 20
-0.28525390625
 30
0.0
 10
-2.689930555555555
 20
2.68855251736111
 30
0.0
 10
-2.439127604166666
 20
4.938199869791666
 30
0.0
 10
-1.937521701388888
 20
6.464377170138886
 30
0.0
 10
-1.43591579861111
 20
7.989865451388887
 30
0.0
 10
-0.7827256944444444
 20
8.753298611111111
 30
0.0
 10
0.0220486111111111
 20
8.753298611111111
 30
0.0
 10
0.8468044704861108
 20
8.753298611111111
 30
0.0
 10
1.49792751736111
 20
7.982975260416663
 30
0.0
 10
1.974728732638888
 20
6.442328559027776
 30
0.0
 10
2.451529947916665
 20
4.901681857638886
 30
0.0
 10
2.689930555555555
 20
2.868386501736111
 30
0.0
 10
2.689930555555555
 20
0.3438205295138888
 30
0.0
 10
2.689930555555555
 20
-2.045697699652774
 30
0.0
 10
2.483224826388884
 20
-4.15891927083333
 30
0.0
 10
2.071191406249999
 20
-5.996533203124998
 30
0.0
 10
1.65915798611111
 20
-7.834836154513887
 30
0.0
 10
0.9908094618055557
 20
-8.753298611111111
 30
0.0
 10
0.0668348524305556
 20
-8.753298611111111
 30
0.0
  0
SPLINE
  5
28D8
330
28D6
100
AcDbEntity
  8
LAYER_1
 62
     7
100
AcDbSpline
210
0.0
220
0.0
230
1.0
 70
    11
 71
     3
 72
    29
 73
    25
 74
     0
 42
0.0000000001
 43
0.0000000001
 40
0.0
 40
0.0
 40
0.0
 40
0.0
 40
1.0
 40
1.0
 40
1.0
 40
2.0
 40
2.0
 40
2.0
 40
3.0
 40
3.0
 40
3.0
 40
4.0
 40
4.0
 40
4.0
 40
5.0
 40
5.0
 40
5.0
 40
6.0
 40
6.0
 40
6.0
 40
7.0
 40
7.0
 40
7.0
 40
8.0
 40
8.0
 40
8.0
 40
8.0
 10
-0.0289388020833333
 20
11.35503472222222
 30
0.0
 10
-1.317404513888887
 20
11.35503472222222
 30
0.0
 10
-2.28892144097222
 20
10.02798394097222
 30
0.0
 10
-2.94280056423611
 20
7.374571397569441
 30
0.0
 10
-3.450607638888888
 20
5.30613606770833
 30
0.0
 10
-3.704166666666666
 20
2.81877712673611
 30
0.0
 10
-3.704166666666666
 20
-0.0881944444444445
 30
0.0
 10
-3.704166666666666
 20
-3.307291666666666
 30
0.0
 10
-3.406510416666666
 20
-5.97035047743055
 30
0.0
 10
-2.811197916666666
 20
-8.077370876736106
 30
0.0
 10
-2.147672526041664
 20
-10.26293945312499
 30
0.0
 10
-1.229899088541666
 20
-11.35503472222222
 30
0.0
 10
-0.0585666232638889
 20
-11.35503472222222
 30
0.0
 10
1.20027126736111
 20
-11.35503472222222
 30
0.0
 10
2.166276041666665
 20
-10.10653211805555
 30
0.0
 10
2.840136718749998
 20
-7.609526909722221
 30
0.0
 10
3.416156684027776
 20
-5.483213975694441
 30
0.0
 10
3.704166666666666
 20
-2.814643012152775
 30
0.0
 10
3.704166666666666
 20
0.3948079427083333
 30
0.0
 10
3.704166666666666
 20
3.360346137152776
 30
0.0
 10
3.449918619791666
 20
5.793961588541666
 30
0.0
 10
2.94280056423611
 20
7.696343315972222
 30
0.0
 10
2.298567708333333
 20
10.13547092013888
 30
0.0
 10
1.307758246527777
 20
11.35503472222222
 30
0.0
 10
-0.0289388020833333
 20
11.35503472222222
 30
0.0
  0
ENDBLK
  5
28DA
330
28D6
100
AcDbEntity
  8
0
100
AcDbBlockEnd
  0
BLOCK
  5
28DE
330
28DB
100
AcDbEntity
  8
0
 62
     7
100
AcDbBlockBegin
  2
AI9-BLK8
 70
     0
 10
0.0
 20
0.0
 30
0.0
  3
AI9-BLK8
  1

  0
LWPOLYLINE
  5
28DC
330
28DB
100
AcDbEntity
  8
LAYER_1
 62
     7
100
AcDbPolyline
 90
       10
 70
     1
 43
0.0
 10
-3.792361111111107
 20
10.7376736111111
 10
-2.268939887152773
 20
10.7376736111111
 10
2.557638888888888
 20
-6.505718315972222
 10
2.557638888888888
 20
10.7376736111111
 10
3.792361111111107
 20
10.7376736111111
 10
3.792361111111107
 20
-10.7376736111111
 10
2.32612847222222
 20
-10.7376736111111
 10
-2.557638888888888
 20
6.549815538194441
 10
-2.557638888888888
 20
-10.7376736111111
 10
-3.792361111111107
 20
-10.7376736111111
  0
HATCH
  5
28DD
330
28DB
100
AcDbEntity
  8
LAYER_1
 62
     7
100
AcDbHatch
 10
0.0
 20
0.0
 30
0.0
210
0.0
220
0.0
230
1.0
  2
SOLID
 70
     1
 71
     0
 91
        1
 92
        3
 72
     0
 73
     1
 93
       10
 10
-3.792361111111107
 20
10.7376736111111
 10
-2.268939887152773
 20
10.7376736111111
 10
2.557638888888888
 20
-6.505718315972222
 10
2.557638888888888
 20
10.7376736111111
 10
3.792361111111107
 20
10.7376736111111
 10
3.792361111111107
 20
-10.7376736111111
 10
2.32612847222222
 20
-10.7376736111111
 10
-2.557638888888888
 20
6.549815538194441
 10
-2.557638888888888
 20
-10.7376736111111
 10
-3.792361111111107
 20
-10.7376736111111
 97
        0
 75
     2
 76
     1
 98
        1
 10
0.0
 20
0.0
  0
ENDBLK
  5
28DF
330
28DB
100
AcDbEntity
  8
0
100
AcDbBlockEnd
  0
BLOCK
  5
28E3
330
28E0
100
AcDbEntity
  8
0
 62
     7
100
AcDbBlockBegin
  2
AI9-BLK7
 70
     0
 10
0.0
 20
0.0
 30
0.0
  3
AI9-BLK7
  1

  0
LWPOLYLINE
  5
28E1
330
28E0
100
AcDbEntity
  8
LAYER_1
 62
     7
100
AcDbPolyline
 90
        4
 70
     1
 43
0.0
 10
-0.6614583333333333
 20
10.7376736111111
 10
0.6614583333333333
 20
10.7376736111111
 10
0.6614583333333333
 20
-10.7376736111111
 10
-0.6614583333333333
 20
-10.7376736111111
  0
HATCH
  5
28E2
330
28E0
100
AcDbEntity
  8
LAYER_1
 62
     7
100
AcDbHatch
 10
0.0
 20
0.0
 30
0.0
210
0.0
220
0.0
230
1.0
  2
SOLID
 70
     1
 71
     0
 91
        1
 92
        3
 72
     0
 73
     1
 93
        4
 10
-0.6614583333333333
 20
10.7376736111111
 10
0.6614583333333333
 20
10.7376736111111
 10
0.6614583333333333
 20
-10.7376736111111
 10
-0.6614583333333333
 20
-10.7376736111111
 97
        0
 75
     2
 76
     1
 98
        1
 10
0.0
 20
0.0
  0
ENDBLK
  5
28E4
330
28E0
100
AcDbEntity
  8
0
100
AcDbBlockEnd
  0
BLOCK
  5
28E7
330
28E5
100
AcDbEntity
  8
0
 62
     7
100
AcDbBlockBegin
  2
AI9-BLK6
 70
     0
 10
0.0
 20
0.0
 30
0.0
  3
AI9-BLK6
  1

  0
SPLINE
  5
28E6
330
28E5
100
AcDbEntity
  8
LAYER_1
 62
     7
100
AcDbSpline
210
0.0
220
0.0
230
1.0
 70
    11
 71
     3
 72
    59
 73
    55
 74
     0
 42
0.0000000001
 43
0.0000000001
 40
0.0
 40
0.0
 40
0.0
 40
0.0
 40
1.0
 40
1.0
 40
1.0
 40
2.0
 40
2.0
 40
2.0
 40
3.0
 40
3.0
 40
3.0
 40
4.0
 40
4.0
 40
4.0
 40
5.0
 40
5.0
 40
5.0
 40
6.0
 40
6.0
 40
6.0
 40
7.0
 40
7.0
 40
7.0
 40
8.0
 40
8.0
 40
8.0
 40
9.0
 40
9.0
 40
9.0
 40
10.0
 40
10.0
 40
10.0
 40
11.0
 40
11.0
 40
11.0
 40
12.0
 40
12.0
 40
12.0
 40
13.0
 40
13.0
 40
13.0
 40
14.0
 40
14.0
 40
14.0
 40
15.0
 40
15.0
 40
15.0
 40
16.0
 40
16.0
 40
16.0
 40
17.0
 40
17.0
 40
17.0
 40
18.0
 40
18.0
 40
18.0
 40
18.0
 10
3.062689887152775
 20
9.168088107638887
 30
0.0
 10
3.735172526041666
 20
7.739062499999997
 30
0.0
 10
4.110687934027776
 20
6.116422526041666
 30
0.0
 10
4.189236111111108
 20
4.299479166666666
 30
0.0
 10
4.189236111111108
 20
4.299479166666666
 30
0.0
 10
2.866319444444443
 20
4.299479166666666
 30
0.0
 10
2.866319444444443
 20
4.299479166666666
 30
0.0
 10
2.720936414930555
 20
5.667871093749997
 30
0.0
 10
2.435682508680555
 20
6.752387152777776
 30
0.0
 10
2.009868706597218
 20
7.553027343749997
 30
0.0
 10
1.584054904513888
 20
8.352978515624997
 30
0.0
 10
0.9839192708333332
 20
8.753298611111111
 30
0.0
 10
0.2101508246527778
 20
8.753298611111111
 30
0.0
 10
-0.7386284722222222
 20
8.753298611111111
 30
0.0
 10
-1.503439670138888
 20
8.010536024305555
 30
0.0
 10
-2.083593749999999
 20
6.526388888888886
 30
0.0
 10
-2.664436848958333
 20
5.042241753472221
 30
0.0
 10
-2.954513888888888
 20
2.767100694444443
 30
0.0
 10
-2.954513888888888
 20
-0.2990342881944444
 30
0.0
 10
-2.954513888888888
 20
-2.811197916666666
 30
0.0
 10
-2.693375651041666
 20
-4.847938368055555
 30
0.0
 10
-2.17041015625
 20
-6.409944661458332
 30
0.0
 10
-1.648133680555553
 20
-7.972639973958332
 30
0.0
 10
-0.8640299479166666
 20
-8.753298611111111
 30
0.0
 10
0.1812120225694444
 20
-8.753298611111111
 30
0.0
 10
1.138948567708333
 20
-8.753298611111111
 30
0.0
 10
1.865174696180553
 20
-7.927853732638887
 30
0.0
 10
2.359201388888884
 20
-6.275585937499998
 30
0.0
 10
2.62998589409722
 20
-5.406043836805555
 30
0.0
 10
2.828423394097221
 20
-4.262272135416666
 30
0.0
 10
2.954513888888888
 20
-2.844270833333331
 30
0.0
 10
2.954513888888888
 20
-2.844270833333331
 30
0.0
 10
4.277430555555555
 20
-2.844270833333331
 30
0.0
 10
4.277430555555555
 20
-2.844270833333331
 30
0.0
 10
4.169943576388888
 20
-5.109765624999996
 30
0.0
 10
3.795117187499998
 20
-7.009391276041665
 30
0.0
 10
3.151573350694443
 20
-8.542458767361106
 30
0.0
 10
2.381249999999999
 20
-10.38834092881943
 30
0.0
 10
1.347721354166665
 20
-11.3109375
 30
0.0
 10
0.0509874131944445
 20
-11.3109375
 30
0.0
 10
-1.07004665798611
 20
-11.3109375
 30
0.0
 10
-2.010557725694444
 20
-10.55577256944443
 30
0.0
 10
-2.771234809027776
 20
-9.04475368923611
 30
0.0
 10
-3.775824652777775
 20
-7.046598307291666
 30
0.0
 10
-4.277430555555555
 20
-3.961170789930555
 30
0.0
 10
-4.277430555555555
 20
0.2115288628472222
 30
0.0
 10
-4.277430555555555
 20
3.379638671874998
 30
0.0
 10
-3.902604166666666
 20
5.977929687499997
 30
0.0
 10
-3.151573350694443
 20
8.005712890624996
 30
0.0
 10
-2.333018663194443
 20
10.20919596354165
 30
0.0
 10
-1.20647243923611
 20
11.3109375
 30
0.0
 10
0.2266872829861111
 20
11.3109375
 30
0.0
 10
1.444873046875
 20
11.3109375
 30
0.0
 10
2.390207248263884
 20
10.59642469618055
 30
0.0
 10
3.062689887152775
 20
9.168088107638887
 30
0.0
  0
ENDBLK
  5
28E8
330
28E5
100
AcDbEntity
  8
0
100
AcDbBlockEnd
  0
BLOCK
  5
28EC
330
28E9
100
AcDbEntity
  8
0
 62
     7
100
AcDbBlockBegin
  2
AI9-BLK5
 70
     0
 10
0.0
 20
0.0
 30
0.0
  3
AI9-BLK5
  1

  0
SPLINE
  5
28EA
330
28E9
100
AcDbEntity
  8
LAYER_1
 62
     7
100
AcDbSpline
210
0.0
220
0.0
230
1.0
 70
    11
 71
     3
 72
    32
 73
    28
 74
     0
 42
0.0000000001
 43
0.0000000001
 40
0.0
 40
0.0
 40
0.0
 40
0.0
 40
1.0
 40
1.0
 40
1.0
 40
2.0
 40
2.0
 40
2.0
 40
3.0
 40
3.0
 40
3.0
 40
4.0
 40
4.0
 40
4.0
 40
5.0
 40
5.0
 40
5.0
 40
6.0
 40
6.0
 40
6.0
 40
7.0
 40
7.0
 40
7.0
 40
8.0
 40
8.0
 40
8.0
 40
9.0
 40
9.0
 40
9.0
 40
9.0
 10
-2.62378472222222
 20
-8.268229166666666
 30
0.0
 10
-2.62378472222222
 20
-8.268229166666666
 30
0.0
 10
-2.62378472222222
 20
8.180034722222217
 30
0.0
 10
-2.62378472222222
 20
8.180034722222217
 30
0.0
 10
-2.62378472222222
 20
8.180034722222217
 30
0.0
 10
-0.3376193576388888
 20
8.180034722222217
 30
0.0
 10
-0.3376193576388888
 20
8.180034722222217
 30
0.0
 10
0.6972873263888888
 20
8.180034722222217
 30
0.0
 10
1.449007161458333
 20
7.445540364583332
 30
0.0
 10
1.918918185763885
 20
5.977929687499997
 30
0.0
 10
2.388829210069443
 20
4.510319010416666
 30
0.0
 10
2.62378472222222
 20
2.449462890624999
 30
0.0
 10
2.62378472222222
 20
-0.204638671875
 30
0.0
 10
2.62378472222222
 20
-0.8950358072916666
 30
0.0
 10
2.590022786458332
 20
-1.643310546874999
 30
0.0
 10
2.523187934027772
 20
-2.45015190972222
 30
0.0
 10
2.408121744791666
 20
-3.80200737847222
 30
0.0
 10
2.226220703124999
 20
-4.909950086805555
 30
0.0
 10
1.976795789930553
 20
-5.774669053819441
 30
0.0
 10
1.659847005208333
 20
-6.853672960069442
 30
0.0
 10
1.252636718749998
 20
-7.583344184027778
 30
0.0
 10
0.7544759114583333
 20
-7.962304687499997
 30
0.0
 10
0.4664659288194444
 20
-8.166254340277777
 30
0.0
 10
0.1074869791666666
 20
-8.268229166666666
 30
0.0
 10
-0.3231499565972222
 20
-8.268229166666666
 30
0.0
 10
-0.3231499565972222
 20
-8.268229166666666
 30
0.0
 10
-2.62378472222222
 20
-8.268229166666666
 30
0.0
 10
-2.62378472222222
 20
-8.268229166666666
 30
0.0
  0
SPLINE
  5
28EB
330
28E9
100
AcDbEntity
  8
LAYER_1
 62
     7
100
AcDbSpline
210
0.0
220
0.0
230
1.0
 70
    11
 71
     3
 72
    26
 73
    22
 74
     0
 42
0.0000000001
 43
0.0000000001
 40
0.0
 40
0.0
 40
0.0
 40
0.0
 40
1.0
 40
1.0
 40
1.0
 40
2.0
 40
2.0
 40
2.0
 40
3.0
 40
3.0
 40
3.0
 40
4.0
 40
4.0
 40
4.0
 40
5.0
 40
5.0
 40
5.0
 40
6.0
 40
6.0
 40
6.0
 40
7.0
 40
7.0
 40
7.0
 40
7.0
 10
-3.946701388888888
 20
-10.7376736111111
 30
0.0
 10
-3.946701388888888
 20
-10.7376736111111
 30
0.0
 10
-0.0943956163194444
 20
-10.7376736111111
 30
0.0
 10
-0.0943956163194444
 20
-10.7376736111111
 30
0.0
 10
1.546847873263885
 20
-10.7376736111111
 30
0.0
 10
2.705777994791666
 20
-9.11021050347222
 30
0.0
 10
3.381705729166666
 20
-5.854595269097222
 30
0.0
 10
3.757910156249999
 20
-4.01284722222222
 30
0.0
 10
3.946701388888888
 20
-1.951991102430555
 30
0.0
 10
3.946701388888888
 20
0.328662109375
 30
0.0
 10
3.946701388888888
 20
3.281797960069443
 30
0.0
 10
3.622862413194443
 20
5.703700086805552
 30
0.0
 10
2.976562499999998
 20
7.594368489583332
 30
0.0
 10
2.25171440972222
 20
9.689675564236106
 30
0.0
 10
1.233344184027777
 20
10.7376736111111
 30
0.0
 10
-0.0799262152777778
 20
10.7376736111111
 30
0.0
 10
-0.0799262152777778
 20
10.7376736111111
 30
0.0
 10
-3.946701388888888
 20
10.7376736111111
 30
0.0
 10
-3.946701388888888
 20
10.7376736111111
 30
0.0
 10
-3.946701388888888
 20
10.7376736111111
 30
0.0
 10
-3.946701388888888
 20
-10.7376736111111
 30
0.0
 10
-3.946701388888888
 20
-10.7376736111111
 30
0.0
  0
ENDBLK
  5
28ED
330
28E9
100
AcDbEntity
  8
0
100
AcDbBlockEnd
  0
BLOCK
  5
28F1
330
28EE
100
AcDbEntity
  8
0
 62
     7
100
AcDbBlockBegin
  2
AI9-BLK4
 70
     0
 10
0.0
 20
0.0
 30
0.0
  3
AI9-BLK4
  1

  0
SPLINE
  5
28EF
330
28EE
100
AcDbEntity
  8
LAYER_1
 62
     7
100
AcDbSpline
210
0.0
220
0.0
230
1.0
 70
    11
 71
     3
 72
    26
 73
    22
 74
     0
 42
0.0000000001
 43
0.0000000001
 40
0.0
 40
0.0
 40
0.0
 40
0.0
 40
1.0
 40
1.0
 40
1.0
 40
2.0
 40
2.0
 40
2.0
 40
3.0
 40
3.0
 40
3.0
 40
4.0
 40
4.0
 40
4.0
 40
5.0
 40
5.0
 40
5.0
 40
6.0
 40
6.0
 40
6.0
 40
7.0
 40
7.0
 40
7.0
 40
7.0
 10
-2.645833333333333
 20
0.9039930555555551
 30
0.0
 10
-2.645833333333333
 20
0.9039930555555551
 30
0.0
 10
-2.645833333333333
 20
8.180034722222217
 30
0.0
 10
-2.645833333333333
 20
8.180034722222217
 30
0.0
 10
-2.645833333333333
 20
8.180034722222217
 30
0.0
 10
0.465087890625
 20
8.180034722222217
 30
0.0
 10
0.465087890625
 20
8.180034722222217
 30
0.0
 10
0.9026150173611108
 20
8.180034722222217
 30
0.0
 10
1.24988064236111
 20
8.034651692708331
 30
0.0
 10
1.506884765625
 20
7.745263671874997
 30
0.0
 10
2.001600477430554
 20
7.194048394097221
 30
0.0
 10
2.248958333333332
 20
6.160519748263887
 30
0.0
 10
2.248958333333332
 20
4.643299696180553
 30
0.0
 10
2.248958333333332
 20
3.232188585069443
 30
0.0
 10
2.072569444444444
 20
2.256537543402775
 30
0.0
 10
1.720480685763888
 20
1.715657552083333
 30
0.0
 10
1.368391927083333
 20
1.174088541666665
 30
0.0
 10
0.8929687499999998
 20
0.9039930555555551
 30
0.0
 10
0.2942111545138888
 20
0.9039930555555551
 30
0.0
 10
0.2942111545138888
 20
0.9039930555555551
 30
0.0
 10
-2.645833333333333
 20
0.9039930555555551
 30
0.0
 10
-2.645833333333333
 20
0.9039930555555551
 30
0.0
  0
SPLINE
  5
28F0
330
28EE
100
AcDbEntity
  8
LAYER_1
 62
     7
100
AcDbSpline
210
0.0
220
0.0
230
1.0
 70
    11
 71
     3
 72
    68
 73
    64
 74
     0
 42
0.0000000001
 43
0.0000000001
 40
0.0
 40
0.0
 40
0.0
 40
0.0
 40
1.0
 40
1.0
 40
1.0
 40
2.0
 40
2.0
 40
2.0
 40
3.0
 40
3.0
 40
3.0
 40
4.0
 40
4.0
 40
4.0
 40
5.0
 40
5.0
 40
5.0
 40
6.0
 40
6.0
 40
6.0
 40
7.0
 40
7.0
 40
7.0
 40
8.0
 40
8.0
 40
8.0
 40
9.0
 40
9.0
 40
9.0
 40
10.0
 40
10.0
 40
10.0
 40
11.0
 40
11.0
 40
11.0
 40
12.0
 40
12.0
 40
12.0
 40
13.0
 40
13.0
 40
13.0
 40
14.0
 40
14.0
 40
14.0
 40
15.0
 40
15.0
 40
15.0
 40
16.0
 40
16.0
 40
16.0
 40
17.0
 40
17.0
 40
17.0
 40
18.0
 40
18.0
 40
18.0
 40
19.0
 40
19.0
 40
19.0
 40
20.0
 40
20.0
 40
20.0
 40
21.0
 40
21.0
 40
21.0
 40
21.0
 10
-3.968749999999998
 20
-10.7376736111111
 30
0.0
 10
-3.968749999999998
 20
-10.7376736111111
 30
0.0
 10
-2.645833333333333
 20
-10.7376736111111
 30
0.0
 10
-2.645833333333333
 20
-10.7376736111111
 30
0.0
 10
-2.645833333333333
 20
-10.7376736111111
 30
0.0
 10
-2.645833333333333
 20
-1.521354166666665
 30
0.0
 10
-2.645833333333333
 20
-1.521354166666665
 30
0.0
 10
-2.645833333333333
 20
-1.521354166666665
 30
0.0
 10
0.2390896267361111
 20
-1.521354166666665
 30
0.0
 10
0.2390896267361111
 20
-1.521354166666665
 30
0.0
 10
0.7599880642361111
 20
-1.521354166666665
 30
0.0
 10
1.143771701388887
 20
-1.65295681423611
 30
0.0
 10
1.390440538194444
 20
-1.916162109374999
 30
0.0
 10
1.816254340277773
 20
-2.39434136284722
 30
0.0
 10
2.04363064236111
 20
-3.335541449652775
 30
0.0
 10
2.072569444444444
 20
-4.739762369791666
 30
0.0
 10
2.072569444444444
 20
-4.739762369791666
 30
0.0
 10
2.160763888888888
 20
-8.324039713541665
 30
0.0
 10
2.160763888888888
 20
-8.324039713541665
 30
0.0
 10
2.18005642361111
 20
-9.163264973958332
 30
0.0
 10
2.202794053819443
 20
-9.728949652777775
 30
0.0
 10
2.227598741319444
 20
-10.02109374999998
 30
0.0
 10
2.252403428819443
 20
-10.31392686631944
 30
0.0
 10
2.28892144097222
 20
-10.55301649305555
 30
0.0
 10
2.33853081597222
 20
-10.7376736111111
 30
0.0
 10
2.33853081597222
 20
-10.7376736111111
 30
0.0
 10
3.968749999999998
 20
-10.7376736111111
 30
0.0
 10
3.968749999999998
 20
-10.7376736111111
 30
0.0
 10
3.968749999999998
 20
-10.7376736111111
 30
0.0
 10
3.968749999999998
 20
-10.25260416666666
 30
0.0
 10
3.968749999999998
 20
-10.25260416666666
 30
0.0
 10
3.766867404513888
 20
-10.05830078125
 30
0.0
 10
3.625618489583333
 20
-9.621462673611112
 30
0.0
 10
3.545692274305555
 20
-8.942089843749997
 30
0.0
 10
3.49470486111111
 20
-8.543836805555555
 30
0.0
 10
3.459564887152775
 20
-7.937499999999999
 30
0.0
 10
3.439583333333333
 20
-7.121701388888887
 30
0.0
 10
3.439583333333333
 20
-7.121701388888887
 30
0.0
 10
3.395486111111106
 20
-4.232644314236106
 30
0.0
 10
3.395486111111106
 20
-4.232644314236106
 30
0.0
 10
3.375504557291666
 20
-2.981385633680555
 30
0.0
 10
3.26870659722222
 20
-2.077392578125
 30
0.0
 10
3.075781249999999
 20
-1.522043185763888
 30
0.0
 10
2.882166883680555
 20
-0.9666937934027776
 30
0.0
 10
2.592089843749999
 20
-0.5188313802083333
 30
0.0
 10
2.204861111111104
 20
-0.1770779079861111
 30
0.0
 10
2.63618706597222
 20
0.3197048611111111
 30
0.0
 10
2.971739366319443
 20
0.9770290798611107
 30
0.0
 10
3.211518012152775
 20
1.79558376736111
 30
0.0
 10
3.451296657986107
 20
2.613449435763888
 30
0.0
 10
3.571874999999999
 20
3.66558159722222
 30
0.0
 10
3.571874999999999
 20
4.951291232638888
 30
0.0
 10
3.571874999999999
 20
7.415912543402777
 30
0.0
 10
3.124701605902775
 20
9.106076388888887
 30
0.0
 10
2.231043836805555
 20
10.02178276909722
 30
0.0
 10
1.759754774305553
 20
10.498583984375
 30
0.0
 10
1.163753255208332
 20
10.7376736111111
 30
0.0
 10
0.443039279513889
 20
10.7376736111111
 30
0.0
 10
0.443039279513889
 20
10.7376736111111
 30
0.0
 10
-3.968749999999998
 20
10.7376736111111
 30
0.0
 10
-3.968749999999998
 20
10.7376736111111
 30
0.0
 10
-3.968749999999998
 20
10.7376736111111
 30
0.0
 10
-3.968749999999998
 20
-10.7376736111111
 30
0.0
 10
-3.968749999999998
 20
-10.7376736111111
 30
0.0
  0
ENDBLK
  5
28F2
330
28EE
100
AcDbEntity
  8
0
100
AcDbBlockEnd
  0
BLOCK
  5
28F6
330
28F3
100
AcDbEntity
  8
0
 62
     7
100
AcDbBlockBegin
  2
AI9-BLK3
 70
     0
 10
0.0
 20
0.0
 30
0.0
  3
AI9-BLK3
  1

  0
LWPOLYLINE
  5
28F4
330
28F3
100
AcDbEntity
  8
LAYER_1
 62
     7
100
AcDbPolyline
 90
        4
 70
     1
 43
0.0
 10
-0.6613722059461809
 20
10.7376736111111
 10
0.6613722059461809
 20
10.7376736111111
 10
0.6613722059461809
 20
-10.7376736111111
 10
-0.6613722059461809
 20
-10.7376736111111
  0
HATCH
  5
28F5
330
28F3
100
AcDbEntity
  8
LAYER_1
 62
     7
100
AcDbHatch
 10
0.0
 20
0.0
 30
0.0
210
0.0
220
0.0
230
1.0
  2
SOLID
 70
     1
 71
     0
 91
        1
 92
        3
 72
     0
 73
     1
 93
        4
 10
-0.6613722059461809
 20
10.7376736111111
 10
0.6613722059461809
 20
10.7376736111111
 10
0.6613722059461809
 20
-10.7376736111111
 10
-0.6613722059461809
 20
-10.7376736111111
 97
        0
 75
     2
 76
     1
 98
        1
 10
0.0
 20
0.0
  0
ENDBLK
  5
28F7
330
28F3
100
AcDbEntity
  8
0
100
AcDbBlockEnd
  0
BLOCK
  5
28FB
330
28F8
100
AcDbEntity
  8
0
 62
     7
100
AcDbBlockBegin
  2
AI9-BLK2
 70
     0
 10
0.0
 20
0.0
 30
0.0
  3
AI9-BLK2
  1

  0
LWPOLYLINE
  5
28F9
330
28F8
100
AcDbEntity
  8
LAYER_1
 62
     7
100
AcDbPolyline
 90
        7
 70
     1
 43
0.0
 10
-2.785704210069443
 20
10.7376736111111
 10
0.0
 20
-7.550960286458332
 10
2.771234809027776
 20
10.7376736111111
 10
4.233333333333331
 20
10.7376736111111
 10
0.6910861545138888
 20
-10.7376736111111
 10
-0.7055555555555558
 20
-10.7376736111111
 10
-4.233333333333331
 20
10.7376736111111
  0
HATCH
  5
28FA
330
28F8
100
AcDbEntity
  8
LAYER_1
 62
     7
100
AcDbHatch
 10
0.0
 20
0.0
 30
0.0
210
0.0
220
0.0
230
1.0
  2
SOLID
 70
     1
 71
     0
 91
        1
 92
        3
 72
     0
 73
     1
 93
        7
 10
-2.785704210069443
 20
10.7376736111111
 10
0.0
 20
-7.550960286458332
 10
2.771234809027776
 20
10.7376736111111
 10
4.233333333333331
 20
10.7376736111111
 10
0.6910861545138888
 20
-10.7376736111111
 10
-0.7055555555555558
 20
-10.7376736111111
 10
-4.233333333333331
 20
10.7376736111111
 97
        0
 75
     2
 76
     1
 98
        1
 10
0.0
 20
0.0
  0
ENDBLK
  5
28FC
330
28F8
100
AcDbEntity
  8
0
100
AcDbBlockEnd
  0
BLOCK
  5
2900
330
28FD
100
AcDbEntity
  8
0
 62
     7
100
AcDbBlockBegin
  2
AI9-BLK1
 70
     0
 10
0.0
 20
0.0
 30
0.0
  3
AI9-BLK1
  1

  0
LWPOLYLINE
  5
28FE
330
28FD
100
AcDbEntity
  8
LAYER_1
 62
     7
100
AcDbPolyline
 90
       12
 70
     1
 43
0.0
 10
-3.571874999999999
 20
10.7376736111111
 10
3.483680555555555
 20
10.7376736111111
 10
3.483680555555555
 20
8.091840277777777
 10
-2.248958333333332
 20
8.091840277777777
 10
-2.248958333333332
 20
1.565451388888888
 10
3.042708333333333
 20
1.565451388888888
 10
3.042708333333333
 20
-0.9039930555555551
 10
-2.248958333333332
 20
-0.9039930555555551
 10
-2.248958333333332
 20
-8.180034722222217
 10
3.571874999999999
 20
-8.180034722222217
 10
3.571874999999999
 20
-10.7376736111111
 10
-3.571874999999999
 20
-10.7376736111111
  0
HATCH
  5
28FF
330
28FD
100
AcDbEntity
  8
LAYER_1
 62
     7
100
AcDbHatch
 10
0.0
 20
0.0
 30
0.0
210
0.0
220
0.0
230
1.0
  2
SOLID
 70
     1
 71
     0
 91
        1
 92
        3
 72
     0
 73
     1
 93
       12
 10
-3.571874999999999
 20
10.7376736111111
 10
3.483680555555555
 20
10.7376736111111
 10
3.483680555555555
 20
8.091840277777777
 10
-2.248958333333332
 20
8.091840277777777
 10
-2.248958333333332
 20
1.565451388888888
 10
3.042708333333333
 20
1.565451388888888
 10
3.042708333333333
 20
-0.9039930555555551
 10
-2.248958333333332
 20
-0.9039930555555551
 10
-2.248958333333332
 20
-8.180034722222217
 10
3.571874999999999
 20
-8.180034722222217
 10
3.571874999999999
 20
-10.7376736111111
 10
-3.571874999999999
 20
-10.7376736111111
 97
        0
 75
     2
 76
     1
 98
        1
 10
0.0
 20
0.0
  0
ENDBLK
  5
2901
330
28FD
100
AcDbEntity
  8
0
100
AcDbBlockEnd
  0
BLOCK
  5
2925
330
2902
100
AcDbEntity
  8
0
100
AcDbBlockBegin
  2
HD_LLC_logo_OT5
 70
     0
 10
0.0
 20
0.0
 30
0.0
  3
HD_LLC_logo_OT5
  1

  0
SPLINE
  5
2903
102
{ACAD_REACTORS
330
2923
102
}
330
2902
100
AcDbEntity
  8
LAYER_1
 62
     7
100
AcDbSpline
210
0.0
220
0.0
230
1.0
 70
    11
 71
     3
 72
   113
 73
   109
 74
     0
 42
0.0000000001
 43
0.0000000001
 40
0.0
 40
0.0
 40
0.0
 40
0.0
 40
1.0
 40
1.0
 40
1.0
 40
2.0
 40
2.0
 40
2.0
 40
3.0
 40
3.0
 40
3.0
 40
4.0
 40
4.0
 40
4.0
 40
5.0
 40
5.0
 40
5.0
 40
6.0
 40
6.0
 40
6.0
 40
7.0
 40
7.0
 40
7.0
 40
8.0
 40
8.0
 40
8.0
 40
9.0
 40
9.0
 40
9.0
 40
10.0
 40
10.0
 40
10.0
 40
11.0
 40
11.0
 40
11.0
 40
12.0
 40
12.0
 40
12.0
 40
13.0
 40
13.0
 40
13.0
 40
14.0
 40
14.0
 40
14.0
 40
15.0
 40
15.0
 40
15.0
 40
16.0
 40
16.0
 40
16.0
 40
17.0
 40
17.0
 40
17.0
 40
18.0
 40
18.0
 40
18.0
 40
19.0
 40
19.0
 40
19.0
 40
20.0
 40
20.0
 40
20.0
 40
21.0
 40
21.0
 40
21.0
 40
22.0
 40
22.0
 40
22.0
 40
23.0
 40
23.0
 40
23.0
 40
24.0
 40
24.0
 40
24.0
 40
25.0
 40
25.0
 40
25.0
 40
26.0
 40
26.0
 40
26.0
 40
27.0
 40
27.0
 40
27.0
 40
28.0
 40
28.0
 40
28.0
 40
29.0
 40
29.0
 40
29.0
 40
30.0
 40
30.0
 40
30.0
 40
31.0
 40
31.0
 40
31.0
 40
32.0
 40
32.0
 40
32.0
 40
33.0
 40
33.0
 40
33.0
 40
34.0
 40
34.0
 40
34.0
 40
35.0
 40
35.0
 40
35.0
 40
36.0
 40
36.0
 40
36.0
 40
36.0
 10
193.3039632161458
 20
186.1548733181423
 30
0.0
 10
193.3039632161458
 20
186.1860514322916
 30
0.0
 10
193.3039632161458
 20
219.6932223849826
 30
0.0
 10
193.3039632161458
 20
219.6932223849826
 30
0.0
 10
193.3039632161458
 20
219.6932223849826
 30
0.0
 10
193.2974175347219
 20
219.7488606770833
 30
0.0
 10
193.2974175347219
 20
219.7488606770833
 30
0.0
 10
191.5293945312499
 20
235.455740017361
 30
0.0
 10
175.1458984374999
 20
235.2467949761284
 30
0.0
 10
174.9808783637151
 20
235.2428331163193
 30
0.0
 10
174.9808783637151
 20
235.2428331163193
 30
0.0
 10
125.8827555338541
 20
235.2430053710937
 30
0.0
 10
125.8827555338541
 20
235.2430053710937
 30
0.0
 10
125.8827555338541
 20
235.2430053710937
 30
0.0
 10
125.8827555338541
 20
255.5278998480901
 30
0.0
 10
125.8827555338541
 20
255.5278998480901
 30
0.0
 10
125.8827555338541
 20
255.5278998480901
 30
0.0
 10
84.5626247829861
 20
255.5278998480901
 30
0.0
 10
84.5626247829861
 20
255.5278998480901
 30
0.0
 10
84.5626247829861
 20
255.5278998480901
 30
0.0
 10
84.55711263020829
 20
233.7919311523436
 30
0.0
 10
84.55711263020829
 20
233.7919311523436
 30
0.0
 10
84.55711263020829
 20
233.7919311523436
 30
0.0
 10
64.42052951388888
 20
233.7919311523436
 30
0.0
 10
64.42052951388888
 20
233.7919311523436
 30
0.0
 10
64.42052951388888
 20
233.7919311523436
 30
0.0
 10
64.41501736111111
 20
255.5278998480901
 30
0.0
 10
64.41501736111111
 20
255.5278998480901
 30
0.0
 10
64.41501736111111
 20
255.5278998480901
 30
0.0
 10
23.91757541232637
 20
255.5278998480901
 30
0.0
 10
23.91757541232637
 20
255.5278998480901
 30
0.0
 10
23.91757541232637
 20
255.5278998480901
 30
0.0
 10
23.91757541232637
 20
233.2393378363715
 30
0.0
 10
23.91757541232637
 20
233.2393378363715
 30
0.0
 10
23.91757541232637
 20
233.2393378363715
 30
0.0
 10
43.65624999999999
 20
233.2393378363715
 30
0.0
 10
43.65624999999999
 20
233.2393378363715
 30
0.0
 10
43.65624999999999
 20
233.2393378363715
 30
0.0
 10
43.65624999999999
 20
211.5188720703125
 30
0.0
 10
43.65624999999999
 20
211.5188720703125
 30
0.0
 10
43.65624999999999
 20
211.5188720703125
 30
0.0
 10
23.91757541232637
 20
211.5188720703125
 30
0.0
 10
23.91757541232637
 20
211.5188720703125
 30
0.0
 10
23.91757541232637
 20
211.5188720703125
 30
0.0
 10
23.91757541232637
 20
189.2303100585936
 30
0.0
 10
23.91757541232637
 20
189.2303100585936
 30
0.0
 10
23.91757541232637
 20
189.2303100585936
 30
0.0
 10
64.41501736111111
 20
189.2303100585936
 30
0.0
 10
64.41501736111111
 20
189.2303100585936
 30
0.0
 10
64.41501736111111
 20
189.2303100585936
 30
0.0
 10
64.42052951388888
 20
211.069976128472
 30
0.0
 10
64.42052951388888
 20
211.069976128472
 30
0.0
 10
64.42052951388888
 20
211.069976128472
 30
0.0
 10
84.55711263020829
 20
211.069976128472
 30
0.0
 10
84.55711263020829
 20
211.069976128472
 30
0.0
 10
84.55711263020829
 20
211.069976128472
 30
0.0
 10
84.5626247829861
 20
189.2303100585936
 30
0.0
 10
84.5626247829861
 20
189.2303100585936
 30
0.0
 10
84.5626247829861
 20
189.2303100585936
 30
0.0
 10
125.8827555338541
 20
189.2303100585936
 30
0.0
 10
125.8827555338541
 20
189.2303100585936
 30
0.0
 10
125.8827555338541
 20
189.2303100585936
 30
0.0
 10
125.8827555338541
 20
211.5188720703125
 30
0.0
 10
125.8827555338541
 20
211.5188720703125
 30
0.0
 10
125.8827555338541
 20
211.5188720703125
 30
0.0
 10
105.3213921440971
 20
211.5188720703125
 30
0.0
 10
105.3213921440971
 20
211.5188720703125
 30
0.0
 10
105.3213921440971
 20
211.5188720703125
 30
0.0
 10
105.3213921440971
 20
233.2393378363715
 30
0.0
 10
105.3213921440971
 20
233.2393378363715
 30
0.0
 10
105.3213921440971
 20
233.2393378363715
 30
0.0
 10
175.0046495225693
 20
233.243127441406
 30
0.0
 10
175.0046495225693
 20
233.243127441406
 30
0.0
 10
175.6268337673611
 20
233.2560465494791
 30
0.0
 10
189.7165852864583
 20
233.3962619357638
 30
0.0
 10
191.3037407769094
 20
219.5690266927083
 30
0.0
 10
191.3037407769094
 20
219.4332899305555
 30
0.0
 10
191.3037407769094
 20
186.1142211914062
 30
0.0
 10
191.3037407769094
 20
186.1142211914062
 30
0.0
 10
191.3037407769094
 20
186.1142211914062
 30
0.0
 10
191.3051188151039
 20
186.0880384657115
 30
0.0
 10
191.3051188151039
 20
186.0880384657115
 30
0.0
 10
191.3054633246526
 20
186.0787367078991
 30
0.0
 10
191.3109754774304
 20
185.9566080729166
 30
0.0
 10
191.3109754774304
 20
185.7399115668401
 30
0.0
 10
191.3109754774304
 20
184.2090833875865
 30
0.0
 10
191.0488037109374
 20
177.9643310546874
 30
0.0
 10
186.9866916232638
 20
173.5652886284722
 30
0.0
 10
184.2540418836804
 20
170.6064683702255
 30
0.0
 10
180.3224989149304
 20
169.0308539496526
 30
0.0
 10
175.300927734375
 20
168.8825425889756
 30
0.0
 10
175.300927734375
 20
168.8825425889756
 30
0.0
 10
107.0094889322916
 20
168.8828870985243
 30
0.0
 10
107.0094889322916
 20
168.8828870985243
 30
0.0
 10
107.0094889322916
 20
168.8828870985243
 30
0.0
 10
107.0094889322916
 20
166.8830091688368
 30
0.0
 10
107.0094889322916
 20
166.8830091688368
 30
0.0
 10
107.0094889322916
 20
166.8830091688368
 30
0.0
 10
175.3305555555555
 20
166.8830091688368
 30
0.0
 10
175.3305555555555
 20
166.8830091688368
 30
0.0
 10
180.9467502170138
 20
167.0485460069444
 30
0.0
 10
185.3571614583333
 20
168.8448187934026
 30
0.0
 10
188.4687717013888
 20
172.2223904079861
 30
0.0
 10
192.9649658203124
 20
177.1034016927083
 30
0.0
 10
193.3136094835069
 20
183.7202243381076
 30
0.0
 10
193.3136094835069
 20
185.6520616319443
 30
0.0
 10
193.3136094835069
 20
185.9247409396701
 30
0.0
 10
193.3070638020833
 20
186.0868326822916
 30
0.0
 10
193.3039632161458
 20
186.1548733181423
 30
0.0
  0
INSERT
  5
2904
102
{ACAD_REACTORS
330
2924
102
}
330
2902
100
AcDbEntity
  8
LAYER_1
 62
     7
100
AcDbBlockReference
  2
AI9-BLK14
 10
159.5625257703993
 20
200.5118781195744
 30
0.0
  0
INSERT
  5
2905
330
2902
100
AcDbEntity
  8
LAYER_1
 62
     7
100
AcDbBlockReference
  2
AI9-BLK13
 10
27.69615614149305
 20
179.2145562065971
 30
0.0
 42
0.9200000000000001
  0
INSERT
  5
2906
102
{ACAD_REACTORS
330
2911
102
}
330
2902
100
AcDbEntity
  8
LAYER_1
 62
     7
100
AcDbBlockReference
  2
AI9-BLK11
 10
44.76591525607638
 20
179.2145562065971
 30
0.0
 42
0.9200000000000001
  0
INSERT
  5
2907
102
{ACAD_REACTORS
330
291F
102
}
330
2902
100
AcDbEntity
  8
LAYER_1
 62
     7
100
AcDbBlockReference
  2
AI9-BLK10
 10
54.04665798611111
 20
179.2145562065971
 30
0.0
 42
0.9200000000000001
  0
INSERT
  5
2908
102
{ACAD_REACTORS
330
291E
102
}
330
2902
100
AcDbEntity
  8
LAYER_1
 62
     7
100
AcDbBlockReference
  2
AI9-BLK9
 10
62.79013807508679
 20
179.2145562065971
 30
0.0
 42
0.9
  0
INSERT
  5
2909
330
2902
100
AcDbEntity
  8
LAYER_1
 62
     7
100
AcDbBlockReference
  2
AI9-BLK8
 10
71.03046196831595
 20
179.2145562065971
 30
0.0
 42
0.9200000000000001
  0
INSERT
  5
290A
330
2902
100
AcDbEntity
  8
LAYER_1
 62
     7
100
AcDbBlockReference
  2
AI9-BLK7
 10
76.93793945312498
 20
179.2145562065971
 30
0.0
 42
0.9200000000000001
  0
INSERT
  5
290B
102
{ACAD_REACTORS
330
2912
102
}
330
2902
100
AcDbEntity
  8
LAYER_1
 62
     7
100
AcDbBlockReference
  2
AI9-BLK6
 10
82.55602891710069
 20
179.2145562065971
 30
0.0
 42
0.9
  0
INSERT
  5
290C
102
{ACAD_REACTORS
330
2920
102
}
330
2902
100
AcDbEntity
  8
LAYER_1
 62
     7
100
AcDbBlockReference
  2
AI9-BLK5
 10
94.32430284288193
 20
179.2145562065971
 30
0.0
 42
0.9200000000000001
  0
INSERT
  5
290D
102
{ACAD_REACTORS
330
2921
102
}
330
2902
100
AcDbEntity
  8
LAYER_1
 62
     7
100
AcDbBlockReference
  2
AI9-BLK4
 10
103.2081705729166
 20
179.2145562065971
 30
0.0
 42
0.9200000000000001
  0
INSERT
  5
290E
330
2902
100
AcDbEntity
  8
LAYER_1
 62
     7
100
AcDbBlockReference
  2
AI9-BLK3
 10
108.850978597005
 20
179.2145562065971
 30
0.0
 42
0.9200000000000001
  0
INSERT
  5
290F
330
2902
100
AcDbEntity
  8
LAYER_1
 62
     7
100
AcDbBlockReference
  2
AI9-BLK2
 10
114.2045708550346
 20
179.2145562065971
 30
0.0
 42
0.9200000000000001
  0
INSERT
  5
2910
330
2902
100
AcDbEntity
  8
LAYER_1
 62
     7
100
AcDbBlockReference
  2
AI9-BLK1
 10
122.4125108506944
 20
179.2145562065971
 30
0.0
 42
0.9200000000000001
  0
HATCH
  5
2911
330
2902
100
AcDbEntity
  8
0
  6
Continuous
100
AcDbHatch
 10
0.0
 20
0.0
 30
0.0
210
0.0
220
0.0
230
1.0
  2
SOLID
 70
     1
 71
     1
 91
        2
 92
       16
 93
        1
 72
     4
 94
        3
 73
     0
 74
     0
 95
       26
 96
       22
 40
0.0
 40
0.0
 40
0.0
 40
0.0
 40
1.0
 40
1.0
 40
1.0
 40
2.0
 40
2.0
 40
2.0
 40
3.0
 40
3.0
 40
3.0
 40
4.0
 40
4.0
 40
4.0
 40
5.0
 40
5.0
 40
5.0
 40
6.0
 40
6.0
 40
6.0
 40
7.0
 40
7.0
 40
7.0
 40
7.0
 10
42.12008192274304
 20
180.0462298177081
 10
42.12008192274304
 20
180.0462298177081
 10
42.12008192274304
 20
186.7401881510414
 10
42.12008192274304
 20
186.7401881510414
 10
42.12008192274304
 20
186.7401881510414
 10
45.23100314670138
 20
186.7401881510414
 10
45.23100314670138
 20
186.7401881510414
 10
45.66853027343749
 20
186.7401881510414
 10
46.01579589843749
 20
186.6064357638887
 10
46.27280002170138
 20
186.3401987847219
 10
46.76751573350694
 20
185.8330807291664
 10
47.01487358940972
 20
184.8822343749997
 10
47.01487358940972
 20
183.4863919270832
 10
47.01487358940972
 20
182.188169704861
 10
46.83848470052082
 20
181.2905707465276
 10
46.48639594184028
 20
180.7929611545137
 10
46.13430718315971
 20
180.2947176649304
 10
45.65888400607638
 20
180.0462298177081
 10
45.06012641059028
 20
180.0462298177081
 10
45.06012641059028
 20
180.0462298177081
 10
42.12008192274304
 20
180.0462298177081
 10
42.12008192274304
 20
180.0462298177081
 97
        1
330
2906
 92
        1
 93
        1
 72
     4
 94
        3
 73
     0
 74
     0
 95
       68
 96
       64
 40
0.0
 40
0.0
 40
0.0
 40
0.0
 40
1.0
 40
1.0
 40
1.0
 40
2.0
 40
2.0
 40
2.0
 40
3.0
 40
3.0
 40
3.0
 40
4.0
 40
4.0
 40
4.0
 40
5.0
 40
5.0
 40
5.0
 40
6.0
 40
6.0
 40
6.0
 40
7.0
 40
7.0
 40
7.0
 40
8.0
 40
8.0
 40
8.0
 40
9.0
 40
9.0
 40
9.0
 40
10.0
 40
10.0
 40
10.0
 40
11.0
 40
11.0
 40
11.0
 40
12.0
 40
12.0
 40
12.0
 40
13.0
 40
13.0
 40
13.0
 40
14.0
 40
14.0
 40
14.0
 40
15.0
 40
15.0
 40
15.0
 40
16.0
 40
16.0
 40
16.0
 40
17.0
 40
17.0
 40
17.0
 40
18.0
 40
18.0
 40
18.0
 40
19.0
 40
19.0
 40
19.0
 40
20.0
 40
20.0
 40
20.0
 40
21.0
 40
21.0
 40
21.0
 40
21.0
 10
40.79716525607638
 20
169.3358964843748
 10
40.79716525607638
 20
169.3358964843748
 10
42.12008192274304
 20
169.3358964843748
 10
42.12008192274304
 20
169.3358964843748
 10
42.12008192274304
 20
169.3358964843748
 10
42.12008192274304
 20
177.8149103732637
 10
42.12008192274304
 20
177.8149103732637
 10
42.12008192274304
 20
177.8149103732637
 10
45.00500488281249
 20
177.8149103732637
 10
45.00500488281249
 20
177.8149103732637
 10
45.52590332031249
 20
177.8149103732637
 10
45.90968695746528
 20
177.6938359374998
 10
46.15635579427083
 20
177.451687065972
 10
46.58216959635415
 20
177.0117621527776
 10
46.80954589843749
 20
176.1458580729164
 10
46.83848470052082
 20
174.8539748263887
 10
46.83848470052082
 20
174.8539748263887
 10
46.92667914496527
 20
171.5564396701386
 10
46.92667914496527
 20
171.5564396701386
 10
46.94597167968749
 20
170.7843524305554
 10
46.96870930989581
 20
170.2639225260415
 10
46.99351399739582
 20
169.9951499565971
 10
47.01831868489581
 20
169.7257434895831
 10
47.0548366970486
 20
169.5057810329859
 10
47.10444607204859
 20
169.3358964843748
 10
47.10444607204859
 20
169.3358964843748
 10
48.73466525607638
 20
169.3358964843748
 10
48.73466525607638
 20
169.3358964843748
 10
48.73466525607638
 20
169.3358964843748
 10
48.73466525607638
 20
169.7821603732636
 10
48.73466525607638
 20
169.7821603732636
 10
48.53278266059028
 20
169.9609194878471
 10
48.39153374565971
 20
170.3628105468748
 10
48.31160753038194
 20
170.9878335503471
 10
48.26062011718749
 20
171.3542263454858
 10
48.22548014322915
 20
171.9120562065971
 10
48.20549858940971
 20
172.6625909288193
 10
48.20549858940971
 20
172.6625909288193
 10
48.16140136718749
 20
175.3205234374999
 10
48.16140136718749
 20
175.3205234374999
 10
48.14141981336803
 20
176.4716814236109
 10
48.03462185329859
 20
177.3033550347219
 10
47.84169650607638
 20
177.8142764756942
 10
47.64808213975693
 20
178.3251979166665
 10
47.35800509982638
 20
178.7372313368054
 10
46.97077636718749
 20
179.0516445312498
 10
47.4021023220486
 20
179.5086846788193
 10
47.73765462239582
 20
180.1134229600693
 10
47.97743326822915
 20
180.8664932725692
 10
48.21721191406249
 20
181.6189296874999
 10
48.33779025607638
 20
182.5868912760414
 10
48.33779025607638
 20
183.7697441406248
 10
48.33779025607638
 20
186.0371957465275
 10
47.89061686197914
 20
187.5921464843749
 10
46.99695909288194
 20
188.4345963541665
 10
46.52567003038194
 20
188.8732534722221
 10
45.92966851128472
 20
189.0932159288193
 10
45.20895453559027
 20
189.0932159288193
 10
45.20895453559027
 20
189.0932159288193
 10
40.79716525607638
 20
189.0932159288193
 10
40.79716525607638
 20
189.0932159288193
 10
40.79716525607638
 20
189.0932159288193
 10
40.79716525607638
 20
169.3358964843748
 10
40.79716525607638
 20
169.3358964843748
 97
        0
 75
     0
 76
     1
 98
        0
  0
HATCH
  5
2912
330
2902
100
AcDbEntity
  8
0
  6
Continuous
100
AcDbHatch
 10
0.0
 20
0.0
 30
0.0
210
0.0
220
0.0
230
1.0
  2
SOLID
 70
     1
 71
     1
 91
        1
 92
        1
 93
        1
 72
     4
 94
        3
 73
     0
 74
     0
 95
       59
 96
       55
 40
0.0
 40
0.0
 40
0.0
 40
0.0
 40
1.0
 40
1.0
 40
1.0
 40
2.0
 40
2.0
 40
2.0
 40
3.0
 40
3.0
 40
3.0
 40
4.0
 40
4.0
 40
4.0
 40
5.0
 40
5.0
 40
5.0
 40
6.0
 40
6.0
 40
6.0
 40
7.0
 40
7.0
 40
7.0
 40
8.0
 40
8.0
 40
8.0
 40
9.0
 40
9.0
 40
9.0
 40
10.0
 40
10.0
 40
10.0
 40
11.0
 40
11.0
 40
11.0
 40
12.0
 40
12.0
 40
12.0
 40
13.0
 40
13.0
 40
13.0
 40
14.0
 40
14.0
 40
14.0
 40
15.0
 40
15.0
 40
15.0
 40
16.0
 40
16.0
 40
16.0
 40
17.0
 40
17.0
 40
17.0
 40
18.0
 40
18.0
 40
18.0
 40
18.0
 10
85.61871880425345
 20
187.4658355034721
 10
86.29120144314233
 20
186.1797124565971
 10
86.66671685112847
 20
184.7193364800346
 10
86.7452650282118
 20
183.0840874565969
 10
86.7452650282118
 20
183.0840874565969
 10
85.42234836154511
 20
183.0840874565969
 10
85.42234836154511
 20
183.0840874565969
 10
85.27696533203123
 20
184.315640190972
 10
84.99171142578125
 20
185.2917046440971
 10
84.56589762369791
 20
186.0122808159719
 10
84.14008382161458
 20
186.7322368706595
 10
83.53994818793401
 20
187.092524956597
 10
82.76617974175344
 20
187.092524956597
 10
81.81740044487847
 20
187.092524956597
 10
81.05258924696178
 20
186.4240386284721
 10
80.47243516710068
 20
185.0883062065971
 10
79.89159206814234
 20
183.7525737847219
 10
79.6015150282118
 20
181.7049468315971
 10
79.6015150282118
 20
178.9454253472221
 10
79.6015150282118
 20
176.684478081597
 10
79.86265326605901
 20
174.8514116753471
 10
80.38561876085069
 20
173.4456060112846
 10
80.90789523654512
 20
172.0391802300345
 10
81.69199896918403
 20
171.3365874565971
 10
82.73724093967013
 20
171.3365874565971
 10
83.69497748480901
 20
171.3365874565971
 10
84.42120361328125
 20
172.0794878472221
 10
84.91523030598958
 20
173.566528862847
 10
85.18601481119791
 20
174.349116753472
 10
85.38445231119791
 20
175.3785112847221
 10
85.51054280598959
 20
176.6547124565971
 10
85.51054280598959
 20
176.6547124565971
 10
86.83345947265625
 20
176.6547124565971
 10
86.83345947265625
 20
176.6547124565971
 10
86.72597249348957
 20
174.6157671440971
 10
86.35114610460069
 20
172.9061040581596
 10
85.70760226779514
 20
171.526343315972
 10
84.93727891710069
 20
169.8650493706596
 10
83.90375027126735
 20
169.0347124565971
 10
82.60701633029514
 20
169.0347124565971
 10
81.48598225911458
 20
169.0347124565971
 10
80.54547119140625
 20
169.7143608940971
 10
79.78479410807292
 20
171.0742778862845
 10
78.78020426432292
 20
172.8726177300345
 10
78.27859836154512
 20
175.6495024956596
 10
78.27859836154512
 20
179.4049321831595
 10
78.27859836154512
 20
182.2562310112846
 10
78.65342475043402
 20
184.594692925347
 10
79.40445556640622
 20
186.4196978081596
 10
80.22301025390625
 20
188.4028325737846
 10
81.34955647786458
 20
189.3943999565971
 10
82.78271620008679
 20
189.3943999565971
 10
84.00090196397568
 20
189.3943999565971
 10
84.94623616536458
 20
188.7513384331595
 10
85.61871880425345
 20
187.4658355034721
 97
        1
330
290B
 75
     0
 76
     1
 98
        1
 10
0.0
 20
0.0
  0
LINE
  5
2913
102
{ACAD_REACTORS
330
2922
102
}
330
2902
100
AcDbEntity
  8
LAYER_1
 62
     7
100
AcDbLine
 10
34.65766059027778
 20
177.4497853732638
 30
0.0
 11
36.19830729166666
 21
186.1658769531249
 31
0.0
  0
LINE
  5
2914
102
{ACAD_REACTORS
330
2922
102
}
330
2902
100
AcDbEntity
  8
LAYER_1
 62
     7
100
AcDbLine
 10
36.19830729166666
 20
186.1658769531249
 30
0.0
 11
37.67556423611111
 21
177.4497853732638
 31
0.0
  0
LINE
  5
2915
102
{ACAD_REACTORS
330
2922
102
}
330
2902
100
AcDbEntity
  8
LAYER_1
 62
     7
100
AcDbLine
 10
37.67556423611111
 20
177.4497853732638
 30
0.0
 11
34.65766059027778
 21
177.4497853732638
 31
0.0
  0
LINE
  5
2916
102
{ACAD_REACTORS
330
2922
102
}
330
2902
100
AcDbEntity
  8
LAYER_1
 62
     7
100
AcDbLine
 10
31.83957248263888
 20
169.3358964843748
 30
0.0
 11
33.22450086805555
 21
169.3358964843748
 31
0.0
  0
LINE
  5
2917
102
{ACAD_REACTORS
330
2922
102
}
330
2902
100
AcDbEntity
  8
LAYER_1
 62
     7
100
AcDbLine
 10
33.22450086805555
 20
169.3358964843748
 30
0.0
 11
34.27043185763887
 21
175.2590353732638
 31
0.0
  0
LINE
  5
2918
102
{ACAD_REACTORS
330
2922
102
}
330
2902
100
AcDbEntity
  8
LAYER_1
 62
     7
100
AcDbLine
 10
34.27043185763887
 20
175.2590353732638
 30
0.0
 11
38.04694552951389
 21
175.2590353732638
 31
0.0
  0
LINE
  5
2919
102
{ACAD_REACTORS
330
2922
102
}
330
2902
100
AcDbEntity
  8
LAYER_1
 62
     7
100
AcDbLine
 10
38.04694552951389
 20
175.2590353732638
 30
0.0
 11
39.05015733506942
 21
169.3358964843748
 31
0.0
  0
LINE
  5
291A
102
{ACAD_REACTORS
330
2922
102
}
330
2902
100
AcDbEntity
  8
LAYER_1
 62
     7
100
AcDbLine
 10
39.05015733506942
 20
169.3358964843748
 30
0.0
 11
40.43508572048611
 21
169.3358964843748
 31
0.0
  0
LINE
  5
291B
102
{ACAD_REACTORS
330
2922
102
}
330
2902
100
AcDbEntity
  8
LAYER_1
 62
     7
100
AcDbLine
 10
40.43508572048611
 20
169.3358964843748
 30
0.0
 11
36.952783203125
 21
189.0932159288193
 31
0.0
  0
LINE
  5
291C
102
{ACAD_REACTORS
330
2922
102
}
330
2902
100
AcDbEntity
  8
LAYER_1
 62
     7
100
AcDbLine
 10
36.952783203125
 20
189.0932159288193
 30
0.0
 11
35.47828233506943
 21
189.0932159288193
 31
0.0
  0
LINE
  5
291D
102
{ACAD_REACTORS
330
2922
102
}
330
2902
100
AcDbEntity
  8
LAYER_1
 62
     7
100
AcDbLine
 10
35.47828233506943
 20
189.0932159288193
 30
0.0
 11
31.83957248263888
 21
169.3358964843748
 31
0.0
  0
HATCH
  5
291E
330
2902
100
AcDbEntity
  8
0
  6
Continuous
100
AcDbHatch
 10
0.0
 20
0.0
 30
0.0
210
0.0
220
0.0
230
1.0
  2
SOLID
 70
     1
 71
     1
 91
        2
 92
       16
 93
        1
 72
     4
 94
        3
 73
     0
 74
     0
 95
       29
 96
       25
 40
0.0
 40
0.0
 40
0.0
 40
0.0
 40
1.0
 40
1.0
 40
1.0
 40
2.0
 40
2.0
 40
2.0
 40
3.0
 40
3.0
 40
3.0
 40
4.0
 40
4.0
 40
4.0
 40
5.0
 40
5.0
 40
5.0
 40
6.0
 40
6.0
 40
6.0
 40
7.0
 40
7.0
 40
7.0
 40
8.0
 40
8.0
 40
8.0
 40
8.0
 10
62.85697292751734
 20
171.3365874565971
 10
61.88338894314235
 20
171.3365874565971
 10
61.18058946397566
 20
172.0714263237844
 10
60.74857449001735
 20
173.5411040581595
 10
60.31587049696178
 20
175.0107817925344
 10
60.10020751953123
 20
176.8165630425344
 10
60.10020751953123
 20
178.9578276909721
 10
60.10020751953123
 20
181.6342534722221
 10
60.35101047092013
 20
183.6589360894095
 10
60.85261637369789
 20
185.032495659722
 10
61.35422227647566
 20
186.4054351128471
 10
62.00741238064235
 20
187.092524956597
 10
62.81218668619789
 20
187.092524956597
 10
63.6369425455729
 20
187.092524956597
 10
64.28806559244789
 20
186.3992339409721
 10
64.76486680772568
 20
185.0126519097221
 10
65.24166802300347
 20
183.6260698784719
 10
65.48006863064235
 20
181.7961040581595
 10
65.48006863064235
 20
179.5239946831596
 10
65.48006863064235
 20
177.3734282769096
 10
65.27336290147568
 20
175.471528862847
 10
64.86132948133678
 20
173.8176763237846
 10
64.4492960611979
 20
172.1632036675345
 10
63.78094753689235
 20
171.3365874565971
 10
62.85697292751734
 20
171.3365874565971
 97
        1
330
2908
 92
        1
 93
        1
 72
     4
 94
        3
 73
     0
 74
     0
 95
       29
 96
       25
 40
0.0
 40
0.0
 40
0.0
 40
0.0
 40
1.0
 40
1.0
 40
1.0
 40
2.0
 40
2.0
 40
2.0
 40
3.0
 40
3.0
 40
3.0
 40
4.0
 40
4.0
 40
4.0
 40
5.0
 40
5.0
 40
5.0
 40
6.0
 40
6.0
 40
6.0
 40
7.0
 40
7.0
 40
7.0
 40
8.0
 40
8.0
 40
8.0
 40
8.0
 10
62.76119927300346
 20
189.4340874565971
 10
61.47273356119789
 20
189.4340874565971
 10
60.50121663411457
 20
188.239741753472
 10
59.84733751085068
 20
185.8516704644094
 10
59.3395304361979
 20
183.9900786675345
 10
59.08597140842012
 20
181.7514556206596
 10
59.08597140842012
 20
179.1351812065971
 10
59.08597140842012
 20
176.2379937065971
 10
59.38362765842011
 20
173.8412407769095
 10
59.97894015842011
 20
171.9449224175346
 10
60.64246554904511
 20
169.9779106987846
 10
61.56023898654511
 20
168.9950249565971
 10
62.7315714518229
 20
168.9950249565971
 10
63.9904093424479
 20
168.9950249565971
 10
64.95641411675345
 20
170.118677300347
 10
65.63027479383679
 20
172.3659819878471
 10
66.20629475911457
 20
174.279663628472
 10
66.49430474175345
 20
176.6813774956594
 10
66.49430474175345
 20
179.5698833550345
 10
66.49430474175345
 20
182.2388677300344
 10
66.24005669487845
 20
184.4291216362844
 10
65.73293863932289
 20
186.141265190972
 10
65.08870578342011
 20
188.336480034722
 10
64.09789632161457
 20
189.4340874565971
 10
62.76119927300346
 20
189.4340874565971
 97
        0
 75
     0
 76
     1
 98
        0
  0
HATCH
  5
291F
330
2902
100
AcDbEntity
  8
0
  6
Continuous
100
AcDbHatch
 10
0.0
 20
0.0
 30
0.0
210
0.0
220
0.0
230
1.0
  2
SOLID
 70
     1
 71
     1
 91
        1
 92
        1
 93
        1
 72
     4
 94
        3
 73
     0
 74
     0
 95
       59
 96
       55
 40
0.0
 40
0.0
 40
0.0
 40
0.0
 40
1.0
 40
1.0
 40
1.0
 40
2.0
 40
2.0
 40
2.0
 40
3.0
 40
3.0
 40
3.0
 40
4.0
 40
4.0
 40
4.0
 40
5.0
 40
5.0
 40
5.0
 40
6.0
 40
6.0
 40
6.0
 40
7.0
 40
7.0
 40
7.0
 40
8.0
 40
8.0
 40
8.0
 40
9.0
 40
9.0
 40
9.0
 40
10.0
 40
10.0
 40
10.0
 40
11.0
 40
11.0
 40
11.0
 40
12.0
 40
12.0
 40
12.0
 40
13.0
 40
13.0
 40
13.0
 40
14.0
 40
14.0
 40
14.0
 40
15.0
 40
15.0
 40
15.0
 40
16.0
 40
16.0
 40
16.0
 40
17.0
 40
17.0
 40
17.0
 40
18.0
 40
18.0
 40
18.0
 40
18.0
 10
49.39440104166666
 20
189.0932159288193
 10
49.39440104166666
 20
189.0932159288193
 10
51.24786241319444
 20
189.0932159288193
 10
51.24786241319444
 20
189.0932159288193
 10
51.24786241319444
 20
189.0932159288193
 10
54.04665798611111
 20
172.3887471788193
 10
54.04665798611111
 20
172.3887471788193
 10
54.04665798611111
 20
172.3887471788193
 10
56.83994140624999
 20
189.0932159288193
 10
56.83994140624999
 20
189.0932159288193
 10
56.83994140624999
 20
189.0932159288193
 10
58.69891493055554
 20
189.0932159288193
 10
58.69891493055554
 20
189.0932159288193
 10
58.69891493055554
 20
189.0932159288193
 10
58.69891493055554
 20
169.3358964843748
 10
58.69891493055554
 20
169.3358964843748
 10
58.69891493055554
 20
169.3358964843748
 10
57.46419270833333
 20
169.3358964843748
 10
57.46419270833333
 20
169.3358964843748
 10
57.46419270833333
 20
169.3358964843748
 10
57.46419270833333
 20
180.9964422743054
 10
57.46419270833333
 20
180.9964422743054
 10
57.46419270833333
 20
181.3996011284721
 10
57.47108289930555
 20
182.0677291666664
 10
57.48624131944444
 20
183.0001924913193
 10
57.50071072048609
 20
183.9326558159721
 10
57.50828993055554
 20
184.932312282986
 10
57.50828993055554
 20
185.9997957899304
 10
57.50828993055554
 20
185.9997957899304
 10
54.700537109375
 20
169.3358964843748
 10
54.700537109375
 20
169.3358964843748
 10
54.700537109375
 20
169.3358964843748
 10
53.38382161458333
 20
169.3358964843748
 10
53.38382161458333
 20
169.3358964843748
 10
53.38382161458333
 20
169.3358964843748
 10
50.58502604166665
 20
185.9997957899304
 10
50.58502604166665
 20
185.9997957899304
 10
50.58502604166665
 20
185.9997957899304
 10
50.58502604166665
 20
185.3944236111109
 10
50.58502604166665
 20
185.3944236111109
 10
50.58502604166665
 20
184.9101258680554
 10
50.59191623263888
 20
184.1729029947915
 10
50.60707465277777
 20
183.1821210937498
 10
50.62154405381943
 20
182.1913391927082
 10
50.62912326388889
 20
181.4629908854165
 10
50.62912326388889
 20
180.9964422743054
 10
50.62912326388889
 20
180.9964422743054
 10
50.62912326388889
 20
169.3358964843748
 10
50.62912326388889
 20
169.3358964843748
 10
50.62912326388889
 20
169.3358964843748
 10
49.39440104166666
 20
169.3358964843748
 10
49.39440104166666
 20
169.3358964843748
 10
49.39440104166666
 20
169.3358964843748
 10
49.39440104166666
 20
189.0932159288193
 10
49.39440104166666
 20
189.0932159288193
 97
        1
330
2907
 75
     0
 76
     1
 98
        1
 10
0.0
 20
0.0
  0
HATCH
  5
2920
330
2902
100
AcDbEntity
  8
0
  6
Continuous
100
AcDbHatch
 10
0.0
 20
0.0
 30
0.0
210
0.0
220
0.0
230
1.0
  2
SOLID
 70
     1
 71
     1
 91
        2
 92
       16
 93
        1
 72
     4
 94
        3
 73
     0
 74
     0
 95
       32
 96
       28
 40
0.0
 40
0.0
 40
0.0
 40
0.0
 40
1.0
 40
1.0
 40
1.0
 40
2.0
 40
2.0
 40
2.0
 40
3.0
 40
3.0
 40
3.0
 40
4.0
 40
4.0
 40
4.0
 40
5.0
 40
5.0
 40
5.0
 40
6.0
 40
6.0
 40
6.0
 40
7.0
 40
7.0
 40
7.0
 40
8.0
 40
8.0
 40
8.0
 40
9.0
 40
9.0
 40
9.0
 40
9.0
 10
91.70051812065969
 20
171.6077853732636
 10
91.70051812065969
 20
171.6077853732636
 10
91.70051812065969
 20
186.7401881510414
 10
91.70051812065969
 20
186.7401881510414
 10
91.70051812065969
 20
186.7401881510414
 10
93.98668348524305
 20
186.7401881510414
 10
93.98668348524305
 20
186.7401881510414
 10
95.02159016927082
 20
186.7401881510414
 10
95.77331000434028
 20
186.0644533420137
 10
96.24322102864582
 20
184.7142515190969
 10
96.71313205295138
 20
183.3640496961804
 10
96.94808756510417
 20
181.4680620659721
 10
96.94808756510417
 20
179.026288628472
 10
96.94808756510417
 20
178.3911232638887
 10
96.91432562934028
 20
177.7027105034721
 10
96.84749077690971
 20
176.9604164496525
 10
96.7324245876736
 20
175.7167094184025
 10
96.55052354600693
 20
174.6974021267359
 10
96.30109863281248
 20
173.9018606770831
 10
95.98414984809028
 20
172.9091770833332
 10
95.57693956163193
 20
172.2378795572914
 10
95.07877875434026
 20
171.8892358940971
 10
94.79076877170138
 20
171.7016022135415
 10
94.43178982204859
 20
171.6077853732636
 10
94.00115288628471
 20
171.6077853732636
 10
94.00115288628471
 20
171.6077853732636
 10
91.70051812065969
 20
171.6077853732636
 10
91.70051812065969
 20
171.6077853732636
 97
        1
330
290C
 92
        1
 93
        1
 72
     4
 94
        3
 73
     0
 74
     0
 95
       26
 96
       22
 40
0.0
 40
0.0
 40
0.0
 40
0.0
 40
1.0
 40
1.0
 40
1.0
 40
2.0
 40
2.0
 40
2.0
 40
3.0
 40
3.0
 40
3.0
 40
4.0
 40
4.0
 40
4.0
 40
5.0
 40
5.0
 40
5.0
 40
6.0
 40
6.0
 40
6.0
 40
7.0
 40
7.0
 40
7.0
 40
7.0
 10
90.37760145399305
 20
169.3358964843748
 10
90.37760145399305
 20
169.3358964843748
 10
94.22990722656248
 20
169.3358964843748
 10
94.22990722656248
 20
169.3358964843748
 10
95.87115071614581
 20
169.3358964843748
 10
97.03008083767359
 20
170.8331625434026
 10
97.70600857204859
 20
173.8283285590275
 10
98.08221299913194
 20
175.5227367621525
 10
98.27100423177082
 20
177.4187243923609
 10
98.27100423177082
 20
179.5169253472221
 10
98.27100423177082
 20
182.233810329861
 10
97.94716525607638
 20
184.4619602864582
 10
97.30086534288195
 20
186.2013752170136
 10
96.57601725260416
 20
188.1290577256942
 10
95.5576470269097
 20
189.0932159288193
 10
94.24437662760416
 20
189.0932159288193
 10
94.24437662760416
 20
189.0932159288193
 10
90.37760145399305
 20
189.0932159288193
 10
90.37760145399305
 20
189.0932159288193
 10
90.37760145399305
 20
189.0932159288193
 10
90.37760145399305
 20
169.3358964843748
 10
90.37760145399305
 20
169.3358964843748
 97
        0
 75
     0
 76
     1
 98
        0
  0
HATCH
  5
2921
330
2902
100
AcDbEntity
  8
0
  6
Continuous
100
AcDbHatch
 10
0.0
 20
0.0
 30
0.0
210
0.0
220
0.0
230
1.0
  2
SOLID
 70
     1
 71
     1
 91
        2
 92
       16
 93
        1
 72
     4
 94
        3
 73
     0
 74
     0
 95
       26
 96
       22
 40
0.0
 40
0.0
 40
0.0
 40
0.0
 40
1.0
 40
1.0
 40
1.0
 40
2.0
 40
2.0
 40
2.0
 40
3.0
 40
3.0
 40
3.0
 40
4.0
 40
4.0
 40
4.0
 40
5.0
 40
5.0
 40
5.0
 40
6.0
 40
6.0
 40
6.0
 40
7.0
 40
7.0
 40
7.0
 40
7.0
 10
100.5623372395832
 20
180.0462298177081
 10
100.5623372395832
 20
180.0462298177081
 10
100.5623372395832
 20
186.7401881510414
 10
100.5623372395832
 20
186.7401881510414
 10
100.5623372395832
 20
186.7401881510414
 10
103.6732584635416
 20
186.7401881510414
 10
103.6732584635416
 20
186.7401881510414
 10
104.1107855902777
 20
186.7401881510414
 10
104.4580512152777
 20
186.6064357638887
 10
104.7150553385415
 20
186.3401987847219
 10
105.2097710503471
 20
185.8330807291664
 10
105.4571289062498
 20
184.8822343749997
 10
105.4571289062498
 20
183.4863919270832
 10
105.4571289062498
 20
182.188169704861
 10
105.280740017361
 20
181.2905707465276
 10
104.9286512586804
 20
180.7929611545137
 10
104.5765624999999
 20
180.2947176649304
 10
104.1011393229166
 20
180.0462298177081
 10
103.5023817274304
 20
180.0462298177081
 10
103.5023817274304
 20
180.0462298177081
 10
100.5623372395832
 20
180.0462298177081
 10
100.5623372395832
 20
180.0462298177081
 97
        1
330
290D
 92
        1
 93
        1
 72
     4
 94
        3
 73
     0
 74
     0
 95
       68
 96
       64
 40
0.0
 40
0.0
 40
0.0
 40
0.0
 40
1.0
 40
1.0
 40
1.0
 40
2.0
 40
2.0
 40
2.0
 40
3.0
 40
3.0
 40
3.0
 40
4.0
 40
4.0
 40
4.0
 40
5.0
 40
5.0
 40
5.0
 40
6.0
 40
6.0
 40
6.0
 40
7.0
 40
7.0
 40
7.0
 40
8.0
 40
8.0
 40
8.0
 40
9.0
 40
9.0
 40
9.0
 40
10.0
 40
10.0
 40
10.0
 40
11.0
 40
11.0
 40
11.0
 40
12.0
 40
12.0
 40
12.0
 40
13.0
 40
13.0
 40
13.0
 40
14.0
 40
14.0
 40
14.0
 40
15.0
 40
15.0
 40
15.0
 40
16.0
 40
16.0
 40
16.0
 40
17.0
 40
17.0
 40
17.0
 40
18.0
 40
18.0
 40
18.0
 40
19.0
 40
19.0
 40
19.0
 40
20.0
 40
20.0
 40
20.0
 40
21.0
 40
21.0
 40
21.0
 40
21.0
 10
99.23942057291661
 20
169.3358964843748
 10
99.23942057291661
 20
169.3358964843748
 10
100.5623372395832
 20
169.3358964843748
 10
100.5623372395832
 20
169.3358964843748
 10
100.5623372395832
 20
169.3358964843748
 10
100.5623372395832
 20
177.8149103732637
 10
100.5623372395832
 20
177.8149103732637
 10
100.5623372395832
 20
177.8149103732637
 10
103.4472601996527
 20
177.8149103732637
 10
103.4472601996527
 20
177.8149103732637
 10
103.9681586371527
 20
177.8149103732637
 10
104.3519422743053
 20
177.6938359374998
 10
104.5986111111109
 20
177.451687065972
 10
105.0244249131943
 20
177.0117621527776
 10
105.2518012152777
 20
176.1458580729164
 10
105.280740017361
 20
174.8539748263887
 10
105.280740017361
 20
174.8539748263887
 10
105.3689344618053
 20
171.5564396701386
 10
105.3689344618053
 20
171.5564396701386
 10
105.3882269965277
 20
170.7843524305554
 10
105.4109646267359
 20
170.2639225260415
 10
105.4357693142359
 20
169.9951499565971
 10
105.4605740017359
 20
169.7257434895831
 10
105.4970920138888
 20
169.5057810329859
 10
105.5467013888887
 20
169.3358964843748
 10
105.5467013888887
 20
169.3358964843748
 10
107.1769205729166
 20
169.3358964843748
 10
107.1769205729166
 20
169.3358964843748
 10
107.1769205729166
 20
169.3358964843748
 10
107.1769205729166
 20
169.7821603732636
 10
107.1769205729166
 20
169.7821603732636
 10
106.9750379774303
 20
169.9609194878471
 10
106.8337890624998
 20
170.3628105468748
 10
106.7538628472221
 20
170.9878335503471
 10
106.7028754340275
 20
171.3542263454858
 10
106.6677354600692
 20
171.9120562065971
 10
106.6477539062498
 20
172.6625909288193
 10
106.6477539062498
 20
172.6625909288193
 10
106.6036566840277
 20
175.3205234374999
 10
106.6036566840277
 20
175.3205234374999
 10
106.5836751302082
 20
176.4716814236109
 10
106.4768771701387
 20
177.3033550347219
 10
106.2839518229166
 20
177.8142764756942
 10
106.0903374565971
 20
178.3251979166665
 10
105.8002604166666
 20
178.7372313368054
 10
105.4130316840276
 20
179.0516445312498
 10
105.8443576388887
 20
179.5086846788193
 10
106.179909939236
 20
180.1134229600693
 10
106.4196885850692
 20
180.8664932725692
 10
106.6594672309027
 20
181.6189296874999
 10
106.7800455729166
 20
182.5868912760414
 10
106.7800455729166
 20
183.7697441406248
 10
106.7800455729166
 20
186.0371957465275
 10
106.3328721788193
 20
187.5921464843749
 10
105.4392144097221
 20
188.4345963541665
 10
104.9679253472221
 20
188.8732534722221
 10
104.3719238281249
 20
189.0932159288193
 10
103.6512098524303
 20
189.0932159288193
 10
103.6512098524303
 20
189.0932159288193
 10
99.23942057291661
 20
189.0932159288193
 10
99.23942057291661
 20
189.0932159288193
 10
99.23942057291661
 20
189.0932159288193
 10
99.23942057291661
 20
169.3358964843748
 10
99.23942057291661
 20
169.3358964843748
 97
        0
 75
     0
 76
     1
 98
        0
  0
HATCH
  5
2922
330
2902
100
AcDbEntity
  8
0
  6
Continuous
100
AcDbHatch
 10
0.0
 20
0.0
 30
0.0
210
0.0
220
0.0
230
1.0
  2
SOLID
 70
     1
 71
     1
 91
        2
 92
        1
 93
        8
 72
     1
 10
35.47828233506943
 20
189.0932159288193
 11
31.83957248263888
 21
169.3358964843748
 72
     1
 10
31.83957248263888
 20
169.3358964843748
 11
33.22450086805555
 21
169.3358964843748
 72
     1
 10
33.22450086805555
 20
169.3358964843748
 11
34.27043185763887
 21
175.2590353732638
 72
     1
 10
34.27043185763887
 20
175.2590353732638
 11
38.04694552951389
 21
175.2590353732638
 72
     1
 10
38.04694552951389
 20
175.2590353732638
 11
39.05015733506942
 21
169.3358964843748
 72
     1
 10
39.05015733506942
 20
169.3358964843748
 11
40.43508572048611
 21
169.3358964843748
 72
     1
 10
40.43508572048611
 20
169.3358964843748
 11
36.952783203125
 21
189.0932159288193
 72
     1
 10
36.952783203125
 20
189.0932159288193
 11
35.47828233506943
 21
189.0932159288193
 97
        8
330
291D
330
2916
330
2917
330
2918
330
2919
330
291A
330
291B
330
291C
 92
       16
 93
        3
 72
     1
 10
37.67556423611111
 20
177.4497853732638
 11
34.65766059027778
 21
177.4497853732638
 72
     1
 10
34.65766059027778
 20
177.4497853732638
 11
36.19830729166666
 21
186.1658769531249
 72
     1
 10
36.19830729166666
 20
186.1658769531249
 11
37.67556423611111
 21
177.4497853732638
 97
        3
330
2915
330
2913
330
2914
 75
     0
 76
     1
 98
        1
 10
0.0
 20
0.0
  0
HATCH
  5
2923
330
2902
100
AcDbEntity
  8
0
  6
Continuous
100
AcDbHatch
 10
0.0
 20
0.0
 30
0.0
210
0.0
220
0.0
230
1.0
  2
SOLID
 70
     1
 71
     1
 91
        1
 92
        1
 93
        1
 72
     4
 94
        3
 73
     0
 74
     0
 95
      113
 96
      109
 40
0.0
 40
0.0
 40
0.0
 40
0.0
 40
1.0
 40
1.0
 40
1.0
 40
2.0
 40
2.0
 40
2.0
 40
3.0
 40
3.0
 40
3.0
 40
4.0
 40
4.0
 40
4.0
 40
5.0
 40
5.0
 40
5.0
 40
6.0
 40
6.0
 40
6.0
 40
7.0
 40
7.0
 40
7.0
 40
8.0
 40
8.0
 40
8.0
 40
9.0
 40
9.0
 40
9.0
 40
10.0
 40
10.0
 40
10.0
 40
11.0
 40
11.0
 40
11.0
 40
12.0
 40
12.0
 40
12.0
 40
13.0
 40
13.0
 40
13.0
 40
14.0
 40
14.0
 40
14.0
 40
15.0
 40
15.0
 40
15.0
 40
16.0
 40
16.0
 40
16.0
 40
17.0
 40
17.0
 40
17.0
 40
18.0
 40
18.0
 40
18.0
 40
19.0
 40
19.0
 40
19.0
 40
20.0
 40
20.0
 40
20.0
 40
21.0
 40
21.0
 40
21.0
 40
22.0
 40
22.0
 40
22.0
 40
23.0
 40
23.0
 40
23.0
 40
24.0
 40
24.0
 40
24.0
 40
25.0
 40
25.0
 40
25.0
 40
26.0
 40
26.0
 40
26.0
 40
27.0
 40
27.0
 40
27.0
 40
28.0
 40
28.0
 40
28.0
 40
29.0
 40
29.0
 40
29.0
 40
30.0
 40
30.0
 40
30.0
 40
31.0
 40
31.0
 40
31.0
 40
32.0
 40
32.0
 40
32.0
 40
33.0
 40
33.0
 40
33.0
 40
34.0
 40
34.0
 40
34.0
 40
35.0
 40
35.0
 40
35.0
 40
36.0
 40
36.0
 40
36.0
 40
36.0
 10
193.3039632161458
 20
186.1548733181423
 10
193.3039632161458
 20
186.1860514322916
 10
193.3039632161458
 20
219.6932223849826
 10
193.3039632161458
 20
219.6932223849826
 10
193.3039632161458
 20
219.6932223849826
 10
193.2974175347219
 20
219.7488606770833
 10
193.2974175347219
 20
219.7488606770833
 10
191.5293945312499
 20
235.455740017361
 10
175.1458984374999
 20
235.2467949761284
 10
174.9808783637151
 20
235.2428331163193
 10
174.9808783637151
 20
235.2428331163193
 10
125.8827555338541
 20
235.2430053710937
 10
125.8827555338541
 20
235.2430053710937
 10
125.8827555338541
 20
235.2430053710937
 10
125.8827555338541
 20
255.5278998480901
 10
125.8827555338541
 20
255.5278998480901
 10
125.8827555338541
 20
255.5278998480901
 10
84.5626247829861
 20
255.5278998480901
 10
84.5626247829861
 20
255.5278998480901
 10
84.5626247829861
 20
255.5278998480901
 10
84.55711263020829
 20
233.7919311523436
 10
84.55711263020829
 20
233.7919311523436
 10
84.55711263020829
 20
233.7919311523436
 10
64.42052951388888
 20
233.7919311523436
 10
64.42052951388888
 20
233.7919311523436
 10
64.42052951388888
 20
233.7919311523436
 10
64.41501736111111
 20
255.5278998480901
 10
64.41501736111111
 20
255.5278998480901
 10
64.41501736111111
 20
255.5278998480901
 10
23.91757541232637
 20
255.5278998480901
 10
23.91757541232637
 20
255.5278998480901
 10
23.91757541232637
 20
255.5278998480901
 10
23.91757541232637
 20
233.2393378363715
 10
23.91757541232637
 20
233.2393378363715
 10
23.91757541232637
 20
233.2393378363715
 10
43.65624999999999
 20
233.2393378363715
 10
43.65624999999999
 20
233.2393378363715
 10
43.65624999999999
 20
233.2393378363715
 10
43.65624999999999
 20
211.5188720703125
 10
43.65624999999999
 20
211.5188720703125
 10
43.65624999999999
 20
211.5188720703125
 10
23.91757541232637
 20
211.5188720703125
 10
23.91757541232637
 20
211.5188720703125
 10
23.91757541232637
 20
211.5188720703125
 10
23.91757541232637
 20
189.2303100585936
 10
23.91757541232637
 20
189.2303100585936
 10
23.91757541232637
 20
189.2303100585936
 10
64.41501736111111
 20
189.2303100585936
 10
64.41501736111111
 20
189.2303100585936
 10
64.41501736111111
 20
189.2303100585936
 10
64.42052951388888
 20
211.069976128472
 10
64.42052951388888
 20
211.069976128472
 10
64.42052951388888
 20
211.069976128472
 10
84.55711263020829
 20
211.069976128472
 10
84.55711263020829
 20
211.069976128472
 10
84.55711263020829
 20
211.069976128472
 10
84.5626247829861
 20
189.2303100585936
 10
84.5626247829861
 20
189.2303100585936
 10
84.5626247829861
 20
189.2303100585936
 10
125.8827555338541
 20
189.2303100585936
 10
125.8827555338541
 20
189.2303100585936
 10
125.8827555338541
 20
189.2303100585936
 10
125.8827555338541
 20
211.5188720703125
 10
125.8827555338541
 20
211.5188720703125
 10
125.8827555338541
 20
211.5188720703125
 10
105.3213921440971
 20
211.5188720703125
 10
105.3213921440971
 20
211.5188720703125
 10
105.3213921440971
 20
211.5188720703125
 10
105.3213921440971
 20
233.2393378363715
 10
105.3213921440971
 20
233.2393378363715
 10
105.3213921440971
 20
233.2393378363715
 10
175.0046495225693
 20
233.243127441406
 10
175.0046495225693
 20
233.243127441406
 10
175.6268337673611
 20
233.2560465494791
 10
189.7165852864583
 20
233.3962619357638
 10
191.3037407769094
 20
219.5690266927083
 10
191.3037407769094
 20
219.4332899305555
 10
191.3037407769094
 20
186.1142211914062
 10
191.3037407769094
 20
186.1142211914062
 10
191.3037407769094
 20
186.1142211914062
 10
191.3051188151039
 20
186.0880384657115
 10
191.3051188151039
 20
186.0880384657115
 10
191.3054633246526
 20
186.0787367078991
 10
191.3109754774304
 20
185.9566080729166
 10
191.3109754774304
 20
185.7399115668401
 10
191.3109754774304
 20
184.2090833875865
 10
191.0488037109374
 20
177.9643310546874
 10
186.9866916232638
 20
173.5652886284722
 10
184.2540418836804
 20
170.6064683702255
 10
180.3224989149304
 20
169.0308539496526
 10
175.300927734375
 20
168.8825425889756
 10
175.300927734375
 20
168.8825425889756
 10
107.0094889322916
 20
168.8828870985243
 10
107.0094889322916
 20
168.8828870985243
 10
107.0094889322916
 20
168.8828870985243
 10
107.0094889322916
 20
166.8830091688368
 10
107.0094889322916
 20
166.8830091688368
 10
107.0094889322916
 20
166.8830091688368
 10
175.3305555555555
 20
166.8830091688368
 10
175.3305555555555
 20
166.8830091688368
 10
180.9467502170138
 20
167.0485460069444
 10
185.3571614583333
 20
168.8448187934026
 10
188.4687717013888
 20
172.2223904079861
 10
192.9649658203124
 20
177.1034016927083
 10
193.3136094835069
 20
183.7202243381076
 10
193.3136094835069
 20
185.6520616319443
 10
193.3136094835069
 20
185.9247409396701
 10
193.3070638020833
 20
186.0868326822916
 10
193.3039632161458
 20
186.1548733181423
 97
        1
330
2903
 75
     0
 76
     1
 98
        1
 10
0.0
 20
0.0
  0
HATCH
  5
2924
330
2902
100
AcDbEntity
  8
0
  6
Continuous
100
AcDbHatch
 10
0.0
 20
0.0
 30
0.0
210
0.0
220
0.0
230
1.0
  2
SOLID
 70
     1
 71
     1
 91
        2
 92
        1
 93
        1
 72
     4
 94
        3
 73
     0
 74
     0
 95
       23
 96
       19
 40
0.0
 40
0.0
 40
0.0
 40
0.0
 40
1.0
 40
1.0
 40
1.0
 40
2.0
 40
2.0
 40
2.0
 40
3.0
 40
3.0
 40
3.0
 40
4.0
 40
4.0
 40
4.0
 40
5.0
 40
5.0
 40
5.0
 40
6.0
 40
6.0
 40
6.0
 40
6.0
 10
148.6593153211804
 20
211.3929538302948
 10
148.6593153211804
 20
211.3929538302948
 10
148.6593153211804
 20
189.6308024088539
 10
148.6593153211804
 20
189.6308024088539
 10
148.6593153211804
 20
189.6308024088539
 10
161.3152180989583
 20
189.6308024088539
 10
161.3152180989583
 20
189.6308024088539
 10
162.8431179470484
 20
189.6308024088539
 10
170.4657362196179
 20
190.1880466037322
 10
170.4657362196179
 20
201.1911648220483
 10
170.4657362196179
 20
211.1288872612844
 10
162.3356553819444
 20
211.3914035373261
 10
162.2536621093749
 20
211.3927815755205
 10
162.2536621093749
 20
211.3927815755205
 10
149.6594265407986
 20
211.3929538302948
 10
149.6594265407986
 20
211.3929538302948
 10
149.6594265407986
 20
211.3929538302948
 10
148.6593153211804
 20
211.3929538302948
 10
148.6593153211804
 20
211.3929538302948
 97
        1
330
2904
 92
       16
 93
        1
 72
     4
 94
        3
 73
     0
 74
     0
 95
       20
 96
       16
 40
0.0
 40
0.0
 40
0.0
 40
0.0
 40
1.0
 40
1.0
 40
1.0
 40
2.0
 40
2.0
 40
2.0
 40
3.0
 40
3.0
 40
3.0
 40
4.0
 40
4.0
 40
4.0
 40
5.0
 40
5.0
 40
5.0
 40
5.0
 10
162.2354031032985
 20
209.3930759006072
 10
162.467947048611
 20
209.3861857096351
 10
168.4655137803819
 20
209.1283203124997
 10
168.4655137803819
 20
201.1911648220483
 10
168.4655137803819
 20
192.3202162000865
 10
162.9926350911458
 20
191.6306803385413
 10
161.3152180989583
 20
191.6306803385413
 10
161.3152180989583
 20
191.6306803385413
 10
152.3310980902776
 20
191.6306803385413
 10
150.6595377604166
 20
191.6306803385413
 10
150.6595377604166
 20
193.3373806423608
 10
150.6595377604166
 20
207.6863755967879
 10
150.6595377604166
 20
209.3930759006072
 10
152.353835720486
 20
209.3930759006072
 10
162.2354031032985
 20
209.3930759006072
 10
162.2354031032985
 20
209.3930759006072
 97
        0
 75
     0
 76
     1
 98
        0
  0
ENDBLK
  5
2926
330
2902
100
AcDbEntity
  8
0
100
AcDbBlockEnd
  0
BLOCK
  5
2929
330
2927
100
AcDbEntity
  8
0
100
AcDbBlockBegin
  2
HD logo-new
 70
     0
 10
0.0
 20
0.0
 30
0.0
  3
HD logo-new
  1

  0
INSERT
  5
2928
330
2927
100
AcDbEntity
  8
0
 62
     3
100
AcDbBlockReference
  2
HD_LLC_logo_OT5
 10
-27.1607188578505
 20
-68.37367811463031
 30
0.0
 41
0.2999999999999971
 42
0.3000000000000007
 43
0.3
  0
ENDBLK
  5
292A
330
2927
100
AcDbEntity
  8
0
100
AcDbBlockEnd
  0
BLOCK
  5
292D
330
292B
100
AcDbEntity
  8
0
100
AcDbBlockBegin
  2
HD Logo
 70
     0
 10
0.0
 20
0.0
 30
0.0
  3
HD Logo
  1

  0
INSERT
  5
292C
330
292B
100
AcDbEntity
  8
0
100
AcDbBlockReference
  2
HD logo-new
 10
0.9700256734946606
 20
7.273795608420527
 30
0.0
  0
ENDBLK
  5
292E
330
292B
100
AcDbEntity
  8
0
100
AcDbBlockEnd
  0
BLOCK
  5
2945
330
2943
100
AcDbEntity
  8
0
100
AcDbBlockBegin
  2
Harmonic Drive LLC
 70
     0
 10
0.0
 20
0.0
 30
0.0
  3
Harmonic Drive LLC
  1

  0
MTEXT
  5
2944
330
2943
100
AcDbEntity
  8
0
100
AcDbMText
 10
189.3064368747374
 20
-164.4147342669637
 30
0.0
 40
3.5
 41
76.932
 71
     5
 72
     5
  1
Harmonic Drive LLC\P800-921-3332\Pwww.harmonicdrive.net
 73
     1
 44
1.0
  0
ENDBLK
  5
2946
330
2943
100
AcDbEntity
  8
0
100
AcDbBlockEnd
  0
BLOCK
  5
2957
330
2954
100
AcDbEntity
  8
0
100
AcDbBlockBegin
  2
NTC
 70
     0
 10
0.0
 20
0.0
 30
0.0
  3
NTC
  1

  0
LWPOLYLINE
  5
2955
330
2954
100
AcDbEntity
  8
0
100
AcDbPolyline
 90
        8
 70
     1
 43
0.0
 10
4.581008201925953
 20
-10.78862239032818
 10
319.3921777697513
 20
-10.78862239032818
 42
-0.4142135623730951
 10
324.9046777697513
 20
-16.30112239032816
 10
324.9046777697513
 20
-117.4075202476924
 42
-0.4142135623730951
 10
319.3921777697513
 20
-122.9200202476925
 10
4.581008201925838
 20
-122.9200202476925
 42
-0.4142135623730951
 10
-0.9314917980741483
 20
-117.4075202476924
 10
-0.9314917980740915
 20
-16.30112239032816
 42
-0.4142135623730951
  0
MTEXT
  5
2956
330
2954
100
AcDbEntity
  8
0
  6
Continuous
370
    30
100
AcDbMText
 10
21.65307678143926
 20
-17.4535155144544
 30
0.0
 40
8.75
 41
294.5432999999998
 71
     1
 72
     5
  3
{\fTxt|b1|i0|c0|p2;Notice:\P\Ftxt.shx;\H0.5714x;All specifications and dimensions shown in the drawing are subject to change without notice. This drawing is the property of Harmonic Drive LLC.   This data is believed to be accurate, however, Harmonic
  1
 Drive LLC assumes no liability for any errors or omissions in the specifications, models, or drawings.\P\PHarmonic Drive LLC\PTel: 800-921-3332\Pwww.harmonicdrive.net}
 73
     1
 44
1.0
  0
ENDBLK
  5
2958
330
2954
100
AcDbEntity
  8
0
100
AcDbBlockEnd
  0
ENDSEC
  0
SECTION
  2
ENTITIES
  0
LINE
  5
269A
330
267A
100
AcDbEntity
  8
0
 62
     7
100
AcDbLine
 10
191.8092101782642
 20
223.924328876394
 30
0.0
 11
211.9092101783
 21
223.924328876394
 31
0.0
  0
LINE
  5
269B
330
267A
100
AcDbEntity
  8
0
 62
     7
100
AcDbLine
 10
191.8092101782642
 20
236.0243286946651
 30
0.0
 11
191.8092101782642
 21
224.1434291054664
 31
0.0
  0
LINE
  5
269C
330
267A
100
AcDbEntity
  8
1
 62
     7
100
AcDbLine
 10
181.0082101783
 20
218.024328965014
 30
0.0
 11
181.0082101783
 21
223.9022603357375
 31
0.0
  0
LINE
  5
269D
330
267A
100
AcDbEntity
  8
1
  6
PHANTOM
 62
     4
100
AcDbLine
 10
182.1092101332291
 20
244.5243289650139
 30
0.0
 11
192.4092101332289
 21
244.5243289650139
 31
0.0
  0
LINE
  5
269E
330
267A
100
AcDbEntity
  8
1
  6
PHANTOM
 62
     4
100
AcDbLine
 10
182.1092101332291
 20
253.024328965014
 30
0.0
 11
182.1092101332291
 21
244.5243289650139
 31
0.0
  0
LINE
  5
269F
330
267A
100
AcDbEntity
  8
1
 62
     7
100
AcDbLine
 10
180.4092101782994
 20
253.024328965014
 30
0.0
 11
180.8082101783
 21
253.024328965014
 31
0.0
  0
LINE
  5
26A0
330
267A
100
AcDbEntity
  8
1
  6
PHANTOM
 62
     4
100
AcDbLine
 10
180.4092101782994
 20
253.024328965014
 30
0.0
 11
180.4092101782994
 21
240.524328965014
 31
0.0
  0
LINE
  5
26A1
330
267A
100
AcDbEntity
  8
1
  6
PHANTOM
 62
     4
100
AcDbLine
 10
180.4092101782994
 20
240.524328965014
 30
0.0
 11
190.1092101783
 21
240.524328965014
 31
0.0
  0
LINE
  5
26A2
330
267A
100
AcDbEntity
  8
1
  6
CENTER
 62
     3
100
AcDbLine
 10
88.62860172359619
 20
242.5583289650139
 30
0.0
 11
88.62860172359619
 21
173.024328965014
 31
0.0
  0
LINE
  5
26A3
330
267A
100
AcDbEntity
  8
1
  6
CENTER
 62
     3
100
AcDbLine
 10
88.62860172359619
 20
263.0243289650139
 30
0.0
 11
88.62860172359619
 21
242.5583289650139
 31
0.0
  0
LINE
  5
26A4
330
267A
100
AcDbEntity
  8
1
  6
CENTER
 62
     3
100
AcDbLine
 10
43.62860172359631
 20
218.024328965014
 30
0.0
 11
133.6286017235962
 21
218.024328965014
 31
0.0
  0
LINE
  5
26A5
330
267A
100
AcDbEntity
  8
1
  6
CENTER
 62
     3
100
AcDbLine
 10
108.9411017235962
 20
253.2066109937569
 30
0.0
 11
106.3161017235962
 21
248.6599776238886
 31
0.0
  0
LINE
  5
26A6
330
267A
100
AcDbEntity
  8
1
  6
CENTER
 62
     3
100
AcDbLine
 10
123.8108837523389
 20
238.336828965014
 30
0.0
 11
119.2642503824707
 21
235.711828965014
 31
0.0
  0
LINE
  5
26A7
330
267A
100
AcDbEntity
  8
1
  6
CENTER
 62
     3
100
AcDbLine
 10
123.8108837523392
 20
197.711828965014
 30
0.0
 11
119.2642503824709
 21
200.3368289650139
 31
0.0
  0
LINE
  5
26A8
330
267A
100
AcDbEntity
  8
1
  6
CENTER
 62
     3
100
AcDbLine
 10
108.9411017235963
 20
182.842046936271
 30
0.0
 11
106.3161017235963
 21
187.3886803061389
 31
0.0
  0
LINE
  5
26A9
330
267A
100
AcDbEntity
  8
1
  6
CENTER
 62
     3
100
AcDbLine
 10
68.3161017235964
 20
182.842046936271
 30
0.0
 11
70.9411017235964
 21
187.3886803061389
 31
0.0
  0
LINE
  5
26AA
330
267A
100
AcDbEntity
  8
1
  6
CENTER
 62
     3
100
AcDbLine
 10
53.4463196948535
 20
197.711828965014
 30
0.0
 11
57.99295306472171
 21
200.3368289650139
 31
0.0
  0
LINE
  5
26AB
330
267A
100
AcDbEntity
  8
1
  6
CENTER
 62
     3
100
AcDbLine
 10
53.4463196948535
 20
238.336828965014
 30
0.0
 11
57.99295306472171
 21
235.711828965014
 31
0.0
  0
LINE
  5
26AC
330
267A
100
AcDbEntity
  8
1
  6
CENTER
 62
     3
100
AcDbLine
 10
68.31610172359629
 20
253.2066109937569
 30
0.0
 11
70.94110172359632
 21
248.6599776238886
 31
0.0
  0
LINE
  5
26AD
330
267A
100
AcDbEntity
  8
1
  6
CENTER
 62
     3
100
AcDbLine
 10
319.5388343342302
 20
247.1444331672655
 30
0.0
 11
316.9138343342304
 21
242.5977997973975
 31
0.0
  0
LINE
  5
26AE
330
267A
100
AcDbEntity
  8
1
  6
CENTER
 62
     3
100
AcDbLine
 10
331.846438536482
 20
234.836828965014
 30
0.0
 11
327.2998051666139
 21
232.2118289650139
 31
0.0
  0
LINE
  5
26AF
330
267A
100
AcDbEntity
  8
1
  6
CENTER
 62
     3
100
AcDbLine
 10
331.846438536482
 20
201.2118289650139
 30
0.0
 11
327.2998051666139
 21
203.8368289650139
 31
0.0
  0
LINE
  5
26B0
330
267A
100
AcDbEntity
  8
1
  6
CENTER
 62
     3
100
AcDbLine
 10
319.5388343342302
 20
188.9042247627622
 30
0.0
 11
316.9138343342304
 21
193.4508581326304
 31
0.0
  0
LINE
  5
26B1
330
267A
100
AcDbEntity
  8
1
  6
CENTER
 62
     3
100
AcDbLine
 10
311.4291247258025
 20
185.5450730560438
 30
0.0
 11
310.0703247390142
 21
190.6161836440618
 31
0.0
  0
LINE
  5
26B2
330
267A
100
AcDbEntity
  8
1
  6
CENTER
 62
     3
100
AcDbLine
 10
285.9138343342304
 20
188.9042247627624
 30
0.0
 11
288.5388343342302
 21
193.4508581326307
 31
0.0
  0
LINE
  5
26B3
330
267A
100
AcDbEntity
  8
1
  6
CENTER
 62
     3
100
AcDbLine
 10
273.6062301319786
 20
201.2118289650139
 30
0.0
 11
278.152863501847
 21
203.836828965014
 31
0.0
  0
LINE
  5
26B4
330
267A
100
AcDbEntity
  8
1
  6
CENTER
 62
     3
100
AcDbLine
 10
273.6062301319786
 20
234.836828965014
 30
0.0
 11
278.152863501847
 21
232.2118289650139
 31
0.0
  0
LINE
  5
26B5
330
267A
100
AcDbEntity
  8
1
  6
CENTER
 62
     3
100
AcDbLine
 10
285.9138343342304
 20
247.1444331672655
 30
0.0
 11
288.5388343342302
 21
242.5977997973975
 31
0.0
  0
LINE
  5
26B6
330
267A
100
AcDbEntity
  8
1
  6
CENTER
 62
     3
100
AcDbLine
 10
294.0235439426582
 20
250.503584873984
 30
0.0
 11
295.3823439294458
 21
245.4324742859664
 31
0.0
  0
LINE
  5
26B7
330
267A
100
AcDbEntity
  8
1
  6
CENTER
 62
     3
100
AcDbLine
 10
302.7263343342302
 20
178.0243289650139
 30
0.0
 11
302.7263343342302
 21
258.0243289650139
 31
0.0
  0
LINE
  5
26B8
330
267A
100
AcDbEntity
  8
1
  6
CENTER
 62
     3
100
AcDbLine
 10
333.7263343342304
 20
218.024328965014
 30
0.0
 11
262.72633433423
 21
218.024328965014
 31
0.0
  0
LINE
  5
26B9
330
267A
100
AcDbEntity
  8
1
  6
CENTER
 62
     3
100
AcDbLine
 10
177.5561683037374
 20
180.024328965014
 30
0.0
 11
182.2071102241658
 21
180.024328965014
 31
0.0
  0
LINE
  5
26BA
330
267A
100
AcDbEntity
  8
1
 62
     7
100
AcDbLine
 10
180.8082101783
 20
183.024328965014
 30
0.0
 11
178.8092101783
 21
183.024328965014
 31
0.0
  0
LINE
  5
26BB
330
267A
100
AcDbEntity
  8
1
 62
     7
100
AcDbLine
 10
178.4092101782999
 20
183.024328965014
 30
0.0
 11
178.4092101782999
 21
182.624328965014
 31
0.0
  0
LINE
  5
26BC
330
267A
100
AcDbEntity
  8
1
 62
     7
100
AcDbLine
 10
178.4092101782999
 20
182.5243289650138
 30
0.0
 11
178.4092101782999
 21
182.624328965014
 31
0.0
  0
LINE
  5
26BD
330
267A
100
AcDbEntity
  8
1
 62
     7
100
AcDbLine
 10
178.8092101783
 20
183.024328965014
 30
0.0
 11
178.4092101782999
 21
182.624328965014
 31
0.0
  0
LINE
  5
26BE
330
267A
100
AcDbEntity
  8
1
 62
     7
100
AcDbLine
 10
178.4092101782999
 20
182.624328965014
 30
0.0
 11
178.4092101782999
 21
182.5243289650138
 31
0.0
  0
LINE
  5
26BF
330
267A
100
AcDbEntity
  8
1
 62
     7
100
AcDbLine
 10
178.4092101782999
 20
182.624328965014
 30
0.0
 11
178.4092101782999
 21
183.024328965014
 31
0.0
  0
LINE
  5
26C0
330
267A
100
AcDbEntity
  8
1
 62
     7
100
AcDbLine
 10
178.4092101782999
 20
177.424328965014
 30
0.0
 11
178.8092101783
 21
177.024328965014
 31
0.0
  0
LINE
  5
26C1
330
267A
100
AcDbEntity
  8
1
 62
     7
100
AcDbLine
 10
181.0092101783
 20
177.024328965014
 30
0.0
 11
178.8092101783
 21
177.024328965014
 31
0.0
  0
LINE
  5
26C2
330
267A
100
AcDbEntity
  8
1
 62
     7
100
AcDbLine
 10
178.4092101782999
 20
178.274328965014
 30
0.0
 11
178.4092101782999
 21
177.424328965014
 31
0.0
  0
LINE
  5
26C3
330
267A
100
AcDbEntity
  8
1
 62
     7
100
AcDbLine
 10
181.4092101782994
 20
177.424328965014
 30
0.0
 11
181.0092101783
 21
177.024328965014
 31
0.0
  0
LINE
  5
26C4
330
267A
100
AcDbEntity
  8
1
 62
     7
100
AcDbLine
 10
181.4092101782994
 20
178.274328965014
 30
0.0
 11
181.4092101782994
 21
177.424328965014
 31
0.0
  0
LINE
  5
26C5
330
267A
100
AcDbEntity
  8
1
 62
     7
100
AcDbLine
 10
181.0082101783
 20
218.024328965014
 30
0.0
 11
181.0082101783
 21
192.0403289650139
 31
0.0
  0
LINE
  5
26C6
330
267A
100
AcDbEntity
  8
1
 62
     7
100
AcDbLine
 10
178.4092101782999
 20
183.024328965014
 30
0.0
 11
178.4092101782999
 21
218.024328965014
 31
0.0
  0
LINE
  5
26C7
330
267A
100
AcDbEntity
  8
1
 62
     7
100
AcDbLine
 10
181.0082101783
 20
192.0403289650139
 30
0.0
 11
181.0082101783
 21
183.224328965014
 31
0.0
  0
LINE
  5
26C8
330
267A
100
AcDbEntity
  8
1
 62
     7
100
AcDbLine
 10
181.4092101782994
 20
191.9393289650139
 30
0.0
 11
181.4092101782994
 21
181.774328965014
 31
0.0
  0
LINE
  5
26C9
330
267A
100
AcDbEntity
  8
1
 62
     7
100
AcDbLine
 10
178.4092101782999
 20
182.5243289650138
 30
0.0
 11
178.4092101782999
 21
181.774328965014
 31
0.0
  0
LINE
  5
26CA
330
267A
100
AcDbEntity
  8
1
 62
     7
100
AcDbLine
 10
178.4092101782999
 20
181.774328965014
 30
0.0
 11
181.4092101782994
 21
181.774328965014
 31
0.0
  0
LINE
  5
26CB
330
267A
100
AcDbEntity
  8
1
 62
     7
100
AcDbLine
 10
178.4092101782999
 20
181.774328965014
 30
0.0
 11
178.4092101782999
 21
178.274328965014
 31
0.0
  0
LINE
  5
26CC
330
267A
100
AcDbEntity
  8
1
 62
     7
100
AcDbLine
 10
181.4092101782994
 20
181.774328965014
 30
0.0
 11
181.4092101782994
 21
178.274328965014
 31
0.0
  0
LINE
  5
26CD
330
267A
100
AcDbEntity
  8
1
 62
     7
100
AcDbLine
 10
178.4092101782999
 20
178.274328965014
 30
0.0
 11
181.4092101782994
 21
178.274328965014
 31
0.0
  0
LINE
  5
26CE
330
267A
100
AcDbEntity
  8
1
 62
     7
100
AcDbLine
 10
178.8092101783
 20
253.024328965014
 30
0.0
 11
180.4092101782994
 21
253.024328965014
 31
0.0
  0
LINE
  5
26CF
330
267A
100
AcDbEntity
  8
1
 62
     7
100
AcDbLine
 10
178.4092101782999
 20
253.424328965014
 30
0.0
 11
178.4092101782999
 21
253.024328965014
 31
0.0
  0
LINE
  5
26D0
330
267A
100
AcDbEntity
  8
1
 62
     7
100
AcDbLine
 10
178.4092101782999
 20
253.424328965014
 30
0.0
 11
178.4092101782999
 21
253.524328965014
 31
0.0
  0
LINE
  5
26D1
330
267A
100
AcDbEntity
  8
1
 62
     7
100
AcDbLine
 10
178.4092101782999
 20
253.424328965014
 30
0.0
 11
178.8092101783
 21
253.024328965014
 31
0.0
  0
LINE
  5
26D2
330
267A
100
AcDbEntity
  8
1
 62
     7
100
AcDbLine
 10
178.4092101782999
 20
253.524328965014
 30
0.0
 11
178.4092101782999
 21
253.424328965014
 31
0.0
  0
LINE
  5
26D3
330
267A
100
AcDbEntity
  8
1
 62
     7
100
AcDbLine
 10
178.4092101782999
 20
253.024328965014
 30
0.0
 11
178.4092101782999
 21
253.424328965014
 31
0.0
  0
LINE
  5
26D4
330
267A
100
AcDbEntity
  8
1
 62
     7
100
AcDbLine
 10
178.8092101783
 20
259.0243289650139
 30
0.0
 11
178.4092101782999
 21
258.6243289650139
 31
0.0
  0
LINE
  5
26D5
330
267A
100
AcDbEntity
  8
1
 62
     7
100
AcDbLine
 10
178.8092101783
 20
259.0243289650139
 30
0.0
 11
181.0092101783
 21
259.0243289650139
 31
0.0
  0
LINE
  5
26D6
330
267A
100
AcDbEntity
  8
1
 62
     7
100
AcDbLine
 10
178.4092101782999
 20
258.6243289650139
 30
0.0
 11
178.4092101782999
 21
257.7743289650141
 31
0.0
  0
LINE
  5
26D7
330
267A
100
AcDbEntity
  8
1
 62
     7
100
AcDbLine
 10
181.0092101783
 20
259.0243289650139
 30
0.0
 11
181.4092101782994
 21
258.6243289650139
 31
0.0
  0
LINE
  5
26D8
330
267A
100
AcDbEntity
  8
1
 62
     7
100
AcDbLine
 10
181.4092101782994
 20
258.6243289650139
 30
0.0
 11
181.4092101782994
 21
257.7743289650141
 31
0.0
  0
LINE
  5
26D9
330
267A
100
AcDbEntity
  8
1
  6
CENTER
 62
     3
100
AcDbLine
 10
181.0082101783
 20
218.024328965014
 30
0.0
 11
183.428207262079
 21
218.024328965014
 31
0.0
  0
LINE
  5
26DA
330
267A
100
AcDbEntity
  8
1
 62
     7
100
AcDbLine
 10
178.4092101782999
 20
218.024328965014
 30
0.0
 11
178.4092101782999
 21
253.024328965014
 31
0.0
  0
LINE
  5
26DB
330
267A
100
AcDbEntity
  8
1
 62
     7
100
AcDbLine
 10
181.0082101783
 20
252.8243289650141
 30
0.0
 11
181.0082101783
 21
244.0083289650139
 31
0.0
  0
LINE
  5
26DC
330
267A
100
AcDbEntity
  8
1
 62
     7
100
AcDbLine
 10
207.4092101783076
 20
247.2743289650142
 30
0.0
 11
207.409210178302
 21
244.2558289650139
 31
0.0
  0
LINE
  5
26DD
330
267A
100
AcDbEntity
  8
1
 62
     7
100
AcDbLine
 10
196.9092101782994
 20
245.1244544957499
 30
0.0
 11
196.9092101782926
 21
244.7558289650139
 31
0.0
  0
LINE
  5
26DE
330
267A
100
AcDbEntity
  8
1
 62
     7
100
AcDbLine
 10
197.3092101783221
 20
245.5243285595444
 30
0.0
 11
196.9092101783084
 21
245.1243285595591
 31
0.0
  0
LINE
  5
26DF
330
267A
100
AcDbEntity
  8
1
 62
     7
100
AcDbLine
 10
203.9087527812834
 20
247.2743289650142
 30
0.0
 11
203.9087527812834
 21
250.7743289650139
 31
0.0
  0
LINE
  5
26E0
330
267A
100
AcDbEntity
  8
1
 62
     7
100
AcDbLine
 10
203.9087527812834
 20
247.2743289650142
 30
0.0
 11
207.4092101783076
 21
247.2743289650142
 31
0.0
  0
LINE
  5
26E1
330
267A
100
AcDbEntity
  8
1
 62
     7
100
AcDbLine
 10
203.5912101332288
 20
247.8243289650139
 30
0.0
 11
203.9087527812834
 21
247.2743289650142
 31
0.0
  0
LINE
  5
26E2
330
267A
100
AcDbEntity
  8
1
 62
     7
100
AcDbLine
 10
203.5912101332288
 20
250.2243289650138
 30
0.0
 11
203.5912101332288
 21
247.8243289650139
 31
0.0
  0
LINE
  5
26E3
330
267A
100
AcDbEntity
  8
1
 62
     7
100
AcDbLine
 10
203.5912101332288
 20
250.2243289650138
 30
0.0
 11
199.9092101332289
 21
250.2243289650138
 31
0.0
  0
LINE
  5
26E4
330
267A
100
AcDbEntity
  8
1
 62
     7
100
AcDbLine
 10
203.9087527812834
 20
250.7743289650139
 30
0.0
 11
207.4092101783076
 21
250.7743289650139
 31
0.0
  0
LINE
  5
26E5
330
267A
100
AcDbEntity
  8
1
 62
     7
100
AcDbLine
 10
203.9087527812834
 20
250.7743289650139
 30
0.0
 11
203.5912101332288
 21
250.2243289650138
 31
0.0
  0
LINE
  5
26E6
330
267A
100
AcDbEntity
  8
0
 62
     7
100
AcDbLine
 10
207.4092101783076
 20
250.7743289650139
 30
0.0
 11
207.4092101783269
 21
252.6243284453629
 31
0.0
  0
LINE
  5
26E7
330
267A
100
AcDbEntity
  8
0
 62
     7
100
AcDbLine
 10
199.9092101332289
 20
250.5243289650139
 30
0.0
 11
199.9092101332289
 21
252.6243284454645
 31
0.0
  0
LINE
  5
26E8
330
267A
100
AcDbEntity
  8
0
 62
     7
100
AcDbLine
 10
207.4092101783076
 20
247.2743289650142
 30
0.0
 11
207.4092101783076
 21
250.7743289650139
 31
0.0
  0
LINE
  5
26E9
330
267A
100
AcDbEntity
  8
0
 62
     7
100
AcDbLine
 10
199.9092101332289
 20
245.8243285549508
 30
0.0
 11
199.9092101332289
 21
247.524328965014
 31
0.0
  0
LINE
  5
26EA
330
267A
100
AcDbEntity
  8
1
  6
DASHDOT
 62
     3
100
AcDbLine
 10
198.6525390679424
 20
249.024328965014
 30
0.0
 11
208.9163122365095
 21
249.024328965014
 31
0.0
  0
LINE
  5
26EB
330
267A
100
AcDbEntity
  8
0
 62
     7
100
AcDbLine
 10
199.9092101332289
 20
247.8243289650139
 30
0.0
 11
199.9092101332289
 21
247.524328965014
 31
0.0
  0
LINE
  5
26EC
330
267A
100
AcDbEntity
  8
1
 62
     7
100
AcDbLine
 10
199.9092101332289
 20
247.8243289650139
 30
0.0
 11
203.5912101332288
 21
247.8243289650139
 31
0.0
  0
LINE
  5
26ED
330
267A
100
AcDbEntity
  8
0
 62
     7
100
AcDbLine
 10
199.9092101332289
 20
250.2243289650138
 30
0.0
 11
199.9092101332289
 21
247.8243289650139
 31
0.0
  0
LINE
  5
26EE
330
267A
100
AcDbEntity
  8
1
 62
     3
100
AcDbLine
 10
203.7571053708225
 20
247.524328965014
 30
0.0
 11
199.9092101332289
 21
247.524328965014
 31
0.0
  0
LINE
  5
26EF
330
267A
100
AcDbEntity
  8
0
 62
     7
100
AcDbLine
 10
199.9092101332289
 20
250.5243289650139
 30
0.0
 11
199.9092101332289
 21
250.2243289650138
 31
0.0
  0
LINE
  5
26F0
330
267A
100
AcDbEntity
  8
1
 62
     3
100
AcDbLine
 10
199.9092101332289
 20
250.5243289650139
 30
0.0
 11
203.764415213986
 21
250.5243289650139
 31
0.0
  0
LINE
  5
26F1
330
267A
100
AcDbEntity
  8
2
  6
DASHDOT
 62
     3
100
AcDbLine
 10
332.9888349902756
 20
218.0213152431861
 30
0.0
 11
332.7263349902756
 21
218.0213152431861
 31
0.0
  0
LINE
  5
26F2
330
267A
100
AcDbEntity
  8
1
 62
     7
100
AcDbLine
 10
301.2263350117935
 20
222.2639558656454
 30
0.0
 11
301.2263350117935
 21
223.9213151533089
 31
0.0
  0
LINE
  5
26F3
330
267A
100
AcDbEntity
  8
1
 62
     7
100
AcDbLine
 10
301.2263350117935
 20
223.9213151533089
 30
0.0
 11
304.226334965964
 21
223.9213151533089
 31
0.0
  0
LINE
  5
26F4
330
267A
100
AcDbEntity
  8
1
 62
     7
100
AcDbLine
 10
304.226334965964
 20
223.9213151533089
 30
0.0
 11
304.226334965964
 21
222.2639558664075
 31
0.0
  0
LINE
  5
26F5
330
267A
100
AcDbEntity
  8
0
 62
     7
100
AcDbLine
 10
199.6092101377864
 20
245.5243285594573
 30
0.0
 11
197.3092101783221
 21
245.5243285595444
 31
0.0
  0
LINE
  5
26F6
330
267A
100
AcDbEntity
  8
0
 62
     7
100
AcDbLine
 10
200.3092101272961
 20
253.0243284395315
 30
0.0
 11
199.9092101332289
 21
252.6243284454645
 31
0.0
  0
LINE
  5
26F7
330
267A
100
AcDbEntity
  8
0
 62
     7
100
AcDbLine
 10
207.0092101843068
 20
253.0243284392521
 30
0.0
 11
200.3092101272961
 21
253.0243284395315
 31
0.0
  0
LINE
  5
26F8
330
267A
100
AcDbEntity
  8
0
 62
     7
100
AcDbLine
 10
207.4092101783269
 20
252.6243284453629
 30
0.0
 11
207.0092101843068
 21
253.0243284392521
 31
0.0
  0
LINE
  5
26F9
330
267A
100
AcDbEntity
  8
0
 62
     7
100
AcDbLine
 10
209.7092101781472
 20
205.5243291527697
 30
0.0
 11
209.7092101781472
 21
207.5243291227248
 31
0.0
  0
LINE
  5
26FA
330
267A
100
AcDbEntity
  8
0
 62
     7
100
AcDbLine
 10
208.3992101002288
 20
205.5243291527697
 30
0.0
 11
209.7092101781472
 21
205.5243291527697
 31
0.0
  0
LINE
  5
26FB
330
267A
100
AcDbEntity
  8
0
 62
     7
100
AcDbLine
 10
208.3992101002288
 20
207.5243291227248
 30
0.0
 11
208.3992101002288
 21
205.5243291527697
 31
0.0
  0
LINE
  5
26FC
330
267A
100
AcDbEntity
  8
0
 62
     7
100
AcDbLine
 10
208.3992101002288
 20
207.0243291302614
 30
0.0
 11
207.3092101782564
 21
207.0243291302614
 31
0.0
  0
LINE
  5
26FD
330
267A
100
AcDbEntity
  8
0
 62
     7
100
AcDbLine
 10
208.3992101002288
 20
204.0243291752779
 30
0.0
 11
208.3992101002288
 21
207.5243291227248
 31
0.0
  0
LINE
  5
26FE
330
267A
100
AcDbEntity
  8
0
 62
     7
100
AcDbLine
 10
207.3092101782564
 20
204.0243291752779
 30
0.0
 11
208.3992101002288
 21
204.0243291752779
 31
0.0
  0
LINE
  5
26FF
330
267A
100
AcDbEntity
  8
0
 62
     7
100
AcDbLine
 10
207.3092101782564
 20
207.0243291302614
 30
0.0
 11
207.3092101782564
 21
204.0243291752779
 31
0.0
  0
LINE
  5
2700
330
267A
100
AcDbEntity
  8
0
 62
     7
100
AcDbLine
 10
207.3092101782564
 20
229.0243287998122
 30
0.0
 11
208.3992101002288
 21
229.0243287998122
 31
0.0
  0
LINE
  5
2701
330
267A
100
AcDbEntity
  8
0
 62
     7
100
AcDbLine
 10
209.7092101781472
 20
230.5243287772863
 30
0.0
 11
208.3992101002288
 21
230.5243287772863
 31
0.0
  0
LINE
  5
2702
330
267A
100
AcDbEntity
  8
0
 62
     7
100
AcDbLine
 10
209.7092101781472
 20
228.5243288073135
 30
0.0
 11
209.7092101781472
 21
230.5243287772863
 31
0.0
  0
LINE
  5
2703
330
267A
100
AcDbEntity
  8
0
 62
     7
100
AcDbLine
 10
208.3992101002288
 20
232.0243287547624
 30
0.0
 11
208.3992101002288
 21
228.5243288073135
 31
0.0
  0
LINE
  5
2704
330
267A
100
AcDbEntity
  8
0
 62
     7
100
AcDbLine
 10
207.3092101782564
 20
232.0243287547624
 30
0.0
 11
208.3992101002288
 21
232.0243287547624
 31
0.0
  0
LINE
  5
2705
330
267A
100
AcDbEntity
  8
0
 62
     7
100
AcDbLine
 10
207.3092101782564
 20
229.0243287998122
 30
0.0
 11
207.3092101782564
 21
232.0243287547624
 31
0.0
  0
LINE
  5
2706
330
267A
100
AcDbEntity
  8
0
 62
     7
100
AcDbLine
 10
191.8092101782642
 20
213.5243290326152
 30
0.0
 11
211.9092101783
 21
213.5243290326152
 31
0.0
  0
LINE
  5
2707
330
267A
100
AcDbEntity
  8
0
 62
     7
100
AcDbLine
 10
211.9092101783
 20
222.5243288974255
 30
0.0
 11
191.8092101782642
 21
222.5243288974255
 31
0.0
  0
LINE
  5
2708
330
267A
100
AcDbEntity
  8
0
 62
     7
100
AcDbLine
 10
191.8092101782642
 20
207.2743291264805
 30
0.0
 11
195.0092101782644
 21
207.2743291264805
 31
0.0
  0
LINE
  5
2709
330
267A
100
AcDbEntity
  8
0
 62
     7
100
AcDbLine
 10
199.5342102348616
 20
235.8043286979574
 30
0.0
 11
207.02421018403
 21
235.8043286980028
 31
0.0
  0
LINE
  5
270A
330
267A
100
AcDbEntity
  8
0
 62
     7
100
AcDbLine
 10
207.3092101782516
 20
207.5243291227248
 30
0.0
 11
207.3092101782516
 21
207.0243291302614
 31
0.0
  0
LINE
  5
270B
330
267A
100
AcDbEntity
  8
0
 62
     7
100
AcDbLine
 10
199.0092101782514
 20
207.5243291227248
 30
0.0
 11
199.0092101782514
 21
207.0243291302614
 31
0.0
  0
LINE
  5
270C
330
267A
100
AcDbEntity
  8
0
 62
     7
100
AcDbLine
 10
207.3092101782516
 20
229.0243287998122
 30
0.0
 11
207.3092101782516
 21
228.5243288073135
 31
0.0
  0
LINE
  5
270D
330
267A
100
AcDbEntity
  8
0
 62
     7
100
AcDbLine
 10
199.0092101782514
 20
229.0243287998122
 30
0.0
 11
199.0092101782514
 21
228.5243288073135
 31
0.0
  0
LINE
  5
270E
330
267A
100
AcDbEntity
  8
0
 62
     7
100
AcDbLine
 10
207.3092101782516
 20
207.0243291302614
 30
0.0
 11
199.0092101782514
 21
207.0243291302614
 31
0.0
  0
LINE
  5
270F
330
267A
100
AcDbEntity
  8
0
 62
     7
100
AcDbLine
 10
207.3092101782516
 20
200.2443292320429
 30
0.0
 11
207.3092101782516
 21
207.0243291302614
 31
0.0
  0
LINE
  5
2710
330
267A
100
AcDbEntity
  8
0
 62
     7
100
AcDbLine
 10
199.0092101782514
 20
200.2443292320429
 30
0.0
 11
207.3092101782516
 21
200.2443292320429
 31
0.0
  0
LINE
  5
2711
330
267A
100
AcDbEntity
  8
0
 62
     7
100
AcDbLine
 10
199.0092101782514
 20
207.0243291302614
 30
0.0
 11
199.0092101782514
 21
200.2443292320429
 31
0.0
  0
LINE
  5
2712
330
267A
100
AcDbEntity
  8
0
 62
     7
100
AcDbLine
 10
202.3492101925816
 20
229.0243287998122
 30
0.0
 11
202.3492101925816
 21
235.8043286980028
 31
0.0
  0
LINE
  5
2713
330
267A
100
AcDbEntity
  8
0
 62
     7
100
AcDbLine
 10
207.3092101782516
 20
229.0243287998122
 30
0.0
 11
199.0092101782514
 21
229.0243287998122
 31
0.0
  0
LINE
  5
2714
330
267A
100
AcDbEntity
  8
0
 62
     7
100
AcDbLine
 10
207.3092101782516
 20
235.8043286980028
 30
0.0
 11
207.3092101782516
 21
229.0243287998122
 31
0.0
  0
LINE
  5
2715
330
267A
100
AcDbEntity
  8
0
 62
     7
100
AcDbLine
 10
199.0092101782514
 20
235.8043286980028
 30
0.0
 11
207.3092101782516
 21
235.8043286980028
 31
0.0
  0
LINE
  5
2716
330
267A
100
AcDbEntity
  8
0
 62
     7
100
AcDbLine
 10
199.0092101782514
 20
229.0243287998122
 30
0.0
 11
199.0092101782514
 21
235.8043286980028
 31
0.0
  0
LINE
  5
2717
330
267A
100
AcDbEntity
  8
0
 62
     7
100
AcDbLine
 10
199.0092101782644
 20
207.0243291302614
 30
0.0
 11
195.5092101707967
 21
207.0243291302614
 31
0.0
  0
LINE
  5
2718
330
267A
100
AcDbEntity
  8
0
 62
     7
100
AcDbLine
 10
199.0092101782644
 20
201.1243292188688
 30
0.0
 11
199.0092101782644
 21
207.0243291302614
 31
0.0
  0
LINE
  5
2719
330
267A
100
AcDbEntity
  8
0
 62
     7
100
AcDbLine
 10
198.9092103059451
 20
201.1243292188688
 30
0.0
 11
199.0092101782644
 21
201.1243292188688
 31
0.0
  0
LINE
  5
271A
330
267A
100
AcDbEntity
  8
0
 62
     7
100
AcDbLine
 10
198.9092103059451
 20
195.0243293104804
 30
0.0
 11
198.9092103059451
 21
201.1243292188688
 31
0.0
  0
LINE
  5
271B
330
267A
100
AcDbEntity
  8
0
 62
     7
100
AcDbLine
 10
195.3092103600088
 20
195.0243293104804
 30
0.0
 11
198.9092103059451
 21
195.0243293104804
 31
0.0
  0
LINE
  5
271C
330
267A
100
AcDbEntity
  8
0
 62
     7
100
AcDbLine
 10
195.3092103600088
 20
201.1243292188688
 30
0.0
 11
195.3092103600088
 21
195.0243293104804
 31
0.0
  0
LINE
  5
271D
330
267A
100
AcDbEntity
  8
0
 62
     7
100
AcDbLine
 10
192.1492103458007
 20
201.1243292188688
 30
0.0
 11
195.0092101782644
 21
201.1243292188688
 31
0.0
  0
LINE
  5
271E
330
267A
100
AcDbEntity
  8
0
 62
     7
100
AcDbLine
 10
192.1492103458007
 20
206.2743291415029
 30
0.0
 11
192.1492103458007
 21
201.1243292188688
 31
0.0
  0
LINE
  5
271F
330
267A
100
AcDbEntity
  8
0
 62
     7
100
AcDbLine
 10
195.0092101782644
 20
206.2743291415029
 30
0.0
 11
192.1492103458007
 21
206.2743291415029
 31
0.0
  0
LINE
  5
2720
330
267A
100
AcDbEntity
  8
0
 62
     7
100
AcDbLine
 10
195.0092101782644
 20
206.5243291377472
 30
0.0
 11
195.0092101782644
 21
206.2743291415029
 31
0.0
  0
LINE
  5
2721
330
267A
100
AcDbEntity
  8
0
 62
     7
100
AcDbLine
 10
195.5092101707967
 20
207.0243291302614
 30
0.0
 11
195.0092101782644
 21
206.5243291377472
 31
0.0
  0
LINE
  5
2722
330
267A
100
AcDbEntity
  8
0
 62
     7
100
AcDbLine
 10
199.0092101782644
 20
234.9243287112178
 30
0.0
 11
199.0092101782644
 21
229.7743287885276
 31
0.0
  0
LINE
  5
2723
330
267A
100
AcDbEntity
  8
0
 62
     7
100
AcDbLine
 10
199.0092101782644
 20
229.0243287998122
 30
0.0
 11
195.5092101707663
 21
229.0243287998122
 31
0.0
  0
LINE
  5
2724
330
267A
100
AcDbEntity
  8
0
 62
     7
100
AcDbLine
 10
199.0092101782644
 20
229.7743287885276
 30
0.0
 11
199.0092101782644
 21
229.0243287998122
 31
0.0
  0
LINE
  5
2725
330
267A
100
AcDbEntity
  8
0
 62
     7
100
AcDbLine
 10
202.1492101956062
 20
229.7743287885276
 30
0.0
 11
199.0092101782644
 21
229.7743287885276
 31
0.0
  0
LINE
  5
2726
330
267A
100
AcDbEntity
  8
0
 62
     7
100
AcDbLine
 10
202.1492101956062
 20
234.9243287112178
 30
0.0
 11
202.1492101956062
 21
229.7743287885276
 31
0.0
  0
LINE
  5
2727
330
267A
100
AcDbEntity
  8
0
 62
     7
100
AcDbLine
 10
198.9092103059451
 20
234.9243287112178
 30
0.0
 11
202.1492101956062
 21
234.9243287112178
 31
0.0
  0
LINE
  5
2728
330
267A
100
AcDbEntity
  8
0
 62
     7
100
AcDbLine
 10
198.9092103059451
 20
241.0243286195653
 30
0.0
 11
198.9092103059451
 21
234.9243287112178
 31
0.0
  0
LINE
  5
2729
330
267A
100
AcDbEntity
  8
0
 62
     7
100
AcDbLine
 10
195.3092103600088
 20
241.0243286195653
 30
0.0
 11
198.9092103059451
 21
241.0243286195653
 31
0.0
  0
LINE
  5
272A
330
267A
100
AcDbEntity
  8
0
 62
     7
100
AcDbLine
 10
195.3092103600088
 20
234.9243287112178
 30
0.0
 11
195.3092103600088
 21
241.0243286195653
 31
0.0
  0
LINE
  5
272B
330
267A
100
AcDbEntity
  8
0
 62
     7
100
AcDbLine
 10
195.0092101782644
 20
234.9243287112178
 30
0.0
 11
195.3092103600088
 21
234.9243287112178
 31
0.0
  0
LINE
  5
272C
330
267A
100
AcDbEntity
  8
0
 62
     7
100
AcDbLine
 10
195.5092101707663
 20
229.0243287998122
 30
0.0
 11
195.0092101782644
 21
229.5243287922883
 31
0.0
  0
LINE
  5
272D
330
267A
100
AcDbEntity
  8
0
 62
     7
100
AcDbLine
 10
211.9092101783
 20
208.024329115239
 30
0.0
 11
211.9092101783
 21
218.024328965014
 31
0.0
  0
LINE
  5
272E
330
267A
100
AcDbEntity
  8
0
 62
     7
100
AcDbLine
 10
211.4092101858112
 20
207.5243291227248
 30
0.0
 11
211.9092101783
 21
208.024329115239
 31
0.0
  0
LINE
  5
272F
330
267A
100
AcDbEntity
  8
0
 62
     7
100
AcDbLine
 10
209.7092101781472
 20
207.5243291227248
 30
0.0
 11
211.4092101858112
 21
207.5243291227248
 31
0.0
  0
LINE
  5
2730
330
267A
100
AcDbEntity
  8
0
 62
     7
100
AcDbLine
 10
209.7092101781472
 20
208.0243291152136
 30
0.0
 11
209.7092101781472
 21
207.5243291227248
 31
0.0
  0
LINE
  5
2731
330
267A
100
AcDbEntity
  8
0
 62
     7
100
AcDbLine
 10
208.3992101002288
 20
208.0243291152136
 30
0.0
 11
209.7092101781472
 21
208.0243291152136
 31
0.0
  0
LINE
  5
2732
330
267A
100
AcDbEntity
  8
0
 62
     7
100
AcDbLine
 10
208.3992101002288
 20
207.5243291227248
 30
0.0
 11
208.3992101002288
 21
208.0243291152136
 31
0.0
  0
LINE
  5
2733
330
267A
100
AcDbEntity
  8
0
 62
     7
100
AcDbLine
 10
195.0092101782644
 20
207.5243291227248
 30
0.0
 11
208.3992101002288
 21
207.5243291227248
 31
0.0
  0
LINE
  5
2734
330
267A
100
AcDbEntity
  8
0
 62
     7
100
AcDbLine
 10
191.8092101782642
 20
200.024329235368
 30
0.0
 11
195.0092101782644
 21
200.024329235368
 31
0.0
  0
LINE
  5
2735
330
267A
100
AcDbEntity
  8
0
 62
     7
100
AcDbLine
 10
191.8092101782642
 20
218.024328965014
 30
0.0
 11
191.8092101782642
 21
200.024329235368
 31
0.0
  0
LINE
  5
2736
330
267A
100
AcDbEntity
  8
0
 62
     7
100
AcDbLine
 10
211.9092101783
 20
228.0243288147917
 30
0.0
 11
211.9092101783
 21
218.024328965014
 31
0.0
  0
LINE
  5
2737
330
267A
100
AcDbEntity
  8
0
 62
     7
100
AcDbLine
 10
211.4092101858112
 20
228.5243288073135
 30
0.0
 11
211.9092101783
 21
228.0243288147917
 31
0.0
  0
LINE
  5
2738
330
267A
100
AcDbEntity
  8
0
 62
     7
100
AcDbLine
 10
209.7092101781472
 20
228.5243288073135
 30
0.0
 11
211.4092101858112
 21
228.5243288073135
 31
0.0
  0
LINE
  5
2739
330
267A
100
AcDbEntity
  8
0
 62
     7
100
AcDbLine
 10
209.7092101781472
 20
228.0243288148374
 30
0.0
 11
209.7092101781472
 21
228.5243288073135
 31
0.0
  0
LINE
  5
273A
330
267A
100
AcDbEntity
  8
0
 62
     7
100
AcDbLine
 10
208.3992101002288
 20
228.0243288148374
 30
0.0
 11
209.7092101781472
 21
228.0243288148374
 31
0.0
  0
LINE
  5
273B
330
267A
100
AcDbEntity
  8
0
 62
     7
100
AcDbLine
 10
208.3992101002288
 20
228.5243288073135
 30
0.0
 11
208.3992101002288
 21
228.0243288148374
 31
0.0
  0
LINE
  5
273C
330
267A
100
AcDbEntity
  8
0
 62
     7
100
AcDbLine
 10
195.0092101782644
 20
228.5243288073135
 30
0.0
 11
208.3992101002288
 21
228.5243288073135
 31
0.0
  0
LINE
  5
273D
330
267A
100
AcDbEntity
  8
0
 62
     7
100
AcDbLine
 10
191.8092101782642
 20
236.0243286946651
 30
0.0
 11
195.0092101782644
 21
236.0243286946651
 31
0.0
  0
LINE
  5
273E
330
267A
100
AcDbEntity
  8
0
 62
     7
100
AcDbLine
 10
299.3663350400037
 20
205.596315429894
 30
0.0
 11
299.3663350400037
 21
207.0205511709529
 31
0.0
  0
LINE
  5
273F
330
267A
100
AcDbEntity
  8
0
 62
     7
100
AcDbLine
 10
302.376334994773
 20
204.8963154403948
 30
0.0
 11
300.0663350294668
 21
204.8963154403948
 31
0.0
  0
LINE
  5
2740
330
267A
100
AcDbEntity
  8
0
 62
     7
100
AcDbLine
 10
302.376334994773
 20
207.5625898175469
 30
0.0
 11
302.376334994773
 21
204.8963154403948
 31
0.0
  0
LINE
  5
2741
330
267A
100
AcDbEntity
  8
0
 62
     7
100
AcDbLine
 10
306.0863349390363
 20
205.596315429894
 30
0.0
 11
306.0863349390363
 21
207.0205511709529
 31
0.0
  0
LINE
  5
2742
330
267A
100
AcDbEntity
  8
0
 62
     7
100
AcDbLine
 10
303.0763349842556
 20
204.8963154403948
 30
0.0
 11
305.3863349495636
 21
204.8963154403948
 31
0.0
  0
LINE
  5
2743
330
267A
100
AcDbEntity
  8
0
 62
     7
100
AcDbLine
 10
303.0763349842556
 20
207.5625898175469
 30
0.0
 11
303.0763349842556
 21
204.8963154403948
 31
0.0
  0
LINE
  5
2744
330
267A
100
AcDbEntity
  8
1
 62
     7
100
AcDbLine
 10
196.9092101783084
 20
190.9243293704688
 30
0.0
 11
197.3092101783221
 21
190.5243293704837
 31
0.0
  0
LINE
  5
2745
330
267A
100
AcDbEntity
  8
1
 62
     7
100
AcDbLine
 10
207.4092101783076
 20
188.7743289650138
 30
0.0
 11
207.4092101781709
 21
188.7743289650138
 31
0.0
  0
LINE
  5
2746
330
267A
100
AcDbEntity
  8
1
 62
     7
100
AcDbLine
 10
207.4092101783076
 20
185.274328965014
 30
0.0
 11
199.9092101332289
 21
185.274328965014
 31
0.0
  0
LINE
  5
2747
330
267A
100
AcDbEntity
  8
0
 62
     7
100
AcDbLine
 10
207.4092101783269
 20
183.4243294846649
 30
0.0
 11
207.4092101783076
 21
185.274328965014
 31
0.0
  0
LINE
  5
2748
330
267A
100
AcDbEntity
  8
0
 62
     7
100
AcDbLine
 10
207.4092101783076
 20
185.274328965014
 30
0.0
 11
207.4092101781709
 21
188.7743289650138
 31
0.0
  0
LINE
  5
2749
330
267A
100
AcDbEntity
  8
0
 62
     7
100
AcDbLine
 10
199.9092101332289
 20
183.4243294845631
 30
0.0
 11
199.9092101332289
 21
190.2243293750773
 31
0.0
  0
LINE
  5
274A
330
267A
100
AcDbEntity
  8
0
 62
     7
100
AcDbLine
 10
197.3092101783221
 20
190.5243293704837
 30
0.0
 11
199.6092101377864
 21
190.5243293705701
 31
0.0
  0
LINE
  5
274B
330
267A
100
AcDbEntity
  8
0
 62
     7
100
AcDbLine
 10
199.9092101332289
 20
183.4243294845631
 30
0.0
 11
200.3092101272961
 21
183.0243294904964
 31
0.0
  0
LINE
  5
274C
330
267A
100
AcDbEntity
  8
0
 62
     7
100
AcDbLine
 10
200.3092101272961
 20
183.0243294904964
 30
0.0
 11
207.0092101843068
 21
183.0243294907756
 31
0.0
  0
LINE
  5
274D
330
267A
100
AcDbEntity
  8
0
 62
     7
100
AcDbLine
 10
207.0092101843068
 20
183.0243294907756
 30
0.0
 11
207.4092101783269
 21
183.4243294846649
 31
0.0
  0
LINE
  5
274E
330
267A
100
AcDbEntity
  8
1
  6
DASHDOT
 62
     3
100
AcDbLine
 10
208.9436095055756
 20
187.024328965014
 30
0.0
 11
198.6525390679424
 21
187.024328965014
 31
0.0
  0
LINE
  5
274F
330
267A
100
AcDbEntity
  8
1
 62
     7
100
AcDbLine
 10
196.9092101782926
 20
244.7558289650139
 30
0.0
 11
196.9092101782926
 21
243.624328965014
 31
0.0
  0
LINE
  5
2750
330
267A
100
AcDbEntity
  8
1
 62
     7
100
AcDbLine
 10
207.409210178302
 20
244.2558289650139
 30
0.0
 11
207.409210178302
 21
243.624328965014
 31
0.0
  0
LINE
  5
2751
330
267A
100
AcDbEntity
  8
1
 62
     7
100
AcDbLine
 10
207.0092101783013
 20
243.157328965014
 30
0.0
 11
197.309210178293
 21
243.157328965014
 31
0.0
  0
LINE
  5
2752
330
267A
100
AcDbEntity
  8
0
 62
     7
100
AcDbLine
 10
195.0092101782644
 20
201.1243292188688
 30
0.0
 11
195.3092103600088
 21
201.1243292188688
 31
0.0
  0
LINE
  5
2753
330
267A
100
AcDbEntity
  8
1
 62
     7
100
AcDbLine
 10
195.0092101782644
 20
236.0243286946651
 30
0.0
 11
195.0092101782644
 21
228.5243288073135
 31
0.0
  0
LINE
  5
2754
330
267A
100
AcDbEntity
  8
1
 62
     7
100
AcDbLine
 10
195.0092101782644
 20
207.5243291227248
 30
0.0
 11
195.0092101782644
 21
206.5243291377472
 31
0.0
  0
LINE
  5
2755
330
267A
100
AcDbEntity
  8
1
 62
     7
100
AcDbLine
 10
195.0092101782644
 20
200.024329235368
 30
0.0
 11
195.0092101782644
 21
206.2743291415029
 31
0.0
  0
LINE
  5
2756
330
267A
100
AcDbEntity
  8
1
 62
     7
100
AcDbLine
 10
207.4092101781709
 20
188.7743289650138
 30
0.0
 11
199.9092101332289
 21
188.7743289650138
 31
0.0
  0
LINE
  5
2757
330
267A
100
AcDbEntity
  8
0
 62
     7
100
AcDbLine
 10
207.4092101781709
 20
188.7743289650138
 30
0.0
 11
207.4092101783076
 21
188.7743289650138
 31
0.0
  0
LINE
  5
2758
330
267A
100
AcDbEntity
  8
1
 62
     7
100
AcDbLine
 10
207.4092101781709
 20
192.491328965014
 30
0.0
 11
207.4092101781709
 21
192.4243289650139
 31
0.0
  0
LINE
  5
2759
330
267A
100
AcDbEntity
  8
1
 62
     7
100
AcDbLine
 10
207.4092101781709
 20
192.491328965014
 30
0.0
 11
207.0092101781709
 21
192.8913289650139
 31
0.0
  0
LINE
  5
275A
330
267A
100
AcDbEntity
  8
1
 62
     7
100
AcDbLine
 10
196.9092101782994
 20
192.491328965014
 30
0.0
 11
196.9092101782994
 21
192.4243289650139
 31
0.0
  0
LINE
  5
275B
330
267A
100
AcDbEntity
  8
1
 62
     7
100
AcDbLine
 10
197.3092101783
 20
192.8913289650139
 30
0.0
 11
207.0092101781709
 21
192.8913289650139
 31
0.0
  0
LINE
  5
275C
330
267A
100
AcDbEntity
  8
1
 62
     7
100
AcDbLine
 10
197.3092101783
 20
192.8913289650139
 30
0.0
 11
196.9092101782994
 21
192.491328965014
 31
0.0
  0
LINE
  5
275D
330
267A
100
AcDbEntity
  8
1
 62
     7
100
AcDbLine
 10
196.9092101782994
 20
192.4243289650139
 30
0.0
 11
207.4092101781709
 21
192.4243289650139
 31
0.0
  0
LINE
  5
275E
330
267A
100
AcDbEntity
  8
1
 62
     7
100
AcDbLine
 10
196.9092101782994
 20
192.4243289650139
 30
0.0
 11
196.9092101782994
 21
190.9242034342779
 31
0.0
  0
LINE
  5
275F
330
267A
100
AcDbEntity
  8
1
 62
     7
100
AcDbLine
 10
207.4092101781709
 20
192.4243289650139
 30
0.0
 11
207.4092101781709
 21
191.524328965014
 31
0.0
  0
LINE
  5
2760
330
267A
100
AcDbEntity
  8
1
 62
     7
100
AcDbLine
 10
196.9092101782926
 20
243.624328965014
 30
0.0
 11
207.409210178302
 21
243.624328965014
 31
0.0
  0
LINE
  5
2761
330
267A
100
AcDbEntity
  8
1
 62
     7
100
AcDbLine
 10
196.9092101782926
 20
243.624328965014
 30
0.0
 11
196.9092101782926
 21
243.557328965014
 31
0.0
  0
LINE
  5
2762
330
267A
100
AcDbEntity
  8
1
 62
     7
100
AcDbLine
 10
207.409210178302
 20
243.624328965014
 30
0.0
 11
207.409210178302
 21
243.557328965014
 31
0.0
  0
LINE
  5
2763
330
267A
100
AcDbEntity
  8
1
 62
     7
100
AcDbLine
 10
207.409210178302
 20
243.557328965014
 30
0.0
 11
207.0092101783013
 21
243.157328965014
 31
0.0
  0
LINE
  5
2764
330
267A
100
AcDbEntity
  8
1
 62
     7
100
AcDbLine
 10
196.9092101782926
 20
243.557328965014
 30
0.0
 11
197.309210178293
 21
243.157328965014
 31
0.0
  0
LINE
  5
2765
330
267A
100
AcDbEntity
  8
1
 62
     7
100
AcDbLine
 10
207.4092101783
 20
196.8941656043458
 30
0.0
 11
207.4092101783
 21
193.437921185731
 31
0.0
  0
LINE
  5
2766
330
267A
100
AcDbEntity
  8
1
 62
     7
100
AcDbLine
 10
206.7844200943336
 20
192.4995388810475
 30
0.0
 11
207.4092101783
 21
193.124328965014
 31
0.0
  0
LINE
  5
2767
330
267A
100
AcDbEntity
  8
1
 62
     7
100
AcDbLine
 10
204.8092101783
 20
192.4243289650139
 30
0.0
 11
206.7844200943336
 21
192.4995388810475
 31
0.0
  0
LINE
  5
2768
330
267A
100
AcDbEntity
  8
1
 62
     7
100
AcDbLine
 10
207.4092101783
 20
242.924328965014
 30
0.0
 11
206.7844200943336
 21
243.5491190489805
 31
0.0
  0
LINE
  5
2769
330
267A
100
AcDbEntity
  8
1
 62
     7
100
AcDbLine
 10
193.0972101783
 20
193.0893289650138
 30
0.0
 11
182.5582101783
 21
193.0893289650141
 31
0.0
  0
LINE
  5
276A
330
267A
100
AcDbEntity
  8
1
 62
     7
100
AcDbLine
 10
182.6592101782999
 20
193.4903289650139
 30
0.0
 11
206.4092101782994
 21
193.4903289650139
 31
0.0
  0
LINE
  5
276B
330
267A
100
AcDbEntity
  8
1
 62
     7
100
AcDbLine
 10
207.4092101783
 20
193.437921185731
 30
0.0
 11
207.4092101783
 21
193.124328965014
 31
0.0
  0
LINE
  5
276C
330
267A
100
AcDbEntity
  8
1
 62
     7
100
AcDbLine
 10
207.4092101783
 20
193.437921185731
 30
0.0
 11
206.4092101782994
 21
193.4903289650139
 31
0.0
  0
LINE
  5
276D
330
267A
100
AcDbEntity
  8
1
 62
     7
100
AcDbLine
 10
198.3992101783
 20
192.4733289650139
 30
0.0
 11
198.4008027874808
 21
192.4733095042036
 31
0.0
  0
LINE
  5
276E
330
267A
100
AcDbEntity
  8
1
 62
     7
100
AcDbLine
 10
198.4008027874808
 20
192.4733095042036
 30
0.0
 11
202.4092101782994
 21
192.4243289650139
 31
0.0
  0
LINE
  5
276F
330
267A
100
AcDbEntity
  8
1
 62
     7
100
AcDbLine
 10
202.4092101782994
 20
192.4243289650139
 30
0.0
 11
204.8092101783
 21
192.4243289650139
 31
0.0
  0
LINE
  5
2770
330
267A
100
AcDbEntity
  8
1
 62
     7
100
AcDbLine
 10
207.4092101783
 20
242.6107367442972
 30
0.0
 11
207.4092101783
 21
242.924328965014
 31
0.0
  0
LINE
  5
2771
330
267A
100
AcDbEntity
  8
1
 62
     7
100
AcDbLine
 10
206.7844200943336
 20
243.5491190489805
 30
0.0
 11
204.8092101783
 21
243.624328965014
 31
0.0
  0
LINE
  5
2772
330
267A
100
AcDbEntity
  8
1
 62
     7
100
AcDbLine
 10
207.4092101783
 20
242.6107367442972
 30
0.0
 11
207.4092101783
 21
239.2260587261206
 31
0.0
  0
LINE
  5
2773
330
267A
100
AcDbEntity
  8
1
 62
     7
100
AcDbLine
 10
206.4092101782994
 20
242.5583289650139
 30
0.0
 11
182.5582101783
 21
242.5583289650142
 31
0.0
  0
LINE
  5
2774
330
267A
100
AcDbEntity
  8
1
 62
     7
100
AcDbLine
 10
206.4092101782994
 20
242.5583289650139
 30
0.0
 11
207.4092101783
 21
242.6107367442972
 31
0.0
  0
LINE
  5
2775
330
267A
100
AcDbEntity
  8
1
 62
     7
100
AcDbLine
 10
181.4092101782994
 20
254.274328965014
 30
0.0
 11
181.4092101782994
 21
244.1093289650139
 31
0.0
  0
LINE
  5
2776
330
267A
100
AcDbEntity
  8
1
 62
     7
100
AcDbLine
 10
178.4092101782999
 20
254.274328965014
 30
0.0
 11
178.4092101782999
 21
253.524328965014
 31
0.0
  0
LINE
  5
2777
330
267A
100
AcDbEntity
  8
1
 62
     7
100
AcDbLine
 10
182.6592101782999
 20
242.9593289650139
 30
0.0
 11
193.0972101783
 21
242.9593289650139
 31
0.0
  0
LINE
  5
2778
330
267A
100
AcDbEntity
  8
1
 62
     7
100
AcDbLine
 10
198.4008027874808
 20
243.5753484258245
 30
0.0
 11
198.3992101783
 21
243.5753289650139
 31
0.0
  0
LINE
  5
2779
330
267A
100
AcDbEntity
  8
1
 62
     7
100
AcDbLine
 10
202.4092101782994
 20
243.624328965014
 30
0.0
 11
198.4008027874808
 21
243.5753484258245
 31
0.0
  0
LINE
  5
277A
330
267A
100
AcDbEntity
  8
1
 62
     7
100
AcDbLine
 10
204.8092101783
 20
243.624328965014
 30
0.0
 11
202.4092101782994
 21
243.624328965014
 31
0.0
  0
LINE
  5
277B
330
267A
100
AcDbEntity
  8
1
  6
CENTER
 62
     3
100
AcDbLine
 10
175.5302005401308
 20
218.024328965014
 30
0.0
 11
181.0082101783
 21
218.024328965014
 31
0.0
  0
LINE
  5
277C
330
267A
100
AcDbEntity
  8
1
  6
CENTER
 62
     3
100
AcDbLine
 10
342.7263343342301
 20
218.024328965014
 30
0.0
 11
333.7263343342304
 21
218.024328965014
 31
0.0
  0
LINE
  5
277D
330
267A
100
AcDbEntity
  8
1
  6
DIVIDE
 62
     7
100
AcDbLine
 10
207.4092101781709
 20
191.524328965014
 30
0.0
 11
208.909210178171
 21
191.524328965014
 31
0.0
  0
LINE
  5
277E
330
267A
100
AcDbEntity
  8
1
 62
     7
100
AcDbLine
 10
207.4092101781709
 20
191.524328965014
 30
0.0
 11
207.4092101781709
 21
188.7743289650138
 31
0.0
  0
LINE
  5
277F
330
267A
100
AcDbEntity
  8
1
  6
DIVIDE
 62
     7
100
AcDbLine
 10
208.909210178171
 20
191.524328965014
 30
0.0
 11
208.909210178171
 21
198.4071917535758
 31
0.0
  0
LINE
  5
2780
330
267A
100
AcDbEntity
  8
1
 62
     7
100
AcDbLine
 10
181.4092101782994
 20
254.274328965014
 30
0.0
 11
178.4092101782999
 21
254.274328965014
 31
0.0
  0
LINE
  5
2781
330
267A
100
AcDbEntity
  8
1
 62
     7
100
AcDbLine
 10
178.4092101782999
 20
257.7743289650141
 30
0.0
 11
178.4092101782999
 21
254.274328965014
 31
0.0
  0
LINE
  5
2782
330
267A
100
AcDbEntity
  8
1
 62
     7
100
AcDbLine
 10
181.4092101782994
 20
257.7743289650141
 30
0.0
 11
181.4092101782994
 21
254.274328965014
 31
0.0
  0
LINE
  5
2783
330
267A
100
AcDbEntity
  8
1
 62
     7
100
AcDbLine
 10
181.4092101782994
 20
257.7743289650141
 30
0.0
 11
178.4092101782999
 21
257.7743289650141
 31
0.0
  0
LINE
  5
2784
330
267A
100
AcDbEntity
  8
1
  6
CENTER
 62
     3
100
AcDbLine
 10
182.2071102241658
 20
256.0243289650141
 30
0.0
 11
177.5561683037374
 21
256.0243289650141
 31
0.0
  0
LINE
  5
2785
330
267A
100
AcDbEntity
  8
1
 62
     7
100
AcDbLine
 10
181.0082101783
 20
223.9022603357375
 30
0.0
 11
181.0082101783
 21
244.0083289650139
 31
0.0
  0
LINE
  5
2786
330
267A
100
AcDbEntity
  8
0
 62
     7
100
AcDbLine
 10
191.8092101782642
 20
224.1434291054664
 30
0.0
 11
191.8092101782642
 21
218.024328965014
 31
0.0
  0
LINE
  5
2787
330
267A
100
AcDbEntity
  8
1
  6
PHANTOM
 62
     4
100
AcDbLine
 10
190.1092101783
 20
195.524328965014
 30
0.0
 11
180.4092101782994
 21
195.524328965014
 31
0.0
  0
LINE
  5
2788
330
267A
100
AcDbEntity
  8
1
  6
PHANTOM
 62
     4
100
AcDbLine
 10
180.4092101782994
 20
195.524328965014
 30
0.0
 11
180.4092101782994
 21
183.024328965014
 31
0.0
  0
LINE
  5
2789
330
267A
100
AcDbEntity
  8
1
  6
PHANTOM
 62
     4
100
AcDbLine
 10
192.4092101332289
 20
191.524328965014
 30
0.0
 11
182.1092101332291
 21
191.524328965014
 31
0.0
  0
LINE
  5
278A
330
267A
100
AcDbEntity
  8
1
  6
PHANTOM
 62
     4
100
AcDbLine
 10
182.1092101332291
 20
191.524328965014
 30
0.0
 11
182.1092101332291
 21
183.024328965014
 31
0.0
  0
LINE
  5
278B
330
267A
100
AcDbEntity
  8
1
  6
DIVIDE
 62
     7
100
AcDbLine
 10
208.909210178171
 20
237.6414661764523
 30
0.0
 11
208.909210178171
 21
244.5243289650139
 31
0.0
  0
LINE
  5
278C
330
267A
100
AcDbEntity
  8
1
  6
DIVIDE
 62
     7
100
AcDbLine
 10
208.909210178171
 20
237.6414661764523
 30
0.0
 11
208.909210178171
 21
244.5243289650139
 31
0.0
  0
LINE
  5
278D
330
267A
100
AcDbEntity
  8
1
  6
DIVIDE
 62
     7
100
AcDbLine
 10
208.909210178171
 20
244.5243289650139
 30
0.0
 11
207.4092101781709
 21
244.5243289650139
 31
0.0
  0
LINE
  5
278E
330
267A
100
AcDbEntity
  8
1
 62
     7
100
AcDbLine
 10
204.358830540741
 20
241.3393289650139
 30
0.0
 11
206.7192101782999
 21
241.3393289650139
 31
0.0
  0
LINE
  5
278F
330
267A
100
AcDbEntity
  8
1
 62
     7
100
AcDbLine
 10
204.4029545157711
 20
237.0968289650139
 30
0.0
 11
206.9192101782998
 21
237.0968289650139
 31
0.0
  0
LINE
  5
2790
330
267A
100
AcDbEntity
  8
1
 62
     7
100
AcDbLine
 10
207.3642101783
 20
236.7968289650139
 30
0.0
 11
207.3642101783
 21
236.1018289650139
 31
0.0
  0
LINE
  5
2791
330
267A
100
AcDbEntity
  8
1
 62
     7
100
AcDbLine
 10
203.2992101783
 20
235.801828965014
 30
0.0
 11
207.0642101783
 21
235.801828965014
 31
0.0
  0
LINE
  5
2792
330
267A
100
AcDbEntity
  8
1
 62
     7
100
AcDbLine
 10
206.7192101782999
 20
241.3393289650139
 30
0.0
 11
206.9192101782998
 21
241.5393289650139
 31
0.0
  0
LINE
  5
2793
330
267A
100
AcDbEntity
  8
1
 62
     7
100
AcDbLine
 10
207.3642101783
 20
236.7968289650139
 30
0.0
 11
207.0642101783
 21
237.0968289650139
 31
0.0
  0
LINE
  5
2794
330
267A
100
AcDbEntity
  8
1
 62
     7
100
AcDbLine
 10
207.0642101783
 20
235.801828965014
 30
0.0
 11
207.3642101783
 21
236.1018289650139
 31
0.0
  0
LINE
  5
2795
330
267A
100
AcDbEntity
  8
1
 62
     7
100
AcDbLine
 10
203.2992101783
 20
242.5583289650139
 30
0.0
 11
206.4192101783
 21
242.5583289650139
 31
0.0
  0
LINE
  5
2796
330
267A
100
AcDbEntity
  8
1
 62
     7
100
AcDbLine
 10
206.9192101782998
 20
241.5393289650139
 30
0.0
 11
206.9192101782998
 21
241.5660583237047
 31
0.0
  0
LINE
  5
2797
330
267A
100
AcDbEntity
  8
1
 62
     7
100
AcDbLine
 10
206.4192101783
 20
242.5583289650139
 30
0.0
 11
206.9192101782998
 21
242.2696538304192
 31
0.0
  0
LINE
  5
2798
330
267A
100
AcDbEntity
  8
1
 62
     7
100
AcDbLine
 10
206.9192101782998
 20
241.5660583237047
 30
0.0
 11
206.9192101782998
 21
237.0968289650139
 31
0.0
  0
LINE
  5
2799
330
267A
100
AcDbEntity
  8
1
 62
     7
100
AcDbLine
 10
206.9192101782998
 20
241.5660583237047
 30
0.0
 11
206.9192101782998
 21
242.2696538304192
 31
0.0
  0
LINE
  5
279A
330
267A
100
AcDbEntity
  8
1
 62
     7
100
AcDbLine
 10
206.9192101782998
 20
237.0968289650139
 30
0.0
 11
207.0642101783
 21
237.0968289650139
 31
0.0
  0
LINE
  5
279B
330
267A
100
AcDbEntity
  8
1
 62
     7
100
AcDbLine
 10
199.5342101782999
 20
237.0968289650139
 30
0.0
 11
199.6792101783
 21
237.0968289650139
 31
0.0
  0
LINE
  5
279C
330
267A
100
AcDbEntity
  8
1
 62
     7
100
AcDbLine
 10
199.6792101783
 20
242.2696538304192
 30
0.0
 11
199.6792101783
 21
241.5660583237047
 31
0.0
  0
LINE
  5
279D
330
267A
100
AcDbEntity
  8
1
 62
     7
100
AcDbLine
 10
199.6792101783
 20
237.0968289650139
 30
0.0
 11
199.6792101783
 21
241.5660583237047
 31
0.0
  0
LINE
  5
279E
330
267A
100
AcDbEntity
  8
1
 62
     7
100
AcDbLine
 10
199.6792101783
 20
242.2696538304192
 30
0.0
 11
200.1792101783
 21
242.5583289650139
 31
0.0
  0
LINE
  5
279F
330
267A
100
AcDbEntity
  8
1
 62
     7
100
AcDbLine
 10
199.6792101783
 20
241.5660583237047
 30
0.0
 11
199.6792101783
 21
241.5393289650139
 31
0.0
  0
LINE
  5
27A0
330
267A
100
AcDbEntity
  8
1
 62
     7
100
AcDbLine
 10
200.1792101783
 20
242.5583289650139
 30
0.0
 11
203.2992101783
 21
242.5583289650139
 31
0.0
  0
LINE
  5
27A1
330
267A
100
AcDbEntity
  8
1
 62
     7
100
AcDbLine
 10
199.2342101783
 20
236.1018289650139
 30
0.0
 11
199.5342101782999
 21
235.801828965014
 31
0.0
  0
LINE
  5
27A2
330
267A
100
AcDbEntity
  8
1
 62
     7
100
AcDbLine
 10
199.5342101782999
 20
237.0968289650139
 30
0.0
 11
199.2342101783
 21
236.7968289650139
 31
0.0
  0
LINE
  5
27A3
330
267A
100
AcDbEntity
  8
1
 62
     7
100
AcDbLine
 10
199.6792101783
 20
241.5393289650139
 30
0.0
 11
199.8792101783
 21
241.3393289650139
 31
0.0
  0
LINE
  5
27A4
330
267A
100
AcDbEntity
  8
1
 62
     7
100
AcDbLine
 10
199.5342101782999
 20
235.801828965014
 30
0.0
 11
203.2992101783
 21
235.801828965014
 31
0.0
  0
LINE
  5
27A5
330
267A
100
AcDbEntity
  8
1
 62
     7
100
AcDbLine
 10
199.2342101783
 20
236.1018289650139
 30
0.0
 11
199.2342101783
 21
236.7968289650139
 31
0.0
  0
LINE
  5
27A6
330
267A
100
AcDbEntity
  8
1
 62
     7
100
AcDbLine
 10
199.6792101783
 20
237.0968289650139
 30
0.0
 11
202.1954658408287
 21
237.0968289650139
 31
0.0
  0
LINE
  5
27A7
330
267A
100
AcDbEntity
  8
1
 62
     7
100
AcDbLine
 10
199.8792101783
 20
241.3393289650139
 30
0.0
 11
202.2395898158587
 21
241.3393289650139
 31
0.0
  0
LINE
  5
27A8
330
267A
100
AcDbEntity
  8
1
 62
     7
100
AcDbLine
 10
202.2395898158587
 20
194.704328965014
 30
0.0
 11
199.8792101783
 21
194.704328965014
 31
0.0
  0
LINE
  5
27A9
330
267A
100
AcDbEntity
  8
1
 62
     7
100
AcDbLine
 10
202.1954658408287
 20
198.9468289650139
 30
0.0
 11
199.6792101783
 21
198.9468289650139
 31
0.0
  0
LINE
  5
27AA
330
267A
100
AcDbEntity
  8
1
 62
     7
100
AcDbLine
 10
199.2342101783
 20
199.246828965014
 30
0.0
 11
199.2342101783
 21
199.9418289650139
 31
0.0
  0
LINE
  5
27AB
330
267A
100
AcDbEntity
  8
1
 62
     7
100
AcDbLine
 10
203.2992101783
 20
200.2418289650139
 30
0.0
 11
199.5342101782999
 21
200.2418289650139
 31
0.0
  0
LINE
  5
27AC
330
267A
100
AcDbEntity
  8
1
 62
     7
100
AcDbLine
 10
199.8792101783
 20
194.704328965014
 30
0.0
 11
199.6792101783
 21
194.504328965014
 31
0.0
  0
LINE
  5
27AD
330
267A
100
AcDbEntity
  8
1
 62
     7
100
AcDbLine
 10
199.2342101783
 20
199.246828965014
 30
0.0
 11
199.5342101782999
 21
198.9468289650139
 31
0.0
  0
LINE
  5
27AE
330
267A
100
AcDbEntity
  8
1
 62
     7
100
AcDbLine
 10
199.5342101782999
 20
200.2418289650139
 30
0.0
 11
199.2342101783
 21
199.9418289650139
 31
0.0
  0
LINE
  5
27AF
330
267A
100
AcDbEntity
  8
1
 62
     7
100
AcDbLine
 10
203.2992101783
 20
193.4853289650139
 30
0.0
 11
200.1792101783
 21
193.4853289650139
 31
0.0
  0
LINE
  5
27B0
330
267A
100
AcDbEntity
  8
1
 62
     7
100
AcDbLine
 10
199.6792101783
 20
194.504328965014
 30
0.0
 11
199.6792101783
 21
194.4775996063236
 31
0.0
  0
LINE
  5
27B1
330
267A
100
AcDbEntity
  8
1
 62
     7
100
AcDbLine
 10
200.1792101783
 20
193.4853289650139
 30
0.0
 11
199.6792101783
 21
193.7740040996088
 31
0.0
  0
LINE
  5
27B2
330
267A
100
AcDbEntity
  8
1
 62
     7
100
AcDbLine
 10
199.6792101783
 20
194.4775996063236
 30
0.0
 11
199.6792101783
 21
198.9468289650139
 31
0.0
  0
LINE
  5
27B3
330
267A
100
AcDbEntity
  8
1
 62
     7
100
AcDbLine
 10
199.6792101783
 20
194.4775996063236
 30
0.0
 11
199.6792101783
 21
193.7740040996088
 31
0.0
  0
LINE
  5
27B4
330
267A
100
AcDbEntity
  8
1
 62
     7
100
AcDbLine
 10
199.6792101783
 20
198.9468289650139
 30
0.0
 11
199.5342101782999
 21
198.9468289650139
 31
0.0
  0
LINE
  5
27B5
330
267A
100
AcDbEntity
  8
1
 62
     7
100
AcDbLine
 10
207.0642101783
 20
198.9468289650139
 30
0.0
 11
206.9192101782998
 21
198.9468289650139
 31
0.0
  0
LINE
  5
27B6
330
267A
100
AcDbEntity
  8
1
 62
     7
100
AcDbLine
 10
206.9192101782998
 20
193.7740040996088
 30
0.0
 11
206.9192101782998
 21
194.4775996063236
 31
0.0
  0
LINE
  5
27B7
330
267A
100
AcDbEntity
  8
1
 62
     7
100
AcDbLine
 10
206.9192101782998
 20
198.9468289650139
 30
0.0
 11
206.9192101782998
 21
194.4775996063236
 31
0.0
  0
LINE
  5
27B8
330
267A
100
AcDbEntity
  8
1
 62
     7
100
AcDbLine
 10
206.9192101782998
 20
193.7740040996088
 30
0.0
 11
206.4192101783
 21
193.4853289650139
 31
0.0
  0
LINE
  5
27B9
330
267A
100
AcDbEntity
  8
1
 62
     7
100
AcDbLine
 10
206.9192101782998
 20
194.4775996063236
 30
0.0
 11
206.9192101782998
 21
194.504328965014
 31
0.0
  0
LINE
  5
27BA
330
267A
100
AcDbEntity
  8
1
 62
     7
100
AcDbLine
 10
206.4192101783
 20
193.4853289650139
 30
0.0
 11
203.2992101783
 21
193.4853289650139
 31
0.0
  0
LINE
  5
27BB
330
267A
100
AcDbEntity
  8
1
 62
     7
100
AcDbLine
 10
207.3642101783
 20
199.9418289650139
 30
0.0
 11
207.0642101783
 21
200.2418289650139
 31
0.0
  0
LINE
  5
27BC
330
267A
100
AcDbEntity
  8
1
 62
     7
100
AcDbLine
 10
207.0642101783
 20
198.9468289650139
 30
0.0
 11
207.3642101783
 21
199.246828965014
 31
0.0
  0
LINE
  5
27BD
330
267A
100
AcDbEntity
  8
1
 62
     7
100
AcDbLine
 10
206.9192101782998
 20
194.504328965014
 30
0.0
 11
206.7192101782999
 21
194.704328965014
 31
0.0
  0
LINE
  5
27BE
330
267A
100
AcDbEntity
  8
1
 62
     7
100
AcDbLine
 10
207.0642101783
 20
200.2418289650139
 30
0.0
 11
203.2992101783
 21
200.2418289650139
 31
0.0
  0
LINE
  5
27BF
330
267A
100
AcDbEntity
  8
1
 62
     7
100
AcDbLine
 10
207.3642101783
 20
199.9418289650139
 30
0.0
 11
207.3642101783
 21
199.246828965014
 31
0.0
  0
LINE
  5
27C0
330
267A
100
AcDbEntity
  8
1
 62
     7
100
AcDbLine
 10
206.9192101782998
 20
198.9468289650139
 30
0.0
 11
204.4029545157711
 21
198.9468289650139
 31
0.0
  0
LINE
  5
27C1
330
267A
100
AcDbEntity
  8
1
 62
     7
100
AcDbLine
 10
206.7192101782999
 20
194.704328965014
 30
0.0
 11
204.358830540741
 21
194.704328965014
 31
0.0
  0
LINE
  5
27C2
330
267A
100
AcDbEntity
  8
1
 62
     7
100
AcDbLine
 10
200.0079601783001
 20
240.8168289650141
 30
0.0
 11
200.8179601783
 21
240.8168289650141
 31
0.0
  0
LINE
  5
27C3
330
267A
100
AcDbEntity
  8
1
 62
     7
100
AcDbLine
 10
199.8079601783
 20
240.6168289650139
 30
0.0
 11
199.8079601783
 21
239.0942853225291
 31
0.0
  0
LINE
  5
27C4
330
267A
100
AcDbEntity
  8
1
 62
     7
100
AcDbLine
 10
199.6366076651785
 20
237.7470635793588
 30
0.0
 11
199.8079601783
 21
239.0942853225291
 31
0.0
  0
LINE
  5
27C5
330
267A
100
AcDbEntity
  8
1
 62
     7
100
AcDbLine
 10
199.835009313959
 20
237.521828965014
 30
0.0
 11
200.8179601783
 21
237.521828965014
 31
0.0
  0
LINE
  5
27C6
330
267A
100
AcDbEntity
  8
1
 62
     7
100
AcDbLine
 10
200.8179601783
 20
240.8168289650141
 30
0.0
 11
200.8179601783
 21
237.521828965014
 31
0.0
  0
LINE
  5
27C7
330
267A
100
AcDbEntity
  8
1
 62
     7
100
AcDbLine
 10
201.6166149915424
 20
237.521828965014
 30
0.0
 11
200.8179601783
 21
237.521828965014
 31
0.0
  0
LINE
  5
27C8
330
267A
100
AcDbEntity
  8
1
 62
     7
100
AcDbLine
 10
201.5278372893848
 20
240.7982401786595
 30
0.0
 11
200.8179601783
 21
240.8168289650141
 31
0.0
  0
LINE
  5
27C9
330
267A
100
AcDbEntity
  8
1
 62
     7
100
AcDbLine
 10
200.8179601783
 20
195.226828965014
 30
0.0
 11
201.5278372893848
 21
195.2454177513684
 31
0.0
  0
LINE
  5
27CA
330
267A
100
AcDbEntity
  8
1
 62
     7
100
AcDbLine
 10
200.8179601783
 20
198.521828965014
 30
0.0
 11
201.6166149915424
 21
198.521828965014
 31
0.0
  0
LINE
  5
27CB
330
267A
100
AcDbEntity
  8
1
 62
     7
100
AcDbLine
 10
200.8179601783
 20
198.521828965014
 30
0.0
 11
200.8179601783
 21
195.226828965014
 31
0.0
  0
LINE
  5
27CC
330
267A
100
AcDbEntity
  8
1
 62
     7
100
AcDbLine
 10
200.8179601783
 20
198.521828965014
 30
0.0
 11
199.835009313959
 21
198.521828965014
 31
0.0
  0
LINE
  5
27CD
330
267A
100
AcDbEntity
  8
1
 62
     7
100
AcDbLine
 10
199.8079601783
 20
196.9493726074985
 30
0.0
 11
199.6366076651785
 21
198.2965943506691
 31
0.0
  0
LINE
  5
27CE
330
267A
100
AcDbEntity
  8
1
 62
     7
100
AcDbLine
 10
199.8079601783
 20
196.9493726074985
 30
0.0
 11
199.8079601783
 21
195.426828965014
 31
0.0
  0
LINE
  5
27CF
330
267A
100
AcDbEntity
  8
1
 62
     7
100
AcDbLine
 10
200.8179601783
 20
195.226828965014
 30
0.0
 11
200.0079601783001
 21
195.226828965014
 31
0.0
  0
LINE
  5
27D4
330
267A
100
AcDbEntity
  8
1
  6
CENTER
 62
     3
100
AcDbLine
 10
189.8741281178944
 20
218.024328965014
 30
0.0
 11
215.6457846892127
 21
218.024328965014
 31
0.0
  0
ARC
  5
27D5
330
267A
100
AcDbEntity
  8
1
 62
     7
100
AcDbCircle
 10
302.7263349896688
 20
218.0213152424494
 30
0.0
 40
4.499999932549259
100
AcDbArc
 50
109.4712206393377
 51
270.0000000088193
  0
ARC
  5
27D6
330
267A
100
AcDbEntity
  8
1
 62
     7
100
AcDbCircle
 10
302.7263349896688
 20
218.0213152424494
 30
0.0
 40
4.4999999325492
100
AcDbArc
 50
270.0000000088193
 51
70.52877938200182
  0
ARC
  5
27D7
330
267A
100
AcDbEntity
  8
0
 62
     7
100
AcDbCircle
 10
199.6092101377358
 20
245.8243285549508
 30
0.0
 40
0.2999999954932981
100
AcDbArc
 50
270.0000000096843
 51
0.0
  0
ARC
  5
27D8
330
267A
100
AcDbEntity
  8
0
 62
     7
100
AcDbCircle
 10
302.7263349895148
 20
218.6338152340058
 30
0.0
 40
11.6024998256759
100
AcDbArc
 50
90.00000000000486
 51
250.730361122028
  0
ARC
  5
27D9
330
267A
100
AcDbEntity
  8
0
 62
     7
100
AcDbCircle
 10
298.6663350505093
 20
207.0205511709457
 30
0.0
 40
0.6999999894944722
100
AcDbArc
 50
0.0000000005406434
 51
70.73036112248899
  0
ARC
  5
27DA
330
267A
100
AcDbEntity
  8
0
 62
     7
100
AcDbCircle
 10
300.0663350294848
 20
205.596315429894
 30
0.0
 40
0.699999989498906
100
AcDbArc
 50
180.0
 51
269.999999998549
  0
ARC
  5
27DB
330
267A
100
AcDbEntity
  8
0
 62
     7
100
AcDbCircle
 10
302.7263349895125
 20
218.6338152340058
 30
0.0
 40
11.60249982567574
100
AcDbArc
 50
289.2696388779717
 51
89.99999999999348
  0
ARC
  5
27DC
330
267A
100
AcDbEntity
  8
0
 62
     7
100
AcDbCircle
 10
306.7863349285228
 20
207.0205511709529
 30
0.0
 40
0.6999999894872632
100
AcDbArc
 50
109.2696388775129
 51
180.0
  0
ARC
  5
27DD
330
267A
100
AcDbEntity
  8
0
 62
     7
100
AcDbCircle
 10
305.3863349495537
 20
205.5963154298928
 30
0.0
 40
0.6999999894981901
100
AcDbArc
 50
270.0000000007995
 51
0.00000000007328
  0
ARC
  5
27DE
330
267A
100
AcDbEntity
  8
0
 62
     7
100
AcDbCircle
 10
199.6092101377358
 20
190.2243293750773
 30
0.0
 40
0.2999999954931809
100
AcDbArc
 50
0.0
 51
89.99999999031564
  0
ARC
  5
27DF
330
267A
100
AcDbEntity
  8
1
 62
     7
100
AcDbCircle
 10
193.4675627245268
 20
173.1393289650139
 30
0.0
 40
19.95343732314043
100
AcDbArc
 50
75.68589209522539
 51
91.06351883405741
  0
ARC
  5
27E0
330
267A
100
AcDbEntity
  8
1
 62
     7
100
AcDbCircle
 10
193.4675627245268
 20
262.909328965014
 30
0.0
 40
19.95343732314048
100
AcDbArc
 50
268.9364811659426
 51
284.3141079047745
  0
ARC
  5
27E1
330
267A
100
AcDbEntity
  8
1
 62
     7
100
AcDbCircle
 10
302.7263343342302
 20
239.209328965014
 30
0.0
 40
2.381249999999996
100
AcDbArc
 50
117.8210529528936
 51
243.9177547106378
  0
ARC
  5
27E2
330
267A
100
AcDbEntity
  8
1
 62
     7
100
AcDbCircle
 10
302.7263343342302
 20
239.209328965014
 30
0.0
 40
2.381250000000004
100
AcDbArc
 50
296.0822452893665
 51
62.1789470471004
  0
ARC
  5
27E3
330
267A
100
AcDbEntity
  8
1
 62
     7
100
AcDbCircle
 10
297.0106897372689
 20
238.4237316974771
 30
0.0
 40
2.381249999999964
100
AcDbArc
 50
133.4732268659384
 51
259.5699286236807
  0
ARC
  5
27E4
330
267A
100
AcDbEntity
  8
1
 62
     7
100
AcDbCircle
 10
291.7189483527296
 20
236.1252040503314
 30
0.0
 40
2.381249999999925
100
AcDbArc
 50
149.1254007789811
 51
275.2221025367229
  0
ARC
  5
27E5
330
267A
100
AcDbEntity
  8
1
 62
     7
100
AcDbCircle
 10
287.2435744309983
 20
232.4842173041012
 30
0.0
 40
2.381249999999912
100
AcDbArc
 50
164.7775746920244
 51
290.8742764497665
  0
ARC
  5
27E6
330
267A
100
AcDbEntity
  8
1
 62
     7
100
AcDbCircle
 10
283.9164859823759
 20
227.7708067893486
 30
0.0
 40
2.38125000000002
100
AcDbArc
 50
180.4297486050695
 51
306.5264503628107
  0
ARC
  5
27E7
330
267A
100
AcDbEntity
  8
1
 62
     7
100
AcDbCircle
 10
281.9844379366803
 20
222.3345446015339
 30
0.0
 40
2.38125000000002
100
AcDbArc
 50
196.0819225181134
 51
322.1786242758511
  0
ARC
  5
27E8
330
267A
100
AcDbEntity
  8
1
 62
     7
100
AcDbCircle
 10
281.5907214589289
 20
216.5786134378834
 30
0.0
 40
2.381250000000004
100
AcDbArc
 50
211.7340964311559
 51
337.8307981888968
  0
ARC
  5
27E9
330
267A
100
AcDbEntity
  8
1
 62
     7
100
AcDbCircle
 10
282.7645366991432
 20
210.9299043811716
 30
0.0
 40
2.381250000000011
100
AcDbArc
 50
227.3862703442016
 51
353.482972101941
  0
ARC
  5
27EA
330
267A
100
AcDbEntity
  8
1
 62
     7
100
AcDbCircle
 10
285.4188271508038
 20
205.8073563410104
 30
0.0
 40
2.381249999999957
100
AcDbArc
 50
243.0384442572435
 51
9.135146014981973
  0
ARC
  5
27EB
330
267A
100
AcDbEntity
  8
1
 62
     7
100
AcDbCircle
 10
289.356736233683
 20
201.590885271441
 30
0.0
 40
2.381249999999945
100
AcDbArc
 50
258.6906181702868
 51
24.78731992802642
  0
ARC
  5
27EC
330
267A
100
AcDbEntity
  8
1
 62
     7
100
AcDbCircle
 10
294.2862072458376
 20
198.593207542621
 30
0.0
 40
2.381249999999917
100
AcDbArc
 50
274.3427920833295
 51
40.43949384107488
  0
ARC
  5
27ED
330
267A
100
AcDbEntity
  8
1
 62
     7
100
AcDbCircle
 10
299.8416438731263
 20
197.0366471982344
 30
0.0
 40
2.381250000000016
100
AcDbArc
 50
289.9949659963724
 51
56.0916677541154
  0
ARC
  5
27EE
330
267A
100
AcDbEntity
  8
1
 62
     7
100
AcDbCircle
 10
305.6110247953342
 20
197.0366471982344
 30
0.0
 40
2.381250000000079
100
AcDbArc
 50
305.6471399094216
 51
71.7438416671543
  0
ARC
  5
27EF
330
267A
100
AcDbEntity
  8
1
 62
     7
100
AcDbCircle
 10
311.1664614226231
 20
198.593207542621
 30
0.0
 40
2.381249999999876
100
AcDbArc
 50
321.2993138224593
 51
87.39601558020577
  0
ARC
  5
27F0
330
267A
100
AcDbEntity
  8
1
 62
     7
100
AcDbCircle
 10
316.0959324347778
 20
201.590885271441
 30
0.0
 40
2.381250000000015
100
AcDbArc
 50
336.9514877355042
 51
103.0481894932439
  0
ARC
  5
27F1
330
267A
100
AcDbEntity
  8
1
 62
     7
100
AcDbCircle
 10
320.0338415176567
 20
205.8073563410104
 30
0.0
 40
2.381249999999929
100
AcDbArc
 50
352.6036616485482
 51
118.7003634062902
  0
ARC
  5
27F2
330
267A
100
AcDbEntity
  8
1
 62
     7
100
AcDbCircle
 10
322.6881319693176
 20
210.9299043811716
 30
0.0
 40
2.38124999999983
100
AcDbArc
 50
8.255835561593338
 51
134.3525373193334
  0
ARC
  5
27F3
330
267A
100
AcDbEntity
  8
1
 62
     7
100
AcDbCircle
 10
323.861947209532
 20
216.5786134378834
 30
0.0
 40
2.381250000000023
100
AcDbArc
 50
23.90800947463361
 51
150.0047112323773
  0
ARC
  5
27F4
330
267A
100
AcDbEntity
  8
1
 62
     7
100
AcDbCircle
 10
323.4682307317803
 20
222.3345446015339
 30
0.0
 40
2.381250000000123
100
AcDbArc
 50
39.56018338767589
 51
165.6568851454184
  0
ARC
  5
27F5
330
267A
100
AcDbEntity
  8
1
 62
     7
100
AcDbCircle
 10
321.5361826860846
 20
227.7708067893486
 30
0.0
 40
2.381249999999945
100
AcDbArc
 50
55.21235730072106
 51
181.3090590584624
  0
ARC
  5
27F6
330
267A
100
AcDbEntity
  8
1
 62
     7
100
AcDbCircle
 10
318.2090942374624
 20
232.4842173041012
 30
0.0
 40
2.38125000000002
100
AcDbArc
 50
70.86453121376455
 51
196.9612329715053
  0
ARC
  5
27F7
330
267A
100
AcDbEntity
  8
1
 62
     7
100
AcDbCircle
 10
313.7337203157308
 20
236.1252040503314
 30
0.0
 40
2.381249999999964
100
AcDbArc
 50
86.51670512681009
 51
212.6134068845487
  0
ARC
  5
27F8
330
267A
100
AcDbEntity
  8
1
 62
     7
100
AcDbCircle
 10
308.4419789311916
 20
238.4237316974771
 30
0.0
 40
2.38125000000002
100
AcDbArc
 50
102.1688790398499
 51
228.2655807975932
  0
ARC
  5
27F9
330
267A
100
AcDbEntity
  8
1
 62
     7
100
AcDbCircle
 10
297.0106897372689
 20
238.4237316974771
 30
0.0
 40
2.381250000000009
100
AcDbArc
 50
311.7344192024052
 51
77.83112096014813
  0
ARC
  5
27FA
330
267A
100
AcDbEntity
  8
1
 62
     7
100
AcDbCircle
 10
291.7189483527296
 20
236.1252040503314
 30
0.0
 40
2.38125
100
AcDbArc
 50
327.3865931154519
 51
93.48329487318821
  0
ARC
  5
27FB
330
267A
100
AcDbEntity
  8
1
 62
     7
100
AcDbCircle
 10
287.2435744309983
 20
232.4842173041012
 30
0.0
 40
2.381250000000064
100
AcDbArc
 50
343.0387670284963
 51
109.1354687862333
  0
ARC
  5
27FC
330
267A
100
AcDbEntity
  8
1
 62
     7
100
AcDbCircle
 10
283.9164859823759
 20
227.7708067893486
 30
0.0
 40
2.381249999999976
100
AcDbArc
 50
358.6909409415371
 51
124.7876426992766
  0
ARC
  5
27FD
330
267A
100
AcDbEntity
  8
1
 62
     7
100
AcDbCircle
 10
281.9844379366803
 20
222.3345446015339
 30
0.0
 40
2.381249999999904
100
AcDbArc
 50
14.34311485458152
 51
140.439816612324
  0
ARC
  5
27FE
330
267A
100
AcDbEntity
  8
1
 62
     7
100
AcDbCircle
 10
281.5907214589289
 20
216.5786134378834
 30
0.0
 40
2.381249999999945
100
AcDbArc
 50
29.99528876762487
 51
156.0919905253669
  0
ARC
  5
27FF
330
267A
100
AcDbEntity
  8
1
 62
     7
100
AcDbCircle
 10
282.7645366991432
 20
210.9299043811716
 30
0.0
 40
2.381250000000004
100
AcDbArc
 50
45.64746268066635
 51
171.7441644384098
  0
ARC
  5
2800
330
267A
100
AcDbEntity
  8
1
 62
     7
100
AcDbCircle
 10
285.4188271508038
 20
205.8073563410104
 30
0.0
 40
2.381249999999969
100
AcDbArc
 50
61.29963659371163
 51
187.3963383514515
  0
ARC
  5
2801
330
267A
100
AcDbEntity
  8
1
 62
     7
100
AcDbCircle
 10
289.356736233683
 20
201.590885271441
 30
0.0
 40
2.381249999999984
100
AcDbArc
 50
76.95181050675434
 51
203.0485122644955
  0
ARC
  5
2802
330
267A
100
AcDbEntity
  8
1
 62
     7
100
AcDbCircle
 10
294.2862072458376
 20
198.593207542621
 30
0.0
 40
2.381250000000088
100
AcDbArc
 50
92.6039844197991
 51
218.7006861775384
  0
ARC
  5
2803
330
267A
100
AcDbEntity
  8
1
 62
     7
100
AcDbCircle
 10
299.8416438731263
 20
197.0366471982344
 30
0.0
 40
2.381249999999995
100
AcDbArc
 50
108.2561583328404
 51
234.3528600905806
  0
ARC
  5
2804
330
267A
100
AcDbEntity
  8
1
 62
     7
100
AcDbCircle
 10
305.6110247953342
 20
197.0366471982344
 30
0.0
 40
2.381249999999976
100
AcDbArc
 50
123.9083322458846
 51
250.0050340036324
  0
ARC
  5
2805
330
267A
100
AcDbEntity
  8
1
 62
     7
100
AcDbCircle
 10
311.1664614226231
 20
198.593207542621
 30
0.0
 40
2.38125000000002
100
AcDbArc
 50
139.5605061589284
 51
265.6572079166654
  0
ARC
  5
2806
330
267A
100
AcDbEntity
  8
1
 62
     7
100
AcDbCircle
 10
316.0959324347778
 20
201.590885271441
 30
0.0
 40
2.381250000000127
100
AcDbArc
 50
155.2126800719745
 51
281.3093818297165
  0
ARC
  5
2807
330
267A
100
AcDbEntity
  8
1
 62
     7
100
AcDbCircle
 10
320.0338415176567
 20
205.8073563410104
 30
0.0
 40
2.381250000000191
100
AcDbArc
 50
170.864853985018
 51
296.9615557427536
  0
ARC
  5
2808
330
267A
100
AcDbEntity
  8
1
 62
     7
100
AcDbCircle
 10
322.6881319693176
 20
210.9299043811716
 30
0.0
 40
2.381250000000123
100
AcDbArc
 50
186.5170278980589
 51
312.6137296557996
  0
ARC
  5
2809
330
267A
100
AcDbEntity
  8
1
 62
     7
100
AcDbCircle
 10
323.861947209532
 20
216.5786134378834
 30
0.0
 40
2.381249999999945
100
AcDbArc
 50
202.1692018111031
 51
328.2659035688435
  0
ARC
  5
280A
330
267A
100
AcDbEntity
  8
1
 62
     7
100
AcDbCircle
 10
323.4682307317803
 20
222.3345446015339
 30
0.0
 40
2.381249999999912
100
AcDbArc
 50
217.82137572415
 51
343.9180774818865
  0
ARC
  5
280B
330
267A
100
AcDbEntity
  8
1
 62
     7
100
AcDbCircle
 10
321.5361826860846
 20
227.7708067893486
 30
0.0
 40
2.381250000000039
100
AcDbArc
 50
233.4735496371903
 51
359.5702513949305
  0
ARC
  5
280C
330
267A
100
AcDbEntity
  8
1
 62
     7
100
AcDbCircle
 10
318.2090942374624
 20
232.4842173041012
 30
0.0
 40
2.38125000000002
100
AcDbArc
 50
249.1257235502334
 51
15.22242530797401
  0
ARC
  5
280D
330
267A
100
AcDbEntity
  8
1
 62
     7
100
AcDbCircle
 10
313.7337203157308
 20
236.1252040503314
 30
0.0
 40
2.381250000000095
100
AcDbArc
 50
264.7778974632751
 51
30.87459922101821
  0
ARC
  5
280E
330
267A
100
AcDbEntity
  8
1
 62
     7
100
AcDbCircle
 10
308.4419789311916
 20
238.4237316974771
 30
0.0
 40
2.381250000000022
100
AcDbArc
 50
280.430071376324
 51
46.52677313405907
  0
ARC
  5
280F
330
267A
100
AcDbEntity
  8
1
 62
     7
100
AcDbCircle
 10
302.7263343342302
 20
218.024328965014
 30
0.0
 40
22.79500000000003
100
AcDbArc
 50
79.73895468522622
 51
84.60887140173012
  0
ARC
  5
2810
330
267A
100
AcDbEntity
  8
1
 62
     7
100
AcDbCircle
 10
302.7263343342302
 20
239.209328965014
 30
0.0
 40
2.620000000000088
100
AcDbArc
 50
317.2040421973731
 51
35.17094663346323
  0
ARC
  5
2811
330
267A
100
AcDbEntity
  8
1
 62
     7
100
AcDbCircle
 10
302.7263343342302
 20
218.024328965014
 30
0.0
 40
19.5
100
AcDbArc
 50
80.00578710323667
 51
84.34203898371881
  0
ARC
  5
2812
330
267A
100
AcDbEntity
  8
1
 62
     7
100
AcDbCircle
 10
308.4419789311916
 20
238.4237316974771
 30
0.0
 40
2.619999999999965
100
AcDbArc
 50
129.1768794534895
 51
207.143783889587
  0
ARC
  5
2813
330
267A
100
AcDbEntity
  8
1
 62
     7
100
AcDbCircle
 10
302.7263343342302
 20
218.024328965014
 30
0.0
 40
22.795
100
AcDbArc
 50
64.08678077218282
 51
68.95669748868745
  0
ARC
  5
2814
330
267A
100
AcDbEntity
  8
1
 62
     7
100
AcDbCircle
 10
308.4419789311916
 20
238.4237316974771
 30
0.0
 40
2.620000000000084
100
AcDbArc
 50
301.5518682843294
 51
19.51877272042192
  0
ARC
  5
2815
330
267A
100
AcDbEntity
  8
1
 62
     7
100
AcDbCircle
 10
302.7263343342302
 20
218.024328965014
 30
0.0
 40
19.5
100
AcDbArc
 50
64.35361319019445
 51
68.68986507067503
  0
ARC
  5
2816
330
267A
100
AcDbEntity
  8
1
 62
     7
100
AcDbCircle
 10
313.7337203157308
 20
236.1252040503314
 30
0.0
 40
2.619999999999949
100
AcDbArc
 50
113.5247055404501
 51
191.4916099765441
  0
ARC
  5
2817
330
267A
100
AcDbEntity
  8
1
 62
     7
100
AcDbCircle
 10
302.7263343342302
 20
218.024328965014
 30
0.0
 40
22.795
100
AcDbArc
 50
48.43460685913888
 51
53.30452357564381
  0
ARC
  5
2818
330
267A
100
AcDbEntity
  8
1
 62
     7
100
AcDbCircle
 10
313.7337203157308
 20
236.1252040503314
 30
0.0
 40
2.61999999999998
100
AcDbArc
 50
285.8996943712803
 51
3.866598807376727
  0
ARC
  5
2819
330
267A
100
AcDbEntity
  8
1
 62
     7
100
AcDbCircle
 10
302.7263343342302
 20
218.024328965014
 30
0.0
 40
19.5
100
AcDbArc
 50
48.70143927715062
 51
53.03769115763241
  0
ARC
  5
281A
330
267A
100
AcDbEntity
  8
1
 62
     7
100
AcDbCircle
 10
318.2090942374624
 20
232.4842173041012
 30
0.0
 40
2.619999999999996
100
AcDbArc
 50
97.87253162740565
 51
175.8394360634986
  0
ARC
  5
281B
330
267A
100
AcDbEntity
  8
1
 62
     7
100
AcDbCircle
 10
302.7263343342302
 20
218.024328965014
 30
0.0
 40
22.79499999999994
100
AcDbArc
 50
32.78243294609544
 51
37.65234966260008
  0
ARC
  5
281C
330
267A
100
AcDbEntity
  8
1
 62
     7
100
AcDbCircle
 10
318.2090942374624
 20
232.4842173041012
 30
0.0
 40
2.620000000000039
100
AcDbArc
 50
270.247520458243
 51
348.214424894335
  0
ARC
  5
281D
330
267A
100
AcDbEntity
  8
1
 62
     7
100
AcDbCircle
 10
302.7263343342302
 20
218.024328965014
 30
0.0
 40
19.50000000000006
100
AcDbArc
 50
33.04926536410778
 51
37.38551724458821
  0
ARC
  5
281E
330
267A
100
AcDbEntity
  8
1
 62
     7
100
AcDbCircle
 10
321.5361826860846
 20
227.7708067893486
 30
0.0
 40
2.619999999999973
100
AcDbArc
 50
82.22035771436573
 51
160.187262150456
  0
ARC
  5
281F
330
267A
100
AcDbEntity
  8
1
 62
     7
100
AcDbCircle
 10
302.7263343342302
 20
218.024328965014
 30
0.0
 40
22.795
100
AcDbArc
 50
17.13025903305279
 51
22.00017574955734
  0
ARC
  5
2820
330
267A
100
AcDbEntity
  8
1
 62
     7
100
AcDbCircle
 10
321.5361826860846
 20
227.7708067893486
 30
0.0
 40
2.62000000000004
100
AcDbArc
 50
254.5953465451953
 51
332.5622509812902
  0
ARC
  5
2821
330
267A
100
AcDbEntity
  8
1
 62
     7
100
AcDbCircle
 10
302.7263343342302
 20
218.024328965014
 30
0.0
 40
19.50000000000006
100
AcDbArc
 50
17.39709145106427
 51
21.7333433315449
  0
ARC
  5
2822
330
267A
100
AcDbEntity
  8
1
 62
     7
100
AcDbCircle
 10
323.4682307317803
 20
222.3345446015339
 30
0.0
 40
2.620000000000042
100
AcDbArc
 50
66.56818380131672
 51
144.5350882374104
  0
ARC
  5
2823
330
267A
100
AcDbEntity
  8
1
 62
     7
100
AcDbCircle
 10
302.7263343342302
 20
218.024328965014
 30
0.0
 40
22.79500000000012
100
AcDbArc
 50
1.478085120008061
 51
6.348001836514304
  0
ARC
  5
2824
330
267A
100
AcDbEntity
  8
1
 62
     7
100
AcDbCircle
 10
323.4682307317803
 20
222.3345446015339
 30
0.0
 40
2.620000000000064
100
AcDbArc
 50
238.9431726321531
 51
316.9100770682506
  0
ARC
  5
2825
330
267A
100
AcDbEntity
  8
1
 62
     7
100
AcDbCircle
 10
302.7263343342302
 20
218.024328965014
 30
0.0
 40
19.50000000000006
100
AcDbArc
 50
1.744917538020549
 51
6.081169418500807
  0
ARC
  5
2826
330
267A
100
AcDbEntity
  8
1
 62
     7
100
AcDbCircle
 10
323.861947209532
 20
216.5786134378834
 30
0.0
 40
2.620000000000095
100
AcDbArc
 50
50.91600988827215
 51
128.8829143243684
  0
ARC
  5
2827
330
267A
100
AcDbEntity
  8
1
 62
     7
100
AcDbCircle
 10
302.7263343342302
 20
218.024328965014
 30
0.0
 40
22.79500000000003
100
AcDbArc
 50
345.8259112069661
 51
350.6958279234698
  0
ARC
  5
2828
330
267A
100
AcDbEntity
  8
1
 62
     7
100
AcDbCircle
 10
323.861947209532
 20
216.5786134378834
 30
0.0
 40
2.619999999999941
100
AcDbArc
 50
223.2909987191109
 51
301.2579031552056
  0
ARC
  5
2829
330
267A
100
AcDbEntity
  8
1
 62
     7
100
AcDbCircle
 10
302.7263343342302
 20
218.024328965014
 30
0.0
 40
19.49999999999992
100
AcDbArc
 50
346.0927436249763
 51
350.4289955054571
  0
ARC
  5
282A
330
267A
100
AcDbEntity
  8
1
 62
     7
100
AcDbCircle
 10
322.6881319693176
 20
210.9299043811716
 30
0.0
 40
2.619999999999908
100
AcDbArc
 50
35.26383597523377
 51
113.23074041133
  0
ARC
  5
282B
330
267A
100
AcDbEntity
  8
1
 62
     7
100
AcDbCircle
 10
302.7263343342302
 20
218.024328965014
 30
0.0
 40
22.79499999999992
100
AcDbArc
 50
330.1737372939212
 51
335.043654010427
  0
ARC
  5
282C
330
267A
100
AcDbEntity
  8
1
 62
     7
100
AcDbCircle
 10
322.6881319693176
 20
210.9299043811716
 30
0.0
 40
2.620000000000147
100
AcDbArc
 50
207.6388248060653
 51
285.6057292421599
  0
ARC
  5
282D
330
267A
100
AcDbEntity
  8
1
 62
     7
100
AcDbCircle
 10
302.7263343342302
 20
218.024328965014
 30
0.0
 40
19.49999999999992
100
AcDbArc
 50
330.440569711934
 51
334.7768215924152
  0
ARC
  5
282E
330
267A
100
AcDbEntity
  8
1
 62
     7
100
AcDbCircle
 10
320.0338415176567
 20
205.8073563410104
 30
0.0
 40
2.61999999999983
100
AcDbArc
 50
19.61166206218766
 51
97.57856649828561
  0
ARC
  5
282F
330
267A
100
AcDbEntity
  8
1
 62
     7
100
AcDbCircle
 10
302.7263343342302
 20
218.024328965014
 30
0.0
 40
22.79500000000007
100
AcDbArc
 50
314.5215633808783
 51
319.3914800973828
  0
ARC
  5
2830
330
267A
100
AcDbEntity
  8
1
 62
     7
100
AcDbCircle
 10
320.0338415176567
 20
205.8073563410104
 30
0.0
 40
2.62000000000002
100
AcDbArc
 50
191.9866508930223
 51
269.9535553291168
  0
ARC
  5
2831
330
267A
100
AcDbEntity
  8
1
 62
     7
100
AcDbCircle
 10
302.7263343342302
 20
218.024328965014
 30
0.0
 40
19.49999999999996
100
AcDbArc
 50
314.7883957988899
 51
319.1246476793711
  0
ARC
  5
2832
330
267A
100
AcDbEntity
  8
1
 62
     7
100
AcDbCircle
 10
316.0959324347778
 20
201.590885271441
 30
0.0
 40
2.620000000000143
100
AcDbArc
 50
3.959488149144585
 51
81.92639258523948
  0
ARC
  5
2833
330
267A
100
AcDbEntity
  8
1
 62
     7
100
AcDbCircle
 10
302.7263343342302
 20
218.024328965014
 30
0.0
 40
22.79500000000007
100
AcDbArc
 50
298.869389467836
 51
303.7393061843396
  0
ARC
  5
2834
330
267A
100
AcDbEntity
  8
1
 62
     7
100
AcDbCircle
 10
316.0959324347778
 20
201.590885271441
 30
0.0
 40
2.619999999999989
100
AcDbArc
 50
176.3344769799805
 51
254.3013814160759
  0
ARC
  5
2835
330
267A
100
AcDbEntity
  8
1
 62
     7
100
AcDbCircle
 10
302.7263343342302
 20
218.024328965014
 30
0.0
 40
19.49999999999996
100
AcDbArc
 50
299.1362218858469
 51
303.4724737663278
  0
ARC
  5
2836
330
267A
100
AcDbEntity
  8
1
 62
     7
100
AcDbCircle
 10
311.1664614226231
 20
198.593207542621
 30
0.0
 40
2.620000000000143
100
AcDbArc
 50
348.3073142361014
 51
66.2742186721957
  0
ARC
  5
2837
330
267A
100
AcDbEntity
  8
1
 62
     7
100
AcDbCircle
 10
302.7263343342302
 20
218.024328965014
 30
0.0
 40
22.79499999999991
100
AcDbArc
 50
283.2172155547912
 51
288.0871322712962
  0
ARC
  5
2838
330
267A
100
AcDbEntity
  8
1
 62
     7
100
AcDbCircle
 10
311.1664614226231
 20
198.593207542621
 30
0.0
 40
2.62
100
AcDbArc
 50
160.682303066934
 51
238.6492075030314
  0
ARC
  5
2839
330
267A
100
AcDbEntity
  8
1
 62
     7
100
AcDbCircle
 10
302.7263343342302
 20
218.024328965014
 30
0.0
 40
19.49999999999996
100
AcDbArc
 50
283.4840479728025
 51
287.8202998532833
  0
ARC
  5
283A
330
267A
100
AcDbEntity
  8
1
 62
     7
100
AcDbCircle
 10
305.6110247953342
 20
197.0366471982344
 30
0.0
 40
2.620000000000134
100
AcDbArc
 50
332.6551403230597
 51
50.62204475914946
  0
ARC
  5
283B
330
267A
100
AcDbEntity
  8
1
 62
     7
100
AcDbCircle
 10
302.7263343342302
 20
218.024328965014
 30
0.0
 40
22.79499999999991
100
AcDbArc
 50
267.5650416417484
 51
272.4349583582528
  0
ARC
  5
283C
330
267A
100
AcDbEntity
  8
1
 62
     7
100
AcDbCircle
 10
305.6110247953342
 20
197.0366471982344
 30
0.0
 40
2.619999999999864
100
AcDbArc
 50
145.0301291538905
 51
222.9970335899892
  0
ARC
  5
283D
330
267A
100
AcDbEntity
  8
1
 62
     7
100
AcDbCircle
 10
302.7263343342302
 20
218.024328965014
 30
0.0
 40
19.49999999999992
100
AcDbArc
 50
267.8318740597589
 51
272.168125940241
  0
ARC
  5
283E
330
267A
100
AcDbEntity
  8
1
 62
     7
100
AcDbCircle
 10
299.8416438731263
 20
197.0366471982344
 30
0.0
 40
2.62
100
AcDbArc
 50
317.0029664100141
 51
34.96987084610709
  0
ARC
  5
283F
330
267A
100
AcDbEntity
  8
1
 62
     7
100
AcDbCircle
 10
302.7263343342302
 20
218.024328965014
 30
0.0
 40
22.79499999999996
100
AcDbArc
 50
251.9128677287037
 51
256.7827844452088
  0
ARC
  5
2840
330
267A
100
AcDbEntity
  8
1
 62
     7
100
AcDbCircle
 10
299.8416438731263
 20
197.0366471982344
 30
0.0
 40
2.619999999999985
100
AcDbArc
 50
129.3779552408492
 51
207.3448596769453
  0
ARC
  5
2841
330
267A
100
AcDbEntity
  8
1
 62
     7
100
AcDbCircle
 10
302.7263343342302
 20
218.024328965014
 30
0.0
 40
19.49999999999992
100
AcDbArc
 50
252.1797001467164
 51
256.5159520271973
  0
ARC
  5
2842
330
267A
100
AcDbEntity
  8
1
 62
     7
100
AcDbCircle
 10
294.2862072458376
 20
198.593207542621
 30
0.0
 40
2.619999999999989
100
AcDbArc
 50
301.3507924969685
 51
19.31769693306596
  0
ARC
  5
2843
330
267A
100
AcDbEntity
  8
1
 62
     7
100
AcDbCircle
 10
302.7263343342302
 20
218.024328965014
 30
0.0
 40
22.79499999999994
100
AcDbArc
 50
236.2606938156602
 51
241.1306105321661
  0
ARC
  5
2844
330
267A
100
AcDbEntity
  8
1
 62
     7
100
AcDbCircle
 10
294.2862072458376
 20
198.593207542621
 30
0.0
 40
2.620000000000079
100
AcDbArc
 50
113.7257813278057
 51
191.6926857638983
  0
ARC
  5
2845
330
267A
100
AcDbEntity
  8
1
 62
     7
100
AcDbCircle
 10
302.7263343342302
 20
218.024328965014
 30
0.0
 40
19.49999999999996
100
AcDbArc
 50
236.5275262336718
 51
240.8637781141532
  0
ARC
  5
2846
330
267A
100
AcDbEntity
  8
1
 62
     7
100
AcDbCircle
 10
289.356736233683
 20
201.590885271441
 30
0.0
 40
2.620000000000064
100
AcDbArc
 50
285.6986185839275
 51
3.66552302002095
  0
ARC
  5
2847
330
267A
100
AcDbEntity
  8
1
 62
     7
100
AcDbCircle
 10
302.7263343342302
 20
218.024328965014
 30
0.0
 40
22.79499999999996
100
AcDbArc
 50
220.6085199026168
 51
225.4784366191214
  0
ARC
  5
2848
330
267A
100
AcDbEntity
  8
1
 62
     7
100
AcDbCircle
 10
289.356736233683
 20
201.590885271441
 30
0.0
 40
2.619999999999996
100
AcDbArc
 50
98.07360741476212
 51
176.040511850857
  0
ARC
  5
2849
330
267A
100
AcDbEntity
  8
1
 62
     7
100
AcDbCircle
 10
302.7263343342302
 20
218.024328965014
 30
0.0
 40
19.49999999999995
100
AcDbArc
 50
220.8753523206288
 51
225.2116042011097
  0
ARC
  5
284A
330
267A
100
AcDbEntity
  8
1
 62
     7
100
AcDbCircle
 10
285.4188271508038
 20
205.8073563410104
 30
0.0
 40
2.620000000000037
100
AcDbArc
 50
270.0464446708831
 51
348.0133491069776
  0
ARC
  5
284B
330
267A
100
AcDbEntity
  8
1
 62
     7
100
AcDbCircle
 10
302.7263343342302
 20
218.024328965014
 30
0.0
 40
22.79499999999996
100
AcDbArc
 50
204.9563459895741
 51
209.8262627060786
  0
ARC
  5
284C
330
267A
100
AcDbEntity
  8
1
 62
     7
100
AcDbCircle
 10
285.4188271508038
 20
205.8073563410104
 30
0.0
 40
2.619999999999941
100
AcDbArc
 50
82.42143350171621
 51
160.3883379378123
  0
ARC
  5
284D
330
267A
100
AcDbEntity
  8
1
 62
     7
100
AcDbCircle
 10
302.7263343342302
 20
218.024328965014
 30
0.0
 40
19.49999999999992
100
AcDbArc
 50
205.2231784075848
 51
209.5594302880656
  0
ARC
  5
284E
330
267A
100
AcDbEntity
  8
1
 62
     7
100
AcDbCircle
 10
282.7645366991432
 20
210.9299043811716
 30
0.0
 40
2.62000000000004
100
AcDbArc
 50
254.3942707578378
 51
332.3611751939322
  0
ARC
  5
284F
330
267A
100
AcDbEntity
  8
1
 62
     7
100
AcDbCircle
 10
302.7263343342302
 20
218.024328965014
 30
0.0
 40
22.79499999999992
100
AcDbArc
 50
189.30417207653
 51
194.1740887930354
  0
ARC
  5
2850
330
267A
100
AcDbEntity
  8
1
 62
     7
100
AcDbCircle
 10
282.7645366991432
 20
210.9299043811716
 30
0.0
 40
2.619999999999993
100
AcDbArc
 50
66.76925958867503
 51
144.7361640247707
  0
ARC
  5
2851
330
267A
100
AcDbEntity
  8
1
 62
     7
100
AcDbCircle
 10
302.7263343342302
 20
218.024328965014
 30
0.0
 40
19.49999999999992
100
AcDbArc
 50
189.5710044945426
 51
193.9072563750235
  0
ARC
  5
2852
330
267A
100
AcDbEntity
  8
1
 62
     7
100
AcDbCircle
 10
281.5907214589289
 20
216.5786134378834
 30
0.0
 40
2.619999999999989
100
AcDbArc
 50
238.7420968447956
 51
316.70900128089
  0
ARC
  5
2853
330
267A
100
AcDbEntity
  8
1
 62
     7
100
AcDbCircle
 10
302.7263343342302
 20
218.024328965014
 30
0.0
 40
22.79499999999994
100
AcDbArc
 50
173.6519981634872
 51
178.5219148799919
  0
ARC
  5
2854
330
267A
100
AcDbEntity
  8
1
 62
     7
100
AcDbCircle
 10
281.5907214589289
 20
216.5786134378834
 30
0.0
 40
2.620000000000104
100
AcDbArc
 50
51.11708567563027
 51
129.0839901117277
  0
ARC
  5
2855
330
267A
100
AcDbEntity
  8
1
 62
     7
100
AcDbCircle
 10
302.7263343342302
 20
218.024328965014
 30
0.0
 40
19.5
100
AcDbArc
 50
173.9188305814991
 51
178.2550824619794
  0
ARC
  5
2856
330
267A
100
AcDbEntity
  8
1
 62
     7
100
AcDbCircle
 10
281.9844379366803
 20
222.3345446015339
 30
0.0
 40
2.620000000000056
100
AcDbArc
 50
223.0899229317516
 51
301.0568273678444
  0
ARC
  5
2857
330
267A
100
AcDbEntity
  8
1
 62
     7
100
AcDbCircle
 10
302.7263343342302
 20
218.024328965014
 30
0.0
 40
22.79499999999992
100
AcDbArc
 50
157.9998242504426
 51
162.8697409669471
  0
ARC
  5
2858
330
267A
100
AcDbEntity
  8
1
 62
     7
100
AcDbCircle
 10
281.9844379366803
 20
222.3345446015339
 30
0.0
 40
2.619999999999956
100
AcDbArc
 50
35.46491176258827
 51
113.4318161986832
  0
ARC
  5
2859
330
267A
100
AcDbEntity
  8
1
 62
     7
100
AcDbCircle
 10
302.7263343342302
 20
218.024328965014
 30
0.0
 40
19.49999999999996
100
AcDbArc
 50
158.266656668455
 51
162.6029085489354
  0
ARC
  5
285A
330
267A
100
AcDbEntity
  8
1
 62
     7
100
AcDbCircle
 10
283.9164859823759
 20
227.7708067893486
 30
0.0
 40
2.619999999999965
100
AcDbArc
 50
207.4377490187095
 51
285.4046534548028
  0
ARC
  5
285B
330
267A
100
AcDbEntity
  8
1
 62
     7
100
AcDbCircle
 10
302.7263343342302
 20
218.024328965014
 30
0.0
 40
22.79500000000005
100
AcDbArc
 50
142.3476503373999
 51
147.2175670539041
  0
ARC
  5
285C
330
267A
100
AcDbEntity
  8
1
 62
     7
100
AcDbCircle
 10
283.9164859823759
 20
227.7708067893486
 30
0.0
 40
2.620000000000139
100
AcDbArc
 50
19.8127378495436
 51
97.77964228563769
  0
ARC
  5
285D
330
267A
100
AcDbEntity
  8
1
 62
     7
100
AcDbCircle
 10
302.7263343342302
 20
218.024328965014
 30
0.0
 40
19.5
100
AcDbArc
 50
142.6144827554115
 51
146.9507346358918
  0
ARC
  5
285E
330
267A
100
AcDbEntity
  8
1
 62
     7
100
AcDbCircle
 10
287.2435744309983
 20
232.4842173041012
 30
0.0
 40
2.620000000000154
100
AcDbArc
 50
191.7855751056664
 51
269.7524795417601
  0
ARC
  5
285F
330
267A
100
AcDbEntity
  8
1
 62
     7
100
AcDbCircle
 10
302.7263343342302
 20
218.024328965014
 30
0.0
 40
22.79500000000005
100
AcDbArc
 50
126.6954764243561
 51
131.5653931408606
  0
ARC
  5
2860
330
267A
100
AcDbEntity
  8
1
 62
     7
100
AcDbCircle
 10
287.2435744309983
 20
232.4842173041012
 30
0.0
 40
2.620000000000055
100
AcDbArc
 50
4.16056393650135
 51
82.12746837259619
  0
ARC
  5
2861
330
267A
100
AcDbEntity
  8
1
 62
     7
100
AcDbCircle
 10
302.7263343342302
 20
218.024328965014
 30
0.0
 40
19.49999999999999
100
AcDbArc
 50
126.9623088423676
 51
131.2985607228492
  0
ARC
  5
2862
330
267A
100
AcDbEntity
  8
1
 62
     7
100
AcDbCircle
 10
291.7189483527296
 20
236.1252040503314
 30
0.0
 40
2.62000000000004
100
AcDbArc
 50
176.1334011926232
 51
254.100305628718
  0
ARC
  5
2863
330
267A
100
AcDbEntity
  8
1
 62
     7
100
AcDbCircle
 10
302.7263343342302
 20
218.024328965014
 30
0.0
 40
22.79500000000007
100
AcDbArc
 50
111.0433025113125
 51
115.9132192278169
  0
ARC
  5
2864
330
267A
100
AcDbEntity
  8
1
 62
     7
100
AcDbCircle
 10
291.7189483527296
 20
236.1252040503314
 30
0.0
 40
2.62000000000012
100
AcDbArc
 50
348.5083900234556
 51
66.47529445955132
  0
ARC
  5
2865
330
267A
100
AcDbEntity
  8
1
 62
     7
100
AcDbCircle
 10
302.7263343342302
 20
218.024328965014
 30
0.0
 40
19.50000000000006
100
AcDbArc
 50
111.3101349293249
 51
115.6463868098055
  0
ARC
  5
2866
330
267A
100
AcDbEntity
  8
1
 62
     7
100
AcDbCircle
 10
297.0106897372689
 20
238.4237316974771
 30
0.0
 40
2.620000000000108
100
AcDbArc
 50
160.4812272795796
 51
238.4481317156728
  0
ARC
  5
2867
330
267A
100
AcDbEntity
  8
1
 62
     7
100
AcDbCircle
 10
302.7263343342302
 20
239.209328965014
 30
0.0
 40
2.619999999999995
100
AcDbArc
 50
144.829053366532
 51
222.7959578026314
  0
ARC
  5
2868
330
267A
100
AcDbEntity
  8
1
 62
     7
100
AcDbCircle
 10
302.7263343342302
 20
218.024328965014
 30
0.0
 40
19.5
100
AcDbArc
 50
95.65796101628121
 51
99.99421289676142
  0
ARC
  5
2869
330
267A
100
AcDbEntity
  8
1
 62
     7
100
AcDbCircle
 10
297.0106897372689
 20
238.4237316974771
 30
0.0
 40
2.620000000000009
100
AcDbArc
 50
332.8562161104128
 51
50.82312054650817
  0
ARC
  5
286A
330
267A
100
AcDbEntity
  8
1
 62
     7
100
AcDbCircle
 10
302.7263343342302
 20
218.024328965014
 30
0.0
 40
22.7950000000001
100
AcDbArc
 50
95.39112859826991
 51
100.2610453147736
  0
ARC
  5
286B
330
267A
100
AcDbEntity
  8
1
 62
     7
100
AcDbCircle
 10
203.2992101783
 20
239.2068289650139
 30
0.0
 40
2.38125
100
AcDbArc
 50
63.57762546118793
 51
90.0
  0
ARC
  5
286C
330
267A
100
AcDbEntity
  8
1
 62
     7
100
AcDbCircle
 10
203.2992101783
 20
239.2068289650139
 30
0.0
 40
2.381249999999925
100
AcDbArc
 50
297.6141371293877
 51
63.57762546118793
  0
ARC
  5
286D
330
267A
100
AcDbEntity
  8
1
 62
     7
100
AcDbCircle
 10
203.2992101783
 20
239.2068289650139
 30
0.0
 40
2.381249999999989
100
AcDbArc
 50
270.0
 51
297.6141371293877
  0
ARC
  5
286E
330
267A
100
AcDbEntity
  8
1
 62
     7
100
AcDbCircle
 10
203.2992101783
 20
239.2068289650139
 30
0.0
 40
2.381249999999976
100
AcDbArc
 50
242.38586287061
 51
270.0
  0
ARC
  5
286F
330
267A
100
AcDbEntity
  8
1
 62
     7
100
AcDbCircle
 10
203.2992101783
 20
239.2068289650139
 30
0.0
 40
2.381250000000004
100
AcDbArc
 50
116.4223745388117
 51
242.38586287061
  0
ARC
  5
2870
330
267A
100
AcDbEntity
  8
1
 62
     7
100
AcDbCircle
 10
203.2992101783
 20
239.2068289650139
 30
0.0
 40
2.381250000000029
100
AcDbArc
 50
90.0
 51
116.4223745388117
  0
ARC
  5
2871
330
267A
100
AcDbEntity
  8
1
 62
     7
100
AcDbCircle
 10
203.2992101783
 20
196.836828965014
 30
0.0
 40
2.381249999999969
100
AcDbArc
 50
243.5776254611865
 51
270.0
  0
ARC
  5
2872
330
267A
100
AcDbEntity
  8
1
 62
     7
100
AcDbCircle
 10
203.2992101783
 20
196.836828965014
 30
0.0
 40
2.381250000000004
100
AcDbArc
 50
117.6141371293887
 51
243.5776254611865
  0
ARC
  5
2873
330
267A
100
AcDbEntity
  8
1
 62
     7
100
AcDbCircle
 10
203.2992101783
 20
196.836828965014
 30
0.0
 40
2.381249999999989
100
AcDbArc
 50
90.0
 51
117.6141371293887
  0
ARC
  5
2874
330
267A
100
AcDbEntity
  8
1
 62
     7
100
AcDbCircle
 10
203.2992101783
 20
196.836828965014
 30
0.0
 40
2.381249999999953
100
AcDbArc
 50
62.38586287061361
 51
90.0
  0
ARC
  5
2875
330
267A
100
AcDbEntity
  8
1
 62
     7
100
AcDbCircle
 10
203.2992101783
 20
196.836828965014
 30
0.0
 40
2.381249999999964
100
AcDbArc
 50
296.4223745388135
 51
62.38586287061361
  0
ARC
  5
2876
330
267A
100
AcDbEntity
  8
1
 62
     7
100
AcDbCircle
 10
203.2992101783
 20
196.836828965014
 30
0.0
 40
2.381249999999989
100
AcDbArc
 50
270.0
 51
296.4223745388135
  0
CIRCLE
  5
2877
330
267A
100
AcDbEntity
  8
1
 62
     7
100
AcDbCircle
 10
88.62860172359619
 20
218.024328965014
 30
0.0
 40
24.53400000000007
  0
CIRCLE
  5
2878
330
267A
100
AcDbEntity
  8
1
 62
     7
100
AcDbCircle
 10
107.6286017235962
 20
250.9332943088228
 30
0.0
 40
1.750000000000045
  0
CIRCLE
  5
2879
330
267A
100
AcDbEntity
  8
1
 62
     7
100
AcDbCircle
 10
121.5375670674048
 20
237.024328965014
 30
0.0
 40
1.75
  0
CIRCLE
  5
287A
330
267A
100
AcDbEntity
  8
1
 62
     7
100
AcDbCircle
 10
126.6286017235962
 20
218.024328965014
 30
0.0
 40
1.749999999999899
  0
CIRCLE
  5
287B
330
267A
100
AcDbEntity
  8
1
 62
     7
100
AcDbCircle
 10
121.5375670674048
 20
199.024328965014
 30
0.0
 40
1.750000000000045
  0
CIRCLE
  5
287C
330
267A
100
AcDbEntity
  8
1
 62
     7
100
AcDbCircle
 10
107.6286017235963
 20
185.1153636212049
 30
0.0
 40
1.750000000000045
  0
CIRCLE
  5
287D
330
267A
100
AcDbEntity
  8
1
 62
     7
100
AcDbCircle
 10
88.62860172359637
 20
180.024328965014
 30
0.0
 40
1.75
  0
CIRCLE
  5
287E
330
267A
100
AcDbEntity
  8
1
 62
     7
100
AcDbCircle
 10
69.6286017235964
 20
185.1153636212049
 30
0.0
 40
1.750000000000033
  0
CIRCLE
  5
287F
330
267A
100
AcDbEntity
  8
1
 62
     7
100
AcDbCircle
 10
55.71963637978759
 20
199.024328965014
 30
0.0
 40
1.750000000000019
  0
CIRCLE
  5
2880
330
267A
100
AcDbEntity
  8
1
 62
     7
100
AcDbCircle
 10
50.62860172359632
 20
218.024328965014
 30
0.0
 40
1.75
  0
CIRCLE
  5
2881
330
267A
100
AcDbEntity
  8
1
 62
     7
100
AcDbCircle
 10
55.71963637978759
 20
237.024328965014
 30
0.0
 40
1.749999999999992
  0
CIRCLE
  5
2882
330
267A
100
AcDbEntity
  8
1
 62
     7
100
AcDbCircle
 10
69.62860172359629
 20
250.9332943088228
 30
0.0
 40
1.750000000000019
  0
CIRCLE
  5
2883
330
267A
100
AcDbEntity
  8
1
 62
     7
100
AcDbCircle
 10
88.62860172359619
 20
256.0243289650141
 30
0.0
 40
1.75
  0
CIRCLE
  5
2884
330
267A
100
AcDbEntity
  8
1
  6
CENTER
 62
     3
100
AcDbCircle
 10
88.62860172359619
 20
218.024328965014
 30
0.0
 40
38.0
  0
CIRCLE
  5
2885
330
267A
100
AcDbEntity
  8
1
 62
     7
100
AcDbCircle
 10
88.62860172359619
 20
218.024328965014
 30
0.0
 40
35.0
  0
CIRCLE
  5
2886
330
267A
100
AcDbEntity
  8
1
 62
     7
100
AcDbCircle
 10
88.62860172359619
 20
218.024328965014
 30
0.0
 40
40.99999999999977
  0
CIRCLE
  5
2887
330
267A
100
AcDbEntity
  8
1
 62
     7
100
AcDbCircle
 10
310.7497247324083
 20
188.0806283500529
 30
0.0
 40
1.749999999999899
  0
CIRCLE
  5
2888
330
267A
100
AcDbEntity
  8
1
 62
     3
100
AcDbCircle
 10
310.7497247324083
 20
188.0806283500529
 30
0.0
 40
1.499999999999899
  0
CIRCLE
  5
2889
330
267A
100
AcDbEntity
  8
1
 62
     7
100
AcDbCircle
 10
310.7497247324083
 20
188.0806283500529
 30
0.0
 40
1.199999999999902
  0
CIRCLE
  5
288A
330
267A
100
AcDbEntity
  8
1
 62
     3
100
AcDbCircle
 10
294.702943936052
 20
247.9680295799751
 30
0.0
 40
1.5
  0
CIRCLE
  5
288B
330
267A
100
AcDbEntity
  8
1
 62
     7
100
AcDbCircle
 10
294.702943936052
 20
247.9680295799751
 30
0.0
 40
1.199999999999932
  0
CIRCLE
  5
288C
330
267A
100
AcDbEntity
  8
1
 62
     7
100
AcDbCircle
 10
294.702943936052
 20
247.9680295799751
 30
0.0
 40
1.75
  0
CIRCLE
  5
288D
330
267A
100
AcDbEntity
  8
1
 62
     7
100
AcDbCircle
 10
318.2263343342302
 20
244.8711164823317
 30
0.0
 40
1.750000000000019
  0
CIRCLE
  5
288E
330
267A
100
AcDbEntity
  8
1
 62
     7
100
AcDbCircle
 10
329.5731218515479
 20
233.524328965014
 30
0.0
 40
1.749999999999992
  0
CIRCLE
  5
288F
330
267A
100
AcDbEntity
  8
1
 62
     7
100
AcDbCircle
 10
333.7263343342304
 20
218.024328965014
 30
0.0
 40
1.749999999999899
  0
CIRCLE
  5
2890
330
267A
100
AcDbEntity
  8
1
 62
     7
100
AcDbCircle
 10
329.5731218515479
 20
202.5243289650139
 30
0.0
 40
1.749999999999938
  0
CIRCLE
  5
2891
330
267A
100
AcDbEntity
  8
1
 62
     7
100
AcDbCircle
 10
318.2263343342302
 20
191.1775414476964
 30
0.0
 40
1.750000000000033
  0
CIRCLE
  5
2892
330
267A
100
AcDbEntity
  8
1
 62
     7
100
AcDbCircle
 10
302.7263343342302
 20
187.024328965014
 30
0.0
 40
1.75
  0
CIRCLE
  5
2893
330
267A
100
AcDbEntity
  8
1
 62
     7
100
AcDbCircle
 10
287.2263343342302
 20
191.1775414476966
 30
0.0
 40
1.749999999999944
  0
CIRCLE
  5
2894
330
267A
100
AcDbEntity
  8
1
 62
     7
100
AcDbCircle
 10
275.8795468169128
 20
202.5243289650139
 30
0.0
 40
1.749999999999938
  0
CIRCLE
  5
2895
330
267A
100
AcDbEntity
  8
1
 62
     7
100
AcDbCircle
 10
271.7263343342305
 20
218.024328965014
 30
0.0
 40
1.75
  0
CIRCLE
  5
2896
330
267A
100
AcDbEntity
  8
1
 62
     7
100
AcDbCircle
 10
275.8795468169128
 20
233.524328965014
 30
0.0
 40
1.749999999999992
  0
CIRCLE
  5
2897
330
267A
100
AcDbEntity
  8
1
 62
     7
100
AcDbCircle
 10
287.2263343342302
 20
244.8711164823317
 30
0.0
 40
1.750000000000045
  0
CIRCLE
  5
2898
330
267A
100
AcDbEntity
  8
1
 62
     7
100
AcDbCircle
 10
302.7263343342302
 20
249.024328965014
 30
0.0
 40
1.75
  0
CIRCLE
  5
2899
330
267A
100
AcDbEntity
  8
1
  6
CENTER
 62
     3
100
AcDbCircle
 10
302.7263343342302
 20
218.024328965014
 30
0.0
 40
31.0
  0
CIRCLE
  5
289A
330
267A
100
AcDbEntity
  8
1
 62
     7
100
AcDbCircle
 10
302.7263349895138
 20
218.0213152431861
 30
0.0
 40
34.99999947446668
  0
CIRCLE
  5
289B
330
267A
100
AcDbEntity
  8
1
 62
     7
100
AcDbCircle
 10
302.7263349895138
 20
218.0213152431861
 30
0.0
 40
25.79999961262277
  0
CIRCLE
  5
289C
330
267A
100
AcDbEntity
  8
1
 62
     7
100
AcDbCircle
 10
302.7263349895138
 20
218.0213152431861
 30
0.0
 40
24.85099962673336
  0
CIRCLE
  5
289D
330
267A
100
AcDbEntity
  8
1
 62
     7
100
AcDbCircle
 10
302.7263349895138
 20
218.0213152431861
 30
0.0
 40
10.49999984251756
  0
CIRCLE
  5
289E
330
267A
100
AcDbEntity
  8
1
 62
     7
100
AcDbCircle
 10
302.7263349895138
 20
218.0213152431861
 30
0.0
 40
13.99999978993907
  0
CIRCLE
  5
289F
330
267A
100
AcDbEntity
  8
0
 62
     7
100
AcDbCircle
 10
300.8713350173882
 20
206.5763154151321
 30
0.0
 40
0.6999999894794656
  0
CIRCLE
  5
28A0
330
267A
100
AcDbEntity
  8
0
 62
     7
100
AcDbCircle
 10
304.5813349616443
 20
206.5763154151321
 30
0.0
 40
0.6999999894831035
  0
CIRCLE
  5
28A1
330
267A
100
AcDbEntity
  8
1
 62
     7
100
AcDbCircle
 10
302.7263343342302
 20
218.024328965014
 30
0.0
 40
24.53650000000019
  0
CIRCLE
  5
28A2
330
267A
100
AcDbEntity
  8
1
 62
     7
100
AcDbCircle
 10
302.7263343342302
 20
218.024328965014
 30
0.0
 40
23.31750000000009
  0
CIRCLE
  5
28A3
330
267A
100
AcDbEntity
  8
1
 62
     7
100
AcDbCircle
 10
302.7263343342302
 20
218.024328965014
 30
0.0
 40
17.78000000000009
  0
CIRCLE
  5
28A4
330
267A
100
AcDbEntity
  8
1
 62
     7
100
AcDbCircle
 10
302.7263343342302
 20
218.024328965014
 30
0.0
 40
19.07500000000007
  0
ARC
  5
28A5
330
267A
100
AcDbEntity
  8
1
 62
     7
100
AcDbCircle
 10
180.8082101783
 20
183.224328965014
 30
0.0
 40
0.2000000000000171
100
AcDbArc
 50
270.0
 51
0.0
  0
ARC
  5
28A6
330
267A
100
AcDbEntity
  8
1
 62
     7
100
AcDbCircle
 10
182.6092101782998
 20
191.8893289650139
 30
0.0
 40
1.201041214946428
100
AcDbArc
 50
87.61405596961138
 51
177.6140559696109
  0
ARC
  5
28A7
330
267A
100
AcDbEntity
  8
1
 62
     7
100
AcDbCircle
 10
182.5082101783
 20
191.990328965014
 30
0.0
 40
1.500833101980264
100
AcDbArc
 50
88.09084756700434
 51
178.0908475670042
  0
ARC
  5
28A8
330
267A
100
AcDbEntity
  8
1
 62
     7
100
AcDbCircle
 10
182.6092101782998
 20
191.8893289650139
 30
0.0
 40
1.201041214946428
100
AcDbArc
 50
87.61405596961138
 51
177.6140559696109
  0
ARC
  5
28A9
330
267A
100
AcDbEntity
  8
1
 62
     7
100
AcDbCircle
 10
182.5082101783
 20
191.990328965014
 30
0.0
 40
1.500833101980264
100
AcDbArc
 50
88.09084756700434
 51
178.0908475670042
  0
ARC
  5
28AA
330
267A
100
AcDbEntity
  8
1
 62
     7
100
AcDbCircle
 10
180.8082101783
 20
252.8243289650141
 30
0.0
 40
0.200000000000049
100
AcDbArc
 50
0.0
 51
90.0
  0
ARC
  5
28AB
330
267A
100
AcDbEntity
  8
1
 62
     7
100
AcDbCircle
 10
182.6092101782998
 20
244.1593289650139
 30
0.0
 40
1.201041214946426
100
AcDbArc
 50
182.3859440303884
 51
272.3859440303886
  0
ARC
  5
28AC
330
267A
100
AcDbEntity
  8
1
 62
     7
100
AcDbCircle
 10
182.5082101783
 20
244.058328965014
 30
0.0
 40
1.500833101980409
100
AcDbArc
 50
181.9091524329953
 51
271.9091524329956
  0
ARC
  5
28AD
330
267A
100
AcDbEntity
  8
1
 62
     7
100
AcDbCircle
 10
199.835009313959
 20
237.7218289650139
 30
0.0
 40
0.2000000000000349
100
AcDbArc
 50
172.7514957686555
 51
270.0
  0
ARC
  5
28AE
330
267A
100
AcDbEntity
  8
1
 62
     7
100
AcDbCircle
 10
200.0079601783001
 20
240.6168289650139
 30
0.0
 40
0.2000000000000206
100
AcDbArc
 50
90.0
 51
180.0
  0
ARC
  5
28AF
330
267A
100
AcDbEntity
  8
1
 62
     7
100
AcDbCircle
 10
200.0079601783001
 20
195.426828965014
 30
0.0
 40
0.2000000000000455
100
AcDbArc
 50
180.0
 51
270.0
  0
ARC
  5
28B0
330
267A
100
AcDbEntity
  8
1
 62
     7
100
AcDbCircle
 10
199.835009313959
 20
198.321828965014
 30
0.0
 40
0.1999999999999886
100
AcDbArc
 50
90.0
 51
187.2485042313439
  0
TEXT
  5
28BA
330
267A
100
AcDbEntity
  8
1
 62
     3
100
AcDbText
 10
65.97800235241418
 20
107.0906889588135
 30
0.0
 40
2.1
  1
 
 41
0.9
100
AcDbText
  0
TEXT
  5
28C0
330
267A
100
AcDbEntity
  8
1
 62
     0
100
AcDbText
 10
128.1246668672906
 20
147.9283012434673
 30
0.0
 40
5.099039840686186
  1
REMARKS:  M.H.C = MINIMUM HOUSING CLEARANCE
 41
0.9
 72
     1
 11
194.678609627887
 21
150.4778211638105
 31
0.0
100
AcDbText
 73
     2
  0
TEXT
  5
28C1
330
267A
100
AcDbEntity
  8
1
 62
     0
100
AcDbText
 10
271.4283118948754
 20
135.9644880243642
 30
0.0
 40
6.375024841305161
  1
SHF-20-30-2A-GR.dxf
 41
0.9
100
AcDbText
  0
INSERT
  5
2936
330
267A
100
AcDbEntity
  8
AM_0
100
AcDbBlockReference
  2
HD Logo
 10
236.9935335333897
 20
68.42592941107584
 30
0.0
  0
INSERT
  5
294C
330
267A
100
AcDbEntity
  8
AM_0
100
AcDbBlockReference
  2
Harmonic Drive LLC
 10
-20.69661229191422
 20
371.1443542190333
 30
0.0
 41
1.821085657387925
 42
1.821085657387925
 43
1.821085657387925
  0
INSERT
  5
2960
330
267A
100
AcDbEntity
  8
AM_0
100
AcDbBlockReference
  2
NTC
 10
0.9702119140861427
 20
112.6166139911807
 30
0.0
 41
0.6
 42
0.6
 43
0.6
  0
ENDSEC
  0
SECTION
  2
OBJECTS
  0
DICTIONARY
  5
2668
330
0
100
AcDbDictionary
281
     1
  3
ACAD_GROUP
350
2669
  3
ACAD_LAYOUT
350
2675
  3
ACAD_MLINESTYLE
350
2672
  3
ACAD_PLOTSETTINGS
350
2674
  3
ACAD_PLOTSTYLENAME
350
266A
  3
AcDbVariableDictionary
350
294D
  0
DICTIONARY
  5
2669
102
{ACAD_REACTORS
330
2668
102
}
330
2668
100
AcDbDictionary
281
     1
  0
DICTIONARY
  5
2675
102
{ACAD_REACTORS
330
2668
102
}
330
2668
100
AcDbDictionary
281
     1
  3
Layout1
350
2679
  3
Model
350
267D
  0
DICTIONARY
  5
2672
102
{ACAD_REACTORS
330
2668
102
}
330
2668
100
AcDbDictionary
281
     1
  3
Standard
350
2673
  0
DICTIONARY
  5
2674
102
{ACAD_REACTORS
330
2668
102
}
330
2668
100
AcDbDictionary
281
     1
  0
ACDBDICTIONARYWDFLT
  5
266A
102
{ACAD_REACTORS
330
2668
102
}
330
2668
100
AcDbDictionary
281
     1
  3
Normal
350
266B
100
AcDbDictionaryWithDefault
340
266B
  0
DICTIONARY
  5
294D
102
{ACAD_REACTORS
330
2668
102
}
330
2668
100
AcDbDictionary
281
     1
  3
DIMASSOC
350
294E
  0
LAYOUT
  5
2679
102
{ACAD_REACTORS
330
2675
102
}
330
2675
100
AcDbPlotSettings
  1

  2
\\SERVER9\HP LaserJet 5100 PCL 5e
  4

  6

 40
0.0
 41
0.0
 42
0.0
 43
0.0
 44
0.0
 45
0.0
 46
0.0
 47
0.0
 48
0.0
 49
0.0
140
0.0
141
0.0
142
1.0
143
1.0
 70
   688
 72
     0
 73
     0
 74
     5
  7

 75
    16
147
1.0
148
0.0
149
0.0
100
AcDbLayout
  1
Layout1
 70
     1
 71
     1
 10
0.0
 20
0.0
 11
420.0
 21
297.0
 12
0.0
 22
0.0
 32
0.0
 14
1.000000000000000E+20
 24
1.000000000000000E+20
 34
1.000000000000000E+20
 15
-1.000000000000000E+20
 25
-1.000000000000000E+20
 35
-1.000000000000000E+20
146
0.0
 13
0.0
 23
0.0
 33
0.0
 16
1.0
 26
0.0
 36
0.0
 17
0.0
 27
1.0
 37
0.0
 76
     0
330
2676
  0
LAYOUT
  5
267D
102
{ACAD_REACTORS
330
2675
102
}
330
2675
100
AcDbPlotSettings
  1

  2
\\SERVER9\HP LaserJet 5100 PCL 5e
  4

  6

 40
0.0
 41
0.0
 42
0.0
 43
0.0
 44
0.0
 45
0.0
 46
0.0
 47
0.0
 48
0.0
 49
0.0
140
0.0
141
0.0
142
1.0
143
1.0
 70
  1712
 72
     0
 73
     0
 74
     0
  7

 75
     0
147
1.0
148
0.0
149
0.0
100
AcDbLayout
  1
Model
 70
     1
 71
     0
 10
0.0
 20
0.0
 11
12.0
 21
9.0
 12
0.0
 22
0.0
 32
0.0
 14
0.0
 24
0.0
 34
0.0
 15
0.0
 25
0.0
 35
0.0
146
0.0
 13
0.0
 23
0.0
 33
0.0
 16
1.0
 26
0.0
 36
0.0
 17
0.0
 27
1.0
 37
0.0
 76
     0
330
267A
  0
MLINESTYLE
  5
2673
102
{ACAD_REACTORS
330
2672
102
}
330
2672
100
AcDbMlineStyle
  2
STANDARD
 70
     0
  3

 62
   256
 51
90.0
 52
90.0
 71
     2
 49
0.5
 62
   256
  6
BYLAYER
 49
-0.5
 62
   256
  6
BYLAYER
  0
ACDBPLACEHOLDER
  5
266B
102
{ACAD_REACTORS
330
266A
102
}
330
266A
  0
DICTIONARYVAR
  5
294E
102
{ACAD_REACTORS
330
294D
102
}
330
294D
100
DictionaryVariables
280
     0
  1
1
  0
ENDSEC
  0
EOF
