  0
SECTION
  2
HEADER
  9
$ACADVER
  1
AC1015
  9
$ACADMAINTVER
 70
    13
  9
$DWGCODEPAGE
  3
ANSI_1252
  9
$INSBASE
 10
0.0
 20
0.0
 30
0.0
  9
$EXTMIN
 10
-95.63936425561571
 20
-78.73761487927999
 30
0.0
  9
$EXTMAX
 10
627.7246475261908
 20
565.6563343760522
 30
0.0
  9
$LIMMIN
 10
0.0
 20
0.0
  9
$LIMMAX
 10
420.0
 20
297.0
  9
$ORTHOMODE
 70
     1
  9
$REGENMODE
 70
     1
  9
$FILLMODE
 70
     1
  9
$QTEXTMODE
 70
     0
  9
$MIRRTEXT
 70
     1
  9
$LTSCALE
 40
1.0
  9
$ATTMODE
 70
     1
  9
$TEXTSIZE
 40
2.5
  9
$TRACEWID
 40
1.0
  9
$TEXTSTYLE
  7
STANDARD
  9
$CLAYER
  8
AM_0
  9
$CELTYPE
  6
ByLayer
  9
$CECOLOR
 62
   256
  9
$CELTSCALE
 40
1.0
  9
$DISPSILH
 70
     0
  9
$DIMSCALE
 40
1.0
  9
$DIMASZ
 40
2.5
  9
$DIMEXO
 40
0.625
  9
$DIMDLI
 40
3.75
  9
$DIMRND
 40
0.0
  9
$DIMDLE
 40
0.0
  9
$DIMEXE
 40
1.25
  9
$DIMTP
 40
0.0
  9
$DIMTM
 40
0.0
  9
$DIMTXT
 40
2.5
  9
$DIMCEN
 40
2.5
  9
$DIMTSZ
 40
0.0
  9
$DIMTOL
 70
     0
  9
$DIMLIM
 70
     0
  9
$DIMTIH
 70
     0
  9
$DIMTOH
 70
     0
  9
$DIMSE1
 70
     0
  9
$DIMSE2
 70
     0
  9
$DIMTAD
 70
     1
  9
$DIMZIN
 70
     8
  9
$DIMBLK
  1

  9
$DIMASO
 70
     1
  9
$DIMSHO
 70
     1
  9
$DIMPOST
  1

  9
$DIMAPOST
  1

  9
$DIMALT
 70
     0
  9
$DIMALTD
 70
     3
  9
$DIMALTF
 40
0.03937007874016
  9
$DIMLFAC
 40
1.0
  9
$DIMTOFL
 70
     1
  9
$DIMTVP
 40
0.0
  9
$DIMTIX
 70
     0
  9
$DIMSOXD
 70
     0
  9
$DIMSAH
 70
     0
  9
$DIMBLK1
  1

  9
$DIMBLK2
  1

  9
$DIMSTYLE
  2
ISO-25
  9
$DIMCLRD
 70
     0
  9
$DIMCLRE
 70
     0
  9
$DIMCLRT
 70
     0
  9
$DIMTFAC
 40
1.0
  9
$DIMGAP
 40
0.625
  9
$DIMJUST
 70
     0
  9
$DIMSD1
 70
     0
  9
$DIMSD2
 70
     0
  9
$DIMTOLJ
 70
     1
  9
$DIMTZIN
 70
     0
  9
$DIMALTZ
 70
     0
  9
$DIMALTTZ
 70
     0
  9
$DIMUPT
 70
     0
  9
$DIMDEC
 70
     4
  9
$DIMTDEC
 70
     4
  9
$DIMALTU
 70
     2
  9
$DIMALTTD
 70
     2
  9
$DIMTXSTY
  7
STANDARD
  9
$DIMAUNIT
 70
     0
  9
$DIMADEC
 70
     0
  9
$DIMALTRND
 40
0.0
  9
$DIMAZIN
 70
     0
  9
$DIMDSEP
 70
    46
  9
$DIMATFIT
 70
     3
  9
$DIMFRAC
 70
     0
  9
$DIMLDRBLK
  1

  9
$DIMLUNIT
 70
     2
  9
$DIMLWD
 70
    -2
  9
$DIMLWE
 70
    -2
  9
$DIMTMOVE
 70
     0
  9
$LUNITS
 70
     2
  9
$LUPREC
 70
     2
  9
$SKETCHINC
 40
1.0
  9
$FILLETRAD
 40
2.5
  9
$AUNITS
 70
     0
  9
$AUPREC
 70
     0
  9
$MENU
  1
.
  9
$ELEVATION
 40
0.0
  9
$PELEVATION
 40
0.0
  9
$THICKNESS
 40
0.0
  9
$LIMCHECK
 70
     0
  9
$CHAMFERA
 40
2.5
  9
$CHAMFERB
 40
2.5
  9
$CHAMFERC
 40
0.0
  9
$CHAMFERD
 40
0.0
  9
$SKPOLY
 70
     0
  9
$TDCREATE
 40
2452801.911773183
  9
$TDUCREATE
 40
2452802.078439849
  9
$TDUPDATE
 40
2453865.645582129
  9
$TDUUPDATE
 40
2453865.812248796
  9
$TDINDWG
 40
0.0580494097
  9
$TDUSRTIMER
 40
0.0580492245
  9
$USRTIMER
 70
     1
  9
$ANGBASE
 50
0.0
  9
$ANGDIR
 70
     0
  9
$PDMODE
 70
     0
  9
$PDSIZE
 40
0.0
  9
$PLINEWID
 40
0.0
  9
$SPLFRAME
 70
     0
  9
$SPLINETYPE
 70
     6
  9
$SPLINESEGS
 70
     8
  9
$HANDSEED
  5
3057
  9
$SURFTAB1
 70
     6
  9
$SURFTAB2
 70
     6
  9
$SURFTYPE
 70
     6
  9
$SURFU
 70
     6
  9
$SURFV
 70
     6
  9
$UCSBASE
  2

  9
$UCSNAME
  2

  9
$UCSORG
 10
0.0
 20
0.0
 30
0.0
  9
$UCSXDIR
 10
1.0
 20
0.0
 30
0.0
  9
$UCSYDIR
 10
0.0
 20
1.0
 30
0.0
  9
$UCSORTHOREF
  2

  9
$UCSORTHOVIEW
 70
     0
  9
$UCSORGTOP
 10
0.0
 20
0.0
 30
0.0
  9
$UCSORGBOTTOM
 10
0.0
 20
0.0
 30
0.0
  9
$UCSORGLEFT
 10
0.0
 20
0.0
 30
0.0
  9
$UCSORGRIGHT
 10
0.0
 20
0.0
 30
0.0
  9
$UCSORGFRONT
 10
0.0
 20
0.0
 30
0.0
  9
$UCSORGBACK
 10
0.0
 20
0.0
 30
0.0
  9
$PUCSBASE
  2

  9
$PUCSNAME
  2

  9
$PUCSORG
 10
0.0
 20
0.0
 30
0.0
  9
$PUCSXDIR
 10
1.0
 20
0.0
 30
0.0
  9
$PUCSYDIR
 10
0.0
 20
1.0
 30
0.0
  9
$PUCSORTHOREF
  2

  9
$PUCSORTHOVIEW
 70
     0
  9
$PUCSORGTOP
 10
0.0
 20
0.0
 30
0.0
  9
$PUCSORGBOTTOM
 10
0.0
 20
0.0
 30
0.0
  9
$PUCSORGLEFT
 10
0.0
 20
0.0
 30
0.0
  9
$PUCSORGRIGHT
 10
0.0
 20
0.0
 30
0.0
  9
$PUCSORGFRONT
 10
0.0
 20
0.0
 30
0.0
  9
$PUCSORGBACK
 10
0.0
 20
0.0
 30
0.0
  9
$USERI1
 70
     0
  9
$USERI2
 70
     0
  9
$USERI3
 70
     0
  9
$USERI4
 70
     0
  9
$USERI5
 70
     0
  9
$USERR1
 40
0.0
  9
$USERR2
 40
0.0
  9
$USERR3
 40
0.0
  9
$USERR4
 40
0.0
  9
$USERR5
 40
0.0
  9
$WORLDVIEW
 70
     1
  9
$SHADEDGE
 70
     3
  9
$SHADEDIF
 70
    70
  9
$TILEMODE
 70
     1
  9
$MAXACTVP
 70
    64
  9
$PINSBASE
 10
0.0
 20
0.0
 30
0.0
  9
$PLIMCHECK
 70
     0
  9
$PEXTMIN
 10
1.000000000000000E+20
 20
1.000000000000000E+20
 30
1.000000000000000E+20
  9
$PEXTMAX
 10
-1.000000000000000E+20
 20
-1.000000000000000E+20
 30
-1.000000000000000E+20
  9
$PLIMMIN
 10
0.0
 20
0.0
  9
$PLIMMAX
 10
420.0
 20
297.0
  9
$UNITMODE
 70
     0
  9
$VISRETAIN
 70
     1
  9
$PLINEGEN
 70
     0
  9
$PSLTSCALE
 70
     1
  9
$TREEDEPTH
 70
  3020
  9
$CMLSTYLE
  2
Standard
  9
$CMLJUST
 70
     0
  9
$CMLSCALE
 40
1.0
  9
$PROXYGRAPHICS
 70
     1
  9
$MEASUREMENT
 70
     0
  9
$CELWEIGHT
370
    -1
  9
$ENDCAPS
280
     0
  9
$JOINSTYLE
280
     0
  9
$LWDISPLAY
290
     0
  9
$INSUNITS
 70
     0
  9
$HYPERLINKBASE
  1

  9
$STYLESHEET
  1

  9
$XEDIT
290
     1
  9
$CEPSNTYPE
380
     0
  9
$PSTYLEMODE
290
     1
  9
$FINGERPRINTGUID
  2
{6AB124D8-4C6B-4235-84F1-50B9AB61C997}
  9
$VERSIONGUID
  2
{9C5E6488-B669-44B8-969F-29E5BC6593DD}
  9
$EXTNAMES
290
     1
  9
$PSVPSCALE
 40
0.0
  9
$OLESTARTUP
290
     0
  0
ENDSEC
  0
SECTION
  2
CLASSES
  0
CLASS
  1
ACDBDICTIONARYWDFLT
  2
AcDbDictionaryWithDefault
  3
AutoCAD 2000
 90
        0
280
     0
281
     0
  0
CLASS
  1
ACDBPLACEHOLDER
  2
AcDbPlaceHolder
  3
AutoCAD 2000
 90
        0
280
     0
281
     0
  0
CLASS
  1
LAYOUT
  2
AcDbLayout
  3
AutoCAD 2000
 90
        0
280
     0
281
     0
  0
CLASS
  1
DICTIONARYVAR
  2
AcDbDictionaryVar
  3
AutoCAD 2000
 90
        0
280
     0
281
     0
  0
ENDSEC
  0
SECTION
  2
TABLES
  0
TABLE
  2
VPORT
  5
2922
330
0
100
AcDbSymbolTable
 70
     3
  0
VPORT
  5
3056
330
2922
100
AcDbSymbolTableRecord
100
AcDbViewportTableRecord
  2
*Active
 70
     0
 10
0.0
 20
0.0
 11
1.0
 21
1.0
 12
356.1254535373784
 22
353.7106857646748
 13
0.0
 23
0.0
 14
2.5
 24
2.5
 15
10.0
 25
10.0
 16
0.0
 26
0.0
 36
1.0
 17
0.0
 27
0.0
 37
0.0
 40
579.7018543202841
 41
1.182835820895522
 42
50.0
 43
0.0
 44
0.0
 50
0.0
 51
0.0
 71
     0
 72
   100
 73
     1
 74
     3
 75
     0
 76
     0
 77
     0
 78
     0
281
     0
 65
     1
110
0.0
120
0.0
130
0.0
111
1.0
121
0.0
131
0.0
112
0.0
122
1.0
132
0.0
 79
     0
146
0.0
  0
ENDTAB
  0
TABLE
  2
LTYPE
  5
291F
330
0
100
AcDbSymbolTable
 70
     4
  0
LTYPE
  5
292D
330
291F
100
AcDbSymbolTableRecord
100
AcDbLinetypeTableRecord
  2
ByBlock
 70
     0
  3

 72
    65
 73
     0
 40
0.0
  0
LTYPE
  5
292E
330
291F
100
AcDbSymbolTableRecord
100
AcDbLinetypeTableRecord
  2
ByLayer
 70
     0
  3

 72
    65
 73
     0
 40
0.0
  0
LTYPE
  5
292F
330
291F
100
AcDbSymbolTableRecord
100
AcDbLinetypeTableRecord
  2
CONTINUOUS
 70
     0
  3
Solid line
 72
    65
 73
     0
 40
0.0
  0
LTYPE
  5
293E
330
291F
100
AcDbSymbolTableRecord
100
AcDbLinetypeTableRecord
  2
CENTER
 70
     0
  3
Center ____ _ ____ _ ____ _ ____ _ ____ _ ____
 72
    65
 73
     4
 40
50.8
 49
31.75
 74
     0
 49
-6.349999999999997
 74
     0
 49
6.349999999999997
 74
     0
 49
-6.349999999999997
 74
     0
  0
LTYPE
  5
293F
330
291F
100
AcDbSymbolTableRecord
100
AcDbLinetypeTableRecord
  2
DIVIDE
 70
     0
  3
__ . . __ . . 
 72
    65
 73
     6
 40
15.6112353817806
 49
6.244494152712237
 74
     0
 49
-3.122247076356118
 74
     0
 49
0.0
 74
     0
 49
-3.122247076356118
 74
     0
 49
0.0
 74
     0
 49
-3.122247076356118
 74
     0
  0
LTYPE
  5
2940
330
291F
100
AcDbSymbolTableRecord
100
AcDbLinetypeTableRecord
  2
PHANTOM
 70
     0
  3
_____ _ _ _____ _ _ 
 72
    65
 73
     6
 40
31.22247076356121
 49
15.6112353817806
 74
     0
 49
-3.122247076356118
 74
     0
 49
3.122247076356118
 74
     0
 49
-3.122247076356118
 74
     0
 49
3.122247076356118
 74
     0
 49
-3.122247076356118
 74
     0
  0
ENDTAB
  0
TABLE
  2
LAYER
  5
291C
330
0
100
AcDbSymbolTable
 70
     5
  0
LAYER
  5
292A
330
291C
100
AcDbSymbolTableRecord
100
AcDbLayerTableRecord
  2
0
 70
     0
 62
     7
  6
CONTINUOUS
370
    -3
390
2929
  0
LAYER
  5
293C
330
291C
100
AcDbSymbolTableRecord
100
AcDbLayerTableRecord
  2
AM_0
 70
     0
 62
     7
  6
CONTINUOUS
370
    -3
390
2929
  0
LAYER
  5
2941
330
291C
100
AcDbSymbolTableRecord
100
AcDbLayerTableRecord
  2
1
 70
     0
 62
     7
  6
CONTINUOUS
370
    -3
390
2929
  0
LAYER
  5
2942
330
291C
100
AcDbSymbolTableRecord
100
AcDbLayerTableRecord
  2
2
 70
     0
 62
     7
  6
CONTINUOUS
370
    -3
390
2929
  0
LAYER
  5
2BED
330
291C
100
AcDbSymbolTableRecord
100
AcDbLayerTableRecord
  2
LAYER_1
 70
     0
 62
     5
  6
CONTINUOUS
370
    -3
390
2929
  0
ENDTAB
  0
TABLE
  2
STYLE
  5
291D
330
0
100
AcDbSymbolTable
 70
     1
  0
STYLE
  5
292B
330
291D
100
AcDbSymbolTableRecord
100
AcDbTextStyleTableRecord
  2
STANDARD
 70
     0
 40
0.0
 41
1.0
 50
0.0
 71
     0
 42
2.5
  3
ISOCP.SHX
  4

  0
ENDTAB
  0
TABLE
  2
VIEW
  5
2920
330
0
100
AcDbSymbolTable
 70
     0
  0
ENDTAB
  0
TABLE
  2
UCS
  5
2921
330
0
100
AcDbSymbolTable
 70
     0
  0
ENDTAB
  0
TABLE
  2
APPID
  5
2923
330
0
100
AcDbSymbolTable
 70
    13
  0
APPID
  5
292C
330
2923
100
AcDbSymbolTableRecord
100
AcDbRegAppTableRecord
  2
ACAD
 70
     0
  0
APPID
  5
2943
330
2923
100
AcDbSymbolTableRecord
100
AcDbRegAppTableRecord
  2
GENIUS_GENDIM_13
 70
     0
  0
APPID
  5
2944
330
2923
100
AcDbSymbolTableRecord
100
AcDbRegAppTableRecord
  2
GENIUS_GENDTOL_13
 70
     0
  0
APPID
  5
2945
330
2923
100
AcDbSymbolTableRecord
100
AcDbRegAppTableRecord
  2
GENIUS_GE3DTOL_13
 70
     0
  0
APPID
  5
2946
330
2923
100
AcDbSymbolTableRecord
100
AcDbRegAppTableRecord
  2
MCAD_NO_VIS
 70
     0
  0
APPID
  5
2947
330
2923
100
AcDbSymbolTableRecord
100
AcDbRegAppTableRecord
  2
ACAD_TEMP_GRAPHIC
 70
     0
  0
APPID
  5
2948
330
2923
100
AcDbSymbolTableRecord
100
AcDbRegAppTableRecord
  2
AD_DRAW
 70
     0
  0
APPID
  5
2949
330
2923
100
AcDbSymbolTableRecord
100
AcDbRegAppTableRecord
  2
ACATTRIBSERVICES
 70
     0
  0
APPID
  5
294A
330
2923
100
AcDbSymbolTableRecord
100
AcDbRegAppTableRecord
  2
ASURF_PCURVE_APPNAME
 70
     0
  0
APPID
  5
294B
330
2923
100
AcDbSymbolTableRecord
100
AcDbRegAppTableRecord
  2
DESIGNERASSEMBLIES
 70
     0
  0
APPID
  5
294C
330
2923
100
AcDbSymbolTableRecord
100
AcDbRegAppTableRecord
  2
ACADM_DIM_EDIT
 70
     0
  0
APPID
  5
294D
330
2923
100
AcDbSymbolTableRecord
100
AcDbRegAppTableRecord
  2
G3V_ENTHND
 70
     0
  0
APPID
  5
294E
330
2923
100
AcDbSymbolTableRecord
100
AcDbRegAppTableRecord
  2
GENIUS_GENDIMSH_14
 70
     0
  0
ENDTAB
  0
TABLE
  2
DIMSTYLE
  5
2924
330
0
100
AcDbSymbolTable
 70
     2
100
AcDbDimStyleTable
 71
     0
  0
DIMSTYLE
105
294F
330
2924
100
AcDbSymbolTableRecord
100
AcDbDimStyleTableRecord
  2
ISO-25
 70
     0
 41
2.5
 42
0.625
 43
3.75
 44
1.25
 73
     0
 74
     0
 77
     1
 78
     8
140
2.5
141
2.5
143
0.03937007874016
147
0.625
171
     3
172
     1
271
     2
272
     2
274
     3
279
     2
284
     8
285
     8
286
     8
340
292B
  0
DIMSTYLE
105
2BEE
330
2924
100
AcDbSymbolTableRecord
100
AcDbDimStyleTableRecord
  2
Standard
 70
     0
340
292B
  0
ENDTAB
  0
TABLE
  2
BLOCK_RECORD
  5
291B
330
0
100
AcDbSymbolTable
 70
    25
  0
BLOCK_RECORD
  5
2938
330
291B
100
AcDbSymbolTableRecord
100
AcDbBlockTableRecord
  2
*Model_Space
340
293B
  0
BLOCK_RECORD
  5
2934
330
291B
100
AcDbSymbolTableRecord
100
AcDbBlockTableRecord
  2
*Paper_Space
340
2937
  0
BLOCK_RECORD
  5
2951
330
291B
100
AcDbSymbolTableRecord
100
AcDbBlockTableRecord
  2
$MODEL_SPACE
340
0
  0
BLOCK_RECORD
  5
2954
330
291B
100
AcDbSymbolTableRecord
100
AcDbBlockTableRecord
  2
$PAPER_SPACE
340
0
  0
BLOCK_RECORD
  5
2B81
330
291B
100
AcDbSymbolTableRecord
100
AcDbBlockTableRecord
  2
AI9-BLK14
340
0
310
2800000020000000200000000100080000000000000400000000000000000000000000000000000000000000000080000080000000808000800000008000800080800000C0C0C000C0DCC000F0CAA6000020400000206000002080000020A0000020C0000020E00000400000004020000040400000406000004080000040A0
310
000040C0000040E00000600000006020000060400000606000006080000060A0000060C0000060E00000800000008020000080400000806000008080000080A0000080C0000080E00000A0000000A0200000A0400000A0600000A0800000A0A00000A0C00000A0E00000C0000000C0200000C0400000C0600000C0800000C0
310
A00000C0C00000C0E00000E0000000E0200000E0400000E0600000E0800000E0A00000E0C00000E0E00040000000400020004000400040006000400080004000A0004000C0004000E00040200000402020004020400040206000402080004020A0004020C0004020E000404000004040200040404000404060004040800040
310
40A0004040C0004040E00040600000406020004060400040606000406080004060A0004060C0004060E00040800000408020004080400040806000408080004080A0004080C0004080E00040A0000040A0200040A0400040A0600040A0800040A0A00040A0C00040A0E00040C0000040C0200040C0400040C0600040C08000
310
40C0A00040C0C00040C0E00040E0000040E0200040E0400040E0600040E0800040E0A00040E0C00040E0E00080000000800020008000400080006000800080008000A0008000C0008000E00080200000802020008020400080206000802080008020A0008020C0008020E00080400000804020008040400080406000804080
310
008040A0008040C0008040E00080600000806020008060400080606000806080008060A0008060C0008060E00080800000808020008080400080806000808080008080A0008080C0008080E00080A0000080A0200080A0400080A0600080A0800080A0A00080A0C00080A0E00080C0000080C0200080C0400080C0600080C0
310
800080C0A00080C0C00080C0E00080E0000080E0200080E0400080E0600080E0800080E0A00080E0C00080E0E000C0000000C0002000C0004000C0006000C0008000C000A000C000C000C000E000C0200000C0202000C0204000C0206000C0208000C020A000C020C000C020E000C0400000C0402000C0404000C0406000C0
310
408000C040A000C040C000C040E000C0600000C0602000C0604000C0606000C0608000C060A000C060C000C060E000C0800000C0802000C0804000C0806000C0808000C080A000C080C000C080E000C0A00000C0A02000C0A04000C0A06000C0A08000C0A0A000C0A0C000C0A0E000C0C00000C0C02000C0C04000C0C06000
310
C0C08000C0C0A000F0FBFF00A4A0A000808080000000FF0000FF000000FFFF00FF000000FF00FF00FFFF0000FFFFFF00FF00FFFFFFFF00FFFFFFFFFFFFFFFFFFFFFFFFFFFFFFFFFFFFFFFFFFFFFFFFFFFF00FFFFFFFF00FFFFFFFFFFFFFFFFFFFFFFFFFFFFFFFFFFFFFFFFFFFFFFFFFFFF00FFFFFFFF00FFFFFFFFFFFFFFFF
310
FFFFFFFFFFFFFFFFFFFFFFFFFFFFFFFFFFFF00FFFFFFFF00FFFFFFFFFFFFFFFFFFFFFFFFFFFFFFFFFFFFFFFFFFFFFFFFFFFF00FFFFFFFF00FFFFFFFFFFFFFFFFFFFFFFFFFFFFFFFFFFFFFFFFFFFFFFFFFFFF00FFFFFFFF00FFFFFFFFFFFFFFFFFFFFFFFFFFFFFFFFFFFFFFFFFFFFFFFFFFFF00FFFFFFFF00FFFFFFFFFFFFFF
310
FFFFFFFFFFFFFFFFFFFFFFFFFFFFFFFFFFFFFF00FFFFFFFF00FFFFFFFFFFFFFFFFFFFFFFFFFFFFFFFFFFFFFFFFFFFFFFFFFFFF00FFFFFFFF00FFFFFFFFFFFFFFFFFFFFFFFFFFFFFFFFFFFFFFFFFFFFFFFFFFFF00FFFFFFFF00FFFFFFFFFFFFFFFFFFFFFFFFFFFFFFFFFFFFFFFFFFFFFFFFFFFF00FFFFFFFF00FFFFFFFFFFFF
310
FFFFFFFFFFFFFFFFFFFFFFFFFFFFFFFFFFFFFFFF00FFFFFFFF00FFFFFFFFFFFFFFFFFFFFFFFFFFFFFFFFFFFFFFFFFFFFFFFFFFFF00FFFFFFFF00FFFFFFFFFFFFFFFFFFFFFFFFFFFFFFFFFFFFFFFFFFFFFFFFFFFF00FFFFFFFF0000000000000000000000000000000000000000000000000000FF00FFFFFFFFFFFFFFFFFFFF
310
FFFFFFFFFFFFFFFFFFFFFFFFFFFFFFFFFFFFFFFFFF00FFFFFFFFFFFFFFFFFFFFFFFFFFFFFFFFFFFFFFFFFFFFFFFFFFFFFFFFFFFFFF00FFFFFFFFFFFFFFFFFFFFFFFFFFFFFFFFFFFFFFFFFFFFFFFFFFFFFFFFFFFFFF00FFFFFFFFFFFFFFFFFFFFFFFFFFFFFFFFFFFFFFFFFFFFFFFFFFFFFFFFFF00FF00000000000000000000
310
0000000000000000000000000000000000000000FFFFFFFFFFFFFFFFFFFFFFFFFFFFFFFFFFFFFFFFFFFFFFFFFFFFFFFFFFFFFFFFFFFFFFFFFFFFFFFFFFFFFFFFFFFFFFFFFFFFFFFFFFFFFFFFFFFFFFFFFFFFFFFFFFFFFFFFFFFFFFFFFFFFFFFFFFFFFFFFFFFFFFFFFFFFFFFFFFFFFFFFFFFFFFFFFFFFFFFFFFFFFFFFFFFFFF
310
FFFFFFFFFFFFFFFFFFFFFFFFFFFFFFFFFFFFFFFFFFFFFFFFFFFFFFFFFFFFFFFFFFFFFFFFFFFFFFFFFFFFFFFFFFFFFFFFFFFFFFFFFFFFFFFFFFFFFFFFFFFFFFFFFFFFFFFFFFFFFFFFFFFFFFFFFFFFFFFFFFFFFFFFFFFFFFFFFFFFFFFFFFFFFFFFFFFFFFFFFFFFFFFFFFFFFFFFFFFFFFFFFFFFFFFFFFFFFFFFFFFFFFFFFFFFFF
310
FFFFFFFFFFFFFFFFFFFFFFFFFFFFFFFFFFFFFFFFFFFFFFFFFFFFFFFFFFFFFFFFFFFFFFFFFFFFFFFFFFFFFFFFFFFFFFFFFFFFFFFFFFFFFFFFFFFFFFFFFFFFFFFFFFFFFFFFFFFFFFFFFFFFFFFFFFFFFFFFFFFFFFFFFFFFFFFFFFFFFFFFFFFFFFFFFFFFFFFFFFFFFFFFFFFFFFFFFFFFFFFFFFFFFFFFFFFFFFFFFFFFFFFFFFFFFF
310
FFFFFFFFFFFFFFFFFFFFFFFFFFFFFFFFFFFFFFFFFFFFFFFFFFFFFFFFFFFFFFFFFFFFFFFFFFFFFFFFFFFFFFFFFFFFFFFFFFFFFFFFFFFFFFFF
102
{BLKREFS
331
2BC2
102
}
  0
BLOCK_RECORD
  5
2B86
330
291B
100
AcDbSymbolTableRecord
100
AcDbBlockTableRecord
  2
AI9-BLK13
340
0
310
2800000020000000200000000100080000000000000400000000000000000000000000000000000000000000000080000080000000808000800000008000800080800000C0C0C000C0DCC000F0CAA6000020400000206000002080000020A0000020C0000020E00000400000004020000040400000406000004080000040A0
310
000040C0000040E00000600000006020000060400000606000006080000060A0000060C0000060E00000800000008020000080400000806000008080000080A0000080C0000080E00000A0000000A0200000A0400000A0600000A0800000A0A00000A0C00000A0E00000C0000000C0200000C0400000C0600000C0800000C0
310
A00000C0C00000C0E00000E0000000E0200000E0400000E0600000E0800000E0A00000E0C00000E0E00040000000400020004000400040006000400080004000A0004000C0004000E00040200000402020004020400040206000402080004020A0004020C0004020E000404000004040200040404000404060004040800040
310
40A0004040C0004040E00040600000406020004060400040606000406080004060A0004060C0004060E00040800000408020004080400040806000408080004080A0004080C0004080E00040A0000040A0200040A0400040A0600040A0800040A0A00040A0C00040A0E00040C0000040C0200040C0400040C0600040C08000
310
40C0A00040C0C00040C0E00040E0000040E0200040E0400040E0600040E0800040E0A00040E0C00040E0E00080000000800020008000400080006000800080008000A0008000C0008000E00080200000802020008020400080206000802080008020A0008020C0008020E00080400000804020008040400080406000804080
310
008040A0008040C0008040E00080600000806020008060400080606000806080008060A0008060C0008060E00080800000808020008080400080806000808080008080A0008080C0008080E00080A0000080A0200080A0400080A0600080A0800080A0A00080A0C00080A0E00080C0000080C0200080C0400080C0600080C0
310
800080C0A00080C0C00080C0E00080E0000080E0200080E0400080E0600080E0800080E0A00080E0C00080E0E000C0000000C0002000C0004000C0006000C0008000C000A000C000C000C000E000C0200000C0202000C0204000C0206000C0208000C020A000C020C000C020E000C0400000C0402000C0404000C0406000C0
310
408000C040A000C040C000C040E000C0600000C0602000C0604000C0606000C0608000C060A000C060C000C060E000C0800000C0802000C0804000C0806000C0808000C080A000C080C000C080E000C0A00000C0A02000C0A04000C0A06000C0A08000C0A0A000C0A0C000C0A0E000C0C00000C0C02000C0C04000C0C06000
310
C0C08000C0C0A000F0FBFF00A4A0A000808080000000FF0000FF000000FFFF00FF000000FF00FF00FFFF0000FFFFFF00FFFFFFFFFFFFFFFFFFFFFFFFFFFFFFFFFFFFFFFFFFFFFFFFFFFFFFFFFFFFFFFFFFFFFFFFFFFFFFFFFFFFFF0000FFFFFFFFFFFF0000FFFFFFFFFFFFFFFFFFFFFFFFFFFFFFFFFFFFFFFFFFFF0000FFFF
310
FFFFFFFF0000FFFFFFFFFFFFFFFFFFFFFFFFFFFFFFFFFFFFFFFFFFFF0000FFFFFFFFFFFF0000FFFFFFFFFFFFFFFFFFFFFFFFFFFFFFFFFFFFFFFFFFFF0000FFFFFFFFFFFF0000FFFFFFFFFFFFFFFFFFFFFFFFFFFFFFFFFFFFFFFFFFFF0000FFFFFFFFFFFF0000FFFFFFFFFFFFFFFFFFFFFFFFFFFFFFFFFFFFFFFFFFFF0000FF
310
FFFFFFFFFF0000FFFFFFFFFFFFFFFFFFFFFFFFFFFFFFFFFFFFFFFFFFFF0000FFFFFFFFFFFF0000FFFFFFFFFFFFFFFFFFFFFFFFFFFFFFFFFFFFFFFFFFFF0000FFFFFFFFFFFF0000FFFFFFFFFFFFFFFFFFFFFFFFFFFFFFFFFFFFFFFFFFFF0000FFFFFFFFFFFF0000FFFFFFFFFFFFFFFFFFFFFFFFFFFFFFFFFFFFFFFFFFFF0000
310
FFFFFFFFFFFF0000FFFFFFFFFFFFFFFFFFFFFFFFFFFFFFFFFFFFFFFFFFFF0000FFFFFFFFFFFF0000FFFFFFFFFFFFFFFFFFFFFFFFFFFFFFFFFFFFFFFFFFFF0000FFFFFFFFFFFF0000FFFFFFFFFFFFFFFFFFFFFFFFFFFFFFFFFFFFFFFFFFFF0000FFFFFFFFFFFF0000FFFFFFFFFFFFFFFFFFFFFFFFFFFFFFFFFFFFFFFFFFFF00
310
00FFFFFFFFFFFF0000FFFFFFFFFFFFFFFFFFFFFFFFFFFFFFFFFFFFFFFFFFFF00000000000000000000FFFFFFFFFFFFFFFFFFFFFFFFFFFFFFFFFFFFFFFFFFFF00FFFFFFFFFFFFFFFF00FFFFFFFFFFFFFFFFFFFFFFFFFFFFFFFFFFFFFFFFFFFF00FFFFFFFFFFFFFFFF00FFFFFFFFFFFFFFFFFFFFFFFFFFFFFFFFFFFFFFFFFFFF
310
00000000000000000000FFFFFFFFFFFFFFFFFFFFFFFFFFFFFFFFFFFFFFFFFFFF0000FFFFFFFFFFFF0000FFFFFFFFFFFFFFFFFFFFFFFFFFFFFFFFFFFFFFFFFFFF0000FFFFFFFFFFFF0000FFFFFFFFFFFFFFFFFFFFFFFFFFFFFFFFFFFFFFFFFFFF0000FFFFFFFFFFFF0000FFFFFFFFFFFFFFFFFFFFFFFFFFFFFFFFFFFFFFFFFF
310
FF0000FFFFFFFFFFFF0000FFFFFFFFFFFFFFFFFFFFFFFFFFFFFFFFFFFFFFFFFFFF0000FFFFFFFFFFFF0000FFFFFFFFFFFFFFFFFFFFFFFFFFFFFFFFFFFFFFFFFFFF0000FFFFFFFFFFFF0000FFFFFFFFFFFFFFFFFFFFFFFFFFFFFFFFFFFFFFFFFFFF0000FFFFFFFFFFFF0000FFFFFFFFFFFFFFFFFFFFFFFFFFFFFFFFFFFFFFFF
310
FFFF0000FFFFFFFFFFFF0000FFFFFFFFFFFFFFFFFFFFFFFFFFFFFFFFFFFFFFFFFFFF0000FFFFFFFFFFFF0000FFFFFFFFFFFFFFFFFFFFFFFFFFFFFFFFFFFFFFFFFFFF0000FFFFFFFFFFFF0000FFFFFFFFFFFFFFFFFFFFFFFFFFFFFFFFFFFFFFFFFFFF0000FFFFFFFFFFFF0000FFFFFFFFFFFFFFFFFFFFFFFFFFFFFFFFFFFFFF
310
FFFFFF0000FFFFFFFFFFFF0000FFFFFFFFFFFFFFFFFFFFFFFFFFFFFFFFFFFFFFFFFFFFFFFFFFFFFFFFFFFFFFFFFFFFFFFFFFFFFFFFFFFFFF
102
{BLKREFS
331
2BC3
102
}
  0
BLOCK_RECORD
  5
2B8B
330
291B
100
AcDbSymbolTableRecord
100
AcDbBlockTableRecord
  2
AI9-BLK11
340
0
310
2800000020000000200000000100080000000000000400000000000000000000000000000000000000000000000080000080000000808000800000008000800080800000C0C0C000C0DCC000F0CAA6000020400000206000002080000020A0000020C0000020E00000400000004020000040400000406000004080000040A0
310
000040C0000040E00000600000006020000060400000606000006080000060A0000060C0000060E00000800000008020000080400000806000008080000080A0000080C0000080E00000A0000000A0200000A0400000A0600000A0800000A0A00000A0C00000A0E00000C0000000C0200000C0400000C0600000C0800000C0
310
A00000C0C00000C0E00000E0000000E0200000E0400000E0600000E0800000E0A00000E0C00000E0E00040000000400020004000400040006000400080004000A0004000C0004000E00040200000402020004020400040206000402080004020A0004020C0004020E000404000004040200040404000404060004040800040
310
40A0004040C0004040E00040600000406020004060400040606000406080004060A0004060C0004060E00040800000408020004080400040806000408080004080A0004080C0004080E00040A0000040A0200040A0400040A0600040A0800040A0A00040A0C00040A0E00040C0000040C0200040C0400040C0600040C08000
310
40C0A00040C0C00040C0E00040E0000040E0200040E0400040E0600040E0800040E0A00040E0C00040E0E00080000000800020008000400080006000800080008000A0008000C0008000E00080200000802020008020400080206000802080008020A0008020C0008020E00080400000804020008040400080406000804080
310
008040A0008040C0008040E00080600000806020008060400080606000806080008060A0008060C0008060E00080800000808020008080400080806000808080008080A0008080C0008080E00080A0000080A0200080A0400080A0600080A0800080A0A00080A0C00080A0E00080C0000080C0200080C0400080C0600080C0
310
800080C0A00080C0C00080C0E00080E0000080E0200080E0400080E0600080E0800080E0A00080E0C00080E0E000C0000000C0002000C0004000C0006000C0008000C000A000C000C000C000E000C0200000C0202000C0204000C0206000C0208000C020A000C020C000C020E000C0400000C0402000C0404000C0406000C0
310
408000C040A000C040C000C040E000C0600000C0602000C0604000C0606000C0608000C060A000C060C000C060E000C0800000C0802000C0804000C0806000C0808000C080A000C080C000C080E000C0A00000C0A02000C0A04000C0A06000C0A08000C0A0A000C0A0C000C0A0E000C0C00000C0C02000C0C04000C0C06000
310
C0C08000C0C0A000F0FBFF00A4A0A000808080000000FF0000FF000000FFFF00FF000000FF00FF00FFFF0000FFFFFF00FFFFFFFFFFFFFFFFFFFFFFFFFFFFFFFFFFFFFFFFFFFFFFFFFFFFFFFFFFFFFFFFFFFFFFFFFFFFFFFFFFFFFFFFFFFF00000000FFFFFFFFFFFFFFFFFFFFFF000000FFFFFFFFFFFFFFFFFFFFFFFFFFFF00
310
FFFF00FFFFFFFFFFFFFFFFFFFFFF00FFFFFFFFFFFFFFFFFFFFFFFFFFFFFFFF00FFFF00FFFFFFFFFFFFFFFFFFFFFF00FFFFFFFFFFFFFFFFFFFFFFFFFFFFFFFF00FFFF00FFFFFFFFFFFFFFFFFFFFFF00FFFFFFFFFFFFFFFFFFFFFFFFFFFFFFFF00FFFF00FFFFFFFFFFFFFFFFFFFFFF00FFFFFFFFFFFFFFFFFFFFFFFFFFFFFFFF
310
00FFFF00FFFFFFFFFFFFFFFFFFFFFF00FFFFFFFFFFFFFFFFFFFFFFFFFFFFFFFF00FFFF00FFFFFFFFFFFFFFFFFFFFFF00FFFFFFFFFFFFFFFFFFFFFFFFFFFFFFFF00FFFF00FFFFFFFFFFFFFFFFFFFFFF00FFFFFFFFFFFFFFFFFFFFFFFFFFFFFFFF00FFFF00FFFFFFFFFFFFFFFFFFFFFF00FFFFFFFFFFFFFFFFFFFFFFFFFFFFFF
310
FF00FFFF00FFFFFFFFFFFFFFFFFFFFFF00FFFFFFFFFFFFFFFFFFFFFFFFFFFFFFFF00FFFF00FFFFFFFFFFFFFFFFFFFFFF00FFFFFFFFFFFFFFFFFFFFFFFFFFFFFFFF00FFFF00FFFFFFFFFFFFFFFFFFFFFF00FFFFFFFFFFFFFFFFFFFFFFFFFFFFFFFF00FFFF00FFFFFFFFFFFFFFFFFFFFFF00FFFFFFFFFFFFFFFFFFFFFFFFFFFF
310
FFFF00FFFF00FFFFFFFFFFFFFFFFFFFFFF00FFFFFFFFFFFFFFFFFFFFFFFFFFFFFFFF00FFFF00FFFFFFFFFFFFFFFFFFFFFF00FFFFFFFFFFFFFFFFFFFFFFFFFFFFFFFF00FFFF00FFFFFFFFFFFFFFFFFFFFFF00FFFFFFFFFFFFFFFFFFFFFFFFFFFFFFFF00FFFF00FFFFFFFFFFFFFFFFFFFF00FFFFFFFFFFFFFFFFFFFFFFFFFFFF
310
FFFFFF00FFFF00FFFFFFFFFFFFFFFFFFFF00FFFFFFFFFFFFFFFFFFFFFFFFFFFFFFFFFF00FFFF00FFFFFFFFFFFFFFFFFFFF00FFFFFFFFFFFFFFFFFFFFFFFFFFFFFFFFFF00FFFF00FFFFFFFFFFFFFFFFFFFF00FFFFFFFFFFFFFFFFFFFFFFFFFFFFFFFFFF00FFFF00FFFFFFFFFFFFFFFFFFFF00FFFFFFFFFFFFFFFFFFFFFFFFFF
310
FFFFFFFF00FFFF00FFFFFFFFFFFFFFFFFF0000FFFF00FFFFFFFFFFFFFFFFFFFFFFFFFFFF00FFFF00FFFFFFFFFFFFFFFF0000FFFFFF00FFFFFFFFFFFFFFFFFFFFFFFFFFFF00FFFF00000000000000000000FFFFFFFF00FFFFFFFFFFFFFFFFFFFFFFFFFFFF00FFFFFFFFFFFFFFFFFFFFFFFFFFFFFF00FFFFFFFFFFFFFFFFFFFF
310
FFFFFFFFFF00FFFFFFFFFFFFFFFFFFFFFFFFFFFF00FFFFFFFFFFFFFFFFFFFFFFFFFFFFFFFF00FFFFFFFFFFFFFFFFFFFFFFFFFFFF00FFFFFFFFFFFFFFFFFFFFFFFFFFFFFFFF00FFFFFFFFFFFFFFFFFFFFFFFFFFFFFF00FFFFFFFFFFFFFFFFFFFFFFFFFFFFFF00FFFFFFFFFFFFFFFFFFFFFFFFFFFFFF00FFFFFFFFFFFFFFFFFF
310
FFFFFFFFFFFF00FFFF00000000000000000000FFFFFFFF00FFFFFFFFFFFFFFFFFFFFFFFFFFFF00FFFF00FFFFFFFFFFFFFFFFFF0000FFFF00
102
{BLKREFS
331
2BC4
102
}
  0
BLOCK_RECORD
  5
2B90
330
291B
100
AcDbSymbolTableRecord
100
AcDbBlockTableRecord
  2
AI9-BLK10
340
0
310
2800000020000000200000000100080000000000000400000000000000000000000000000000000000000000000080000080000000808000800000008000800080800000C0C0C000C0DCC000F0CAA6000020400000206000002080000020A0000020C0000020E00000400000004020000040400000406000004080000040A0
310
000040C0000040E00000600000006020000060400000606000006080000060A0000060C0000060E00000800000008020000080400000806000008080000080A0000080C0000080E00000A0000000A0200000A0400000A0600000A0800000A0A00000A0C00000A0E00000C0000000C0200000C0400000C0600000C0800000C0
310
A00000C0C00000C0E00000E0000000E0200000E0400000E0600000E0800000E0A00000E0C00000E0E00040000000400020004000400040006000400080004000A0004000C0004000E00040200000402020004020400040206000402080004020A0004020C0004020E000404000004040200040404000404060004040800040
310
40A0004040C0004040E00040600000406020004060400040606000406080004060A0004060C0004060E00040800000408020004080400040806000408080004080A0004080C0004080E00040A0000040A0200040A0400040A0600040A0800040A0A00040A0C00040A0E00040C0000040C0200040C0400040C0600040C08000
310
40C0A00040C0C00040C0E00040E0000040E0200040E0400040E0600040E0800040E0A00040E0C00040E0E00080000000800020008000400080006000800080008000A0008000C0008000E00080200000802020008020400080206000802080008020A0008020C0008020E00080400000804020008040400080406000804080
310
008040A0008040C0008040E00080600000806020008060400080606000806080008060A0008060C0008060E00080800000808020008080400080806000808080008080A0008080C0008080E00080A0000080A0200080A0400080A0600080A0800080A0A00080A0C00080A0E00080C0000080C0200080C0400080C0600080C0
310
800080C0A00080C0C00080C0E00080E0000080E0200080E0400080E0600080E0800080E0A00080E0C00080E0E000C0000000C0002000C0004000C0006000C0008000C000A000C000C000C000E000C0200000C0202000C0204000C0206000C0208000C020A000C020C000C020E000C0400000C0402000C0404000C0406000C0
310
408000C040A000C040C000C040E000C0600000C0602000C0604000C0606000C0608000C060A000C060C000C060E000C0800000C0802000C0804000C0806000C0808000C080A000C080C000C080E000C0A00000C0A02000C0A04000C0A06000C0A08000C0A0A000C0A0C000C0A0E000C0C00000C0C02000C0C04000C0C06000
310
C0C08000C0C0A000F0FBFF00A4A0A000808080000000FF0000FF000000FFFF00FF000000FF00FF00FFFF0000FFFFFF00FFFFFFFFFFFFFFFFFFFFFFFFFFFFFFFF00FFFFFFFFFFFFFFFFFFFFFFFF00FFFFFFFFFFFFFFFFFFFFFFFFFFFFFFFFFFFF00FFFFFFFFFFFFFFFFFFFFFF00FFFFFFFFFFFFFFFFFFFFFFFFFFFFFFFFFFFF
310
FF00FFFFFFFFFFFFFFFFFFFFFF00FFFFFFFFFFFFFFFFFFFFFFFFFFFFFFFFFFFFFF00FFFFFFFFFFFFFFFFFFFFFF00FFFFFFFFFFFFFFFFFFFFFFFFFFFFFFFFFFFFFF00FFFFFFFFFFFFFFFFFFFFFF00FFFFFFFFFFFFFFFFFFFFFFFFFFFFFFFFFFFFFF00FFFFFFFFFFFFFFFFFFFFFF00FFFFFFFFFFFFFFFFFFFFFFFFFFFFFFFFFF
310
FFFF00FFFFFFFFFFFFFFFFFFFFFF00FFFFFFFFFFFFFFFFFFFFFFFFFFFFFFFFFFFFFF00FFFFFFFFFFFFFFFFFFFF00FFFFFFFFFFFFFFFFFFFFFFFFFFFFFFFFFFFFFFFF00FFFFFFFFFFFFFFFFFFFF00FFFFFFFFFFFFFFFFFFFFFFFFFFFFFFFFFFFFFFFF00FFFFFFFFFFFFFFFFFFFF00FFFFFFFFFFFFFFFFFFFFFFFFFFFFFFFFFF
310
FFFFFF00FFFFFFFFFFFFFFFFFFFF00FFFFFFFFFFFFFFFFFFFFFFFFFFFFFFFFFFFFFFFF00FFFFFFFFFFFFFFFFFFFF00FFFFFFFFFFFFFFFFFFFFFFFFFFFFFFFFFFFFFFFF00FFFFFFFFFFFFFFFFFFFF00FFFFFFFFFFFFFFFFFFFFFFFFFFFFFFFFFFFFFFFF00FFFFFFFFFFFFFFFFFF00FFFFFFFFFFFFFFFFFFFFFFFFFFFFFFFFFF
310
FFFFFFFF00FFFFFFFFFFFFFFFFFF00FFFFFFFFFFFFFFFFFFFFFFFFFFFFFFFFFFFFFFFFFF00FFFFFFFFFFFFFFFFFF00FFFFFFFFFFFFFFFFFFFFFFFFFFFFFFFFFFFFFFFFFF0000000000000000000000FFFFFFFFFFFFFFFFFFFFFFFFFFFFFFFFFFFFFFFFFFFFFFFFFFFFFFFFFFFFFFFFFFFFFFFFFFFFFFFFFFFFFFFFFFFFFFFF
310
FFFFFFFFFFFFFFFFFFFFFFFFFFFFFFFFFFFFFFFFFFFFFFFFFFFFFFFFFFFFFFFFFFFFFFFFFFFFFFFFFFFFFFFFFFFFFFFFFFFFFFFFFFFFFFFFFFFFFFFFFFFFFFFFFFFFFFFFFFFFFFFFFFFFFFFFFFFFFFFFFFFFFFFFFFFFFFFFFFFFFFFFFFFFFFFFFFFFFFFFFFFFFFFFFFFFFFFFFFFFFFFFFFFFFFFFFFFFFFFFFFFFFFFFFFFFFF
310
FFFFFFFFFFFFFFFFFFFFFFFFFFFFFFFFFFFFFFFFFFFFFFFFFFFFFFFFFFFFFFFFFFFFFFFFFFFFFFFFFFFFFFFFFFFFFFFFFFFFFFFFFFFFFFFFFFFFFFFFFFFFFFFFFFFFFFFFFFFFFFFFFFFFFFFFFFFFFFFFFFFFFFFFFFFFFFFFFFFFFFFFFFFFFFFFFFFFFFFFFFFFFFFFFFFFFFFFFFFFFFFFFFFFFFFFFFFFFFFFFFFFFFFFFFFFFF
310
FFFFFFFFFFFFFFFFFFFFFFFFFFFFFFFFFFFFFFFFFFFFFFFFFFFFFFFFFFFFFFFFFFFFFFFFFFFFFFFFFFFFFFFFFFFFFFFFFFFFFFFFFFFFFFFFFFFFFFFFFFFFFFFFFFFFFFFFFFFFFFFFFFFFFFFFFFFFFFFFFFFFFFFFFFFFFFFFFFFFFFFFFFFFFFFFFFFFFFFFFFFFFFFFFFFFFFFFFFFFFFFFFFFFFFFFFFFFFFFFFFFFFFFFFFFFFF
310
FFFFFFFFFFFFFFFFFFFFFFFFFFFFFFFFFFFFFFFFFFFFFFFFFFFFFFFFFFFFFFFFFFFFFFFFFFFFFFFFFFFFFFFFFFFFFFFFFFFFFFFFFFFFFFFF
102
{BLKREFS
331
2BC5
102
}
  0
BLOCK_RECORD
  5
2B94
330
291B
100
AcDbSymbolTableRecord
100
AcDbBlockTableRecord
  2
AI9-BLK9
340
0
310
2800000020000000200000000100080000000000000400000000000000000000000000000000000000000000000080000080000000808000800000008000800080800000C0C0C000C0DCC000F0CAA6000020400000206000002080000020A0000020C0000020E00000400000004020000040400000406000004080000040A0
310
000040C0000040E00000600000006020000060400000606000006080000060A0000060C0000060E00000800000008020000080400000806000008080000080A0000080C0000080E00000A0000000A0200000A0400000A0600000A0800000A0A00000A0C00000A0E00000C0000000C0200000C0400000C0600000C0800000C0
310
A00000C0C00000C0E00000E0000000E0200000E0400000E0600000E0800000E0A00000E0C00000E0E00040000000400020004000400040006000400080004000A0004000C0004000E00040200000402020004020400040206000402080004020A0004020C0004020E000404000004040200040404000404060004040800040
310
40A0004040C0004040E00040600000406020004060400040606000406080004060A0004060C0004060E00040800000408020004080400040806000408080004080A0004080C0004080E00040A0000040A0200040A0400040A0600040A0800040A0A00040A0C00040A0E00040C0000040C0200040C0400040C0600040C08000
310
40C0A00040C0C00040C0E00040E0000040E0200040E0400040E0600040E0800040E0A00040E0C00040E0E00080000000800020008000400080006000800080008000A0008000C0008000E00080200000802020008020400080206000802080008020A0008020C0008020E00080400000804020008040400080406000804080
310
008040A0008040C0008040E00080600000806020008060400080606000806080008060A0008060C0008060E00080800000808020008080400080806000808080008080A0008080C0008080E00080A0000080A0200080A0400080A0600080A0800080A0A00080A0C00080A0E00080C0000080C0200080C0400080C0600080C0
310
800080C0A00080C0C00080C0E00080E0000080E0200080E0400080E0600080E0800080E0A00080E0C00080E0E000C0000000C0002000C0004000C0006000C0008000C000A000C000C000C000E000C0200000C0202000C0204000C0206000C0208000C020A000C020C000C020E000C0400000C0402000C0404000C0406000C0
310
408000C040A000C040C000C040E000C0600000C0602000C0604000C0606000C0608000C060A000C060C000C060E000C0800000C0802000C0804000C0806000C0808000C080A000C080C000C080E000C0A00000C0A02000C0A04000C0A06000C0A08000C0A0A000C0A0C000C0A0E000C0C00000C0C02000C0C04000C0C06000
310
C0C08000C0C0A000F0FBFF00A4A0A000808080000000FF0000FF000000FFFF00FF000000FF00FF00FFFF0000FFFFFF00FFFFFFFFFFFFFFFFFFFFFFFFFFFFFFFFFFFFFFFFFFFFFFFFFFFFFFFFFFFFFFFFFFFFFFFFFFFFFFFFFFFFFFFFFFFFFF0000FFFFFFFFFFFFFFFFFFFFFFFFFFFFFFFFFFFFFFFFFFFFFFFFFFFFFFFF0000
310
FF0000FFFFFFFFFFFFFFFFFFFFFFFFFFFFFFFFFFFFFFFFFFFFFFFFFFFFFF00FFFFFF0000FFFFFFFFFFFFFFFFFFFFFFFFFFFFFFFFFFFFFFFFFFFFFFFFFFFF00FFFFFFFF0000FFFFFFFFFFFFFFFFFFFFFFFFFFFFFFFFFFFFFFFFFFFFFFFF00FF00000000FF00FFFFFFFFFFFFFFFFFFFFFFFFFFFFFFFFFFFFFFFFFFFFFFFF0000
310
00FFFF00FF00FFFFFFFFFFFFFFFFFFFFFFFFFFFFFFFFFFFFFFFFFFFFFFFF0000FFFFFFFF0000FFFFFFFFFFFFFFFFFFFFFFFFFFFFFFFFFFFFFFFFFFFFFFFF0000FFFFFFFF0000FFFFFFFFFFFFFFFFFFFFFFFFFFFFFFFFFFFFFFFFFFFFFF00FF00FFFFFFFF00FF00FFFFFFFFFFFFFFFFFFFFFFFFFFFFFFFFFFFFFFFFFFFF0000
310
FFFFFFFFFF00FF00FFFFFFFFFFFFFFFFFFFFFFFFFFFFFFFFFFFFFFFFFFFF0000FFFFFFFFFFFF0000FFFFFFFFFFFFFFFFFFFFFFFFFFFFFFFFFFFFFFFFFFFF0000FFFFFFFFFFFF0000FFFFFFFFFFFFFFFFFFFFFFFFFFFFFFFFFFFFFFFFFFFF0000FFFFFFFFFFFF0000FFFFFFFFFFFFFFFFFFFFFFFFFFFFFFFFFFFFFFFFFFFF00
310
00FFFFFFFFFFFF0000FFFFFFFFFFFFFFFFFFFFFFFFFFFFFFFFFFFFFFFFFFFF0000FFFFFFFFFFFF0000FFFFFFFFFFFFFFFFFFFFFFFFFFFFFFFFFFFFFFFFFFFF0000FFFFFFFFFFFF0000FFFFFFFFFFFFFFFFFFFFFFFFFFFFFFFFFFFFFFFFFFFF0000FFFFFFFFFFFF0000FFFFFFFFFFFFFFFFFFFFFFFFFFFFFFFFFFFFFFFFFFFF
310
0000FFFFFFFFFFFF0000FFFFFFFFFFFFFFFFFFFFFFFFFFFFFFFFFFFFFFFFFFFF0000FFFFFFFFFFFF0000FFFFFFFFFFFFFFFFFFFFFFFFFFFFFFFFFFFFFFFFFFFF0000FFFFFFFFFFFF0000FFFFFFFFFFFFFFFFFFFFFFFFFFFFFFFFFFFFFFFFFFFF00FF00FFFFFFFF00FF00FFFFFFFFFFFFFFFFFFFFFFFFFFFFFFFFFFFFFFFFFF
310
FF00FF00FFFFFFFF00FF00FFFFFFFFFFFFFFFFFFFFFFFFFFFFFFFFFFFFFFFFFFFF00FF00FFFFFFFF00FF00FFFFFFFFFFFFFFFFFFFFFFFFFFFFFFFFFFFFFFFFFFFFFF0000FFFFFFFF0000FFFFFFFFFFFFFFFFFFFFFFFFFFFFFFFFFFFFFFFFFFFFFFFF00FF00FFFF00FF00FFFFFFFFFFFFFFFFFFFFFFFFFFFFFFFFFFFFFFFFFF
310
FFFFFF00FF00000000FF00FFFFFFFFFFFFFFFFFFFFFFFFFFFFFFFFFFFFFFFFFFFFFFFFFF00FFFFFFFF0000FFFFFFFFFFFFFFFFFFFFFFFFFFFFFFFFFFFFFFFFFFFFFFFFFF00FFFFFFFF00FFFFFFFFFFFFFFFFFFFFFFFFFFFFFFFFFFFFFFFFFFFFFFFFFFFFFF00000000FFFFFFFFFFFFFFFFFFFFFFFFFFFFFFFFFFFFFFFFFFFF
310
FFFFFFFFFFFFFF0000FFFFFFFFFFFFFFFFFFFFFFFFFFFFFFFFFFFFFFFFFFFFFFFFFFFFFFFFFFFFFFFFFFFFFFFFFFFFFFFFFFFFFFFFFFFFFF
102
{BLKREFS
331
2BC6
102
}
  0
BLOCK_RECORD
  5
2B99
330
291B
100
AcDbSymbolTableRecord
100
AcDbBlockTableRecord
  2
AI9-BLK8
340
0
310
2800000020000000200000000100080000000000000400000000000000000000000000000000000000000000000080000080000000808000800000008000800080800000C0C0C000C0DCC000F0CAA6000020400000206000002080000020A0000020C0000020E00000400000004020000040400000406000004080000040A0
310
000040C0000040E00000600000006020000060400000606000006080000060A0000060C0000060E00000800000008020000080400000806000008080000080A0000080C0000080E00000A0000000A0200000A0400000A0600000A0800000A0A00000A0C00000A0E00000C0000000C0200000C0400000C0600000C0800000C0
310
A00000C0C00000C0E00000E0000000E0200000E0400000E0600000E0800000E0A00000E0C00000E0E00040000000400020004000400040006000400080004000A0004000C0004000E00040200000402020004020400040206000402080004020A0004020C0004020E000404000004040200040404000404060004040800040
310
40A0004040C0004040E00040600000406020004060400040606000406080004060A0004060C0004060E00040800000408020004080400040806000408080004080A0004080C0004080E00040A0000040A0200040A0400040A0600040A0800040A0A00040A0C00040A0E00040C0000040C0200040C0400040C0600040C08000
310
40C0A00040C0C00040C0E00040E0000040E0200040E0400040E0600040E0800040E0A00040E0C00040E0E00080000000800020008000400080006000800080008000A0008000C0008000E00080200000802020008020400080206000802080008020A0008020C0008020E00080400000804020008040400080406000804080
310
008040A0008040C0008040E00080600000806020008060400080606000806080008060A0008060C0008060E00080800000808020008080400080806000808080008080A0008080C0008080E00080A0000080A0200080A0400080A0600080A0800080A0A00080A0C00080A0E00080C0000080C0200080C0400080C0600080C0
310
800080C0A00080C0C00080C0E00080E0000080E0200080E0400080E0600080E0800080E0A00080E0C00080E0E000C0000000C0002000C0004000C0006000C0008000C000A000C000C000C000E000C0200000C0202000C0204000C0206000C0208000C020A000C020C000C020E000C0400000C0402000C0404000C0406000C0
310
408000C040A000C040C000C040E000C0600000C0602000C0604000C0606000C0608000C060A000C060C000C060E000C0800000C0802000C0804000C0806000C0808000C080A000C080C000C080E000C0A00000C0A02000C0A04000C0A06000C0A08000C0A0A000C0A0C000C0A0E000C0C00000C0C02000C0C04000C0C06000
310
C0C08000C0C0A000F0FBFF00A4A0A000808080000000FF0000FF000000FFFF00FF000000FF00FF00FFFF0000FFFFFF00FFFFFFFFFFFFFFFFFFFFFFFFFFFFFFFFFFFFFFFFFFFFFFFFFFFFFFFFFFFFFFFFFFFFFFFFFFFFFFFFFFFFFF0000FFFFFFFFFFFF0000FFFFFFFFFFFFFFFFFFFFFFFFFFFFFFFFFFFFFFFFFFFF0000FFFF
310
FFFFFFFF0000FFFFFFFFFFFFFFFFFFFFFFFFFFFFFFFFFFFFFFFFFFFF0000FFFFFFFFFF00FF00FFFFFFFFFFFFFFFFFFFFFFFFFFFFFFFFFFFFFFFFFFFF0000FFFFFFFFFF00FF00FFFFFFFFFFFFFFFFFFFFFFFFFFFFFFFFFFFFFFFFFFFF0000FFFFFFFFFF00FF00FFFFFFFFFFFFFFFFFFFFFFFFFFFFFFFFFFFFFFFFFFFF0000FF
310
FFFFFF00FFFF00FFFFFFFFFFFFFFFFFFFFFFFFFFFFFFFFFFFFFFFFFFFF0000FFFFFFFF00FF0000FFFFFFFFFFFFFFFFFFFFFFFFFFFFFFFFFFFFFFFFFFFF0000FFFFFFFF00FF0000FFFFFFFFFFFFFFFFFFFFFFFFFFFFFFFFFFFFFFFFFFFF0000FFFFFFFF00000000FFFFFFFFFFFFFFFFFFFFFFFFFFFFFFFFFFFFFFFFFFFF0000
310
FFFFFF00FF000000FFFFFFFFFFFFFFFFFFFFFFFFFFFFFFFFFFFFFFFFFFFF0000FFFFFF00FF000000FFFFFFFFFFFFFFFFFFFFFFFFFFFFFFFFFFFFFFFFFFFF0000FFFFFF00FF000000FFFFFFFFFFFFFFFFFFFFFFFFFFFFFFFFFFFFFFFFFFFF0000FFFF00FF00FF0000FFFFFFFFFFFFFFFFFFFFFFFFFFFFFFFFFFFFFFFFFFFF00
310
00FFFF00FF00FF0000FFFFFFFFFFFFFFFFFFFFFFFFFFFFFFFFFFFFFFFFFFFF0000FFFF00FF00FF0000FFFFFFFFFFFFFFFFFFFFFFFFFFFFFFFFFFFFFFFFFFFF0000FF00FFFF00FF0000FFFFFFFFFFFFFFFFFFFFFFFFFFFFFFFFFFFFFFFFFFFF0000FF00FF00FFFF0000FFFFFFFFFFFFFFFFFFFFFFFFFFFFFFFFFFFFFFFFFFFF
310
0000FF00FF00FFFF0000FFFFFFFFFFFFFFFFFFFFFFFFFFFFFFFFFFFFFFFFFFFF0000FF00FF00FFFF0000FFFFFFFFFFFFFFFFFFFFFFFFFFFFFFFFFFFFFFFFFFFF000000FFFF00FFFF0000FFFFFFFFFFFFFFFFFFFFFFFFFFFFFFFFFFFFFFFFFFFF000000FF00FFFFFF0000FFFFFFFFFFFFFFFFFFFFFFFFFFFFFFFFFFFFFFFFFF
310
FF000000FF00FFFFFF0000FFFFFFFFFFFFFFFFFFFFFFFFFFFFFFFFFFFFFFFFFFFF0000FFFF00FFFFFF0000FFFFFFFFFFFFFFFFFFFFFFFFFFFFFFFFFFFFFFFFFFFF0000FFFF00FFFFFF0000FFFFFFFFFFFFFFFFFFFFFFFFFFFFFFFFFFFFFFFFFFFF00FFFF00FFFFFFFF0000FFFFFFFFFFFFFFFFFFFFFFFFFFFFFFFFFFFFFFFF
310
FFFF00FFFF00FFFFFFFF0000FFFFFFFFFFFFFFFFFFFFFFFFFFFFFFFFFFFFFFFFFFFF00FFFF00FFFFFFFF0000FFFFFFFFFFFFFFFFFFFFFFFFFFFFFFFFFFFFFFFFFFFF00FFFF00FFFFFFFF0000FFFFFFFFFFFFFFFFFFFFFFFFFFFFFFFFFFFFFFFFFFFF00FF00FFFFFFFFFF0000FFFFFFFFFFFFFFFFFFFFFFFFFFFFFFFFFFFFFF
310
FFFFFF000000FFFFFFFFFF0000FFFFFFFFFFFFFFFFFFFFFFFFFFFFFFFFFFFFFFFFFFFFFFFFFFFFFFFFFFFFFFFFFFFFFFFFFFFFFFFFFFFFFF
102
{BLKREFS
331
2BC7
102
}
  0
BLOCK_RECORD
  5
2B9E
330
291B
100
AcDbSymbolTableRecord
100
AcDbBlockTableRecord
  2
AI9-BLK7
340
0
310
2800000020000000200000000100080000000000000400000000000000000000000000000000000000000000000080000080000000808000800000008000800080800000C0C0C000C0DCC000F0CAA6000020400000206000002080000020A0000020C0000020E00000400000004020000040400000406000004080000040A0
310
000040C0000040E00000600000006020000060400000606000006080000060A0000060C0000060E00000800000008020000080400000806000008080000080A0000080C0000080E00000A0000000A0200000A0400000A0600000A0800000A0A00000A0C00000A0E00000C0000000C0200000C0400000C0600000C0800000C0
310
A00000C0C00000C0E00000E0000000E0200000E0400000E0600000E0800000E0A00000E0C00000E0E00040000000400020004000400040006000400080004000A0004000C0004000E00040200000402020004020400040206000402080004020A0004020C0004020E000404000004040200040404000404060004040800040
310
40A0004040C0004040E00040600000406020004060400040606000406080004060A0004060C0004060E00040800000408020004080400040806000408080004080A0004080C0004080E00040A0000040A0200040A0400040A0600040A0800040A0A00040A0C00040A0E00040C0000040C0200040C0400040C0600040C08000
310
40C0A00040C0C00040C0E00040E0000040E0200040E0400040E0600040E0800040E0A00040E0C00040E0E00080000000800020008000400080006000800080008000A0008000C0008000E00080200000802020008020400080206000802080008020A0008020C0008020E00080400000804020008040400080406000804080
310
008040A0008040C0008040E00080600000806020008060400080606000806080008060A0008060C0008060E00080800000808020008080400080806000808080008080A0008080C0008080E00080A0000080A0200080A0400080A0600080A0800080A0A00080A0C00080A0E00080C0000080C0200080C0400080C0600080C0
310
800080C0A00080C0C00080C0E00080E0000080E0200080E0400080E0600080E0800080E0A00080E0C00080E0E000C0000000C0002000C0004000C0006000C0008000C000A000C000C000C000E000C0200000C0202000C0204000C0206000C0208000C020A000C020C000C020E000C0400000C0402000C0404000C0406000C0
310
408000C040A000C040C000C040E000C0600000C0602000C0604000C0606000C0608000C060A000C060C000C060E000C0800000C0802000C0804000C0806000C0808000C080A000C080C000C080E000C0A00000C0A02000C0A04000C0A06000C0A08000C0A0A000C0A0C000C0A0E000C0C00000C0C02000C0C04000C0C06000
310
C0C08000C0C0A000F0FBFF00A4A0A000808080000000FF0000FF000000FFFF00FF000000FF00FF00FFFF0000FFFFFF00FFFFFFFFFFFFFFFFFFFFFFFFFFFFFFFFFFFFFFFFFFFFFFFFFFFFFFFFFFFFFFFFFFFFFFFFFFFFFFFFFFFFFFFFFFFFFF0000FFFFFFFFFFFFFFFFFFFFFFFFFFFFFFFFFFFFFFFFFFFFFFFFFFFFFFFFFFFF
310
0000FFFFFFFFFFFFFFFFFFFFFFFFFFFFFFFFFFFFFFFFFFFFFFFFFFFFFFFFFFFF0000FFFFFFFFFFFFFFFFFFFFFFFFFFFFFFFFFFFFFFFFFFFFFFFFFFFFFFFFFFFF0000FFFFFFFFFFFFFFFFFFFFFFFFFFFFFFFFFFFFFFFFFFFFFFFFFFFFFFFFFFFF0000FFFFFFFFFFFFFFFFFFFFFFFFFFFFFFFFFFFFFFFFFFFFFFFFFFFFFFFFFF
310
FF0000FFFFFFFFFFFFFFFFFFFFFFFFFFFFFFFFFFFFFFFFFFFFFFFFFFFFFFFFFFFF0000FFFFFFFFFFFFFFFFFFFFFFFFFFFFFFFFFFFFFFFFFFFFFFFFFFFFFFFFFFFF0000FFFFFFFFFFFFFFFFFFFFFFFFFFFFFFFFFFFFFFFFFFFFFFFFFFFFFFFFFFFF0000FFFFFFFFFFFFFFFFFFFFFFFFFFFFFFFFFFFFFFFFFFFFFFFFFFFFFFFF
310
FFFF0000FFFFFFFFFFFFFFFFFFFFFFFFFFFFFFFFFFFFFFFFFFFFFFFFFFFFFFFFFFFF0000FFFFFFFFFFFFFFFFFFFFFFFFFFFFFFFFFFFFFFFFFFFFFFFFFFFFFFFFFFFF0000FFFFFFFFFFFFFFFFFFFFFFFFFFFFFFFFFFFFFFFFFFFFFFFFFFFFFFFFFFFF0000FFFFFFFFFFFFFFFFFFFFFFFFFFFFFFFFFFFFFFFFFFFFFFFFFFFFFF
310
FFFFFF0000FFFFFFFFFFFFFFFFFFFFFFFFFFFFFFFFFFFFFFFFFFFFFFFFFFFFFFFFFFFF0000FFFFFFFFFFFFFFFFFFFFFFFFFFFFFFFFFFFFFFFFFFFFFFFFFFFFFFFFFFFF0000FFFFFFFFFFFFFFFFFFFFFFFFFFFFFFFFFFFFFFFFFFFFFFFFFFFFFFFFFFFF0000FFFFFFFFFFFFFFFFFFFFFFFFFFFFFFFFFFFFFFFFFFFFFFFFFFFF
310
FFFFFFFF0000FFFFFFFFFFFFFFFFFFFFFFFFFFFFFFFFFFFFFFFFFFFFFFFFFFFFFFFFFFFF0000FFFFFFFFFFFFFFFFFFFFFFFFFFFFFFFFFFFFFFFFFFFFFFFFFFFFFFFFFFFF0000FFFFFFFFFFFFFFFFFFFFFFFFFFFFFFFFFFFFFFFFFFFFFFFFFFFFFFFFFFFF0000FFFFFFFFFFFFFFFFFFFFFFFFFFFFFFFFFFFFFFFFFFFFFFFFFF
310
FFFFFFFFFF0000FFFFFFFFFFFFFFFFFFFFFFFFFFFFFFFFFFFFFFFFFFFFFFFFFFFFFFFFFFFF0000FFFFFFFFFFFFFFFFFFFFFFFFFFFFFFFFFFFFFFFFFFFFFFFFFFFFFFFFFFFF0000FFFFFFFFFFFFFFFFFFFFFFFFFFFFFFFFFFFFFFFFFFFFFFFFFFFFFFFFFFFF0000FFFFFFFFFFFFFFFFFFFFFFFFFFFFFFFFFFFFFFFFFFFFFFFF
310
FFFFFFFFFFFF0000FFFFFFFFFFFFFFFFFFFFFFFFFFFFFFFFFFFFFFFFFFFFFFFFFFFFFFFFFFFF0000FFFFFFFFFFFFFFFFFFFFFFFFFFFFFFFFFFFFFFFFFFFFFFFFFFFFFFFFFFFF0000FFFFFFFFFFFFFFFFFFFFFFFFFFFFFFFFFFFFFFFFFFFFFFFFFFFFFFFFFFFF0000FFFFFFFFFFFFFFFFFFFFFFFFFFFFFFFFFFFFFFFFFFFFFF
310
FFFFFFFFFFFFFF0000FFFFFFFFFFFFFFFFFFFFFFFFFFFFFFFFFFFFFFFFFFFFFFFFFFFFFFFFFFFFFFFFFFFFFFFFFFFFFFFFFFFFFFFFFFFFFF
102
{BLKREFS
331
2BC8
102
}
  0
BLOCK_RECORD
  5
2BA3
330
291B
100
AcDbSymbolTableRecord
100
AcDbBlockTableRecord
  2
AI9-BLK6
340
0
310
2800000020000000200000000100080000000000000400000000000000000000000000000000000000000000000080000080000000808000800000008000800080800000C0C0C000C0DCC000F0CAA6000020400000206000002080000020A0000020C0000020E00000400000004020000040400000406000004080000040A0
310
000040C0000040E00000600000006020000060400000606000006080000060A0000060C0000060E00000800000008020000080400000806000008080000080A0000080C0000080E00000A0000000A0200000A0400000A0600000A0800000A0A00000A0C00000A0E00000C0000000C0200000C0400000C0600000C0800000C0
310
A00000C0C00000C0E00000E0000000E0200000E0400000E0600000E0800000E0A00000E0C00000E0E00040000000400020004000400040006000400080004000A0004000C0004000E00040200000402020004020400040206000402080004020A0004020C0004020E000404000004040200040404000404060004040800040
310
40A0004040C0004040E00040600000406020004060400040606000406080004060A0004060C0004060E00040800000408020004080400040806000408080004080A0004080C0004080E00040A0000040A0200040A0400040A0600040A0800040A0A00040A0C00040A0E00040C0000040C0200040C0400040C0600040C08000
310
40C0A00040C0C00040C0E00040E0000040E0200040E0400040E0600040E0800040E0A00040E0C00040E0E00080000000800020008000400080006000800080008000A0008000C0008000E00080200000802020008020400080206000802080008020A0008020C0008020E00080400000804020008040400080406000804080
310
008040A0008040C0008040E00080600000806020008060400080606000806080008060A0008060C0008060E00080800000808020008080400080806000808080008080A0008080C0008080E00080A0000080A0200080A0400080A0600080A0800080A0A00080A0C00080A0E00080C0000080C0200080C0400080C0600080C0
310
800080C0A00080C0C00080C0E00080E0000080E0200080E0400080E0600080E0800080E0A00080E0C00080E0E000C0000000C0002000C0004000C0006000C0008000C000A000C000C000C000E000C0200000C0202000C0204000C0206000C0208000C020A000C020C000C020E000C0400000C0402000C0404000C0406000C0
310
408000C040A000C040C000C040E000C0600000C0602000C0604000C0606000C0608000C060A000C060C000C060E000C0800000C0802000C0804000C0806000C0808000C080A000C080C000C080E000C0A00000C0A02000C0A04000C0A06000C0A08000C0A0A000C0A0C000C0A0E000C0C00000C0C02000C0C04000C0C06000
310
C0C08000C0C0A000F0FBFF00A4A0A000808080000000FF0000FF000000FFFF00FF000000FF00FF00FFFF0000FFFFFF00FFFFFFFFFFFFFFFFFFFFFFFF00FFFFFFFFFFFFFF00FFFFFFFFFFFFFFFFFFFFFFFFFFFFFFFFFFFFFFFFFFFFFF00FFFFFFFFFFFFFF00FFFFFFFFFFFFFFFFFFFFFFFFFFFFFFFFFFFFFFFFFFFFFF00FFFF
310
FFFFFFFFFF00FFFFFFFFFFFFFFFFFFFFFFFFFFFFFFFFFFFFFFFFFFFF00FFFFFFFFFFFFFFFF00FFFFFFFFFFFFFFFFFFFFFFFFFFFFFFFFFFFFFFFFFFFF00FFFFFFFFFFFFFF00FFFFFFFFFFFFFFFFFFFFFFFFFFFFFFFFFFFFFFFFFFFFFF00FFFFFFFFFFFFFF00FFFFFFFFFFFFFFFFFFFFFFFFFFFFFFFFFFFFFFFFFFFF00FFFFFF
310
FFFFFFFFFF00FFFFFFFFFFFFFFFFFFFFFFFFFFFFFFFFFFFFFFFFFFFF00FFFFFFFFFFFFFF00FFFFFFFFFFFFFFFFFFFFFFFFFFFFFFFFFFFFFFFFFFFF00FFFFFFFFFFFFFFFF00FFFFFFFFFFFFFFFFFFFFFFFFFFFFFFFFFFFFFFFFFF00FFFFFFFFFFFFFFFFFF00FFFFFFFFFFFFFFFFFFFFFFFFFFFFFFFFFFFFFFFF00FFFFFFFFFF
310
FFFFFFFFFF00FFFFFFFFFFFFFFFFFFFFFFFFFFFFFFFFFFFFFF00FFFFFFFFFFFFFFFFFFFF00FFFFFFFFFFFFFFFFFFFFFFFFFFFFFFFFFFFF0000FFFFFFFFFFFFFFFFFFFFFF00FFFFFFFFFFFFFFFFFFFFFFFFFFFF00000000FFFFFFFFFFFFFFFFFFFFFFFFFF00FFFFFFFFFFFFFFFFFFFFFFFFFFFFFFFFFFFFFFFFFFFFFFFFFFFF
310
FFFFFFFF00FFFFFFFFFFFFFFFFFFFFFFFFFFFFFFFFFFFFFFFFFFFFFFFFFFFFFFFFFFFFFF00FFFFFFFFFFFFFFFFFFFFFFFFFFFFFFFFFFFFFFFFFFFFFFFFFFFFFFFFFFFFFF00FFFFFFFFFFFFFFFFFFFFFFFFFFFFFFFFFFFFFFFFFFFFFFFFFFFFFFFFFFFF00FFFFFFFFFFFFFFFFFFFFFFFFFFFFFFFFFFFFFFFFFFFFFFFFFFFFFF
310
FFFFFFFF00FFFFFFFFFFFFFFFFFFFFFFFFFFFFFFFFFFFFFFFFFFFFFFFFFFFFFFFFFFFF00FFFFFFFFFFFFFFFFFFFFFFFFFFFFFFFFFFFFFFFFFFFFFFFFFFFFFFFFFFFF00FFFFFFFFFFFFFFFFFFFFFFFFFFFFFFFFFFFFFFFFFFFFFFFFFFFFFFFFFFFF00FFFFFFFFFFFFFFFFFFFFFFFFFFFFFFFFFFFFFFFFFFFFFFFFFFFFFFFFFF
310
FF00FFFFFFFFFFFFFFFFFFFFFFFFFFFFFFFFFFFFFFFFFFFFFFFFFFFFFFFFFFFFFF00FFFFFFFFFFFFFFFFFFFFFFFFFFFFFFFFFFFFFFFFFFFFFFFFFFFFFFFFFFFF00FFFFFFFFFFFFFFFFFFFFFFFFFFFFFFFFFFFFFFFFFFFFFFFFFFFFFFFFFF0000FFFFFFFFFFFFFFFFFFFFFFFFFFFFFFFFFFFFFFFFFFFFFFFFFFFFFFFF0000FF
310
FFFFFFFFFFFFFFFFFFFFFFFFFFFFFFFFFFFFFFFFFFFFFFFFFF00000000FFFFFFFFFFFFFFFFFFFFFFFFFFFFFFFFFFFFFFFFFFFFFFFFFFFF0000FFFFFFFFFFFFFFFFFFFFFFFFFFFFFFFFFFFFFFFFFFFFFFFFFFFFFFFFFFFFFFFFFFFFFFFFFFFFFFFFFFFFFFFFFFFFFFFFFFFFFFFFFFFFFFFFFFFFFFFFFFFFFFFFFFFFFFFFFFFF
310
FFFFFFFFFFFFFFFFFFFFFFFFFFFFFFFFFFFFFFFFFFFFFFFFFFFFFFFFFFFFFFFFFFFFFFFFFFFFFFFFFFFFFFFFFFFFFFFFFFFFFFFFFFFFFFFF
102
{BLKREFS
331
2BC9
102
}
  0
BLOCK_RECORD
  5
2BA7
330
291B
100
AcDbSymbolTableRecord
100
AcDbBlockTableRecord
  2
AI9-BLK5
340
0
310
2800000020000000200000000100080000000000000400000000000000000000000000000000000000000000000080000080000000808000800000008000800080800000C0C0C000C0DCC000F0CAA6000020400000206000002080000020A0000020C0000020E00000400000004020000040400000406000004080000040A0
310
000040C0000040E00000600000006020000060400000606000006080000060A0000060C0000060E00000800000008020000080400000806000008080000080A0000080C0000080E00000A0000000A0200000A0400000A0600000A0800000A0A00000A0C00000A0E00000C0000000C0200000C0400000C0600000C0800000C0
310
A00000C0C00000C0E00000E0000000E0200000E0400000E0600000E0800000E0A00000E0C00000E0E00040000000400020004000400040006000400080004000A0004000C0004000E00040200000402020004020400040206000402080004020A0004020C0004020E000404000004040200040404000404060004040800040
310
40A0004040C0004040E00040600000406020004060400040606000406080004060A0004060C0004060E00040800000408020004080400040806000408080004080A0004080C0004080E00040A0000040A0200040A0400040A0600040A0800040A0A00040A0C00040A0E00040C0000040C0200040C0400040C0600040C08000
310
40C0A00040C0C00040C0E00040E0000040E0200040E0400040E0600040E0800040E0A00040E0C00040E0E00080000000800020008000400080006000800080008000A0008000C0008000E00080200000802020008020400080206000802080008020A0008020C0008020E00080400000804020008040400080406000804080
310
008040A0008040C0008040E00080600000806020008060400080606000806080008060A0008060C0008060E00080800000808020008080400080806000808080008080A0008080C0008080E00080A0000080A0200080A0400080A0600080A0800080A0A00080A0C00080A0E00080C0000080C0200080C0400080C0600080C0
310
800080C0A00080C0C00080C0E00080E0000080E0200080E0400080E0600080E0800080E0A00080E0C00080E0E000C0000000C0002000C0004000C0006000C0008000C000A000C000C000C000E000C0200000C0202000C0204000C0206000C0208000C020A000C020C000C020E000C0400000C0402000C0404000C0406000C0
310
408000C040A000C040C000C040E000C0600000C0602000C0604000C0606000C0608000C060A000C060C000C060E000C0800000C0802000C0804000C0806000C0808000C080A000C080C000C080E000C0A00000C0A02000C0A04000C0A06000C0A08000C0A0A000C0A0C000C0A0E000C0C00000C0C02000C0C04000C0C06000
310
C0C08000C0C0A000F0FBFF00A4A0A000808080000000FF0000FF000000FFFF00FF000000FF00FF00FFFF0000FFFFFF00FFFFFFFFFFFFFFFFFFFFFFFFFFFFFFFFFFFFFFFFFFFFFFFFFFFFFFFFFFFFFFFFFFFFFFFFFFFFFFFF000000000000000000000000000000000000000000000000FFFFFFFFFFFFFFFF00FFFFFFFFFFFF
310
FFFFFFFFFFFFFFFFFFFFFFFFFFFFFFFFFFFFFFFFFFFFFFFFFF00FFFFFFFFFFFFFFFFFFFFFFFFFFFFFFFFFFFFFFFFFFFFFFFFFFFFFFFFFFFFFF00FFFFFFFFFFFFFFFFFFFFFFFFFFFFFFFFFFFFFFFFFFFFFFFFFFFFFFFFFFFFFF00FFFFFFFFFFFFFFFFFFFFFFFFFFFFFFFFFFFFFFFFFFFFFFFFFFFFFFFFFFFFFF00FFFFFFFFFF
310
FFFFFFFFFFFFFFFFFFFFFFFFFFFFFFFFFFFFFFFFFFFFFFFFFFFF00FFFFFFFFFFFFFFFFFFFFFFFFFFFFFFFFFFFFFFFFFFFFFFFFFFFFFFFFFFFFFF00FFFFFFFFFFFFFFFFFFFFFFFFFFFFFFFFFFFFFFFFFFFFFFFFFFFFFFFFFFFFFF00FFFFFFFFFFFFFFFFFFFFFFFFFFFFFFFFFFFFFFFFFFFFFFFFFFFFFFFFFFFFFF00FFFFFFFF
310
FFFFFFFFFFFFFFFFFFFFFFFFFFFFFFFFFFFFFFFFFFFFFFFFFFFFFF00FFFFFFFFFFFFFFFFFFFFFFFFFFFFFFFFFFFFFFFFFFFFFFFFFFFFFFFFFFFFFF00FFFFFFFFFFFFFFFFFFFFFFFFFFFFFFFFFFFFFFFFFFFFFFFFFFFFFFFFFFFFFF00FFFFFFFFFFFFFFFFFFFFFFFFFFFFFFFFFFFFFFFFFFFFFFFFFFFFFFFFFFFFFF00FFFFFF
310
FFFFFFFFFFFFFFFFFFFFFFFFFFFFFFFFFFFFFFFFFFFFFFFFFFFFFFFF00FFFFFFFFFFFFFFFFFFFFFFFFFFFFFFFFFFFFFFFFFFFFFFFFFFFFFFFFFFFFFF00FFFFFFFFFFFFFFFFFFFFFFFFFFFFFFFFFFFFFFFFFFFFFFFFFFFFFFFFFFFFFF00FFFFFFFFFFFFFFFFFFFFFFFFFFFFFFFFFFFFFFFFFFFFFFFFFFFFFFFFFFFFFF00FFFF
310
FFFFFFFFFFFFFFFFFFFFFFFFFFFFFFFFFFFFFFFFFFFFFFFFFFFFFFFFFF00FFFFFFFFFFFFFFFFFFFFFFFFFFFFFFFFFFFFFFFFFFFFFFFFFFFFFFFFFFFFFF00FFFFFFFFFFFFFFFFFFFFFFFFFFFFFFFFFFFFFFFFFFFFFFFFFFFFFFFFFFFFFF00FFFFFFFFFFFFFFFFFFFFFFFFFFFFFFFFFFFFFFFFFFFFFFFFFFFFFFFFFFFFFF00FF
310
FFFFFFFFFFFFFFFFFFFFFFFFFFFFFFFFFFFFFFFFFFFFFFFFFFFFFFFFFFFF00FFFFFFFFFFFFFFFFFFFFFFFFFFFFFFFFFFFFFFFFFFFFFFFFFFFFFFFFFFFFFF00FFFFFFFFFFFFFFFFFFFFFFFFFFFFFFFFFFFFFFFFFFFFFFFFFFFFFFFFFFFFFF00FFFFFFFFFFFFFFFFFFFFFFFFFFFFFFFFFFFFFFFFFFFFFFFFFFFFFFFFFFFFFF00
310
FFFFFFFFFFFFFFFFFFFFFFFFFFFFFFFFFFFFFFFFFFFFFFFFFFFFFFFFFFFFFF00FFFFFFFFFFFFFFFFFFFFFFFFFFFFFFFFFFFFFFFFFFFFFFFFFFFFFFFFFFFFFF00FFFFFFFFFFFFFFFFFFFFFFFFFFFFFFFFFFFFFFFFFFFFFFFFFFFFFFFFFFFFFF00FFFFFFFFFFFFFFFFFFFFFFFFFFFFFFFFFFFFFFFFFFFFFFFFFFFFFFFFFFFFFF
310
00FFFFFFFFFFFFFFFFFFFFFFFFFFFF000000000000000000FFFFFFFFFFFFFFFF00FFFFFFFFFFFFFFFFFFFFFFFFFFFF00FFFFFFFFFFFFFFFF
102
{BLKREFS
331
2BCA
102
}
  0
BLOCK_RECORD
  5
2BAC
330
291B
100
AcDbSymbolTableRecord
100
AcDbBlockTableRecord
  2
AI9-BLK4
340
0
310
2800000020000000200000000100080000000000000400000000000000000000000000000000000000000000000080000080000000808000800000008000800080800000C0C0C000C0DCC000F0CAA6000020400000206000002080000020A0000020C0000020E00000400000004020000040400000406000004080000040A0
310
000040C0000040E00000600000006020000060400000606000006080000060A0000060C0000060E00000800000008020000080400000806000008080000080A0000080C0000080E00000A0000000A0200000A0400000A0600000A0800000A0A00000A0C00000A0E00000C0000000C0200000C0400000C0600000C0800000C0
310
A00000C0C00000C0E00000E0000000E0200000E0400000E0600000E0800000E0A00000E0C00000E0E00040000000400020004000400040006000400080004000A0004000C0004000E00040200000402020004020400040206000402080004020A0004020C0004020E000404000004040200040404000404060004040800040
310
40A0004040C0004040E00040600000406020004060400040606000406080004060A0004060C0004060E00040800000408020004080400040806000408080004080A0004080C0004080E00040A0000040A0200040A0400040A0600040A0800040A0A00040A0C00040A0E00040C0000040C0200040C0400040C0600040C08000
310
40C0A00040C0C00040C0E00040E0000040E0200040E0400040E0600040E0800040E0A00040E0C00040E0E00080000000800020008000400080006000800080008000A0008000C0008000E00080200000802020008020400080206000802080008020A0008020C0008020E00080400000804020008040400080406000804080
310
008040A0008040C0008040E00080600000806020008060400080606000806080008060A0008060C0008060E00080800000808020008080400080806000808080008080A0008080C0008080E00080A0000080A0200080A0400080A0600080A0800080A0A00080A0C00080A0E00080C0000080C0200080C0400080C0600080C0
310
800080C0A00080C0C00080C0E00080E0000080E0200080E0400080E0600080E0800080E0A00080E0C00080E0E000C0000000C0002000C0004000C0006000C0008000C000A000C000C000C000E000C0200000C0202000C0204000C0206000C0208000C020A000C020C000C020E000C0400000C0402000C0404000C0406000C0
310
408000C040A000C040C000C040E000C0600000C0602000C0604000C0606000C0608000C060A000C060C000C060E000C0800000C0802000C0804000C0806000C0808000C080A000C080C000C080E000C0A00000C0A02000C0A04000C0A06000C0A08000C0A0A000C0A0C000C0A0E000C0C00000C0C02000C0C04000C0C06000
310
C0C08000C0C0A000F0FBFF00A4A0A000808080000000FF0000FF000000FFFF00FF000000FF00FF00FFFF0000FFFFFF00FFFFFFFFFFFFFFFFFFFFFFFFFFFFFFFFFFFFFFFFFFFFFFFFFFFFFFFFFFFFFFFFFFFFFFFFFFFFFFFFFFFFFFFFFFFF00000000FFFFFFFFFFFFFFFFFFFFFF000000FFFFFFFFFFFFFFFFFFFFFFFFFFFF00
310
FFFF00FFFFFFFFFFFFFFFFFFFFFF00FFFFFFFFFFFFFFFFFFFFFFFFFFFFFFFF00FFFF00FFFFFFFFFFFFFFFFFFFFFF00FFFFFFFFFFFFFFFFFFFFFFFFFFFFFFFF00FFFF00FFFFFFFFFFFFFFFFFFFFFF00FFFFFFFFFFFFFFFFFFFFFFFFFFFFFFFF00FFFF00FFFFFFFFFFFFFFFFFFFFFF00FFFFFFFFFFFFFFFFFFFFFFFFFFFFFFFF
310
00FFFF00FFFFFFFFFFFFFFFFFFFFFF00FFFFFFFFFFFFFFFFFFFFFFFFFFFFFFFF00FFFF00FFFFFFFFFFFFFFFFFFFFFF00FFFFFFFFFFFFFFFFFFFFFFFFFFFFFFFF00FFFF00FFFFFFFFFFFFFFFFFFFFFF00FFFFFFFFFFFFFFFFFFFFFFFFFFFFFFFF00FFFF00FFFFFFFFFFFFFFFFFFFFFF00FFFFFFFFFFFFFFFFFFFFFFFFFFFFFF
310
FF00FFFF00FFFFFFFFFFFFFFFFFFFFFF00FFFFFFFFFFFFFFFFFFFFFFFFFFFFFFFF00FFFF00FFFFFFFFFFFFFFFFFFFFFF00FFFFFFFFFFFFFFFFFFFFFFFFFFFFFFFF00FFFF00FFFFFFFFFFFFFFFFFFFFFF00FFFFFFFFFFFFFFFFFFFFFFFFFFFFFFFF00FFFF00FFFFFFFFFFFFFFFFFFFFFF00FFFFFFFFFFFFFFFFFFFFFFFFFFFF
310
FFFF00FFFF00FFFFFFFFFFFFFFFFFFFFFF00FFFFFFFFFFFFFFFFFFFFFFFFFFFFFFFF00FFFF00FFFFFFFFFFFFFFFFFFFFFF00FFFFFFFFFFFFFFFFFFFFFFFFFFFFFFFF00FFFF00FFFFFFFFFFFFFFFFFFFFFF00FFFFFFFFFFFFFFFFFFFFFFFFFFFFFFFF00FFFF00FFFFFFFFFFFFFFFFFFFF00FFFFFFFFFFFFFFFFFFFFFFFFFFFF
310
FFFFFF00FFFF00FFFFFFFFFFFFFFFFFFFF00FFFFFFFFFFFFFFFFFFFFFFFFFFFFFFFFFF00FFFF00FFFFFFFFFFFFFFFFFFFF00FFFFFFFFFFFFFFFFFFFFFFFFFFFFFFFFFF00FFFF00FFFFFFFFFFFFFFFFFFFF00FFFFFFFFFFFFFFFFFFFFFFFFFFFFFFFFFF00FFFF00FFFFFFFFFFFFFFFFFFFF00FFFFFFFFFFFFFFFFFFFFFFFFFF
310
FFFFFFFF00FFFF00FFFFFFFFFFFFFFFFFF0000FFFF00FFFFFFFFFFFFFFFFFFFFFFFFFFFF00FFFF00FFFFFFFFFFFFFFFF0000FFFFFF00FFFFFFFFFFFFFFFFFFFFFFFFFFFF00FFFF00000000000000000000FFFFFFFF00FFFFFFFFFFFFFFFFFFFFFFFFFFFF00FFFFFFFFFFFFFFFFFFFFFFFFFFFFFF00FFFFFFFFFFFFFFFFFFFF
310
FFFFFFFFFF00FFFFFFFFFFFFFFFFFFFFFFFFFFFF00FFFFFFFFFFFFFFFFFFFFFFFFFFFFFFFF00FFFFFFFFFFFFFFFFFFFFFFFFFFFF00FFFFFFFFFFFFFFFFFFFFFFFFFFFFFFFF00FFFFFFFFFFFFFFFFFFFFFFFFFFFFFF00FFFFFFFFFFFFFFFFFFFFFFFFFFFFFF00FFFFFFFFFFFFFFFFFFFFFFFFFFFFFF00FFFFFFFFFFFFFFFFFF
310
FFFFFFFFFFFF00FFFF00000000000000000000FFFFFFFF00FFFFFFFFFFFFFFFFFFFFFFFFFFFF00FFFF00FFFFFFFFFFFFFFFFFF0000FFFF00
102
{BLKREFS
331
2BCB
102
}
  0
BLOCK_RECORD
  5
2BB1
330
291B
100
AcDbSymbolTableRecord
100
AcDbBlockTableRecord
  2
AI9-BLK3
340
0
310
2800000020000000200000000100080000000000000400000000000000000000000000000000000000000000000080000080000000808000800000008000800080800000C0C0C000C0DCC000F0CAA6000020400000206000002080000020A0000020C0000020E00000400000004020000040400000406000004080000040A0
310
000040C0000040E00000600000006020000060400000606000006080000060A0000060C0000060E00000800000008020000080400000806000008080000080A0000080C0000080E00000A0000000A0200000A0400000A0600000A0800000A0A00000A0C00000A0E00000C0000000C0200000C0400000C0600000C0800000C0
310
A00000C0C00000C0E00000E0000000E0200000E0400000E0600000E0800000E0A00000E0C00000E0E00040000000400020004000400040006000400080004000A0004000C0004000E00040200000402020004020400040206000402080004020A0004020C0004020E000404000004040200040404000404060004040800040
310
40A0004040C0004040E00040600000406020004060400040606000406080004060A0004060C0004060E00040800000408020004080400040806000408080004080A0004080C0004080E00040A0000040A0200040A0400040A0600040A0800040A0A00040A0C00040A0E00040C0000040C0200040C0400040C0600040C08000
310
40C0A00040C0C00040C0E00040E0000040E0200040E0400040E0600040E0800040E0A00040E0C00040E0E00080000000800020008000400080006000800080008000A0008000C0008000E00080200000802020008020400080206000802080008020A0008020C0008020E00080400000804020008040400080406000804080
310
008040A0008040C0008040E00080600000806020008060400080606000806080008060A0008060C0008060E00080800000808020008080400080806000808080008080A0008080C0008080E00080A0000080A0200080A0400080A0600080A0800080A0A00080A0C00080A0E00080C0000080C0200080C0400080C0600080C0
310
800080C0A00080C0C00080C0E00080E0000080E0200080E0400080E0600080E0800080E0A00080E0C00080E0E000C0000000C0002000C0004000C0006000C0008000C000A000C000C000C000E000C0200000C0202000C0204000C0206000C0208000C020A000C020C000C020E000C0400000C0402000C0404000C0406000C0
310
408000C040A000C040C000C040E000C0600000C0602000C0604000C0606000C0608000C060A000C060C000C060E000C0800000C0802000C0804000C0806000C0808000C080A000C080C000C080E000C0A00000C0A02000C0A04000C0A06000C0A08000C0A0A000C0A0C000C0A0E000C0C00000C0C02000C0C04000C0C06000
310
C0C08000C0C0A000F0FBFF00A4A0A000808080000000FF0000FF000000FFFF00FF000000FF00FF00FFFF0000FFFFFF00FFFFFFFFFFFFFFFFFFFFFFFFFFFFFFFFFFFFFFFFFFFFFFFFFFFFFFFFFFFFFFFFFFFFFFFFFFFFFFFFFFFFFFFFFFFFFF0000FFFFFFFFFFFFFFFFFFFFFFFFFFFFFFFFFFFFFFFFFFFFFFFFFFFFFFFFFFFF
310
0000FFFFFFFFFFFFFFFFFFFFFFFFFFFFFFFFFFFFFFFFFFFFFFFFFFFFFFFFFFFF0000FFFFFFFFFFFFFFFFFFFFFFFFFFFFFFFFFFFFFFFFFFFFFFFFFFFFFFFFFFFF0000FFFFFFFFFFFFFFFFFFFFFFFFFFFFFFFFFFFFFFFFFFFFFFFFFFFFFFFFFFFF0000FFFFFFFFFFFFFFFFFFFFFFFFFFFFFFFFFFFFFFFFFFFFFFFFFFFFFFFFFF
310
FF0000FFFFFFFFFFFFFFFFFFFFFFFFFFFFFFFFFFFFFFFFFFFFFFFFFFFFFFFFFFFF0000FFFFFFFFFFFFFFFFFFFFFFFFFFFFFFFFFFFFFFFFFFFFFFFFFFFFFFFFFFFF0000FFFFFFFFFFFFFFFFFFFFFFFFFFFFFFFFFFFFFFFFFFFFFFFFFFFFFFFFFFFF0000FFFFFFFFFFFFFFFFFFFFFFFFFFFFFFFFFFFFFFFFFFFFFFFFFFFFFFFF
310
FFFF0000FFFFFFFFFFFFFFFFFFFFFFFFFFFFFFFFFFFFFFFFFFFFFFFFFFFFFFFFFFFF0000FFFFFFFFFFFFFFFFFFFFFFFFFFFFFFFFFFFFFFFFFFFFFFFFFFFFFFFFFFFF0000FFFFFFFFFFFFFFFFFFFFFFFFFFFFFFFFFFFFFFFFFFFFFFFFFFFFFFFFFFFF0000FFFFFFFFFFFFFFFFFFFFFFFFFFFFFFFFFFFFFFFFFFFFFFFFFFFFFF
310
FFFFFF0000FFFFFFFFFFFFFFFFFFFFFFFFFFFFFFFFFFFFFFFFFFFFFFFFFFFFFFFFFFFF0000FFFFFFFFFFFFFFFFFFFFFFFFFFFFFFFFFFFFFFFFFFFFFFFFFFFFFFFFFFFF0000FFFFFFFFFFFFFFFFFFFFFFFFFFFFFFFFFFFFFFFFFFFFFFFFFFFFFFFFFFFF0000FFFFFFFFFFFFFFFFFFFFFFFFFFFFFFFFFFFFFFFFFFFFFFFFFFFF
310
FFFFFFFF0000FFFFFFFFFFFFFFFFFFFFFFFFFFFFFFFFFFFFFFFFFFFFFFFFFFFFFFFFFFFF0000FFFFFFFFFFFFFFFFFFFFFFFFFFFFFFFFFFFFFFFFFFFFFFFFFFFFFFFFFFFF0000FFFFFFFFFFFFFFFFFFFFFFFFFFFFFFFFFFFFFFFFFFFFFFFFFFFFFFFFFFFF0000FFFFFFFFFFFFFFFFFFFFFFFFFFFFFFFFFFFFFFFFFFFFFFFFFF
310
FFFFFFFFFF0000FFFFFFFFFFFFFFFFFFFFFFFFFFFFFFFFFFFFFFFFFFFFFFFFFFFFFFFFFFFF0000FFFFFFFFFFFFFFFFFFFFFFFFFFFFFFFFFFFFFFFFFFFFFFFFFFFFFFFFFFFF0000FFFFFFFFFFFFFFFFFFFFFFFFFFFFFFFFFFFFFFFFFFFFFFFFFFFFFFFFFFFF0000FFFFFFFFFFFFFFFFFFFFFFFFFFFFFFFFFFFFFFFFFFFFFFFF
310
FFFFFFFFFFFF0000FFFFFFFFFFFFFFFFFFFFFFFFFFFFFFFFFFFFFFFFFFFFFFFFFFFFFFFFFFFF0000FFFFFFFFFFFFFFFFFFFFFFFFFFFFFFFFFFFFFFFFFFFFFFFFFFFFFFFFFFFF0000FFFFFFFFFFFFFFFFFFFFFFFFFFFFFFFFFFFFFFFFFFFFFFFFFFFFFFFFFFFF0000FFFFFFFFFFFFFFFFFFFFFFFFFFFFFFFFFFFFFFFFFFFFFF
310
FFFFFFFFFFFFFF0000FFFFFFFFFFFFFFFFFFFFFFFFFFFFFFFFFFFFFFFFFFFFFFFFFFFFFFFFFFFFFFFFFFFFFFFFFFFFFFFFFFFFFFFFFFFFFF
102
{BLKREFS
331
2BCC
102
}
  0
BLOCK_RECORD
  5
2BB6
330
291B
100
AcDbSymbolTableRecord
100
AcDbBlockTableRecord
  2
AI9-BLK2
340
0
310
2800000020000000200000000100080000000000000400000000000000000000000000000000000000000000000080000080000000808000800000008000800080800000C0C0C000C0DCC000F0CAA6000020400000206000002080000020A0000020C0000020E00000400000004020000040400000406000004080000040A0
310
000040C0000040E00000600000006020000060400000606000006080000060A0000060C0000060E00000800000008020000080400000806000008080000080A0000080C0000080E00000A0000000A0200000A0400000A0600000A0800000A0A00000A0C00000A0E00000C0000000C0200000C0400000C0600000C0800000C0
310
A00000C0C00000C0E00000E0000000E0200000E0400000E0600000E0800000E0A00000E0C00000E0E00040000000400020004000400040006000400080004000A0004000C0004000E00040200000402020004020400040206000402080004020A0004020C0004020E000404000004040200040404000404060004040800040
310
40A0004040C0004040E00040600000406020004060400040606000406080004060A0004060C0004060E00040800000408020004080400040806000408080004080A0004080C0004080E00040A0000040A0200040A0400040A0600040A0800040A0A00040A0C00040A0E00040C0000040C0200040C0400040C0600040C08000
310
40C0A00040C0C00040C0E00040E0000040E0200040E0400040E0600040E0800040E0A00040E0C00040E0E00080000000800020008000400080006000800080008000A0008000C0008000E00080200000802020008020400080206000802080008020A0008020C0008020E00080400000804020008040400080406000804080
310
008040A0008040C0008040E00080600000806020008060400080606000806080008060A0008060C0008060E00080800000808020008080400080806000808080008080A0008080C0008080E00080A0000080A0200080A0400080A0600080A0800080A0A00080A0C00080A0E00080C0000080C0200080C0400080C0600080C0
310
800080C0A00080C0C00080C0E00080E0000080E0200080E0400080E0600080E0800080E0A00080E0C00080E0E000C0000000C0002000C0004000C0006000C0008000C000A000C000C000C000E000C0200000C0202000C0204000C0206000C0208000C020A000C020C000C020E000C0400000C0402000C0404000C0406000C0
310
408000C040A000C040C000C040E000C0600000C0602000C0604000C0606000C0608000C060A000C060C000C060E000C0800000C0802000C0804000C0806000C0808000C080A000C080C000C080E000C0A00000C0A02000C0A04000C0A06000C0A08000C0A0A000C0A0C000C0A0E000C0C00000C0C02000C0C04000C0C06000
310
C0C08000C0C0A000F0FBFF00A4A0A000808080000000FF0000FF000000FFFF00FF000000FF00FF00FFFF0000FFFFFF00FFFFFFFFFFFFFFFFFFFFFFFFFFFFFFFFFFFFFFFFFFFFFFFFFFFFFFFFFFFFFFFFFFFFFFFFFFFFFFFFFFFFFFFFFFFFFF0000FFFFFFFFFFFFFFFFFFFFFFFFFFFFFFFFFFFFFFFFFFFFFFFFFFFFFFFFFFFF
310
0000FFFFFFFFFFFFFFFFFFFFFFFFFFFFFFFFFFFFFFFFFFFFFFFFFFFFFFFFFFFF0000FFFFFFFFFFFFFFFFFFFFFFFFFFFFFFFFFFFFFFFFFFFFFFFFFFFFFFFFFF00FFFF00FFFFFFFFFFFFFFFFFFFFFFFFFFFFFFFFFFFFFFFFFFFFFFFFFFFFFFFF00FFFF00FFFFFFFFFFFFFFFFFFFFFFFFFFFFFFFFFFFFFFFFFFFFFFFFFFFFFFFF
310
00FF0000FFFFFFFFFFFFFFFFFFFFFFFFFFFFFFFFFFFFFFFFFFFFFFFFFFFFFFFF00FF0000FFFFFFFFFFFFFFFFFFFFFFFFFFFFFFFFFFFFFFFFFFFFFFFFFFFFFFFF00FF0000FFFFFFFFFFFFFFFFFFFFFFFFFFFFFFFFFFFFFFFFFFFFFFFFFFFFFFFF00000000FFFFFFFFFFFFFFFFFFFFFFFFFFFFFFFFFFFFFFFFFFFFFFFFFFFFFF
310
00FF00FF0000FFFFFFFFFFFFFFFFFFFFFFFFFFFFFFFFFFFFFFFFFFFFFFFFFFFF00FF00FF0000FFFFFFFFFFFFFFFFFFFFFFFFFFFFFFFFFFFFFFFFFFFFFFFFFFFF00FF00FF0000FFFFFFFFFFFFFFFFFFFFFFFFFFFFFFFFFFFFFFFFFFFFFFFFFFFF00FF00FF0000FFFFFFFFFFFFFFFFFFFFFFFFFFFFFFFFFFFFFFFFFFFFFFFFFF
310
FF00FF00FF0000FFFFFFFFFFFFFFFFFFFFFFFFFFFFFFFFFFFFFFFFFFFFFFFFFFFF0000FFFF0000FFFFFFFFFFFFFFFFFFFFFFFFFFFFFFFFFFFFFFFFFFFFFFFFFF00FF00FFFF00FF00FFFFFFFFFFFFFFFFFFFFFFFFFFFFFFFFFFFFFFFFFFFFFFFF00FF00FFFF00FF00FFFFFFFFFFFFFFFFFFFFFFFFFFFFFFFFFFFFFFFFFFFFFF
310
FF00FF00FFFFFF0000FFFFFFFFFFFFFFFFFFFFFFFFFFFFFFFFFFFFFFFFFFFFFFFF00FF00FFFFFF0000FFFFFFFFFFFFFFFFFFFFFFFFFFFFFFFFFFFFFFFFFFFFFFFF00FF00FFFFFF0000FFFFFFFFFFFFFFFFFFFFFFFFFFFFFFFFFFFFFFFFFFFFFFFF0000FFFFFFFF0000FFFFFFFFFFFFFFFFFFFFFFFFFFFFFFFFFFFFFFFFFFFF
310
FF00FF00FFFFFFFF00FF00FFFFFFFFFFFFFFFFFFFFFFFFFFFFFFFFFFFFFFFFFFFF00FF00FFFFFFFF00FF00FFFFFFFFFFFFFFFFFFFFFFFFFFFFFFFFFFFFFFFFFFFF00FF00FFFFFFFF00FF00FFFFFFFFFFFFFFFFFFFFFFFFFFFFFFFFFFFFFFFFFFFF00FF00FFFFFFFF00FF00FFFFFFFFFFFFFFFFFFFFFFFFFFFFFFFFFFFFFFFF
310
FFFF00FF00FFFFFFFFFF0000FFFFFFFFFFFFFFFFFFFFFFFFFFFFFFFFFFFFFFFFFFFF0000FFFFFFFFFFFF0000FFFFFFFFFFFFFFFFFFFFFFFFFFFFFFFFFFFFFFFFFF00FF00FFFFFFFFFFFF00FF00FFFFFFFFFFFFFFFFFFFFFFFFFFFFFFFFFFFFFFFF00FF00FFFFFFFFFFFF00FF00FFFFFFFFFFFFFFFFFFFFFFFFFFFFFFFFFFFF
310
FFFF000000FFFFFFFFFFFF000000FFFFFFFFFFFFFFFFFFFFFFFFFFFFFFFFFFFFFFFFFFFFFFFFFFFFFFFFFFFFFFFFFFFFFFFFFFFFFFFFFFFF
102
{BLKREFS
331
2BCD
102
}
  0
BLOCK_RECORD
  5
2BBB
330
291B
100
AcDbSymbolTableRecord
100
AcDbBlockTableRecord
  2
AI9-BLK1
340
0
310
2800000020000000200000000100080000000000000400000000000000000000000000000000000000000000000080000080000000808000800000008000800080800000C0C0C000C0DCC000F0CAA6000020400000206000002080000020A0000020C0000020E00000400000004020000040400000406000004080000040A0
310
000040C0000040E00000600000006020000060400000606000006080000060A0000060C0000060E00000800000008020000080400000806000008080000080A0000080C0000080E00000A0000000A0200000A0400000A0600000A0800000A0A00000A0C00000A0E00000C0000000C0200000C0400000C0600000C0800000C0
310
A00000C0C00000C0E00000E0000000E0200000E0400000E0600000E0800000E0A00000E0C00000E0E00040000000400020004000400040006000400080004000A0004000C0004000E00040200000402020004020400040206000402080004020A0004020C0004020E000404000004040200040404000404060004040800040
310
40A0004040C0004040E00040600000406020004060400040606000406080004060A0004060C0004060E00040800000408020004080400040806000408080004080A0004080C0004080E00040A0000040A0200040A0400040A0600040A0800040A0A00040A0C00040A0E00040C0000040C0200040C0400040C0600040C08000
310
40C0A00040C0C00040C0E00040E0000040E0200040E0400040E0600040E0800040E0A00040E0C00040E0E00080000000800020008000400080006000800080008000A0008000C0008000E00080200000802020008020400080206000802080008020A0008020C0008020E00080400000804020008040400080406000804080
310
008040A0008040C0008040E00080600000806020008060400080606000806080008060A0008060C0008060E00080800000808020008080400080806000808080008080A0008080C0008080E00080A0000080A0200080A0400080A0600080A0800080A0A00080A0C00080A0E00080C0000080C0200080C0400080C0600080C0
310
800080C0A00080C0C00080C0E00080E0000080E0200080E0400080E0600080E0800080E0A00080E0C00080E0E000C0000000C0002000C0004000C0006000C0008000C000A000C000C000C000E000C0200000C0202000C0204000C0206000C0208000C020A000C020C000C020E000C0400000C0402000C0404000C0406000C0
310
408000C040A000C040C000C040E000C0600000C0602000C0604000C0606000C0608000C060A000C060C000C060E000C0800000C0802000C0804000C0806000C0808000C080A000C080C000C080E000C0A00000C0A02000C0A04000C0A06000C0A08000C0A0A000C0A0C000C0A0E000C0C00000C0C02000C0C04000C0C06000
310
C0C08000C0C0A000F0FBFF00A4A0A000808080000000FF0000FF000000FFFF00FF000000FF00FF00FFFF0000FFFFFF00FFFFFFFFFFFFFFFFFFFFFFFFFFFFFFFFFFFFFFFFFFFFFFFFFFFFFFFFFFFFFFFFFFFFFFFFFFFFFFFFFFFFFF00000000000000000000FFFFFFFFFFFFFFFFFFFFFFFFFFFFFFFFFFFFFFFFFFFF00FFFFFF
310
FFFFFFFFFF00FFFFFFFFFFFFFFFFFFFFFFFFFFFFFFFFFFFFFFFFFFFF00FFFFFFFFFFFFFFFF00FFFFFFFFFFFFFFFFFFFFFFFFFFFFFFFFFFFFFFFFFFFF00FFFFFFFFFFFFFFFF00FFFFFFFFFFFFFFFFFFFFFFFFFFFFFFFFFFFFFFFFFFFF00FF0000000000000000FFFFFFFFFFFFFFFFFFFFFFFFFFFFFFFFFFFFFFFFFFFF00FF00
310
FFFFFFFFFFFFFFFFFFFFFFFFFFFFFFFFFFFFFFFFFFFFFFFFFFFFFFFFFF00FF00FFFFFFFFFFFFFFFFFFFFFFFFFFFFFFFFFFFFFFFFFFFFFFFFFFFFFFFFFF00FF00FFFFFFFFFFFFFFFFFFFFFFFFFFFFFFFFFFFFFFFFFFFFFFFFFFFFFFFFFF00FF00FFFFFFFFFFFFFFFFFFFFFFFFFFFFFFFFFFFFFFFFFFFFFFFFFFFFFFFFFF00FF
310
00FFFFFFFFFFFFFFFFFFFFFFFFFFFFFFFFFFFFFFFFFFFFFFFFFFFFFFFFFF00FF00FFFFFFFFFFFFFFFFFFFFFFFFFFFFFFFFFFFFFFFFFFFFFFFFFFFFFFFFFF00FF00FFFFFFFFFFFFFFFFFFFFFFFFFFFFFFFFFFFFFFFFFFFFFFFFFFFFFFFFFF00FF00FFFFFFFFFFFFFFFFFFFFFFFFFFFFFFFFFFFFFFFFFFFFFFFFFFFFFFFFFF00
310
FF00000000000000FFFFFFFFFFFFFFFFFFFFFFFFFFFFFFFFFFFFFFFFFFFFFF00FFFFFFFFFFFFFF00FFFFFFFFFFFFFFFFFFFFFFFFFFFFFFFFFFFFFFFFFFFFFF00FFFFFFFFFFFFFF00FFFFFFFFFFFFFFFFFFFFFFFFFFFFFFFFFFFFFFFFFFFFFF00FFFFFFFFFFFFFF00FFFFFFFFFFFFFFFFFFFFFFFFFFFFFFFFFFFFFFFFFFFFFF
310
00FF00000000000000FFFFFFFFFFFFFFFFFFFFFFFFFFFFFFFFFFFFFFFFFFFFFF00FF00FFFFFFFFFFFFFFFFFFFFFFFFFFFFFFFFFFFFFFFFFFFFFFFFFFFFFFFFFF00FF00FFFFFFFFFFFFFFFFFFFFFFFFFFFFFFFFFFFFFFFFFFFFFFFFFFFFFFFFFF00FF00FFFFFFFFFFFFFFFFFFFFFFFFFFFFFFFFFFFFFFFFFFFFFFFFFFFFFFFF
310
FF00FF00FFFFFFFFFFFFFFFFFFFFFFFFFFFFFFFFFFFFFFFFFFFFFFFFFFFFFFFFFF00FF00FFFFFFFFFFFFFFFFFFFFFFFFFFFFFFFFFFFFFFFFFFFFFFFFFFFFFFFFFF00FF00FFFFFFFFFFFFFFFFFFFFFFFFFFFFFFFFFFFFFFFFFFFFFFFFFFFFFFFFFF00FF00FFFFFFFFFFFFFFFFFFFFFFFFFFFFFFFFFFFFFFFFFFFFFFFFFFFFFF
310
FFFF00FF0000000000000000FFFFFFFFFFFFFFFFFFFFFFFFFFFFFFFFFFFFFFFFFFFF00FFFFFFFFFFFFFFFF00FFFFFFFFFFFFFFFFFFFFFFFFFFFFFFFFFFFFFFFFFFFF00FFFFFFFFFFFFFFFF00FFFFFFFFFFFFFFFFFFFFFFFFFFFFFFFFFFFFFFFFFFFF00FFFFFFFFFFFFFFFF00FFFFFFFFFFFFFFFFFFFFFFFFFFFFFFFFFFFFFF
310
FFFFFF00000000000000000000FFFFFFFFFFFFFFFFFFFFFFFFFFFFFFFFFFFFFFFFFFFFFFFFFFFFFFFFFFFFFFFFFFFFFFFFFFFFFFFFFFFFFF
102
{BLKREFS
331
2BCE
102
}
  0
BLOCK_RECORD
  5
2BC0
330
291B
100
AcDbSymbolTableRecord
100
AcDbBlockTableRecord
  2
HD_LLC_logo_OT5
340
0
310
2800000020000000200000000100080000000000000400000000000000000000000000000000000000000000000080000080000000808000800000008000800080800000C0C0C000C0DCC000F0CAA6000020400000206000002080000020A0000020C0000020E00000400000004020000040400000406000004080000040A0
310
000040C0000040E00000600000006020000060400000606000006080000060A0000060C0000060E00000800000008020000080400000806000008080000080A0000080C0000080E00000A0000000A0200000A0400000A0600000A0800000A0A00000A0C00000A0E00000C0000000C0200000C0400000C0600000C0800000C0
310
A00000C0C00000C0E00000E0000000E0200000E0400000E0600000E0800000E0A00000E0C00000E0E00040000000400020004000400040006000400080004000A0004000C0004000E00040200000402020004020400040206000402080004020A0004020C0004020E000404000004040200040404000404060004040800040
310
40A0004040C0004040E00040600000406020004060400040606000406080004060A0004060C0004060E00040800000408020004080400040806000408080004080A0004080C0004080E00040A0000040A0200040A0400040A0600040A0800040A0A00040A0C00040A0E00040C0000040C0200040C0400040C0600040C08000
310
40C0A00040C0C00040C0E00040E0000040E0200040E0400040E0600040E0800040E0A00040E0C00040E0E00080000000800020008000400080006000800080008000A0008000C0008000E00080200000802020008020400080206000802080008020A0008020C0008020E00080400000804020008040400080406000804080
310
008040A0008040C0008040E00080600000806020008060400080606000806080008060A0008060C0008060E00080800000808020008080400080806000808080008080A0008080C0008080E00080A0000080A0200080A0400080A0600080A0800080A0A00080A0C00080A0E00080C0000080C0200080C0400080C0600080C0
310
800080C0A00080C0C00080C0E00080E0000080E0200080E0400080E0600080E0800080E0A00080E0C00080E0E000C0000000C0002000C0004000C0006000C0008000C000A000C000C000C000E000C0200000C0202000C0204000C0206000C0208000C020A000C020C000C020E000C0400000C0402000C0404000C0406000C0
310
408000C040A000C040C000C040E000C0600000C0602000C0604000C0606000C0608000C060A000C060C000C060E000C0800000C0802000C0804000C0806000C0808000C080A000C080C000C080E000C0A00000C0A02000C0A04000C0A06000C0A08000C0A0A000C0A0C000C0A0E000C0C00000C0C02000C0C04000C0C06000
310
C0C08000C0C0A000F0FBFF00A4A0A000808080000000FF0000FF000000FFFF00FF000000FF00FF00FFFF0000FFFFFF00FFFFFFFFFFFFFFFFFFFFFFFFFFFFFFFFFFFFFFFFFFFFFFFFFFFFFFFFFFFFFFFFFFFFFFFFFFFFFFFFFFFFFFFFFFFFFFFFFFFFFFFFFFFFFFFFFFFFFFFFFFFFFFFFFFFFFFFFFFFFFFFFFFFFFFFFFFFFFF
310
FFFFFFFFFFFFFFFFFFFFFFFFFFFFFFFFFFFFFFFFFFFFFFFFFFFFFFFFFFFFFFFFFFFFFFFFFFFFFFFFFFFFFFFFFFFFFFFFFFFFFFFFFFFFFFFFFFFFFFFFFFFFFFFFFFFFFFFFFFFFFFFFFFFFFFFFFFFFFFFFFFFFFFFFFFFFFFFFFFFFFFFFFFFFFFFFFFFFFFFFFFFFFFFFFFFFFFFFFFFFFFFFFFFFFFFFFFFFFFFFFFFFFFFFFFFFFF
310
FFFFFFFFFFFFFFFFFFFFFFFFFFFFFFFFFFFFFFFFFFFFFFFFFFFFFFFFFFFFFFFFFFFFFFFFFFFFFFFFFFFFFFFFFFFFFFFFFFFFFFFFFFFFFFFFFFFFFFFFFFFFFFFFFFFFFFFFFFFFFFFFFFFFFFFFFFFFFFFFFFFFFFFFFFFFFFFFFFFFFFFFFFFFFFFFFFFFFFFFFFFFFFFFFFFFFFFFFFFFFFFFFFFFFFFFFFFFFFFFFFFFFFFFFFFFFF
310
FFFFFFFFFFFFFFFFFFFFFFFFFFFFFFFFFFFFFFFFFFFFFFFFFFFFFFFFFFFFFFFFFFFFFFFFFFFFFFFFFFFFFFFFFFFFFFFFFFFFFFFF0000000000000000000000000000000000000000000000000000000000FFFFFF0000000000000000000000000000000000FFFFFFFFFFFFFFFFFFFF0000FFFFFF0000000000000000000000
310
00000000000000FFFFFFFFFFFFFFFFFFFF0000FFFF000000000000000000000000000000000000FFFFFF00000000FFFFFF0000FFFF00FFFFFFFFFFFF00FFFFFF00FFFFFFFFFF00FFFFFF0000000000FFFF0000FFFF00FFFFFFFFFFFF00FFFFFF00FFFFFFFFFF00FFFFFF00FFFF0000FFFF0000FFFF00FFFFFFFFFFFF00FFFF
310
00FFFFFFFFFFFF00FFFFFF00FFFF0000FFFF0000FFFF0000000000FFFF00000000FFFFFF00000000FFFFFF00000000FFFFFF0000FFFFFFFFFFFF00FFFFFFFFFFFFFFFFFF00FFFFFFFFFFFFFFFFFFFFFFFFFF0000FFFFFFFFFFFF00FFFFFFFFFFFFFFFFFF00FFFFFFFFFFFFFFFFFFFFFFFFFF0000FFFFFFFFFFFF00FFFFFFFF
310
FFFFFFFFFF00FFFFFFFFFFFFFFFFFFFFFFFF0000FFFFFF0000000000FFFF00000000FFFFFF0000000000000000000000000000FFFFFFFF00FFFFFFFFFFFF00FFFF00FFFFFFFFFFFF00FFFFFFFFFFFFFFFFFFFFFFFFFFFF00FFFFFFFFFFFF00FFFFFF00FFFFFFFFFF00FFFFFFFFFFFFFFFFFFFFFFFFFFFF0000000000000000
310
FFFFFF00000000000000FFFFFFFFFFFFFFFFFFFFFFFFFFFFFFFFFFFFFFFFFFFFFFFFFFFFFFFFFFFFFFFFFFFFFFFFFFFFFFFFFFFFFFFFFFFFFFFFFFFFFFFFFFFFFFFFFFFFFFFFFFFFFFFFFFFFFFFFFFFFFFFFFFFFFFFFFFFFFFFFFFFFFFFFFFFFFFFFFFFFFFFFFFFFFFFFFFFFFFFFFFFFFFFFFFFFFFFFFFFFFFFFFFFFFFFFFF
310
FFFFFFFFFFFFFFFFFFFFFFFFFFFFFFFFFFFFFFFFFFFFFFFFFFFFFFFFFFFFFFFFFFFFFFFFFFFFFFFFFFFFFFFFFFFFFFFFFFFFFFFFFFFFFFFF
102
{BLKREFS
331
2BE6
102
}
  0
BLOCK_RECORD
  5
2BE5
330
291B
100
AcDbSymbolTableRecord
100
AcDbBlockTableRecord
  2
HD logo-new
340
0
310
2800000020000000200000000100080000000000000400000000000000000000000000000000000000000000000080000080000000808000800000008000800080800000C0C0C000C0DCC000F0CAA6000020400000206000002080000020A0000020C0000020E00000400000004020000040400000406000004080000040A0
310
000040C0000040E00000600000006020000060400000606000006080000060A0000060C0000060E00000800000008020000080400000806000008080000080A0000080C0000080E00000A0000000A0200000A0400000A0600000A0800000A0A00000A0C00000A0E00000C0000000C0200000C0400000C0600000C0800000C0
310
A00000C0C00000C0E00000E0000000E0200000E0400000E0600000E0800000E0A00000E0C00000E0E00040000000400020004000400040006000400080004000A0004000C0004000E00040200000402020004020400040206000402080004020A0004020C0004020E000404000004040200040404000404060004040800040
310
40A0004040C0004040E00040600000406020004060400040606000406080004060A0004060C0004060E00040800000408020004080400040806000408080004080A0004080C0004080E00040A0000040A0200040A0400040A0600040A0800040A0A00040A0C00040A0E00040C0000040C0200040C0400040C0600040C08000
310
40C0A00040C0C00040C0E00040E0000040E0200040E0400040E0600040E0800040E0A00040E0C00040E0E00080000000800020008000400080006000800080008000A0008000C0008000E00080200000802020008020400080206000802080008020A0008020C0008020E00080400000804020008040400080406000804080
310
008040A0008040C0008040E00080600000806020008060400080606000806080008060A0008060C0008060E00080800000808020008080400080806000808080008080A0008080C0008080E00080A0000080A0200080A0400080A0600080A0800080A0A00080A0C00080A0E00080C0000080C0200080C0400080C0600080C0
310
800080C0A00080C0C00080C0E00080E0000080E0200080E0400080E0600080E0800080E0A00080E0C00080E0E000C0000000C0002000C0004000C0006000C0008000C000A000C000C000C000E000C0200000C0202000C0204000C0206000C0208000C020A000C020C000C020E000C0400000C0402000C0404000C0406000C0
310
408000C040A000C040C000C040E000C0600000C0602000C0604000C0606000C0608000C060A000C060C000C060E000C0800000C0802000C0804000C0806000C0808000C080A000C080C000C080E000C0A00000C0A02000C0A04000C0A06000C0A08000C0A0A000C0A0C000C0A0E000C0C00000C0C02000C0C04000C0C06000
310
C0C08000C0C0A000F0FBFF00A4A0A000808080000000FF0000FF000000FFFF00FF000000FF00FF00FFFF0000FFFFFF00FFFFFFFFFFFFFFFFFFFFFFFFFFFFFFFFFFFFFFFFFFFFFFFFFFFFFFFFFFFFFFFFFFFFFFFFFFFFFFFFFFFFFFFFFFFFFFFFFFFFFFFFFFFFFFFFFFFFFFFFFFFFFFFFFFFFFFFFFFFFFFFFFFFFFFFFFFFFFF
310
FFFFFFFFFFFFFFFFFFFFFFFFFFFFFFFFFFFFFFFFFFFFFFFFFFFFFFFFFFFFFFFFFFFFFFFFFFFFFFFFFFFFFFFFFFFFFFFFFFFFFFFFFFFFFFFFFFFFFFFFFFFFFFFFFFFFFFFFFFFFFFFFFFFFFFFFFFFFFFFFFFFFFFFFFFFFFFFFFFFFFFFFFFFFFFFFFFFFFFFFFFFFFFFFFFFFFFFFFFFFFFFFFFFFFFFFFFFFFFFFFFFFFFFFFFFFFF
310
FFFFFFFFFFFFFFFFFFFFFFFFFFFFFFFFFFFFFFFFFFFFFFFFFFFFFFFFFFFFFFFFFFFFFFFFFFFFFFFFFFFFFFFFFFFFFFFFFFFFFFFFFFFFFFFFFFFFFFFFFFFFFFFFFFFFFFFFFFFFFFFFFFFFFFFFFFFFFFFFFFFFFFFFFFFFFFFFFFFFFFFFFFFFFFFFFFFFFFFFFFFFFFFFFFFFFFFFFFFFFFFFFFFFFFFFFFFFFFFFFFFFFFFFFFFFFF
310
FFFFFFFFFFFFFFFFFFFFFFFFFFFFFFFFFFFFFFFFFFFFFFFFFFFFFFFFFFFFFFFFFFFFFFFFFFFFFFFFFFFFFFFFFFFFFFFFFFFFFFFF0000000000000000000000000000000000000000000000000000000000FFFFFF0000000000000000000000000000000000FFFFFFFFFFFFFFFFFFFF0000FFFFFF0000000000000000000000
310
00000000000000FFFFFFFFFFFFFFFFFFFF0000FFFF000000000000000000000000000000000000FFFFFF00000000FFFFFF0000FFFF00FFFFFFFFFFFF00FFFFFF00FFFFFFFFFF00FFFFFF0000000000FFFF0000FFFF00FFFFFFFFFFFF00FFFFFF00FFFFFFFFFF00FFFFFF00FFFF0000FFFF0000FFFF00FFFFFFFFFFFF00FFFF
310
00FFFFFFFFFFFF00FFFFFF00FFFF0000FFFF0000FFFF0000000000FFFF00000000FFFFFF00000000FFFFFF00000000FFFFFF0000FFFFFFFFFFFF00FFFFFFFFFFFFFFFFFF00FFFFFFFFFFFFFFFFFFFFFFFFFF0000FFFFFFFFFFFF00FFFFFFFFFFFFFFFFFF00FFFFFFFFFFFFFFFFFFFFFFFFFF0000FFFFFFFFFFFF00FFFFFFFF
310
FFFFFFFFFF00FFFFFFFFFFFFFFFFFFFFFFFF0000FFFFFF0000000000FFFF00000000FFFFFF0000000000000000000000000000FFFFFFFF00FFFFFFFFFFFF00FFFF00FFFFFFFFFFFF00FFFFFFFFFFFFFFFFFFFFFFFFFFFF00FFFFFFFFFFFF00FFFFFF00FFFFFFFFFF00FFFFFFFFFFFFFFFFFFFFFFFFFFFF0000000000000000
310
FFFFFF00000000000000FFFFFFFFFFFFFFFFFFFFFFFFFFFFFFFFFFFFFFFFFFFFFFFFFFFFFFFFFFFFFFFFFFFFFFFFFFFFFFFFFFFFFFFFFFFFFFFFFFFFFFFFFFFFFFFFFFFFFFFFFFFFFFFFFFFFFFFFFFFFFFFFFFFFFFFFFFFFFFFFFFFFFFFFFFFFFFFFFFFFFFFFFFFFFFFFFFFFFFFFFFFFFFFFFFFFFFFFFFFFFFFFFFFFFFFFFF
310
FFFFFFFFFFFFFFFFFFFFFFFFFFFFFFFFFFFFFFFFFFFFFFFFFFFFFFFFFFFFFFFFFFFFFFFFFFFFFFFFFFFFFFFFFFFFFFFFFFFFFFFFFFFFFFFF
102
{BLKREFS
331
2BEA
331
3044
331
3048
102
}
  0
BLOCK_RECORD
  5
2BE9
330
291B
100
AcDbSymbolTableRecord
100
AcDbBlockTableRecord
  2
HD Logo
340
0
310
2800000020000000200000000100080000000000000400000000000000000000000000000000000000000000000080000080000000808000800000008000800080800000C0C0C000C0DCC000F0CAA6000020400000206000002080000020A0000020C0000020E00000400000004020000040400000406000004080000040A0
310
000040C0000040E00000600000006020000060400000606000006080000060A0000060C0000060E00000800000008020000080400000806000008080000080A0000080C0000080E00000A0000000A0200000A0400000A0600000A0800000A0A00000A0C00000A0E00000C0000000C0200000C0400000C0600000C0800000C0
310
A00000C0C00000C0E00000E0000000E0200000E0400000E0600000E0800000E0A00000E0C00000E0E00040000000400020004000400040006000400080004000A0004000C0004000E00040200000402020004020400040206000402080004020A0004020C0004020E000404000004040200040404000404060004040800040
310
40A0004040C0004040E00040600000406020004060400040606000406080004060A0004060C0004060E00040800000408020004080400040806000408080004080A0004080C0004080E00040A0000040A0200040A0400040A0600040A0800040A0A00040A0C00040A0E00040C0000040C0200040C0400040C0600040C08000
310
40C0A00040C0C00040C0E00040E0000040E0200040E0400040E0600040E0800040E0A00040E0C00040E0E00080000000800020008000400080006000800080008000A0008000C0008000E00080200000802020008020400080206000802080008020A0008020C0008020E00080400000804020008040400080406000804080
310
008040A0008040C0008040E00080600000806020008060400080606000806080008060A0008060C0008060E00080800000808020008080400080806000808080008080A0008080C0008080E00080A0000080A0200080A0400080A0600080A0800080A0A00080A0C00080A0E00080C0000080C0200080C0400080C0600080C0
310
800080C0A00080C0C00080C0E00080E0000080E0200080E0400080E0600080E0800080E0A00080E0C00080E0E000C0000000C0002000C0004000C0006000C0008000C000A000C000C000C000E000C0200000C0202000C0204000C0206000C0208000C020A000C020C000C020E000C0400000C0402000C0404000C0406000C0
310
408000C040A000C040C000C040E000C0600000C0602000C0604000C0606000C0608000C060A000C060C000C060E000C0800000C0802000C0804000C0806000C0808000C080A000C080C000C080E000C0A00000C0A02000C0A04000C0A06000C0A08000C0A0A000C0A0C000C0A0E000C0C00000C0C02000C0C04000C0C06000
310
C0C08000C0C0A000F0FBFF00A4A0A000808080000000FF0000FF000000FFFF00FF000000FF00FF00FFFF0000FFFFFF00FFFFFFFFFFFFFFFFFFFFFFFFFFFFFFFFFFFFFFFFFFFFFFFFFFFFFFFFFFFFFFFFFFFFFFFFFFFFFFFFFFFFFFFFFFFFFFFFFFFFFFFFFFFFFFFFFFFFFFFFFFFFFFFFFFFFFFFFFFFFFFFFFFFFFFFFFFFFFF
310
FFFFFFFFFFFFFFFFFFFFFFFFFFFFFFFFFFFFFFFFFFFFFFFFFFFFFFFFFFFFFFFFFFFFFFFFFFFFFFFFFFFFFFFFFFFFFFFFFFFFFFFFFFFFFFFFFFFFFFFFFFFFFFFFFFFFFFFFFFFFFFFFFFFFFFFFFFFFFFFFFFFFFFFFFFFFFFFFFFFFFFFFFFFFFFFFFFFFFFFFFFFFFFFFFFFFFFFFFFFFFFFFFFFFFFFFFFFFFFFFFFFFFFFFFFFFFF
310
FFFFFFFFFFFFFFFFFFFFFFFFFFFFFFFFFFFFFFFFFFFFFFFFFFFFFFFFFFFFFFFFFFFFFFFFFFFFFFFFFFFFFFFFFFFFFFFFFFFFFFFFFFFFFFFFFFFFFFFFFFFFFFFFFFFFFFFFFFFFFFFFFFFFFFFFFFFFFFFFFFFFFFFFFFFFFFFFFFFFFFFFFFFFFFFFFFFFFFFFFFFFFFFFFFFFFFFFFFFFFFFFFFFFFFFFFFFFFFFFFFFFFFFFFFFFFF
310
FFFFFFFFFFFFFFFFFFFFFFFFFFFFFFFFFFFFFFFFFFFFFFFFFFFFFFFFFFFFFFFFFFFFFFFFFFFFFFFFFFFFFFFFFFFFFFFFFFFFFFFF0000000000000000000000000000000000000000000000000000000000FFFFFF0000000000000000000000000000000000FFFFFFFFFFFFFFFFFFFF0000FFFFFF0000000000000000000000
310
00000000000000FFFFFFFFFFFFFFFFFFFF0000FFFF000000000000000000000000000000000000FFFFFF00000000FFFFFF0000FFFF00FFFFFFFFFFFF00FFFFFF00FFFFFFFFFF00FFFFFF0000000000FFFF0000FFFF00FFFFFFFFFFFF00FFFFFF00FFFFFFFFFF00FFFFFF00FFFF0000FFFF0000FFFF00FFFFFFFFFFFF00FFFF
310
00FFFFFFFFFFFF00FFFFFF00FFFF0000FFFF0000FFFF0000000000FFFF00000000FFFFFF00000000FFFFFF00000000FFFFFF0000FFFFFFFFFFFF00FFFFFFFFFFFFFFFFFF00FFFFFFFFFFFFFFFFFFFFFFFFFF0000FFFFFFFFFFFF00FFFFFFFFFFFFFFFFFF00FFFFFFFFFFFFFFFFFFFFFFFFFF0000FFFFFFFFFFFF00FFFFFFFF
310
FFFFFFFFFF00FFFFFFFFFFFFFFFFFFFFFFFF0000FFFFFF0000000000FFFF00000000FFFFFF0000000000000000000000000000FFFFFFFF00FFFFFFFFFFFF00FFFF00FFFFFFFFFFFF00FFFFFFFFFFFFFFFFFFFFFFFFFFFF00FFFFFFFFFFFF00FFFFFF00FFFFFFFFFF00FFFFFFFFFFFFFFFFFFFFFFFFFFFF0000000000000000
310
FFFFFF00000000000000FFFFFFFFFFFFFFFFFFFFFFFFFFFFFFFFFFFFFFFFFFFFFFFFFFFFFFFFFFFFFFFFFFFFFFFFFFFFFFFFFFFFFFFFFFFFFFFFFFFFFFFFFFFFFFFFFFFFFFFFFFFFFFFFFFFFFFFFFFFFFFFFFFFFFFFFFFFFFFFFFFFFFFFFFFFFFFFFFFFFFFFFFFFFFFFFFFFFFFFFFFFFFFFFFFFFFFFFFFFFFFFFFFFFFFFFFF
310
FFFFFFFFFFFFFFFFFFFFFFFFFFFFFFFFFFFFFFFFFFFFFFFFFFFFFFFFFFFFFFFFFFFFFFFFFFFFFFFFFFFFFFFFFFFFFFFFFFFFFFFFFFFFFFFF
102
{BLKREFS
331
2BF0
331
2BF4
102
}
  0
BLOCK_RECORD
  5
2BF5
330
291B
100
AcDbSymbolTableRecord
100
AcDbBlockTableRecord
  2
Harmonic Drive LLC
340
0
310
2800000020000000200000000100080000000000000400000000000000000000000000000000000000000000000080000080000000808000800000008000800080800000C0C0C000C0DCC000F0CAA6000020400000206000002080000020A0000020C0000020E00000400000004020000040400000406000004080000040A0
310
000040C0000040E00000600000006020000060400000606000006080000060A0000060C0000060E00000800000008020000080400000806000008080000080A0000080C0000080E00000A0000000A0200000A0400000A0600000A0800000A0A00000A0C00000A0E00000C0000000C0200000C0400000C0600000C0800000C0
310
A00000C0C00000C0E00000E0000000E0200000E0400000E0600000E0800000E0A00000E0C00000E0E00040000000400020004000400040006000400080004000A0004000C0004000E00040200000402020004020400040206000402080004020A0004020C0004020E000404000004040200040404000404060004040800040
310
40A0004040C0004040E00040600000406020004060400040606000406080004060A0004060C0004060E00040800000408020004080400040806000408080004080A0004080C0004080E00040A0000040A0200040A0400040A0600040A0800040A0A00040A0C00040A0E00040C0000040C0200040C0400040C0600040C08000
310
40C0A00040C0C00040C0E00040E0000040E0200040E0400040E0600040E0800040E0A00040E0C00040E0E00080000000800020008000400080006000800080008000A0008000C0008000E00080200000802020008020400080206000802080008020A0008020C0008020E00080400000804020008040400080406000804080
310
008040A0008040C0008040E00080600000806020008060400080606000806080008060A0008060C0008060E00080800000808020008080400080806000808080008080A0008080C0008080E00080A0000080A0200080A0400080A0600080A0800080A0A00080A0C00080A0E00080C0000080C0200080C0400080C0600080C0
310
800080C0A00080C0C00080C0E00080E0000080E0200080E0400080E0600080E0800080E0A00080E0C00080E0E000C0000000C0002000C0004000C0006000C0008000C000A000C000C000C000E000C0200000C0202000C0204000C0206000C0208000C020A000C020C000C020E000C0400000C0402000C0404000C0406000C0
310
408000C040A000C040C000C040E000C0600000C0602000C0604000C0606000C0608000C060A000C060C000C060E000C0800000C0802000C0804000C0806000C0808000C080A000C080C000C080E000C0A00000C0A02000C0A04000C0A06000C0A08000C0A0A000C0A0C000C0A0E000C0C00000C0C02000C0C04000C0C06000
310
C0C08000C0C0A000F0FBFF00A4A0A000808080000000FF0000FF000000FFFF00FF000000FF00FF00FFFF0000FFFFFF00FFFFFFFFFFFFFFFFFFFFFFFFFFFFFFFFFFFFFFFFFFFFFFFFFFFFFFFFFFFFFFFFFFFFFFFFFFFFFFFFFFFFFFFFFFFFFFFFFFFFFFFFFFFFFFFFFFFFFFFFFFFFFFFFFFFFFFFFFFFFFFFFFFFFFFFFFFFFFF
310
FFFFFFFFFFFFFFFFFFFFFFFFFFFFFFFFFFFFFFFFFFFFFFFFFFFFFFFFFFFFFFFFFFFFFFFFFFFFFFFFFFFFFFFFFFFFFFFFFFFFFFFFFFFFFFFFFFFFFFFFFFFFFFFFFFFFFFFFFFFFFFFFFFFFFFFFFFFFFFFFFFFFFFFFFFFFFFFFFFFFFFFFFFFFFFFFFFFFFFFFFFFFFFFFFFFFFFFFFFFFFFFFFFFFFFFFFFFFFFFFFFFFFFFFFFFFFF
310
FFFFFFFFFFFFFFFFFFFFFFFFFFFFFFFFFFFFFFFFFFFFFFFFFFFFFFFFFFFFFFFFFFFFFFFFFFFFFFFFFFFFFFFFFFFFFFFFFFFFFFFFFFFFFFFFFFFFFFFFFFFFFFFFFFFFFFFFFFFFFFFFFFFFFFFFFFFFFFFFFFFFFFFFFFFFFFFFFFFFFFFFFFFFFFFFFFFFFFFFFFFFFFFFFFFFFFFFFFFFFFFFFFFFFFFFFFFFFFFFFFFFFFFFFFFFFF
310
FFFFFFFFFFFFFFFFFFFFFFFFFFFFFFFFFFFFFFFFFFFFFFFFFFFFFFFFFFFFFFFFFFFFFFFFFFFFFFFFFFFFFFFFFFFFFFFFFFFFFFFFFFFFFFFFFFFFFFFFFFFFFFFFFFFFFFFFFFFFFFFFFFFFFFFFFFFFFFFFFFFFFFFFFFFFFF000000000000000000000000000000000000000000000000FFFFFFFFFFFFFFFF0000000000000000
310
00000000000000000000000000000000FFFFFFFFFFFFFFFFFFFFFFFF00000000FF00000000FF000000000000FFFFFFFFFFFFFFFFFFFFFFFFFFFFFFFF00000000000000000000000000000000FFFFFFFFFFFFFFFFFFFFFFFFFF00000000000000000000FF000000000000FF00000000FFFFFFFFFFFFFFFFFFFF000000000000
310
00000000FF000000000000FF00000000FFFFFFFFFFFFFFFFFFFFFFFFFFFFFFFFFFFFFFFFFFFFFFFFFFFFFFFFFFFFFFFFFFFFFFFFFFFFFFFFFFFFFFFFFFFFFFFFFFFFFFFFFFFFFFFFFFFFFFFFFFFFFFFFFFFFFFFFFFFFFFFFFFFFFFFFFFFFFFFFFFFFFFFFFFFFFFFFFFFFFFFFFFFFFFFFFFFFFFFFFFFFFFFFFFFFFFFFFFFFFF
310
FFFFFFFFFFFFFFFFFFFFFFFFFFFFFFFFFFFFFFFFFFFFFFFFFFFFFFFFFFFFFFFFFFFFFFFFFFFFFFFFFFFFFFFFFFFFFFFFFFFFFFFFFFFFFFFFFFFFFFFFFFFFFFFFFFFFFFFFFFFFFFFFFFFFFFFFFFFFFFFFFFFFFFFFFFFFFFFFFFFFFFFFFFFFFFFFFFFFFFFFFFFFFFFFFFFFFFFFFFFFFFFFFFFFFFFFFFFFFFFFFFFFFFFFFFFFFF
310
FFFFFFFFFFFFFFFFFFFFFFFFFFFFFFFFFFFFFFFFFFFFFFFFFFFFFFFFFFFFFFFFFFFFFFFFFFFFFFFFFFFFFFFFFFFFFFFFFFFFFFFFFFFFFFFFFFFFFFFFFFFFFFFFFFFFFFFFFFFFFFFFFFFFFFFFFFFFFFFFFFFFFFFFFFFFFFFFFFFFFFFFFFFFFFFFFFFFFFFFFFFFFFFFFFFFFFFFFFFFFFFFFFFFFFFFFFFFFFFFFFFFFFFFFFFFFF
310
FFFFFFFFFFFFFFFFFFFFFFFFFFFFFFFFFFFFFFFFFFFFFFFFFFFFFFFFFFFFFFFFFFFFFFFFFFFFFFFFFFFFFFFFFFFFFFFFFFFFFFFFFFFFFFFF
102
{BLKREFS
331
2BFA
331
2BFE
102
}
  0
BLOCK_RECORD
  5
3039
330
291B
100
AcDbSymbolTableRecord
100
AcDbBlockTableRecord
  2
HD LLC
340
0
310
2800000020000000200000000100080000000000000400000000000000000000000000000000000000000000000080000080000000808000800000008000800080800000C0C0C000C0DCC000F0CAA6000020400000206000002080000020A0000020C0000020E00000400000004020000040400000406000004080000040A0
310
000040C0000040E00000600000006020000060400000606000006080000060A0000060C0000060E00000800000008020000080400000806000008080000080A0000080C0000080E00000A0000000A0200000A0400000A0600000A0800000A0A00000A0C00000A0E00000C0000000C0200000C0400000C0600000C0800000C0
310
A00000C0C00000C0E00000E0000000E0200000E0400000E0600000E0800000E0A00000E0C00000E0E00040000000400020004000400040006000400080004000A0004000C0004000E00040200000402020004020400040206000402080004020A0004020C0004020E000404000004040200040404000404060004040800040
310
40A0004040C0004040E00040600000406020004060400040606000406080004060A0004060C0004060E00040800000408020004080400040806000408080004080A0004080C0004080E00040A0000040A0200040A0400040A0600040A0800040A0A00040A0C00040A0E00040C0000040C0200040C0400040C0600040C08000
310
40C0A00040C0C00040C0E00040E0000040E0200040E0400040E0600040E0800040E0A00040E0C00040E0E00080000000800020008000400080006000800080008000A0008000C0008000E00080200000802020008020400080206000802080008020A0008020C0008020E00080400000804020008040400080406000804080
310
008040A0008040C0008040E00080600000806020008060400080606000806080008060A0008060C0008060E00080800000808020008080400080806000808080008080A0008080C0008080E00080A0000080A0200080A0400080A0600080A0800080A0A00080A0C00080A0E00080C0000080C0200080C0400080C0600080C0
310
800080C0A00080C0C00080C0E00080E0000080E0200080E0400080E0600080E0800080E0A00080E0C00080E0E000C0000000C0002000C0004000C0006000C0008000C000A000C000C000C000E000C0200000C0202000C0204000C0206000C0208000C020A000C020C000C020E000C0400000C0402000C0404000C0406000C0
310
408000C040A000C040C000C040E000C0600000C0602000C0604000C0606000C0608000C060A000C060C000C060E000C0800000C0802000C0804000C0806000C0808000C080A000C080C000C080E000C0A00000C0A02000C0A04000C0A06000C0A08000C0A0A000C0A0C000C0A0E000C0C00000C0C02000C0C04000C0C06000
310
C0C08000C0C0A000F0FBFF00A4A0A000808080000000FF0000FF000000FFFF00FF000000FF00FF00FFFF0000FFFFFF00FFFFFFFFFFFFFFFFFFFFFFFFFFFFFFFFFFFFFFFFFFFFFFFFFFFFFFFFFFFFFFFFFFFFFFFFFFFFFFFFFFFFFFFFFFFFFFFFFFFFFFFFFFFFFFFFFFFFFFFFFFFFFFFFFFFFFFFFFFFFFFFFFFFFFFFFFFFFFF
310
FFFFFFFFFFFFFFFFFFFFFFFFFFFFFFFFFFFFFFFFFFFFFFFFFFFFFFFFFFFFFFFFFFFFFFFFFFFFFFFFFFFFFFFFFFFFFFFFFFFFFFFFFFFFFFFFFFFFFFFFFFFFFFFFFFFFFFFFFFFFFFFFFFFFFFFFFFFFFFFFFFFFFFFFFFFFFFFFFFFFFFFFFFFFFFFFFFFFFFFFFFFFFFFFFFFFFFFFFFFFFFFFFFFFFFFFFFFFFFFFFFFFFFFFFFFFFF
310
FFFFFFFFFFFFFFFFFFFFFFFFFFFFFFFFFFFFFFFFFFFFFFFFFFFFFFFFFFFFFFFFFFFFFFFFFFFFFFFFFFFFFFFFFFFFFFFFFFFFFFFFFFFFFFFFFFFFFFFFFFFFFFFFFFFFFFFFFFFFFFFFFFFFFFFFFFFFFFFFFFFFFFFFFFFFFFFFFFFFFFFFFFFFFFFFFFFFFFFFFFFFFFFFFFFFFFFFFFFFFFFFFFFFFFFFFFFFFFFFFFFFFFFFFFFFFF
310
FFFFFFFFFFFFFFFFFFFFFFFFFFFFFFFFFFFFFFFFFFFFFFFFFFFFFFFFFFFFFFFFFFFFFFFFFFFFFFFFFFFFFFFFFFFFFFFFFFFFFFFFFFFFFFFFFFFFFFFFFFFFFFFFFFFFFFFFFFFFFFFFFFFFFFFFFFFFFFFFFFFFFFFFFFFFFFFFFFFFFFFFFFFFFFFFFFFFFFFFFFFFFFFFFFFFFFFFFFFFFFFFFFFFFFFFFFFFFFFFFFFFFFFFFFFF00
310
000000000000000000FFFFFFFFFFFFFFFFFFFFFFFFFFFFFFFFFFFFFFFFFFFF00000000000000000000FFFFFFFFFFFFFFFFFFFFFFFFFFFFFFFFFFFFFFFFFFFF00000000000000000000FFFFFFFFFFFFFFFFFFFFFFFFFFFFFFFFFFFFFFFFFFFF00000000000000000000FFFFFFFFFFFFFFFFFFFFFFFFFFFFFFFFFFFFFFFFFFFF
310
FFFFFFFFFFFFFFFFFFFFFFFFFFFFFFFFFFFFFFFFFFFFFFFFFFFFFFFFFFFFFFFFFFFFFFFFFFFFFFFFFFFFFFFFFFFFFFFFFFFFFFFFFFFFFFFFFFFFFFFFFFFFFFFFFFFFFFFFFFFFFFFFFFFFFFFFFFFFFFFFFFFFFFFFFFFFFFFFFFFFFFFFFFFFFFFFFFFFFFFFFFFFFFFFFFFFFFFFFFFFFFFFFFFFFFFFFFFFFFFFFFFFFFFFFFFFFF
310
FFFFFFFFFFFFFFFFFFFFFFFFFFFFFFFFFFFFFFFFFFFFFFFFFFFFFFFFFFFFFFFFFFFFFFFFFFFFFFFFFFFFFFFFFFFFFFFFFFFFFFFFFFFFFFFFFFFFFFFFFFFFFFFFFFFFFFFFFFFFFFFFFFFFFFFFFFFFFFFFFFFFFFFFFFFFFFFFFFFFFFFFFFFFFFFFFFFFFFFFFFFFFFFFFFFFFFFFFFFFFFFFFFFFFFFFFFFFFFFFFFFFFFFFFFFFFF
310
FFFFFFFFFFFFFFFFFFFFFFFFFFFFFFFFFFFFFFFFFFFFFFFFFFFFFFFFFFFFFFFFFFFFFFFFFFFFFFFFFFFFFFFFFFFFFFFFFFFFFFFFFFFFFFFFFFFFFFFFFFFFFFFFFFFFFFFFFFFFFFFFFFFFFFFFFFFFFFFFFFFFFFFFFFFFFFFFFFFFFFFFFFFFFFFFFFFFFFFFFFFFFFFFFFFFFFFFFFFFFFFFFFFFFFFFFFFFFFFFFFFFFFFFFFFFFF
310
FFFFFFFFFFFFFFFFFFFFFFFFFFFFFFFFFFFFFFFFFFFFFFFFFFFFFFFFFFFFFFFFFFFFFFFFFFFFFFFFFFFFFFFFFFFFFFFFFFFFFFFFFFFFFFFF
102
{BLKREFS
331
303E
331
3042
102
}
  0
BLOCK_RECORD
  5
3049
330
291B
100
AcDbSymbolTableRecord
100
AcDbBlockTableRecord
  2
NTC
340
0
310
2800000020000000200000000100080000000000000400000000000000000000000000000000000000000000000080000080000000808000800000008000800080800000C0C0C000C0DCC000F0CAA6000020400000206000002080000020A0000020C0000020E00000400000004020000040400000406000004080000040A0
310
000040C0000040E00000600000006020000060400000606000006080000060A0000060C0000060E00000800000008020000080400000806000008080000080A0000080C0000080E00000A0000000A0200000A0400000A0600000A0800000A0A00000A0C00000A0E00000C0000000C0200000C0400000C0600000C0800000C0
310
A00000C0C00000C0E00000E0000000E0200000E0400000E0600000E0800000E0A00000E0C00000E0E00040000000400020004000400040006000400080004000A0004000C0004000E00040200000402020004020400040206000402080004020A0004020C0004020E000404000004040200040404000404060004040800040
310
40A0004040C0004040E00040600000406020004060400040606000406080004060A0004060C0004060E00040800000408020004080400040806000408080004080A0004080C0004080E00040A0000040A0200040A0400040A0600040A0800040A0A00040A0C00040A0E00040C0000040C0200040C0400040C0600040C08000
310
40C0A00040C0C00040C0E00040E0000040E0200040E0400040E0600040E0800040E0A00040E0C00040E0E00080000000800020008000400080006000800080008000A0008000C0008000E00080200000802020008020400080206000802080008020A0008020C0008020E00080400000804020008040400080406000804080
310
008040A0008040C0008040E00080600000806020008060400080606000806080008060A0008060C0008060E00080800000808020008080400080806000808080008080A0008080C0008080E00080A0000080A0200080A0400080A0600080A0800080A0A00080A0C00080A0E00080C0000080C0200080C0400080C0600080C0
310
800080C0A00080C0C00080C0E00080E0000080E0200080E0400080E0600080E0800080E0A00080E0C00080E0E000C0000000C0002000C0004000C0006000C0008000C000A000C000C000C000E000C0200000C0202000C0204000C0206000C0208000C020A000C020C000C020E000C0400000C0402000C0404000C0406000C0
310
408000C040A000C040C000C040E000C0600000C0602000C0604000C0606000C0608000C060A000C060C000C060E000C0800000C0802000C0804000C0806000C0808000C080A000C080C000C080E000C0A00000C0A02000C0A04000C0A06000C0A08000C0A0A000C0A0C000C0A0E000C0C00000C0C02000C0C04000C0C06000
310
C0C08000C0C0A000F0FBFF00A4A0A000808080000000FF0000FF000000FFFF00FF000000FF00FF00FFFF0000FFFFFF00FFFFFFFFFFFFFFFFFFFFFFFFFFFFFFFFFFFFFFFFFFFFFFFFFFFFFFFFFFFFFFFFFFFFFFFFFFFFFFFFFFFFFFFFFFFFFFFFFFFFFFFFFFFFFFFFFFFFFFFFFFFFFFFFFFFFFFFFFFFFFFFFFFFFFFFFFFFFFF
310
FFFFFFFFFFFFFFFFFFFFFFFFFFFFFFFFFFFFFFFFFFFFFFFFFFFFFFFFFFFFFFFFFFFFFFFFFFFFFFFFFFFFFFFFFFFFFFFFFFFFFFFFFFFFFFFFFFFFFFFFFFFFFFFFFFFFFFFFFFFFFFFFFFFFFFFFFFFFFFFFFFFFFFFFFFFFFFFFFFFFFFFFFFFFFFFFFFFFFFFFFFFFFFFFFFFFFFFFFFFFFFFFFFFFFFFFFFFFFFFFFFFFFFFFFFFFFF
310
FFFFFFFFFFFFFFFFFFFFFFFFFFFFFFFFFFFFFFFFFFFFFFFFFFFFFFFFFFFFFFFFFFFFFFFFFFFFFFFFFFFFFFFFFFFFFFFFFFFFFFFFFFFFFFFFFFFFFFFFFFFFFFFFFFFFFFFFFFFFFFFFFFFFFFFFFFFFFFFFFFFFFFFFFFFFFFFFFFFFFFFFFFFFFFFFFFFFFFFFFFFFFFFFFFFFFFFFFFFFFFFFFFFFFFFFFFFFFFFFFFFFFFFFFFFFFF
310
FFFFFFFFFFFFFFFFFFFFFFFFFFFFFFFFFFFFFFFF000000000000000000000000000000000000000000000000000000000000FFFF00FF0000000000000000FFFFFFFFFFFFFFFFFFFFFFFFFFFFFFFFFFFFFF00FFFF00FF0000000000000000FFFFFFFFFFFFFFFFFFFFFFFFFFFFFFFFFFFFFF00FFFF00FF000000000000000000
310
00000000000000000000000000FFFFFFFFFF00FFFF00FF0000000000000000000000000000000000000000000000000000FF00FFFF00FF0000000000000000000000000000000000000000000000000000FF00FFFF00FF0000000000000000000000000000000000000000000000000000FF00FFFF00FF0000000000000000
310
00000000000000000000000000000000FFFFFF00FFFF00FF0000000000FFFFFFFFFFFFFFFFFFFFFFFFFFFFFFFFFFFFFFFFFFFF00FFFF000000000000000000000000000000000000000000000000000000000000FFFFFFFFFFFFFFFFFFFFFFFFFFFFFFFFFFFFFFFFFFFFFFFFFFFFFFFFFFFFFFFFFFFFFFFFFFFFFFFFFFFFFF
310
FFFFFFFFFFFFFFFFFFFFFFFFFFFFFFFFFFFFFFFFFFFFFFFFFFFFFFFFFFFFFFFFFFFFFFFFFFFFFFFFFFFFFFFFFFFFFFFFFFFFFFFFFFFFFFFFFFFFFFFFFFFFFFFFFFFFFFFFFFFFFFFFFFFFFFFFFFFFFFFFFFFFFFFFFFFFFFFFFFFFFFFFFFFFFFFFFFFFFFFFFFFFFFFFFFFFFFFFFFFFFFFFFFFFFFFFFFFFFFFFFFFFFFFFFFFFFF
310
FFFFFFFFFFFFFFFFFFFFFFFFFFFFFFFFFFFFFFFFFFFFFFFFFFFFFFFFFFFFFFFFFFFFFFFFFFFFFFFFFFFFFFFFFFFFFFFFFFFFFFFFFFFFFFFFFFFFFFFFFFFFFFFFFFFFFFFFFFFFFFFFFFFFFFFFFFFFFFFFFFFFFFFFFFFFFFFFFFFFFFFFFFFFFFFFFFFFFFFFFFFFFFFFFFFFFFFFFFFFFFFFFFFFFFFFFFFFFFFFFFFFFFFFFFFFFF
310
FFFFFFFFFFFFFFFFFFFFFFFFFFFFFFFFFFFFFFFFFFFFFFFFFFFFFFFFFFFFFFFFFFFFFFFFFFFFFFFFFFFFFFFFFFFFFFFFFFFFFFFFFFFFFFFF
102
{BLKREFS
331
304F
331
3055
102
}
  0
ENDTAB
  0
ENDSEC
  0
SECTION
  2
BLOCKS
  0
BLOCK
  5
2939
330
2938
100
AcDbEntity
  8
0
100
AcDbBlockBegin
  2
*Model_Space
 70
     0
 10
0.0
 20
0.0
 30
0.0
  3
*Model_Space
  1

  0
ENDBLK
  5
293A
330
2938
100
AcDbEntity
  8
0
100
AcDbBlockEnd
  0
BLOCK
  5
2935
330
2934
100
AcDbEntity
 67
     1
  8
0
100
AcDbBlockBegin
  2
*Paper_Space
 70
     0
 10
0.0
 20
0.0
 30
0.0
  3
*Paper_Space
  1

  0
ENDBLK
  5
2936
330
2934
100
AcDbEntity
 67
     1
  8
0
100
AcDbBlockEnd
  0
BLOCK
  5
2952
330
2951
100
AcDbEntity
  8
0
100
AcDbBlockBegin
  2
$MODEL_SPACE
 70
     0
 10
0.0
 20
0.0
 30
0.0
  3
$MODEL_SPACE
  1

  0
ENDBLK
  5
2953
330
2951
100
AcDbEntity
  8
0
100
AcDbBlockEnd
  0
BLOCK
  5
2955
330
2954
100
AcDbEntity
  8
0
100
AcDbBlockBegin
  2
$PAPER_SPACE
 70
     0
 10
0.0
 20
0.0
 30
0.0
  3
$PAPER_SPACE
  1

  0
ENDBLK
  5
2956
330
2954
100
AcDbEntity
  8
0
100
AcDbBlockEnd
  0
BLOCK
  5
2B84
330
2B81
100
AcDbEntity
  8
0
 62
     7
100
AcDbBlockBegin
  2
AI9-BLK14
 70
     0
 10
0.0
 20
0.0
 30
0.0
  3
AI9-BLK14
  1

  0
SPLINE
  5
2B82
330
2B81
100
AcDbEntity
  8
LAYER_1
 62
     7
100
AcDbSpline
210
0.0
220
0.0
230
1.0
 70
    11
 71
     3
 72
    23
 73
    19
 74
     0
 42
0.0000000001
 43
0.0000000001
 40
0.0
 40
0.0
 40
0.0
 40
0.0
 40
1.0
 40
1.0
 40
1.0
 40
2.0
 40
2.0
 40
2.0
 40
3.0
 40
3.0
 40
3.0
 40
4.0
 40
4.0
 40
4.0
 40
5.0
 40
5.0
 40
5.0
 40
6.0
 40
6.0
 40
6.0
 40
6.0
 10
-10.90321044921874
 20
10.88107571072048
 30
0.0
 10
-10.90321044921874
 20
10.88107571072048
 30
0.0
 10
-10.90321044921874
 20
-10.88107571072048
 30
0.0
 10
-10.90321044921874
 20
-10.88107571072048
 30
0.0
 10
-10.90321044921874
 20
-10.88107571072048
 30
0.0
 10
1.752692328559025
 20
-10.88107571072048
 30
0.0
 10
1.752692328559025
 20
-10.88107571072048
 30
0.0
 10
3.280592176649305
 20
-10.88107571072048
 30
0.0
 10
10.90321044921874
 20
-10.32383151584201
 30
0.0
 10
10.90321044921874
 20
0.6792867024739583
 30
0.0
 10
10.90321044921874
 20
10.61700914171006
 30
0.0
 10
2.773129611545138
 20
10.87952541775172
 30
0.0
 10
2.691136338975693
 20
10.88090345594618
 30
0.0
 10
2.691136338975693
 20
10.88090345594618
 30
0.0
 10
-9.903099229600693
 20
10.88107571072048
 30
0.0
 10
-9.903099229600693
 20
10.88107571072048
 30
0.0
 10
-9.903099229600693
 20
10.88107571072048
 30
0.0
 10
-10.90321044921874
 20
10.88107571072048
 30
0.0
 10
-10.90321044921874
 20
10.88107571072048
 30
0.0
  0
SPLINE
  5
2B83
330
2B81
100
AcDbEntity
  8
LAYER_1
 62
     7
100
AcDbSpline
210
0.0
220
0.0
230
1.0
 70
    11
 71
     3
 72
    20
 73
    16
 74
     0
 42
0.0000000001
 43
0.0000000001
 40
0.0
 40
0.0
 40
0.0
 40
0.0
 40
1.0
 40
1.0
 40
1.0
 40
2.0
 40
2.0
 40
2.0
 40
3.0
 40
3.0
 40
3.0
 40
4.0
 40
4.0
 40
4.0
 40
5.0
 40
5.0
 40
5.0
 40
5.0
 10
2.672877332899305
 20
8.881197781032986
 30
0.0
 10
2.905421278211805
 20
8.874307590060762
 30
0.0
 10
8.902988009982637
 20
8.616442192925347
 30
0.0
 10
8.902988009982637
 20
0.6792867024739583
 30
0.0
 10
8.902988009982637
 20
-8.191661919487842
 30
0.0
 10
3.430109320746526
 20
-8.881197781032986
 30
0.0
 10
1.752692328559025
 20
-8.881197781032986
 30
0.0
 10
1.752692328559025
 20
-8.881197781032986
 30
0.0
 10
-7.231427680121528
 20
-8.881197781032986
 30
0.0
 10
-8.902988009982637
 20
-8.881197781032986
 30
0.0
 10
-8.902988009982637
 20
-7.174497477213541
 30
0.0
 10
-8.902988009982637
 20
7.174497477213541
 30
0.0
 10
-8.902988009982637
 20
8.881197781032986
 30
0.0
 10
-7.208690049913191
 20
8.881197781032986
 30
0.0
 10
2.672877332899305
 20
8.881197781032986
 30
0.0
 10
2.672877332899305
 20
8.881197781032986
 30
0.0
  0
ENDBLK
  5
2B85
330
2B81
100
AcDbEntity
  8
0
100
AcDbBlockEnd
  0
BLOCK
  5
2B89
330
2B86
100
AcDbEntity
  8
0
 62
     7
100
AcDbBlockBegin
  2
AI9-BLK13
 70
     0
 10
0.0
 20
0.0
 30
0.0
  3
AI9-BLK13
  1

  0
LWPOLYLINE
  5
2B87
330
2B86
100
AcDbEntity
  8
LAYER_1
 62
     7
100
AcDbPolyline
 90
       12
 70
     1
 43
0.0
 10
-3.792361111111107
 20
10.7376736111111
 10
-2.469444444444443
 20
10.7376736111111
 10
-2.469444444444443
 20
1.874131944444444
 10
2.469444444444443
 20
1.874131944444444
 10
2.469444444444443
 20
10.7376736111111
 10
3.792361111111107
 20
10.7376736111111
 10
3.792361111111107
 20
-10.7376736111111
 10
2.469444444444443
 20
-10.7376736111111
 10
2.469444444444443
 20
-0.6835069444444444
 10
-2.469444444444443
 20
-0.6835069444444444
 10
-2.469444444444443
 20
-10.7376736111111
 10
-3.792361111111107
 20
-10.7376736111111
  0
HATCH
  5
2B88
330
2B86
100
AcDbEntity
  8
LAYER_1
 62
     7
100
AcDbHatch
 10
0.0
 20
0.0
 30
0.0
210
0.0
220
0.0
230
1.0
  2
SOLID
 70
     1
 71
     0
 91
        1
 92
        3
 72
     0
 73
     1
 93
       12
 10
-3.792361111111107
 20
10.7376736111111
 10
-2.469444444444443
 20
10.7376736111111
 10
-2.469444444444443
 20
1.874131944444444
 10
2.469444444444443
 20
1.874131944444444
 10
2.469444444444443
 20
10.7376736111111
 10
3.792361111111107
 20
10.7376736111111
 10
3.792361111111107
 20
-10.7376736111111
 10
2.469444444444443
 20
-10.7376736111111
 10
2.469444444444443
 20
-0.6835069444444444
 10
-2.469444444444443
 20
-0.6835069444444444
 10
-2.469444444444443
 20
-10.7376736111111
 10
-3.792361111111107
 20
-10.7376736111111
 97
        0
 75
     2
 76
     1
 98
        1
 10
0.0
 20
0.0
  0
ENDBLK
  5
2B8A
330
2B86
100
AcDbEntity
  8
0
100
AcDbBlockEnd
  0
BLOCK
  5
2B8E
330
2B8B
100
AcDbEntity
  8
0
 62
     7
100
AcDbBlockBegin
  2
AI9-BLK11
 70
     0
 10
0.0
 20
0.0
 30
0.0
  3
AI9-BLK11
  1

  0
SPLINE
  5
2B8C
330
2B8B
100
AcDbEntity
  8
LAYER_1
 62
     7
100
AcDbSpline
210
0.0
220
0.0
230
1.0
 70
    11
 71
     3
 72
    26
 73
    22
 74
     0
 42
0.0000000001
 43
0.0000000001
 40
0.0
 40
0.0
 40
0.0
 40
0.0
 40
1.0
 40
1.0
 40
1.0
 40
2.0
 40
2.0
 40
2.0
 40
3.0
 40
3.0
 40
3.0
 40
4.0
 40
4.0
 40
4.0
 40
5.0
 40
5.0
 40
5.0
 40
6.0
 40
6.0
 40
6.0
 40
7.0
 40
7.0
 40
7.0
 40
7.0
 10
-2.645833333333333
 20
0.9039930555555551
 30
0.0
 10
-2.645833333333333
 20
0.9039930555555551
 30
0.0
 10
-2.645833333333333
 20
8.180034722222217
 30
0.0
 10
-2.645833333333333
 20
8.180034722222217
 30
0.0
 10
-2.645833333333333
 20
8.180034722222217
 30
0.0
 10
0.465087890625
 20
8.180034722222217
 30
0.0
 10
0.465087890625
 20
8.180034722222217
 30
0.0
 10
0.9026150173611108
 20
8.180034722222217
 30
0.0
 10
1.24988064236111
 20
8.034651692708331
 30
0.0
 10
1.506884765625
 20
7.745263671874997
 30
0.0
 10
2.001600477430554
 20
7.194048394097221
 30
0.0
 10
2.248958333333332
 20
6.160519748263887
 30
0.0
 10
2.248958333333332
 20
4.643299696180553
 30
0.0
 10
2.248958333333332
 20
3.232188585069443
 30
0.0
 10
2.072569444444444
 20
2.256537543402775
 30
0.0
 10
1.720480685763888
 20
1.715657552083333
 30
0.0
 10
1.368391927083333
 20
1.174088541666665
 30
0.0
 10
0.8929687499999998
 20
0.9039930555555551
 30
0.0
 10
0.2942111545138888
 20
0.9039930555555551
 30
0.0
 10
0.2942111545138888
 20
0.9039930555555551
 30
0.0
 10
-2.645833333333333
 20
0.9039930555555551
 30
0.0
 10
-2.645833333333333
 20
0.9039930555555551
 30
0.0
  0
SPLINE
  5
2B8D
330
2B8B
100
AcDbEntity
  8
LAYER_1
 62
     7
100
AcDbSpline
210
0.0
220
0.0
230
1.0
 70
    11
 71
     3
 72
    68
 73
    64
 74
     0
 42
0.0000000001
 43
0.0000000001
 40
0.0
 40
0.0
 40
0.0
 40
0.0
 40
1.0
 40
1.0
 40
1.0
 40
2.0
 40
2.0
 40
2.0
 40
3.0
 40
3.0
 40
3.0
 40
4.0
 40
4.0
 40
4.0
 40
5.0
 40
5.0
 40
5.0
 40
6.0
 40
6.0
 40
6.0
 40
7.0
 40
7.0
 40
7.0
 40
8.0
 40
8.0
 40
8.0
 40
9.0
 40
9.0
 40
9.0
 40
10.0
 40
10.0
 40
10.0
 40
11.0
 40
11.0
 40
11.0
 40
12.0
 40
12.0
 40
12.0
 40
13.0
 40
13.0
 40
13.0
 40
14.0
 40
14.0
 40
14.0
 40
15.0
 40
15.0
 40
15.0
 40
16.0
 40
16.0
 40
16.0
 40
17.0
 40
17.0
 40
17.0
 40
18.0
 40
18.0
 40
18.0
 40
19.0
 40
19.0
 40
19.0
 40
20.0
 40
20.0
 40
20.0
 40
21.0
 40
21.0
 40
21.0
 40
21.0
 10
-3.968749999999998
 20
-10.7376736111111
 30
0.0
 10
-3.968749999999998
 20
-10.7376736111111
 30
0.0
 10
-2.645833333333333
 20
-10.7376736111111
 30
0.0
 10
-2.645833333333333
 20
-10.7376736111111
 30
0.0
 10
-2.645833333333333
 20
-10.7376736111111
 30
0.0
 10
-2.645833333333333
 20
-1.521354166666665
 30
0.0
 10
-2.645833333333333
 20
-1.521354166666665
 30
0.0
 10
-2.645833333333333
 20
-1.521354166666665
 30
0.0
 10
0.2390896267361111
 20
-1.521354166666665
 30
0.0
 10
0.2390896267361111
 20
-1.521354166666665
 30
0.0
 10
0.7599880642361111
 20
-1.521354166666665
 30
0.0
 10
1.143771701388887
 20
-1.65295681423611
 30
0.0
 10
1.390440538194444
 20
-1.916162109374999
 30
0.0
 10
1.816254340277773
 20
-2.39434136284722
 30
0.0
 10
2.04363064236111
 20
-3.335541449652775
 30
0.0
 10
2.072569444444444
 20
-4.739762369791666
 30
0.0
 10
2.072569444444444
 20
-4.739762369791666
 30
0.0
 10
2.160763888888888
 20
-8.324039713541665
 30
0.0
 10
2.160763888888888
 20
-8.324039713541665
 30
0.0
 10
2.18005642361111
 20
-9.163264973958332
 30
0.0
 10
2.202794053819443
 20
-9.728949652777775
 30
0.0
 10
2.227598741319444
 20
-10.02109374999998
 30
0.0
 10
2.252403428819443
 20
-10.31392686631944
 30
0.0
 10
2.28892144097222
 20
-10.55301649305555
 30
0.0
 10
2.33853081597222
 20
-10.7376736111111
 30
0.0
 10
2.33853081597222
 20
-10.7376736111111
 30
0.0
 10
3.968749999999998
 20
-10.7376736111111
 30
0.0
 10
3.968749999999998
 20
-10.7376736111111
 30
0.0
 10
3.968749999999998
 20
-10.7376736111111
 30
0.0
 10
3.968749999999998
 20
-10.25260416666666
 30
0.0
 10
3.968749999999998
 20
-10.25260416666666
 30
0.0
 10
3.766867404513888
 20
-10.05830078125
 30
0.0
 10
3.625618489583333
 20
-9.621462673611112
 30
0.0
 10
3.545692274305555
 20
-8.942089843749997
 30
0.0
 10
3.49470486111111
 20
-8.543836805555555
 30
0.0
 10
3.459564887152775
 20
-7.937499999999999
 30
0.0
 10
3.439583333333333
 20
-7.121701388888887
 30
0.0
 10
3.439583333333333
 20
-7.121701388888887
 30
0.0
 10
3.395486111111106
 20
-4.232644314236106
 30
0.0
 10
3.395486111111106
 20
-4.232644314236106
 30
0.0
 10
3.375504557291666
 20
-2.981385633680555
 30
0.0
 10
3.26870659722222
 20
-2.077392578125
 30
0.0
 10
3.075781249999999
 20
-1.522043185763888
 30
0.0
 10
2.882166883680555
 20
-0.9666937934027776
 30
0.0
 10
2.592089843749999
 20
-0.5188313802083333
 30
0.0
 10
2.204861111111104
 20
-0.1770779079861111
 30
0.0
 10
2.63618706597222
 20
0.3197048611111111
 30
0.0
 10
2.971739366319443
 20
0.9770290798611107
 30
0.0
 10
3.211518012152775
 20
1.79558376736111
 30
0.0
 10
3.451296657986107
 20
2.613449435763888
 30
0.0
 10
3.571874999999999
 20
3.66558159722222
 30
0.0
 10
3.571874999999999
 20
4.951291232638888
 30
0.0
 10
3.571874999999999
 20
7.415912543402777
 30
0.0
 10
3.124701605902775
 20
9.106076388888887
 30
0.0
 10
2.231043836805555
 20
10.02178276909722
 30
0.0
 10
1.759754774305553
 20
10.498583984375
 30
0.0
 10
1.163753255208332
 20
10.7376736111111
 30
0.0
 10
0.443039279513889
 20
10.7376736111111
 30
0.0
 10
0.443039279513889
 20
10.7376736111111
 30
0.0
 10
-3.968749999999998
 20
10.7376736111111
 30
0.0
 10
-3.968749999999998
 20
10.7376736111111
 30
0.0
 10
-3.968749999999998
 20
10.7376736111111
 30
0.0
 10
-3.968749999999998
 20
-10.7376736111111
 30
0.0
 10
-3.968749999999998
 20
-10.7376736111111
 30
0.0
  0
ENDBLK
  5
2B8F
330
2B8B
100
AcDbEntity
  8
0
100
AcDbBlockEnd
  0
BLOCK
  5
2B92
330
2B90
100
AcDbEntity
  8
0
 62
     7
100
AcDbBlockBegin
  2
AI9-BLK10
 70
     0
 10
0.0
 20
0.0
 30
0.0
  3
AI9-BLK10
  1

  0
SPLINE
  5
2B91
330
2B90
100
AcDbEntity
  8
LAYER_1
 62
     7
100
AcDbSpline
210
0.0
220
0.0
230
1.0
 70
    11
 71
     3
 72
    59
 73
    55
 74
     0
 42
0.0000000001
 43
0.0000000001
 40
0.0
 40
0.0
 40
0.0
 40
0.0
 40
1.0
 40
1.0
 40
1.0
 40
2.0
 40
2.0
 40
2.0
 40
3.0
 40
3.0
 40
3.0
 40
4.0
 40
4.0
 40
4.0
 40
5.0
 40
5.0
 40
5.0
 40
6.0
 40
6.0
 40
6.0
 40
7.0
 40
7.0
 40
7.0
 40
8.0
 40
8.0
 40
8.0
 40
9.0
 40
9.0
 40
9.0
 40
10.0
 40
10.0
 40
10.0
 40
11.0
 40
11.0
 40
11.0
 40
12.0
 40
12.0
 40
12.0
 40
13.0
 40
13.0
 40
13.0
 40
14.0
 40
14.0
 40
14.0
 40
15.0
 40
15.0
 40
15.0
 40
16.0
 40
16.0
 40
16.0
 40
17.0
 40
17.0
 40
17.0
 40
18.0
 40
18.0
 40
18.0
 40
18.0
 10
-4.652256944444443
 20
10.7376736111111
 30
0.0
 10
-4.652256944444443
 20
10.7376736111111
 30
0.0
 10
-2.798795572916666
 20
10.7376736111111
 30
0.0
 10
-2.798795572916666
 20
10.7376736111111
 30
0.0
 10
-2.798795572916666
 20
10.7376736111111
 30
0.0
 10
0.0
 20
-7.419357638888887
 30
0.0
 10
0.0
 20
-7.419357638888887
 30
0.0
 10
0.0
 20
-7.419357638888887
 30
0.0
 10
2.793283420138888
 20
10.7376736111111
 30
0.0
 10
2.793283420138888
 20
10.7376736111111
 30
0.0
 10
2.793283420138888
 20
10.7376736111111
 30
0.0
 10
4.652256944444443
 20
10.7376736111111
 30
0.0
 10
4.652256944444443
 20
10.7376736111111
 30
0.0
 10
4.652256944444443
 20
10.7376736111111
 30
0.0
 10
4.652256944444443
 20
-10.7376736111111
 30
0.0
 10
4.652256944444443
 20
-10.7376736111111
 30
0.0
 10
4.652256944444443
 20
-10.7376736111111
 30
0.0
 10
3.41753472222222
 20
-10.7376736111111
 30
0.0
 10
3.41753472222222
 20
-10.7376736111111
 30
0.0
 10
3.41753472222222
 20
-10.7376736111111
 30
0.0
 10
3.41753472222222
 20
1.936832682291665
 30
0.0
 10
3.41753472222222
 20
1.936832682291665
 30
0.0
 10
3.41753472222222
 20
2.375048828124999
 30
0.0
 10
3.424424913194443
 20
3.101274956597221
 30
0.0
 10
3.439583333333333
 20
4.11482204861111
 30
0.0
 10
3.454052734374998
 20
5.128369140624998
 30
0.0
 10
3.461631944444443
 20
6.214952256944441
 30
0.0
 10
3.461631944444443
 20
7.375260416666666
 30
0.0
 10
3.461631944444443
 20
7.375260416666666
 30
0.0
 10
0.6538791232638889
 20
-10.7376736111111
 30
0.0
 10
0.6538791232638889
 20
-10.7376736111111
 30
0.0
 10
0.6538791232638889
 20
-10.7376736111111
 30
0.0
 10
-0.6628363715277778
 20
-10.7376736111111
 30
0.0
 10
-0.6628363715277778
 20
-10.7376736111111
 30
0.0
 10
-0.6628363715277778
 20
-10.7376736111111
 30
0.0
 10
-3.461631944444443
 20
7.375260416666666
 30
0.0
 10
-3.461631944444443
 20
7.375260416666666
 30
0.0
 10
-3.461631944444443
 20
7.375260416666666
 30
0.0
 10
-3.461631944444443
 20
6.717247178819441
 30
0.0
 10
-3.461631944444443
 20
6.717247178819441
 30
0.0
 10
-3.461631944444443
 20
6.190836588541666
 30
0.0
 10
-3.45474175347222
 20
5.389507378472222
 30
0.0
 10
-3.439583333333333
 20
4.312570529513888
 30
0.0
 10
-3.425113932291666
 20
3.235633680555555
 30
0.0
 10
-3.41753472222222
 20
2.44395073784722
 30
0.0
 10
-3.41753472222222
 20
1.936832682291665
 30
0.0
 10
-3.41753472222222
 20
1.936832682291665
 30
0.0
 10
-3.41753472222222
 20
-10.7376736111111
 30
0.0
 10
-3.41753472222222
 20
-10.7376736111111
 30
0.0
 10
-3.41753472222222
 20
-10.7376736111111
 30
0.0
 10
-4.652256944444443
 20
-10.7376736111111
 30
0.0
 10
-4.652256944444443
 20
-10.7376736111111
 30
0.0
 10
-4.652256944444443
 20
-10.7376736111111
 30
0.0
 10
-4.652256944444443
 20
10.7376736111111
 30
0.0
 10
-4.652256944444443
 20
10.7376736111111
 30
0.0
  0
ENDBLK
  5
2B93
330
2B90
100
AcDbEntity
  8
0
100
AcDbBlockEnd
  0
BLOCK
  5
2B97
330
2B94
100
AcDbEntity
  8
0
 62
     7
100
AcDbBlockBegin
  2
AI9-BLK9
 70
     0
 10
0.0
 20
0.0
 30
0.0
  3
AI9-BLK9
  1

  0
SPLINE
  5
2B95
330
2B94
100
AcDbEntity
  8
LAYER_1
 62
     7
100
AcDbSpline
210
0.0
220
0.0
230
1.0
 70
    11
 71
     3
 72
    29
 73
    25
 74
     0
 42
0.0000000001
 43
0.0000000001
 40
0.0
 40
0.0
 40
0.0
 40
0.0
 40
1.0
 40
1.0
 40
1.0
 40
2.0
 40
2.0
 40
2.0
 40
3.0
 40
3.0
 40
3.0
 40
4.0
 40
4.0
 40
4.0
 40
5.0
 40
5.0
 40
5.0
 40
6.0
 40
6.0
 40
6.0
 40
7.0
 40
7.0
 40
7.0
 40
8.0
 40
8.0
 40
8.0
 40
8.0
 10
0.0668348524305556
 20
-8.753298611111111
 30
0.0
 10
-0.9067491319444444
 20
-8.753298611111111
 30
0.0
 10
-1.60954861111111
 20
-7.936810980902778
 30
0.0
 10
-2.041563585069444
 20
-6.30383572048611
 30
0.0
 10
-2.474267578124999
 20
-4.670860460069443
 30
0.0
 10
-2.689930555555555
 20
-2.664436848958333
 30
0.0
 10
-2.689930555555555
 20
-0.28525390625
 30
0.0
 10
-2.689930555555555
 20
2.68855251736111
 30
0.0
 10
-2.439127604166666
 20
4.938199869791666
 30
0.0
 10
-1.937521701388888
 20
6.464377170138886
 30
0.0
 10
-1.43591579861111
 20
7.989865451388887
 30
0.0
 10
-0.7827256944444444
 20
8.753298611111111
 30
0.0
 10
0.0220486111111111
 20
8.753298611111111
 30
0.0
 10
0.8468044704861108
 20
8.753298611111111
 30
0.0
 10
1.49792751736111
 20
7.982975260416663
 30
0.0
 10
1.974728732638888
 20
6.442328559027776
 30
0.0
 10
2.451529947916665
 20
4.901681857638886
 30
0.0
 10
2.689930555555555
 20
2.868386501736111
 30
0.0
 10
2.689930555555555
 20
0.3438205295138888
 30
0.0
 10
2.689930555555555
 20
-2.045697699652774
 30
0.0
 10
2.483224826388884
 20
-4.15891927083333
 30
0.0
 10
2.071191406249999
 20
-5.996533203124998
 30
0.0
 10
1.65915798611111
 20
-7.834836154513887
 30
0.0
 10
0.9908094618055557
 20
-8.753298611111111
 30
0.0
 10
0.0668348524305556
 20
-8.753298611111111
 30
0.0
  0
SPLINE
  5
2B96
330
2B94
100
AcDbEntity
  8
LAYER_1
 62
     7
100
AcDbSpline
210
0.0
220
0.0
230
1.0
 70
    11
 71
     3
 72
    29
 73
    25
 74
     0
 42
0.0000000001
 43
0.0000000001
 40
0.0
 40
0.0
 40
0.0
 40
0.0
 40
1.0
 40
1.0
 40
1.0
 40
2.0
 40
2.0
 40
2.0
 40
3.0
 40
3.0
 40
3.0
 40
4.0
 40
4.0
 40
4.0
 40
5.0
 40
5.0
 40
5.0
 40
6.0
 40
6.0
 40
6.0
 40
7.0
 40
7.0
 40
7.0
 40
8.0
 40
8.0
 40
8.0
 40
8.0
 10
-0.0289388020833333
 20
11.35503472222222
 30
0.0
 10
-1.317404513888887
 20
11.35503472222222
 30
0.0
 10
-2.28892144097222
 20
10.02798394097222
 30
0.0
 10
-2.94280056423611
 20
7.374571397569441
 30
0.0
 10
-3.450607638888888
 20
5.30613606770833
 30
0.0
 10
-3.704166666666666
 20
2.81877712673611
 30
0.0
 10
-3.704166666666666
 20
-0.0881944444444445
 30
0.0
 10
-3.704166666666666
 20
-3.307291666666666
 30
0.0
 10
-3.406510416666666
 20
-5.97035047743055
 30
0.0
 10
-2.811197916666666
 20
-8.077370876736106
 30
0.0
 10
-2.147672526041664
 20
-10.26293945312499
 30
0.0
 10
-1.229899088541666
 20
-11.35503472222222
 30
0.0
 10
-0.0585666232638889
 20
-11.35503472222222
 30
0.0
 10
1.20027126736111
 20
-11.35503472222222
 30
0.0
 10
2.166276041666665
 20
-10.10653211805555
 30
0.0
 10
2.840136718749998
 20
-7.609526909722221
 30
0.0
 10
3.416156684027776
 20
-5.483213975694441
 30
0.0
 10
3.704166666666666
 20
-2.814643012152775
 30
0.0
 10
3.704166666666666
 20
0.3948079427083333
 30
0.0
 10
3.704166666666666
 20
3.360346137152776
 30
0.0
 10
3.449918619791666
 20
5.793961588541666
 30
0.0
 10
2.94280056423611
 20
7.696343315972222
 30
0.0
 10
2.298567708333333
 20
10.13547092013888
 30
0.0
 10
1.307758246527777
 20
11.35503472222222
 30
0.0
 10
-0.0289388020833333
 20
11.35503472222222
 30
0.0
  0
ENDBLK
  5
2B98
330
2B94
100
AcDbEntity
  8
0
100
AcDbBlockEnd
  0
BLOCK
  5
2B9C
330
2B99
100
AcDbEntity
  8
0
 62
     7
100
AcDbBlockBegin
  2
AI9-BLK8
 70
     0
 10
0.0
 20
0.0
 30
0.0
  3
AI9-BLK8
  1

  0
LWPOLYLINE
  5
2B9A
330
2B99
100
AcDbEntity
  8
LAYER_1
 62
     7
100
AcDbPolyline
 90
       10
 70
     1
 43
0.0
 10
-3.792361111111107
 20
10.7376736111111
 10
-2.268939887152773
 20
10.7376736111111
 10
2.557638888888888
 20
-6.505718315972222
 10
2.557638888888888
 20
10.7376736111111
 10
3.792361111111107
 20
10.7376736111111
 10
3.792361111111107
 20
-10.7376736111111
 10
2.32612847222222
 20
-10.7376736111111
 10
-2.557638888888888
 20
6.549815538194441
 10
-2.557638888888888
 20
-10.7376736111111
 10
-3.792361111111107
 20
-10.7376736111111
  0
HATCH
  5
2B9B
330
2B99
100
AcDbEntity
  8
LAYER_1
 62
     7
100
AcDbHatch
 10
0.0
 20
0.0
 30
0.0
210
0.0
220
0.0
230
1.0
  2
SOLID
 70
     1
 71
     0
 91
        1
 92
        3
 72
     0
 73
     1
 93
       10
 10
-3.792361111111107
 20
10.7376736111111
 10
-2.268939887152773
 20
10.7376736111111
 10
2.557638888888888
 20
-6.505718315972222
 10
2.557638888888888
 20
10.7376736111111
 10
3.792361111111107
 20
10.7376736111111
 10
3.792361111111107
 20
-10.7376736111111
 10
2.32612847222222
 20
-10.7376736111111
 10
-2.557638888888888
 20
6.549815538194441
 10
-2.557638888888888
 20
-10.7376736111111
 10
-3.792361111111107
 20
-10.7376736111111
 97
        0
 75
     2
 76
     1
 98
        1
 10
0.0
 20
0.0
  0
ENDBLK
  5
2B9D
330
2B99
100
AcDbEntity
  8
0
100
AcDbBlockEnd
  0
BLOCK
  5
2BA1
330
2B9E
100
AcDbEntity
  8
0
 62
     7
100
AcDbBlockBegin
  2
AI9-BLK7
 70
     0
 10
0.0
 20
0.0
 30
0.0
  3
AI9-BLK7
  1

  0
LWPOLYLINE
  5
2B9F
330
2B9E
100
AcDbEntity
  8
LAYER_1
 62
     7
100
AcDbPolyline
 90
        4
 70
     1
 43
0.0
 10
-0.6614583333333333
 20
10.7376736111111
 10
0.6614583333333333
 20
10.7376736111111
 10
0.6614583333333333
 20
-10.7376736111111
 10
-0.6614583333333333
 20
-10.7376736111111
  0
HATCH
  5
2BA0
330
2B9E
100
AcDbEntity
  8
LAYER_1
 62
     7
100
AcDbHatch
 10
0.0
 20
0.0
 30
0.0
210
0.0
220
0.0
230
1.0
  2
SOLID
 70
     1
 71
     0
 91
        1
 92
        3
 72
     0
 73
     1
 93
        4
 10
-0.6614583333333333
 20
10.7376736111111
 10
0.6614583333333333
 20
10.7376736111111
 10
0.6614583333333333
 20
-10.7376736111111
 10
-0.6614583333333333
 20
-10.7376736111111
 97
        0
 75
     2
 76
     1
 98
        1
 10
0.0
 20
0.0
  0
ENDBLK
  5
2BA2
330
2B9E
100
AcDbEntity
  8
0
100
AcDbBlockEnd
  0
BLOCK
  5
2BA5
330
2BA3
100
AcDbEntity
  8
0
 62
     7
100
AcDbBlockBegin
  2
AI9-BLK6
 70
     0
 10
0.0
 20
0.0
 30
0.0
  3
AI9-BLK6
  1

  0
SPLINE
  5
2BA4
330
2BA3
100
AcDbEntity
  8
LAYER_1
 62
     7
100
AcDbSpline
210
0.0
220
0.0
230
1.0
 70
    11
 71
     3
 72
    59
 73
    55
 74
     0
 42
0.0000000001
 43
0.0000000001
 40
0.0
 40
0.0
 40
0.0
 40
0.0
 40
1.0
 40
1.0
 40
1.0
 40
2.0
 40
2.0
 40
2.0
 40
3.0
 40
3.0
 40
3.0
 40
4.0
 40
4.0
 40
4.0
 40
5.0
 40
5.0
 40
5.0
 40
6.0
 40
6.0
 40
6.0
 40
7.0
 40
7.0
 40
7.0
 40
8.0
 40
8.0
 40
8.0
 40
9.0
 40
9.0
 40
9.0
 40
10.0
 40
10.0
 40
10.0
 40
11.0
 40
11.0
 40
11.0
 40
12.0
 40
12.0
 40
12.0
 40
13.0
 40
13.0
 40
13.0
 40
14.0
 40
14.0
 40
14.0
 40
15.0
 40
15.0
 40
15.0
 40
16.0
 40
16.0
 40
16.0
 40
17.0
 40
17.0
 40
17.0
 40
18.0
 40
18.0
 40
18.0
 40
18.0
 10
3.062689887152775
 20
9.168088107638887
 30
0.0
 10
3.735172526041666
 20
7.739062499999997
 30
0.0
 10
4.110687934027776
 20
6.116422526041666
 30
0.0
 10
4.189236111111108
 20
4.299479166666666
 30
0.0
 10
4.189236111111108
 20
4.299479166666666
 30
0.0
 10
2.866319444444443
 20
4.299479166666666
 30
0.0
 10
2.866319444444443
 20
4.299479166666666
 30
0.0
 10
2.720936414930555
 20
5.667871093749997
 30
0.0
 10
2.435682508680555
 20
6.752387152777776
 30
0.0
 10
2.009868706597218
 20
7.553027343749997
 30
0.0
 10
1.584054904513888
 20
8.352978515624997
 30
0.0
 10
0.9839192708333332
 20
8.753298611111111
 30
0.0
 10
0.2101508246527778
 20
8.753298611111111
 30
0.0
 10
-0.7386284722222222
 20
8.753298611111111
 30
0.0
 10
-1.503439670138888
 20
8.010536024305555
 30
0.0
 10
-2.083593749999999
 20
6.526388888888886
 30
0.0
 10
-2.664436848958333
 20
5.042241753472221
 30
0.0
 10
-2.954513888888888
 20
2.767100694444443
 30
0.0
 10
-2.954513888888888
 20
-0.2990342881944444
 30
0.0
 10
-2.954513888888888
 20
-2.811197916666666
 30
0.0
 10
-2.693375651041666
 20
-4.847938368055555
 30
0.0
 10
-2.17041015625
 20
-6.409944661458332
 30
0.0
 10
-1.648133680555553
 20
-7.972639973958332
 30
0.0
 10
-0.8640299479166666
 20
-8.753298611111111
 30
0.0
 10
0.1812120225694444
 20
-8.753298611111111
 30
0.0
 10
1.138948567708333
 20
-8.753298611111111
 30
0.0
 10
1.865174696180553
 20
-7.927853732638887
 30
0.0
 10
2.359201388888884
 20
-6.275585937499998
 30
0.0
 10
2.62998589409722
 20
-5.406043836805555
 30
0.0
 10
2.828423394097221
 20
-4.262272135416666
 30
0.0
 10
2.954513888888888
 20
-2.844270833333331
 30
0.0
 10
2.954513888888888
 20
-2.844270833333331
 30
0.0
 10
4.277430555555555
 20
-2.844270833333331
 30
0.0
 10
4.277430555555555
 20
-2.844270833333331
 30
0.0
 10
4.169943576388888
 20
-5.109765624999996
 30
0.0
 10
3.795117187499998
 20
-7.009391276041665
 30
0.0
 10
3.151573350694443
 20
-8.542458767361106
 30
0.0
 10
2.381249999999999
 20
-10.38834092881943
 30
0.0
 10
1.347721354166665
 20
-11.3109375
 30
0.0
 10
0.0509874131944445
 20
-11.3109375
 30
0.0
 10
-1.07004665798611
 20
-11.3109375
 30
0.0
 10
-2.010557725694444
 20
-10.55577256944443
 30
0.0
 10
-2.771234809027776
 20
-9.04475368923611
 30
0.0
 10
-3.775824652777775
 20
-7.046598307291666
 30
0.0
 10
-4.277430555555555
 20
-3.961170789930555
 30
0.0
 10
-4.277430555555555
 20
0.2115288628472222
 30
0.0
 10
-4.277430555555555
 20
3.379638671874998
 30
0.0
 10
-3.902604166666666
 20
5.977929687499997
 30
0.0
 10
-3.151573350694443
 20
8.005712890624996
 30
0.0
 10
-2.333018663194443
 20
10.20919596354165
 30
0.0
 10
-1.20647243923611
 20
11.3109375
 30
0.0
 10
0.2266872829861111
 20
11.3109375
 30
0.0
 10
1.444873046875
 20
11.3109375
 30
0.0
 10
2.390207248263884
 20
10.59642469618055
 30
0.0
 10
3.062689887152775
 20
9.168088107638887
 30
0.0
  0
ENDBLK
  5
2BA6
330
2BA3
100
AcDbEntity
  8
0
100
AcDbBlockEnd
  0
BLOCK
  5
2BAA
330
2BA7
100
AcDbEntity
  8
0
 62
     7
100
AcDbBlockBegin
  2
AI9-BLK5
 70
     0
 10
0.0
 20
0.0
 30
0.0
  3
AI9-BLK5
  1

  0
SPLINE
  5
2BA8
330
2BA7
100
AcDbEntity
  8
LAYER_1
 62
     7
100
AcDbSpline
210
0.0
220
0.0
230
1.0
 70
    11
 71
     3
 72
    32
 73
    28
 74
     0
 42
0.0000000001
 43
0.0000000001
 40
0.0
 40
0.0
 40
0.0
 40
0.0
 40
1.0
 40
1.0
 40
1.0
 40
2.0
 40
2.0
 40
2.0
 40
3.0
 40
3.0
 40
3.0
 40
4.0
 40
4.0
 40
4.0
 40
5.0
 40
5.0
 40
5.0
 40
6.0
 40
6.0
 40
6.0
 40
7.0
 40
7.0
 40
7.0
 40
8.0
 40
8.0
 40
8.0
 40
9.0
 40
9.0
 40
9.0
 40
9.0
 10
-2.62378472222222
 20
-8.268229166666666
 30
0.0
 10
-2.62378472222222
 20
-8.268229166666666
 30
0.0
 10
-2.62378472222222
 20
8.180034722222217
 30
0.0
 10
-2.62378472222222
 20
8.180034722222217
 30
0.0
 10
-2.62378472222222
 20
8.180034722222217
 30
0.0
 10
-0.3376193576388888
 20
8.180034722222217
 30
0.0
 10
-0.3376193576388888
 20
8.180034722222217
 30
0.0
 10
0.6972873263888888
 20
8.180034722222217
 30
0.0
 10
1.449007161458333
 20
7.445540364583332
 30
0.0
 10
1.918918185763885
 20
5.977929687499997
 30
0.0
 10
2.388829210069443
 20
4.510319010416666
 30
0.0
 10
2.62378472222222
 20
2.449462890624999
 30
0.0
 10
2.62378472222222
 20
-0.204638671875
 30
0.0
 10
2.62378472222222
 20
-0.8950358072916666
 30
0.0
 10
2.590022786458332
 20
-1.643310546874999
 30
0.0
 10
2.523187934027772
 20
-2.45015190972222
 30
0.0
 10
2.408121744791666
 20
-3.80200737847222
 30
0.0
 10
2.226220703124999
 20
-4.909950086805555
 30
0.0
 10
1.976795789930553
 20
-5.774669053819441
 30
0.0
 10
1.659847005208333
 20
-6.853672960069442
 30
0.0
 10
1.252636718749998
 20
-7.583344184027778
 30
0.0
 10
0.7544759114583333
 20
-7.962304687499997
 30
0.0
 10
0.4664659288194444
 20
-8.166254340277777
 30
0.0
 10
0.1074869791666666
 20
-8.268229166666666
 30
0.0
 10
-0.3231499565972222
 20
-8.268229166666666
 30
0.0
 10
-0.3231499565972222
 20
-8.268229166666666
 30
0.0
 10
-2.62378472222222
 20
-8.268229166666666
 30
0.0
 10
-2.62378472222222
 20
-8.268229166666666
 30
0.0
  0
SPLINE
  5
2BA9
330
2BA7
100
AcDbEntity
  8
LAYER_1
 62
     7
100
AcDbSpline
210
0.0
220
0.0
230
1.0
 70
    11
 71
     3
 72
    26
 73
    22
 74
     0
 42
0.0000000001
 43
0.0000000001
 40
0.0
 40
0.0
 40
0.0
 40
0.0
 40
1.0
 40
1.0
 40
1.0
 40
2.0
 40
2.0
 40
2.0
 40
3.0
 40
3.0
 40
3.0
 40
4.0
 40
4.0
 40
4.0
 40
5.0
 40
5.0
 40
5.0
 40
6.0
 40
6.0
 40
6.0
 40
7.0
 40
7.0
 40
7.0
 40
7.0
 10
-3.946701388888888
 20
-10.7376736111111
 30
0.0
 10
-3.946701388888888
 20
-10.7376736111111
 30
0.0
 10
-0.0943956163194444
 20
-10.7376736111111
 30
0.0
 10
-0.0943956163194444
 20
-10.7376736111111
 30
0.0
 10
1.546847873263885
 20
-10.7376736111111
 30
0.0
 10
2.705777994791666
 20
-9.11021050347222
 30
0.0
 10
3.381705729166666
 20
-5.854595269097222
 30
0.0
 10
3.757910156249999
 20
-4.01284722222222
 30
0.0
 10
3.946701388888888
 20
-1.951991102430555
 30
0.0
 10
3.946701388888888
 20
0.328662109375
 30
0.0
 10
3.946701388888888
 20
3.281797960069443
 30
0.0
 10
3.622862413194443
 20
5.703700086805552
 30
0.0
 10
2.976562499999998
 20
7.594368489583332
 30
0.0
 10
2.25171440972222
 20
9.689675564236106
 30
0.0
 10
1.233344184027777
 20
10.7376736111111
 30
0.0
 10
-0.0799262152777778
 20
10.7376736111111
 30
0.0
 10
-0.0799262152777778
 20
10.7376736111111
 30
0.0
 10
-3.946701388888888
 20
10.7376736111111
 30
0.0
 10
-3.946701388888888
 20
10.7376736111111
 30
0.0
 10
-3.946701388888888
 20
10.7376736111111
 30
0.0
 10
-3.946701388888888
 20
-10.7376736111111
 30
0.0
 10
-3.946701388888888
 20
-10.7376736111111
 30
0.0
  0
ENDBLK
  5
2BAB
330
2BA7
100
AcDbEntity
  8
0
100
AcDbBlockEnd
  0
BLOCK
  5
2BAF
330
2BAC
100
AcDbEntity
  8
0
 62
     7
100
AcDbBlockBegin
  2
AI9-BLK4
 70
     0
 10
0.0
 20
0.0
 30
0.0
  3
AI9-BLK4
  1

  0
SPLINE
  5
2BAD
330
2BAC
100
AcDbEntity
  8
LAYER_1
 62
     7
100
AcDbSpline
210
0.0
220
0.0
230
1.0
 70
    11
 71
     3
 72
    26
 73
    22
 74
     0
 42
0.0000000001
 43
0.0000000001
 40
0.0
 40
0.0
 40
0.0
 40
0.0
 40
1.0
 40
1.0
 40
1.0
 40
2.0
 40
2.0
 40
2.0
 40
3.0
 40
3.0
 40
3.0
 40
4.0
 40
4.0
 40
4.0
 40
5.0
 40
5.0
 40
5.0
 40
6.0
 40
6.0
 40
6.0
 40
7.0
 40
7.0
 40
7.0
 40
7.0
 10
-2.645833333333333
 20
0.9039930555555551
 30
0.0
 10
-2.645833333333333
 20
0.9039930555555551
 30
0.0
 10
-2.645833333333333
 20
8.180034722222217
 30
0.0
 10
-2.645833333333333
 20
8.180034722222217
 30
0.0
 10
-2.645833333333333
 20
8.180034722222217
 30
0.0
 10
0.465087890625
 20
8.180034722222217
 30
0.0
 10
0.465087890625
 20
8.180034722222217
 30
0.0
 10
0.9026150173611108
 20
8.180034722222217
 30
0.0
 10
1.24988064236111
 20
8.034651692708331
 30
0.0
 10
1.506884765625
 20
7.745263671874997
 30
0.0
 10
2.001600477430554
 20
7.194048394097221
 30
0.0
 10
2.248958333333332
 20
6.160519748263887
 30
0.0
 10
2.248958333333332
 20
4.643299696180553
 30
0.0
 10
2.248958333333332
 20
3.232188585069443
 30
0.0
 10
2.072569444444444
 20
2.256537543402775
 30
0.0
 10
1.720480685763888
 20
1.715657552083333
 30
0.0
 10
1.368391927083333
 20
1.174088541666665
 30
0.0
 10
0.8929687499999998
 20
0.9039930555555551
 30
0.0
 10
0.2942111545138888
 20
0.9039930555555551
 30
0.0
 10
0.2942111545138888
 20
0.9039930555555551
 30
0.0
 10
-2.645833333333333
 20
0.9039930555555551
 30
0.0
 10
-2.645833333333333
 20
0.9039930555555551
 30
0.0
  0
SPLINE
  5
2BAE
330
2BAC
100
AcDbEntity
  8
LAYER_1
 62
     7
100
AcDbSpline
210
0.0
220
0.0
230
1.0
 70
    11
 71
     3
 72
    68
 73
    64
 74
     0
 42
0.0000000001
 43
0.0000000001
 40
0.0
 40
0.0
 40
0.0
 40
0.0
 40
1.0
 40
1.0
 40
1.0
 40
2.0
 40
2.0
 40
2.0
 40
3.0
 40
3.0
 40
3.0
 40
4.0
 40
4.0
 40
4.0
 40
5.0
 40
5.0
 40
5.0
 40
6.0
 40
6.0
 40
6.0
 40
7.0
 40
7.0
 40
7.0
 40
8.0
 40
8.0
 40
8.0
 40
9.0
 40
9.0
 40
9.0
 40
10.0
 40
10.0
 40
10.0
 40
11.0
 40
11.0
 40
11.0
 40
12.0
 40
12.0
 40
12.0
 40
13.0
 40
13.0
 40
13.0
 40
14.0
 40
14.0
 40
14.0
 40
15.0
 40
15.0
 40
15.0
 40
16.0
 40
16.0
 40
16.0
 40
17.0
 40
17.0
 40
17.0
 40
18.0
 40
18.0
 40
18.0
 40
19.0
 40
19.0
 40
19.0
 40
20.0
 40
20.0
 40
20.0
 40
21.0
 40
21.0
 40
21.0
 40
21.0
 10
-3.968749999999998
 20
-10.7376736111111
 30
0.0
 10
-3.968749999999998
 20
-10.7376736111111
 30
0.0
 10
-2.645833333333333
 20
-10.7376736111111
 30
0.0
 10
-2.645833333333333
 20
-10.7376736111111
 30
0.0
 10
-2.645833333333333
 20
-10.7376736111111
 30
0.0
 10
-2.645833333333333
 20
-1.521354166666665
 30
0.0
 10
-2.645833333333333
 20
-1.521354166666665
 30
0.0
 10
-2.645833333333333
 20
-1.521354166666665
 30
0.0
 10
0.2390896267361111
 20
-1.521354166666665
 30
0.0
 10
0.2390896267361111
 20
-1.521354166666665
 30
0.0
 10
0.7599880642361111
 20
-1.521354166666665
 30
0.0
 10
1.143771701388887
 20
-1.65295681423611
 30
0.0
 10
1.390440538194444
 20
-1.916162109374999
 30
0.0
 10
1.816254340277773
 20
-2.39434136284722
 30
0.0
 10
2.04363064236111
 20
-3.335541449652775
 30
0.0
 10
2.072569444444444
 20
-4.739762369791666
 30
0.0
 10
2.072569444444444
 20
-4.739762369791666
 30
0.0
 10
2.160763888888888
 20
-8.324039713541665
 30
0.0
 10
2.160763888888888
 20
-8.324039713541665
 30
0.0
 10
2.18005642361111
 20
-9.163264973958332
 30
0.0
 10
2.202794053819443
 20
-9.728949652777775
 30
0.0
 10
2.227598741319444
 20
-10.02109374999998
 30
0.0
 10
2.252403428819443
 20
-10.31392686631944
 30
0.0
 10
2.28892144097222
 20
-10.55301649305555
 30
0.0
 10
2.33853081597222
 20
-10.7376736111111
 30
0.0
 10
2.33853081597222
 20
-10.7376736111111
 30
0.0
 10
3.968749999999998
 20
-10.7376736111111
 30
0.0
 10
3.968749999999998
 20
-10.7376736111111
 30
0.0
 10
3.968749999999998
 20
-10.7376736111111
 30
0.0
 10
3.968749999999998
 20
-10.25260416666666
 30
0.0
 10
3.968749999999998
 20
-10.25260416666666
 30
0.0
 10
3.766867404513888
 20
-10.05830078125
 30
0.0
 10
3.625618489583333
 20
-9.621462673611112
 30
0.0
 10
3.545692274305555
 20
-8.942089843749997
 30
0.0
 10
3.49470486111111
 20
-8.543836805555555
 30
0.0
 10
3.459564887152775
 20
-7.937499999999999
 30
0.0
 10
3.439583333333333
 20
-7.121701388888887
 30
0.0
 10
3.439583333333333
 20
-7.121701388888887
 30
0.0
 10
3.395486111111106
 20
-4.232644314236106
 30
0.0
 10
3.395486111111106
 20
-4.232644314236106
 30
0.0
 10
3.375504557291666
 20
-2.981385633680555
 30
0.0
 10
3.26870659722222
 20
-2.077392578125
 30
0.0
 10
3.075781249999999
 20
-1.522043185763888
 30
0.0
 10
2.882166883680555
 20
-0.9666937934027776
 30
0.0
 10
2.592089843749999
 20
-0.5188313802083333
 30
0.0
 10
2.204861111111104
 20
-0.1770779079861111
 30
0.0
 10
2.63618706597222
 20
0.3197048611111111
 30
0.0
 10
2.971739366319443
 20
0.9770290798611107
 30
0.0
 10
3.211518012152775
 20
1.79558376736111
 30
0.0
 10
3.451296657986107
 20
2.613449435763888
 30
0.0
 10
3.571874999999999
 20
3.66558159722222
 30
0.0
 10
3.571874999999999
 20
4.951291232638888
 30
0.0
 10
3.571874999999999
 20
7.415912543402777
 30
0.0
 10
3.124701605902775
 20
9.106076388888887
 30
0.0
 10
2.231043836805555
 20
10.02178276909722
 30
0.0
 10
1.759754774305553
 20
10.498583984375
 30
0.0
 10
1.163753255208332
 20
10.7376736111111
 30
0.0
 10
0.443039279513889
 20
10.7376736111111
 30
0.0
 10
0.443039279513889
 20
10.7376736111111
 30
0.0
 10
-3.968749999999998
 20
10.7376736111111
 30
0.0
 10
-3.968749999999998
 20
10.7376736111111
 30
0.0
 10
-3.968749999999998
 20
10.7376736111111
 30
0.0
 10
-3.968749999999998
 20
-10.7376736111111
 30
0.0
 10
-3.968749999999998
 20
-10.7376736111111
 30
0.0
  0
ENDBLK
  5
2BB0
330
2BAC
100
AcDbEntity
  8
0
100
AcDbBlockEnd
  0
BLOCK
  5
2BB4
330
2BB1
100
AcDbEntity
  8
0
 62
     7
100
AcDbBlockBegin
  2
AI9-BLK3
 70
     0
 10
0.0
 20
0.0
 30
0.0
  3
AI9-BLK3
  1

  0
LWPOLYLINE
  5
2BB2
330
2BB1
100
AcDbEntity
  8
LAYER_1
 62
     7
100
AcDbPolyline
 90
        4
 70
     1
 43
0.0
 10
-0.6613722059461809
 20
10.7376736111111
 10
0.6613722059461809
 20
10.7376736111111
 10
0.6613722059461809
 20
-10.7376736111111
 10
-0.6613722059461809
 20
-10.7376736111111
  0
HATCH
  5
2BB3
330
2BB1
100
AcDbEntity
  8
LAYER_1
 62
     7
100
AcDbHatch
 10
0.0
 20
0.0
 30
0.0
210
0.0
220
0.0
230
1.0
  2
SOLID
 70
     1
 71
     0
 91
        1
 92
        3
 72
     0
 73
     1
 93
        4
 10
-0.6613722059461809
 20
10.7376736111111
 10
0.6613722059461809
 20
10.7376736111111
 10
0.6613722059461809
 20
-10.7376736111111
 10
-0.6613722059461809
 20
-10.7376736111111
 97
        0
 75
     2
 76
     1
 98
        1
 10
0.0
 20
0.0
  0
ENDBLK
  5
2BB5
330
2BB1
100
AcDbEntity
  8
0
100
AcDbBlockEnd
  0
BLOCK
  5
2BB9
330
2BB6
100
AcDbEntity
  8
0
 62
     7
100
AcDbBlockBegin
  2
AI9-BLK2
 70
     0
 10
0.0
 20
0.0
 30
0.0
  3
AI9-BLK2
  1

  0
LWPOLYLINE
  5
2BB7
330
2BB6
100
AcDbEntity
  8
LAYER_1
 62
     7
100
AcDbPolyline
 90
        7
 70
     1
 43
0.0
 10
-2.785704210069443
 20
10.7376736111111
 10
0.0
 20
-7.550960286458332
 10
2.771234809027776
 20
10.7376736111111
 10
4.233333333333331
 20
10.7376736111111
 10
0.6910861545138888
 20
-10.7376736111111
 10
-0.7055555555555558
 20
-10.7376736111111
 10
-4.233333333333331
 20
10.7376736111111
  0
HATCH
  5
2BB8
330
2BB6
100
AcDbEntity
  8
LAYER_1
 62
     7
100
AcDbHatch
 10
0.0
 20
0.0
 30
0.0
210
0.0
220
0.0
230
1.0
  2
SOLID
 70
     1
 71
     0
 91
        1
 92
        3
 72
     0
 73
     1
 93
        7
 10
-2.785704210069443
 20
10.7376736111111
 10
0.0
 20
-7.550960286458332
 10
2.771234809027776
 20
10.7376736111111
 10
4.233333333333331
 20
10.7376736111111
 10
0.6910861545138888
 20
-10.7376736111111
 10
-0.7055555555555558
 20
-10.7376736111111
 10
-4.233333333333331
 20
10.7376736111111
 97
        0
 75
     2
 76
     1
 98
        1
 10
0.0
 20
0.0
  0
ENDBLK
  5
2BBA
330
2BB6
100
AcDbEntity
  8
0
100
AcDbBlockEnd
  0
BLOCK
  5
2BBE
330
2BBB
100
AcDbEntity
  8
0
 62
     7
100
AcDbBlockBegin
  2
AI9-BLK1
 70
     0
 10
0.0
 20
0.0
 30
0.0
  3
AI9-BLK1
  1

  0
LWPOLYLINE
  5
2BBC
330
2BBB
100
AcDbEntity
  8
LAYER_1
 62
     7
100
AcDbPolyline
 90
       12
 70
     1
 43
0.0
 10
-3.571874999999999
 20
10.7376736111111
 10
3.483680555555555
 20
10.7376736111111
 10
3.483680555555555
 20
8.091840277777777
 10
-2.248958333333332
 20
8.091840277777777
 10
-2.248958333333332
 20
1.565451388888888
 10
3.042708333333333
 20
1.565451388888888
 10
3.042708333333333
 20
-0.9039930555555551
 10
-2.248958333333332
 20
-0.9039930555555551
 10
-2.248958333333332
 20
-8.180034722222217
 10
3.571874999999999
 20
-8.180034722222217
 10
3.571874999999999
 20
-10.7376736111111
 10
-3.571874999999999
 20
-10.7376736111111
  0
HATCH
  5
2BBD
330
2BBB
100
AcDbEntity
  8
LAYER_1
 62
     7
100
AcDbHatch
 10
0.0
 20
0.0
 30
0.0
210
0.0
220
0.0
230
1.0
  2
SOLID
 70
     1
 71
     0
 91
        1
 92
        3
 72
     0
 73
     1
 93
       12
 10
-3.571874999999999
 20
10.7376736111111
 10
3.483680555555555
 20
10.7376736111111
 10
3.483680555555555
 20
8.091840277777777
 10
-2.248958333333332
 20
8.091840277777777
 10
-2.248958333333332
 20
1.565451388888888
 10
3.042708333333333
 20
1.565451388888888
 10
3.042708333333333
 20
-0.9039930555555551
 10
-2.248958333333332
 20
-0.9039930555555551
 10
-2.248958333333332
 20
-8.180034722222217
 10
3.571874999999999
 20
-8.180034722222217
 10
3.571874999999999
 20
-10.7376736111111
 10
-3.571874999999999
 20
-10.7376736111111
 97
        0
 75
     2
 76
     1
 98
        1
 10
0.0
 20
0.0
  0
ENDBLK
  5
2BBF
330
2BBB
100
AcDbEntity
  8
0
100
AcDbBlockEnd
  0
BLOCK
  5
2BE3
330
2BC0
100
AcDbEntity
  8
0
100
AcDbBlockBegin
  2
HD_LLC_logo_OT5
 70
     0
 10
0.0
 20
0.0
 30
0.0
  3
HD_LLC_logo_OT5
  1

  0
SPLINE
  5
2BC1
102
{ACAD_REACTORS
330
2BE1
102
}
330
2BC0
100
AcDbEntity
  8
LAYER_1
 62
     7
100
AcDbSpline
210
0.0
220
0.0
230
1.0
 70
    11
 71
     3
 72
   113
 73
   109
 74
     0
 42
0.0000000001
 43
0.0000000001
 40
0.0
 40
0.0
 40
0.0
 40
0.0
 40
1.0
 40
1.0
 40
1.0
 40
2.0
 40
2.0
 40
2.0
 40
3.0
 40
3.0
 40
3.0
 40
4.0
 40
4.0
 40
4.0
 40
5.0
 40
5.0
 40
5.0
 40
6.0
 40
6.0
 40
6.0
 40
7.0
 40
7.0
 40
7.0
 40
8.0
 40
8.0
 40
8.0
 40
9.0
 40
9.0
 40
9.0
 40
10.0
 40
10.0
 40
10.0
 40
11.0
 40
11.0
 40
11.0
 40
12.0
 40
12.0
 40
12.0
 40
13.0
 40
13.0
 40
13.0
 40
14.0
 40
14.0
 40
14.0
 40
15.0
 40
15.0
 40
15.0
 40
16.0
 40
16.0
 40
16.0
 40
17.0
 40
17.0
 40
17.0
 40
18.0
 40
18.0
 40
18.0
 40
19.0
 40
19.0
 40
19.0
 40
20.0
 40
20.0
 40
20.0
 40
21.0
 40
21.0
 40
21.0
 40
22.0
 40
22.0
 40
22.0
 40
23.0
 40
23.0
 40
23.0
 40
24.0
 40
24.0
 40
24.0
 40
25.0
 40
25.0
 40
25.0
 40
26.0
 40
26.0
 40
26.0
 40
27.0
 40
27.0
 40
27.0
 40
28.0
 40
28.0
 40
28.0
 40
29.0
 40
29.0
 40
29.0
 40
30.0
 40
30.0
 40
30.0
 40
31.0
 40
31.0
 40
31.0
 40
32.0
 40
32.0
 40
32.0
 40
33.0
 40
33.0
 40
33.0
 40
34.0
 40
34.0
 40
34.0
 40
35.0
 40
35.0
 40
35.0
 40
36.0
 40
36.0
 40
36.0
 40
36.0
 10
193.3039632161458
 20
186.1548733181423
 30
0.0
 10
193.3039632161458
 20
186.1860514322916
 30
0.0
 10
193.3039632161458
 20
219.6932223849826
 30
0.0
 10
193.3039632161458
 20
219.6932223849826
 30
0.0
 10
193.3039632161458
 20
219.6932223849826
 30
0.0
 10
193.2974175347219
 20
219.7488606770833
 30
0.0
 10
193.2974175347219
 20
219.7488606770833
 30
0.0
 10
191.5293945312499
 20
235.455740017361
 30
0.0
 10
175.1458984374999
 20
235.2467949761284
 30
0.0
 10
174.9808783637151
 20
235.2428331163193
 30
0.0
 10
174.9808783637151
 20
235.2428331163193
 30
0.0
 10
125.8827555338541
 20
235.2430053710937
 30
0.0
 10
125.8827555338541
 20
235.2430053710937
 30
0.0
 10
125.8827555338541
 20
235.2430053710937
 30
0.0
 10
125.8827555338541
 20
255.5278998480901
 30
0.0
 10
125.8827555338541
 20
255.5278998480901
 30
0.0
 10
125.8827555338541
 20
255.5278998480901
 30
0.0
 10
84.5626247829861
 20
255.5278998480901
 30
0.0
 10
84.5626247829861
 20
255.5278998480901
 30
0.0
 10
84.5626247829861
 20
255.5278998480901
 30
0.0
 10
84.55711263020829
 20
233.7919311523436
 30
0.0
 10
84.55711263020829
 20
233.7919311523436
 30
0.0
 10
84.55711263020829
 20
233.7919311523436
 30
0.0
 10
64.42052951388888
 20
233.7919311523436
 30
0.0
 10
64.42052951388888
 20
233.7919311523436
 30
0.0
 10
64.42052951388888
 20
233.7919311523436
 30
0.0
 10
64.41501736111111
 20
255.5278998480901
 30
0.0
 10
64.41501736111111
 20
255.5278998480901
 30
0.0
 10
64.41501736111111
 20
255.5278998480901
 30
0.0
 10
23.91757541232637
 20
255.5278998480901
 30
0.0
 10
23.91757541232637
 20
255.5278998480901
 30
0.0
 10
23.91757541232637
 20
255.5278998480901
 30
0.0
 10
23.91757541232637
 20
233.2393378363715
 30
0.0
 10
23.91757541232637
 20
233.2393378363715
 30
0.0
 10
23.91757541232637
 20
233.2393378363715
 30
0.0
 10
43.65624999999999
 20
233.2393378363715
 30
0.0
 10
43.65624999999999
 20
233.2393378363715
 30
0.0
 10
43.65624999999999
 20
233.2393378363715
 30
0.0
 10
43.65624999999999
 20
211.5188720703125
 30
0.0
 10
43.65624999999999
 20
211.5188720703125
 30
0.0
 10
43.65624999999999
 20
211.5188720703125
 30
0.0
 10
23.91757541232637
 20
211.5188720703125
 30
0.0
 10
23.91757541232637
 20
211.5188720703125
 30
0.0
 10
23.91757541232637
 20
211.5188720703125
 30
0.0
 10
23.91757541232637
 20
189.2303100585936
 30
0.0
 10
23.91757541232637
 20
189.2303100585936
 30
0.0
 10
23.91757541232637
 20
189.2303100585936
 30
0.0
 10
64.41501736111111
 20
189.2303100585936
 30
0.0
 10
64.41501736111111
 20
189.2303100585936
 30
0.0
 10
64.41501736111111
 20
189.2303100585936
 30
0.0
 10
64.42052951388888
 20
211.069976128472
 30
0.0
 10
64.42052951388888
 20
211.069976128472
 30
0.0
 10
64.42052951388888
 20
211.069976128472
 30
0.0
 10
84.55711263020829
 20
211.069976128472
 30
0.0
 10
84.55711263020829
 20
211.069976128472
 30
0.0
 10
84.55711263020829
 20
211.069976128472
 30
0.0
 10
84.5626247829861
 20
189.2303100585936
 30
0.0
 10
84.5626247829861
 20
189.2303100585936
 30
0.0
 10
84.5626247829861
 20
189.2303100585936
 30
0.0
 10
125.8827555338541
 20
189.2303100585936
 30
0.0
 10
125.8827555338541
 20
189.2303100585936
 30
0.0
 10
125.8827555338541
 20
189.2303100585936
 30
0.0
 10
125.8827555338541
 20
211.5188720703125
 30
0.0
 10
125.8827555338541
 20
211.5188720703125
 30
0.0
 10
125.8827555338541
 20
211.5188720703125
 30
0.0
 10
105.3213921440971
 20
211.5188720703125
 30
0.0
 10
105.3213921440971
 20
211.5188720703125
 30
0.0
 10
105.3213921440971
 20
211.5188720703125
 30
0.0
 10
105.3213921440971
 20
233.2393378363715
 30
0.0
 10
105.3213921440971
 20
233.2393378363715
 30
0.0
 10
105.3213921440971
 20
233.2393378363715
 30
0.0
 10
175.0046495225693
 20
233.243127441406
 30
0.0
 10
175.0046495225693
 20
233.243127441406
 30
0.0
 10
175.6268337673611
 20
233.2560465494791
 30
0.0
 10
189.7165852864583
 20
233.3962619357638
 30
0.0
 10
191.3037407769094
 20
219.5690266927083
 30
0.0
 10
191.3037407769094
 20
219.4332899305555
 30
0.0
 10
191.3037407769094
 20
186.1142211914062
 30
0.0
 10
191.3037407769094
 20
186.1142211914062
 30
0.0
 10
191.3037407769094
 20
186.1142211914062
 30
0.0
 10
191.3051188151039
 20
186.0880384657115
 30
0.0
 10
191.3051188151039
 20
186.0880384657115
 30
0.0
 10
191.3054633246526
 20
186.0787367078991
 30
0.0
 10
191.3109754774304
 20
185.9566080729166
 30
0.0
 10
191.3109754774304
 20
185.7399115668401
 30
0.0
 10
191.3109754774304
 20
184.2090833875865
 30
0.0
 10
191.0488037109374
 20
177.9643310546874
 30
0.0
 10
186.9866916232638
 20
173.5652886284722
 30
0.0
 10
184.2540418836804
 20
170.6064683702255
 30
0.0
 10
180.3224989149304
 20
169.0308539496526
 30
0.0
 10
175.300927734375
 20
168.8825425889756
 30
0.0
 10
175.300927734375
 20
168.8825425889756
 30
0.0
 10
107.0094889322916
 20
168.8828870985243
 30
0.0
 10
107.0094889322916
 20
168.8828870985243
 30
0.0
 10
107.0094889322916
 20
168.8828870985243
 30
0.0
 10
107.0094889322916
 20
166.8830091688368
 30
0.0
 10
107.0094889322916
 20
166.8830091688368
 30
0.0
 10
107.0094889322916
 20
166.8830091688368
 30
0.0
 10
175.3305555555555
 20
166.8830091688368
 30
0.0
 10
175.3305555555555
 20
166.8830091688368
 30
0.0
 10
180.9467502170138
 20
167.0485460069444
 30
0.0
 10
185.3571614583333
 20
168.8448187934026
 30
0.0
 10
188.4687717013888
 20
172.2223904079861
 30
0.0
 10
192.9649658203124
 20
177.1034016927083
 30
0.0
 10
193.3136094835069
 20
183.7202243381076
 30
0.0
 10
193.3136094835069
 20
185.6520616319443
 30
0.0
 10
193.3136094835069
 20
185.9247409396701
 30
0.0
 10
193.3070638020833
 20
186.0868326822916
 30
0.0
 10
193.3039632161458
 20
186.1548733181423
 30
0.0
  0
INSERT
  5
2BC2
102
{ACAD_REACTORS
330
2BE2
102
}
330
2BC0
100
AcDbEntity
  8
LAYER_1
 62
     7
100
AcDbBlockReference
  2
AI9-BLK14
 10
159.5625257703993
 20
200.5118781195744
 30
0.0
  0
INSERT
  5
2BC3
330
2BC0
100
AcDbEntity
  8
LAYER_1
 62
     7
100
AcDbBlockReference
  2
AI9-BLK13
 10
27.69615614149305
 20
179.2145562065971
 30
0.0
 42
0.9200000000000001
  0
INSERT
  5
2BC4
102
{ACAD_REACTORS
330
2BCF
102
}
330
2BC0
100
AcDbEntity
  8
LAYER_1
 62
     7
100
AcDbBlockReference
  2
AI9-BLK11
 10
44.76591525607638
 20
179.2145562065971
 30
0.0
 42
0.9200000000000001
  0
INSERT
  5
2BC5
102
{ACAD_REACTORS
330
2BDD
102
}
330
2BC0
100
AcDbEntity
  8
LAYER_1
 62
     7
100
AcDbBlockReference
  2
AI9-BLK10
 10
54.04665798611111
 20
179.2145562065971
 30
0.0
 42
0.9200000000000001
  0
INSERT
  5
2BC6
102
{ACAD_REACTORS
330
2BDC
102
}
330
2BC0
100
AcDbEntity
  8
LAYER_1
 62
     7
100
AcDbBlockReference
  2
AI9-BLK9
 10
62.79013807508679
 20
179.2145562065971
 30
0.0
 42
0.9
  0
INSERT
  5
2BC7
330
2BC0
100
AcDbEntity
  8
LAYER_1
 62
     7
100
AcDbBlockReference
  2
AI9-BLK8
 10
71.03046196831595
 20
179.2145562065971
 30
0.0
 42
0.9200000000000001
  0
INSERT
  5
2BC8
330
2BC0
100
AcDbEntity
  8
LAYER_1
 62
     7
100
AcDbBlockReference
  2
AI9-BLK7
 10
76.93793945312498
 20
179.2145562065971
 30
0.0
 42
0.9200000000000001
  0
INSERT
  5
2BC9
102
{ACAD_REACTORS
330
2BD0
102
}
330
2BC0
100
AcDbEntity
  8
LAYER_1
 62
     7
100
AcDbBlockReference
  2
AI9-BLK6
 10
82.55602891710069
 20
179.2145562065971
 30
0.0
 42
0.9
  0
INSERT
  5
2BCA
102
{ACAD_REACTORS
330
2BDE
102
}
330
2BC0
100
AcDbEntity
  8
LAYER_1
 62
     7
100
AcDbBlockReference
  2
AI9-BLK5
 10
94.32430284288193
 20
179.2145562065971
 30
0.0
 42
0.9200000000000001
  0
INSERT
  5
2BCB
102
{ACAD_REACTORS
330
2BDF
102
}
330
2BC0
100
AcDbEntity
  8
LAYER_1
 62
     7
100
AcDbBlockReference
  2
AI9-BLK4
 10
103.2081705729166
 20
179.2145562065971
 30
0.0
 42
0.9200000000000001
  0
INSERT
  5
2BCC
330
2BC0
100
AcDbEntity
  8
LAYER_1
 62
     7
100
AcDbBlockReference
  2
AI9-BLK3
 10
108.850978597005
 20
179.2145562065971
 30
0.0
 42
0.9200000000000001
  0
INSERT
  5
2BCD
330
2BC0
100
AcDbEntity
  8
LAYER_1
 62
     7
100
AcDbBlockReference
  2
AI9-BLK2
 10
114.2045708550346
 20
179.2145562065971
 30
0.0
 42
0.9200000000000001
  0
INSERT
  5
2BCE
330
2BC0
100
AcDbEntity
  8
LAYER_1
 62
     7
100
AcDbBlockReference
  2
AI9-BLK1
 10
122.4125108506944
 20
179.2145562065971
 30
0.0
 42
0.9200000000000001
  0
HATCH
  5
2BCF
330
2BC0
100
AcDbEntity
  8
0
  6
Continuous
100
AcDbHatch
 10
0.0
 20
0.0
 30
0.0
210
0.0
220
0.0
230
1.0
  2
SOLID
 70
     1
 71
     1
 91
        2
 92
       16
 93
        1
 72
     4
 94
        3
 73
     0
 74
     0
 95
       26
 96
       22
 40
0.0
 40
0.0
 40
0.0
 40
0.0
 40
1.0
 40
1.0
 40
1.0
 40
2.0
 40
2.0
 40
2.0
 40
3.0
 40
3.0
 40
3.0
 40
4.0
 40
4.0
 40
4.0
 40
5.0
 40
5.0
 40
5.0
 40
6.0
 40
6.0
 40
6.0
 40
7.0
 40
7.0
 40
7.0
 40
7.0
 10
42.12008192274304
 20
180.046229817708
 10
42.12008192274304
 20
180.046229817708
 10
42.12008192274304
 20
186.7401881510414
 10
42.12008192274304
 20
186.7401881510414
 10
42.12008192274304
 20
186.7401881510414
 10
45.23100314670138
 20
186.7401881510414
 10
45.23100314670138
 20
186.7401881510414
 10
45.66853027343749
 20
186.7401881510414
 10
46.01579589843749
 20
186.6064357638887
 10
46.27280002170138
 20
186.3401987847216
 10
46.76751573350694
 20
185.8330807291664
 10
47.01487358940972
 20
184.8822343749995
 10
47.01487358940972
 20
183.4863919270832
 10
47.01487358940972
 20
182.188169704861
 10
46.83848470052082
 20
181.2905707465276
 10
46.48639594184028
 20
180.7929611545137
 10
46.13430718315971
 20
180.2947176649304
 10
45.65888400607638
 20
180.046229817708
 10
45.06012641059028
 20
180.046229817708
 10
45.06012641059028
 20
180.046229817708
 10
42.12008192274304
 20
180.046229817708
 10
42.12008192274304
 20
180.046229817708
 97
        1
330
2BC4
 92
        1
 93
        1
 72
     4
 94
        3
 73
     0
 74
     0
 95
       68
 96
       64
 40
0.0
 40
0.0
 40
0.0
 40
0.0
 40
1.0
 40
1.0
 40
1.0
 40
2.0
 40
2.0
 40
2.0
 40
3.0
 40
3.0
 40
3.0
 40
4.0
 40
4.0
 40
4.0
 40
5.0
 40
5.0
 40
5.0
 40
6.0
 40
6.0
 40
6.0
 40
7.0
 40
7.0
 40
7.0
 40
8.0
 40
8.0
 40
8.0
 40
9.0
 40
9.0
 40
9.0
 40
10.0
 40
10.0
 40
10.0
 40
11.0
 40
11.0
 40
11.0
 40
12.0
 40
12.0
 40
12.0
 40
13.0
 40
13.0
 40
13.0
 40
14.0
 40
14.0
 40
14.0
 40
15.0
 40
15.0
 40
15.0
 40
16.0
 40
16.0
 40
16.0
 40
17.0
 40
17.0
 40
17.0
 40
18.0
 40
18.0
 40
18.0
 40
19.0
 40
19.0
 40
19.0
 40
20.0
 40
20.0
 40
20.0
 40
21.0
 40
21.0
 40
21.0
 40
21.0
 10
40.79716525607638
 20
169.3358964843748
 10
40.79716525607638
 20
169.3358964843748
 10
42.12008192274304
 20
169.3358964843748
 10
42.12008192274304
 20
169.3358964843748
 10
42.12008192274304
 20
169.3358964843748
 10
42.12008192274304
 20
177.8149103732637
 10
42.12008192274304
 20
177.8149103732637
 10
42.12008192274304
 20
177.8149103732637
 10
45.00500488281249
 20
177.8149103732637
 10
45.00500488281249
 20
177.8149103732637
 10
45.52590332031249
 20
177.8149103732637
 10
45.90968695746528
 20
177.6938359374998
 10
46.15635579427083
 20
177.4516870659717
 10
46.58216959635415
 20
177.0117621527776
 10
46.80954589843749
 20
176.1458580729164
 10
46.83848470052082
 20
174.8539748263887
 10
46.83848470052082
 20
174.8539748263887
 10
46.92667914496527
 20
171.5564396701385
 10
46.92667914496527
 20
171.5564396701385
 10
46.94597167968749
 20
170.7843524305554
 10
46.96870930989581
 20
170.2639225260415
 10
46.99351399739582
 20
169.9951499565971
 10
47.01831868489581
 20
169.725743489583
 10
47.0548366970486
 20
169.5057810329859
 10
47.10444607204859
 20
169.3358964843748
 10
47.10444607204859
 20
169.3358964843748
 10
48.73466525607638
 20
169.3358964843748
 10
48.73466525607638
 20
169.3358964843748
 10
48.73466525607638
 20
169.3358964843748
 10
48.73466525607638
 20
169.7821603732633
 10
48.73466525607638
 20
169.7821603732633
 10
48.53278266059028
 20
169.9609194878471
 10
48.39153374565971
 20
170.3628105468748
 10
48.31160753038194
 20
170.9878335503471
 10
48.26062011718749
 20
171.3542263454858
 10
48.22548014322915
 20
171.9120562065971
 10
48.20549858940971
 20
172.6625909288193
 10
48.20549858940971
 20
172.6625909288193
 10
48.16140136718749
 20
175.3205234374999
 10
48.16140136718749
 20
175.3205234374999
 10
48.14141981336803
 20
176.4716814236109
 10
48.03462185329859
 20
177.3033550347219
 10
47.84169650607638
 20
177.814276475694
 10
47.64808213975693
 20
178.3251979166665
 10
47.35800509982638
 20
178.7372313368054
 10
46.97077636718749
 20
179.0516445312498
 10
47.4021023220486
 20
179.5086846788193
 10
47.73765462239582
 20
180.1134229600693
 10
47.97743326822915
 20
180.866493272569
 10
48.21721191406249
 20
181.6189296874999
 10
48.33779025607638
 20
182.5868912760411
 10
48.33779025607638
 20
183.7697441406248
 10
48.33779025607638
 20
186.0371957465273
 10
47.89061686197913
 20
187.5921464843749
 10
46.99695909288194
 20
188.4345963541665
 10
46.52567003038194
 20
188.8732534722221
 10
45.92966851128472
 20
189.0932159288193
 10
45.20895453559027
 20
189.0932159288193
 10
45.20895453559027
 20
189.0932159288193
 10
40.79716525607638
 20
189.0932159288193
 10
40.79716525607638
 20
189.0932159288193
 10
40.79716525607638
 20
189.0932159288193
 10
40.79716525607638
 20
169.3358964843748
 10
40.79716525607638
 20
169.3358964843748
 97
        0
 75
     0
 76
     1
 98
        0
  0
HATCH
  5
2BD0
330
2BC0
100
AcDbEntity
  8
0
  6
Continuous
100
AcDbHatch
 10
0.0
 20
0.0
 30
0.0
210
0.0
220
0.0
230
1.0
  2
SOLID
 70
     1
 71
     1
 91
        1
 92
        1
 93
        1
 72
     4
 94
        3
 73
     0
 74
     0
 95
       59
 96
       55
 40
0.0
 40
0.0
 40
0.0
 40
0.0
 40
1.0
 40
1.0
 40
1.0
 40
2.0
 40
2.0
 40
2.0
 40
3.0
 40
3.0
 40
3.0
 40
4.0
 40
4.0
 40
4.0
 40
5.0
 40
5.0
 40
5.0
 40
6.0
 40
6.0
 40
6.0
 40
7.0
 40
7.0
 40
7.0
 40
8.0
 40
8.0
 40
8.0
 40
9.0
 40
9.0
 40
9.0
 40
10.0
 40
10.0
 40
10.0
 40
11.0
 40
11.0
 40
11.0
 40
12.0
 40
12.0
 40
12.0
 40
13.0
 40
13.0
 40
13.0
 40
14.0
 40
14.0
 40
14.0
 40
15.0
 40
15.0
 40
15.0
 40
16.0
 40
16.0
 40
16.0
 40
17.0
 40
17.0
 40
17.0
 40
18.0
 40
18.0
 40
18.0
 40
18.0
 10
85.61871880425345
 20
187.4658355034721
 10
86.29120144314232
 20
186.1797124565971
 10
86.66671685112847
 20
184.7193364800346
 10
86.7452650282118
 20
183.0840874565969
 10
86.7452650282118
 20
183.0840874565969
 10
85.42234836154511
 20
183.0840874565969
 10
85.42234836154511
 20
183.0840874565969
 10
85.27696533203123
 20
184.3156401909719
 10
84.99171142578125
 20
185.2917046440971
 10
84.56589762369791
 20
186.0122808159719
 10
84.14008382161458
 20
186.7322368706594
 10
83.53994818793401
 20
187.0925249565969
 10
82.76617974175342
 20
187.0925249565969
 10
81.81740044487847
 20
187.0925249565969
 10
81.05258924696178
 20
186.4240386284721
 10
80.47243516710068
 20
185.0883062065971
 10
79.89159206814234
 20
183.7525737847219
 10
79.6015150282118
 20
181.7049468315971
 10
79.6015150282118
 20
178.9454253472221
 10
79.6015150282118
 20
176.6844780815969
 10
79.86265326605901
 20
174.8514116753471
 10
80.38561876085069
 20
173.4456060112846
 10
80.90789523654512
 20
172.0391802300344
 10
81.69199896918403
 20
171.3365874565971
 10
82.73724093967013
 20
171.3365874565971
 10
83.69497748480901
 20
171.3365874565971
 10
84.42120361328125
 20
172.0794878472221
 10
84.91523030598958
 20
173.5665288628469
 10
85.18601481119791
 20
174.3491167534719
 10
85.38445231119791
 20
175.3785112847221
 10
85.51054280598959
 20
176.6547124565971
 10
85.51054280598959
 20
176.6547124565971
 10
86.83345947265625
 20
176.6547124565971
 10
86.83345947265625
 20
176.6547124565971
 10
86.72597249348957
 20
174.6157671440971
 10
86.35114610460069
 20
172.9061040581596
 10
85.70760226779514
 20
171.526343315972
 10
84.93727891710069
 20
169.8650493706596
 10
83.90375027126735
 20
169.0347124565971
 10
82.60701633029514
 20
169.0347124565971
 10
81.48598225911458
 20
169.0347124565971
 10
80.54547119140625
 20
169.7143608940971
 10
79.78479410807292
 20
171.0742778862845
 10
78.78020426432292
 20
172.8726177300344
 10
78.27859836154512
 20
175.6495024956596
 10
78.27859836154512
 20
179.4049321831594
 10
78.27859836154512
 20
182.2562310112846
 10
78.65342475043402
 20
184.5946929253469
 10
79.40445556640622
 20
186.4196978081596
 10
80.22301025390625
 20
188.4028325737846
 10
81.34955647786458
 20
189.3943999565971
 10
82.78271620008679
 20
189.3943999565971
 10
84.00090196397568
 20
189.3943999565971
 10
84.94623616536458
 20
188.7513384331594
 10
85.61871880425345
 20
187.4658355034721
 97
        1
330
2BC9
 75
     0
 76
     1
 98
        1
 10
0.0
 20
0.0
  0
LINE
  5
2BD1
102
{ACAD_REACTORS
330
2BE0
102
}
330
2BC0
100
AcDbEntity
  8
LAYER_1
 62
     7
100
AcDbLine
 10
34.65766059027778
 20
177.4497853732638
 30
0.0
 11
36.19830729166666
 21
186.1658769531249
 31
0.0
  0
LINE
  5
2BD2
102
{ACAD_REACTORS
330
2BE0
102
}
330
2BC0
100
AcDbEntity
  8
LAYER_1
 62
     7
100
AcDbLine
 10
36.19830729166666
 20
186.1658769531249
 30
0.0
 11
37.67556423611111
 21
177.4497853732638
 31
0.0
  0
LINE
  5
2BD3
102
{ACAD_REACTORS
330
2BE0
102
}
330
2BC0
100
AcDbEntity
  8
LAYER_1
 62
     7
100
AcDbLine
 10
37.67556423611111
 20
177.4497853732638
 30
0.0
 11
34.65766059027778
 21
177.4497853732638
 31
0.0
  0
LINE
  5
2BD4
102
{ACAD_REACTORS
330
2BE0
102
}
330
2BC0
100
AcDbEntity
  8
LAYER_1
 62
     7
100
AcDbLine
 10
31.83957248263888
 20
169.3358964843748
 30
0.0
 11
33.22450086805555
 21
169.3358964843748
 31
0.0
  0
LINE
  5
2BD5
102
{ACAD_REACTORS
330
2BE0
102
}
330
2BC0
100
AcDbEntity
  8
LAYER_1
 62
     7
100
AcDbLine
 10
33.22450086805555
 20
169.3358964843748
 30
0.0
 11
34.27043185763887
 21
175.2590353732638
 31
0.0
  0
LINE
  5
2BD6
102
{ACAD_REACTORS
330
2BE0
102
}
330
2BC0
100
AcDbEntity
  8
LAYER_1
 62
     7
100
AcDbLine
 10
34.27043185763887
 20
175.2590353732638
 30
0.0
 11
38.04694552951389
 21
175.2590353732638
 31
0.0
  0
LINE
  5
2BD7
102
{ACAD_REACTORS
330
2BE0
102
}
330
2BC0
100
AcDbEntity
  8
LAYER_1
 62
     7
100
AcDbLine
 10
38.04694552951389
 20
175.2590353732638
 30
0.0
 11
39.05015733506942
 21
169.3358964843748
 31
0.0
  0
LINE
  5
2BD8
102
{ACAD_REACTORS
330
2BE0
102
}
330
2BC0
100
AcDbEntity
  8
LAYER_1
 62
     7
100
AcDbLine
 10
39.05015733506942
 20
169.3358964843748
 30
0.0
 11
40.43508572048611
 21
169.3358964843748
 31
0.0
  0
LINE
  5
2BD9
102
{ACAD_REACTORS
330
2BE0
102
}
330
2BC0
100
AcDbEntity
  8
LAYER_1
 62
     7
100
AcDbLine
 10
40.43508572048611
 20
169.3358964843748
 30
0.0
 11
36.952783203125
 21
189.0932159288193
 31
0.0
  0
LINE
  5
2BDA
102
{ACAD_REACTORS
330
2BE0
102
}
330
2BC0
100
AcDbEntity
  8
LAYER_1
 62
     7
100
AcDbLine
 10
36.952783203125
 20
189.0932159288193
 30
0.0
 11
35.47828233506943
 21
189.0932159288193
 31
0.0
  0
LINE
  5
2BDB
102
{ACAD_REACTORS
330
2BE0
102
}
330
2BC0
100
AcDbEntity
  8
LAYER_1
 62
     7
100
AcDbLine
 10
35.47828233506943
 20
189.0932159288193
 30
0.0
 11
31.83957248263888
 21
169.3358964843748
 31
0.0
  0
HATCH
  5
2BDC
330
2BC0
100
AcDbEntity
  8
0
  6
Continuous
100
AcDbHatch
 10
0.0
 20
0.0
 30
0.0
210
0.0
220
0.0
230
1.0
  2
SOLID
 70
     1
 71
     1
 91
        2
 92
       16
 93
        1
 72
     4
 94
        3
 73
     0
 74
     0
 95
       29
 96
       25
 40
0.0
 40
0.0
 40
0.0
 40
0.0
 40
1.0
 40
1.0
 40
1.0
 40
2.0
 40
2.0
 40
2.0
 40
3.0
 40
3.0
 40
3.0
 40
4.0
 40
4.0
 40
4.0
 40
5.0
 40
5.0
 40
5.0
 40
6.0
 40
6.0
 40
6.0
 40
7.0
 40
7.0
 40
7.0
 40
8.0
 40
8.0
 40
8.0
 40
8.0
 10
62.85697292751734
 20
171.3365874565971
 10
61.88338894314235
 20
171.3365874565971
 10
61.18058946397566
 20
172.0714263237844
 10
60.74857449001735
 20
173.5411040581594
 10
60.31587049696178
 20
175.0107817925344
 10
60.10020751953123
 20
176.8165630425341
 10
60.10020751953123
 20
178.9578276909721
 10
60.10020751953123
 20
181.6342534722221
 10
60.35101047092013
 20
183.6589360894094
 10
60.85261637369789
 20
185.0324956597219
 10
61.35422227647566
 20
186.4054351128471
 10
62.00741238064235
 20
187.0925249565969
 10
62.81218668619789
 20
187.0925249565969
 10
63.6369425455729
 20
187.0925249565969
 10
64.28806559244789
 20
186.3992339409721
 10
64.76486680772568
 20
185.0126519097221
 10
65.24166802300347
 20
183.6260698784719
 10
65.48006863064235
 20
181.7961040581594
 10
65.48006863064235
 20
179.5239946831596
 10
65.48006863064235
 20
177.3734282769096
 10
65.27336290147568
 20
175.4715288628467
 10
64.86132948133678
 20
173.8176763237846
 10
64.4492960611979
 20
172.1632036675344
 10
63.78094753689235
 20
171.3365874565971
 10
62.85697292751734
 20
171.3365874565971
 97
        1
330
2BC6
 92
        1
 93
        1
 72
     4
 94
        3
 73
     0
 74
     0
 95
       29
 96
       25
 40
0.0
 40
0.0
 40
0.0
 40
0.0
 40
1.0
 40
1.0
 40
1.0
 40
2.0
 40
2.0
 40
2.0
 40
3.0
 40
3.0
 40
3.0
 40
4.0
 40
4.0
 40
4.0
 40
5.0
 40
5.0
 40
5.0
 40
6.0
 40
6.0
 40
6.0
 40
7.0
 40
7.0
 40
7.0
 40
8.0
 40
8.0
 40
8.0
 40
8.0
 10
62.76119927300346
 20
189.4340874565971
 10
61.47273356119789
 20
189.4340874565971
 10
60.50121663411457
 20
188.2397417534719
 10
59.84733751085068
 20
185.8516704644094
 10
59.3395304361979
 20
183.9900786675344
 10
59.08597140842012
 20
181.7514556206596
 10
59.08597140842012
 20
179.1351812065971
 10
59.08597140842012
 20
176.2379937065971
 10
59.3836276584201
 20
173.8412407769094
 10
59.9789401584201
 20
171.9449224175346
 10
60.6424655490451
 20
169.9779106987846
 10
61.5602389865451
 20
168.9950249565971
 10
62.7315714518229
 20
168.9950249565971
 10
63.9904093424479
 20
168.9950249565971
 10
64.95641411675345
 20
170.1186773003469
 10
65.63027479383679
 20
172.3659819878471
 10
66.20629475911457
 20
174.2796636284719
 10
66.49430474175345
 20
176.6813774956591
 10
66.49430474175345
 20
179.5698833550344
 10
66.49430474175345
 20
182.2388677300341
 10
66.24005669487845
 20
184.4291216362844
 10
65.73293863932289
 20
186.1412651909719
 10
65.08870578342011
 20
188.3364800347219
 10
64.09789632161457
 20
189.4340874565971
 10
62.76119927300346
 20
189.4340874565971
 97
        0
 75
     0
 76
     1
 98
        0
  0
HATCH
  5
2BDD
330
2BC0
100
AcDbEntity
  8
0
  6
Continuous
100
AcDbHatch
 10
0.0
 20
0.0
 30
0.0
210
0.0
220
0.0
230
1.0
  2
SOLID
 70
     1
 71
     1
 91
        1
 92
        1
 93
        1
 72
     4
 94
        3
 73
     0
 74
     0
 95
       59
 96
       55
 40
0.0
 40
0.0
 40
0.0
 40
0.0
 40
1.0
 40
1.0
 40
1.0
 40
2.0
 40
2.0
 40
2.0
 40
3.0
 40
3.0
 40
3.0
 40
4.0
 40
4.0
 40
4.0
 40
5.0
 40
5.0
 40
5.0
 40
6.0
 40
6.0
 40
6.0
 40
7.0
 40
7.0
 40
7.0
 40
8.0
 40
8.0
 40
8.0
 40
9.0
 40
9.0
 40
9.0
 40
10.0
 40
10.0
 40
10.0
 40
11.0
 40
11.0
 40
11.0
 40
12.0
 40
12.0
 40
12.0
 40
13.0
 40
13.0
 40
13.0
 40
14.0
 40
14.0
 40
14.0
 40
15.0
 40
15.0
 40
15.0
 40
16.0
 40
16.0
 40
16.0
 40
17.0
 40
17.0
 40
17.0
 40
18.0
 40
18.0
 40
18.0
 40
18.0
 10
49.39440104166666
 20
189.0932159288193
 10
49.39440104166666
 20
189.0932159288193
 10
51.24786241319444
 20
189.0932159288193
 10
51.24786241319444
 20
189.0932159288193
 10
51.24786241319444
 20
189.0932159288193
 10
54.04665798611111
 20
172.3887471788193
 10
54.04665798611111
 20
172.3887471788193
 10
54.04665798611111
 20
172.3887471788193
 10
56.83994140624999
 20
189.0932159288193
 10
56.83994140624999
 20
189.0932159288193
 10
56.83994140624999
 20
189.0932159288193
 10
58.69891493055553
 20
189.0932159288193
 10
58.69891493055553
 20
189.0932159288193
 10
58.69891493055553
 20
189.0932159288193
 10
58.69891493055553
 20
169.3358964843748
 10
58.69891493055553
 20
169.3358964843748
 10
58.69891493055553
 20
169.3358964843748
 10
57.46419270833333
 20
169.3358964843748
 10
57.46419270833333
 20
169.3358964843748
 10
57.46419270833333
 20
169.3358964843748
 10
57.46419270833333
 20
180.9964422743054
 10
57.46419270833333
 20
180.9964422743054
 10
57.46419270833333
 20
181.3996011284721
 10
57.47108289930555
 20
182.0677291666664
 10
57.48624131944444
 20
183.0001924913193
 10
57.50071072048609
 20
183.9326558159721
 10
57.50828993055553
 20
184.932312282986
 10
57.50828993055553
 20
185.9997957899304
 10
57.50828993055553
 20
185.9997957899304
 10
54.700537109375
 20
169.3358964843748
 10
54.700537109375
 20
169.3358964843748
 10
54.700537109375
 20
169.3358964843748
 10
53.38382161458333
 20
169.3358964843748
 10
53.38382161458333
 20
169.3358964843748
 10
53.38382161458333
 20
169.3358964843748
 10
50.58502604166665
 20
185.9997957899304
 10
50.58502604166665
 20
185.9997957899304
 10
50.58502604166665
 20
185.9997957899304
 10
50.58502604166665
 20
185.3944236111109
 10
50.58502604166665
 20
185.3944236111109
 10
50.58502604166665
 20
184.9101258680554
 10
50.59191623263888
 20
184.1729029947915
 10
50.60707465277777
 20
183.1821210937498
 10
50.62154405381942
 20
182.1913391927082
 10
50.62912326388889
 20
181.4629908854165
 10
50.62912326388889
 20
180.9964422743054
 10
50.62912326388889
 20
180.9964422743054
 10
50.62912326388889
 20
169.3358964843748
 10
50.62912326388889
 20
169.3358964843748
 10
50.62912326388889
 20
169.3358964843748
 10
49.39440104166666
 20
169.3358964843748
 10
49.39440104166666
 20
169.3358964843748
 10
49.39440104166666
 20
169.3358964843748
 10
49.39440104166666
 20
189.0932159288193
 10
49.39440104166666
 20
189.0932159288193
 97
        1
330
2BC5
 75
     0
 76
     1
 98
        1
 10
0.0
 20
0.0
  0
HATCH
  5
2BDE
330
2BC0
100
AcDbEntity
  8
0
  6
Continuous
100
AcDbHatch
 10
0.0
 20
0.0
 30
0.0
210
0.0
220
0.0
230
1.0
  2
SOLID
 70
     1
 71
     1
 91
        2
 92
       16
 93
        1
 72
     4
 94
        3
 73
     0
 74
     0
 95
       32
 96
       28
 40
0.0
 40
0.0
 40
0.0
 40
0.0
 40
1.0
 40
1.0
 40
1.0
 40
2.0
 40
2.0
 40
2.0
 40
3.0
 40
3.0
 40
3.0
 40
4.0
 40
4.0
 40
4.0
 40
5.0
 40
5.0
 40
5.0
 40
6.0
 40
6.0
 40
6.0
 40
7.0
 40
7.0
 40
7.0
 40
8.0
 40
8.0
 40
8.0
 40
9.0
 40
9.0
 40
9.0
 40
9.0
 10
91.70051812065969
 20
171.6077853732634
 10
91.70051812065969
 20
171.6077853732634
 10
91.70051812065969
 20
186.7401881510414
 10
91.70051812065969
 20
186.7401881510414
 10
91.70051812065969
 20
186.7401881510414
 10
93.98668348524305
 20
186.7401881510414
 10
93.98668348524305
 20
186.7401881510414
 10
95.02159016927082
 20
186.7401881510414
 10
95.77331000434028
 20
186.0644533420137
 10
96.24322102864582
 20
184.7142515190969
 10
96.71313205295138
 20
183.3640496961804
 10
96.94808756510417
 20
181.4680620659721
 10
96.94808756510417
 20
179.0262886284719
 10
96.94808756510417
 20
178.3911232638887
 10
96.91432562934028
 20
177.7027105034721
 10
96.84749077690971
 20
176.9604164496524
 10
96.7324245876736
 20
175.7167094184024
 10
96.55052354600693
 20
174.6974021267359
 10
96.30109863281248
 20
173.901860677083
 10
95.98414984809028
 20
172.9091770833332
 10
95.57693956163193
 20
172.2378795572914
 10
95.07877875434026
 20
171.8892358940971
 10
94.79076877170138
 20
171.7016022135415
 10
94.43178982204859
 20
171.6077853732634
 10
94.00115288628471
 20
171.6077853732634
 10
94.00115288628471
 20
171.6077853732634
 10
91.70051812065969
 20
171.6077853732634
 10
91.70051812065969
 20
171.6077853732634
 97
        1
330
2BCA
 92
        1
 93
        1
 72
     4
 94
        3
 73
     0
 74
     0
 95
       26
 96
       22
 40
0.0
 40
0.0
 40
0.0
 40
0.0
 40
1.0
 40
1.0
 40
1.0
 40
2.0
 40
2.0
 40
2.0
 40
3.0
 40
3.0
 40
3.0
 40
4.0
 40
4.0
 40
4.0
 40
5.0
 40
5.0
 40
5.0
 40
6.0
 40
6.0
 40
6.0
 40
7.0
 40
7.0
 40
7.0
 40
7.0
 10
90.37760145399305
 20
169.3358964843748
 10
90.37760145399305
 20
169.3358964843748
 10
94.22990722656248
 20
169.3358964843748
 10
94.22990722656248
 20
169.3358964843748
 10
95.87115071614581
 20
169.3358964843748
 10
97.03008083767359
 20
170.8331625434026
 10
97.70600857204859
 20
173.8283285590274
 10
98.08221299913194
 20
175.5227367621523
 10
98.27100423177082
 20
177.4187243923609
 10
98.27100423177082
 20
179.5169253472221
 10
98.27100423177082
 20
182.233810329861
 10
97.94716525607638
 20
184.4619602864582
 10
97.30086534288195
 20
186.2013752170135
 10
96.57601725260416
 20
188.1290577256939
 10
95.5576470269097
 20
189.0932159288193
 10
94.24437662760416
 20
189.0932159288193
 10
94.24437662760416
 20
189.0932159288193
 10
90.37760145399305
 20
189.0932159288193
 10
90.37760145399305
 20
189.0932159288193
 10
90.37760145399305
 20
189.0932159288193
 10
90.37760145399305
 20
169.3358964843748
 10
90.37760145399305
 20
169.3358964843748
 97
        0
 75
     0
 76
     1
 98
        0
  0
HATCH
  5
2BDF
330
2BC0
100
AcDbEntity
  8
0
  6
Continuous
100
AcDbHatch
 10
0.0
 20
0.0
 30
0.0
210
0.0
220
0.0
230
1.0
  2
SOLID
 70
     1
 71
     1
 91
        2
 92
       16
 93
        1
 72
     4
 94
        3
 73
     0
 74
     0
 95
       26
 96
       22
 40
0.0
 40
0.0
 40
0.0
 40
0.0
 40
1.0
 40
1.0
 40
1.0
 40
2.0
 40
2.0
 40
2.0
 40
3.0
 40
3.0
 40
3.0
 40
4.0
 40
4.0
 40
4.0
 40
5.0
 40
5.0
 40
5.0
 40
6.0
 40
6.0
 40
6.0
 40
7.0
 40
7.0
 40
7.0
 40
7.0
 10
100.5623372395832
 20
180.046229817708
 10
100.5623372395832
 20
180.046229817708
 10
100.5623372395832
 20
186.7401881510414
 10
100.5623372395832
 20
186.7401881510414
 10
100.5623372395832
 20
186.7401881510414
 10
103.6732584635416
 20
186.7401881510414
 10
103.6732584635416
 20
186.7401881510414
 10
104.1107855902777
 20
186.7401881510414
 10
104.4580512152777
 20
186.6064357638887
 10
104.7150553385415
 20
186.3401987847216
 10
105.2097710503471
 20
185.8330807291664
 10
105.4571289062495
 20
184.8822343749995
 10
105.4571289062495
 20
183.4863919270832
 10
105.4571289062495
 20
182.188169704861
 10
105.280740017361
 20
181.2905707465276
 10
104.9286512586804
 20
180.7929611545137
 10
104.5765624999999
 20
180.2947176649304
 10
104.1011393229166
 20
180.046229817708
 10
103.5023817274304
 20
180.046229817708
 10
103.5023817274304
 20
180.046229817708
 10
100.5623372395832
 20
180.046229817708
 10
100.5623372395832
 20
180.046229817708
 97
        1
330
2BCB
 92
        1
 93
        1
 72
     4
 94
        3
 73
     0
 74
     0
 95
       68
 96
       64
 40
0.0
 40
0.0
 40
0.0
 40
0.0
 40
1.0
 40
1.0
 40
1.0
 40
2.0
 40
2.0
 40
2.0
 40
3.0
 40
3.0
 40
3.0
 40
4.0
 40
4.0
 40
4.0
 40
5.0
 40
5.0
 40
5.0
 40
6.0
 40
6.0
 40
6.0
 40
7.0
 40
7.0
 40
7.0
 40
8.0
 40
8.0
 40
8.0
 40
9.0
 40
9.0
 40
9.0
 40
10.0
 40
10.0
 40
10.0
 40
11.0
 40
11.0
 40
11.0
 40
12.0
 40
12.0
 40
12.0
 40
13.0
 40
13.0
 40
13.0
 40
14.0
 40
14.0
 40
14.0
 40
15.0
 40
15.0
 40
15.0
 40
16.0
 40
16.0
 40
16.0
 40
17.0
 40
17.0
 40
17.0
 40
18.0
 40
18.0
 40
18.0
 40
19.0
 40
19.0
 40
19.0
 40
20.0
 40
20.0
 40
20.0
 40
21.0
 40
21.0
 40
21.0
 40
21.0
 10
99.23942057291661
 20
169.3358964843748
 10
99.23942057291661
 20
169.3358964843748
 10
100.5623372395832
 20
169.3358964843748
 10
100.5623372395832
 20
169.3358964843748
 10
100.5623372395832
 20
169.3358964843748
 10
100.5623372395832
 20
177.8149103732637
 10
100.5623372395832
 20
177.8149103732637
 10
100.5623372395832
 20
177.8149103732637
 10
103.4472601996527
 20
177.8149103732637
 10
103.4472601996527
 20
177.8149103732637
 10
103.9681586371527
 20
177.8149103732637
 10
104.3519422743053
 20
177.6938359374998
 10
104.5986111111109
 20
177.4516870659717
 10
105.0244249131943
 20
177.0117621527776
 10
105.2518012152777
 20
176.1458580729164
 10
105.280740017361
 20
174.8539748263887
 10
105.280740017361
 20
174.8539748263887
 10
105.3689344618053
 20
171.5564396701385
 10
105.3689344618053
 20
171.5564396701385
 10
105.3882269965277
 20
170.7843524305554
 10
105.4109646267359
 20
170.2639225260415
 10
105.4357693142359
 20
169.9951499565971
 10
105.4605740017358
 20
169.725743489583
 10
105.4970920138888
 20
169.5057810329859
 10
105.5467013888887
 20
169.3358964843748
 10
105.5467013888887
 20
169.3358964843748
 10
107.1769205729166
 20
169.3358964843748
 10
107.1769205729166
 20
169.3358964843748
 10
107.1769205729166
 20
169.3358964843748
 10
107.1769205729166
 20
169.7821603732633
 10
107.1769205729166
 20
169.7821603732633
 10
106.9750379774303
 20
169.9609194878471
 10
106.8337890624996
 20
170.3628105468748
 10
106.7538628472221
 20
170.9878335503471
 10
106.7028754340274
 20
171.3542263454858
 10
106.6677354600692
 20
171.9120562065971
 10
106.6477539062496
 20
172.6625909288193
 10
106.6477539062496
 20
172.6625909288193
 10
106.6036566840277
 20
175.3205234374999
 10
106.6036566840277
 20
175.3205234374999
 10
106.5836751302082
 20
176.4716814236109
 10
106.4768771701387
 20
177.3033550347219
 10
106.2839518229166
 20
177.814276475694
 10
106.0903374565971
 20
178.3251979166665
 10
105.8002604166666
 20
178.7372313368054
 10
105.4130316840276
 20
179.0516445312498
 10
105.8443576388885
 20
179.5086846788193
 10
106.179909939236
 20
180.1134229600693
 10
106.4196885850692
 20
180.866493272569
 10
106.6594672309027
 20
181.6189296874999
 10
106.7800455729166
 20
182.5868912760411
 10
106.7800455729166
 20
183.7697441406248
 10
106.7800455729166
 20
186.0371957465273
 10
106.3328721788193
 20
187.5921464843749
 10
105.4392144097221
 20
188.4345963541665
 10
104.9679253472221
 20
188.8732534722221
 10
104.3719238281249
 20
189.0932159288193
 10
103.6512098524303
 20
189.0932159288193
 10
103.6512098524303
 20
189.0932159288193
 10
99.23942057291661
 20
189.0932159288193
 10
99.23942057291661
 20
189.0932159288193
 10
99.23942057291661
 20
189.0932159288193
 10
99.23942057291661
 20
169.3358964843748
 10
99.23942057291661
 20
169.3358964843748
 97
        0
 75
     0
 76
     1
 98
        0
  0
HATCH
  5
2BE0
330
2BC0
100
AcDbEntity
  8
0
  6
Continuous
100
AcDbHatch
 10
0.0
 20
0.0
 30
0.0
210
0.0
220
0.0
230
1.0
  2
SOLID
 70
     1
 71
     1
 91
        2
 92
        1
 93
        8
 72
     1
 10
35.47828233506943
 20
189.0932159288193
 11
31.83957248263888
 21
169.3358964843748
 72
     1
 10
31.83957248263888
 20
169.3358964843748
 11
33.22450086805555
 21
169.3358964843748
 72
     1
 10
33.22450086805555
 20
169.3358964843748
 11
34.27043185763887
 21
175.2590353732638
 72
     1
 10
34.27043185763887
 20
175.2590353732638
 11
38.04694552951389
 21
175.2590353732638
 72
     1
 10
38.04694552951389
 20
175.2590353732638
 11
39.05015733506942
 21
169.3358964843748
 72
     1
 10
39.05015733506942
 20
169.3358964843748
 11
40.43508572048611
 21
169.3358964843748
 72
     1
 10
40.43508572048611
 20
169.3358964843748
 11
36.952783203125
 21
189.0932159288193
 72
     1
 10
36.952783203125
 20
189.0932159288193
 11
35.47828233506943
 21
189.0932159288193
 97
        8
330
2BDB
330
2BD4
330
2BD5
330
2BD6
330
2BD7
330
2BD8
330
2BD9
330
2BDA
 92
       16
 93
        3
 72
     1
 10
37.67556423611111
 20
177.4497853732638
 11
34.65766059027778
 21
177.4497853732638
 72
     1
 10
34.65766059027778
 20
177.4497853732638
 11
36.19830729166666
 21
186.1658769531249
 72
     1
 10
36.19830729166666
 20
186.1658769531249
 11
37.67556423611111
 21
177.4497853732638
 97
        3
330
2BD3
330
2BD1
330
2BD2
 75
     0
 76
     1
 98
        1
 10
0.0
 20
0.0
  0
HATCH
  5
2BE1
330
2BC0
100
AcDbEntity
  8
0
  6
Continuous
100
AcDbHatch
 10
0.0
 20
0.0
 30
0.0
210
0.0
220
0.0
230
1.0
  2
SOLID
 70
     1
 71
     1
 91
        1
 92
        1
 93
        1
 72
     4
 94
        3
 73
     0
 74
     0
 95
      113
 96
      109
 40
0.0
 40
0.0
 40
0.0
 40
0.0
 40
1.0
 40
1.0
 40
1.0
 40
2.0
 40
2.0
 40
2.0
 40
3.0
 40
3.0
 40
3.0
 40
4.0
 40
4.0
 40
4.0
 40
5.0
 40
5.0
 40
5.0
 40
6.0
 40
6.0
 40
6.0
 40
7.0
 40
7.0
 40
7.0
 40
8.0
 40
8.0
 40
8.0
 40
9.0
 40
9.0
 40
9.0
 40
10.0
 40
10.0
 40
10.0
 40
11.0
 40
11.0
 40
11.0
 40
12.0
 40
12.0
 40
12.0
 40
13.0
 40
13.0
 40
13.0
 40
14.0
 40
14.0
 40
14.0
 40
15.0
 40
15.0
 40
15.0
 40
16.0
 40
16.0
 40
16.0
 40
17.0
 40
17.0
 40
17.0
 40
18.0
 40
18.0
 40
18.0
 40
19.0
 40
19.0
 40
19.0
 40
20.0
 40
20.0
 40
20.0
 40
21.0
 40
21.0
 40
21.0
 40
22.0
 40
22.0
 40
22.0
 40
23.0
 40
23.0
 40
23.0
 40
24.0
 40
24.0
 40
24.0
 40
25.0
 40
25.0
 40
25.0
 40
26.0
 40
26.0
 40
26.0
 40
27.0
 40
27.0
 40
27.0
 40
28.0
 40
28.0
 40
28.0
 40
29.0
 40
29.0
 40
29.0
 40
30.0
 40
30.0
 40
30.0
 40
31.0
 40
31.0
 40
31.0
 40
32.0
 40
32.0
 40
32.0
 40
33.0
 40
33.0
 40
33.0
 40
34.0
 40
34.0
 40
34.0
 40
35.0
 40
35.0
 40
35.0
 40
36.0
 40
36.0
 40
36.0
 40
36.0
 10
193.3039632161458
 20
186.1548733181423
 10
193.3039632161458
 20
186.1860514322916
 10
193.3039632161458
 20
219.6932223849826
 10
193.3039632161458
 20
219.6932223849826
 10
193.3039632161458
 20
219.6932223849826
 10
193.2974175347219
 20
219.7488606770833
 10
193.2974175347219
 20
219.7488606770833
 10
191.5293945312499
 20
235.455740017361
 10
175.1458984374999
 20
235.2467949761284
 10
174.9808783637151
 20
235.2428331163193
 10
174.9808783637151
 20
235.2428331163193
 10
125.8827555338541
 20
235.2430053710937
 10
125.8827555338541
 20
235.2430053710937
 10
125.8827555338541
 20
235.2430053710937
 10
125.8827555338541
 20
255.5278998480901
 10
125.8827555338541
 20
255.5278998480901
 10
125.8827555338541
 20
255.5278998480901
 10
84.5626247829861
 20
255.5278998480901
 10
84.5626247829861
 20
255.5278998480901
 10
84.5626247829861
 20
255.5278998480901
 10
84.55711263020829
 20
233.7919311523436
 10
84.55711263020829
 20
233.7919311523436
 10
84.55711263020829
 20
233.7919311523436
 10
64.42052951388888
 20
233.7919311523436
 10
64.42052951388888
 20
233.7919311523436
 10
64.42052951388888
 20
233.7919311523436
 10
64.41501736111111
 20
255.5278998480901
 10
64.41501736111111
 20
255.5278998480901
 10
64.41501736111111
 20
255.5278998480901
 10
23.91757541232637
 20
255.5278998480901
 10
23.91757541232637
 20
255.5278998480901
 10
23.91757541232637
 20
255.5278998480901
 10
23.91757541232637
 20
233.2393378363715
 10
23.91757541232637
 20
233.2393378363715
 10
23.91757541232637
 20
233.2393378363715
 10
43.65624999999999
 20
233.2393378363715
 10
43.65624999999999
 20
233.2393378363715
 10
43.65624999999999
 20
233.2393378363715
 10
43.65624999999999
 20
211.5188720703125
 10
43.65624999999999
 20
211.5188720703125
 10
43.65624999999999
 20
211.5188720703125
 10
23.91757541232637
 20
211.5188720703125
 10
23.91757541232637
 20
211.5188720703125
 10
23.91757541232637
 20
211.5188720703125
 10
23.91757541232637
 20
189.2303100585936
 10
23.91757541232637
 20
189.2303100585936
 10
23.91757541232637
 20
189.2303100585936
 10
64.41501736111111
 20
189.2303100585936
 10
64.41501736111111
 20
189.2303100585936
 10
64.41501736111111
 20
189.2303100585936
 10
64.42052951388888
 20
211.069976128472
 10
64.42052951388888
 20
211.069976128472
 10
64.42052951388888
 20
211.069976128472
 10
84.55711263020829
 20
211.069976128472
 10
84.55711263020829
 20
211.069976128472
 10
84.55711263020829
 20
211.069976128472
 10
84.5626247829861
 20
189.2303100585936
 10
84.5626247829861
 20
189.2303100585936
 10
84.5626247829861
 20
189.2303100585936
 10
125.8827555338541
 20
189.2303100585936
 10
125.8827555338541
 20
189.2303100585936
 10
125.8827555338541
 20
189.2303100585936
 10
125.8827555338541
 20
211.5188720703125
 10
125.8827555338541
 20
211.5188720703125
 10
125.8827555338541
 20
211.5188720703125
 10
105.3213921440971
 20
211.5188720703125
 10
105.3213921440971
 20
211.5188720703125
 10
105.3213921440971
 20
211.5188720703125
 10
105.3213921440971
 20
233.2393378363715
 10
105.3213921440971
 20
233.2393378363715
 10
105.3213921440971
 20
233.2393378363715
 10
175.0046495225693
 20
233.243127441406
 10
175.0046495225693
 20
233.243127441406
 10
175.6268337673611
 20
233.2560465494791
 10
189.7165852864583
 20
233.3962619357638
 10
191.3037407769094
 20
219.5690266927083
 10
191.3037407769094
 20
219.4332899305555
 10
191.3037407769094
 20
186.1142211914062
 10
191.3037407769094
 20
186.1142211914062
 10
191.3037407769094
 20
186.1142211914062
 10
191.3051188151039
 20
186.0880384657115
 10
191.3051188151039
 20
186.0880384657115
 10
191.3054633246526
 20
186.0787367078991
 10
191.3109754774304
 20
185.9566080729166
 10
191.3109754774304
 20
185.7399115668401
 10
191.3109754774304
 20
184.2090833875865
 10
191.0488037109374
 20
177.9643310546874
 10
186.9866916232638
 20
173.5652886284722
 10
184.2540418836804
 20
170.6064683702255
 10
180.3224989149304
 20
169.0308539496526
 10
175.300927734375
 20
168.8825425889756
 10
175.300927734375
 20
168.8825425889756
 10
107.0094889322916
 20
168.8828870985243
 10
107.0094889322916
 20
168.8828870985243
 10
107.0094889322916
 20
168.8828870985243
 10
107.0094889322916
 20
166.8830091688368
 10
107.0094889322916
 20
166.8830091688368
 10
107.0094889322916
 20
166.8830091688368
 10
175.3305555555555
 20
166.8830091688368
 10
175.3305555555555
 20
166.8830091688368
 10
180.9467502170138
 20
167.0485460069444
 10
185.3571614583333
 20
168.8448187934026
 10
188.4687717013888
 20
172.2223904079861
 10
192.9649658203124
 20
177.1034016927083
 10
193.3136094835069
 20
183.7202243381076
 10
193.3136094835069
 20
185.6520616319443
 10
193.3136094835069
 20
185.9247409396701
 10
193.3070638020833
 20
186.0868326822916
 10
193.3039632161458
 20
186.1548733181423
 97
        1
330
2BC1
 75
     0
 76
     1
 98
        1
 10
0.0
 20
0.0
  0
HATCH
  5
2BE2
330
2BC0
100
AcDbEntity
  8
0
  6
Continuous
100
AcDbHatch
 10
0.0
 20
0.0
 30
0.0
210
0.0
220
0.0
230
1.0
  2
SOLID
 70
     1
 71
     1
 91
        2
 92
        1
 93
        1
 72
     4
 94
        3
 73
     0
 74
     0
 95
       23
 96
       19
 40
0.0
 40
0.0
 40
0.0
 40
0.0
 40
1.0
 40
1.0
 40
1.0
 40
2.0
 40
2.0
 40
2.0
 40
3.0
 40
3.0
 40
3.0
 40
4.0
 40
4.0
 40
4.0
 40
5.0
 40
5.0
 40
5.0
 40
6.0
 40
6.0
 40
6.0
 40
6.0
 10
148.6593153211804
 20
211.3929538302948
 10
148.6593153211804
 20
211.3929538302948
 10
148.6593153211804
 20
189.6308024088539
 10
148.6593153211804
 20
189.6308024088539
 10
148.6593153211804
 20
189.6308024088539
 10
161.3152180989583
 20
189.6308024088539
 10
161.3152180989583
 20
189.6308024088539
 10
162.8431179470483
 20
189.6308024088539
 10
170.4657362196178
 20
190.1880466037321
 10
170.4657362196178
 20
201.1911648220483
 10
170.4657362196178
 20
211.1288872612844
 10
162.3356553819444
 20
211.3914035373261
 10
162.2536621093749
 20
211.3927815755205
 10
162.2536621093749
 20
211.3927815755205
 10
149.6594265407986
 20
211.3929538302948
 10
149.6594265407986
 20
211.3929538302948
 10
149.6594265407986
 20
211.3929538302948
 10
148.6593153211804
 20
211.3929538302948
 10
148.6593153211804
 20
211.3929538302948
 97
        1
330
2BC2
 92
       16
 93
        1
 72
     4
 94
        3
 73
     0
 74
     0
 95
       20
 96
       16
 40
0.0
 40
0.0
 40
0.0
 40
0.0
 40
1.0
 40
1.0
 40
1.0
 40
2.0
 40
2.0
 40
2.0
 40
3.0
 40
3.0
 40
3.0
 40
4.0
 40
4.0
 40
4.0
 40
5.0
 40
5.0
 40
5.0
 40
5.0
 10
162.2354031032983
 20
209.3930759006072
 10
162.467947048611
 20
209.3861857096351
 10
168.4655137803819
 20
209.1283203124997
 10
168.4655137803819
 20
201.1911648220483
 10
168.4655137803819
 20
192.3202162000865
 10
162.9926350911458
 20
191.6306803385413
 10
161.3152180989583
 20
191.6306803385413
 10
161.3152180989583
 20
191.6306803385413
 10
152.3310980902776
 20
191.6306803385413
 10
150.6595377604166
 20
191.6306803385413
 10
150.6595377604166
 20
193.3373806423608
 10
150.6595377604166
 20
207.6863755967879
 10
150.6595377604166
 20
209.3930759006072
 10
152.3538357204859
 20
209.3930759006072
 10
162.2354031032983
 20
209.3930759006072
 10
162.2354031032983
 20
209.3930759006072
 97
        0
 75
     0
 76
     1
 98
        0
  0
ENDBLK
  5
2BE4
330
2BC0
100
AcDbEntity
  8
0
100
AcDbBlockEnd
  0
BLOCK
  5
2BE7
330
2BE5
100
AcDbEntity
  8
0
100
AcDbBlockBegin
  2
HD logo-new
 70
     0
 10
0.0
 20
0.0
 30
0.0
  3
HD logo-new
  1

  0
INSERT
  5
2BE6
330
2BE5
100
AcDbEntity
  8
0
 62
     3
100
AcDbBlockReference
  2
HD_LLC_logo_OT5
 10
-27.1607188578505
 20
-68.37367811463031
 30
0.0
 41
0.2999999999999971
 42
0.3000000000000007
 43
0.3
  0
ENDBLK
  5
2BE8
330
2BE5
100
AcDbEntity
  8
0
100
AcDbBlockEnd
  0
BLOCK
  5
2BEB
330
2BE9
100
AcDbEntity
  8
0
100
AcDbBlockBegin
  2
HD Logo
 70
     0
 10
0.0
 20
0.0
 30
0.0
  3
HD Logo
  1

  0
INSERT
  5
2BEA
330
2BE9
100
AcDbEntity
  8
0
100
AcDbBlockReference
  2
HD logo-new
 10
0.9700256734946606
 20
7.273795608420527
 30
0.0
  0
ENDBLK
  5
2BEC
330
2BE9
100
AcDbEntity
  8
0
100
AcDbBlockEnd
  0
BLOCK
  5
2BF7
330
2BF5
100
AcDbEntity
  8
0
100
AcDbBlockBegin
  2
Harmonic Drive LLC
 70
     0
 10
0.0
 20
0.0
 30
0.0
  3
Harmonic Drive LLC
  1

  0
MTEXT
  5
2BF6
330
2BF5
100
AcDbEntity
  8
0
100
AcDbMText
 10
189.3064368747374
 20
-164.4147342669637
 30
0.0
 40
3.5
 41
76.932
 71
     5
 72
     5
  1
Harmonic Drive LLC\P800-921-3332\Pwww.harmonicdrive.net
 73
     1
 44
1.0
  0
ENDBLK
  5
2BF8
330
2BF5
100
AcDbEntity
  8
0
100
AcDbBlockEnd
  0
BLOCK
  5
303B
330
3039
100
AcDbEntity
  8
0
100
AcDbBlockBegin
  2
HD LLC
 70
     0
 10
0.0
 20
0.0
 30
0.0
  3
HD LLC
  1

  0
MTEXT
  5
303A
330
3039
100
AcDbEntity
  8
0
100
AcDbMText
 10
-2.314970886968865
 20
1.247205085865914
 30
0.0
 40
5.675387507387601
 41
236.1828726592229
 71
     5
 72
     5
  1
Harmonic Drive LLC\P800-921-3332\Pwww.harmonicdrive.net
 73
     1
 44
1.0
  0
ENDBLK
  5
303C
330
3039
100
AcDbEntity
  8
0
100
AcDbBlockEnd
  0
BLOCK
  5
304C
330
3049
100
AcDbEntity
  8
0
100
AcDbBlockBegin
  2
NTC
 70
     0
 10
0.0
 20
0.0
 30
0.0
  3
NTC
  1

  0
LWPOLYLINE
  5
304A
330
3049
100
AcDbEntity
  8
0
100
AcDbPolyline
 90
        8
 70
     1
 43
0.0
 10
4.581008201925953
 20
-10.78862239032818
 10
319.3921777697513
 20
-10.78862239032818
 42
-0.4142135623730951
 10
324.9046777697513
 20
-16.30112239032816
 10
324.9046777697513
 20
-117.4075202476924
 42
-0.4142135623730951
 10
319.3921777697513
 20
-122.9200202476925
 10
4.581008201925838
 20
-122.9200202476925
 42
-0.4142135623730951
 10
-0.9314917980741483
 20
-117.4075202476924
 10
-0.9314917980740915
 20
-16.30112239032816
 42
-0.4142135623730951
  0
MTEXT
  5
304B
330
3049
100
AcDbEntity
  8
0
  6
Continuous
370
    30
100
AcDbMText
 10
21.65307678143926
 20
-17.4535155144544
 30
0.0
 40
8.75
 41
294.5432999999998
 71
     1
 72
     5
  3
{\fTxt|b1|i0|c0|p2;Notice:\P\Ftxt.shx;\H0.5714x;All specifications and dimensions shown in the drawing are subject to change without notice. This drawing is the property of Harmonic Drive LLC.   This data is believed to be accurate, however, Harmonic
  1
 Drive LLC assumes no liability for any errors or omissions in the specifications, models, or drawings.\P\PHarmonic Drive LLC\PTel: 800-921-3332\Pwww.harmonicdrive.net}
 73
     1
 44
1.0
  0
ENDBLK
  5
304D
330
3049
100
AcDbEntity
  8
0
100
AcDbBlockEnd
  0
ENDSEC
  0
SECTION
  2
ENTITIES
  0
TEXT
  5
2B78
330
2938
100
AcDbEntity
  8
1
 62
     3
100
AcDbText
 10
-55.57115753014953
 20
-19.78874418896316
 30
0.0
 40
3.799999999999998
  1
 
 41
0.9
100
AcDbText
  0
TEXT
  5
2E22
330
2938
100
AcDbEntity
  8
1
 62
     0
100
AcDbText
 10
260.2276142340314
 20
330.0139758916289
 30
0.0
 40
7.722190995171978
  1
REMARKS:  M.H.C = MINIMUM HOUSING CLEARANCE
 41
0.9
 72
     1
 11
361.0195816507649
 21
333.8750713892149
 31
0.0
100
AcDbText
 73
     2
  0
LINE
  5
2E23
330
2938
100
AcDbEntity
  8
1
  6
PHANTOM
 62
     4
100
AcDbLine
 10
362.1619507130351
 20
424.6563343760524
 30
0.0
 11
346.5619507130354
 21
424.6563343760524
 31
0.0
  0
LINE
  5
2E24
330
2938
100
AcDbEntity
  8
1
  6
PHANTOM
 62
     4
100
AcDbLine
 10
357.661950773011
 20
432.6563343760524
 30
0.0
 11
343.161950773011
 21
432.6563343760524
 31
0.0
  0
LINE
  5
2E25
330
2938
100
AcDbEntity
  8
1
  6
PHANTOM
 62
     4
100
AcDbLine
 10
346.5619507130354
 20
530.6563343760524
 30
0.0
 11
362.1619507130351
 21
530.6563343760524
 31
0.0
  0
LINE
  5
2E26
330
2938
100
AcDbEntity
  8
1
  6
PHANTOM
 62
     4
100
AcDbLine
 10
343.161950773011
 20
522.6563343760525
 30
0.0
 11
357.661950773011
 21
522.6563343760525
 31
0.0
  0
LINE
  5
2E27
330
2938
100
AcDbEntity
  8
1
 62
     7
100
AcDbLine
 10
363.5379507730111
 20
427.7743343760526
 30
0.0
 11
347.459950773011
 21
427.7743343760527
 31
0.0
  0
LINE
  5
2E28
330
2938
100
AcDbEntity
  8
1
 62
     7
100
AcDbLine
 10
347.661950773011
 20
428.5763343760526
 30
0.0
 11
390.9619507730111
 21
428.5763343760526
 31
0.0
  0
LINE
  5
2E29
330
2938
100
AcDbEntity
  8
1
 62
     7
100
AcDbLine
 10
390.9619507730111
 20
526.7363343760526
 30
0.0
 11
347.459950773011
 21
526.7363343760526
 31
0.0
  0
LINE
  5
2E2A
330
2938
100
AcDbEntity
  8
1
 62
     7
100
AcDbLine
 10
347.661950773011
 20
527.5383343760524
 30
0.0
 11
363.5379507730111
 21
527.5383343760524
 31
0.0
  0
ARC
  5
2E2B
330
2938
100
AcDbEntity
  8
1
  6
CENTER
 62
     3
100
AcDbCircle
 10
182.5686390222353
 20
477.6563343760525
 30
0.0
 40
76.00000000000007
100
AcDbArc
 50
285.2575232904566
 51
74.74247670954338
  0
ARC
  5
2E2C
330
2938
100
AcDbEntity
  8
1
 62
     7
100
AcDbCircle
 10
182.5686390222353
 20
477.6563343760525
 30
0.0
 40
82.00000000000001
100
AcDbArc
 50
284.1169805713034
 51
75.88301942869648
  0
ARC
  5
2E2D
330
2938
100
AcDbEntity
  8
1
 62
     7
100
AcDbCircle
 10
182.5686390222353
 20
477.6563343760525
 30
0.0
 40
70.00000000000001
100
AcDbArc
 50
286.6015495990193
 51
73.39845040098062
  0
ARC
  5
2E2E
330
2938
100
AcDbEntity
  8
1
 62
     7
100
AcDbCircle
 10
182.5686390222353
 20
477.6563343760525
 30
0.0
 40
70.00000000000001
100
AcDbArc
 50
73.39845040098062
 51
286.6015495990193
  0
ARC
  5
2E2F
330
2938
100
AcDbEntity
  8
1
  6
CENTER
 62
     3
100
AcDbCircle
 10
182.5686390222353
 20
477.6563343760525
 30
0.0
 40
76.00000000000007
100
AcDbArc
 50
74.74247670954338
 51
285.2575232904566
  0
ARC
  5
2E30
330
2938
100
AcDbEntity
  8
1
 62
     7
100
AcDbCircle
 10
182.5686390222353
 20
477.6563343760525
 30
0.0
 40
81.99999999999993
100
AcDbArc
 50
75.88301942869648
 51
284.1169805713034
  0
LINE
  5
2E31
330
2938
100
AcDbEntity
  8
1
  6
PHANTOM
 62
     4
100
AcDbLine
 10
346.5619507130354
 20
424.6563343760524
 30
0.0
 11
346.5619507130354
 21
407.6563343760526
 31
0.0
  0
LINE
  5
2E32
330
2938
100
AcDbEntity
  8
1
  6
PHANTOM
 62
     4
100
AcDbLine
 10
343.161950773011
 20
432.6563343760524
 30
0.0
 11
343.161950773011
 21
407.6563343760526
 31
0.0
  0
LINE
  5
2E33
330
2938
100
AcDbEntity
  8
1
 62
     7
100
AcDbLine
 10
344.3599507730113
 20
408.0563343760527
 30
0.0
 11
344.3599507730113
 21
425.6763343760527
 31
0.0
  0
LINE
  5
2E34
330
2938
100
AcDbEntity
  8
1
 62
     7
100
AcDbLine
 10
345.161950773011
 20
425.4743343760527
 30
0.0
 11
345.161950773011
 21
404.9563343760527
 31
0.0
  0
LINE
  5
2E35
330
2938
100
AcDbEntity
  8
1
 62
     7
100
AcDbLine
 10
341.161950773011
 20
477.6563343760525
 30
0.0
 11
341.161950773011
 21
407.6563343760527
 31
0.0
  0
LINE
  5
2E36
330
2938
100
AcDbEntity
  8
1
  6
CENTER
 62
     3
100
AcDbLine
 10
182.5686390222353
 20
389.6563343760526
 30
0.0
 11
182.5686390222353
 21
526.7363343760526
 31
0.0
  0
CIRCLE
  5
2E37
330
2938
100
AcDbEntity
  8
1
 62
     7
100
AcDbCircle
 10
144.5686390222353
 20
411.8384036884352
 30
0.0
 40
3.299999999999958
  0
LINE
  5
2E38
330
2938
100
AcDbEntity
  8
1
  6
CENTER
 62
     3
100
AcDbLine
 10
142.0936390222353
 20
407.5515779397023
 30
0.0
 11
147.0436390222353
 21
416.1252294371682
 31
0.0
  0
CIRCLE
  5
2E39
330
2938
100
AcDbEntity
  8
1
 62
     7
100
AcDbCircle
 10
182.5686390222353
 20
401.6563343760526
 30
0.0
 40
3.299999999999982
  0
CIRCLE
  5
2E3A
330
2938
100
AcDbEntity
  8
1
 62
     7
100
AcDbCircle
 10
220.5686390222351
 20
411.8384036884352
 30
0.0
 40
3.300000000000039
  0
LINE
  5
2E3B
330
2938
100
AcDbEntity
  8
1
  6
CENTER
 62
     3
100
AcDbLine
 10
218.0936390222352
 20
416.1252294371682
 30
0.0
 11
223.0436390222351
 21
407.5515779397023
 31
0.0
  0
LINE
  5
2E3C
330
2938
100
AcDbEntity
  8
1
 62
     7
100
AcDbLine
 10
341.161950773011
 20
407.1563343760526
 30
0.0
 11
341.161950773011
 21
396.0563343760527
 31
0.0
  0
LINE
  5
2E3D
330
2938
100
AcDbEntity
  8
1
 62
     7
100
AcDbLine
 10
341.161950773011
 20
404.9563343760527
 30
0.0
 11
341.161950773011
 21
407.2563343760527
 31
0.0
  0
LINE
  5
2E3E
330
2938
100
AcDbEntity
  8
1
  6
CENTER
 62
     3
100
AcDbLine
 10
338.0464738587206
 20
401.6563343760528
 30
0.0
 11
347.7138147137157
 21
401.6563343760528
 31
0.0
  0
LINE
  5
2E3F
330
2938
100
AcDbEntity
  8
1
 62
     7
100
AcDbLine
 10
345.161950773011
 20
398.3563343760527
 30
0.0
 11
345.161950773011
 21
396.0563343760527
 31
0.0
  0
LINE
  5
2E40
330
2938
100
AcDbEntity
  8
1
 62
     7
100
AcDbLine
 10
344.7619507730111
 20
395.6563343760527
 30
0.0
 11
341.5619507730113
 21
395.6563343760527
 31
0.0
  0
LINE
  5
2E41
330
2938
100
AcDbEntity
  8
1
 62
     7
100
AcDbLine
 10
341.161950773011
 20
396.0563343760527
 30
0.0
 11
341.5619507730113
 21
395.6563343760527
 31
0.0
  0
LINE
  5
2E42
330
2938
100
AcDbEntity
  8
1
 62
     7
100
AcDbLine
 10
345.161950773011
 20
396.0563343760527
 30
0.0
 11
344.7619507730111
 21
395.6563343760527
 31
0.0
  0
LINE
  5
2E43
330
2938
100
AcDbEntity
  8
1
 62
     7
100
AcDbLine
 10
341.161950773011
 20
404.9563343760527
 30
0.0
 11
345.161950773011
 21
404.9563343760527
 31
0.0
  0
LINE
  5
2E44
330
2938
100
AcDbEntity
  8
1
 62
     7
100
AcDbLine
 10
341.161950773011
 20
398.3563343760527
 30
0.0
 11
345.161950773011
 21
398.3563343760527
 31
0.0
  0
LINE
  5
2E45
330
2938
100
AcDbEntity
  8
1
 62
     7
100
AcDbLine
 10
341.161950773011
 20
404.9563343760527
 30
0.0
 11
341.161950773011
 21
398.3563343760527
 31
0.0
  0
LINE
  5
2E46
330
2938
100
AcDbEntity
  8
1
 62
     7
100
AcDbLine
 10
345.161950773011
 20
404.9563343760527
 30
0.0
 11
345.161950773011
 21
398.3563343760527
 31
0.0
  0
LINE
  5
2E47
330
2938
100
AcDbEntity
  8
1
 62
     7
100
AcDbLine
 10
343.9599507730114
 20
407.6563343760527
 30
0.0
 11
341.5619507730113
 21
407.6563343760527
 31
0.0
  0
LINE
  5
2E48
330
2938
100
AcDbEntity
  8
1
 62
     7
100
AcDbLine
 10
341.161950773011
 20
407.6563343760527
 30
0.0
 11
341.161950773011
 21
407.1563343760526
 31
0.0
  0
LINE
  5
2E49
330
2938
100
AcDbEntity
  8
1
 62
     7
100
AcDbLine
 10
341.161950773011
 20
407.2563343760527
 30
0.0
 11
341.5619507730113
 21
407.6563343760527
 31
0.0
  0
LINE
  5
2E4A
330
2938
100
AcDbEntity
  8
1
 62
     7
100
AcDbLine
 10
341.161950773011
 20
407.2563343760527
 30
0.0
 11
341.161950773011
 21
407.6563343760527
 31
0.0
  0
ARC
  5
2E4B
330
2938
100
AcDbEntity
  8
1
 62
     7
100
AcDbCircle
 10
343.9599507730114
 20
408.0563343760527
 30
0.0
 40
0.4000000000000057
100
AcDbArc
 50
270.0
 51
0.0
  0
ARC
  5
2E4C
330
2938
100
AcDbEntity
  8
1
 62
     7
100
AcDbCircle
 10
182.5686390222353
 20
477.6563343760525
 30
0.0
 40
49.07999999999985
100
AcDbArc
 50
65.95224267103235
 51
90.0
  0
ARC
  5
2E4D
330
2938
100
AcDbEntity
  8
1
 62
     7
100
AcDbCircle
 10
182.5686390222353
 20
477.6563343760525
 30
0.0
 40
49.08000000000001
100
AcDbArc
 50
90.0
 51
294.0477573289676
  0
LINE
  5
2E4E
330
2938
100
AcDbEntity
  8
1
  6
CENTER
 62
     3
100
AcDbLine
 10
272.5686390222353
 20
477.6563343760525
 30
0.0
 11
92.56863902223534
 21
477.6563343760525
 31
0.0
  0
LINE
  5
2E4F
330
2938
100
AcDbEntity
  8
1
  6
CENTER
 62
     3
100
AcDbLine
 10
182.5686390222353
 20
526.7363343760526
 30
0.0
 11
182.5686390222353
 21
565.6563343760522
 31
0.0
  0
CIRCLE
  5
2E50
330
2938
100
AcDbEntity
  8
1
 62
     7
100
AcDbCircle
 10
106.5686390222353
 20
477.6563343760525
 30
0.0
 40
3.299999999999982
  0
CIRCLE
  5
2E51
330
2938
100
AcDbEntity
  8
1
 62
     7
100
AcDbCircle
 10
116.750708334618
 20
439.6563343760526
 30
0.0
 40
3.30000000000003
  0
LINE
  5
2E52
330
2938
100
AcDbEntity
  8
1
  6
CENTER
 62
     3
100
AcDbLine
 10
112.463882585885
 20
437.1813343760526
 30
0.0
 11
121.037534083351
 21
442.1313343760524
 31
0.0
  0
CIRCLE
  5
2E53
330
2938
100
AcDbEntity
  8
1
 62
     7
100
AcDbCircle
 10
116.750708334618
 20
515.6563343760526
 30
0.0
 40
3.299999999999958
  0
LINE
  5
2E54
330
2938
100
AcDbEntity
  8
1
  6
CENTER
 62
     3
100
AcDbLine
 10
112.463882585885
 20
518.1313343760523
 30
0.0
 11
121.037534083351
 21
513.1813343760526
 31
0.0
  0
CIRCLE
  5
2E55
330
2938
100
AcDbEntity
  8
1
 62
     7
100
AcDbCircle
 10
144.5686390222353
 20
543.4742650636699
 30
0.0
 40
3.300000000000038
  0
LINE
  5
2E56
330
2938
100
AcDbEntity
  8
1
  6
CENTER
 62
     3
100
AcDbLine
 10
142.0936390222353
 20
547.7610908124029
 30
0.0
 11
147.0436390222353
 21
539.187439314937
 31
0.0
  0
CIRCLE
  5
2E57
330
2938
100
AcDbEntity
  8
1
 62
     7
100
AcDbCircle
 10
182.5686390222353
 20
553.6563343760525
 30
0.0
 40
3.300000000000091
  0
LINE
  5
2E58
330
2938
100
AcDbEntity
  8
1
  6
PHANTOM
 62
     4
100
AcDbLine
 10
346.5619507130354
 20
547.6563343760525
 30
0.0
 11
346.5619507130354
 21
530.6563343760524
 31
0.0
  0
LINE
  5
2E59
330
2938
100
AcDbEntity
  8
1
  6
PHANTOM
 62
     4
100
AcDbLine
 10
343.161950773011
 20
547.6563343760525
 30
0.0
 11
343.161950773011
 21
522.6563343760525
 31
0.0
  0
LINE
  5
2E5A
330
2938
100
AcDbEntity
  8
1
 62
     7
100
AcDbLine
 10
344.3599507730113
 20
529.6363343760523
 30
0.0
 11
344.3599507730113
 21
547.2563343760525
 31
0.0
  0
LINE
  5
2E5B
330
2938
100
AcDbEntity
  8
1
 62
     7
100
AcDbLine
 10
345.161950773011
 20
550.3563343760524
 30
0.0
 11
345.161950773011
 21
529.8383343760524
 31
0.0
  0
LINE
  5
2E5C
330
2938
100
AcDbEntity
  8
1
 62
     7
100
AcDbLine
 10
341.161950773011
 20
547.6563343760525
 30
0.0
 11
341.161950773011
 21
477.6563343760525
 31
0.0
  0
CIRCLE
  5
2E5D
330
2938
100
AcDbEntity
  8
1
 62
     7
100
AcDbCircle
 10
258.5686390222351
 20
477.6563343760525
 30
0.0
 40
3.299999999999982
  0
ARC
  5
2E5E
330
2938
100
AcDbEntity
  8
1
 62
     7
100
AcDbCircle
 10
182.5686390222353
 20
477.6563343760525
 30
0.0
 40
49.07999999999998
100
AcDbArc
 50
294.0477573289676
 51
65.95224267103235
  0
CIRCLE
  5
2E5F
330
2938
100
AcDbEntity
  8
1
 62
     7
100
AcDbCircle
 10
248.3865697098525
 20
439.6563343760526
 30
0.0
 40
3.300000000000018
  0
LINE
  5
2E60
330
2938
100
AcDbEntity
  8
1
  6
CENTER
 62
     3
100
AcDbLine
 10
244.0997439611195
 20
442.1313343760524
 30
0.0
 11
252.6733954585854
 21
437.1813343760526
 31
0.0
  0
CIRCLE
  5
2E61
330
2938
100
AcDbEntity
  8
1
 62
     7
100
AcDbCircle
 10
248.3865697098525
 20
515.6563343760526
 30
0.0
 40
3.299999999999971
  0
LINE
  5
2E62
330
2938
100
AcDbEntity
  8
1
  6
CENTER
 62
     3
100
AcDbLine
 10
244.0997439611195
 20
513.1813343760526
 30
0.0
 11
252.6733954585854
 21
518.1313343760523
 31
0.0
  0
LINE
  5
2E63
330
2938
100
AcDbEntity
  8
1
 62
     7
100
AcDbLine
 10
344.3599507730113
 20
529.6363343760523
 30
0.0
 11
344.3599507730113
 21
477.6563343760525
 31
0.0
  0
LINE
  5
2E64
330
2938
100
AcDbEntity
  8
1
 62
     7
100
AcDbLine
 10
344.3599507730113
 20
477.6563343760525
 30
0.0
 11
344.3599507730113
 21
425.6763343760527
 31
0.0
  0
ARC
  5
2E65
330
2938
100
AcDbEntity
  8
1
 62
     7
100
AcDbCircle
 10
347.5619507730113
 20
425.3743343760527
 30
0.0
 40
2.402082429892858
100
AcDbArc
 50
87.61405596961145
 51
177.6140559696114
  0
ARC
  5
2E66
330
2938
100
AcDbEntity
  8
1
 62
     7
100
AcDbCircle
 10
347.3599507730113
 20
425.5763343760527
 30
0.0
 40
3.00166620396074
100
AcDbArc
 50
88.09084756700428
 51
178.0908475670026
  0
LINE
  5
2E67
330
2938
100
AcDbEntity
  8
1
  6
CENTER
 62
     3
100
AcDbLine
 10
336.7399592349961
 20
477.6563343760525
 30
0.0
 11
344.3599507730113
 21
477.6563343760525
 31
0.0
  0
LINE
  5
2E68
330
2938
100
AcDbEntity
  8
1
  6
CENTER
 62
     3
100
AcDbLine
 10
354.6722222146226
 20
477.6563343760525
 30
0.0
 11
344.3599507730113
 21
477.6563343760525
 31
0.0
  0
ARC
  5
2E69
330
2938
100
AcDbEntity
  8
1
 62
     7
100
AcDbCircle
 10
347.5619507730113
 20
529.9383343760525
 30
0.0
 40
2.402082429892858
100
AcDbArc
 50
182.3859440303885
 51
272.3859440303885
  0
ARC
  5
2E6A
330
2938
100
AcDbEntity
  8
1
 62
     7
100
AcDbCircle
 10
347.3599507730113
 20
529.7363343760525
 30
0.0
 40
3.001666203960759
100
AcDbArc
 50
181.909152432994
 51
271.9091524329957
  0
CIRCLE
  5
2E6B
330
2938
100
AcDbEntity
  8
1
 62
     7
100
AcDbCircle
 10
220.5686390222352
 20
543.4742650636699
 30
0.0
 40
3.30000000000003
  0
LINE
  5
2E6C
330
2938
100
AcDbEntity
  8
1
  6
CENTER
 62
     3
100
AcDbLine
 10
218.0936390222352
 20
539.187439314937
 30
0.0
 11
223.0436390222351
 21
547.7610908124029
 31
0.0
  0
LINE
  5
2E6D
330
2938
100
AcDbEntity
  8
1
 62
     7
100
AcDbLine
 10
341.161950773011
 20
556.9563343760526
 30
0.0
 11
341.161950773011
 21
550.3563343760524
 31
0.0
  0
LINE
  5
2E6E
330
2938
100
AcDbEntity
  8
1
 62
     7
100
AcDbLine
 10
345.161950773011
 20
556.9563343760526
 30
0.0
 11
345.161950773011
 21
550.3563343760524
 31
0.0
  0
LINE
  5
2E6F
330
2938
100
AcDbEntity
  8
1
 62
     7
100
AcDbLine
 10
341.161950773011
 20
559.2563343760525
 30
0.0
 11
341.161950773011
 21
548.1563343760524
 31
0.0
  0
LINE
  5
2E70
330
2938
100
AcDbEntity
  8
1
 62
     7
100
AcDbLine
 10
345.161950773011
 20
550.3563343760524
 30
0.0
 11
341.161950773011
 21
550.3563343760524
 31
0.0
  0
LINE
  5
2E71
330
2938
100
AcDbEntity
  8
1
 62
     7
100
AcDbLine
 10
341.5619507730113
 20
547.6563343760525
 30
0.0
 11
343.161950773011
 21
547.6563343760525
 31
0.0
  0
LINE
  5
2E72
330
2938
100
AcDbEntity
  8
1
 62
     7
100
AcDbLine
 10
341.161950773011
 20
548.0563343760525
 30
0.0
 11
341.161950773011
 21
550.3563343760524
 31
0.0
  0
LINE
  5
2E73
330
2938
100
AcDbEntity
  8
1
 62
     7
100
AcDbLine
 10
341.161950773011
 20
548.1563343760524
 30
0.0
 11
341.161950773011
 21
547.6563343760525
 31
0.0
  0
LINE
  5
2E74
330
2938
100
AcDbEntity
  8
1
 62
     7
100
AcDbLine
 10
341.5619507730113
 20
547.6563343760525
 30
0.0
 11
341.161950773011
 21
548.0563343760525
 31
0.0
  0
LINE
  5
2E75
330
2938
100
AcDbEntity
  8
1
 62
     7
100
AcDbLine
 10
341.161950773011
 20
547.6563343760525
 30
0.0
 11
341.161950773011
 21
548.0563343760525
 31
0.0
  0
ARC
  5
2E76
330
2938
100
AcDbEntity
  8
1
 62
     7
100
AcDbCircle
 10
343.9599507730114
 20
547.2563343760525
 30
0.0
 40
0.3999999999998671
100
AcDbArc
 50
0.0
 51
90.0
  0
LINE
  5
2E77
330
2938
100
AcDbEntity
  8
1
 62
     7
100
AcDbLine
 10
343.161950773011
 20
547.6563343760525
 30
0.0
 11
343.9599507730114
 21
547.6563343760525
 31
0.0
  0
LINE
  5
2E78
330
2938
100
AcDbEntity
  8
1
  6
CENTER
 62
     3
100
AcDbLine
 10
347.7138147137157
 20
553.6563343760525
 30
0.0
 11
338.0464738587206
 21
553.6563343760525
 31
0.0
  0
LINE
  5
2E79
330
2938
100
AcDbEntity
  8
1
 62
     7
100
AcDbLine
 10
341.5619507730113
 20
559.6563343760526
 30
0.0
 11
344.7619507730111
 21
559.6563343760526
 31
0.0
  0
LINE
  5
2E7A
330
2938
100
AcDbEntity
  8
1
 62
     7
100
AcDbLine
 10
345.161950773011
 20
556.9563343760526
 30
0.0
 11
341.161950773011
 21
556.9563343760526
 31
0.0
  0
LINE
  5
2E7B
330
2938
100
AcDbEntity
  8
1
 62
     7
100
AcDbLine
 10
341.5619507730113
 20
559.6563343760526
 30
0.0
 11
341.161950773011
 21
559.2563343760525
 31
0.0
  0
LINE
  5
2E7C
330
2938
100
AcDbEntity
  8
1
 62
     7
100
AcDbLine
 10
345.161950773011
 20
559.2563343760525
 30
0.0
 11
345.161950773011
 21
556.9563343760526
 31
0.0
  0
LINE
  5
2E7D
330
2938
100
AcDbEntity
  8
1
 62
     7
100
AcDbLine
 10
344.7619507730111
 20
559.6563343760526
 30
0.0
 11
345.161950773011
 21
559.2563343760525
 31
0.0
  0
CIRCLE
  5
2E7E
330
2938
100
AcDbEntity
  8
1
 62
     3
100
AcDbCircle
 10
561.6811475484759
 20
419.7007847981377
 30
0.0
 40
2.999999999999883
  0
CIRCLE
  5
2E7F
330
2938
100
AcDbEntity
  8
1
 62
     7
100
AcDbCircle
 10
561.6811475484759
 20
419.7007847981377
 30
0.0
 40
2.399999999999776
  0
CIRCLE
  5
2E80
330
2938
100
AcDbEntity
  8
1
 62
     7
100
AcDbCircle
 10
546.1520048417419
 20
417.6563343760524
 30
0.0
 40
3.299999999999812
  0
CIRCLE
  5
2E81
330
2938
100
AcDbEntity
  8
1
 62
     7
100
AcDbCircle
 10
561.6811475458562
 20
419.700784795494
 30
0.0
 40
3.299999999999955
  0
CIRCLE
  5
2E82
330
2938
100
AcDbEntity
  8
1
 62
     7
100
AcDbCircle
 10
546.1520048450573
 20
477.6563343760525
 30
0.0
 40
67.4999989862357
  0
CIRCLE
  5
2E83
330
2938
100
AcDbEntity
  8
1
  6
CENTER
 62
     3
100
AcDbCircle
 10
546.1520048450573
 20
477.6563343761548
 30
0.0
 40
60.00000000010217
  0
LINE
  5
2E84
330
2938
100
AcDbEntity
  8
1
  6
CENTER
 62
     3
100
AcDbLine
 10
562.8458332514378
 20
415.3541185798369
 30
0.0
 11
560.5164618455151
 21
424.0474510164385
 31
0.0
  0
LINE
  5
2E85
330
2938
100
AcDbEntity
  8
0
 62
     7
100
AcDbLine
 10
392.1619507728744
 20
420.9563343760526
 30
0.0
 11
392.1619507728744
 21
414.3563343760525
 31
0.0
  0
LINE
  5
2E86
330
2938
100
AcDbEntity
  8
0
 62
     7
100
AcDbLine
 10
375.1619507127561
 20
414.3563343760525
 30
0.0
 11
375.1619507127561
 21
420.9563343760526
 31
0.0
  0
LINE
  5
2E87
330
2938
100
AcDbEntity
  8
2
  6
CENTER
 62
     3
100
AcDbLine
 10
546.1520048450684
 20
417.6563343760524
 30
0.0
 11
546.1520048450666
 21
426.4423343758314
 31
0.0
  0
TEXT
  5
2E88
330
2938
100
AcDbEntity
  8
1
 62
     0
100
AcDbText
 10
474.2838490395924
 20
369.5795415914809
 30
0.0
 40
9.631754529304187
  1
SHF-40-XXX-2A-GR.dxf
 41
0.9
100
AcDbText
  0
LINE
  5
2E89
330
2938
100
AcDbEntity
  8
1
  6
CENTER
 62
     3
100
AcDbLine
 10
399.9969506369239
 20
417.6563343760524
 30
0.0
 11
370.1619507878538
 21
417.6563343760524
 31
0.0
  0
LINE
  5
2E8A
330
2938
100
AcDbEntity
  8
0
 62
     7
100
AcDbLine
 10
391.7619507786998
 20
410.1563353895628
 30
0.0
 11
375.5619507067471
 21
410.1563353895628
 31
0.0
  0
LINE
  5
2E8B
330
2938
100
AcDbEntity
  8
1
 62
     7
100
AcDbLine
 10
392.1619507728744
 20
414.3563343760525
 30
0.0
 11
375.1619507127561
 21
414.3563343760525
 31
0.0
  0
LINE
  5
2E8C
330
2938
100
AcDbEntity
  8
0
 62
     7
100
AcDbLine
 10
375.1619507127561
 20
410.5563353839094
 30
0.0
 11
375.1619507127561
 21
414.3563343760525
 31
0.0
  0
LINE
  5
2E8D
330
2938
100
AcDbEntity
  8
0
 62
     7
100
AcDbLine
 10
375.5619507067471
 20
410.1563353895628
 30
0.0
 11
375.1619507127561
 21
410.5563353839094
 31
0.0
  0
LINE
  5
2E8E
330
2938
100
AcDbEntity
  8
0
 62
     7
100
AcDbLine
 10
392.1619507728744
 20
414.3563343760525
 30
0.0
 11
392.1619507728591
 21
410.5563353839094
 31
0.0
  0
LINE
  5
2E8F
330
2938
100
AcDbEntity
  8
0
 62
     7
100
AcDbLine
 10
392.1619507728591
 20
410.5563353839094
 30
0.0
 11
391.7619507786998
 21
410.1563353895628
 31
0.0
  0
TEXT
  5
2E90
330
2938
100
AcDbEntity
  8
1
 62
     0
100
AcDbText
 10
532.215757543353
 20
354.8444776508923
 30
0.0
 40
6.0
  1
2002/3
 41
0.9
 72
     1
 11
543.5990322130678
 21
357.8444776508924
 31
0.0
100
AcDbText
 73
     2
  0
LINE
  5
2E91
330
2938
100
AcDbEntity
  8
2
  6
CENTER
 62
     3
100
AcDbLine
 10
546.1520048450706
 20
405.1563354644213
 30
0.0
 11
546.1520048450697
 21
410.1563353898169
 31
0.0
  0
LINE
  5
2E92
330
2938
100
AcDbEntity
  8
2
  6
CENTER
 62
     3
100
AcDbLine
 10
546.1520048450697
 20
410.1563353898169
 30
0.0
 11
546.1520048450684
 21
417.6563343760524
 31
0.0
  0
CIRCLE
  5
2E93
330
2938
100
AcDbEntity
  8
1
 62
     7
100
AcDbCircle
 10
546.1520048450573
 20
477.6563343760525
 30
0.0
 40
49.0854999999201
  0
CIRCLE
  5
2E94
330
2938
100
AcDbEntity
  8
1
 62
     7
100
AcDbCircle
 10
546.1520048450573
 20
477.6563343760525
 30
0.0
 40
46.60999999992012
  0
CIRCLE
  5
2E95
330
2938
100
AcDbEntity
  8
1
 62
     7
100
AcDbCircle
 10
546.1520048450573
 20
477.6563343760525
 30
0.0
 40
38.12499999992001
  0
CIRCLE
  5
2E96
330
2938
100
AcDbEntity
  8
1
 62
     7
100
AcDbCircle
 10
546.1520048450573
 20
477.6563343760525
 30
0.0
 40
35.55999999992002
  0
CIRCLE
  5
2E97
330
2938
100
AcDbEntity
  8
1
 62
     7
100
AcDbCircle
 10
546.1520048450573
 20
477.6563343760525
 30
0.0
 40
50.27999999967472
  0
CIRCLE
  5
2E98
330
2938
100
AcDbEntity
  8
1
 62
     7
100
AcDbCircle
 10
546.1520048450573
 20
477.6563343760525
 30
0.0
 40
51.214000000221
  0
ARC
  5
2E99
330
2938
100
AcDbEntity
  8
1
 62
     7
100
AcDbCircle
 10
519.4380521617402
 20
444.8204754406145
 30
0.0
 40
5.199999999999674
100
AcDbArc
 50
284.8847465052119
 51
3.587491894071699
  0
ARC
  5
2E9A
330
2938
100
AcDbEntity
  8
1
 62
     7
100
AcDbCircle
 10
546.1520048450613
 20
477.6563343761324
 30
0.0
 40
45.5800000000001
100
AcDbArc
 50
236.1663418550667
 51
241.2249624927583
  0
ARC
  5
2E9B
330
2938
100
AcDbEntity
  8
1
 62
     7
100
AcDbCircle
 10
524.1580162400621
 20
513.8239077705854
 30
0.0
 40
4.762500000000017
100
AcDbArc
 50
148.6979789038459
 51
274.8563671116339
  0
ARC
  5
2E9C
330
2938
100
AcDbEntity
  8
1
 62
     7
100
AcDbCircle
 10
519.4380521617402
 20
444.8204754406145
 30
0.0
 40
4.762499999999945
100
AcDbArc
 50
258.2631962951506
 51
24.42158450294007
  0
LINE
  5
2E9D
330
2938
100
AcDbEntity
  8
2
  6
CENTER
 62
     3
100
AcDbLine
 10
473.652005935649
 20
477.6563343760969
 30
0.0
 11
618.6520038300362
 21
477.6563343762124
 31
0.0
  0
LINE
  5
2E9E
330
2938
100
AcDbEntity
  8
0
 62
     7
100
AcDbLine
 10
392.1619507730494
 20
534.3563343760524
 30
0.0
 11
392.1619507730494
 21
540.9563343760526
 31
0.0
  0
LINE
  5
2E9F
330
2938
100
AcDbEntity
  8
1
 62
     7
100
AcDbLine
 10
383.6423354707648
 20
540.0563343760524
 30
0.0
 11
383.6423354707648
 21
535.2563343760523
 31
0.0
  0
LINE
  5
2EA0
330
2938
100
AcDbEntity
  8
0
 62
     7
100
AcDbLine
 10
375.1619507130354
 20
540.0563343760524
 30
0.0
 11
375.1619507130354
 21
535.2563343760523
 31
0.0
  0
LINE
  5
2EA1
330
2938
100
AcDbEntity
  8
1
 62
     7
100
AcDbLine
 10
384.1619507130354
 20
540.9563343760526
 30
0.0
 11
384.1619507130354
 21
534.3563343760524
 31
0.0
  0
LINE
  5
2EA2
330
2938
100
AcDbEntity
  8
0
 62
     7
100
AcDbLine
 10
394.1619507730111
 20
493.156334143275
 30
0.0
 11
394.1619507730111
 21
477.6563343760525
 31
0.0
  0
LINE
  5
2EA3
330
2938
100
AcDbEntity
  8
0
 62
     7
100
AcDbLine
 10
366.6619507730113
 20
477.6563343760525
 30
0.0
 11
366.6619507730113
 21
493.656334135751
 31
0.0
  0
LINE
  5
2EA4
330
2938
100
AcDbEntity
  8
0
 62
     7
100
AcDbLine
 10
371.7619507730113
 20
443.9063343760526
 30
0.0
 11
371.7619507730113
 21
461.2563346223959
 31
0.0
  0
LINE
  5
2EA5
330
2938
100
AcDbEntity
  8
0
 62
     7
100
AcDbLine
 10
367.0619507730109
 20
461.2563346223959
 30
0.0
 11
367.0619507730109
 21
443.9063343760526
 31
0.0
  0
LINE
  5
2EA6
330
2938
100
AcDbEntity
  8
0
 62
     7
100
AcDbLine
 10
371.7619507730113
 20
458.6563346614545
 30
0.0
 11
371.7619507730113
 21
444.1563348793059
 31
0.0
  0
LINE
  5
2EA7
330
2938
100
AcDbEntity
  8
0
 62
     7
100
AcDbLine
 10
367.2969511289849
 20
458.6563346614545
 30
0.0
 11
367.2969511289849
 21
444.1563348793059
 31
0.0
  0
LINE
  5
2EA8
330
2938
100
AcDbEntity
  8
0
 62
     7
100
AcDbLine
 10
388.8619507730111
 20
442.09633491011
 30
0.0
 11
388.8619507730111
 21
461.406334620117
 31
0.0
  0
LINE
  5
2EA9
330
2938
100
AcDbEntity
  8
0
 62
     7
100
AcDbLine
 10
377.2619507730111
 20
461.406334620117
 30
0.0
 11
377.2619507730111
 21
442.09633491011
 31
0.0
  0
LINE
  5
2EAA
330
2938
100
AcDbEntity
  8
1
 62
     7
100
AcDbLine
 10
392.1619507730111
 20
428.3236521275699
 30
0.0
 11
392.1619507730111
 21
458.4566411677879
 31
0.0
  0
ARC
  5
2EAB
330
2938
100
AcDbEntity
  8
1
 62
     7
100
AcDbCircle
 10
383.7644507730111
 20
435.3208343760526
 30
0.0
 40
4.762500000000023
100
AcDbArc
 50
90.0
 51
243.9860991335052
  0
LINE
  5
2EAC
330
2938
100
AcDbEntity
  8
1
 62
     7
100
AcDbLine
 10
378.8019507730114
 20
438.6608343760526
 30
0.0
 11
377.344068527556
 21
438.6608343760526
 31
0.0
  0
LINE
  5
2EAD
330
2938
100
AcDbEntity
  8
1
 62
     7
100
AcDbLine
 10
378.8019507730114
 20
432.0708343760526
 30
0.0
 11
377.6919507730109
 21
432.0708343760526
 31
0.0
  0
LINE
  5
2EAE
330
2938
100
AcDbEntity
  8
1
 62
     7
100
AcDbLine
 10
381.6756697289571
 20
431.0408343760526
 30
0.0
 11
376.8269507730111
 21
431.0408343760526
 31
0.0
  0
LINE
  5
2EAF
330
2938
100
AcDbEntity
  8
1
 62
     7
100
AcDbLine
 10
383.7644507730111
 20
428.5653343760525
 30
0.0
 11
377.1269507730113
 21
428.5653343760525
 31
0.0
  0
LINE
  5
2EB0
330
2938
100
AcDbEntity
  8
0
 62
     7
100
AcDbLine
 10
374.5590062588433
 20
427.3763343760526
 30
0.0
 11
391.2486156905847
 21
427.3763343760526
 31
0.0
  0
LINE
  5
2EB1
330
2938
100
AcDbEntity
  8
0
 62
     7
100
AcDbLine
 10
377.3619506803159
 20
426.3763343910749
 30
0.0
 11
391.3361382510765
 21
426.3763343910749
 31
0.0
  0
LINE
  5
2EB2
330
2938
100
AcDbEntity
  8
0
 62
     7
100
AcDbLine
 10
371.1619507727952
 20
426.3763343910749
 30
0.0
 11
392.161950772892
 21
426.3763343910749
 31
0.0
  0
LINE
  5
2EB3
330
2938
100
AcDbEntity
  8
0
 62
     7
100
AcDbLine
 10
371.7276361891871
 20
427.3763343760526
 30
0.0
 11
391.5962653565908
 21
427.3763343760526
 31
0.0
  0
LINE
  5
2EB4
330
2938
100
AcDbEntity
  8
1
 62
     7
100
AcDbLine
 10
392.1619507728744
 20
420.9563343760526
 30
0.0
 11
375.1619507127561
 21
420.9563343760526
 31
0.0
  0
LINE
  5
2EB5
330
2938
100
AcDbEntity
  8
0
 62
     7
100
AcDbLine
 10
377.2619507730111
 20
442.09633491011
 30
0.0
 11
388.8619507730111
 21
442.09633491011
 31
0.0
  0
LINE
  5
2EB6
330
2938
100
AcDbEntity
  8
1
 62
     7
100
AcDbLine
 10
374.1529507730112
 20
426.5401453360206
 30
0.0
 11
382.1619507730113
 21
426.4423343760525
 31
0.0
  0
LINE
  5
2EB7
330
2938
100
AcDbEntity
  8
1
 62
     7
100
AcDbLine
 10
377.291950773011
 20
435.4030958048626
 30
0.0
 11
377.291950773011
 21
432.4708343760526
 31
0.0
  0
LINE
  5
2EB8
330
2938
100
AcDbEntity
  8
1
 62
     7
100
AcDbLine
 10
376.5269507730114
 20
430.7408343760525
 30
0.0
 11
376.5269507730114
 21
438.380511994715
 31
0.0
  0
ARC
  5
2EB9
330
2938
100
AcDbEntity
  8
1
 62
     7
100
AcDbCircle
 10
364.2781019329298
 20
387.8743343760526
 30
0.0
 40
39.90686436867132
100
AcDbArc
 50
75.67372606763631
 51
91.06272366937957
  0
LINE
  5
2EBA
330
2938
100
AcDbEntity
  8
0
 62
     7
100
AcDbLine
 10
371.5619507668879
 20
423.0906497708746
 30
0.0
 11
374.861950712756
 21
423.0906497708746
 31
0.0
  0
LINE
  5
2EBB
330
2938
100
AcDbEntity
  8
0
 62
     7
100
AcDbLine
 10
371.1619507730489
 20
426.8106489596603
 30
0.0
 11
371.7276361891871
 21
427.3763343760526
 31
0.0
  0
LINE
  5
2EBC
330
2938
100
AcDbEntity
  8
0
 62
     7
100
AcDbLine
 10
371.1619507730489
 20
423.4906497649675
 30
0.0
 11
371.1619507730489
 21
426.8106489596603
 31
0.0
  0
LINE
  5
2EBD
330
2938
100
AcDbEntity
  8
0
 62
     7
100
AcDbLine
 10
371.5619507668879
 20
423.0906497708746
 30
0.0
 11
371.1619507730489
 21
423.4906497649675
 31
0.0
  0
ARC
  5
2EBE
330
2938
100
AcDbEntity
  8
1
 62
     7
100
AcDbCircle
 10
374.861950712756
 20
422.7906497708749
 30
0.0
 40
0.3000000000000114
100
AcDbArc
 50
0.0
 51
90.0
  0
LINE
  5
2EBF
330
2938
100
AcDbEntity
  8
0
 62
     7
100
AcDbLine
 10
375.1619507127561
 20
420.9563343760526
 30
0.0
 11
375.1619507127561
 21
422.7906497708749
 31
0.0
  0
ARC
  5
2EC0
330
2938
100
AcDbEntity
  8
1
 62
     7
100
AcDbCircle
 10
377.6919507730109
 20
432.4708343760526
 30
0.0
 40
0.39999999999986
100
AcDbArc
 50
180.0
 51
270.0
  0
LINE
  5
2EC1
330
2938
100
AcDbEntity
  8
1
 62
     7
100
AcDbLine
 10
377.1269507730113
 20
428.5653343760525
 30
0.0
 11
376.5269507730114
 21
428.9117445375662
 31
0.0
  0
LINE
  5
2EC2
330
2938
100
AcDbEntity
  8
1
 62
     7
100
AcDbLine
 10
376.8269507730111
 20
431.0408343760526
 30
0.0
 11
376.5269507730114
 21
430.7408343760525
 31
0.0
  0
LINE
  5
2EC3
330
2938
100
AcDbEntity
  8
1
 62
     7
100
AcDbLine
 10
376.5269507730114
 20
430.7408343760525
 30
0.0
 11
376.5269507730114
 21
428.9117445375662
 31
0.0
  0
LINE
  5
2EC4
330
2938
100
AcDbEntity
  8
0
 62
     7
100
AcDbLine
 10
367.0619507730109
 20
443.9063343760526
 30
0.0
 11
371.7619507730113
 21
443.9063343760526
 31
0.0
  0
LINE
  5
2EC5
330
2938
100
AcDbEntity
  8
0
 62
     7
100
AcDbLine
 10
367.2969511289849
 20
444.1563348793059
 30
0.0
 11
373.6969510328458
 21
444.1563348793059
 31
0.0
  0
LINE
  5
2EC6
330
2938
100
AcDbEntity
  8
0
 62
     7
100
AcDbLine
 10
375.6969510028135
 20
435.6563350069972
 30
0.0
 11
375.6969510028135
 21
444.1563348793059
 31
0.0
  0
LINE
  5
2EC7
330
2938
100
AcDbEntity
  8
0
 62
     7
100
AcDbLine
 10
373.6969510328458
 20
444.1563348793059
 30
0.0
 11
373.6969510328458
 21
435.6563350069972
 31
0.0
  0
ARC
  5
2EC8
330
2938
100
AcDbEntity
  8
1
 62
     7
100
AcDbCircle
 10
377.344068527556
 20
438.2608343760525
 30
0.0
 40
0.3999999999999773
100
AcDbArc
 50
90.0
 51
187.0000000000059
  0
LINE
  5
2EC9
330
2938
100
AcDbEntity
  8
1
 62
     7
100
AcDbLine
 10
377.291950773011
 20
435.4030958048626
 30
0.0
 11
376.9470500668995
 21
438.2120866386905
 31
0.0
  0
LINE
  5
2ECA
330
2938
100
AcDbEntity
  8
0
 62
     7
100
AcDbLine
 10
373.6969510328458
 20
435.6563350069972
 30
0.0
 11
375.6969510028135
 21
435.6563350069972
 31
0.0
  0
LINE
  5
2ECB
330
2938
100
AcDbEntity
  8
0
 62
     7
100
AcDbLine
 10
375.6969510028135
 20
444.1563348793059
 30
0.0
 11
377.2619507727926
 21
444.1563348793059
 31
0.0
  0
ARC
  5
2ECC
330
2938
100
AcDbEntity
  8
1
 62
     7
100
AcDbCircle
 10
383.7644507730111
 20
435.3208343760526
 30
0.0
 40
4.762500000000017
100
AcDbArc
 50
296.0139008664975
 51
61.99902851396576
  0
LINE
  5
2ECD
330
2938
100
AcDbEntity
  8
1
 62
     7
100
AcDbLine
 10
378.8019507730114
 20
432.0708343760526
 30
0.0
 11
378.8019507730114
 21
438.6608343760526
 31
0.0
  0
LINE
  5
2ECE
330
2938
100
AcDbEntity
  8
1
 62
     7
100
AcDbLine
 10
391.0019507730111
 20
438.380511994715
 30
0.0
 11
391.0019507730111
 21
430.7408343760525
 31
0.0
  0
LINE
  5
2ECF
330
2938
100
AcDbEntity
  8
1
  6
DIVIDE
 62
     7
100
AcDbLine
 10
394.1619507730111
 20
424.6563343760524
 30
0.0
 11
394.1619507730111
 21
439.4957057416453
 31
0.0
  0
LINE
  5
2ED0
330
2938
100
AcDbEntity
  8
1
 62
     7
100
AcDbLine
 10
390.4019507730113
 20
428.5653343760525
 30
0.0
 11
383.7644507730111
 21
428.5653343760525
 31
0.0
  0
LINE
  5
2ED1
330
2938
100
AcDbEntity
  8
1
 62
     7
100
AcDbLine
 10
390.701950773011
 20
431.0408343760526
 30
0.0
 11
385.8532318170651
 21
431.0408343760526
 31
0.0
  0
LINE
  5
2ED2
330
2938
100
AcDbEntity
  8
1
 62
     7
100
AcDbLine
 10
390.7913963184951
 20
426.4857799215364
 30
0.0
 11
386.9619507730111
 21
426.4423343760525
 31
0.0
  0
LINE
  5
2ED3
330
2938
100
AcDbEntity
  8
1
 62
     7
100
AcDbLine
 10
382.1619507730113
 20
426.4423343760525
 30
0.0
 11
386.9619507730111
 21
426.4423343760525
 31
0.0
  0
ARC
  5
2ED4
330
2938
100
AcDbEntity
  8
1
 62
     7
100
AcDbCircle
 10
383.7644507730111
 20
435.3208343760526
 30
0.0
 40
4.762499999999966
100
AcDbArc
 50
243.9860991335052
 51
270.0
  0
LINE
  5
2ED5
330
2938
100
AcDbEntity
  8
1
 62
     7
100
AcDbLine
 10
380.248253271671
 20
432.1087071398478
 30
0.0
 11
378.8019507730114
 21
432.0708343760526
 31
0.0
  0
ARC
  5
2ED6
330
2938
100
AcDbEntity
  8
1
 62
     7
100
AcDbCircle
 10
383.7644507730111
 20
435.3208343760526
 30
0.0
 40
4.762499999999977
100
AcDbArc
 50
270.0
 51
296.0139008664975
  0
LINE
  5
2ED7
330
2938
100
AcDbEntity
  8
1
 62
     7
100
AcDbLine
 10
392.1033721292481
 20
427.7977557322897
 30
0.0
 11
390.7913963184951
 21
426.4857799215364
 31
0.0
  0
LINE
  5
2ED8
330
2938
100
AcDbEntity
  8
1
  6
DIVIDE
 62
     7
100
AcDbLine
 10
392.1619507728861
 20
424.6563343760524
 30
0.0
 11
394.1619507730111
 21
424.6563343760524
 31
0.0
  0
LINE
  5
2ED9
330
2938
100
AcDbEntity
  8
0
 62
     7
100
AcDbLine
 10
391.5962653565908
 20
427.3763343760526
 30
0.0
 11
392.1619507728932
 21
426.8106489596603
 31
0.0
  0
LINE
  5
2EDA
330
2938
100
AcDbEntity
  8
0
 62
     7
100
AcDbLine
 10
392.1619507728932
 20
426.8106489596603
 30
0.0
 11
392.1619507728861
 21
424.6563343760524
 31
0.0
  0
LINE
  5
2EDB
330
2938
100
AcDbEntity
  8
0
 62
     7
100
AcDbLine
 10
392.1619507728861
 20
424.6563343760524
 30
0.0
 11
392.1619507728744
 21
420.9563343760526
 31
0.0
  0
ARC
  5
2EDC
330
2938
100
AcDbEntity
  8
1
 62
     7
100
AcDbCircle
 10
391.961950773011
 20
427.9391770885269
 30
0.0
 40
0.1999999999999946
100
AcDbArc
 50
314.9999999999942
 51
0.0
  0
ARC
  5
2EDD
330
2938
100
AcDbEntity
  8
1
 62
     7
100
AcDbCircle
 10
391.961950773011
 20
428.3236521275699
 30
0.0
 40
0.2000000000000988
100
AcDbArc
 50
0.0
 51
86.99999999999441
  0
LINE
  5
2EDE
330
2938
100
AcDbEntity
  8
1
 62
     7
100
AcDbLine
 10
391.0019507730111
 20
428.9117445375662
 30
0.0
 11
391.0019507730111
 21
430.7408343760525
 31
0.0
  0
LINE
  5
2EDF
330
2938
100
AcDbEntity
  8
1
 62
     7
100
AcDbLine
 10
391.0019507730111
 20
430.7408343760525
 30
0.0
 11
390.701950773011
 21
431.0408343760526
 31
0.0
  0
LINE
  5
2EE0
330
2938
100
AcDbEntity
  8
1
 62
     7
100
AcDbLine
 10
391.0019507730111
 20
428.9117445375662
 30
0.0
 11
390.4019507730113
 21
428.5653343760525
 31
0.0
  0
LINE
  5
2EE1
330
2938
100
AcDbEntity
  8
1
 62
     7
100
AcDbLine
 10
390.9619507730111
 20
428.5763343760526
 30
0.0
 11
391.9724179642599
 21
428.5233780345207
 31
0.0
  0
LINE
  5
2EE2
330
2938
100
AcDbEntity
  8
1
 62
     7
100
AcDbLine
 10
392.1619507730111
 20
428.3236521275699
 30
0.0
 11
392.1619507730111
 21
427.9391770885269
 31
0.0
  0
LINE
  5
2EE3
330
2938
100
AcDbEntity
  8
1
 62
     7
100
AcDbLine
 10
388.4094507730112
 20
439.5258343760526
 30
0.0
 11
388.9094507730111
 21
440.0258343760526
 31
0.0
  0
LINE
  5
2EE4
330
2938
100
AcDbEntity
  8
1
 62
     7
100
AcDbLine
 10
388.9094507730111
 20
441.5908343760526
 30
0.0
 11
388.4094507730112
 21
442.0908343760526
 31
0.0
  0
LINE
  5
2EE5
330
2938
100
AcDbEntity
  8
1
 62
     7
100
AcDbLine
 10
383.7644507730111
 20
442.0908343760526
 30
0.0
 11
379.1194507730113
 21
442.0908343760526
 31
0.0
  0
LINE
  5
2EE6
330
2938
100
AcDbEntity
  8
0
 62
     7
100
AcDbLine
 10
383.751950881899
 20
442.09633491011
 30
0.0
 11
379.1069509516861
 21
442.09633491011
 31
0.0
  0
LINE
  5
2EE7
330
2938
100
AcDbEntity
  8
1
 62
     7
100
AcDbLine
 10
378.8019507730114
 20
438.6608343760526
 30
0.0
 11
380.3694829896591
 21
438.6608343760526
 31
0.0
  0
LINE
  5
2EE8
330
2938
100
AcDbEntity
  8
1
 62
     7
100
AcDbLine
 10
381.5285211564981
 20
439.5258343760526
 30
0.0
 11
379.1194507730113
 21
439.5258343760526
 31
0.0
  0
LINE
  5
2EE9
330
2938
100
AcDbEntity
  8
1
 62
     7
100
AcDbLine
 10
379.1194507730113
 20
442.0908343760526
 30
0.0
 11
378.6194507730113
 21
441.5908343760526
 31
0.0
  0
LINE
  5
2EEA
330
2938
100
AcDbEntity
  8
1
 62
     7
100
AcDbLine
 10
378.6194507730113
 20
440.0258343760526
 30
0.0
 11
379.1194507730113
 21
439.5258343760526
 31
0.0
  0
LINE
  5
2EEB
330
2938
100
AcDbEntity
  8
1
 62
     7
100
AcDbLine
 10
378.6194507730113
 20
440.0258343760526
 30
0.0
 11
378.6194507730113
 21
441.5908343760526
 31
0.0
  0
ARC
  5
2EEC
330
2938
100
AcDbEntity
  8
1
 62
     7
100
AcDbCircle
 10
383.7644507730111
 20
435.3208343760526
 30
0.0
 40
4.762500000000033
100
AcDbArc
 50
61.99902851396576
 51
90.0
  0
LINE
  5
2EED
330
2938
100
AcDbEntity
  8
1
 62
     7
100
AcDbLine
 10
388.4094507730112
 20
439.5258343760526
 30
0.0
 11
386.0003803895242
 21
439.5258343760526
 31
0.0
  0
LINE
  5
2EEE
330
2938
100
AcDbEntity
  8
1
 62
     7
100
AcDbLine
 10
388.4094507730112
 20
442.0908343760526
 30
0.0
 11
383.7644507730111
 21
442.0908343760526
 31
0.0
  0
LINE
  5
2EEF
330
2938
100
AcDbEntity
  8
0
 62
     7
100
AcDbLine
 10
388.3619507803521
 20
442.09633491011
 30
0.0
 11
383.751950881899
 21
442.09633491011
 31
0.0
  0
LINE
  5
2EF0
330
2938
100
AcDbEntity
  8
1
 62
     7
100
AcDbLine
 10
388.9094507730111
 20
441.5908343760526
 30
0.0
 11
388.9094507730111
 21
440.0258343760526
 31
0.0
  0
LINE
  5
2EF1
330
2938
100
AcDbEntity
  8
1
  6
CENTER
 62
     3
100
AcDbLine
 10
398.4010020841315
 20
477.6563343760525
 30
0.0
 11
365.3763430190816
 21
477.6563343760525
 31
0.0
  0
LINE
  5
2EF2
330
2938
100
AcDbEntity
  8
0
 62
     7
100
AcDbLine
 10
366.6619507730113
 20
470.6563344811844
 30
0.0
 11
394.1619507730111
 21
470.6563344811844
 31
0.0
  0
LINE
  5
2EF3
330
2938
100
AcDbEntity
  8
0
 62
     7
100
AcDbLine
 10
372.1619507671039
 20
461.6563346163615
 30
0.0
 11
390.0119507555296
 21
461.6563346163615
 31
0.0
  0
LINE
  5
2EF4
330
2938
100
AcDbEntity
  8
0
 62
     7
100
AcDbLine
 10
382.4969509009045
 20
456.906334687693
 30
0.0
 11
377.2619507732295
 21
456.906334687693
 31
0.0
  0
LINE
  5
2EF5
330
2938
100
AcDbEntity
  8
0
 62
     7
100
AcDbLine
 10
388.8619507730111
 20
461.406334620117
 30
0.0
 11
377.2619507730111
 21
461.406334620117
 31
0.0
  0
LINE
  5
2EF6
330
2938
100
AcDbEntity
  8
0
 62
     7
100
AcDbLine
 10
366.6619507730113
 20
477.6563343760525
 30
0.0
 11
366.6619507730113
 21
461.6563346163615
 31
0.0
  0
LINE
  5
2EF7
330
2938
100
AcDbEntity
  8
0
 62
     7
100
AcDbLine
 10
367.0619507730109
 20
460.6563346314096
 30
0.0
 11
371.7619507730113
 21
460.6563346314096
 31
0.0
  0
LINE
  5
2EF8
330
2938
100
AcDbEntity
  8
0
 62
     7
100
AcDbLine
 10
371.7619507730113
 20
458.6563346614545
 30
0.0
 11
367.2969511289849
 21
458.6563346614545
 31
0.0
  0
ARC
  5
2EF9
330
2938
100
AcDbEntity
  8
0
 62
     7
100
AcDbCircle
 10
366.661950779109
 20
461.2563346224596
 30
0.0
 40
0.3999999939020995
100
AcDbArc
 50
359.9999999909035
 51
89.99999999090514
  0
LINE
  5
2EFA
330
2938
100
AcDbEntity
  8
0
 62
     7
100
AcDbLine
 10
366.6619507730113
 20
461.6563346163615
 30
0.0
 11
366.6619507791726
 21
461.6563346163615
 31
0.0
  0
LINE
  5
2EFB
330
2938
100
AcDbEntity
  8
0
 62
     7
100
AcDbLine
 10
376.7969509863062
 20
460.6563346314096
 30
0.0
 11
376.7969509863062
 21
456.6563346914741
 31
0.0
  0
LINE
  5
2EFC
330
2938
100
AcDbEntity
  8
0
 62
     7
100
AcDbLine
 10
376.7969509863062
 20
456.6563346914741
 30
0.0
 11
377.2619507730111
 21
456.6563346914741
 31
0.0
  0
LINE
  5
2EFD
330
2938
100
AcDbEntity
  8
0
 62
     7
100
AcDbLine
 10
376.7969509863062
 20
460.6563346314096
 30
0.0
 11
372.2619507655015
 21
460.6563346314096
 31
0.0
  0
ARC
  5
2EFE
330
2938
100
AcDbEntity
  8
0
 62
     7
100
AcDbCircle
 10
372.1619507670404
 20
461.2563346223326
 30
0.0
 40
0.3999999940290895
100
AcDbArc
 50
89.99999999090514
 51
179.9999999909035
  0
LINE
  5
2EFF
330
2938
100
AcDbEntity
  8
0
 62
     7
100
AcDbLine
 10
372.2619507655015
 20
460.6563346314096
 30
0.0
 11
372.2619507655015
 21
461.6563346163615
 31
0.0
  0
LINE
  5
2F00
330
2938
100
AcDbEntity
  8
0
 62
     7
100
AcDbLine
 10
372.2619507655015
 20
458.6563346614545
 30
0.0
 11
371.7619507730113
 21
458.6563346614545
 31
0.0
  0
LINE
  5
2F01
330
2938
100
AcDbEntity
  8
0
 62
     7
100
AcDbLine
 10
372.2619507655015
 20
460.6563346314096
 30
0.0
 11
372.2619507655015
 21
458.6563346614545
 31
0.0
  0
LINE
  5
2F02
330
2938
100
AcDbEntity
  8
0
 62
     7
100
AcDbLine
 10
376.7969509862839
 20
461.6563346163615
 30
0.0
 11
376.7969509863062
 21
460.6563346314096
 31
0.0
  0
LINE
  5
2F03
330
2938
100
AcDbEntity
  8
0
 62
     7
100
AcDbLine
 10
394.1619507730111
 20
462.1563346088505
 30
0.0
 11
394.1619507730111
 21
477.6563343760525
 31
0.0
  0
LINE
  5
2F04
330
2938
100
AcDbEntity
  8
0
 62
     7
100
AcDbLine
 10
382.4969509009045
 20
461.406334620117
 30
0.0
 11
382.4969509009045
 21
456.906334687693
 31
0.0
  0
LINE
  5
2F05
330
2938
100
AcDbEntity
  8
0
 62
     7
100
AcDbLine
 10
390.0119507555296
 20
456.1563346989849
 30
0.0
 11
390.0119507555296
 21
461.6563346163615
 31
0.0
  0
LINE
  5
2F06
330
2938
100
AcDbEntity
  8
0
 62
     7
100
AcDbLine
 10
388.8619507728055
 20
456.1563346989849
 30
0.0
 11
390.0119507555296
 21
456.1563346989849
 31
0.0
  0
LINE
  5
2F07
330
2938
100
AcDbEntity
  8
0
 62
     7
100
AcDbLine
 10
393.6619507805224
 20
461.6563346163615
 30
0.0
 11
394.1619507730111
 21
462.1563346088505
 31
0.0
  0
LINE
  5
2F08
330
2938
100
AcDbEntity
  8
0
 62
     7
100
AcDbLine
 10
391.6619507730113
 20
458.6563346614545
 30
0.0
 11
391.6619507730113
 21
461.6563346163615
 31
0.0
  0
LINE
  5
2F09
330
2938
100
AcDbEntity
  8
0
 62
     7
100
AcDbLine
 10
390.0119507555296
 20
458.6563346614545
 30
0.0
 11
391.6619507730113
 21
458.6563346614545
 31
0.0
  0
LINE
  5
2F0A
330
2938
100
AcDbEntity
  8
0
 62
     7
100
AcDbLine
 10
390.0119507555296
 20
460.6563346314096
 30
0.0
 11
388.8619507728055
 21
460.6563346314096
 31
0.0
  0
LINE
  5
2F0B
330
2938
100
AcDbEntity
  8
0
 62
     7
100
AcDbLine
 10
391.6619507730113
 20
461.6563346163615
 30
0.0
 11
393.6619507805224
 21
461.6563346163615
 31
0.0
  0
LINE
  5
2F0C
330
2938
100
AcDbEntity
  8
0
 62
     7
100
AcDbLine
 10
391.6619507730113
 20
462.506334603567
 30
0.0
 11
391.6619507730113
 21
461.6563346163615
 31
0.0
  0
LINE
  5
2F0D
330
2938
100
AcDbEntity
  8
0
 62
     7
100
AcDbLine
 10
390.0119507555296
 20
462.506334603567
 30
0.0
 11
391.6619507730113
 21
462.506334603567
 31
0.0
  0
LINE
  5
2F0E
330
2938
100
AcDbEntity
  8
0
 62
     7
100
AcDbLine
 10
390.0119507555296
 20
461.6563346163615
 30
0.0
 11
390.0119507555296
 21
462.506334603567
 31
0.0
  0
LINE
  5
2F0F
330
2938
100
AcDbEntity
  8
1
  6
CENTER
 62
     3
100
AcDbLine
 10
399.9969506370783
 20
537.6563343760524
 30
0.0
 11
370.1619507881539
 21
537.6563343760524
 31
0.0
  0
LINE
  5
2F10
330
2938
100
AcDbEntity
  8
0
 62
     7
100
AcDbLine
 10
367.0619507730109
 20
499.5096699043413
 30
0.0
 11
367.0619507730109
 21
511.4063343760526
 31
0.0
  0
LINE
  5
2F11
330
2938
100
AcDbEntity
  8
0
 62
     7
100
AcDbLine
 10
371.7619507730113
 20
511.4063343760526
 30
0.0
 11
371.7619507730113
 21
494.0563341297319
 31
0.0
  0
LINE
  5
2F12
330
2938
100
AcDbEntity
  8
0
 62
     7
100
AcDbLine
 10
382.2969509037184
 20
511.1563338728754
 30
0.0
 11
382.2969509037184
 21
498.6563340606514
 31
0.0
  0
LINE
  5
2F13
330
2938
100
AcDbEntity
  8
0
 62
     7
100
AcDbLine
 10
371.7619507730113
 20
496.6563340907015
 30
0.0
 11
371.7619507730113
 21
511.1563338728754
 31
0.0
  0
LINE
  5
2F14
330
2938
100
AcDbEntity
  8
0
 62
     7
100
AcDbLine
 10
382.4969509009045
 20
493.9063341319905
 30
0.0
 11
382.4969509009045
 21
513.2163338420203
 31
0.0
  0
LINE
  5
2F15
330
2938
100
AcDbEntity
  8
0
 62
     7
100
AcDbLine
 10
388.8619507730111
 20
513.2163338420203
 30
0.0
 11
388.8619507730111
 21
493.9063341319905
 31
0.0
  0
LINE
  5
2F16
330
2938
100
AcDbEntity
  8
0
 62
     7
100
AcDbLine
 10
377.2619507730111
 20
493.9063341319905
 30
0.0
 11
377.2619507730111
 21
513.2163338420203
 31
0.0
  0
LINE
  5
2F17
330
2938
100
AcDbEntity
  8
1
 62
     7
100
AcDbLine
 10
392.1619507730111
 20
496.6563340907014
 30
0.0
 11
392.1619507730111
 21
526.9890166245351
 31
0.0
  0
LINE
  5
2F18
330
2938
100
AcDbEntity
  8
0
 62
     7
100
AcDbLine
 10
366.6619507730113
 20
484.6563342709256
 30
0.0
 11
394.1619507730111
 21
484.6563342709256
 31
0.0
  0
LINE
  5
2F19
330
2938
100
AcDbEntity
  8
0
 62
     7
100
AcDbLine
 10
366.6619507730113
 20
486.9563342363635
 30
0.0
 11
394.1619507730111
 21
486.9563342363635
 31
0.0
  0
LINE
  5
2F1A
330
2938
100
AcDbEntity
  8
0
 62
     7
100
AcDbLine
 10
372.1619507671039
 20
493.656334135751
 30
0.0
 11
390.0119507555296
 21
493.656334135751
 31
0.0
  0
LINE
  5
2F1B
330
2938
100
AcDbEntity
  8
0
 62
     7
100
AcDbLine
 10
382.2969509037184
 20
498.6563340606514
 30
0.0
 11
376.7969509863062
 21
498.6563340606514
 31
0.0
  0
LINE
  5
2F1C
330
2938
100
AcDbEntity
  8
0
 62
     7
100
AcDbLine
 10
382.4969509009045
 20
498.4063340644147
 30
0.0
 11
377.2619507730111
 21
498.4063340644147
 31
0.0
  0
LINE
  5
2F1D
330
2938
100
AcDbEntity
  8
0
 62
     7
100
AcDbLine
 10
388.8619507730111
 20
493.9063341319905
 30
0.0
 11
377.2619507730111
 21
493.9063341319905
 31
0.0
  0
ARC
  5
2F1E
330
2938
100
AcDbEntity
  8
0
 62
     7
100
AcDbCircle
 10
372.1619507670478
 20
494.0563341297879
 30
0.0
 40
0.3999999940367616
100
AcDbArc
 50
180.0000000080054
 51
270.0000000080119
  0
ARC
  5
2F1F
330
2938
100
AcDbEntity
  8
0
 62
     7
100
AcDbCircle
 10
366.6619507791014
 20
494.0563341296609
 30
0.0
 40
0.399999993909681
100
AcDbArc
 50
270.0000000101777
 51
0.0000000101875456
  0
LINE
  5
2F20
330
2938
100
AcDbEntity
  8
0
 62
     7
100
AcDbLine
 10
376.7969509863062
 20
494.656334120703
 30
0.0
 11
376.7969509862839
 21
493.656334135751
 31
0.0
  0
LINE
  5
2F21
330
2938
100
AcDbEntity
  8
0
 62
     7
100
AcDbLine
 10
372.2619507655015
 20
493.656334135751
 30
0.0
 11
372.2619507655015
 21
494.656334120703
 31
0.0
  0
LINE
  5
2F22
330
2938
100
AcDbEntity
  8
0
 62
     7
100
AcDbLine
 10
366.6619507730113
 20
493.656334135751
 30
0.0
 11
366.6619507791726
 21
493.656334135751
 31
0.0
  0
LINE
  5
2F23
330
2938
100
AcDbEntity
  8
0
 62
     7
100
AcDbLine
 10
367.0619507730109
 20
494.0563341297319
 30
0.0
 11
367.0619507730109
 21
499.5096699043413
 31
0.0
  0
LINE
  5
2F24
330
2938
100
AcDbEntity
  8
0
 62
     7
100
AcDbLine
 10
376.7969509863062
 20
494.656334120703
 30
0.0
 11
372.2619507655015
 21
494.656334120703
 31
0.0
  0
LINE
  5
2F25
330
2938
100
AcDbEntity
  8
0
 62
     7
100
AcDbLine
 10
372.2619507655015
 20
496.6563340907015
 30
0.0
 11
371.7619507730113
 21
496.6563340907015
 31
0.0
  0
LINE
  5
2F26
330
2938
100
AcDbEntity
  8
0
 62
     7
100
AcDbLine
 10
372.2619507655015
 20
494.656334120703
 30
0.0
 11
372.2619507655015
 21
496.6563340907015
 31
0.0
  0
LINE
  5
2F27
330
2938
100
AcDbEntity
  8
0
 62
     7
100
AcDbLine
 10
376.7969509863062
 20
494.656334120703
 30
0.0
 11
376.7969509863062
 21
498.6563340606514
 31
0.0
  0
LINE
  5
2F28
330
2938
100
AcDbEntity
  8
0
 62
     7
100
AcDbLine
 10
391.6619507730113
 20
496.6563340907015
 30
0.0
 11
391.6619507730113
 21
493.656334135751
 31
0.0
  0
LINE
  5
2F29
330
2938
100
AcDbEntity
  8
0
 62
     7
100
AcDbLine
 10
390.0119507555296
 20
499.1563340531757
 30
0.0
 11
390.0119507555296
 21
493.656334135751
 31
0.0
  0
LINE
  5
2F2A
330
2938
100
AcDbEntity
  8
0
 62
     7
100
AcDbLine
 10
393.6619507805224
 20
493.656334135751
 30
0.0
 11
394.1619507730111
 21
493.156334143275
 31
0.0
  0
LINE
  5
2F2B
330
2938
100
AcDbEntity
  8
0
 62
     7
100
AcDbLine
 10
391.6619507730113
 20
493.656334135751
 30
0.0
 11
393.6619507805224
 21
493.656334135751
 31
0.0
  0
LINE
  5
2F2C
330
2938
100
AcDbEntity
  8
0
 62
     7
100
AcDbLine
 10
391.6619507730113
 20
492.8063341485429
 30
0.0
 11
391.6619507730113
 21
493.656334135751
 31
0.0
  0
LINE
  5
2F2D
330
2938
100
AcDbEntity
  8
0
 62
     7
100
AcDbLine
 10
390.0119507555296
 20
492.8063341485429
 30
0.0
 11
391.6619507730113
 21
492.8063341485429
 31
0.0
  0
LINE
  5
2F2E
330
2938
100
AcDbEntity
  8
0
 62
     7
100
AcDbLine
 10
390.0119507555296
 20
493.656334135751
 30
0.0
 11
390.0119507555296
 21
492.8063341485429
 31
0.0
  0
LINE
  5
2F2F
330
2938
100
AcDbEntity
  8
0
 62
     7
100
AcDbLine
 10
390.0119507555296
 20
496.6563340907015
 30
0.0
 11
391.6619507730113
 21
496.6563340907015
 31
0.0
  0
LINE
  5
2F30
330
2938
100
AcDbEntity
  8
0
 62
     7
100
AcDbLine
 10
390.0119507555296
 20
494.656334120703
 30
0.0
 11
388.8619507728055
 21
494.656334120703
 31
0.0
  0
LINE
  5
2F31
330
2938
100
AcDbEntity
  8
0
 62
     7
100
AcDbLine
 10
388.8619507728055
 20
499.1563340531757
 30
0.0
 11
390.0119507555296
 21
499.1563340531757
 31
0.0
  0
ARC
  5
2F32
330
2938
100
AcDbEntity
  8
1
 62
     7
100
AcDbCircle
 10
383.7644507730111
 20
519.9808343760524
 30
0.0
 40
4.76249999999999
100
AcDbArc
 50
116.0139008664947
 51
270.0
  0
LINE
  5
2F33
330
2938
100
AcDbEntity
  8
1
 62
     7
100
AcDbLine
 10
377.6919507730109
 20
523.2308343760526
 30
0.0
 11
378.8019507730114
 21
523.2308343760526
 31
0.0
  0
LINE
  5
2F34
330
2938
100
AcDbEntity
  8
1
 62
     7
100
AcDbLine
 10
377.344068527556
 20
516.6408343760524
 30
0.0
 11
378.8019507730114
 21
516.6408343760524
 31
0.0
  0
LINE
  5
2F35
330
2938
100
AcDbEntity
  8
1
 62
     7
100
AcDbLine
 10
377.1269507730113
 20
526.7363343760526
 30
0.0
 11
383.7644507730111
 21
526.7363343760526
 31
0.0
  0
LINE
  5
2F36
330
2938
100
AcDbEntity
  8
1
 62
     7
100
AcDbLine
 10
376.8269507730111
 20
524.2608343760525
 30
0.0
 11
381.6756697289571
 21
524.2608343760525
 31
0.0
  0
LINE
  5
2F37
330
2938
100
AcDbEntity
  8
0
 62
     7
100
AcDbLine
 10
374.5590062588433
 20
527.9363343761645
 30
0.0
 11
391.2486156905847
 21
527.9363343762661
 31
0.0
  0
LINE
  5
2F38
330
2938
100
AcDbEntity
  8
0
 62
     7
100
AcDbLine
 10
377.3619506803159
 20
528.8703343764336
 30
0.0
 11
391.3361382510765
 21
528.8703343764336
 31
0.0
  0
LINE
  5
2F39
330
2938
100
AcDbEntity
  8
0
 62
     7
100
AcDbLine
 10
371.1619507730489
 20
528.8703343760521
 30
0.0
 11
392.1619507731144
 21
528.8703343760521
 31
0.0
  0
LINE
  5
2F3A
330
2938
100
AcDbEntity
  8
0
 62
     7
100
AcDbLine
 10
371.7276361896956
 20
527.936334376063
 30
0.0
 11
391.5962653565424
 21
527.9363343758854
 31
0.0
  0
LINE
  5
2F3B
330
2938
100
AcDbEntity
  8
0
 62
     7
100
AcDbLine
 10
375.6969510028135
 20
511.1563338728754
 30
0.0
 11
382.2969509037184
 21
511.1563338728754
 31
0.0
  0
LINE
  5
2F3C
330
2938
100
AcDbEntity
  8
0
 62
     7
100
AcDbLine
 10
377.2619507730111
 20
513.2163338420203
 30
0.0
 11
388.8619507730111
 21
513.2163338420203
 31
0.0
  0
LINE
  5
2F3D
330
2938
100
AcDbEntity
  8
1
 62
     3
100
AcDbLine
 10
375.1619507130354
 20
534.6563343760526
 30
0.0
 11
383.9887456322786
 21
534.6563343760526
 31
0.0
  0
LINE
  5
2F3E
330
2938
100
AcDbEntity
  8
1
 62
     7
100
AcDbLine
 10
375.1619507130354
 20
535.2563343760523
 30
0.0
 11
383.6423354707648
 21
535.2563343760523
 31
0.0
  0
LINE
  5
2F3F
330
2938
100
AcDbEntity
  8
1
 62
     7
100
AcDbLine
 10
382.1619507730113
 20
528.8703343760521
 30
0.0
 11
374.1529507730112
 21
528.7725234160843
 31
0.0
  0
ARC
  5
2F40
330
2938
100
AcDbEntity
  8
1
 62
     7
100
AcDbCircle
 10
377.6919507730109
 20
522.8308343760526
 30
0.0
 40
0.3999999999999702
100
AcDbArc
 50
90.0
 51
180.0
  0
LINE
  5
2F41
330
2938
100
AcDbEntity
  8
1
 62
     7
100
AcDbLine
 10
376.5269507730114
 20
516.9211567573901
 30
0.0
 11
376.5269507730114
 21
524.5608343760526
 31
0.0
  0
LINE
  5
2F42
330
2938
100
AcDbEntity
  8
0
 62
     7
100
AcDbLine
 10
367.0619507730109
 20
511.4063343760526
 30
0.0
 11
371.7619507730113
 21
511.4063343760526
 31
0.0
  0
LINE
  5
2F43
330
2938
100
AcDbEntity
  8
0
 62
     7
100
AcDbLine
 10
375.6969510028135
 20
519.6563337452349
 30
0.0
 11
375.6969510028135
 21
511.1563338728754
 31
0.0
  0
LINE
  5
2F44
330
2938
100
AcDbEntity
  8
0
 62
     7
100
AcDbLine
 10
373.6969510328458
 20
511.1563338728754
 30
0.0
 11
373.6969510328458
 21
519.6563337452349
 31
0.0
  0
LINE
  5
2F45
330
2938
100
AcDbEntity
  8
0
 62
     7
100
AcDbLine
 10
371.7619507730113
 20
511.1563338728754
 30
0.0
 11
373.6969510328458
 21
511.1563338728754
 31
0.0
  0
ARC
  5
2F46
330
2938
100
AcDbEntity
  8
1
 62
     7
100
AcDbCircle
 10
377.344068527556
 20
517.0408343760525
 30
0.0
 40
0.4000000000000508
100
AcDbArc
 50
172.9999999999874
 51
270.0
  0
LINE
  5
2F47
330
2938
100
AcDbEntity
  8
1
 62
     7
100
AcDbLine
 10
377.291950773011
 20
522.8308343760526
 30
0.0
 11
377.291950773011
 21
519.898572947242
 31
0.0
  0
LINE
  5
2F48
330
2938
100
AcDbEntity
  8
1
 62
     7
100
AcDbLine
 10
376.9470500668995
 20
517.0895821134147
 30
0.0
 11
377.291950773011
 21
519.898572947242
 31
0.0
  0
LINE
  5
2F49
330
2938
100
AcDbEntity
  8
0
 62
     7
100
AcDbLine
 10
373.6969510328458
 20
519.6563337452349
 30
0.0
 11
375.6969510028135
 21
519.6563337452349
 31
0.0
  0
ARC
  5
2F4A
330
2938
100
AcDbEntity
  8
1
 62
     7
100
AcDbCircle
 10
364.2781019329298
 20
567.4383343760525
 30
0.0
 40
39.90686436867132
100
AcDbArc
 50
268.9372763306204
 51
284.3262739323636
  0
LINE
  5
2F4B
330
2938
100
AcDbEntity
  8
0
 62
     7
100
AcDbLine
 10
371.1619507730489
 20
532.2563335559257
 30
0.0
 11
371.1619507730489
 21
528.5020197922013
 31
0.0
  0
LINE
  5
2F4C
330
2938
100
AcDbEntity
  8
0
 62
     7
100
AcDbLine
 10
371.1619507730489
 20
528.5020197922013
 30
0.0
 11
371.7276361896956
 21
527.936334376063
 31
0.0
  0
LINE
  5
2F4D
330
2938
100
AcDbEntity
  8
1
 62
     7
100
AcDbLine
 10
376.5269507730114
 20
526.3899242145388
 30
0.0
 11
376.5269507730114
 21
524.5608343760526
 31
0.0
  0
LINE
  5
2F4E
330
2938
100
AcDbEntity
  8
1
 62
     7
100
AcDbLine
 10
376.5269507730114
 20
524.5608343760526
 30
0.0
 11
376.8269507730111
 21
524.2608343760525
 31
0.0
  0
LINE
  5
2F4F
330
2938
100
AcDbEntity
  8
1
 62
     7
100
AcDbLine
 10
376.5269507730114
 20
526.3899242145388
 30
0.0
 11
377.1269507730113
 21
526.7363343760526
 31
0.0
  0
LINE
  5
2F50
330
2938
100
AcDbEntity
  8
0
 62
     7
100
AcDbLine
 10
374.8619507175676
 20
532.6563335498918
 30
0.0
 11
371.5619507671419
 21
532.6563335497139
 31
0.0
  0
LINE
  5
2F51
330
2938
100
AcDbEntity
  8
0
 62
     7
100
AcDbLine
 10
371.5619507671419
 20
532.6563335497139
 30
0.0
 11
371.1619507730489
 21
532.2563335559257
 31
0.0
  0
ARC
  5
2F52
330
2938
100
AcDbEntity
  8
0
 62
     7
100
AcDbCircle
 10
374.861950717555
 20
532.9563335453723
 30
0.0
 40
0.2999999954805119
100
AcDbArc
 50
270.0000000024312
 51
0.0000000024198678
  0
LINE
  5
2F53
330
2938
100
AcDbEntity
  8
0
 62
     7
100
AcDbLine
 10
375.1619507130354
 20
534.6563343760526
 30
0.0
 11
375.1619507130354
 21
532.9563335453848
 31
0.0
  0
LINE
  5
2F54
330
2938
100
AcDbEntity
  8
0
 62
     7
100
AcDbLine
 10
375.1619507130354
 20
535.2563343760523
 30
0.0
 11
375.1619507130354
 21
534.6563343760526
 31
0.0
  0
ARC
  5
2F55
330
2938
100
AcDbEntity
  8
1
 62
     7
100
AcDbCircle
 10
383.7644507730111
 20
519.9808343760524
 30
0.0
 40
4.762500000000001
100
AcDbArc
 50
298.0009714860335
 51
63.98609913350238
  0
LINE
  5
2F56
330
2938
100
AcDbEntity
  8
1
 62
     7
100
AcDbLine
 10
378.8019507730114
 20
516.6408343760524
 30
0.0
 11
378.8019507730114
 21
523.2308343760526
 31
0.0
  0
LINE
  5
2F57
330
2938
100
AcDbEntity
  8
1
 62
     7
100
AcDbLine
 10
391.0019507730111
 20
524.5608343760526
 30
0.0
 11
391.0019507730111
 21
516.9211567573901
 31
0.0
  0
LINE
  5
2F58
330
2938
100
AcDbEntity
  8
1
  6
DIVIDE
 62
     7
100
AcDbLine
 10
394.1619507730111
 20
515.8169630104598
 30
0.0
 11
394.1619507730111
 21
530.6563343760524
 31
0.0
  0
LINE
  5
2F59
330
2938
100
AcDbEntity
  8
1
 62
     7
100
AcDbLine
 10
388.4094507730112
 20
513.2108343760523
 30
0.0
 11
388.9094507730111
 21
513.7108343760523
 31
0.0
  0
LINE
  5
2F5A
330
2938
100
AcDbEntity
  8
1
 62
     7
100
AcDbLine
 10
388.9094507730111
 20
515.2758343760527
 30
0.0
 11
388.4094507730112
 21
515.7758343760526
 31
0.0
  0
ARC
  5
2F5B
330
2938
100
AcDbEntity
  8
1
 62
     7
100
AcDbCircle
 10
383.7644507730111
 20
519.9808343760524
 30
0.0
 40
4.762499999999985
100
AcDbArc
 50
270.0
 51
298.0009714860335
  0
LINE
  5
2F5C
330
2938
100
AcDbEntity
  8
1
 62
     7
100
AcDbLine
 10
379.1194507730113
 20
515.7758343760526
 30
0.0
 11
378.6194507730113
 21
515.2758343760527
 31
0.0
  0
LINE
  5
2F5D
330
2938
100
AcDbEntity
  8
1
 62
     7
100
AcDbLine
 10
379.1194507730113
 20
513.2108343760523
 30
0.0
 11
383.7644507730111
 21
513.2108343760523
 31
0.0
  0
LINE
  5
2F5E
330
2938
100
AcDbEntity
  8
0
 62
     7
100
AcDbLine
 10
383.751950881899
 20
513.2163338420203
 30
0.0
 11
379.1069509516861
 21
513.2163338420203
 31
0.0
  0
LINE
  5
2F5F
330
2938
100
AcDbEntity
  8
1
 62
     7
100
AcDbLine
 10
378.6194507730113
 20
513.7108343760523
 30
0.0
 11
378.6194507730113
 21
515.2758343760527
 31
0.0
  0
LINE
  5
2F60
330
2938
100
AcDbEntity
  8
1
 62
     7
100
AcDbLine
 10
378.6194507730113
 20
513.7108343760523
 30
0.0
 11
379.1194507730113
 21
513.2108343760523
 31
0.0
  0
LINE
  5
2F61
330
2938
100
AcDbEntity
  8
1
 62
     7
100
AcDbLine
 10
383.7644507730111
 20
513.2108343760523
 30
0.0
 11
388.4094507730112
 21
513.2108343760523
 31
0.0
  0
LINE
  5
2F62
330
2938
100
AcDbEntity
  8
0
 62
     7
100
AcDbLine
 10
388.3619507803521
 20
513.2163338420203
 30
0.0
 11
383.751950881899
 21
513.2163338420203
 31
0.0
  0
LINE
  5
2F63
330
2938
100
AcDbEntity
  8
1
 62
     7
100
AcDbLine
 10
380.3694829896591
 20
516.6408343760524
 30
0.0
 11
378.8019507730114
 21
516.6408343760524
 31
0.0
  0
LINE
  5
2F64
330
2938
100
AcDbEntity
  8
1
 62
     7
100
AcDbLine
 10
379.1194507730113
 20
515.7758343760526
 30
0.0
 11
381.5285211564981
 21
515.7758343760526
 31
0.0
  0
LINE
  5
2F65
330
2938
100
AcDbEntity
  8
1
 62
     7
100
AcDbLine
 10
386.0003803895242
 20
515.7758343760526
 30
0.0
 11
388.4094507730112
 21
515.7758343760526
 31
0.0
  0
LINE
  5
2F66
330
2938
100
AcDbEntity
  8
1
 62
     7
100
AcDbLine
 10
388.9094507730111
 20
515.2758343760527
 30
0.0
 11
388.9094507730111
 21
513.7108343760523
 31
0.0
  0
LINE
  5
2F67
330
2938
100
AcDbEntity
  8
1
 62
     7
100
AcDbLine
 10
385.8532318170651
 20
524.2608343760525
 30
0.0
 11
390.701950773011
 21
524.2608343760525
 31
0.0
  0
LINE
  5
2F68
330
2938
100
AcDbEntity
  8
1
 62
     7
100
AcDbLine
 10
383.7644507730111
 20
526.7363343760526
 30
0.0
 11
390.4019507730113
 21
526.7363343760526
 31
0.0
  0
LINE
  5
2F69
330
2938
100
AcDbEntity
  8
1
 62
     7
100
AcDbLine
 10
392.1619507730494
 20
534.3563343760524
 30
0.0
 11
384.1619507130354
 21
534.3563343760524
 31
0.0
  0
LINE
  5
2F6A
330
2938
100
AcDbEntity
  8
1
 62
     7
100
AcDbLine
 10
386.9619507730111
 20
528.8703343760521
 30
0.0
 11
390.7913963184951
 21
528.8268888305688
 31
0.0
  0
ARC
  5
2F6B
330
2938
100
AcDbEntity
  8
1
 62
     7
100
AcDbCircle
 10
383.7644507730111
 20
519.9808343760524
 30
0.0
 40
4.762499999999985
100
AcDbArc
 50
90.0
 51
116.0139008664947
  0
LINE
  5
2F6C
330
2938
100
AcDbEntity
  8
1
 62
     7
100
AcDbLine
 10
386.9619507730111
 20
528.8703343760521
 30
0.0
 11
382.1619507730113
 21
528.8703343760521
 31
0.0
  0
LINE
  5
2F6D
330
2938
100
AcDbEntity
  8
1
 62
     7
100
AcDbLine
 10
378.8019507730114
 20
523.2308343760526
 30
0.0
 11
380.248253271671
 21
523.1929616122573
 31
0.0
  0
ARC
  5
2F6E
330
2938
100
AcDbEntity
  8
1
 62
     7
100
AcDbCircle
 10
383.7644507730111
 20
519.9808343760524
 30
0.0
 40
4.762500000000041
100
AcDbArc
 50
63.98609913350238
 51
90.0
  0
LINE
  5
2F6F
330
2938
100
AcDbEntity
  8
1
 62
     7
100
AcDbLine
 10
383.6423354707648
 20
535.2563343760523
 30
0.0
 11
384.1619507130354
 21
534.3563343760524
 31
0.0
  0
LINE
  5
2F70
330
2938
100
AcDbEntity
  8
0
 62
     7
100
AcDbLine
 10
392.1619507729286
 20
528.5020197923791
 30
0.0
 11
392.1619507730494
 21
534.3563343760524
 31
0.0
  0
ARC
  5
2F71
330
2938
100
AcDbEntity
  8
1
 62
     7
100
AcDbCircle
 10
391.961950773011
 20
526.9890166245351
 30
0.0
 40
0.1999999999999819
100
AcDbArc
 50
273.0000000000056
 51
0.0
  0
ARC
  5
2F72
330
2938
100
AcDbEntity
  8
1
 62
     7
100
AcDbCircle
 10
391.961950773011
 20
527.3734916635778
 30
0.0
 40
0.2000000000000988
100
AcDbArc
 50
0.0
 51
45.00000000002245
  0
LINE
  5
2F73
330
2938
100
AcDbEntity
  8
1
 62
     7
100
AcDbLine
 10
390.4019507730113
 20
526.7363343760526
 30
0.0
 11
391.0019507730111
 21
526.3899242145388
 31
0.0
  0
LINE
  5
2F74
330
2938
100
AcDbEntity
  8
1
 62
     7
100
AcDbLine
 10
390.701950773011
 20
524.2608343760525
 30
0.0
 11
391.0019507730111
 21
524.5608343760526
 31
0.0
  0
LINE
  5
2F75
330
2938
100
AcDbEntity
  8
1
 62
     7
100
AcDbLine
 10
391.0019507730111
 20
524.5608343760526
 30
0.0
 11
391.0019507730111
 21
526.3899242145388
 31
0.0
  0
LINE
  5
2F76
330
2938
100
AcDbEntity
  8
0
 62
     7
100
AcDbLine
 10
391.5962653565424
 20
527.9363343758854
 30
0.0
 11
392.1619507731135
 21
528.5020197923791
 31
0.0
  0
LINE
  5
2F77
330
2938
100
AcDbEntity
  8
1
 62
     7
100
AcDbLine
 10
391.9724179642599
 20
526.7892907175841
 30
0.0
 11
390.9619507730111
 21
526.7363343760526
 31
0.0
  0
LINE
  5
2F78
330
2938
100
AcDbEntity
  8
1
 62
     7
100
AcDbLine
 10
392.1619507730111
 20
527.3734916635778
 30
0.0
 11
392.1619507730111
 21
526.9890166245351
 31
0.0
  0
LINE
  5
2F79
330
2938
100
AcDbEntity
  8
1
 62
     7
100
AcDbLine
 10
390.7913963184951
 20
528.8268888305688
 30
0.0
 11
392.1033721292481
 21
527.5149130198155
 31
0.0
  0
LINE
  5
2F7A
330
2938
100
AcDbEntity
  8
1
  6
DIVIDE
 62
     7
100
AcDbLine
 10
394.1619507730111
 20
530.6563343760524
 30
0.0
 11
392.1619507728861
 21
530.6563343760524
 31
0.0
  0
CIRCLE
  5
2F7B
330
2938
100
AcDbEntity
  8
1
 62
     7
100
AcDbCircle
 10
486.1520048483647
 20
477.6563343760525
 30
0.0
 40
3.300000000000006
  0
ARC
  5
2F7C
330
2938
100
AcDbEntity
  8
1
 62
     7
100
AcDbCircle
 10
503.9206858452265
 20
474.767633018406
 30
0.0
 40
5.199999999999623
100
AcDbArc
 50
51.19511680158687
 51
129.8978621904341
  0
ARC
  5
2F7D
330
2938
100
AcDbEntity
  8
1
 62
     7
100
AcDbCircle
 10
546.1520048450613
 20
477.6563343761324
 30
0.0
 40
38.99000000000023
100
AcDbArc
 50
173.8840445648739
 51
178.2898684786045
  0
ARC
  5
2F7E
330
2938
100
AcDbEntity
  8
1
 62
     7
100
AcDbCircle
 10
546.1520048450613
 20
477.6563343761324
 30
0.0
 40
45.58000000000022
100
AcDbArc
 50
173.5576462028925
 51
178.6162668405843
  0
ARC
  5
2F7F
330
2938
100
AcDbEntity
  8
1
 62
     7
100
AcDbCircle
 10
503.9206858452265
 20
474.767633018406
 30
0.0
 40
4.762500000000128
100
AcDbArc
 50
30.36102419271404
 51
156.5194124005038
  0
CIRCLE
  5
2F80
330
2938
100
AcDbEntity
  8
1
 62
     7
100
AcDbCircle
 10
494.1904806212982
 20
447.6563343760528
 30
0.0
 40
3.3000000000001
  0
ARC
  5
2F81
330
2938
100
AcDbEntity
  8
1
 62
     7
100
AcDbCircle
 10
519.4380521617402
 20
444.8204754406145
 30
0.0
 40
5.200000000000166
100
AcDbArc
 50
98.15163854072004
 51
176.8543839295594
  0
ARC
  5
2F82
330
2938
100
AcDbEntity
  8
1
 62
     7
100
AcDbCircle
 10
511.56966927393
 20
453.2454563410103
 30
0.0
 40
5.200000000000041
100
AcDbArc
 50
269.2325725921689
 51
347.9353179810267
  0
ARC
  5
2F83
330
2938
100
AcDbEntity
  8
1
 62
     7
100
AcDbCircle
 10
511.56966927393
 20
453.2454563410103
 30
0.0
 40
4.762500000000049
100
AcDbArc
 50
242.6110223821054
 51
8.769410589896425
  0
ARC
  5
2F84
330
2938
100
AcDbEntity
  8
1
 62
     7
100
AcDbCircle
 10
519.4380521617402
 20
444.8204754406145
 30
0.0
 40
4.76250000000004
100
AcDbArc
 50
77.31754593184397
 51
203.4759341396336
  0
LINE
  5
2F85
330
2938
100
AcDbEntity
  8
1
  6
CENTER
 62
     3
100
AcDbLine
 10
498.4773063700314
 20
450.1313343760525
 30
0.0
 11
489.9036548725653
 21
445.1813343760527
 31
0.0
  0
CIRCLE
  5
2F86
330
2938
100
AcDbEntity
  8
1
 62
     7
100
AcDbCircle
 10
516.1520048483647
 20
425.6948101489864
 30
0.0
 40
3.299999999999971
  0
LINE
  5
2F87
330
2938
100
AcDbEntity
  8
1
  6
CENTER
 62
     3
100
AcDbLine
 10
518.6270048483646
 20
429.9816358977192
 30
0.0
 11
513.6770048483644
 21
421.4079844002534
 31
0.0
  0
ARC
  5
2F88
330
2938
100
AcDbEntity
  8
1
 62
     7
100
AcDbCircle
 10
546.1520048450613
 20
477.6563343761324
 30
0.0
 40
45.58000000000018
100
AcDbArc
 50
220.5141679420246
 51
225.5727885797155
  0
ARC
  5
2F89
330
2938
100
AcDbEntity
  8
1
 62
     7
100
AcDbCircle
 10
506.2661000117723
 20
463.4808803929346
 30
0.0
 40
5.199999999999715
100
AcDbArc
 50
66.84729071463237
 51
145.5500361034768
  0
ARC
  5
2F8A
330
2938
100
AcDbEntity
  8
1
 62
     7
100
AcDbCircle
 10
503.9206858452265
 20
474.767633018406
 30
0.0
 40
5.200000000000308
100
AcDbArc
 50
237.9282247660849
 51
316.6309701549359
  0
ARC
  5
2F8B
330
2938
100
AcDbEntity
  8
1
 62
     7
100
AcDbCircle
 10
503.9206858452265
 20
474.767633018406
 30
0.0
 40
4.762499999999905
100
AcDbArc
 50
211.3066745560197
 51
337.4650627638067
  0
ARC
  5
2F8C
330
2938
100
AcDbEntity
  8
1
 62
     7
100
AcDbCircle
 10
506.2661000117723
 20
463.4808803929346
 30
0.0
 40
4.762500000000049
100
AcDbArc
 50
46.01319810575892
 51
172.1715863135442
  0
ARC
  5
2F8D
330
2938
100
AcDbEntity
  8
1
 62
     7
100
AcDbCircle
 10
546.1520048450613
 20
477.6563343761324
 30
0.0
 40
45.5800000000001
100
AcDbArc
 50
189.209820115936
 51
194.2684407536266
  0
ARC
  5
2F8E
330
2938
100
AcDbEntity
  8
1
 62
     7
100
AcDbCircle
 10
511.56966927393
 20
453.2454563410103
 30
0.0
 40
4.762500000000025
100
AcDbArc
 50
61.66537201879885
 51
187.8237602265896
  0
ARC
  5
2F8F
330
2938
100
AcDbEntity
  8
1
 62
     7
100
AcDbCircle
 10
511.56966927393
 20
453.2454563410103
 30
0.0
 40
5.199999999999811
100
AcDbArc
 50
82.49946462767763
 51
161.2022100165205
  0
ARC
  5
2F90
330
2938
100
AcDbEntity
  8
1
 62
     7
100
AcDbCircle
 10
546.1520048450613
 20
477.6563343761324
 30
0.0
 40
45.58000000000022
100
AcDbArc
 50
204.8619940289811
 51
209.9206146666721
  0
ARC
  5
2F91
330
2938
100
AcDbEntity
  8
1
 62
     7
100
AcDbCircle
 10
506.2661000117723
 20
463.4808803929346
 30
0.0
 40
5.200000000000183
100
AcDbArc
 50
253.5803986791255
 51
332.2831440679797
  0
ARC
  5
2F92
330
2938
100
AcDbEntity
  8
1
 62
     7
100
AcDbCircle
 10
506.2661000117723
 20
463.4808803929346
 30
0.0
 40
4.762500000000081
100
AcDbArc
 50
226.9588484690597
 51
353.1172366768528
  0
ARC
  5
2F93
330
2938
100
AcDbEntity
  8
1
 62
     7
100
AcDbCircle
 10
546.1520048450613
 20
477.6563343761324
 30
0.0
 40
38.99000000000018
100
AcDbArc
 50
205.18839239096
 51
209.5942163046906
  0
ARC
  5
2F94
330
2938
100
AcDbEntity
  8
1
 62
     7
100
AcDbCircle
 10
546.1520048450613
 20
477.6563343761324
 30
0.0
 40
38.99000000000004
100
AcDbArc
 50
220.8405663040025
 51
225.2463902177352
  0
ARC
  5
2F95
330
2938
100
AcDbEntity
  8
1
 62
     7
100
AcDbCircle
 10
546.1520048450613
 20
477.6563343761324
 30
0.0
 40
38.99000000000013
100
AcDbArc
 50
189.5362184779166
 51
193.9420423916459
  0
CIRCLE
  5
2F96
330
2938
100
AcDbEntity
  8
1
 62
     7
100
AcDbCircle
 10
494.1904806212982
 20
507.6563343760526
 30
0.0
 40
3.300000000000018
  0
ARC
  5
2F97
330
2938
100
AcDbEntity
  8
1
 62
     7
100
AcDbCircle
 10
515.2157184771689
 20
506.5488089285782
 30
0.0
 40
5.199999999999152
100
AcDbArc
 50
4.238595062449555
 51
82.94134045130805
  0
ARC
  5
2F98
330
2938
100
AcDbEntity
  8
1
 62
     7
100
AcDbCircle
 10
546.1520048450613
 20
477.6563343761324
 30
0.0
 40
38.99
100
AcDbArc
 50
126.9275228257434
 51
131.3333467394734
  0
ARC
  5
2F99
330
2938
100
AcDbEntity
  8
1
 62
     7
100
AcDbCircle
 10
524.1580162400621
 20
513.8239077705854
 30
0.0
 40
5.200000000000771
100
AcDbArc
 50
175.3195291139188
 51
254.022274502758
  0
ARC
  5
2F9A
330
2938
100
AcDbEntity
  8
1
 62
     7
100
AcDbCircle
 10
515.2157184771689
 20
506.5488089285782
 30
0.0
 40
4.762499999999961
100
AcDbArc
 50
343.4045024535815
 51
109.5628906613731
  0
LINE
  5
2F9B
330
2938
100
AcDbEntity
  8
1
  6
CENTER
 62
     3
100
AcDbLine
 10
498.4773063700314
 20
505.181334376052
 30
0.0
 11
489.9036548725653
 21
510.1313343760523
 31
0.0
  0
ARC
  5
2F9C
330
2938
100
AcDbEntity
  8
1
 62
     7
100
AcDbCircle
 10
504.7073754134692
 20
486.2686274086504
 30
0.0
 40
5.200000000000468
100
AcDbArc
 50
222.2760508530398
 51
300.9787962418911
  0
ARC
  5
2F9D
330
2938
100
AcDbEntity
  8
1
 62
     7
100
AcDbCircle
 10
504.7073754134692
 20
486.2686274086504
 30
0.0
 40
4.762499999999787
100
AcDbArc
 50
195.654500642974
 51
321.8128888507679
  0
ARC
  5
2F9E
330
2938
100
AcDbEntity
  8
1
 62
     7
100
AcDbCircle
 10
504.7073754134692
 20
486.2686274086504
 30
0.0
 40
4.76250000000016
100
AcDbArc
 50
14.7088502796695
 51
140.8672384874577
  0
ARC
  5
2F9F
330
2938
100
AcDbEntity
  8
1
 62
     7
100
AcDbCircle
 10
508.5678235500895
 20
497.1308874232923
 30
0.0
 40
5.200000000000775
100
AcDbArc
 50
206.6238769400019
 51
285.3266223288465
  0
ARC
  5
2FA0
330
2938
100
AcDbEntity
  8
1
 62
     7
100
AcDbCircle
 10
546.1520048450613
 20
477.6563343761324
 30
0.0
 40
45.5800000000001
100
AcDbArc
 50
157.9054722898513
 51
162.9640929275412
  0
ARC
  5
2FA1
330
2938
100
AcDbEntity
  8
1
 62
     7
100
AcDbCircle
 10
508.5678235500895
 20
497.1308874232923
 30
0.0
 40
4.762500000000017
100
AcDbArc
 50
180.002326729932
 51
306.1607149377215
  0
ARC
  5
2FA2
330
2938
100
AcDbEntity
  8
1
 62
     7
100
AcDbCircle
 10
504.7073754134692
 20
486.2686274086504
 30
0.0
 40
5.199999999999413
100
AcDbArc
 50
35.54294288854584
 51
114.2456882773942
  0
ARC
  5
2FA3
330
2938
100
AcDbEntity
  8
1
 62
     7
100
AcDbCircle
 10
546.1520048450613
 20
477.6563343761324
 30
0.0
 40
38.99
100
AcDbArc
 50
158.2318706518296
 51
162.6376945655619
  0
ARC
  5
2FA4
330
2938
100
AcDbEntity
  8
1
 62
     7
100
AcDbCircle
 10
508.5678235500895
 20
497.1308874232923
 30
0.0
 40
5.199999999999164
100
AcDbArc
 50
19.89076897549731
 51
98.59351436435137
  0
ARC
  5
2FA5
330
2938
100
AcDbEntity
  8
1
 62
     7
100
AcDbCircle
 10
515.2157184771689
 20
506.5488089285782
 30
0.0
 40
5.200000000000891
100
AcDbArc
 50
190.9717030269606
 51
269.6744484157998
  0
ARC
  5
2FA6
330
2938
100
AcDbEntity
  8
1
 62
     7
100
AcDbCircle
 10
515.2157184771689
 20
506.5488089285782
 30
0.0
 40
4.762500000000096
100
AcDbArc
 50
164.3501528168872
 51
290.5085410246765
  0
ARC
  5
2FA7
330
2938
100
AcDbEntity
  8
1
 62
     7
100
AcDbCircle
 10
508.5678235500895
 20
497.1308874232923
 30
0.0
 40
4.762499999999985
100
AcDbArc
 50
359.0566763666279
 51
125.2150645744153
  0
ARC
  5
2FA8
330
2938
100
AcDbEntity
  8
1
 62
     7
100
AcDbCircle
 10
546.1520048450613
 20
477.6563343761324
 30
0.0
 40
45.5800000000001
100
AcDbArc
 50
142.253298376807
 51
147.3119190144983
  0
ARC
  5
2FA9
330
2938
100
AcDbEntity
  8
1
 62
     7
100
AcDbCircle
 10
546.1520048450613
 20
477.6563343761324
 30
0.0
 40
38.99000000000023
100
AcDbArc
 50
142.5796967387874
 51
146.9855206525193
  0
ARC
  5
2FAA
330
2938
100
AcDbEntity
  8
1
 62
     7
100
AcDbCircle
 10
546.1520048450613
 20
477.6563343761324
 30
0.0
 40
45.58000000000002
100
AcDbArc
 50
126.6011244637639
 51
131.6597451014535
  0
CIRCLE
  5
2FAB
330
2938
100
AcDbEntity
  8
1
 62
     7
100
AcDbCircle
 10
516.1520048483647
 20
529.6178586031188
 30
0.0
 40
3.300000000000196
  0
LINE
  5
2FAC
330
2938
100
AcDbEntity
  8
1
  6
CENTER
 62
     3
100
AcDbLine
 10
518.6270048483646
 20
525.3310328543857
 30
0.0
 11
513.6770048483644
 21
533.9046843518518
 31
0.0
  0
LINE
  5
2FAD
330
2938
100
AcDbEntity
  8
0
 62
     7
100
AcDbLine
 10
391.761950779124
 20
545.1563333623644
 30
0.0
 11
375.561950707128
 21
545.1563333621868
 31
0.0
  0
LINE
  5
2FAE
330
2938
100
AcDbEntity
  8
1
 62
     3
100
AcDbLine
 10
375.1619507130354
 20
540.6563343760526
 30
0.0
 11
383.9887456322786
 21
540.6563343760526
 31
0.0
  0
LINE
  5
2FAF
330
2938
100
AcDbEntity
  8
1
 62
     7
100
AcDbLine
 10
375.1619507130354
 20
540.0563343760524
 30
0.0
 11
383.6423354707648
 21
540.0563343760524
 31
0.0
  0
LINE
  5
2FB0
330
2938
100
AcDbEntity
  8
0
 62
     7
100
AcDbLine
 10
375.561950707128
 20
545.1563333621868
 30
0.0
 11
375.1619507130354
 21
544.756333368018
 31
0.0
  0
LINE
  5
2FB1
330
2938
100
AcDbEntity
  8
0
 62
     7
100
AcDbLine
 10
375.1619507130354
 20
540.0563343760524
 30
0.0
 11
375.1619507130354
 21
540.6563343760526
 31
0.0
  0
LINE
  5
2FB2
330
2938
100
AcDbEntity
  8
0
 62
     7
100
AcDbLine
 10
375.1619507130354
 20
540.6563343760526
 30
0.0
 11
375.1619507130354
 21
544.7563333681958
 31
0.0
  0
LINE
  5
2FB3
330
2938
100
AcDbEntity
  8
1
 62
     7
100
AcDbLine
 10
392.1619507730494
 20
540.9563343760526
 30
0.0
 11
384.1619507130354
 21
540.9563343760526
 31
0.0
  0
LINE
  5
2FB4
330
2938
100
AcDbEntity
  8
1
 62
     7
100
AcDbLine
 10
384.1619507130354
 20
540.9563343760526
 30
0.0
 11
383.6423354707648
 21
540.0563343760524
 31
0.0
  0
LINE
  5
2FB5
330
2938
100
AcDbEntity
  8
0
 62
     7
100
AcDbLine
 10
392.1619507731474
 20
544.756333368018
 30
0.0
 11
391.761950779124
 21
545.1563333623644
 31
0.0
  0
LINE
  5
2FB6
330
2938
100
AcDbEntity
  8
0
 62
     7
100
AcDbLine
 10
392.1619507730494
 20
540.9563343760526
 30
0.0
 11
392.1619507731474
 21
544.756333368018
 31
0.0
  0
CIRCLE
  5
2FB7
330
2938
100
AcDbEntity
  8
1
 62
     7
100
AcDbCircle
 10
530.6228621361723
 20
535.6118839528256
 30
0.0
 40
2.400000000000204
  0
CIRCLE
  5
2FB8
330
2938
100
AcDbEntity
  8
1
 62
     3
100
AcDbCircle
 10
530.6228621361723
 20
535.6118839528256
 30
0.0
 40
3.000000000000111
  0
CIRCLE
  5
2FB9
330
2938
100
AcDbEntity
  8
1
 62
     7
100
AcDbCircle
 10
546.1520048417419
 20
537.6563343760524
 30
0.0
 40
3.300000000000181
  0
CIRCLE
  5
2FBA
330
2938
100
AcDbEntity
  8
1
 62
     7
100
AcDbCircle
 10
530.6228621335521
 20
535.6118839501818
 30
0.0
 40
3.3000000000001
  0
LINE
  5
2FBB
330
2938
100
AcDbEntity
  8
1
  6
CENTER
 62
     3
100
AcDbLine
 10
529.4581764332109
 20
539.9585501711264
 30
0.0
 11
531.7875478391339
 21
531.2652177345244
 31
0.0
  0
LINE
  5
2FBC
330
2938
100
AcDbEntity
  8
2
  6
CENTER
 62
     3
100
AcDbLine
 10
546.1520048450665
 20
427.3763343763775
 30
0.0
 11
546.1520048450445
 21
550.1563333622883
 31
0.0
  0
CIRCLE
  5
2FBD
330
2938
100
AcDbEntity
  8
1
 62
     7
100
AcDbCircle
 10
606.1520048417419
 20
477.6563343760525
 30
0.0
 40
3.300000000000006
  0
CIRCLE
  5
2FBE
330
2938
100
AcDbEntity
  8
1
 62
     7
100
AcDbCircle
 10
546.1520048450706
 20
477.6563343738428
 30
0.0
 40
15.99999975989418
  0
CIRCLE
  5
2FBF
330
2938
100
AcDbEntity
  8
1
 62
     7
100
AcDbCircle
 10
546.1520048450706
 20
477.6563343738428
 30
0.0
 40
21.49999967727036
  0
ARC
  5
2FC0
330
2938
100
AcDbEntity
  8
1
 62
     7
100
AcDbCircle
 10
588.3833238448931
 20
474.767633018406
 30
0.0
 40
5.199999999999977
100
AcDbArc
 50
50.10213780957105
 51
128.8048831984189
  0
ARC
  5
2FC1
330
2938
100
AcDbEntity
  8
1
 62
     7
100
AcDbCircle
 10
546.1520048450573
 20
477.6563343761324
 30
0.0
 40
38.98999999999999
100
AcDbArc
 50
1.710131521395422
 51
6.115955435126008
  0
ARC
  5
2FC2
330
2938
100
AcDbEntity
  8
1
 62
     7
100
AcDbCircle
 10
546.1520048450573
 20
477.6563343761324
 30
0.0
 40
45.57999999999998
100
AcDbArc
 50
1.38373315941567
 51
6.442353797107488
  0
ARC
  5
2FC3
330
2938
100
AcDbEntity
  8
1
 62
     7
100
AcDbCircle
 10
588.3833238448931
 20
474.767633018406
 30
0.0
 40
4.762499999999873
100
AcDbArc
 50
23.4805875994961
 51
149.6389758072859
  0
ARC
  5
2FC4
330
2938
100
AcDbEntity
  8
1
 62
     7
100
AcDbCircle
 10
546.152004845227
 20
477.6563343760525
 30
0.0
 40
6.999999894711502
100
AcDbArc
 50
110.9248324360963
 51
269.9999999986109
  0
ARC
  5
2FC5
330
2938
100
AcDbEntity
  8
1
 62
     7
100
AcDbCircle
 10
546.152004845227
 20
477.6563343760525
 30
0.0
 40
6.999999894711523
100
AcDbArc
 50
269.9999999986109
 51
69.07516757554656
  0
ARC
  5
2FC6
330
2938
100
AcDbEntity
  8
0
 62
     7
100
AcDbCircle
 10
546.1520048465962
 20
478.5896676954001
 30
0.0
 40
17.67999973441129
100
AcDbArc
 50
90.00000000000651
 51
250.730361122028
  0
ARC
  5
2FC7
330
2938
100
AcDbEntity
  8
0
 62
     7
100
AcDbCircle
 10
546.1520048465927
 20
478.5896676954001
 30
0.0
 40
17.67999973441137
100
AcDbArc
 50
289.2696388779719
 51
89.99999999999349
  0
ARC
  5
2FC8
330
2938
100
AcDbEntity
  8
1
 62
     7
100
AcDbCircle
 10
563.016322978249
 20
438.8307799834068
 30
0.0
 40
4.762499999999945
100
AcDbArc
 50
320.8718919473219
 51
87.03028015511511
  0
ARC
  5
2FC9
330
2938
100
AcDbEntity
  8
1
 62
     7
100
AcDbCircle
 10
540.3880705888179
 20
435.7205982804144
 30
0.0
 40
4.762499999999985
100
AcDbArc
 50
289.5675441212334
 51
55.72593232902618
  0
ARC
  5
2FCA
330
2938
100
AcDbEntity
  8
1
 62
     7
100
AcDbCircle
 10
540.3880705888179
 20
435.7205982804144
 30
0.0
 40
5.200000000000558
100
AcDbArc
 50
129.4559863668037
 51
208.1587317556412
  0
ARC
  5
2FCB
330
2938
100
AcDbEntity
  8
1
 62
     7
100
AcDbCircle
 10
529.2876867118705
 20
438.8307799834068
 30
0.0
 40
5.199999999999596
100
AcDbArc
 50
300.5369204182586
 51
19.2396658071191
  0
ARC
  5
2FCC
330
2938
100
AcDbEntity
  8
1
 62
     7
100
AcDbCircle
 10
529.2876867118705
 20
438.8307799834068
 30
0.0
 40
4.762500000000073
100
AcDbArc
 50
273.9153702081928
 51
40.07375841598065
  0
ARC
  5
2FCD
330
2938
100
AcDbEntity
  8
1
 62
     7
100
AcDbCircle
 10
540.3880705888179
 20
435.7205982804144
 30
0.0
 40
4.762500000000073
100
AcDbArc
 50
108.6218937579323
 51
234.7802819657216
  0
ARC
  5
2FCE
330
2938
100
AcDbEntity
  8
1
 62
     7
100
AcDbCircle
 10
546.1520048450613
 20
477.6563343761324
 30
0.0
 40
45.58000000000005
100
AcDbArc
 50
251.8185157681107
 51
256.8771364058014
  0
ARC
  5
2FCF
330
2938
100
AcDbEntity
  8
1
 62
     7
100
AcDbCircle
 10
529.2876867118705
 20
438.8307799834068
 30
0.0
 40
5.200000000000228
100
AcDbArc
 50
113.8038124537612
 51
192.5065578426021
  0
ARC
  5
2FD0
330
2938
100
AcDbEntity
  8
1
 62
     7
100
AcDbCircle
 10
529.2876867118705
 20
438.8307799834068
 30
0.0
 40
4.762499999999945
100
AcDbArc
 50
92.96971984488653
 51
219.1281080526781
  0
ARC
  5
2FD1
330
2938
100
AcDbEntity
  8
1
 62
     7
100
AcDbCircle
 10
546.1520048450613
 20
477.6563343761324
 30
0.0
 40
38.99000000000007
100
AcDbArc
 50
236.4927402170466
 51
240.898564130777
  0
ARC
  5
2FD2
330
2938
100
AcDbEntity
  8
1
 62
     7
100
AcDbCircle
 10
546.1520048450613
 20
477.6563343761324
 30
0.0
 40
38.99000000000007
100
AcDbArc
 50
252.1449141300911
 51
256.550738043822
  0
ARC
  5
2FD3
330
2938
100
AcDbEntity
  8
1
 62
     7
100
AcDbCircle
 10
540.3880705888179
 20
435.7205982804144
 30
0.0
 40
5.199999999999421
100
AcDbArc
 50
316.1890943313033
 51
34.89183972016378
  0
ARC
  5
2FD4
330
2938
100
AcDbEntity
  8
1
 62
     7
100
AcDbCircle
 10
551.9159391013017
 20
435.7205982804144
 30
0.0
 40
5.199999999999985
100
AcDbArc
 50
145.1081602798407
 51
223.8109056686909
  0
ARC
  5
2FD5
330
2938
100
AcDbEntity
  8
1
 62
     7
100
AcDbCircle
 10
551.9159391013017
 20
435.7205982804144
 30
0.0
 40
5.200000000000049
100
AcDbArc
 50
331.8412682443522
 51
50.54401363320331
  0
ARC
  5
2FD6
330
2938
100
AcDbEntity
  8
1
 62
     7
100
AcDbCircle
 10
563.016322978249
 20
438.8307799834068
 30
0.0
 40
5.200000000000111
100
AcDbArc
 50
160.7603341928875
 51
239.4630795817341
  0
ARC
  5
2FD7
330
2938
100
AcDbEntity
  8
1
 62
     7
100
AcDbCircle
 10
563.016322978249
 20
438.8307799834068
 30
0.0
 40
4.762500000000112
100
AcDbArc
 50
139.9262415840193
 51
266.0846297918071
  0
ARC
  5
2FD8
330
2938
100
AcDbEntity
  8
1
 62
     7
100
AcDbCircle
 10
551.9159391013017
 20
435.7205982804144
 30
0.0
 40
4.762499999999922
100
AcDbArc
 50
124.2740676709738
 51
250.432455878765
  0
ARC
  5
2FD9
330
2938
100
AcDbEntity
  8
1
 62
     7
100
AcDbCircle
 10
551.9159391013017
 20
435.7205982804144
 30
0.0
 40
4.762500000000009
100
AcDbArc
 50
305.2197180342776
 51
71.37810624206918
  0
LINE
  5
2FDA
330
2938
100
AcDbEntity
  8
2
  6
CENTER
 62
     3
100
AcDbLine
 10
546.1520048450666
 20
426.4423343758314
 30
0.0
 11
546.1520048450665
 21
427.3763343763775
 31
0.0
  0
ARC
  5
2FDB
330
2938
100
AcDbEntity
  8
1
 62
     7
100
AcDbCircle
 10
546.1520048450573
 20
477.6563343761324
 30
0.0
 40
45.57999999999998
100
AcDbArc
 50
267.4706896811538
 51
272.5293103188461
  0
ARC
  5
2FDC
330
2938
100
AcDbEntity
  8
1
 62
     7
100
AcDbCircle
 10
546.1520048450573
 20
477.6563343761324
 30
0.0
 40
45.58000000000006
100
AcDbArc
 50
283.1228635941985
 51
288.1814842318892
  0
ARC
  5
2FDD
330
2938
100
AcDbEntity
  8
1
 62
     7
100
AcDbCircle
 10
546.1520048450573
 20
477.6563343761324
 30
0.0
 40
38.99
100
AcDbArc
 50
267.7970880431355
 51
272.202911956866
  0
ARC
  5
2FDE
330
2938
100
AcDbEntity
  8
1
 62
     7
100
AcDbCircle
 10
546.1520048450573
 20
477.6563343761324
 30
0.0
 40
38.98999999999995
100
AcDbArc
 50
283.4492619561779
 51
287.8550858699081
  0
CIRCLE
  5
2FDF
330
2938
100
AcDbEntity
  8
0
 62
     7
100
AcDbCircle
 10
543.3253382223961
 20
460.2163346380179
 30
0.0
 40
1.066666650638294
  0
LINE
  5
2FE0
330
2938
100
AcDbEntity
  8
0
 62
     7
100
AcDbLine
 10
545.6186715212742
 20
457.6563346765066
 30
0.0
 11
542.0986715741316
 21
457.6563346765066
 31
0.0
  0
ARC
  5
2FE1
330
2938
100
AcDbEntity
  8
0
 62
     7
100
AcDbCircle
 10
539.9653382728567
 20
460.893265313546
 30
0.0
 40
1.06666665066109
100
AcDbArc
 50
0.0000000005471572
 51
70.73036112248485
  0
ARC
  5
2FE2
330
2938
100
AcDbEntity
  8
0
 62
     7
100
AcDbCircle
 10
542.0986715741587
 20
458.7230013271744
 30
0.0
 40
1.066666650668224
100
AcDbArc
 50
180.0
 51
269.999999998549
  0
LINE
  5
2FE3
330
2938
100
AcDbEntity
  8
0
 62
     7
100
AcDbLine
 10
541.0320049235179
 20
458.7230013271744
 30
0.0
 11
541.0320049235179
 21
460.893265313556
 31
0.0
  0
CIRCLE
  5
2FE4
330
2938
100
AcDbEntity
  8
0
 62
     7
100
AcDbCircle
 10
548.9786714708015
 20
460.2163346380179
 30
0.0
 40
1.06666665064381
  0
LINE
  5
2FE5
330
2938
100
AcDbEntity
  8
0
 62
     7
100
AcDbLine
 10
546.6853381719172
 20
457.6563346765066
 30
0.0
 11
550.2053381190631
 21
457.6563346765066
 31
0.0
  0
LINE
  5
2FE6
330
2938
100
AcDbEntity
  8
0
 62
     7
100
AcDbLine
 10
545.6186715212742
 20
461.7192289655112
 30
0.0
 11
545.6186715212742
 21
457.6563346765066
 31
0.0
  0
LINE
  5
2FE7
330
2938
100
AcDbEntity
  8
0
 62
     7
100
AcDbLine
 10
546.6853381719172
 20
461.7192289655112
 30
0.0
 11
546.6853381719172
 21
457.6563346765066
 31
0.0
  0
ARC
  5
2FE8
330
2938
100
AcDbEntity
  8
0
 62
     7
100
AcDbCircle
 10
552.3386714203396
 20
460.893265313556
 30
0.0
 40
1.066666650650015
100
AcDbArc
 50
109.2696388775022
 51
180.0
  0
ARC
  5
2FE9
330
2938
100
AcDbEntity
  8
0
 62
     7
100
AcDbCircle
 10
550.2053381190482
 20
458.7230013271734
 30
0.0
 40
1.066666650666797
100
AcDbArc
 50
270.0000000007946
 51
0.0000000000716515
  0
LINE
  5
2FEA
330
2938
100
AcDbEntity
  8
0
 62
     7
100
AcDbLine
 10
551.2720047696904
 20
458.7230013271744
 30
0.0
 11
551.2720047696904
 21
460.893265313556
 31
0.0
  0
CIRCLE
  5
2FEB
330
2938
100
AcDbEntity
  8
1
 62
     7
100
AcDbCircle
 10
598.1135290688079
 20
447.6563343760528
 30
0.0
 40
3.3000000000001
  0
ARC
  5
2FEC
330
2938
100
AcDbEntity
  8
1
 62
     7
100
AcDbCircle
 10
572.8659575283791
 20
444.8204754406145
 30
0.0
 40
5.199999999999966
100
AcDbArc
 50
3.145616070437241
 51
81.84836145928963
  0
ARC
  5
2FED
330
2938
100
AcDbEntity
  8
1
 62
     7
100
AcDbCircle
 10
580.7343404161895
 20
453.2454563410103
 30
0.0
 40
5.200000000000041
100
AcDbArc
 50
192.0646820189699
 51
270.7674274078229
  0
ARC
  5
2FEE
330
2938
100
AcDbEntity
  8
1
 62
     7
100
AcDbCircle
 10
580.7343404161895
 20
453.2454563410103
 30
0.0
 40
4.762500000000017
100
AcDbArc
 50
171.2305894101035
 51
297.3889776178959
  0
ARC
  5
2FEF
330
2938
100
AcDbEntity
  8
1
 62
     7
100
AcDbCircle
 10
572.8659575283791
 20
444.8204754406145
 30
0.0
 40
4.762499999999856
100
AcDbArc
 50
336.5240658603663
 51
102.682454068156
  0
LINE
  5
2FF0
330
2938
100
AcDbEntity
  8
1
  6
CENTER
 62
     3
100
AcDbLine
 10
602.4003548175413
 20
445.1813343760527
 30
0.0
 11
593.8267033200754
 21
450.1313343760525
 31
0.0
  0
CIRCLE
  5
2FF1
330
2938
100
AcDbEntity
  8
1
 62
     7
100
AcDbCircle
 10
576.1520048417419
 20
425.6948101489864
 30
0.0
 40
3.299999999999982
  0
LINE
  5
2FF2
330
2938
100
AcDbEntity
  8
1
  6
CENTER
 62
     3
100
AcDbLine
 10
578.6270048417422
 20
421.4079844002534
 30
0.0
 11
573.6770048417419
 21
429.9816358977192
 31
0.0
  0
ARC
  5
2FF3
330
2938
100
AcDbEntity
  8
1
 62
     7
100
AcDbCircle
 10
563.016322978249
 20
438.8307799834068
 30
0.0
 40
5.199999999999879
100
AcDbArc
 50
347.4934421573944
 51
66.19618754624601
  0
ARC
  5
2FF4
330
2938
100
AcDbEntity
  8
1
 62
     7
100
AcDbCircle
 10
572.8659575283791
 20
444.8204754406145
 30
0.0
 40
5.20000000000016
100
AcDbArc
 50
176.4125081059283
 51
255.1152534947793
  0
ARC
  5
2FF5
330
2938
100
AcDbEntity
  8
1
 62
     7
100
AcDbCircle
 10
572.8659575283791
 20
444.8204754406145
 30
0.0
 40
4.762500000000057
100
AcDbArc
 50
155.5784154970599
 51
281.7368037048493
  0
ARC
  5
2FF6
330
2938
100
AcDbEntity
  8
1
 62
     7
100
AcDbCircle
 10
546.1520048450573
 20
477.6563343761324
 30
0.0
 40
45.58000000000002
100
AcDbArc
 50
298.775037507241
 51
303.8336581449332
  0
ARC
  5
2FF7
330
2938
100
AcDbEntity
  8
1
 62
     7
100
AcDbCircle
 10
546.1520048450573
 20
477.6563343761324
 30
0.0
 40
38.99000000000004
100
AcDbArc
 50
299.1014358692222
 51
303.5072597829533
  0
ARC
  5
2FF8
330
2938
100
AcDbEntity
  8
1
 62
     7
100
AcDbCircle
 10
546.1520048450573
 20
477.6563343761324
 30
0.0
 40
45.58000000000006
100
AcDbArc
 50
314.4272114202839
 51
319.4858320579753
  0
ARC
  5
2FF9
330
2938
100
AcDbEntity
  8
1
 62
     7
100
AcDbCircle
 10
580.7343404161895
 20
453.2454563410103
 30
0.0
 40
5.19999999999993
100
AcDbArc
 50
18.79778998348276
 51
97.50053537233046
  0
ARC
  5
2FFA
330
2938
100
AcDbEntity
  8
1
 62
     7
100
AcDbCircle
 10
586.0379096783471
 20
463.4808803929346
 30
0.0
 40
5.199999999999985
100
AcDbArc
 50
207.7168559320129
 51
286.4196013208657
  0
ARC
  5
2FFB
330
2938
100
AcDbEntity
  8
1
 62
     7
100
AcDbCircle
 10
586.0379096783471
 20
463.4808803929346
 30
0.0
 40
5.19999999999992
100
AcDbArc
 50
34.44996389652726
 51
113.1527092853748
  0
ARC
  5
2FFC
330
2938
100
AcDbEntity
  8
1
 62
     7
100
AcDbCircle
 10
588.3833238448931
 20
474.767633018406
 30
0.0
 40
5.200000000000057
100
AcDbArc
 50
223.3690298450588
 51
302.0717752339078
  0
ARC
  5
2FFD
330
2938
100
AcDbEntity
  8
1
 62
     7
100
AcDbCircle
 10
588.3833238448931
 20
474.767633018406
 30
0.0
 40
4.762500000000041
100
AcDbArc
 50
202.5349372361899
 51
328.6933254439802
  0
ARC
  5
2FFE
330
2938
100
AcDbEntity
  8
1
 62
     7
100
AcDbCircle
 10
586.0379096783471
 20
463.4808803929346
 30
0.0
 40
4.762499999999961
100
AcDbArc
 50
186.8827633231471
 51
313.041151530939
  0
ARC
  5
2FFF
330
2938
100
AcDbEntity
  8
1
 62
     7
100
AcDbCircle
 10
586.0379096783471
 20
463.4808803929346
 30
0.0
 40
4.762500000000025
100
AcDbArc
 50
7.828413686452537
 51
133.986801894241
  0
ARC
  5
3000
330
2938
100
AcDbEntity
  8
1
 62
     7
100
AcDbCircle
 10
580.7343404161895
 20
453.2454563410103
 30
0.0
 40
4.762500000000009
100
AcDbArc
 50
352.1762397734103
 51
118.3346279811997
  0
ARC
  5
3001
330
2938
100
AcDbEntity
  8
1
 62
     7
100
AcDbCircle
 10
546.1520048450573
 20
477.6563343761324
 30
0.0
 40
38.99
100
AcDbArc
 50
314.7536097822647
 51
319.1594336959943
  0
ARC
  5
3002
330
2938
100
AcDbEntity
  8
1
 62
     7
100
AcDbCircle
 10
546.1520048450573
 20
477.6563343761324
 30
0.0
 40
38.99000000000013
100
AcDbArc
 50
330.4057836953089
 51
334.8116076090399
  0
ARC
  5
3003
330
2938
100
AcDbEntity
  8
1
 62
     7
100
AcDbCircle
 10
546.1520048450573
 20
477.6563343761324
 30
0.0
 40
38.99000000000004
100
AcDbArc
 50
346.0579576083509
 51
350.4637815220801
  0
ARC
  5
3004
330
2938
100
AcDbEntity
  8
1
 62
     7
100
AcDbCircle
 10
546.1520048450573
 20
477.6563343761324
 30
0.0
 40
45.57999999999993
100
AcDbArc
 50
330.0793853333278
 51
335.1380059710188
  0
ARC
  5
3005
330
2938
100
AcDbEntity
  8
1
 62
     7
100
AcDbCircle
 10
546.1520048450573
 20
477.6563343761324
 30
0.0
 40
45.57999999999989
100
AcDbArc
 50
345.7315592463701
 51
350.7901798840638
  0
ARC
  5
3006
330
2938
100
AcDbEntity
  8
1
 62
     7
100
AcDbCircle
 10
568.1459934500574
 20
513.8239077705854
 30
0.0
 40
5.199999999999938
100
AcDbArc
 50
112.7108334617421
 51
191.413578850594
  0
ARC
  5
3007
330
2938
100
AcDbEntity
  8
1
 62
     7
100
AcDbCircle
 10
546.1520048450573
 20
477.6563343761324
 30
0.0
 40
45.58000000000001
100
AcDbArc
 50
63.99242881158926
 51
69.05104944928043
  0
ARC
  5
3008
330
2938
100
AcDbEntity
  8
1
 62
     7
100
AcDbCircle
 10
568.1459934500574
 20
513.8239077705854
 30
0.0
 40
4.762499999999912
100
AcDbArc
 50
86.08928325166997
 51
212.2476714594589
  0
LINE
  5
3009
330
2938
100
AcDbEntity
  8
1
 62
     7
100
AcDbLine
 10
543.6520048816107
 20
486.9563342364704
 30
0.0
 11
548.6520048072605
 21
486.9563342364704
 31
0.0
  0
LINE
  5
300A
330
2938
100
AcDbEntity
  8
1
 62
     7
100
AcDbLine
 10
543.6520048816107
 20
484.1946826931578
 30
0.0
 11
543.6520048816107
 21
486.9563342364704
 31
0.0
  0
LINE
  5
300B
330
2938
100
AcDbEntity
  8
1
 62
     7
100
AcDbLine
 10
548.6520048072605
 20
486.9563342364704
 30
0.0
 11
548.6520048072605
 21
484.1946826931578
 31
0.0
  0
ARC
  5
300C
330
2938
100
AcDbEntity
  8
1
 62
     7
100
AcDbCircle
 10
546.1520048450622
 20
519.9863343761323
 30
0.0
 40
4.76250000000016
100
AcDbArc
 50
117.3936310777572
 51
243.552019285544
  0
ARC
  5
300D
330
2938
100
AcDbEntity
  8
1
 62
     7
100
AcDbCircle
 10
546.1520048450613
 20
477.6563343761324
 30
0.0
 40
45.57999999999984
100
AcDbArc
 50
95.29677663767612
 51
100.355397275367
  0
ARC
  5
300E
330
2938
100
AcDbEntity
  8
1
 62
     7
100
AcDbCircle
 10
534.7315075219853
 20
518.4166231495648
 30
0.0
 40
4.762500000000032
100
AcDbArc
 50
312.1001546274947
 51
78.25854283528612
  0
ARC
  5
300F
330
2938
100
AcDbEntity
  8
1
 62
     7
100
AcDbCircle
 10
534.7315075219853
 20
518.4166231495648
 30
0.0
 40
4.76249999999989
100
AcDbArc
 50
133.0458049908015
 51
259.2041931985916
  0
ARC
  5
3010
330
2938
100
AcDbEntity
  8
1
 62
     7
100
AcDbCircle
 10
524.1580162400621
 20
513.8239077705854
 30
0.0
 40
5.199999999999253
100
AcDbArc
 50
348.5864211494027
 51
67.28916653826665
  0
ARC
  5
3011
330
2938
100
AcDbEntity
  8
1
 62
     7
100
AcDbCircle
 10
534.7315075219853
 20
518.4166231495648
 30
0.0
 40
5.200000000000581
100
AcDbArc
 50
159.6673552008781
 51
238.3701005897147
  0
ARC
  5
3012
330
2938
100
AcDbEntity
  8
1
 62
     7
100
AcDbCircle
 10
524.1580162400621
 20
513.8239077705854
 30
0.0
 40
4.762500000000081
100
AcDbArc
 50
327.7523285405411
 51
93.91071674832838
  0
ARC
  5
3013
330
2938
100
AcDbEntity
  8
1
 62
     7
100
AcDbCircle
 10
546.1520048450613
 20
477.6563343761324
 30
0.0
 40
38.99000000000004
100
AcDbArc
 50
111.2753489126989
 51
115.6811728264308
  0
ARC
  5
3014
330
2938
100
AcDbEntity
  8
1
 62
     7
100
AcDbCircle
 10
546.1520048450613
 20
477.6563343761324
 30
0.0
 40
45.57999999999989
100
AcDbArc
 50
110.9489505507195
 51
116.0075711884114
  0
ARC
  5
3015
330
2938
100
AcDbEntity
  8
1
 62
     7
100
AcDbCircle
 10
534.7315075219853
 20
518.4166231495648
 30
0.0
 40
5.199999999999382
100
AcDbArc
 50
332.9342472363589
 51
51.63699262521956
  0
ARC
  5
3016
330
2938
100
AcDbEntity
  8
1
 62
     7
100
AcDbCircle
 10
546.1520048450613
 20
477.6563343761324
 30
0.0
 40
38.99
100
AcDbArc
 50
95.62317499965603
 51
100.0289989133869
  0
ARC
  5
3017
330
2938
100
AcDbEntity
  8
1
 62
     7
100
AcDbCircle
 10
546.1520048450622
 20
519.9863343761323
 30
0.0
 40
5.200000000000652
100
AcDbArc
 50
144.0151812878367
 51
222.7179266766737
  0
ARC
  5
3018
330
2938
100
AcDbEntity
  8
1
 62
     7
100
AcDbCircle
 10
546.1520048450573
 20
477.6563343761324
 30
0.0
 40
45.57999999999996
100
AcDbArc
 50
79.64460272463218
 51
84.70322336232387
  0
ARC
  5
3019
330
2938
100
AcDbEntity
  8
1
 62
     7
100
AcDbCircle
 10
557.5725021681342
 20
518.4166231495648
 30
0.0
 40
4.762499999999896
100
AcDbArc
 50
101.7414571647138
 51
227.8998453725052
  0
ARC
  5
301A
330
2938
100
AcDbEntity
  8
1
 62
     7
100
AcDbCircle
 10
546.1520048450573
 20
519.9863343761323
 30
0.0
 40
4.762499999999961
100
AcDbArc
 50
296.4479807144538
 51
62.60636892224279
  0
ARC
  5
301B
330
2938
100
AcDbEntity
  8
1
 62
     7
100
AcDbCircle
 10
557.5725021681342
 20
518.4166231495648
 30
0.0
 40
5.199999999999873
100
AcDbArc
 50
128.3630073747869
 51
207.0657527636341
  0
ARC
  5
301C
330
2938
100
AcDbEntity
  8
1
 62
     7
100
AcDbCircle
 10
546.1520048450573
 20
477.6563343761324
 30
0.0
 40
38.98999999999997
100
AcDbArc
 50
79.971001086613
 51
84.37682500034396
  0
ARC
  5
301D
330
2938
100
AcDbEntity
  8
1
 62
     7
100
AcDbCircle
 10
546.1520048450573
 20
519.9863343761323
 30
0.0
 40
5.199999999999873
100
AcDbArc
 50
317.282073323321
 51
35.98481871216781
  0
ARC
  5
301E
330
2938
100
AcDbEntity
  8
1
 62
     7
100
AcDbCircle
 10
557.5725021681342
 20
518.4166231495648
 30
0.0
 40
5.200000000000017
100
AcDbArc
 50
301.6298994102762
 51
20.33264479912541
  0
ARC
  5
301F
330
2938
100
AcDbEntity
  8
1
 62
     7
100
AcDbCircle
 10
557.5725021681342
 20
518.4166231495648
 30
0.0
 40
4.762500000000031
100
AcDbArc
 50
280.7958068014083
 51
46.95419500919848
  0
ARC
  5
3020
330
2938
100
AcDbEntity
  8
1
 62
     7
100
AcDbCircle
 10
546.1520048450573
 20
477.6563343761324
 30
0.0
 40
38.98999999999992
100
AcDbArc
 50
64.31882717356917
 51
68.7246510873011
  0
CIRCLE
  5
3021
330
2938
100
AcDbEntity
  8
1
 62
     7
100
AcDbCircle
 10
598.1135290688079
 20
507.6563343760526
 30
0.0
 40
3.300000000000087
  0
ARC
  5
3022
330
2938
100
AcDbEntity
  8
1
 62
     7
100
AcDbCircle
 10
577.0882912129504
 20
506.5488089285782
 30
0.0
 40
5.199999999999969
100
AcDbArc
 50
97.05865954870002
 51
175.7614049375472
  0
ARC
  5
3023
330
2938
100
AcDbEntity
  8
1
 62
     7
100
AcDbCircle
 10
546.1520048450573
 20
477.6563343761324
 30
0.0
 40
38.99
100
AcDbArc
 50
48.66665326052652
 51
53.07247717425658
  0
ARC
  5
3024
330
2938
100
AcDbEntity
  8
1
 62
     7
100
AcDbCircle
 10
568.1459934500574
 20
513.8239077705854
 30
0.0
 40
5.200000000000025
100
AcDbArc
 50
285.9777254972316
 51
4.680470886081186
  0
ARC
  5
3025
330
2938
100
AcDbEntity
  8
1
 62
     7
100
AcDbCircle
 10
568.1459934500574
 20
513.8239077705854
 30
0.0
 40
4.762499999999998
100
AcDbArc
 50
265.1436328883643
 51
31.302021096154
  0
ARC
  5
3026
330
2938
100
AcDbEntity
  8
1
 62
     7
100
AcDbCircle
 10
577.0882912129504
 20
506.5488089285782
 30
0.0
 40
4.762500000000001
100
AcDbArc
 50
70.43710933862683
 51
196.5954975464184
  0
LINE
  5
3027
330
2938
100
AcDbEntity
  8
1
  6
CENTER
 62
     3
100
AcDbLine
 10
602.4003548175413
 20
510.1313343760523
 30
0.0
 11
593.8267033200754
 21
505.181334376052
 31
0.0
  0
ARC
  5
3028
330
2938
100
AcDbEntity
  8
1
 62
     7
100
AcDbCircle
 10
587.5966342766503
 20
486.2686274086504
 30
0.0
 40
5.199999999999928
100
AcDbArc
 50
239.021203758103
 51
317.7239491469521
  0
ARC
  5
3029
330
2938
100
AcDbEntity
  8
1
 62
     7
100
AcDbCircle
 10
587.5966342766503
 20
486.2686274086504
 30
0.0
 40
5.200000000000031
100
AcDbArc
 50
65.75431172261457
 51
144.4570571114613
  0
ARC
  5
302A
330
2938
100
AcDbEntity
  8
1
 62
     7
100
AcDbCircle
 10
583.7361861400299
 20
497.1308874232923
 30
0.0
 40
5.19999999999999
100
AcDbArc
 50
254.6733776711448
 51
333.3761230599944
  0
ARC
  5
302B
330
2938
100
AcDbEntity
  8
1
 62
     7
100
AcDbCircle
 10
583.7361861400299
 20
497.1308874232923
 30
0.0
 40
4.762499999999969
100
AcDbArc
 50
233.8392850622785
 51
359.9976732700679
  0
ARC
  5
302C
330
2938
100
AcDbEntity
  8
1
 62
     7
100
AcDbCircle
 10
587.5966342766503
 20
486.2686274086504
 30
0.0
 40
4.762499999999977
100
AcDbArc
 50
218.1871111492355
 51
344.3454993570259
  0
ARC
  5
302D
330
2938
100
AcDbEntity
  8
1
 62
     7
100
AcDbCircle
 10
583.7361861400299
 20
497.1308874232923
 30
0.0
 40
4.762500000000041
100
AcDbArc
 50
54.78493542558531
 51
180.9433236333721
  0
ARC
  5
302E
330
2938
100
AcDbEntity
  8
1
 62
     7
100
AcDbCircle
 10
587.5966342766503
 20
486.2686274086504
 30
0.0
 40
4.762500000000041
100
AcDbArc
 50
39.13276151254176
 51
165.2911497203271
  0
ARC
  5
302F
330
2938
100
AcDbEntity
  8
1
 62
     7
100
AcDbCircle
 10
546.1520048450573
 20
477.6563343761324
 30
0.0
 40
38.99000000000004
100
AcDbArc
 50
17.36230543443809
 51
21.76812934817005
  0
ARC
  5
3030
330
2938
100
AcDbEntity
  8
1
 62
     7
100
AcDbCircle
 10
583.7361861400299
 20
497.1308874232923
 30
0.0
 40
5.199999999999985
100
AcDbArc
 50
81.40648563565667
 51
160.1092310245062
  0
ARC
  5
3031
330
2938
100
AcDbEntity
  8
1
 62
     7
100
AcDbCircle
 10
546.1520048450573
 20
477.6563343761324
 30
0.0
 40
38.99
100
AcDbArc
 50
33.0144793474807
 51
37.42030326121204
  0
ARC
  5
3032
330
2938
100
AcDbEntity
  8
1
 62
     7
100
AcDbCircle
 10
577.0882912129504
 20
506.5488089285782
 30
0.0
 40
5.199999999999969
100
AcDbArc
 50
270.3255515841903
 51
349.0282969730391
  0
ARC
  5
3033
330
2938
100
AcDbEntity
  8
1
 62
     7
100
AcDbCircle
 10
577.0882912129504
 20
506.5488089285782
 30
0.0
 40
4.762500000000073
100
AcDbArc
 50
249.4914589753235
 51
15.64984718310959
  0
ARC
  5
3034
330
2938
100
AcDbEntity
  8
1
 62
     7
100
AcDbCircle
 10
546.1520048450573
 20
477.6563343761324
 30
0.0
 40
45.57999999999993
100
AcDbArc
 50
32.68808098550164
 51
37.74670162319297
  0
ARC
  5
3035
330
2938
100
AcDbEntity
  8
1
 62
     7
100
AcDbCircle
 10
546.1520048450573
 20
477.6563343761324
 30
0.0
 40
45.57999999999998
100
AcDbArc
 50
17.03590707245875
 51
22.09452771014866
  0
ARC
  5
3036
330
2938
100
AcDbEntity
  8
1
 62
     7
100
AcDbCircle
 10
546.1520048450573
 20
477.6563343761324
 30
0.0
 40
45.57999999999993
100
AcDbArc
 50
48.34025489854642
 51
53.39887553623867
  0
CIRCLE
  5
3037
330
2938
100
AcDbEntity
  8
1
 62
     7
100
AcDbCircle
 10
576.1520048417419
 20
529.6178586031188
 30
0.0
 40
3.300000000000183
  0
LINE
  5
3038
330
2938
100
AcDbEntity
  8
1
  6
CENTER
 62
     3
100
AcDbLine
 10
578.6270048417422
 20
533.9046843518518
 30
0.0
 11
573.6770048417419
 21
525.3310328543857
 31
0.0
  0
INSERT
  5
3042
330
2938
100
AcDbEntity
  8
AM_0
100
AcDbBlockReference
  2
HD LLC
 10
557.4394742026113
 20
216.8866451586282
 30
0.0
 41
2.0
 42
2.0
 43
2.0
  0
INSERT
  5
3048
330
2938
100
AcDbEntity
  8
AM_0
100
AcDbBlockReference
  2
HD logo-new
 10
414.6363561617368
 20
227.2322640946965
 30
0.0
 41
1.5
 42
1.5
 43
1.5
  0
INSERT
  5
3055
330
2938
100
AcDbEntity
  8
AM_0
100
AcDbBlockReference
  2
NTC
 10
34.52720559222189
 20
282.4181593988194
 30
0.0
  0
ENDSEC
  0
SECTION
  2
OBJECTS
  0
DICTIONARY
  5
2926
330
0
100
AcDbDictionary
281
     1
  3
ACAD_GROUP
350
2927
  3
ACAD_LAYOUT
350
2933
  3
ACAD_MLINESTYLE
350
2930
  3
ACAD_PLOTSETTINGS
350
2932
  3
ACAD_PLOTSTYLENAME
350
2928
  3
AcDbVariableDictionary
350
2BFF
  0
DICTIONARY
  5
2927
102
{ACAD_REACTORS
330
2926
102
}
330
2926
100
AcDbDictionary
281
     1
  0
DICTIONARY
  5
2933
102
{ACAD_REACTORS
330
2926
102
}
330
2926
100
AcDbDictionary
281
     1
  3
Layout1
350
2937
  3
Model
350
293B
  0
DICTIONARY
  5
2930
102
{ACAD_REACTORS
330
2926
102
}
330
2926
100
AcDbDictionary
281
     1
  3
Standard
350
2931
  0
DICTIONARY
  5
2932
102
{ACAD_REACTORS
330
2926
102
}
330
2926
100
AcDbDictionary
281
     1
  0
ACDBDICTIONARYWDFLT
  5
2928
102
{ACAD_REACTORS
330
2926
102
}
330
2926
100
AcDbDictionary
281
     1
  3
Normal
350
2929
100
AcDbDictionaryWithDefault
340
2929
  0
DICTIONARY
  5
2BFF
102
{ACAD_REACTORS
330
2926
102
}
330
2926
100
AcDbDictionary
281
     1
  3
DIMASSOC
350
2C00
  0
LAYOUT
  5
2937
102
{ACAD_REACTORS
330
2933
102
}
330
2933
100
AcDbPlotSettings
  1

  2
\\SERVER9\HP LaserJet 5100 PCL 5e
  4

  6

 40
0.0
 41
0.0
 42
0.0
 43
0.0
 44
0.0
 45
0.0
 46
0.0
 47
0.0
 48
0.0
 49
0.0
140
0.0
141
0.0
142
1.0
143
1.0
 70
   688
 72
     0
 73
     0
 74
     5
  7

 75
    16
147
1.0
148
0.0
149
0.0
100
AcDbLayout
  1
Layout1
 70
     1
 71
     1
 10
0.0
 20
0.0
 11
420.0
 21
297.0
 12
0.0
 22
0.0
 32
0.0
 14
1.000000000000000E+20
 24
1.000000000000000E+20
 34
1.000000000000000E+20
 15
-1.000000000000000E+20
 25
-1.000000000000000E+20
 35
-1.000000000000000E+20
146
0.0
 13
0.0
 23
0.0
 33
0.0
 16
1.0
 26
0.0
 36
0.0
 17
0.0
 27
1.0
 37
0.0
 76
     0
330
2934
  0
LAYOUT
  5
293B
102
{ACAD_REACTORS
330
2933
102
}
330
2933
100
AcDbPlotSettings
  1

  2
\\SERVER9\HP LaserJet 5100 PCL 5e
  4

  6

 40
0.0
 41
0.0
 42
0.0
 43
0.0
 44
0.0
 45
0.0
 46
0.0
 47
0.0
 48
0.0
 49
0.0
140
0.0
141
0.0
142
1.0
143
1.0
 70
  1712
 72
     0
 73
     0
 74
     0
  7

 75
     0
147
1.0
148
0.0
149
0.0
100
AcDbLayout
  1
Model
 70
     1
 71
     0
 10
0.0
 20
0.0
 11
12.0
 21
9.0
 12
0.0
 22
0.0
 32
0.0
 14
0.0
 24
0.0
 34
0.0
 15
0.0
 25
0.0
 35
0.0
146
0.0
 13
0.0
 23
0.0
 33
0.0
 16
1.0
 26
0.0
 36
0.0
 17
0.0
 27
1.0
 37
0.0
 76
     0
330
2938
  0
MLINESTYLE
  5
2931
102
{ACAD_REACTORS
330
2930
102
}
330
2930
100
AcDbMlineStyle
  2
STANDARD
 70
     0
  3

 62
   256
 51
90.0
 52
90.0
 71
     2
 49
0.5
 62
   256
  6
BYLAYER
 49
-0.5
 62
   256
  6
BYLAYER
  0
ACDBPLACEHOLDER
  5
2929
102
{ACAD_REACTORS
330
2928
102
}
330
2928
  0
DICTIONARYVAR
  5
2C00
102
{ACAD_REACTORS
330
2BFF
102
}
330
2BFF
100
DictionaryVariables
280
     0
  1
1
  0
ENDSEC
  0
EOF
