  0
SECTION
  2
HEADER
  9
$ACADVER
  1
AC1015
  9
$ACADMAINTVER
 70
    13
  9
$DWGCODEPAGE
  3
ANSI_1252
  9
$INSBASE
 10
0.0
 20
0.0
 30
0.0
  9
$EXTMIN
 10
-157.5702266301016
 20
-153.3626968955723
 30
0.0
  9
$EXTMAX
 10
789.7834328057891
 20
700.0125617266473
 30
0.0
  9
$LIMMIN
 10
0.0
 20
0.0
  9
$LIMMAX
 10
420.0
 20
297.0
  9
$ORTHOMODE
 70
     0
  9
$REGENMODE
 70
     1
  9
$FILLMODE
 70
     1
  9
$QTEXTMODE
 70
     0
  9
$MIRRTEXT
 70
     1
  9
$LTSCALE
 40
1.0
  9
$ATTMODE
 70
     1
  9
$TEXTSIZE
 40
2.5
  9
$TRACEWID
 40
1.0
  9
$TEXTSTYLE
  7
STANDARD
  9
$CLAYER
  8
AM_0
  9
$CELTYPE
  6
ByLayer
  9
$CECOLOR
 62
   256
  9
$CELTSCALE
 40
1.0
  9
$DISPSILH
 70
     0
  9
$DIMSCALE
 40
1.0
  9
$DIMASZ
 40
2.5
  9
$DIMEXO
 40
0.625
  9
$DIMDLI
 40
3.75
  9
$DIMRND
 40
0.0
  9
$DIMDLE
 40
0.0
  9
$DIMEXE
 40
1.25
  9
$DIMTP
 40
0.0
  9
$DIMTM
 40
0.0
  9
$DIMTXT
 40
2.5
  9
$DIMCEN
 40
2.5
  9
$DIMTSZ
 40
0.0
  9
$DIMTOL
 70
     0
  9
$DIMLIM
 70
     0
  9
$DIMTIH
 70
     0
  9
$DIMTOH
 70
     0
  9
$DIMSE1
 70
     0
  9
$DIMSE2
 70
     0
  9
$DIMTAD
 70
     1
  9
$DIMZIN
 70
     8
  9
$DIMBLK
  1

  9
$DIMASO
 70
     1
  9
$DIMSHO
 70
     1
  9
$DIMPOST
  1

  9
$DIMAPOST
  1

  9
$DIMALT
 70
     0
  9
$DIMALTD
 70
     3
  9
$DIMALTF
 40
0.03937007874016
  9
$DIMLFAC
 40
1.0
  9
$DIMTOFL
 70
     1
  9
$DIMTVP
 40
0.0
  9
$DIMTIX
 70
     0
  9
$DIMSOXD
 70
     0
  9
$DIMSAH
 70
     0
  9
$DIMBLK1
  1

  9
$DIMBLK2
  1

  9
$DIMSTYLE
  2
ISO-25
  9
$DIMCLRD
 70
     0
  9
$DIMCLRE
 70
     0
  9
$DIMCLRT
 70
     0
  9
$DIMTFAC
 40
1.0
  9
$DIMGAP
 40
0.625
  9
$DIMJUST
 70
     0
  9
$DIMSD1
 70
     0
  9
$DIMSD2
 70
     0
  9
$DIMTOLJ
 70
     1
  9
$DIMTZIN
 70
     0
  9
$DIMALTZ
 70
     0
  9
$DIMALTTZ
 70
     0
  9
$DIMUPT
 70
     0
  9
$DIMDEC
 70
     4
  9
$DIMTDEC
 70
     4
  9
$DIMALTU
 70
     2
  9
$DIMALTTD
 70
     2
  9
$DIMTXSTY
  7
STANDARD
  9
$DIMAUNIT
 70
     0
  9
$DIMADEC
 70
     0
  9
$DIMALTRND
 40
0.0
  9
$DIMAZIN
 70
     0
  9
$DIMDSEP
 70
    46
  9
$DIMATFIT
 70
     3
  9
$DIMFRAC
 70
     0
  9
$DIMLDRBLK
  1

  9
$DIMLUNIT
 70
     2
  9
$DIMLWD
 70
    -2
  9
$DIMLWE
 70
    -2
  9
$DIMTMOVE
 70
     0
  9
$LUNITS
 70
     2
  9
$LUPREC
 70
     2
  9
$SKETCHINC
 40
1.0
  9
$FILLETRAD
 40
2.5
  9
$AUNITS
 70
     0
  9
$AUPREC
 70
     0
  9
$MENU
  1
.
  9
$ELEVATION
 40
0.0
  9
$PELEVATION
 40
0.0
  9
$THICKNESS
 40
0.0
  9
$LIMCHECK
 70
     0
  9
$CHAMFERA
 40
2.5
  9
$CHAMFERB
 40
2.5
  9
$CHAMFERC
 40
0.0
  9
$CHAMFERD
 40
0.0
  9
$SKPOLY
 70
     0
  9
$TDCREATE
 40
2452801.923512361
  9
$TDUCREATE
 40
2452802.090179028
  9
$TDUPDATE
 40
2453865.649152199
  9
$TDUUPDATE
 40
2453865.815818865
  9
$TDINDWG
 40
0.0486472917
  9
$TDUSRTIMER
 40
0.0486465625
  9
$USRTIMER
 70
     1
  9
$ANGBASE
 50
0.0
  9
$ANGDIR
 70
     0
  9
$PDMODE
 70
     0
  9
$PDSIZE
 40
0.0
  9
$PLINEWID
 40
0.0
  9
$SPLFRAME
 70
     0
  9
$SPLINETYPE
 70
     6
  9
$SPLINESEGS
 70
     8
  9
$HANDSEED
  5
2C04
  9
$SURFTAB1
 70
     6
  9
$SURFTAB2
 70
     6
  9
$SURFTYPE
 70
     6
  9
$SURFU
 70
     6
  9
$SURFV
 70
     6
  9
$UCSBASE
  2

  9
$UCSNAME
  2

  9
$UCSORG
 10
0.0
 20
0.0
 30
0.0
  9
$UCSXDIR
 10
1.0
 20
0.0
 30
0.0
  9
$UCSYDIR
 10
0.0
 20
1.0
 30
0.0
  9
$UCSORTHOREF
  2

  9
$UCSORTHOVIEW
 70
     0
  9
$UCSORGTOP
 10
0.0
 20
0.0
 30
0.0
  9
$UCSORGBOTTOM
 10
0.0
 20
0.0
 30
0.0
  9
$UCSORGLEFT
 10
0.0
 20
0.0
 30
0.0
  9
$UCSORGRIGHT
 10
0.0
 20
0.0
 30
0.0
  9
$UCSORGFRONT
 10
0.0
 20
0.0
 30
0.0
  9
$UCSORGBACK
 10
0.0
 20
0.0
 30
0.0
  9
$PUCSBASE
  2

  9
$PUCSNAME
  2

  9
$PUCSORG
 10
0.0
 20
0.0
 30
0.0
  9
$PUCSXDIR
 10
1.0
 20
0.0
 30
0.0
  9
$PUCSYDIR
 10
0.0
 20
1.0
 30
0.0
  9
$PUCSORTHOREF
  2

  9
$PUCSORTHOVIEW
 70
     0
  9
$PUCSORGTOP
 10
0.0
 20
0.0
 30
0.0
  9
$PUCSORGBOTTOM
 10
0.0
 20
0.0
 30
0.0
  9
$PUCSORGLEFT
 10
0.0
 20
0.0
 30
0.0
  9
$PUCSORGRIGHT
 10
0.0
 20
0.0
 30
0.0
  9
$PUCSORGFRONT
 10
0.0
 20
0.0
 30
0.0
  9
$PUCSORGBACK
 10
0.0
 20
0.0
 30
0.0
  9
$USERI1
 70
     0
  9
$USERI2
 70
     0
  9
$USERI3
 70
     0
  9
$USERI4
 70
     0
  9
$USERI5
 70
     0
  9
$USERR1
 40
0.0
  9
$USERR2
 40
0.0
  9
$USERR3
 40
0.0
  9
$USERR4
 40
0.0
  9
$USERR5
 40
0.0
  9
$WORLDVIEW
 70
     1
  9
$SHADEDGE
 70
     3
  9
$SHADEDIF
 70
    70
  9
$TILEMODE
 70
     1
  9
$MAXACTVP
 70
    64
  9
$PINSBASE
 10
0.0
 20
0.0
 30
0.0
  9
$PLIMCHECK
 70
     0
  9
$PEXTMIN
 10
1.000000000000000E+20
 20
1.000000000000000E+20
 30
1.000000000000000E+20
  9
$PEXTMAX
 10
-1.000000000000000E+20
 20
-1.000000000000000E+20
 30
-1.000000000000000E+20
  9
$PLIMMIN
 10
0.0
 20
0.0
  9
$PLIMMAX
 10
420.0
 20
297.0
  9
$UNITMODE
 70
     0
  9
$VISRETAIN
 70
     1
  9
$PLINEGEN
 70
     0
  9
$PSLTSCALE
 70
     1
  9
$TREEDEPTH
 70
  3020
  9
$CMLSTYLE
  2
Standard
  9
$CMLJUST
 70
     0
  9
$CMLSCALE
 40
1.0
  9
$PROXYGRAPHICS
 70
     1
  9
$MEASUREMENT
 70
     0
  9
$CELWEIGHT
370
    -1
  9
$ENDCAPS
280
     0
  9
$JOINSTYLE
280
     0
  9
$LWDISPLAY
290
     0
  9
$INSUNITS
 70
     0
  9
$HYPERLINKBASE
  1

  9
$STYLESHEET
  1

  9
$XEDIT
290
     1
  9
$CEPSNTYPE
380
     0
  9
$PSTYLEMODE
290
     1
  9
$FINGERPRINTGUID
  2
{E630B0F0-FAFD-4B8E-B517-149BE987EBC1}
  9
$VERSIONGUID
  2
{51D7C44D-B157-4E8B-830C-9A299866C056}
  9
$EXTNAMES
290
     1
  9
$PSVPSCALE
 40
0.0
  9
$OLESTARTUP
290
     0
  0
ENDSEC
  0
SECTION
  2
CLASSES
  0
CLASS
  1
ACDBDICTIONARYWDFLT
  2
AcDbDictionaryWithDefault
  3
AutoCAD 2000
 90
        0
280
     0
281
     0
  0
CLASS
  1
ACDBPLACEHOLDER
  2
AcDbPlaceHolder
  3
AutoCAD 2000
 90
        0
280
     0
281
     0
  0
CLASS
  1
LAYOUT
  2
AcDbLayout
  3
AutoCAD 2000
 90
        0
280
     0
281
     0
  0
CLASS
  1
DICTIONARYVAR
  2
AcDbDictionaryVar
  3
AutoCAD 2000
 90
        0
280
     0
281
     0
  0
ENDSEC
  0
SECTION
  2
TABLES
  0
TABLE
  2
VPORT
  5
241B
330
0
100
AcDbSymbolTable
 70
     3
  0
VPORT
  5
2C03
330
241B
100
AcDbSymbolTableRecord
100
AcDbViewportTableRecord
  2
*Active
 70
     0
 10
0.0
 20
0.0
 11
1.0
 21
1.0
 12
439.2667399119205
 22
479.9802122807379
 13
0.0
 23
0.0
 14
2.5
 24
2.5
 15
10.0
 25
10.0
 16
0.0
 26
0.0
 36
1.0
 17
0.0
 27
0.0
 37
0.0
 40
671.1139079173092
 41
1.182835820895522
 42
50.0
 43
0.0
 44
0.0
 50
0.0
 51
0.0
 71
     0
 72
   100
 73
     1
 74
     3
 75
     0
 76
     0
 77
     0
 78
     0
281
     0
 65
     1
110
0.0
120
0.0
130
0.0
111
1.0
121
0.0
131
0.0
112
0.0
122
1.0
132
0.0
 79
     0
146
0.0
  0
ENDTAB
  0
TABLE
  2
LTYPE
  5
2418
330
0
100
AcDbSymbolTable
 70
     5
  0
LTYPE
  5
2426
330
2418
100
AcDbSymbolTableRecord
100
AcDbLinetypeTableRecord
  2
ByBlock
 70
     0
  3

 72
    65
 73
     0
 40
0.0
  0
LTYPE
  5
2427
330
2418
100
AcDbSymbolTableRecord
100
AcDbLinetypeTableRecord
  2
ByLayer
 70
     0
  3

 72
    65
 73
     0
 40
0.0
  0
LTYPE
  5
2428
330
2418
100
AcDbSymbolTableRecord
100
AcDbLinetypeTableRecord
  2
CONTINUOUS
 70
     0
  3
Solid line
 72
    65
 73
     0
 40
0.0
  0
LTYPE
  5
2437
330
2418
100
AcDbSymbolTableRecord
100
AcDbLinetypeTableRecord
  2
CENTER
 70
     0
  3
Center ____ _ ____ _ ____ _ ____ _ ____ _ ____
 72
    65
 73
     4
 40
50.8
 49
31.75
 74
     0
 49
-6.349999999999997
 74
     0
 49
6.349999999999997
 74
     0
 49
-6.349999999999997
 74
     0
  0
LTYPE
  5
2438
330
2418
100
AcDbSymbolTableRecord
100
AcDbLinetypeTableRecord
  2
DASHDOT
 70
     0
  3
__ . __ . __ .
 72
    65
 73
     4
 40
14.76099670947259
 49
7.380498354736293
 74
     0
 49
-3.690249177368143
 74
     0
 49
0.0
 74
     0
 49
-3.690249177368143
 74
     0
  0
LTYPE
  5
2439
330
2418
100
AcDbSymbolTableRecord
100
AcDbLinetypeTableRecord
  2
DIVIDE
 70
     0
  3
__ . . __ . . 
 72
    65
 73
     6
 40
18.45124588684069
 49
7.380498354736293
 74
     0
 49
-3.690249177368143
 74
     0
 49
0.0
 74
     0
 49
-3.690249177368143
 74
     0
 49
0.0
 74
     0
 49
-3.690249177368143
 74
     0
  0
LTYPE
  5
243A
330
2418
100
AcDbSymbolTableRecord
100
AcDbLinetypeTableRecord
  2
PHANTOM
 70
     0
  3
_____ _ _ _____ _ _ 
 72
    65
 73
     6
 40
36.90249177368145
 49
18.45124588684069
 74
     0
 49
-3.690249177368143
 74
     0
 49
3.690249177368143
 74
     0
 49
-3.690249177368143
 74
     0
 49
3.690249177368143
 74
     0
 49
-3.690249177368143
 74
     0
  0
ENDTAB
  0
TABLE
  2
LAYER
  5
2415
330
0
100
AcDbSymbolTable
 70
     4
  0
LAYER
  5
2423
330
2415
100
AcDbSymbolTableRecord
100
AcDbLayerTableRecord
  2
0
 70
     0
 62
     7
  6
CONTINUOUS
370
    -3
390
2422
  0
LAYER
  5
2435
330
2415
100
AcDbSymbolTableRecord
100
AcDbLayerTableRecord
  2
AM_0
 70
     0
 62
     7
  6
CONTINUOUS
370
    -3
390
2422
  0
LAYER
  5
243B
330
2415
100
AcDbSymbolTableRecord
100
AcDbLayerTableRecord
  2
1
 70
     0
 62
     7
  6
CONTINUOUS
370
    -3
390
2422
  0
LAYER
  5
2722
330
2415
100
AcDbSymbolTableRecord
100
AcDbLayerTableRecord
  2
LAYER_1
 70
     0
 62
     5
  6
CONTINUOUS
370
    -3
390
2422
  0
ENDTAB
  0
TABLE
  2
STYLE
  5
2416
330
0
100
AcDbSymbolTable
 70
     1
  0
STYLE
  5
2424
330
2416
100
AcDbSymbolTableRecord
100
AcDbTextStyleTableRecord
  2
STANDARD
 70
     0
 40
0.0
 41
1.0
 50
0.0
 71
     0
 42
2.5
  3
ISOCP.SHX
  4

  0
ENDTAB
  0
TABLE
  2
VIEW
  5
2419
330
0
100
AcDbSymbolTable
 70
     0
  0
ENDTAB
  0
TABLE
  2
UCS
  5
241A
330
0
100
AcDbSymbolTable
 70
     0
  0
ENDTAB
  0
TABLE
  2
APPID
  5
241C
330
0
100
AcDbSymbolTable
 70
    13
  0
APPID
  5
2425
330
241C
100
AcDbSymbolTableRecord
100
AcDbRegAppTableRecord
  2
ACAD
 70
     0
  0
APPID
  5
243C
330
241C
100
AcDbSymbolTableRecord
100
AcDbRegAppTableRecord
  2
GENIUS_GENDIM_13
 70
     0
  0
APPID
  5
243D
330
241C
100
AcDbSymbolTableRecord
100
AcDbRegAppTableRecord
  2
GENIUS_GENDTOL_13
 70
     0
  0
APPID
  5
243E
330
241C
100
AcDbSymbolTableRecord
100
AcDbRegAppTableRecord
  2
GENIUS_GE3DTOL_13
 70
     0
  0
APPID
  5
243F
330
241C
100
AcDbSymbolTableRecord
100
AcDbRegAppTableRecord
  2
MCAD_NO_VIS
 70
     0
  0
APPID
  5
2440
330
241C
100
AcDbSymbolTableRecord
100
AcDbRegAppTableRecord
  2
ACAD_TEMP_GRAPHIC
 70
     0
  0
APPID
  5
2441
330
241C
100
AcDbSymbolTableRecord
100
AcDbRegAppTableRecord
  2
AD_DRAW
 70
     0
  0
APPID
  5
2442
330
241C
100
AcDbSymbolTableRecord
100
AcDbRegAppTableRecord
  2
ACATTRIBSERVICES
 70
     0
  0
APPID
  5
2443
330
241C
100
AcDbSymbolTableRecord
100
AcDbRegAppTableRecord
  2
ASURF_PCURVE_APPNAME
 70
     0
  0
APPID
  5
2444
330
241C
100
AcDbSymbolTableRecord
100
AcDbRegAppTableRecord
  2
DESIGNERASSEMBLIES
 70
     0
  0
APPID
  5
2445
330
241C
100
AcDbSymbolTableRecord
100
AcDbRegAppTableRecord
  2
ACADM_DIM_EDIT
 70
     0
  0
APPID
  5
2446
330
241C
100
AcDbSymbolTableRecord
100
AcDbRegAppTableRecord
  2
G3V_ENTHND
 70
     0
  0
APPID
  5
2447
330
241C
100
AcDbSymbolTableRecord
100
AcDbRegAppTableRecord
  2
GENIUS_GENDIMSH_14
 70
     0
  0
ENDTAB
  0
TABLE
  2
DIMSTYLE
  5
241D
330
0
100
AcDbSymbolTable
 70
     2
100
AcDbDimStyleTable
 71
     0
  0
DIMSTYLE
105
2448
330
241D
100
AcDbSymbolTableRecord
100
AcDbDimStyleTableRecord
  2
ISO-25
 70
     0
 41
2.5
 42
0.625
 43
3.75
 44
1.25
 73
     0
 74
     0
 77
     1
 78
     8
140
2.5
141
2.5
143
0.03937007874016
147
0.625
171
     3
172
     1
271
     2
272
     2
274
     3
279
     2
284
     8
285
     8
286
     8
340
2424
  0
DIMSTYLE
105
2723
330
241D
100
AcDbSymbolTableRecord
100
AcDbDimStyleTableRecord
  2
Standard
 70
     0
340
2424
  0
ENDTAB
  0
TABLE
  2
BLOCK_RECORD
  5
2414
330
0
100
AcDbSymbolTable
 70
    25
  0
BLOCK_RECORD
  5
2431
330
2414
100
AcDbSymbolTableRecord
100
AcDbBlockTableRecord
  2
*Model_Space
340
2434
  0
BLOCK_RECORD
  5
242D
330
2414
100
AcDbSymbolTableRecord
100
AcDbBlockTableRecord
  2
*Paper_Space
340
2430
  0
BLOCK_RECORD
  5
244A
330
2414
100
AcDbSymbolTableRecord
100
AcDbBlockTableRecord
  2
$MODEL_SPACE
340
0
  0
BLOCK_RECORD
  5
244D
330
2414
100
AcDbSymbolTableRecord
100
AcDbBlockTableRecord
  2
$PAPER_SPACE
340
0
  0
BLOCK_RECORD
  5
26B6
330
2414
100
AcDbSymbolTableRecord
100
AcDbBlockTableRecord
  2
AI9-BLK14
340
0
310
2800000020000000200000000100080000000000000400000000000000000000000000000000000000000000000080000080000000808000800000008000800080800000C0C0C000C0DCC000F0CAA6000020400000206000002080000020A0000020C0000020E00000400000004020000040400000406000004080000040A0
310
000040C0000040E00000600000006020000060400000606000006080000060A0000060C0000060E00000800000008020000080400000806000008080000080A0000080C0000080E00000A0000000A0200000A0400000A0600000A0800000A0A00000A0C00000A0E00000C0000000C0200000C0400000C0600000C0800000C0
310
A00000C0C00000C0E00000E0000000E0200000E0400000E0600000E0800000E0A00000E0C00000E0E00040000000400020004000400040006000400080004000A0004000C0004000E00040200000402020004020400040206000402080004020A0004020C0004020E000404000004040200040404000404060004040800040
310
40A0004040C0004040E00040600000406020004060400040606000406080004060A0004060C0004060E00040800000408020004080400040806000408080004080A0004080C0004080E00040A0000040A0200040A0400040A0600040A0800040A0A00040A0C00040A0E00040C0000040C0200040C0400040C0600040C08000
310
40C0A00040C0C00040C0E00040E0000040E0200040E0400040E0600040E0800040E0A00040E0C00040E0E00080000000800020008000400080006000800080008000A0008000C0008000E00080200000802020008020400080206000802080008020A0008020C0008020E00080400000804020008040400080406000804080
310
008040A0008040C0008040E00080600000806020008060400080606000806080008060A0008060C0008060E00080800000808020008080400080806000808080008080A0008080C0008080E00080A0000080A0200080A0400080A0600080A0800080A0A00080A0C00080A0E00080C0000080C0200080C0400080C0600080C0
310
800080C0A00080C0C00080C0E00080E0000080E0200080E0400080E0600080E0800080E0A00080E0C00080E0E000C0000000C0002000C0004000C0006000C0008000C000A000C000C000C000E000C0200000C0202000C0204000C0206000C0208000C020A000C020C000C020E000C0400000C0402000C0404000C0406000C0
310
408000C040A000C040C000C040E000C0600000C0602000C0604000C0606000C0608000C060A000C060C000C060E000C0800000C0802000C0804000C0806000C0808000C080A000C080C000C080E000C0A00000C0A02000C0A04000C0A06000C0A08000C0A0A000C0A0C000C0A0E000C0C00000C0C02000C0C04000C0C06000
310
C0C08000C0C0A000F0FBFF00A4A0A000808080000000FF0000FF000000FFFF00FF000000FF00FF00FFFF0000FFFFFF00FF00FFFFFFFF00FFFFFFFFFFFFFFFFFFFFFFFFFFFFFFFFFFFFFFFFFFFFFFFFFFFF00FFFFFFFF00FFFFFFFFFFFFFFFFFFFFFFFFFFFFFFFFFFFFFFFFFFFFFFFFFFFF00FFFFFFFF00FFFFFFFFFFFFFFFF
310
FFFFFFFFFFFFFFFFFFFFFFFFFFFFFFFFFFFF00FFFFFFFF00FFFFFFFFFFFFFFFFFFFFFFFFFFFFFFFFFFFFFFFFFFFFFFFFFFFF00FFFFFFFF00FFFFFFFFFFFFFFFFFFFFFFFFFFFFFFFFFFFFFFFFFFFFFFFFFFFF00FFFFFFFF00FFFFFFFFFFFFFFFFFFFFFFFFFFFFFFFFFFFFFFFFFFFFFFFFFFFF00FFFFFFFF00FFFFFFFFFFFFFF
310
FFFFFFFFFFFFFFFFFFFFFFFFFFFFFFFFFFFFFF00FFFFFFFF00FFFFFFFFFFFFFFFFFFFFFFFFFFFFFFFFFFFFFFFFFFFFFFFFFFFF00FFFFFFFF00FFFFFFFFFFFFFFFFFFFFFFFFFFFFFFFFFFFFFFFFFFFFFFFFFFFF00FFFFFFFF00FFFFFFFFFFFFFFFFFFFFFFFFFFFFFFFFFFFFFFFFFFFFFFFFFFFF00FFFFFFFF00FFFFFFFFFFFF
310
FFFFFFFFFFFFFFFFFFFFFFFFFFFFFFFFFFFFFFFF00FFFFFFFF00FFFFFFFFFFFFFFFFFFFFFFFFFFFFFFFFFFFFFFFFFFFFFFFFFFFF00FFFFFFFF00FFFFFFFFFFFFFFFFFFFFFFFFFFFFFFFFFFFFFFFFFFFFFFFFFFFF00FFFFFFFF0000000000000000000000000000000000000000000000000000FF00FFFFFFFFFFFFFFFFFFFF
310
FFFFFFFFFFFFFFFFFFFFFFFFFFFFFFFFFFFFFFFFFF00FFFFFFFFFFFFFFFFFFFFFFFFFFFFFFFFFFFFFFFFFFFFFFFFFFFFFFFFFFFFFF00FFFFFFFFFFFFFFFFFFFFFFFFFFFFFFFFFFFFFFFFFFFFFFFFFFFFFFFFFFFFFF00FFFFFFFFFFFFFFFFFFFFFFFFFFFFFFFFFFFFFFFFFFFFFFFFFFFFFFFFFF00FF00000000000000000000
310
0000000000000000000000000000000000000000FFFFFFFFFFFFFFFFFFFFFFFFFFFFFFFFFFFFFFFFFFFFFFFFFFFFFFFFFFFFFFFFFFFFFFFFFFFFFFFFFFFFFFFFFFFFFFFFFFFFFFFFFFFFFFFFFFFFFFFFFFFFFFFFFFFFFFFFFFFFFFFFFFFFFFFFFFFFFFFFFFFFFFFFFFFFFFFFFFFFFFFFFFFFFFFFFFFFFFFFFFFFFFFFFFFFFF
310
FFFFFFFFFFFFFFFFFFFFFFFFFFFFFFFFFFFFFFFFFFFFFFFFFFFFFFFFFFFFFFFFFFFFFFFFFFFFFFFFFFFFFFFFFFFFFFFFFFFFFFFFFFFFFFFFFFFFFFFFFFFFFFFFFFFFFFFFFFFFFFFFFFFFFFFFFFFFFFFFFFFFFFFFFFFFFFFFFFFFFFFFFFFFFFFFFFFFFFFFFFFFFFFFFFFFFFFFFFFFFFFFFFFFFFFFFFFFFFFFFFFFFFFFFFFFFF
310
FFFFFFFFFFFFFFFFFFFFFFFFFFFFFFFFFFFFFFFFFFFFFFFFFFFFFFFFFFFFFFFFFFFFFFFFFFFFFFFFFFFFFFFFFFFFFFFFFFFFFFFFFFFFFFFFFFFFFFFFFFFFFFFFFFFFFFFFFFFFFFFFFFFFFFFFFFFFFFFFFFFFFFFFFFFFFFFFFFFFFFFFFFFFFFFFFFFFFFFFFFFFFFFFFFFFFFFFFFFFFFFFFFFFFFFFFFFFFFFFFFFFFFFFFFFFFF
310
FFFFFFFFFFFFFFFFFFFFFFFFFFFFFFFFFFFFFFFFFFFFFFFFFFFFFFFFFFFFFFFFFFFFFFFFFFFFFFFFFFFFFFFFFFFFFFFFFFFFFFFFFFFFFFFF
102
{BLKREFS
331
26F7
102
}
  0
BLOCK_RECORD
  5
26BB
330
2414
100
AcDbSymbolTableRecord
100
AcDbBlockTableRecord
  2
AI9-BLK13
340
0
310
2800000020000000200000000100080000000000000400000000000000000000000000000000000000000000000080000080000000808000800000008000800080800000C0C0C000C0DCC000F0CAA6000020400000206000002080000020A0000020C0000020E00000400000004020000040400000406000004080000040A0
310
000040C0000040E00000600000006020000060400000606000006080000060A0000060C0000060E00000800000008020000080400000806000008080000080A0000080C0000080E00000A0000000A0200000A0400000A0600000A0800000A0A00000A0C00000A0E00000C0000000C0200000C0400000C0600000C0800000C0
310
A00000C0C00000C0E00000E0000000E0200000E0400000E0600000E0800000E0A00000E0C00000E0E00040000000400020004000400040006000400080004000A0004000C0004000E00040200000402020004020400040206000402080004020A0004020C0004020E000404000004040200040404000404060004040800040
310
40A0004040C0004040E00040600000406020004060400040606000406080004060A0004060C0004060E00040800000408020004080400040806000408080004080A0004080C0004080E00040A0000040A0200040A0400040A0600040A0800040A0A00040A0C00040A0E00040C0000040C0200040C0400040C0600040C08000
310
40C0A00040C0C00040C0E00040E0000040E0200040E0400040E0600040E0800040E0A00040E0C00040E0E00080000000800020008000400080006000800080008000A0008000C0008000E00080200000802020008020400080206000802080008020A0008020C0008020E00080400000804020008040400080406000804080
310
008040A0008040C0008040E00080600000806020008060400080606000806080008060A0008060C0008060E00080800000808020008080400080806000808080008080A0008080C0008080E00080A0000080A0200080A0400080A0600080A0800080A0A00080A0C00080A0E00080C0000080C0200080C0400080C0600080C0
310
800080C0A00080C0C00080C0E00080E0000080E0200080E0400080E0600080E0800080E0A00080E0C00080E0E000C0000000C0002000C0004000C0006000C0008000C000A000C000C000C000E000C0200000C0202000C0204000C0206000C0208000C020A000C020C000C020E000C0400000C0402000C0404000C0406000C0
310
408000C040A000C040C000C040E000C0600000C0602000C0604000C0606000C0608000C060A000C060C000C060E000C0800000C0802000C0804000C0806000C0808000C080A000C080C000C080E000C0A00000C0A02000C0A04000C0A06000C0A08000C0A0A000C0A0C000C0A0E000C0C00000C0C02000C0C04000C0C06000
310
C0C08000C0C0A000F0FBFF00A4A0A000808080000000FF0000FF000000FFFF00FF000000FF00FF00FFFF0000FFFFFF00FFFFFFFFFFFFFFFFFFFFFFFFFFFFFFFFFFFFFFFFFFFFFFFFFFFFFFFFFFFFFFFFFFFFFFFFFFFFFFFFFFFFFF0000FFFFFFFFFFFF0000FFFFFFFFFFFFFFFFFFFFFFFFFFFFFFFFFFFFFFFFFFFF0000FFFF
310
FFFFFFFF0000FFFFFFFFFFFFFFFFFFFFFFFFFFFFFFFFFFFFFFFFFFFF0000FFFFFFFFFFFF0000FFFFFFFFFFFFFFFFFFFFFFFFFFFFFFFFFFFFFFFFFFFF0000FFFFFFFFFFFF0000FFFFFFFFFFFFFFFFFFFFFFFFFFFFFFFFFFFFFFFFFFFF0000FFFFFFFFFFFF0000FFFFFFFFFFFFFFFFFFFFFFFFFFFFFFFFFFFFFFFFFFFF0000FF
310
FFFFFFFFFF0000FFFFFFFFFFFFFFFFFFFFFFFFFFFFFFFFFFFFFFFFFFFF0000FFFFFFFFFFFF0000FFFFFFFFFFFFFFFFFFFFFFFFFFFFFFFFFFFFFFFFFFFF0000FFFFFFFFFFFF0000FFFFFFFFFFFFFFFFFFFFFFFFFFFFFFFFFFFFFFFFFFFF0000FFFFFFFFFFFF0000FFFFFFFFFFFFFFFFFFFFFFFFFFFFFFFFFFFFFFFFFFFF0000
310
FFFFFFFFFFFF0000FFFFFFFFFFFFFFFFFFFFFFFFFFFFFFFFFFFFFFFFFFFF0000FFFFFFFFFFFF0000FFFFFFFFFFFFFFFFFFFFFFFFFFFFFFFFFFFFFFFFFFFF0000FFFFFFFFFFFF0000FFFFFFFFFFFFFFFFFFFFFFFFFFFFFFFFFFFFFFFFFFFF0000FFFFFFFFFFFF0000FFFFFFFFFFFFFFFFFFFFFFFFFFFFFFFFFFFFFFFFFFFF00
310
00FFFFFFFFFFFF0000FFFFFFFFFFFFFFFFFFFFFFFFFFFFFFFFFFFFFFFFFFFF00000000000000000000FFFFFFFFFFFFFFFFFFFFFFFFFFFFFFFFFFFFFFFFFFFF00FFFFFFFFFFFFFFFF00FFFFFFFFFFFFFFFFFFFFFFFFFFFFFFFFFFFFFFFFFFFF00FFFFFFFFFFFFFFFF00FFFFFFFFFFFFFFFFFFFFFFFFFFFFFFFFFFFFFFFFFFFF
310
00000000000000000000FFFFFFFFFFFFFFFFFFFFFFFFFFFFFFFFFFFFFFFFFFFF0000FFFFFFFFFFFF0000FFFFFFFFFFFFFFFFFFFFFFFFFFFFFFFFFFFFFFFFFFFF0000FFFFFFFFFFFF0000FFFFFFFFFFFFFFFFFFFFFFFFFFFFFFFFFFFFFFFFFFFF0000FFFFFFFFFFFF0000FFFFFFFFFFFFFFFFFFFFFFFFFFFFFFFFFFFFFFFFFF
310
FF0000FFFFFFFFFFFF0000FFFFFFFFFFFFFFFFFFFFFFFFFFFFFFFFFFFFFFFFFFFF0000FFFFFFFFFFFF0000FFFFFFFFFFFFFFFFFFFFFFFFFFFFFFFFFFFFFFFFFFFF0000FFFFFFFFFFFF0000FFFFFFFFFFFFFFFFFFFFFFFFFFFFFFFFFFFFFFFFFFFF0000FFFFFFFFFFFF0000FFFFFFFFFFFFFFFFFFFFFFFFFFFFFFFFFFFFFFFF
310
FFFF0000FFFFFFFFFFFF0000FFFFFFFFFFFFFFFFFFFFFFFFFFFFFFFFFFFFFFFFFFFF0000FFFFFFFFFFFF0000FFFFFFFFFFFFFFFFFFFFFFFFFFFFFFFFFFFFFFFFFFFF0000FFFFFFFFFFFF0000FFFFFFFFFFFFFFFFFFFFFFFFFFFFFFFFFFFFFFFFFFFF0000FFFFFFFFFFFF0000FFFFFFFFFFFFFFFFFFFFFFFFFFFFFFFFFFFFFF
310
FFFFFF0000FFFFFFFFFFFF0000FFFFFFFFFFFFFFFFFFFFFFFFFFFFFFFFFFFFFFFFFFFFFFFFFFFFFFFFFFFFFFFFFFFFFFFFFFFFFFFFFFFFFF
102
{BLKREFS
331
26F8
102
}
  0
BLOCK_RECORD
  5
26C0
330
2414
100
AcDbSymbolTableRecord
100
AcDbBlockTableRecord
  2
AI9-BLK11
340
0
310
2800000020000000200000000100080000000000000400000000000000000000000000000000000000000000000080000080000000808000800000008000800080800000C0C0C000C0DCC000F0CAA6000020400000206000002080000020A0000020C0000020E00000400000004020000040400000406000004080000040A0
310
000040C0000040E00000600000006020000060400000606000006080000060A0000060C0000060E00000800000008020000080400000806000008080000080A0000080C0000080E00000A0000000A0200000A0400000A0600000A0800000A0A00000A0C00000A0E00000C0000000C0200000C0400000C0600000C0800000C0
310
A00000C0C00000C0E00000E0000000E0200000E0400000E0600000E0800000E0A00000E0C00000E0E00040000000400020004000400040006000400080004000A0004000C0004000E00040200000402020004020400040206000402080004020A0004020C0004020E000404000004040200040404000404060004040800040
310
40A0004040C0004040E00040600000406020004060400040606000406080004060A0004060C0004060E00040800000408020004080400040806000408080004080A0004080C0004080E00040A0000040A0200040A0400040A0600040A0800040A0A00040A0C00040A0E00040C0000040C0200040C0400040C0600040C08000
310
40C0A00040C0C00040C0E00040E0000040E0200040E0400040E0600040E0800040E0A00040E0C00040E0E00080000000800020008000400080006000800080008000A0008000C0008000E00080200000802020008020400080206000802080008020A0008020C0008020E00080400000804020008040400080406000804080
310
008040A0008040C0008040E00080600000806020008060400080606000806080008060A0008060C0008060E00080800000808020008080400080806000808080008080A0008080C0008080E00080A0000080A0200080A0400080A0600080A0800080A0A00080A0C00080A0E00080C0000080C0200080C0400080C0600080C0
310
800080C0A00080C0C00080C0E00080E0000080E0200080E0400080E0600080E0800080E0A00080E0C00080E0E000C0000000C0002000C0004000C0006000C0008000C000A000C000C000C000E000C0200000C0202000C0204000C0206000C0208000C020A000C020C000C020E000C0400000C0402000C0404000C0406000C0
310
408000C040A000C040C000C040E000C0600000C0602000C0604000C0606000C0608000C060A000C060C000C060E000C0800000C0802000C0804000C0806000C0808000C080A000C080C000C080E000C0A00000C0A02000C0A04000C0A06000C0A08000C0A0A000C0A0C000C0A0E000C0C00000C0C02000C0C04000C0C06000
310
C0C08000C0C0A000F0FBFF00A4A0A000808080000000FF0000FF000000FFFF00FF000000FF00FF00FFFF0000FFFFFF00FFFFFFFFFFFFFFFFFFFFFFFFFFFFFFFFFFFFFFFFFFFFFFFFFFFFFFFFFFFFFFFFFFFFFFFFFFFFFFFFFFFFFFFFFFFF00000000FFFFFFFFFFFFFFFFFFFFFF000000FFFFFFFFFFFFFFFFFFFFFFFFFFFF00
310
FFFF00FFFFFFFFFFFFFFFFFFFFFF00FFFFFFFFFFFFFFFFFFFFFFFFFFFFFFFF00FFFF00FFFFFFFFFFFFFFFFFFFFFF00FFFFFFFFFFFFFFFFFFFFFFFFFFFFFFFF00FFFF00FFFFFFFFFFFFFFFFFFFFFF00FFFFFFFFFFFFFFFFFFFFFFFFFFFFFFFF00FFFF00FFFFFFFFFFFFFFFFFFFFFF00FFFFFFFFFFFFFFFFFFFFFFFFFFFFFFFF
310
00FFFF00FFFFFFFFFFFFFFFFFFFFFF00FFFFFFFFFFFFFFFFFFFFFFFFFFFFFFFF00FFFF00FFFFFFFFFFFFFFFFFFFFFF00FFFFFFFFFFFFFFFFFFFFFFFFFFFFFFFF00FFFF00FFFFFFFFFFFFFFFFFFFFFF00FFFFFFFFFFFFFFFFFFFFFFFFFFFFFFFF00FFFF00FFFFFFFFFFFFFFFFFFFFFF00FFFFFFFFFFFFFFFFFFFFFFFFFFFFFF
310
FF00FFFF00FFFFFFFFFFFFFFFFFFFFFF00FFFFFFFFFFFFFFFFFFFFFFFFFFFFFFFF00FFFF00FFFFFFFFFFFFFFFFFFFFFF00FFFFFFFFFFFFFFFFFFFFFFFFFFFFFFFF00FFFF00FFFFFFFFFFFFFFFFFFFFFF00FFFFFFFFFFFFFFFFFFFFFFFFFFFFFFFF00FFFF00FFFFFFFFFFFFFFFFFFFFFF00FFFFFFFFFFFFFFFFFFFFFFFFFFFF
310
FFFF00FFFF00FFFFFFFFFFFFFFFFFFFFFF00FFFFFFFFFFFFFFFFFFFFFFFFFFFFFFFF00FFFF00FFFFFFFFFFFFFFFFFFFFFF00FFFFFFFFFFFFFFFFFFFFFFFFFFFFFFFF00FFFF00FFFFFFFFFFFFFFFFFFFFFF00FFFFFFFFFFFFFFFFFFFFFFFFFFFFFFFF00FFFF00FFFFFFFFFFFFFFFFFFFF00FFFFFFFFFFFFFFFFFFFFFFFFFFFF
310
FFFFFF00FFFF00FFFFFFFFFFFFFFFFFFFF00FFFFFFFFFFFFFFFFFFFFFFFFFFFFFFFFFF00FFFF00FFFFFFFFFFFFFFFFFFFF00FFFFFFFFFFFFFFFFFFFFFFFFFFFFFFFFFF00FFFF00FFFFFFFFFFFFFFFFFFFF00FFFFFFFFFFFFFFFFFFFFFFFFFFFFFFFFFF00FFFF00FFFFFFFFFFFFFFFFFFFF00FFFFFFFFFFFFFFFFFFFFFFFFFF
310
FFFFFFFF00FFFF00FFFFFFFFFFFFFFFFFF0000FFFF00FFFFFFFFFFFFFFFFFFFFFFFFFFFF00FFFF00FFFFFFFFFFFFFFFF0000FFFFFF00FFFFFFFFFFFFFFFFFFFFFFFFFFFF00FFFF00000000000000000000FFFFFFFF00FFFFFFFFFFFFFFFFFFFFFFFFFFFF00FFFFFFFFFFFFFFFFFFFFFFFFFFFFFF00FFFFFFFFFFFFFFFFFFFF
310
FFFFFFFFFF00FFFFFFFFFFFFFFFFFFFFFFFFFFFF00FFFFFFFFFFFFFFFFFFFFFFFFFFFFFFFF00FFFFFFFFFFFFFFFFFFFFFFFFFFFF00FFFFFFFFFFFFFFFFFFFFFFFFFFFFFFFF00FFFFFFFFFFFFFFFFFFFFFFFFFFFFFF00FFFFFFFFFFFFFFFFFFFFFFFFFFFFFF00FFFFFFFFFFFFFFFFFFFFFFFFFFFFFF00FFFFFFFFFFFFFFFFFF
310
FFFFFFFFFFFF00FFFF00000000000000000000FFFFFFFF00FFFFFFFFFFFFFFFFFFFFFFFFFFFF00FFFF00FFFFFFFFFFFFFFFFFF0000FFFF00
102
{BLKREFS
331
26F9
102
}
  0
BLOCK_RECORD
  5
26C5
330
2414
100
AcDbSymbolTableRecord
100
AcDbBlockTableRecord
  2
AI9-BLK10
340
0
310
2800000020000000200000000100080000000000000400000000000000000000000000000000000000000000000080000080000000808000800000008000800080800000C0C0C000C0DCC000F0CAA6000020400000206000002080000020A0000020C0000020E00000400000004020000040400000406000004080000040A0
310
000040C0000040E00000600000006020000060400000606000006080000060A0000060C0000060E00000800000008020000080400000806000008080000080A0000080C0000080E00000A0000000A0200000A0400000A0600000A0800000A0A00000A0C00000A0E00000C0000000C0200000C0400000C0600000C0800000C0
310
A00000C0C00000C0E00000E0000000E0200000E0400000E0600000E0800000E0A00000E0C00000E0E00040000000400020004000400040006000400080004000A0004000C0004000E00040200000402020004020400040206000402080004020A0004020C0004020E000404000004040200040404000404060004040800040
310
40A0004040C0004040E00040600000406020004060400040606000406080004060A0004060C0004060E00040800000408020004080400040806000408080004080A0004080C0004080E00040A0000040A0200040A0400040A0600040A0800040A0A00040A0C00040A0E00040C0000040C0200040C0400040C0600040C08000
310
40C0A00040C0C00040C0E00040E0000040E0200040E0400040E0600040E0800040E0A00040E0C00040E0E00080000000800020008000400080006000800080008000A0008000C0008000E00080200000802020008020400080206000802080008020A0008020C0008020E00080400000804020008040400080406000804080
310
008040A0008040C0008040E00080600000806020008060400080606000806080008060A0008060C0008060E00080800000808020008080400080806000808080008080A0008080C0008080E00080A0000080A0200080A0400080A0600080A0800080A0A00080A0C00080A0E00080C0000080C0200080C0400080C0600080C0
310
800080C0A00080C0C00080C0E00080E0000080E0200080E0400080E0600080E0800080E0A00080E0C00080E0E000C0000000C0002000C0004000C0006000C0008000C000A000C000C000C000E000C0200000C0202000C0204000C0206000C0208000C020A000C020C000C020E000C0400000C0402000C0404000C0406000C0
310
408000C040A000C040C000C040E000C0600000C0602000C0604000C0606000C0608000C060A000C060C000C060E000C0800000C0802000C0804000C0806000C0808000C080A000C080C000C080E000C0A00000C0A02000C0A04000C0A06000C0A08000C0A0A000C0A0C000C0A0E000C0C00000C0C02000C0C04000C0C06000
310
C0C08000C0C0A000F0FBFF00A4A0A000808080000000FF0000FF000000FFFF00FF000000FF00FF00FFFF0000FFFFFF00FFFFFFFFFFFFFFFFFFFFFFFFFFFFFFFF00FFFFFFFFFFFFFFFFFFFFFFFF00FFFFFFFFFFFFFFFFFFFFFFFFFFFFFFFFFFFF00FFFFFFFFFFFFFFFFFFFFFF00FFFFFFFFFFFFFFFFFFFFFFFFFFFFFFFFFFFF
310
FF00FFFFFFFFFFFFFFFFFFFFFF00FFFFFFFFFFFFFFFFFFFFFFFFFFFFFFFFFFFFFF00FFFFFFFFFFFFFFFFFFFFFF00FFFFFFFFFFFFFFFFFFFFFFFFFFFFFFFFFFFFFF00FFFFFFFFFFFFFFFFFFFFFF00FFFFFFFFFFFFFFFFFFFFFFFFFFFFFFFFFFFFFF00FFFFFFFFFFFFFFFFFFFFFF00FFFFFFFFFFFFFFFFFFFFFFFFFFFFFFFFFF
310
FFFF00FFFFFFFFFFFFFFFFFFFFFF00FFFFFFFFFFFFFFFFFFFFFFFFFFFFFFFFFFFFFF00FFFFFFFFFFFFFFFFFFFF00FFFFFFFFFFFFFFFFFFFFFFFFFFFFFFFFFFFFFFFF00FFFFFFFFFFFFFFFFFFFF00FFFFFFFFFFFFFFFFFFFFFFFFFFFFFFFFFFFFFFFF00FFFFFFFFFFFFFFFFFFFF00FFFFFFFFFFFFFFFFFFFFFFFFFFFFFFFFFF
310
FFFFFF00FFFFFFFFFFFFFFFFFFFF00FFFFFFFFFFFFFFFFFFFFFFFFFFFFFFFFFFFFFFFF00FFFFFFFFFFFFFFFFFFFF00FFFFFFFFFFFFFFFFFFFFFFFFFFFFFFFFFFFFFFFF00FFFFFFFFFFFFFFFFFFFF00FFFFFFFFFFFFFFFFFFFFFFFFFFFFFFFFFFFFFFFF00FFFFFFFFFFFFFFFFFF00FFFFFFFFFFFFFFFFFFFFFFFFFFFFFFFFFF
310
FFFFFFFF00FFFFFFFFFFFFFFFFFF00FFFFFFFFFFFFFFFFFFFFFFFFFFFFFFFFFFFFFFFFFF00FFFFFFFFFFFFFFFFFF00FFFFFFFFFFFFFFFFFFFFFFFFFFFFFFFFFFFFFFFFFF0000000000000000000000FFFFFFFFFFFFFFFFFFFFFFFFFFFFFFFFFFFFFFFFFFFFFFFFFFFFFFFFFFFFFFFFFFFFFFFFFFFFFFFFFFFFFFFFFFFFFFFF
310
FFFFFFFFFFFFFFFFFFFFFFFFFFFFFFFFFFFFFFFFFFFFFFFFFFFFFFFFFFFFFFFFFFFFFFFFFFFFFFFFFFFFFFFFFFFFFFFFFFFFFFFFFFFFFFFFFFFFFFFFFFFFFFFFFFFFFFFFFFFFFFFFFFFFFFFFFFFFFFFFFFFFFFFFFFFFFFFFFFFFFFFFFFFFFFFFFFFFFFFFFFFFFFFFFFFFFFFFFFFFFFFFFFFFFFFFFFFFFFFFFFFFFFFFFFFFFF
310
FFFFFFFFFFFFFFFFFFFFFFFFFFFFFFFFFFFFFFFFFFFFFFFFFFFFFFFFFFFFFFFFFFFFFFFFFFFFFFFFFFFFFFFFFFFFFFFFFFFFFFFFFFFFFFFFFFFFFFFFFFFFFFFFFFFFFFFFFFFFFFFFFFFFFFFFFFFFFFFFFFFFFFFFFFFFFFFFFFFFFFFFFFFFFFFFFFFFFFFFFFFFFFFFFFFFFFFFFFFFFFFFFFFFFFFFFFFFFFFFFFFFFFFFFFFFFF
310
FFFFFFFFFFFFFFFFFFFFFFFFFFFFFFFFFFFFFFFFFFFFFFFFFFFFFFFFFFFFFFFFFFFFFFFFFFFFFFFFFFFFFFFFFFFFFFFFFFFFFFFFFFFFFFFFFFFFFFFFFFFFFFFFFFFFFFFFFFFFFFFFFFFFFFFFFFFFFFFFFFFFFFFFFFFFFFFFFFFFFFFFFFFFFFFFFFFFFFFFFFFFFFFFFFFFFFFFFFFFFFFFFFFFFFFFFFFFFFFFFFFFFFFFFFFFFF
310
FFFFFFFFFFFFFFFFFFFFFFFFFFFFFFFFFFFFFFFFFFFFFFFFFFFFFFFFFFFFFFFFFFFFFFFFFFFFFFFFFFFFFFFFFFFFFFFFFFFFFFFFFFFFFFFF
102
{BLKREFS
331
26FA
102
}
  0
BLOCK_RECORD
  5
26C9
330
2414
100
AcDbSymbolTableRecord
100
AcDbBlockTableRecord
  2
AI9-BLK9
340
0
310
2800000020000000200000000100080000000000000400000000000000000000000000000000000000000000000080000080000000808000800000008000800080800000C0C0C000C0DCC000F0CAA6000020400000206000002080000020A0000020C0000020E00000400000004020000040400000406000004080000040A0
310
000040C0000040E00000600000006020000060400000606000006080000060A0000060C0000060E00000800000008020000080400000806000008080000080A0000080C0000080E00000A0000000A0200000A0400000A0600000A0800000A0A00000A0C00000A0E00000C0000000C0200000C0400000C0600000C0800000C0
310
A00000C0C00000C0E00000E0000000E0200000E0400000E0600000E0800000E0A00000E0C00000E0E00040000000400020004000400040006000400080004000A0004000C0004000E00040200000402020004020400040206000402080004020A0004020C0004020E000404000004040200040404000404060004040800040
310
40A0004040C0004040E00040600000406020004060400040606000406080004060A0004060C0004060E00040800000408020004080400040806000408080004080A0004080C0004080E00040A0000040A0200040A0400040A0600040A0800040A0A00040A0C00040A0E00040C0000040C0200040C0400040C0600040C08000
310
40C0A00040C0C00040C0E00040E0000040E0200040E0400040E0600040E0800040E0A00040E0C00040E0E00080000000800020008000400080006000800080008000A0008000C0008000E00080200000802020008020400080206000802080008020A0008020C0008020E00080400000804020008040400080406000804080
310
008040A0008040C0008040E00080600000806020008060400080606000806080008060A0008060C0008060E00080800000808020008080400080806000808080008080A0008080C0008080E00080A0000080A0200080A0400080A0600080A0800080A0A00080A0C00080A0E00080C0000080C0200080C0400080C0600080C0
310
800080C0A00080C0C00080C0E00080E0000080E0200080E0400080E0600080E0800080E0A00080E0C00080E0E000C0000000C0002000C0004000C0006000C0008000C000A000C000C000C000E000C0200000C0202000C0204000C0206000C0208000C020A000C020C000C020E000C0400000C0402000C0404000C0406000C0
310
408000C040A000C040C000C040E000C0600000C0602000C0604000C0606000C0608000C060A000C060C000C060E000C0800000C0802000C0804000C0806000C0808000C080A000C080C000C080E000C0A00000C0A02000C0A04000C0A06000C0A08000C0A0A000C0A0C000C0A0E000C0C00000C0C02000C0C04000C0C06000
310
C0C08000C0C0A000F0FBFF00A4A0A000808080000000FF0000FF000000FFFF00FF000000FF00FF00FFFF0000FFFFFF00FFFFFFFFFFFFFFFFFFFFFFFFFFFFFFFFFFFFFFFFFFFFFFFFFFFFFFFFFFFFFFFFFFFFFFFFFFFFFFFFFFFFFFFFFFFFFF0000FFFFFFFFFFFFFFFFFFFFFFFFFFFFFFFFFFFFFFFFFFFFFFFFFFFFFFFF0000
310
FF0000FFFFFFFFFFFFFFFFFFFFFFFFFFFFFFFFFFFFFFFFFFFFFFFFFFFFFF00FFFFFF0000FFFFFFFFFFFFFFFFFFFFFFFFFFFFFFFFFFFFFFFFFFFFFFFFFFFF00FFFFFFFF0000FFFFFFFFFFFFFFFFFFFFFFFFFFFFFFFFFFFFFFFFFFFFFFFF00FF00000000FF00FFFFFFFFFFFFFFFFFFFFFFFFFFFFFFFFFFFFFFFFFFFFFFFF0000
310
00FFFF00FF00FFFFFFFFFFFFFFFFFFFFFFFFFFFFFFFFFFFFFFFFFFFFFFFF0000FFFFFFFF0000FFFFFFFFFFFFFFFFFFFFFFFFFFFFFFFFFFFFFFFFFFFFFFFF0000FFFFFFFF0000FFFFFFFFFFFFFFFFFFFFFFFFFFFFFFFFFFFFFFFFFFFFFF00FF00FFFFFFFF00FF00FFFFFFFFFFFFFFFFFFFFFFFFFFFFFFFFFFFFFFFFFFFF0000
310
FFFFFFFFFF00FF00FFFFFFFFFFFFFFFFFFFFFFFFFFFFFFFFFFFFFFFFFFFF0000FFFFFFFFFFFF0000FFFFFFFFFFFFFFFFFFFFFFFFFFFFFFFFFFFFFFFFFFFF0000FFFFFFFFFFFF0000FFFFFFFFFFFFFFFFFFFFFFFFFFFFFFFFFFFFFFFFFFFF0000FFFFFFFFFFFF0000FFFFFFFFFFFFFFFFFFFFFFFFFFFFFFFFFFFFFFFFFFFF00
310
00FFFFFFFFFFFF0000FFFFFFFFFFFFFFFFFFFFFFFFFFFFFFFFFFFFFFFFFFFF0000FFFFFFFFFFFF0000FFFFFFFFFFFFFFFFFFFFFFFFFFFFFFFFFFFFFFFFFFFF0000FFFFFFFFFFFF0000FFFFFFFFFFFFFFFFFFFFFFFFFFFFFFFFFFFFFFFFFFFF0000FFFFFFFFFFFF0000FFFFFFFFFFFFFFFFFFFFFFFFFFFFFFFFFFFFFFFFFFFF
310
0000FFFFFFFFFFFF0000FFFFFFFFFFFFFFFFFFFFFFFFFFFFFFFFFFFFFFFFFFFF0000FFFFFFFFFFFF0000FFFFFFFFFFFFFFFFFFFFFFFFFFFFFFFFFFFFFFFFFFFF0000FFFFFFFFFFFF0000FFFFFFFFFFFFFFFFFFFFFFFFFFFFFFFFFFFFFFFFFFFF00FF00FFFFFFFF00FF00FFFFFFFFFFFFFFFFFFFFFFFFFFFFFFFFFFFFFFFFFF
310
FF00FF00FFFFFFFF00FF00FFFFFFFFFFFFFFFFFFFFFFFFFFFFFFFFFFFFFFFFFFFF00FF00FFFFFFFF00FF00FFFFFFFFFFFFFFFFFFFFFFFFFFFFFFFFFFFFFFFFFFFFFF0000FFFFFFFF0000FFFFFFFFFFFFFFFFFFFFFFFFFFFFFFFFFFFFFFFFFFFFFFFF00FF00FFFF00FF00FFFFFFFFFFFFFFFFFFFFFFFFFFFFFFFFFFFFFFFFFF
310
FFFFFF00FF00000000FF00FFFFFFFFFFFFFFFFFFFFFFFFFFFFFFFFFFFFFFFFFFFFFFFFFF00FFFFFFFF0000FFFFFFFFFFFFFFFFFFFFFFFFFFFFFFFFFFFFFFFFFFFFFFFFFF00FFFFFFFF00FFFFFFFFFFFFFFFFFFFFFFFFFFFFFFFFFFFFFFFFFFFFFFFFFFFFFF00000000FFFFFFFFFFFFFFFFFFFFFFFFFFFFFFFFFFFFFFFFFFFF
310
FFFFFFFFFFFFFF0000FFFFFFFFFFFFFFFFFFFFFFFFFFFFFFFFFFFFFFFFFFFFFFFFFFFFFFFFFFFFFFFFFFFFFFFFFFFFFFFFFFFFFFFFFFFFFF
102
{BLKREFS
331
26FB
102
}
  0
BLOCK_RECORD
  5
26CE
330
2414
100
AcDbSymbolTableRecord
100
AcDbBlockTableRecord
  2
AI9-BLK8
340
0
310
2800000020000000200000000100080000000000000400000000000000000000000000000000000000000000000080000080000000808000800000008000800080800000C0C0C000C0DCC000F0CAA6000020400000206000002080000020A0000020C0000020E00000400000004020000040400000406000004080000040A0
310
000040C0000040E00000600000006020000060400000606000006080000060A0000060C0000060E00000800000008020000080400000806000008080000080A0000080C0000080E00000A0000000A0200000A0400000A0600000A0800000A0A00000A0C00000A0E00000C0000000C0200000C0400000C0600000C0800000C0
310
A00000C0C00000C0E00000E0000000E0200000E0400000E0600000E0800000E0A00000E0C00000E0E00040000000400020004000400040006000400080004000A0004000C0004000E00040200000402020004020400040206000402080004020A0004020C0004020E000404000004040200040404000404060004040800040
310
40A0004040C0004040E00040600000406020004060400040606000406080004060A0004060C0004060E00040800000408020004080400040806000408080004080A0004080C0004080E00040A0000040A0200040A0400040A0600040A0800040A0A00040A0C00040A0E00040C0000040C0200040C0400040C0600040C08000
310
40C0A00040C0C00040C0E00040E0000040E0200040E0400040E0600040E0800040E0A00040E0C00040E0E00080000000800020008000400080006000800080008000A0008000C0008000E00080200000802020008020400080206000802080008020A0008020C0008020E00080400000804020008040400080406000804080
310
008040A0008040C0008040E00080600000806020008060400080606000806080008060A0008060C0008060E00080800000808020008080400080806000808080008080A0008080C0008080E00080A0000080A0200080A0400080A0600080A0800080A0A00080A0C00080A0E00080C0000080C0200080C0400080C0600080C0
310
800080C0A00080C0C00080C0E00080E0000080E0200080E0400080E0600080E0800080E0A00080E0C00080E0E000C0000000C0002000C0004000C0006000C0008000C000A000C000C000C000E000C0200000C0202000C0204000C0206000C0208000C020A000C020C000C020E000C0400000C0402000C0404000C0406000C0
310
408000C040A000C040C000C040E000C0600000C0602000C0604000C0606000C0608000C060A000C060C000C060E000C0800000C0802000C0804000C0806000C0808000C080A000C080C000C080E000C0A00000C0A02000C0A04000C0A06000C0A08000C0A0A000C0A0C000C0A0E000C0C00000C0C02000C0C04000C0C06000
310
C0C08000C0C0A000F0FBFF00A4A0A000808080000000FF0000FF000000FFFF00FF000000FF00FF00FFFF0000FFFFFF00FFFFFFFFFFFFFFFFFFFFFFFFFFFFFFFFFFFFFFFFFFFFFFFFFFFFFFFFFFFFFFFFFFFFFFFFFFFFFFFFFFFFFF0000FFFFFFFFFFFF0000FFFFFFFFFFFFFFFFFFFFFFFFFFFFFFFFFFFFFFFFFFFF0000FFFF
310
FFFFFFFF0000FFFFFFFFFFFFFFFFFFFFFFFFFFFFFFFFFFFFFFFFFFFF0000FFFFFFFFFF00FF00FFFFFFFFFFFFFFFFFFFFFFFFFFFFFFFFFFFFFFFFFFFF0000FFFFFFFFFF00FF00FFFFFFFFFFFFFFFFFFFFFFFFFFFFFFFFFFFFFFFFFFFF0000FFFFFFFFFF00FF00FFFFFFFFFFFFFFFFFFFFFFFFFFFFFFFFFFFFFFFFFFFF0000FF
310
FFFFFF00FFFF00FFFFFFFFFFFFFFFFFFFFFFFFFFFFFFFFFFFFFFFFFFFF0000FFFFFFFF00FF0000FFFFFFFFFFFFFFFFFFFFFFFFFFFFFFFFFFFFFFFFFFFF0000FFFFFFFF00FF0000FFFFFFFFFFFFFFFFFFFFFFFFFFFFFFFFFFFFFFFFFFFF0000FFFFFFFF00000000FFFFFFFFFFFFFFFFFFFFFFFFFFFFFFFFFFFFFFFFFFFF0000
310
FFFFFF00FF000000FFFFFFFFFFFFFFFFFFFFFFFFFFFFFFFFFFFFFFFFFFFF0000FFFFFF00FF000000FFFFFFFFFFFFFFFFFFFFFFFFFFFFFFFFFFFFFFFFFFFF0000FFFFFF00FF000000FFFFFFFFFFFFFFFFFFFFFFFFFFFFFFFFFFFFFFFFFFFF0000FFFF00FF00FF0000FFFFFFFFFFFFFFFFFFFFFFFFFFFFFFFFFFFFFFFFFFFF00
310
00FFFF00FF00FF0000FFFFFFFFFFFFFFFFFFFFFFFFFFFFFFFFFFFFFFFFFFFF0000FFFF00FF00FF0000FFFFFFFFFFFFFFFFFFFFFFFFFFFFFFFFFFFFFFFFFFFF0000FF00FFFF00FF0000FFFFFFFFFFFFFFFFFFFFFFFFFFFFFFFFFFFFFFFFFFFF0000FF00FF00FFFF0000FFFFFFFFFFFFFFFFFFFFFFFFFFFFFFFFFFFFFFFFFFFF
310
0000FF00FF00FFFF0000FFFFFFFFFFFFFFFFFFFFFFFFFFFFFFFFFFFFFFFFFFFF0000FF00FF00FFFF0000FFFFFFFFFFFFFFFFFFFFFFFFFFFFFFFFFFFFFFFFFFFF000000FFFF00FFFF0000FFFFFFFFFFFFFFFFFFFFFFFFFFFFFFFFFFFFFFFFFFFF000000FF00FFFFFF0000FFFFFFFFFFFFFFFFFFFFFFFFFFFFFFFFFFFFFFFFFF
310
FF000000FF00FFFFFF0000FFFFFFFFFFFFFFFFFFFFFFFFFFFFFFFFFFFFFFFFFFFF0000FFFF00FFFFFF0000FFFFFFFFFFFFFFFFFFFFFFFFFFFFFFFFFFFFFFFFFFFF0000FFFF00FFFFFF0000FFFFFFFFFFFFFFFFFFFFFFFFFFFFFFFFFFFFFFFFFFFF00FFFF00FFFFFFFF0000FFFFFFFFFFFFFFFFFFFFFFFFFFFFFFFFFFFFFFFF
310
FFFF00FFFF00FFFFFFFF0000FFFFFFFFFFFFFFFFFFFFFFFFFFFFFFFFFFFFFFFFFFFF00FFFF00FFFFFFFF0000FFFFFFFFFFFFFFFFFFFFFFFFFFFFFFFFFFFFFFFFFFFF00FFFF00FFFFFFFF0000FFFFFFFFFFFFFFFFFFFFFFFFFFFFFFFFFFFFFFFFFFFF00FF00FFFFFFFFFF0000FFFFFFFFFFFFFFFFFFFFFFFFFFFFFFFFFFFFFF
310
FFFFFF000000FFFFFFFFFF0000FFFFFFFFFFFFFFFFFFFFFFFFFFFFFFFFFFFFFFFFFFFFFFFFFFFFFFFFFFFFFFFFFFFFFFFFFFFFFFFFFFFFFF
102
{BLKREFS
331
26FC
102
}
  0
BLOCK_RECORD
  5
26D3
330
2414
100
AcDbSymbolTableRecord
100
AcDbBlockTableRecord
  2
AI9-BLK7
340
0
310
2800000020000000200000000100080000000000000400000000000000000000000000000000000000000000000080000080000000808000800000008000800080800000C0C0C000C0DCC000F0CAA6000020400000206000002080000020A0000020C0000020E00000400000004020000040400000406000004080000040A0
310
000040C0000040E00000600000006020000060400000606000006080000060A0000060C0000060E00000800000008020000080400000806000008080000080A0000080C0000080E00000A0000000A0200000A0400000A0600000A0800000A0A00000A0C00000A0E00000C0000000C0200000C0400000C0600000C0800000C0
310
A00000C0C00000C0E00000E0000000E0200000E0400000E0600000E0800000E0A00000E0C00000E0E00040000000400020004000400040006000400080004000A0004000C0004000E00040200000402020004020400040206000402080004020A0004020C0004020E000404000004040200040404000404060004040800040
310
40A0004040C0004040E00040600000406020004060400040606000406080004060A0004060C0004060E00040800000408020004080400040806000408080004080A0004080C0004080E00040A0000040A0200040A0400040A0600040A0800040A0A00040A0C00040A0E00040C0000040C0200040C0400040C0600040C08000
310
40C0A00040C0C00040C0E00040E0000040E0200040E0400040E0600040E0800040E0A00040E0C00040E0E00080000000800020008000400080006000800080008000A0008000C0008000E00080200000802020008020400080206000802080008020A0008020C0008020E00080400000804020008040400080406000804080
310
008040A0008040C0008040E00080600000806020008060400080606000806080008060A0008060C0008060E00080800000808020008080400080806000808080008080A0008080C0008080E00080A0000080A0200080A0400080A0600080A0800080A0A00080A0C00080A0E00080C0000080C0200080C0400080C0600080C0
310
800080C0A00080C0C00080C0E00080E0000080E0200080E0400080E0600080E0800080E0A00080E0C00080E0E000C0000000C0002000C0004000C0006000C0008000C000A000C000C000C000E000C0200000C0202000C0204000C0206000C0208000C020A000C020C000C020E000C0400000C0402000C0404000C0406000C0
310
408000C040A000C040C000C040E000C0600000C0602000C0604000C0606000C0608000C060A000C060C000C060E000C0800000C0802000C0804000C0806000C0808000C080A000C080C000C080E000C0A00000C0A02000C0A04000C0A06000C0A08000C0A0A000C0A0C000C0A0E000C0C00000C0C02000C0C04000C0C06000
310
C0C08000C0C0A000F0FBFF00A4A0A000808080000000FF0000FF000000FFFF00FF000000FF00FF00FFFF0000FFFFFF00FFFFFFFFFFFFFFFFFFFFFFFFFFFFFFFFFFFFFFFFFFFFFFFFFFFFFFFFFFFFFFFFFFFFFFFFFFFFFFFFFFFFFFFFFFFFFF0000FFFFFFFFFFFFFFFFFFFFFFFFFFFFFFFFFFFFFFFFFFFFFFFFFFFFFFFFFFFF
310
0000FFFFFFFFFFFFFFFFFFFFFFFFFFFFFFFFFFFFFFFFFFFFFFFFFFFFFFFFFFFF0000FFFFFFFFFFFFFFFFFFFFFFFFFFFFFFFFFFFFFFFFFFFFFFFFFFFFFFFFFFFF0000FFFFFFFFFFFFFFFFFFFFFFFFFFFFFFFFFFFFFFFFFFFFFFFFFFFFFFFFFFFF0000FFFFFFFFFFFFFFFFFFFFFFFFFFFFFFFFFFFFFFFFFFFFFFFFFFFFFFFFFF
310
FF0000FFFFFFFFFFFFFFFFFFFFFFFFFFFFFFFFFFFFFFFFFFFFFFFFFFFFFFFFFFFF0000FFFFFFFFFFFFFFFFFFFFFFFFFFFFFFFFFFFFFFFFFFFFFFFFFFFFFFFFFFFF0000FFFFFFFFFFFFFFFFFFFFFFFFFFFFFFFFFFFFFFFFFFFFFFFFFFFFFFFFFFFF0000FFFFFFFFFFFFFFFFFFFFFFFFFFFFFFFFFFFFFFFFFFFFFFFFFFFFFFFF
310
FFFF0000FFFFFFFFFFFFFFFFFFFFFFFFFFFFFFFFFFFFFFFFFFFFFFFFFFFFFFFFFFFF0000FFFFFFFFFFFFFFFFFFFFFFFFFFFFFFFFFFFFFFFFFFFFFFFFFFFFFFFFFFFF0000FFFFFFFFFFFFFFFFFFFFFFFFFFFFFFFFFFFFFFFFFFFFFFFFFFFFFFFFFFFF0000FFFFFFFFFFFFFFFFFFFFFFFFFFFFFFFFFFFFFFFFFFFFFFFFFFFFFF
310
FFFFFF0000FFFFFFFFFFFFFFFFFFFFFFFFFFFFFFFFFFFFFFFFFFFFFFFFFFFFFFFFFFFF0000FFFFFFFFFFFFFFFFFFFFFFFFFFFFFFFFFFFFFFFFFFFFFFFFFFFFFFFFFFFF0000FFFFFFFFFFFFFFFFFFFFFFFFFFFFFFFFFFFFFFFFFFFFFFFFFFFFFFFFFFFF0000FFFFFFFFFFFFFFFFFFFFFFFFFFFFFFFFFFFFFFFFFFFFFFFFFFFF
310
FFFFFFFF0000FFFFFFFFFFFFFFFFFFFFFFFFFFFFFFFFFFFFFFFFFFFFFFFFFFFFFFFFFFFF0000FFFFFFFFFFFFFFFFFFFFFFFFFFFFFFFFFFFFFFFFFFFFFFFFFFFFFFFFFFFF0000FFFFFFFFFFFFFFFFFFFFFFFFFFFFFFFFFFFFFFFFFFFFFFFFFFFFFFFFFFFF0000FFFFFFFFFFFFFFFFFFFFFFFFFFFFFFFFFFFFFFFFFFFFFFFFFF
310
FFFFFFFFFF0000FFFFFFFFFFFFFFFFFFFFFFFFFFFFFFFFFFFFFFFFFFFFFFFFFFFFFFFFFFFF0000FFFFFFFFFFFFFFFFFFFFFFFFFFFFFFFFFFFFFFFFFFFFFFFFFFFFFFFFFFFF0000FFFFFFFFFFFFFFFFFFFFFFFFFFFFFFFFFFFFFFFFFFFFFFFFFFFFFFFFFFFF0000FFFFFFFFFFFFFFFFFFFFFFFFFFFFFFFFFFFFFFFFFFFFFFFF
310
FFFFFFFFFFFF0000FFFFFFFFFFFFFFFFFFFFFFFFFFFFFFFFFFFFFFFFFFFFFFFFFFFFFFFFFFFF0000FFFFFFFFFFFFFFFFFFFFFFFFFFFFFFFFFFFFFFFFFFFFFFFFFFFFFFFFFFFF0000FFFFFFFFFFFFFFFFFFFFFFFFFFFFFFFFFFFFFFFFFFFFFFFFFFFFFFFFFFFF0000FFFFFFFFFFFFFFFFFFFFFFFFFFFFFFFFFFFFFFFFFFFFFF
310
FFFFFFFFFFFFFF0000FFFFFFFFFFFFFFFFFFFFFFFFFFFFFFFFFFFFFFFFFFFFFFFFFFFFFFFFFFFFFFFFFFFFFFFFFFFFFFFFFFFFFFFFFFFFFF
102
{BLKREFS
331
26FD
102
}
  0
BLOCK_RECORD
  5
26D8
330
2414
100
AcDbSymbolTableRecord
100
AcDbBlockTableRecord
  2
AI9-BLK6
340
0
310
2800000020000000200000000100080000000000000400000000000000000000000000000000000000000000000080000080000000808000800000008000800080800000C0C0C000C0DCC000F0CAA6000020400000206000002080000020A0000020C0000020E00000400000004020000040400000406000004080000040A0
310
000040C0000040E00000600000006020000060400000606000006080000060A0000060C0000060E00000800000008020000080400000806000008080000080A0000080C0000080E00000A0000000A0200000A0400000A0600000A0800000A0A00000A0C00000A0E00000C0000000C0200000C0400000C0600000C0800000C0
310
A00000C0C00000C0E00000E0000000E0200000E0400000E0600000E0800000E0A00000E0C00000E0E00040000000400020004000400040006000400080004000A0004000C0004000E00040200000402020004020400040206000402080004020A0004020C0004020E000404000004040200040404000404060004040800040
310
40A0004040C0004040E00040600000406020004060400040606000406080004060A0004060C0004060E00040800000408020004080400040806000408080004080A0004080C0004080E00040A0000040A0200040A0400040A0600040A0800040A0A00040A0C00040A0E00040C0000040C0200040C0400040C0600040C08000
310
40C0A00040C0C00040C0E00040E0000040E0200040E0400040E0600040E0800040E0A00040E0C00040E0E00080000000800020008000400080006000800080008000A0008000C0008000E00080200000802020008020400080206000802080008020A0008020C0008020E00080400000804020008040400080406000804080
310
008040A0008040C0008040E00080600000806020008060400080606000806080008060A0008060C0008060E00080800000808020008080400080806000808080008080A0008080C0008080E00080A0000080A0200080A0400080A0600080A0800080A0A00080A0C00080A0E00080C0000080C0200080C0400080C0600080C0
310
800080C0A00080C0C00080C0E00080E0000080E0200080E0400080E0600080E0800080E0A00080E0C00080E0E000C0000000C0002000C0004000C0006000C0008000C000A000C000C000C000E000C0200000C0202000C0204000C0206000C0208000C020A000C020C000C020E000C0400000C0402000C0404000C0406000C0
310
408000C040A000C040C000C040E000C0600000C0602000C0604000C0606000C0608000C060A000C060C000C060E000C0800000C0802000C0804000C0806000C0808000C080A000C080C000C080E000C0A00000C0A02000C0A04000C0A06000C0A08000C0A0A000C0A0C000C0A0E000C0C00000C0C02000C0C04000C0C06000
310
C0C08000C0C0A000F0FBFF00A4A0A000808080000000FF0000FF000000FFFF00FF000000FF00FF00FFFF0000FFFFFF00FFFFFFFFFFFFFFFFFFFFFFFF00FFFFFFFFFFFFFF00FFFFFFFFFFFFFFFFFFFFFFFFFFFFFFFFFFFFFFFFFFFFFF00FFFFFFFFFFFFFF00FFFFFFFFFFFFFFFFFFFFFFFFFFFFFFFFFFFFFFFFFFFFFF00FFFF
310
FFFFFFFFFF00FFFFFFFFFFFFFFFFFFFFFFFFFFFFFFFFFFFFFFFFFFFF00FFFFFFFFFFFFFFFF00FFFFFFFFFFFFFFFFFFFFFFFFFFFFFFFFFFFFFFFFFFFF00FFFFFFFFFFFFFF00FFFFFFFFFFFFFFFFFFFFFFFFFFFFFFFFFFFFFFFFFFFFFF00FFFFFFFFFFFFFF00FFFFFFFFFFFFFFFFFFFFFFFFFFFFFFFFFFFFFFFFFFFF00FFFFFF
310
FFFFFFFFFF00FFFFFFFFFFFFFFFFFFFFFFFFFFFFFFFFFFFFFFFFFFFF00FFFFFFFFFFFFFF00FFFFFFFFFFFFFFFFFFFFFFFFFFFFFFFFFFFFFFFFFFFF00FFFFFFFFFFFFFFFF00FFFFFFFFFFFFFFFFFFFFFFFFFFFFFFFFFFFFFFFFFF00FFFFFFFFFFFFFFFFFF00FFFFFFFFFFFFFFFFFFFFFFFFFFFFFFFFFFFFFFFF00FFFFFFFFFF
310
FFFFFFFFFF00FFFFFFFFFFFFFFFFFFFFFFFFFFFFFFFFFFFFFF00FFFFFFFFFFFFFFFFFFFF00FFFFFFFFFFFFFFFFFFFFFFFFFFFFFFFFFFFF0000FFFFFFFFFFFFFFFFFFFFFF00FFFFFFFFFFFFFFFFFFFFFFFFFFFF00000000FFFFFFFFFFFFFFFFFFFFFFFFFF00FFFFFFFFFFFFFFFFFFFFFFFFFFFFFFFFFFFFFFFFFFFFFFFFFFFF
310
FFFFFFFF00FFFFFFFFFFFFFFFFFFFFFFFFFFFFFFFFFFFFFFFFFFFFFFFFFFFFFFFFFFFFFF00FFFFFFFFFFFFFFFFFFFFFFFFFFFFFFFFFFFFFFFFFFFFFFFFFFFFFFFFFFFFFF00FFFFFFFFFFFFFFFFFFFFFFFFFFFFFFFFFFFFFFFFFFFFFFFFFFFFFFFFFFFF00FFFFFFFFFFFFFFFFFFFFFFFFFFFFFFFFFFFFFFFFFFFFFFFFFFFFFF
310
FFFFFFFF00FFFFFFFFFFFFFFFFFFFFFFFFFFFFFFFFFFFFFFFFFFFFFFFFFFFFFFFFFFFF00FFFFFFFFFFFFFFFFFFFFFFFFFFFFFFFFFFFFFFFFFFFFFFFFFFFFFFFFFFFF00FFFFFFFFFFFFFFFFFFFFFFFFFFFFFFFFFFFFFFFFFFFFFFFFFFFFFFFFFFFF00FFFFFFFFFFFFFFFFFFFFFFFFFFFFFFFFFFFFFFFFFFFFFFFFFFFFFFFFFF
310
FF00FFFFFFFFFFFFFFFFFFFFFFFFFFFFFFFFFFFFFFFFFFFFFFFFFFFFFFFFFFFFFF00FFFFFFFFFFFFFFFFFFFFFFFFFFFFFFFFFFFFFFFFFFFFFFFFFFFFFFFFFFFF00FFFFFFFFFFFFFFFFFFFFFFFFFFFFFFFFFFFFFFFFFFFFFFFFFFFFFFFFFF0000FFFFFFFFFFFFFFFFFFFFFFFFFFFFFFFFFFFFFFFFFFFFFFFFFFFFFFFF0000FF
310
FFFFFFFFFFFFFFFFFFFFFFFFFFFFFFFFFFFFFFFFFFFFFFFFFF00000000FFFFFFFFFFFFFFFFFFFFFFFFFFFFFFFFFFFFFFFFFFFFFFFFFFFF0000FFFFFFFFFFFFFFFFFFFFFFFFFFFFFFFFFFFFFFFFFFFFFFFFFFFFFFFFFFFFFFFFFFFFFFFFFFFFFFFFFFFFFFFFFFFFFFFFFFFFFFFFFFFFFFFFFFFFFFFFFFFFFFFFFFFFFFFFFFFF
310
FFFFFFFFFFFFFFFFFFFFFFFFFFFFFFFFFFFFFFFFFFFFFFFFFFFFFFFFFFFFFFFFFFFFFFFFFFFFFFFFFFFFFFFFFFFFFFFFFFFFFFFFFFFFFFFF
102
{BLKREFS
331
26FE
102
}
  0
BLOCK_RECORD
  5
26DC
330
2414
100
AcDbSymbolTableRecord
100
AcDbBlockTableRecord
  2
AI9-BLK5
340
0
310
2800000020000000200000000100080000000000000400000000000000000000000000000000000000000000000080000080000000808000800000008000800080800000C0C0C000C0DCC000F0CAA6000020400000206000002080000020A0000020C0000020E00000400000004020000040400000406000004080000040A0
310
000040C0000040E00000600000006020000060400000606000006080000060A0000060C0000060E00000800000008020000080400000806000008080000080A0000080C0000080E00000A0000000A0200000A0400000A0600000A0800000A0A00000A0C00000A0E00000C0000000C0200000C0400000C0600000C0800000C0
310
A00000C0C00000C0E00000E0000000E0200000E0400000E0600000E0800000E0A00000E0C00000E0E00040000000400020004000400040006000400080004000A0004000C0004000E00040200000402020004020400040206000402080004020A0004020C0004020E000404000004040200040404000404060004040800040
310
40A0004040C0004040E00040600000406020004060400040606000406080004060A0004060C0004060E00040800000408020004080400040806000408080004080A0004080C0004080E00040A0000040A0200040A0400040A0600040A0800040A0A00040A0C00040A0E00040C0000040C0200040C0400040C0600040C08000
310
40C0A00040C0C00040C0E00040E0000040E0200040E0400040E0600040E0800040E0A00040E0C00040E0E00080000000800020008000400080006000800080008000A0008000C0008000E00080200000802020008020400080206000802080008020A0008020C0008020E00080400000804020008040400080406000804080
310
008040A0008040C0008040E00080600000806020008060400080606000806080008060A0008060C0008060E00080800000808020008080400080806000808080008080A0008080C0008080E00080A0000080A0200080A0400080A0600080A0800080A0A00080A0C00080A0E00080C0000080C0200080C0400080C0600080C0
310
800080C0A00080C0C00080C0E00080E0000080E0200080E0400080E0600080E0800080E0A00080E0C00080E0E000C0000000C0002000C0004000C0006000C0008000C000A000C000C000C000E000C0200000C0202000C0204000C0206000C0208000C020A000C020C000C020E000C0400000C0402000C0404000C0406000C0
310
408000C040A000C040C000C040E000C0600000C0602000C0604000C0606000C0608000C060A000C060C000C060E000C0800000C0802000C0804000C0806000C0808000C080A000C080C000C080E000C0A00000C0A02000C0A04000C0A06000C0A08000C0A0A000C0A0C000C0A0E000C0C00000C0C02000C0C04000C0C06000
310
C0C08000C0C0A000F0FBFF00A4A0A000808080000000FF0000FF000000FFFF00FF000000FF00FF00FFFF0000FFFFFF00FFFFFFFFFFFFFFFFFFFFFFFFFFFFFFFFFFFFFFFFFFFFFFFFFFFFFFFFFFFFFFFFFFFFFFFFFFFFFFFF000000000000000000000000000000000000000000000000FFFFFFFFFFFFFFFF00FFFFFFFFFFFF
310
FFFFFFFFFFFFFFFFFFFFFFFFFFFFFFFFFFFFFFFFFFFFFFFFFF00FFFFFFFFFFFFFFFFFFFFFFFFFFFFFFFFFFFFFFFFFFFFFFFFFFFFFFFFFFFFFF00FFFFFFFFFFFFFFFFFFFFFFFFFFFFFFFFFFFFFFFFFFFFFFFFFFFFFFFFFFFFFF00FFFFFFFFFFFFFFFFFFFFFFFFFFFFFFFFFFFFFFFFFFFFFFFFFFFFFFFFFFFFFF00FFFFFFFFFF
310
FFFFFFFFFFFFFFFFFFFFFFFFFFFFFFFFFFFFFFFFFFFFFFFFFFFF00FFFFFFFFFFFFFFFFFFFFFFFFFFFFFFFFFFFFFFFFFFFFFFFFFFFFFFFFFFFFFF00FFFFFFFFFFFFFFFFFFFFFFFFFFFFFFFFFFFFFFFFFFFFFFFFFFFFFFFFFFFFFF00FFFFFFFFFFFFFFFFFFFFFFFFFFFFFFFFFFFFFFFFFFFFFFFFFFFFFFFFFFFFFF00FFFFFFFF
310
FFFFFFFFFFFFFFFFFFFFFFFFFFFFFFFFFFFFFFFFFFFFFFFFFFFFFF00FFFFFFFFFFFFFFFFFFFFFFFFFFFFFFFFFFFFFFFFFFFFFFFFFFFFFFFFFFFFFF00FFFFFFFFFFFFFFFFFFFFFFFFFFFFFFFFFFFFFFFFFFFFFFFFFFFFFFFFFFFFFF00FFFFFFFFFFFFFFFFFFFFFFFFFFFFFFFFFFFFFFFFFFFFFFFFFFFFFFFFFFFFFF00FFFFFF
310
FFFFFFFFFFFFFFFFFFFFFFFFFFFFFFFFFFFFFFFFFFFFFFFFFFFFFFFF00FFFFFFFFFFFFFFFFFFFFFFFFFFFFFFFFFFFFFFFFFFFFFFFFFFFFFFFFFFFFFF00FFFFFFFFFFFFFFFFFFFFFFFFFFFFFFFFFFFFFFFFFFFFFFFFFFFFFFFFFFFFFF00FFFFFFFFFFFFFFFFFFFFFFFFFFFFFFFFFFFFFFFFFFFFFFFFFFFFFFFFFFFFFF00FFFF
310
FFFFFFFFFFFFFFFFFFFFFFFFFFFFFFFFFFFFFFFFFFFFFFFFFFFFFFFFFF00FFFFFFFFFFFFFFFFFFFFFFFFFFFFFFFFFFFFFFFFFFFFFFFFFFFFFFFFFFFFFF00FFFFFFFFFFFFFFFFFFFFFFFFFFFFFFFFFFFFFFFFFFFFFFFFFFFFFFFFFFFFFF00FFFFFFFFFFFFFFFFFFFFFFFFFFFFFFFFFFFFFFFFFFFFFFFFFFFFFFFFFFFFFF00FF
310
FFFFFFFFFFFFFFFFFFFFFFFFFFFFFFFFFFFFFFFFFFFFFFFFFFFFFFFFFFFF00FFFFFFFFFFFFFFFFFFFFFFFFFFFFFFFFFFFFFFFFFFFFFFFFFFFFFFFFFFFFFF00FFFFFFFFFFFFFFFFFFFFFFFFFFFFFFFFFFFFFFFFFFFFFFFFFFFFFFFFFFFFFF00FFFFFFFFFFFFFFFFFFFFFFFFFFFFFFFFFFFFFFFFFFFFFFFFFFFFFFFFFFFFFF00
310
FFFFFFFFFFFFFFFFFFFFFFFFFFFFFFFFFFFFFFFFFFFFFFFFFFFFFFFFFFFFFF00FFFFFFFFFFFFFFFFFFFFFFFFFFFFFFFFFFFFFFFFFFFFFFFFFFFFFFFFFFFFFF00FFFFFFFFFFFFFFFFFFFFFFFFFFFFFFFFFFFFFFFFFFFFFFFFFFFFFFFFFFFFFF00FFFFFFFFFFFFFFFFFFFFFFFFFFFFFFFFFFFFFFFFFFFFFFFFFFFFFFFFFFFFFF
310
00FFFFFFFFFFFFFFFFFFFFFFFFFFFF000000000000000000FFFFFFFFFFFFFFFF00FFFFFFFFFFFFFFFFFFFFFFFFFFFF00FFFFFFFFFFFFFFFF
102
{BLKREFS
331
26FF
102
}
  0
BLOCK_RECORD
  5
26E1
330
2414
100
AcDbSymbolTableRecord
100
AcDbBlockTableRecord
  2
AI9-BLK4
340
0
310
2800000020000000200000000100080000000000000400000000000000000000000000000000000000000000000080000080000000808000800000008000800080800000C0C0C000C0DCC000F0CAA6000020400000206000002080000020A0000020C0000020E00000400000004020000040400000406000004080000040A0
310
000040C0000040E00000600000006020000060400000606000006080000060A0000060C0000060E00000800000008020000080400000806000008080000080A0000080C0000080E00000A0000000A0200000A0400000A0600000A0800000A0A00000A0C00000A0E00000C0000000C0200000C0400000C0600000C0800000C0
310
A00000C0C00000C0E00000E0000000E0200000E0400000E0600000E0800000E0A00000E0C00000E0E00040000000400020004000400040006000400080004000A0004000C0004000E00040200000402020004020400040206000402080004020A0004020C0004020E000404000004040200040404000404060004040800040
310
40A0004040C0004040E00040600000406020004060400040606000406080004060A0004060C0004060E00040800000408020004080400040806000408080004080A0004080C0004080E00040A0000040A0200040A0400040A0600040A0800040A0A00040A0C00040A0E00040C0000040C0200040C0400040C0600040C08000
310
40C0A00040C0C00040C0E00040E0000040E0200040E0400040E0600040E0800040E0A00040E0C00040E0E00080000000800020008000400080006000800080008000A0008000C0008000E00080200000802020008020400080206000802080008020A0008020C0008020E00080400000804020008040400080406000804080
310
008040A0008040C0008040E00080600000806020008060400080606000806080008060A0008060C0008060E00080800000808020008080400080806000808080008080A0008080C0008080E00080A0000080A0200080A0400080A0600080A0800080A0A00080A0C00080A0E00080C0000080C0200080C0400080C0600080C0
310
800080C0A00080C0C00080C0E00080E0000080E0200080E0400080E0600080E0800080E0A00080E0C00080E0E000C0000000C0002000C0004000C0006000C0008000C000A000C000C000C000E000C0200000C0202000C0204000C0206000C0208000C020A000C020C000C020E000C0400000C0402000C0404000C0406000C0
310
408000C040A000C040C000C040E000C0600000C0602000C0604000C0606000C0608000C060A000C060C000C060E000C0800000C0802000C0804000C0806000C0808000C080A000C080C000C080E000C0A00000C0A02000C0A04000C0A06000C0A08000C0A0A000C0A0C000C0A0E000C0C00000C0C02000C0C04000C0C06000
310
C0C08000C0C0A000F0FBFF00A4A0A000808080000000FF0000FF000000FFFF00FF000000FF00FF00FFFF0000FFFFFF00FFFFFFFFFFFFFFFFFFFFFFFFFFFFFFFFFFFFFFFFFFFFFFFFFFFFFFFFFFFFFFFFFFFFFFFFFFFFFFFFFFFFFFFFFFFF00000000FFFFFFFFFFFFFFFFFFFFFF000000FFFFFFFFFFFFFFFFFFFFFFFFFFFF00
310
FFFF00FFFFFFFFFFFFFFFFFFFFFF00FFFFFFFFFFFFFFFFFFFFFFFFFFFFFFFF00FFFF00FFFFFFFFFFFFFFFFFFFFFF00FFFFFFFFFFFFFFFFFFFFFFFFFFFFFFFF00FFFF00FFFFFFFFFFFFFFFFFFFFFF00FFFFFFFFFFFFFFFFFFFFFFFFFFFFFFFF00FFFF00FFFFFFFFFFFFFFFFFFFFFF00FFFFFFFFFFFFFFFFFFFFFFFFFFFFFFFF
310
00FFFF00FFFFFFFFFFFFFFFFFFFFFF00FFFFFFFFFFFFFFFFFFFFFFFFFFFFFFFF00FFFF00FFFFFFFFFFFFFFFFFFFFFF00FFFFFFFFFFFFFFFFFFFFFFFFFFFFFFFF00FFFF00FFFFFFFFFFFFFFFFFFFFFF00FFFFFFFFFFFFFFFFFFFFFFFFFFFFFFFF00FFFF00FFFFFFFFFFFFFFFFFFFFFF00FFFFFFFFFFFFFFFFFFFFFFFFFFFFFF
310
FF00FFFF00FFFFFFFFFFFFFFFFFFFFFF00FFFFFFFFFFFFFFFFFFFFFFFFFFFFFFFF00FFFF00FFFFFFFFFFFFFFFFFFFFFF00FFFFFFFFFFFFFFFFFFFFFFFFFFFFFFFF00FFFF00FFFFFFFFFFFFFFFFFFFFFF00FFFFFFFFFFFFFFFFFFFFFFFFFFFFFFFF00FFFF00FFFFFFFFFFFFFFFFFFFFFF00FFFFFFFFFFFFFFFFFFFFFFFFFFFF
310
FFFF00FFFF00FFFFFFFFFFFFFFFFFFFFFF00FFFFFFFFFFFFFFFFFFFFFFFFFFFFFFFF00FFFF00FFFFFFFFFFFFFFFFFFFFFF00FFFFFFFFFFFFFFFFFFFFFFFFFFFFFFFF00FFFF00FFFFFFFFFFFFFFFFFFFFFF00FFFFFFFFFFFFFFFFFFFFFFFFFFFFFFFF00FFFF00FFFFFFFFFFFFFFFFFFFF00FFFFFFFFFFFFFFFFFFFFFFFFFFFF
310
FFFFFF00FFFF00FFFFFFFFFFFFFFFFFFFF00FFFFFFFFFFFFFFFFFFFFFFFFFFFFFFFFFF00FFFF00FFFFFFFFFFFFFFFFFFFF00FFFFFFFFFFFFFFFFFFFFFFFFFFFFFFFFFF00FFFF00FFFFFFFFFFFFFFFFFFFF00FFFFFFFFFFFFFFFFFFFFFFFFFFFFFFFFFF00FFFF00FFFFFFFFFFFFFFFFFFFF00FFFFFFFFFFFFFFFFFFFFFFFFFF
310
FFFFFFFF00FFFF00FFFFFFFFFFFFFFFFFF0000FFFF00FFFFFFFFFFFFFFFFFFFFFFFFFFFF00FFFF00FFFFFFFFFFFFFFFF0000FFFFFF00FFFFFFFFFFFFFFFFFFFFFFFFFFFF00FFFF00000000000000000000FFFFFFFF00FFFFFFFFFFFFFFFFFFFFFFFFFFFF00FFFFFFFFFFFFFFFFFFFFFFFFFFFFFF00FFFFFFFFFFFFFFFFFFFF
310
FFFFFFFFFF00FFFFFFFFFFFFFFFFFFFFFFFFFFFF00FFFFFFFFFFFFFFFFFFFFFFFFFFFFFFFF00FFFFFFFFFFFFFFFFFFFFFFFFFFFF00FFFFFFFFFFFFFFFFFFFFFFFFFFFFFFFF00FFFFFFFFFFFFFFFFFFFFFFFFFFFFFF00FFFFFFFFFFFFFFFFFFFFFFFFFFFFFF00FFFFFFFFFFFFFFFFFFFFFFFFFFFFFF00FFFFFFFFFFFFFFFFFF
310
FFFFFFFFFFFF00FFFF00000000000000000000FFFFFFFF00FFFFFFFFFFFFFFFFFFFFFFFFFFFF00FFFF00FFFFFFFFFFFFFFFFFF0000FFFF00
102
{BLKREFS
331
2700
102
}
  0
BLOCK_RECORD
  5
26E6
330
2414
100
AcDbSymbolTableRecord
100
AcDbBlockTableRecord
  2
AI9-BLK3
340
0
310
2800000020000000200000000100080000000000000400000000000000000000000000000000000000000000000080000080000000808000800000008000800080800000C0C0C000C0DCC000F0CAA6000020400000206000002080000020A0000020C0000020E00000400000004020000040400000406000004080000040A0
310
000040C0000040E00000600000006020000060400000606000006080000060A0000060C0000060E00000800000008020000080400000806000008080000080A0000080C0000080E00000A0000000A0200000A0400000A0600000A0800000A0A00000A0C00000A0E00000C0000000C0200000C0400000C0600000C0800000C0
310
A00000C0C00000C0E00000E0000000E0200000E0400000E0600000E0800000E0A00000E0C00000E0E00040000000400020004000400040006000400080004000A0004000C0004000E00040200000402020004020400040206000402080004020A0004020C0004020E000404000004040200040404000404060004040800040
310
40A0004040C0004040E00040600000406020004060400040606000406080004060A0004060C0004060E00040800000408020004080400040806000408080004080A0004080C0004080E00040A0000040A0200040A0400040A0600040A0800040A0A00040A0C00040A0E00040C0000040C0200040C0400040C0600040C08000
310
40C0A00040C0C00040C0E00040E0000040E0200040E0400040E0600040E0800040E0A00040E0C00040E0E00080000000800020008000400080006000800080008000A0008000C0008000E00080200000802020008020400080206000802080008020A0008020C0008020E00080400000804020008040400080406000804080
310
008040A0008040C0008040E00080600000806020008060400080606000806080008060A0008060C0008060E00080800000808020008080400080806000808080008080A0008080C0008080E00080A0000080A0200080A0400080A0600080A0800080A0A00080A0C00080A0E00080C0000080C0200080C0400080C0600080C0
310
800080C0A00080C0C00080C0E00080E0000080E0200080E0400080E0600080E0800080E0A00080E0C00080E0E000C0000000C0002000C0004000C0006000C0008000C000A000C000C000C000E000C0200000C0202000C0204000C0206000C0208000C020A000C020C000C020E000C0400000C0402000C0404000C0406000C0
310
408000C040A000C040C000C040E000C0600000C0602000C0604000C0606000C0608000C060A000C060C000C060E000C0800000C0802000C0804000C0806000C0808000C080A000C080C000C080E000C0A00000C0A02000C0A04000C0A06000C0A08000C0A0A000C0A0C000C0A0E000C0C00000C0C02000C0C04000C0C06000
310
C0C08000C0C0A000F0FBFF00A4A0A000808080000000FF0000FF000000FFFF00FF000000FF00FF00FFFF0000FFFFFF00FFFFFFFFFFFFFFFFFFFFFFFFFFFFFFFFFFFFFFFFFFFFFFFFFFFFFFFFFFFFFFFFFFFFFFFFFFFFFFFFFFFFFFFFFFFFFF0000FFFFFFFFFFFFFFFFFFFFFFFFFFFFFFFFFFFFFFFFFFFFFFFFFFFFFFFFFFFF
310
0000FFFFFFFFFFFFFFFFFFFFFFFFFFFFFFFFFFFFFFFFFFFFFFFFFFFFFFFFFFFF0000FFFFFFFFFFFFFFFFFFFFFFFFFFFFFFFFFFFFFFFFFFFFFFFFFFFFFFFFFFFF0000FFFFFFFFFFFFFFFFFFFFFFFFFFFFFFFFFFFFFFFFFFFFFFFFFFFFFFFFFFFF0000FFFFFFFFFFFFFFFFFFFFFFFFFFFFFFFFFFFFFFFFFFFFFFFFFFFFFFFFFF
310
FF0000FFFFFFFFFFFFFFFFFFFFFFFFFFFFFFFFFFFFFFFFFFFFFFFFFFFFFFFFFFFF0000FFFFFFFFFFFFFFFFFFFFFFFFFFFFFFFFFFFFFFFFFFFFFFFFFFFFFFFFFFFF0000FFFFFFFFFFFFFFFFFFFFFFFFFFFFFFFFFFFFFFFFFFFFFFFFFFFFFFFFFFFF0000FFFFFFFFFFFFFFFFFFFFFFFFFFFFFFFFFFFFFFFFFFFFFFFFFFFFFFFF
310
FFFF0000FFFFFFFFFFFFFFFFFFFFFFFFFFFFFFFFFFFFFFFFFFFFFFFFFFFFFFFFFFFF0000FFFFFFFFFFFFFFFFFFFFFFFFFFFFFFFFFFFFFFFFFFFFFFFFFFFFFFFFFFFF0000FFFFFFFFFFFFFFFFFFFFFFFFFFFFFFFFFFFFFFFFFFFFFFFFFFFFFFFFFFFF0000FFFFFFFFFFFFFFFFFFFFFFFFFFFFFFFFFFFFFFFFFFFFFFFFFFFFFF
310
FFFFFF0000FFFFFFFFFFFFFFFFFFFFFFFFFFFFFFFFFFFFFFFFFFFFFFFFFFFFFFFFFFFF0000FFFFFFFFFFFFFFFFFFFFFFFFFFFFFFFFFFFFFFFFFFFFFFFFFFFFFFFFFFFF0000FFFFFFFFFFFFFFFFFFFFFFFFFFFFFFFFFFFFFFFFFFFFFFFFFFFFFFFFFFFF0000FFFFFFFFFFFFFFFFFFFFFFFFFFFFFFFFFFFFFFFFFFFFFFFFFFFF
310
FFFFFFFF0000FFFFFFFFFFFFFFFFFFFFFFFFFFFFFFFFFFFFFFFFFFFFFFFFFFFFFFFFFFFF0000FFFFFFFFFFFFFFFFFFFFFFFFFFFFFFFFFFFFFFFFFFFFFFFFFFFFFFFFFFFF0000FFFFFFFFFFFFFFFFFFFFFFFFFFFFFFFFFFFFFFFFFFFFFFFFFFFFFFFFFFFF0000FFFFFFFFFFFFFFFFFFFFFFFFFFFFFFFFFFFFFFFFFFFFFFFFFF
310
FFFFFFFFFF0000FFFFFFFFFFFFFFFFFFFFFFFFFFFFFFFFFFFFFFFFFFFFFFFFFFFFFFFFFFFF0000FFFFFFFFFFFFFFFFFFFFFFFFFFFFFFFFFFFFFFFFFFFFFFFFFFFFFFFFFFFF0000FFFFFFFFFFFFFFFFFFFFFFFFFFFFFFFFFFFFFFFFFFFFFFFFFFFFFFFFFFFF0000FFFFFFFFFFFFFFFFFFFFFFFFFFFFFFFFFFFFFFFFFFFFFFFF
310
FFFFFFFFFFFF0000FFFFFFFFFFFFFFFFFFFFFFFFFFFFFFFFFFFFFFFFFFFFFFFFFFFFFFFFFFFF0000FFFFFFFFFFFFFFFFFFFFFFFFFFFFFFFFFFFFFFFFFFFFFFFFFFFFFFFFFFFF0000FFFFFFFFFFFFFFFFFFFFFFFFFFFFFFFFFFFFFFFFFFFFFFFFFFFFFFFFFFFF0000FFFFFFFFFFFFFFFFFFFFFFFFFFFFFFFFFFFFFFFFFFFFFF
310
FFFFFFFFFFFFFF0000FFFFFFFFFFFFFFFFFFFFFFFFFFFFFFFFFFFFFFFFFFFFFFFFFFFFFFFFFFFFFFFFFFFFFFFFFFFFFFFFFFFFFFFFFFFFFF
102
{BLKREFS
331
2701
102
}
  0
BLOCK_RECORD
  5
26EB
330
2414
100
AcDbSymbolTableRecord
100
AcDbBlockTableRecord
  2
AI9-BLK2
340
0
310
2800000020000000200000000100080000000000000400000000000000000000000000000000000000000000000080000080000000808000800000008000800080800000C0C0C000C0DCC000F0CAA6000020400000206000002080000020A0000020C0000020E00000400000004020000040400000406000004080000040A0
310
000040C0000040E00000600000006020000060400000606000006080000060A0000060C0000060E00000800000008020000080400000806000008080000080A0000080C0000080E00000A0000000A0200000A0400000A0600000A0800000A0A00000A0C00000A0E00000C0000000C0200000C0400000C0600000C0800000C0
310
A00000C0C00000C0E00000E0000000E0200000E0400000E0600000E0800000E0A00000E0C00000E0E00040000000400020004000400040006000400080004000A0004000C0004000E00040200000402020004020400040206000402080004020A0004020C0004020E000404000004040200040404000404060004040800040
310
40A0004040C0004040E00040600000406020004060400040606000406080004060A0004060C0004060E00040800000408020004080400040806000408080004080A0004080C0004080E00040A0000040A0200040A0400040A0600040A0800040A0A00040A0C00040A0E00040C0000040C0200040C0400040C0600040C08000
310
40C0A00040C0C00040C0E00040E0000040E0200040E0400040E0600040E0800040E0A00040E0C00040E0E00080000000800020008000400080006000800080008000A0008000C0008000E00080200000802020008020400080206000802080008020A0008020C0008020E00080400000804020008040400080406000804080
310
008040A0008040C0008040E00080600000806020008060400080606000806080008060A0008060C0008060E00080800000808020008080400080806000808080008080A0008080C0008080E00080A0000080A0200080A0400080A0600080A0800080A0A00080A0C00080A0E00080C0000080C0200080C0400080C0600080C0
310
800080C0A00080C0C00080C0E00080E0000080E0200080E0400080E0600080E0800080E0A00080E0C00080E0E000C0000000C0002000C0004000C0006000C0008000C000A000C000C000C000E000C0200000C0202000C0204000C0206000C0208000C020A000C020C000C020E000C0400000C0402000C0404000C0406000C0
310
408000C040A000C040C000C040E000C0600000C0602000C0604000C0606000C0608000C060A000C060C000C060E000C0800000C0802000C0804000C0806000C0808000C080A000C080C000C080E000C0A00000C0A02000C0A04000C0A06000C0A08000C0A0A000C0A0C000C0A0E000C0C00000C0C02000C0C04000C0C06000
310
C0C08000C0C0A000F0FBFF00A4A0A000808080000000FF0000FF000000FFFF00FF000000FF00FF00FFFF0000FFFFFF00FFFFFFFFFFFFFFFFFFFFFFFFFFFFFFFFFFFFFFFFFFFFFFFFFFFFFFFFFFFFFFFFFFFFFFFFFFFFFFFFFFFFFFFFFFFFFF0000FFFFFFFFFFFFFFFFFFFFFFFFFFFFFFFFFFFFFFFFFFFFFFFFFFFFFFFFFFFF
310
0000FFFFFFFFFFFFFFFFFFFFFFFFFFFFFFFFFFFFFFFFFFFFFFFFFFFFFFFFFFFF0000FFFFFFFFFFFFFFFFFFFFFFFFFFFFFFFFFFFFFFFFFFFFFFFFFFFFFFFFFF00FFFF00FFFFFFFFFFFFFFFFFFFFFFFFFFFFFFFFFFFFFFFFFFFFFFFFFFFFFFFF00FFFF00FFFFFFFFFFFFFFFFFFFFFFFFFFFFFFFFFFFFFFFFFFFFFFFFFFFFFFFF
310
00FF0000FFFFFFFFFFFFFFFFFFFFFFFFFFFFFFFFFFFFFFFFFFFFFFFFFFFFFFFF00FF0000FFFFFFFFFFFFFFFFFFFFFFFFFFFFFFFFFFFFFFFFFFFFFFFFFFFFFFFF00FF0000FFFFFFFFFFFFFFFFFFFFFFFFFFFFFFFFFFFFFFFFFFFFFFFFFFFFFFFF00000000FFFFFFFFFFFFFFFFFFFFFFFFFFFFFFFFFFFFFFFFFFFFFFFFFFFFFF
310
00FF00FF0000FFFFFFFFFFFFFFFFFFFFFFFFFFFFFFFFFFFFFFFFFFFFFFFFFFFF00FF00FF0000FFFFFFFFFFFFFFFFFFFFFFFFFFFFFFFFFFFFFFFFFFFFFFFFFFFF00FF00FF0000FFFFFFFFFFFFFFFFFFFFFFFFFFFFFFFFFFFFFFFFFFFFFFFFFFFF00FF00FF0000FFFFFFFFFFFFFFFFFFFFFFFFFFFFFFFFFFFFFFFFFFFFFFFFFF
310
FF00FF00FF0000FFFFFFFFFFFFFFFFFFFFFFFFFFFFFFFFFFFFFFFFFFFFFFFFFFFF0000FFFF0000FFFFFFFFFFFFFFFFFFFFFFFFFFFFFFFFFFFFFFFFFFFFFFFFFF00FF00FFFF00FF00FFFFFFFFFFFFFFFFFFFFFFFFFFFFFFFFFFFFFFFFFFFFFFFF00FF00FFFF00FF00FFFFFFFFFFFFFFFFFFFFFFFFFFFFFFFFFFFFFFFFFFFFFF
310
FF00FF00FFFFFF0000FFFFFFFFFFFFFFFFFFFFFFFFFFFFFFFFFFFFFFFFFFFFFFFF00FF00FFFFFF0000FFFFFFFFFFFFFFFFFFFFFFFFFFFFFFFFFFFFFFFFFFFFFFFF00FF00FFFFFF0000FFFFFFFFFFFFFFFFFFFFFFFFFFFFFFFFFFFFFFFFFFFFFFFF0000FFFFFFFF0000FFFFFFFFFFFFFFFFFFFFFFFFFFFFFFFFFFFFFFFFFFFF
310
FF00FF00FFFFFFFF00FF00FFFFFFFFFFFFFFFFFFFFFFFFFFFFFFFFFFFFFFFFFFFF00FF00FFFFFFFF00FF00FFFFFFFFFFFFFFFFFFFFFFFFFFFFFFFFFFFFFFFFFFFF00FF00FFFFFFFF00FF00FFFFFFFFFFFFFFFFFFFFFFFFFFFFFFFFFFFFFFFFFFFF00FF00FFFFFFFF00FF00FFFFFFFFFFFFFFFFFFFFFFFFFFFFFFFFFFFFFFFF
310
FFFF00FF00FFFFFFFFFF0000FFFFFFFFFFFFFFFFFFFFFFFFFFFFFFFFFFFFFFFFFFFF0000FFFFFFFFFFFF0000FFFFFFFFFFFFFFFFFFFFFFFFFFFFFFFFFFFFFFFFFF00FF00FFFFFFFFFFFF00FF00FFFFFFFFFFFFFFFFFFFFFFFFFFFFFFFFFFFFFFFF00FF00FFFFFFFFFFFF00FF00FFFFFFFFFFFFFFFFFFFFFFFFFFFFFFFFFFFF
310
FFFF000000FFFFFFFFFFFF000000FFFFFFFFFFFFFFFFFFFFFFFFFFFFFFFFFFFFFFFFFFFFFFFFFFFFFFFFFFFFFFFFFFFFFFFFFFFFFFFFFFFF
102
{BLKREFS
331
2702
102
}
  0
BLOCK_RECORD
  5
26F0
330
2414
100
AcDbSymbolTableRecord
100
AcDbBlockTableRecord
  2
AI9-BLK1
340
0
310
2800000020000000200000000100080000000000000400000000000000000000000000000000000000000000000080000080000000808000800000008000800080800000C0C0C000C0DCC000F0CAA6000020400000206000002080000020A0000020C0000020E00000400000004020000040400000406000004080000040A0
310
000040C0000040E00000600000006020000060400000606000006080000060A0000060C0000060E00000800000008020000080400000806000008080000080A0000080C0000080E00000A0000000A0200000A0400000A0600000A0800000A0A00000A0C00000A0E00000C0000000C0200000C0400000C0600000C0800000C0
310
A00000C0C00000C0E00000E0000000E0200000E0400000E0600000E0800000E0A00000E0C00000E0E00040000000400020004000400040006000400080004000A0004000C0004000E00040200000402020004020400040206000402080004020A0004020C0004020E000404000004040200040404000404060004040800040
310
40A0004040C0004040E00040600000406020004060400040606000406080004060A0004060C0004060E00040800000408020004080400040806000408080004080A0004080C0004080E00040A0000040A0200040A0400040A0600040A0800040A0A00040A0C00040A0E00040C0000040C0200040C0400040C0600040C08000
310
40C0A00040C0C00040C0E00040E0000040E0200040E0400040E0600040E0800040E0A00040E0C00040E0E00080000000800020008000400080006000800080008000A0008000C0008000E00080200000802020008020400080206000802080008020A0008020C0008020E00080400000804020008040400080406000804080
310
008040A0008040C0008040E00080600000806020008060400080606000806080008060A0008060C0008060E00080800000808020008080400080806000808080008080A0008080C0008080E00080A0000080A0200080A0400080A0600080A0800080A0A00080A0C00080A0E00080C0000080C0200080C0400080C0600080C0
310
800080C0A00080C0C00080C0E00080E0000080E0200080E0400080E0600080E0800080E0A00080E0C00080E0E000C0000000C0002000C0004000C0006000C0008000C000A000C000C000C000E000C0200000C0202000C0204000C0206000C0208000C020A000C020C000C020E000C0400000C0402000C0404000C0406000C0
310
408000C040A000C040C000C040E000C0600000C0602000C0604000C0606000C0608000C060A000C060C000C060E000C0800000C0802000C0804000C0806000C0808000C080A000C080C000C080E000C0A00000C0A02000C0A04000C0A06000C0A08000C0A0A000C0A0C000C0A0E000C0C00000C0C02000C0C04000C0C06000
310
C0C08000C0C0A000F0FBFF00A4A0A000808080000000FF0000FF000000FFFF00FF000000FF00FF00FFFF0000FFFFFF00FFFFFFFFFFFFFFFFFFFFFFFFFFFFFFFFFFFFFFFFFFFFFFFFFFFFFFFFFFFFFFFFFFFFFFFFFFFFFFFFFFFFFF00000000000000000000FFFFFFFFFFFFFFFFFFFFFFFFFFFFFFFFFFFFFFFFFFFF00FFFFFF
310
FFFFFFFFFF00FFFFFFFFFFFFFFFFFFFFFFFFFFFFFFFFFFFFFFFFFFFF00FFFFFFFFFFFFFFFF00FFFFFFFFFFFFFFFFFFFFFFFFFFFFFFFFFFFFFFFFFFFF00FFFFFFFFFFFFFFFF00FFFFFFFFFFFFFFFFFFFFFFFFFFFFFFFFFFFFFFFFFFFF00FF0000000000000000FFFFFFFFFFFFFFFFFFFFFFFFFFFFFFFFFFFFFFFFFFFF00FF00
310
FFFFFFFFFFFFFFFFFFFFFFFFFFFFFFFFFFFFFFFFFFFFFFFFFFFFFFFFFF00FF00FFFFFFFFFFFFFFFFFFFFFFFFFFFFFFFFFFFFFFFFFFFFFFFFFFFFFFFFFF00FF00FFFFFFFFFFFFFFFFFFFFFFFFFFFFFFFFFFFFFFFFFFFFFFFFFFFFFFFFFF00FF00FFFFFFFFFFFFFFFFFFFFFFFFFFFFFFFFFFFFFFFFFFFFFFFFFFFFFFFFFF00FF
310
00FFFFFFFFFFFFFFFFFFFFFFFFFFFFFFFFFFFFFFFFFFFFFFFFFFFFFFFFFF00FF00FFFFFFFFFFFFFFFFFFFFFFFFFFFFFFFFFFFFFFFFFFFFFFFFFFFFFFFFFF00FF00FFFFFFFFFFFFFFFFFFFFFFFFFFFFFFFFFFFFFFFFFFFFFFFFFFFFFFFFFF00FF00FFFFFFFFFFFFFFFFFFFFFFFFFFFFFFFFFFFFFFFFFFFFFFFFFFFFFFFFFF00
310
FF00000000000000FFFFFFFFFFFFFFFFFFFFFFFFFFFFFFFFFFFFFFFFFFFFFF00FFFFFFFFFFFFFF00FFFFFFFFFFFFFFFFFFFFFFFFFFFFFFFFFFFFFFFFFFFFFF00FFFFFFFFFFFFFF00FFFFFFFFFFFFFFFFFFFFFFFFFFFFFFFFFFFFFFFFFFFFFF00FFFFFFFFFFFFFF00FFFFFFFFFFFFFFFFFFFFFFFFFFFFFFFFFFFFFFFFFFFFFF
310
00FF00000000000000FFFFFFFFFFFFFFFFFFFFFFFFFFFFFFFFFFFFFFFFFFFFFF00FF00FFFFFFFFFFFFFFFFFFFFFFFFFFFFFFFFFFFFFFFFFFFFFFFFFFFFFFFFFF00FF00FFFFFFFFFFFFFFFFFFFFFFFFFFFFFFFFFFFFFFFFFFFFFFFFFFFFFFFFFF00FF00FFFFFFFFFFFFFFFFFFFFFFFFFFFFFFFFFFFFFFFFFFFFFFFFFFFFFFFF
310
FF00FF00FFFFFFFFFFFFFFFFFFFFFFFFFFFFFFFFFFFFFFFFFFFFFFFFFFFFFFFFFF00FF00FFFFFFFFFFFFFFFFFFFFFFFFFFFFFFFFFFFFFFFFFFFFFFFFFFFFFFFFFF00FF00FFFFFFFFFFFFFFFFFFFFFFFFFFFFFFFFFFFFFFFFFFFFFFFFFFFFFFFFFF00FF00FFFFFFFFFFFFFFFFFFFFFFFFFFFFFFFFFFFFFFFFFFFFFFFFFFFFFF
310
FFFF00FF0000000000000000FFFFFFFFFFFFFFFFFFFFFFFFFFFFFFFFFFFFFFFFFFFF00FFFFFFFFFFFFFFFF00FFFFFFFFFFFFFFFFFFFFFFFFFFFFFFFFFFFFFFFFFFFF00FFFFFFFFFFFFFFFF00FFFFFFFFFFFFFFFFFFFFFFFFFFFFFFFFFFFFFFFFFFFF00FFFFFFFFFFFFFFFF00FFFFFFFFFFFFFFFFFFFFFFFFFFFFFFFFFFFFFF
310
FFFFFF00000000000000000000FFFFFFFFFFFFFFFFFFFFFFFFFFFFFFFFFFFFFFFFFFFFFFFFFFFFFFFFFFFFFFFFFFFFFFFFFFFFFFFFFFFFFF
102
{BLKREFS
331
2703
102
}
  0
BLOCK_RECORD
  5
26F5
330
2414
100
AcDbSymbolTableRecord
100
AcDbBlockTableRecord
  2
HD_LLC_logo_OT5
340
0
310
2800000020000000200000000100080000000000000400000000000000000000000000000000000000000000000080000080000000808000800000008000800080800000C0C0C000C0DCC000F0CAA6000020400000206000002080000020A0000020C0000020E00000400000004020000040400000406000004080000040A0
310
000040C0000040E00000600000006020000060400000606000006080000060A0000060C0000060E00000800000008020000080400000806000008080000080A0000080C0000080E00000A0000000A0200000A0400000A0600000A0800000A0A00000A0C00000A0E00000C0000000C0200000C0400000C0600000C0800000C0
310
A00000C0C00000C0E00000E0000000E0200000E0400000E0600000E0800000E0A00000E0C00000E0E00040000000400020004000400040006000400080004000A0004000C0004000E00040200000402020004020400040206000402080004020A0004020C0004020E000404000004040200040404000404060004040800040
310
40A0004040C0004040E00040600000406020004060400040606000406080004060A0004060C0004060E00040800000408020004080400040806000408080004080A0004080C0004080E00040A0000040A0200040A0400040A0600040A0800040A0A00040A0C00040A0E00040C0000040C0200040C0400040C0600040C08000
310
40C0A00040C0C00040C0E00040E0000040E0200040E0400040E0600040E0800040E0A00040E0C00040E0E00080000000800020008000400080006000800080008000A0008000C0008000E00080200000802020008020400080206000802080008020A0008020C0008020E00080400000804020008040400080406000804080
310
008040A0008040C0008040E00080600000806020008060400080606000806080008060A0008060C0008060E00080800000808020008080400080806000808080008080A0008080C0008080E00080A0000080A0200080A0400080A0600080A0800080A0A00080A0C00080A0E00080C0000080C0200080C0400080C0600080C0
310
800080C0A00080C0C00080C0E00080E0000080E0200080E0400080E0600080E0800080E0A00080E0C00080E0E000C0000000C0002000C0004000C0006000C0008000C000A000C000C000C000E000C0200000C0202000C0204000C0206000C0208000C020A000C020C000C020E000C0400000C0402000C0404000C0406000C0
310
408000C040A000C040C000C040E000C0600000C0602000C0604000C0606000C0608000C060A000C060C000C060E000C0800000C0802000C0804000C0806000C0808000C080A000C080C000C080E000C0A00000C0A02000C0A04000C0A06000C0A08000C0A0A000C0A0C000C0A0E000C0C00000C0C02000C0C04000C0C06000
310
C0C08000C0C0A000F0FBFF00A4A0A000808080000000FF0000FF000000FFFF00FF000000FF00FF00FFFF0000FFFFFF00FFFFFFFFFFFFFFFFFFFFFFFFFFFFFFFFFFFFFFFFFFFFFFFFFFFFFFFFFFFFFFFFFFFFFFFFFFFFFFFFFFFFFFFFFFFFFFFFFFFFFFFFFFFFFFFFFFFFFFFFFFFFFFFFFFFFFFFFFFFFFFFFFFFFFFFFFFFFFF
310
FFFFFFFFFFFFFFFFFFFFFFFFFFFFFFFFFFFFFFFFFFFFFFFFFFFFFFFFFFFFFFFFFFFFFFFFFFFFFFFFFFFFFFFFFFFFFFFFFFFFFFFFFFFFFFFFFFFFFFFFFFFFFFFFFFFFFFFFFFFFFFFFFFFFFFFFFFFFFFFFFFFFFFFFFFFFFFFFFFFFFFFFFFFFFFFFFFFFFFFFFFFFFFFFFFFFFFFFFFFFFFFFFFFFFFFFFFFFFFFFFFFFFFFFFFFFFF
310
FFFFFFFFFFFFFFFFFFFFFFFFFFFFFFFFFFFFFFFFFFFFFFFFFFFFFFFFFFFFFFFFFFFFFFFFFFFFFFFFFFFFFFFFFFFFFFFFFFFFFFFFFFFFFFFFFFFFFFFFFFFFFFFFFFFFFFFFFFFFFFFFFFFFFFFFFFFFFFFFFFFFFFFFFFFFFFFFFFFFFFFFFFFFFFFFFFFFFFFFFFFFFFFFFFFFFFFFFFFFFFFFFFFFFFFFFFFFFFFFFFFFFFFFFFFFFF
310
FFFFFFFFFFFFFFFFFFFFFFFFFFFFFFFFFFFFFFFFFFFFFFFFFFFFFFFFFFFFFFFFFFFFFFFFFFFFFFFFFFFFFFFFFFFFFFFFFFFFFFFF0000000000000000000000000000000000000000000000000000000000FFFFFF0000000000000000000000000000000000FFFFFFFFFFFFFFFFFFFF0000FFFFFF0000000000000000000000
310
00000000000000FFFFFFFFFFFFFFFFFFFF0000FFFF000000000000000000000000000000000000FFFFFF00000000FFFFFF0000FFFF00FFFFFFFFFFFF00FFFFFF00FFFFFFFFFF00FFFFFF0000000000FFFF0000FFFF00FFFFFFFFFFFF00FFFFFF00FFFFFFFFFF00FFFFFF00FFFF0000FFFF0000FFFF00FFFFFFFFFFFF00FFFF
310
00FFFFFFFFFFFF00FFFFFF00FFFF0000FFFF0000FFFF0000000000FFFF00000000FFFFFF00000000FFFFFF00000000FFFFFF0000FFFFFFFFFFFF00FFFFFFFFFFFFFFFFFF00FFFFFFFFFFFFFFFFFFFFFFFFFF0000FFFFFFFFFFFF00FFFFFFFFFFFFFFFFFF00FFFFFFFFFFFFFFFFFFFFFFFFFF0000FFFFFFFFFFFF00FFFFFFFF
310
FFFFFFFFFF00FFFFFFFFFFFFFFFFFFFFFFFF0000FFFFFF0000000000FFFF00000000FFFFFF0000000000000000000000000000FFFFFFFF00FFFFFFFFFFFF00FFFF00FFFFFFFFFFFF00FFFFFFFFFFFFFFFFFFFFFFFFFFFF00FFFFFFFFFFFF00FFFFFF00FFFFFFFFFF00FFFFFFFFFFFFFFFFFFFFFFFFFFFF0000000000000000
310
FFFFFF00000000000000FFFFFFFFFFFFFFFFFFFFFFFFFFFFFFFFFFFFFFFFFFFFFFFFFFFFFFFFFFFFFFFFFFFFFFFFFFFFFFFFFFFFFFFFFFFFFFFFFFFFFFFFFFFFFFFFFFFFFFFFFFFFFFFFFFFFFFFFFFFFFFFFFFFFFFFFFFFFFFFFFFFFFFFFFFFFFFFFFFFFFFFFFFFFFFFFFFFFFFFFFFFFFFFFFFFFFFFFFFFFFFFFFFFFFFFFFF
310
FFFFFFFFFFFFFFFFFFFFFFFFFFFFFFFFFFFFFFFFFFFFFFFFFFFFFFFFFFFFFFFFFFFFFFFFFFFFFFFFFFFFFFFFFFFFFFFFFFFFFFFFFFFFFFFF
102
{BLKREFS
331
271B
102
}
  0
BLOCK_RECORD
  5
271A
330
2414
100
AcDbSymbolTableRecord
100
AcDbBlockTableRecord
  2
HD logo-new
340
0
310
2800000020000000200000000100080000000000000400000000000000000000000000000000000000000000000080000080000000808000800000008000800080800000C0C0C000C0DCC000F0CAA6000020400000206000002080000020A0000020C0000020E00000400000004020000040400000406000004080000040A0
310
000040C0000040E00000600000006020000060400000606000006080000060A0000060C0000060E00000800000008020000080400000806000008080000080A0000080C0000080E00000A0000000A0200000A0400000A0600000A0800000A0A00000A0C00000A0E00000C0000000C0200000C0400000C0600000C0800000C0
310
A00000C0C00000C0E00000E0000000E0200000E0400000E0600000E0800000E0A00000E0C00000E0E00040000000400020004000400040006000400080004000A0004000C0004000E00040200000402020004020400040206000402080004020A0004020C0004020E000404000004040200040404000404060004040800040
310
40A0004040C0004040E00040600000406020004060400040606000406080004060A0004060C0004060E00040800000408020004080400040806000408080004080A0004080C0004080E00040A0000040A0200040A0400040A0600040A0800040A0A00040A0C00040A0E00040C0000040C0200040C0400040C0600040C08000
310
40C0A00040C0C00040C0E00040E0000040E0200040E0400040E0600040E0800040E0A00040E0C00040E0E00080000000800020008000400080006000800080008000A0008000C0008000E00080200000802020008020400080206000802080008020A0008020C0008020E00080400000804020008040400080406000804080
310
008040A0008040C0008040E00080600000806020008060400080606000806080008060A0008060C0008060E00080800000808020008080400080806000808080008080A0008080C0008080E00080A0000080A0200080A0400080A0600080A0800080A0A00080A0C00080A0E00080C0000080C0200080C0400080C0600080C0
310
800080C0A00080C0C00080C0E00080E0000080E0200080E0400080E0600080E0800080E0A00080E0C00080E0E000C0000000C0002000C0004000C0006000C0008000C000A000C000C000C000E000C0200000C0202000C0204000C0206000C0208000C020A000C020C000C020E000C0400000C0402000C0404000C0406000C0
310
408000C040A000C040C000C040E000C0600000C0602000C0604000C0606000C0608000C060A000C060C000C060E000C0800000C0802000C0804000C0806000C0808000C080A000C080C000C080E000C0A00000C0A02000C0A04000C0A06000C0A08000C0A0A000C0A0C000C0A0E000C0C00000C0C02000C0C04000C0C06000
310
C0C08000C0C0A000F0FBFF00A4A0A000808080000000FF0000FF000000FFFF00FF000000FF00FF00FFFF0000FFFFFF00FFFFFFFFFFFFFFFFFFFFFFFFFFFFFFFFFFFFFFFFFFFFFFFFFFFFFFFFFFFFFFFFFFFFFFFFFFFFFFFFFFFFFFFFFFFFFFFFFFFFFFFFFFFFFFFFFFFFFFFFFFFFFFFFFFFFFFFFFFFFFFFFFFFFFFFFFFFFFF
310
FFFFFFFFFFFFFFFFFFFFFFFFFFFFFFFFFFFFFFFFFFFFFFFFFFFFFFFFFFFFFFFFFFFFFFFFFFFFFFFFFFFFFFFFFFFFFFFFFFFFFFFFFFFFFFFFFFFFFFFFFFFFFFFFFFFFFFFFFFFFFFFFFFFFFFFFFFFFFFFFFFFFFFFFFFFFFFFFFFFFFFFFFFFFFFFFFFFFFFFFFFFFFFFFFFFFFFFFFFFFFFFFFFFFFFFFFFFFFFFFFFFFFFFFFFFFFF
310
FFFFFFFFFFFFFFFFFFFFFFFFFFFFFFFFFFFFFFFFFFFFFFFFFFFFFFFFFFFFFFFFFFFFFFFFFFFFFFFFFFFFFFFFFFFFFFFFFFFFFFFFFFFFFFFFFFFFFFFFFFFFFFFFFFFFFFFFFFFFFFFFFFFFFFFFFFFFFFFFFFFFFFFFFFFFFFFFFFFFFFFFFFFFFFFFFFFFFFFFFFFFFFFFFFFFFFFFFFFFFFFFFFFFFFFFFFFFFFFFFFFFFFFFFFFFFF
310
FFFFFFFFFFFFFFFFFFFFFFFFFFFFFFFFFFFFFFFFFFFFFFFFFFFFFFFFFFFFFFFFFFFFFFFFFFFFFFFFFFFFFFFFFFFFFFFFFFFFFFFF0000000000000000000000000000000000000000000000000000000000FFFFFF0000000000000000000000000000000000FFFFFFFFFFFFFFFFFFFF0000FFFFFF0000000000000000000000
310
00000000000000FFFFFFFFFFFFFFFFFFFF0000FFFF000000000000000000000000000000000000FFFFFF00000000FFFFFF0000FFFF00FFFFFFFFFFFF00FFFFFF00FFFFFFFFFF00FFFFFF0000000000FFFF0000FFFF00FFFFFFFFFFFF00FFFFFF00FFFFFFFFFF00FFFFFF00FFFF0000FFFF0000FFFF00FFFFFFFFFFFF00FFFF
310
00FFFFFFFFFFFF00FFFFFF00FFFF0000FFFF0000FFFF0000000000FFFF00000000FFFFFF00000000FFFFFF00000000FFFFFF0000FFFFFFFFFFFF00FFFFFFFFFFFFFFFFFF00FFFFFFFFFFFFFFFFFFFFFFFFFF0000FFFFFFFFFFFF00FFFFFFFFFFFFFFFFFF00FFFFFFFFFFFFFFFFFFFFFFFFFF0000FFFFFFFFFFFF00FFFFFFFF
310
FFFFFFFFFF00FFFFFFFFFFFFFFFFFFFFFFFF0000FFFFFF0000000000FFFF00000000FFFFFF0000000000000000000000000000FFFFFFFF00FFFFFFFFFFFF00FFFF00FFFFFFFFFFFF00FFFFFFFFFFFFFFFFFFFFFFFFFFFF00FFFFFFFFFFFF00FFFFFF00FFFFFFFFFF00FFFFFFFFFFFFFFFFFFFFFFFFFFFF0000000000000000
310
FFFFFF00000000000000FFFFFFFFFFFFFFFFFFFFFFFFFFFFFFFFFFFFFFFFFFFFFFFFFFFFFFFFFFFFFFFFFFFFFFFFFFFFFFFFFFFFFFFFFFFFFFFFFFFFFFFFFFFFFFFFFFFFFFFFFFFFFFFFFFFFFFFFFFFFFFFFFFFFFFFFFFFFFFFFFFFFFFFFFFFFFFFFFFFFFFFFFFFFFFFFFFFFFFFFFFFFFFFFFFFFFFFFFFFFFFFFFFFFFFFFFF
310
FFFFFFFFFFFFFFFFFFFFFFFFFFFFFFFFFFFFFFFFFFFFFFFFFFFFFFFFFFFFFFFFFFFFFFFFFFFFFFFFFFFFFFFFFFFFFFFFFFFFFFFFFFFFFFFF
102
{BLKREFS
331
271F
331
2BF1
331
2BF5
102
}
  0
BLOCK_RECORD
  5
271E
330
2414
100
AcDbSymbolTableRecord
100
AcDbBlockTableRecord
  2
HD Logo
340
0
310
2800000020000000200000000100080000000000000400000000000000000000000000000000000000000000000080000080000000808000800000008000800080800000C0C0C000C0DCC000F0CAA6000020400000206000002080000020A0000020C0000020E00000400000004020000040400000406000004080000040A0
310
000040C0000040E00000600000006020000060400000606000006080000060A0000060C0000060E00000800000008020000080400000806000008080000080A0000080C0000080E00000A0000000A0200000A0400000A0600000A0800000A0A00000A0C00000A0E00000C0000000C0200000C0400000C0600000C0800000C0
310
A00000C0C00000C0E00000E0000000E0200000E0400000E0600000E0800000E0A00000E0C00000E0E00040000000400020004000400040006000400080004000A0004000C0004000E00040200000402020004020400040206000402080004020A0004020C0004020E000404000004040200040404000404060004040800040
310
40A0004040C0004040E00040600000406020004060400040606000406080004060A0004060C0004060E00040800000408020004080400040806000408080004080A0004080C0004080E00040A0000040A0200040A0400040A0600040A0800040A0A00040A0C00040A0E00040C0000040C0200040C0400040C0600040C08000
310
40C0A00040C0C00040C0E00040E0000040E0200040E0400040E0600040E0800040E0A00040E0C00040E0E00080000000800020008000400080006000800080008000A0008000C0008000E00080200000802020008020400080206000802080008020A0008020C0008020E00080400000804020008040400080406000804080
310
008040A0008040C0008040E00080600000806020008060400080606000806080008060A0008060C0008060E00080800000808020008080400080806000808080008080A0008080C0008080E00080A0000080A0200080A0400080A0600080A0800080A0A00080A0C00080A0E00080C0000080C0200080C0400080C0600080C0
310
800080C0A00080C0C00080C0E00080E0000080E0200080E0400080E0600080E0800080E0A00080E0C00080E0E000C0000000C0002000C0004000C0006000C0008000C000A000C000C000C000E000C0200000C0202000C0204000C0206000C0208000C020A000C020C000C020E000C0400000C0402000C0404000C0406000C0
310
408000C040A000C040C000C040E000C0600000C0602000C0604000C0606000C0608000C060A000C060C000C060E000C0800000C0802000C0804000C0806000C0808000C080A000C080C000C080E000C0A00000C0A02000C0A04000C0A06000C0A08000C0A0A000C0A0C000C0A0E000C0C00000C0C02000C0C04000C0C06000
310
C0C08000C0C0A000F0FBFF00A4A0A000808080000000FF0000FF000000FFFF00FF000000FF00FF00FFFF0000FFFFFF00FFFFFFFFFFFFFFFFFFFFFFFFFFFFFFFFFFFFFFFFFFFFFFFFFFFFFFFFFFFFFFFFFFFFFFFFFFFFFFFFFFFFFFFFFFFFFFFFFFFFFFFFFFFFFFFFFFFFFFFFFFFFFFFFFFFFFFFFFFFFFFFFFFFFFFFFFFFFFF
310
FFFFFFFFFFFFFFFFFFFFFFFFFFFFFFFFFFFFFFFFFFFFFFFFFFFFFFFFFFFFFFFFFFFFFFFFFFFFFFFFFFFFFFFFFFFFFFFFFFFFFFFFFFFFFFFFFFFFFFFFFFFFFFFFFFFFFFFFFFFFFFFFFFFFFFFFFFFFFFFFFFFFFFFFFFFFFFFFFFFFFFFFFFFFFFFFFFFFFFFFFFFFFFFFFFFFFFFFFFFFFFFFFFFFFFFFFFFFFFFFFFFFFFFFFFFFFF
310
FFFFFFFFFFFFFFFFFFFFFFFFFFFFFFFFFFFFFFFFFFFFFFFFFFFFFFFFFFFFFFFFFFFFFFFFFFFFFFFFFFFFFFFFFFFFFFFFFFFFFFFFFFFFFFFFFFFFFFFFFFFFFFFFFFFFFFFFFFFFFFFFFFFFFFFFFFFFFFFFFFFFFFFFFFFFFFFFFFFFFFFFFFFFFFFFFFFFFFFFFFFFFFFFFFFFFFFFFFFFFFFFFFFFFFFFFFFFFFFFFFFFFFFFFFFFFF
310
FFFFFFFFFFFFFFFFFFFFFFFFFFFFFFFFFFFFFFFFFFFFFFFFFFFFFFFFFFFFFFFFFFFFFFFFFFFFFFFFFFFFFFFFFFFFFFFFFFFFFFFF0000000000000000000000000000000000000000000000000000000000FFFFFF0000000000000000000000000000000000FFFFFFFFFFFFFFFFFFFF0000FFFFFF0000000000000000000000
310
00000000000000FFFFFFFFFFFFFFFFFFFF0000FFFF000000000000000000000000000000000000FFFFFF00000000FFFFFF0000FFFF00FFFFFFFFFFFF00FFFFFF00FFFFFFFFFF00FFFFFF0000000000FFFF0000FFFF00FFFFFFFFFFFF00FFFFFF00FFFFFFFFFF00FFFFFF00FFFF0000FFFF0000FFFF00FFFFFFFFFFFF00FFFF
310
00FFFFFFFFFFFF00FFFFFF00FFFF0000FFFF0000FFFF0000000000FFFF00000000FFFFFF00000000FFFFFF00000000FFFFFF0000FFFFFFFFFFFF00FFFFFFFFFFFFFFFFFF00FFFFFFFFFFFFFFFFFFFFFFFFFF0000FFFFFFFFFFFF00FFFFFFFFFFFFFFFFFF00FFFFFFFFFFFFFFFFFFFFFFFFFF0000FFFFFFFFFFFF00FFFFFFFF
310
FFFFFFFFFF00FFFFFFFFFFFFFFFFFFFFFFFF0000FFFFFF0000000000FFFF00000000FFFFFF0000000000000000000000000000FFFFFFFF00FFFFFFFFFFFF00FFFF00FFFFFFFFFFFF00FFFFFFFFFFFFFFFFFFFFFFFFFFFF00FFFFFFFFFFFF00FFFFFF00FFFFFFFFFF00FFFFFFFFFFFFFFFFFFFFFFFFFFFF0000000000000000
310
FFFFFF00000000000000FFFFFFFFFFFFFFFFFFFFFFFFFFFFFFFFFFFFFFFFFFFFFFFFFFFFFFFFFFFFFFFFFFFFFFFFFFFFFFFFFFFFFFFFFFFFFFFFFFFFFFFFFFFFFFFFFFFFFFFFFFFFFFFFFFFFFFFFFFFFFFFFFFFFFFFFFFFFFFFFFFFFFFFFFFFFFFFFFFFFFFFFFFFFFFFFFFFFFFFFFFFFFFFFFFFFFFFFFFFFFFFFFFFFFFFFFF
310
FFFFFFFFFFFFFFFFFFFFFFFFFFFFFFFFFFFFFFFFFFFFFFFFFFFFFFFFFFFFFFFFFFFFFFFFFFFFFFFFFFFFFFFFFFFFFFFFFFFFFFFFFFFFFFFF
102
{BLKREFS
331
2725
331
2729
102
}
  0
BLOCK_RECORD
  5
272A
330
2414
100
AcDbSymbolTableRecord
100
AcDbBlockTableRecord
  2
Harmonic Drive LLC
340
0
310
2800000020000000200000000100080000000000000400000000000000000000000000000000000000000000000080000080000000808000800000008000800080800000C0C0C000C0DCC000F0CAA6000020400000206000002080000020A0000020C0000020E00000400000004020000040400000406000004080000040A0
310
000040C0000040E00000600000006020000060400000606000006080000060A0000060C0000060E00000800000008020000080400000806000008080000080A0000080C0000080E00000A0000000A0200000A0400000A0600000A0800000A0A00000A0C00000A0E00000C0000000C0200000C0400000C0600000C0800000C0
310
A00000C0C00000C0E00000E0000000E0200000E0400000E0600000E0800000E0A00000E0C00000E0E00040000000400020004000400040006000400080004000A0004000C0004000E00040200000402020004020400040206000402080004020A0004020C0004020E000404000004040200040404000404060004040800040
310
40A0004040C0004040E00040600000406020004060400040606000406080004060A0004060C0004060E00040800000408020004080400040806000408080004080A0004080C0004080E00040A0000040A0200040A0400040A0600040A0800040A0A00040A0C00040A0E00040C0000040C0200040C0400040C0600040C08000
310
40C0A00040C0C00040C0E00040E0000040E0200040E0400040E0600040E0800040E0A00040E0C00040E0E00080000000800020008000400080006000800080008000A0008000C0008000E00080200000802020008020400080206000802080008020A0008020C0008020E00080400000804020008040400080406000804080
310
008040A0008040C0008040E00080600000806020008060400080606000806080008060A0008060C0008060E00080800000808020008080400080806000808080008080A0008080C0008080E00080A0000080A0200080A0400080A0600080A0800080A0A00080A0C00080A0E00080C0000080C0200080C0400080C0600080C0
310
800080C0A00080C0C00080C0E00080E0000080E0200080E0400080E0600080E0800080E0A00080E0C00080E0E000C0000000C0002000C0004000C0006000C0008000C000A000C000C000C000E000C0200000C0202000C0204000C0206000C0208000C020A000C020C000C020E000C0400000C0402000C0404000C0406000C0
310
408000C040A000C040C000C040E000C0600000C0602000C0604000C0606000C0608000C060A000C060C000C060E000C0800000C0802000C0804000C0806000C0808000C080A000C080C000C080E000C0A00000C0A02000C0A04000C0A06000C0A08000C0A0A000C0A0C000C0A0E000C0C00000C0C02000C0C04000C0C06000
310
C0C08000C0C0A000F0FBFF00A4A0A000808080000000FF0000FF000000FFFF00FF000000FF00FF00FFFF0000FFFFFF00FFFFFFFFFFFFFFFFFFFFFFFFFFFFFFFFFFFFFFFFFFFFFFFFFFFFFFFFFFFFFFFFFFFFFFFFFFFFFFFFFFFFFFFFFFFFFFFFFFFFFFFFFFFFFFFFFFFFFFFFFFFFFFFFFFFFFFFFFFFFFFFFFFFFFFFFFFFFFF
310
FFFFFFFFFFFFFFFFFFFFFFFFFFFFFFFFFFFFFFFFFFFFFFFFFFFFFFFFFFFFFFFFFFFFFFFFFFFFFFFFFFFFFFFFFFFFFFFFFFFFFFFFFFFFFFFFFFFFFFFFFFFFFFFFFFFFFFFFFFFFFFFFFFFFFFFFFFFFFFFFFFFFFFFFFFFFFFFFFFFFFFFFFFFFFFFFFFFFFFFFFFFFFFFFFFFFFFFFFFFFFFFFFFFFFFFFFFFFFFFFFFFFFFFFFFFFFF
310
FFFFFFFFFFFFFFFFFFFFFFFFFFFFFFFFFFFFFFFFFFFFFFFFFFFFFFFFFFFFFFFFFFFFFFFFFFFFFFFFFFFFFFFFFFFFFFFFFFFFFFFFFFFFFFFFFFFFFFFFFFFFFFFFFFFFFFFFFFFFFFFFFFFFFFFFFFFFFFFFFFFFFFFFFFFFFFFFFFFFFFFFFFFFFFFFFFFFFFFFFFFFFFFFFFFFFFFFFFFFFFFFFFFFFFFFFFFFFFFFFFFFFFFFFFFFFF
310
FFFFFFFFFFFFFFFFFFFFFFFFFFFFFFFFFFFFFFFFFFFFFFFFFFFFFFFFFFFFFFFFFFFFFFFFFFFFFFFFFFFFFFFFFFFFFFFFFFFFFFFFFFFFFFFFFFFFFFFFFFFFFFFFFFFFFFFFFFFFFFFFFFFFFFFFFFFFFFFFFFFFFFFFFFFFFF000000000000000000000000000000000000000000000000FFFFFFFFFFFFFFFF0000000000000000
310
00000000000000000000000000000000FFFFFFFFFFFFFFFFFFFFFFFF00000000FF00000000FF000000000000FFFFFFFFFFFFFFFFFFFFFFFFFFFFFFFF00000000000000000000000000000000FFFFFFFFFFFFFFFFFFFFFFFFFF00000000000000000000FF000000000000FF00000000FFFFFFFFFFFFFFFFFFFF000000000000
310
00000000FF000000000000FF00000000FFFFFFFFFFFFFFFFFFFFFFFFFFFFFFFFFFFFFFFFFFFFFFFFFFFFFFFFFFFFFFFFFFFFFFFFFFFFFFFFFFFFFFFFFFFFFFFFFFFFFFFFFFFFFFFFFFFFFFFFFFFFFFFFFFFFFFFFFFFFFFFFFFFFFFFFFFFFFFFFFFFFFFFFFFFFFFFFFFFFFFFFFFFFFFFFFFFFFFFFFFFFFFFFFFFFFFFFFFFFFF
310
FFFFFFFFFFFFFFFFFFFFFFFFFFFFFFFFFFFFFFFFFFFFFFFFFFFFFFFFFFFFFFFFFFFFFFFFFFFFFFFFFFFFFFFFFFFFFFFFFFFFFFFFFFFFFFFFFFFFFFFFFFFFFFFFFFFFFFFFFFFFFFFFFFFFFFFFFFFFFFFFFFFFFFFFFFFFFFFFFFFFFFFFFFFFFFFFFFFFFFFFFFFFFFFFFFFFFFFFFFFFFFFFFFFFFFFFFFFFFFFFFFFFFFFFFFFFFF
310
FFFFFFFFFFFFFFFFFFFFFFFFFFFFFFFFFFFFFFFFFFFFFFFFFFFFFFFFFFFFFFFFFFFFFFFFFFFFFFFFFFFFFFFFFFFFFFFFFFFFFFFFFFFFFFFFFFFFFFFFFFFFFFFFFFFFFFFFFFFFFFFFFFFFFFFFFFFFFFFFFFFFFFFFFFFFFFFFFFFFFFFFFFFFFFFFFFFFFFFFFFFFFFFFFFFFFFFFFFFFFFFFFFFFFFFFFFFFFFFFFFFFFFFFFFFFFF
310
FFFFFFFFFFFFFFFFFFFFFFFFFFFFFFFFFFFFFFFFFFFFFFFFFFFFFFFFFFFFFFFFFFFFFFFFFFFFFFFFFFFFFFFFFFFFFFFFFFFFFFFFFFFFFFFF
102
{BLKREFS
331
272F
331
2733
102
}
  0
BLOCK_RECORD
  5
2BE6
330
2414
100
AcDbSymbolTableRecord
100
AcDbBlockTableRecord
  2
HD LLC
340
0
310
2800000020000000200000000100080000000000000400000000000000000000000000000000000000000000000080000080000000808000800000008000800080800000C0C0C000C0DCC000F0CAA6000020400000206000002080000020A0000020C0000020E00000400000004020000040400000406000004080000040A0
310
000040C0000040E00000600000006020000060400000606000006080000060A0000060C0000060E00000800000008020000080400000806000008080000080A0000080C0000080E00000A0000000A0200000A0400000A0600000A0800000A0A00000A0C00000A0E00000C0000000C0200000C0400000C0600000C0800000C0
310
A00000C0C00000C0E00000E0000000E0200000E0400000E0600000E0800000E0A00000E0C00000E0E00040000000400020004000400040006000400080004000A0004000C0004000E00040200000402020004020400040206000402080004020A0004020C0004020E000404000004040200040404000404060004040800040
310
40A0004040C0004040E00040600000406020004060400040606000406080004060A0004060C0004060E00040800000408020004080400040806000408080004080A0004080C0004080E00040A0000040A0200040A0400040A0600040A0800040A0A00040A0C00040A0E00040C0000040C0200040C0400040C0600040C08000
310
40C0A00040C0C00040C0E00040E0000040E0200040E0400040E0600040E0800040E0A00040E0C00040E0E00080000000800020008000400080006000800080008000A0008000C0008000E00080200000802020008020400080206000802080008020A0008020C0008020E00080400000804020008040400080406000804080
310
008040A0008040C0008040E00080600000806020008060400080606000806080008060A0008060C0008060E00080800000808020008080400080806000808080008080A0008080C0008080E00080A0000080A0200080A0400080A0600080A0800080A0A00080A0C00080A0E00080C0000080C0200080C0400080C0600080C0
310
800080C0A00080C0C00080C0E00080E0000080E0200080E0400080E0600080E0800080E0A00080E0C00080E0E000C0000000C0002000C0004000C0006000C0008000C000A000C000C000C000E000C0200000C0202000C0204000C0206000C0208000C020A000C020C000C020E000C0400000C0402000C0404000C0406000C0
310
408000C040A000C040C000C040E000C0600000C0602000C0604000C0606000C0608000C060A000C060C000C060E000C0800000C0802000C0804000C0806000C0808000C080A000C080C000C080E000C0A00000C0A02000C0A04000C0A06000C0A08000C0A0A000C0A0C000C0A0E000C0C00000C0C02000C0C04000C0C06000
310
C0C08000C0C0A000F0FBFF00A4A0A000808080000000FF0000FF000000FFFF00FF000000FF00FF00FFFF0000FFFFFF00FFFFFFFFFFFFFFFFFFFFFFFFFFFFFFFFFFFFFFFFFFFFFFFFFFFFFFFFFFFFFFFFFFFFFFFFFFFFFFFFFFFFFFFFFFFFFFFFFFFFFFFFFFFFFFFFFFFFFFFFFFFFFFFFFFFFFFFFFFFFFFFFFFFFFFFFFFFFFF
310
FFFFFFFFFFFFFFFFFFFFFFFFFFFFFFFFFFFFFFFFFFFFFFFFFFFFFFFFFFFFFFFFFFFFFFFFFFFFFFFFFFFFFFFFFFFFFFFFFFFFFFFFFFFFFFFFFFFFFFFFFFFFFFFFFFFFFFFFFFFFFFFFFFFFFFFFFFFFFFFFFFFFFFFFFFFFFFFFFFFFFFFFFFFFFFFFFFFFFFFFFFFFFFFFFFFFFFFFFFFFFFFFFFFFFFFFFFFFFFFFFFFFFFFFFFFFFF
310
FFFFFFFFFFFFFFFFFFFFFFFFFFFFFFFFFFFFFFFFFFFFFFFFFFFFFFFFFFFFFFFFFFFFFFFFFFFFFFFFFFFFFFFFFFFFFFFFFFFFFFFFFFFFFFFFFFFFFFFFFFFFFFFFFFFFFFFFFFFFFFFFFFFFFFFFFFFFFFFFFFFFFFFFFFFFFFFFFFFFFFFFFFFFFFFFFFFFFFFFFFFFFFFFFFFFFFFFFFFFFFFFFFFFFFFFFFFFFFFFFFFFFFFFFFFFFF
310
FFFFFFFFFFFFFFFFFFFFFFFFFFFFFFFFFFFFFFFFFFFFFFFFFFFFFFFFFFFFFFFFFFFFFFFFFFFFFFFFFFFFFFFFFFFFFFFFFFFFFFFFFFFFFFFFFFFFFFFFFFFFFFFFFFFFFFFFFFFFFFFFFFFFFFFFFFFFFFFFFFFFFFFFFFFFFFFFFFFFFFFFFFFFFFFFFFFFFFFFFFFFFFFFFFFFFFFFFFFFFFFFFFFFFFFFFFFFFFFFFFFFFFFFFFFF00
310
000000000000000000FFFFFFFFFFFFFFFFFFFFFFFFFFFFFFFFFFFFFFFFFFFF00000000000000000000FFFFFFFFFFFFFFFFFFFFFFFFFFFFFFFFFFFFFFFFFFFF00000000000000000000FFFFFFFFFFFFFFFFFFFFFFFFFFFFFFFFFFFFFFFFFFFF00000000000000000000FFFFFFFFFFFFFFFFFFFFFFFFFFFFFFFFFFFFFFFFFFFF
310
FFFFFFFFFFFFFFFFFFFFFFFFFFFFFFFFFFFFFFFFFFFFFFFFFFFFFFFFFFFFFFFFFFFFFFFFFFFFFFFFFFFFFFFFFFFFFFFFFFFFFFFFFFFFFFFFFFFFFFFFFFFFFFFFFFFFFFFFFFFFFFFFFFFFFFFFFFFFFFFFFFFFFFFFFFFFFFFFFFFFFFFFFFFFFFFFFFFFFFFFFFFFFFFFFFFFFFFFFFFFFFFFFFFFFFFFFFFFFFFFFFFFFFFFFFFFFF
310
FFFFFFFFFFFFFFFFFFFFFFFFFFFFFFFFFFFFFFFFFFFFFFFFFFFFFFFFFFFFFFFFFFFFFFFFFFFFFFFFFFFFFFFFFFFFFFFFFFFFFFFFFFFFFFFFFFFFFFFFFFFFFFFFFFFFFFFFFFFFFFFFFFFFFFFFFFFFFFFFFFFFFFFFFFFFFFFFFFFFFFFFFFFFFFFFFFFFFFFFFFFFFFFFFFFFFFFFFFFFFFFFFFFFFFFFFFFFFFFFFFFFFFFFFFFFFF
310
FFFFFFFFFFFFFFFFFFFFFFFFFFFFFFFFFFFFFFFFFFFFFFFFFFFFFFFFFFFFFFFFFFFFFFFFFFFFFFFFFFFFFFFFFFFFFFFFFFFFFFFFFFFFFFFFFFFFFFFFFFFFFFFFFFFFFFFFFFFFFFFFFFFFFFFFFFFFFFFFFFFFFFFFFFFFFFFFFFFFFFFFFFFFFFFFFFFFFFFFFFFFFFFFFFFFFFFFFFFFFFFFFFFFFFFFFFFFFFFFFFFFFFFFFFFFFF
310
FFFFFFFFFFFFFFFFFFFFFFFFFFFFFFFFFFFFFFFFFFFFFFFFFFFFFFFFFFFFFFFFFFFFFFFFFFFFFFFFFFFFFFFFFFFFFFFFFFFFFFFFFFFFFFFF
102
{BLKREFS
331
2BEB
331
2BEF
102
}
  0
BLOCK_RECORD
  5
2BF6
330
2414
100
AcDbSymbolTableRecord
100
AcDbBlockTableRecord
  2
NTC
340
0
310
2800000020000000200000000100080000000000000400000000000000000000000000000000000000000000000080000080000000808000800000008000800080800000C0C0C000C0DCC000F0CAA6000020400000206000002080000020A0000020C0000020E00000400000004020000040400000406000004080000040A0
310
000040C0000040E00000600000006020000060400000606000006080000060A0000060C0000060E00000800000008020000080400000806000008080000080A0000080C0000080E00000A0000000A0200000A0400000A0600000A0800000A0A00000A0C00000A0E00000C0000000C0200000C0400000C0600000C0800000C0
310
A00000C0C00000C0E00000E0000000E0200000E0400000E0600000E0800000E0A00000E0C00000E0E00040000000400020004000400040006000400080004000A0004000C0004000E00040200000402020004020400040206000402080004020A0004020C0004020E000404000004040200040404000404060004040800040
310
40A0004040C0004040E00040600000406020004060400040606000406080004060A0004060C0004060E00040800000408020004080400040806000408080004080A0004080C0004080E00040A0000040A0200040A0400040A0600040A0800040A0A00040A0C00040A0E00040C0000040C0200040C0400040C0600040C08000
310
40C0A00040C0C00040C0E00040E0000040E0200040E0400040E0600040E0800040E0A00040E0C00040E0E00080000000800020008000400080006000800080008000A0008000C0008000E00080200000802020008020400080206000802080008020A0008020C0008020E00080400000804020008040400080406000804080
310
008040A0008040C0008040E00080600000806020008060400080606000806080008060A0008060C0008060E00080800000808020008080400080806000808080008080A0008080C0008080E00080A0000080A0200080A0400080A0600080A0800080A0A00080A0C00080A0E00080C0000080C0200080C0400080C0600080C0
310
800080C0A00080C0C00080C0E00080E0000080E0200080E0400080E0600080E0800080E0A00080E0C00080E0E000C0000000C0002000C0004000C0006000C0008000C000A000C000C000C000E000C0200000C0202000C0204000C0206000C0208000C020A000C020C000C020E000C0400000C0402000C0404000C0406000C0
310
408000C040A000C040C000C040E000C0600000C0602000C0604000C0606000C0608000C060A000C060C000C060E000C0800000C0802000C0804000C0806000C0808000C080A000C080C000C080E000C0A00000C0A02000C0A04000C0A06000C0A08000C0A0A000C0A0C000C0A0E000C0C00000C0C02000C0C04000C0C06000
310
C0C08000C0C0A000F0FBFF00A4A0A000808080000000FF0000FF000000FFFF00FF000000FF00FF00FFFF0000FFFFFF00FFFFFFFFFFFFFFFFFFFFFFFFFFFFFFFFFFFFFFFFFFFFFFFFFFFFFFFFFFFFFFFFFFFFFFFFFFFFFFFFFFFFFFFFFFFFFFFFFFFFFFFFFFFFFFFFFFFFFFFFFFFFFFFFFFFFFFFFFFFFFFFFFFFFFFFFFFFFFF
310
FFFFFFFFFFFFFFFFFFFFFFFFFFFFFFFFFFFFFFFFFFFFFFFFFFFFFFFFFFFFFFFFFFFFFFFFFFFFFFFFFFFFFFFFFFFFFFFFFFFFFFFFFFFFFFFFFFFFFFFFFFFFFFFFFFFFFFFFFFFFFFFFFFFFFFFFFFFFFFFFFFFFFFFFFFFFFFFFFFFFFFFFFFFFFFFFFFFFFFFFFFFFFFFFFFFFFFFFFFFFFFFFFFFFFFFFFFFFFFFFFFFFFFFFFFFFFF
310
FFFFFFFFFFFFFFFFFFFFFFFFFFFFFFFFFFFFFFFFFFFFFFFFFFFFFFFFFFFFFFFFFFFFFFFFFFFFFFFFFFFFFFFFFFFFFFFFFFFFFFFFFFFFFFFFFFFFFFFFFFFFFFFFFFFFFFFFFFFFFFFFFFFFFFFFFFFFFFFFFFFFFFFFFFFFFFFFFFFFFFFFFFFFFFFFFFFFFFFFFFFFFFFFFFFFFFFFFFFFFFFFFFFFFFFFFFFFFFFFFFFFFFFFFFFFFF
310
FFFFFFFFFFFFFFFFFFFFFFFFFFFFFFFFFFFFFFFF000000000000000000000000000000000000000000000000000000000000FFFF00FF0000000000000000FFFFFFFFFFFFFFFFFFFFFFFFFFFFFFFFFFFFFF00FFFF00FF0000000000000000FFFFFFFFFFFFFFFFFFFFFFFFFFFFFFFFFFFFFF00FFFF00FF000000000000000000
310
00000000000000000000000000FFFFFFFFFF00FFFF00FF0000000000000000000000000000000000000000000000000000FF00FFFF00FF0000000000000000000000000000000000000000000000000000FF00FFFF00FF0000000000000000000000000000000000000000000000000000FF00FFFF00FF0000000000000000
310
00000000000000000000000000000000FFFFFF00FFFF00FF0000000000FFFFFFFFFFFFFFFFFFFFFFFFFFFFFFFFFFFFFFFFFFFF00FFFF000000000000000000000000000000000000000000000000000000000000FFFFFFFFFFFFFFFFFFFFFFFFFFFFFFFFFFFFFFFFFFFFFFFFFFFFFFFFFFFFFFFFFFFFFFFFFFFFFFFFFFFFFF
310
FFFFFFFFFFFFFFFFFFFFFFFFFFFFFFFFFFFFFFFFFFFFFFFFFFFFFFFFFFFFFFFFFFFFFFFFFFFFFFFFFFFFFFFFFFFFFFFFFFFFFFFFFFFFFFFFFFFFFFFFFFFFFFFFFFFFFFFFFFFFFFFFFFFFFFFFFFFFFFFFFFFFFFFFFFFFFFFFFFFFFFFFFFFFFFFFFFFFFFFFFFFFFFFFFFFFFFFFFFFFFFFFFFFFFFFFFFFFFFFFFFFFFFFFFFFFFF
310
FFFFFFFFFFFFFFFFFFFFFFFFFFFFFFFFFFFFFFFFFFFFFFFFFFFFFFFFFFFFFFFFFFFFFFFFFFFFFFFFFFFFFFFFFFFFFFFFFFFFFFFFFFFFFFFFFFFFFFFFFFFFFFFFFFFFFFFFFFFFFFFFFFFFFFFFFFFFFFFFFFFFFFFFFFFFFFFFFFFFFFFFFFFFFFFFFFFFFFFFFFFFFFFFFFFFFFFFFFFFFFFFFFFFFFFFFFFFFFFFFFFFFFFFFFFFFF
310
FFFFFFFFFFFFFFFFFFFFFFFFFFFFFFFFFFFFFFFFFFFFFFFFFFFFFFFFFFFFFFFFFFFFFFFFFFFFFFFFFFFFFFFFFFFFFFFFFFFFFFFFFFFFFFFF
102
{BLKREFS
331
2BFC
331
2C02
102
}
  0
ENDTAB
  0
ENDSEC
  0
SECTION
  2
BLOCKS
  0
BLOCK
  5
2432
330
2431
100
AcDbEntity
  8
0
100
AcDbBlockBegin
  2
*Model_Space
 70
     0
 10
0.0
 20
0.0
 30
0.0
  3
*Model_Space
  1

  0
ENDBLK
  5
2433
330
2431
100
AcDbEntity
  8
0
100
AcDbBlockEnd
  0
BLOCK
  5
242E
330
242D
100
AcDbEntity
 67
     1
  8
0
100
AcDbBlockBegin
  2
*Paper_Space
 70
     0
 10
0.0
 20
0.0
 30
0.0
  3
*Paper_Space
  1

  0
ENDBLK
  5
242F
330
242D
100
AcDbEntity
 67
     1
  8
0
100
AcDbBlockEnd
  0
BLOCK
  5
244B
330
244A
100
AcDbEntity
  8
0
100
AcDbBlockBegin
  2
$MODEL_SPACE
 70
     0
 10
0.0
 20
0.0
 30
0.0
  3
$MODEL_SPACE
  1

  0
ENDBLK
  5
244C
330
244A
100
AcDbEntity
  8
0
100
AcDbBlockEnd
  0
BLOCK
  5
244E
330
244D
100
AcDbEntity
  8
0
100
AcDbBlockBegin
  2
$PAPER_SPACE
 70
     0
 10
0.0
 20
0.0
 30
0.0
  3
$PAPER_SPACE
  1

  0
ENDBLK
  5
244F
330
244D
100
AcDbEntity
  8
0
100
AcDbBlockEnd
  0
BLOCK
  5
26B9
330
26B6
100
AcDbEntity
  8
0
 62
     7
100
AcDbBlockBegin
  2
AI9-BLK14
 70
     0
 10
0.0
 20
0.0
 30
0.0
  3
AI9-BLK14
  1

  0
SPLINE
  5
26B7
330
26B6
100
AcDbEntity
  8
LAYER_1
 62
     7
100
AcDbSpline
210
0.0
220
0.0
230
1.0
 70
    11
 71
     3
 72
    23
 73
    19
 74
     0
 42
0.0000000001
 43
0.0000000001
 40
0.0
 40
0.0
 40
0.0
 40
0.0
 40
1.0
 40
1.0
 40
1.0
 40
2.0
 40
2.0
 40
2.0
 40
3.0
 40
3.0
 40
3.0
 40
4.0
 40
4.0
 40
4.0
 40
5.0
 40
5.0
 40
5.0
 40
6.0
 40
6.0
 40
6.0
 40
6.0
 10
-10.90321044921874
 20
10.88107571072048
 30
0.0
 10
-10.90321044921874
 20
10.88107571072048
 30
0.0
 10
-10.90321044921874
 20
-10.88107571072048
 30
0.0
 10
-10.90321044921874
 20
-10.88107571072048
 30
0.0
 10
-10.90321044921874
 20
-10.88107571072048
 30
0.0
 10
1.752692328559025
 20
-10.88107571072048
 30
0.0
 10
1.752692328559025
 20
-10.88107571072048
 30
0.0
 10
3.280592176649305
 20
-10.88107571072048
 30
0.0
 10
10.90321044921874
 20
-10.32383151584201
 30
0.0
 10
10.90321044921874
 20
0.6792867024739583
 30
0.0
 10
10.90321044921874
 20
10.61700914171006
 30
0.0
 10
2.773129611545138
 20
10.87952541775172
 30
0.0
 10
2.691136338975693
 20
10.88090345594618
 30
0.0
 10
2.691136338975693
 20
10.88090345594618
 30
0.0
 10
-9.903099229600693
 20
10.88107571072048
 30
0.0
 10
-9.903099229600693
 20
10.88107571072048
 30
0.0
 10
-9.903099229600693
 20
10.88107571072048
 30
0.0
 10
-10.90321044921874
 20
10.88107571072048
 30
0.0
 10
-10.90321044921874
 20
10.88107571072048
 30
0.0
  0
SPLINE
  5
26B8
330
26B6
100
AcDbEntity
  8
LAYER_1
 62
     7
100
AcDbSpline
210
0.0
220
0.0
230
1.0
 70
    11
 71
     3
 72
    20
 73
    16
 74
     0
 42
0.0000000001
 43
0.0000000001
 40
0.0
 40
0.0
 40
0.0
 40
0.0
 40
1.0
 40
1.0
 40
1.0
 40
2.0
 40
2.0
 40
2.0
 40
3.0
 40
3.0
 40
3.0
 40
4.0
 40
4.0
 40
4.0
 40
5.0
 40
5.0
 40
5.0
 40
5.0
 10
2.672877332899305
 20
8.881197781032986
 30
0.0
 10
2.905421278211805
 20
8.874307590060762
 30
0.0
 10
8.902988009982637
 20
8.616442192925347
 30
0.0
 10
8.902988009982637
 20
0.6792867024739583
 30
0.0
 10
8.902988009982637
 20
-8.191661919487842
 30
0.0
 10
3.430109320746526
 20
-8.881197781032986
 30
0.0
 10
1.752692328559025
 20
-8.881197781032986
 30
0.0
 10
1.752692328559025
 20
-8.881197781032986
 30
0.0
 10
-7.231427680121528
 20
-8.881197781032986
 30
0.0
 10
-8.902988009982637
 20
-8.881197781032986
 30
0.0
 10
-8.902988009982637
 20
-7.174497477213541
 30
0.0
 10
-8.902988009982637
 20
7.174497477213541
 30
0.0
 10
-8.902988009982637
 20
8.881197781032986
 30
0.0
 10
-7.208690049913191
 20
8.881197781032986
 30
0.0
 10
2.672877332899305
 20
8.881197781032986
 30
0.0
 10
2.672877332899305
 20
8.881197781032986
 30
0.0
  0
ENDBLK
  5
26BA
330
26B6
100
AcDbEntity
  8
0
100
AcDbBlockEnd
  0
BLOCK
  5
26BE
330
26BB
100
AcDbEntity
  8
0
 62
     7
100
AcDbBlockBegin
  2
AI9-BLK13
 70
     0
 10
0.0
 20
0.0
 30
0.0
  3
AI9-BLK13
  1

  0
LWPOLYLINE
  5
26BC
330
26BB
100
AcDbEntity
  8
LAYER_1
 62
     7
100
AcDbPolyline
 90
       12
 70
     1
 43
0.0
 10
-3.792361111111107
 20
10.7376736111111
 10
-2.469444444444443
 20
10.7376736111111
 10
-2.469444444444443
 20
1.874131944444444
 10
2.469444444444443
 20
1.874131944444444
 10
2.469444444444443
 20
10.7376736111111
 10
3.792361111111107
 20
10.7376736111111
 10
3.792361111111107
 20
-10.7376736111111
 10
2.469444444444443
 20
-10.7376736111111
 10
2.469444444444443
 20
-0.6835069444444444
 10
-2.469444444444443
 20
-0.6835069444444444
 10
-2.469444444444443
 20
-10.7376736111111
 10
-3.792361111111107
 20
-10.7376736111111
  0
HATCH
  5
26BD
330
26BB
100
AcDbEntity
  8
LAYER_1
 62
     7
100
AcDbHatch
 10
0.0
 20
0.0
 30
0.0
210
0.0
220
0.0
230
1.0
  2
SOLID
 70
     1
 71
     0
 91
        1
 92
        3
 72
     0
 73
     1
 93
       12
 10
-3.792361111111107
 20
10.7376736111111
 10
-2.469444444444443
 20
10.7376736111111
 10
-2.469444444444443
 20
1.874131944444444
 10
2.469444444444443
 20
1.874131944444444
 10
2.469444444444443
 20
10.7376736111111
 10
3.792361111111107
 20
10.7376736111111
 10
3.792361111111107
 20
-10.7376736111111
 10
2.469444444444443
 20
-10.7376736111111
 10
2.469444444444443
 20
-0.6835069444444444
 10
-2.469444444444443
 20
-0.6835069444444444
 10
-2.469444444444443
 20
-10.7376736111111
 10
-3.792361111111107
 20
-10.7376736111111
 97
        0
 75
     2
 76
     1
 98
        1
 10
0.0
 20
0.0
  0
ENDBLK
  5
26BF
330
26BB
100
AcDbEntity
  8
0
100
AcDbBlockEnd
  0
BLOCK
  5
26C3
330
26C0
100
AcDbEntity
  8
0
 62
     7
100
AcDbBlockBegin
  2
AI9-BLK11
 70
     0
 10
0.0
 20
0.0
 30
0.0
  3
AI9-BLK11
  1

  0
SPLINE
  5
26C1
330
26C0
100
AcDbEntity
  8
LAYER_1
 62
     7
100
AcDbSpline
210
0.0
220
0.0
230
1.0
 70
    11
 71
     3
 72
    26
 73
    22
 74
     0
 42
0.0000000001
 43
0.0000000001
 40
0.0
 40
0.0
 40
0.0
 40
0.0
 40
1.0
 40
1.0
 40
1.0
 40
2.0
 40
2.0
 40
2.0
 40
3.0
 40
3.0
 40
3.0
 40
4.0
 40
4.0
 40
4.0
 40
5.0
 40
5.0
 40
5.0
 40
6.0
 40
6.0
 40
6.0
 40
7.0
 40
7.0
 40
7.0
 40
7.0
 10
-2.645833333333333
 20
0.9039930555555551
 30
0.0
 10
-2.645833333333333
 20
0.9039930555555551
 30
0.0
 10
-2.645833333333333
 20
8.180034722222217
 30
0.0
 10
-2.645833333333333
 20
8.180034722222217
 30
0.0
 10
-2.645833333333333
 20
8.180034722222217
 30
0.0
 10
0.465087890625
 20
8.180034722222217
 30
0.0
 10
0.465087890625
 20
8.180034722222217
 30
0.0
 10
0.9026150173611108
 20
8.180034722222217
 30
0.0
 10
1.24988064236111
 20
8.034651692708331
 30
0.0
 10
1.506884765625
 20
7.745263671874997
 30
0.0
 10
2.001600477430554
 20
7.194048394097221
 30
0.0
 10
2.248958333333332
 20
6.160519748263887
 30
0.0
 10
2.248958333333332
 20
4.643299696180553
 30
0.0
 10
2.248958333333332
 20
3.232188585069443
 30
0.0
 10
2.072569444444444
 20
2.256537543402775
 30
0.0
 10
1.720480685763888
 20
1.715657552083333
 30
0.0
 10
1.368391927083333
 20
1.174088541666665
 30
0.0
 10
0.8929687499999998
 20
0.9039930555555551
 30
0.0
 10
0.2942111545138888
 20
0.9039930555555551
 30
0.0
 10
0.2942111545138888
 20
0.9039930555555551
 30
0.0
 10
-2.645833333333333
 20
0.9039930555555551
 30
0.0
 10
-2.645833333333333
 20
0.9039930555555551
 30
0.0
  0
SPLINE
  5
26C2
330
26C0
100
AcDbEntity
  8
LAYER_1
 62
     7
100
AcDbSpline
210
0.0
220
0.0
230
1.0
 70
    11
 71
     3
 72
    68
 73
    64
 74
     0
 42
0.0000000001
 43
0.0000000001
 40
0.0
 40
0.0
 40
0.0
 40
0.0
 40
1.0
 40
1.0
 40
1.0
 40
2.0
 40
2.0
 40
2.0
 40
3.0
 40
3.0
 40
3.0
 40
4.0
 40
4.0
 40
4.0
 40
5.0
 40
5.0
 40
5.0
 40
6.0
 40
6.0
 40
6.0
 40
7.0
 40
7.0
 40
7.0
 40
8.0
 40
8.0
 40
8.0
 40
9.0
 40
9.0
 40
9.0
 40
10.0
 40
10.0
 40
10.0
 40
11.0
 40
11.0
 40
11.0
 40
12.0
 40
12.0
 40
12.0
 40
13.0
 40
13.0
 40
13.0
 40
14.0
 40
14.0
 40
14.0
 40
15.0
 40
15.0
 40
15.0
 40
16.0
 40
16.0
 40
16.0
 40
17.0
 40
17.0
 40
17.0
 40
18.0
 40
18.0
 40
18.0
 40
19.0
 40
19.0
 40
19.0
 40
20.0
 40
20.0
 40
20.0
 40
21.0
 40
21.0
 40
21.0
 40
21.0
 10
-3.968749999999998
 20
-10.7376736111111
 30
0.0
 10
-3.968749999999998
 20
-10.7376736111111
 30
0.0
 10
-2.645833333333333
 20
-10.7376736111111
 30
0.0
 10
-2.645833333333333
 20
-10.7376736111111
 30
0.0
 10
-2.645833333333333
 20
-10.7376736111111
 30
0.0
 10
-2.645833333333333
 20
-1.521354166666665
 30
0.0
 10
-2.645833333333333
 20
-1.521354166666665
 30
0.0
 10
-2.645833333333333
 20
-1.521354166666665
 30
0.0
 10
0.2390896267361111
 20
-1.521354166666665
 30
0.0
 10
0.2390896267361111
 20
-1.521354166666665
 30
0.0
 10
0.7599880642361111
 20
-1.521354166666665
 30
0.0
 10
1.143771701388887
 20
-1.65295681423611
 30
0.0
 10
1.390440538194444
 20
-1.916162109374999
 30
0.0
 10
1.816254340277773
 20
-2.39434136284722
 30
0.0
 10
2.04363064236111
 20
-3.335541449652775
 30
0.0
 10
2.072569444444444
 20
-4.739762369791666
 30
0.0
 10
2.072569444444444
 20
-4.739762369791666
 30
0.0
 10
2.160763888888888
 20
-8.324039713541665
 30
0.0
 10
2.160763888888888
 20
-8.324039713541665
 30
0.0
 10
2.18005642361111
 20
-9.163264973958332
 30
0.0
 10
2.202794053819443
 20
-9.728949652777775
 30
0.0
 10
2.227598741319444
 20
-10.02109374999998
 30
0.0
 10
2.252403428819443
 20
-10.31392686631944
 30
0.0
 10
2.28892144097222
 20
-10.55301649305555
 30
0.0
 10
2.33853081597222
 20
-10.7376736111111
 30
0.0
 10
2.33853081597222
 20
-10.7376736111111
 30
0.0
 10
3.968749999999998
 20
-10.7376736111111
 30
0.0
 10
3.968749999999998
 20
-10.7376736111111
 30
0.0
 10
3.968749999999998
 20
-10.7376736111111
 30
0.0
 10
3.968749999999998
 20
-10.25260416666666
 30
0.0
 10
3.968749999999998
 20
-10.25260416666666
 30
0.0
 10
3.766867404513888
 20
-10.05830078125
 30
0.0
 10
3.625618489583333
 20
-9.621462673611112
 30
0.0
 10
3.545692274305555
 20
-8.942089843749997
 30
0.0
 10
3.49470486111111
 20
-8.543836805555555
 30
0.0
 10
3.459564887152775
 20
-7.937499999999999
 30
0.0
 10
3.439583333333333
 20
-7.121701388888887
 30
0.0
 10
3.439583333333333
 20
-7.121701388888887
 30
0.0
 10
3.395486111111106
 20
-4.232644314236106
 30
0.0
 10
3.395486111111106
 20
-4.232644314236106
 30
0.0
 10
3.375504557291666
 20
-2.981385633680555
 30
0.0
 10
3.26870659722222
 20
-2.077392578125
 30
0.0
 10
3.075781249999999
 20
-1.522043185763888
 30
0.0
 10
2.882166883680555
 20
-0.9666937934027776
 30
0.0
 10
2.592089843749999
 20
-0.5188313802083333
 30
0.0
 10
2.204861111111104
 20
-0.1770779079861111
 30
0.0
 10
2.63618706597222
 20
0.3197048611111111
 30
0.0
 10
2.971739366319443
 20
0.9770290798611107
 30
0.0
 10
3.211518012152775
 20
1.79558376736111
 30
0.0
 10
3.451296657986107
 20
2.613449435763888
 30
0.0
 10
3.571874999999999
 20
3.66558159722222
 30
0.0
 10
3.571874999999999
 20
4.951291232638888
 30
0.0
 10
3.571874999999999
 20
7.415912543402777
 30
0.0
 10
3.124701605902775
 20
9.106076388888887
 30
0.0
 10
2.231043836805555
 20
10.02178276909722
 30
0.0
 10
1.759754774305553
 20
10.498583984375
 30
0.0
 10
1.163753255208332
 20
10.7376736111111
 30
0.0
 10
0.443039279513889
 20
10.7376736111111
 30
0.0
 10
0.443039279513889
 20
10.7376736111111
 30
0.0
 10
-3.968749999999998
 20
10.7376736111111
 30
0.0
 10
-3.968749999999998
 20
10.7376736111111
 30
0.0
 10
-3.968749999999998
 20
10.7376736111111
 30
0.0
 10
-3.968749999999998
 20
-10.7376736111111
 30
0.0
 10
-3.968749999999998
 20
-10.7376736111111
 30
0.0
  0
ENDBLK
  5
26C4
330
26C0
100
AcDbEntity
  8
0
100
AcDbBlockEnd
  0
BLOCK
  5
26C7
330
26C5
100
AcDbEntity
  8
0
 62
     7
100
AcDbBlockBegin
  2
AI9-BLK10
 70
     0
 10
0.0
 20
0.0
 30
0.0
  3
AI9-BLK10
  1

  0
SPLINE
  5
26C6
330
26C5
100
AcDbEntity
  8
LAYER_1
 62
     7
100
AcDbSpline
210
0.0
220
0.0
230
1.0
 70
    11
 71
     3
 72
    59
 73
    55
 74
     0
 42
0.0000000001
 43
0.0000000001
 40
0.0
 40
0.0
 40
0.0
 40
0.0
 40
1.0
 40
1.0
 40
1.0
 40
2.0
 40
2.0
 40
2.0
 40
3.0
 40
3.0
 40
3.0
 40
4.0
 40
4.0
 40
4.0
 40
5.0
 40
5.0
 40
5.0
 40
6.0
 40
6.0
 40
6.0
 40
7.0
 40
7.0
 40
7.0
 40
8.0
 40
8.0
 40
8.0
 40
9.0
 40
9.0
 40
9.0
 40
10.0
 40
10.0
 40
10.0
 40
11.0
 40
11.0
 40
11.0
 40
12.0
 40
12.0
 40
12.0
 40
13.0
 40
13.0
 40
13.0
 40
14.0
 40
14.0
 40
14.0
 40
15.0
 40
15.0
 40
15.0
 40
16.0
 40
16.0
 40
16.0
 40
17.0
 40
17.0
 40
17.0
 40
18.0
 40
18.0
 40
18.0
 40
18.0
 10
-4.652256944444443
 20
10.7376736111111
 30
0.0
 10
-4.652256944444443
 20
10.7376736111111
 30
0.0
 10
-2.798795572916666
 20
10.7376736111111
 30
0.0
 10
-2.798795572916666
 20
10.7376736111111
 30
0.0
 10
-2.798795572916666
 20
10.7376736111111
 30
0.0
 10
0.0
 20
-7.419357638888887
 30
0.0
 10
0.0
 20
-7.419357638888887
 30
0.0
 10
0.0
 20
-7.419357638888887
 30
0.0
 10
2.793283420138888
 20
10.7376736111111
 30
0.0
 10
2.793283420138888
 20
10.7376736111111
 30
0.0
 10
2.793283420138888
 20
10.7376736111111
 30
0.0
 10
4.652256944444443
 20
10.7376736111111
 30
0.0
 10
4.652256944444443
 20
10.7376736111111
 30
0.0
 10
4.652256944444443
 20
10.7376736111111
 30
0.0
 10
4.652256944444443
 20
-10.7376736111111
 30
0.0
 10
4.652256944444443
 20
-10.7376736111111
 30
0.0
 10
4.652256944444443
 20
-10.7376736111111
 30
0.0
 10
3.41753472222222
 20
-10.7376736111111
 30
0.0
 10
3.41753472222222
 20
-10.7376736111111
 30
0.0
 10
3.41753472222222
 20
-10.7376736111111
 30
0.0
 10
3.41753472222222
 20
1.936832682291665
 30
0.0
 10
3.41753472222222
 20
1.936832682291665
 30
0.0
 10
3.41753472222222
 20
2.375048828124999
 30
0.0
 10
3.424424913194443
 20
3.101274956597221
 30
0.0
 10
3.439583333333333
 20
4.11482204861111
 30
0.0
 10
3.454052734374998
 20
5.128369140624998
 30
0.0
 10
3.461631944444443
 20
6.214952256944441
 30
0.0
 10
3.461631944444443
 20
7.375260416666666
 30
0.0
 10
3.461631944444443
 20
7.375260416666666
 30
0.0
 10
0.6538791232638889
 20
-10.7376736111111
 30
0.0
 10
0.6538791232638889
 20
-10.7376736111111
 30
0.0
 10
0.6538791232638889
 20
-10.7376736111111
 30
0.0
 10
-0.6628363715277778
 20
-10.7376736111111
 30
0.0
 10
-0.6628363715277778
 20
-10.7376736111111
 30
0.0
 10
-0.6628363715277778
 20
-10.7376736111111
 30
0.0
 10
-3.461631944444443
 20
7.375260416666666
 30
0.0
 10
-3.461631944444443
 20
7.375260416666666
 30
0.0
 10
-3.461631944444443
 20
7.375260416666666
 30
0.0
 10
-3.461631944444443
 20
6.717247178819441
 30
0.0
 10
-3.461631944444443
 20
6.717247178819441
 30
0.0
 10
-3.461631944444443
 20
6.190836588541666
 30
0.0
 10
-3.45474175347222
 20
5.389507378472222
 30
0.0
 10
-3.439583333333333
 20
4.312570529513888
 30
0.0
 10
-3.425113932291666
 20
3.235633680555555
 30
0.0
 10
-3.41753472222222
 20
2.44395073784722
 30
0.0
 10
-3.41753472222222
 20
1.936832682291665
 30
0.0
 10
-3.41753472222222
 20
1.936832682291665
 30
0.0
 10
-3.41753472222222
 20
-10.7376736111111
 30
0.0
 10
-3.41753472222222
 20
-10.7376736111111
 30
0.0
 10
-3.41753472222222
 20
-10.7376736111111
 30
0.0
 10
-4.652256944444443
 20
-10.7376736111111
 30
0.0
 10
-4.652256944444443
 20
-10.7376736111111
 30
0.0
 10
-4.652256944444443
 20
-10.7376736111111
 30
0.0
 10
-4.652256944444443
 20
10.7376736111111
 30
0.0
 10
-4.652256944444443
 20
10.7376736111111
 30
0.0
  0
ENDBLK
  5
26C8
330
26C5
100
AcDbEntity
  8
0
100
AcDbBlockEnd
  0
BLOCK
  5
26CC
330
26C9
100
AcDbEntity
  8
0
 62
     7
100
AcDbBlockBegin
  2
AI9-BLK9
 70
     0
 10
0.0
 20
0.0
 30
0.0
  3
AI9-BLK9
  1

  0
SPLINE
  5
26CA
330
26C9
100
AcDbEntity
  8
LAYER_1
 62
     7
100
AcDbSpline
210
0.0
220
0.0
230
1.0
 70
    11
 71
     3
 72
    29
 73
    25
 74
     0
 42
0.0000000001
 43
0.0000000001
 40
0.0
 40
0.0
 40
0.0
 40
0.0
 40
1.0
 40
1.0
 40
1.0
 40
2.0
 40
2.0
 40
2.0
 40
3.0
 40
3.0
 40
3.0
 40
4.0
 40
4.0
 40
4.0
 40
5.0
 40
5.0
 40
5.0
 40
6.0
 40
6.0
 40
6.0
 40
7.0
 40
7.0
 40
7.0
 40
8.0
 40
8.0
 40
8.0
 40
8.0
 10
0.0668348524305556
 20
-8.753298611111111
 30
0.0
 10
-0.9067491319444444
 20
-8.753298611111111
 30
0.0
 10
-1.60954861111111
 20
-7.936810980902778
 30
0.0
 10
-2.041563585069444
 20
-6.30383572048611
 30
0.0
 10
-2.474267578124999
 20
-4.670860460069443
 30
0.0
 10
-2.689930555555555
 20
-2.664436848958333
 30
0.0
 10
-2.689930555555555
 20
-0.28525390625
 30
0.0
 10
-2.689930555555555
 20
2.68855251736111
 30
0.0
 10
-2.439127604166666
 20
4.938199869791666
 30
0.0
 10
-1.937521701388888
 20
6.464377170138886
 30
0.0
 10
-1.43591579861111
 20
7.989865451388887
 30
0.0
 10
-0.7827256944444444
 20
8.753298611111111
 30
0.0
 10
0.0220486111111111
 20
8.753298611111111
 30
0.0
 10
0.8468044704861108
 20
8.753298611111111
 30
0.0
 10
1.49792751736111
 20
7.982975260416663
 30
0.0
 10
1.974728732638888
 20
6.442328559027776
 30
0.0
 10
2.451529947916665
 20
4.901681857638886
 30
0.0
 10
2.689930555555555
 20
2.868386501736111
 30
0.0
 10
2.689930555555555
 20
0.3438205295138888
 30
0.0
 10
2.689930555555555
 20
-2.045697699652774
 30
0.0
 10
2.483224826388884
 20
-4.15891927083333
 30
0.0
 10
2.071191406249999
 20
-5.996533203124998
 30
0.0
 10
1.65915798611111
 20
-7.834836154513887
 30
0.0
 10
0.9908094618055557
 20
-8.753298611111111
 30
0.0
 10
0.0668348524305556
 20
-8.753298611111111
 30
0.0
  0
SPLINE
  5
26CB
330
26C9
100
AcDbEntity
  8
LAYER_1
 62
     7
100
AcDbSpline
210
0.0
220
0.0
230
1.0
 70
    11
 71
     3
 72
    29
 73
    25
 74
     0
 42
0.0000000001
 43
0.0000000001
 40
0.0
 40
0.0
 40
0.0
 40
0.0
 40
1.0
 40
1.0
 40
1.0
 40
2.0
 40
2.0
 40
2.0
 40
3.0
 40
3.0
 40
3.0
 40
4.0
 40
4.0
 40
4.0
 40
5.0
 40
5.0
 40
5.0
 40
6.0
 40
6.0
 40
6.0
 40
7.0
 40
7.0
 40
7.0
 40
8.0
 40
8.0
 40
8.0
 40
8.0
 10
-0.0289388020833333
 20
11.35503472222222
 30
0.0
 10
-1.317404513888887
 20
11.35503472222222
 30
0.0
 10
-2.28892144097222
 20
10.02798394097222
 30
0.0
 10
-2.94280056423611
 20
7.374571397569441
 30
0.0
 10
-3.450607638888888
 20
5.30613606770833
 30
0.0
 10
-3.704166666666666
 20
2.81877712673611
 30
0.0
 10
-3.704166666666666
 20
-0.0881944444444445
 30
0.0
 10
-3.704166666666666
 20
-3.307291666666666
 30
0.0
 10
-3.406510416666666
 20
-5.97035047743055
 30
0.0
 10
-2.811197916666666
 20
-8.077370876736106
 30
0.0
 10
-2.147672526041664
 20
-10.26293945312499
 30
0.0
 10
-1.229899088541666
 20
-11.35503472222222
 30
0.0
 10
-0.0585666232638889
 20
-11.35503472222222
 30
0.0
 10
1.20027126736111
 20
-11.35503472222222
 30
0.0
 10
2.166276041666665
 20
-10.10653211805555
 30
0.0
 10
2.840136718749998
 20
-7.609526909722221
 30
0.0
 10
3.416156684027776
 20
-5.483213975694441
 30
0.0
 10
3.704166666666666
 20
-2.814643012152775
 30
0.0
 10
3.704166666666666
 20
0.3948079427083333
 30
0.0
 10
3.704166666666666
 20
3.360346137152776
 30
0.0
 10
3.449918619791666
 20
5.793961588541666
 30
0.0
 10
2.94280056423611
 20
7.696343315972222
 30
0.0
 10
2.298567708333333
 20
10.13547092013888
 30
0.0
 10
1.307758246527777
 20
11.35503472222222
 30
0.0
 10
-0.0289388020833333
 20
11.35503472222222
 30
0.0
  0
ENDBLK
  5
26CD
330
26C9
100
AcDbEntity
  8
0
100
AcDbBlockEnd
  0
BLOCK
  5
26D1
330
26CE
100
AcDbEntity
  8
0
 62
     7
100
AcDbBlockBegin
  2
AI9-BLK8
 70
     0
 10
0.0
 20
0.0
 30
0.0
  3
AI9-BLK8
  1

  0
LWPOLYLINE
  5
26CF
330
26CE
100
AcDbEntity
  8
LAYER_1
 62
     7
100
AcDbPolyline
 90
       10
 70
     1
 43
0.0
 10
-3.792361111111107
 20
10.7376736111111
 10
-2.268939887152773
 20
10.7376736111111
 10
2.557638888888888
 20
-6.505718315972222
 10
2.557638888888888
 20
10.7376736111111
 10
3.792361111111107
 20
10.7376736111111
 10
3.792361111111107
 20
-10.7376736111111
 10
2.32612847222222
 20
-10.7376736111111
 10
-2.557638888888888
 20
6.549815538194441
 10
-2.557638888888888
 20
-10.7376736111111
 10
-3.792361111111107
 20
-10.7376736111111
  0
HATCH
  5
26D0
330
26CE
100
AcDbEntity
  8
LAYER_1
 62
     7
100
AcDbHatch
 10
0.0
 20
0.0
 30
0.0
210
0.0
220
0.0
230
1.0
  2
SOLID
 70
     1
 71
     0
 91
        1
 92
        3
 72
     0
 73
     1
 93
       10
 10
-3.792361111111107
 20
10.7376736111111
 10
-2.268939887152773
 20
10.7376736111111
 10
2.557638888888888
 20
-6.505718315972222
 10
2.557638888888888
 20
10.7376736111111
 10
3.792361111111107
 20
10.7376736111111
 10
3.792361111111107
 20
-10.7376736111111
 10
2.32612847222222
 20
-10.7376736111111
 10
-2.557638888888888
 20
6.549815538194441
 10
-2.557638888888888
 20
-10.7376736111111
 10
-3.792361111111107
 20
-10.7376736111111
 97
        0
 75
     2
 76
     1
 98
        1
 10
0.0
 20
0.0
  0
ENDBLK
  5
26D2
330
26CE
100
AcDbEntity
  8
0
100
AcDbBlockEnd
  0
BLOCK
  5
26D6
330
26D3
100
AcDbEntity
  8
0
 62
     7
100
AcDbBlockBegin
  2
AI9-BLK7
 70
     0
 10
0.0
 20
0.0
 30
0.0
  3
AI9-BLK7
  1

  0
LWPOLYLINE
  5
26D4
330
26D3
100
AcDbEntity
  8
LAYER_1
 62
     7
100
AcDbPolyline
 90
        4
 70
     1
 43
0.0
 10
-0.6614583333333333
 20
10.7376736111111
 10
0.6614583333333333
 20
10.7376736111111
 10
0.6614583333333333
 20
-10.7376736111111
 10
-0.6614583333333333
 20
-10.7376736111111
  0
HATCH
  5
26D5
330
26D3
100
AcDbEntity
  8
LAYER_1
 62
     7
100
AcDbHatch
 10
0.0
 20
0.0
 30
0.0
210
0.0
220
0.0
230
1.0
  2
SOLID
 70
     1
 71
     0
 91
        1
 92
        3
 72
     0
 73
     1
 93
        4
 10
-0.6614583333333333
 20
10.7376736111111
 10
0.6614583333333333
 20
10.7376736111111
 10
0.6614583333333333
 20
-10.7376736111111
 10
-0.6614583333333333
 20
-10.7376736111111
 97
        0
 75
     2
 76
     1
 98
        1
 10
0.0
 20
0.0
  0
ENDBLK
  5
26D7
330
26D3
100
AcDbEntity
  8
0
100
AcDbBlockEnd
  0
BLOCK
  5
26DA
330
26D8
100
AcDbEntity
  8
0
 62
     7
100
AcDbBlockBegin
  2
AI9-BLK6
 70
     0
 10
0.0
 20
0.0
 30
0.0
  3
AI9-BLK6
  1

  0
SPLINE
  5
26D9
330
26D8
100
AcDbEntity
  8
LAYER_1
 62
     7
100
AcDbSpline
210
0.0
220
0.0
230
1.0
 70
    11
 71
     3
 72
    59
 73
    55
 74
     0
 42
0.0000000001
 43
0.0000000001
 40
0.0
 40
0.0
 40
0.0
 40
0.0
 40
1.0
 40
1.0
 40
1.0
 40
2.0
 40
2.0
 40
2.0
 40
3.0
 40
3.0
 40
3.0
 40
4.0
 40
4.0
 40
4.0
 40
5.0
 40
5.0
 40
5.0
 40
6.0
 40
6.0
 40
6.0
 40
7.0
 40
7.0
 40
7.0
 40
8.0
 40
8.0
 40
8.0
 40
9.0
 40
9.0
 40
9.0
 40
10.0
 40
10.0
 40
10.0
 40
11.0
 40
11.0
 40
11.0
 40
12.0
 40
12.0
 40
12.0
 40
13.0
 40
13.0
 40
13.0
 40
14.0
 40
14.0
 40
14.0
 40
15.0
 40
15.0
 40
15.0
 40
16.0
 40
16.0
 40
16.0
 40
17.0
 40
17.0
 40
17.0
 40
18.0
 40
18.0
 40
18.0
 40
18.0
 10
3.062689887152775
 20
9.168088107638887
 30
0.0
 10
3.735172526041666
 20
7.739062499999997
 30
0.0
 10
4.110687934027776
 20
6.116422526041666
 30
0.0
 10
4.189236111111108
 20
4.299479166666666
 30
0.0
 10
4.189236111111108
 20
4.299479166666666
 30
0.0
 10
2.866319444444443
 20
4.299479166666666
 30
0.0
 10
2.866319444444443
 20
4.299479166666666
 30
0.0
 10
2.720936414930555
 20
5.667871093749997
 30
0.0
 10
2.435682508680555
 20
6.752387152777776
 30
0.0
 10
2.009868706597218
 20
7.553027343749997
 30
0.0
 10
1.584054904513888
 20
8.352978515624997
 30
0.0
 10
0.9839192708333332
 20
8.753298611111111
 30
0.0
 10
0.2101508246527778
 20
8.753298611111111
 30
0.0
 10
-0.7386284722222222
 20
8.753298611111111
 30
0.0
 10
-1.503439670138888
 20
8.010536024305555
 30
0.0
 10
-2.083593749999999
 20
6.526388888888886
 30
0.0
 10
-2.664436848958333
 20
5.042241753472221
 30
0.0
 10
-2.954513888888888
 20
2.767100694444443
 30
0.0
 10
-2.954513888888888
 20
-0.2990342881944444
 30
0.0
 10
-2.954513888888888
 20
-2.811197916666666
 30
0.0
 10
-2.693375651041666
 20
-4.847938368055555
 30
0.0
 10
-2.17041015625
 20
-6.409944661458332
 30
0.0
 10
-1.648133680555553
 20
-7.972639973958332
 30
0.0
 10
-0.8640299479166666
 20
-8.753298611111111
 30
0.0
 10
0.1812120225694444
 20
-8.753298611111111
 30
0.0
 10
1.138948567708333
 20
-8.753298611111111
 30
0.0
 10
1.865174696180553
 20
-7.927853732638887
 30
0.0
 10
2.359201388888884
 20
-6.275585937499998
 30
0.0
 10
2.62998589409722
 20
-5.406043836805555
 30
0.0
 10
2.828423394097221
 20
-4.262272135416666
 30
0.0
 10
2.954513888888888
 20
-2.844270833333331
 30
0.0
 10
2.954513888888888
 20
-2.844270833333331
 30
0.0
 10
4.277430555555555
 20
-2.844270833333331
 30
0.0
 10
4.277430555555555
 20
-2.844270833333331
 30
0.0
 10
4.169943576388888
 20
-5.109765624999996
 30
0.0
 10
3.795117187499998
 20
-7.009391276041665
 30
0.0
 10
3.151573350694443
 20
-8.542458767361106
 30
0.0
 10
2.381249999999999
 20
-10.38834092881943
 30
0.0
 10
1.347721354166665
 20
-11.3109375
 30
0.0
 10
0.0509874131944445
 20
-11.3109375
 30
0.0
 10
-1.07004665798611
 20
-11.3109375
 30
0.0
 10
-2.010557725694444
 20
-10.55577256944443
 30
0.0
 10
-2.771234809027776
 20
-9.04475368923611
 30
0.0
 10
-3.775824652777775
 20
-7.046598307291666
 30
0.0
 10
-4.277430555555555
 20
-3.961170789930555
 30
0.0
 10
-4.277430555555555
 20
0.2115288628472222
 30
0.0
 10
-4.277430555555555
 20
3.379638671874998
 30
0.0
 10
-3.902604166666666
 20
5.977929687499997
 30
0.0
 10
-3.151573350694443
 20
8.005712890624996
 30
0.0
 10
-2.333018663194443
 20
10.20919596354165
 30
0.0
 10
-1.20647243923611
 20
11.3109375
 30
0.0
 10
0.2266872829861111
 20
11.3109375
 30
0.0
 10
1.444873046875
 20
11.3109375
 30
0.0
 10
2.390207248263884
 20
10.59642469618055
 30
0.0
 10
3.062689887152775
 20
9.168088107638887
 30
0.0
  0
ENDBLK
  5
26DB
330
26D8
100
AcDbEntity
  8
0
100
AcDbBlockEnd
  0
BLOCK
  5
26DF
330
26DC
100
AcDbEntity
  8
0
 62
     7
100
AcDbBlockBegin
  2
AI9-BLK5
 70
     0
 10
0.0
 20
0.0
 30
0.0
  3
AI9-BLK5
  1

  0
SPLINE
  5
26DD
330
26DC
100
AcDbEntity
  8
LAYER_1
 62
     7
100
AcDbSpline
210
0.0
220
0.0
230
1.0
 70
    11
 71
     3
 72
    32
 73
    28
 74
     0
 42
0.0000000001
 43
0.0000000001
 40
0.0
 40
0.0
 40
0.0
 40
0.0
 40
1.0
 40
1.0
 40
1.0
 40
2.0
 40
2.0
 40
2.0
 40
3.0
 40
3.0
 40
3.0
 40
4.0
 40
4.0
 40
4.0
 40
5.0
 40
5.0
 40
5.0
 40
6.0
 40
6.0
 40
6.0
 40
7.0
 40
7.0
 40
7.0
 40
8.0
 40
8.0
 40
8.0
 40
9.0
 40
9.0
 40
9.0
 40
9.0
 10
-2.62378472222222
 20
-8.268229166666666
 30
0.0
 10
-2.62378472222222
 20
-8.268229166666666
 30
0.0
 10
-2.62378472222222
 20
8.180034722222217
 30
0.0
 10
-2.62378472222222
 20
8.180034722222217
 30
0.0
 10
-2.62378472222222
 20
8.180034722222217
 30
0.0
 10
-0.3376193576388888
 20
8.180034722222217
 30
0.0
 10
-0.3376193576388888
 20
8.180034722222217
 30
0.0
 10
0.6972873263888888
 20
8.180034722222217
 30
0.0
 10
1.449007161458333
 20
7.445540364583332
 30
0.0
 10
1.918918185763885
 20
5.977929687499997
 30
0.0
 10
2.388829210069443
 20
4.510319010416666
 30
0.0
 10
2.62378472222222
 20
2.449462890624999
 30
0.0
 10
2.62378472222222
 20
-0.204638671875
 30
0.0
 10
2.62378472222222
 20
-0.8950358072916666
 30
0.0
 10
2.590022786458332
 20
-1.643310546874999
 30
0.0
 10
2.523187934027772
 20
-2.45015190972222
 30
0.0
 10
2.408121744791666
 20
-3.80200737847222
 30
0.0
 10
2.226220703124999
 20
-4.909950086805555
 30
0.0
 10
1.976795789930553
 20
-5.774669053819441
 30
0.0
 10
1.659847005208333
 20
-6.853672960069442
 30
0.0
 10
1.252636718749998
 20
-7.583344184027778
 30
0.0
 10
0.7544759114583333
 20
-7.962304687499997
 30
0.0
 10
0.4664659288194444
 20
-8.166254340277777
 30
0.0
 10
0.1074869791666666
 20
-8.268229166666666
 30
0.0
 10
-0.3231499565972222
 20
-8.268229166666666
 30
0.0
 10
-0.3231499565972222
 20
-8.268229166666666
 30
0.0
 10
-2.62378472222222
 20
-8.268229166666666
 30
0.0
 10
-2.62378472222222
 20
-8.268229166666666
 30
0.0
  0
SPLINE
  5
26DE
330
26DC
100
AcDbEntity
  8
LAYER_1
 62
     7
100
AcDbSpline
210
0.0
220
0.0
230
1.0
 70
    11
 71
     3
 72
    26
 73
    22
 74
     0
 42
0.0000000001
 43
0.0000000001
 40
0.0
 40
0.0
 40
0.0
 40
0.0
 40
1.0
 40
1.0
 40
1.0
 40
2.0
 40
2.0
 40
2.0
 40
3.0
 40
3.0
 40
3.0
 40
4.0
 40
4.0
 40
4.0
 40
5.0
 40
5.0
 40
5.0
 40
6.0
 40
6.0
 40
6.0
 40
7.0
 40
7.0
 40
7.0
 40
7.0
 10
-3.946701388888888
 20
-10.7376736111111
 30
0.0
 10
-3.946701388888888
 20
-10.7376736111111
 30
0.0
 10
-0.0943956163194444
 20
-10.7376736111111
 30
0.0
 10
-0.0943956163194444
 20
-10.7376736111111
 30
0.0
 10
1.546847873263885
 20
-10.7376736111111
 30
0.0
 10
2.705777994791666
 20
-9.11021050347222
 30
0.0
 10
3.381705729166666
 20
-5.854595269097222
 30
0.0
 10
3.757910156249999
 20
-4.01284722222222
 30
0.0
 10
3.946701388888888
 20
-1.951991102430555
 30
0.0
 10
3.946701388888888
 20
0.328662109375
 30
0.0
 10
3.946701388888888
 20
3.281797960069443
 30
0.0
 10
3.622862413194443
 20
5.703700086805552
 30
0.0
 10
2.976562499999998
 20
7.594368489583332
 30
0.0
 10
2.25171440972222
 20
9.689675564236106
 30
0.0
 10
1.233344184027777
 20
10.7376736111111
 30
0.0
 10
-0.0799262152777778
 20
10.7376736111111
 30
0.0
 10
-0.0799262152777778
 20
10.7376736111111
 30
0.0
 10
-3.946701388888888
 20
10.7376736111111
 30
0.0
 10
-3.946701388888888
 20
10.7376736111111
 30
0.0
 10
-3.946701388888888
 20
10.7376736111111
 30
0.0
 10
-3.946701388888888
 20
-10.7376736111111
 30
0.0
 10
-3.946701388888888
 20
-10.7376736111111
 30
0.0
  0
ENDBLK
  5
26E0
330
26DC
100
AcDbEntity
  8
0
100
AcDbBlockEnd
  0
BLOCK
  5
26E4
330
26E1
100
AcDbEntity
  8
0
 62
     7
100
AcDbBlockBegin
  2
AI9-BLK4
 70
     0
 10
0.0
 20
0.0
 30
0.0
  3
AI9-BLK4
  1

  0
SPLINE
  5
26E2
330
26E1
100
AcDbEntity
  8
LAYER_1
 62
     7
100
AcDbSpline
210
0.0
220
0.0
230
1.0
 70
    11
 71
     3
 72
    26
 73
    22
 74
     0
 42
0.0000000001
 43
0.0000000001
 40
0.0
 40
0.0
 40
0.0
 40
0.0
 40
1.0
 40
1.0
 40
1.0
 40
2.0
 40
2.0
 40
2.0
 40
3.0
 40
3.0
 40
3.0
 40
4.0
 40
4.0
 40
4.0
 40
5.0
 40
5.0
 40
5.0
 40
6.0
 40
6.0
 40
6.0
 40
7.0
 40
7.0
 40
7.0
 40
7.0
 10
-2.645833333333333
 20
0.9039930555555551
 30
0.0
 10
-2.645833333333333
 20
0.9039930555555551
 30
0.0
 10
-2.645833333333333
 20
8.180034722222217
 30
0.0
 10
-2.645833333333333
 20
8.180034722222217
 30
0.0
 10
-2.645833333333333
 20
8.180034722222217
 30
0.0
 10
0.465087890625
 20
8.180034722222217
 30
0.0
 10
0.465087890625
 20
8.180034722222217
 30
0.0
 10
0.9026150173611108
 20
8.180034722222217
 30
0.0
 10
1.24988064236111
 20
8.034651692708331
 30
0.0
 10
1.506884765625
 20
7.745263671874997
 30
0.0
 10
2.001600477430554
 20
7.194048394097221
 30
0.0
 10
2.248958333333332
 20
6.160519748263887
 30
0.0
 10
2.248958333333332
 20
4.643299696180553
 30
0.0
 10
2.248958333333332
 20
3.232188585069443
 30
0.0
 10
2.072569444444444
 20
2.256537543402775
 30
0.0
 10
1.720480685763888
 20
1.715657552083333
 30
0.0
 10
1.368391927083333
 20
1.174088541666665
 30
0.0
 10
0.8929687499999998
 20
0.9039930555555551
 30
0.0
 10
0.2942111545138888
 20
0.9039930555555551
 30
0.0
 10
0.2942111545138888
 20
0.9039930555555551
 30
0.0
 10
-2.645833333333333
 20
0.9039930555555551
 30
0.0
 10
-2.645833333333333
 20
0.9039930555555551
 30
0.0
  0
SPLINE
  5
26E3
330
26E1
100
AcDbEntity
  8
LAYER_1
 62
     7
100
AcDbSpline
210
0.0
220
0.0
230
1.0
 70
    11
 71
     3
 72
    68
 73
    64
 74
     0
 42
0.0000000001
 43
0.0000000001
 40
0.0
 40
0.0
 40
0.0
 40
0.0
 40
1.0
 40
1.0
 40
1.0
 40
2.0
 40
2.0
 40
2.0
 40
3.0
 40
3.0
 40
3.0
 40
4.0
 40
4.0
 40
4.0
 40
5.0
 40
5.0
 40
5.0
 40
6.0
 40
6.0
 40
6.0
 40
7.0
 40
7.0
 40
7.0
 40
8.0
 40
8.0
 40
8.0
 40
9.0
 40
9.0
 40
9.0
 40
10.0
 40
10.0
 40
10.0
 40
11.0
 40
11.0
 40
11.0
 40
12.0
 40
12.0
 40
12.0
 40
13.0
 40
13.0
 40
13.0
 40
14.0
 40
14.0
 40
14.0
 40
15.0
 40
15.0
 40
15.0
 40
16.0
 40
16.0
 40
16.0
 40
17.0
 40
17.0
 40
17.0
 40
18.0
 40
18.0
 40
18.0
 40
19.0
 40
19.0
 40
19.0
 40
20.0
 40
20.0
 40
20.0
 40
21.0
 40
21.0
 40
21.0
 40
21.0
 10
-3.968749999999998
 20
-10.7376736111111
 30
0.0
 10
-3.968749999999998
 20
-10.7376736111111
 30
0.0
 10
-2.645833333333333
 20
-10.7376736111111
 30
0.0
 10
-2.645833333333333
 20
-10.7376736111111
 30
0.0
 10
-2.645833333333333
 20
-10.7376736111111
 30
0.0
 10
-2.645833333333333
 20
-1.521354166666665
 30
0.0
 10
-2.645833333333333
 20
-1.521354166666665
 30
0.0
 10
-2.645833333333333
 20
-1.521354166666665
 30
0.0
 10
0.2390896267361111
 20
-1.521354166666665
 30
0.0
 10
0.2390896267361111
 20
-1.521354166666665
 30
0.0
 10
0.7599880642361111
 20
-1.521354166666665
 30
0.0
 10
1.143771701388887
 20
-1.65295681423611
 30
0.0
 10
1.390440538194444
 20
-1.916162109374999
 30
0.0
 10
1.816254340277773
 20
-2.39434136284722
 30
0.0
 10
2.04363064236111
 20
-3.335541449652775
 30
0.0
 10
2.072569444444444
 20
-4.739762369791666
 30
0.0
 10
2.072569444444444
 20
-4.739762369791666
 30
0.0
 10
2.160763888888888
 20
-8.324039713541665
 30
0.0
 10
2.160763888888888
 20
-8.324039713541665
 30
0.0
 10
2.18005642361111
 20
-9.163264973958332
 30
0.0
 10
2.202794053819443
 20
-9.728949652777775
 30
0.0
 10
2.227598741319444
 20
-10.02109374999998
 30
0.0
 10
2.252403428819443
 20
-10.31392686631944
 30
0.0
 10
2.28892144097222
 20
-10.55301649305555
 30
0.0
 10
2.33853081597222
 20
-10.7376736111111
 30
0.0
 10
2.33853081597222
 20
-10.7376736111111
 30
0.0
 10
3.968749999999998
 20
-10.7376736111111
 30
0.0
 10
3.968749999999998
 20
-10.7376736111111
 30
0.0
 10
3.968749999999998
 20
-10.7376736111111
 30
0.0
 10
3.968749999999998
 20
-10.25260416666666
 30
0.0
 10
3.968749999999998
 20
-10.25260416666666
 30
0.0
 10
3.766867404513888
 20
-10.05830078125
 30
0.0
 10
3.625618489583333
 20
-9.621462673611112
 30
0.0
 10
3.545692274305555
 20
-8.942089843749997
 30
0.0
 10
3.49470486111111
 20
-8.543836805555555
 30
0.0
 10
3.459564887152775
 20
-7.937499999999999
 30
0.0
 10
3.439583333333333
 20
-7.121701388888887
 30
0.0
 10
3.439583333333333
 20
-7.121701388888887
 30
0.0
 10
3.395486111111106
 20
-4.232644314236106
 30
0.0
 10
3.395486111111106
 20
-4.232644314236106
 30
0.0
 10
3.375504557291666
 20
-2.981385633680555
 30
0.0
 10
3.26870659722222
 20
-2.077392578125
 30
0.0
 10
3.075781249999999
 20
-1.522043185763888
 30
0.0
 10
2.882166883680555
 20
-0.9666937934027776
 30
0.0
 10
2.592089843749999
 20
-0.5188313802083333
 30
0.0
 10
2.204861111111104
 20
-0.1770779079861111
 30
0.0
 10
2.63618706597222
 20
0.3197048611111111
 30
0.0
 10
2.971739366319443
 20
0.9770290798611107
 30
0.0
 10
3.211518012152775
 20
1.79558376736111
 30
0.0
 10
3.451296657986107
 20
2.613449435763888
 30
0.0
 10
3.571874999999999
 20
3.66558159722222
 30
0.0
 10
3.571874999999999
 20
4.951291232638888
 30
0.0
 10
3.571874999999999
 20
7.415912543402777
 30
0.0
 10
3.124701605902775
 20
9.106076388888887
 30
0.0
 10
2.231043836805555
 20
10.02178276909722
 30
0.0
 10
1.759754774305553
 20
10.498583984375
 30
0.0
 10
1.163753255208332
 20
10.7376736111111
 30
0.0
 10
0.443039279513889
 20
10.7376736111111
 30
0.0
 10
0.443039279513889
 20
10.7376736111111
 30
0.0
 10
-3.968749999999998
 20
10.7376736111111
 30
0.0
 10
-3.968749999999998
 20
10.7376736111111
 30
0.0
 10
-3.968749999999998
 20
10.7376736111111
 30
0.0
 10
-3.968749999999998
 20
-10.7376736111111
 30
0.0
 10
-3.968749999999998
 20
-10.7376736111111
 30
0.0
  0
ENDBLK
  5
26E5
330
26E1
100
AcDbEntity
  8
0
100
AcDbBlockEnd
  0
BLOCK
  5
26E9
330
26E6
100
AcDbEntity
  8
0
 62
     7
100
AcDbBlockBegin
  2
AI9-BLK3
 70
     0
 10
0.0
 20
0.0
 30
0.0
  3
AI9-BLK3
  1

  0
LWPOLYLINE
  5
26E7
330
26E6
100
AcDbEntity
  8
LAYER_1
 62
     7
100
AcDbPolyline
 90
        4
 70
     1
 43
0.0
 10
-0.6613722059461809
 20
10.7376736111111
 10
0.6613722059461809
 20
10.7376736111111
 10
0.6613722059461809
 20
-10.7376736111111
 10
-0.6613722059461809
 20
-10.7376736111111
  0
HATCH
  5
26E8
330
26E6
100
AcDbEntity
  8
LAYER_1
 62
     7
100
AcDbHatch
 10
0.0
 20
0.0
 30
0.0
210
0.0
220
0.0
230
1.0
  2
SOLID
 70
     1
 71
     0
 91
        1
 92
        3
 72
     0
 73
     1
 93
        4
 10
-0.6613722059461809
 20
10.7376736111111
 10
0.6613722059461809
 20
10.7376736111111
 10
0.6613722059461809
 20
-10.7376736111111
 10
-0.6613722059461809
 20
-10.7376736111111
 97
        0
 75
     2
 76
     1
 98
        1
 10
0.0
 20
0.0
  0
ENDBLK
  5
26EA
330
26E6
100
AcDbEntity
  8
0
100
AcDbBlockEnd
  0
BLOCK
  5
26EE
330
26EB
100
AcDbEntity
  8
0
 62
     7
100
AcDbBlockBegin
  2
AI9-BLK2
 70
     0
 10
0.0
 20
0.0
 30
0.0
  3
AI9-BLK2
  1

  0
LWPOLYLINE
  5
26EC
330
26EB
100
AcDbEntity
  8
LAYER_1
 62
     7
100
AcDbPolyline
 90
        7
 70
     1
 43
0.0
 10
-2.785704210069443
 20
10.7376736111111
 10
0.0
 20
-7.550960286458332
 10
2.771234809027776
 20
10.7376736111111
 10
4.233333333333331
 20
10.7376736111111
 10
0.6910861545138888
 20
-10.7376736111111
 10
-0.7055555555555558
 20
-10.7376736111111
 10
-4.233333333333331
 20
10.7376736111111
  0
HATCH
  5
26ED
330
26EB
100
AcDbEntity
  8
LAYER_1
 62
     7
100
AcDbHatch
 10
0.0
 20
0.0
 30
0.0
210
0.0
220
0.0
230
1.0
  2
SOLID
 70
     1
 71
     0
 91
        1
 92
        3
 72
     0
 73
     1
 93
        7
 10
-2.785704210069443
 20
10.7376736111111
 10
0.0
 20
-7.550960286458332
 10
2.771234809027776
 20
10.7376736111111
 10
4.233333333333331
 20
10.7376736111111
 10
0.6910861545138888
 20
-10.7376736111111
 10
-0.7055555555555558
 20
-10.7376736111111
 10
-4.233333333333331
 20
10.7376736111111
 97
        0
 75
     2
 76
     1
 98
        1
 10
0.0
 20
0.0
  0
ENDBLK
  5
26EF
330
26EB
100
AcDbEntity
  8
0
100
AcDbBlockEnd
  0
BLOCK
  5
26F3
330
26F0
100
AcDbEntity
  8
0
 62
     7
100
AcDbBlockBegin
  2
AI9-BLK1
 70
     0
 10
0.0
 20
0.0
 30
0.0
  3
AI9-BLK1
  1

  0
LWPOLYLINE
  5
26F1
330
26F0
100
AcDbEntity
  8
LAYER_1
 62
     7
100
AcDbPolyline
 90
       12
 70
     1
 43
0.0
 10
-3.571874999999999
 20
10.7376736111111
 10
3.483680555555555
 20
10.7376736111111
 10
3.483680555555555
 20
8.091840277777777
 10
-2.248958333333332
 20
8.091840277777777
 10
-2.248958333333332
 20
1.565451388888888
 10
3.042708333333333
 20
1.565451388888888
 10
3.042708333333333
 20
-0.9039930555555551
 10
-2.248958333333332
 20
-0.9039930555555551
 10
-2.248958333333332
 20
-8.180034722222217
 10
3.571874999999999
 20
-8.180034722222217
 10
3.571874999999999
 20
-10.7376736111111
 10
-3.571874999999999
 20
-10.7376736111111
  0
HATCH
  5
26F2
330
26F0
100
AcDbEntity
  8
LAYER_1
 62
     7
100
AcDbHatch
 10
0.0
 20
0.0
 30
0.0
210
0.0
220
0.0
230
1.0
  2
SOLID
 70
     1
 71
     0
 91
        1
 92
        3
 72
     0
 73
     1
 93
       12
 10
-3.571874999999999
 20
10.7376736111111
 10
3.483680555555555
 20
10.7376736111111
 10
3.483680555555555
 20
8.091840277777777
 10
-2.248958333333332
 20
8.091840277777777
 10
-2.248958333333332
 20
1.565451388888888
 10
3.042708333333333
 20
1.565451388888888
 10
3.042708333333333
 20
-0.9039930555555551
 10
-2.248958333333332
 20
-0.9039930555555551
 10
-2.248958333333332
 20
-8.180034722222217
 10
3.571874999999999
 20
-8.180034722222217
 10
3.571874999999999
 20
-10.7376736111111
 10
-3.571874999999999
 20
-10.7376736111111
 97
        0
 75
     2
 76
     1
 98
        1
 10
0.0
 20
0.0
  0
ENDBLK
  5
26F4
330
26F0
100
AcDbEntity
  8
0
100
AcDbBlockEnd
  0
BLOCK
  5
2718
330
26F5
100
AcDbEntity
  8
0
100
AcDbBlockBegin
  2
HD_LLC_logo_OT5
 70
     0
 10
0.0
 20
0.0
 30
0.0
  3
HD_LLC_logo_OT5
  1

  0
SPLINE
  5
26F6
102
{ACAD_REACTORS
330
2716
102
}
330
26F5
100
AcDbEntity
  8
LAYER_1
 62
     7
100
AcDbSpline
210
0.0
220
0.0
230
1.0
 70
    11
 71
     3
 72
   113
 73
   109
 74
     0
 42
0.0000000001
 43
0.0000000001
 40
0.0
 40
0.0
 40
0.0
 40
0.0
 40
1.0
 40
1.0
 40
1.0
 40
2.0
 40
2.0
 40
2.0
 40
3.0
 40
3.0
 40
3.0
 40
4.0
 40
4.0
 40
4.0
 40
5.0
 40
5.0
 40
5.0
 40
6.0
 40
6.0
 40
6.0
 40
7.0
 40
7.0
 40
7.0
 40
8.0
 40
8.0
 40
8.0
 40
9.0
 40
9.0
 40
9.0
 40
10.0
 40
10.0
 40
10.0
 40
11.0
 40
11.0
 40
11.0
 40
12.0
 40
12.0
 40
12.0
 40
13.0
 40
13.0
 40
13.0
 40
14.0
 40
14.0
 40
14.0
 40
15.0
 40
15.0
 40
15.0
 40
16.0
 40
16.0
 40
16.0
 40
17.0
 40
17.0
 40
17.0
 40
18.0
 40
18.0
 40
18.0
 40
19.0
 40
19.0
 40
19.0
 40
20.0
 40
20.0
 40
20.0
 40
21.0
 40
21.0
 40
21.0
 40
22.0
 40
22.0
 40
22.0
 40
23.0
 40
23.0
 40
23.0
 40
24.0
 40
24.0
 40
24.0
 40
25.0
 40
25.0
 40
25.0
 40
26.0
 40
26.0
 40
26.0
 40
27.0
 40
27.0
 40
27.0
 40
28.0
 40
28.0
 40
28.0
 40
29.0
 40
29.0
 40
29.0
 40
30.0
 40
30.0
 40
30.0
 40
31.0
 40
31.0
 40
31.0
 40
32.0
 40
32.0
 40
32.0
 40
33.0
 40
33.0
 40
33.0
 40
34.0
 40
34.0
 40
34.0
 40
35.0
 40
35.0
 40
35.0
 40
36.0
 40
36.0
 40
36.0
 40
36.0
 10
193.3039632161458
 20
186.1548733181423
 30
0.0
 10
193.3039632161458
 20
186.1860514322916
 30
0.0
 10
193.3039632161458
 20
219.6932223849826
 30
0.0
 10
193.3039632161458
 20
219.6932223849826
 30
0.0
 10
193.3039632161458
 20
219.6932223849826
 30
0.0
 10
193.2974175347219
 20
219.7488606770833
 30
0.0
 10
193.2974175347219
 20
219.7488606770833
 30
0.0
 10
191.5293945312499
 20
235.455740017361
 30
0.0
 10
175.1458984374999
 20
235.2467949761284
 30
0.0
 10
174.9808783637151
 20
235.2428331163193
 30
0.0
 10
174.9808783637151
 20
235.2428331163193
 30
0.0
 10
125.8827555338541
 20
235.2430053710937
 30
0.0
 10
125.8827555338541
 20
235.2430053710937
 30
0.0
 10
125.8827555338541
 20
235.2430053710937
 30
0.0
 10
125.8827555338541
 20
255.5278998480901
 30
0.0
 10
125.8827555338541
 20
255.5278998480901
 30
0.0
 10
125.8827555338541
 20
255.5278998480901
 30
0.0
 10
84.5626247829861
 20
255.5278998480901
 30
0.0
 10
84.5626247829861
 20
255.5278998480901
 30
0.0
 10
84.5626247829861
 20
255.5278998480901
 30
0.0
 10
84.55711263020829
 20
233.7919311523436
 30
0.0
 10
84.55711263020829
 20
233.7919311523436
 30
0.0
 10
84.55711263020829
 20
233.7919311523436
 30
0.0
 10
64.42052951388888
 20
233.7919311523436
 30
0.0
 10
64.42052951388888
 20
233.7919311523436
 30
0.0
 10
64.42052951388888
 20
233.7919311523436
 30
0.0
 10
64.41501736111111
 20
255.5278998480901
 30
0.0
 10
64.41501736111111
 20
255.5278998480901
 30
0.0
 10
64.41501736111111
 20
255.5278998480901
 30
0.0
 10
23.91757541232637
 20
255.5278998480901
 30
0.0
 10
23.91757541232637
 20
255.5278998480901
 30
0.0
 10
23.91757541232637
 20
255.5278998480901
 30
0.0
 10
23.91757541232637
 20
233.2393378363715
 30
0.0
 10
23.91757541232637
 20
233.2393378363715
 30
0.0
 10
23.91757541232637
 20
233.2393378363715
 30
0.0
 10
43.65624999999999
 20
233.2393378363715
 30
0.0
 10
43.65624999999999
 20
233.2393378363715
 30
0.0
 10
43.65624999999999
 20
233.2393378363715
 30
0.0
 10
43.65624999999999
 20
211.5188720703125
 30
0.0
 10
43.65624999999999
 20
211.5188720703125
 30
0.0
 10
43.65624999999999
 20
211.5188720703125
 30
0.0
 10
23.91757541232637
 20
211.5188720703125
 30
0.0
 10
23.91757541232637
 20
211.5188720703125
 30
0.0
 10
23.91757541232637
 20
211.5188720703125
 30
0.0
 10
23.91757541232637
 20
189.2303100585936
 30
0.0
 10
23.91757541232637
 20
189.2303100585936
 30
0.0
 10
23.91757541232637
 20
189.2303100585936
 30
0.0
 10
64.41501736111111
 20
189.2303100585936
 30
0.0
 10
64.41501736111111
 20
189.2303100585936
 30
0.0
 10
64.41501736111111
 20
189.2303100585936
 30
0.0
 10
64.42052951388888
 20
211.069976128472
 30
0.0
 10
64.42052951388888
 20
211.069976128472
 30
0.0
 10
64.42052951388888
 20
211.069976128472
 30
0.0
 10
84.55711263020829
 20
211.069976128472
 30
0.0
 10
84.55711263020829
 20
211.069976128472
 30
0.0
 10
84.55711263020829
 20
211.069976128472
 30
0.0
 10
84.5626247829861
 20
189.2303100585936
 30
0.0
 10
84.5626247829861
 20
189.2303100585936
 30
0.0
 10
84.5626247829861
 20
189.2303100585936
 30
0.0
 10
125.8827555338541
 20
189.2303100585936
 30
0.0
 10
125.8827555338541
 20
189.2303100585936
 30
0.0
 10
125.8827555338541
 20
189.2303100585936
 30
0.0
 10
125.8827555338541
 20
211.5188720703125
 30
0.0
 10
125.8827555338541
 20
211.5188720703125
 30
0.0
 10
125.8827555338541
 20
211.5188720703125
 30
0.0
 10
105.3213921440971
 20
211.5188720703125
 30
0.0
 10
105.3213921440971
 20
211.5188720703125
 30
0.0
 10
105.3213921440971
 20
211.5188720703125
 30
0.0
 10
105.3213921440971
 20
233.2393378363715
 30
0.0
 10
105.3213921440971
 20
233.2393378363715
 30
0.0
 10
105.3213921440971
 20
233.2393378363715
 30
0.0
 10
175.0046495225693
 20
233.243127441406
 30
0.0
 10
175.0046495225693
 20
233.243127441406
 30
0.0
 10
175.6268337673611
 20
233.2560465494791
 30
0.0
 10
189.7165852864583
 20
233.3962619357638
 30
0.0
 10
191.3037407769094
 20
219.5690266927083
 30
0.0
 10
191.3037407769094
 20
219.4332899305555
 30
0.0
 10
191.3037407769094
 20
186.1142211914062
 30
0.0
 10
191.3037407769094
 20
186.1142211914062
 30
0.0
 10
191.3037407769094
 20
186.1142211914062
 30
0.0
 10
191.3051188151039
 20
186.0880384657115
 30
0.0
 10
191.3051188151039
 20
186.0880384657115
 30
0.0
 10
191.3054633246526
 20
186.0787367078991
 30
0.0
 10
191.3109754774304
 20
185.9566080729166
 30
0.0
 10
191.3109754774304
 20
185.7399115668401
 30
0.0
 10
191.3109754774304
 20
184.2090833875865
 30
0.0
 10
191.0488037109374
 20
177.9643310546874
 30
0.0
 10
186.9866916232638
 20
173.5652886284722
 30
0.0
 10
184.2540418836804
 20
170.6064683702255
 30
0.0
 10
180.3224989149304
 20
169.0308539496526
 30
0.0
 10
175.300927734375
 20
168.8825425889756
 30
0.0
 10
175.300927734375
 20
168.8825425889756
 30
0.0
 10
107.0094889322916
 20
168.8828870985243
 30
0.0
 10
107.0094889322916
 20
168.8828870985243
 30
0.0
 10
107.0094889322916
 20
168.8828870985243
 30
0.0
 10
107.0094889322916
 20
166.8830091688368
 30
0.0
 10
107.0094889322916
 20
166.8830091688368
 30
0.0
 10
107.0094889322916
 20
166.8830091688368
 30
0.0
 10
175.3305555555555
 20
166.8830091688368
 30
0.0
 10
175.3305555555555
 20
166.8830091688368
 30
0.0
 10
180.9467502170138
 20
167.0485460069444
 30
0.0
 10
185.3571614583333
 20
168.8448187934026
 30
0.0
 10
188.4687717013888
 20
172.2223904079861
 30
0.0
 10
192.9649658203124
 20
177.1034016927083
 30
0.0
 10
193.3136094835069
 20
183.7202243381076
 30
0.0
 10
193.3136094835069
 20
185.6520616319443
 30
0.0
 10
193.3136094835069
 20
185.9247409396701
 30
0.0
 10
193.3070638020833
 20
186.0868326822916
 30
0.0
 10
193.3039632161458
 20
186.1548733181423
 30
0.0
  0
INSERT
  5
26F7
102
{ACAD_REACTORS
330
2717
102
}
330
26F5
100
AcDbEntity
  8
LAYER_1
 62
     7
100
AcDbBlockReference
  2
AI9-BLK14
 10
159.5625257703993
 20
200.5118781195744
 30
0.0
  0
INSERT
  5
26F8
330
26F5
100
AcDbEntity
  8
LAYER_1
 62
     7
100
AcDbBlockReference
  2
AI9-BLK13
 10
27.69615614149305
 20
179.2145562065971
 30
0.0
 42
0.9200000000000001
  0
INSERT
  5
26F9
102
{ACAD_REACTORS
330
2704
102
}
330
26F5
100
AcDbEntity
  8
LAYER_1
 62
     7
100
AcDbBlockReference
  2
AI9-BLK11
 10
44.76591525607638
 20
179.2145562065971
 30
0.0
 42
0.9200000000000001
  0
INSERT
  5
26FA
102
{ACAD_REACTORS
330
2712
102
}
330
26F5
100
AcDbEntity
  8
LAYER_1
 62
     7
100
AcDbBlockReference
  2
AI9-BLK10
 10
54.04665798611111
 20
179.2145562065971
 30
0.0
 42
0.9200000000000001
  0
INSERT
  5
26FB
102
{ACAD_REACTORS
330
2711
102
}
330
26F5
100
AcDbEntity
  8
LAYER_1
 62
     7
100
AcDbBlockReference
  2
AI9-BLK9
 10
62.79013807508679
 20
179.2145562065971
 30
0.0
 42
0.9
  0
INSERT
  5
26FC
330
26F5
100
AcDbEntity
  8
LAYER_1
 62
     7
100
AcDbBlockReference
  2
AI9-BLK8
 10
71.03046196831595
 20
179.2145562065971
 30
0.0
 42
0.9200000000000001
  0
INSERT
  5
26FD
330
26F5
100
AcDbEntity
  8
LAYER_1
 62
     7
100
AcDbBlockReference
  2
AI9-BLK7
 10
76.93793945312498
 20
179.2145562065971
 30
0.0
 42
0.9200000000000001
  0
INSERT
  5
26FE
102
{ACAD_REACTORS
330
2705
102
}
330
26F5
100
AcDbEntity
  8
LAYER_1
 62
     7
100
AcDbBlockReference
  2
AI9-BLK6
 10
82.55602891710069
 20
179.2145562065971
 30
0.0
 42
0.9
  0
INSERT
  5
26FF
102
{ACAD_REACTORS
330
2713
102
}
330
26F5
100
AcDbEntity
  8
LAYER_1
 62
     7
100
AcDbBlockReference
  2
AI9-BLK5
 10
94.32430284288193
 20
179.2145562065971
 30
0.0
 42
0.9200000000000001
  0
INSERT
  5
2700
102
{ACAD_REACTORS
330
2714
102
}
330
26F5
100
AcDbEntity
  8
LAYER_1
 62
     7
100
AcDbBlockReference
  2
AI9-BLK4
 10
103.2081705729166
 20
179.2145562065971
 30
0.0
 42
0.9200000000000001
  0
INSERT
  5
2701
330
26F5
100
AcDbEntity
  8
LAYER_1
 62
     7
100
AcDbBlockReference
  2
AI9-BLK3
 10
108.850978597005
 20
179.2145562065971
 30
0.0
 42
0.9200000000000001
  0
INSERT
  5
2702
330
26F5
100
AcDbEntity
  8
LAYER_1
 62
     7
100
AcDbBlockReference
  2
AI9-BLK2
 10
114.2045708550346
 20
179.2145562065971
 30
0.0
 42
0.9200000000000001
  0
INSERT
  5
2703
330
26F5
100
AcDbEntity
  8
LAYER_1
 62
     7
100
AcDbBlockReference
  2
AI9-BLK1
 10
122.4125108506944
 20
179.2145562065971
 30
0.0
 42
0.9200000000000001
  0
HATCH
  5
2704
330
26F5
100
AcDbEntity
  8
0
  6
Continuous
100
AcDbHatch
 10
0.0
 20
0.0
 30
0.0
210
0.0
220
0.0
230
1.0
  2
SOLID
 70
     1
 71
     1
 91
        2
 92
       16
 93
        1
 72
     4
 94
        3
 73
     0
 74
     0
 95
       26
 96
       22
 40
0.0
 40
0.0
 40
0.0
 40
0.0
 40
1.0
 40
1.0
 40
1.0
 40
2.0
 40
2.0
 40
2.0
 40
3.0
 40
3.0
 40
3.0
 40
4.0
 40
4.0
 40
4.0
 40
5.0
 40
5.0
 40
5.0
 40
6.0
 40
6.0
 40
6.0
 40
7.0
 40
7.0
 40
7.0
 40
7.0
 10
42.12008192274304
 20
180.046229817708
 10
42.12008192274304
 20
180.046229817708
 10
42.12008192274304
 20
186.7401881510414
 10
42.12008192274304
 20
186.7401881510414
 10
42.12008192274304
 20
186.7401881510414
 10
45.23100314670138
 20
186.7401881510414
 10
45.23100314670138
 20
186.7401881510414
 10
45.66853027343749
 20
186.7401881510414
 10
46.01579589843749
 20
186.6064357638887
 10
46.27280002170138
 20
186.3401987847216
 10
46.76751573350694
 20
185.8330807291664
 10
47.01487358940972
 20
184.8822343749995
 10
47.01487358940972
 20
183.4863919270832
 10
47.01487358940972
 20
182.188169704861
 10
46.83848470052082
 20
181.2905707465276
 10
46.48639594184028
 20
180.7929611545137
 10
46.13430718315971
 20
180.2947176649304
 10
45.65888400607638
 20
180.046229817708
 10
45.06012641059028
 20
180.046229817708
 10
45.06012641059028
 20
180.046229817708
 10
42.12008192274304
 20
180.046229817708
 10
42.12008192274304
 20
180.046229817708
 97
        1
330
26F9
 92
        1
 93
        1
 72
     4
 94
        3
 73
     0
 74
     0
 95
       68
 96
       64
 40
0.0
 40
0.0
 40
0.0
 40
0.0
 40
1.0
 40
1.0
 40
1.0
 40
2.0
 40
2.0
 40
2.0
 40
3.0
 40
3.0
 40
3.0
 40
4.0
 40
4.0
 40
4.0
 40
5.0
 40
5.0
 40
5.0
 40
6.0
 40
6.0
 40
6.0
 40
7.0
 40
7.0
 40
7.0
 40
8.0
 40
8.0
 40
8.0
 40
9.0
 40
9.0
 40
9.0
 40
10.0
 40
10.0
 40
10.0
 40
11.0
 40
11.0
 40
11.0
 40
12.0
 40
12.0
 40
12.0
 40
13.0
 40
13.0
 40
13.0
 40
14.0
 40
14.0
 40
14.0
 40
15.0
 40
15.0
 40
15.0
 40
16.0
 40
16.0
 40
16.0
 40
17.0
 40
17.0
 40
17.0
 40
18.0
 40
18.0
 40
18.0
 40
19.0
 40
19.0
 40
19.0
 40
20.0
 40
20.0
 40
20.0
 40
21.0
 40
21.0
 40
21.0
 40
21.0
 10
40.79716525607638
 20
169.3358964843748
 10
40.79716525607638
 20
169.3358964843748
 10
42.12008192274304
 20
169.3358964843748
 10
42.12008192274304
 20
169.3358964843748
 10
42.12008192274304
 20
169.3358964843748
 10
42.12008192274304
 20
177.8149103732637
 10
42.12008192274304
 20
177.8149103732637
 10
42.12008192274304
 20
177.8149103732637
 10
45.00500488281249
 20
177.8149103732637
 10
45.00500488281249
 20
177.8149103732637
 10
45.52590332031249
 20
177.8149103732637
 10
45.90968695746528
 20
177.6938359374998
 10
46.15635579427083
 20
177.4516870659717
 10
46.58216959635415
 20
177.0117621527776
 10
46.80954589843749
 20
176.1458580729164
 10
46.83848470052082
 20
174.8539748263887
 10
46.83848470052082
 20
174.8539748263887
 10
46.92667914496527
 20
171.5564396701385
 10
46.92667914496527
 20
171.5564396701385
 10
46.94597167968749
 20
170.7843524305554
 10
46.96870930989581
 20
170.2639225260415
 10
46.99351399739582
 20
169.9951499565971
 10
47.01831868489581
 20
169.725743489583
 10
47.0548366970486
 20
169.5057810329859
 10
47.10444607204859
 20
169.3358964843748
 10
47.10444607204859
 20
169.3358964843748
 10
48.73466525607638
 20
169.3358964843748
 10
48.73466525607638
 20
169.3358964843748
 10
48.73466525607638
 20
169.3358964843748
 10
48.73466525607638
 20
169.7821603732633
 10
48.73466525607638
 20
169.7821603732633
 10
48.53278266059028
 20
169.9609194878471
 10
48.39153374565971
 20
170.3628105468748
 10
48.31160753038194
 20
170.9878335503471
 10
48.26062011718749
 20
171.3542263454858
 10
48.22548014322915
 20
171.9120562065971
 10
48.20549858940971
 20
172.6625909288193
 10
48.20549858940971
 20
172.6625909288193
 10
48.16140136718749
 20
175.3205234374999
 10
48.16140136718749
 20
175.3205234374999
 10
48.14141981336803
 20
176.4716814236109
 10
48.03462185329859
 20
177.3033550347219
 10
47.84169650607638
 20
177.814276475694
 10
47.64808213975693
 20
178.3251979166665
 10
47.35800509982638
 20
178.7372313368054
 10
46.97077636718749
 20
179.0516445312498
 10
47.4021023220486
 20
179.5086846788193
 10
47.73765462239582
 20
180.1134229600693
 10
47.97743326822915
 20
180.866493272569
 10
48.21721191406249
 20
181.6189296874999
 10
48.33779025607638
 20
182.5868912760411
 10
48.33779025607638
 20
183.7697441406248
 10
48.33779025607638
 20
186.0371957465273
 10
47.89061686197913
 20
187.5921464843749
 10
46.99695909288194
 20
188.4345963541665
 10
46.52567003038194
 20
188.8732534722221
 10
45.92966851128472
 20
189.0932159288193
 10
45.20895453559027
 20
189.0932159288193
 10
45.20895453559027
 20
189.0932159288193
 10
40.79716525607638
 20
189.0932159288193
 10
40.79716525607638
 20
189.0932159288193
 10
40.79716525607638
 20
189.0932159288193
 10
40.79716525607638
 20
169.3358964843748
 10
40.79716525607638
 20
169.3358964843748
 97
        0
 75
     0
 76
     1
 98
        0
  0
HATCH
  5
2705
330
26F5
100
AcDbEntity
  8
0
  6
Continuous
100
AcDbHatch
 10
0.0
 20
0.0
 30
0.0
210
0.0
220
0.0
230
1.0
  2
SOLID
 70
     1
 71
     1
 91
        1
 92
        1
 93
        1
 72
     4
 94
        3
 73
     0
 74
     0
 95
       59
 96
       55
 40
0.0
 40
0.0
 40
0.0
 40
0.0
 40
1.0
 40
1.0
 40
1.0
 40
2.0
 40
2.0
 40
2.0
 40
3.0
 40
3.0
 40
3.0
 40
4.0
 40
4.0
 40
4.0
 40
5.0
 40
5.0
 40
5.0
 40
6.0
 40
6.0
 40
6.0
 40
7.0
 40
7.0
 40
7.0
 40
8.0
 40
8.0
 40
8.0
 40
9.0
 40
9.0
 40
9.0
 40
10.0
 40
10.0
 40
10.0
 40
11.0
 40
11.0
 40
11.0
 40
12.0
 40
12.0
 40
12.0
 40
13.0
 40
13.0
 40
13.0
 40
14.0
 40
14.0
 40
14.0
 40
15.0
 40
15.0
 40
15.0
 40
16.0
 40
16.0
 40
16.0
 40
17.0
 40
17.0
 40
17.0
 40
18.0
 40
18.0
 40
18.0
 40
18.0
 10
85.61871880425345
 20
187.4658355034721
 10
86.29120144314232
 20
186.1797124565971
 10
86.66671685112847
 20
184.7193364800346
 10
86.7452650282118
 20
183.0840874565969
 10
86.7452650282118
 20
183.0840874565969
 10
85.42234836154511
 20
183.0840874565969
 10
85.42234836154511
 20
183.0840874565969
 10
85.27696533203123
 20
184.3156401909719
 10
84.99171142578125
 20
185.2917046440971
 10
84.56589762369791
 20
186.0122808159719
 10
84.14008382161458
 20
186.7322368706594
 10
83.53994818793401
 20
187.0925249565969
 10
82.76617974175342
 20
187.0925249565969
 10
81.81740044487847
 20
187.0925249565969
 10
81.05258924696178
 20
186.4240386284721
 10
80.47243516710068
 20
185.0883062065971
 10
79.89159206814234
 20
183.7525737847219
 10
79.6015150282118
 20
181.7049468315971
 10
79.6015150282118
 20
178.9454253472221
 10
79.6015150282118
 20
176.6844780815969
 10
79.86265326605901
 20
174.8514116753471
 10
80.38561876085069
 20
173.4456060112846
 10
80.90789523654512
 20
172.0391802300344
 10
81.69199896918403
 20
171.3365874565971
 10
82.73724093967013
 20
171.3365874565971
 10
83.69497748480901
 20
171.3365874565971
 10
84.42120361328125
 20
172.0794878472221
 10
84.91523030598958
 20
173.5665288628469
 10
85.18601481119791
 20
174.3491167534719
 10
85.38445231119791
 20
175.3785112847221
 10
85.51054280598959
 20
176.6547124565971
 10
85.51054280598959
 20
176.6547124565971
 10
86.83345947265625
 20
176.6547124565971
 10
86.83345947265625
 20
176.6547124565971
 10
86.72597249348957
 20
174.6157671440971
 10
86.35114610460069
 20
172.9061040581596
 10
85.70760226779514
 20
171.526343315972
 10
84.93727891710069
 20
169.8650493706596
 10
83.90375027126735
 20
169.0347124565971
 10
82.60701633029514
 20
169.0347124565971
 10
81.48598225911458
 20
169.0347124565971
 10
80.54547119140625
 20
169.7143608940971
 10
79.78479410807292
 20
171.0742778862845
 10
78.78020426432292
 20
172.8726177300344
 10
78.27859836154512
 20
175.6495024956596
 10
78.27859836154512
 20
179.4049321831594
 10
78.27859836154512
 20
182.2562310112846
 10
78.65342475043402
 20
184.5946929253469
 10
79.40445556640622
 20
186.4196978081596
 10
80.22301025390625
 20
188.4028325737846
 10
81.34955647786458
 20
189.3943999565971
 10
82.78271620008679
 20
189.3943999565971
 10
84.00090196397568
 20
189.3943999565971
 10
84.94623616536458
 20
188.7513384331594
 10
85.61871880425345
 20
187.4658355034721
 97
        1
330
26FE
 75
     0
 76
     1
 98
        1
 10
0.0
 20
0.0
  0
LINE
  5
2706
102
{ACAD_REACTORS
330
2715
102
}
330
26F5
100
AcDbEntity
  8
LAYER_1
 62
     7
100
AcDbLine
 10
34.65766059027778
 20
177.4497853732638
 30
0.0
 11
36.19830729166666
 21
186.1658769531249
 31
0.0
  0
LINE
  5
2707
102
{ACAD_REACTORS
330
2715
102
}
330
26F5
100
AcDbEntity
  8
LAYER_1
 62
     7
100
AcDbLine
 10
36.19830729166666
 20
186.1658769531249
 30
0.0
 11
37.67556423611111
 21
177.4497853732638
 31
0.0
  0
LINE
  5
2708
102
{ACAD_REACTORS
330
2715
102
}
330
26F5
100
AcDbEntity
  8
LAYER_1
 62
     7
100
AcDbLine
 10
37.67556423611111
 20
177.4497853732638
 30
0.0
 11
34.65766059027778
 21
177.4497853732638
 31
0.0
  0
LINE
  5
2709
102
{ACAD_REACTORS
330
2715
102
}
330
26F5
100
AcDbEntity
  8
LAYER_1
 62
     7
100
AcDbLine
 10
31.83957248263888
 20
169.3358964843748
 30
0.0
 11
33.22450086805555
 21
169.3358964843748
 31
0.0
  0
LINE
  5
270A
102
{ACAD_REACTORS
330
2715
102
}
330
26F5
100
AcDbEntity
  8
LAYER_1
 62
     7
100
AcDbLine
 10
33.22450086805555
 20
169.3358964843748
 30
0.0
 11
34.27043185763887
 21
175.2590353732638
 31
0.0
  0
LINE
  5
270B
102
{ACAD_REACTORS
330
2715
102
}
330
26F5
100
AcDbEntity
  8
LAYER_1
 62
     7
100
AcDbLine
 10
34.27043185763887
 20
175.2590353732638
 30
0.0
 11
38.04694552951389
 21
175.2590353732638
 31
0.0
  0
LINE
  5
270C
102
{ACAD_REACTORS
330
2715
102
}
330
26F5
100
AcDbEntity
  8
LAYER_1
 62
     7
100
AcDbLine
 10
38.04694552951389
 20
175.2590353732638
 30
0.0
 11
39.05015733506942
 21
169.3358964843748
 31
0.0
  0
LINE
  5
270D
102
{ACAD_REACTORS
330
2715
102
}
330
26F5
100
AcDbEntity
  8
LAYER_1
 62
     7
100
AcDbLine
 10
39.05015733506942
 20
169.3358964843748
 30
0.0
 11
40.43508572048611
 21
169.3358964843748
 31
0.0
  0
LINE
  5
270E
102
{ACAD_REACTORS
330
2715
102
}
330
26F5
100
AcDbEntity
  8
LAYER_1
 62
     7
100
AcDbLine
 10
40.43508572048611
 20
169.3358964843748
 30
0.0
 11
36.952783203125
 21
189.0932159288193
 31
0.0
  0
LINE
  5
270F
102
{ACAD_REACTORS
330
2715
102
}
330
26F5
100
AcDbEntity
  8
LAYER_1
 62
     7
100
AcDbLine
 10
36.952783203125
 20
189.0932159288193
 30
0.0
 11
35.47828233506943
 21
189.0932159288193
 31
0.0
  0
LINE
  5
2710
102
{ACAD_REACTORS
330
2715
102
}
330
26F5
100
AcDbEntity
  8
LAYER_1
 62
     7
100
AcDbLine
 10
35.47828233506943
 20
189.0932159288193
 30
0.0
 11
31.83957248263888
 21
169.3358964843748
 31
0.0
  0
HATCH
  5
2711
330
26F5
100
AcDbEntity
  8
0
  6
Continuous
100
AcDbHatch
 10
0.0
 20
0.0
 30
0.0
210
0.0
220
0.0
230
1.0
  2
SOLID
 70
     1
 71
     1
 91
        2
 92
       16
 93
        1
 72
     4
 94
        3
 73
     0
 74
     0
 95
       29
 96
       25
 40
0.0
 40
0.0
 40
0.0
 40
0.0
 40
1.0
 40
1.0
 40
1.0
 40
2.0
 40
2.0
 40
2.0
 40
3.0
 40
3.0
 40
3.0
 40
4.0
 40
4.0
 40
4.0
 40
5.0
 40
5.0
 40
5.0
 40
6.0
 40
6.0
 40
6.0
 40
7.0
 40
7.0
 40
7.0
 40
8.0
 40
8.0
 40
8.0
 40
8.0
 10
62.85697292751734
 20
171.3365874565971
 10
61.88338894314235
 20
171.3365874565971
 10
61.18058946397566
 20
172.0714263237844
 10
60.74857449001735
 20
173.5411040581594
 10
60.31587049696178
 20
175.0107817925344
 10
60.10020751953123
 20
176.8165630425341
 10
60.10020751953123
 20
178.9578276909721
 10
60.10020751953123
 20
181.6342534722221
 10
60.35101047092013
 20
183.6589360894094
 10
60.85261637369789
 20
185.0324956597219
 10
61.35422227647566
 20
186.4054351128471
 10
62.00741238064235
 20
187.0925249565969
 10
62.81218668619789
 20
187.0925249565969
 10
63.6369425455729
 20
187.0925249565969
 10
64.28806559244789
 20
186.3992339409721
 10
64.76486680772568
 20
185.0126519097221
 10
65.24166802300347
 20
183.6260698784719
 10
65.48006863064235
 20
181.7961040581594
 10
65.48006863064235
 20
179.5239946831596
 10
65.48006863064235
 20
177.3734282769096
 10
65.27336290147568
 20
175.4715288628467
 10
64.86132948133678
 20
173.8176763237846
 10
64.4492960611979
 20
172.1632036675344
 10
63.78094753689235
 20
171.3365874565971
 10
62.85697292751734
 20
171.3365874565971
 97
        1
330
26FB
 92
        1
 93
        1
 72
     4
 94
        3
 73
     0
 74
     0
 95
       29
 96
       25
 40
0.0
 40
0.0
 40
0.0
 40
0.0
 40
1.0
 40
1.0
 40
1.0
 40
2.0
 40
2.0
 40
2.0
 40
3.0
 40
3.0
 40
3.0
 40
4.0
 40
4.0
 40
4.0
 40
5.0
 40
5.0
 40
5.0
 40
6.0
 40
6.0
 40
6.0
 40
7.0
 40
7.0
 40
7.0
 40
8.0
 40
8.0
 40
8.0
 40
8.0
 10
62.76119927300346
 20
189.4340874565971
 10
61.47273356119789
 20
189.4340874565971
 10
60.50121663411457
 20
188.2397417534719
 10
59.84733751085068
 20
185.8516704644094
 10
59.3395304361979
 20
183.9900786675344
 10
59.08597140842012
 20
181.7514556206596
 10
59.08597140842012
 20
179.1351812065971
 10
59.08597140842012
 20
176.2379937065971
 10
59.3836276584201
 20
173.8412407769094
 10
59.9789401584201
 20
171.9449224175346
 10
60.6424655490451
 20
169.9779106987846
 10
61.5602389865451
 20
168.9950249565971
 10
62.7315714518229
 20
168.9950249565971
 10
63.9904093424479
 20
168.9950249565971
 10
64.95641411675345
 20
170.1186773003469
 10
65.63027479383679
 20
172.3659819878471
 10
66.20629475911457
 20
174.2796636284719
 10
66.49430474175345
 20
176.6813774956591
 10
66.49430474175345
 20
179.5698833550344
 10
66.49430474175345
 20
182.2388677300341
 10
66.24005669487845
 20
184.4291216362844
 10
65.73293863932289
 20
186.1412651909719
 10
65.08870578342011
 20
188.3364800347219
 10
64.09789632161457
 20
189.4340874565971
 10
62.76119927300346
 20
189.4340874565971
 97
        0
 75
     0
 76
     1
 98
        0
  0
HATCH
  5
2712
330
26F5
100
AcDbEntity
  8
0
  6
Continuous
100
AcDbHatch
 10
0.0
 20
0.0
 30
0.0
210
0.0
220
0.0
230
1.0
  2
SOLID
 70
     1
 71
     1
 91
        1
 92
        1
 93
        1
 72
     4
 94
        3
 73
     0
 74
     0
 95
       59
 96
       55
 40
0.0
 40
0.0
 40
0.0
 40
0.0
 40
1.0
 40
1.0
 40
1.0
 40
2.0
 40
2.0
 40
2.0
 40
3.0
 40
3.0
 40
3.0
 40
4.0
 40
4.0
 40
4.0
 40
5.0
 40
5.0
 40
5.0
 40
6.0
 40
6.0
 40
6.0
 40
7.0
 40
7.0
 40
7.0
 40
8.0
 40
8.0
 40
8.0
 40
9.0
 40
9.0
 40
9.0
 40
10.0
 40
10.0
 40
10.0
 40
11.0
 40
11.0
 40
11.0
 40
12.0
 40
12.0
 40
12.0
 40
13.0
 40
13.0
 40
13.0
 40
14.0
 40
14.0
 40
14.0
 40
15.0
 40
15.0
 40
15.0
 40
16.0
 40
16.0
 40
16.0
 40
17.0
 40
17.0
 40
17.0
 40
18.0
 40
18.0
 40
18.0
 40
18.0
 10
49.39440104166666
 20
189.0932159288193
 10
49.39440104166666
 20
189.0932159288193
 10
51.24786241319444
 20
189.0932159288193
 10
51.24786241319444
 20
189.0932159288193
 10
51.24786241319444
 20
189.0932159288193
 10
54.04665798611111
 20
172.3887471788193
 10
54.04665798611111
 20
172.3887471788193
 10
54.04665798611111
 20
172.3887471788193
 10
56.83994140624999
 20
189.0932159288193
 10
56.83994140624999
 20
189.0932159288193
 10
56.83994140624999
 20
189.0932159288193
 10
58.69891493055553
 20
189.0932159288193
 10
58.69891493055553
 20
189.0932159288193
 10
58.69891493055553
 20
189.0932159288193
 10
58.69891493055553
 20
169.3358964843748
 10
58.69891493055553
 20
169.3358964843748
 10
58.69891493055553
 20
169.3358964843748
 10
57.46419270833333
 20
169.3358964843748
 10
57.46419270833333
 20
169.3358964843748
 10
57.46419270833333
 20
169.3358964843748
 10
57.46419270833333
 20
180.9964422743054
 10
57.46419270833333
 20
180.9964422743054
 10
57.46419270833333
 20
181.3996011284721
 10
57.47108289930555
 20
182.0677291666664
 10
57.48624131944444
 20
183.0001924913193
 10
57.50071072048609
 20
183.9326558159721
 10
57.50828993055553
 20
184.932312282986
 10
57.50828993055553
 20
185.9997957899304
 10
57.50828993055553
 20
185.9997957899304
 10
54.700537109375
 20
169.3358964843748
 10
54.700537109375
 20
169.3358964843748
 10
54.700537109375
 20
169.3358964843748
 10
53.38382161458333
 20
169.3358964843748
 10
53.38382161458333
 20
169.3358964843748
 10
53.38382161458333
 20
169.3358964843748
 10
50.58502604166665
 20
185.9997957899304
 10
50.58502604166665
 20
185.9997957899304
 10
50.58502604166665
 20
185.9997957899304
 10
50.58502604166665
 20
185.3944236111109
 10
50.58502604166665
 20
185.3944236111109
 10
50.58502604166665
 20
184.9101258680554
 10
50.59191623263888
 20
184.1729029947915
 10
50.60707465277777
 20
183.1821210937498
 10
50.62154405381942
 20
182.1913391927082
 10
50.62912326388889
 20
181.4629908854165
 10
50.62912326388889
 20
180.9964422743054
 10
50.62912326388889
 20
180.9964422743054
 10
50.62912326388889
 20
169.3358964843748
 10
50.62912326388889
 20
169.3358964843748
 10
50.62912326388889
 20
169.3358964843748
 10
49.39440104166666
 20
169.3358964843748
 10
49.39440104166666
 20
169.3358964843748
 10
49.39440104166666
 20
169.3358964843748
 10
49.39440104166666
 20
189.0932159288193
 10
49.39440104166666
 20
189.0932159288193
 97
        1
330
26FA
 75
     0
 76
     1
 98
        1
 10
0.0
 20
0.0
  0
HATCH
  5
2713
330
26F5
100
AcDbEntity
  8
0
  6
Continuous
100
AcDbHatch
 10
0.0
 20
0.0
 30
0.0
210
0.0
220
0.0
230
1.0
  2
SOLID
 70
     1
 71
     1
 91
        2
 92
       16
 93
        1
 72
     4
 94
        3
 73
     0
 74
     0
 95
       32
 96
       28
 40
0.0
 40
0.0
 40
0.0
 40
0.0
 40
1.0
 40
1.0
 40
1.0
 40
2.0
 40
2.0
 40
2.0
 40
3.0
 40
3.0
 40
3.0
 40
4.0
 40
4.0
 40
4.0
 40
5.0
 40
5.0
 40
5.0
 40
6.0
 40
6.0
 40
6.0
 40
7.0
 40
7.0
 40
7.0
 40
8.0
 40
8.0
 40
8.0
 40
9.0
 40
9.0
 40
9.0
 40
9.0
 10
91.70051812065969
 20
171.6077853732634
 10
91.70051812065969
 20
171.6077853732634
 10
91.70051812065969
 20
186.7401881510414
 10
91.70051812065969
 20
186.7401881510414
 10
91.70051812065969
 20
186.7401881510414
 10
93.98668348524305
 20
186.7401881510414
 10
93.98668348524305
 20
186.7401881510414
 10
95.02159016927082
 20
186.7401881510414
 10
95.77331000434028
 20
186.0644533420137
 10
96.24322102864582
 20
184.7142515190969
 10
96.71313205295138
 20
183.3640496961804
 10
96.94808756510417
 20
181.4680620659721
 10
96.94808756510417
 20
179.0262886284719
 10
96.94808756510417
 20
178.3911232638887
 10
96.91432562934028
 20
177.7027105034721
 10
96.84749077690971
 20
176.9604164496524
 10
96.7324245876736
 20
175.7167094184024
 10
96.55052354600693
 20
174.6974021267359
 10
96.30109863281248
 20
173.901860677083
 10
95.98414984809028
 20
172.9091770833332
 10
95.57693956163193
 20
172.2378795572914
 10
95.07877875434026
 20
171.8892358940971
 10
94.79076877170138
 20
171.7016022135415
 10
94.43178982204859
 20
171.6077853732634
 10
94.00115288628471
 20
171.6077853732634
 10
94.00115288628471
 20
171.6077853732634
 10
91.70051812065969
 20
171.6077853732634
 10
91.70051812065969
 20
171.6077853732634
 97
        1
330
26FF
 92
        1
 93
        1
 72
     4
 94
        3
 73
     0
 74
     0
 95
       26
 96
       22
 40
0.0
 40
0.0
 40
0.0
 40
0.0
 40
1.0
 40
1.0
 40
1.0
 40
2.0
 40
2.0
 40
2.0
 40
3.0
 40
3.0
 40
3.0
 40
4.0
 40
4.0
 40
4.0
 40
5.0
 40
5.0
 40
5.0
 40
6.0
 40
6.0
 40
6.0
 40
7.0
 40
7.0
 40
7.0
 40
7.0
 10
90.37760145399305
 20
169.3358964843748
 10
90.37760145399305
 20
169.3358964843748
 10
94.22990722656248
 20
169.3358964843748
 10
94.22990722656248
 20
169.3358964843748
 10
95.87115071614581
 20
169.3358964843748
 10
97.03008083767359
 20
170.8331625434026
 10
97.70600857204859
 20
173.8283285590274
 10
98.08221299913194
 20
175.5227367621523
 10
98.27100423177082
 20
177.4187243923609
 10
98.27100423177082
 20
179.5169253472221
 10
98.27100423177082
 20
182.233810329861
 10
97.94716525607638
 20
184.4619602864582
 10
97.30086534288195
 20
186.2013752170135
 10
96.57601725260416
 20
188.1290577256939
 10
95.5576470269097
 20
189.0932159288193
 10
94.24437662760416
 20
189.0932159288193
 10
94.24437662760416
 20
189.0932159288193
 10
90.37760145399305
 20
189.0932159288193
 10
90.37760145399305
 20
189.0932159288193
 10
90.37760145399305
 20
189.0932159288193
 10
90.37760145399305
 20
169.3358964843748
 10
90.37760145399305
 20
169.3358964843748
 97
        0
 75
     0
 76
     1
 98
        0
  0
HATCH
  5
2714
330
26F5
100
AcDbEntity
  8
0
  6
Continuous
100
AcDbHatch
 10
0.0
 20
0.0
 30
0.0
210
0.0
220
0.0
230
1.0
  2
SOLID
 70
     1
 71
     1
 91
        2
 92
       16
 93
        1
 72
     4
 94
        3
 73
     0
 74
     0
 95
       26
 96
       22
 40
0.0
 40
0.0
 40
0.0
 40
0.0
 40
1.0
 40
1.0
 40
1.0
 40
2.0
 40
2.0
 40
2.0
 40
3.0
 40
3.0
 40
3.0
 40
4.0
 40
4.0
 40
4.0
 40
5.0
 40
5.0
 40
5.0
 40
6.0
 40
6.0
 40
6.0
 40
7.0
 40
7.0
 40
7.0
 40
7.0
 10
100.5623372395832
 20
180.046229817708
 10
100.5623372395832
 20
180.046229817708
 10
100.5623372395832
 20
186.7401881510414
 10
100.5623372395832
 20
186.7401881510414
 10
100.5623372395832
 20
186.7401881510414
 10
103.6732584635416
 20
186.7401881510414
 10
103.6732584635416
 20
186.7401881510414
 10
104.1107855902777
 20
186.7401881510414
 10
104.4580512152777
 20
186.6064357638887
 10
104.7150553385415
 20
186.3401987847216
 10
105.2097710503471
 20
185.8330807291664
 10
105.4571289062495
 20
184.8822343749995
 10
105.4571289062495
 20
183.4863919270832
 10
105.4571289062495
 20
182.188169704861
 10
105.280740017361
 20
181.2905707465276
 10
104.9286512586804
 20
180.7929611545137
 10
104.5765624999999
 20
180.2947176649304
 10
104.1011393229166
 20
180.046229817708
 10
103.5023817274304
 20
180.046229817708
 10
103.5023817274304
 20
180.046229817708
 10
100.5623372395832
 20
180.046229817708
 10
100.5623372395832
 20
180.046229817708
 97
        1
330
2700
 92
        1
 93
        1
 72
     4
 94
        3
 73
     0
 74
     0
 95
       68
 96
       64
 40
0.0
 40
0.0
 40
0.0
 40
0.0
 40
1.0
 40
1.0
 40
1.0
 40
2.0
 40
2.0
 40
2.0
 40
3.0
 40
3.0
 40
3.0
 40
4.0
 40
4.0
 40
4.0
 40
5.0
 40
5.0
 40
5.0
 40
6.0
 40
6.0
 40
6.0
 40
7.0
 40
7.0
 40
7.0
 40
8.0
 40
8.0
 40
8.0
 40
9.0
 40
9.0
 40
9.0
 40
10.0
 40
10.0
 40
10.0
 40
11.0
 40
11.0
 40
11.0
 40
12.0
 40
12.0
 40
12.0
 40
13.0
 40
13.0
 40
13.0
 40
14.0
 40
14.0
 40
14.0
 40
15.0
 40
15.0
 40
15.0
 40
16.0
 40
16.0
 40
16.0
 40
17.0
 40
17.0
 40
17.0
 40
18.0
 40
18.0
 40
18.0
 40
19.0
 40
19.0
 40
19.0
 40
20.0
 40
20.0
 40
20.0
 40
21.0
 40
21.0
 40
21.0
 40
21.0
 10
99.23942057291661
 20
169.3358964843748
 10
99.23942057291661
 20
169.3358964843748
 10
100.5623372395832
 20
169.3358964843748
 10
100.5623372395832
 20
169.3358964843748
 10
100.5623372395832
 20
169.3358964843748
 10
100.5623372395832
 20
177.8149103732637
 10
100.5623372395832
 20
177.8149103732637
 10
100.5623372395832
 20
177.8149103732637
 10
103.4472601996527
 20
177.8149103732637
 10
103.4472601996527
 20
177.8149103732637
 10
103.9681586371527
 20
177.8149103732637
 10
104.3519422743053
 20
177.6938359374998
 10
104.5986111111109
 20
177.4516870659717
 10
105.0244249131943
 20
177.0117621527776
 10
105.2518012152777
 20
176.1458580729164
 10
105.280740017361
 20
174.8539748263887
 10
105.280740017361
 20
174.8539748263887
 10
105.3689344618053
 20
171.5564396701385
 10
105.3689344618053
 20
171.5564396701385
 10
105.3882269965277
 20
170.7843524305554
 10
105.4109646267359
 20
170.2639225260415
 10
105.4357693142359
 20
169.9951499565971
 10
105.4605740017358
 20
169.725743489583
 10
105.4970920138888
 20
169.5057810329859
 10
105.5467013888887
 20
169.3358964843748
 10
105.5467013888887
 20
169.3358964843748
 10
107.1769205729166
 20
169.3358964843748
 10
107.1769205729166
 20
169.3358964843748
 10
107.1769205729166
 20
169.3358964843748
 10
107.1769205729166
 20
169.7821603732633
 10
107.1769205729166
 20
169.7821603732633
 10
106.9750379774303
 20
169.9609194878471
 10
106.8337890624996
 20
170.3628105468748
 10
106.7538628472221
 20
170.9878335503471
 10
106.7028754340274
 20
171.3542263454858
 10
106.6677354600692
 20
171.9120562065971
 10
106.6477539062496
 20
172.6625909288193
 10
106.6477539062496
 20
172.6625909288193
 10
106.6036566840277
 20
175.3205234374999
 10
106.6036566840277
 20
175.3205234374999
 10
106.5836751302082
 20
176.4716814236109
 10
106.4768771701387
 20
177.3033550347219
 10
106.2839518229166
 20
177.814276475694
 10
106.0903374565971
 20
178.3251979166665
 10
105.8002604166666
 20
178.7372313368054
 10
105.4130316840276
 20
179.0516445312498
 10
105.8443576388885
 20
179.5086846788193
 10
106.179909939236
 20
180.1134229600693
 10
106.4196885850692
 20
180.866493272569
 10
106.6594672309027
 20
181.6189296874999
 10
106.7800455729166
 20
182.5868912760411
 10
106.7800455729166
 20
183.7697441406248
 10
106.7800455729166
 20
186.0371957465273
 10
106.3328721788193
 20
187.5921464843749
 10
105.4392144097221
 20
188.4345963541665
 10
104.9679253472221
 20
188.8732534722221
 10
104.3719238281249
 20
189.0932159288193
 10
103.6512098524303
 20
189.0932159288193
 10
103.6512098524303
 20
189.0932159288193
 10
99.23942057291661
 20
189.0932159288193
 10
99.23942057291661
 20
189.0932159288193
 10
99.23942057291661
 20
189.0932159288193
 10
99.23942057291661
 20
169.3358964843748
 10
99.23942057291661
 20
169.3358964843748
 97
        0
 75
     0
 76
     1
 98
        0
  0
HATCH
  5
2715
330
26F5
100
AcDbEntity
  8
0
  6
Continuous
100
AcDbHatch
 10
0.0
 20
0.0
 30
0.0
210
0.0
220
0.0
230
1.0
  2
SOLID
 70
     1
 71
     1
 91
        2
 92
        1
 93
        8
 72
     1
 10
35.47828233506943
 20
189.0932159288193
 11
31.83957248263888
 21
169.3358964843748
 72
     1
 10
31.83957248263888
 20
169.3358964843748
 11
33.22450086805555
 21
169.3358964843748
 72
     1
 10
33.22450086805555
 20
169.3358964843748
 11
34.27043185763887
 21
175.2590353732638
 72
     1
 10
34.27043185763887
 20
175.2590353732638
 11
38.04694552951389
 21
175.2590353732638
 72
     1
 10
38.04694552951389
 20
175.2590353732638
 11
39.05015733506942
 21
169.3358964843748
 72
     1
 10
39.05015733506942
 20
169.3358964843748
 11
40.43508572048611
 21
169.3358964843748
 72
     1
 10
40.43508572048611
 20
169.3358964843748
 11
36.952783203125
 21
189.0932159288193
 72
     1
 10
36.952783203125
 20
189.0932159288193
 11
35.47828233506943
 21
189.0932159288193
 97
        8
330
2710
330
2709
330
270A
330
270B
330
270C
330
270D
330
270E
330
270F
 92
       16
 93
        3
 72
     1
 10
37.67556423611111
 20
177.4497853732638
 11
34.65766059027778
 21
177.4497853732638
 72
     1
 10
34.65766059027778
 20
177.4497853732638
 11
36.19830729166666
 21
186.1658769531249
 72
     1
 10
36.19830729166666
 20
186.1658769531249
 11
37.67556423611111
 21
177.4497853732638
 97
        3
330
2708
330
2706
330
2707
 75
     0
 76
     1
 98
        1
 10
0.0
 20
0.0
  0
HATCH
  5
2716
330
26F5
100
AcDbEntity
  8
0
  6
Continuous
100
AcDbHatch
 10
0.0
 20
0.0
 30
0.0
210
0.0
220
0.0
230
1.0
  2
SOLID
 70
     1
 71
     1
 91
        1
 92
        1
 93
        1
 72
     4
 94
        3
 73
     0
 74
     0
 95
      113
 96
      109
 40
0.0
 40
0.0
 40
0.0
 40
0.0
 40
1.0
 40
1.0
 40
1.0
 40
2.0
 40
2.0
 40
2.0
 40
3.0
 40
3.0
 40
3.0
 40
4.0
 40
4.0
 40
4.0
 40
5.0
 40
5.0
 40
5.0
 40
6.0
 40
6.0
 40
6.0
 40
7.0
 40
7.0
 40
7.0
 40
8.0
 40
8.0
 40
8.0
 40
9.0
 40
9.0
 40
9.0
 40
10.0
 40
10.0
 40
10.0
 40
11.0
 40
11.0
 40
11.0
 40
12.0
 40
12.0
 40
12.0
 40
13.0
 40
13.0
 40
13.0
 40
14.0
 40
14.0
 40
14.0
 40
15.0
 40
15.0
 40
15.0
 40
16.0
 40
16.0
 40
16.0
 40
17.0
 40
17.0
 40
17.0
 40
18.0
 40
18.0
 40
18.0
 40
19.0
 40
19.0
 40
19.0
 40
20.0
 40
20.0
 40
20.0
 40
21.0
 40
21.0
 40
21.0
 40
22.0
 40
22.0
 40
22.0
 40
23.0
 40
23.0
 40
23.0
 40
24.0
 40
24.0
 40
24.0
 40
25.0
 40
25.0
 40
25.0
 40
26.0
 40
26.0
 40
26.0
 40
27.0
 40
27.0
 40
27.0
 40
28.0
 40
28.0
 40
28.0
 40
29.0
 40
29.0
 40
29.0
 40
30.0
 40
30.0
 40
30.0
 40
31.0
 40
31.0
 40
31.0
 40
32.0
 40
32.0
 40
32.0
 40
33.0
 40
33.0
 40
33.0
 40
34.0
 40
34.0
 40
34.0
 40
35.0
 40
35.0
 40
35.0
 40
36.0
 40
36.0
 40
36.0
 40
36.0
 10
193.3039632161458
 20
186.1548733181423
 10
193.3039632161458
 20
186.1860514322916
 10
193.3039632161458
 20
219.6932223849826
 10
193.3039632161458
 20
219.6932223849826
 10
193.3039632161458
 20
219.6932223849826
 10
193.2974175347219
 20
219.7488606770833
 10
193.2974175347219
 20
219.7488606770833
 10
191.5293945312499
 20
235.455740017361
 10
175.1458984374999
 20
235.2467949761284
 10
174.9808783637151
 20
235.2428331163193
 10
174.9808783637151
 20
235.2428331163193
 10
125.8827555338541
 20
235.2430053710937
 10
125.8827555338541
 20
235.2430053710937
 10
125.8827555338541
 20
235.2430053710937
 10
125.8827555338541
 20
255.5278998480901
 10
125.8827555338541
 20
255.5278998480901
 10
125.8827555338541
 20
255.5278998480901
 10
84.5626247829861
 20
255.5278998480901
 10
84.5626247829861
 20
255.5278998480901
 10
84.5626247829861
 20
255.5278998480901
 10
84.55711263020829
 20
233.7919311523436
 10
84.55711263020829
 20
233.7919311523436
 10
84.55711263020829
 20
233.7919311523436
 10
64.42052951388888
 20
233.7919311523436
 10
64.42052951388888
 20
233.7919311523436
 10
64.42052951388888
 20
233.7919311523436
 10
64.41501736111111
 20
255.5278998480901
 10
64.41501736111111
 20
255.5278998480901
 10
64.41501736111111
 20
255.5278998480901
 10
23.91757541232637
 20
255.5278998480901
 10
23.91757541232637
 20
255.5278998480901
 10
23.91757541232637
 20
255.5278998480901
 10
23.91757541232637
 20
233.2393378363715
 10
23.91757541232637
 20
233.2393378363715
 10
23.91757541232637
 20
233.2393378363715
 10
43.65624999999999
 20
233.2393378363715
 10
43.65624999999999
 20
233.2393378363715
 10
43.65624999999999
 20
233.2393378363715
 10
43.65624999999999
 20
211.5188720703125
 10
43.65624999999999
 20
211.5188720703125
 10
43.65624999999999
 20
211.5188720703125
 10
23.91757541232637
 20
211.5188720703125
 10
23.91757541232637
 20
211.5188720703125
 10
23.91757541232637
 20
211.5188720703125
 10
23.91757541232637
 20
189.2303100585936
 10
23.91757541232637
 20
189.2303100585936
 10
23.91757541232637
 20
189.2303100585936
 10
64.41501736111111
 20
189.2303100585936
 10
64.41501736111111
 20
189.2303100585936
 10
64.41501736111111
 20
189.2303100585936
 10
64.42052951388888
 20
211.069976128472
 10
64.42052951388888
 20
211.069976128472
 10
64.42052951388888
 20
211.069976128472
 10
84.55711263020829
 20
211.069976128472
 10
84.55711263020829
 20
211.069976128472
 10
84.55711263020829
 20
211.069976128472
 10
84.5626247829861
 20
189.2303100585936
 10
84.5626247829861
 20
189.2303100585936
 10
84.5626247829861
 20
189.2303100585936
 10
125.8827555338541
 20
189.2303100585936
 10
125.8827555338541
 20
189.2303100585936
 10
125.8827555338541
 20
189.2303100585936
 10
125.8827555338541
 20
211.5188720703125
 10
125.8827555338541
 20
211.5188720703125
 10
125.8827555338541
 20
211.5188720703125
 10
105.3213921440971
 20
211.5188720703125
 10
105.3213921440971
 20
211.5188720703125
 10
105.3213921440971
 20
211.5188720703125
 10
105.3213921440971
 20
233.2393378363715
 10
105.3213921440971
 20
233.2393378363715
 10
105.3213921440971
 20
233.2393378363715
 10
175.0046495225693
 20
233.243127441406
 10
175.0046495225693
 20
233.243127441406
 10
175.6268337673611
 20
233.2560465494791
 10
189.7165852864583
 20
233.3962619357638
 10
191.3037407769094
 20
219.5690266927083
 10
191.3037407769094
 20
219.4332899305555
 10
191.3037407769094
 20
186.1142211914062
 10
191.3037407769094
 20
186.1142211914062
 10
191.3037407769094
 20
186.1142211914062
 10
191.3051188151039
 20
186.0880384657115
 10
191.3051188151039
 20
186.0880384657115
 10
191.3054633246526
 20
186.0787367078991
 10
191.3109754774304
 20
185.9566080729166
 10
191.3109754774304
 20
185.7399115668401
 10
191.3109754774304
 20
184.2090833875865
 10
191.0488037109374
 20
177.9643310546874
 10
186.9866916232638
 20
173.5652886284722
 10
184.2540418836804
 20
170.6064683702255
 10
180.3224989149304
 20
169.0308539496526
 10
175.300927734375
 20
168.8825425889756
 10
175.300927734375
 20
168.8825425889756
 10
107.0094889322916
 20
168.8828870985243
 10
107.0094889322916
 20
168.8828870985243
 10
107.0094889322916
 20
168.8828870985243
 10
107.0094889322916
 20
166.8830091688368
 10
107.0094889322916
 20
166.8830091688368
 10
107.0094889322916
 20
166.8830091688368
 10
175.3305555555555
 20
166.8830091688368
 10
175.3305555555555
 20
166.8830091688368
 10
180.9467502170138
 20
167.0485460069444
 10
185.3571614583333
 20
168.8448187934026
 10
188.4687717013888
 20
172.2223904079861
 10
192.9649658203124
 20
177.1034016927083
 10
193.3136094835069
 20
183.7202243381076
 10
193.3136094835069
 20
185.6520616319443
 10
193.3136094835069
 20
185.9247409396701
 10
193.3070638020833
 20
186.0868326822916
 10
193.3039632161458
 20
186.1548733181423
 97
        1
330
26F6
 75
     0
 76
     1
 98
        1
 10
0.0
 20
0.0
  0
HATCH
  5
2717
330
26F5
100
AcDbEntity
  8
0
  6
Continuous
100
AcDbHatch
 10
0.0
 20
0.0
 30
0.0
210
0.0
220
0.0
230
1.0
  2
SOLID
 70
     1
 71
     1
 91
        2
 92
        1
 93
        1
 72
     4
 94
        3
 73
     0
 74
     0
 95
       23
 96
       19
 40
0.0
 40
0.0
 40
0.0
 40
0.0
 40
1.0
 40
1.0
 40
1.0
 40
2.0
 40
2.0
 40
2.0
 40
3.0
 40
3.0
 40
3.0
 40
4.0
 40
4.0
 40
4.0
 40
5.0
 40
5.0
 40
5.0
 40
6.0
 40
6.0
 40
6.0
 40
6.0
 10
148.6593153211804
 20
211.3929538302948
 10
148.6593153211804
 20
211.3929538302948
 10
148.6593153211804
 20
189.6308024088539
 10
148.6593153211804
 20
189.6308024088539
 10
148.6593153211804
 20
189.6308024088539
 10
161.3152180989583
 20
189.6308024088539
 10
161.3152180989583
 20
189.6308024088539
 10
162.8431179470483
 20
189.6308024088539
 10
170.4657362196178
 20
190.1880466037321
 10
170.4657362196178
 20
201.1911648220483
 10
170.4657362196178
 20
211.1288872612844
 10
162.3356553819444
 20
211.3914035373261
 10
162.2536621093749
 20
211.3927815755205
 10
162.2536621093749
 20
211.3927815755205
 10
149.6594265407986
 20
211.3929538302948
 10
149.6594265407986
 20
211.3929538302948
 10
149.6594265407986
 20
211.3929538302948
 10
148.6593153211804
 20
211.3929538302948
 10
148.6593153211804
 20
211.3929538302948
 97
        1
330
26F7
 92
       16
 93
        1
 72
     4
 94
        3
 73
     0
 74
     0
 95
       20
 96
       16
 40
0.0
 40
0.0
 40
0.0
 40
0.0
 40
1.0
 40
1.0
 40
1.0
 40
2.0
 40
2.0
 40
2.0
 40
3.0
 40
3.0
 40
3.0
 40
4.0
 40
4.0
 40
4.0
 40
5.0
 40
5.0
 40
5.0
 40
5.0
 10
162.2354031032983
 20
209.3930759006072
 10
162.467947048611
 20
209.3861857096351
 10
168.4655137803819
 20
209.1283203124997
 10
168.4655137803819
 20
201.1911648220483
 10
168.4655137803819
 20
192.3202162000865
 10
162.9926350911458
 20
191.6306803385413
 10
161.3152180989583
 20
191.6306803385413
 10
161.3152180989583
 20
191.6306803385413
 10
152.3310980902776
 20
191.6306803385413
 10
150.6595377604166
 20
191.6306803385413
 10
150.6595377604166
 20
193.3373806423608
 10
150.6595377604166
 20
207.6863755967879
 10
150.6595377604166
 20
209.3930759006072
 10
152.3538357204859
 20
209.3930759006072
 10
162.2354031032983
 20
209.3930759006072
 10
162.2354031032983
 20
209.3930759006072
 97
        0
 75
     0
 76
     1
 98
        0
  0
ENDBLK
  5
2719
330
26F5
100
AcDbEntity
  8
0
100
AcDbBlockEnd
  0
BLOCK
  5
271C
330
271A
100
AcDbEntity
  8
0
100
AcDbBlockBegin
  2
HD logo-new
 70
     0
 10
0.0
 20
0.0
 30
0.0
  3
HD logo-new
  1

  0
INSERT
  5
271B
330
271A
100
AcDbEntity
  8
0
 62
     3
100
AcDbBlockReference
  2
HD_LLC_logo_OT5
 10
-27.1607188578505
 20
-68.37367811463031
 30
0.0
 41
0.2999999999999971
 42
0.3000000000000007
 43
0.3
  0
ENDBLK
  5
271D
330
271A
100
AcDbEntity
  8
0
100
AcDbBlockEnd
  0
BLOCK
  5
2720
330
271E
100
AcDbEntity
  8
0
100
AcDbBlockBegin
  2
HD Logo
 70
     0
 10
0.0
 20
0.0
 30
0.0
  3
HD Logo
  1

  0
INSERT
  5
271F
330
271E
100
AcDbEntity
  8
0
100
AcDbBlockReference
  2
HD logo-new
 10
0.9700256734946606
 20
7.273795608420527
 30
0.0
  0
ENDBLK
  5
2721
330
271E
100
AcDbEntity
  8
0
100
AcDbBlockEnd
  0
BLOCK
  5
272C
330
272A
100
AcDbEntity
  8
0
100
AcDbBlockBegin
  2
Harmonic Drive LLC
 70
     0
 10
0.0
 20
0.0
 30
0.0
  3
Harmonic Drive LLC
  1

  0
MTEXT
  5
272B
330
272A
100
AcDbEntity
  8
0
100
AcDbMText
 10
189.3064368747374
 20
-164.4147342669637
 30
0.0
 40
3.5
 41
76.932
 71
     5
 72
     5
  1
Harmonic Drive LLC\P800-921-3332\Pwww.harmonicdrive.net
 73
     1
 44
1.0
  0
ENDBLK
  5
272D
330
272A
100
AcDbEntity
  8
0
100
AcDbBlockEnd
  0
BLOCK
  5
2BE8
330
2BE6
100
AcDbEntity
  8
0
100
AcDbBlockBegin
  2
HD LLC
 70
     0
 10
0.0
 20
0.0
 30
0.0
  3
HD LLC
  1

  0
MTEXT
  5
2BE7
330
2BE6
100
AcDbEntity
  8
0
100
AcDbMText
 10
-2.314970886968865
 20
1.247205085865914
 30
0.0
 40
5.675387507387601
 41
236.1828726592229
 71
     5
 72
     5
  1
Harmonic Drive LLC\P800-921-3332\Pwww.harmonicdrive.net
 73
     1
 44
1.0
  0
ENDBLK
  5
2BE9
330
2BE6
100
AcDbEntity
  8
0
100
AcDbBlockEnd
  0
BLOCK
  5
2BF9
330
2BF6
100
AcDbEntity
  8
0
100
AcDbBlockBegin
  2
NTC
 70
     0
 10
0.0
 20
0.0
 30
0.0
  3
NTC
  1

  0
LWPOLYLINE
  5
2BF7
330
2BF6
100
AcDbEntity
  8
0
100
AcDbPolyline
 90
        8
 70
     1
 43
0.0
 10
4.581008201925953
 20
-10.78862239032818
 10
319.3921777697513
 20
-10.78862239032818
 42
-0.4142135623730951
 10
324.9046777697513
 20
-16.30112239032816
 10
324.9046777697513
 20
-117.4075202476924
 42
-0.4142135623730951
 10
319.3921777697513
 20
-122.9200202476925
 10
4.581008201925838
 20
-122.9200202476925
 42
-0.4142135623730951
 10
-0.9314917980741483
 20
-117.4075202476924
 10
-0.9314917980740915
 20
-16.30112239032816
 42
-0.4142135623730951
  0
MTEXT
  5
2BF8
330
2BF6
100
AcDbEntity
  8
0
  6
Continuous
370
    30
100
AcDbMText
 10
21.65307678143926
 20
-17.4535155144544
 30
0.0
 40
8.75
 41
294.5432999999998
 71
     1
 72
     5
  3
{\fTxt|b1|i0|c0|p2;Notice:\P\Ftxt.shx;\H0.5714x;All specifications and dimensions shown in the drawing are subject to change without notice. This drawing is the property of Harmonic Drive LLC.   This data is believed to be accurate, however, Harmonic
  1
 Drive LLC assumes no liability for any errors or omissions in the specifications, models, or drawings.\P\PHarmonic Drive LLC\PTel: 800-921-3332\Pwww.harmonicdrive.net}
 73
     1
 44
1.0
  0
ENDBLK
  5
2BFA
330
2BF6
100
AcDbEntity
  8
0
100
AcDbBlockEnd
  0
ENDSEC
  0
SECTION
  2
ENTITIES
  0
TEXT
  5
26A5
330
2431
100
AcDbEntity
  8
1
 62
     3
100
AcDbText
 10
-88.33327034700872
 20
-65.03816229616695
 30
0.0
 40
4.0
  1
 
 41
0.9
100
AcDbText
  0
TEXT
  5
2993
330
2431
100
AcDbEntity
  8
1
 62
     0
100
AcDbText
 10
359.0886341566794
 20
427.2703530023961
 30
0.0
 40
7.549756586388317
  1
REMARKS:  M.H.C = MINIMUM HOUSING CLEARANCE
 41
0.9
 72
     1
 11
457.6299445613662
 21
431.0452312955902
 31
0.0
100
AcDbText
 73
     2
  0
ARC
  5
2994
330
2431
100
AcDbEntity
  8
1
 62
     7
100
AcDbCircle
 10
451.7779207266443
 20
502.1245617266472
 30
0.0
 40
45.0
100
AcDbArc
 50
74.58286414555512
 51
90.0
  0
ARC
  5
2995
330
2431
100
AcDbEntity
  8
1
 62
     7
100
AcDbCircle
 10
451.7779207266443
 20
703.9005617266473
 30
0.0
 40
45.00000000000009
100
AcDbArc
 50
270.0
 51
285.4171358544448
  0
LINE
  5
2996
330
2431
100
AcDbEntity
  8
1
 62
     7
100
AcDbLine
 10
434.2929207266443
 20
547.8015617266469
 30
0.0
 11
482.7799207266442
 21
547.8015617266469
 31
0.0
  0
LINE
  5
2997
330
2431
100
AcDbEntity
  8
1
 62
     7
100
AcDbLine
 10
482.7799207266442
 20
658.2235617266474
 30
0.0
 11
434.0659207266443
 21
658.2235617266474
 31
0.0
  0
LINE
  5
2998
330
2431
100
AcDbEntity
  8
1
  6
CENTER
 62
     3
100
AcDbLine
 10
456.2825543927683
 20
603.0125617266472
 30
0.0
 11
489.8552334841822
 21
603.0125617266472
 31
0.0
  0
CIRCLE
  5
2999
330
2431
100
AcDbEntity
  8
1
 62
     7
100
AcDbCircle
 10
164.998515040029
 20
537.8987840615341
 30
0.0
 40
3.299999999999973
  0
CIRCLE
  5
299A
330
2431
100
AcDbEntity
  8
1
 62
     7
100
AcDbCircle
 10
274.2724086867406
 20
537.8987840615341
 30
0.0
 40
3.299999999999998
  0
ARC
  5
299B
330
2431
100
AcDbEntity
  8
1
 62
     7
100
AcDbCircle
 10
219.6354618633846
 20
603.0125617266472
 30
0.0
 40
79.00000000000003
100
AcDbArc
 50
79.05460290376265
 51
280.9453970962373
  0
ARC
  5
299C
330
2431
100
AcDbEntity
  8
1
  6
CENTER
 62
     3
100
AcDbCircle
 10
219.6354618633846
 20
603.0125617266472
 30
0.0
 40
85.00000000000003
100
AcDbArc
 50
79.83575137827566
 51
280.1642486217243
  0
ARC
  5
299D
330
2431
100
AcDbEntity
  8
1
 62
     7
100
AcDbCircle
 10
219.6354618633846
 20
603.0125617266472
 30
0.0
 40
91.0
100
AcDbArc
 50
80.51234100434291
 51
279.4876589956571
  0
ARC
  5
299E
330
2431
100
AcDbEntity
  8
1
 62
     7
100
AcDbCircle
 10
219.6354618633846
 20
603.0125617266472
 30
0.0
 40
79.00000000000007
100
AcDbArc
 50
280.9453970962373
 51
79.05460290376265
  0
ARC
  5
299F
330
2431
100
AcDbEntity
  8
1
 62
     7
100
AcDbCircle
 10
219.6354618633846
 20
603.0125617266472
 30
0.0
 40
91.0
100
AcDbArc
 50
279.4876589956571
 51
80.51234100434291
  0
ARC
  5
29A0
330
2431
100
AcDbEntity
  8
1
  6
CENTER
 62
     3
100
AcDbCircle
 10
219.6354618633846
 20
603.0125617266472
 30
0.0
 40
85.00000000000007
100
AcDbArc
 50
280.1642486217243
 51
79.83575137827566
  0
LINE
  5
29A1
330
2431
100
AcDbEntity
  8
1
  6
CENTER
 62
     3
100
AcDbLine
 10
161.8167163720805
 20
534.1068640680953
 30
0.0
 11
168.1803137079772
 21
541.6907040549731
 31
0.0
  0
LINE
  5
29A2
330
2431
100
AcDbEntity
  8
1
 62
     7
100
AcDbLine
 10
430.8029207266444
 20
544.5385617266469
 30
0.0
 11
430.8029207266442
 21
524.4625617266473
 31
0.0
  0
LINE
  5
29A3
330
2431
100
AcDbEntity
  8
1
 62
     7
100
AcDbLine
 10
431.4799207266443
 20
544.3115617266472
 30
0.0
 11
431.4799207266443
 21
521.3125617266472
 31
0.0
  0
LINE
  5
29A4
330
2431
100
AcDbEntity
  8
1
 62
     7
100
AcDbLine
 10
426.9799207266443
 20
603.0125617266472
 30
0.0
 11
426.9799207266443
 21
523.6125617266472
 31
0.0
  0
LINE
  5
29A5
330
2431
100
AcDbEntity
  8
1
  6
CENTER
 62
     3
100
AcDbLine
 10
219.6354618633846
 20
506.0125617266471
 30
0.0
 11
219.6354618633846
 21
658.2235617266474
 31
0.0
  0
LINE
  5
29A6
330
2431
100
AcDbEntity
  8
1
  6
PHANTOM
 62
     4
100
AcDbLine
 10
433.0799207266443
 20
543.5125617266473
 30
0.0
 11
433.0799207266443
 21
528.5125617266472
 31
0.0
  0
LINE
  5
29A7
330
2431
100
AcDbEntity
  8
1
  6
PHANTOM
 62
     4
100
AcDbLine
 10
429.2799207266445
 20
552.5125617266474
 30
0.0
 11
429.2799207266445
 21
524.0125617266472
 31
0.0
  0
LINE
  5
29A8
330
2431
100
AcDbEntity
  8
1
  6
CENTER
 62
     3
100
AcDbLine
 10
271.0906100187921
 20
541.6907040549731
 30
0.0
 11
277.4542073546888
 21
534.1068640680953
 31
0.0
  0
CIRCLE
  5
29A9
330
2431
100
AcDbEntity
  8
1
 62
     7
100
AcDbCircle
 10
190.5637496807027
 20
523.1386889598451
 30
0.0
 40
3.29999999999999
  0
LINE
  5
29AA
330
2431
100
AcDbEntity
  8
1
  6
CENTER
 62
     3
100
AcDbLine
 10
188.8707499712406
 20
518.4872104869547
 30
0.0
 11
192.2567493901647
 21
527.7901674327353
 31
0.0
  0
CIRCLE
  5
29AB
330
2431
100
AcDbEntity
  8
1
 62
     7
100
AcDbCircle
 10
219.6354618633845
 20
518.0125617266472
 30
0.0
 40
3.299999999999898
  0
CIRCLE
  5
29AC
330
2431
100
AcDbEntity
  8
1
 62
     7
100
AcDbCircle
 10
248.7071740460665
 20
523.1386889598451
 30
0.0
 40
3.29999999999999
  0
LINE
  5
29AD
330
2431
100
AcDbEntity
  8
1
  6
CENTER
 62
     3
100
AcDbLine
 10
247.0141743366045
 20
527.7901674327353
 30
0.0
 11
250.4001737555288
 21
518.4872104869547
 31
0.0
  0
LINE
  5
29AE
330
2431
100
AcDbEntity
  8
1
 62
     7
100
AcDbLine
 10
431.4799207266443
 20
514.7125617266473
 30
0.0
 11
426.9799207266443
 21
514.7125617266473
 31
0.0
  0
LINE
  5
29AF
330
2431
100
AcDbEntity
  8
1
 62
     7
100
AcDbLine
 10
431.4799207266443
 20
521.3125617266472
 30
0.0
 11
426.9799207266443
 21
521.3125617266472
 31
0.0
  0
LINE
  5
29B0
330
2431
100
AcDbEntity
  8
1
  6
CENTER
 62
     3
100
AcDbLine
 10
431.929920726644
 20
518.0125617266472
 30
0.0
 11
426.5299207266443
 21
518.0125617266472
 31
0.0
  0
LINE
  5
29B1
330
2431
100
AcDbEntity
  8
1
 62
     7
100
AcDbLine
 10
431.0799207266443
 20
512.0125617266473
 30
0.0
 11
427.3799207266444
 21
512.0125617266473
 31
0.0
  0
LINE
  5
29B2
330
2431
100
AcDbEntity
  8
1
 62
     7
100
AcDbLine
 10
430.3529207266442
 20
524.0125617266472
 30
0.0
 11
427.3799207266444
 21
524.0125617266472
 31
0.0
  0
LINE
  5
29B3
330
2431
100
AcDbEntity
  8
1
 62
     7
100
AcDbLine
 10
426.9799207266443
 20
521.3125617266472
 30
0.0
 11
426.9799207266443
 21
514.7125617266473
 31
0.0
  0
LINE
  5
29B4
330
2431
100
AcDbEntity
  8
1
 62
     7
100
AcDbLine
 10
426.9799207266443
 20
512.4125617266472
 30
0.0
 11
427.3799207266444
 21
512.0125617266473
 31
0.0
  0
LINE
  5
29B5
330
2431
100
AcDbEntity
  8
1
 62
     7
100
AcDbLine
 10
426.9799207266443
 20
514.7125617266473
 30
0.0
 11
426.9799207266443
 21
512.4125617266472
 31
0.0
  0
LINE
  5
29B6
330
2431
100
AcDbEntity
  8
1
 62
     7
100
AcDbLine
 10
426.9799207266443
 20
521.3125617266472
 30
0.0
 11
426.9799207266443
 21
523.6125617266472
 31
0.0
  0
LINE
  5
29B7
330
2431
100
AcDbEntity
  8
1
 62
     7
100
AcDbLine
 10
426.9799207266443
 20
523.6125617266472
 30
0.0
 11
427.3799207266444
 21
524.0125617266472
 31
0.0
  0
LINE
  5
29B8
330
2431
100
AcDbEntity
  8
1
 62
     7
100
AcDbLine
 10
431.4799207266443
 20
521.3125617266472
 30
0.0
 11
431.4799207266443
 21
514.7125617266473
 31
0.0
  0
LINE
  5
29B9
330
2431
100
AcDbEntity
  8
1
 62
     7
100
AcDbLine
 10
431.4799207266443
 20
512.4125617266472
 30
0.0
 11
431.0799207266443
 21
512.0125617266473
 31
0.0
  0
LINE
  5
29BA
330
2431
100
AcDbEntity
  8
1
 62
     7
100
AcDbLine
 10
431.4799207266443
 20
514.7125617266473
 30
0.0
 11
431.4799207266443
 21
512.4125617266472
 31
0.0
  0
ARC
  5
29BB
330
2431
100
AcDbEntity
  8
1
 62
     7
100
AcDbCircle
 10
430.3529207266442
 20
524.4625617266473
 30
0.0
 40
0.4500000000000455
100
AcDbArc
 50
270.0
 51
0.0
  0
ARC
  5
29BC
330
2431
100
AcDbEntity
  8
1
 62
     7
100
AcDbCircle
 10
219.6354618633846
 20
603.0125617266472
 30
0.0
 40
55.21100000000018
100
AcDbArc
 50
90.0
 51
285.7645582226254
  0
ARC
  5
29BD
330
2431
100
AcDbEntity
  8
1
 62
     7
100
AcDbCircle
 10
219.6354618633846
 20
603.0125617266472
 30
0.0
 40
55.21100000000021
100
AcDbArc
 50
285.7645582226254
 51
74.2354417773746
  0
LINE
  5
29BE
330
2431
100
AcDbEntity
  8
1
  6
CENTER
 62
     3
100
AcDbLine
 10
319.6354618633846
 20
603.0125617266472
 30
0.0
 11
122.6354618633846
 21
603.0125617266472
 31
0.0
  0
LINE
  5
29BF
330
2431
100
AcDbEntity
  8
1
  6
CENTER
 62
     3
100
AcDbLine
 10
188.8707499712408
 20
687.5379129663395
 30
0.0
 11
192.2567493901647
 21
678.2349560205592
 31
0.0
  0
LINE
  5
29C0
330
2431
100
AcDbEntity
  8
1
  6
CENTER
 62
     3
100
AcDbLine
 10
219.6354618633846
 20
700.0125617266473
 30
0.0
 11
219.6354618633846
 21
658.2235617266474
 31
0.0
  0
CIRCLE
  5
29C1
330
2431
100
AcDbEntity
  8
1
 62
     7
100
AcDbCircle
 10
135.9268028573469
 20
588.252466624958
 30
0.0
 40
3.299999999999986
  0
CIRCLE
  5
29C2
330
2431
100
AcDbEntity
  8
1
 62
     7
100
AcDbCircle
 10
135.9268028573469
 20
617.7726568283357
 30
0.0
 40
3.299999999999911
  0
LINE
  5
29C3
330
2431
100
AcDbEntity
  8
1
  6
CENTER
 62
     3
100
AcDbLine
 10
131.0520044799366
 20
587.3929081455067
 30
0.0
 11
140.8016012347574
 21
589.1120251044094
 31
0.0
  0
LINE
  5
29C4
330
2431
100
AcDbEntity
  8
1
  6
CENTER
 62
     3
100
AcDbLine
 10
131.0520044799366
 20
618.6322153077876
 30
0.0
 11
140.8016012347574
 21
616.9130983488851
 31
0.0
  0
CIRCLE
  5
29C5
330
2431
100
AcDbEntity
  8
1
 62
     7
100
AcDbCircle
 10
146.0233025417075
 20
560.5125617266472
 30
0.0
 40
3.299999999999958
  0
LINE
  5
29C6
330
2431
100
AcDbEntity
  8
1
  6
CENTER
 62
     3
100
AcDbLine
 10
141.7364767929744
 20
558.0375617266472
 30
0.0
 11
150.3101282904405
 21
562.9875617266472
 31
0.0
  0
CIRCLE
  5
29C7
330
2431
100
AcDbEntity
  8
1
 62
     7
100
AcDbCircle
 10
146.0233025417075
 20
645.5125617266473
 30
0.0
 40
3.299999999999898
  0
LINE
  5
29C8
330
2431
100
AcDbEntity
  8
1
  6
CENTER
 62
     3
100
AcDbLine
 10
141.7364767929744
 20
647.987561726647
 30
0.0
 11
150.3101282904405
 21
643.0375617266472
 31
0.0
  0
CIRCLE
  5
29C9
330
2431
100
AcDbEntity
  8
1
 62
     7
100
AcDbCircle
 10
164.998515040029
 20
668.1263393917603
 30
0.0
 40
3.299999999999938
  0
LINE
  5
29CA
330
2431
100
AcDbEntity
  8
1
  6
CENTER
 62
     3
100
AcDbLine
 10
161.8167163720805
 20
671.9182593851993
 30
0.0
 11
168.1803137079772
 21
664.3344193983211
 31
0.0
  0
ARC
  5
29CB
330
2431
100
AcDbEntity
  8
1
 62
     7
100
AcDbCircle
 10
219.6354618633846
 20
603.0125617266472
 30
0.0
 40
55.21100000000021
100
AcDbArc
 50
74.2354417773746
 51
90.0
  0
CIRCLE
  5
29CC
330
2431
100
AcDbEntity
  8
1
 62
     7
100
AcDbCircle
 10
190.5637496807028
 20
682.8864344934493
 30
0.0
 40
3.299999999999978
  0
CIRCLE
  5
29CD
330
2431
100
AcDbEntity
  8
1
 62
     7
100
AcDbCircle
 10
219.6354618633846
 20
688.0125617266472
 30
0.0
 40
3.300000000000006
  0
LINE
  5
29CE
330
2431
100
AcDbEntity
  8
1
 62
     7
100
AcDbLine
 10
430.8029207266442
 20
681.5625617266472
 30
0.0
 11
430.8029207266444
 21
661.4865617266472
 31
0.0
  0
LINE
  5
29CF
330
2431
100
AcDbEntity
  8
1
 62
     7
100
AcDbLine
 10
431.4799207266443
 20
684.7125617266471
 30
0.0
 11
431.4799207266443
 21
661.7135617266471
 31
0.0
  0
LINE
  5
29D0
330
2431
100
AcDbEntity
  8
1
 62
     7
100
AcDbLine
 10
426.9799207266443
 20
682.4125617266473
 30
0.0
 11
426.9799207266443
 21
603.0125617266472
 31
0.0
  0
LINE
  5
29D1
330
2431
100
AcDbEntity
  8
1
  6
PHANTOM
 62
     4
100
AcDbLine
 10
429.2799207266445
 20
682.0125617266472
 30
0.0
 11
429.2799207266445
 21
653.5125617266473
 31
0.0
  0
LINE
  5
29D2
330
2431
100
AcDbEntity
  8
1
  6
CENTER
 62
     3
100
AcDbLine
 10
247.0141743366045
 20
678.2349560205592
 30
0.0
 11
250.4001737555285
 21
687.5379129663395
 31
0.0
  0
LINE
  5
29D3
330
2431
100
AcDbEntity
  8
1
  6
CENTER
 62
     3
100
AcDbLine
 10
288.9607954363289
 20
562.9875617266472
 30
0.0
 11
297.534446933795
 21
558.0375617266472
 31
0.0
  0
CIRCLE
  5
29D4
330
2431
100
AcDbEntity
  8
1
 62
     7
100
AcDbCircle
 10
293.2476211850619
 20
560.5125617266472
 30
0.0
 40
3.299999999999907
  0
CIRCLE
  5
29D5
330
2431
100
AcDbEntity
  8
1
 62
     7
100
AcDbCircle
 10
303.3441208694223
 20
588.252466624958
 30
0.0
 40
3.299999999999998
  0
LINE
  5
29D6
330
2431
100
AcDbEntity
  8
1
  6
CENTER
 62
     3
100
AcDbLine
 10
298.4693224920119
 20
589.1120251044094
 30
0.0
 11
308.2189192468329
 21
587.3929081455067
 31
0.0
  0
LINE
  5
29D7
330
2431
100
AcDbEntity
  8
1
  6
CENTER
 62
     3
100
AcDbLine
 10
288.9607954363289
 20
643.0375617266472
 30
0.0
 11
297.534446933795
 21
647.987561726647
 31
0.0
  0
CIRCLE
  5
29D8
330
2431
100
AcDbEntity
  8
1
 62
     7
100
AcDbCircle
 10
293.2476211850619
 20
645.5125617266473
 30
0.0
 40
3.29999999999995
  0
CIRCLE
  5
29D9
330
2431
100
AcDbEntity
  8
1
 62
     7
100
AcDbCircle
 10
274.2724086867406
 20
668.1263393917603
 30
0.0
 40
3.300000000000009
  0
LINE
  5
29DA
330
2431
100
AcDbEntity
  8
1
  6
CENTER
 62
     3
100
AcDbLine
 10
271.090610018792
 20
664.3344193983211
 30
0.0
 11
277.4542073546888
 21
671.9182593851993
 31
0.0
  0
CIRCLE
  5
29DB
330
2431
100
AcDbEntity
  8
1
 62
     7
100
AcDbCircle
 10
303.3441208694223
 20
617.7726568283357
 30
0.0
 40
3.299999999999903
  0
LINE
  5
29DC
330
2431
100
AcDbEntity
  8
1
  6
CENTER
 62
     3
100
AcDbLine
 10
298.4693224920119
 20
616.9130983488851
 30
0.0
 11
308.2189192468329
 21
618.6322153077876
 31
0.0
  0
LINE
  5
29DD
330
2431
100
AcDbEntity
  8
1
 62
     7
100
AcDbLine
 10
430.8029207266444
 20
661.4865617266472
 30
0.0
 11
430.8029207266444
 21
603.0125617266472
 31
0.0
  0
LINE
  5
29DE
330
2431
100
AcDbEntity
  8
1
 62
     7
100
AcDbLine
 10
430.8029207266444
 20
603.0125617266472
 30
0.0
 11
430.8029207266444
 21
544.5385617266469
 31
0.0
  0
ARC
  5
29DF
330
2431
100
AcDbEntity
  8
1
 62
     7
100
AcDbCircle
 10
434.0659207266443
 20
544.5385617266469
 30
0.0
 40
3.263000000000003
100
AcDbArc
 50
90.0
 51
180.0
  0
LINE
  5
29E0
330
2431
100
AcDbEntity
  8
1
  6
PHANTOM
 62
     4
100
AcDbLine
 10
443.5799207266443
 20
552.5125617266474
 30
0.0
 11
429.2799207266445
 21
552.5125617266474
 31
0.0
  0
LINE
  5
29E1
330
2431
100
AcDbEntity
  8
1
 62
     7
100
AcDbLine
 10
451.7779207266443
 20
547.1245617266471
 30
0.0
 11
434.0659207266443
 21
547.1245617266472
 31
0.0
  0
LINE
  5
29E2
330
2431
100
AcDbEntity
  8
1
  6
PHANTOM
 62
     4
100
AcDbLine
 10
448.7799207266444
 20
543.5125617266473
 30
0.0
 11
433.0799207266443
 21
543.5125617266473
 31
0.0
  0
ARC
  5
29E3
330
2431
100
AcDbEntity
  8
1
 62
     7
100
AcDbCircle
 10
434.2929207266443
 20
544.3115617266472
 30
0.0
 40
2.812999999999979
100
AcDbArc
 50
90.0
 51
180.0
  0
LINE
  5
29E4
330
2431
100
AcDbEntity
  8
1
  6
CENTER
 62
     3
100
AcDbLine
 10
421.9366180070465
 20
603.0125617266472
 30
0.0
 11
430.8029207266444
 21
603.0125617266472
 31
0.0
  0
LINE
  5
29E5
330
2431
100
AcDbEntity
  8
1
  6
CENTER
 62
     3
100
AcDbLine
 10
430.8029207266444
 20
603.0125617266472
 30
0.0
 11
441.1061225034579
 21
603.0125617266472
 31
0.0
  0
ARC
  5
29E6
330
2431
100
AcDbEntity
  8
1
 62
     7
100
AcDbCircle
 10
434.0659207266443
 20
661.4865617266472
 30
0.0
 40
3.263000000000029
100
AcDbArc
 50
180.0
 51
270.0
  0
LINE
  5
29E7
330
2431
100
AcDbEntity
  8
1
  6
PHANTOM
 62
     4
100
AcDbLine
 10
429.2799207266445
 20
653.5125617266473
 30
0.0
 11
443.5799207266443
 21
653.5125617266473
 31
0.0
  0
LINE
  5
29E8
330
2431
100
AcDbEntity
  8
1
 62
     7
100
AcDbLine
 10
434.2929207266443
 20
658.9005617266472
 30
0.0
 11
451.7779207266443
 21
658.9005617266472
 31
0.0
  0
ARC
  5
29E9
330
2431
100
AcDbEntity
  8
1
 62
     7
100
AcDbCircle
 10
434.2929207266443
 20
661.7135617266471
 30
0.0
 40
2.81299999999999
100
AcDbArc
 50
180.0
 51
270.0
  0
LINE
  5
29EA
330
2431
100
AcDbEntity
  8
1
  6
PHANTOM
 62
     4
100
AcDbLine
 10
433.0799207266443
 20
662.5125617266473
 30
0.0
 11
448.7799207266444
 21
662.5125617266473
 31
0.0
  0
LINE
  5
29EB
330
2431
100
AcDbEntity
  8
1
  6
PHANTOM
 62
     4
100
AcDbLine
 10
433.0799207266443
 20
677.5125617266472
 30
0.0
 11
433.0799207266443
 21
662.5125617266473
 31
0.0
  0
CIRCLE
  5
29EC
330
2431
100
AcDbEntity
  8
1
 62
     7
100
AcDbCircle
 10
248.7071740460665
 20
682.8864344934493
 30
0.0
 40
3.299999999999926
  0
LINE
  5
29ED
330
2431
100
AcDbEntity
  8
1
 62
     7
100
AcDbLine
 10
426.9799207266443
 20
691.3125617266471
 30
0.0
 11
431.4799207266443
 21
691.3125617266471
 31
0.0
  0
LINE
  5
29EE
330
2431
100
AcDbEntity
  8
1
 62
     7
100
AcDbLine
 10
426.9799207266443
 20
684.7125617266471
 30
0.0
 11
431.4799207266443
 21
684.7125617266471
 31
0.0
  0
LINE
  5
29EF
330
2431
100
AcDbEntity
  8
1
  6
CENTER
 62
     3
100
AcDbLine
 10
426.5299207266443
 20
688.0125617266472
 30
0.0
 11
431.929920726644
 21
688.0125617266472
 31
0.0
  0
LINE
  5
29F0
330
2431
100
AcDbEntity
  8
1
 62
     7
100
AcDbLine
 10
427.3799207266444
 20
694.0125617266472
 30
0.0
 11
431.0799207266443
 21
694.0125617266472
 31
0.0
  0
LINE
  5
29F1
330
2431
100
AcDbEntity
  8
1
 62
     7
100
AcDbLine
 10
429.2799207266445
 20
682.0125617266472
 30
0.0
 11
430.3529207266442
 21
682.0125617266472
 31
0.0
  0
LINE
  5
29F2
330
2431
100
AcDbEntity
  8
1
 62
     7
100
AcDbLine
 10
426.9799207266443
 20
691.3125617266471
 30
0.0
 11
426.9799207266443
 21
684.7125617266471
 31
0.0
  0
LINE
  5
29F3
330
2431
100
AcDbEntity
  8
1
 62
     7
100
AcDbLine
 10
426.9799207266443
 20
682.4125617266473
 30
0.0
 11
426.9799207266443
 21
684.7125617266471
 31
0.0
  0
LINE
  5
29F4
330
2431
100
AcDbEntity
  8
1
 62
     7
100
AcDbLine
 10
427.3799207266444
 20
682.0125617266472
 30
0.0
 11
429.2799207266445
 21
682.0125617266472
 31
0.0
  0
LINE
  5
29F5
330
2431
100
AcDbEntity
  8
1
 62
     7
100
AcDbLine
 10
427.3799207266444
 20
682.0125617266472
 30
0.0
 11
426.9799207266443
 21
682.4125617266473
 31
0.0
  0
LINE
  5
29F6
330
2431
100
AcDbEntity
  8
1
 62
     7
100
AcDbLine
 10
426.9799207266443
 20
693.6125617266473
 30
0.0
 11
426.9799207266443
 21
691.3125617266471
 31
0.0
  0
LINE
  5
29F7
330
2431
100
AcDbEntity
  8
1
 62
     7
100
AcDbLine
 10
427.3799207266444
 20
694.0125617266472
 30
0.0
 11
426.9799207266443
 21
693.6125617266473
 31
0.0
  0
LINE
  5
29F8
330
2431
100
AcDbEntity
  8
1
 62
     7
100
AcDbLine
 10
431.4799207266443
 20
691.3125617266471
 30
0.0
 11
431.4799207266443
 21
684.7125617266471
 31
0.0
  0
ARC
  5
29F9
330
2431
100
AcDbEntity
  8
1
 62
     7
100
AcDbCircle
 10
430.3529207266442
 20
681.5625617266472
 30
0.0
 40
0.4500000000000455
100
AcDbArc
 50
0.0
 51
90.0
  0
LINE
  5
29FA
330
2431
100
AcDbEntity
  8
1
 62
     7
100
AcDbLine
 10
431.4799207266443
 20
693.6125617266473
 30
0.0
 11
431.4799207266443
 21
691.3125617266471
 31
0.0
  0
LINE
  5
29FB
330
2431
100
AcDbEntity
  8
1
 62
     7
100
AcDbLine
 10
431.0799207266443
 20
694.0125617266472
 30
0.0
 11
431.4799207266443
 21
693.6125617266473
 31
0.0
  0
CIRCLE
  5
29FC
330
2431
100
AcDbEntity
  8
1
 62
     7
100
AcDbCircle
 10
713.3999031922008
 20
535.3977538864112
 30
0.0
 40
4.5
  0
CIRCLE
  5
29FD
330
2431
100
AcDbEntity
  8
1
 62
     7
100
AcDbCircle
 10
730.2825700350247
 20
542.3907834617352
 30
0.0
 40
4.500000000000023
  0
CIRCLE
  5
29FE
330
2431
100
AcDbEntity
  8
1
 62
     7
100
AcDbCircle
 10
660.2825700350247
 20
542.3907834617352
 30
0.0
 40
4.49999999999992
  0
ARC
  5
29FF
330
2431
100
AcDbEntity
  8
1
  6
CENTER
 62
     3
100
AcDbCircle
 10
695.2825700350246
 20
603.0125617266458
 30
0.0
 40
69.99999999999999
100
AcDbArc
 50
244.2073219755554
 51
0.0
  0
ARC
  5
2A00
330
2431
100
AcDbEntity
  8
1
 62
     7
100
AcDbCircle
 10
695.2825700350246
 20
603.0125617266458
 30
0.0
 40
77.50000000000956
100
AcDbArc
 50
246.8582017451923
 51
90.0
  0
ARC
  5
2A01
330
2431
100
AcDbEntity
  8
1
 62
     7
100
AcDbCircle
 10
695.2825700350246
 20
603.0125617266458
 30
0.0
 40
77.50000000000952
100
AcDbArc
 50
113.1417982548076
 51
246.8582017451923
  0
ARC
  5
2A02
330
2431
100
AcDbEntity
  8
1
 62
     7
100
AcDbCircle
 10
695.2825700350246
 20
603.0125617266458
 30
0.0
 40
55.21699999999993
100
AcDbArc
 50
236.5226213479668
 51
0.0
  0
ARC
  5
2A03
330
2431
100
AcDbEntity
  8
1
 62
     7
100
AcDbCircle
 10
695.2825700350246
 20
603.0125617266458
 30
0.0
 40
52.45599999999997
100
AcDbArc
 50
234.5043352075906
 51
0.0
  0
LINE
  5
2A04
330
2431
100
AcDbEntity
  8
1
  6
DASHDOT
 62
     3
100
AcDbLine
 10
715.1469317466428
 20
528.8777545589599
 30
0.0
 11
711.6528746377585
 21
541.9177532138624
 31
0.0
  0
LINE
  5
2A05
330
2431
100
AcDbEntity
  8
1
  6
DASHDOT
 62
     3
100
AcDbLine
 10
733.6575700350246
 20
536.5451119861902
 30
0.0
 11
726.9075700350246
 21
548.2364549372801
 31
0.0
  0
LINE
  5
2A06
330
2431
100
AcDbEntity
  8
1
  6
DASHDOT
 62
     3
100
AcDbLine
 10
695.2825700350246
 20
526.2625617266459
 30
0.0
 11
695.2825700350246
 21
539.7625617266458
 31
0.0
  0
LINE
  5
2A07
330
2431
100
AcDbEntity
  8
1
 62
     7
100
AcDbLine
 10
483.9799207266443
 20
541.0125617266617
 30
0.0
 11
483.9799207266443
 21
537.5125617266577
 31
0.0
  0
LINE
  5
2A08
330
2431
100
AcDbEntity
  8
1
 62
     7
100
AcDbLine
 10
464.9799207266444
 20
540.7125617266459
 30
0.0
 11
464.9799207266439
 21
537.5125617266542
 31
0.0
  0
LINE
  5
2A09
330
2431
100
AcDbEntity
  8
1
  6
CENTER
 62
     3
100
AcDbLine
 10
695.2825700350246
 20
593.5125617266437
 30
0.0
 11
695.2825700350246
 21
514.669448764926
 31
0.0
  0
LINE
  5
2A0A
330
2431
100
AcDbEntity
  8
1
  6
DASHDOT
 62
     3
100
AcDbLine
 10
663.6575700350247
 20
548.2364549372801
 30
0.0
 11
656.9075700350246
 21
536.5451119861902
 31
0.0
  0
TEXT
  5
2A0B
330
2431
100
AcDbEntity
  8
1
 62
     0
100
AcDbText
 10
629.5118311679568
 20
463.0523549831507
 30
0.0
 40
8.633638010674902
  1
SHF-45-XXX-2A-GR.dxf
 41
0.9
100
AcDbText
  0
LINE
  5
2A0C
330
2431
100
AcDbEntity
  8
1
 62
     7
100
AcDbLine
 10
465.3799207266444
 20
525.512561726655
 30
0.0
 11
483.5799207266442
 21
525.512561726655
 31
0.0
  0
LINE
  5
2A0D
330
2431
100
AcDbEntity
  8
1
  6
CENTER
 62
     3
100
AcDbLine
 10
462.2799207266443
 20
533.0125617266539
 30
0.0
 11
486.6799207266443
 21
533.0125617266575
 31
0.0
  0
LINE
  5
2A0E
330
2431
100
AcDbEntity
  8
1
 62
     7
100
AcDbLine
 10
464.979920726645
 20
528.5125617266543
 30
0.0
 11
483.9799207266443
 21
528.5125617266577
 31
0.0
  0
LINE
  5
2A0F
330
2431
100
AcDbEntity
  8
1
 62
     7
100
AcDbLine
 10
464.9799207266439
 20
537.5125617266542
 30
0.0
 11
483.9799207266443
 21
537.5125617266577
 31
0.0
  0
LINE
  5
2A10
330
2431
100
AcDbEntity
  8
1
 62
     7
100
AcDbLine
 10
464.9799207266444
 20
529.8125617266578
 30
0.0
 11
464.9799207266444
 21
536.2125617266578
 31
0.0
  0
LINE
  5
2A11
330
2431
100
AcDbEntity
  8
1
 62
     7
100
AcDbLine
 10
465.3799207266444
 20
525.512561726655
 30
0.0
 11
464.9799207266444
 21
525.9125617266549
 31
0.0
  0
LINE
  5
2A12
330
2431
100
AcDbEntity
  8
1
 62
     7
100
AcDbLine
 10
464.9799207266444
 20
525.9125617266549
 30
0.0
 11
464.979920726645
 21
528.5125617266543
 31
0.0
  0
LINE
  5
2A13
330
2431
100
AcDbEntity
  8
1
 62
     7
100
AcDbLine
 10
464.9799207266444
 20
529.0125617266577
 30
0.0
 11
464.9799207266444
 21
529.8125617266578
 31
0.0
  0
LINE
  5
2A14
330
2431
100
AcDbEntity
  8
1
 62
     7
100
AcDbLine
 10
464.979920726645
 20
528.5125617266543
 30
0.0
 11
464.9799207266444
 21
529.0125617266577
 31
0.0
  0
LINE
  5
2A15
330
2431
100
AcDbEntity
  8
1
 62
     7
100
AcDbLine
 10
464.9799207266444
 20
536.2125617266578
 30
0.0
 11
464.9799207266444
 21
537.0125617266577
 31
0.0
  0
LINE
  5
2A16
330
2431
100
AcDbEntity
  8
1
 62
     7
100
AcDbLine
 10
464.9799207266439
 20
537.5125617266542
 30
0.0
 11
464.9799207266444
 21
537.0125617266577
 31
0.0
  0
LINE
  5
2A17
330
2431
100
AcDbEntity
  8
1
 62
     7
100
AcDbLine
 10
483.9799207266443
 20
537.5125617266577
 30
0.0
 11
483.9799207266443
 21
528.5125617266577
 31
0.0
  0
LINE
  5
2A18
330
2431
100
AcDbEntity
  8
1
 62
     7
100
AcDbLine
 10
483.9799207266443
 20
525.9125617266549
 30
0.0
 11
483.5799207266442
 21
525.512561726655
 31
0.0
  0
LINE
  5
2A19
330
2431
100
AcDbEntity
  8
1
 62
     7
100
AcDbLine
 10
483.9799207266443
 20
528.5125617266577
 30
0.0
 11
483.9799207266443
 21
525.9125617266549
 31
0.0
  0
TEXT
  5
2A1A
330
2431
100
AcDbEntity
  8
1
 62
     0
100
AcDbText
 10
676.3288366635462
 20
446.0136853868266
 30
0.0
 40
7.0
  1
2002/3
 41
0.9
 72
     1
 11
689.6093237782134
 21
449.5136853868266
 31
0.0
100
AcDbText
 73
     2
  0
CIRCLE
  5
2A1B
330
2431
100
AcDbEntity
  8
1
 62
     7
100
AcDbCircle
 10
695.2825700350246
 20
533.0125617266459
 30
0.0
 40
4.5
  0
CIRCLE
  5
2A1C
330
2431
100
AcDbEntity
  8
1
 62
     3
100
AcDbCircle
 10
713.3999031922008
 20
535.3977538864112
 30
0.0
 40
3.000000000000198
  0
CIRCLE
  5
2A1D
330
2431
100
AcDbEntity
  8
1
 62
     7
100
AcDbCircle
 10
713.3999031922008
 20
535.3977538864112
 30
0.0
 40
2.400000000000003
  0
ARC
  5
2A1E
330
2431
100
AcDbEntity
  8
1
  6
CENTER
 62
     3
100
AcDbCircle
 10
695.2825700350246
 20
603.0125617266458
 30
0.0
 40
70.00000000000001
100
AcDbArc
 50
0.0
 51
115.7926780244445
  0
ARC
  5
2A1F
330
2431
100
AcDbEntity
  8
1
 62
     7
100
AcDbCircle
 10
695.2825700350246
 20
603.0125617266458
 30
0.0
 40
56.64999999999928
100
AcDbArc
 50
237.4758926102291
 51
90.0
  0
ARC
  5
2A20
330
2431
100
AcDbEntity
  8
1
 62
     7
100
AcDbCircle
 10
695.2825700350246
 20
603.0125617266458
 30
0.0
 40
56.64999999999938
100
AcDbArc
 50
90.0
 51
122.5241073897707
  0
ARC
  5
2A21
330
2431
100
AcDbEntity
  8
1
 62
     7
100
AcDbCircle
 10
695.2825700350246
 20
603.0125617266458
 30
0.0
 40
57.64999999999934
100
AcDbArc
 50
238.1074299539605
 51
90.0
  0
ARC
  5
2A22
330
2431
100
AcDbEntity
  8
1
 62
     7
100
AcDbCircle
 10
695.2825700350246
 20
603.0125617266458
 30
0.0
 40
57.64999999999938
100
AcDbArc
 50
90.0
 51
121.8925700460394
  0
ARC
  5
2A23
330
2431
100
AcDbEntity
  8
1
 62
     7
100
AcDbCircle
 10
695.2825700350246
 20
603.0125617266458
 30
0.0
 40
77.50000000000956
100
AcDbArc
 50
90.0
 51
113.1417982548076
  0
ARC
  5
2A24
330
2431
100
AcDbEntity
  8
1
 62
     7
100
AcDbCircle
 10
670.6929998076227
 20
643.4483872565106
 30
0.0
 40
5.499999999999863
100
AcDbArc
 50
143.5948183408161
 51
272.3551886736954
  0
ARC
  5
2A25
330
2431
100
AcDbEntity
  8
1
 62
     7
100
AcDbCircle
 10
665.4160175258218
 20
566.3016370384139
 30
0.0
 40
5.499999999999792
100
AcDbArc
 50
253.1600357321239
 51
21.92040606499733
  0
ARC
  5
2A26
330
2431
100
AcDbEntity
  8
1
 62
     7
100
AcDbCircle
 10
670.6929998076227
 20
643.4483872565106
 30
0.0
 40
5.499999999999863
100
AcDbArc
 50
143.5948183408161
 51
272.3551886736954
  0
ARC
  5
2A27
330
2431
100
AcDbEntity
  8
1
 62
     7
100
AcDbCircle
 10
665.4160175258218
 20
566.3016370384139
 30
0.0
 40
5.499999999999952
100
AcDbArc
 50
263.8254211708167
 51
21.92040606499733
  0
ARC
  5
2A28
330
2431
100
AcDbEntity
  8
1
 62
     7
100
AcDbCircle
 10
695.2825700350246
 20
603.0125617266458
 30
0.0
 40
55.2170000000001
100
AcDbArc
 50
0.0
 51
123.4773786520331
  0
ARC
  5
2A29
330
2431
100
AcDbEntity
  8
1
 62
     7
100
AcDbCircle
 10
695.2825700350246
 20
603.0125617266458
 30
0.0
 40
52.4560000000001
100
AcDbArc
 50
0.0
 51
125.4956647924093
  0
ARC
  5
2A2A
330
2431
100
AcDbEntity
  8
1
 62
     7
100
AcDbCircle
 10
695.2825700350246
 20
603.0125617266458
 30
0.0
 40
42.59599999999998
100
AcDbArc
 50
0.0
 51
135.6470143852963
  0
ARC
  5
2A2B
330
2431
100
AcDbEntity
  8
1
 62
     7
100
AcDbCircle
 10
695.2825700350246
 20
603.0125617266458
 30
0.0
 40
42.59599999999998
100
AcDbArc
 50
224.3529856147036
 51
0.0
  0
ARC
  5
2A2C
330
2431
100
AcDbEntity
  8
1
 62
     7
100
AcDbCircle
 10
695.2825700350246
 20
603.0125617266458
 30
0.0
 40
39.738
100
AcDbArc
 50
0.0
 51
140.0382575268255
  0
ARC
  5
2A2D
330
2431
100
AcDbEntity
  8
1
 62
     7
100
AcDbCircle
 10
695.2825700350246
 20
603.0125617266458
 30
0.0
 40
39.73799999999993
100
AcDbArc
 50
219.9617424731744
 51
0.0
  0
ARC
  5
2A2E
330
2431
100
AcDbEntity
  8
1
 62
     7
100
AcDbCircle
 10
695.2825700350246
 20
603.0125617266458
 30
0.0
 40
51.30000000000014
100
AcDbArc
 50
236.0513778638269
 51
241.3399264840001
  0
ARC
  5
2A2F
330
2431
100
AcDbEntity
  8
1
 62
     7
100
AcDbCircle
 10
695.2825700350246
 20
603.0125617266458
 30
0.0
 40
51.30000000000014
100
AcDbArc
 50
236.0513778638269
 51
241.3399264840001
  0
ARC
  5
2A30
330
2431
100
AcDbEntity
  8
1
 62
     7
100
AcDbCircle
 10
676.4280392575066
 20
559.6050782772494
 30
0.0
 40
5.970000000000107
100
AcDbArc
 50
115.4979155235423
 51
195.6181327442149
  0
ARC
  5
2A31
330
2431
100
AcDbEntity
  8
1
 62
     7
100
AcDbCircle
 10
665.4160175258218
 20
566.3016370384139
 30
0.0
 40
5.970000000000037
100
AcDbArc
 50
281.7731716036117
 51
1.893388824284695
  0
LINE
  5
2A32
330
2431
100
AcDbEntity
  8
1
  6
CENTER
 62
     3
100
AcDbLine
 10
765.2825700350246
 20
603.0125617266458
 30
0.0
 11
607.8244471118897
 21
603.0125617266458
 31
0.0
  0
LINE
  5
2A33
330
2431
100
AcDbEntity
  8
1
 62
     7
100
AcDbLine
 10
464.9799207266444
 20
680.1125617266554
 30
0.0
 11
464.9799207266444
 21
665.3125617266458
 31
0.0
  0
LINE
  5
2A34
330
2431
100
AcDbEntity
  8
1
 62
     7
100
AcDbLine
 10
483.9799207266443
 20
680.1125617266554
 30
0.0
 11
483.9799207266443
 21
665.0125617266436
 31
0.0
  0
LINE
  5
2A35
330
2431
100
AcDbEntity
  8
1
 62
     7
100
AcDbLine
 10
485.4799207266442
 20
612.0264399153036
 30
0.0
 11
485.4799207266442
 21
587.5125617266364
 31
0.0
  0
LINE
  5
2A36
330
2431
100
AcDbEntity
  8
1
 62
     7
100
AcDbLine
 10
457.5799207266443
 20
586.0125617266437
 30
0.0
 11
457.5799207266443
 21
639.2625617266475
 31
0.0
  0
LINE
  5
2A37
330
2431
100
AcDbEntity
  8
1
 62
     7
100
AcDbLine
 10
463.2799207266443
 20
584.0125617266364
 30
0.0
 11
463.2799207266443
 21
567.0125617266364
 31
0.0
  0
LINE
  5
2A38
330
2431
100
AcDbEntity
  8
1
 62
     7
100
AcDbLine
 10
480.2799207266444
 20
563.3125617266394
 30
0.0
 11
480.2799207266444
 21
581.7625617266364
 31
0.0
  0
LINE
  5
2A39
330
2431
100
AcDbEntity
  8
1
 62
     7
100
AcDbLine
 10
468.2799207266442
 20
581.2625617266522
 30
0.0
 11
468.2799207266442
 21
563.3125617266394
 31
0.0
  0
LINE
  5
2A3A
330
2431
100
AcDbEntity
  8
1
 62
     7
100
AcDbLine
 10
457.7799207266443
 20
584.0125617266364
 30
0.0
 11
457.7799207266443
 21
567.0125617266364
 31
0.0
  0
LINE
  5
2A3B
330
2431
100
AcDbEntity
  8
1
 62
     7
100
AcDbLine
 10
457.5799207266443
 20
586.0125617266437
 30
0.0
 11
457.5799207266443
 21
567.2621024013881
 31
0.0
  0
LINE
  5
2A3C
330
2431
100
AcDbEntity
  8
1
 62
     7
100
AcDbLine
 10
483.7903879178934
 20
547.7486053851152
 30
0.0
 11
482.7799207266442
 21
547.8015617266469
 31
0.0
  0
LINE
  5
2A3D
330
2431
100
AcDbEntity
  8
1
 62
     7
100
AcDbLine
 10
482.4367826211693
 20
545.4444236211718
 30
0.0
 11
483.9213420828814
 21
546.9289830828845
 31
0.0
  0
LINE
  5
2A3E
330
2431
100
AcDbEntity
  8
1
 62
     7
100
AcDbLine
 10
482.7799207266442
 20
546.3625617266603
 30
0.0
 11
483.9799207266443
 21
545.1625617266604
 31
0.0
  0
LINE
  5
2A3F
330
2431
100
AcDbEntity
  8
1
 62
     7
100
AcDbLine
 10
462.9799207266444
 20
545.3626161795787
 30
0.0
 11
483.7799202621154
 21
545.3625617266424
 31
0.0
  0
ARC
  5
2A40
330
2431
100
AcDbEntity
  8
1
 62
     7
100
AcDbCircle
 10
474.5264207266442
 20
555.6810617266473
 30
0.0
 40
5.500000000000063
100
AcDbArc
 50
120.6936228437702
 51
248.8784681933449
  0
ARC
  5
2A41
330
2431
100
AcDbEntity
  8
1
 62
     7
100
AcDbCircle
 10
474.5264207266442
 20
555.6810617266473
 30
0.0
 40
5.49999999999996
100
AcDbArc
 50
291.1215318066509
 51
59.30637715622972
  0
LINE
  5
2A42
330
2431
100
AcDbEntity
  8
1
 62
     7
100
AcDbLine
 10
463.5364207266438
 20
567.0125617266364
 30
0.0
 11
463.5364207266438
 21
556.0125617266364
 31
0.0
  0
LINE
  5
2A43
330
2431
100
AcDbEntity
  8
1
 62
     7
100
AcDbLine
 10
465.4364207266434
 20
567.0125617266364
 30
0.0
 11
465.4364207266434
 21
556.0125617266364
 31
0.0
  0
LINE
  5
2A44
330
2431
100
AcDbEntity
  8
1
 62
     7
100
AcDbLine
 10
465.4364207266434
 20
567.0125617266364
 30
0.0
 11
465.4364207266434
 21
556.0125617266364
 31
0.0
  0
LINE
  5
2A45
330
2431
100
AcDbEntity
  8
1
 62
     7
100
AcDbLine
 10
466.382920726644
 20
550.2505617266474
 30
0.0
 11
466.382920726644
 21
559.814235919805
 31
0.0
  0
LINE
  5
2A46
330
2431
100
AcDbEntity
  8
1
 62
     7
100
AcDbLine
 10
482.6699207266444
 20
559.814235919805
 30
0.0
 11
482.6699207266444
 21
550.2505617266474
 31
0.0
  0
LINE
  5
2A47
330
2431
100
AcDbEntity
  8
1
 62
     7
100
AcDbLine
 10
468.8264207266443
 20
551.7065617266474
 30
0.0
 11
468.8264207266443
 21
559.3665617266474
 31
0.0
  0
LINE
  5
2A48
330
2431
100
AcDbEntity
  8
1
 62
     7
100
AcDbLine
 10
466.9164207266443
 20
555.7016058340589
 30
0.0
 11
466.5284074322685
 21
558.8617205221151
 31
0.0
  0
LINE
  5
2A49
330
2431
100
AcDbEntity
  8
1
 62
     7
100
AcDbLine
 10
463.7409207266443
 20
545.5052789982645
 30
0.0
 11
472.7299207266444
 21
545.3955617266472
 31
0.0
  0
LINE
  5
2A4A
330
2431
100
AcDbEntity
  8
1
 62
     7
100
AcDbLine
 10
482.7799207266442
 20
546.3625617266603
 30
0.0
 11
462.1799207266441
 21
546.3625617266603
 31
0.0
  0
LINE
  5
2A4B
330
2431
100
AcDbEntity
  8
1
 62
     7
100
AcDbLine
 10
474.5264207266442
 20
547.7895617266473
 30
0.0
 11
467.0829207266442
 21
547.7895617266473
 31
0.0
  0
LINE
  5
2A4C
330
2431
100
AcDbEntity
  8
1
 62
     7
100
AcDbLine
 10
472.5445100954602
 20
550.5505617266473
 30
0.0
 11
466.6829207266444
 21
550.5505617266473
 31
0.0
  0
LINE
  5
2A4D
330
2431
100
AcDbEntity
  8
1
 62
     7
100
AcDbLine
 10
470.6747028365188
 20
551.7549606970144
 30
0.0
 11
468.8264207266443
 21
551.7065617266474
 31
0.0
  0
LINE
  5
2A4E
330
2431
100
AcDbEntity
  8
1
 62
     7
100
AcDbLine
 10
461.3799207266445
 20
541.0125617266458
 30
0.0
 11
464.6799207266443
 21
541.0125617266458
 31
0.0
  0
LINE
  5
2A4F
330
2431
100
AcDbEntity
  8
1
 62
     7
100
AcDbLine
 10
462.1799207266441
 20
546.3625617266603
 30
0.0
 11
460.9799207266445
 21
545.1625617266604
 31
0.0
  0
LINE
  5
2A50
330
2431
100
AcDbEntity
  8
1
 62
     7
100
AcDbLine
 10
462.1799207266441
 20
546.3625617266603
 30
0.0
 11
460.9799207266445
 21
545.1625617266604
 31
0.0
  0
LINE
  5
2A51
330
2431
100
AcDbEntity
  8
1
 62
     7
100
AcDbLine
 10
460.9799207266445
 20
541.4125617266458
 30
0.0
 11
460.9799207266445
 21
545.1625617266604
 31
0.0
  0
LINE
  5
2A52
330
2431
100
AcDbEntity
  8
1
 62
     7
100
AcDbLine
 10
460.9799207266445
 20
541.4125617266458
 30
0.0
 11
461.3799207266445
 21
541.0125617266458
 31
0.0
  0
LINE
  5
2A53
330
2431
100
AcDbEntity
  8
1
 62
     7
100
AcDbLine
 10
462.9799207266444
 20
545.3626161795787
 30
0.0
 11
461.1749628806613
 21
545.3626161795787
 31
0.0
  0
ARC
  5
2A54
330
2431
100
AcDbEntity
  8
1
 62
     7
100
AcDbCircle
 10
464.6799207266443
 20
540.7125617266459
 30
0.0
 40
0.3000000000000718
100
AcDbArc
 50
0.0
 51
90.0
  0
ARC
  5
2A55
330
2431
100
AcDbEntity
  8
1
 62
     7
100
AcDbCircle
 10
467.3664207266443
 20
552.1565617266474
 30
0.0
 40
0.4500000000000492
100
AcDbArc
 50
180.0
 51
270.0
  0
LINE
  5
2A56
330
2431
100
AcDbEntity
  8
1
 62
     7
100
AcDbLine
 10
465.4364207266434
 20
556.0125617266364
 30
0.0
 11
463.5364207266438
 21
556.0125617266364
 31
0.0
  0
LINE
  5
2A57
330
2431
100
AcDbEntity
  8
1
 62
     7
100
AcDbLine
 10
466.382920726644
 20
550.2505617266474
 30
0.0
 11
466.382920726644
 21
548.1937069150801
 31
0.0
  0
LINE
  5
2A58
330
2431
100
AcDbEntity
  8
1
 62
     7
100
AcDbLine
 10
466.6829207266444
 20
550.5505617266473
 30
0.0
 11
466.382920726644
 21
550.2505617266474
 31
0.0
  0
LINE
  5
2A59
330
2431
100
AcDbEntity
  8
1
 62
     7
100
AcDbLine
 10
467.0829207266442
 20
547.7895617266473
 30
0.0
 11
466.382920726644
 21
548.1937069150801
 31
0.0
  0
LINE
  5
2A5A
330
2431
100
AcDbEntity
  8
1
 62
     7
100
AcDbLine
 10
466.9164207266443
 20
555.7016058340589
 30
0.0
 11
466.9164207266443
 21
552.1565617266474
 31
0.0
  0
LINE
  5
2A5B
330
2431
100
AcDbEntity
  8
1
 62
     7
100
AcDbLine
 10
468.8264207266443
 20
551.7065617266474
 30
0.0
 11
467.3664207266443
 21
551.7065617266474
 31
0.0
  0
LINE
  5
2A5C
330
2431
100
AcDbEntity
  8
1
 62
     7
100
AcDbLine
 10
472.7299207266444
 20
545.3955617266472
 30
0.0
 11
478.1299207266442
 21
545.3955617266472
 31
0.0
  0
LINE
  5
2A5D
330
2431
100
AcDbEntity
  8
1
 62
     7
100
AcDbLine
 10
482.4367826211693
 20
545.4444236211718
 30
0.0
 11
478.1299207266442
 21
545.3955617266472
 31
0.0
  0
LINE
  5
2A5E
330
2431
100
AcDbEntity
  8
1
 62
     7
100
AcDbLine
 10
482.3699207266443
 20
550.5505617266473
 30
0.0
 11
476.5083313578283
 21
550.5505617266473
 31
0.0
  0
LINE
  5
2A5F
330
2431
100
AcDbEntity
  8
1
 62
     7
100
AcDbLine
 10
481.9699207266443
 20
547.7895617266473
 30
0.0
 11
474.5264207266442
 21
547.7895617266473
 31
0.0
  0
ARC
  5
2A60
330
2431
100
AcDbEntity
  8
1
 62
     7
100
AcDbCircle
 10
474.5264207266442
 20
555.6810617266473
 30
0.0
 40
5.500000000000046
100
AcDbArc
 50
248.8784681933449
 51
270.0
  0
ARC
  5
2A61
330
2431
100
AcDbEntity
  8
1
 62
     7
100
AcDbCircle
 10
474.5264207266442
 20
555.6810617266473
 30
0.0
 40
5.5
100
AcDbArc
 50
270.0
 51
291.1215318066509
  0
LINE
  5
2A62
330
2431
100
AcDbEntity
  8
1
 62
     7
100
AcDbLine
 10
482.6699207266444
 20
548.1937069150801
 30
0.0
 11
481.9699207266443
 21
547.7895617266473
 31
0.0
  0
LINE
  5
2A63
330
2431
100
AcDbEntity
  8
1
 62
     7
100
AcDbLine
 10
482.6699207266444
 20
550.2505617266474
 30
0.0
 11
482.3699207266443
 21
550.5505617266473
 31
0.0
  0
LINE
  5
2A64
330
2431
100
AcDbEntity
  8
1
 62
     7
100
AcDbLine
 10
482.6699207266444
 20
548.1937069150801
 30
0.0
 11
482.6699207266444
 21
550.2505617266474
 31
0.0
  0
LINE
  5
2A65
330
2431
100
AcDbEntity
  8
1
 62
     7
100
AcDbLine
 10
468.2799207266442
 20
563.3125617266394
 30
0.0
 11
480.2799207266444
 21
563.3125617266394
 31
0.0
  0
LINE
  5
2A66
330
2431
100
AcDbEntity
  8
1
 62
     7
100
AcDbLine
 10
471.7189610653135
 20
560.4105617266475
 30
0.0
 11
469.409420726644
 21
560.4105617266475
 31
0.0
  0
LINE
  5
2A67
330
2431
100
AcDbEntity
  8
1
 62
     7
100
AcDbLine
 10
474.5264207266442
 20
563.2685617266474
 30
0.0
 11
469.409420726644
 21
563.2685617266474
 31
0.0
  0
LINE
  5
2A68
330
2431
100
AcDbEntity
  8
1
 62
     7
100
AcDbLine
 10
468.8264207266443
 20
559.3665617266474
 30
0.0
 11
470.44388600542
 21
559.3665617266474
 31
0.0
  0
ARC
  5
2A69
330
2431
100
AcDbEntity
  8
1
 62
     7
100
AcDbCircle
 10
466.9750532005071
 20
558.9165617266474
 30
0.0
 40
0.4499999999999106
100
AcDbArc
 50
90.0
 51
187.0000000000125
  0
LINE
  5
2A6A
330
2431
100
AcDbEntity
  8
1
 62
     7
100
AcDbLine
 10
468.8094207266441
 20
562.6685617266474
 30
0.0
 11
468.8094207266441
 21
561.0105617266474
 31
0.0
  0
LINE
  5
2A6B
330
2431
100
AcDbEntity
  8
1
 62
     7
100
AcDbLine
 10
469.409420726644
 20
563.2685617266474
 30
0.0
 11
468.8094207266441
 21
562.6685617266474
 31
0.0
  0
LINE
  5
2A6C
330
2431
100
AcDbEntity
  8
1
 62
     7
100
AcDbLine
 10
468.8094207266441
 20
561.0105617266474
 30
0.0
 11
469.409420726644
 21
560.4105617266475
 31
0.0
  0
LINE
  5
2A6D
330
2431
100
AcDbEntity
  8
1
 62
     7
100
AcDbLine
 10
468.8264207266443
 20
559.3665617266474
 30
0.0
 11
466.9750532005071
 21
559.3665617266474
 31
0.0
  0
LINE
  5
2A6E
330
2431
100
AcDbEntity
  8
1
 62
     7
100
AcDbLine
 10
463.5364207266438
 20
567.0125617266364
 30
0.0
 11
463.2799207266443
 21
567.0125617266364
 31
0.0
  0
LINE
  5
2A6F
330
2431
100
AcDbEntity
  8
1
 62
     7
100
AcDbLine
 10
463.2799207266443
 20
567.0125617266364
 30
0.0
 11
457.7799207266443
 21
567.0125617266364
 31
0.0
  0
LINE
  5
2A70
330
2431
100
AcDbEntity
  8
1
 62
     7
100
AcDbLine
 10
457.7799207266443
 20
567.2621024013881
 30
0.0
 11
457.5799207266443
 21
567.2621024013881
 31
0.0
  0
LINE
  5
2A71
330
2431
100
AcDbEntity
  8
1
 62
     7
100
AcDbLine
 10
468.2799207266442
 20
567.0125617266364
 30
0.0
 11
465.4364207266434
 21
567.0125617266364
 31
0.0
  0
ARC
  5
2A72
330
2431
100
AcDbEntity
  8
1
 62
     7
100
AcDbCircle
 10
474.5264207266442
 20
555.6810617266473
 30
0.0
 40
5.5
100
AcDbArc
 50
59.30637715622972
 51
90.0
  0
LINE
  5
2A73
330
2431
100
AcDbEntity
  8
1
 62
     7
100
AcDbLine
 10
479.6434207266445
 20
563.2685617266474
 30
0.0
 11
474.5264207266442
 21
563.2685617266474
 31
0.0
  0
ARC
  5
2A74
330
2431
100
AcDbEntity
  8
1
 62
     7
100
AcDbCircle
 10
474.5264207266442
 20
555.6810617266473
 30
0.0
 40
5.5
100
AcDbArc
 50
90.0
 51
120.6936228437702
  0
LINE
  5
2A75
330
2431
100
AcDbEntity
  8
1
 62
     7
100
AcDbLine
 10
479.6434207266445
 20
560.4105617266475
 30
0.0
 11
480.2434207266442
 21
561.0105617266474
 31
0.0
  0
LINE
  5
2A76
330
2431
100
AcDbEntity
  8
1
 62
     7
100
AcDbLine
 10
480.2434207266442
 20
562.6685617266474
 30
0.0
 11
479.6434207266445
 21
563.2685617266474
 31
0.0
  0
LINE
  5
2A77
330
2431
100
AcDbEntity
  8
1
 62
     7
100
AcDbLine
 10
480.2434207266442
 20
561.0105617266474
 30
0.0
 11
480.2434207266442
 21
562.6685617266474
 31
0.0
  0
LINE
  5
2A78
330
2431
100
AcDbEntity
  8
1
 62
     7
100
AcDbLine
 10
479.6434207266445
 20
560.4105617266475
 30
0.0
 11
477.3338803879754
 21
560.4105617266475
 31
0.0
  0
LINE
  5
2A79
330
2431
100
AcDbEntity
  8
1
 62
     7
100
AcDbLine
 10
483.9799207266443
 20
564.2497472478358
 30
0.0
 11
483.9799207266443
 21
547.5488794781644
 31
0.0
  0
LINE
  5
2A7A
330
2431
100
AcDbEntity
  8
1
  6
DIVIDE
 62
     7
100
AcDbLine
 10
485.9799207266442
 20
543.5125617266472
 30
0.0
 11
485.9799207266442
 21
554.6208785107467
 31
0.0
  0
LINE
  5
2A7B
330
2431
100
AcDbEntity
  8
1
 62
     7
100
AcDbLine
 10
483.9799207266443
 20
547.0704044391218
 30
0.0
 11
483.9799207266443
 21
547.5488794781644
 31
0.0
  0
ARC
  5
2A7C
330
2431
100
AcDbEntity
  8
1
 62
     7
100
AcDbCircle
 10
483.7799207266443
 20
547.0704044391218
 30
0.0
 40
0.1999999999998137
100
AcDbArc
 50
314.9999999999527
 51
0.0
  0
LINE
  5
2A7D
330
2431
100
AcDbEntity
  8
1
 62
     7
100
AcDbLine
 10
483.9799207266443
 20
543.5125617266472
 30
0.0
 11
483.9799207266443
 21
545.1625617266604
 31
0.0
  0
LINE
  5
2A7E
330
2431
100
AcDbEntity
  8
1
  6
DIVIDE
 62
     7
100
AcDbLine
 10
483.9799207266443
 20
543.5125617266472
 30
0.0
 11
485.9799207266442
 21
543.5125617266472
 31
0.0
  0
LINE
  5
2A7F
330
2431
100
AcDbEntity
  8
1
 62
     7
100
AcDbLine
 10
483.9799207266443
 20
541.0125617266617
 30
0.0
 11
483.9799207266443
 21
543.5125617266472
 31
0.0
  0
ARC
  5
2A80
330
2431
100
AcDbEntity
  8
1
 62
     7
100
AcDbCircle
 10
483.7799207266443
 20
547.5488794781644
 30
0.0
 40
0.2000000000000455
100
AcDbArc
 50
0.0
 51
86.99999999986559
  0
LINE
  5
2A81
330
2431
100
AcDbEntity
  8
1
 62
     7
100
AcDbLine
 10
484.9799207266443
 20
587.0125617266364
 30
0.0
 11
483.0799207266443
 21
587.0125617266364
 31
0.0
  0
LINE
  5
2A82
330
2431
100
AcDbEntity
  8
1
 62
     7
100
AcDbLine
 10
457.5799207266443
 20
593.5125617266437
 30
0.0
 11
485.4799207266442
 21
593.5125617266437
 31
0.0
  0
LINE
  5
2A83
330
2431
100
AcDbEntity
  8
1
 62
     7
100
AcDbLine
 10
468.2799207266442
 20
586.7625617266364
 30
0.0
 11
480.2799207266444
 21
586.7625617266364
 31
0.0
  0
LINE
  5
2A84
330
2431
100
AcDbEntity
  8
1
 62
     7
100
AcDbLine
 10
480.2799207266482
 20
587.0125617266364
 30
0.0
 11
463.2799207266443
 21
587.0125617266364
 31
0.0
  0
LINE
  5
2A85
330
2431
100
AcDbEntity
  8
1
 62
     7
100
AcDbLine
 10
468.2799207266442
 20
581.5125617266521
 30
0.0
 11
473.9364207266434
 21
581.5125617266521
 31
0.0
  0
LINE
  5
2A86
330
2431
100
AcDbEntity
  8
1
 62
     7
100
AcDbLine
 10
468.2799207266442
 20
581.5125617266521
 30
0.0
 11
468.2799207266442
 21
586.7625617266364
 31
0.0
  0
LINE
  5
2A87
330
2431
100
AcDbEntity
  8
1
 62
     7
100
AcDbLine
 10
467.9364207266435
 20
581.2625617266522
 30
0.0
 11
467.9364207266435
 21
587.0125617266364
 31
0.0
  0
LINE
  5
2A88
330
2431
100
AcDbEntity
  8
1
 62
     7
100
AcDbLine
 10
468.2799207266442
 20
581.5125617266521
 30
0.0
 11
468.2799207266442
 21
581.2625617266522
 31
0.0
  0
LINE
  5
2A89
330
2431
100
AcDbEntity
  8
1
 62
     7
100
AcDbLine
 10
467.9364207266435
 20
581.2625617266522
 30
0.0
 11
468.2799207266442
 21
581.2625617266522
 31
0.0
  0
LINE
  5
2A8A
330
2431
100
AcDbEntity
  8
1
 62
     7
100
AcDbLine
 10
463.2799207266443
 20
584.0125617266364
 30
0.0
 11
463.5799207266443
 21
584.0125617266364
 31
0.0
  0
LINE
  5
2A8B
330
2431
100
AcDbEntity
  8
1
 62
     7
100
AcDbLine
 10
457.7799207266443
 20
584.0125617266364
 30
0.0
 11
463.2799207266443
 21
584.0125617266364
 31
0.0
  0
LINE
  5
2A8C
330
2431
100
AcDbEntity
  8
1
 62
     7
100
AcDbLine
 10
463.2799207266443
 20
584.0125617266364
 30
0.0
 11
463.2799207266443
 21
587.0125617266364
 31
0.0
  0
LINE
  5
2A8D
330
2431
100
AcDbEntity
  8
1
 62
     7
100
AcDbLine
 10
457.5799207266443
 20
586.0125617266437
 30
0.0
 11
463.2799207266443
 21
586.0125617266437
 31
0.0
  0
LINE
  5
2A8E
330
2431
100
AcDbEntity
  8
1
 62
     7
100
AcDbLine
 10
463.5799207266443
 20
586.7625617266364
 30
0.0
 11
467.9364207266435
 21
586.7625617266364
 31
0.0
  0
LINE
  5
2A8F
330
2431
100
AcDbEntity
  8
1
 62
     7
100
AcDbLine
 10
468.2799207266442
 20
587.0125617266364
 30
0.0
 11
468.2799207266442
 21
586.7625617266364
 31
0.0
  0
LINE
  5
2A90
330
2431
100
AcDbEntity
  8
1
 62
     7
100
AcDbLine
 10
463.5799207266443
 20
584.0125617266364
 30
0.0
 11
463.5799207266443
 21
587.0125617266364
 31
0.0
  0
LINE
  5
2A91
330
2431
100
AcDbEntity
  8
1
 62
     7
100
AcDbLine
 10
481.436420726643
 20
582.8625617266348
 30
0.0
 11
481.436420726643
 21
581.7625617266364
 31
0.0
  0
LINE
  5
2A92
330
2431
100
AcDbEntity
  8
1
 62
     7
100
AcDbLine
 10
480.2799207266444
 20
586.0125617266365
 30
0.0
 11
480.2799207266444
 21
581.7625617266364
 31
0.0
  0
LINE
  5
2A93
330
2431
100
AcDbEntity
  8
1
 62
     7
100
AcDbLine
 10
473.9364207266434
 20
587.0125617266364
 30
0.0
 11
473.9364207266434
 21
581.5125617266521
 31
0.0
  0
LINE
  5
2A94
330
2431
100
AcDbEntity
  8
1
 62
     7
100
AcDbLine
 10
481.436420726643
 20
581.7625617266364
 30
0.0
 11
480.2799207266444
 21
581.7625617266364
 31
0.0
  0
LINE
  5
2A95
330
2431
100
AcDbEntity
  8
1
 62
     7
100
AcDbLine
 10
480.2799207266444
 20
587.0125617266364
 30
0.0
 11
480.2799207266482
 21
587.0125617266364
 31
0.0
  0
LINE
  5
2A96
330
2431
100
AcDbEntity
  8
1
 62
     7
100
AcDbLine
 10
480.2799207266444
 20
587.0125617266364
 30
0.0
 11
480.2799207266482
 21
587.0125617266364
 31
0.0
  0
LINE
  5
2A97
330
2431
100
AcDbEntity
  8
1
 62
     7
100
AcDbLine
 10
480.2799207266444
 20
587.0125617266364
 30
0.0
 11
480.2799207266482
 21
587.0125617266364
 31
0.0
  0
LINE
  5
2A98
330
2431
100
AcDbEntity
  8
1
 62
     7
100
AcDbLine
 10
481.436420726643
 20
587.0125617266364
 30
0.0
 11
480.2799207266482
 21
587.0125617266364
 31
0.0
  0
LINE
  5
2A99
330
2431
100
AcDbEntity
  8
1
 62
     7
100
AcDbLine
 10
480.2799207266482
 20
587.0125617266364
 30
0.0
 11
480.2799207266444
 21
587.0125617266364
 31
0.0
  0
LINE
  5
2A9A
330
2431
100
AcDbEntity
  8
1
 62
     7
100
AcDbLine
 10
480.2799207266482
 20
587.0125617266364
 30
0.0
 11
480.2799207266444
 21
587.0125617266364
 31
0.0
  0
LINE
  5
2A9B
330
2431
100
AcDbEntity
  8
1
 62
     7
100
AcDbLine
 10
483.0799207266443
 20
587.862561726635
 30
0.0
 11
483.0799207266443
 21
587.0125617266364
 31
0.0
  0
LINE
  5
2A9C
330
2431
100
AcDbEntity
  8
1
 62
     7
100
AcDbLine
 10
481.436420726643
 20
587.0125617266364
 30
0.0
 11
481.436420726643
 21
586.0125617266365
 31
0.0
  0
LINE
  5
2A9D
330
2431
100
AcDbEntity
  8
1
 62
     7
100
AcDbLine
 10
480.2799207266444
 20
586.7625617266364
 30
0.0
 11
480.2799207266444
 21
586.0125617266365
 31
0.0
  0
LINE
  5
2A9E
330
2431
100
AcDbEntity
  8
1
 62
     7
100
AcDbLine
 10
481.436420726643
 20
586.0125617266365
 30
0.0
 11
480.2799207266444
 21
586.0125617266365
 31
0.0
  0
LINE
  5
2A9F
330
2431
100
AcDbEntity
  8
1
 62
     7
100
AcDbLine
 10
483.0799207266443
 20
587.862561726635
 30
0.0
 11
481.436420726643
 21
587.862561726635
 31
0.0
  0
LINE
  5
2AA0
330
2431
100
AcDbEntity
  8
1
 62
     7
100
AcDbLine
 10
481.436420726643
 20
587.862561726635
 30
0.0
 11
481.436420726643
 21
587.0125617266364
 31
0.0
  0
LINE
  5
2AA1
330
2431
100
AcDbEntity
  8
1
 62
     7
100
AcDbLine
 10
483.0799207266443
 20
587.0125617266364
 30
0.0
 11
483.0799207266443
 21
582.8625617266348
 31
0.0
  0
LINE
  5
2AA2
330
2431
100
AcDbEntity
  8
1
 62
     7
100
AcDbLine
 10
481.436420726643
 20
586.0125617266365
 30
0.0
 11
481.436420726643
 21
582.8625617266348
 31
0.0
  0
LINE
  5
2AA3
330
2431
100
AcDbEntity
  8
1
 62
     7
100
AcDbLine
 10
481.436420726643
 20
582.8625617266348
 30
0.0
 11
483.0799207266443
 21
582.8625617266348
 31
0.0
  0
LINE
  5
2AA4
330
2431
100
AcDbEntity
  8
1
 62
     7
100
AcDbLine
 10
480.2799207266482
 20
587.0125617266364
 30
0.0
 11
480.2799207266444
 21
586.7625617266364
 31
0.0
  0
LINE
  5
2AA5
330
2431
100
AcDbEntity
  8
1
 62
     7
100
AcDbLine
 10
484.9799207266443
 20
587.0125617266364
 30
0.0
 11
485.4799207266442
 21
587.5125617266364
 31
0.0
  0
LINE
  5
2AA6
330
2431
100
AcDbEntity
  8
1
 62
     7
100
AcDbLine
 10
483.9799207266443
 20
658.47624397513
 30
0.0
 11
483.9799207266443
 21
642.7445617266472
 31
0.0
  0
LINE
  5
2AA7
330
2431
100
AcDbEntity
  8
1
 62
     7
100
AcDbLine
 10
465.4364207266434
 20
650.0125617266436
 30
0.0
 11
465.4364207266434
 21
639.0125617266436
 31
0.0
  0
LINE
  5
2AA8
330
2431
100
AcDbEntity
  8
1
 62
     7
100
AcDbLine
 10
463.4364207266435
 20
650.0125617266436
 30
0.0
 11
463.4364207266435
 21
639.0125617266436
 31
0.0
  0
LINE
  5
2AA9
330
2431
100
AcDbEntity
  8
1
 62
     7
100
AcDbLine
 10
480.2434207266442
 20
643.3445617266475
 30
0.0
 11
480.2434207266442
 21
645.0025617266471
 31
0.0
  0
LINE
  5
2AAA
330
2431
100
AcDbEntity
  8
1
 62
     7
100
AcDbLine
 10
468.8094207266441
 20
645.0025617266471
 30
0.0
 11
468.8094207266441
 21
643.3445617266475
 31
0.0
  0
LINE
  5
2AAB
330
2431
100
AcDbEntity
  8
1
 62
     7
100
AcDbLine
 10
483.0799207266443
 20
619.0125617266436
 30
0.0
 11
484.9799207266443
 21
619.0125617266436
 31
0.0
  0
LINE
  5
2AAC
330
2431
100
AcDbEntity
  8
1
 62
     7
100
AcDbLine
 10
457.5799207266443
 20
615.3125617266437
 30
0.0
 11
485.4799207266442
 21
615.3125617266437
 31
0.0
  0
LINE
  5
2AAD
330
2431
100
AcDbEntity
  8
1
 62
     7
100
AcDbLine
 10
457.5799207266443
 20
612.0264399153036
 30
0.0
 11
485.4799207266442
 21
612.0264399153036
 31
0.0
  0
LINE
  5
2AAE
330
2431
100
AcDbEntity
  8
1
 62
     7
100
AcDbLine
 10
480.2799207266444
 20
642.7125617266481
 30
0.0
 11
480.2799207266444
 21
624.2625617266436
 31
0.0
  0
LINE
  5
2AAF
330
2431
100
AcDbEntity
  8
1
 62
     7
100
AcDbLine
 10
473.9364207266434
 20
642.7125617266481
 30
0.0
 11
473.9364207266434
 21
624.5125617266523
 31
0.0
  0
LINE
  5
2AB0
330
2431
100
AcDbEntity
  8
1
 62
     7
100
AcDbLine
 10
473.7364207266438
 20
639.0125617266436
 30
0.0
 11
473.7364207266438
 21
624.7625617266522
 31
0.0
  0
LINE
  5
2AB1
330
2431
100
AcDbEntity
  8
1
 62
     7
100
AcDbLine
 10
463.2799207266443
 20
639.0125617266436
 30
0.0
 11
463.2799207266443
 21
622.0125617266436
 31
0.0
  0
LINE
  5
2AB2
330
2431
100
AcDbEntity
  8
1
 62
     7
100
AcDbLine
 10
468.2799207266442
 20
624.5125617266523
 30
0.0
 11
468.2799207266442
 21
639.0125617266436
 31
0.0
  0
LINE
  5
2AB3
330
2431
100
AcDbEntity
  8
1
 62
     7
100
AcDbLine
 10
473.9364207266434
 20
624.5125617266523
 30
0.0
 11
468.2799207266442
 21
624.5125617266523
 31
0.0
  0
LINE
  5
2AB4
330
2431
100
AcDbEntity
  8
1
 62
     7
100
AcDbLine
 10
480.2799207266444
 20
619.2625617266436
 30
0.0
 11
468.2799207266442
 21
619.2625617266436
 31
0.0
  0
LINE
  5
2AB5
330
2431
100
AcDbEntity
  8
1
 62
     7
100
AcDbLine
 10
467.9364207266435
 20
624.7625617266522
 30
0.0
 11
473.7364207266438
 21
624.7625617266522
 31
0.0
  0
LINE
  5
2AB6
330
2431
100
AcDbEntity
  8
1
 62
     7
100
AcDbLine
 10
463.2799207266443
 20
619.0125617266436
 30
0.0
 11
480.2799207266482
 21
619.0125617266436
 31
0.0
  0
LINE
  5
2AB7
330
2431
100
AcDbEntity
  8
1
 62
     7
100
AcDbLine
 10
463.5799207266443
 20
622.0125617266436
 30
0.0
 11
463.2799207266443
 21
622.0125617266436
 31
0.0
  0
LINE
  5
2AB8
330
2431
100
AcDbEntity
  8
1
 62
     7
100
AcDbLine
 10
463.2799207266443
 20
619.0125617266436
 30
0.0
 11
463.2799207266443
 21
622.0125617266436
 31
0.0
  0
LINE
  5
2AB9
330
2431
100
AcDbEntity
  8
1
 62
     7
100
AcDbLine
 10
468.2799207266442
 20
619.2625617266436
 30
0.0
 11
468.2799207266442
 21
619.0125617266436
 31
0.0
  0
LINE
  5
2ABA
330
2431
100
AcDbEntity
  8
1
 62
     7
100
AcDbLine
 10
468.2799207266442
 20
619.2625617266436
 30
0.0
 11
468.2799207266442
 21
624.5125617266523
 31
0.0
  0
LINE
  5
2ABB
330
2431
100
AcDbEntity
  8
1
 62
     7
100
AcDbLine
 10
467.9364207266435
 20
624.7625617266522
 30
0.0
 11
467.9364207266435
 21
619.0125617266436
 31
0.0
  0
LINE
  5
2ABC
330
2431
100
AcDbEntity
  8
1
 62
     7
100
AcDbLine
 10
467.9364207266435
 20
619.2625617266507
 30
0.0
 11
463.5799207266443
 21
619.2625617266507
 31
0.0
  0
LINE
  5
2ABD
330
2431
100
AcDbEntity
  8
1
 62
     7
100
AcDbLine
 10
463.5799207266443
 20
622.0125617266436
 30
0.0
 11
463.5799207266443
 21
619.0125617266436
 31
0.0
  0
LINE
  5
2ABE
330
2431
100
AcDbEntity
  8
1
 62
     7
100
AcDbLine
 10
473.9364207266434
 20
624.5125617266523
 30
0.0
 11
473.9364207266434
 21
619.0125617266436
 31
0.0
  0
LINE
  5
2ABF
330
2431
100
AcDbEntity
  8
1
 62
     7
100
AcDbLine
 10
480.2799207266444
 20
619.2625617266436
 30
0.0
 11
480.2799207266482
 21
619.0125617266436
 31
0.0
  0
LINE
  5
2AC0
330
2431
100
AcDbEntity
  8
1
 62
     7
100
AcDbLine
 10
480.2799207266444
 20
624.2625617266436
 30
0.0
 11
481.436420726643
 21
624.2625617266436
 31
0.0
  0
LINE
  5
2AC1
330
2431
100
AcDbEntity
  8
1
 62
     7
100
AcDbLine
 10
480.2799207266444
 20
624.2625617266436
 30
0.0
 11
480.2799207266444
 21
620.0125617266437
 31
0.0
  0
LINE
  5
2AC2
330
2431
100
AcDbEntity
  8
1
 62
     7
100
AcDbLine
 10
481.436420726643
 20
624.2625617266436
 30
0.0
 11
481.436420726643
 21
621.6625617266451
 31
0.0
  0
LINE
  5
2AC3
330
2431
100
AcDbEntity
  8
1
 62
     7
100
AcDbLine
 10
483.0799207266443
 20
621.6625617266451
 30
0.0
 11
481.436420726643
 21
621.6625617266451
 31
0.0
  0
LINE
  5
2AC4
330
2431
100
AcDbEntity
  8
1
 62
     7
100
AcDbLine
 10
481.436420726643
 20
621.6625617266451
 30
0.0
 11
481.436420726643
 21
620.0125617266437
 31
0.0
  0
LINE
  5
2AC5
330
2431
100
AcDbEntity
  8
1
 62
     7
100
AcDbLine
 10
483.0799207266443
 20
621.6625617266451
 30
0.0
 11
483.0799207266443
 21
619.0125617266436
 31
0.0
  0
LINE
  5
2AC6
330
2431
100
AcDbEntity
  8
1
 62
     7
100
AcDbLine
 10
481.436420726643
 20
619.0125617266436
 30
0.0
 11
481.436420726643
 21
618.1625617266452
 31
0.0
  0
LINE
  5
2AC7
330
2431
100
AcDbEntity
  8
1
 62
     7
100
AcDbLine
 10
481.436420726643
 20
618.1625617266452
 30
0.0
 11
483.0799207266443
 21
618.1625617266452
 31
0.0
  0
LINE
  5
2AC8
330
2431
100
AcDbEntity
  8
1
 62
     7
100
AcDbLine
 10
480.2799207266444
 20
620.0125617266437
 30
0.0
 11
481.436420726643
 21
620.0125617266437
 31
0.0
  0
LINE
  5
2AC9
330
2431
100
AcDbEntity
  8
1
 62
     7
100
AcDbLine
 10
480.2799207266444
 20
620.0125617266437
 30
0.0
 11
480.2799207266444
 21
619.2625617266436
 31
0.0
  0
LINE
  5
2ACA
330
2431
100
AcDbEntity
  8
1
 62
     7
100
AcDbLine
 10
481.436420726643
 20
620.0125617266437
 30
0.0
 11
481.436420726643
 21
619.0125617266436
 31
0.0
  0
LINE
  5
2ACB
330
2431
100
AcDbEntity
  8
1
 62
     7
100
AcDbLine
 10
483.0799207266443
 20
619.0125617266436
 30
0.0
 11
483.0799207266443
 21
618.1625617266452
 31
0.0
  0
LINE
  5
2ACC
330
2431
100
AcDbEntity
  8
1
 62
     7
100
AcDbLine
 10
480.2799207266444
 20
619.0125617266436
 30
0.0
 11
480.2799207266482
 21
619.0125617266436
 31
0.0
  0
LINE
  5
2ACD
330
2431
100
AcDbEntity
  8
1
 62
     7
100
AcDbLine
 10
480.2799207266444
 20
619.0125617266436
 30
0.0
 11
480.2799207266482
 21
619.0125617266436
 31
0.0
  0
LINE
  5
2ACE
330
2431
100
AcDbEntity
  8
1
 62
     7
100
AcDbLine
 10
480.2799207266482
 20
619.0125617266436
 30
0.0
 11
481.436420726643
 21
619.0125617266436
 31
0.0
  0
LINE
  5
2ACF
330
2431
100
AcDbEntity
  8
1
 62
     7
100
AcDbLine
 10
480.2799207266482
 20
619.0125617266436
 30
0.0
 11
480.2799207266444
 21
619.0125617266436
 31
0.0
  0
LINE
  5
2AD0
330
2431
100
AcDbEntity
  8
1
 62
     7
100
AcDbLine
 10
480.2799207266482
 20
619.0125617266436
 30
0.0
 11
480.2799207266444
 21
619.0125617266436
 31
0.0
  0
LINE
  5
2AD1
330
2431
100
AcDbEntity
  8
1
 62
     7
100
AcDbLine
 10
480.2799207266482
 20
619.0125617266436
 30
0.0
 11
480.2799207266444
 21
619.0125617266436
 31
0.0
  0
LINE
  5
2AD2
330
2431
100
AcDbEntity
  8
1
 62
     7
100
AcDbLine
 10
468.2799207266442
 20
642.7125617266481
 30
0.0
 11
473.9364207266434
 21
642.7125617266481
 31
0.0
  0
LINE
  5
2AD3
330
2431
100
AcDbEntity
  8
1
 62
     7
100
AcDbLine
 10
468.2799207266442
 20
639.0125617266436
 30
0.0
 11
473.7364207266438
 21
639.0125617266436
 31
0.0
  0
LINE
  5
2AD4
330
2431
100
AcDbEntity
  8
1
 62
     7
100
AcDbLine
 10
469.409420726644
 20
642.7445617266472
 30
0.0
 11
474.5264207266442
 21
642.7445617266472
 31
0.0
  0
LINE
  5
2AD5
330
2431
100
AcDbEntity
  8
1
 62
     7
100
AcDbLine
 10
463.4364207266435
 20
639.0125617266436
 30
0.0
 11
463.2799207266443
 21
639.0125617266436
 31
0.0
  0
LINE
  5
2AD6
330
2431
100
AcDbEntity
  8
1
 62
     7
100
AcDbLine
 10
463.2799207266443
 20
639.0125617266436
 30
0.0
 11
463.2799207266443
 21
639.2625617266475
 31
0.0
  0
LINE
  5
2AD7
330
2431
100
AcDbEntity
  8
1
 62
     7
100
AcDbLine
 10
463.2799207266443
 20
639.2625617266475
 30
0.0
 11
457.5799207266443
 21
639.2625617266475
 31
0.0
  0
LINE
  5
2AD8
330
2431
100
AcDbEntity
  8
1
 62
     7
100
AcDbLine
 10
468.2799207266442
 20
642.7125617266481
 30
0.0
 11
468.2799207266442
 21
639.0125617266436
 31
0.0
  0
LINE
  5
2AD9
330
2431
100
AcDbEntity
  8
1
 62
     7
100
AcDbLine
 10
465.4364207266434
 20
639.0125617266436
 30
0.0
 11
468.2799207266442
 21
639.0125617266436
 31
0.0
  0
LINE
  5
2ADA
330
2431
100
AcDbEntity
  8
1
 62
     7
100
AcDbLine
 10
468.8094207266441
 20
643.3445617266475
 30
0.0
 11
469.409420726644
 21
642.7445617266472
 31
0.0
  0
LINE
  5
2ADB
330
2431
100
AcDbEntity
  8
1
 62
     7
100
AcDbLine
 10
473.9364207266434
 20
642.7125617266481
 30
0.0
 11
480.2799207266444
 21
642.7125617266481
 31
0.0
  0
LINE
  5
2ADC
330
2431
100
AcDbEntity
  8
1
 62
     7
100
AcDbLine
 10
474.5264207266442
 20
642.7445617266472
 30
0.0
 11
479.6434207266445
 21
642.7445617266472
 31
0.0
  0
LINE
  5
2ADD
330
2431
100
AcDbEntity
  8
1
 62
     7
100
AcDbLine
 10
479.6434207266445
 20
642.7445617266472
 30
0.0
 11
480.2434207266442
 21
643.3445617266475
 31
0.0
  0
LINE
  5
2ADE
330
2431
100
AcDbEntity
  8
1
 62
     7
100
AcDbLine
 10
485.4799207266442
 20
618.5125617266432
 30
0.0
 11
485.4799207266442
 21
615.3125617266437
 31
0.0
  0
LINE
  5
2ADF
330
2431
100
AcDbEntity
  8
1
 62
     7
100
AcDbLine
 10
485.4799207266442
 20
615.3125617266437
 30
0.0
 11
485.4799207266442
 21
612.0264399153036
 31
0.0
  0
LINE
  5
2AE0
330
2431
100
AcDbEntity
  8
1
 62
     7
100
AcDbLine
 10
485.4799207266442
 20
618.5125617266432
 30
0.0
 11
484.9799207266443
 21
619.0125617266436
 31
0.0
  0
LINE
  5
2AE1
330
2431
100
AcDbEntity
  8
1
 62
     7
100
AcDbLine
 10
482.7799207266442
 20
658.2235617266474
 30
0.0
 11
483.7903879178934
 21
658.2765180681791
 31
0.0
  0
LINE
  5
2AE2
330
2431
100
AcDbEntity
  8
1
 62
     7
100
AcDbLine
 10
483.9213420828814
 20
659.09614037041
 30
0.0
 11
482.4367826211693
 21
660.5806998321225
 31
0.0
  0
LINE
  5
2AE3
330
2431
100
AcDbEntity
  8
1
 62
     7
100
AcDbLine
 10
461.1799207266438
 20
660.6625617266451
 30
0.0
 11
483.7799207266443
 21
660.6625617266451
 31
0.0
  0
LINE
  5
2AE4
330
2431
100
AcDbEntity
  8
1
 62
     7
100
AcDbLine
 10
483.9799207266443
 20
660.8625617266453
 30
0.0
 11
482.7799207266442
 21
659.662561726645
 31
0.0
  0
LINE
  5
2AE5
330
2431
100
AcDbEntity
  8
1
  6
CENTER
 62
     3
100
AcDbLine
 10
486.0310798855914
 20
673.0125617266448
 30
0.0
 11
462.9799207266444
 21
673.0125617266448
 31
0.0
  0
LINE
  5
2AE6
330
2431
100
AcDbEntity
  8
1
 62
     7
100
AcDbLine
 10
483.9799207266443
 20
668.5125617266448
 30
0.0
 11
476.9799207266443
 21
668.5125617266448
 31
0.0
  0
LINE
  5
2AE7
330
2431
100
AcDbEntity
  8
1
 62
     7
100
AcDbLine
 10
483.9799207266443
 20
677.5125617266448
 30
0.0
 11
476.9799207266443
 21
677.5125617266448
 31
0.0
  0
LINE
  5
2AE8
330
2431
100
AcDbEntity
  8
1
 62
     7
100
AcDbLine
 10
460.9799207266445
 20
664.6125617266457
 30
0.0
 11
460.9799207266445
 21
660.8625617266453
 31
0.0
  0
ARC
  5
2AE9
330
2431
100
AcDbEntity
  8
1
 62
     7
100
AcDbCircle
 10
474.5264207266442
 20
650.3320617266472
 30
0.0
 40
5.49999999999995
100
AcDbArc
 50
111.1215318066551
 51
239.3063771562296
  0
LINE
  5
2AEA
330
2431
100
AcDbEntity
  8
1
 62
     7
100
AcDbLine
 10
472.7299207266444
 20
660.6295617266472
 30
0.0
 11
463.7409207266443
 21
660.5198444550296
 31
0.0
  0
LINE
  5
2AEB
330
2431
100
AcDbEntity
  8
1
 62
     7
100
AcDbLine
 10
482.7799207266442
 20
659.662561726645
 30
0.0
 11
462.1799207266441
 21
659.662561726645
 31
0.0
  0
LINE
  5
2AEC
330
2431
100
AcDbEntity
  8
1
 62
     7
100
AcDbLine
 10
469.409420726644
 20
645.6025617266472
 30
0.0
 11
471.7189610653135
 21
645.6025617266472
 31
0.0
  0
LINE
  5
2AED
330
2431
100
AcDbEntity
  8
1
 62
     7
100
AcDbLine
 10
466.6829207266444
 20
655.4625617266473
 30
0.0
 11
472.5445100954602
 21
655.4625617266473
 31
0.0
  0
LINE
  5
2AEE
330
2431
100
AcDbEntity
  8
1
 62
     7
100
AcDbLine
 10
467.0829207266442
 20
658.2235617266474
 30
0.0
 11
474.5264207266442
 21
658.2235617266474
 31
0.0
  0
LINE
  5
2AEF
330
2431
100
AcDbEntity
  8
1
 62
     7
100
AcDbLine
 10
468.8264207266443
 20
654.3065617266472
 30
0.0
 11
470.6747028365188
 21
654.2581627562805
 31
0.0
  0
LINE
  5
2AF0
330
2431
100
AcDbEntity
  8
1
 62
     7
100
AcDbLine
 10
470.44388600542
 20
646.6465617266473
 30
0.0
 11
468.8264207266443
 21
646.6465617266473
 31
0.0
  0
LINE
  5
2AF1
330
2431
100
AcDbEntity
  8
1
 62
     7
100
AcDbLine
 10
466.382920726644
 20
646.1988875334896
 30
0.0
 11
466.382920726644
 21
655.7625617266473
 31
0.0
  0
LINE
  5
2AF2
330
2431
100
AcDbEntity
  8
1
 62
     7
100
AcDbLine
 10
466.9164207266443
 20
653.8565617266474
 30
0.0
 11
466.9164207266443
 21
650.3115176192353
 31
0.0
  0
LINE
  5
2AF3
330
2431
100
AcDbEntity
  8
1
 62
     7
100
AcDbLine
 10
468.8264207266443
 20
646.6465617266473
 30
0.0
 11
468.8264207266443
 21
654.3065617266472
 31
0.0
  0
ARC
  5
2AF4
330
2431
100
AcDbEntity
  8
1
 62
     7
100
AcDbCircle
 10
466.9750532005071
 20
647.0965617266472
 30
0.0
 40
0.4499999999998617
100
AcDbArc
 50
173.0000000000005
 51
270.0
  0
LINE
  5
2AF5
330
2431
100
AcDbEntity
  8
1
 62
     7
100
AcDbLine
 10
463.4364207266435
 20
650.0125617266436
 30
0.0
 11
465.4364207266434
 21
650.0125617266436
 31
0.0
  0
LINE
  5
2AF6
330
2431
100
AcDbEntity
  8
1
 62
     7
100
AcDbLine
 10
469.409420726644
 20
645.6025617266472
 30
0.0
 11
468.8094207266441
 21
645.0025617266471
 31
0.0
  0
LINE
  5
2AF7
330
2431
100
AcDbEntity
  8
1
 62
     7
100
AcDbLine
 10
466.5284074322685
 20
647.1514029311795
 30
0.0
 11
466.9164207266443
 21
650.3115176192353
 31
0.0
  0
LINE
  5
2AF8
330
2431
100
AcDbEntity
  8
1
 62
     7
100
AcDbLine
 10
466.9750532005071
 20
646.6465617266473
 30
0.0
 11
468.8264207266443
 21
646.6465617266473
 31
0.0
  0
LINE
  5
2AF9
330
2431
100
AcDbEntity
  8
1
 62
     7
100
AcDbLine
 10
460.9799207266445
 20
660.8625617266453
 30
0.0
 11
462.1799207266441
 21
659.662561726645
 31
0.0
  0
ARC
  5
2AFA
330
2431
100
AcDbEntity
  8
1
 62
     7
100
AcDbCircle
 10
467.3664207266443
 20
653.8565617266474
 30
0.0
 40
0.4499999999999886
100
AcDbArc
 50
90.0
 51
180.0
  0
LINE
  5
2AFB
330
2431
100
AcDbEntity
  8
1
 62
     7
100
AcDbLine
 10
466.382920726644
 20
657.8194165382139
 30
0.0
 11
467.0829207266442
 21
658.2235617266474
 31
0.0
  0
LINE
  5
2AFC
330
2431
100
AcDbEntity
  8
1
 62
     7
100
AcDbLine
 10
466.382920726644
 20
655.7625617266473
 30
0.0
 11
466.6829207266444
 21
655.4625617266473
 31
0.0
  0
LINE
  5
2AFD
330
2431
100
AcDbEntity
  8
1
 62
     7
100
AcDbLine
 10
466.382920726644
 20
657.8194165382139
 30
0.0
 11
466.382920726644
 21
655.7625617266473
 31
0.0
  0
LINE
  5
2AFE
330
2431
100
AcDbEntity
  8
1
 62
     7
100
AcDbLine
 10
467.3664207266443
 20
654.3065617266472
 30
0.0
 11
468.8264207266443
 21
654.3065617266472
 31
0.0
  0
ARC
  5
2AFF
330
2431
100
AcDbEntity
  8
1
 62
     7
100
AcDbCircle
 10
474.5264207266442
 20
650.3320617266472
 30
0.0
 40
5.5
100
AcDbArc
 50
300.6936228437702
 51
68.87846819334638
  0
LINE
  5
2B00
330
2431
100
AcDbEntity
  8
1
 62
     7
100
AcDbLine
 10
482.6699207266444
 20
655.7625617266473
 30
0.0
 11
482.6699207266444
 21
646.1988875334896
 31
0.0
  0
ARC
  5
2B01
330
2431
100
AcDbEntity
  8
1
 62
     7
100
AcDbCircle
 10
474.5264207266442
 20
650.3320617266472
 30
0.0
 40
5.5
100
AcDbArc
 50
270.0
 51
300.6936228437702
  0
ARC
  5
2B02
330
2431
100
AcDbEntity
  8
1
 62
     7
100
AcDbCircle
 10
474.5264207266442
 20
650.3320617266472
 30
0.0
 40
5.500000000000063
100
AcDbArc
 50
239.3063771562296
 51
270.0
  0
LINE
  5
2B03
330
2431
100
AcDbEntity
  8
1
 62
     7
100
AcDbLine
 10
477.3338803879754
 20
645.6025617266472
 30
0.0
 11
479.6434207266445
 21
645.6025617266472
 31
0.0
  0
LINE
  5
2B04
330
2431
100
AcDbEntity
  8
1
 62
     7
100
AcDbLine
 10
480.2434207266442
 20
645.0025617266471
 30
0.0
 11
479.6434207266445
 21
645.6025617266472
 31
0.0
  0
LINE
  5
2B05
330
2431
100
AcDbEntity
  8
1
 62
     7
100
AcDbLine
 10
478.1299207266442
 20
660.6295617266472
 30
0.0
 11
472.7299207266444
 21
660.6295617266472
 31
0.0
  0
LINE
  5
2B06
330
2431
100
AcDbEntity
  8
1
 62
     7
100
AcDbLine
 10
474.5264207266442
 20
658.2235617266474
 30
0.0
 11
481.9699207266443
 21
658.2235617266474
 31
0.0
  0
LINE
  5
2B07
330
2431
100
AcDbEntity
  8
1
 62
     7
100
AcDbLine
 10
476.5083313578283
 20
655.4625617266473
 30
0.0
 11
482.3699207266443
 21
655.4625617266473
 31
0.0
  0
ARC
  5
2B08
330
2431
100
AcDbEntity
  8
1
 62
     7
100
AcDbCircle
 10
474.5264207266442
 20
650.3320617266472
 30
0.0
 40
5.499999999999863
100
AcDbArc
 50
68.87846819334638
 51
90.0
  0
ARC
  5
2B09
330
2431
100
AcDbEntity
  8
1
 62
     7
100
AcDbCircle
 10
474.5264207266442
 20
650.3320617266472
 30
0.0
 40
5.5
100
AcDbArc
 50
90.0
 51
111.1215318066551
  0
LINE
  5
2B0A
330
2431
100
AcDbEntity
  8
1
 62
     7
100
AcDbLine
 10
478.1299207266442
 20
660.6295617266472
 30
0.0
 11
482.4367826211693
 21
660.5806998321225
 31
0.0
  0
LINE
  5
2B0B
330
2431
100
AcDbEntity
  8
1
 62
     7
100
AcDbLine
 10
482.6699207266444
 20
655.7625617266473
 30
0.0
 11
482.6699207266444
 21
657.8194165382139
 31
0.0
  0
LINE
  5
2B0C
330
2431
100
AcDbEntity
  8
1
 62
     7
100
AcDbLine
 10
482.3699207266443
 20
655.4625617266473
 30
0.0
 11
482.6699207266444
 21
655.7625617266473
 31
0.0
  0
LINE
  5
2B0D
330
2431
100
AcDbEntity
  8
1
 62
     7
100
AcDbLine
 10
481.9699207266443
 20
658.2235617266474
 30
0.0
 11
482.6699207266444
 21
657.8194165382139
 31
0.0
  0
LINE
  5
2B0E
330
2431
100
AcDbEntity
  8
1
 62
     7
100
AcDbLine
 10
464.9799207266444
 20
670.6125617266446
 30
0.0
 11
474.879920726644
 21
670.6125617266446
 31
0.0
  0
LINE
  5
2B0F
330
2431
100
AcDbEntity
  8
1
 62
     3
100
AcDbLine
 10
464.9799207266444
 20
670.0125617266446
 30
0.0
 11
475.4799207266442
 21
670.0125617266446
 31
0.0
  0
LINE
  5
2B10
330
2431
100
AcDbEntity
  8
1
 62
     7
100
AcDbLine
 10
464.9799207266444
 20
675.4125617266448
 30
0.0
 11
474.8799207266444
 21
675.4125617266448
 31
0.0
  0
LINE
  5
2B11
330
2431
100
AcDbEntity
  8
1
 62
     3
100
AcDbLine
 10
464.9799207266444
 20
676.0125617266446
 30
0.0
 11
475.4799207266446
 21
676.0125617266446
 31
0.0
  0
LINE
  5
2B12
330
2431
100
AcDbEntity
  8
1
 62
     7
100
AcDbLine
 10
461.3799207266445
 20
665.0125617266455
 30
0.0
 11
464.6799207266443
 21
665.0125617266455
 31
0.0
  0
LINE
  5
2B13
330
2431
100
AcDbEntity
  8
1
 62
     7
100
AcDbLine
 10
460.9799207266445
 20
664.6125617266457
 30
0.0
 11
461.3799207266445
 21
665.0125617266455
 31
0.0
  0
ARC
  5
2B14
330
2431
100
AcDbEntity
  8
1
 62
     7
100
AcDbCircle
 10
464.6799207266443
 20
665.3125617266458
 30
0.0
 40
0.2999999999999972
100
AcDbArc
 50
270.0
 51
0.0
  0
LINE
  5
2B15
330
2431
100
AcDbEntity
  8
1
 62
     7
100
AcDbLine
 10
474.879920726644
 20
675.4125617266445
 30
0.0
 11
474.879920726644
 21
670.6125617266446
 31
0.0
  0
LINE
  5
2B16
330
2431
100
AcDbEntity
  8
1
 62
     7
100
AcDbLine
 10
476.9799207266443
 20
677.5125617266448
 30
0.0
 11
476.9799207266443
 21
668.5125617266448
 31
0.0
  0
LINE
  5
2B17
330
2431
100
AcDbEntity
  8
1
 62
     7
100
AcDbLine
 10
476.9799207266443
 20
668.5125617266448
 30
0.0
 11
474.879920726644
 21
670.6125617266446
 31
0.0
  0
LINE
  5
2B18
330
2431
100
AcDbEntity
  8
1
 62
     7
100
AcDbLine
 10
474.8799207266444
 20
675.4125617266448
 30
0.0
 11
476.9799207266443
 21
677.5125617266448
 31
0.0
  0
LINE
  5
2B19
330
2431
100
AcDbEntity
  8
1
 62
     7
100
AcDbLine
 10
483.9799207266443
 20
660.8625617266453
 30
0.0
 11
483.9799207266443
 21
665.0125617266436
 31
0.0
  0
LINE
  5
2B1A
330
2431
100
AcDbEntity
  8
1
  6
DIVIDE
 62
     7
100
AcDbLine
 10
485.9799207266442
 20
651.4042449425477
 30
0.0
 11
485.9799207266442
 21
662.5125617266473
 31
0.0
  0
LINE
  5
2B1B
330
2431
100
AcDbEntity
  8
1
  6
DIVIDE
 62
     7
100
AcDbLine
 10
485.9799207266442
 20
651.4042449425477
 30
0.0
 11
485.9799207266442
 21
662.5125617266473
 31
0.0
  0
ARC
  5
2B1C
330
2431
100
AcDbEntity
  8
1
 62
     7
100
AcDbCircle
 10
483.7799207266443
 20
658.47624397513
 30
0.0
 40
0.2000000000000054
100
AcDbArc
 50
273.0000000001344
 51
0.0
  0
ARC
  5
2B1D
330
2431
100
AcDbEntity
  8
1
 62
     7
100
AcDbCircle
 10
483.7799207266443
 20
658.9547190141725
 30
0.0
 40
0.2000000000000455
100
AcDbArc
 50
0.0
 51
45.00000000006908
  0
LINE
  5
2B1E
330
2431
100
AcDbEntity
  8
1
 62
     7
100
AcDbLine
 10
483.9799207266443
 20
658.47624397513
 30
0.0
 11
483.9799207266443
 21
658.9547190141725
 31
0.0
  0
LINE
  5
2B1F
330
2431
100
AcDbEntity
  8
1
  6
DIVIDE
 62
     7
100
AcDbLine
 10
485.9799207266442
 20
662.5125617266473
 30
0.0
 11
483.9799207266443
 21
662.5125617266473
 31
0.0
  0
ARC
  5
2B20
330
2431
100
AcDbEntity
  8
1
 62
     7
100
AcDbCircle
 10
695.2825700350246
 20
603.0125617266458
 30
0.0
 40
57.64999999999933
100
AcDbArc
 50
121.8925700460394
 51
238.1074299539605
  0
ARC
  5
2B21
330
2431
100
AcDbEntity
  8
1
 62
     7
100
AcDbCircle
 10
695.2825700350246
 20
603.0125617266458
 30
0.0
 40
56.64999999999928
100
AcDbArc
 50
122.5241073897707
 51
237.4758926102291
  0
ARC
  5
2B22
330
2431
100
AcDbEntity
  8
1
  6
CENTER
 62
     3
100
AcDbCircle
 10
695.2825700350246
 20
603.0125617266458
 30
0.0
 40
70.00000000000004
100
AcDbArc
 50
115.7926780244445
 51
244.2073219755554
  0
ARC
  5
2B23
330
2431
100
AcDbEntity
  8
1
 62
     7
100
AcDbCircle
 10
648.9469260434145
 20
612.6412192723681
 30
0.0
 40
5.499999999999515
100
AcDbArc
 50
190.5513400799482
 51
319.3117104128247
  0
ARC
  5
2B24
330
2431
100
AcDbEntity
  8
1
 62
     7
100
AcDbCircle
 10
695.2825700350246
 20
603.0125617266458
 30
0.0
 40
55.21700000000002
100
AcDbArc
 50
123.4773786520331
 51
236.5226213479668
  0
ARC
  5
2B25
330
2431
100
AcDbEntity
  8
1
 62
     7
100
AcDbCircle
 10
695.2825700350246
 20
603.0125617266458
 30
0.0
 40
52.45599999999997
100
AcDbArc
 50
125.4956647924093
 51
234.5043352075906
  0
ARC
  5
2B26
330
2431
100
AcDbEntity
  8
1
 62
     7
100
AcDbCircle
 10
695.2825700350246
 20
603.0125617266458
 30
0.0
 40
42.59599999999996
100
AcDbArc
 50
135.6470143852963
 51
224.3529856147036
  0
ARC
  5
2B27
330
2431
100
AcDbEntity
  8
1
 62
     7
100
AcDbCircle
 10
695.2825700350246
 20
603.0125617266458
 30
0.0
 40
39.73799999999999
100
AcDbArc
 50
140.0382575268255
 51
219.9617424731744
  0
ARC
  5
2B28
330
2431
100
AcDbEntity
  8
1
 62
     7
100
AcDbCircle
 10
656.6190613633588
 20
575.7208771423988
 30
0.0
 40
5.499999999999833
100
AcDbArc
 50
237.5078618190784
 51
6.268232151955815
  0
ARC
  5
2B29
330
2431
100
AcDbEntity
  8
1
 62
     7
100
AcDbCircle
 10
695.2825700350246
 20
603.0125617266458
 30
0.0
 40
43.63999999999995
100
AcDbArc
 50
221.1413098500733
 51
224.945646671666
  0
ARC
  5
2B2A
330
2431
100
AcDbEntity
  8
1
 62
     7
100
AcDbCircle
 10
656.6190613633588
 20
575.7208771423988
 30
0.0
 40
5.969999999999981
100
AcDbArc
 50
266.1209976905691
 51
346.241214911242
  0
LINE
  5
2B2B
330
2431
100
AcDbEntity
  8
1
  6
DASHDOT
 62
     3
100
AcDbLine
 10
640.5064632456583
 20
571.3875617266459
 30
0.0
 11
628.8151202945696
 21
564.637561726646
 31
0.0
  0
CIRCLE
  5
2B2C
330
2431
100
AcDbEntity
  8
1
 62
     7
100
AcDbCircle
 10
634.6607917701131
 20
568.0125617266459
 30
0.0
 40
4.500000000000023
  0
ARC
  5
2B2D
330
2431
100
AcDbEntity
  8
1
 62
     7
100
AcDbCircle
 10
695.2825700350246
 20
603.0125617266458
 30
0.0
 40
51.30000000000018
100
AcDbArc
 50
220.3992039507806
 51
225.6877525709544
  0
ARC
  5
2B2E
330
2431
100
AcDbEntity
  8
1
 62
     7
100
AcDbCircle
 10
665.4160175258218
 20
566.3016370384139
 30
0.0
 40
5.500000000000198
100
AcDbArc
 50
79.81872436977714
 51
208.5790947026652
  0
ARC
  5
2B2F
330
2431
100
AcDbEntity
  8
1
 62
     7
100
AcDbCircle
 10
665.4160175258218
 20
566.3016370384139
 30
0.0
 40
5.969999999999997
100
AcDbArc
 50
99.84574161049385
 51
179.9659588311686
  0
ARC
  5
2B30
330
2431
100
AcDbEntity
  8
1
 62
     7
100
AcDbCircle
 10
665.4160175258218
 20
566.3016370384139
 30
0.0
 40
5.500000000000198
100
AcDbArc
 50
79.81872436977714
 51
96.17457882918325
  0
ARC
  5
2B31
330
2431
100
AcDbEntity
  8
1
 62
     7
100
AcDbCircle
 10
648.0673966986976
 20
599.7829553929561
 30
0.0
 40
5.500000000000079
100
AcDbArc
 50
32.86220263065411
 51
161.6225729635332
  0
CIRCLE
  5
2B32
330
2431
100
AcDbEntity
  8
1
 62
     7
100
AcDbCircle
 10
625.2825700350245
 20
603.0125617266458
 30
0.0
 40
4.499999999999912
  0
LINE
  5
2B33
330
2431
100
AcDbEntity
  8
1
  6
DASHDOT
 62
     3
100
AcDbLine
 10
632.0325700350247
 20
603.0125617266459
 30
0.0
 11
618.5325700350247
 21
603.0125617266459
 31
0.0
  0
ARC
  5
2B34
330
2431
100
AcDbEntity
  8
1
 62
     7
100
AcDbCircle
 10
650.6896007652905
 20
587.1642166408478
 30
0.0
 40
5.499999999999886
100
AcDbArc
 50
48.5143765436997
 51
177.2747468765794
  0
ARC
  5
2B35
330
2431
100
AcDbEntity
  8
1
 62
     7
100
AcDbCircle
 10
650.6896007652905
 20
587.1642166408478
 30
0.0
 40
5.969999999999796
100
AcDbArc
 50
68.54139378441775
 51
148.6616110050825
  0
ARC
  5
2B36
330
2431
100
AcDbEntity
  8
1
 62
     7
100
AcDbCircle
 10
695.2825700350246
 20
603.0125617266458
 30
0.0
 40
51.29999999999991
100
AcDbArc
 50
189.0948561246951
 51
194.3834047448677
  0
ARC
  5
2B37
330
2431
100
AcDbEntity
  8
1
 62
     7
100
AcDbCircle
 10
650.6896007652905
 20
587.1642166408478
 30
0.0
 40
5.500000000000135
100
AcDbArc
 50
221.855687906031
 51
350.6160582389126
  0
ARC
  5
2B38
330
2431
100
AcDbEntity
  8
1
 62
     7
100
AcDbCircle
 10
656.6190613633588
 20
575.7208771423988
 30
0.0
 40
5.500000000000213
100
AcDbArc
 50
64.16655045673806
 51
192.9269207896241
  0
ARC
  5
2B39
330
2431
100
AcDbEntity
  8
1
 62
     7
100
AcDbCircle
 10
656.6190613633588
 20
575.7208771423988
 30
0.0
 40
5.970000000000045
100
AcDbArc
 50
84.19356769745734
 51
164.3137849181236
  0
ARC
  5
2B3A
330
2431
100
AcDbEntity
  8
1
 62
     7
100
AcDbCircle
 10
695.2825700350246
 20
603.0125617266458
 30
0.0
 40
43.63999999999978
100
AcDbArc
 50
205.4891359370315
 51
209.2934727586215
  0
ARC
  5
2B3B
330
2431
100
AcDbEntity
  8
1
 62
     7
100
AcDbCircle
 10
650.6896007652905
 20
587.1642166408478
 30
0.0
 40
5.970000000000093
100
AcDbArc
 50
250.4688237775194
 51
330.5890409981955
  0
ARC
  5
2B3C
330
2431
100
AcDbEntity
  8
1
 62
     7
100
AcDbCircle
 10
695.2825700350246
 20
603.0125617266458
 30
0.0
 40
51.30000000000023
100
AcDbArc
 50
204.7470300377375
 51
210.0355786579123
  0
ARC
  5
2B3D
330
2431
100
AcDbEntity
  8
1
 62
     7
100
AcDbCircle
 10
648.0673966986976
 20
599.7829553929561
 30
0.0
 40
5.499999999999403
100
AcDbArc
 50
206.2035139929899
 51
334.9638843258679
  0
ARC
  5
2B3E
330
2431
100
AcDbEntity
  8
1
 62
     7
100
AcDbCircle
 10
648.0673966986976
 20
599.7829553929561
 30
0.0
 40
5.969999999999851
100
AcDbArc
 50
234.8166498644842
 51
314.9368670851544
  0
ARC
  5
2B3F
330
2431
100
AcDbEntity
  8
1
 62
     7
100
AcDbCircle
 10
695.2825700350246
 20
603.0125617266458
 30
0.0
 40
43.64000000000014
100
AcDbArc
 50
189.8369620239862
 51
193.641298845579
  0
ARC
  5
2B40
330
2431
100
AcDbEntity
  8
1
 62
     7
100
AcDbCircle
 10
648.0673966986976
 20
599.7829553929561
 30
0.0
 40
5.970000000000331
100
AcDbArc
 50
52.88921987136237
 51
133.0094370920376
  0
ARC
  5
2B41
330
2431
100
AcDbEntity
  8
1
 62
     7
100
AcDbCircle
 10
648.9469260434145
 20
612.6412192723681
 30
0.0
 40
5.969999999999892
100
AcDbArc
 50
219.1644759514373
 51
299.2846931721139
  0
ARC
  5
2B42
330
2431
100
AcDbEntity
  8
1
 62
     7
100
AcDbCircle
 10
695.2825700350246
 20
603.0125617266458
 30
0.0
 40
51.30000000000032
100
AcDbArc
 50
173.4426822116519
 51
178.7312308318265
  0
ARC
  5
2B43
330
2431
100
AcDbEntity
  8
1
 62
     7
100
AcDbCircle
 10
695.2825700350246
 20
603.0125617266458
 30
0.0
 40
43.64000000000002
100
AcDbArc
 50
174.1847881109409
 51
177.9891249325346
  0
ARC
  5
2B44
330
2431
100
AcDbEntity
  8
1
 62
     7
100
AcDbCircle
 10
695.2825700350246
 20
603.0125617266458
 30
0.0
 40
51.30000000000006
100
AcDbArc
 50
126.4861604725217
 51
131.7747090926954
  0
LINE
  5
2B45
330
2431
100
AcDbEntity
  8
1
  6
DASHDOT
 62
     3
100
AcDbLine
 10
640.5064632456583
 20
634.6375617266458
 30
0.0
 11
628.8151202945696
 21
641.3875617266458
 31
0.0
  0
CIRCLE
  5
2B46
330
2431
100
AcDbEntity
  8
1
 62
     7
100
AcDbCircle
 10
634.6607917701131
 20
638.0125617266457
 30
0.0
 40
4.499999999999928
  0
ARC
  5
2B47
330
2431
100
AcDbEntity
  8
1
 62
     7
100
AcDbCircle
 10
653.2629581315236
 20
624.7853696697911
 30
0.0
 40
5.49999999999948
100
AcDbArc
 50
1.557854804570628
 51
130.3182251374506
  0
ARC
  5
2B48
330
2431
100
AcDbEntity
  8
1
 62
     7
100
AcDbCircle
 10
653.2629581315236
 20
624.7853696697911
 30
0.0
 40
5.50000000000088
100
AcDbArc
 50
174.8991661669022
 51
303.6595364997757
  0
ARC
  5
2B49
330
2431
100
AcDbEntity
  8
1
 62
     7
100
AcDbCircle
 10
648.9469260434145
 20
612.6412192723681
 30
0.0
 40
5.500000000000142
100
AcDbArc
 50
17.21002871761142
 51
145.9703990504886
  0
ARC
  5
2B4A
330
2431
100
AcDbEntity
  8
1
 62
     7
100
AcDbCircle
 10
648.9469260434145
 20
612.6412192723681
 30
0.0
 40
5.970000000000168
100
AcDbArc
 50
37.2370459583236
 51
117.3572631789947
  0
ARC
  5
2B4B
330
2431
100
AcDbEntity
  8
1
 62
     7
100
AcDbCircle
 10
695.2825700350246
 20
603.0125617266458
 30
0.0
 40
43.64000000000022
100
AcDbArc
 50
158.5326141978981
 51
162.336951019492
  0
ARC
  5
2B4C
330
2431
100
AcDbEntity
  8
1
 62
     7
100
AcDbCircle
 10
653.2629581315236
 20
624.7853696697911
 30
0.0
 40
5.970000000000013
100
AcDbArc
 50
203.5123020383944
 51
283.6325192590593
  0
ARC
  5
2B4D
330
2431
100
AcDbEntity
  8
1
 62
     7
100
AcDbCircle
 10
695.2825700350246
 20
603.0125617266458
 30
0.0
 40
51.29999999999956
100
AcDbArc
 50
157.7905082986085
 51
163.079056918783
  0
ARC
  5
2B4E
330
2431
100
AcDbEntity
  8
1
 62
     7
100
AcDbCircle
 10
660.6953926075798
 20
635.3147305060401
 30
0.0
 40
5.499999999999673
100
AcDbArc
 50
159.2469922538579
 51
288.0073625867386
  0
ARC
  5
2B4F
330
2431
100
AcDbEntity
  8
1
 62
     7
100
AcDbCircle
 10
653.2629581315236
 20
624.7853696697911
 30
0.0
 40
5.969999999999926
100
AcDbArc
 50
21.58487204528191
 51
101.70508926596
  0
ARC
  5
2B50
330
2431
100
AcDbEntity
  8
1
 62
     7
100
AcDbCircle
 10
660.6953926075798
 20
635.3147305060401
 30
0.0
 40
5.969999999999576
100
AcDbArc
 50
187.8601281253494
 51
267.9803453460339
  0
ARC
  5
2B51
330
2431
100
AcDbEntity
  8
1
 62
     7
100
AcDbCircle
 10
695.2825700350246
 20
603.0125617266458
 30
0.0
 40
51.30000000000006
100
AcDbArc
 50
142.1383343855655
 51
147.4268830057385
  0
ARC
  5
2B52
330
2431
100
AcDbEntity
  8
1
 62
     7
100
AcDbCircle
 10
660.6953926075798
 20
635.3147305060401
 30
0.0
 40
5.500000000000484
100
AcDbArc
 50
345.9056808915241
 51
114.6660512243948
  0
ARC
  5
2B53
330
2431
100
AcDbEntity
  8
1
 62
     7
100
AcDbCircle
 10
660.6953926075798
 20
635.3147305060401
 30
0.0
 40
5.500000000000484
100
AcDbArc
 50
345.9056808915241
 51
41.34572467069405
  0
ARC
  5
2B54
330
2431
100
AcDbEntity
  8
1
 62
     7
100
AcDbCircle
 10
695.2825700350246
 20
603.0125617266458
 30
0.0
 40
43.6399999999996
100
AcDbArc
 50
142.8804402848569
 51
146.6847771064495
  0
ARC
  5
2B55
330
2431
100
AcDbEntity
  8
1
 62
     7
100
AcDbCircle
 10
660.6953926075798
 20
635.3147305060401
 30
0.0
 40
5.970000000000392
100
AcDbArc
 50
5.932698132237226
 51
86.05291535290101
  0
ARC
  5
2B56
330
2431
100
AcDbEntity
  8
1
 62
     7
100
AcDbCircle
 10
695.2825700350246
 20
603.0125617266458
 30
0.0
 40
43.63999999999975
100
AcDbArc
 50
127.2282663718128
 51
131.0326031934038
  0
ARC
  5
2B57
330
2431
100
AcDbEntity
  8
1
 62
     7
100
AcDbCircle
 10
670.6929998076227
 20
643.4483872565106
 30
0.0
 40
5.970000000000132
100
AcDbArc
 50
172.2079542123083
 51
252.3281714329846
  0
ARC
  5
2B58
330
2431
100
AcDbEntity
  8
1
 62
     7
100
AcDbCircle
 10
695.2825700350246
 20
603.0125617266458
 30
0.0
 40
43.63999999999975
100
AcDbArc
 50
127.2282663718128
 51
131.0326031934038
  0
ARC
  5
2B59
330
2431
100
AcDbEntity
  8
1
 62
     7
100
AcDbCircle
 10
670.6929998076227
 20
643.4483872565106
 30
0.0
 40
5.969999999999932
100
AcDbArc
 50
190.5776121061004
 51
252.3281714329846
  0
ARC
  5
2B5A
330
2431
100
AcDbEntity
  8
1
 62
     7
100
AcDbCircle
 10
660.6953926075798
 20
635.3147305060401
 30
0.0
 40
5.970000000000392
100
AcDbArc
 50
5.932698132237226
 51
46.24041261333569
  0
CIRCLE
  5
2B5B
330
2431
100
AcDbEntity
  8
1
 62
     7
100
AcDbCircle
 10
660.2825700350247
 20
663.6343399915562
 30
0.0
 40
4.500000000000197
  0
LINE
  5
2B5C
330
2431
100
AcDbEntity
  8
1
  6
DASHDOT
 62
     3
100
AcDbLine
 10
663.6575700350247
 20
657.7886685160115
 30
0.0
 11
656.9075700350246
 21
669.4800114671017
 31
0.0
  0
LINE
  5
2B5D
330
2431
100
AcDbEntity
  8
1
 62
     7
100
AcDbLine
 10
483.5799207266442
 20
680.5125617266553
 30
0.0
 11
465.3799207266444
 21
680.5125617266553
 31
0.0
  0
LINE
  5
2B5E
330
2431
100
AcDbEntity
  8
1
 62
     7
100
AcDbLine
 10
464.9799207266444
 20
680.1125617266554
 30
0.0
 11
465.3799207266444
 21
680.5125617266553
 31
0.0
  0
LINE
  5
2B5F
330
2431
100
AcDbEntity
  8
1
 62
     7
100
AcDbLine
 10
483.5799207266442
 20
680.5125617266553
 30
0.0
 11
483.9799207266443
 21
680.1125617266554
 31
0.0
  0
LINE
  5
2B60
330
2431
100
AcDbEntity
  8
1
  6
CENTER
 62
     3
100
AcDbLine
 10
695.2825700350246
 20
679.7625617266455
 30
0.0
 11
695.2825700350246
 21
666.2625617266455
 31
0.0
  0
LINE
  5
2B61
330
2431
100
AcDbEntity
  8
1
  6
DASHDOT
 62
     3
100
AcDbLine
 10
695.2825700350246
 20
679.7625617266455
 30
0.0
 11
695.2825700350246
 21
666.2625617266455
 31
0.0
  0
LINE
  5
2B62
330
2431
100
AcDbEntity
  8
1
  6
CENTER
 62
     3
100
AcDbLine
 10
782.6103372322768
 20
603.0125617266458
 30
0.0
 11
765.2825700350246
 21
603.0125617266458
 31
0.0
  0
CIRCLE
  5
2B63
330
2431
100
AcDbEntity
  8
1
 62
     7
100
AcDbCircle
 10
695.2825700350246
 20
603.0125617266458
 30
0.0
 40
21.24999999999789
  0
CIRCLE
  5
2B64
330
2431
100
AcDbEntity
  8
1
 62
     7
100
AcDbCircle
 10
695.2825700350246
 20
603.0125617266458
 30
0.0
 40
15.9999997596401
  0
ARC
  5
2B65
330
2431
100
AcDbEntity
  8
0
 62
     7
100
AcDbCircle
 10
695.2825700350228
 20
603.9458950459938
 30
0.0
 40
17.67999973442135
100
AcDbArc
 50
289.2696388779719
 51
89.99999999999349
  0
ARC
  5
2B66
330
2431
100
AcDbEntity
  8
0
 62
     7
100
AcDbCircle
 10
695.2825700350267
 20
603.9458950459938
 30
0.0
 40
17.6799997344213
100
AcDbArc
 50
90.00000000000651
 51
250.730361122028
  0
ARC
  5
2B67
330
2431
100
AcDbEntity
  8
1
 62
     7
100
AcDbCircle
 10
695.2825700350246
 20
603.0125617266436
 30
0.0
 40
9.5
100
AcDbArc
 50
270.0
 51
71.59151982941359
  0
ARC
  5
2B68
330
2431
100
AcDbEntity
  8
1
 62
     7
100
AcDbCircle
 10
695.2825700350246
 20
603.0125617266436
 30
0.0
 40
9.500000000000012
100
AcDbArc
 50
108.4084801705863
 51
270.0
  0
ARC
  5
2B69
330
2431
100
AcDbEntity
  8
1
 62
     7
100
AcDbCircle
 10
741.6182140266348
 20
612.6412192723681
 30
0.0
 40
5.499999999999952
100
AcDbArc
 50
220.6882895871752
 51
349.4486599200551
  0
LINE
  5
2B6A
330
2431
100
AcDbEntity
  8
1
  6
CENTER
 62
     3
100
AcDbLine
 10
695.2825700350246
 20
624.2625617266436
 30
0.0
 11
695.2825700350246
 21
593.5125617266437
 31
0.0
  0
ARC
  5
2B6B
330
2431
100
AcDbEntity
  8
1
 62
     7
100
AcDbCircle
 10
725.1491225442273
 20
566.3016370384139
 30
0.0
 40
5.500000000000487
100
AcDbArc
 50
158.0795939350026
 51
286.8399642678745
  0
ARC
  5
2B6C
330
2431
100
AcDbEntity
  8
1
 62
     7
100
AcDbCircle
 10
695.2825700350246
 20
603.0125617266458
 30
0.0
 40
51.29999999999981
100
AcDbArc
 50
298.6600735159998
 51
303.948622136173
  0
ARC
  5
2B6D
330
2431
100
AcDbEntity
  8
1
 62
     7
100
AcDbCircle
 10
725.1491225442273
 20
566.3016370384139
 30
0.0
 40
5.970000000000204
100
AcDbArc
 50
178.1066111757153
 51
258.2268283963882
  0
ARC
  5
2B6E
330
2431
100
AcDbEntity
  8
1
 62
     7
100
AcDbCircle
 10
701.7267247868285
 20
556.1278539875035
 30
0.0
 40
5.499999999999535
100
AcDbArc
 50
126.7752461089076
 51
255.5356164418018
  0
ARC
  5
2B6F
330
2431
100
AcDbEntity
  8
1
 62
     7
100
AcDbCircle
 10
695.2825700350246
 20
603.0125617266458
 30
0.0
 40
51.29999999999993
100
AcDbArc
 50
267.3557256899134
 51
272.6442743100865
  0
ARC
  5
2B70
330
2431
100
AcDbEntity
  8
1
 62
     7
100
AcDbCircle
 10
701.7267247868285
 20
556.1278539875035
 30
0.0
 40
5.969999999999838
100
AcDbArc
 50
146.8022633496289
 51
226.9224805703062
  0
ARC
  5
2B71
330
2431
100
AcDbEntity
  8
1
 62
     7
100
AcDbCircle
 10
695.2825700350246
 20
603.0125617266458
 30
0.0
 40
43.63999999999995
100
AcDbArc
 50
268.0978315892045
 51
271.9021684107971
  0
ARC
  5
2B72
330
2431
100
AcDbEntity
  8
1
 62
     7
100
AcDbCircle
 10
676.4280392575066
 20
559.6050782772494
 30
0.0
 40
5.500000000000056
100
AcDbArc
 50
95.47089828282764
 51
224.2312686157033
  0
ARC
  5
2B73
330
2431
100
AcDbEntity
  8
1
 62
     7
100
AcDbCircle
 10
676.4280392575066
 20
559.6050782772494
 30
0.0
 40
5.499999999999976
100
AcDbArc
 50
268.8122096451623
 51
37.5725799780455
  0
ARC
  5
2B74
330
2431
100
AcDbEntity
  8
1
 62
     7
100
AcDbCircle
 10
688.8384152832209
 20
556.1278539875035
 30
0.0
 40
5.499999999999863
100
AcDbArc
 50
284.464383558198
 51
53.22475389109372
  0
ARC
  5
2B75
330
2431
100
AcDbEntity
  8
1
 62
     7
100
AcDbCircle
 10
676.4280392575066
 20
559.6050782772494
 30
0.0
 40
5.500000000000056
100
AcDbArc
 50
95.47089828282764
 51
224.2312686157033
  0
ARC
  5
2B76
330
2431
100
AcDbEntity
  8
1
 62
     7
100
AcDbCircle
 10
688.8384152832209
 20
556.1278539875035
 30
0.0
 40
5.500000000000174
100
AcDbArc
 50
111.1230721958782
 51
239.8834425287427
  0
ARC
  5
2B77
330
2431
100
AcDbEntity
  8
1
 62
     7
100
AcDbCircle
 10
688.8384152832209
 20
556.1278539875035
 30
0.0
 40
5.969999999999537
100
AcDbArc
 50
313.0775194296937
 51
33.19773665037105
  0
ARC
  5
2B78
330
2431
100
AcDbEntity
  8
1
 62
     7
100
AcDbCircle
 10
688.8384152832209
 20
556.1278539875035
 30
0.0
 40
5.970000000000553
100
AcDbArc
 50
131.150089436593
 51
211.270306657256
  0
ARC
  5
2B79
330
2431
100
AcDbEntity
  8
1
 62
     7
100
AcDbCircle
 10
676.4280392575066
 20
559.6050782772494
 30
0.0
 40
5.969999999999656
100
AcDbArc
 50
297.4253455166502
 51
17.54556273732727
  0
ARC
  5
2B7A
330
2431
100
AcDbEntity
  8
1
 62
     7
100
AcDbCircle
 10
695.2825700350246
 20
603.0125617266458
 30
0.0
 40
51.30000000000013
100
AcDbArc
 50
251.7035517768686
 51
256.9921003970428
  0
ARC
  5
2B7B
330
2431
100
AcDbEntity
  8
1
 62
     7
100
AcDbCircle
 10
695.2825700350246
 20
603.0125617266458
 30
0.0
 40
43.63999999999989
100
AcDbArc
 50
252.4456576761596
 51
256.2499944977525
  0
ARC
  5
2B7C
330
2431
100
AcDbEntity
  8
1
 62
     7
100
AcDbCircle
 10
695.2825700350246
 20
603.0125617266458
 30
0.0
 40
43.63999999999998
100
AcDbArc
 50
236.7934837631161
 51
240.597820584709
  0
ARC
  5
2B7D
330
2431
100
AcDbEntity
  8
1
 62
     7
100
AcDbCircle
 10
701.7267247868285
 20
556.1278539875035
 30
0.0
 40
5.500000000000166
100
AcDbArc
 50
300.1165574712499
 51
68.87692780412177
  0
ARC
  5
2B7E
330
2431
100
AcDbEntity
  8
1
 62
     7
100
AcDbCircle
 10
714.1371008125426
 20
559.6050782772494
 30
0.0
 40
5.500000000000499
100
AcDbArc
 50
315.7687313842978
 51
84.52910171716911
  0
ARC
  5
2B7F
330
2431
100
AcDbEntity
  8
1
 62
     7
100
AcDbCircle
 10
714.1371008125426
 20
559.6050782772494
 30
0.0
 40
5.499999999999356
100
AcDbArc
 50
142.4274200219514
 51
271.1877903548376
  0
ARC
  5
2B80
330
2431
100
AcDbEntity
  8
1
 62
     7
100
AcDbCircle
 10
714.1371008125426
 20
559.6050782772494
 30
0.0
 40
5.969999999999716
100
AcDbArc
 50
162.4544372626727
 51
242.5746544833425
  0
ARC
  5
2B81
330
2431
100
AcDbEntity
  8
1
 62
     7
100
AcDbCircle
 10
701.7267247868285
 20
556.1278539875035
 30
0.0
 40
5.970000000000505
100
AcDbArc
 50
328.7296933427435
 51
48.84991056340687
  0
ARC
  5
2B82
330
2431
100
AcDbEntity
  8
1
 62
     7
100
AcDbCircle
 10
695.2825700350246
 20
603.0125617266458
 30
0.0
 40
51.29999999999999
100
AcDbArc
 50
283.0078996029572
 51
288.2964482231287
  0
ARC
  5
2B83
330
2431
100
AcDbEntity
  8
1
 62
     7
100
AcDbCircle
 10
695.2825700350246
 20
603.0125617266458
 30
0.0
 40
43.64000000000006
100
AcDbArc
 50
283.7500055022474
 51
287.5543423238403
  0
ARC
  5
2B84
330
2431
100
AcDbEntity
  8
1
 62
     7
100
AcDbCircle
 10
695.2825700350246
 20
603.0125617266458
 30
0.0
 40
43.63999999999999
100
AcDbArc
 50
299.4021794152909
 51
303.2065162368838
  0
ARC
  5
2B85
330
2431
100
AcDbEntity
  8
1
 62
     7
100
AcDbCircle
 10
714.1371008125426
 20
559.6050782772494
 30
0.0
 40
5.969999999999972
100
AcDbArc
 50
344.381867255785
 51
64.50208447645621
  0
LINE
  5
2B86
330
2431
100
AcDbEntity
  8
0
 62
     7
100
AcDbLine
 10
695.8159033603479
 20
583.0125620270885
 30
0.0
 11
699.3359033074944
 21
583.0125620270885
 31
0.0
  0
ARC
  5
2B87
330
2431
100
AcDbEntity
  8
0
 62
     7
100
AcDbCircle
 10
689.0959034612836
 20
586.2494926641297
 30
0.0
 40
1.066666650661006
100
AcDbArc
 50
0.0000000005471572
 51
70.73036112250959
  0
CIRCLE
  5
2B88
330
2431
100
AcDbEntity
  8
0
 62
     7
100
AcDbCircle
 10
692.4559034108246
 20
585.5725619886014
 30
0.0
 40
1.06666665063878
  0
ARC
  5
2B89
330
2431
100
AcDbEntity
  8
0
 62
     7
100
AcDbCircle
 10
691.2292367625867
 20
584.0792286777573
 30
0.0
 40
1.066666650668989
100
AcDbArc
 50
180.0
 51
269.999999998549
  0
LINE
  5
2B8A
330
2431
100
AcDbEntity
  8
0
 62
     7
100
AcDbLine
 10
695.8159033603479
 20
587.0754563160954
 30
0.0
 11
695.8159033603479
 21
583.0125620270885
 31
0.0
  0
LINE
  5
2B8B
330
2431
100
AcDbEntity
  8
0
 62
     7
100
AcDbLine
 10
694.7492367097039
 20
587.0754563160954
 30
0.0
 11
694.7492367097039
 21
583.0125620270885
 31
0.0
  0
LINE
  5
2B8C
330
2431
100
AcDbEntity
  8
0
 62
     7
100
AcDbLine
 10
694.7492367097039
 20
583.0125620270885
 30
0.0
 11
691.2292367625598
 21
583.0125620270885
 31
0.0
  0
LINE
  5
2B8D
330
2431
100
AcDbEntity
  8
0
 62
     7
100
AcDbLine
 10
690.1625701119447
 20
584.0792286777573
 30
0.0
 11
690.1625701119447
 21
586.2494926641399
 31
0.0
  0
CIRCLE
  5
2B8E
330
2431
100
AcDbEntity
  8
0
 62
     7
100
AcDbCircle
 10
698.1092366592327
 20
585.5725619886014
 30
0.0
 40
1.06666665064489
  0
ARC
  5
2B8F
330
2431
100
AcDbEntity
  8
0
 62
     7
100
AcDbCircle
 10
699.3359033074807
 20
584.0792286777559
 30
0.0
 40
1.066666650667289
100
AcDbArc
 50
270.0000000007572
 51
0.0000000000781653
  0
ARC
  5
2B90
330
2431
100
AcDbEntity
  8
0
 62
     7
100
AcDbCircle
 10
701.4692366087727
 20
586.2494926641399
 30
0.0
 40
1.066666650650506
100
AcDbArc
 50
109.2696388774785
 51
180.0
  0
LINE
  5
2B91
330
2431
100
AcDbEntity
  8
0
 62
     7
100
AcDbLine
 10
700.4025699581238
 20
584.0792286777573
 30
0.0
 11
700.4025699581238
 21
586.2494926641399
 31
0.0
  0
ARC
  5
2B92
330
2431
100
AcDbEntity
  8
1
 62
     7
100
AcDbCircle
 10
733.9460787066907
 20
575.7208771423988
 30
0.0
 40
5.500000000000079
100
AcDbArc
 50
173.7317678480442
 51
302.4921381809215
  0
ARC
  5
2B93
330
2431
100
AcDbEntity
  8
1
 62
     7
100
AcDbCircle
 10
733.9460787066907
 20
575.7208771423988
 30
0.0
 40
5.970000000000447
100
AcDbArc
 50
193.758785088758
 51
273.8790023094308
  0
ARC
  5
2B94
330
2431
100
AcDbEntity
  8
1
 62
     7
100
AcDbCircle
 10
695.2825700350246
 20
603.0125617266458
 30
0.0
 40
43.63999999999975
100
AcDbArc
 50
315.054353328334
 51
318.8586901499267
  0
ARC
  5
2B95
330
2431
100
AcDbEntity
  8
1
 62
     7
100
AcDbCircle
 10
725.1491225442273
 20
566.3016370384139
 30
0.0
 40
5.499999999999624
100
AcDbArc
 50
331.4209052973347
 51
100.1812756302206
  0
ARC
  5
2B96
330
2431
100
AcDbEntity
  8
1
 62
     7
100
AcDbCircle
 10
725.1491225442273
 20
566.3016370384139
 30
0.0
 40
5.969999999999287
100
AcDbArc
 50
0.0340411688313185
 51
80.15425838950831
  0
ARC
  5
2B97
330
2431
100
AcDbEntity
  8
1
 62
     7
100
AcDbCircle
 10
695.2825700350246
 20
603.0125617266458
 30
0.0
 40
51.29999999999976
100
AcDbArc
 50
314.3122474290421
 51
319.6007960492193
  0
CIRCLE
  5
2B98
330
2431
100
AcDbEntity
  8
1
 62
     7
100
AcDbCircle
 10
755.9043482999359
 20
568.0125617266459
 30
0.0
 40
4.500000000000039
  0
LINE
  5
2B99
330
2431
100
AcDbEntity
  8
1
  6
DASHDOT
 62
     3
100
AcDbLine
 10
761.7500197754796
 20
564.637561726646
 30
0.0
 11
750.0586768243906
 21
571.3875617266459
 31
0.0
  0
ARC
  5
2B9A
330
2431
100
AcDbEntity
  8
1
 62
     7
100
AcDbCircle
 10
739.8755393047588
 20
587.1642166408478
 30
0.0
 40
5.500000000000023
100
AcDbArc
 50
2.72525312342052
 51
131.4856234563015
  0
ARC
  5
2B9B
330
2431
100
AcDbEntity
  8
1
 62
     7
100
AcDbCircle
 10
695.2825700350246
 20
603.0125617266458
 30
0.0
 40
51.29999999999945
100
AcDbArc
 50
345.6165952551322
 51
350.9051438753048
  0
ARC
  5
2B9C
330
2431
100
AcDbEntity
  8
1
 62
     7
100
AcDbCircle
 10
739.8755393047588
 20
587.1642166408478
 30
0.0
 40
5.969999999999678
100
AcDbArc
 50
31.33838899491781
 51
111.4586062155837
  0
ARC
  5
2B9D
330
2431
100
AcDbEntity
  8
1
 62
     7
100
AcDbCircle
 10
733.9460787066907
 20
575.7208771423988
 30
0.0
 40
5.499999999999221
100
AcDbArc
 50
347.0730792103758
 51
115.8334495432619
  0
ARC
  5
2B9E
330
2431
100
AcDbEntity
  8
1
 62
     7
100
AcDbCircle
 10
739.8755393047588
 20
587.1642166408478
 30
0.0
 40
5.49999999999969
100
AcDbArc
 50
189.3839417610873
 51
318.1443120939684
  0
ARC
  5
2B9F
330
2431
100
AcDbEntity
  8
1
 62
     7
100
AcDbCircle
 10
739.8755393047588
 20
587.1642166408478
 30
0.0
 40
5.970000000000045
100
AcDbArc
 50
209.4109590018044
 51
289.5311762224789
  0
ARC
  5
2BA0
330
2431
100
AcDbEntity
  8
1
 62
     7
100
AcDbCircle
 10
733.9460787066907
 20
575.7208771423988
 30
0.0
 40
5.969999999999295
100
AcDbArc
 50
15.68621508187616
 51
95.80643230254265
  0
ARC
  5
2BA1
330
2431
100
AcDbEntity
  8
1
 62
     7
100
AcDbCircle
 10
695.2825700350246
 20
603.0125617266458
 30
0.0
 40
43.64000000000042
100
AcDbArc
 50
330.7065272413784
 51
334.5108640629684
  0
ARC
  5
2BA2
330
2431
100
AcDbEntity
  8
1
 62
     7
100
AcDbCircle
 10
695.2825700350246
 20
603.0125617266458
 30
0.0
 40
51.29999999999959
100
AcDbArc
 50
329.9644213420876
 51
335.2529699622621
  0
ARC
  5
2BA3
330
2431
100
AcDbEntity
  8
1
 62
     7
100
AcDbCircle
 10
742.4977433713518
 20
599.7829553929561
 30
0.0
 40
5.500000000000699
100
AcDbArc
 50
205.0361156741284
 51
333.7964860070096
  0
ARC
  5
2BA4
330
2431
100
AcDbEntity
  8
1
 62
     7
100
AcDbCircle
 10
742.4977433713518
 20
599.7829553929561
 30
0.0
 40
5.970000000000093
100
AcDbArc
 50
225.0631329148455
 51
305.1833501355157
  0
ARC
  5
2BA5
330
2431
100
AcDbEntity
  8
1
 62
     7
100
AcDbCircle
 10
695.2825700350246
 20
603.0125617266458
 30
0.0
 40
43.64000000000037
100
AcDbArc
 50
346.3587011544209
 51
350.1630379760137
  0
ARC
  5
2BA6
330
2431
100
AcDbEntity
  8
1
 62
     7
100
AcDbCircle
 10
742.4977433713518
 20
599.7829553929561
 30
0.0
 40
5.499999999999769
100
AcDbArc
 50
18.37742703646649
 51
147.1377973693458
  0
ARC
  5
2BA7
330
2431
100
AcDbEntity
  8
1
 62
     7
100
AcDbCircle
 10
741.6182140266348
 20
612.6412192723681
 30
0.0
 40
5.970000000000168
100
AcDbArc
 50
240.715306827886
 51
320.8355240485621
  0
ARC
  5
2BA8
330
2431
100
AcDbEntity
  8
1
 62
     7
100
AcDbCircle
 10
742.4977433713518
 20
599.7829553929561
 30
0.0
 40
5.969999999999711
100
AcDbArc
 50
46.9905629079623
 51
127.1107801286376
  0
ARC
  5
2BA9
330
2431
100
AcDbEntity
  8
1
 62
     7
100
AcDbCircle
 10
695.2825700350246
 20
603.0125617266458
 30
0.0
 40
43.63999999999953
100
AcDbArc
 50
2.010875067465331
 51
5.815211889059099
  0
ARC
  5
2BAA
330
2431
100
AcDbEntity
  8
1
 62
     7
100
AcDbCircle
 10
695.2825700350246
 20
603.0125617266458
 30
0.0
 40
51.29999999999982
100
AcDbArc
 50
1.268769168173467
 51
6.557317788348039
  0
CIRCLE
  5
2BAB
330
2431
100
AcDbEntity
  8
1
 62
     7
100
AcDbCircle
 10
765.2825700350246
 20
603.0125617266458
 30
0.0
 40
4.499999999999912
  0
LINE
  5
2BAC
330
2431
100
AcDbEntity
  8
1
  6
DASHDOT
 62
     3
100
AcDbLine
 10
772.0325700350246
 20
603.0125617266459
 30
0.0
 11
758.5325700350246
 21
603.0125617266459
 31
0.0
  0
ARC
  5
2BAD
330
2431
100
AcDbEntity
  8
1
 62
     7
100
AcDbCircle
 10
729.8697474624689
 20
635.3147305060401
 30
0.0
 40
5.499999999999943
100
AcDbArc
 50
65.33394877559793
 51
194.094319108476
  0
ARC
  5
2BAE
330
2431
100
AcDbEntity
  8
1
 62
     7
100
AcDbCircle
 10
719.8721402624268
 20
643.4483872565106
 30
0.0
 40
5.500000000000023
100
AcDbArc
 50
267.6448113263028
 51
36.40518165918741
  0
ARC
  5
2BAF
330
2431
100
AcDbEntity
  8
1
 62
     7
100
AcDbCircle
 10
719.8721402624268
 20
643.4483872565106
 30
0.0
 40
5.969999999999742
100
AcDbArc
 50
287.6718285670153
 51
7.792045787691714
  0
ARC
  5
2BB0
330
2431
100
AcDbEntity
  8
1
 62
     7
100
AcDbCircle
 10
695.2825700350246
 20
603.0125617266458
 30
0.0
 40
43.64000000000019
100
AcDbArc
 50
48.96739680659611
 51
52.77173362818713
  0
ARC
  5
2BB1
330
2431
100
AcDbEntity
  8
1
 62
     7
100
AcDbCircle
 10
670.6929998076227
 20
643.4483872565106
 30
0.0
 40
5.500000000000142
100
AcDbArc
 50
330.2535069784797
 51
99.01387731135894
  0
ARC
  5
2BB2
330
2431
100
AcDbEntity
  8
1
 62
     7
100
AcDbCircle
 10
682.5143029416328
 20
648.5831038090241
 30
0.0
 40
5.49999999999996
100
AcDbArc
 50
127.9426444277699
 51
256.7030147606538
  0
ARC
  5
2BB3
330
2431
100
AcDbEntity
  8
1
 62
     7
100
AcDbCircle
 10
719.8721402624268
 20
643.4483872565106
 30
0.0
 40
5.500000000000031
100
AcDbArc
 50
80.98612268864266
 51
209.7464930215169
  0
ARC
  5
2BB4
330
2431
100
AcDbEntity
  8
1
 62
     7
100
AcDbCircle
 10
670.6929998076227
 20
643.4483872565106
 30
0.0
 40
5.500000000000142
100
AcDbArc
 50
330.2535069784797
 51
99.01387731135894
  0
ARC
  5
2BB5
330
2431
100
AcDbEntity
  8
1
 62
     7
100
AcDbCircle
 10
708.0508371284167
 20
648.5831038090241
 30
0.0
 40
5.499999999999959
100
AcDbArc
 50
283.2969852393445
 51
52.0573555722288
  0
ARC
  5
2BB6
330
2431
100
AcDbEntity
  8
1
 62
     7
100
AcDbCircle
 10
708.0508371284167
 20
648.5831038090241
 30
0.0
 40
5.969999999999639
100
AcDbArc
 50
303.3240024800582
 51
23.44421970073589
  0
ARC
  5
2BB7
330
2431
100
AcDbEntity
  8
1
 62
     7
100
AcDbCircle
 10
719.8721402624268
 20
643.4483872565106
 30
0.0
 40
5.96999999999999
100
AcDbArc
 50
109.5992585601317
 51
189.719475780806
  0
ARC
  5
2BB8
330
2431
100
AcDbEntity
  8
1
 62
     7
100
AcDbCircle
 10
670.6929998076227
 20
643.4483872565106
 30
0.0
 40
5.970000000000639
100
AcDbArc
 50
350.2805242191938
 51
70.40074143986981
  0
ARC
  5
2BB9
330
2431
100
AcDbEntity
  8
1
 62
     7
100
AcDbCircle
 10
682.5143029416328
 20
648.5831038090241
 30
0.0
 40
5.969999999999997
100
AcDbArc
 50
156.5557802992637
 51
236.6759975199332
  0
LINE
  5
2BBA
330
2431
100
AcDbEntity
  8
1
  6
CENTER
 62
     3
100
AcDbLine
 10
695.2825700350246
 20
666.2625617266455
 30
0.0
 11
695.2825700350246
 21
624.2625617266436
 31
0.0
  0
LINE
  5
2BBB
330
2431
100
AcDbEntity
  8
1
 62
     7
100
AcDbLine
 10
692.2825700350247
 20
615.3125617266437
 30
0.0
 11
698.2825700350246
 21
615.3125617266437
 31
0.0
  0
LINE
  5
2BBC
330
2431
100
AcDbEntity
  8
1
 62
     7
100
AcDbLine
 10
692.2825700350247
 20
615.3125617266437
 30
0.0
 11
692.2825700350247
 21
612.0264399153036
 31
0.0
  0
ARC
  5
2BBD
330
2431
100
AcDbEntity
  8
1
 62
     7
100
AcDbCircle
 10
695.2825700350246
 20
603.0125617266458
 30
0.0
 40
43.64000000000022
100
AcDbArc
 50
111.5760924587686
 51
115.3804292803613
  0
LINE
  5
2BBE
330
2431
100
AcDbEntity
  8
1
 62
     7
100
AcDbLine
 10
698.2825700350246
 20
615.3125617266437
 30
0.0
 11
698.2825700350246
 21
612.0264399153036
 31
0.0
  0
ARC
  5
2BBF
330
2431
100
AcDbEntity
  8
1
 62
     7
100
AcDbCircle
 10
695.2825700350246
 20
603.0125617266458
 30
0.0
 40
43.64000000000028
100
AcDbArc
 50
64.61957071963865
 51
68.42390754123288
  0
CIRCLE
  5
2BC0
330
2431
100
AcDbEntity
  8
1
 62
     7
100
AcDbCircle
 10
695.2825700350246
 20
673.0125617266455
 30
0.0
 40
4.5
  0
ARC
  5
2BC1
330
2431
100
AcDbEntity
  8
1
 62
     7
100
AcDbCircle
 10
695.2825700350246
 20
603.0125617266458
 30
0.0
 40
51.30000000000006
100
AcDbArc
 50
110.8339865594784
 51
116.1225351796523
  0
ARC
  5
2BC2
330
2431
100
AcDbEntity
  8
1
 62
     7
100
AcDbCircle
 10
695.2825700350246
 20
650.3380617266456
 30
0.0
 40
5.500000000000071
100
AcDbArc
 50
112.2904705147286
 51
241.050840847608
  0
ARC
  5
2BC3
330
2431
100
AcDbEntity
  8
1
 62
     7
100
AcDbCircle
 10
682.5143029416328
 20
648.5831038090241
 30
0.0
 40
5.499999999999968
100
AcDbArc
 50
314.6013330654344
 51
83.36170339831316
  0
ARC
  5
2BC4
330
2431
100
AcDbEntity
  8
1
 62
     7
100
AcDbCircle
 10
695.2825700350246
 20
650.3380617266456
 30
0.0
 40
5.970000000000295
100
AcDbArc
 50
140.9036063862213
 51
221.0238236068913
  0
ARC
  5
2BC5
330
2431
100
AcDbEntity
  8
1
 62
     7
100
AcDbCircle
 10
682.5143029416328
 20
648.5831038090241
 30
0.0
 40
5.970000000000201
100
AcDbArc
 50
334.6283503061508
 51
54.74856752682601
  0
ARC
  5
2BC6
330
2431
100
AcDbEntity
  8
1
 62
     7
100
AcDbCircle
 10
695.2825700350246
 20
603.0125617266458
 30
0.0
 40
43.63999999999999
100
AcDbArc
 50
95.92391854572593
 51
99.72825536731875
  0
ARC
  5
2BC7
330
2431
100
AcDbEntity
  8
1
 62
     7
100
AcDbCircle
 10
695.2825700350246
 20
603.0125617266458
 30
0.0
 40
51.30000000000005
100
AcDbArc
 50
95.18181264643578
 51
100.4703612666094
  0
CIRCLE
  5
2BC8
330
2431
100
AcDbEntity
  8
1
 62
     3
100
AcDbCircle
 10
677.1652368778476
 20
670.6273695668804
 30
0.0
 40
3.000000000000198
  0
CIRCLE
  5
2BC9
330
2431
100
AcDbEntity
  8
1
 62
     7
100
AcDbCircle
 10
677.1652368778476
 20
670.6273695668804
 30
0.0
 40
2.400000000000003
  0
CIRCLE
  5
2BCA
330
2431
100
AcDbEntity
  8
1
 62
     7
100
AcDbCircle
 10
677.1652368778476
 20
670.6273695668804
 30
0.0
 40
4.5
  0
LINE
  5
2BCB
330
2431
100
AcDbEntity
  8
1
  6
DASHDOT
 62
     3
100
AcDbLine
 10
675.4182083234068
 20
677.1473688943318
 30
0.0
 11
678.9122654322907
 21
664.1073702394293
 31
0.0
  0
ARC
  5
2BCC
330
2431
100
AcDbEntity
  8
1
 62
     7
100
AcDbCircle
 10
695.2825700350246
 20
650.3380617266456
 30
0.0
 40
5.500000000000046
100
AcDbArc
 50
298.9491591523933
 51
67.70952948527131
  0
ARC
  5
2BCD
330
2431
100
AcDbEntity
  8
1
 62
     7
100
AcDbCircle
 10
708.0508371284167
 20
648.5831038090241
 30
0.0
 40
5.499999999999959
100
AcDbArc
 50
96.63829660168524
 51
225.398666934558
  0
ARC
  5
2BCE
330
2431
100
AcDbEntity
  8
1
 62
     7
100
AcDbCircle
 10
695.2825700350246
 20
650.3380617266456
 30
0.0
 40
5.970000000000427
100
AcDbArc
 50
318.9761763931121
 51
39.09639361377556
  0
ARC
  5
2BCF
330
2431
100
AcDbEntity
  8
1
 62
     7
100
AcDbCircle
 10
708.0508371284167
 20
648.5831038090241
 30
0.0
 40
5.970000000000392
100
AcDbArc
 50
125.251432473183
 51
205.3716496938488
  0
ARC
  5
2BD0
330
2431
100
AcDbEntity
  8
1
 62
     7
100
AcDbCircle
 10
695.2825700350246
 20
603.0125617266458
 30
0.0
 40
43.63999999999993
100
AcDbArc
 50
80.27174463268128
 51
84.07608145427408
  0
ARC
  5
2BD1
330
2431
100
AcDbEntity
  8
1
 62
     7
100
AcDbCircle
 10
695.2825700350246
 20
603.0125617266458
 30
0.0
 40
51.29999999999988
100
AcDbArc
 50
79.52963873339212
 51
84.81818735356425
  0
ARC
  5
2BD2
330
2431
100
AcDbEntity
  8
1
 62
     7
100
AcDbCircle
 10
695.2825700350246
 20
603.0125617266458
 30
0.0
 40
51.3000000000001
100
AcDbArc
 50
63.87746482034763
 51
69.1660134405216
  0
ARC
  5
2BD3
330
2431
100
AcDbEntity
  8
1
 62
     7
100
AcDbCircle
 10
695.2825700350246
 20
603.0125617266458
 30
0.0
 40
51.29999999999967
100
AcDbArc
 50
48.22529090730453
 51
53.51383952747692
  0
ARC
  5
2BD4
330
2431
100
AcDbEntity
  8
1
 62
     7
100
AcDbCircle
 10
737.3021819385256
 20
624.7853696697911
 30
0.0
 40
5.500000000000672
100
AcDbArc
 50
49.68177486254941
 51
178.4421451954293
  0
ARC
  5
2BD5
330
2431
100
AcDbEntity
  8
1
 62
     7
100
AcDbCircle
 10
741.6182140266348
 20
612.6412192723681
 30
0.0
 40
5.499999999999886
100
AcDbArc
 50
34.0296009495114
 51
162.7899712823885
  0
ARC
  5
2BD6
330
2431
100
AcDbEntity
  8
1
 62
     7
100
AcDbCircle
 10
737.3021819385256
 20
624.7853696697911
 30
0.0
 40
5.499999999999536
100
AcDbArc
 50
236.3404635002256
 51
5.100833833097708
  0
ARC
  5
2BD7
330
2431
100
AcDbEntity
  8
1
 62
     7
100
AcDbCircle
 10
737.3021819385256
 20
624.7853696697911
 30
0.0
 40
5.969999999999735
100
AcDbArc
 50
256.3674807409406
 51
336.4876979616055
  0
ARC
  5
2BD8
330
2431
100
AcDbEntity
  8
1
 62
     7
100
AcDbCircle
 10
695.2825700350246
 20
603.0125617266458
 30
0.0
 40
43.64000000000019
100
AcDbArc
 50
17.66304898050797
 51
21.46738580210187
  0
ARC
  5
2BD9
330
2431
100
AcDbEntity
  8
1
 62
     7
100
AcDbCircle
 10
741.6182140266348
 20
612.6412192723681
 30
0.0
 40
5.969999999999981
100
AcDbArc
 50
62.64273682100526
 51
142.7629540416763
  0
ARC
  5
2BDA
330
2431
100
AcDbEntity
  8
1
 62
     7
100
AcDbCircle
 10
695.2825700350246
 20
603.0125617266458
 30
0.0
 40
51.30000000000009
100
AcDbArc
 50
16.92094308121694
 51
22.20949170139143
  0
ARC
  5
2BDB
330
2431
100
AcDbEntity
  8
1
 62
     7
100
AcDbCircle
 10
729.8697474624689
 20
635.3147305060401
 30
0.0
 40
5.499999999999808
100
AcDbArc
 50
251.9926374132685
 51
20.75300774614178
  0
ARC
  5
2BDC
330
2431
100
AcDbEntity
  8
1
 62
     7
100
AcDbCircle
 10
695.2825700350246
 20
603.0125617266458
 30
0.0
 40
51.3000000000001
100
AcDbArc
 50
32.57311699426145
 51
37.86166561443399
  0
ARC
  5
2BDD
330
2431
100
AcDbEntity
  8
1
 62
     7
100
AcDbCircle
 10
729.8697474624689
 20
635.3147305060401
 30
0.0
 40
5.969999999999926
100
AcDbArc
 50
272.0196546539726
 51
352.1398718746506
  0
ARC
  5
2BDE
330
2431
100
AcDbEntity
  8
1
 62
     7
100
AcDbCircle
 10
737.3021819385256
 20
624.7853696697911
 30
0.0
 40
5.970000000000255
100
AcDbArc
 50
78.29491073403993
 51
158.415127954718
  0
ARC
  5
2BDF
330
2431
100
AcDbEntity
  8
1
 62
     7
100
AcDbCircle
 10
695.2825700350246
 20
603.0125617266458
 30
0.0
 40
43.63999999999953
100
AcDbArc
 50
33.31522289355042
 51
37.11955971514308
  0
ARC
  5
2BE0
330
2431
100
AcDbEntity
  8
1
 62
     7
100
AcDbCircle
 10
729.8697474624689
 20
635.3147305060401
 30
0.0
 40
5.969999999999997
100
AcDbArc
 50
93.9470846470925
 51
174.0673018677627
  0
CIRCLE
  5
2BE1
330
2431
100
AcDbEntity
  8
1
 62
     7
100
AcDbCircle
 10
755.9043482999359
 20
638.0125617266457
 30
0.0
 40
4.499999999999928
  0
LINE
  5
2BE2
330
2431
100
AcDbEntity
  8
1
  6
DASHDOT
 62
     3
100
AcDbLine
 10
761.7500197754796
 20
641.3875617266458
 30
0.0
 11
750.0586768243906
 21
634.6375617266458
 31
0.0
  0
CIRCLE
  5
2BE3
330
2431
100
AcDbEntity
  8
1
 62
     7
100
AcDbCircle
 10
730.2825700350247
 20
663.6343399915562
 30
0.0
 40
4.500000000000119
  0
LINE
  5
2BE4
330
2431
100
AcDbEntity
  8
1
  6
DASHDOT
 62
     3
100
AcDbLine
 10
733.6575700350246
 20
669.4800114671017
 30
0.0
 11
726.9075700350246
 21
657.7886685160115
 31
0.0
  0
LINE
  5
2BE5
330
2431
100
AcDbEntity
  8
1
  6
CENTER
 62
     3
100
AcDbLine
 10
695.2825700350246
 20
687.270079533616
 30
0.0
 11
695.2825700350246
 21
679.7625617266455
 31
0.0
  0
INSERT
  5
2BEF
330
2431
100
AcDbEntity
  8
AM_0
100
AcDbBlockReference
  2
HD LLC
 10
701.926966151316
 20
314.4943600618313
 30
0.0
 41
2.5
 42
2.5
 43
2.5
  0
INSERT
  5
2BF5
330
2431
100
AcDbEntity
  8
AM_0
100
AcDbBlockReference
  2
HD logo-new
 10
496.3911578512706
 20
323.2221873390983
 30
0.0
 41
2.0
 42
2.0
 43
2.0
  0
INSERT
  5
2C02
330
2431
100
AcDbEntity
  8
AM_0
100
AcDbBlockReference
  2
NTC
 10
76.36202932606979
 20
381.0221742629144
 30
0.0
 41
1.08
 42
1.08
 43
1.08
  0
ENDSEC
  0
SECTION
  2
OBJECTS
  0
DICTIONARY
  5
241F
330
0
100
AcDbDictionary
281
     1
  3
ACAD_GROUP
350
2420
  3
ACAD_LAYOUT
350
242C
  3
ACAD_MLINESTYLE
350
2429
  3
ACAD_PLOTSETTINGS
350
242B
  3
ACAD_PLOTSTYLENAME
350
2421
  3
AcDbVariableDictionary
350
2734
  0
DICTIONARY
  5
2420
102
{ACAD_REACTORS
330
241F
102
}
330
241F
100
AcDbDictionary
281
     1
  0
DICTIONARY
  5
242C
102
{ACAD_REACTORS
330
241F
102
}
330
241F
100
AcDbDictionary
281
     1
  3
Layout1
350
2430
  3
Model
350
2434
  0
DICTIONARY
  5
2429
102
{ACAD_REACTORS
330
241F
102
}
330
241F
100
AcDbDictionary
281
     1
  3
Standard
350
242A
  0
DICTIONARY
  5
242B
102
{ACAD_REACTORS
330
241F
102
}
330
241F
100
AcDbDictionary
281
     1
  0
ACDBDICTIONARYWDFLT
  5
2421
102
{ACAD_REACTORS
330
241F
102
}
330
241F
100
AcDbDictionary
281
     1
  3
Normal
350
2422
100
AcDbDictionaryWithDefault
340
2422
  0
DICTIONARY
  5
2734
102
{ACAD_REACTORS
330
241F
102
}
330
241F
100
AcDbDictionary
281
     1
  3
DIMASSOC
350
2735
  0
LAYOUT
  5
2430
102
{ACAD_REACTORS
330
242C
102
}
330
242C
100
AcDbPlotSettings
  1

  2
\\SERVER9\HP LaserJet 5100 PCL 5e
  4

  6

 40
0.0
 41
0.0
 42
0.0
 43
0.0
 44
0.0
 45
0.0
 46
0.0
 47
0.0
 48
0.0
 49
0.0
140
0.0
141
0.0
142
1.0
143
1.0
 70
   688
 72
     0
 73
     0
 74
     5
  7

 75
    16
147
1.0
148
0.0
149
0.0
100
AcDbLayout
  1
Layout1
 70
     1
 71
     1
 10
0.0
 20
0.0
 11
420.0
 21
297.0
 12
0.0
 22
0.0
 32
0.0
 14
1.000000000000000E+20
 24
1.000000000000000E+20
 34
1.000000000000000E+20
 15
-1.000000000000000E+20
 25
-1.000000000000000E+20
 35
-1.000000000000000E+20
146
0.0
 13
0.0
 23
0.0
 33
0.0
 16
1.0
 26
0.0
 36
0.0
 17
0.0
 27
1.0
 37
0.0
 76
     0
330
242D
  0
LAYOUT
  5
2434
102
{ACAD_REACTORS
330
242C
102
}
330
242C
100
AcDbPlotSettings
  1

  2
\\SERVER9\HP LaserJet 5100 PCL 5e
  4

  6

 40
0.0
 41
0.0
 42
0.0
 43
0.0
 44
0.0
 45
0.0
 46
0.0
 47
0.0
 48
0.0
 49
0.0
140
0.0
141
0.0
142
1.0
143
1.0
 70
  1712
 72
     0
 73
     0
 74
     0
  7

 75
     0
147
1.0
148
0.0
149
0.0
100
AcDbLayout
  1
Model
 70
     1
 71
     0
 10
0.0
 20
0.0
 11
12.0
 21
9.0
 12
0.0
 22
0.0
 32
0.0
 14
0.0
 24
0.0
 34
0.0
 15
0.0
 25
0.0
 35
0.0
146
0.0
 13
0.0
 23
0.0
 33
0.0
 16
1.0
 26
0.0
 36
0.0
 17
0.0
 27
1.0
 37
0.0
 76
     0
330
2431
  0
MLINESTYLE
  5
242A
102
{ACAD_REACTORS
330
2429
102
}
330
2429
100
AcDbMlineStyle
  2
STANDARD
 70
     0
  3

 62
   256
 51
90.0
 52
90.0
 71
     2
 49
0.5
 62
   256
  6
BYLAYER
 49
-0.5
 62
   256
  6
BYLAYER
  0
ACDBPLACEHOLDER
  5
2422
102
{ACAD_REACTORS
330
2421
102
}
330
2421
  0
DICTIONARYVAR
  5
2735
102
{ACAD_REACTORS
330
2734
102
}
330
2734
100
DictionaryVariables
280
     0
  1
1
  0
ENDSEC
  0
EOF
