  0
SECTION
  2
HEADER
  9
$ACADVER
  1
AC1015
  9
$ACADMAINTVER
 70
    13
  9
$DWGCODEPAGE
  3
ANSI_1252
  9
$INSBASE
 10
0.0
 20
0.0
 30
0.0
  9
$EXTMIN
 10
-368.3705050449149
 20
-14.92425627355312
 30
0.0
  9
$EXTMAX
 10
-35.62772392712837
 20
217.12939413936
 30
0.0
  9
$LIMMIN
 10
0.0
 20
0.0
  9
$LIMMAX
 10
0.0
 20
0.0
  9
$ORTHOMODE
 70
     0
  9
$REGENMODE
 70
     1
  9
$FILLMODE
 70
     1
  9
$QTEXTMODE
 70
     0
  9
$MIRRTEXT
 70
     1
  9
$LTSCALE
 40
1.0
  9
$ATTMODE
 70
     1
  9
$TEXTSIZE
 40
0.0
  9
$TRACEWID
 40
0.05
  9
$TEXTSTYLE
  7
STANDARD
  9
$CLAYER
  8
0
  9
$CELTYPE
  6
BYBLOCK
  9
$CECOLOR
 62
   256
  9
$CELTSCALE
 40
1.0
  9
$DISPSILH
 70
     0
  9
$DIMSCALE
 40
1.0
  9
$DIMASZ
 40
0.18
  9
$DIMEXO
 40
0.0625
  9
$DIMDLI
 40
0.38
  9
$DIMRND
 40
0.0
  9
$DIMDLE
 40
0.0
  9
$DIMEXE
 40
0.18
  9
$DIMTP
 40
0.0
  9
$DIMTM
 40
0.0
  9
$DIMTXT
 40
0.18
  9
$DIMCEN
 40
0.09
  9
$DIMTSZ
 40
0.0
  9
$DIMTOL
 70
     0
  9
$DIMLIM
 70
     0
  9
$DIMTIH
 70
     1
  9
$DIMTOH
 70
     1
  9
$DIMSE1
 70
     0
  9
$DIMSE2
 70
     0
  9
$DIMTAD
 70
     0
  9
$DIMZIN
 70
     0
  9
$DIMBLK
  1

  9
$DIMASO
 70
     1
  9
$DIMSHO
 70
     1
  9
$DIMPOST
  1

  9
$DIMAPOST
  1

  9
$DIMALT
 70
     0
  9
$DIMALTD
 70
     2
  9
$DIMALTF
 40
25.4
  9
$DIMLFAC
 40
1.0
  9
$DIMTOFL
 70
     0
  9
$DIMTVP
 40
0.0
  9
$DIMTIX
 70
     0
  9
$DIMSOXD
 70
     0
  9
$DIMSAH
 70
     0
  9
$DIMBLK1
  1

  9
$DIMBLK2
  1

  9
$DIMSTYLE
  2
STANDARD
  9
$DIMCLRD
 70
     0
  9
$DIMCLRE
 70
     0
  9
$DIMCLRT
 70
     0
  9
$DIMTFAC
 40
1.0
  9
$DIMGAP
 40
0.09
  9
$DIMJUST
 70
     0
  9
$DIMSD1
 70
     0
  9
$DIMSD2
 70
     0
  9
$DIMTOLJ
 70
     1
  9
$DIMTZIN
 70
     0
  9
$DIMALTZ
 70
     0
  9
$DIMALTTZ
 70
     0
  9
$DIMUPT
 70
     0
  9
$DIMDEC
 70
     4
  9
$DIMTDEC
 70
     4
  9
$DIMALTU
 70
     2
  9
$DIMALTTD
 70
     2
  9
$DIMTXSTY
  7
STANDARD
  9
$DIMAUNIT
 70
     0
  9
$DIMADEC
 70
     0
  9
$DIMALTRND
 40
0.0
  9
$DIMAZIN
 70
     0
  9
$DIMDSEP
 70
    46
  9
$DIMATFIT
 70
     3
  9
$DIMFRAC
 70
     0
  9
$DIMLDRBLK
  1

  9
$DIMLUNIT
 70
     2
  9
$DIMLWD
 70
    -2
  9
$DIMLWE
 70
    -2
  9
$DIMTMOVE
 70
     0
  9
$LUNITS
 70
     2
  9
$LUPREC
 70
     4
  9
$SKETCHINC
 40
0.1
  9
$FILLETRAD
 40
0.0
  9
$AUNITS
 70
     0
  9
$AUPREC
 70
     0
  9
$MENU
  1
acad
  9
$ELEVATION
 40
0.0
  9
$PELEVATION
 40
0.0
  9
$THICKNESS
 40
0.0
  9
$LIMCHECK
 70
     0
  9
$CHAMFERA
 40
0.0
  9
$CHAMFERB
 40
0.0
  9
$CHAMFERC
 40
0.0
  9
$CHAMFERD
 40
0.0
  9
$SKPOLY
 70
     0
  9
$TDCREATE
 40
2311946.676502315
  9
$TDUCREATE
 40
2311946.843168981
  9
$TDUPDATE
 40
2454707.628994583
  9
$TDUUPDATE
 40
2454707.795661250
  9
$TDINDWG
 40
0.0026690625
  9
$TDUSRTIMER
 40
0.0026690625
  9
$USRTIMER
 70
     1
  9
$ANGBASE
 50
0.0
  9
$ANGDIR
 70
     0
  9
$PDMODE
 70
     0
  9
$PDSIZE
 40
0.0
  9
$PLINEWID
 40
0.0
  9
$SPLFRAME
 70
     0
  9
$SPLINETYPE
 70
     6
  9
$SPLINESEGS
 70
     8
  9
$HANDSEED
  5
3FB
  9
$SURFTAB1
 70
     6
  9
$SURFTAB2
 70
     6
  9
$SURFTYPE
 70
     6
  9
$SURFU
 70
     6
  9
$SURFV
 70
     6
  9
$UCSBASE
  2

  9
$UCSNAME
  2

  9
$UCSORG
 10
0.0
 20
0.0
 30
0.0
  9
$UCSXDIR
 10
1.0
 20
0.0
 30
0.0
  9
$UCSYDIR
 10
0.0
 20
1.0
 30
0.0
  9
$UCSORTHOREF
  2

  9
$UCSORTHOVIEW
 70
     0
  9
$UCSORGTOP
 10
0.0
 20
0.0
 30
0.0
  9
$UCSORGBOTTOM
 10
0.0
 20
0.0
 30
0.0
  9
$UCSORGLEFT
 10
0.0
 20
0.0
 30
0.0
  9
$UCSORGRIGHT
 10
0.0
 20
0.0
 30
0.0
  9
$UCSORGFRONT
 10
0.0
 20
0.0
 30
0.0
  9
$UCSORGBACK
 10
0.0
 20
0.0
 30
0.0
  9
$PUCSBASE
  2

  9
$PUCSNAME
  2

  9
$PUCSORG
 10
0.0
 20
0.0
 30
0.0
  9
$PUCSXDIR
 10
1.0
 20
0.0
 30
0.0
  9
$PUCSYDIR
 10
0.0
 20
1.0
 30
0.0
  9
$PUCSORTHOREF
  2

  9
$PUCSORTHOVIEW
 70
     0
  9
$PUCSORGTOP
 10
0.0
 20
0.0
 30
0.0
  9
$PUCSORGBOTTOM
 10
0.0
 20
0.0
 30
0.0
  9
$PUCSORGLEFT
 10
0.0
 20
0.0
 30
0.0
  9
$PUCSORGRIGHT
 10
0.0
 20
0.0
 30
0.0
  9
$PUCSORGFRONT
 10
0.0
 20
0.0
 30
0.0
  9
$PUCSORGBACK
 10
0.0
 20
0.0
 30
0.0
  9
$USERI1
 70
     0
  9
$USERI2
 70
     0
  9
$USERI3
 70
     0
  9
$USERI4
 70
     0
  9
$USERI5
 70
     0
  9
$USERR1
 40
0.0
  9
$USERR2
 40
0.0
  9
$USERR3
 40
0.0
  9
$USERR4
 40
0.0
  9
$USERR5
 40
0.0
  9
$WORLDVIEW
 70
     1
  9
$SHADEDGE
 70
     3
  9
$SHADEDIF
 70
    70
  9
$TILEMODE
 70
     1
  9
$MAXACTVP
 70
    16
  9
$PINSBASE
 10
0.0
 20
0.0
 30
0.0
  9
$PLIMCHECK
 70
     0
  9
$PEXTMIN
 10
1.000000000000000E+20
 20
1.000000000000000E+20
 30
1.000000000000000E+20
  9
$PEXTMAX
 10
-1.000000000000000E+20
 20
-1.000000000000000E+20
 30
-1.000000000000000E+20
  9
$PLIMMIN
 10
0.0
 20
0.0
  9
$PLIMMAX
 10
12.0
 20
9.0
  9
$UNITMODE
 70
     0
  9
$VISRETAIN
 70
     0
  9
$PLINEGEN
 70
     1
  9
$PSLTSCALE
 70
     0
  9
$TREEDEPTH
 70
  3020
  9
$CMLSTYLE
  2
STANDARD
  9
$CMLJUST
 70
     0
  9
$CMLSCALE
 40
1.0
  9
$PROXYGRAPHICS
 70
     0
  9
$MEASUREMENT
 70
     0
  9
$CELWEIGHT
370
    -2
  9
$ENDCAPS
280
     0
  9
$JOINSTYLE
280
     0
  9
$LWDISPLAY
290
     0
  9
$INSUNITS
 70
     0
  9
$HYPERLINKBASE
  1

  9
$STYLESHEET
  1

  9
$XEDIT
290
     1
  9
$CEPSNTYPE
380
     0
  9
$PSTYLEMODE
290
     1
  9
$FINGERPRINTGUID
  2
{40D26104-58B6-41BF-9916-B700B3B1F0DE}
  9
$VERSIONGUID
  2
{49A38C17-6C91-4967-9E86-19D8655733D1}
  9
$EXTNAMES
290
     1
  9
$PSVPSCALE
 40
0.0
  9
$OLESTARTUP
290
     0
  0
ENDSEC
  0
SECTION
  2
CLASSES
  0
CLASS
  1
LWPOLYLINE
  2
AcDbPolyline
  3
AutoCAD 2000
 90
    32768
280
     0
281
     1
  0
CLASS
  1
IMAGE
  2
AcDbRasterImage
  3
ISM
 90
    32895
280
     0
281
     1
  0
CLASS
  1
OLE2FRAME
  2
AcDbOle2Frame
  3
AutoCAD 2000
 90
    32768
280
     0
281
     1
  0
CLASS
  1
HATCH
  2
AcDbHatch
  3
AutoCAD 2000
 90
    32768
280
     0
281
     1
  0
CLASS
  1
DICTIONARYVAR
  2
AcDbDictionaryVar
  3
AutoCAD 2000
 90
        0
280
     0
281
     0
  0
CLASS
  1
RASTERVARIABLES
  2
AcDbRasterVariables
  3
ISM
 90
    32768
280
     0
281
     0
  0
CLASS
  1
IMAGEDEF
  2
AcDbRasterImageDef
  3
ISM
 90
    32768
280
     0
281
     0
  0
CLASS
  1
IMAGEDEF_REACTOR
  2
AcDbRasterImageDefReactor
  3
ISM
 90
    32769
280
     0
281
     0
  0
CLASS
  1
IDBUFFER
  2
AcDbIdBuffer
  3
AutoCAD 2000
 90
    32768
280
     0
281
     0
  0
CLASS
  1
SPATIAL_FILTER
  2
AcDbSpatialFilter
  3
AutoCAD 2000
 90
    32768
280
     0
281
     0
  0
CLASS
  1
XRECORD
  2
AcDbXrecord
  3
AutoCAD 2000
 90
    32768
280
     0
281
     0
  0
CLASS
  1
SORTENTSTABLE
  2
AcDbSortentsTable
  3
AutoCAD 2000
 90
    32768
280
     0
281
     0
  0
CLASS
  1
LAYER_INDEX
  2
AcDbLayerIndex
  3
AutoCAD 2000
 90
    32768
280
     0
281
     0
  0
CLASS
  1
SPATIAL_INDEX
  2
AcDbSpatialIndex
  3
AutoCAD 2000
 90
    32768
280
     0
281
     0
  0
CLASS
  1
OBJECT_PTR
  2
CAseDLPNTableRecord
  3
"ASE-LPNTableRecord"
 90
    32769
280
     0
281
     0
  0
CLASS
  1
LAYOUT
  2
AcDbLayout
  3
AutoCAD 2000
 90
        0
280
     0
281
     0
  0
CLASS
  1
PLOTSETTINGS
  2
AcDbPlotSettings
  3
AutoCAD 2000
 90
    32768
280
     0
281
     0
  0
CLASS
  1
ACDBDICTIONARYWDFLT
  2
AcDbDictionaryWithDefault
  3
AutoCAD 2000
 90
        0
280
     0
281
     0
  0
CLASS
  1
ACDBPLACEHOLDER
  2
AcDbPlaceHolder
  3
AutoCAD 2000
 90
        0
280
     0
281
     0
  0
CLASS
  1
VBA_PROJECT
  2
AcDbVbaProject
  3
"acadvba"
 90
    32769
280
     0
281
     0
  0
CLASS
  1
WIPEOUT
  2
AcDbWipeout
  3
WipeOut|AutoCAD Express Tool|expresstools@autodesk.com
 90
    32895
280
     0
281
     1
  0
CLASS
  1
WIPEOUTVARIABLES
  2
AcDbWipeoutVariables
  3
WipeOut|AutoCAD Express Tool|expresstools@autodesk.com
 90
    32768
280
     0
281
     0
  0
CLASS
  1
RTEXT
  2
RText
  3
RText|AutoCAD Express Tool|expresstools@autodesk.com
 90
    32768
280
     0
281
     1
  0
CLASS
  1
ARCALIGNEDTEXT
  2
AcDbArcAlignedText
  3
ATEXT|AutoCAD Express Tool|expresstools@autodesk.com
 90
    32768
280
     0
281
     1
  0
ENDSEC
  0
SECTION
  2
TABLES
  0
TABLE
  2
VPORT
  5
7
330
0
100
AcDbSymbolTable
 70
     2
  0
VPORT
  5
3FA
330
7
100
AcDbSymbolTableRecord
100
AcDbViewportTableRecord
  2
*Active
 70
     0
 10
0.0
 20
0.0
 11
1.0
 21
1.0
 12
-203.5494663864329
 22
125.8460917906451
 13
0.0
 23
0.0
 14
1.0
 24
1.0
 15
0.0
 25
0.0
 16
0.0
 26
0.0
 36
1.0
 17
0.0
 27
0.0
 37
0.0
 40
282.598877562907
 41
1.241011984021304
 42
50.0
 43
0.0
 44
0.0
 50
0.0
 51
0.0
 71
     0
 72
   100
 73
     1
 74
     1
 75
     0
 76
     0
 77
     0
 78
     0
281
     0
 65
     1
110
0.0
120
0.0
130
0.0
111
1.0
121
0.0
131
0.0
112
0.0
122
1.0
132
0.0
 79
     0
146
0.0
  0
ENDTAB
  0
TABLE
  2
LTYPE
  5
4
330
0
100
AcDbSymbolTable
 70
     8
  0
LTYPE
  5
11
330
4
100
AcDbSymbolTableRecord
100
AcDbLinetypeTableRecord
  2
BYBLOCK
 70
     0
  3

 72
    65
 73
     0
 40
0.0
  0
LTYPE
  5
12
330
4
100
AcDbSymbolTableRecord
100
AcDbLinetypeTableRecord
  2
BYLAYER
 70
     0
  3

 72
    65
 73
     0
 40
0.0
  0
LTYPE
  5
13
330
4
100
AcDbSymbolTableRecord
100
AcDbLinetypeTableRecord
  2
CONTINUOUS
 70
     0
  3
Solid line
 72
    65
 73
     0
 40
0.0
  0
LTYPE
  5
1D
330
4
100
AcDbSymbolTableRecord
100
AcDbLinetypeTableRecord
  2
DASHED
 70
     0
  3
Dashed
 72
    65
 73
     2
 40
15.0
 49
12.0
 74
     0
 49
-3.0
 74
     0
  0
LTYPE
  5
1E
330
4
100
AcDbSymbolTableRecord
100
AcDbLinetypeTableRecord
  2
DOTTED
 70
     0
  3
Dotted
 72
    65
 73
     2
 40
3.5
 49
0.5
 74
     0
 49
-3.0
 74
     0
  0
LTYPE
  5
1F
330
4
100
AcDbSymbolTableRecord
100
AcDbLinetypeTableRecord
  2
DOT_CENTER
 70
     0
  3
Dot_Center
 72
    65
 73
     4
 40
2.0
 49
1.25
 74
     0
 49
-0.25
 74
     0
 49
0.25
 74
     0
 49
-0.25
 74
     0
  0
LTYPE
  5
20
330
4
100
AcDbSymbolTableRecord
100
AcDbLinetypeTableRecord
  2
LONG_DASHED
 70
     0
  3
Long_Dashed
 72
    65
 73
     2
 40
2.0
 49
1.5
 74
     0
 49
-0.5
 74
     0
  0
LTYPE
  5
21
330
4
100
AcDbSymbolTableRecord
100
AcDbLinetypeTableRecord
  2
DASH_CENTER
 70
     0
  3
Dash_Center
 72
    65
 73
     4
 40
36.0
 49
24.0
 74
     0
 49
-3.0
 74
     0
 49
6.0
 74
     0
 49
-3.0
 74
     0
  0
LTYPE
  5
22
330
4
100
AcDbSymbolTableRecord
100
AcDbLinetypeTableRecord
  2
PHANTOM
 70
     0
  3
Phantom
 72
    65
 73
     6
 40
2.5
 49
1.25
 74
     0
 49
-0.25
 74
     0
 49
0.25
 74
     0
 49
-0.25
 74
     0
 49
0.25
 74
     0
 49
-0.25
 74
     0
  0
LTYPE
  5
23
330
4
100
AcDbSymbolTableRecord
100
AcDbLinetypeTableRecord
  2
CENTER_DASH_DASH
 70
     0
  3
Center_Dash_Dash
 72
    65
 73
     6
 40
22.0
 49
12.0
 74
     0
 49
-3.0
 74
     0
 49
0.5
 74
     0
 49
-3.0
 74
     0
 49
0.5
 74
     0
 49
-3.0
 74
     0
  0
ENDTAB
  0
TABLE
  2
LAYER
  5
2
330
0
100
AcDbSymbolTable
 70
     3
  0
LAYER
  5
14
330
2
100
AcDbSymbolTableRecord
100
AcDbLayerTableRecord
  2
0
 70
     0
 62
     7
  6
CONTINUOUS
370
    -3
390
34A
  0
LAYER
  5
24
330
2
100
AcDbSymbolTableRecord
100
AcDbLayerTableRecord
  2
1
 70
     0
 62
     7
  6
CONTINUOUS
370
    -3
390
34A
  0
LAYER
  5
3DB
330
2
100
AcDbSymbolTableRecord
100
AcDbLayerTableRecord
  2
LAYER_1
 70
     0
 62
     5
  6
CONTINUOUS
370
    -3
390
34A
  0
ENDTAB
  0
TABLE
  2
STYLE
  5
3
330
0
100
AcDbSymbolTable
 70
     3
  0
STYLE
  5
17
330
3
100
AcDbSymbolTableRecord
100
AcDbTextStyleTableRecord
  2
STANDARD
 70
     0
 40
0.0
 41
1.0
 50
0.0
 71
     0
 42
0.0
  3
txt
  4

  0
STYLE
  5
62
330
3
100
AcDbSymbolTableRecord
100
AcDbTextStyleTableRecord
  2
CONVERTER_1
 70
     0
 40
0.0
 41
0.8100000000000001
 50
0.0
 71
     0
 42
0.0
  3
txt.shx
  4

  0
STYLE
  5
6C
330
3
100
AcDbSymbolTableRecord
100
AcDbTextStyleTableRecord
  2
CONVERTER_2
 70
     0
 40
0.0
 41
0.9
 50
0.0
 71
     0
 42
0.0
  3
txt.shx
  4

  0
ENDTAB
  0
TABLE
  2
VIEW
  5
5
330
0
100
AcDbSymbolTable
 70
     0
  0
ENDTAB
  0
TABLE
  2
UCS
  5
6
330
0
100
AcDbSymbolTable
 70
     0
  0
ENDTAB
  0
TABLE
  2
APPID
  5
8
330
0
100
AcDbSymbolTable
 70
     1
  0
APPID
  5
16
330
8
100
AcDbSymbolTableRecord
100
AcDbRegAppTableRecord
  2
ACAD
 70
     0
  0
ENDTAB
  0
TABLE
  2
DIMSTYLE
  5
9
330
0
100
AcDbSymbolTable
 70
     1
100
AcDbDimStyleTable
 71
     0
  0
DIMSTYLE
105
18
330
9
100
AcDbSymbolTableRecord
100
AcDbDimStyleTableRecord
  2
STANDARD
 70
     0
340
17
  0
ENDTAB
  0
TABLE
  2
BLOCK_RECORD
  5
1
330
0
100
AcDbSymbolTable
 70
    37
  0
BLOCK_RECORD
  5
A
330
1
100
AcDbSymbolTableRecord
100
AcDbBlockTableRecord
  2
*MODEL_SPACE
340
34D
  0
BLOCK_RECORD
  5
B
330
1
100
AcDbSymbolTableRecord
100
AcDbBlockTableRecord
  2
*PAPER_SPACE
340
34E
  0
BLOCK_RECORD
  5
25
330
1
100
AcDbSymbolTableRecord
100
AcDbBlockTableRecord
  2
CSD_17_2UH
340
0
102
{BLKREFS
331
29
331
354
102
}
  0
BLOCK_RECORD
  5
27
330
1
100
AcDbSymbolTableRecord
100
AcDbBlockTableRecord
  2
100107378
340
0
102
{BLKREFS
331
2C
331
352
102
}
  0
BLOCK_RECORD
  5
2A
330
1
100
AcDbSymbolTableRecord
100
AcDbBlockTableRecord
  2
100107380
340
0
102
{BLKREFS
331
2F
331
350
102
}
  0
BLOCK_RECORD
  5
2D
330
1
100
AcDbSymbolTableRecord
100
AcDbBlockTableRecord
  2
C2A0372
340
0
102
{BLKREFS
331
4E
102
}
  0
BLOCK_RECORD
  5
30
330
1
100
AcDbSymbolTableRecord
100
AcDbBlockTableRecord
  2
HEX_BOLT_SIDE__1
340
0
102
{BLKREFS
331
4F
102
}
  0
BLOCK_RECORD
  5
32
330
1
100
AcDbSymbolTableRecord
100
AcDbBlockTableRecord
  2
HEX_BOLT_SIDE__2
340
0
102
{BLKREFS
331
50
102
}
  0
BLOCK_RECORD
  5
34
330
1
100
AcDbSymbolTableRecord
100
AcDbBlockTableRecord
  2
WB_025_R
340
0
102
{BLKREFS
331
51
102
}
  0
BLOCK_RECORD
  5
36
330
1
100
AcDbSymbolTableRecord
100
AcDbBlockTableRecord
  2
HEX_BOLT_SIDE__3
340
0
102
{BLKREFS
331
3A
102
}
  0
BLOCK_RECORD
  5
38
330
1
100
AcDbSymbolTableRecord
100
AcDbBlockTableRecord
  2
CRB
340
0
102
{BLKREFS
331
52
102
}
  0
BLOCK_RECORD
  5
3B
330
1
100
AcDbSymbolTableRecord
100
AcDbBlockTableRecord
  2
RETAINER
340
0
102
{BLKREFS
331
3F
102
}
  0
BLOCK_RECORD
  5
3D
330
1
100
AcDbSymbolTableRecord
100
AcDbBlockTableRecord
  2
WBG_025_F
340
0
102
{BLKREFS
331
53
102
}
  0
BLOCK_RECORD
  5
40
330
1
100
AcDbSymbolTableRecord
100
AcDbBlockTableRecord
  2
HEX_BOLT_TOP__4
340
0
102
{BLKREFS
331
54
102
}
  0
BLOCK_RECORD
  5
42
330
1
100
AcDbSymbolTableRecord
100
AcDbBlockTableRecord
  2
HEX_BOLT_TOP__5
340
0
102
{BLKREFS
331
55
102
}
  0
BLOCK_RECORD
  5
44
330
1
100
AcDbSymbolTableRecord
100
AcDbBlockTableRecord
  2
HEX_BOLT_TOP__6
340
0
102
{BLKREFS
331
56
102
}
  0
BLOCK_RECORD
  5
46
330
1
100
AcDbSymbolTableRecord
100
AcDbBlockTableRecord
  2
HEX_BOLT_TOP__7
340
0
102
{BLKREFS
331
57
102
}
  0
BLOCK_RECORD
  5
48
330
1
100
AcDbSymbolTableRecord
100
AcDbBlockTableRecord
  2
HEX_BOLT_TOP__8
340
0
102
{BLKREFS
331
58
102
}
  0
BLOCK_RECORD
  5
4A
330
1
100
AcDbSymbolTableRecord
100
AcDbBlockTableRecord
  2
HEX_BOLT_TOP__9
340
0
102
{BLKREFS
331
59
102
}
  0
BLOCK_RECORD
  5
367
330
1
100
AcDbSymbolTableRecord
100
AcDbBlockTableRecord
  2
NTC
340
0
310
2800000020000000200000000100080000000000000400000000000000000000000000000000000000000000000080000080000000808000800000008000800080800000C0C0C000C0DCC000F0CAA6000020400000206000002080000020A0000020C0000020E00000400000004020000040400000406000004080000040A0
310
000040C0000040E00000600000006020000060400000606000006080000060A0000060C0000060E00000800000008020000080400000806000008080000080A0000080C0000080E00000A0000000A0200000A0400000A0600000A0800000A0A00000A0C00000A0E00000C0000000C0200000C0400000C0600000C0800000C0
310
A00000C0C00000C0E00000E0000000E0200000E0400000E0600000E0800000E0A00000E0C00000E0E00040000000400020004000400040006000400080004000A0004000C0004000E00040200000402020004020400040206000402080004020A0004020C0004020E000404000004040200040404000404060004040800040
310
40A0004040C0004040E00040600000406020004060400040606000406080004060A0004060C0004060E00040800000408020004080400040806000408080004080A0004080C0004080E00040A0000040A0200040A0400040A0600040A0800040A0A00040A0C00040A0E00040C0000040C0200040C0400040C0600040C08000
310
40C0A00040C0C00040C0E00040E0000040E0200040E0400040E0600040E0800040E0A00040E0C00040E0E00080000000800020008000400080006000800080008000A0008000C0008000E00080200000802020008020400080206000802080008020A0008020C0008020E00080400000804020008040400080406000804080
310
008040A0008040C0008040E00080600000806020008060400080606000806080008060A0008060C0008060E00080800000808020008080400080806000808080008080A0008080C0008080E00080A0000080A0200080A0400080A0600080A0800080A0A00080A0C00080A0E00080C0000080C0200080C0400080C0600080C0
310
800080C0A00080C0C00080C0E00080E0000080E0200080E0400080E0600080E0800080E0A00080E0C00080E0E000C0000000C0002000C0004000C0006000C0008000C000A000C000C000C000E000C0200000C0202000C0204000C0206000C0208000C020A000C020C000C020E000C0400000C0402000C0404000C0406000C0
310
408000C040A000C040C000C040E000C0600000C0602000C0604000C0606000C0608000C060A000C060C000C060E000C0800000C0802000C0804000C0806000C0808000C080A000C080C000C080E000C0A00000C0A02000C0A04000C0A06000C0A08000C0A0A000C0A0C000C0A0E000C0C00000C0C02000C0C04000C0C06000
310
C0C08000C0C0A000F0FBFF00A4A0A000808080000000FF0000FF000000FFFF00FF000000FF00FF00FFFF0000FFFFFF00FFFFFFFFFFFFFFFFFFFFFFFFFFFFFFFFFFFFFFFFFFFFFFFFFFFFFFFFFFFFFFFFFFFFFFFFFFFFFFFFFFFFFFFFFFFFFFFFFFFFFFFFFFFFFFFFFFFFFFFFFFFFFFFFFFFFFFFFFFFFFFFFFFFFFFFFFFFFFF
310
FFFFFFFFFFFFFFFFFFFFFFFFFFFFFFFFFFFFFFFFFFFFFFFFFFFFFFFFFFFFFFFFFFFFFFFFFFFFFFFFFFFFFFFFFFFFFFFFFFFFFFFFFFFFFFFFFFFFFFFFFFFFFFFFFFFFFFFFFFFFFFFFFFFFFFFFFFFFFFFFFFFFFFFFFFFFFFFFFFFFFFFFFFFFFFFFFFFFFFFFFFFFFFFFFFFFFFFFFFFFFFFFFFFFFFFFFFFFFFFFFFFFFFFFFFFFFF
310
FFFFFFFFFFFFFFFFFFFFFFFFFFFFFFFFFFFFFFFFFFFFFFFFFFFFFFFFFFFFFFFFFFFFFFFFFFFFFFFFFFFFFFFFFFFFFFFFFFFFFFFFFFFFFFFFFFFFFFFFFFFFFFFFFFFFFFFFFFFFFFFFFFFFFFFFFFFFFFFFFFFFFFFFFFFFFFFFFFFFFFFFFFFFFFFFFFFFFFFFFFFFFFFFFFFFFFFFFFFFFFFFFFFFFFFFFFFFFFFFFFFFFFFFFFFFFF
310
FFFFFFFFFFFFFFFFFFFFFFFFFFFFFFFFFFFFFFFF000000000000000000000000000000000000000000000000000000000000FFFF00FF0000000000000000FFFFFFFFFFFFFFFFFFFFFFFFFFFFFFFFFFFFFF00FFFF00FF0000000000000000FFFFFFFFFFFFFFFFFFFFFFFFFFFFFFFFFFFFFF00FFFF00FF000000000000000000
310
00000000000000000000000000FFFFFFFFFF00FFFF00FF0000000000000000000000000000000000000000000000000000FF00FFFF00FF0000000000000000000000000000000000000000000000000000FF00FFFF00FF0000000000000000000000000000000000000000000000000000FF00FFFF00FF0000000000000000
310
00000000000000000000000000000000FFFFFF00FFFF00FF0000000000FFFFFFFFFFFFFFFFFFFFFFFFFFFFFFFFFFFFFFFFFFFF00FFFF000000000000000000000000000000000000000000000000000000000000FFFFFFFFFFFFFFFFFFFFFFFFFFFFFFFFFFFFFFFFFFFFFFFFFFFFFFFFFFFFFFFFFFFFFFFFFFFFFFFFFFFFFF
310
FFFFFFFFFFFFFFFFFFFFFFFFFFFFFFFFFFFFFFFFFFFFFFFFFFFFFFFFFFFFFFFFFFFFFFFFFFFFFFFFFFFFFFFFFFFFFFFFFFFFFFFFFFFFFFFFFFFFFFFFFFFFFFFFFFFFFFFFFFFFFFFFFFFFFFFFFFFFFFFFFFFFFFFFFFFFFFFFFFFFFFFFFFFFFFFFFFFFFFFFFFFFFFFFFFFFFFFFFFFFFFFFFFFFFFFFFFFFFFFFFFFFFFFFFFFFFF
310
FFFFFFFFFFFFFFFFFFFFFFFFFFFFFFFFFFFFFFFFFFFFFFFFFFFFFFFFFFFFFFFFFFFFFFFFFFFFFFFFFFFFFFFFFFFFFFFFFFFFFFFFFFFFFFFFFFFFFFFFFFFFFFFFFFFFFFFFFFFFFFFFFFFFFFFFFFFFFFFFFFFFFFFFFFFFFFFFFFFFFFFFFFFFFFFFFFFFFFFFFFFFFFFFFFFFFFFFFFFFFFFFFFFFFFFFFFFFFFFFFFFFFFFFFFFFFF
310
FFFFFFFFFFFFFFFFFFFFFFFFFFFFFFFFFFFFFFFFFFFFFFFFFFFFFFFFFFFFFFFFFFFFFFFFFFFFFFFFFFFFFFFFFFFFFFFFFFFFFFFFFFFFFFFF
102
{BLKREFS
331
36D
331
372
102
}
  0
BLOCK_RECORD
  5
373
330
1
100
AcDbSymbolTableRecord
100
AcDbBlockTableRecord
  2
AI9-BLK14
340
0
310
2800000020000000200000000100080000000000000400000000000000000000000000000000000000000000000080000080000000808000800000008000800080800000C0C0C000C0DCC000F0CAA6000020400000206000002080000020A0000020C0000020E00000400000004020000040400000406000004080000040A0
310
000040C0000040E00000600000006020000060400000606000006080000060A0000060C0000060E00000800000008020000080400000806000008080000080A0000080C0000080E00000A0000000A0200000A0400000A0600000A0800000A0A00000A0C00000A0E00000C0000000C0200000C0400000C0600000C0800000C0
310
A00000C0C00000C0E00000E0000000E0200000E0400000E0600000E0800000E0A00000E0C00000E0E00040000000400020004000400040006000400080004000A0004000C0004000E00040200000402020004020400040206000402080004020A0004020C0004020E000404000004040200040404000404060004040800040
310
40A0004040C0004040E00040600000406020004060400040606000406080004060A0004060C0004060E00040800000408020004080400040806000408080004080A0004080C0004080E00040A0000040A0200040A0400040A0600040A0800040A0A00040A0C00040A0E00040C0000040C0200040C0400040C0600040C08000
310
40C0A00040C0C00040C0E00040E0000040E0200040E0400040E0600040E0800040E0A00040E0C00040E0E00080000000800020008000400080006000800080008000A0008000C0008000E00080200000802020008020400080206000802080008020A0008020C0008020E00080400000804020008040400080406000804080
310
008040A0008040C0008040E00080600000806020008060400080606000806080008060A0008060C0008060E00080800000808020008080400080806000808080008080A0008080C0008080E00080A0000080A0200080A0400080A0600080A0800080A0A00080A0C00080A0E00080C0000080C0200080C0400080C0600080C0
310
800080C0A00080C0C00080C0E00080E0000080E0200080E0400080E0600080E0800080E0A00080E0C00080E0E000C0000000C0002000C0004000C0006000C0008000C000A000C000C000C000E000C0200000C0202000C0204000C0206000C0208000C020A000C020C000C020E000C0400000C0402000C0404000C0406000C0
310
408000C040A000C040C000C040E000C0600000C0602000C0604000C0606000C0608000C060A000C060C000C060E000C0800000C0802000C0804000C0806000C0808000C080A000C080C000C080E000C0A00000C0A02000C0A04000C0A06000C0A08000C0A0A000C0A0C000C0A0E000C0C00000C0C02000C0C04000C0C06000
310
C0C08000C0C0A000F0FBFF00A4A0A000808080000000FF0000FF000000FFFF00FF000000FF00FF00FFFF0000FFFFFF00FF00FFFFFFFF00FFFFFFFFFFFFFFFFFFFFFFFFFFFFFFFFFFFFFFFFFFFFFFFFFFFF00FFFFFFFF00FFFFFFFFFFFFFFFFFFFFFFFFFFFFFFFFFFFFFFFFFFFFFFFFFFFF00FFFFFFFF00FFFFFFFFFFFFFFFF
310
FFFFFFFFFFFFFFFFFFFFFFFFFFFFFFFFFFFF00FFFFFFFF00FFFFFFFFFFFFFFFFFFFFFFFFFFFFFFFFFFFFFFFFFFFFFFFFFFFF00FFFFFFFF00FFFFFFFFFFFFFFFFFFFFFFFFFFFFFFFFFFFFFFFFFFFFFFFFFFFF00FFFFFFFF00FFFFFFFFFFFFFFFFFFFFFFFFFFFFFFFFFFFFFFFFFFFFFFFFFFFF00FFFFFFFF00FFFFFFFFFFFFFF
310
FFFFFFFFFFFFFFFFFFFFFFFFFFFFFFFFFFFFFF00FFFFFFFF00FFFFFFFFFFFFFFFFFFFFFFFFFFFFFFFFFFFFFFFFFFFFFFFFFFFF00FFFFFFFF00FFFFFFFFFFFFFFFFFFFFFFFFFFFFFFFFFFFFFFFFFFFFFFFFFFFF00FFFFFFFF00FFFFFFFFFFFFFFFFFFFFFFFFFFFFFFFFFFFFFFFFFFFFFFFFFFFF00FFFFFFFF00FFFFFFFFFFFF
310
FFFFFFFFFFFFFFFFFFFFFFFFFFFFFFFFFFFFFFFF00FFFFFFFF00FFFFFFFFFFFFFFFFFFFFFFFFFFFFFFFFFFFFFFFFFFFFFFFFFFFF00FFFFFFFF00FFFFFFFFFFFFFFFFFFFFFFFFFFFFFFFFFFFFFFFFFFFFFFFFFFFF00FFFFFFFF0000000000000000000000000000000000000000000000000000FF00FFFFFFFFFFFFFFFFFFFF
310
FFFFFFFFFFFFFFFFFFFFFFFFFFFFFFFFFFFFFFFFFF00FFFFFFFFFFFFFFFFFFFFFFFFFFFFFFFFFFFFFFFFFFFFFFFFFFFFFFFFFFFFFF00FFFFFFFFFFFFFFFFFFFFFFFFFFFFFFFFFFFFFFFFFFFFFFFFFFFFFFFFFFFFFF00FFFFFFFFFFFFFFFFFFFFFFFFFFFFFFFFFFFFFFFFFFFFFFFFFFFFFFFFFF00FF00000000000000000000
310
0000000000000000000000000000000000000000FFFFFFFFFFFFFFFFFFFFFFFFFFFFFFFFFFFFFFFFFFFFFFFFFFFFFFFFFFFFFFFFFFFFFFFFFFFFFFFFFFFFFFFFFFFFFFFFFFFFFFFFFFFFFFFFFFFFFFFFFFFFFFFFFFFFFFFFFFFFFFFFFFFFFFFFFFFFFFFFFFFFFFFFFFFFFFFFFFFFFFFFFFFFFFFFFFFFFFFFFFFFFFFFFFFFFF
310
FFFFFFFFFFFFFFFFFFFFFFFFFFFFFFFFFFFFFFFFFFFFFFFFFFFFFFFFFFFFFFFFFFFFFFFFFFFFFFFFFFFFFFFFFFFFFFFFFFFFFFFFFFFFFFFFFFFFFFFFFFFFFFFFFFFFFFFFFFFFFFFFFFFFFFFFFFFFFFFFFFFFFFFFFFFFFFFFFFFFFFFFFFFFFFFFFFFFFFFFFFFFFFFFFFFFFFFFFFFFFFFFFFFFFFFFFFFFFFFFFFFFFFFFFFFFFF
310
FFFFFFFFFFFFFFFFFFFFFFFFFFFFFFFFFFFFFFFFFFFFFFFFFFFFFFFFFFFFFFFFFFFFFFFFFFFFFFFFFFFFFFFFFFFFFFFFFFFFFFFFFFFFFFFFFFFFFFFFFFFFFFFFFFFFFFFFFFFFFFFFFFFFFFFFFFFFFFFFFFFFFFFFFFFFFFFFFFFFFFFFFFFFFFFFFFFFFFFFFFFFFFFFFFFFFFFFFFFFFFFFFFFFFFFFFFFFFFFFFFFFFFFFFFFFFF
310
FFFFFFFFFFFFFFFFFFFFFFFFFFFFFFFFFFFFFFFFFFFFFFFFFFFFFFFFFFFFFFFFFFFFFFFFFFFFFFFFFFFFFFFFFFFFFFFFFFFFFFFFFFFFFFFF
102
{BLKREFS
331
3B4
102
}
  0
BLOCK_RECORD
  5
378
330
1
100
AcDbSymbolTableRecord
100
AcDbBlockTableRecord
  2
AI9-BLK13
340
0
310
2800000020000000200000000100080000000000000400000000000000000000000000000000000000000000000080000080000000808000800000008000800080800000C0C0C000C0DCC000F0CAA6000020400000206000002080000020A0000020C0000020E00000400000004020000040400000406000004080000040A0
310
000040C0000040E00000600000006020000060400000606000006080000060A0000060C0000060E00000800000008020000080400000806000008080000080A0000080C0000080E00000A0000000A0200000A0400000A0600000A0800000A0A00000A0C00000A0E00000C0000000C0200000C0400000C0600000C0800000C0
310
A00000C0C00000C0E00000E0000000E0200000E0400000E0600000E0800000E0A00000E0C00000E0E00040000000400020004000400040006000400080004000A0004000C0004000E00040200000402020004020400040206000402080004020A0004020C0004020E000404000004040200040404000404060004040800040
310
40A0004040C0004040E00040600000406020004060400040606000406080004060A0004060C0004060E00040800000408020004080400040806000408080004080A0004080C0004080E00040A0000040A0200040A0400040A0600040A0800040A0A00040A0C00040A0E00040C0000040C0200040C0400040C0600040C08000
310
40C0A00040C0C00040C0E00040E0000040E0200040E0400040E0600040E0800040E0A00040E0C00040E0E00080000000800020008000400080006000800080008000A0008000C0008000E00080200000802020008020400080206000802080008020A0008020C0008020E00080400000804020008040400080406000804080
310
008040A0008040C0008040E00080600000806020008060400080606000806080008060A0008060C0008060E00080800000808020008080400080806000808080008080A0008080C0008080E00080A0000080A0200080A0400080A0600080A0800080A0A00080A0C00080A0E00080C0000080C0200080C0400080C0600080C0
310
800080C0A00080C0C00080C0E00080E0000080E0200080E0400080E0600080E0800080E0A00080E0C00080E0E000C0000000C0002000C0004000C0006000C0008000C000A000C000C000C000E000C0200000C0202000C0204000C0206000C0208000C020A000C020C000C020E000C0400000C0402000C0404000C0406000C0
310
408000C040A000C040C000C040E000C0600000C0602000C0604000C0606000C0608000C060A000C060C000C060E000C0800000C0802000C0804000C0806000C0808000C080A000C080C000C080E000C0A00000C0A02000C0A04000C0A06000C0A08000C0A0A000C0A0C000C0A0E000C0C00000C0C02000C0C04000C0C06000
310
C0C08000C0C0A000F0FBFF00A4A0A000808080000000FF0000FF000000FFFF00FF000000FF00FF00FFFF0000FFFFFF00FFFFFFFFFFFFFFFFFFFFFFFFFFFFFFFFFFFFFFFFFFFFFFFFFFFFFFFFFFFFFFFFFFFFFFFFFFFFFFFFFFFFFF0000FFFFFFFFFFFF0000FFFFFFFFFFFFFFFFFFFFFFFFFFFFFFFFFFFFFFFFFFFF0000FFFF
310
FFFFFFFF0000FFFFFFFFFFFFFFFFFFFFFFFFFFFFFFFFFFFFFFFFFFFF0000FFFFFFFFFFFF0000FFFFFFFFFFFFFFFFFFFFFFFFFFFFFFFFFFFFFFFFFFFF0000FFFFFFFFFFFF0000FFFFFFFFFFFFFFFFFFFFFFFFFFFFFFFFFFFFFFFFFFFF0000FFFFFFFFFFFF0000FFFFFFFFFFFFFFFFFFFFFFFFFFFFFFFFFFFFFFFFFFFF0000FF
310
FFFFFFFFFF0000FFFFFFFFFFFFFFFFFFFFFFFFFFFFFFFFFFFFFFFFFFFF0000FFFFFFFFFFFF0000FFFFFFFFFFFFFFFFFFFFFFFFFFFFFFFFFFFFFFFFFFFF0000FFFFFFFFFFFF0000FFFFFFFFFFFFFFFFFFFFFFFFFFFFFFFFFFFFFFFFFFFF0000FFFFFFFFFFFF0000FFFFFFFFFFFFFFFFFFFFFFFFFFFFFFFFFFFFFFFFFFFF0000
310
FFFFFFFFFFFF0000FFFFFFFFFFFFFFFFFFFFFFFFFFFFFFFFFFFFFFFFFFFF0000FFFFFFFFFFFF0000FFFFFFFFFFFFFFFFFFFFFFFFFFFFFFFFFFFFFFFFFFFF0000FFFFFFFFFFFF0000FFFFFFFFFFFFFFFFFFFFFFFFFFFFFFFFFFFFFFFFFFFF0000FFFFFFFFFFFF0000FFFFFFFFFFFFFFFFFFFFFFFFFFFFFFFFFFFFFFFFFFFF00
310
00FFFFFFFFFFFF0000FFFFFFFFFFFFFFFFFFFFFFFFFFFFFFFFFFFFFFFFFFFF00000000000000000000FFFFFFFFFFFFFFFFFFFFFFFFFFFFFFFFFFFFFFFFFFFF00FFFFFFFFFFFFFFFF00FFFFFFFFFFFFFFFFFFFFFFFFFFFFFFFFFFFFFFFFFFFF00FFFFFFFFFFFFFFFF00FFFFFFFFFFFFFFFFFFFFFFFFFFFFFFFFFFFFFFFFFFFF
310
00000000000000000000FFFFFFFFFFFFFFFFFFFFFFFFFFFFFFFFFFFFFFFFFFFF0000FFFFFFFFFFFF0000FFFFFFFFFFFFFFFFFFFFFFFFFFFFFFFFFFFFFFFFFFFF0000FFFFFFFFFFFF0000FFFFFFFFFFFFFFFFFFFFFFFFFFFFFFFFFFFFFFFFFFFF0000FFFFFFFFFFFF0000FFFFFFFFFFFFFFFFFFFFFFFFFFFFFFFFFFFFFFFFFF
310
FF0000FFFFFFFFFFFF0000FFFFFFFFFFFFFFFFFFFFFFFFFFFFFFFFFFFFFFFFFFFF0000FFFFFFFFFFFF0000FFFFFFFFFFFFFFFFFFFFFFFFFFFFFFFFFFFFFFFFFFFF0000FFFFFFFFFFFF0000FFFFFFFFFFFFFFFFFFFFFFFFFFFFFFFFFFFFFFFFFFFF0000FFFFFFFFFFFF0000FFFFFFFFFFFFFFFFFFFFFFFFFFFFFFFFFFFFFFFF
310
FFFF0000FFFFFFFFFFFF0000FFFFFFFFFFFFFFFFFFFFFFFFFFFFFFFFFFFFFFFFFFFF0000FFFFFFFFFFFF0000FFFFFFFFFFFFFFFFFFFFFFFFFFFFFFFFFFFFFFFFFFFF0000FFFFFFFFFFFF0000FFFFFFFFFFFFFFFFFFFFFFFFFFFFFFFFFFFFFFFFFFFF0000FFFFFFFFFFFF0000FFFFFFFFFFFFFFFFFFFFFFFFFFFFFFFFFFFFFF
310
FFFFFF0000FFFFFFFFFFFF0000FFFFFFFFFFFFFFFFFFFFFFFFFFFFFFFFFFFFFFFFFFFFFFFFFFFFFFFFFFFFFFFFFFFFFFFFFFFFFFFFFFFFFF
102
{BLKREFS
331
3B5
102
}
  0
BLOCK_RECORD
  5
37D
330
1
100
AcDbSymbolTableRecord
100
AcDbBlockTableRecord
  2
AI9-BLK11
340
0
310
2800000020000000200000000100080000000000000400000000000000000000000000000000000000000000000080000080000000808000800000008000800080800000C0C0C000C0DCC000F0CAA6000020400000206000002080000020A0000020C0000020E00000400000004020000040400000406000004080000040A0
310
000040C0000040E00000600000006020000060400000606000006080000060A0000060C0000060E00000800000008020000080400000806000008080000080A0000080C0000080E00000A0000000A0200000A0400000A0600000A0800000A0A00000A0C00000A0E00000C0000000C0200000C0400000C0600000C0800000C0
310
A00000C0C00000C0E00000E0000000E0200000E0400000E0600000E0800000E0A00000E0C00000E0E00040000000400020004000400040006000400080004000A0004000C0004000E00040200000402020004020400040206000402080004020A0004020C0004020E000404000004040200040404000404060004040800040
310
40A0004040C0004040E00040600000406020004060400040606000406080004060A0004060C0004060E00040800000408020004080400040806000408080004080A0004080C0004080E00040A0000040A0200040A0400040A0600040A0800040A0A00040A0C00040A0E00040C0000040C0200040C0400040C0600040C08000
310
40C0A00040C0C00040C0E00040E0000040E0200040E0400040E0600040E0800040E0A00040E0C00040E0E00080000000800020008000400080006000800080008000A0008000C0008000E00080200000802020008020400080206000802080008020A0008020C0008020E00080400000804020008040400080406000804080
310
008040A0008040C0008040E00080600000806020008060400080606000806080008060A0008060C0008060E00080800000808020008080400080806000808080008080A0008080C0008080E00080A0000080A0200080A0400080A0600080A0800080A0A00080A0C00080A0E00080C0000080C0200080C0400080C0600080C0
310
800080C0A00080C0C00080C0E00080E0000080E0200080E0400080E0600080E0800080E0A00080E0C00080E0E000C0000000C0002000C0004000C0006000C0008000C000A000C000C000C000E000C0200000C0202000C0204000C0206000C0208000C020A000C020C000C020E000C0400000C0402000C0404000C0406000C0
310
408000C040A000C040C000C040E000C0600000C0602000C0604000C0606000C0608000C060A000C060C000C060E000C0800000C0802000C0804000C0806000C0808000C080A000C080C000C080E000C0A00000C0A02000C0A04000C0A06000C0A08000C0A0A000C0A0C000C0A0E000C0C00000C0C02000C0C04000C0C06000
310
C0C08000C0C0A000F0FBFF00A4A0A000808080000000FF0000FF000000FFFF00FF000000FF00FF00FFFF0000FFFFFF00FFFFFFFFFFFFFFFFFFFFFFFFFFFFFFFFFFFFFFFFFFFFFFFFFFFFFFFFFFFFFFFFFFFFFFFFFFFFFFFFFFFFFFFFFFFF00000000FFFFFFFFFFFFFFFFFFFFFF000000FFFFFFFFFFFFFFFFFFFFFFFFFFFF00
310
FFFF00FFFFFFFFFFFFFFFFFFFFFF00FFFFFFFFFFFFFFFFFFFFFFFFFFFFFFFF00FFFF00FFFFFFFFFFFFFFFFFFFFFF00FFFFFFFFFFFFFFFFFFFFFFFFFFFFFFFF00FFFF00FFFFFFFFFFFFFFFFFFFFFF00FFFFFFFFFFFFFFFFFFFFFFFFFFFFFFFF00FFFF00FFFFFFFFFFFFFFFFFFFFFF00FFFFFFFFFFFFFFFFFFFFFFFFFFFFFFFF
310
00FFFF00FFFFFFFFFFFFFFFFFFFFFF00FFFFFFFFFFFFFFFFFFFFFFFFFFFFFFFF00FFFF00FFFFFFFFFFFFFFFFFFFFFF00FFFFFFFFFFFFFFFFFFFFFFFFFFFFFFFF00FFFF00FFFFFFFFFFFFFFFFFFFFFF00FFFFFFFFFFFFFFFFFFFFFFFFFFFFFFFF00FFFF00FFFFFFFFFFFFFFFFFFFFFF00FFFFFFFFFFFFFFFFFFFFFFFFFFFFFF
310
FF00FFFF00FFFFFFFFFFFFFFFFFFFFFF00FFFFFFFFFFFFFFFFFFFFFFFFFFFFFFFF00FFFF00FFFFFFFFFFFFFFFFFFFFFF00FFFFFFFFFFFFFFFFFFFFFFFFFFFFFFFF00FFFF00FFFFFFFFFFFFFFFFFFFFFF00FFFFFFFFFFFFFFFFFFFFFFFFFFFFFFFF00FFFF00FFFFFFFFFFFFFFFFFFFFFF00FFFFFFFFFFFFFFFFFFFFFFFFFFFF
310
FFFF00FFFF00FFFFFFFFFFFFFFFFFFFFFF00FFFFFFFFFFFFFFFFFFFFFFFFFFFFFFFF00FFFF00FFFFFFFFFFFFFFFFFFFFFF00FFFFFFFFFFFFFFFFFFFFFFFFFFFFFFFF00FFFF00FFFFFFFFFFFFFFFFFFFFFF00FFFFFFFFFFFFFFFFFFFFFFFFFFFFFFFF00FFFF00FFFFFFFFFFFFFFFFFFFF00FFFFFFFFFFFFFFFFFFFFFFFFFFFF
310
FFFFFF00FFFF00FFFFFFFFFFFFFFFFFFFF00FFFFFFFFFFFFFFFFFFFFFFFFFFFFFFFFFF00FFFF00FFFFFFFFFFFFFFFFFFFF00FFFFFFFFFFFFFFFFFFFFFFFFFFFFFFFFFF00FFFF00FFFFFFFFFFFFFFFFFFFF00FFFFFFFFFFFFFFFFFFFFFFFFFFFFFFFFFF00FFFF00FFFFFFFFFFFFFFFFFFFF00FFFFFFFFFFFFFFFFFFFFFFFFFF
310
FFFFFFFF00FFFF00FFFFFFFFFFFFFFFFFF0000FFFF00FFFFFFFFFFFFFFFFFFFFFFFFFFFF00FFFF00FFFFFFFFFFFFFFFF0000FFFFFF00FFFFFFFFFFFFFFFFFFFFFFFFFFFF00FFFF00000000000000000000FFFFFFFF00FFFFFFFFFFFFFFFFFFFFFFFFFFFF00FFFFFFFFFFFFFFFFFFFFFFFFFFFFFF00FFFFFFFFFFFFFFFFFFFF
310
FFFFFFFFFF00FFFFFFFFFFFFFFFFFFFFFFFFFFFF00FFFFFFFFFFFFFFFFFFFFFFFFFFFFFFFF00FFFFFFFFFFFFFFFFFFFFFFFFFFFF00FFFFFFFFFFFFFFFFFFFFFFFFFFFFFFFF00FFFFFFFFFFFFFFFFFFFFFFFFFFFFFF00FFFFFFFFFFFFFFFFFFFFFFFFFFFFFF00FFFFFFFFFFFFFFFFFFFFFFFFFFFFFF00FFFFFFFFFFFFFFFFFF
310
FFFFFFFFFFFF00FFFF00000000000000000000FFFFFFFF00FFFFFFFFFFFFFFFFFFFFFFFFFFFF00FFFF00FFFFFFFFFFFFFFFFFF0000FFFF00
102
{BLKREFS
331
3B6
102
}
  0
BLOCK_RECORD
  5
382
330
1
100
AcDbSymbolTableRecord
100
AcDbBlockTableRecord
  2
AI9-BLK10
340
0
310
2800000020000000200000000100080000000000000400000000000000000000000000000000000000000000000080000080000000808000800000008000800080800000C0C0C000C0DCC000F0CAA6000020400000206000002080000020A0000020C0000020E00000400000004020000040400000406000004080000040A0
310
000040C0000040E00000600000006020000060400000606000006080000060A0000060C0000060E00000800000008020000080400000806000008080000080A0000080C0000080E00000A0000000A0200000A0400000A0600000A0800000A0A00000A0C00000A0E00000C0000000C0200000C0400000C0600000C0800000C0
310
A00000C0C00000C0E00000E0000000E0200000E0400000E0600000E0800000E0A00000E0C00000E0E00040000000400020004000400040006000400080004000A0004000C0004000E00040200000402020004020400040206000402080004020A0004020C0004020E000404000004040200040404000404060004040800040
310
40A0004040C0004040E00040600000406020004060400040606000406080004060A0004060C0004060E00040800000408020004080400040806000408080004080A0004080C0004080E00040A0000040A0200040A0400040A0600040A0800040A0A00040A0C00040A0E00040C0000040C0200040C0400040C0600040C08000
310
40C0A00040C0C00040C0E00040E0000040E0200040E0400040E0600040E0800040E0A00040E0C00040E0E00080000000800020008000400080006000800080008000A0008000C0008000E00080200000802020008020400080206000802080008020A0008020C0008020E00080400000804020008040400080406000804080
310
008040A0008040C0008040E00080600000806020008060400080606000806080008060A0008060C0008060E00080800000808020008080400080806000808080008080A0008080C0008080E00080A0000080A0200080A0400080A0600080A0800080A0A00080A0C00080A0E00080C0000080C0200080C0400080C0600080C0
310
800080C0A00080C0C00080C0E00080E0000080E0200080E0400080E0600080E0800080E0A00080E0C00080E0E000C0000000C0002000C0004000C0006000C0008000C000A000C000C000C000E000C0200000C0202000C0204000C0206000C0208000C020A000C020C000C020E000C0400000C0402000C0404000C0406000C0
310
408000C040A000C040C000C040E000C0600000C0602000C0604000C0606000C0608000C060A000C060C000C060E000C0800000C0802000C0804000C0806000C0808000C080A000C080C000C080E000C0A00000C0A02000C0A04000C0A06000C0A08000C0A0A000C0A0C000C0A0E000C0C00000C0C02000C0C04000C0C06000
310
C0C08000C0C0A000F0FBFF00A4A0A000808080000000FF0000FF000000FFFF00FF000000FF00FF00FFFF0000FFFFFF00FFFFFFFFFFFFFFFFFFFFFFFFFFFFFFFF00FFFFFFFFFFFFFFFFFFFFFFFF00FFFFFFFFFFFFFFFFFFFFFFFFFFFFFFFFFFFF00FFFFFFFFFFFFFFFFFFFFFF00FFFFFFFFFFFFFFFFFFFFFFFFFFFFFFFFFFFF
310
FF00FFFFFFFFFFFFFFFFFFFFFF00FFFFFFFFFFFFFFFFFFFFFFFFFFFFFFFFFFFFFF00FFFFFFFFFFFFFFFFFFFFFF00FFFFFFFFFFFFFFFFFFFFFFFFFFFFFFFFFFFFFF00FFFFFFFFFFFFFFFFFFFFFF00FFFFFFFFFFFFFFFFFFFFFFFFFFFFFFFFFFFFFF00FFFFFFFFFFFFFFFFFFFFFF00FFFFFFFFFFFFFFFFFFFFFFFFFFFFFFFFFF
310
FFFF00FFFFFFFFFFFFFFFFFFFFFF00FFFFFFFFFFFFFFFFFFFFFFFFFFFFFFFFFFFFFF00FFFFFFFFFFFFFFFFFFFF00FFFFFFFFFFFFFFFFFFFFFFFFFFFFFFFFFFFFFFFF00FFFFFFFFFFFFFFFFFFFF00FFFFFFFFFFFFFFFFFFFFFFFFFFFFFFFFFFFFFFFF00FFFFFFFFFFFFFFFFFFFF00FFFFFFFFFFFFFFFFFFFFFFFFFFFFFFFFFF
310
FFFFFF00FFFFFFFFFFFFFFFFFFFF00FFFFFFFFFFFFFFFFFFFFFFFFFFFFFFFFFFFFFFFF00FFFFFFFFFFFFFFFFFFFF00FFFFFFFFFFFFFFFFFFFFFFFFFFFFFFFFFFFFFFFF00FFFFFFFFFFFFFFFFFFFF00FFFFFFFFFFFFFFFFFFFFFFFFFFFFFFFFFFFFFFFF00FFFFFFFFFFFFFFFFFF00FFFFFFFFFFFFFFFFFFFFFFFFFFFFFFFFFF
310
FFFFFFFF00FFFFFFFFFFFFFFFFFF00FFFFFFFFFFFFFFFFFFFFFFFFFFFFFFFFFFFFFFFFFF00FFFFFFFFFFFFFFFFFF00FFFFFFFFFFFFFFFFFFFFFFFFFFFFFFFFFFFFFFFFFF0000000000000000000000FFFFFFFFFFFFFFFFFFFFFFFFFFFFFFFFFFFFFFFFFFFFFFFFFFFFFFFFFFFFFFFFFFFFFFFFFFFFFFFFFFFFFFFFFFFFFFFF
310
FFFFFFFFFFFFFFFFFFFFFFFFFFFFFFFFFFFFFFFFFFFFFFFFFFFFFFFFFFFFFFFFFFFFFFFFFFFFFFFFFFFFFFFFFFFFFFFFFFFFFFFFFFFFFFFFFFFFFFFFFFFFFFFFFFFFFFFFFFFFFFFFFFFFFFFFFFFFFFFFFFFFFFFFFFFFFFFFFFFFFFFFFFFFFFFFFFFFFFFFFFFFFFFFFFFFFFFFFFFFFFFFFFFFFFFFFFFFFFFFFFFFFFFFFFFFFF
310
FFFFFFFFFFFFFFFFFFFFFFFFFFFFFFFFFFFFFFFFFFFFFFFFFFFFFFFFFFFFFFFFFFFFFFFFFFFFFFFFFFFFFFFFFFFFFFFFFFFFFFFFFFFFFFFFFFFFFFFFFFFFFFFFFFFFFFFFFFFFFFFFFFFFFFFFFFFFFFFFFFFFFFFFFFFFFFFFFFFFFFFFFFFFFFFFFFFFFFFFFFFFFFFFFFFFFFFFFFFFFFFFFFFFFFFFFFFFFFFFFFFFFFFFFFFFFF
310
FFFFFFFFFFFFFFFFFFFFFFFFFFFFFFFFFFFFFFFFFFFFFFFFFFFFFFFFFFFFFFFFFFFFFFFFFFFFFFFFFFFFFFFFFFFFFFFFFFFFFFFFFFFFFFFFFFFFFFFFFFFFFFFFFFFFFFFFFFFFFFFFFFFFFFFFFFFFFFFFFFFFFFFFFFFFFFFFFFFFFFFFFFFFFFFFFFFFFFFFFFFFFFFFFFFFFFFFFFFFFFFFFFFFFFFFFFFFFFFFFFFFFFFFFFFFFF
310
FFFFFFFFFFFFFFFFFFFFFFFFFFFFFFFFFFFFFFFFFFFFFFFFFFFFFFFFFFFFFFFFFFFFFFFFFFFFFFFFFFFFFFFFFFFFFFFFFFFFFFFFFFFFFFFF
102
{BLKREFS
331
3B7
102
}
  0
BLOCK_RECORD
  5
386
330
1
100
AcDbSymbolTableRecord
100
AcDbBlockTableRecord
  2
AI9-BLK9
340
0
310
2800000020000000200000000100080000000000000400000000000000000000000000000000000000000000000080000080000000808000800000008000800080800000C0C0C000C0DCC000F0CAA6000020400000206000002080000020A0000020C0000020E00000400000004020000040400000406000004080000040A0
310
000040C0000040E00000600000006020000060400000606000006080000060A0000060C0000060E00000800000008020000080400000806000008080000080A0000080C0000080E00000A0000000A0200000A0400000A0600000A0800000A0A00000A0C00000A0E00000C0000000C0200000C0400000C0600000C0800000C0
310
A00000C0C00000C0E00000E0000000E0200000E0400000E0600000E0800000E0A00000E0C00000E0E00040000000400020004000400040006000400080004000A0004000C0004000E00040200000402020004020400040206000402080004020A0004020C0004020E000404000004040200040404000404060004040800040
310
40A0004040C0004040E00040600000406020004060400040606000406080004060A0004060C0004060E00040800000408020004080400040806000408080004080A0004080C0004080E00040A0000040A0200040A0400040A0600040A0800040A0A00040A0C00040A0E00040C0000040C0200040C0400040C0600040C08000
310
40C0A00040C0C00040C0E00040E0000040E0200040E0400040E0600040E0800040E0A00040E0C00040E0E00080000000800020008000400080006000800080008000A0008000C0008000E00080200000802020008020400080206000802080008020A0008020C0008020E00080400000804020008040400080406000804080
310
008040A0008040C0008040E00080600000806020008060400080606000806080008060A0008060C0008060E00080800000808020008080400080806000808080008080A0008080C0008080E00080A0000080A0200080A0400080A0600080A0800080A0A00080A0C00080A0E00080C0000080C0200080C0400080C0600080C0
310
800080C0A00080C0C00080C0E00080E0000080E0200080E0400080E0600080E0800080E0A00080E0C00080E0E000C0000000C0002000C0004000C0006000C0008000C000A000C000C000C000E000C0200000C0202000C0204000C0206000C0208000C020A000C020C000C020E000C0400000C0402000C0404000C0406000C0
310
408000C040A000C040C000C040E000C0600000C0602000C0604000C0606000C0608000C060A000C060C000C060E000C0800000C0802000C0804000C0806000C0808000C080A000C080C000C080E000C0A00000C0A02000C0A04000C0A06000C0A08000C0A0A000C0A0C000C0A0E000C0C00000C0C02000C0C04000C0C06000
310
C0C08000C0C0A000F0FBFF00A4A0A000808080000000FF0000FF000000FFFF00FF000000FF00FF00FFFF0000FFFFFF00FFFFFFFFFFFFFFFFFFFFFFFFFFFFFFFFFFFFFFFFFFFFFFFFFFFFFFFFFFFFFFFFFFFFFFFFFFFFFFFFFFFFFFFFFFFFFF0000FFFFFFFFFFFFFFFFFFFFFFFFFFFFFFFFFFFFFFFFFFFFFFFFFFFFFFFF0000
310
FF0000FFFFFFFFFFFFFFFFFFFFFFFFFFFFFFFFFFFFFFFFFFFFFFFFFFFFFF00FFFFFF0000FFFFFFFFFFFFFFFFFFFFFFFFFFFFFFFFFFFFFFFFFFFFFFFFFFFF00FFFFFFFF0000FFFFFFFFFFFFFFFFFFFFFFFFFFFFFFFFFFFFFFFFFFFFFFFF00FF00000000FF00FFFFFFFFFFFFFFFFFFFFFFFFFFFFFFFFFFFFFFFFFFFFFFFF0000
310
00FFFF00FF00FFFFFFFFFFFFFFFFFFFFFFFFFFFFFFFFFFFFFFFFFFFFFFFF0000FFFFFFFF0000FFFFFFFFFFFFFFFFFFFFFFFFFFFFFFFFFFFFFFFFFFFFFFFF0000FFFFFFFF0000FFFFFFFFFFFFFFFFFFFFFFFFFFFFFFFFFFFFFFFFFFFFFF00FF00FFFFFFFF00FF00FFFFFFFFFFFFFFFFFFFFFFFFFFFFFFFFFFFFFFFFFFFF0000
310
FFFFFFFFFF00FF00FFFFFFFFFFFFFFFFFFFFFFFFFFFFFFFFFFFFFFFFFFFF0000FFFFFFFFFFFF0000FFFFFFFFFFFFFFFFFFFFFFFFFFFFFFFFFFFFFFFFFFFF0000FFFFFFFFFFFF0000FFFFFFFFFFFFFFFFFFFFFFFFFFFFFFFFFFFFFFFFFFFF0000FFFFFFFFFFFF0000FFFFFFFFFFFFFFFFFFFFFFFFFFFFFFFFFFFFFFFFFFFF00
310
00FFFFFFFFFFFF0000FFFFFFFFFFFFFFFFFFFFFFFFFFFFFFFFFFFFFFFFFFFF0000FFFFFFFFFFFF0000FFFFFFFFFFFFFFFFFFFFFFFFFFFFFFFFFFFFFFFFFFFF0000FFFFFFFFFFFF0000FFFFFFFFFFFFFFFFFFFFFFFFFFFFFFFFFFFFFFFFFFFF0000FFFFFFFFFFFF0000FFFFFFFFFFFFFFFFFFFFFFFFFFFFFFFFFFFFFFFFFFFF
310
0000FFFFFFFFFFFF0000FFFFFFFFFFFFFFFFFFFFFFFFFFFFFFFFFFFFFFFFFFFF0000FFFFFFFFFFFF0000FFFFFFFFFFFFFFFFFFFFFFFFFFFFFFFFFFFFFFFFFFFF0000FFFFFFFFFFFF0000FFFFFFFFFFFFFFFFFFFFFFFFFFFFFFFFFFFFFFFFFFFF00FF00FFFFFFFF00FF00FFFFFFFFFFFFFFFFFFFFFFFFFFFFFFFFFFFFFFFFFF
310
FF00FF00FFFFFFFF00FF00FFFFFFFFFFFFFFFFFFFFFFFFFFFFFFFFFFFFFFFFFFFF00FF00FFFFFFFF00FF00FFFFFFFFFFFFFFFFFFFFFFFFFFFFFFFFFFFFFFFFFFFFFF0000FFFFFFFF0000FFFFFFFFFFFFFFFFFFFFFFFFFFFFFFFFFFFFFFFFFFFFFFFF00FF00FFFF00FF00FFFFFFFFFFFFFFFFFFFFFFFFFFFFFFFFFFFFFFFFFF
310
FFFFFF00FF00000000FF00FFFFFFFFFFFFFFFFFFFFFFFFFFFFFFFFFFFFFFFFFFFFFFFFFF00FFFFFFFF0000FFFFFFFFFFFFFFFFFFFFFFFFFFFFFFFFFFFFFFFFFFFFFFFFFF00FFFFFFFF00FFFFFFFFFFFFFFFFFFFFFFFFFFFFFFFFFFFFFFFFFFFFFFFFFFFFFF00000000FFFFFFFFFFFFFFFFFFFFFFFFFFFFFFFFFFFFFFFFFFFF
310
FFFFFFFFFFFFFF0000FFFFFFFFFFFFFFFFFFFFFFFFFFFFFFFFFFFFFFFFFFFFFFFFFFFFFFFFFFFFFFFFFFFFFFFFFFFFFFFFFFFFFFFFFFFFFF
102
{BLKREFS
331
3B8
102
}
  0
BLOCK_RECORD
  5
38B
330
1
100
AcDbSymbolTableRecord
100
AcDbBlockTableRecord
  2
AI9-BLK8
340
0
310
2800000020000000200000000100080000000000000400000000000000000000000000000000000000000000000080000080000000808000800000008000800080800000C0C0C000C0DCC000F0CAA6000020400000206000002080000020A0000020C0000020E00000400000004020000040400000406000004080000040A0
310
000040C0000040E00000600000006020000060400000606000006080000060A0000060C0000060E00000800000008020000080400000806000008080000080A0000080C0000080E00000A0000000A0200000A0400000A0600000A0800000A0A00000A0C00000A0E00000C0000000C0200000C0400000C0600000C0800000C0
310
A00000C0C00000C0E00000E0000000E0200000E0400000E0600000E0800000E0A00000E0C00000E0E00040000000400020004000400040006000400080004000A0004000C0004000E00040200000402020004020400040206000402080004020A0004020C0004020E000404000004040200040404000404060004040800040
310
40A0004040C0004040E00040600000406020004060400040606000406080004060A0004060C0004060E00040800000408020004080400040806000408080004080A0004080C0004080E00040A0000040A0200040A0400040A0600040A0800040A0A00040A0C00040A0E00040C0000040C0200040C0400040C0600040C08000
310
40C0A00040C0C00040C0E00040E0000040E0200040E0400040E0600040E0800040E0A00040E0C00040E0E00080000000800020008000400080006000800080008000A0008000C0008000E00080200000802020008020400080206000802080008020A0008020C0008020E00080400000804020008040400080406000804080
310
008040A0008040C0008040E00080600000806020008060400080606000806080008060A0008060C0008060E00080800000808020008080400080806000808080008080A0008080C0008080E00080A0000080A0200080A0400080A0600080A0800080A0A00080A0C00080A0E00080C0000080C0200080C0400080C0600080C0
310
800080C0A00080C0C00080C0E00080E0000080E0200080E0400080E0600080E0800080E0A00080E0C00080E0E000C0000000C0002000C0004000C0006000C0008000C000A000C000C000C000E000C0200000C0202000C0204000C0206000C0208000C020A000C020C000C020E000C0400000C0402000C0404000C0406000C0
310
408000C040A000C040C000C040E000C0600000C0602000C0604000C0606000C0608000C060A000C060C000C060E000C0800000C0802000C0804000C0806000C0808000C080A000C080C000C080E000C0A00000C0A02000C0A04000C0A06000C0A08000C0A0A000C0A0C000C0A0E000C0C00000C0C02000C0C04000C0C06000
310
C0C08000C0C0A000F0FBFF00A4A0A000808080000000FF0000FF000000FFFF00FF000000FF00FF00FFFF0000FFFFFF00FFFFFFFFFFFFFFFFFFFFFFFFFFFFFFFFFFFFFFFFFFFFFFFFFFFFFFFFFFFFFFFFFFFFFFFFFFFFFFFFFFFFFF0000FFFFFFFFFFFF0000FFFFFFFFFFFFFFFFFFFFFFFFFFFFFFFFFFFFFFFFFFFF0000FFFF
310
FFFFFFFF0000FFFFFFFFFFFFFFFFFFFFFFFFFFFFFFFFFFFFFFFFFFFF0000FFFFFFFFFF00FF00FFFFFFFFFFFFFFFFFFFFFFFFFFFFFFFFFFFFFFFFFFFF0000FFFFFFFFFF00FF00FFFFFFFFFFFFFFFFFFFFFFFFFFFFFFFFFFFFFFFFFFFF0000FFFFFFFFFF00FF00FFFFFFFFFFFFFFFFFFFFFFFFFFFFFFFFFFFFFFFFFFFF0000FF
310
FFFFFF00FFFF00FFFFFFFFFFFFFFFFFFFFFFFFFFFFFFFFFFFFFFFFFFFF0000FFFFFFFF00FF0000FFFFFFFFFFFFFFFFFFFFFFFFFFFFFFFFFFFFFFFFFFFF0000FFFFFFFF00FF0000FFFFFFFFFFFFFFFFFFFFFFFFFFFFFFFFFFFFFFFFFFFF0000FFFFFFFF00000000FFFFFFFFFFFFFFFFFFFFFFFFFFFFFFFFFFFFFFFFFFFF0000
310
FFFFFF00FF000000FFFFFFFFFFFFFFFFFFFFFFFFFFFFFFFFFFFFFFFFFFFF0000FFFFFF00FF000000FFFFFFFFFFFFFFFFFFFFFFFFFFFFFFFFFFFFFFFFFFFF0000FFFFFF00FF000000FFFFFFFFFFFFFFFFFFFFFFFFFFFFFFFFFFFFFFFFFFFF0000FFFF00FF00FF0000FFFFFFFFFFFFFFFFFFFFFFFFFFFFFFFFFFFFFFFFFFFF00
310
00FFFF00FF00FF0000FFFFFFFFFFFFFFFFFFFFFFFFFFFFFFFFFFFFFFFFFFFF0000FFFF00FF00FF0000FFFFFFFFFFFFFFFFFFFFFFFFFFFFFFFFFFFFFFFFFFFF0000FF00FFFF00FF0000FFFFFFFFFFFFFFFFFFFFFFFFFFFFFFFFFFFFFFFFFFFF0000FF00FF00FFFF0000FFFFFFFFFFFFFFFFFFFFFFFFFFFFFFFFFFFFFFFFFFFF
310
0000FF00FF00FFFF0000FFFFFFFFFFFFFFFFFFFFFFFFFFFFFFFFFFFFFFFFFFFF0000FF00FF00FFFF0000FFFFFFFFFFFFFFFFFFFFFFFFFFFFFFFFFFFFFFFFFFFF000000FFFF00FFFF0000FFFFFFFFFFFFFFFFFFFFFFFFFFFFFFFFFFFFFFFFFFFF000000FF00FFFFFF0000FFFFFFFFFFFFFFFFFFFFFFFFFFFFFFFFFFFFFFFFFF
310
FF000000FF00FFFFFF0000FFFFFFFFFFFFFFFFFFFFFFFFFFFFFFFFFFFFFFFFFFFF0000FFFF00FFFFFF0000FFFFFFFFFFFFFFFFFFFFFFFFFFFFFFFFFFFFFFFFFFFF0000FFFF00FFFFFF0000FFFFFFFFFFFFFFFFFFFFFFFFFFFFFFFFFFFFFFFFFFFF00FFFF00FFFFFFFF0000FFFFFFFFFFFFFFFFFFFFFFFFFFFFFFFFFFFFFFFF
310
FFFF00FFFF00FFFFFFFF0000FFFFFFFFFFFFFFFFFFFFFFFFFFFFFFFFFFFFFFFFFFFF00FFFF00FFFFFFFF0000FFFFFFFFFFFFFFFFFFFFFFFFFFFFFFFFFFFFFFFFFFFF00FFFF00FFFFFFFF0000FFFFFFFFFFFFFFFFFFFFFFFFFFFFFFFFFFFFFFFFFFFF00FF00FFFFFFFFFF0000FFFFFFFFFFFFFFFFFFFFFFFFFFFFFFFFFFFFFF
310
FFFFFF000000FFFFFFFFFF0000FFFFFFFFFFFFFFFFFFFFFFFFFFFFFFFFFFFFFFFFFFFFFFFFFFFFFFFFFFFFFFFFFFFFFFFFFFFFFFFFFFFFFF
102
{BLKREFS
331
3B9
102
}
  0
BLOCK_RECORD
  5
390
330
1
100
AcDbSymbolTableRecord
100
AcDbBlockTableRecord
  2
AI9-BLK7
340
0
310
2800000020000000200000000100080000000000000400000000000000000000000000000000000000000000000080000080000000808000800000008000800080800000C0C0C000C0DCC000F0CAA6000020400000206000002080000020A0000020C0000020E00000400000004020000040400000406000004080000040A0
310
000040C0000040E00000600000006020000060400000606000006080000060A0000060C0000060E00000800000008020000080400000806000008080000080A0000080C0000080E00000A0000000A0200000A0400000A0600000A0800000A0A00000A0C00000A0E00000C0000000C0200000C0400000C0600000C0800000C0
310
A00000C0C00000C0E00000E0000000E0200000E0400000E0600000E0800000E0A00000E0C00000E0E00040000000400020004000400040006000400080004000A0004000C0004000E00040200000402020004020400040206000402080004020A0004020C0004020E000404000004040200040404000404060004040800040
310
40A0004040C0004040E00040600000406020004060400040606000406080004060A0004060C0004060E00040800000408020004080400040806000408080004080A0004080C0004080E00040A0000040A0200040A0400040A0600040A0800040A0A00040A0C00040A0E00040C0000040C0200040C0400040C0600040C08000
310
40C0A00040C0C00040C0E00040E0000040E0200040E0400040E0600040E0800040E0A00040E0C00040E0E00080000000800020008000400080006000800080008000A0008000C0008000E00080200000802020008020400080206000802080008020A0008020C0008020E00080400000804020008040400080406000804080
310
008040A0008040C0008040E00080600000806020008060400080606000806080008060A0008060C0008060E00080800000808020008080400080806000808080008080A0008080C0008080E00080A0000080A0200080A0400080A0600080A0800080A0A00080A0C00080A0E00080C0000080C0200080C0400080C0600080C0
310
800080C0A00080C0C00080C0E00080E0000080E0200080E0400080E0600080E0800080E0A00080E0C00080E0E000C0000000C0002000C0004000C0006000C0008000C000A000C000C000C000E000C0200000C0202000C0204000C0206000C0208000C020A000C020C000C020E000C0400000C0402000C0404000C0406000C0
310
408000C040A000C040C000C040E000C0600000C0602000C0604000C0606000C0608000C060A000C060C000C060E000C0800000C0802000C0804000C0806000C0808000C080A000C080C000C080E000C0A00000C0A02000C0A04000C0A06000C0A08000C0A0A000C0A0C000C0A0E000C0C00000C0C02000C0C04000C0C06000
310
C0C08000C0C0A000F0FBFF00A4A0A000808080000000FF0000FF000000FFFF00FF000000FF00FF00FFFF0000FFFFFF00FFFFFFFFFFFFFFFFFFFFFFFFFFFFFFFFFFFFFFFFFFFFFFFFFFFFFFFFFFFFFFFFFFFFFFFFFFFFFFFFFFFFFFFFFFFFFF0000FFFFFFFFFFFFFFFFFFFFFFFFFFFFFFFFFFFFFFFFFFFFFFFFFFFFFFFFFFFF
310
0000FFFFFFFFFFFFFFFFFFFFFFFFFFFFFFFFFFFFFFFFFFFFFFFFFFFFFFFFFFFF0000FFFFFFFFFFFFFFFFFFFFFFFFFFFFFFFFFFFFFFFFFFFFFFFFFFFFFFFFFFFF0000FFFFFFFFFFFFFFFFFFFFFFFFFFFFFFFFFFFFFFFFFFFFFFFFFFFFFFFFFFFF0000FFFFFFFFFFFFFFFFFFFFFFFFFFFFFFFFFFFFFFFFFFFFFFFFFFFFFFFFFF
310
FF0000FFFFFFFFFFFFFFFFFFFFFFFFFFFFFFFFFFFFFFFFFFFFFFFFFFFFFFFFFFFF0000FFFFFFFFFFFFFFFFFFFFFFFFFFFFFFFFFFFFFFFFFFFFFFFFFFFFFFFFFFFF0000FFFFFFFFFFFFFFFFFFFFFFFFFFFFFFFFFFFFFFFFFFFFFFFFFFFFFFFFFFFF0000FFFFFFFFFFFFFFFFFFFFFFFFFFFFFFFFFFFFFFFFFFFFFFFFFFFFFFFF
310
FFFF0000FFFFFFFFFFFFFFFFFFFFFFFFFFFFFFFFFFFFFFFFFFFFFFFFFFFFFFFFFFFF0000FFFFFFFFFFFFFFFFFFFFFFFFFFFFFFFFFFFFFFFFFFFFFFFFFFFFFFFFFFFF0000FFFFFFFFFFFFFFFFFFFFFFFFFFFFFFFFFFFFFFFFFFFFFFFFFFFFFFFFFFFF0000FFFFFFFFFFFFFFFFFFFFFFFFFFFFFFFFFFFFFFFFFFFFFFFFFFFFFF
310
FFFFFF0000FFFFFFFFFFFFFFFFFFFFFFFFFFFFFFFFFFFFFFFFFFFFFFFFFFFFFFFFFFFF0000FFFFFFFFFFFFFFFFFFFFFFFFFFFFFFFFFFFFFFFFFFFFFFFFFFFFFFFFFFFF0000FFFFFFFFFFFFFFFFFFFFFFFFFFFFFFFFFFFFFFFFFFFFFFFFFFFFFFFFFFFF0000FFFFFFFFFFFFFFFFFFFFFFFFFFFFFFFFFFFFFFFFFFFFFFFFFFFF
310
FFFFFFFF0000FFFFFFFFFFFFFFFFFFFFFFFFFFFFFFFFFFFFFFFFFFFFFFFFFFFFFFFFFFFF0000FFFFFFFFFFFFFFFFFFFFFFFFFFFFFFFFFFFFFFFFFFFFFFFFFFFFFFFFFFFF0000FFFFFFFFFFFFFFFFFFFFFFFFFFFFFFFFFFFFFFFFFFFFFFFFFFFFFFFFFFFF0000FFFFFFFFFFFFFFFFFFFFFFFFFFFFFFFFFFFFFFFFFFFFFFFFFF
310
FFFFFFFFFF0000FFFFFFFFFFFFFFFFFFFFFFFFFFFFFFFFFFFFFFFFFFFFFFFFFFFFFFFFFFFF0000FFFFFFFFFFFFFFFFFFFFFFFFFFFFFFFFFFFFFFFFFFFFFFFFFFFFFFFFFFFF0000FFFFFFFFFFFFFFFFFFFFFFFFFFFFFFFFFFFFFFFFFFFFFFFFFFFFFFFFFFFF0000FFFFFFFFFFFFFFFFFFFFFFFFFFFFFFFFFFFFFFFFFFFFFFFF
310
FFFFFFFFFFFF0000FFFFFFFFFFFFFFFFFFFFFFFFFFFFFFFFFFFFFFFFFFFFFFFFFFFFFFFFFFFF0000FFFFFFFFFFFFFFFFFFFFFFFFFFFFFFFFFFFFFFFFFFFFFFFFFFFFFFFFFFFF0000FFFFFFFFFFFFFFFFFFFFFFFFFFFFFFFFFFFFFFFFFFFFFFFFFFFFFFFFFFFF0000FFFFFFFFFFFFFFFFFFFFFFFFFFFFFFFFFFFFFFFFFFFFFF
310
FFFFFFFFFFFFFF0000FFFFFFFFFFFFFFFFFFFFFFFFFFFFFFFFFFFFFFFFFFFFFFFFFFFFFFFFFFFFFFFFFFFFFFFFFFFFFFFFFFFFFFFFFFFFFF
102
{BLKREFS
331
3BA
102
}
  0
BLOCK_RECORD
  5
395
330
1
100
AcDbSymbolTableRecord
100
AcDbBlockTableRecord
  2
AI9-BLK6
340
0
310
2800000020000000200000000100080000000000000400000000000000000000000000000000000000000000000080000080000000808000800000008000800080800000C0C0C000C0DCC000F0CAA6000020400000206000002080000020A0000020C0000020E00000400000004020000040400000406000004080000040A0
310
000040C0000040E00000600000006020000060400000606000006080000060A0000060C0000060E00000800000008020000080400000806000008080000080A0000080C0000080E00000A0000000A0200000A0400000A0600000A0800000A0A00000A0C00000A0E00000C0000000C0200000C0400000C0600000C0800000C0
310
A00000C0C00000C0E00000E0000000E0200000E0400000E0600000E0800000E0A00000E0C00000E0E00040000000400020004000400040006000400080004000A0004000C0004000E00040200000402020004020400040206000402080004020A0004020C0004020E000404000004040200040404000404060004040800040
310
40A0004040C0004040E00040600000406020004060400040606000406080004060A0004060C0004060E00040800000408020004080400040806000408080004080A0004080C0004080E00040A0000040A0200040A0400040A0600040A0800040A0A00040A0C00040A0E00040C0000040C0200040C0400040C0600040C08000
310
40C0A00040C0C00040C0E00040E0000040E0200040E0400040E0600040E0800040E0A00040E0C00040E0E00080000000800020008000400080006000800080008000A0008000C0008000E00080200000802020008020400080206000802080008020A0008020C0008020E00080400000804020008040400080406000804080
310
008040A0008040C0008040E00080600000806020008060400080606000806080008060A0008060C0008060E00080800000808020008080400080806000808080008080A0008080C0008080E00080A0000080A0200080A0400080A0600080A0800080A0A00080A0C00080A0E00080C0000080C0200080C0400080C0600080C0
310
800080C0A00080C0C00080C0E00080E0000080E0200080E0400080E0600080E0800080E0A00080E0C00080E0E000C0000000C0002000C0004000C0006000C0008000C000A000C000C000C000E000C0200000C0202000C0204000C0206000C0208000C020A000C020C000C020E000C0400000C0402000C0404000C0406000C0
310
408000C040A000C040C000C040E000C0600000C0602000C0604000C0606000C0608000C060A000C060C000C060E000C0800000C0802000C0804000C0806000C0808000C080A000C080C000C080E000C0A00000C0A02000C0A04000C0A06000C0A08000C0A0A000C0A0C000C0A0E000C0C00000C0C02000C0C04000C0C06000
310
C0C08000C0C0A000F0FBFF00A4A0A000808080000000FF0000FF000000FFFF00FF000000FF00FF00FFFF0000FFFFFF00FFFFFFFFFFFFFFFFFFFFFFFF00FFFFFFFFFFFFFF00FFFFFFFFFFFFFFFFFFFFFFFFFFFFFFFFFFFFFFFFFFFFFF00FFFFFFFFFFFFFF00FFFFFFFFFFFFFFFFFFFFFFFFFFFFFFFFFFFFFFFFFFFFFF00FFFF
310
FFFFFFFFFF00FFFFFFFFFFFFFFFFFFFFFFFFFFFFFFFFFFFFFFFFFFFF00FFFFFFFFFFFFFFFF00FFFFFFFFFFFFFFFFFFFFFFFFFFFFFFFFFFFFFFFFFFFF00FFFFFFFFFFFFFF00FFFFFFFFFFFFFFFFFFFFFFFFFFFFFFFFFFFFFFFFFFFFFF00FFFFFFFFFFFFFF00FFFFFFFFFFFFFFFFFFFFFFFFFFFFFFFFFFFFFFFFFFFF00FFFFFF
310
FFFFFFFFFF00FFFFFFFFFFFFFFFFFFFFFFFFFFFFFFFFFFFFFFFFFFFF00FFFFFFFFFFFFFF00FFFFFFFFFFFFFFFFFFFFFFFFFFFFFFFFFFFFFFFFFFFF00FFFFFFFFFFFFFFFF00FFFFFFFFFFFFFFFFFFFFFFFFFFFFFFFFFFFFFFFFFF00FFFFFFFFFFFFFFFFFF00FFFFFFFFFFFFFFFFFFFFFFFFFFFFFFFFFFFFFFFF00FFFFFFFFFF
310
FFFFFFFFFF00FFFFFFFFFFFFFFFFFFFFFFFFFFFFFFFFFFFFFF00FFFFFFFFFFFFFFFFFFFF00FFFFFFFFFFFFFFFFFFFFFFFFFFFFFFFFFFFF0000FFFFFFFFFFFFFFFFFFFFFF00FFFFFFFFFFFFFFFFFFFFFFFFFFFF00000000FFFFFFFFFFFFFFFFFFFFFFFFFF00FFFFFFFFFFFFFFFFFFFFFFFFFFFFFFFFFFFFFFFFFFFFFFFFFFFF
310
FFFFFFFF00FFFFFFFFFFFFFFFFFFFFFFFFFFFFFFFFFFFFFFFFFFFFFFFFFFFFFFFFFFFFFF00FFFFFFFFFFFFFFFFFFFFFFFFFFFFFFFFFFFFFFFFFFFFFFFFFFFFFFFFFFFFFF00FFFFFFFFFFFFFFFFFFFFFFFFFFFFFFFFFFFFFFFFFFFFFFFFFFFFFFFFFFFF00FFFFFFFFFFFFFFFFFFFFFFFFFFFFFFFFFFFFFFFFFFFFFFFFFFFFFF
310
FFFFFFFF00FFFFFFFFFFFFFFFFFFFFFFFFFFFFFFFFFFFFFFFFFFFFFFFFFFFFFFFFFFFF00FFFFFFFFFFFFFFFFFFFFFFFFFFFFFFFFFFFFFFFFFFFFFFFFFFFFFFFFFFFF00FFFFFFFFFFFFFFFFFFFFFFFFFFFFFFFFFFFFFFFFFFFFFFFFFFFFFFFFFFFF00FFFFFFFFFFFFFFFFFFFFFFFFFFFFFFFFFFFFFFFFFFFFFFFFFFFFFFFFFF
310
FF00FFFFFFFFFFFFFFFFFFFFFFFFFFFFFFFFFFFFFFFFFFFFFFFFFFFFFFFFFFFFFF00FFFFFFFFFFFFFFFFFFFFFFFFFFFFFFFFFFFFFFFFFFFFFFFFFFFFFFFFFFFF00FFFFFFFFFFFFFFFFFFFFFFFFFFFFFFFFFFFFFFFFFFFFFFFFFFFFFFFFFF0000FFFFFFFFFFFFFFFFFFFFFFFFFFFFFFFFFFFFFFFFFFFFFFFFFFFFFFFF0000FF
310
FFFFFFFFFFFFFFFFFFFFFFFFFFFFFFFFFFFFFFFFFFFFFFFFFF00000000FFFFFFFFFFFFFFFFFFFFFFFFFFFFFFFFFFFFFFFFFFFFFFFFFFFF0000FFFFFFFFFFFFFFFFFFFFFFFFFFFFFFFFFFFFFFFFFFFFFFFFFFFFFFFFFFFFFFFFFFFFFFFFFFFFFFFFFFFFFFFFFFFFFFFFFFFFFFFFFFFFFFFFFFFFFFFFFFFFFFFFFFFFFFFFFFFF
310
FFFFFFFFFFFFFFFFFFFFFFFFFFFFFFFFFFFFFFFFFFFFFFFFFFFFFFFFFFFFFFFFFFFFFFFFFFFFFFFFFFFFFFFFFFFFFFFFFFFFFFFFFFFFFFFF
102
{BLKREFS
331
3BB
102
}
  0
BLOCK_RECORD
  5
399
330
1
100
AcDbSymbolTableRecord
100
AcDbBlockTableRecord
  2
AI9-BLK5
340
0
310
2800000020000000200000000100080000000000000400000000000000000000000000000000000000000000000080000080000000808000800000008000800080800000C0C0C000C0DCC000F0CAA6000020400000206000002080000020A0000020C0000020E00000400000004020000040400000406000004080000040A0
310
000040C0000040E00000600000006020000060400000606000006080000060A0000060C0000060E00000800000008020000080400000806000008080000080A0000080C0000080E00000A0000000A0200000A0400000A0600000A0800000A0A00000A0C00000A0E00000C0000000C0200000C0400000C0600000C0800000C0
310
A00000C0C00000C0E00000E0000000E0200000E0400000E0600000E0800000E0A00000E0C00000E0E00040000000400020004000400040006000400080004000A0004000C0004000E00040200000402020004020400040206000402080004020A0004020C0004020E000404000004040200040404000404060004040800040
310
40A0004040C0004040E00040600000406020004060400040606000406080004060A0004060C0004060E00040800000408020004080400040806000408080004080A0004080C0004080E00040A0000040A0200040A0400040A0600040A0800040A0A00040A0C00040A0E00040C0000040C0200040C0400040C0600040C08000
310
40C0A00040C0C00040C0E00040E0000040E0200040E0400040E0600040E0800040E0A00040E0C00040E0E00080000000800020008000400080006000800080008000A0008000C0008000E00080200000802020008020400080206000802080008020A0008020C0008020E00080400000804020008040400080406000804080
310
008040A0008040C0008040E00080600000806020008060400080606000806080008060A0008060C0008060E00080800000808020008080400080806000808080008080A0008080C0008080E00080A0000080A0200080A0400080A0600080A0800080A0A00080A0C00080A0E00080C0000080C0200080C0400080C0600080C0
310
800080C0A00080C0C00080C0E00080E0000080E0200080E0400080E0600080E0800080E0A00080E0C00080E0E000C0000000C0002000C0004000C0006000C0008000C000A000C000C000C000E000C0200000C0202000C0204000C0206000C0208000C020A000C020C000C020E000C0400000C0402000C0404000C0406000C0
310
408000C040A000C040C000C040E000C0600000C0602000C0604000C0606000C0608000C060A000C060C000C060E000C0800000C0802000C0804000C0806000C0808000C080A000C080C000C080E000C0A00000C0A02000C0A04000C0A06000C0A08000C0A0A000C0A0C000C0A0E000C0C00000C0C02000C0C04000C0C06000
310
C0C08000C0C0A000F0FBFF00A4A0A000808080000000FF0000FF000000FFFF00FF000000FF00FF00FFFF0000FFFFFF00FFFFFFFFFFFFFFFFFFFFFFFFFFFFFFFFFFFFFFFFFFFFFFFFFFFFFFFFFFFFFFFFFFFFFFFFFFFFFFFF000000000000000000000000000000000000000000000000FFFFFFFFFFFFFFFF00FFFFFFFFFFFF
310
FFFFFFFFFFFFFFFFFFFFFFFFFFFFFFFFFFFFFFFFFFFFFFFFFF00FFFFFFFFFFFFFFFFFFFFFFFFFFFFFFFFFFFFFFFFFFFFFFFFFFFFFFFFFFFFFF00FFFFFFFFFFFFFFFFFFFFFFFFFFFFFFFFFFFFFFFFFFFFFFFFFFFFFFFFFFFFFF00FFFFFFFFFFFFFFFFFFFFFFFFFFFFFFFFFFFFFFFFFFFFFFFFFFFFFFFFFFFFFF00FFFFFFFFFF
310
FFFFFFFFFFFFFFFFFFFFFFFFFFFFFFFFFFFFFFFFFFFFFFFFFFFF00FFFFFFFFFFFFFFFFFFFFFFFFFFFFFFFFFFFFFFFFFFFFFFFFFFFFFFFFFFFFFF00FFFFFFFFFFFFFFFFFFFFFFFFFFFFFFFFFFFFFFFFFFFFFFFFFFFFFFFFFFFFFF00FFFFFFFFFFFFFFFFFFFFFFFFFFFFFFFFFFFFFFFFFFFFFFFFFFFFFFFFFFFFFF00FFFFFFFF
310
FFFFFFFFFFFFFFFFFFFFFFFFFFFFFFFFFFFFFFFFFFFFFFFFFFFFFF00FFFFFFFFFFFFFFFFFFFFFFFFFFFFFFFFFFFFFFFFFFFFFFFFFFFFFFFFFFFFFF00FFFFFFFFFFFFFFFFFFFFFFFFFFFFFFFFFFFFFFFFFFFFFFFFFFFFFFFFFFFFFF00FFFFFFFFFFFFFFFFFFFFFFFFFFFFFFFFFFFFFFFFFFFFFFFFFFFFFFFFFFFFFF00FFFFFF
310
FFFFFFFFFFFFFFFFFFFFFFFFFFFFFFFFFFFFFFFFFFFFFFFFFFFFFFFF00FFFFFFFFFFFFFFFFFFFFFFFFFFFFFFFFFFFFFFFFFFFFFFFFFFFFFFFFFFFFFF00FFFFFFFFFFFFFFFFFFFFFFFFFFFFFFFFFFFFFFFFFFFFFFFFFFFFFFFFFFFFFF00FFFFFFFFFFFFFFFFFFFFFFFFFFFFFFFFFFFFFFFFFFFFFFFFFFFFFFFFFFFFFF00FFFF
310
FFFFFFFFFFFFFFFFFFFFFFFFFFFFFFFFFFFFFFFFFFFFFFFFFFFFFFFFFF00FFFFFFFFFFFFFFFFFFFFFFFFFFFFFFFFFFFFFFFFFFFFFFFFFFFFFFFFFFFFFF00FFFFFFFFFFFFFFFFFFFFFFFFFFFFFFFFFFFFFFFFFFFFFFFFFFFFFFFFFFFFFF00FFFFFFFFFFFFFFFFFFFFFFFFFFFFFFFFFFFFFFFFFFFFFFFFFFFFFFFFFFFFFF00FF
310
FFFFFFFFFFFFFFFFFFFFFFFFFFFFFFFFFFFFFFFFFFFFFFFFFFFFFFFFFFFF00FFFFFFFFFFFFFFFFFFFFFFFFFFFFFFFFFFFFFFFFFFFFFFFFFFFFFFFFFFFFFF00FFFFFFFFFFFFFFFFFFFFFFFFFFFFFFFFFFFFFFFFFFFFFFFFFFFFFFFFFFFFFF00FFFFFFFFFFFFFFFFFFFFFFFFFFFFFFFFFFFFFFFFFFFFFFFFFFFFFFFFFFFFFF00
310
FFFFFFFFFFFFFFFFFFFFFFFFFFFFFFFFFFFFFFFFFFFFFFFFFFFFFFFFFFFFFF00FFFFFFFFFFFFFFFFFFFFFFFFFFFFFFFFFFFFFFFFFFFFFFFFFFFFFFFFFFFFFF00FFFFFFFFFFFFFFFFFFFFFFFFFFFFFFFFFFFFFFFFFFFFFFFFFFFFFFFFFFFFFF00FFFFFFFFFFFFFFFFFFFFFFFFFFFFFFFFFFFFFFFFFFFFFFFFFFFFFFFFFFFFFF
310
00FFFFFFFFFFFFFFFFFFFFFFFFFFFF000000000000000000FFFFFFFFFFFFFFFF00FFFFFFFFFFFFFFFFFFFFFFFFFFFF00FFFFFFFFFFFFFFFF
102
{BLKREFS
331
3BC
102
}
  0
BLOCK_RECORD
  5
39E
330
1
100
AcDbSymbolTableRecord
100
AcDbBlockTableRecord
  2
AI9-BLK4
340
0
310
2800000020000000200000000100080000000000000400000000000000000000000000000000000000000000000080000080000000808000800000008000800080800000C0C0C000C0DCC000F0CAA6000020400000206000002080000020A0000020C0000020E00000400000004020000040400000406000004080000040A0
310
000040C0000040E00000600000006020000060400000606000006080000060A0000060C0000060E00000800000008020000080400000806000008080000080A0000080C0000080E00000A0000000A0200000A0400000A0600000A0800000A0A00000A0C00000A0E00000C0000000C0200000C0400000C0600000C0800000C0
310
A00000C0C00000C0E00000E0000000E0200000E0400000E0600000E0800000E0A00000E0C00000E0E00040000000400020004000400040006000400080004000A0004000C0004000E00040200000402020004020400040206000402080004020A0004020C0004020E000404000004040200040404000404060004040800040
310
40A0004040C0004040E00040600000406020004060400040606000406080004060A0004060C0004060E00040800000408020004080400040806000408080004080A0004080C0004080E00040A0000040A0200040A0400040A0600040A0800040A0A00040A0C00040A0E00040C0000040C0200040C0400040C0600040C08000
310
40C0A00040C0C00040C0E00040E0000040E0200040E0400040E0600040E0800040E0A00040E0C00040E0E00080000000800020008000400080006000800080008000A0008000C0008000E00080200000802020008020400080206000802080008020A0008020C0008020E00080400000804020008040400080406000804080
310
008040A0008040C0008040E00080600000806020008060400080606000806080008060A0008060C0008060E00080800000808020008080400080806000808080008080A0008080C0008080E00080A0000080A0200080A0400080A0600080A0800080A0A00080A0C00080A0E00080C0000080C0200080C0400080C0600080C0
310
800080C0A00080C0C00080C0E00080E0000080E0200080E0400080E0600080E0800080E0A00080E0C00080E0E000C0000000C0002000C0004000C0006000C0008000C000A000C000C000C000E000C0200000C0202000C0204000C0206000C0208000C020A000C020C000C020E000C0400000C0402000C0404000C0406000C0
310
408000C040A000C040C000C040E000C0600000C0602000C0604000C0606000C0608000C060A000C060C000C060E000C0800000C0802000C0804000C0806000C0808000C080A000C080C000C080E000C0A00000C0A02000C0A04000C0A06000C0A08000C0A0A000C0A0C000C0A0E000C0C00000C0C02000C0C04000C0C06000
310
C0C08000C0C0A000F0FBFF00A4A0A000808080000000FF0000FF000000FFFF00FF000000FF00FF00FFFF0000FFFFFF00FFFFFFFFFFFFFFFFFFFFFFFFFFFFFFFFFFFFFFFFFFFFFFFFFFFFFFFFFFFFFFFFFFFFFFFFFFFFFFFFFFFFFFFFFFFF00000000FFFFFFFFFFFFFFFFFFFFFF000000FFFFFFFFFFFFFFFFFFFFFFFFFFFF00
310
FFFF00FFFFFFFFFFFFFFFFFFFFFF00FFFFFFFFFFFFFFFFFFFFFFFFFFFFFFFF00FFFF00FFFFFFFFFFFFFFFFFFFFFF00FFFFFFFFFFFFFFFFFFFFFFFFFFFFFFFF00FFFF00FFFFFFFFFFFFFFFFFFFFFF00FFFFFFFFFFFFFFFFFFFFFFFFFFFFFFFF00FFFF00FFFFFFFFFFFFFFFFFFFFFF00FFFFFFFFFFFFFFFFFFFFFFFFFFFFFFFF
310
00FFFF00FFFFFFFFFFFFFFFFFFFFFF00FFFFFFFFFFFFFFFFFFFFFFFFFFFFFFFF00FFFF00FFFFFFFFFFFFFFFFFFFFFF00FFFFFFFFFFFFFFFFFFFFFFFFFFFFFFFF00FFFF00FFFFFFFFFFFFFFFFFFFFFF00FFFFFFFFFFFFFFFFFFFFFFFFFFFFFFFF00FFFF00FFFFFFFFFFFFFFFFFFFFFF00FFFFFFFFFFFFFFFFFFFFFFFFFFFFFF
310
FF00FFFF00FFFFFFFFFFFFFFFFFFFFFF00FFFFFFFFFFFFFFFFFFFFFFFFFFFFFFFF00FFFF00FFFFFFFFFFFFFFFFFFFFFF00FFFFFFFFFFFFFFFFFFFFFFFFFFFFFFFF00FFFF00FFFFFFFFFFFFFFFFFFFFFF00FFFFFFFFFFFFFFFFFFFFFFFFFFFFFFFF00FFFF00FFFFFFFFFFFFFFFFFFFFFF00FFFFFFFFFFFFFFFFFFFFFFFFFFFF
310
FFFF00FFFF00FFFFFFFFFFFFFFFFFFFFFF00FFFFFFFFFFFFFFFFFFFFFFFFFFFFFFFF00FFFF00FFFFFFFFFFFFFFFFFFFFFF00FFFFFFFFFFFFFFFFFFFFFFFFFFFFFFFF00FFFF00FFFFFFFFFFFFFFFFFFFFFF00FFFFFFFFFFFFFFFFFFFFFFFFFFFFFFFF00FFFF00FFFFFFFFFFFFFFFFFFFF00FFFFFFFFFFFFFFFFFFFFFFFFFFFF
310
FFFFFF00FFFF00FFFFFFFFFFFFFFFFFFFF00FFFFFFFFFFFFFFFFFFFFFFFFFFFFFFFFFF00FFFF00FFFFFFFFFFFFFFFFFFFF00FFFFFFFFFFFFFFFFFFFFFFFFFFFFFFFFFF00FFFF00FFFFFFFFFFFFFFFFFFFF00FFFFFFFFFFFFFFFFFFFFFFFFFFFFFFFFFF00FFFF00FFFFFFFFFFFFFFFFFFFF00FFFFFFFFFFFFFFFFFFFFFFFFFF
310
FFFFFFFF00FFFF00FFFFFFFFFFFFFFFFFF0000FFFF00FFFFFFFFFFFFFFFFFFFFFFFFFFFF00FFFF00FFFFFFFFFFFFFFFF0000FFFFFF00FFFFFFFFFFFFFFFFFFFFFFFFFFFF00FFFF00000000000000000000FFFFFFFF00FFFFFFFFFFFFFFFFFFFFFFFFFFFF00FFFFFFFFFFFFFFFFFFFFFFFFFFFFFF00FFFFFFFFFFFFFFFFFFFF
310
FFFFFFFFFF00FFFFFFFFFFFFFFFFFFFFFFFFFFFF00FFFFFFFFFFFFFFFFFFFFFFFFFFFFFFFF00FFFFFFFFFFFFFFFFFFFFFFFFFFFF00FFFFFFFFFFFFFFFFFFFFFFFFFFFFFFFF00FFFFFFFFFFFFFFFFFFFFFFFFFFFFFF00FFFFFFFFFFFFFFFFFFFFFFFFFFFFFF00FFFFFFFFFFFFFFFFFFFFFFFFFFFFFF00FFFFFFFFFFFFFFFFFF
310
FFFFFFFFFFFF00FFFF00000000000000000000FFFFFFFF00FFFFFFFFFFFFFFFFFFFFFFFFFFFF00FFFF00FFFFFFFFFFFFFFFFFF0000FFFF00
102
{BLKREFS
331
3BD
102
}
  0
BLOCK_RECORD
  5
3A3
330
1
100
AcDbSymbolTableRecord
100
AcDbBlockTableRecord
  2
AI9-BLK3
340
0
310
2800000020000000200000000100080000000000000400000000000000000000000000000000000000000000000080000080000000808000800000008000800080800000C0C0C000C0DCC000F0CAA6000020400000206000002080000020A0000020C0000020E00000400000004020000040400000406000004080000040A0
310
000040C0000040E00000600000006020000060400000606000006080000060A0000060C0000060E00000800000008020000080400000806000008080000080A0000080C0000080E00000A0000000A0200000A0400000A0600000A0800000A0A00000A0C00000A0E00000C0000000C0200000C0400000C0600000C0800000C0
310
A00000C0C00000C0E00000E0000000E0200000E0400000E0600000E0800000E0A00000E0C00000E0E00040000000400020004000400040006000400080004000A0004000C0004000E00040200000402020004020400040206000402080004020A0004020C0004020E000404000004040200040404000404060004040800040
310
40A0004040C0004040E00040600000406020004060400040606000406080004060A0004060C0004060E00040800000408020004080400040806000408080004080A0004080C0004080E00040A0000040A0200040A0400040A0600040A0800040A0A00040A0C00040A0E00040C0000040C0200040C0400040C0600040C08000
310
40C0A00040C0C00040C0E00040E0000040E0200040E0400040E0600040E0800040E0A00040E0C00040E0E00080000000800020008000400080006000800080008000A0008000C0008000E00080200000802020008020400080206000802080008020A0008020C0008020E00080400000804020008040400080406000804080
310
008040A0008040C0008040E00080600000806020008060400080606000806080008060A0008060C0008060E00080800000808020008080400080806000808080008080A0008080C0008080E00080A0000080A0200080A0400080A0600080A0800080A0A00080A0C00080A0E00080C0000080C0200080C0400080C0600080C0
310
800080C0A00080C0C00080C0E00080E0000080E0200080E0400080E0600080E0800080E0A00080E0C00080E0E000C0000000C0002000C0004000C0006000C0008000C000A000C000C000C000E000C0200000C0202000C0204000C0206000C0208000C020A000C020C000C020E000C0400000C0402000C0404000C0406000C0
310
408000C040A000C040C000C040E000C0600000C0602000C0604000C0606000C0608000C060A000C060C000C060E000C0800000C0802000C0804000C0806000C0808000C080A000C080C000C080E000C0A00000C0A02000C0A04000C0A06000C0A08000C0A0A000C0A0C000C0A0E000C0C00000C0C02000C0C04000C0C06000
310
C0C08000C0C0A000F0FBFF00A4A0A000808080000000FF0000FF000000FFFF00FF000000FF00FF00FFFF0000FFFFFF00FFFFFFFFFFFFFFFFFFFFFFFFFFFFFFFFFFFFFFFFFFFFFFFFFFFFFFFFFFFFFFFFFFFFFFFFFFFFFFFFFFFFFFFFFFFFFF0000FFFFFFFFFFFFFFFFFFFFFFFFFFFFFFFFFFFFFFFFFFFFFFFFFFFFFFFFFFFF
310
0000FFFFFFFFFFFFFFFFFFFFFFFFFFFFFFFFFFFFFFFFFFFFFFFFFFFFFFFFFFFF0000FFFFFFFFFFFFFFFFFFFFFFFFFFFFFFFFFFFFFFFFFFFFFFFFFFFFFFFFFFFF0000FFFFFFFFFFFFFFFFFFFFFFFFFFFFFFFFFFFFFFFFFFFFFFFFFFFFFFFFFFFF0000FFFFFFFFFFFFFFFFFFFFFFFFFFFFFFFFFFFFFFFFFFFFFFFFFFFFFFFFFF
310
FF0000FFFFFFFFFFFFFFFFFFFFFFFFFFFFFFFFFFFFFFFFFFFFFFFFFFFFFFFFFFFF0000FFFFFFFFFFFFFFFFFFFFFFFFFFFFFFFFFFFFFFFFFFFFFFFFFFFFFFFFFFFF0000FFFFFFFFFFFFFFFFFFFFFFFFFFFFFFFFFFFFFFFFFFFFFFFFFFFFFFFFFFFF0000FFFFFFFFFFFFFFFFFFFFFFFFFFFFFFFFFFFFFFFFFFFFFFFFFFFFFFFF
310
FFFF0000FFFFFFFFFFFFFFFFFFFFFFFFFFFFFFFFFFFFFFFFFFFFFFFFFFFFFFFFFFFF0000FFFFFFFFFFFFFFFFFFFFFFFFFFFFFFFFFFFFFFFFFFFFFFFFFFFFFFFFFFFF0000FFFFFFFFFFFFFFFFFFFFFFFFFFFFFFFFFFFFFFFFFFFFFFFFFFFFFFFFFFFF0000FFFFFFFFFFFFFFFFFFFFFFFFFFFFFFFFFFFFFFFFFFFFFFFFFFFFFF
310
FFFFFF0000FFFFFFFFFFFFFFFFFFFFFFFFFFFFFFFFFFFFFFFFFFFFFFFFFFFFFFFFFFFF0000FFFFFFFFFFFFFFFFFFFFFFFFFFFFFFFFFFFFFFFFFFFFFFFFFFFFFFFFFFFF0000FFFFFFFFFFFFFFFFFFFFFFFFFFFFFFFFFFFFFFFFFFFFFFFFFFFFFFFFFFFF0000FFFFFFFFFFFFFFFFFFFFFFFFFFFFFFFFFFFFFFFFFFFFFFFFFFFF
310
FFFFFFFF0000FFFFFFFFFFFFFFFFFFFFFFFFFFFFFFFFFFFFFFFFFFFFFFFFFFFFFFFFFFFF0000FFFFFFFFFFFFFFFFFFFFFFFFFFFFFFFFFFFFFFFFFFFFFFFFFFFFFFFFFFFF0000FFFFFFFFFFFFFFFFFFFFFFFFFFFFFFFFFFFFFFFFFFFFFFFFFFFFFFFFFFFF0000FFFFFFFFFFFFFFFFFFFFFFFFFFFFFFFFFFFFFFFFFFFFFFFFFF
310
FFFFFFFFFF0000FFFFFFFFFFFFFFFFFFFFFFFFFFFFFFFFFFFFFFFFFFFFFFFFFFFFFFFFFFFF0000FFFFFFFFFFFFFFFFFFFFFFFFFFFFFFFFFFFFFFFFFFFFFFFFFFFFFFFFFFFF0000FFFFFFFFFFFFFFFFFFFFFFFFFFFFFFFFFFFFFFFFFFFFFFFFFFFFFFFFFFFF0000FFFFFFFFFFFFFFFFFFFFFFFFFFFFFFFFFFFFFFFFFFFFFFFF
310
FFFFFFFFFFFF0000FFFFFFFFFFFFFFFFFFFFFFFFFFFFFFFFFFFFFFFFFFFFFFFFFFFFFFFFFFFF0000FFFFFFFFFFFFFFFFFFFFFFFFFFFFFFFFFFFFFFFFFFFFFFFFFFFFFFFFFFFF0000FFFFFFFFFFFFFFFFFFFFFFFFFFFFFFFFFFFFFFFFFFFFFFFFFFFFFFFFFFFF0000FFFFFFFFFFFFFFFFFFFFFFFFFFFFFFFFFFFFFFFFFFFFFF
310
FFFFFFFFFFFFFF0000FFFFFFFFFFFFFFFFFFFFFFFFFFFFFFFFFFFFFFFFFFFFFFFFFFFFFFFFFFFFFFFFFFFFFFFFFFFFFFFFFFFFFFFFFFFFFF
102
{BLKREFS
331
3BE
102
}
  0
BLOCK_RECORD
  5
3A8
330
1
100
AcDbSymbolTableRecord
100
AcDbBlockTableRecord
  2
AI9-BLK2
340
0
310
2800000020000000200000000100080000000000000400000000000000000000000000000000000000000000000080000080000000808000800000008000800080800000C0C0C000C0DCC000F0CAA6000020400000206000002080000020A0000020C0000020E00000400000004020000040400000406000004080000040A0
310
000040C0000040E00000600000006020000060400000606000006080000060A0000060C0000060E00000800000008020000080400000806000008080000080A0000080C0000080E00000A0000000A0200000A0400000A0600000A0800000A0A00000A0C00000A0E00000C0000000C0200000C0400000C0600000C0800000C0
310
A00000C0C00000C0E00000E0000000E0200000E0400000E0600000E0800000E0A00000E0C00000E0E00040000000400020004000400040006000400080004000A0004000C0004000E00040200000402020004020400040206000402080004020A0004020C0004020E000404000004040200040404000404060004040800040
310
40A0004040C0004040E00040600000406020004060400040606000406080004060A0004060C0004060E00040800000408020004080400040806000408080004080A0004080C0004080E00040A0000040A0200040A0400040A0600040A0800040A0A00040A0C00040A0E00040C0000040C0200040C0400040C0600040C08000
310
40C0A00040C0C00040C0E00040E0000040E0200040E0400040E0600040E0800040E0A00040E0C00040E0E00080000000800020008000400080006000800080008000A0008000C0008000E00080200000802020008020400080206000802080008020A0008020C0008020E00080400000804020008040400080406000804080
310
008040A0008040C0008040E00080600000806020008060400080606000806080008060A0008060C0008060E00080800000808020008080400080806000808080008080A0008080C0008080E00080A0000080A0200080A0400080A0600080A0800080A0A00080A0C00080A0E00080C0000080C0200080C0400080C0600080C0
310
800080C0A00080C0C00080C0E00080E0000080E0200080E0400080E0600080E0800080E0A00080E0C00080E0E000C0000000C0002000C0004000C0006000C0008000C000A000C000C000C000E000C0200000C0202000C0204000C0206000C0208000C020A000C020C000C020E000C0400000C0402000C0404000C0406000C0
310
408000C040A000C040C000C040E000C0600000C0602000C0604000C0606000C0608000C060A000C060C000C060E000C0800000C0802000C0804000C0806000C0808000C080A000C080C000C080E000C0A00000C0A02000C0A04000C0A06000C0A08000C0A0A000C0A0C000C0A0E000C0C00000C0C02000C0C04000C0C06000
310
C0C08000C0C0A000F0FBFF00A4A0A000808080000000FF0000FF000000FFFF00FF000000FF00FF00FFFF0000FFFFFF00FFFFFFFFFFFFFFFFFFFFFFFFFFFFFFFFFFFFFFFFFFFFFFFFFFFFFFFFFFFFFFFFFFFFFFFFFFFFFFFFFFFFFFFFFFFFFF0000FFFFFFFFFFFFFFFFFFFFFFFFFFFFFFFFFFFFFFFFFFFFFFFFFFFFFFFFFFFF
310
0000FFFFFFFFFFFFFFFFFFFFFFFFFFFFFFFFFFFFFFFFFFFFFFFFFFFFFFFFFFFF0000FFFFFFFFFFFFFFFFFFFFFFFFFFFFFFFFFFFFFFFFFFFFFFFFFFFFFFFFFF00FFFF00FFFFFFFFFFFFFFFFFFFFFFFFFFFFFFFFFFFFFFFFFFFFFFFFFFFFFFFF00FFFF00FFFFFFFFFFFFFFFFFFFFFFFFFFFFFFFFFFFFFFFFFFFFFFFFFFFFFFFF
310
00FF0000FFFFFFFFFFFFFFFFFFFFFFFFFFFFFFFFFFFFFFFFFFFFFFFFFFFFFFFF00FF0000FFFFFFFFFFFFFFFFFFFFFFFFFFFFFFFFFFFFFFFFFFFFFFFFFFFFFFFF00FF0000FFFFFFFFFFFFFFFFFFFFFFFFFFFFFFFFFFFFFFFFFFFFFFFFFFFFFFFF00000000FFFFFFFFFFFFFFFFFFFFFFFFFFFFFFFFFFFFFFFFFFFFFFFFFFFFFF
310
00FF00FF0000FFFFFFFFFFFFFFFFFFFFFFFFFFFFFFFFFFFFFFFFFFFFFFFFFFFF00FF00FF0000FFFFFFFFFFFFFFFFFFFFFFFFFFFFFFFFFFFFFFFFFFFFFFFFFFFF00FF00FF0000FFFFFFFFFFFFFFFFFFFFFFFFFFFFFFFFFFFFFFFFFFFFFFFFFFFF00FF00FF0000FFFFFFFFFFFFFFFFFFFFFFFFFFFFFFFFFFFFFFFFFFFFFFFFFF
310
FF00FF00FF0000FFFFFFFFFFFFFFFFFFFFFFFFFFFFFFFFFFFFFFFFFFFFFFFFFFFF0000FFFF0000FFFFFFFFFFFFFFFFFFFFFFFFFFFFFFFFFFFFFFFFFFFFFFFFFF00FF00FFFF00FF00FFFFFFFFFFFFFFFFFFFFFFFFFFFFFFFFFFFFFFFFFFFFFFFF00FF00FFFF00FF00FFFFFFFFFFFFFFFFFFFFFFFFFFFFFFFFFFFFFFFFFFFFFF
310
FF00FF00FFFFFF0000FFFFFFFFFFFFFFFFFFFFFFFFFFFFFFFFFFFFFFFFFFFFFFFF00FF00FFFFFF0000FFFFFFFFFFFFFFFFFFFFFFFFFFFFFFFFFFFFFFFFFFFFFFFF00FF00FFFFFF0000FFFFFFFFFFFFFFFFFFFFFFFFFFFFFFFFFFFFFFFFFFFFFFFF0000FFFFFFFF0000FFFFFFFFFFFFFFFFFFFFFFFFFFFFFFFFFFFFFFFFFFFF
310
FF00FF00FFFFFFFF00FF00FFFFFFFFFFFFFFFFFFFFFFFFFFFFFFFFFFFFFFFFFFFF00FF00FFFFFFFF00FF00FFFFFFFFFFFFFFFFFFFFFFFFFFFFFFFFFFFFFFFFFFFF00FF00FFFFFFFF00FF00FFFFFFFFFFFFFFFFFFFFFFFFFFFFFFFFFFFFFFFFFFFF00FF00FFFFFFFF00FF00FFFFFFFFFFFFFFFFFFFFFFFFFFFFFFFFFFFFFFFF
310
FFFF00FF00FFFFFFFFFF0000FFFFFFFFFFFFFFFFFFFFFFFFFFFFFFFFFFFFFFFFFFFF0000FFFFFFFFFFFF0000FFFFFFFFFFFFFFFFFFFFFFFFFFFFFFFFFFFFFFFFFF00FF00FFFFFFFFFFFF00FF00FFFFFFFFFFFFFFFFFFFFFFFFFFFFFFFFFFFFFFFF00FF00FFFFFFFFFFFF00FF00FFFFFFFFFFFFFFFFFFFFFFFFFFFFFFFFFFFF
310
FFFF000000FFFFFFFFFFFF000000FFFFFFFFFFFFFFFFFFFFFFFFFFFFFFFFFFFFFFFFFFFFFFFFFFFFFFFFFFFFFFFFFFFFFFFFFFFFFFFFFFFF
102
{BLKREFS
331
3BF
102
}
  0
BLOCK_RECORD
  5
3AD
330
1
100
AcDbSymbolTableRecord
100
AcDbBlockTableRecord
  2
AI9-BLK1
340
0
310
2800000020000000200000000100080000000000000400000000000000000000000000000000000000000000000080000080000000808000800000008000800080800000C0C0C000C0DCC000F0CAA6000020400000206000002080000020A0000020C0000020E00000400000004020000040400000406000004080000040A0
310
000040C0000040E00000600000006020000060400000606000006080000060A0000060C0000060E00000800000008020000080400000806000008080000080A0000080C0000080E00000A0000000A0200000A0400000A0600000A0800000A0A00000A0C00000A0E00000C0000000C0200000C0400000C0600000C0800000C0
310
A00000C0C00000C0E00000E0000000E0200000E0400000E0600000E0800000E0A00000E0C00000E0E00040000000400020004000400040006000400080004000A0004000C0004000E00040200000402020004020400040206000402080004020A0004020C0004020E000404000004040200040404000404060004040800040
310
40A0004040C0004040E00040600000406020004060400040606000406080004060A0004060C0004060E00040800000408020004080400040806000408080004080A0004080C0004080E00040A0000040A0200040A0400040A0600040A0800040A0A00040A0C00040A0E00040C0000040C0200040C0400040C0600040C08000
310
40C0A00040C0C00040C0E00040E0000040E0200040E0400040E0600040E0800040E0A00040E0C00040E0E00080000000800020008000400080006000800080008000A0008000C0008000E00080200000802020008020400080206000802080008020A0008020C0008020E00080400000804020008040400080406000804080
310
008040A0008040C0008040E00080600000806020008060400080606000806080008060A0008060C0008060E00080800000808020008080400080806000808080008080A0008080C0008080E00080A0000080A0200080A0400080A0600080A0800080A0A00080A0C00080A0E00080C0000080C0200080C0400080C0600080C0
310
800080C0A00080C0C00080C0E00080E0000080E0200080E0400080E0600080E0800080E0A00080E0C00080E0E000C0000000C0002000C0004000C0006000C0008000C000A000C000C000C000E000C0200000C0202000C0204000C0206000C0208000C020A000C020C000C020E000C0400000C0402000C0404000C0406000C0
310
408000C040A000C040C000C040E000C0600000C0602000C0604000C0606000C0608000C060A000C060C000C060E000C0800000C0802000C0804000C0806000C0808000C080A000C080C000C080E000C0A00000C0A02000C0A04000C0A06000C0A08000C0A0A000C0A0C000C0A0E000C0C00000C0C02000C0C04000C0C06000
310
C0C08000C0C0A000F0FBFF00A4A0A000808080000000FF0000FF000000FFFF00FF000000FF00FF00FFFF0000FFFFFF00FFFFFFFFFFFFFFFFFFFFFFFFFFFFFFFFFFFFFFFFFFFFFFFFFFFFFFFFFFFFFFFFFFFFFFFFFFFFFFFFFFFFFF00000000000000000000FFFFFFFFFFFFFFFFFFFFFFFFFFFFFFFFFFFFFFFFFFFF00FFFFFF
310
FFFFFFFFFF00FFFFFFFFFFFFFFFFFFFFFFFFFFFFFFFFFFFFFFFFFFFF00FFFFFFFFFFFFFFFF00FFFFFFFFFFFFFFFFFFFFFFFFFFFFFFFFFFFFFFFFFFFF00FFFFFFFFFFFFFFFF00FFFFFFFFFFFFFFFFFFFFFFFFFFFFFFFFFFFFFFFFFFFF00FF0000000000000000FFFFFFFFFFFFFFFFFFFFFFFFFFFFFFFFFFFFFFFFFFFF00FF00
310
FFFFFFFFFFFFFFFFFFFFFFFFFFFFFFFFFFFFFFFFFFFFFFFFFFFFFFFFFF00FF00FFFFFFFFFFFFFFFFFFFFFFFFFFFFFFFFFFFFFFFFFFFFFFFFFFFFFFFFFF00FF00FFFFFFFFFFFFFFFFFFFFFFFFFFFFFFFFFFFFFFFFFFFFFFFFFFFFFFFFFF00FF00FFFFFFFFFFFFFFFFFFFFFFFFFFFFFFFFFFFFFFFFFFFFFFFFFFFFFFFFFF00FF
310
00FFFFFFFFFFFFFFFFFFFFFFFFFFFFFFFFFFFFFFFFFFFFFFFFFFFFFFFFFF00FF00FFFFFFFFFFFFFFFFFFFFFFFFFFFFFFFFFFFFFFFFFFFFFFFFFFFFFFFFFF00FF00FFFFFFFFFFFFFFFFFFFFFFFFFFFFFFFFFFFFFFFFFFFFFFFFFFFFFFFFFF00FF00FFFFFFFFFFFFFFFFFFFFFFFFFFFFFFFFFFFFFFFFFFFFFFFFFFFFFFFFFF00
310
FF00000000000000FFFFFFFFFFFFFFFFFFFFFFFFFFFFFFFFFFFFFFFFFFFFFF00FFFFFFFFFFFFFF00FFFFFFFFFFFFFFFFFFFFFFFFFFFFFFFFFFFFFFFFFFFFFF00FFFFFFFFFFFFFF00FFFFFFFFFFFFFFFFFFFFFFFFFFFFFFFFFFFFFFFFFFFFFF00FFFFFFFFFFFFFF00FFFFFFFFFFFFFFFFFFFFFFFFFFFFFFFFFFFFFFFFFFFFFF
310
00FF00000000000000FFFFFFFFFFFFFFFFFFFFFFFFFFFFFFFFFFFFFFFFFFFFFF00FF00FFFFFFFFFFFFFFFFFFFFFFFFFFFFFFFFFFFFFFFFFFFFFFFFFFFFFFFFFF00FF00FFFFFFFFFFFFFFFFFFFFFFFFFFFFFFFFFFFFFFFFFFFFFFFFFFFFFFFFFF00FF00FFFFFFFFFFFFFFFFFFFFFFFFFFFFFFFFFFFFFFFFFFFFFFFFFFFFFFFF
310
FF00FF00FFFFFFFFFFFFFFFFFFFFFFFFFFFFFFFFFFFFFFFFFFFFFFFFFFFFFFFFFF00FF00FFFFFFFFFFFFFFFFFFFFFFFFFFFFFFFFFFFFFFFFFFFFFFFFFFFFFFFFFF00FF00FFFFFFFFFFFFFFFFFFFFFFFFFFFFFFFFFFFFFFFFFFFFFFFFFFFFFFFFFF00FF00FFFFFFFFFFFFFFFFFFFFFFFFFFFFFFFFFFFFFFFFFFFFFFFFFFFFFF
310
FFFF00FF0000000000000000FFFFFFFFFFFFFFFFFFFFFFFFFFFFFFFFFFFFFFFFFFFF00FFFFFFFFFFFFFFFF00FFFFFFFFFFFFFFFFFFFFFFFFFFFFFFFFFFFFFFFFFFFF00FFFFFFFFFFFFFFFF00FFFFFFFFFFFFFFFFFFFFFFFFFFFFFFFFFFFFFFFFFFFF00FFFFFFFFFFFFFFFF00FFFFFFFFFFFFFFFFFFFFFFFFFFFFFFFFFFFFFF
310
FFFFFF00000000000000000000FFFFFFFFFFFFFFFFFFFFFFFFFFFFFFFFFFFFFFFFFFFFFFFFFFFFFFFFFFFFFFFFFFFFFFFFFFFFFFFFFFFFFF
102
{BLKREFS
331
3C0
102
}
  0
BLOCK_RECORD
  5
3B2
330
1
100
AcDbSymbolTableRecord
100
AcDbBlockTableRecord
  2
HD_LLC_logo_OT5
340
0
310
2800000020000000200000000100080000000000000400000000000000000000000000000000000000000000000080000080000000808000800000008000800080800000C0C0C000C0DCC000F0CAA6000020400000206000002080000020A0000020C0000020E00000400000004020000040400000406000004080000040A0
310
000040C0000040E00000600000006020000060400000606000006080000060A0000060C0000060E00000800000008020000080400000806000008080000080A0000080C0000080E00000A0000000A0200000A0400000A0600000A0800000A0A00000A0C00000A0E00000C0000000C0200000C0400000C0600000C0800000C0
310
A00000C0C00000C0E00000E0000000E0200000E0400000E0600000E0800000E0A00000E0C00000E0E00040000000400020004000400040006000400080004000A0004000C0004000E00040200000402020004020400040206000402080004020A0004020C0004020E000404000004040200040404000404060004040800040
310
40A0004040C0004040E00040600000406020004060400040606000406080004060A0004060C0004060E00040800000408020004080400040806000408080004080A0004080C0004080E00040A0000040A0200040A0400040A0600040A0800040A0A00040A0C00040A0E00040C0000040C0200040C0400040C0600040C08000
310
40C0A00040C0C00040C0E00040E0000040E0200040E0400040E0600040E0800040E0A00040E0C00040E0E00080000000800020008000400080006000800080008000A0008000C0008000E00080200000802020008020400080206000802080008020A0008020C0008020E00080400000804020008040400080406000804080
310
008040A0008040C0008040E00080600000806020008060400080606000806080008060A0008060C0008060E00080800000808020008080400080806000808080008080A0008080C0008080E00080A0000080A0200080A0400080A0600080A0800080A0A00080A0C00080A0E00080C0000080C0200080C0400080C0600080C0
310
800080C0A00080C0C00080C0E00080E0000080E0200080E0400080E0600080E0800080E0A00080E0C00080E0E000C0000000C0002000C0004000C0006000C0008000C000A000C000C000C000E000C0200000C0202000C0204000C0206000C0208000C020A000C020C000C020E000C0400000C0402000C0404000C0406000C0
310
408000C040A000C040C000C040E000C0600000C0602000C0604000C0606000C0608000C060A000C060C000C060E000C0800000C0802000C0804000C0806000C0808000C080A000C080C000C080E000C0A00000C0A02000C0A04000C0A06000C0A08000C0A0A000C0A0C000C0A0E000C0C00000C0C02000C0C04000C0C06000
310
C0C08000C0C0A000F0FBFF00A4A0A000808080000000FF0000FF000000FFFF00FF000000FF00FF00FFFF0000FFFFFF00FFFFFFFFFFFFFFFFFFFFFFFFFFFFFFFFFFFFFFFFFFFFFFFFFFFFFFFFFFFFFFFFFFFFFFFFFFFFFFFFFFFFFFFFFFFFFFFFFFFFFFFFFFFFFFFFFFFFFFFFFFFFFFFFFFFFFFFFFFFFFFFFFFFFFFFFFFFFFF
310
FFFFFFFFFFFFFFFFFFFFFFFFFFFFFFFFFFFFFFFFFFFFFFFFFFFFFFFFFFFFFFFFFFFFFFFFFFFFFFFFFFFFFFFFFFFFFFFFFFFFFFFFFFFFFFFFFFFFFFFFFFFFFFFFFFFFFFFFFFFFFFFFFFFFFFFFFFFFFFFFFFFFFFFFFFFFFFFFFFFFFFFFFFFFFFFFFFFFFFFFFFFFFFFFFFFFFFFFFFFFFFFFFFFFFFFFFFFFFFFFFFFFFFFFFFFFFF
310
FFFFFFFFFFFFFFFFFFFFFFFFFFFFFFFFFFFFFFFFFFFFFFFFFFFFFFFFFFFFFFFFFFFFFFFFFFFFFFFFFFFFFFFFFFFFFFFFFFFFFFFFFFFFFFFFFFFFFFFFFFFFFFFFFFFFFFFFFFFFFFFFFFFFFFFFFFFFFFFFFFFFFFFFFFFFFFFFFFFFFFFFFFFFFFFFFFFFFFFFFFFFFFFFFFFFFFFFFFFFFFFFFFFFFFFFFFFFFFFFFFFFFFFFFFFFFF
310
FFFFFFFFFFFFFFFFFFFFFFFFFFFFFFFFFFFFFFFFFFFFFFFFFFFFFFFFFFFFFFFFFFFFFFFFFFFFFFFFFFFFFFFFFFFFFFFFFFFFFFFF0000000000000000000000000000000000000000000000000000000000FFFFFF0000000000000000000000000000000000FFFFFFFFFFFFFFFFFFFF0000FFFFFF0000000000000000000000
310
00000000000000FFFFFFFFFFFFFFFFFFFF0000FFFF000000000000000000000000000000000000FFFFFF00000000FFFFFF0000FFFF00FFFFFFFFFFFF00FFFFFF00FFFFFFFFFF00FFFFFF0000000000FFFF0000FFFF00FFFFFFFFFFFF00FFFFFF00FFFFFFFFFF00FFFFFF00FFFF0000FFFF0000FFFF00FFFFFFFFFFFF00FFFF
310
00FFFFFFFFFFFF00FFFFFF00FFFF0000FFFF0000FFFF0000000000FFFF00000000FFFFFF00000000FFFFFF00000000FFFFFF0000FFFFFFFFFFFF00FFFFFFFFFFFFFFFFFF00FFFFFFFFFFFFFFFFFFFFFFFFFF0000FFFFFFFFFFFF00FFFFFFFFFFFFFFFFFF00FFFFFFFFFFFFFFFFFFFFFFFFFF0000FFFFFFFFFFFF00FFFFFFFF
310
FFFFFFFFFF00FFFFFFFFFFFFFFFFFFFFFFFF0000FFFFFF0000000000FFFF00000000FFFFFF0000000000000000000000000000FFFFFFFF00FFFFFFFFFFFF00FFFF00FFFFFFFFFFFF00FFFFFFFFFFFFFFFFFFFFFFFFFFFF00FFFFFFFFFFFF00FFFFFF00FFFFFFFFFF00FFFFFFFFFFFFFFFFFFFFFFFFFFFF0000000000000000
310
FFFFFF00000000000000FFFFFFFFFFFFFFFFFFFFFFFFFFFFFFFFFFFFFFFFFFFFFFFFFFFFFFFFFFFFFFFFFFFFFFFFFFFFFFFFFFFFFFFFFFFFFFFFFFFFFFFFFFFFFFFFFFFFFFFFFFFFFFFFFFFFFFFFFFFFFFFFFFFFFFFFFFFFFFFFFFFFFFFFFFFFFFFFFFFFFFFFFFFFFFFFFFFFFFFFFFFFFFFFFFFFFFFFFFFFFFFFFFFFFFFFFF
310
FFFFFFFFFFFFFFFFFFFFFFFFFFFFFFFFFFFFFFFFFFFFFFFFFFFFFFFFFFFFFFFFFFFFFFFFFFFFFFFFFFFFFFFFFFFFFFFFFFFFFFFFFFFFFFFF
102
{BLKREFS
331
3D8
102
}
  0
BLOCK_RECORD
  5
3D7
330
1
100
AcDbSymbolTableRecord
100
AcDbBlockTableRecord
  2
HD logo-new
340
0
310
2800000020000000200000000100080000000000000400000000000000000000000000000000000000000000000080000080000000808000800000008000800080800000C0C0C000C0DCC000F0CAA6000020400000206000002080000020A0000020C0000020E00000400000004020000040400000406000004080000040A0
310
000040C0000040E00000600000006020000060400000606000006080000060A0000060C0000060E00000800000008020000080400000806000008080000080A0000080C0000080E00000A0000000A0200000A0400000A0600000A0800000A0A00000A0C00000A0E00000C0000000C0200000C0400000C0600000C0800000C0
310
A00000C0C00000C0E00000E0000000E0200000E0400000E0600000E0800000E0A00000E0C00000E0E00040000000400020004000400040006000400080004000A0004000C0004000E00040200000402020004020400040206000402080004020A0004020C0004020E000404000004040200040404000404060004040800040
310
40A0004040C0004040E00040600000406020004060400040606000406080004060A0004060C0004060E00040800000408020004080400040806000408080004080A0004080C0004080E00040A0000040A0200040A0400040A0600040A0800040A0A00040A0C00040A0E00040C0000040C0200040C0400040C0600040C08000
310
40C0A00040C0C00040C0E00040E0000040E0200040E0400040E0600040E0800040E0A00040E0C00040E0E00080000000800020008000400080006000800080008000A0008000C0008000E00080200000802020008020400080206000802080008020A0008020C0008020E00080400000804020008040400080406000804080
310
008040A0008040C0008040E00080600000806020008060400080606000806080008060A0008060C0008060E00080800000808020008080400080806000808080008080A0008080C0008080E00080A0000080A0200080A0400080A0600080A0800080A0A00080A0C00080A0E00080C0000080C0200080C0400080C0600080C0
310
800080C0A00080C0C00080C0E00080E0000080E0200080E0400080E0600080E0800080E0A00080E0C00080E0E000C0000000C0002000C0004000C0006000C0008000C000A000C000C000C000E000C0200000C0202000C0204000C0206000C0208000C020A000C020C000C020E000C0400000C0402000C0404000C0406000C0
310
408000C040A000C040C000C040E000C0600000C0602000C0604000C0606000C0608000C060A000C060C000C060E000C0800000C0802000C0804000C0806000C0808000C080A000C080C000C080E000C0A00000C0A02000C0A04000C0A06000C0A08000C0A0A000C0A0C000C0A0E000C0C00000C0C02000C0C04000C0C06000
310
C0C08000C0C0A000F0FBFF00A4A0A000808080000000FF0000FF000000FFFF00FF000000FF00FF00FFFF0000FFFFFF00FFFFFFFFFFFFFFFFFFFFFFFFFFFFFFFFFFFFFFFFFFFFFFFFFFFFFFFFFFFFFFFFFFFFFFFFFFFFFFFFFFFFFFFFFFFFFFFFFFFFFFFFFFFFFFFFFFFFFFFFFFFFFFFFFFFFFFFFFFFFFFFFFFFFFFFFFFFFFF
310
FFFFFFFFFFFFFFFFFFFFFFFFFFFFFFFFFFFFFFFFFFFFFFFFFFFFFFFFFFFFFFFFFFFFFFFFFFFFFFFFFFFFFFFFFFFFFFFFFFFFFFFFFFFFFFFFFFFFFFFFFFFFFFFFFFFFFFFFFFFFFFFFFFFFFFFFFFFFFFFFFFFFFFFFFFFFFFFFFFFFFFFFFFFFFFFFFFFFFFFFFFFFFFFFFFFFFFFFFFFFFFFFFFFFFFFFFFFFFFFFFFFFFFFFFFFFFF
310
FFFFFFFFFFFFFFFFFFFFFFFFFFFFFFFFFFFFFFFFFFFFFFFFFFFFFFFFFFFFFFFFFFFFFFFFFFFFFFFFFFFFFFFFFFFFFFFFFFFFFFFFFFFFFFFFFFFFFFFFFFFFFFFFFFFFFFFFFFFFFFFFFFFFFFFFFFFFFFFFFFFFFFFFFFFFFFFFFFFFFFFFFFFFFFFFFFFFFFFFFFFFFFFFFFFFFFFFFFFFFFFFFFFFFFFFFFFFFFFFFFFFFFFFFFFFFF
310
FFFFFFFFFFFFFFFFFFFFFFFFFFFFFFFFFFFFFFFFFFFFFFFFFFFFFFFFFFFFFFFFFFFFFFFFFFFFFFFFFFFFFFFFFFFFFFFFFFFFFFFF0000000000000000000000000000000000000000000000000000000000FFFFFF0000000000000000000000000000000000FFFFFFFFFFFFFFFFFFFF0000FFFFFF0000000000000000000000
310
00000000000000FFFFFFFFFFFFFFFFFFFF0000FFFF000000000000000000000000000000000000FFFFFF00000000FFFFFF0000FFFF00FFFFFFFFFFFF00FFFFFF00FFFFFFFFFF00FFFFFF0000000000FFFF0000FFFF00FFFFFFFFFFFF00FFFFFF00FFFFFFFFFF00FFFFFF00FFFF0000FFFF0000FFFF00FFFFFFFFFFFF00FFFF
310
00FFFFFFFFFFFF00FFFFFF00FFFF0000FFFF0000FFFF0000000000FFFF00000000FFFFFF00000000FFFFFF00000000FFFFFF0000FFFFFFFFFFFF00FFFFFFFFFFFFFFFFFF00FFFFFFFFFFFFFFFFFFFFFFFFFF0000FFFFFFFFFFFF00FFFFFFFFFFFFFFFFFF00FFFFFFFFFFFFFFFFFFFFFFFFFF0000FFFFFFFFFFFF00FFFFFFFF
310
FFFFFFFFFF00FFFFFFFFFFFFFFFFFFFFFFFF0000FFFFFF0000000000FFFF00000000FFFFFF0000000000000000000000000000FFFFFFFF00FFFFFFFFFFFF00FFFF00FFFFFFFFFFFF00FFFFFFFFFFFFFFFFFFFFFFFFFFFF00FFFFFFFFFFFF00FFFFFF00FFFFFFFFFF00FFFFFFFFFFFFFFFFFFFFFFFFFFFF0000000000000000
310
FFFFFF00000000000000FFFFFFFFFFFFFFFFFFFFFFFFFFFFFFFFFFFFFFFFFFFFFFFFFFFFFFFFFFFFFFFFFFFFFFFFFFFFFFFFFFFFFFFFFFFFFFFFFFFFFFFFFFFFFFFFFFFFFFFFFFFFFFFFFFFFFFFFFFFFFFFFFFFFFFFFFFFFFFFFFFFFFFFFFFFFFFFFFFFFFFFFFFFFFFFFFFFFFFFFFFFFFFFFFFFFFFFFFFFFFFFFFFFFFFFFFF
310
FFFFFFFFFFFFFFFFFFFFFFFFFFFFFFFFFFFFFFFFFFFFFFFFFFFFFFFFFFFFFFFFFFFFFFFFFFFFFFFFFFFFFFFFFFFFFFFFFFFFFFFFFFFFFFFF
102
{BLKREFS
331
3DD
331
3E1
102
}
  0
BLOCK_RECORD
  5
3EE
330
1
100
AcDbSymbolTableRecord
100
AcDbBlockTableRecord
  2
HD LLC
340
0
310
2800000020000000200000000100080000000000000400000000000000000000000000000000000000000000000080000080000000808000800000008000800080800000C0C0C000C0DCC000F0CAA6000020400000206000002080000020A0000020C0000020E00000400000004020000040400000406000004080000040A0
310
000040C0000040E00000600000006020000060400000606000006080000060A0000060C0000060E00000800000008020000080400000806000008080000080A0000080C0000080E00000A0000000A0200000A0400000A0600000A0800000A0A00000A0C00000A0E00000C0000000C0200000C0400000C0600000C0800000C0
310
A00000C0C00000C0E00000E0000000E0200000E0400000E0600000E0800000E0A00000E0C00000E0E00040000000400020004000400040006000400080004000A0004000C0004000E00040200000402020004020400040206000402080004020A0004020C0004020E000404000004040200040404000404060004040800040
310
40A0004040C0004040E00040600000406020004060400040606000406080004060A0004060C0004060E00040800000408020004080400040806000408080004080A0004080C0004080E00040A0000040A0200040A0400040A0600040A0800040A0A00040A0C00040A0E00040C0000040C0200040C0400040C0600040C08000
310
40C0A00040C0C00040C0E00040E0000040E0200040E0400040E0600040E0800040E0A00040E0C00040E0E00080000000800020008000400080006000800080008000A0008000C0008000E00080200000802020008020400080206000802080008020A0008020C0008020E00080400000804020008040400080406000804080
310
008040A0008040C0008040E00080600000806020008060400080606000806080008060A0008060C0008060E00080800000808020008080400080806000808080008080A0008080C0008080E00080A0000080A0200080A0400080A0600080A0800080A0A00080A0C00080A0E00080C0000080C0200080C0400080C0600080C0
310
800080C0A00080C0C00080C0E00080E0000080E0200080E0400080E0600080E0800080E0A00080E0C00080E0E000C0000000C0002000C0004000C0006000C0008000C000A000C000C000C000E000C0200000C0202000C0204000C0206000C0208000C020A000C020C000C020E000C0400000C0402000C0404000C0406000C0
310
408000C040A000C040C000C040E000C0600000C0602000C0604000C0606000C0608000C060A000C060C000C060E000C0800000C0802000C0804000C0806000C0808000C080A000C080C000C080E000C0A00000C0A02000C0A04000C0A06000C0A08000C0A0A000C0A0C000C0A0E000C0C00000C0C02000C0C04000C0C06000
310
C0C08000C0C0A000F0FBFF00A4A0A000808080000000FF0000FF000000FFFF00FF000000FF00FF00FFFF0000FFFFFF00FFFFFFFFFFFFFFFFFFFFFFFFFFFFFFFFFFFFFFFFFFFFFFFFFFFFFFFFFFFFFFFFFFFFFFFFFFFFFFFFFFFFFFFFFFFFFFFFFFFFFFFFFFFFFFFFFFFFFFFFFFFFFFFFFFFFFFFFFFFFFFFFFFFFFFFFFFFFFF
310
FFFFFFFFFFFFFFFFFFFFFFFFFFFFFFFFFFFFFFFFFFFFFFFFFFFFFFFFFFFFFFFFFFFFFFFFFFFFFFFFFFFFFFFFFFFFFFFFFFFFFFFFFFFFFFFFFFFFFFFFFFFFFFFFFFFFFFFFFFFFFFFFFFFFFFFFFFFFFFFFFFFFFFFFFFFFFFFFFFFFFFFFFFFFFFFFFFFFFFFFFFFFFFFFFFFFFFFFFFFFFFFFFFFFFFFFFFFFFFFFFFFFFFFFFFFFFF
310
FFFFFFFFFFFFFFFFFFFFFFFFFFFFFFFFFFFFFFFFFFFFFFFFFFFFFFFFFFFFFFFFFFFFFFFFFFFFFFFFFFFFFFFFFFFFFFFFFFFFFFFFFFFFFFFFFFFFFFFFFFFFFFFFFFFFFFFFFFFFFFFFFFFFFFFFFFFFFFFFFFFFFFFFFFFFFFFFFFFFFFFFFFFFFFFFFFFFFFFFFFFFFFFFFFFFFFFFFFFFFFFFFFFFFFFFFFFFFFFFFFFFFFFFFFFFFF
310
FFFFFFFFFFFFFFFFFFFFFFFFFFFFFFFFFFFFFFFFFFFFFFFFFFFFFFFFFFFFFFFFFFFFFFFFFFFFFFFFFFFFFFFFFFFFFFFFFFFFFFFFFFFFFFFFFFFFFFFFFFFFFFFFFFFFFFFFFFFFFFFFFFFFFFFFFFFFFFFFFFFFFFFFFFFFFFFFFFFFFFFFFFFFFFFFFFFFFFFFFFFFFFFFFFFFFFFFFFFFFFFFFFFFFFFFFFFFFFFFFFFFFFFFFFFF00
310
000000000000000000FFFFFFFFFFFFFFFFFFFFFFFFFFFFFFFFFFFFFFFFFFFF00000000000000000000FFFFFFFFFFFFFFFFFFFFFFFFFFFFFFFFFFFFFFFFFFFF00000000000000000000FFFFFFFFFFFFFFFFFFFFFFFFFFFFFFFFFFFFFFFFFFFF00000000000000000000FFFFFFFFFFFFFFFFFFFFFFFFFFFFFFFFFFFFFFFFFFFF
310
FFFFFFFFFFFFFFFFFFFFFFFFFFFFFFFFFFFFFFFFFFFFFFFFFFFFFFFFFFFFFFFFFFFFFFFFFFFFFFFFFFFFFFFFFFFFFFFFFFFFFFFFFFFFFFFFFFFFFFFFFFFFFFFFFFFFFFFFFFFFFFFFFFFFFFFFFFFFFFFFFFFFFFFFFFFFFFFFFFFFFFFFFFFFFFFFFFFFFFFFFFFFFFFFFFFFFFFFFFFFFFFFFFFFFFFFFFFFFFFFFFFFFFFFFFFFFF
310
FFFFFFFFFFFFFFFFFFFFFFFFFFFFFFFFFFFFFFFFFFFFFFFFFFFFFFFFFFFFFFFFFFFFFFFFFFFFFFFFFFFFFFFFFFFFFFFFFFFFFFFFFFFFFFFFFFFFFFFFFFFFFFFFFFFFFFFFFFFFFFFFFFFFFFFFFFFFFFFFFFFFFFFFFFFFFFFFFFFFFFFFFFFFFFFFFFFFFFFFFFFFFFFFFFFFFFFFFFFFFFFFFFFFFFFFFFFFFFFFFFFFFFFFFFFFFF
310
FFFFFFFFFFFFFFFFFFFFFFFFFFFFFFFFFFFFFFFFFFFFFFFFFFFFFFFFFFFFFFFFFFFFFFFFFFFFFFFFFFFFFFFFFFFFFFFFFFFFFFFFFFFFFFFFFFFFFFFFFFFFFFFFFFFFFFFFFFFFFFFFFFFFFFFFFFFFFFFFFFFFFFFFFFFFFFFFFFFFFFFFFFFFFFFFFFFFFFFFFFFFFFFFFFFFFFFFFFFFFFFFFFFFFFFFFFFFFFFFFFFFFFFFFFFFFF
310
FFFFFFFFFFFFFFFFFFFFFFFFFFFFFFFFFFFFFFFFFFFFFFFFFFFFFFFFFFFFFFFFFFFFFFFFFFFFFFFFFFFFFFFFFFFFFFFFFFFFFFFFFFFFFFFF
102
{BLKREFS
331
3F3
331
3F7
102
}
  0
ENDTAB
  0
ENDSEC
  0
SECTION
  2
BLOCKS
  0
BLOCK
  5
D
330
A
100
AcDbEntity
  8
0
100
AcDbBlockBegin
  2
*MODEL_SPACE
 70
     0
 10
0.0
 20
0.0
 30
0.0
  3
*MODEL_SPACE
  1

  0
ENDBLK
  5
E
330
A
100
AcDbEntity
  8
0
100
AcDbBlockEnd
  0
BLOCK
  5
F
330
B
100
AcDbEntity
 67
     1
  8
0
100
AcDbBlockBegin
  2
*PAPER_SPACE
 70
     0
 10
0.0
 20
0.0
 30
0.0
  3
*PAPER_SPACE
  1

  0
ENDBLK
  5
10
330
B
100
AcDbEntity
 67
     1
  8
0
100
AcDbBlockEnd
  0
BLOCK
  5
26
330
25
100
AcDbEntity
  8
0
100
AcDbBlockBegin
  2
CSD_17_2UH
 70
     0
 10
0.0
 20
0.0
 30
0.0
  3
CSD_17_2UH
  1

  0
MTEXT
  5
6D
330
25
100
AcDbEntity
  8
1
 62
     3
100
AcDbMText
 10
-136.187193931087
 20
95.07567954435499
 30
0.0
 40
3.5
 41
0.0
 71
     5
 72
     1
  1
CSD-25-XXX-2UH.dxf
  7
CONVERTER_2
 73
     1
 44
1.0
  0
TEXT
  5
6B
330
25
100
AcDbEntity
  8
1
 62
     3
100
AcDbText
 10
-300.5456471877379
 20
79.455102725833
 30
0.0
 40
1.399999999999999
  1
http://www.hds.co.jp
 41
0.8100000000000001
  7
CONVERTER_1
100
AcDbText
  0
TEXT
  5
6A
330
25
100
AcDbEntity
  8
1
 62
     3
100
AcDbText
 10
-300.5456471877379
 20
81.695102725833
 30
0.0
 40
1.399999999999999
  1
Tel.03-5471-7800 Fax.03-5471-7811
 41
0.8100000000000001
  7
CONVERTER_1
100
AcDbText
  0
TEXT
  5
69
330
25
100
AcDbEntity
  8
1
 62
     3
100
AcDbText
 10
-300.5456471877379
 20
83.93510272583299
 30
0.0
 40
1.399999999999999
  1
JAPAN
 41
0.8100000000000001
  7
CONVERTER_1
100
AcDbText
  0
TEXT
  5
68
330
25
100
AcDbEntity
  8
1
 62
     3
100
AcDbText
 10
-300.5456471877379
 20
86.17510272583301
 30
0.0
 40
1.399999999999999
  1
Believe Omori 7F Minamiohi 6-25-3 Shinagawa-ku, Tokyo 140-0013
 41
0.8100000000000001
  7
CONVERTER_1
100
AcDbText
  0
TEXT
  5
67
330
25
100
AcDbEntity
  8
1
 62
     3
100
AcDbText
 10
-300.5456471877379
 20
88.41510272583299
 30
0.0
 40
1.399999999999999
  1
Harmonic Drive Systems,Inc.
 41
0.8100000000000001
  7
CONVERTER_1
100
AcDbText
  0
TEXT
  5
66
330
25
100
AcDbEntity
  8
1
 62
     3
100
AcDbText
 10
-300.5456471877379
 20
92.89510272583299
 30
0.0
 40
1.399999999999999
  1
This drawing itself is also a property of Harmonic Drive Systems,Ins.
 41
0.8100000000000001
  7
CONVERTER_1
100
AcDbText
  0
TEXT
  5
65
330
25
100
AcDbEntity
  8
1
 62
     3
100
AcDbText
 10
-300.5456471877379
 20
95.135102725833
 30
0.0
 40
1.399999999999999
  1
subject to change without notification.
 41
0.8100000000000001
  7
CONVERTER_1
100
AcDbText
  0
TEXT
  5
64
330
25
100
AcDbEntity
  8
1
 62
     3
100
AcDbText
 10
-300.5456471877379
 20
97.375102725833
 30
0.0
 40
1.399999999999999
  1
All speciffcations and dimensions mentioned in the drawing are
 41
0.8100000000000001
  7
CONVERTER_1
100
AcDbText
  0
TEXT
  5
63
330
25
100
AcDbEntity
  8
1
 62
     7
100
AcDbText
 10
-300.167846985922
 20
100.129921644259
 30
0.0
 40
2.5
  1
The reference drawing
 41
0.8100000000000001
  7
CONVERTER_1
100
AcDbText
  0
ARC
  5
61
330
25
100
AcDbEntity
  8
1
  6
PHANTOM
 62
     7
100
AcDbCircle
 10
-299.5456471877379
 20
79.70802907949099
 30
0.0
 40
3.0
100
AcDbArc
 50
180.0
 51
-90.0
  0
ARC
  5
60
330
25
100
AcDbEntity
  8
1
  6
PHANTOM
 62
     7
100
AcDbCircle
 10
-299.5456471877379
 20
101.7080290794909
 30
0.0
 40
3.0
100
AcDbArc
 50
90.0
 51
180.0
  0
ARC
  5
5F
330
25
100
AcDbEntity
  8
1
  6
PHANTOM
 62
     7
100
AcDbCircle
 10
-221.545647187738
 20
101.7080290794909
 30
0.0
 40
3.0
100
AcDbArc
 50
0.0
 51
90.0
  0
ARC
  5
5E
330
25
100
AcDbEntity
  8
1
  6
PHANTOM
 62
     7
100
AcDbCircle
 10
-221.545647187738
 20
79.70802907949099
 30
0.0
 40
3.0
100
AcDbArc
 50
-90.0
 51
0.0
  0
LINE
  5
5D
330
25
100
AcDbEntity
  8
1
  6
PHANTOM
 62
     7
100
AcDbLine
 10
-302.5456471877379
 20
101.7080290794909
 30
0.0
 11
-302.5456471877379
 21
79.70802907949099
 31
0.0
  0
LINE
  5
5C
330
25
100
AcDbEntity
  8
1
  6
PHANTOM
 62
     7
100
AcDbLine
 10
-299.5456471877379
 20
76.708029079491
 30
0.0
 11
-221.545647187738
 21
76.708029079491
 31
0.0
  0
LINE
  5
5B
330
25
100
AcDbEntity
  8
1
  6
PHANTOM
 62
     7
100
AcDbLine
 10
-218.545647187738
 20
79.70802907949099
 30
0.0
 11
-218.545647187738
 21
101.7080290794909
 31
0.0
  0
LINE
  5
5A
330
25
100
AcDbEntity
  8
1
  6
PHANTOM
 62
     7
100
AcDbLine
 10
-221.545647187738
 20
104.7080290794909
 30
0.0
 11
-299.5456471877379
 21
104.7080290794909
 31
0.0
  0
ENDBLK
  5
6E
330
25
100
AcDbEntity
  8
0
100
AcDbBlockEnd
  0
BLOCK
  5
28
330
27
100
AcDbEntity
  8
0
100
AcDbBlockBegin
  2
100107378
 70
     0
 10
0.0
 20
0.0
 30
0.0
  3
100107378
  1

  0
INSERT
  5
29
330
27
100
AcDbEntity
  8
0
100
AcDbBlockReference
  2
CSD_17_2UH
 10
0.0
 20
0.0
 30
0.0
  0
ENDBLK
  5
6F
330
27
100
AcDbEntity
  8
0
100
AcDbBlockEnd
  0
BLOCK
  5
2B
330
2A
100
AcDbEntity
  8
0
100
AcDbBlockBegin
  2
100107380
 70
     0
 10
0.0
 20
0.0
 30
0.0
  3
100107380
  1

  0
INSERT
  5
2C
330
2A
100
AcDbEntity
  8
0
100
AcDbBlockReference
  2
100107378
 10
0.0
 20
0.0
 30
0.0
  0
ENDBLK
  5
70
330
2A
100
AcDbEntity
  8
0
100
AcDbBlockEnd
  0
BLOCK
  5
2E
330
2D
100
AcDbEntity
  8
0
100
AcDbBlockBegin
  2
C2A0372
 70
     0
 10
0.0
 20
0.0
 30
0.0
  3
C2A0372
  1

  0
INSERT
  5
2F
330
2D
100
AcDbEntity
  8
0
100
AcDbBlockReference
  2
100107380
 10
0.0
 20
0.0
 30
0.0
  0
ENDBLK
  5
71
330
2D
100
AcDbEntity
  8
0
100
AcDbBlockEnd
  0
BLOCK
  5
31
330
30
100
AcDbEntity
  8
0
100
AcDbBlockBegin
  2
HEX_BOLT_SIDE__1
 70
     0
 10
0.0
 20
0.0
 30
0.0
  3
HEX_BOLT_SIDE__1
  1

  0
ARC
  5
8C
330
30
100
AcDbEntity
  8
1
  6
Continuous
 62
     7
100
AcDbCircle
 10
-194.21111286998
 20
129.738476164088
 30
0.0
 40
0.1
100
AcDbArc
 50
0.0
 51
90.0
  0
ARC
  5
8B
330
30
100
AcDbEntity
  8
1
  6
Continuous
 62
     7
100
AcDbCircle
 10
-194.21111286998
 20
131.938476164088
 30
0.0
 40
0.1
100
AcDbArc
 50
-90.0
 51
0.0
  0
LINE
  5
8A
330
30
100
AcDbEntity
  8
1
  6
Continuous
 62
     3
100
AcDbLine
 10
-194.81111286998
 20
130.138476164088
 30
0.0
 11
-208.11111286998
 21
130.138476164088
 31
0.0
  0
LINE
  5
89
330
30
100
AcDbEntity
  8
1
  6
Continuous
 62
     3
100
AcDbLine
 10
-194.81111286998
 20
131.538476164088
 30
0.0
 11
-208.11111286998
 21
131.538476164088
 31
0.0
  0
LINE
  5
88
330
30
100
AcDbEntity
  8
1
  6
Continuous
 62
     3
100
AcDbLine
 10
-194.81111286998
 20
130.138476164088
 30
0.0
 11
-194.2914976277099
 21
129.838476164088
 31
0.0
  0
LINE
  5
87
330
30
100
AcDbEntity
  8
1
  6
Continuous
 62
     3
100
AcDbLine
 10
-194.81111286998
 20
131.538476164088
 30
0.0
 11
-194.2914976277099
 21
131.838476164088
 31
0.0
  0
LINE
  5
86
330
30
100
AcDbEntity
  8
1
  6
Continuous
 62
     7
100
AcDbLine
 10
-194.11111286998
 20
130.838476164088
 30
0.0
 11
-194.11111286998
 21
129.838476164088
 31
0.0
  0
LINE
  5
85
330
30
100
AcDbEntity
  8
1
  6
Continuous
 62
     7
100
AcDbLine
 10
-194.11111286998
 20
128.938476164088
 30
0.0
 11
-192.21111286998
 21
128.938476164088
 31
0.0
  0
LINE
  5
84
330
30
100
AcDbEntity
  8
1
  6
Continuous
 62
     7
100
AcDbLine
 10
-192.21111286998
 20
128.938476164088
 30
0.0
 11
-192.11111286998
 21
129.0384761640879
 31
0.0
  0
LINE
  5
83
330
30
100
AcDbEntity
  8
1
  6
Continuous
 62
     7
100
AcDbLine
 10
-192.11111286998
 20
129.0384761640879
 30
0.0
 11
-192.11111286998
 21
132.6384761640879
 31
0.0
  0
LINE
  5
82
330
30
100
AcDbEntity
  8
1
  6
Continuous
 62
     7
100
AcDbLine
 10
-192.11111286998
 20
132.6384761640879
 30
0.0
 11
-192.21111286998
 21
132.738476164088
 31
0.0
  0
LINE
  5
81
330
30
100
AcDbEntity
  8
1
  6
Continuous
 62
     7
100
AcDbLine
 10
-192.21111286998
 20
132.738476164088
 30
0.0
 11
-194.11111286998
 21
132.738476164088
 31
0.0
  0
LINE
  5
80
330
30
100
AcDbEntity
  8
1
  6
Continuous
 62
     7
100
AcDbLine
 10
-194.11111286998
 20
132.738476164088
 30
0.0
 11
-194.11111286998
 21
131.938476164088
 31
0.0
  0
LINE
  5
7F
330
30
100
AcDbEntity
  8
1
  6
Continuous
 62
     7
100
AcDbLine
 10
-194.21111286998
 20
131.838476164088
 30
0.0
 11
-194.81111286998
 21
131.838476164088
 31
0.0
  0
LINE
  5
7E
330
30
100
AcDbEntity
  8
1
  6
Continuous
 62
     7
100
AcDbLine
 10
-194.11111286998
 20
131.838476164088
 30
0.0
 11
-194.11111286998
 21
130.838476164088
 31
0.0
  0
LINE
  5
7D
330
30
100
AcDbEntity
  8
1
  6
Continuous
 62
     7
100
AcDbLine
 10
-207.8111128699799
 20
131.838476164088
 30
0.0
 11
-208.11111286998
 21
131.538476164088
 31
0.0
  0
LINE
  5
7C
330
30
100
AcDbEntity
  8
1
  6
Continuous
 62
     7
100
AcDbLine
 10
-208.11111286998
 20
131.538476164088
 30
0.0
 11
-208.11111286998
 21
130.138476164088
 31
0.0
  0
LINE
  5
7B
330
30
100
AcDbEntity
  8
1
  6
Continuous
 62
     7
100
AcDbLine
 10
-208.11111286998
 20
130.138476164088
 30
0.0
 11
-207.8111128699799
 21
129.838476164088
 31
0.0
  0
LINE
  5
7A
330
30
100
AcDbEntity
  8
1
  6
Continuous
 62
     7
100
AcDbLine
 10
-207.8111128699799
 20
129.838476164088
 30
0.0
 11
-194.81111286998
 21
129.838476164088
 31
0.0
  0
LINE
  5
79
330
30
100
AcDbEntity
  8
1
  6
Continuous
 62
     7
100
AcDbLine
 10
-194.11111286998
 20
129.738476164088
 30
0.0
 11
-194.11111286998
 21
128.938476164088
 31
0.0
  0
LINE
  5
78
330
30
100
AcDbEntity
  8
1
  6
Continuous
 62
     7
100
AcDbLine
 10
-194.81111286998
 20
129.838476164088
 30
0.0
 11
-194.81111286998
 21
131.838476164088
 31
0.0
  0
LINE
  5
77
330
30
100
AcDbEntity
  8
1
  6
Continuous
 62
     7
100
AcDbLine
 10
-194.81111286998
 20
131.838476164088
 30
0.0
 11
-207.8111128699799
 21
131.838476164088
 31
0.0
  0
LINE
  5
76
330
30
100
AcDbEntity
  8
1
  6
Continuous
 62
     7
100
AcDbLine
 10
-194.81111286998
 20
129.838476164088
 30
0.0
 11
-194.21111286998
 21
129.838476164088
 31
0.0
  0
LINE
  5
75
330
30
100
AcDbEntity
  8
1
  6
Continuous
 62
     7
100
AcDbLine
 10
-207.8111128699799
 20
131.838476164088
 30
0.0
 11
-207.8111128699799
 21
129.838476164088
 31
0.0
  0
LINE
  5
74
330
30
100
AcDbEntity
  8
1
  6
Continuous
 62
     7
100
AcDbLine
 10
-192.21111286998
 20
128.938476164088
 30
0.0
 11
-192.21111286998
 21
132.738476164088
 31
0.0
  0
LINE
  5
73
330
30
100
AcDbEntity
  8
1
  6
Continuous
 62
     7
100
AcDbLine
 10
-194.11111286998
 20
129.838476164088
 30
0.0
 11
-194.11111286998
 21
129.738476164088
 31
0.0
  0
LINE
  5
72
330
30
100
AcDbEntity
  8
1
  6
Continuous
 62
     7
100
AcDbLine
 10
-194.11111286998
 20
131.838476164088
 30
0.0
 11
-194.11111286998
 21
131.938476164088
 31
0.0
  0
ENDBLK
  5
8D
330
30
100
AcDbEntity
  8
0
100
AcDbBlockEnd
  0
BLOCK
  5
33
330
32
100
AcDbEntity
  8
0
100
AcDbBlockBegin
  2
HEX_BOLT_SIDE__2
 70
     0
 10
0.0
 20
0.0
 30
0.0
  3
HEX_BOLT_SIDE__2
  1

  0
ARC
  5
A8
330
32
100
AcDbEntity
  8
1
  6
Continuous
 62
     7
100
AcDbCircle
 10
-204.0111128699909
 20
182.638475525657
 30
0.0
 40
0.2
100
AcDbArc
 50
0.0
 51
90.0
  0
ARC
  5
A7
330
32
100
AcDbEntity
  8
1
  6
Continuous
 62
     7
100
AcDbCircle
 10
-204.0111128699909
 20
188.0384755256569
 30
0.0
 40
0.2
100
AcDbArc
 50
-90.0
 51
0.0
  0
LINE
  5
A6
330
32
100
AcDbEntity
  8
1
  6
Continuous
 62
     3
100
AcDbLine
 10
-205.411112869991
 20
183.5384755256569
 30
0.0
 11
-213.811112869991
 21
183.5384755256569
 31
0.0
  0
LINE
  5
A5
330
32
100
AcDbEntity
  8
1
  6
Continuous
 62
     3
100
AcDbLine
 10
-205.411112869991
 20
187.138475525657
 30
0.0
 11
-213.811112869991
 21
187.138475525657
 31
0.0
  0
LINE
  5
A4
330
32
100
AcDbEntity
  8
1
  6
Continuous
 62
     3
100
AcDbLine
 10
-205.411112869991
 20
183.5384755256569
 30
0.0
 11
-204.198677304693
 21
182.8384755256569
 31
0.0
  0
LINE
  5
A3
330
32
100
AcDbEntity
  8
1
  6
Continuous
 62
     3
100
AcDbLine
 10
-205.411112869991
 20
187.138475525657
 30
0.0
 11
-204.198677304693
 21
187.8384755256569
 31
0.0
  0
LINE
  5
A2
330
32
100
AcDbEntity
  8
1
  6
Continuous
 62
     7
100
AcDbLine
 10
-203.811112869991
 20
185.338475525657
 30
0.0
 11
-203.811112869991
 21
182.8384755256569
 31
0.0
  0
LINE
  5
A1
330
32
100
AcDbEntity
  8
1
  6
Continuous
 62
     7
100
AcDbLine
 10
-203.811112869991
 20
181.088475525657
 30
0.0
 11
-199.1111128699909
 21
181.088475525657
 31
0.0
  0
LINE
  5
A0
330
32
100
AcDbEntity
  8
1
  6
Continuous
 62
     7
100
AcDbLine
 10
-199.1111128699909
 20
181.088475525657
 30
0.0
 11
-198.811112869991
 21
181.388475525657
 31
0.0
  0
LINE
  5
9F
330
32
100
AcDbEntity
  8
1
  6
Continuous
 62
     7
100
AcDbLine
 10
-198.811112869991
 20
181.388475525657
 30
0.0
 11
-198.811112869991
 21
189.2884755256569
 31
0.0
  0
LINE
  5
9E
330
32
100
AcDbEntity
  8
1
  6
Continuous
 62
     7
100
AcDbLine
 10
-198.811112869991
 20
189.2884755256569
 30
0.0
 11
-199.1111128699909
 21
189.588475525657
 31
0.0
  0
LINE
  5
9D
330
32
100
AcDbEntity
  8
1
  6
Continuous
 62
     7
100
AcDbLine
 10
-199.1111128699909
 20
189.588475525657
 30
0.0
 11
-203.811112869991
 21
189.588475525657
 31
0.0
  0
LINE
  5
9C
330
32
100
AcDbEntity
  8
1
  6
Continuous
 62
     7
100
AcDbLine
 10
-203.811112869991
 20
189.588475525657
 30
0.0
 11
-203.811112869991
 21
188.0384755256569
 31
0.0
  0
LINE
  5
9B
330
32
100
AcDbEntity
  8
1
  6
Continuous
 62
     7
100
AcDbLine
 10
-204.0111128699909
 20
187.8384755256569
 30
0.0
 11
-205.411112869991
 21
187.8384755256569
 31
0.0
  0
LINE
  5
9A
330
32
100
AcDbEntity
  8
1
  6
Continuous
 62
     7
100
AcDbLine
 10
-203.811112869991
 20
187.8384755256569
 30
0.0
 11
-203.811112869991
 21
185.338475525657
 31
0.0
  0
LINE
  5
99
330
32
100
AcDbEntity
  8
1
  6
Continuous
 62
     7
100
AcDbLine
 10
-213.111112869991
 20
187.8384755256569
 30
0.0
 11
-213.811112869991
 21
187.138475525657
 31
0.0
  0
LINE
  5
98
330
32
100
AcDbEntity
  8
1
  6
Continuous
 62
     7
100
AcDbLine
 10
-213.811112869991
 20
187.138475525657
 30
0.0
 11
-213.811112869991
 21
183.5384755256569
 31
0.0
  0
LINE
  5
97
330
32
100
AcDbEntity
  8
1
  6
Continuous
 62
     7
100
AcDbLine
 10
-213.811112869991
 20
183.5384755256569
 30
0.0
 11
-213.111112869991
 21
182.8384755256569
 31
0.0
  0
LINE
  5
96
330
32
100
AcDbEntity
  8
1
  6
Continuous
 62
     7
100
AcDbLine
 10
-213.111112869991
 20
182.8384755256569
 30
0.0
 11
-205.411112869991
 21
182.8384755256569
 31
0.0
  0
LINE
  5
95
330
32
100
AcDbEntity
  8
1
  6
Continuous
 62
     7
100
AcDbLine
 10
-203.811112869991
 20
182.638475525657
 30
0.0
 11
-203.811112869991
 21
181.088475525657
 31
0.0
  0
LINE
  5
94
330
32
100
AcDbEntity
  8
1
  6
Continuous
 62
     7
100
AcDbLine
 10
-205.411112869991
 20
182.8384755256569
 30
0.0
 11
-205.411112869991
 21
187.8384755256569
 31
0.0
  0
LINE
  5
93
330
32
100
AcDbEntity
  8
1
  6
Continuous
 62
     7
100
AcDbLine
 10
-205.411112869991
 20
187.8384755256569
 30
0.0
 11
-213.111112869991
 21
187.8384755256569
 31
0.0
  0
LINE
  5
92
330
32
100
AcDbEntity
  8
1
  6
Continuous
 62
     7
100
AcDbLine
 10
-205.411112869991
 20
182.8384755256569
 30
0.0
 11
-204.0111128699909
 21
182.8384755256569
 31
0.0
  0
LINE
  5
91
330
32
100
AcDbEntity
  8
1
  6
Continuous
 62
     7
100
AcDbLine
 10
-213.111112869991
 20
187.8384755256569
 30
0.0
 11
-213.111112869991
 21
182.8384755256569
 31
0.0
  0
LINE
  5
90
330
32
100
AcDbEntity
  8
1
  6
Continuous
 62
     7
100
AcDbLine
 10
-199.1111128699909
 20
181.088475525657
 30
0.0
 11
-199.1111128699909
 21
189.588475525657
 31
0.0
  0
LINE
  5
8F
330
32
100
AcDbEntity
  8
1
  6
Continuous
 62
     7
100
AcDbLine
 10
-203.811112869991
 20
182.8384755256569
 30
0.0
 11
-203.811112869991
 21
182.638475525657
 31
0.0
  0
LINE
  5
8E
330
32
100
AcDbEntity
  8
1
  6
Continuous
 62
     7
100
AcDbLine
 10
-203.811112869991
 20
187.8384755256569
 30
0.0
 11
-203.811112869991
 21
188.0384755256569
 31
0.0
  0
ENDBLK
  5
A9
330
32
100
AcDbEntity
  8
0
100
AcDbBlockEnd
  0
BLOCK
  5
35
330
34
100
AcDbEntity
  8
0
100
AcDbBlockBegin
  2
WB_025_R
 70
     0
 10
0.0
 20
0.0
 30
0.0
  3
WB_025_R
  1

  0
CIRCLE
  5
11E
330
34
100
AcDbEntity
  8
1
  6
Continuous
 62
     7
100
AcDbCircle
 10
-97.07322654466102
 20
170.3384755256579
 30
0.0
 40
22.606000000001
  0
CIRCLE
  5
11D
330
34
100
AcDbEntity
  8
1
  6
Continuous
 62
     7
100
AcDbCircle
 10
-97.07322654466102
 20
170.3384755256579
 30
0.0
 40
24.19249999999999
  0
CIRCLE
  5
11C
330
34
100
AcDbEntity
  8
1
  6
Continuous
 62
     7
100
AcDbCircle
 10
-97.07322654466102
 20
170.3384755256579
 30
0.0
 40
29.16
  0
CIRCLE
  5
11B
330
34
100
AcDbEntity
  8
1
  6
Continuous
 62
     7
100
AcDbCircle
 10
-97.07322654466102
 20
170.3384755256579
 30
0.0
 40
30.670499999999
  0
ARC
  5
11A
330
34
100
AcDbEntity
  8
1
  6
Continuous
 62
     7
100
AcDbCircle
 10
-97.07322654461901
 20
196.983475525657
 30
0.0
 40
2.778125
100
AcDbArc
 50
39.17721181315199
 51
63.621595378988
  0
ARC
  5
119
330
34
100
AcDbEntity
  8
1
  6
Continuous
 62
     7
100
AcDbCircle
 10
-97.07322654461901
 20
196.983475525657
 30
0.0
 40
2.778125
100
AcDbArc
 50
-137.037317860651
 51
-116.582070188309
  0
ARC
  5
118
330
34
100
AcDbEntity
  8
1
  6
Continuous
 62
     7
100
AcDbCircle
 10
-104.261961512098
 20
195.99540664704
 30
0.0
 40
2.778125
100
AcDbArc
 50
52.550245340399
 51
79.273769292035
  0
ARC
  5
117
330
34
100
AcDbEntity
  8
1
  6
Continuous
 62
     7
100
AcDbCircle
 10
-97.07322654461901
 20
196.983475525657
 30
0.0
 40
2.778125
100
AcDbArc
 50
116.378404621011
 51
143.101928572643
  0
ARC
  5
116
330
34
100
AcDbEntity
  8
1
  6
Continuous
 62
     7
100
AcDbCircle
 10
-97.07322654461901
 20
196.983475525657
 30
0.0
 40
2.778124999998999
100
AcDbArc
 50
-63.41792981169099
 51
-42.962682139349
  0
ARC
  5
115
330
34
100
AcDbEntity
  8
1
  6
Continuous
 62
     7
100
AcDbCircle
 10
-104.261961512098
 20
195.99540664704
 30
0.0
 40
2.778124999998999
100
AcDbArc
 50
-47.765755898668
 51
-27.31050822633
  0
ARC
  5
114
330
34
100
AcDbEntity
  8
1
  6
Continuous
 62
     7
100
AcDbCircle
 10
-104.2619615121009
 20
195.99540664705
 30
0.0
 40
2.778125
100
AcDbArc
 50
-121.385143947607
 51
-100.929896275279
  0
ARC
  5
113
330
34
100
AcDbEntity
  8
1
  6
Continuous
 62
     7
100
AcDbCircle
 10
-110.917540893317
 20
193.1044805598089
 30
0.0
 40
2.778125
100
AcDbArc
 50
68.20241925343999
 51
94.92594320507299
  0
ARC
  5
112
330
34
100
AcDbEntity
  8
1
  6
Continuous
 62
     7
100
AcDbCircle
 10
-104.2619615121009
 20
195.99540664705
 30
0.0
 40
2.778125000001
100
AcDbArc
 50
132.0305785340299
 51
158.7541024856889
  0
ARC
  5
111
330
34
100
AcDbEntity
  8
1
  6
Continuous
 62
     7
100
AcDbCircle
 10
-104.2619615121009
 20
195.99540664705
 30
0.0
 40
2.778125
100
AcDbArc
 50
-47.765755898651
 51
-27.310508226291
  0
ARC
  5
110
330
34
100
AcDbEntity
  8
1
  6
Continuous
 62
     7
100
AcDbCircle
 10
-110.917540893317
 20
193.1044805598089
 30
0.0
 40
2.778125
100
AcDbArc
 50
-32.113581985593
 51
-11.65833431324899
  0
ARC
  5
10F
330
34
100
AcDbEntity
  8
1
  6
Continuous
 62
     7
100
AcDbCircle
 10
-110.9175408933219
 20
193.1044805598189
 30
0.0
 40
2.778125000001
100
AcDbArc
 50
-105.7329700345549
 51
-85.27772236221201
  0
ARC
  5
10E
330
34
100
AcDbEntity
  8
1
  6
Continuous
 62
     7
100
AcDbCircle
 10
-116.546350812819
 20
188.525104026738
 30
0.0
 40
2.778125000001
100
AcDbArc
 50
83.85459316646
 51
110.5781171181049
  0
ARC
  5
10D
330
34
100
AcDbEntity
  8
1
  6
Continuous
 62
     7
100
AcDbCircle
 10
-110.9175408933219
 20
193.1044805598189
 30
0.0
 40
2.778125000001
100
AcDbArc
 50
147.6827524471119
 51
174.4062763987409
  0
ARC
  5
10C
330
34
100
AcDbEntity
  8
1
  6
Continuous
 62
     7
100
AcDbCircle
 10
-110.9175408933219
 20
193.1044805598189
 30
0.0
 40
2.778125
100
AcDbArc
 50
-32.113581985602
 51
-11.658334313271
  0
ARC
  5
10B
330
34
100
AcDbEntity
  8
1
  6
Continuous
 62
     7
100
AcDbCircle
 10
-116.546350812819
 20
188.525104026738
 30
0.0
 40
2.778125
100
AcDbArc
 50
-16.461408072542
 51
3.993839599782999
  0
ARC
  5
10A
330
34
100
AcDbEntity
  8
1
  6
Continuous
 62
     7
100
AcDbCircle
 10
-116.546350812827
 20
188.525104026745
 30
0.0
 40
2.778124999998999
100
AcDbArc
 50
-90.08079612149201
 51
-69.62554844915
  0
ARC
  5
109
330
34
100
AcDbEntity
  8
1
  6
Continuous
 62
     7
100
AcDbCircle
 10
-120.730928188966
 20
182.5969084560309
 30
0.0
 40
2.778124999998
100
AcDbArc
 50
99.50676707954599
 51
126.2302910311769
  0
ARC
  5
108
330
34
100
AcDbEntity
  8
1
  6
Continuous
 62
     7
100
AcDbCircle
 10
-116.546350812827
 20
188.525104026745
 30
0.0
 40
2.778125
100
AcDbArc
 50
163.33492636014
 51
-169.9415496882329
  0
ARC
  5
107
330
34
100
AcDbEntity
  8
1
  6
Continuous
 62
     7
100
AcDbCircle
 10
-116.546350812827
 20
188.525104026745
 30
0.0
 40
2.778125
100
AcDbArc
 50
-16.461408072543
 51
3.993839599803999
  0
ARC
  5
106
330
34
100
AcDbEntity
  8
1
  6
Continuous
 62
     7
100
AcDbCircle
 10
-120.730928188966
 20
182.5969084560309
 30
0.0
 40
2.778125
100
AcDbArc
 50
-0.80923415953
 51
19.64601351284199
  0
ARC
  5
105
330
34
100
AcDbEntity
  8
1
  6
Continuous
 62
     7
100
AcDbCircle
 10
-120.730928188976
 20
182.596908456036
 30
0.0
 40
2.778125000001999
100
AcDbArc
 50
-74.42862220845601
 51
-53.97337453612199
  0
ARC
  5
104
330
34
100
AcDbEntity
  8
1
  6
Continuous
 62
     7
100
AcDbCircle
 10
-123.160922060939
 20
175.7595609934759
 30
0.0
 40
2.778124999998999
100
AcDbArc
 50
115.158940992595
 51
141.8824649442219
  0
ARC
  5
103
330
34
100
AcDbEntity
  8
1
  6
Continuous
 62
     7
100
AcDbCircle
 10
-120.730928188976
 20
182.596908456036
 30
0.0
 40
2.778125
100
AcDbArc
 50
178.987100273194
 51
-154.289375775151
  0
ARC
  5
102
330
34
100
AcDbEntity
  8
1
  6
Continuous
 62
     7
100
AcDbCircle
 10
-120.730928188976
 20
182.596908456036
 30
0.0
 40
2.778125
100
AcDbArc
 50
-0.809234159508
 51
19.646013512801
  0
ARC
  5
101
330
34
100
AcDbEntity
  8
1
  6
Continuous
 62
     7
100
AcDbCircle
 10
-123.160922060939
 20
175.7595609934759
 30
0.0
 40
2.778125
100
AcDbArc
 50
14.842939753517
 51
35.298187425854
  0
ARC
  5
100
330
34
100
AcDbEntity
  8
1
  6
Continuous
 62
     7
100
AcDbCircle
 10
-123.1609220609499
 20
175.759560993478
 30
0.0
 40
2.778124999998999
100
AcDbArc
 50
-58.77644829540801
 51
-38.321200623075
  0
ARC
  5
FF
330
34
100
AcDbEntity
  8
1
  6
Continuous
 62
     7
100
AcDbCircle
 10
-123.656110899734
 20
168.5201564215889
 30
0.0
 40
2.778125
100
AcDbArc
 50
130.811114905614
 51
157.534638857261
  0
ARC
  5
FE
330
34
100
AcDbEntity
  8
1
  6
Continuous
 62
     7
100
AcDbCircle
 10
-123.1609220609499
 20
175.759560993478
 30
0.0
 40
2.778125
100
AcDbArc
 50
-165.360725813767
 51
-138.63720186212
  0
ARC
  5
FD
330
34
100
AcDbEntity
  8
1
  6
Continuous
 62
     7
100
AcDbCircle
 10
-123.1609220609499
 20
175.759560993478
 30
0.0
 40
2.778125
100
AcDbArc
 50
14.842939753555
 51
35.298187425879
  0
ARC
  5
FC
330
34
100
AcDbEntity
  8
1
  6
Continuous
 62
     7
100
AcDbCircle
 10
-123.656110899734
 20
168.5201564215889
 30
0.0
 40
2.778124999998999
100
AcDbArc
 50
30.495113666578
 51
50.950361338901
  0
ARC
  5
FB
330
34
100
AcDbEntity
  8
1
  6
Continuous
 62
     7
100
AcDbCircle
 10
-123.6561108997459
 20
168.520156421587
 30
0.0
 40
2.778125
100
AcDbArc
 50
-43.12427438233
 51
-22.669026709997
  0
ARC
  5
FA
330
34
100
AcDbEntity
  8
1
  6
Continuous
 62
     7
100
AcDbCircle
 10
-122.1797688145169
 20
161.415608259395
 30
0.0
 40
2.778125
100
AcDbArc
 50
146.4632888186679
 51
173.1868127703379
  0
ARC
  5
F9
330
34
100
AcDbEntity
  8
1
  6
Continuous
 62
     7
100
AcDbCircle
 10
-123.6561108997459
 20
168.520156421587
 30
0.0
 40
2.778124999998999
100
AcDbArc
 50
-149.708551900729
 51
-122.9850279490559
  0
ARC
  5
F8
330
34
100
AcDbEntity
  8
1
  6
Continuous
 62
     7
100
AcDbCircle
 10
-123.6561108997459
 20
168.520156421587
 30
0.0
 40
2.778125000001
100
AcDbArc
 50
30.495113666606
 51
50.95036133891301
  0
ARC
  5
F7
330
34
100
AcDbEntity
  8
1
  6
Continuous
 62
     7
100
AcDbCircle
 10
-122.1797688145169
 20
161.415608259395
 30
0.0
 40
2.778124999998999
100
AcDbArc
 50
46.14728757962499
 51
66.60253525197099
  0
ARC
  5
F6
330
34
100
AcDbEntity
  8
1
  6
Continuous
 62
     7
100
AcDbCircle
 10
-122.179768814528
 20
161.4156082593899
 30
0.0
 40
2.778125
100
AcDbArc
 50
-27.472100469308
 51
-7.016852796949
  0
ARC
  5
F5
330
34
100
AcDbEntity
  8
1
  6
Continuous
 62
     7
100
AcDbCircle
 10
-118.841389343933
 20
154.9728283429359
 30
0.0
 40
2.778125
100
AcDbArc
 50
162.115462731675
 51
-171.1610133166449
  0
ARC
  5
F4
330
34
100
AcDbEntity
  8
1
  6
Continuous
 62
     7
100
AcDbCircle
 10
-122.179768814528
 20
161.4156082593899
 30
0.0
 40
2.778124999998999
100
AcDbArc
 50
-134.0563779876679
 51
-107.3328540360129
  0
ARC
  5
F3
330
34
100
AcDbEntity
  8
1
  6
Continuous
 62
     7
100
AcDbCircle
 10
-122.179768814528
 20
161.4156082593899
 30
0.0
 40
2.778125000001
100
AcDbArc
 50
46.14728757965099
 51
66.602535251969
  0
ARC
  5
F2
330
34
100
AcDbEntity
  8
1
  6
Continuous
 62
     7
100
AcDbCircle
 10
-118.841389343933
 20
154.9728283429359
 30
0.0
 40
2.778125000001
100
AcDbArc
 50
61.799461492668
 51
82.25470916501402
  0
ARC
  5
F1
330
34
100
AcDbEntity
  8
1
  6
Continuous
 62
     7
100
AcDbCircle
 10
-118.8413893439419
 20
154.972828342931
 30
0.0
 40
2.778125000001
100
AcDbArc
 50
-11.81992655626999
 51
8.635321116064
  0
ARC
  5
F0
330
34
100
AcDbEntity
  8
1
  6
Continuous
 62
     7
100
AcDbCircle
 10
-113.8885648212429
 20
149.669648184863
 30
0.0
 40
2.778125
100
AcDbArc
 50
177.767636644718
 51
-155.5088394036199
  0
ARC
  5
EF
330
34
100
AcDbEntity
  8
1
  6
Continuous
 62
     7
100
AcDbCircle
 10
-118.8413893439419
 20
154.972828342931
 30
0.0
 40
2.778125
100
AcDbArc
 50
-118.404204074596
 51
-91.680680122957
  0
ARC
  5
EE
330
34
100
AcDbEntity
  8
1
  6
Continuous
 62
     7
100
AcDbCircle
 10
-118.8413893439419
 20
154.972828342931
 30
0.0
 40
2.778124999998999
100
AcDbArc
 50
61.799461492671
 51
82.254709165008
  0
ARC
  5
ED
330
34
100
AcDbEntity
  8
1
  6
Continuous
 62
     7
100
AcDbCircle
 10
-113.8885648212429
 20
149.669648184863
 30
0.0
 40
2.778125000001999
100
AcDbArc
 50
77.45163540572699
 51
97.90688307807601
  0
ARC
  5
EC
330
34
100
AcDbEntity
  8
1
  6
Continuous
 62
     7
100
AcDbCircle
 10
-113.888564821251
 20
149.6696481848539
 30
0.0
 40
2.778125
100
AcDbArc
 50
3.832247356783
 51
24.287495029157
  0
ARC
  5
EB
330
34
100
AcDbEntity
  8
1
  6
Continuous
 62
     7
100
AcDbCircle
 10
-107.688623583634
 20
145.899380397066
 30
0.0
 40
2.778125000001
100
AcDbArc
 50
-166.5801894421639
 51
-139.856665490545
  0
ARC
  5
EA
330
34
100
AcDbEntity
  8
1
  6
Continuous
 62
     7
100
AcDbCircle
 10
-113.888564821251
 20
149.6696481848539
 30
0.0
 40
2.778124999998999
100
AcDbArc
 50
-102.7520301615559
 51
-76.02850620992299
  0
ARC
  5
E9
330
34
100
AcDbEntity
  8
1
  6
Continuous
 62
     7
100
AcDbCircle
 10
-113.888564821251
 20
149.6696481848539
 30
0.0
 40
2.778125000001
100
AcDbArc
 50
77.45163540572299
 51
97.90688307805501
  0
ARC
  5
E8
330
34
100
AcDbEntity
  8
1
  6
Continuous
 62
     7
100
AcDbCircle
 10
-107.688623583634
 20
145.899380397066
 30
0.0
 40
2.778124999998
100
AcDbArc
 50
93.103809318773
 51
113.559056991114
  0
ARC
  5
E7
330
34
100
AcDbEntity
  8
1
  6
Continuous
 62
     7
100
AcDbCircle
 10
-107.6886235836379
 20
145.8993803970549
 30
0.0
 40
2.778124999998999
100
AcDbArc
 50
19.484421269811
 51
39.939668942161
  0
ARC
  5
E6
330
34
100
AcDbEntity
  8
1
  6
Continuous
 62
     7
100
AcDbCircle
 10
-100.7013869098539
 20
143.9416484935319
 30
0.0
 40
2.778125
100
AcDbArc
 50
-150.928015529129
 51
-124.204491577491
  0
ARC
  5
E5
330
34
100
AcDbEntity
  8
1
  6
Continuous
 62
     7
100
AcDbCircle
 10
-107.6886235836379
 20
145.8993803970549
 30
0.0
 40
2.778125
100
AcDbArc
 50
-87.09985624853
 51
-60.376332296904
  0
ARC
  5
E4
330
34
100
AcDbEntity
  8
1
  6
Continuous
 62
     7
100
AcDbCircle
 10
-107.6886235836379
 20
145.8993803970549
 30
0.0
 40
2.778124999998999
100
AcDbArc
 50
93.10380931877601
 51
113.559056991127
  0
ARC
  5
E3
330
34
100
AcDbEntity
  8
1
  6
Continuous
 62
     7
100
AcDbCircle
 10
-100.7013869098539
 20
143.9416484935319
 30
0.0
 40
2.778125000001
100
AcDbArc
 50
108.755983231802
 51
129.2112309041389
  0
ARC
  5
E2
330
34
100
AcDbEntity
  8
1
  6
Continuous
 62
     7
100
AcDbCircle
 10
-100.7013869098549
 20
143.9416484935209
 30
0.0
 40
2.778125000001
100
AcDbArc
 50
35.136595182912
 51
55.591842855226
  0
ARC
  5
E1
330
34
100
AcDbEntity
  8
1
  6
Continuous
 62
     7
100
AcDbCircle
 10
-93.445066179516
 20
143.941648493527
 30
0.0
 40
2.778125
100
AcDbArc
 50
-135.2758416160959
 51
-108.5523176644499
  0
ARC
  5
E0
330
34
100
AcDbEntity
  8
1
  6
Continuous
 62
     7
100
AcDbCircle
 10
-100.7013869098549
 20
143.9416484935209
 30
0.0
 40
2.778124999998
100
AcDbArc
 50
-71.447682335482
 51
-44.724158383826
  0
ARC
  5
DF
330
34
100
AcDbEntity
  8
1
  6
Continuous
 62
     7
100
AcDbCircle
 10
-100.7013869098549
 20
143.9416484935209
 30
0.0
 40
2.778125
100
AcDbArc
 50
108.755983231807
 51
129.211230904123
  0
ARC
  5
DE
330
34
100
AcDbEntity
  8
1
  6
Continuous
 62
     7
100
AcDbCircle
 10
-93.445066179516
 20
143.941648493527
 30
0.0
 40
2.778124999998999
100
AcDbArc
 50
124.408157144858
 51
144.863404817231
  0
ARC
  5
DD
330
34
100
AcDbEntity
  8
1
  6
Continuous
 62
     7
100
AcDbCircle
 10
-93.44506617951401
 20
143.941648493516
 30
0.0
 40
2.778125
100
AcDbArc
 50
50.78876909592301
 51
71.244016768264
  0
ARC
  5
DC
330
34
100
AcDbEntity
  8
1
  6
Continuous
 62
     7
100
AcDbCircle
 10
-86.45782950573298
 20
145.8993803970459
 30
0.0
 40
2.778125
100
AcDbArc
 50
-119.6236677030229
 51
-92.900143751385
  0
ARC
  5
DB
330
34
100
AcDbEntity
  8
1
  6
Continuous
 62
     7
100
AcDbCircle
 10
-93.44506617951401
 20
143.941648493516
 30
0.0
 40
2.778125
100
AcDbArc
 50
-55.795508422444
 51
-29.071984470793
  0
ARC
  5
DA
330
34
100
AcDbEntity
  8
1
  6
Continuous
 62
     7
100
AcDbCircle
 10
-93.44506617951401
 20
143.941648493516
 30
0.0
 40
2.778125000001
100
AcDbArc
 50
124.4081571448889
 51
144.863404817211
  0
ARC
  5
D9
330
34
100
AcDbEntity
  8
1
  6
Continuous
 62
     7
100
AcDbCircle
 10
-86.45782950573298
 20
145.8993803970459
 30
0.0
 40
2.778124999998
100
AcDbArc
 50
140.060331057912
 51
160.5155787302519
  0
ARC
  5
D8
330
34
100
AcDbEntity
  8
1
  6
Continuous
 62
     7
100
AcDbCircle
 10
-86.45782950572799
 20
145.899380397035
 30
0.0
 40
2.778125
100
AcDbArc
 50
66.44094300895701
 51
86.89619068130999
  0
ARC
  5
D7
330
34
100
AcDbEntity
  8
1
  6
Continuous
 62
     7
100
AcDbCircle
 10
-80.25788826811599
 20
149.6696481848329
 30
0.0
 40
2.778125000001
100
AcDbArc
 50
-103.9714937899789
 51
-77.24796983834299
  0
ARC
  5
D6
330
34
100
AcDbEntity
  8
1
  6
Continuous
 62
     7
100
AcDbCircle
 10
-86.45782950572799
 20
145.899380397035
 30
0.0
 40
2.778124999998999
100
AcDbArc
 50
-40.14333450935399
 51
-13.419810557736
  0
ARC
  5
D5
330
34
100
AcDbEntity
  8
1
  6
Continuous
 62
     7
100
AcDbCircle
 10
-86.45782950572799
 20
145.899380397035
 30
0.0
 40
2.778124999998999
100
AcDbArc
 50
140.06033105791
 51
160.515578730235
  0
ARC
  5
D4
330
34
100
AcDbEntity
  8
1
  6
Continuous
 62
     7
100
AcDbCircle
 10
-80.25788826811599
 20
149.6696481848329
 30
0.0
 40
2.778124999998999
100
AcDbArc
 50
155.712504970959
 51
176.1677526432819
  0
ARC
  5
D3
330
34
100
AcDbEntity
  8
1
  6
Continuous
 62
     7
100
AcDbCircle
 10
-80.257888268109
 20
149.669648184824
 30
0.0
 40
2.778125000001
100
AcDbArc
 50
82.093116922009
 51
102.548364594332
  0
ARC
  5
D2
330
34
100
AcDbEntity
  8
1
  6
Continuous
 62
     7
100
AcDbCircle
 10
-75.305063745417
 20
154.972828342896
 30
0.0
 40
2.778124999998999
100
AcDbArc
 50
-88.31931987693899
 51
-61.595795925302
  0
ARC
  5
D1
330
34
100
AcDbEntity
  8
1
  6
Continuous
 62
     7
100
AcDbCircle
 10
-80.257888268109
 20
149.669648184824
 30
0.0
 40
2.778125000001
100
AcDbArc
 50
-24.491160596323
 51
2.232363355303999
  0
ARC
  5
D0
330
34
100
AcDbEntity
  8
1
  6
Continuous
 62
     7
100
AcDbCircle
 10
-80.257888268109
 20
149.669648184824
 30
0.0
 40
2.778125
100
AcDbArc
 50
155.712504970963
 51
176.167752643278
  0
ARC
  5
CF
330
34
100
AcDbEntity
  8
1
  6
Continuous
 62
     7
100
AcDbCircle
 10
-75.305063745417
 20
154.972828342896
 30
0.0
 40
2.778124999998999
100
AcDbArc
 50
171.364678883992
 51
-168.1800734436849
  0
ARC
  5
CE
330
34
100
AcDbEntity
  8
1
  6
Continuous
 62
     7
100
AcDbCircle
 10
-75.305063745408
 20
154.972828342891
 30
0.0
 40
2.778124999998
100
AcDbArc
 50
97.74529083506001
 51
118.200538507385
  0
ARC
  5
CD
330
34
100
AcDbEntity
  8
1
  6
Continuous
 62
     7
100
AcDbCircle
 10
-71.96668427482099
 20
161.4156082593489
 30
0.0
 40
2.778125000001
100
AcDbArc
 50
-72.667145963916
 51
-45.943622012274
  0
ARC
  5
CC
330
34
100
AcDbEntity
  8
1
  6
Continuous
 62
     7
100
AcDbCircle
 10
-75.305063745408
 20
154.972828342891
 30
0.0
 40
2.778125000001
100
AcDbArc
 50
-8.838986683285
 51
17.884537268344
  0
ARC
  5
CB
330
34
100
AcDbEntity
  8
1
  6
Continuous
 62
     7
100
AcDbCircle
 10
-75.305063745408
 20
154.972828342891
 30
0.0
 40
2.778125
100
AcDbArc
 50
171.364678884011
 51
-168.180073443643
  0
ARC
  5
CA
330
34
100
AcDbEntity
  8
1
  6
Continuous
 62
     7
100
AcDbCircle
 10
-71.96668427482099
 20
161.4156082593489
 30
0.0
 40
2.778124999998999
100
AcDbArc
 50
-172.983147202924
 51
-152.527899530601
  0
ARC
  5
C9
330
34
100
AcDbEntity
  8
1
  6
Continuous
 62
     7
100
AcDbCircle
 10
-71.966684274811
 20
161.4156082593449
 30
0.0
 40
2.778124999998999
100
AcDbArc
 50
113.397464748092
 51
133.8527124204179
  0
ARC
  5
C8
330
34
100
AcDbEntity
  8
1
  6
Continuous
 62
     7
100
AcDbCircle
 10
-70.490342189591
 20
168.5201564215399
 30
0.0
 40
2.778124999998999
100
AcDbArc
 50
-57.014972050844
 51
-30.291448099231
  0
ARC
  5
C7
330
34
100
AcDbEntity
  8
1
  6
Continuous
 62
     7
100
AcDbCircle
 10
-71.966684274811
 20
161.4156082593449
 30
0.0
 40
2.778125
100
AcDbArc
 50
6.813187229764
 51
33.53671118138
  0
ARC
  5
C6
330
34
100
AcDbEntity
  8
1
  6
Continuous
 62
     7
100
AcDbCircle
 10
-71.966684274811
 20
161.4156082593449
 30
0.0
 40
2.778124999998999
100
AcDbArc
 50
-172.98314720297
 51
-152.5278995305839
  0
ARC
  5
C5
330
34
100
AcDbEntity
  8
1
  6
Continuous
 62
     7
100
AcDbCircle
 10
-70.490342189591
 20
168.5201564215399
 30
0.0
 40
2.778125000001
100
AcDbArc
 50
-157.330973289905
 51
-136.8757256175709
  0
ARC
  5
C4
330
34
100
AcDbEntity
  8
1
  6
Continuous
 62
     7
100
AcDbCircle
 10
-70.49034218958
 20
168.5201564215399
 30
0.0
 40
2.778124999998999
100
AcDbArc
 50
129.049638661151
 51
149.5048863334879
  0
ARC
  5
C3
330
34
100
AcDbEntity
  8
1
  6
Continuous
 62
     7
100
AcDbCircle
 10
-70.985531028373
 20
175.759560993427
 30
0.0
 40
2.778124999998
100
AcDbArc
 50
-41.36279813777799
 51
-14.639274186169
  0
ARC
  5
C2
330
34
100
AcDbEntity
  8
1
  6
Continuous
 62
     7
100
AcDbCircle
 10
-70.49034218958
 20
168.5201564215399
 30
0.0
 40
2.778125
100
AcDbArc
 50
22.46536114278499
 51
49.188885094431
  0
ARC
  5
C1
330
34
100
AcDbEntity
  8
1
  6
Continuous
 62
     7
100
AcDbCircle
 10
-70.49034218958
 20
168.5201564215399
 30
0.0
 40
2.778125
100
AcDbArc
 50
-157.3309732898749
 51
-136.875725617558
  0
ARC
  5
C0
330
34
100
AcDbEntity
  8
1
  6
Continuous
 62
     7
100
AcDbCircle
 10
-70.985531028373
 20
175.759560993427
 30
0.0
 40
2.778124999998999
100
AcDbArc
 50
-141.678799376897
 51
-121.2235517045379
  0
ARC
  5
BF
330
34
100
AcDbEntity
  8
1
  6
Continuous
 62
     7
100
AcDbCircle
 10
-70.98553102836099
 20
175.7595609934289
 30
0.0
 40
2.778125000001
100
AcDbArc
 50
144.7018125741979
 51
165.157060246511
  0
ARC
  5
BE
330
34
100
AcDbEntity
  8
1
  6
Continuous
 62
     7
100
AcDbCircle
 10
-73.415524900333
 20
182.596908455987
 30
0.0
 40
2.778125
100
AcDbArc
 50
-25.710624224783
 51
1.012899726846999
  0
ARC
  5
BD
330
34
100
AcDbEntity
  8
1
  6
Continuous
 62
     7
100
AcDbCircle
 10
-70.98553102836099
 20
175.7595609934289
 30
0.0
 40
2.778125000001
100
AcDbArc
 50
38.11753505589599
 51
64.841059007517
  0
ARC
  5
BC
330
34
100
AcDbEntity
  8
1
  6
Continuous
 62
     7
100
AcDbCircle
 10
-70.98553102836099
 20
175.7595609934289
 30
0.0
 40
2.778125
100
AcDbArc
 50
-141.678799376896
 51
-121.223551704548
  0
ARC
  5
BB
330
34
100
AcDbEntity
  8
1
  6
Continuous
 62
     7
100
AcDbCircle
 10
-73.415524900333
 20
182.596908455987
 30
0.0
 40
2.778124999998999
100
AcDbArc
 50
-126.026625463815
 51
-105.5713777914559
  0
ARC
  5
BA
330
34
100
AcDbEntity
  8
1
  6
Continuous
 62
     7
100
AcDbCircle
 10
-73.41552490032301
 20
182.596908455992
 30
0.0
 40
2.778125
100
AcDbArc
 50
160.353986487251
 51
-179.1907658404069
  0
ARC
  5
B9
330
34
100
AcDbEntity
  8
1
  6
Continuous
 62
     7
100
AcDbCircle
 10
-77.60010227647
 20
188.5251040267029
 30
0.0
 40
2.778125000001
100
AcDbArc
 50
-10.058450311725
 51
16.6650736399
  0
ARC
  5
B8
330
34
100
AcDbEntity
  8
1
  6
Continuous
 62
     7
100
AcDbCircle
 10
-73.41552490032301
 20
182.596908455992
 30
0.0
 40
2.778125000001
100
AcDbArc
 50
53.769708968887
 51
80.493232920542
  0
ARC
  5
B7
330
34
100
AcDbEntity
  8
1
  6
Continuous
 62
     7
100
AcDbCircle
 10
-73.41552490032301
 20
182.596908455992
 30
0.0
 40
2.778124999998999
100
AcDbArc
 50
-126.0266254638139
 51
-105.5713777914629
  0
ARC
  5
B6
330
34
100
AcDbEntity
  8
1
  6
Continuous
 62
     7
100
AcDbCircle
 10
-77.60010227647
 20
188.5251040267029
 30
0.0
 40
2.778125000001
100
AcDbArc
 50
-110.374451550753
 51
-89.91920387842199
  0
ARC
  5
B5
330
34
100
AcDbEntity
  8
1
  6
Continuous
 62
     7
100
AcDbCircle
 10
-77.600102276461
 20
188.52510402671
 30
0.0
 40
2.778125000001
100
AcDbArc
 50
176.00616040028
 51
-163.5385919273759
  0
ARC
  5
B4
330
34
100
AcDbEntity
  8
1
  6
Continuous
 62
     7
100
AcDbCircle
 10
-83.22891219596399
 20
193.104480559783
 30
0.0
 40
2.778125000001
100
AcDbArc
 50
5.593723601356999
 51
32.31724755296299
  0
ARC
  5
B3
330
34
100
AcDbEntity
  8
1
  6
Continuous
 62
     7
100
AcDbCircle
 10
-77.600102276461
 20
188.52510402671
 30
0.0
 40
2.778125
100
AcDbArc
 50
69.421882881981
 51
96.14540683360402
  0
ARC
  5
B2
330
34
100
AcDbEntity
  8
1
  6
Continuous
 62
     7
100
AcDbCircle
 10
-77.600102276461
 20
188.52510402671
 30
0.0
 40
2.778125
100
AcDbArc
 50
-110.374451550785
 51
-89.91920387844601
  0
ARC
  5
B1
330
34
100
AcDbEntity
  8
1
  6
Continuous
 62
     7
100
AcDbCircle
 10
-83.22891219596399
 20
193.104480559783
 30
0.0
 40
2.778124999998999
100
AcDbArc
 50
-94.72227763771199
 51
-74.26702996536299
  0
ARC
  5
B0
330
34
100
AcDbEntity
  8
1
  6
Continuous
 62
     7
100
AcDbCircle
 10
-83.22891219595701
 20
193.104480559794
 30
0.0
 40
2.778125
100
AcDbArc
 50
-168.341665686646
 51
-147.8864180143149
  0
ARC
  5
AF
330
34
100
AcDbEntity
  8
1
  6
Continuous
 62
     7
100
AcDbCircle
 10
-89.884491577176
 20
195.995406647027
 30
0.0
 40
2.778124999998999
100
AcDbArc
 50
21.245897514372
 51
47.969421465999
  0
ARC
  5
AE
330
34
100
AcDbEntity
  8
1
  6
Continuous
 62
     7
100
AcDbCircle
 10
-83.22891219595701
 20
193.104480559794
 30
0.0
 40
2.778125000001
100
AcDbArc
 50
85.07405679499699
 51
111.797580746654
  0
ARC
  5
AD
330
34
100
AcDbEntity
  8
1
  6
Continuous
 62
     7
100
AcDbCircle
 10
-83.22891219595701
 20
193.104480559794
 30
0.0
 40
2.778125
100
AcDbArc
 50
-94.72227763772899
 51
-74.267029965397
  0
ARC
  5
AC
330
34
100
AcDbEntity
  8
1
  6
Continuous
 62
     7
100
AcDbCircle
 10
-89.884491577176
 20
195.995406647027
 30
0.0
 40
2.778125000001
100
AcDbArc
 50
-79.070103724688
 51
-58.614856052343
  0
ARC
  5
AB
330
34
100
AcDbEntity
  8
1
  6
Continuous
 62
     7
100
AcDbCircle
 10
-89.88449157717301
 20
195.995406647038
 30
0.0
 40
2.778125
100
AcDbArc
 50
100.726230708047
 51
127.449754659715
  0
ARC
  5
AA
330
34
100
AcDbEntity
  8
1
  6
Continuous
 62
     7
100
AcDbCircle
 10
-89.88449157717301
 20
195.995406647038
 30
0.0
 40
2.778125000001
100
AcDbArc
 50
-152.689491773606
 51
-132.2342441012759
  0
ENDBLK
  5
11F
330
34
100
AcDbEntity
  8
0
100
AcDbBlockEnd
  0
BLOCK
  5
37
330
36
100
AcDbEntity
  8
0
100
AcDbBlockBegin
  2
HEX_BOLT_SIDE__3
 70
     0
 10
0.0
 20
0.0
 30
0.0
  3
HEX_BOLT_SIDE__3
  1

  0
ARC
  5
13A
330
36
100
AcDbEntity
  8
1
  6
Continuous
 62
     7
100
AcDbCircle
 10
-208.711112869991
 20
193.488475525657
 30
0.0
 40
0.1
100
AcDbArc
 50
0.0
 51
90.0
  0
ARC
  5
139
330
36
100
AcDbEntity
  8
1
  6
Continuous
 62
     7
100
AcDbCircle
 10
-208.711112869991
 20
196.1884755256569
 30
0.0
 40
0.1
100
AcDbArc
 50
-90.0
 51
0.0
  0
LINE
  5
138
330
36
100
AcDbEntity
  8
1
  6
Continuous
 62
     3
100
AcDbLine
 10
-209.411112869991
 20
193.948475525657
 30
0.0
 11
-218.6111128699909
 21
193.948475525657
 31
0.0
  0
LINE
  5
137
330
36
100
AcDbEntity
  8
1
  6
Continuous
 62
     3
100
AcDbLine
 10
-209.411112869991
 20
195.728475525657
 30
0.0
 11
-218.6111128699909
 21
195.728475525657
 31
0.0
  0
LINE
  5
136
330
36
100
AcDbEntity
  8
1
  6
Continuous
 62
     3
100
AcDbLine
 10
-209.411112869991
 20
193.948475525657
 30
0.0
 11
-208.787574579266
 21
193.588475525657
 31
0.0
  0
LINE
  5
135
330
36
100
AcDbEntity
  8
1
  6
Continuous
 62
     3
100
AcDbLine
 10
-209.411112869991
 20
195.728475525657
 30
0.0
 11
-208.787574579266
 21
196.088475525657
 31
0.0
  0
LINE
  5
134
330
36
100
AcDbEntity
  8
1
  6
Continuous
 62
     7
100
AcDbLine
 10
-208.611112869991
 20
194.838475525657
 30
0.0
 11
-208.611112869991
 21
193.588475525657
 31
0.0
  0
LINE
  5
133
330
36
100
AcDbEntity
  8
1
  6
Continuous
 62
     7
100
AcDbLine
 10
-208.611112869991
 20
192.588475525657
 30
0.0
 11
-206.3111128699909
 21
192.588475525657
 31
0.0
  0
LINE
  5
132
330
36
100
AcDbEntity
  8
1
  6
Continuous
 62
     7
100
AcDbLine
 10
-206.3111128699909
 20
192.588475525657
 30
0.0
 11
-206.1111128699909
 21
192.7884755256569
 31
0.0
  0
LINE
  5
131
330
36
100
AcDbEntity
  8
1
  6
Continuous
 62
     7
100
AcDbLine
 10
-206.1111128699909
 20
192.7884755256569
 30
0.0
 11
-206.1111128699909
 21
196.888475525657
 31
0.0
  0
LINE
  5
130
330
36
100
AcDbEntity
  8
1
  6
Continuous
 62
     7
100
AcDbLine
 10
-206.1111128699909
 20
196.888475525657
 30
0.0
 11
-206.3111128699909
 21
197.088475525657
 31
0.0
  0
LINE
  5
12F
330
36
100
AcDbEntity
  8
1
  6
Continuous
 62
     7
100
AcDbLine
 10
-206.3111128699909
 20
197.088475525657
 30
0.0
 11
-208.611112869991
 21
197.088475525657
 31
0.0
  0
LINE
  5
12E
330
36
100
AcDbEntity
  8
1
  6
Continuous
 62
     7
100
AcDbLine
 10
-208.611112869991
 20
197.088475525657
 30
0.0
 11
-208.611112869991
 21
196.1884755256569
 31
0.0
  0
LINE
  5
12D
330
36
100
AcDbEntity
  8
1
  6
Continuous
 62
     7
100
AcDbLine
 10
-208.711112869991
 20
196.088475525657
 30
0.0
 11
-209.411112869991
 21
196.088475525657
 31
0.0
  0
LINE
  5
12C
330
36
100
AcDbEntity
  8
1
  6
Continuous
 62
     7
100
AcDbLine
 10
-208.611112869991
 20
196.088475525657
 30
0.0
 11
-208.611112869991
 21
194.838475525657
 31
0.0
  0
LINE
  5
12B
330
36
100
AcDbEntity
  8
1
  6
Continuous
 62
     7
100
AcDbLine
 10
-218.251112869991
 20
196.088475525657
 30
0.0
 11
-218.6111128699909
 21
195.728475525657
 31
0.0
  0
LINE
  5
12A
330
36
100
AcDbEntity
  8
1
  6
Continuous
 62
     7
100
AcDbLine
 10
-218.6111128699909
 20
195.728475525657
 30
0.0
 11
-218.6111128699909
 21
193.948475525657
 31
0.0
  0
LINE
  5
129
330
36
100
AcDbEntity
  8
1
  6
Continuous
 62
     7
100
AcDbLine
 10
-218.6111128699909
 20
193.948475525657
 30
0.0
 11
-218.251112869991
 21
193.588475525657
 31
0.0
  0
LINE
  5
128
330
36
100
AcDbEntity
  8
1
  6
Continuous
 62
     7
100
AcDbLine
 10
-218.251112869991
 20
193.588475525657
 30
0.0
 11
-209.411112869991
 21
193.588475525657
 31
0.0
  0
LINE
  5
127
330
36
100
AcDbEntity
  8
1
  6
Continuous
 62
     7
100
AcDbLine
 10
-208.611112869991
 20
193.488475525657
 30
0.0
 11
-208.611112869991
 21
192.588475525657
 31
0.0
  0
LINE
  5
126
330
36
100
AcDbEntity
  8
1
  6
Continuous
 62
     7
100
AcDbLine
 10
-209.411112869991
 20
193.588475525657
 30
0.0
 11
-209.411112869991
 21
196.088475525657
 31
0.0
  0
LINE
  5
125
330
36
100
AcDbEntity
  8
1
  6
Continuous
 62
     7
100
AcDbLine
 10
-209.411112869991
 20
196.088475525657
 30
0.0
 11
-218.251112869991
 21
196.088475525657
 31
0.0
  0
LINE
  5
124
330
36
100
AcDbEntity
  8
1
  6
Continuous
 62
     7
100
AcDbLine
 10
-209.411112869991
 20
193.588475525657
 30
0.0
 11
-208.711112869991
 21
193.588475525657
 31
0.0
  0
LINE
  5
123
330
36
100
AcDbEntity
  8
1
  6
Continuous
 62
     7
100
AcDbLine
 10
-218.251112869991
 20
196.088475525657
 30
0.0
 11
-218.251112869991
 21
193.588475525657
 31
0.0
  0
LINE
  5
122
330
36
100
AcDbEntity
  8
1
  6
Continuous
 62
     7
100
AcDbLine
 10
-206.3111128699909
 20
192.588475525657
 30
0.0
 11
-206.3111128699909
 21
197.088475525657
 31
0.0
  0
LINE
  5
121
330
36
100
AcDbEntity
  8
1
  6
Continuous
 62
     7
100
AcDbLine
 10
-208.611112869991
 20
193.588475525657
 30
0.0
 11
-208.611112869991
 21
193.488475525657
 31
0.0
  0
LINE
  5
120
330
36
100
AcDbEntity
  8
1
  6
Continuous
 62
     7
100
AcDbLine
 10
-208.611112869991
 20
196.088475525657
 30
0.0
 11
-208.611112869991
 21
196.1884755256569
 31
0.0
  0
ENDBLK
  5
13B
330
36
100
AcDbEntity
  8
0
100
AcDbBlockEnd
  0
BLOCK
  5
39
330
38
100
AcDbEntity
  8
0
100
AcDbBlockBegin
  2
CRB
 70
     0
 10
0.0
 20
0.0
 30
0.0
  3
CRB
  1

  0
LINE
  5
1C4
330
38
100
AcDbEntity
  8
1
  6
Continuous
 62
     7
100
AcDbLine
 10
-208.11111286998
 20
131.538476164088
 30
0.0
 11
-211.1111128699899
 21
131.538476164088
 31
0.0
  0
LINE
  5
1C3
330
38
100
AcDbEntity
  8
1
  6
Continuous
 62
     7
100
AcDbLine
 10
-212.4111128699889
 20
192.088475525657
 30
0.0
 11
-212.4111128699889
 21
193.588475525657
 31
0.0
  0
LINE
  5
1C2
330
38
100
AcDbEntity
  8
1
  6
Continuous
 62
     7
100
AcDbLine
 10
-205.9111128699909
 20
192.088475525657
 30
0.0
 11
-212.4111128699889
 21
192.088475525657
 31
0.0
  0
LINE
  5
1C1
330
38
100
AcDbEntity
  8
1
  6
Continuous
 62
     7
100
AcDbLine
 10
-219.209391631934
 20
170.3384755256569
 30
0.0
 11
-220.41111286999
 21
168.338475525657
 31
0.0
  0
LINE
  5
1C0
330
38
100
AcDbEntity
  8
1
  6
Continuous
 62
     7
100
AcDbLine
 10
-219.209391631934
 20
170.3384755256569
 30
0.0
 11
-220.41111286999
 21
172.3384755256569
 31
0.0
  0
LINE
  5
1BF
330
38
100
AcDbEntity
  8
1
  6
Continuous
 62
     7
100
AcDbLine
 10
-213.911112869991
 20
168.338475525657
 30
0.0
 11
-215.112834108046
 21
170.3384755256569
 31
0.0
  0
LINE
  5
1BE
330
38
100
AcDbEntity
  8
1
  6
Continuous
 62
     7
100
AcDbLine
 10
-213.911112869991
 20
172.3384755256569
 30
0.0
 11
-215.112834108046
 21
170.3384755256569
 31
0.0
  0
LINE
  5
1BD
330
38
100
AcDbEntity
  8
1
  6
Continuous
 62
     7
100
AcDbLine
 10
-213.911112869991
 20
178.938475525657
 30
0.0
 11
-213.911112869991
 21
161.738475525657
 31
0.0
  0
LINE
  5
1BC
330
38
100
AcDbEntity
  8
1
  6
Continuous
 62
     7
100
AcDbLine
 10
-212.911112869991
 20
161.738475525657
 30
0.0
 11
-213.911112869991
 21
161.738475525657
 31
0.0
  0
LINE
  5
1BB
330
38
100
AcDbEntity
  8
1
  6
Continuous
 62
     7
100
AcDbLine
 10
-212.911112869991
 20
180.3384755256569
 30
0.0
 11
-212.911112869991
 21
170.3384755256569
 31
0.0
  0
LINE
  5
1BA
330
38
100
AcDbEntity
  8
1
  6
Continuous
 62
     7
100
AcDbLine
 10
-212.911112869991
 20
178.938475525657
 30
0.0
 11
-213.911112869991
 21
178.938475525657
 31
0.0
  0
LINE
  5
1B9
330
38
100
AcDbEntity
  8
1
  6
Continuous
 62
     7
100
AcDbLine
 10
-220.41111286999
 20
182.338475525657
 30
0.0
 11
-220.41111286999
 21
158.338475525656
 31
0.0
  0
LINE
  5
1B8
330
38
100
AcDbEntity
  8
1
  6
Continuous
 62
     7
100
AcDbLine
 10
-212.4111128699889
 20
196.088475525657
 30
0.0
 11
-212.4111128699889
 21
198.0884755256569
 31
0.0
  0
LINE
  5
1B7
330
38
100
AcDbEntity
  8
1
  6
Continuous
 62
     7
100
AcDbLine
 10
-205.81111286999
 20
136.238475525657
 30
0.0
 11
-205.81111286999
 21
133.8384755256569
 31
0.0
  0
LINE
  5
1B6
330
38
100
AcDbEntity
  8
1
  6
Continuous
 62
     7
100
AcDbLine
 10
-205.81111286999
 20
206.838475525657
 30
0.0
 11
-205.811112869991
 21
201.8384755256569
 31
0.0
  0
LINE
  5
1B5
330
38
100
AcDbEntity
  8
1
  6
Continuous
 62
     7
100
AcDbLine
 10
-225.41111286999
 20
212.8384748875059
 30
0.0
 11
-225.411112869989
 21
205.338475525657
 31
0.0
  0
LINE
  5
1B4
330
38
100
AcDbEntity
  8
0
  6
Continuous
 62
     7
100
AcDbLine
 10
-205.81111286999
 20
127.838476164088
 30
0.0
 11
-205.81111286999
 21
127.8384761638079
 31
0.0
  0
LINE
  5
1B3
330
38
100
AcDbEntity
  8
1
  6
Continuous
 62
     7
100
AcDbLine
 10
-205.81111286999
 20
127.838476164088
 30
0.0
 11
-205.81111286999
 21
127.8384761638079
 31
0.0
  0
LINE
  5
1B2
330
38
100
AcDbEntity
  8
1
  6
Continuous
 62
     7
100
AcDbLine
 10
-212.4111128699889
 20
204.1669026504029
 30
0.0
 11
-215.2395399947359
 21
201.338475525657
 31
0.0
  0
LINE
  5
1B1
330
38
100
AcDbEntity
  8
1
  6
Continuous
 62
     7
100
AcDbLine
 10
-215.2395399947359
 20
201.338475525657
 30
0.0
 11
-212.4111128699889
 21
198.510048400911
 31
0.0
  0
LINE
  5
1B0
330
38
100
AcDbEntity
  8
1
  6
Continuous
 62
     7
100
AcDbLine
 10
-212.4111128699889
 20
198.510048400911
 30
0.0
 11
-209.582685745243
 21
201.338475525657
 31
0.0
  0
LINE
  5
1AF
330
38
100
AcDbEntity
  8
1
  6
Continuous
 62
     7
100
AcDbLine
 10
-209.582685745243
 20
201.338475525657
 30
0.0
 11
-212.4111128699889
 21
204.1669026504029
 31
0.0
  0
LINE
  5
1AE
330
38
100
AcDbEntity
  8
1
  6
Continuous
 62
     7
100
AcDbLine
 10
-218.91111286999
 20
201.8384755256569
 30
0.0
 11
-214.739539994736
 21
201.8384755256569
 31
0.0
  0
LINE
  5
1AD
330
38
100
AcDbEntity
  8
1
  6
Continuous
 62
     7
100
AcDbLine
 10
-215.2395399947359
 20
139.338475525657
 30
0.0
 11
-212.4111128699889
 21
136.510048400911
 31
0.0
  0
LINE
  5
1AC
330
38
100
AcDbEntity
  8
1
  6
Continuous
 62
     7
100
AcDbLine
 10
-209.582685745243
 20
139.338475525657
 30
0.0
 11
-212.4111128699889
 21
142.166902650403
 31
0.0
  0
LINE
  5
1AB
330
38
100
AcDbEntity
  8
1
  6
Continuous
 62
     7
100
AcDbLine
 10
-212.4111128699889
 20
136.510048400911
 30
0.0
 11
-209.582685745243
 21
139.338475525657
 31
0.0
  0
LINE
  5
1AA
330
38
100
AcDbEntity
  8
1
  6
Continuous
 62
     7
100
AcDbLine
 10
-212.4111128699889
 20
142.166902650403
 30
0.0
 11
-215.2395399947359
 21
139.338475525657
 31
0.0
  0
LINE
  5
1A9
330
38
100
AcDbEntity
  8
1
  6
Continuous
 62
     7
100
AcDbLine
 10
-214.739539994736
 20
138.838475525657
 30
0.0
 11
-218.91111286999
 21
138.838475525657
 31
0.0
  0
LINE
  5
1A8
330
38
100
AcDbEntity
  8
1
  6
Continuous
 62
     7
100
AcDbLine
 10
-210.082685745243
 20
139.838475525657
 30
0.0
 11
-205.91111286999
 21
139.838475525657
 31
0.0
  0
LINE
  5
1A7
330
38
100
AcDbEntity
  8
1
  6
Continuous
 62
     7
100
AcDbLine
 10
-202.511112869991
 20
212.8384748875059
 30
0.0
 11
-225.41111286999
 21
212.8384748875059
 31
0.0
  0
LINE
  5
1A6
330
38
100
AcDbEntity
  8
1
  6
Continuous
 62
     7
100
AcDbLine
 10
-202.511112869991
 20
211.5384748872269
 30
0.0
 11
-225.411112869989
 21
211.5384748872269
 31
0.0
  0
LINE
  5
1A5
330
38
100
AcDbEntity
  8
1
  6
Continuous
 62
     7
100
AcDbLine
 10
-202.511112869991
 20
208.1384748872259
 30
0.0
 11
-225.411112869989
 21
208.1384748872259
 31
0.0
  0
LINE
  5
1A4
330
38
100
AcDbEntity
  8
1
  6
Continuous
 62
     7
100
AcDbLine
 10
-225.411112869989
 20
199.3384755256569
 30
0.0
 11
-218.91111286999
 21
199.3384755256569
 31
0.0
  0
LINE
  5
1A3
330
38
100
AcDbEntity
  8
1
  6
Continuous
 62
     7
100
AcDbLine
 10
-224.91111286999
 20
205.338475525657
 30
0.0
 11
-224.91111286999
 21
199.3384755256569
 31
0.0
  0
LINE
  5
1A2
330
38
100
AcDbEntity
  8
1
  6
Continuous
 62
     7
100
AcDbLine
 10
-218.91111286999
 20
205.338475525657
 30
0.0
 11
-218.91111286999
 21
199.3384755256569
 31
0.0
  0
LINE
  5
1A1
330
38
100
AcDbEntity
  8
1
  6
Continuous
 62
     7
100
AcDbLine
 10
-218.91111286999
 20
135.338475525657
 30
0.0
 11
-224.91111286999
 21
135.338475525657
 31
0.0
  0
LINE
  5
1A0
330
38
100
AcDbEntity
  8
1
  6
Continuous
 62
     7
100
AcDbLine
 10
-218.91111286999
 20
141.338475525657
 30
0.0
 11
-218.91111286999
 21
135.338475525657
 31
0.0
  0
LINE
  5
19F
330
38
100
AcDbEntity
  8
1
  6
Continuous
 62
     7
100
AcDbLine
 10
-225.411112869989
 20
135.338475525657
 30
0.0
 11
-225.41111286999
 21
127.8384761638079
 31
0.0
  0
LINE
  5
19E
330
38
100
AcDbEntity
  8
1
  6
Continuous
 62
     7
100
AcDbLine
 10
-224.91111286999
 20
135.338475525657
 30
0.0
 11
-224.91111286999
 21
141.338475525657
 31
0.0
  0
LINE
  5
19D
330
38
100
AcDbEntity
  8
1
  6
Continuous
 62
     7
100
AcDbLine
 10
-225.911112869989
 20
141.8384755256569
 30
0.0
 11
-225.411112869989
 21
141.338475525657
 31
0.0
  0
LINE
  5
19C
330
38
100
AcDbEntity
  8
1
  6
Continuous
 62
     7
100
AcDbLine
 10
-225.911112869989
 20
198.838475525657
 30
0.0
 11
-225.411112869989
 21
199.3384755256569
 31
0.0
  0
LINE
  5
19B
330
38
100
AcDbEntity
  8
1
  6
Continuous
 62
     7
100
AcDbLine
 10
-225.911112869989
 20
198.838475525657
 30
0.0
 11
-225.911112869989
 21
141.8384755256569
 31
0.0
  0
LINE
  5
19A
330
38
100
AcDbEntity
  8
1
  6
Continuous
 62
     7
100
AcDbLine
 10
-212.911112869989
 20
204.588475525657
 30
0.0
 11
-211.911112869989
 21
204.588475525657
 31
0.0
  0
LINE
  5
199
330
38
100
AcDbEntity
  8
1
  6
Continuous
 62
     7
100
AcDbLine
 10
-212.911112869989
 20
204.588475525657
 30
0.0
 11
-212.911112869989
 21
203.6669026504029
 31
0.0
  0
LINE
  5
198
330
38
100
AcDbEntity
  8
1
  6
Continuous
 62
     7
100
AcDbLine
 10
-211.911112869989
 20
204.588475525657
 30
0.0
 11
-211.911112869989
 21
203.6669026504029
 31
0.0
  0
LINE
  5
197
330
38
100
AcDbEntity
  8
1
  6
Continuous
 62
     7
100
AcDbLine
 10
-212.911112869989
 20
198.0884755256569
 30
0.0
 11
-211.911112869989
 21
198.0884755256569
 31
0.0
  0
LINE
  5
196
330
38
100
AcDbEntity
  8
1
  6
Continuous
 62
     7
100
AcDbLine
 10
-212.911112869989
 20
198.0884755256569
 30
0.0
 11
-212.911112869989
 21
199.0100484009109
 31
0.0
  0
LINE
  5
195
330
38
100
AcDbEntity
  8
1
  6
Continuous
 62
     7
100
AcDbLine
 10
-211.911112869989
 20
198.0884755256569
 30
0.0
 11
-211.911112869989
 21
199.0100484009109
 31
0.0
  0
LINE
  5
194
330
38
100
AcDbEntity
  8
1
  6
Continuous
 62
     7
100
AcDbLine
 10
-211.911112869989
 20
142.588475525657
 30
0.0
 11
-212.911112869989
 21
142.588475525657
 31
0.0
  0
LINE
  5
193
330
38
100
AcDbEntity
  8
1
  6
Continuous
 62
     7
100
AcDbLine
 10
-212.911112869989
 20
141.666902650403
 30
0.0
 11
-212.911112869989
 21
142.588475525657
 31
0.0
  0
LINE
  5
192
330
38
100
AcDbEntity
  8
1
  6
Continuous
 62
     7
100
AcDbLine
 10
-211.911112869989
 20
141.666902650403
 30
0.0
 11
-211.911112869989
 21
142.588475525657
 31
0.0
  0
LINE
  5
191
330
38
100
AcDbEntity
  8
1
  6
Continuous
 62
     7
100
AcDbLine
 10
-212.911112869989
 20
136.088475525657
 30
0.0
 11
-211.911112869989
 21
136.088475525657
 31
0.0
  0
LINE
  5
190
330
38
100
AcDbEntity
  8
1
  6
Continuous
 62
     7
100
AcDbLine
 10
-212.911112869989
 20
136.088475525657
 30
0.0
 11
-212.911112869989
 21
137.010048400911
 31
0.0
  0
LINE
  5
18F
330
38
100
AcDbEntity
  8
1
  6
Continuous
 62
     7
100
AcDbLine
 10
-211.911112869989
 20
136.088475525657
 30
0.0
 11
-211.911112869989
 21
137.010048400911
 31
0.0
  0
LINE
  5
18E
330
38
100
AcDbEntity
  8
1
  6
Continuous
 62
     7
100
AcDbLine
 10
-205.91111286999
 20
200.838475525657
 30
0.0
 11
-210.082685745243
 21
200.838475525657
 31
0.0
  0
LINE
  5
18D
330
38
100
AcDbEntity
  8
1
  6
Continuous
 62
     7
100
AcDbLine
 10
-205.81111286999
 20
138.838475525657
 30
0.0
 11
-205.81111286999
 21
133.8384755256569
 31
0.0
  0
LINE
  5
18C
330
38
100
AcDbEntity
  8
1
  6
Continuous
 62
     7
100
AcDbLine
 10
-205.9111128699909
 20
180.3384755256569
 30
0.0
 11
-212.911112869991
 21
180.3384755256569
 31
0.0
  0
LINE
  5
18B
330
38
100
AcDbEntity
  8
1
  6
Continuous
 62
     7
100
AcDbLine
 10
-205.9111128699909
 20
160.338475525657
 30
0.0
 11
-212.911112869991
 21
160.338475525657
 31
0.0
  0
LINE
  5
18A
330
38
100
AcDbEntity
  8
1
  6
Continuous
 62
     7
100
AcDbLine
 10
-202.511112869991
 20
206.838475525657
 30
0.0
 11
-205.81111286999
 21
206.838475525657
 31
0.0
  0
LINE
  5
189
330
38
100
AcDbEntity
  8
1
  6
Continuous
 62
     7
100
AcDbLine
 10
-202.511112869991
 20
212.8384748875059
 30
0.0
 11
-202.511112869991
 21
206.838475525657
 31
0.0
  0
LINE
  5
188
330
38
100
AcDbEntity
  8
1
  6
Continuous
 62
     7
100
AcDbLine
 10
-205.81111286999
 20
133.8384755256569
 30
0.0
 11
-202.5111128699899
 21
133.8384755256569
 31
0.0
  0
LINE
  5
187
330
38
100
AcDbEntity
  8
1
  6
Continuous
 62
     7
100
AcDbLine
 10
-225.41111286999
 20
127.8384761638079
 30
0.0
 11
-202.511112869991
 21
127.8384761638079
 31
0.0
  0
LINE
  5
186
330
38
100
AcDbEntity
  8
1
  6
Continuous
 62
     7
100
AcDbLine
 10
-202.5111128699899
 20
133.8384755256569
 30
0.0
 11
-202.511112869991
 21
131.538476164088
 31
0.0
  0
LINE
  5
185
330
38
100
AcDbEntity
  8
1
  6
Continuous
 62
     7
100
AcDbLine
 10
-202.511112869991
 20
130.138476164088
 30
0.0
 11
-202.511112869991
 21
127.8384761638079
 31
0.0
  0
LINE
  5
184
330
38
100
AcDbEntity
  8
1
  6
Continuous
 62
     7
100
AcDbLine
 10
-208.611112869991
 20
197.588475525657
 30
0.0
 11
-205.9111128699909
 21
197.588475525657
 31
0.0
  0
LINE
  5
183
330
38
100
AcDbEntity
  8
1
  6
Continuous
 62
     7
100
AcDbLine
 10
-208.6111128699899
 20
193.388475525657
 30
0.0
 11
-212.4111128699889
 21
193.388475525657
 31
0.0
  0
LINE
  5
182
330
38
100
AcDbEntity
  8
1
  6
Continuous
 62
     7
100
AcDbLine
 10
-212.4111128699889
 20
196.288475525656
 30
0.0
 11
-208.6111128699899
 21
196.288475525656
 31
0.0
  0
LINE
  5
181
330
38
100
AcDbEntity
  8
1
  6
Continuous
 62
     7
100
AcDbLine
 10
-208.611112869991
 20
197.588475525657
 30
0.0
 11
-208.611112869991
 21
192.088475525657
 31
0.0
  0
LINE
  5
180
330
38
100
AcDbEntity
  8
1
  6
Continuous
 62
     7
100
AcDbLine
 10
-220.41111286999
 20
182.338475525657
 30
0.0
 11
-225.9111128699899
 21
182.338475525657
 31
0.0
  0
LINE
  5
17F
330
38
100
AcDbEntity
  8
1
  6
Continuous
 62
     7
100
AcDbLine
 10
-220.41111286999
 20
158.338475525656
 30
0.0
 11
-225.9111128699899
 21
158.338475525657
 31
0.0
  0
LINE
  5
17E
330
38
100
AcDbEntity
  8
1
  6
Continuous
 62
     7
100
AcDbLine
 10
-205.811112869991
 20
201.8384755256569
 30
0.0
 11
-210.082685745243
 21
201.8384755256569
 31
0.0
  0
LINE
  5
17D
330
38
100
AcDbEntity
  8
1
  6
Continuous
 62
     7
100
AcDbLine
 10
-205.81111286999
 20
138.838475525657
 30
0.0
 11
-210.082685745243
 21
138.838475525657
 31
0.0
  0
LINE
  5
17C
330
38
100
AcDbEntity
  8
1
  6
Continuous
 62
     3
100
AcDbLine
 10
-225.911112869989
 20
153.338475525657
 30
0.0
 11
-213.911112869989
 21
153.338475525657
 31
0.0
  0
LINE
  5
17B
330
38
100
AcDbEntity
  8
1
  6
Continuous
 62
     3
100
AcDbLine
 10
-213.911112869989
 20
153.338475525657
 30
0.0
 11
-212.525472223935
 21
152.538475525657
 31
0.0
  0
LINE
  5
17A
330
38
100
AcDbEntity
  8
1
  6
Continuous
 62
     7
100
AcDbLine
 10
-213.911112869989
 20
153.338475525657
 30
0.0
 11
-213.911112869989
 21
145.3384755256569
 31
0.0
  0
LINE
  5
179
330
38
100
AcDbEntity
  8
1
  6
Continuous
 62
     3
100
AcDbLine
 10
-212.525472223935
 20
146.138475525657
 30
0.0
 11
-213.911112869989
 21
145.3384755256569
 31
0.0
  0
LINE
  5
178
330
38
100
AcDbEntity
  8
1
  6
Continuous
 62
     3
100
AcDbLine
 10
-213.911112869989
 20
145.3384755256569
 30
0.0
 11
-225.9111128699899
 21
145.3384755256569
 31
0.0
  0
LINE
  5
177
330
38
100
AcDbEntity
  8
1
  6
Continuous
 62
     7
100
AcDbLine
 10
-225.911112869989
 20
152.538475525657
 30
0.0
 11
-210.71111286999
 21
152.538475525657
 31
0.0
  0
LINE
  5
176
330
38
100
AcDbEntity
  8
1
  6
Continuous
 62
     7
100
AcDbLine
 10
-210.71111286999
 20
152.538475525657
 30
0.0
 11
-210.71111286999
 21
146.138475525657
 31
0.0
  0
LINE
  5
175
330
38
100
AcDbEntity
  8
1
  6
Continuous
 62
     7
100
AcDbLine
 10
-210.71111286999
 20
146.138475525657
 30
0.0
 11
-225.9111128699899
 21
146.138475525657
 31
0.0
  0
LINE
  5
174
330
38
100
AcDbEntity
  8
1
  6
Continuous
 62
     7
100
AcDbLine
 10
-210.71111286999
 20
152.538475525657
 30
0.0
 11
-208.863592008583
 21
149.3384755256569
 31
0.0
  0
LINE
  5
173
330
38
100
AcDbEntity
  8
1
  6
Continuous
 62
     7
100
AcDbLine
 10
-208.863592008583
 20
149.3384755256569
 30
0.0
 11
-210.71111286999
 21
146.138475525657
 31
0.0
  0
LINE
  5
172
330
38
100
AcDbEntity
  8
1
  6
DASH_CENTER
 62
     3
100
AcDbLine
 10
-227.1111128699899
 20
149.3384755256569
 30
0.0
 11
-207.763592008582
 21
149.3384755256569
 31
0.0
  0
LINE
  5
171
330
38
100
AcDbEntity
  8
1
  6
Continuous
 62
     7
100
AcDbLine
 10
-218.91111286999
 20
205.338475525657
 30
0.0
 11
-225.411112869989
 21
205.338475525657
 31
0.0
  0
LINE
  5
170
330
38
100
AcDbEntity
  8
1
  6
Continuous
 62
     7
100
AcDbLine
 10
-218.91111286999
 20
199.3384755256569
 30
0.0
 11
-218.41111286999
 21
199.3384755256569
 31
0.0
  0
LINE
  5
16F
330
38
100
AcDbEntity
  8
1
  6
Continuous
 62
     7
100
AcDbLine
 10
-218.41111286999
 20
199.3384755256569
 30
0.0
 11
-218.41111286999
 21
200.838475525657
 31
0.0
  0
LINE
  5
16E
330
38
100
AcDbEntity
  8
1
  6
Continuous
 62
     7
100
AcDbLine
 10
-218.41111286999
 20
200.838475525657
 30
0.0
 11
-214.739539994736
 21
200.838475525657
 31
0.0
  0
LINE
  5
16D
330
38
100
AcDbEntity
  8
1
  6
Continuous
 62
     7
100
AcDbLine
 10
-224.91111286999
 20
135.338475525657
 30
0.0
 11
-225.411112869989
 21
135.338475525657
 31
0.0
  0
LINE
  5
16C
330
38
100
AcDbEntity
  8
1
  6
Continuous
 62
     7
100
AcDbLine
 10
-218.41111286999
 20
141.338475525657
 30
0.0
 11
-225.411112869989
 21
141.338475525657
 31
0.0
  0
LINE
  5
16B
330
38
100
AcDbEntity
  8
1
  6
Continuous
 62
     7
100
AcDbLine
 10
-214.739539994736
 20
139.838475525657
 30
0.0
 11
-218.41111286999
 21
139.838475525657
 31
0.0
  0
LINE
  5
16A
330
38
100
AcDbEntity
  8
1
  6
Continuous
 62
     7
100
AcDbLine
 10
-218.41111286999
 20
139.838475525657
 30
0.0
 11
-218.41111286999
 21
141.338475525657
 31
0.0
  0
LINE
  5
169
330
38
100
AcDbEntity
  8
1
  6
Continuous
 62
     7
100
AcDbLine
 10
-205.9111128699909
 20
183.5384755256569
 30
0.0
 11
-205.9111128699909
 21
170.3384755256569
 31
0.0
  0
LINE
  5
168
330
38
100
AcDbEntity
  8
0
  6
Continuous
 62
     7
100
AcDbLine
 10
-205.91111286999
 20
200.838475525657
 30
0.0
 11
-205.9111128699909
 21
187.138475525657
 31
0.0
  0
LINE
  5
167
330
38
100
AcDbEntity
  8
1
  6
Continuous
 62
     7
100
AcDbLine
 10
-224.91111286999
 20
205.338475525657
 30
0.0
 11
-220.9584434357619
 21
201.3858060914289
 31
0.0
  0
LINE
  5
166
330
38
100
AcDbEntity
  8
1
  6
Continuous
 62
     7
100
AcDbLine
 10
-221.3560573502039
 20
200.988192176988
 30
0.0
 11
-220.56082952132
 21
201.783420005871
 31
0.0
  0
LINE
  5
165
330
38
100
AcDbEntity
  8
1
  6
Continuous
 62
     7
100
AcDbLine
 10
-218.91111286999
 20
199.3384755256569
 30
0.0
 11
-221.3560573502039
 21
200.988192176988
 31
0.0
  0
LINE
  5
164
330
38
100
AcDbEntity
  8
1
  6
Continuous
 62
     7
100
AcDbLine
 10
-220.56082952132
 20
201.783420005871
 30
0.0
 11
-218.91111286999
 21
199.3384755256569
 31
0.0
  0
LINE
  5
163
330
38
100
AcDbEntity
  8
1
  6
Continuous
 62
     7
100
AcDbLine
 10
-223.2613962186589
 20
201.783420005871
 30
0.0
 11
-222.4661683897759
 21
200.988192176987
 31
0.0
  0
LINE
  5
162
330
38
100
AcDbEntity
  8
1
  6
Continuous
 62
     7
100
AcDbLine
 10
-224.91111286999
 20
199.3384755256569
 30
0.0
 11
-223.2613962186589
 21
201.783420005871
 31
0.0
  0
LINE
  5
161
330
38
100
AcDbEntity
  8
1
  6
Continuous
 62
     7
100
AcDbLine
 10
-222.4661683897759
 20
200.988192176987
 30
0.0
 11
-224.91111286999
 21
199.3384755256569
 31
0.0
  0
LINE
  5
160
330
38
100
AcDbEntity
  8
1
  6
Continuous
 62
     7
100
AcDbLine
 10
-221.9111128699899
 20
202.338475525657
 30
0.0
 11
-222.8637823042169
 21
201.3858060914289
 31
0.0
  0
LINE
  5
15F
330
38
100
AcDbEntity
  8
1
  6
Continuous
 62
     7
100
AcDbLine
 10
-220.9584434357619
 20
139.291144959885
 30
0.0
 11
-224.91111286999
 21
135.338475525657
 31
0.0
  0
LINE
  5
15E
330
38
100
AcDbEntity
  8
1
  6
Continuous
 62
     7
100
AcDbLine
 10
-218.91111286999
 20
141.338475525657
 30
0.0
 11
-220.56082952132
 21
138.893531045443
 31
0.0
  0
LINE
  5
15D
330
38
100
AcDbEntity
  8
1
  6
Continuous
 62
     7
100
AcDbLine
 10
-220.56082952132
 20
138.893531045443
 30
0.0
 11
-221.3560573502039
 21
139.6887588743269
 31
0.0
  0
LINE
  5
15C
330
38
100
AcDbEntity
  8
1
  6
Continuous
 62
     7
100
AcDbLine
 10
-221.3560573502039
 20
139.6887588743269
 30
0.0
 11
-218.91111286999
 21
141.338475525657
 31
0.0
  0
LINE
  5
15B
330
38
100
AcDbEntity
  8
1
  6
Continuous
 62
     7
100
AcDbLine
 10
-220.56082952132
 20
138.893531045443
 30
0.0
 11
-221.3560573502039
 21
139.6887588743269
 31
0.0
  0
LINE
  5
15A
330
38
100
AcDbEntity
  8
1
  6
Continuous
 62
     7
100
AcDbLine
 10
-224.91111286999
 20
141.338475525657
 30
0.0
 11
-222.4661683897759
 21
139.6887588743269
 31
0.0
  0
LINE
  5
159
330
38
100
AcDbEntity
  8
1
  6
Continuous
 62
     7
100
AcDbLine
 10
-222.4661683897759
 20
139.6887588743269
 30
0.0
 11
-223.2613962186589
 21
138.893531045443
 31
0.0
  0
LINE
  5
158
330
38
100
AcDbEntity
  8
1
  6
Continuous
 62
     7
100
AcDbLine
 10
-223.2613962186589
 20
138.893531045443
 30
0.0
 11
-224.91111286999
 21
141.338475525657
 31
0.0
  0
LINE
  5
157
330
38
100
AcDbEntity
  8
1
  6
Continuous
 62
     7
100
AcDbLine
 10
-222.4661683897759
 20
139.6887588743269
 30
0.0
 11
-223.2613962186589
 21
138.893531045443
 31
0.0
  0
LINE
  5
156
330
38
100
AcDbEntity
  8
1
  6
Continuous
 62
     7
100
AcDbLine
 10
-222.8637823042169
 20
139.291144959885
 30
0.0
 11
-221.9111128699899
 21
138.338475525657
 31
0.0
  0
LINE
  5
155
330
38
100
AcDbEntity
  8
1
  6
Continuous
 62
     3
100
AcDbLine
 10
-214.911112869991
 20
182.8384755256569
 30
0.0
 11
-213.111112869991
 21
182.8384755256569
 31
0.0
  0
LINE
  5
154
330
38
100
AcDbEntity
  8
1
  6
Continuous
 62
     7
100
AcDbLine
 10
-218.9111128699909
 20
183.5384755256569
 30
0.0
 11
-213.811112869991
 21
183.5384755256569
 31
0.0
  0
LINE
  5
153
330
38
100
AcDbEntity
  8
1
  6
Continuous
 62
     7
100
AcDbLine
 10
-214.911112869991
 20
187.8384755256569
 30
0.0
 11
-214.911112869991
 21
182.8384755256569
 31
0.0
  0
LINE
  5
152
330
38
100
AcDbEntity
  8
1
  6
Continuous
 62
     3
100
AcDbLine
 10
-213.111112869991
 20
187.8384755256569
 30
0.0
 11
-214.911112869991
 21
187.8384755256569
 31
0.0
  0
LINE
  5
151
330
38
100
AcDbEntity
  8
1
  6
Continuous
 62
     7
100
AcDbLine
 10
-218.9111128699909
 20
187.138475525657
 30
0.0
 11
-218.9111128699909
 21
183.5384755256569
 31
0.0
  0
LINE
  5
150
330
38
100
AcDbEntity
  8
1
  6
Continuous
 62
     7
100
AcDbLine
 10
-218.9111128699909
 20
187.138475525657
 30
0.0
 11
-219.950343354533
 21
185.338475525657
 31
0.0
  0
LINE
  5
14F
330
38
100
AcDbEntity
  8
1
  6
Continuous
 62
     7
100
AcDbLine
 10
-219.950343354533
 20
185.338475525657
 30
0.0
 11
-218.9111128699909
 21
183.5384755256569
 31
0.0
  0
LINE
  5
14E
330
38
100
AcDbEntity
  8
1
  6
Continuous
 62
     7
100
AcDbLine
 10
-213.811112869991
 20
187.138475525657
 30
0.0
 11
-218.9111128699909
 21
187.138475525657
 31
0.0
  0
LINE
  5
14D
330
38
100
AcDbEntity
  8
1
  6
Continuous
 62
     7
100
AcDbLine
 10
-218.6111128699909
 20
195.728475525657
 30
0.0
 11
-221.411112869989
 21
195.728475525657
 31
0.0
  0
LINE
  5
14C
330
38
100
AcDbEntity
  8
1
  6
Continuous
 62
     7
100
AcDbLine
 10
-221.411112869989
 20
195.728475525657
 30
0.0
 11
-221.411112869989
 21
193.948475525657
 31
0.0
  0
LINE
  5
14B
330
38
100
AcDbEntity
  8
1
  6
Continuous
 62
     7
100
AcDbLine
 10
-221.411112869989
 20
193.948475525657
 30
0.0
 11
-218.6111128699909
 21
193.948475525657
 31
0.0
  0
LINE
  5
14A
330
38
100
AcDbEntity
  8
1
  6
Continuous
 62
     7
100
AcDbLine
 10
-221.411112869989
 20
195.728475525657
 30
0.0
 11
-221.9249546095679
 21
194.838475525657
 31
0.0
  0
LINE
  5
149
330
38
100
AcDbEntity
  8
1
  6
Continuous
 62
     7
100
AcDbLine
 10
-221.9249546095679
 20
194.838475525657
 30
0.0
 11
-221.411112869989
 21
193.948475525657
 31
0.0
  0
LINE
  5
148
330
38
100
AcDbEntity
  8
1
  6
Continuous
 62
     7
100
AcDbLine
 10
-219.411112869989
 20
196.088475525657
 30
0.0
 11
-219.411112869989
 21
193.588475525657
 31
0.0
  0
LINE
  5
147
330
38
100
AcDbEntity
  8
1
  6
Continuous
 62
     3
100
AcDbLine
 10
-218.251112869991
 20
196.088475525657
 30
0.0
 11
-219.411112869989
 21
196.088475525657
 31
0.0
  0
LINE
  5
146
330
38
100
AcDbEntity
  8
1
  6
Continuous
 62
     3
100
AcDbLine
 10
-219.411112869989
 20
193.588475525657
 30
0.0
 11
-218.251112869991
 21
193.588475525657
 31
0.0
  0
LINE
  5
145
330
38
100
AcDbEntity
  8
1
  6
DASH_CENTER
 62
     3
100
AcDbLine
 10
-205.3611128699909
 20
194.838475525657
 30
0.0
 11
-222.6749546095679
 21
194.838475525657
 31
0.0
  0
LINE
  5
144
330
38
100
AcDbEntity
  8
1
  6
Continuous
 62
     3
100
AcDbLine
 10
-209.51111286999
 20
129.838476164088
 30
0.0
 11
-207.8111128699799
 21
129.838476164088
 31
0.0
  0
LINE
  5
143
330
38
100
AcDbEntity
  8
1
  6
Continuous
 62
     7
100
AcDbLine
 10
-211.1111128699899
 20
130.138476164088
 30
0.0
 11
-208.11111286998
 21
130.138476164088
 31
0.0
  0
LINE
  5
142
330
38
100
AcDbEntity
  8
1
  6
Continuous
 62
     7
100
AcDbLine
 10
-209.51111286999
 20
131.838476164088
 30
0.0
 11
-209.51111286999
 21
129.838476164088
 31
0.0
  0
LINE
  5
141
330
38
100
AcDbEntity
  8
1
  6
Continuous
 62
     3
100
AcDbLine
 10
-207.8111128699799
 20
131.838476164088
 30
0.0
 11
-209.51111286999
 21
131.838476164088
 31
0.0
  0
LINE
  5
140
330
38
100
AcDbEntity
  8
1
  6
Continuous
 62
     7
100
AcDbLine
 10
-211.1111128699899
 20
131.538476164088
 30
0.0
 11
-211.1111128699899
 21
130.138476164088
 31
0.0
  0
LINE
  5
13F
330
38
100
AcDbEntity
  8
1
  6
Continuous
 62
     7
100
AcDbLine
 10
-211.1111128699899
 20
131.538476164088
 30
0.0
 11
-211.515258058423
 21
130.838476164088
 31
0.0
  0
LINE
  5
13E
330
38
100
AcDbEntity
  8
1
  6
Continuous
 62
     7
100
AcDbLine
 10
-211.515258058423
 20
130.838476164088
 30
0.0
 11
-211.1111128699899
 21
130.138476164088
 31
0.0
  0
LINE
  5
13D
330
38
100
AcDbEntity
  8
1
  6
Continuous
 62
     7
100
AcDbLine
 10
-212.911112869991
 20
170.3384755256569
 30
0.0
 11
-212.911112869991
 21
160.338475525657
 31
0.0
  0
LINE
  5
13C
330
38
100
AcDbEntity
  8
1
  6
Continuous
 62
     7
100
AcDbLine
 10
-205.9111128699909
 20
170.3384755256569
 30
0.0
 11
-205.91111286999
 21
139.838475525657
 31
0.0
  0
INSERT
  5
3A
330
38
100
AcDbEntity
  8
0
100
AcDbBlockReference
  2
HEX_BOLT_SIDE__3
 10
0.0
 20
0.0
 30
0.0
  0
ENDBLK
  5
1C5
330
38
100
AcDbEntity
  8
0
100
AcDbBlockEnd
  0
BLOCK
  5
3C
330
3B
100
AcDbEntity
  8
0
100
AcDbBlockBegin
  2
RETAINER
 70
     0
 10
0.0
 20
0.0
 30
0.0
  3
RETAINER
  1

  0
HATCH
  5
1E3
330
3B
100
AcDbEntity
  8
0
  6
Continuous
 62
     5
100
AcDbHatch
 10
0.0
 20
0.0
 30
0.0
210
0.0
220
0.0
230
1.0
  2
USER
 70
     0
 71
     1
 91
        1
 92
        1
 93
        5
 72
     1
 10
-187.9941069934774
 20
141.9384755256581
 11
-187.7841342010152
 21
144.3384755256581
 72
     1
 10
-187.7841342010152
 20
144.3384755256581
 11
-187.7841342010152
 21
145.5034755256581
 72
     1
 10
-187.7841342010152
 20
145.5034755256581
 11
-189.2841342010152
 21
145.5034755256581
 72
     1
 10
-189.2841342010152
 20
145.5034755256581
 11
-189.2841342010152
 21
141.9384755256581
 72
     1
 10
-189.2841342010152
 20
141.9384755256581
 11
-187.9941069934774
 21
141.9384755256581
 97
        5
330
1D5
330
1D6
330
1D7
330
1D3
330
1D4
 75
     1
 76
     0
 52
45.0
 41
1.5
 77
     0
 78
     1
 53
45.0
 43
0.0
 44
0.0
 45
-1.060660171779821
 46
1.060660171779821
 79
     0
 98
        1
 10
0.0
 20
0.0
  0
HATCH
  5
1E2
330
3B
100
AcDbEntity
  8
0
  6
Continuous
 62
     5
100
AcDbHatch
 10
0.0
 20
0.0
 30
0.0
210
0.0
220
0.0
230
1.0
  2
USER
 70
     0
 71
     1
 91
        1
 92
        1
 93
        4
 72
     1
 10
-195.1641342010154
 20
145.5034755256581
 11
-195.1641342010154
 21
141.9384755256581
 72
     1
 10
-195.1641342010154
 20
145.5034755256581
 11
-196.8641342010144
 21
145.5034755256581
 72
     1
 10
-196.8641342010144
 20
141.9384755256581
 11
-196.8641342010144
 21
145.5034755256581
 72
     1
 10
-195.1641342010154
 20
141.9384755256581
 11
-196.8641342010144
 21
141.9384755256581
 97
        4
330
1DD
330
1DE
330
1DF
330
1DC
 75
     1
 76
     0
 52
45.0
 41
1.5
 77
     0
 78
     1
 53
45.0
 43
0.0
 44
0.0
 45
-1.060660171779821
 46
1.060660171779821
 79
     0
 98
        1
 10
0.0
 20
0.0
  0
HATCH
  5
1E1
330
3B
100
AcDbEntity
  8
0
  6
Continuous
 62
     5
100
AcDbHatch
 10
0.0
 20
0.0
 30
0.0
210
0.0
220
0.0
230
1.0
  2
USER
 70
     0
 71
     1
 91
        1
 92
        1
 93
        5
 72
     1
 10
-187.7841342010152
 20
196.3384755256582
 11
-187.9941069934774
 21
198.7384755256591
 72
     1
 10
-187.7841342010152
 20
195.173475525658
 11
-187.7841342010152
 21
196.3384755256582
 72
     1
 10
-189.2841342010152
 20
195.173475525658
 11
-187.7841342010152
 21
195.173475525658
 72
     1
 10
-189.2841342010152
 20
198.7384755256591
 11
-189.2841342010152
 21
195.173475525658
 72
     1
 10
-187.9941069934774
 20
198.7384755256591
 11
-189.2841342010152
 21
198.7384755256591
 97
        5
330
1C8
330
1C9
330
1CA
330
1C6
330
1C7
 75
     1
 76
     0
 52
45.0
 41
1.5
 77
     0
 78
     1
 53
45.0
 43
0.0
 44
0.0
 45
-1.060660171779821
 46
1.060660171779821
 79
     0
 98
        1
 10
0.0
 20
0.0
  0
HATCH
  5
1E0
330
3B
100
AcDbEntity
  8
0
  6
Continuous
 62
     5
100
AcDbHatch
 10
0.0
 20
0.0
 30
0.0
210
0.0
220
0.0
230
1.0
  2
USER
 70
     0
 71
     1
 91
        1
 92
        1
 93
        4
 72
     1
 10
-195.1641342010154
 20
198.7384755256591
 11
-195.1641342010154
 21
195.173475525658
 72
     1
 10
-196.8641342010144
 20
195.173475525658
 11
-195.1641342010154
 21
195.173475525658
 72
     1
 10
-196.8641342010144
 20
195.173475525658
 11
-196.8641342010144
 21
198.7384755256591
 72
     1
 10
-196.8641342010144
 20
198.7384755256591
 11
-195.1641342010154
 21
198.7384755256591
 97
        4
330
1D0
330
1D1
330
1D2
330
1CF
 75
     1
 76
     0
 52
45.0
 41
1.5
 77
     0
 78
     1
 53
45.0
 43
0.0
 44
0.0
 45
-1.060660171779821
 46
1.060660171779821
 79
     0
 98
        1
 10
0.0
 20
0.0
  0
LINE
  5
1DF
330
3B
100
AcDbEntity
  8
1
  6
Continuous
 62
     7
100
AcDbLine
 10
-196.864134201014
 20
141.9384755256579
 30
0.0
 11
-196.864134201014
 21
145.5034755256579
 31
0.0
  0
LINE
  5
1DE
330
3B
100
AcDbEntity
  8
1
  6
Continuous
 62
     7
100
AcDbLine
 10
-195.164134201015
 20
145.5034755256579
 30
0.0
 11
-196.864134201014
 21
145.5034755256579
 31
0.0
  0
LINE
  5
1DD
330
3B
100
AcDbEntity
  8
1
  6
Continuous
 62
     7
100
AcDbLine
 10
-195.164134201015
 20
145.5034755256579
 30
0.0
 11
-195.164134201015
 21
141.9384755256579
 31
0.0
  0
LINE
  5
1DC
330
3B
100
AcDbEntity
  8
1
  6
Continuous
 62
     7
100
AcDbLine
 10
-195.164134201015
 20
141.9384755256579
 30
0.0
 11
-196.864134201014
 21
141.9384755256579
 31
0.0
  0
LINE
  5
1DB
330
3B
100
AcDbEntity
  8
1
  6
Continuous
 62
     7
100
AcDbLine
 10
-189.284134201015
 20
145.5034755256579
 30
0.0
 11
-190.275535634819
 21
145.5034755256579
 31
0.0
  0
LINE
  5
1DA
330
3B
100
AcDbEntity
  8
1
  6
Continuous
 62
     7
100
AcDbLine
 10
-189.284134201015
 20
141.9384755256579
 30
0.0
 11
-190.235378979984
 21
141.9384755256579
 31
0.0
  0
LINE
  5
1D9
330
3B
100
AcDbEntity
  8
1
  6
Continuous
 62
     7
100
AcDbLine
 10
-194.536846759998
 20
141.9384755256579
 30
0.0
 11
-195.164134201015
 21
141.9384755256579
 31
0.0
  0
LINE
  5
1D8
330
3B
100
AcDbEntity
  8
1
  6
Continuous
 62
     7
100
AcDbLine
 10
-194.4966901051629
 20
145.5034755256579
 30
0.0
 11
-195.164134201015
 21
145.5034755256579
 31
0.0
  0
LINE
  5
1D7
330
3B
100
AcDbEntity
  8
1
  6
Continuous
 62
     7
100
AcDbLine
 10
-187.784134201015
 20
145.5034755256579
 30
0.0
 11
-189.284134201015
 21
145.5034755256579
 31
0.0
  0
LINE
  5
1D6
330
3B
100
AcDbEntity
  8
1
  6
Continuous
 62
     7
100
AcDbLine
 10
-187.784134201015
 20
144.3384755256579
 30
0.0
 11
-187.784134201015
 21
145.5034755256579
 31
0.0
  0
LINE
  5
1D5
330
3B
100
AcDbEntity
  8
1
  6
Continuous
 62
     7
100
AcDbLine
 10
-187.9941069934769
 20
141.9384755256579
 30
0.0
 11
-187.784134201015
 21
144.3384755256579
 31
0.0
  0
LINE
  5
1D4
330
3B
100
AcDbEntity
  8
1
  6
Continuous
 62
     7
100
AcDbLine
 10
-189.284134201015
 20
141.9384755256579
 30
0.0
 11
-187.9941069934769
 21
141.9384755256579
 31
0.0
  0
LINE
  5
1D3
330
3B
100
AcDbEntity
  8
1
  6
Continuous
 62
     7
100
AcDbLine
 10
-189.284134201015
 20
145.5034755256579
 30
0.0
 11
-189.284134201015
 21
141.9384755256579
 31
0.0
  0
LINE
  5
1D2
330
3B
100
AcDbEntity
  8
1
  6
Continuous
 62
     7
100
AcDbLine
 10
-196.864134201014
 20
195.173475525658
 30
0.0
 11
-196.864134201014
 21
198.738475525659
 31
0.0
  0
LINE
  5
1D1
330
3B
100
AcDbEntity
  8
1
  6
Continuous
 62
     7
100
AcDbLine
 10
-196.864134201014
 20
195.173475525658
 30
0.0
 11
-195.164134201015
 21
195.173475525658
 31
0.0
  0
LINE
  5
1D0
330
3B
100
AcDbEntity
  8
1
  6
Continuous
 62
     7
100
AcDbLine
 10
-195.164134201015
 20
198.738475525659
 30
0.0
 11
-195.164134201015
 21
195.173475525658
 31
0.0
  0
LINE
  5
1CF
330
3B
100
AcDbEntity
  8
1
  6
Continuous
 62
     7
100
AcDbLine
 10
-196.864134201014
 20
198.738475525659
 30
0.0
 11
-195.164134201015
 21
198.738475525659
 31
0.0
  0
LINE
  5
1CE
330
3B
100
AcDbEntity
  8
1
  6
Continuous
 62
     7
100
AcDbLine
 10
-190.275535634819
 20
195.173475525658
 30
0.0
 11
-189.284134201015
 21
195.173475525658
 31
0.0
  0
LINE
  5
1CD
330
3B
100
AcDbEntity
  8
1
  6
Continuous
 62
     7
100
AcDbLine
 10
-190.235378979984
 20
198.738475525659
 30
0.0
 11
-189.284134201015
 21
198.738475525659
 31
0.0
  0
LINE
  5
1CC
330
3B
100
AcDbEntity
  8
1
  6
Continuous
 62
     7
100
AcDbLine
 10
-195.164134201015
 20
198.738475525659
 30
0.0
 11
-194.536846759998
 21
198.738475525659
 31
0.0
  0
LINE
  5
1CB
330
3B
100
AcDbEntity
  8
1
  6
Continuous
 62
     7
100
AcDbLine
 10
-195.164134201015
 20
195.173475525658
 30
0.0
 11
-194.4966901051629
 21
195.173475525658
 31
0.0
  0
LINE
  5
1CA
330
3B
100
AcDbEntity
  8
1
  6
Continuous
 62
     7
100
AcDbLine
 10
-189.284134201015
 20
195.173475525658
 30
0.0
 11
-187.784134201015
 21
195.173475525658
 31
0.0
  0
LINE
  5
1C9
330
3B
100
AcDbEntity
  8
1
  6
Continuous
 62
     7
100
AcDbLine
 10
-187.784134201015
 20
195.173475525658
 30
0.0
 11
-187.784134201015
 21
196.338475525658
 31
0.0
  0
LINE
  5
1C8
330
3B
100
AcDbEntity
  8
1
  6
Continuous
 62
     7
100
AcDbLine
 10
-187.784134201015
 20
196.338475525658
 30
0.0
 11
-187.9941069934769
 21
198.738475525659
 31
0.0
  0
LINE
  5
1C7
330
3B
100
AcDbEntity
  8
1
  6
Continuous
 62
     7
100
AcDbLine
 10
-187.9941069934769
 20
198.738475525659
 30
0.0
 11
-189.284134201015
 21
198.738475525659
 31
0.0
  0
LINE
  5
1C6
330
3B
100
AcDbEntity
  8
1
  6
Continuous
 62
     7
100
AcDbLine
 10
-189.284134201015
 20
198.738475525659
 30
0.0
 11
-189.284134201015
 21
195.173475525658
 31
0.0
  0
ENDBLK
  5
1E4
330
3B
100
AcDbEntity
  8
0
100
AcDbBlockEnd
  0
BLOCK
  5
3E
330
3D
100
AcDbEntity
  8
0
100
AcDbBlockBegin
  2
WBG_025_F
 70
     0
 10
0.0
 20
0.0
 30
0.0
  3
WBG_025_F
  1

  0
CIRCLE
  5
20A
330
3D
100
AcDbEntity
  8
1
  6
Continuous
 62
     7
100
AcDbCircle
 10
-192.386112869991
 20
196.9799755256589
 30
0.0
 40
2.75
  0
CIRCLE
  5
209
330
3D
100
AcDbEntity
  8
1
  6
Continuous
 62
     7
100
AcDbCircle
 10
-192.386112869991
 20
143.696975525655
 30
0.0
 40
2.75
  0
LINE
  5
208
330
3D
100
AcDbEntity
  8
1
  6
Continuous
 62
     7
100
AcDbLine
 10
-195.061112869991
 20
200.905475525659
 30
0.0
 11
-189.7111128699909
 21
200.905475525659
 31
0.0
  0
LINE
  5
207
330
3D
100
AcDbEntity
  8
1
  6
Continuous
 62
     7
100
AcDbLine
 10
-195.561112869991
 20
200.616800391065
 30
0.0
 11
-195.561112869991
 21
199.5949755256589
 31
0.0
  0
LINE
  5
206
330
3D
100
AcDbEntity
  8
1
  6
Continuous
 62
     7
100
AcDbLine
 10
-195.361112869991
 20
199.39497552566
 30
0.0
 11
-193.701512048946
 21
199.39497552566
 31
0.0
  0
LINE
  5
205
330
3D
100
AcDbEntity
  8
1
  6
Continuous
 62
     7
100
AcDbLine
 10
-195.561112869991
 20
199.5949755256589
 30
0.0
 11
-195.361112869991
 21
199.39497552566
 31
0.0
  0
LINE
  5
204
330
3D
100
AcDbEntity
  8
1
  6
Continuous
 62
     7
100
AcDbLine
 10
-195.561112869991
 20
200.616800391065
 30
0.0
 11
-195.061112869991
 21
200.905475525659
 31
0.0
  0
LINE
  5
203
330
3D
100
AcDbEntity
  8
1
  6
Continuous
 62
     7
100
AcDbLine
 10
-189.7111128699909
 20
200.905475525659
 30
0.0
 11
-189.2111128699909
 21
200.616800391065
 31
0.0
  0
LINE
  5
202
330
3D
100
AcDbEntity
  8
1
  6
Continuous
 62
     7
100
AcDbLine
 10
-189.4111128699909
 20
199.39497552566
 30
0.0
 11
-189.2111128699909
 21
199.5949755256589
 31
0.0
  0
LINE
  5
201
330
3D
100
AcDbEntity
  8
1
  6
Continuous
 62
     7
100
AcDbLine
 10
-191.3627635894419
 20
194.4274755256589
 30
0.0
 11
-189.511112869991
 21
194.4274755256589
 31
0.0
  0
LINE
  5
200
330
3D
100
AcDbEntity
  8
1
  6
Continuous
 62
     7
100
AcDbLine
 10
-195.261112869991
 20
192.940975525657
 30
0.0
 11
-189.511112869991
 21
192.940975525657
 31
0.0
  0
LINE
  5
1FF
330
3D
100
AcDbEntity
  8
1
  6
Continuous
 62
     7
100
AcDbLine
 10
-191.0707136910359
 20
199.39497552566
 30
0.0
 11
-189.4111128699909
 21
199.39497552566
 31
0.0
  0
LINE
  5
1FE
330
3D
100
AcDbEntity
  8
1
  6
Continuous
 62
     7
100
AcDbLine
 10
-189.2111128699909
 20
199.5949755256589
 30
0.0
 11
-189.2111128699909
 21
200.616800391065
 31
0.0
  0
LINE
  5
1FD
330
3D
100
AcDbEntity
  8
1
  6
Continuous
 62
     7
100
AcDbLine
 10
-189.2111128699909
 20
194.12747552566
 30
0.0
 11
-189.2111128699909
 21
193.240975525657
 31
0.0
  0
LINE
  5
1FC
330
3D
100
AcDbEntity
  8
1
  6
Continuous
 62
     7
100
AcDbLine
 10
-189.2111128699909
 20
194.12747552566
 30
0.0
 11
-189.511112869991
 21
194.4274755256589
 31
0.0
  0
LINE
  5
1FB
330
3D
100
AcDbEntity
  8
1
  6
Continuous
 62
     7
100
AcDbLine
 10
-189.2111128699909
 20
193.240975525657
 30
0.0
 11
-189.511112869991
 21
192.940975525657
 31
0.0
  0
LINE
  5
1FA
330
3D
100
AcDbEntity
  8
1
  6
Continuous
 62
     7
100
AcDbLine
 10
-195.261112869991
 20
192.940975525657
 30
0.0
 11
-195.561112869991
 21
193.240975525657
 31
0.0
  0
LINE
  5
1F9
330
3D
100
AcDbEntity
  8
1
  6
Continuous
 62
     7
100
AcDbLine
 10
-195.561112869991
 20
193.240975525657
 30
0.0
 11
-195.561112869991
 21
194.12747552566
 31
0.0
  0
LINE
  5
1F8
330
3D
100
AcDbEntity
  8
1
  6
Continuous
 62
     7
100
AcDbLine
 10
-195.261112869991
 20
194.4274755256589
 30
0.0
 11
-195.561112869991
 21
194.12747552566
 31
0.0
  0
LINE
  5
1F7
330
3D
100
AcDbEntity
  8
1
  6
Continuous
 62
     7
100
AcDbLine
 10
-195.261112869991
 20
194.4274755256589
 30
0.0
 11
-193.40946215054
 21
194.4274755256589
 31
0.0
  0
LINE
  5
1F6
330
3D
100
AcDbEntity
  8
1
  6
Continuous
 62
     7
100
AcDbLine
 10
-193.40946215054
 20
146.249475525655
 30
0.0
 11
-195.261112869991
 21
146.249475525655
 31
0.0
  0
LINE
  5
1F5
330
3D
100
AcDbEntity
  8
1
  6
Continuous
 62
     7
100
AcDbLine
 10
-195.561112869991
 20
146.549475525654
 30
0.0
 11
-195.261112869991
 21
146.249475525655
 31
0.0
  0
LINE
  5
1F4
330
3D
100
AcDbEntity
  8
1
  6
Continuous
 62
     7
100
AcDbLine
 10
-195.561112869991
 20
146.549475525654
 30
0.0
 11
-195.561112869991
 21
147.4359755256569
 31
0.0
  0
LINE
  5
1F3
330
3D
100
AcDbEntity
  8
1
  6
Continuous
 62
     7
100
AcDbLine
 10
-195.561112869991
 20
147.4359755256569
 30
0.0
 11
-195.261112869991
 21
147.735975525657
 31
0.0
  0
LINE
  5
1F2
330
3D
100
AcDbEntity
  8
1
  6
Continuous
 62
     7
100
AcDbLine
 10
-189.511112869991
 20
147.735975525657
 30
0.0
 11
-189.2111128699909
 21
147.4359755256569
 31
0.0
  0
LINE
  5
1F1
330
3D
100
AcDbEntity
  8
1
  6
Continuous
 62
     7
100
AcDbLine
 10
-189.511112869991
 20
146.249475525655
 30
0.0
 11
-189.2111128699909
 21
146.549475525654
 31
0.0
  0
LINE
  5
1F0
330
3D
100
AcDbEntity
  8
1
  6
Continuous
 62
     7
100
AcDbLine
 10
-189.2111128699909
 20
147.4359755256569
 30
0.0
 11
-189.2111128699909
 21
146.549475525654
 31
0.0
  0
LINE
  5
1EF
330
3D
100
AcDbEntity
  8
1
  6
Continuous
 62
     7
100
AcDbLine
 10
-189.2111128699909
 20
140.060150660249
 30
0.0
 11
-189.2111128699909
 21
141.0819755256549
 31
0.0
  0
LINE
  5
1EE
330
3D
100
AcDbEntity
  8
1
  6
Continuous
 62
     7
100
AcDbLine
 10
-189.4111128699909
 20
141.2819755256539
 30
0.0
 11
-191.0707136910359
 21
141.2819755256539
 31
0.0
  0
LINE
  5
1ED
330
3D
100
AcDbEntity
  8
1
  6
Continuous
 62
     7
100
AcDbLine
 10
-189.511112869991
 20
147.735975525657
 30
0.0
 11
-195.261112869991
 21
147.735975525657
 31
0.0
  0
LINE
  5
1EC
330
3D
100
AcDbEntity
  8
1
  6
Continuous
 62
     7
100
AcDbLine
 10
-189.511112869991
 20
146.249475525655
 30
0.0
 11
-191.3627635894419
 21
146.249475525655
 31
0.0
  0
LINE
  5
1EB
330
3D
100
AcDbEntity
  8
1
  6
Continuous
 62
     7
100
AcDbLine
 10
-189.2111128699909
 20
141.0819755256549
 30
0.0
 11
-189.4111128699909
 21
141.2819755256539
 31
0.0
  0
LINE
  5
1EA
330
3D
100
AcDbEntity
  8
1
  6
Continuous
 62
     7
100
AcDbLine
 10
-189.2111128699909
 20
140.060150660249
 30
0.0
 11
-189.7111128699909
 21
139.771475525655
 31
0.0
  0
LINE
  5
1E9
330
3D
100
AcDbEntity
  8
1
  6
Continuous
 62
     7
100
AcDbLine
 10
-195.061112869991
 20
139.771475525655
 30
0.0
 11
-195.561112869991
 21
140.060150660249
 31
0.0
  0
LINE
  5
1E8
330
3D
100
AcDbEntity
  8
1
  6
Continuous
 62
     7
100
AcDbLine
 10
-195.361112869991
 20
141.2819755256539
 30
0.0
 11
-195.561112869991
 21
141.0819755256549
 31
0.0
  0
LINE
  5
1E7
330
3D
100
AcDbEntity
  8
1
  6
Continuous
 62
     7
100
AcDbLine
 10
-193.701512048946
 20
141.2819755256539
 30
0.0
 11
-195.361112869991
 21
141.2819755256539
 31
0.0
  0
LINE
  5
1E6
330
3D
100
AcDbEntity
  8
1
  6
Continuous
 62
     7
100
AcDbLine
 10
-195.561112869991
 20
141.0819755256549
 30
0.0
 11
-195.561112869991
 21
140.060150660249
 31
0.0
  0
LINE
  5
1E5
330
3D
100
AcDbEntity
  8
1
  6
Continuous
 62
     7
100
AcDbLine
 10
-189.7111128699909
 20
139.771475525655
 30
0.0
 11
-195.061112869991
 21
139.771475525655
 31
0.0
  0
INSERT
  5
3F
330
3D
100
AcDbEntity
  8
0
100
AcDbBlockReference
  2
RETAINER
 10
0.0
 20
0.0
 30
0.0
  0
ENDBLK
  5
20B
330
3D
100
AcDbEntity
  8
0
100
AcDbBlockEnd
  0
BLOCK
  5
41
330
40
100
AcDbEntity
  8
0
100
AcDbBlockBegin
  2
HEX_BOLT_TOP__4
 70
     0
 10
0.0
 20
0.0
 30
0.0
  3
HEX_BOLT_TOP__4
  1

  0
CIRCLE
  5
213
330
40
100
AcDbEntity
  8
1
  6
Continuous
 62
     7
100
AcDbCircle
 10
-57.573226544661
 20
170.3384755256579
 30
0.0
 40
1.726794919242999
  0
CIRCLE
  5
212
330
40
100
AcDbEntity
  8
1
  6
Continuous
 62
     7
100
AcDbCircle
 10
-57.573226544661
 20
170.3384755256579
 30
0.0
 40
1.9
  0
LINE
  5
211
330
40
100
AcDbEntity
  8
1
  6
Continuous
 62
     7
100
AcDbLine
 10
-56.823226544661
 20
169.905462823766
 30
0.0
 11
-56.823226544661
 21
170.7714882275499
 31
0.0
  0
LINE
  5
210
330
40
100
AcDbEntity
  8
1
  6
Continuous
 62
     7
100
AcDbLine
 10
-57.573226544661
 20
169.472450121873
 30
0.0
 11
-56.823226544661
 21
169.905462823766
 31
0.0
  0
LINE
  5
20F
330
40
100
AcDbEntity
  8
1
  6
Continuous
 62
     7
100
AcDbLine
 10
-58.323226544661
 20
169.905462823766
 30
0.0
 11
-57.573226544661
 21
169.472450121873
 31
0.0
  0
LINE
  5
20E
330
40
100
AcDbEntity
  8
1
  6
Continuous
 62
     7
100
AcDbLine
 10
-58.323226544661
 20
170.7714882275499
 30
0.0
 11
-58.323226544661
 21
169.905462823766
 31
0.0
  0
LINE
  5
20D
330
40
100
AcDbEntity
  8
1
  6
Continuous
 62
     7
100
AcDbLine
 10
-57.573226544661
 20
171.2045009294419
 30
0.0
 11
-58.323226544661
 21
170.7714882275499
 31
0.0
  0
LINE
  5
20C
330
40
100
AcDbEntity
  8
1
  6
Continuous
 62
     7
100
AcDbLine
 10
-56.823226544661
 20
170.7714882275499
 30
0.0
 11
-57.573226544661
 21
171.2045009294419
 31
0.0
  0
ENDBLK
  5
214
330
40
100
AcDbEntity
  8
0
100
AcDbBlockEnd
  0
BLOCK
  5
43
330
42
100
AcDbEntity
  8
0
100
AcDbBlockBegin
  2
HEX_BOLT_TOP__5
 70
     0
 10
0.0
 20
0.0
 30
0.0
  3
HEX_BOLT_TOP__5
  1

  0
CIRCLE
  5
21C
330
42
100
AcDbEntity
  8
1
  6
Continuous
 62
     7
100
AcDbCircle
 10
-77.32322654466099
 20
204.5464789751429
 30
0.0
 40
1.900000000000999
  0
CIRCLE
  5
21B
330
42
100
AcDbEntity
  8
1
  6
Continuous
 62
     7
100
AcDbCircle
 10
-77.32322654466099
 20
204.5464789751429
 30
0.0
 40
1.726794919242999
  0
LINE
  5
21A
330
42
100
AcDbEntity
  8
1
  6
Continuous
 62
     7
100
AcDbLine
 10
-77.32322654466099
 20
205.4125043789279
 30
0.0
 11
-78.073226544661
 21
204.9794916770359
 31
0.0
  0
LINE
  5
219
330
42
100
AcDbEntity
  8
1
  6
Continuous
 62
     7
100
AcDbLine
 10
-78.073226544661
 20
204.9794916770359
 30
0.0
 11
-78.073226544661
 21
204.1134662732509
 31
0.0
  0
LINE
  5
218
330
42
100
AcDbEntity
  8
1
  6
Continuous
 62
     7
100
AcDbLine
 10
-78.073226544661
 20
204.1134662732509
 30
0.0
 11
-77.32322654466099
 21
203.6804535713589
 31
0.0
  0
LINE
  5
217
330
42
100
AcDbEntity
  8
1
  6
Continuous
 62
     7
100
AcDbLine
 10
-77.32322654466099
 20
203.6804535713589
 30
0.0
 11
-76.57322654466099
 21
204.1134662732509
 31
0.0
  0
LINE
  5
216
330
42
100
AcDbEntity
  8
1
  6
Continuous
 62
     7
100
AcDbLine
 10
-76.57322654466099
 20
204.1134662732509
 30
0.0
 11
-76.57322654466099
 21
204.9794916770359
 31
0.0
  0
LINE
  5
215
330
42
100
AcDbEntity
  8
1
  6
Continuous
 62
     7
100
AcDbLine
 10
-76.57322654466099
 20
204.9794916770359
 30
0.0
 11
-77.32322654466099
 21
205.4125043789279
 31
0.0
  0
ENDBLK
  5
21D
330
42
100
AcDbEntity
  8
0
100
AcDbBlockEnd
  0
BLOCK
  5
45
330
44
100
AcDbEntity
  8
0
100
AcDbBlockBegin
  2
HEX_BOLT_TOP__6
 70
     0
 10
0.0
 20
0.0
 30
0.0
  3
HEX_BOLT_TOP__6
  1

  0
CIRCLE
  5
225
330
44
100
AcDbEntity
  8
1
  6
Continuous
 62
     7
100
AcDbCircle
 10
-116.823226544661
 20
204.5464789751429
 30
0.0
 40
1.726794919243999
  0
CIRCLE
  5
224
330
44
100
AcDbEntity
  8
1
  6
Continuous
 62
     7
100
AcDbCircle
 10
-116.823226544661
 20
204.5464789751429
 30
0.0
 40
1.900000000000999
  0
LINE
  5
223
330
44
100
AcDbEntity
  8
1
  6
Continuous
 62
     7
100
AcDbLine
 10
-116.823226544661
 20
205.4125043789279
 30
0.0
 11
-117.573226544661
 21
204.9794916770359
 31
0.0
  0
LINE
  5
222
330
44
100
AcDbEntity
  8
1
  6
Continuous
 62
     7
100
AcDbLine
 10
-116.073226544661
 20
204.9794916770359
 30
0.0
 11
-116.823226544661
 21
205.4125043789279
 31
0.0
  0
LINE
  5
221
330
44
100
AcDbEntity
  8
1
  6
Continuous
 62
     7
100
AcDbLine
 10
-116.073226544661
 20
204.1134662732509
 30
0.0
 11
-116.073226544661
 21
204.9794916770359
 31
0.0
  0
LINE
  5
220
330
44
100
AcDbEntity
  8
1
  6
Continuous
 62
     7
100
AcDbLine
 10
-116.823226544661
 20
203.6804535713589
 30
0.0
 11
-116.073226544661
 21
204.1134662732509
 31
0.0
  0
LINE
  5
21F
330
44
100
AcDbEntity
  8
1
  6
Continuous
 62
     7
100
AcDbLine
 10
-117.573226544661
 20
204.1134662732509
 30
0.0
 11
-116.823226544661
 21
203.6804535713589
 31
0.0
  0
LINE
  5
21E
330
44
100
AcDbEntity
  8
1
  6
Continuous
 62
     7
100
AcDbLine
 10
-117.573226544661
 20
204.9794916770359
 30
0.0
 11
-117.573226544661
 21
204.1134662732509
 31
0.0
  0
ENDBLK
  5
226
330
44
100
AcDbEntity
  8
0
100
AcDbBlockEnd
  0
BLOCK
  5
47
330
46
100
AcDbEntity
  8
0
100
AcDbBlockBegin
  2
HEX_BOLT_TOP__7
 70
     0
 10
0.0
 20
0.0
 30
0.0
  3
HEX_BOLT_TOP__7
  1

  0
CIRCLE
  5
22E
330
46
100
AcDbEntity
  8
1
  6
Continuous
 62
     7
100
AcDbCircle
 10
-136.5732265446609
 20
170.3384755256579
 30
0.0
 40
1.9
  0
CIRCLE
  5
22D
330
46
100
AcDbEntity
  8
1
  6
Continuous
 62
     7
100
AcDbCircle
 10
-136.5732265446609
 20
170.3384755256579
 30
0.0
 40
1.726794919242999
  0
LINE
  5
22C
330
46
100
AcDbEntity
  8
1
  6
Continuous
 62
     7
100
AcDbLine
 10
-137.323226544661
 20
169.905462823766
 30
0.0
 11
-136.5732265446609
 21
169.472450121874
 31
0.0
  0
LINE
  5
22B
330
46
100
AcDbEntity
  8
1
  6
Continuous
 62
     7
100
AcDbLine
 10
-136.5732265446609
 20
169.472450121874
 30
0.0
 11
-135.8232265446609
 21
169.905462823766
 31
0.0
  0
LINE
  5
22A
330
46
100
AcDbEntity
  8
1
  6
Continuous
 62
     7
100
AcDbLine
 10
-135.8232265446609
 20
169.905462823766
 30
0.0
 11
-135.8232265446609
 21
170.7714882275499
 31
0.0
  0
LINE
  5
229
330
46
100
AcDbEntity
  8
1
  6
Continuous
 62
     7
100
AcDbLine
 10
-135.8232265446609
 20
170.7714882275499
 30
0.0
 11
-136.5732265446609
 21
171.2045009294429
 31
0.0
  0
LINE
  5
228
330
46
100
AcDbEntity
  8
1
  6
Continuous
 62
     7
100
AcDbLine
 10
-136.5732265446609
 20
171.2045009294429
 30
0.0
 11
-137.323226544661
 21
170.7714882275499
 31
0.0
  0
LINE
  5
227
330
46
100
AcDbEntity
  8
1
  6
Continuous
 62
     7
100
AcDbLine
 10
-137.323226544661
 20
170.7714882275499
 30
0.0
 11
-137.323226544661
 21
169.905462823766
 31
0.0
  0
ENDBLK
  5
22F
330
46
100
AcDbEntity
  8
0
100
AcDbBlockEnd
  0
BLOCK
  5
49
330
48
100
AcDbEntity
  8
0
100
AcDbBlockBegin
  2
HEX_BOLT_TOP__8
 70
     0
 10
0.0
 20
0.0
 30
0.0
  3
HEX_BOLT_TOP__8
  1

  0
CIRCLE
  5
237
330
48
100
AcDbEntity
  8
1
  6
Continuous
 62
     7
100
AcDbCircle
 10
-116.823226544661
 20
136.1304720761729
 30
0.0
 40
1.726794919243999
  0
CIRCLE
  5
236
330
48
100
AcDbEntity
  8
1
  6
Continuous
 62
     7
100
AcDbCircle
 10
-116.823226544661
 20
136.1304720761729
 30
0.0
 40
1.900000000000999
  0
LINE
  5
235
330
48
100
AcDbEntity
  8
1
  6
Continuous
 62
     7
100
AcDbLine
 10
-117.573226544661
 20
135.69745937428
 30
0.0
 11
-116.823226544661
 21
135.264446672388
 31
0.0
  0
LINE
  5
234
330
48
100
AcDbEntity
  8
1
  6
Continuous
 62
     7
100
AcDbLine
 10
-117.573226544661
 20
136.563484778065
 30
0.0
 11
-117.573226544661
 21
135.69745937428
 31
0.0
  0
LINE
  5
233
330
48
100
AcDbEntity
  8
1
  6
Continuous
 62
     7
100
AcDbLine
 10
-116.823226544661
 20
136.996497479957
 30
0.0
 11
-117.573226544661
 21
136.563484778065
 31
0.0
  0
LINE
  5
232
330
48
100
AcDbEntity
  8
1
  6
Continuous
 62
     7
100
AcDbLine
 10
-116.073226544661
 20
136.563484778065
 30
0.0
 11
-116.823226544661
 21
136.996497479957
 31
0.0
  0
LINE
  5
231
330
48
100
AcDbEntity
  8
1
  6
Continuous
 62
     7
100
AcDbLine
 10
-116.073226544661
 20
135.69745937428
 30
0.0
 11
-116.073226544661
 21
136.563484778065
 31
0.0
  0
LINE
  5
230
330
48
100
AcDbEntity
  8
1
  6
Continuous
 62
     7
100
AcDbLine
 10
-116.823226544661
 20
135.264446672388
 30
0.0
 11
-116.073226544661
 21
135.69745937428
 31
0.0
  0
ENDBLK
  5
238
330
48
100
AcDbEntity
  8
0
100
AcDbBlockEnd
  0
BLOCK
  5
4B
330
4A
100
AcDbEntity
  8
0
100
AcDbBlockBegin
  2
HEX_BOLT_TOP__9
 70
     0
 10
0.0
 20
0.0
 30
0.0
  3
HEX_BOLT_TOP__9
  1

  0
CIRCLE
  5
240
330
4A
100
AcDbEntity
  8
1
  6
Continuous
 62
     7
100
AcDbCircle
 10
-77.32322654466099
 20
136.1304720761729
 30
0.0
 40
1.900000000000999
  0
CIRCLE
  5
23F
330
4A
100
AcDbEntity
  8
1
  6
Continuous
 62
     7
100
AcDbCircle
 10
-77.32322654466099
 20
136.1304720761729
 30
0.0
 40
1.726794919242999
  0
LINE
  5
23E
330
4A
100
AcDbEntity
  8
1
  6
Continuous
 62
     7
100
AcDbLine
 10
-76.57322654466099
 20
135.697459374281
 30
0.0
 11
-76.57322654466099
 21
136.563484778065
 31
0.0
  0
LINE
  5
23D
330
4A
100
AcDbEntity
  8
1
  6
Continuous
 62
     7
100
AcDbLine
 10
-76.57322654466099
 20
136.563484778065
 30
0.0
 11
-77.32322654466099
 21
136.996497479958
 31
0.0
  0
LINE
  5
23C
330
4A
100
AcDbEntity
  8
1
  6
Continuous
 62
     7
100
AcDbLine
 10
-77.32322654466099
 20
136.996497479958
 30
0.0
 11
-78.073226544661
 21
136.563484778065
 31
0.0
  0
LINE
  5
23B
330
4A
100
AcDbEntity
  8
1
  6
Continuous
 62
     7
100
AcDbLine
 10
-78.073226544661
 20
136.563484778065
 30
0.0
 11
-78.073226544661
 21
135.69745937428
 31
0.0
  0
LINE
  5
23A
330
4A
100
AcDbEntity
  8
1
  6
Continuous
 62
     7
100
AcDbLine
 10
-78.073226544661
 20
135.69745937428
 30
0.0
 11
-77.32322654466099
 21
135.264446672388
 31
0.0
  0
LINE
  5
239
330
4A
100
AcDbEntity
  8
1
  6
Continuous
 62
     7
100
AcDbLine
 10
-77.32322654466099
 20
135.264446672388
 30
0.0
 11
-76.57322654466099
 21
135.697459374281
 31
0.0
  0
ENDBLK
  5
241
330
4A
100
AcDbEntity
  8
0
100
AcDbBlockEnd
  0
BLOCK
  5
36A
330
367
100
AcDbEntity
  8
0
100
AcDbBlockBegin
  2
NTC
 70
     0
 10
0.0
 20
0.0
 30
0.0
  3
NTC
  1

  0
LWPOLYLINE
  5
368
330
367
100
AcDbEntity
  8
0
100
AcDbPolyline
 90
        8
 70
     1
 43
0.0
 10
4.581008201925953
 20
-10.78862239032818
 10
319.3921777697513
 20
-10.78862239032818
 42
-0.4142135623730951
 10
324.9046777697513
 20
-16.30112239032816
 10
324.9046777697513
 20
-117.4075202476924
 42
-0.4142135623730951
 10
319.3921777697513
 20
-122.9200202476925
 10
4.581008201925837
 20
-122.9200202476925
 42
-0.4142135623730951
 10
-0.9314917980741483
 20
-117.4075202476924
 10
-0.9314917980740915
 20
-16.30112239032816
 42
-0.4142135623730951
  0
MTEXT
  5
369
330
367
100
AcDbEntity
  8
0
  6
Continuous
370
    30
100
AcDbMText
 10
21.65307678143926
 20
-17.4535155144544
 30
0.0
 40
8.75
 41
294.5432999999998
 71
     1
 72
     5
  3
{\fTxt|b1|i0|c0|p2;Notice:\P\Ftxt.shx;\H0.5714x;All specifications and dimensions shown in the drawing are subject to change without notice. This drawing is the property of Harmonic Drive LLC.   This data is believed to be accurate, however, Harmonic
  1
 Drive LLC assumes no liability for any errors or omissions in the specifications, models, or drawings.\P\PHarmonic Drive LLC\PTel: 800-921-3332\Pwww.harmonicdrive.net}
 73
     1
 44
1.0
  0
ENDBLK
  5
36B
330
367
100
AcDbEntity
  8
0
100
AcDbBlockEnd
  0
BLOCK
  5
376
330
373
100
AcDbEntity
  8
0
 62
     7
100
AcDbBlockBegin
  2
AI9-BLK14
 70
     0
 10
0.0
 20
0.0
 30
0.0
  3
AI9-BLK14
  1

  0
SPLINE
  5
374
330
373
100
AcDbEntity
  8
LAYER_1
 62
     7
100
AcDbSpline
210
0.0
220
0.0
230
1.0
 70
    11
 71
     3
 72
    23
 73
    19
 74
     0
 42
0.0000000001
 43
0.0000000001
 40
0.0
 40
0.0
 40
0.0
 40
0.0
 40
1.0
 40
1.0
 40
1.0
 40
2.0
 40
2.0
 40
2.0
 40
3.0
 40
3.0
 40
3.0
 40
4.0
 40
4.0
 40
4.0
 40
5.0
 40
5.0
 40
5.0
 40
6.0
 40
6.0
 40
6.0
 40
6.0
 10
-10.90321044921874
 20
10.88107571072048
 30
0.0
 10
-10.90321044921874
 20
10.88107571072048
 30
0.0
 10
-10.90321044921874
 20
-10.88107571072048
 30
0.0
 10
-10.90321044921874
 20
-10.88107571072048
 30
0.0
 10
-10.90321044921874
 20
-10.88107571072048
 30
0.0
 10
1.752692328559025
 20
-10.88107571072048
 30
0.0
 10
1.752692328559025
 20
-10.88107571072048
 30
0.0
 10
3.280592176649305
 20
-10.88107571072048
 30
0.0
 10
10.90321044921874
 20
-10.32383151584201
 30
0.0
 10
10.90321044921874
 20
0.6792867024739583
 30
0.0
 10
10.90321044921874
 20
10.61700914171006
 30
0.0
 10
2.773129611545138
 20
10.87952541775172
 30
0.0
 10
2.691136338975693
 20
10.88090345594618
 30
0.0
 10
2.691136338975693
 20
10.88090345594618
 30
0.0
 10
-9.903099229600693
 20
10.88107571072048
 30
0.0
 10
-9.903099229600693
 20
10.88107571072048
 30
0.0
 10
-9.903099229600693
 20
10.88107571072048
 30
0.0
 10
-10.90321044921874
 20
10.88107571072048
 30
0.0
 10
-10.90321044921874
 20
10.88107571072048
 30
0.0
  0
SPLINE
  5
375
330
373
100
AcDbEntity
  8
LAYER_1
 62
     7
100
AcDbSpline
210
0.0
220
0.0
230
1.0
 70
    11
 71
     3
 72
    20
 73
    16
 74
     0
 42
0.0000000001
 43
0.0000000001
 40
0.0
 40
0.0
 40
0.0
 40
0.0
 40
1.0
 40
1.0
 40
1.0
 40
2.0
 40
2.0
 40
2.0
 40
3.0
 40
3.0
 40
3.0
 40
4.0
 40
4.0
 40
4.0
 40
5.0
 40
5.0
 40
5.0
 40
5.0
 10
2.672877332899305
 20
8.881197781032986
 30
0.0
 10
2.905421278211805
 20
8.874307590060762
 30
0.0
 10
8.902988009982637
 20
8.616442192925347
 30
0.0
 10
8.902988009982637
 20
0.6792867024739583
 30
0.0
 10
8.902988009982637
 20
-8.191661919487842
 30
0.0
 10
3.430109320746526
 20
-8.881197781032986
 30
0.0
 10
1.752692328559025
 20
-8.881197781032986
 30
0.0
 10
1.752692328559025
 20
-8.881197781032986
 30
0.0
 10
-7.231427680121528
 20
-8.881197781032986
 30
0.0
 10
-8.902988009982637
 20
-8.881197781032986
 30
0.0
 10
-8.902988009982637
 20
-7.174497477213541
 30
0.0
 10
-8.902988009982637
 20
7.174497477213541
 30
0.0
 10
-8.902988009982637
 20
8.881197781032986
 30
0.0
 10
-7.208690049913191
 20
8.881197781032986
 30
0.0
 10
2.672877332899305
 20
8.881197781032986
 30
0.0
 10
2.672877332899305
 20
8.881197781032986
 30
0.0
  0
ENDBLK
  5
377
330
373
100
AcDbEntity
  8
0
100
AcDbBlockEnd
  0
BLOCK
  5
37B
330
378
100
AcDbEntity
  8
0
 62
     7
100
AcDbBlockBegin
  2
AI9-BLK13
 70
     0
 10
0.0
 20
0.0
 30
0.0
  3
AI9-BLK13
  1

  0
LWPOLYLINE
  5
379
330
378
100
AcDbEntity
  8
LAYER_1
 62
     7
100
AcDbPolyline
 90
       12
 70
     1
 43
0.0
 10
-3.792361111111107
 20
10.7376736111111
 10
-2.469444444444443
 20
10.7376736111111
 10
-2.469444444444443
 20
1.874131944444444
 10
2.469444444444443
 20
1.874131944444444
 10
2.469444444444443
 20
10.7376736111111
 10
3.792361111111107
 20
10.7376736111111
 10
3.792361111111107
 20
-10.7376736111111
 10
2.469444444444443
 20
-10.7376736111111
 10
2.469444444444443
 20
-0.6835069444444444
 10
-2.469444444444443
 20
-0.6835069444444444
 10
-2.469444444444443
 20
-10.7376736111111
 10
-3.792361111111107
 20
-10.7376736111111
  0
HATCH
  5
37A
330
378
100
AcDbEntity
  8
LAYER_1
 62
     7
100
AcDbHatch
 10
0.0
 20
0.0
 30
0.0
210
0.0
220
0.0
230
1.0
  2
SOLID
 70
     1
 71
     0
 91
        1
 92
        3
 72
     0
 73
     1
 93
       12
 10
-3.792361111111107
 20
10.7376736111111
 10
-2.469444444444443
 20
10.7376736111111
 10
-2.469444444444443
 20
1.874131944444444
 10
2.469444444444443
 20
1.874131944444444
 10
2.469444444444443
 20
10.7376736111111
 10
3.792361111111107
 20
10.7376736111111
 10
3.792361111111107
 20
-10.7376736111111
 10
2.469444444444443
 20
-10.7376736111111
 10
2.469444444444443
 20
-0.6835069444444444
 10
-2.469444444444443
 20
-0.6835069444444444
 10
-2.469444444444443
 20
-10.7376736111111
 10
-3.792361111111107
 20
-10.7376736111111
 97
        0
 75
     2
 76
     1
 98
        1
 10
0.0
 20
0.0
  0
ENDBLK
  5
37C
330
378
100
AcDbEntity
  8
0
100
AcDbBlockEnd
  0
BLOCK
  5
380
330
37D
100
AcDbEntity
  8
0
 62
     7
100
AcDbBlockBegin
  2
AI9-BLK11
 70
     0
 10
0.0
 20
0.0
 30
0.0
  3
AI9-BLK11
  1

  0
SPLINE
  5
37E
330
37D
100
AcDbEntity
  8
LAYER_1
 62
     7
100
AcDbSpline
210
0.0
220
0.0
230
1.0
 70
    11
 71
     3
 72
    26
 73
    22
 74
     0
 42
0.0000000001
 43
0.0000000001
 40
0.0
 40
0.0
 40
0.0
 40
0.0
 40
1.0
 40
1.0
 40
1.0
 40
2.0
 40
2.0
 40
2.0
 40
3.0
 40
3.0
 40
3.0
 40
4.0
 40
4.0
 40
4.0
 40
5.0
 40
5.0
 40
5.0
 40
6.0
 40
6.0
 40
6.0
 40
7.0
 40
7.0
 40
7.0
 40
7.0
 10
-2.645833333333333
 20
0.9039930555555551
 30
0.0
 10
-2.645833333333333
 20
0.9039930555555551
 30
0.0
 10
-2.645833333333333
 20
8.180034722222217
 30
0.0
 10
-2.645833333333333
 20
8.180034722222217
 30
0.0
 10
-2.645833333333333
 20
8.180034722222217
 30
0.0
 10
0.465087890625
 20
8.180034722222217
 30
0.0
 10
0.465087890625
 20
8.180034722222217
 30
0.0
 10
0.9026150173611108
 20
8.180034722222217
 30
0.0
 10
1.24988064236111
 20
8.034651692708331
 30
0.0
 10
1.506884765625
 20
7.745263671874997
 30
0.0
 10
2.001600477430554
 20
7.194048394097221
 30
0.0
 10
2.248958333333332
 20
6.160519748263887
 30
0.0
 10
2.248958333333332
 20
4.643299696180553
 30
0.0
 10
2.248958333333332
 20
3.232188585069443
 30
0.0
 10
2.072569444444444
 20
2.256537543402775
 30
0.0
 10
1.720480685763888
 20
1.715657552083333
 30
0.0
 10
1.368391927083333
 20
1.174088541666665
 30
0.0
 10
0.8929687499999998
 20
0.9039930555555551
 30
0.0
 10
0.2942111545138888
 20
0.9039930555555551
 30
0.0
 10
0.2942111545138888
 20
0.9039930555555551
 30
0.0
 10
-2.645833333333333
 20
0.9039930555555551
 30
0.0
 10
-2.645833333333333
 20
0.9039930555555551
 30
0.0
  0
SPLINE
  5
37F
330
37D
100
AcDbEntity
  8
LAYER_1
 62
     7
100
AcDbSpline
210
0.0
220
0.0
230
1.0
 70
    11
 71
     3
 72
    68
 73
    64
 74
     0
 42
0.0000000001
 43
0.0000000001
 40
0.0
 40
0.0
 40
0.0
 40
0.0
 40
1.0
 40
1.0
 40
1.0
 40
2.0
 40
2.0
 40
2.0
 40
3.0
 40
3.0
 40
3.0
 40
4.0
 40
4.0
 40
4.0
 40
5.0
 40
5.0
 40
5.0
 40
6.0
 40
6.0
 40
6.0
 40
7.0
 40
7.0
 40
7.0
 40
8.0
 40
8.0
 40
8.0
 40
9.0
 40
9.0
 40
9.0
 40
10.0
 40
10.0
 40
10.0
 40
11.0
 40
11.0
 40
11.0
 40
12.0
 40
12.0
 40
12.0
 40
13.0
 40
13.0
 40
13.0
 40
14.0
 40
14.0
 40
14.0
 40
15.0
 40
15.0
 40
15.0
 40
16.0
 40
16.0
 40
16.0
 40
17.0
 40
17.0
 40
17.0
 40
18.0
 40
18.0
 40
18.0
 40
19.0
 40
19.0
 40
19.0
 40
20.0
 40
20.0
 40
20.0
 40
21.0
 40
21.0
 40
21.0
 40
21.0
 10
-3.968749999999998
 20
-10.7376736111111
 30
0.0
 10
-3.968749999999998
 20
-10.7376736111111
 30
0.0
 10
-2.645833333333333
 20
-10.7376736111111
 30
0.0
 10
-2.645833333333333
 20
-10.7376736111111
 30
0.0
 10
-2.645833333333333
 20
-10.7376736111111
 30
0.0
 10
-2.645833333333333
 20
-1.521354166666665
 30
0.0
 10
-2.645833333333333
 20
-1.521354166666665
 30
0.0
 10
-2.645833333333333
 20
-1.521354166666665
 30
0.0
 10
0.2390896267361111
 20
-1.521354166666665
 30
0.0
 10
0.2390896267361111
 20
-1.521354166666665
 30
0.0
 10
0.7599880642361111
 20
-1.521354166666665
 30
0.0
 10
1.143771701388887
 20
-1.65295681423611
 30
0.0
 10
1.390440538194444
 20
-1.916162109374999
 30
0.0
 10
1.816254340277773
 20
-2.39434136284722
 30
0.0
 10
2.04363064236111
 20
-3.335541449652775
 30
0.0
 10
2.072569444444444
 20
-4.739762369791666
 30
0.0
 10
2.072569444444444
 20
-4.739762369791666
 30
0.0
 10
2.160763888888888
 20
-8.324039713541665
 30
0.0
 10
2.160763888888888
 20
-8.324039713541665
 30
0.0
 10
2.18005642361111
 20
-9.163264973958332
 30
0.0
 10
2.202794053819443
 20
-9.728949652777775
 30
0.0
 10
2.227598741319444
 20
-10.02109374999998
 30
0.0
 10
2.252403428819443
 20
-10.31392686631944
 30
0.0
 10
2.28892144097222
 20
-10.55301649305555
 30
0.0
 10
2.33853081597222
 20
-10.7376736111111
 30
0.0
 10
2.33853081597222
 20
-10.7376736111111
 30
0.0
 10
3.968749999999998
 20
-10.7376736111111
 30
0.0
 10
3.968749999999998
 20
-10.7376736111111
 30
0.0
 10
3.968749999999998
 20
-10.7376736111111
 30
0.0
 10
3.968749999999998
 20
-10.25260416666666
 30
0.0
 10
3.968749999999998
 20
-10.25260416666666
 30
0.0
 10
3.766867404513888
 20
-10.05830078125
 30
0.0
 10
3.625618489583333
 20
-9.621462673611112
 30
0.0
 10
3.545692274305555
 20
-8.942089843749997
 30
0.0
 10
3.49470486111111
 20
-8.543836805555555
 30
0.0
 10
3.459564887152775
 20
-7.937499999999999
 30
0.0
 10
3.439583333333333
 20
-7.121701388888887
 30
0.0
 10
3.439583333333333
 20
-7.121701388888887
 30
0.0
 10
3.395486111111106
 20
-4.232644314236106
 30
0.0
 10
3.395486111111106
 20
-4.232644314236106
 30
0.0
 10
3.375504557291666
 20
-2.981385633680555
 30
0.0
 10
3.26870659722222
 20
-2.077392578125
 30
0.0
 10
3.075781249999999
 20
-1.522043185763888
 30
0.0
 10
2.882166883680555
 20
-0.9666937934027776
 30
0.0
 10
2.592089843749999
 20
-0.5188313802083333
 30
0.0
 10
2.204861111111105
 20
-0.1770779079861111
 30
0.0
 10
2.63618706597222
 20
0.3197048611111111
 30
0.0
 10
2.971739366319443
 20
0.9770290798611107
 30
0.0
 10
3.211518012152775
 20
1.79558376736111
 30
0.0
 10
3.451296657986107
 20
2.613449435763888
 30
0.0
 10
3.571874999999999
 20
3.66558159722222
 30
0.0
 10
3.571874999999999
 20
4.951291232638888
 30
0.0
 10
3.571874999999999
 20
7.415912543402777
 30
0.0
 10
3.124701605902775
 20
9.106076388888887
 30
0.0
 10
2.231043836805555
 20
10.02178276909722
 30
0.0
 10
1.759754774305553
 20
10.498583984375
 30
0.0
 10
1.163753255208332
 20
10.7376736111111
 30
0.0
 10
0.443039279513889
 20
10.7376736111111
 30
0.0
 10
0.443039279513889
 20
10.7376736111111
 30
0.0
 10
-3.968749999999998
 20
10.7376736111111
 30
0.0
 10
-3.968749999999998
 20
10.7376736111111
 30
0.0
 10
-3.968749999999998
 20
10.7376736111111
 30
0.0
 10
-3.968749999999998
 20
-10.7376736111111
 30
0.0
 10
-3.968749999999998
 20
-10.7376736111111
 30
0.0
  0
ENDBLK
  5
381
330
37D
100
AcDbEntity
  8
0
100
AcDbBlockEnd
  0
BLOCK
  5
384
330
382
100
AcDbEntity
  8
0
 62
     7
100
AcDbBlockBegin
  2
AI9-BLK10
 70
     0
 10
0.0
 20
0.0
 30
0.0
  3
AI9-BLK10
  1

  0
SPLINE
  5
383
330
382
100
AcDbEntity
  8
LAYER_1
 62
     7
100
AcDbSpline
210
0.0
220
0.0
230
1.0
 70
    11
 71
     3
 72
    59
 73
    55
 74
     0
 42
0.0000000001
 43
0.0000000001
 40
0.0
 40
0.0
 40
0.0
 40
0.0
 40
1.0
 40
1.0
 40
1.0
 40
2.0
 40
2.0
 40
2.0
 40
3.0
 40
3.0
 40
3.0
 40
4.0
 40
4.0
 40
4.0
 40
5.0
 40
5.0
 40
5.0
 40
6.0
 40
6.0
 40
6.0
 40
7.0
 40
7.0
 40
7.0
 40
8.0
 40
8.0
 40
8.0
 40
9.0
 40
9.0
 40
9.0
 40
10.0
 40
10.0
 40
10.0
 40
11.0
 40
11.0
 40
11.0
 40
12.0
 40
12.0
 40
12.0
 40
13.0
 40
13.0
 40
13.0
 40
14.0
 40
14.0
 40
14.0
 40
15.0
 40
15.0
 40
15.0
 40
16.0
 40
16.0
 40
16.0
 40
17.0
 40
17.0
 40
17.0
 40
18.0
 40
18.0
 40
18.0
 40
18.0
 10
-4.652256944444443
 20
10.7376736111111
 30
0.0
 10
-4.652256944444443
 20
10.7376736111111
 30
0.0
 10
-2.798795572916666
 20
10.7376736111111
 30
0.0
 10
-2.798795572916666
 20
10.7376736111111
 30
0.0
 10
-2.798795572916666
 20
10.7376736111111
 30
0.0
 10
0.0
 20
-7.419357638888887
 30
0.0
 10
0.0
 20
-7.419357638888887
 30
0.0
 10
0.0
 20
-7.419357638888887
 30
0.0
 10
2.793283420138888
 20
10.7376736111111
 30
0.0
 10
2.793283420138888
 20
10.7376736111111
 30
0.0
 10
2.793283420138888
 20
10.7376736111111
 30
0.0
 10
4.652256944444443
 20
10.7376736111111
 30
0.0
 10
4.652256944444443
 20
10.7376736111111
 30
0.0
 10
4.652256944444443
 20
10.7376736111111
 30
0.0
 10
4.652256944444443
 20
-10.7376736111111
 30
0.0
 10
4.652256944444443
 20
-10.7376736111111
 30
0.0
 10
4.652256944444443
 20
-10.7376736111111
 30
0.0
 10
3.41753472222222
 20
-10.7376736111111
 30
0.0
 10
3.41753472222222
 20
-10.7376736111111
 30
0.0
 10
3.41753472222222
 20
-10.7376736111111
 30
0.0
 10
3.41753472222222
 20
1.936832682291665
 30
0.0
 10
3.41753472222222
 20
1.936832682291665
 30
0.0
 10
3.41753472222222
 20
2.375048828124999
 30
0.0
 10
3.424424913194443
 20
3.101274956597221
 30
0.0
 10
3.439583333333333
 20
4.11482204861111
 30
0.0
 10
3.454052734374998
 20
5.128369140624998
 30
0.0
 10
3.461631944444443
 20
6.214952256944441
 30
0.0
 10
3.461631944444443
 20
7.375260416666666
 30
0.0
 10
3.461631944444443
 20
7.375260416666666
 30
0.0
 10
0.6538791232638889
 20
-10.7376736111111
 30
0.0
 10
0.6538791232638889
 20
-10.7376736111111
 30
0.0
 10
0.6538791232638889
 20
-10.7376736111111
 30
0.0
 10
-0.6628363715277778
 20
-10.7376736111111
 30
0.0
 10
-0.6628363715277778
 20
-10.7376736111111
 30
0.0
 10
-0.6628363715277778
 20
-10.7376736111111
 30
0.0
 10
-3.461631944444443
 20
7.375260416666666
 30
0.0
 10
-3.461631944444443
 20
7.375260416666666
 30
0.0
 10
-3.461631944444443
 20
7.375260416666666
 30
0.0
 10
-3.461631944444443
 20
6.717247178819441
 30
0.0
 10
-3.461631944444443
 20
6.717247178819441
 30
0.0
 10
-3.461631944444443
 20
6.190836588541666
 30
0.0
 10
-3.45474175347222
 20
5.389507378472222
 30
0.0
 10
-3.439583333333333
 20
4.312570529513888
 30
0.0
 10
-3.425113932291666
 20
3.235633680555555
 30
0.0
 10
-3.41753472222222
 20
2.44395073784722
 30
0.0
 10
-3.41753472222222
 20
1.936832682291665
 30
0.0
 10
-3.41753472222222
 20
1.936832682291665
 30
0.0
 10
-3.41753472222222
 20
-10.7376736111111
 30
0.0
 10
-3.41753472222222
 20
-10.7376736111111
 30
0.0
 10
-3.41753472222222
 20
-10.7376736111111
 30
0.0
 10
-4.652256944444443
 20
-10.7376736111111
 30
0.0
 10
-4.652256944444443
 20
-10.7376736111111
 30
0.0
 10
-4.652256944444443
 20
-10.7376736111111
 30
0.0
 10
-4.652256944444443
 20
10.7376736111111
 30
0.0
 10
-4.652256944444443
 20
10.7376736111111
 30
0.0
  0
ENDBLK
  5
385
330
382
100
AcDbEntity
  8
0
100
AcDbBlockEnd
  0
BLOCK
  5
389
330
386
100
AcDbEntity
  8
0
 62
     7
100
AcDbBlockBegin
  2
AI9-BLK9
 70
     0
 10
0.0
 20
0.0
 30
0.0
  3
AI9-BLK9
  1

  0
SPLINE
  5
387
330
386
100
AcDbEntity
  8
LAYER_1
 62
     7
100
AcDbSpline
210
0.0
220
0.0
230
1.0
 70
    11
 71
     3
 72
    29
 73
    25
 74
     0
 42
0.0000000001
 43
0.0000000001
 40
0.0
 40
0.0
 40
0.0
 40
0.0
 40
1.0
 40
1.0
 40
1.0
 40
2.0
 40
2.0
 40
2.0
 40
3.0
 40
3.0
 40
3.0
 40
4.0
 40
4.0
 40
4.0
 40
5.0
 40
5.0
 40
5.0
 40
6.0
 40
6.0
 40
6.0
 40
7.0
 40
7.0
 40
7.0
 40
8.0
 40
8.0
 40
8.0
 40
8.0
 10
0.0668348524305556
 20
-8.753298611111111
 30
0.0
 10
-0.9067491319444444
 20
-8.753298611111111
 30
0.0
 10
-1.60954861111111
 20
-7.936810980902778
 30
0.0
 10
-2.041563585069444
 20
-6.30383572048611
 30
0.0
 10
-2.474267578124999
 20
-4.670860460069443
 30
0.0
 10
-2.689930555555555
 20
-2.664436848958333
 30
0.0
 10
-2.689930555555555
 20
-0.28525390625
 30
0.0
 10
-2.689930555555555
 20
2.68855251736111
 30
0.0
 10
-2.439127604166666
 20
4.938199869791666
 30
0.0
 10
-1.937521701388888
 20
6.464377170138886
 30
0.0
 10
-1.43591579861111
 20
7.989865451388887
 30
0.0
 10
-0.7827256944444444
 20
8.753298611111111
 30
0.0
 10
0.0220486111111111
 20
8.753298611111111
 30
0.0
 10
0.8468044704861108
 20
8.753298611111111
 30
0.0
 10
1.49792751736111
 20
7.982975260416663
 30
0.0
 10
1.974728732638888
 20
6.442328559027776
 30
0.0
 10
2.451529947916665
 20
4.901681857638886
 30
0.0
 10
2.689930555555555
 20
2.868386501736111
 30
0.0
 10
2.689930555555555
 20
0.3438205295138888
 30
0.0
 10
2.689930555555555
 20
-2.045697699652774
 30
0.0
 10
2.483224826388884
 20
-4.15891927083333
 30
0.0
 10
2.071191406249999
 20
-5.996533203124998
 30
0.0
 10
1.65915798611111
 20
-7.834836154513887
 30
0.0
 10
0.9908094618055557
 20
-8.753298611111111
 30
0.0
 10
0.0668348524305556
 20
-8.753298611111111
 30
0.0
  0
SPLINE
  5
388
330
386
100
AcDbEntity
  8
LAYER_1
 62
     7
100
AcDbSpline
210
0.0
220
0.0
230
1.0
 70
    11
 71
     3
 72
    29
 73
    25
 74
     0
 42
0.0000000001
 43
0.0000000001
 40
0.0
 40
0.0
 40
0.0
 40
0.0
 40
1.0
 40
1.0
 40
1.0
 40
2.0
 40
2.0
 40
2.0
 40
3.0
 40
3.0
 40
3.0
 40
4.0
 40
4.0
 40
4.0
 40
5.0
 40
5.0
 40
5.0
 40
6.0
 40
6.0
 40
6.0
 40
7.0
 40
7.0
 40
7.0
 40
8.0
 40
8.0
 40
8.0
 40
8.0
 10
-0.0289388020833333
 20
11.35503472222222
 30
0.0
 10
-1.317404513888887
 20
11.35503472222222
 30
0.0
 10
-2.28892144097222
 20
10.02798394097222
 30
0.0
 10
-2.94280056423611
 20
7.374571397569441
 30
0.0
 10
-3.450607638888888
 20
5.30613606770833
 30
0.0
 10
-3.704166666666666
 20
2.81877712673611
 30
0.0
 10
-3.704166666666666
 20
-0.0881944444444445
 30
0.0
 10
-3.704166666666666
 20
-3.307291666666666
 30
0.0
 10
-3.406510416666666
 20
-5.97035047743055
 30
0.0
 10
-2.811197916666666
 20
-8.077370876736106
 30
0.0
 10
-2.147672526041664
 20
-10.26293945312499
 30
0.0
 10
-1.229899088541666
 20
-11.35503472222222
 30
0.0
 10
-0.0585666232638889
 20
-11.35503472222222
 30
0.0
 10
1.20027126736111
 20
-11.35503472222222
 30
0.0
 10
2.166276041666665
 20
-10.10653211805555
 30
0.0
 10
2.840136718749998
 20
-7.609526909722221
 30
0.0
 10
3.416156684027776
 20
-5.483213975694441
 30
0.0
 10
3.704166666666666
 20
-2.814643012152775
 30
0.0
 10
3.704166666666666
 20
0.3948079427083333
 30
0.0
 10
3.704166666666666
 20
3.360346137152776
 30
0.0
 10
3.449918619791666
 20
5.793961588541666
 30
0.0
 10
2.94280056423611
 20
7.696343315972222
 30
0.0
 10
2.298567708333333
 20
10.13547092013888
 30
0.0
 10
1.307758246527777
 20
11.35503472222222
 30
0.0
 10
-0.0289388020833333
 20
11.35503472222222
 30
0.0
  0
ENDBLK
  5
38A
330
386
100
AcDbEntity
  8
0
100
AcDbBlockEnd
  0
BLOCK
  5
38E
330
38B
100
AcDbEntity
  8
0
 62
     7
100
AcDbBlockBegin
  2
AI9-BLK8
 70
     0
 10
0.0
 20
0.0
 30
0.0
  3
AI9-BLK8
  1

  0
LWPOLYLINE
  5
38C
330
38B
100
AcDbEntity
  8
LAYER_1
 62
     7
100
AcDbPolyline
 90
       10
 70
     1
 43
0.0
 10
-3.792361111111107
 20
10.7376736111111
 10
-2.268939887152773
 20
10.7376736111111
 10
2.557638888888888
 20
-6.505718315972222
 10
2.557638888888888
 20
10.7376736111111
 10
3.792361111111107
 20
10.7376736111111
 10
3.792361111111107
 20
-10.7376736111111
 10
2.32612847222222
 20
-10.7376736111111
 10
-2.557638888888888
 20
6.549815538194441
 10
-2.557638888888888
 20
-10.7376736111111
 10
-3.792361111111107
 20
-10.7376736111111
  0
HATCH
  5
38D
330
38B
100
AcDbEntity
  8
LAYER_1
 62
     7
100
AcDbHatch
 10
0.0
 20
0.0
 30
0.0
210
0.0
220
0.0
230
1.0
  2
SOLID
 70
     1
 71
     0
 91
        1
 92
        3
 72
     0
 73
     1
 93
       10
 10
-3.792361111111107
 20
10.7376736111111
 10
-2.268939887152773
 20
10.7376736111111
 10
2.557638888888888
 20
-6.505718315972222
 10
2.557638888888888
 20
10.7376736111111
 10
3.792361111111107
 20
10.7376736111111
 10
3.792361111111107
 20
-10.7376736111111
 10
2.32612847222222
 20
-10.7376736111111
 10
-2.557638888888888
 20
6.549815538194441
 10
-2.557638888888888
 20
-10.7376736111111
 10
-3.792361111111107
 20
-10.7376736111111
 97
        0
 75
     2
 76
     1
 98
        1
 10
0.0
 20
0.0
  0
ENDBLK
  5
38F
330
38B
100
AcDbEntity
  8
0
100
AcDbBlockEnd
  0
BLOCK
  5
393
330
390
100
AcDbEntity
  8
0
 62
     7
100
AcDbBlockBegin
  2
AI9-BLK7
 70
     0
 10
0.0
 20
0.0
 30
0.0
  3
AI9-BLK7
  1

  0
LWPOLYLINE
  5
391
330
390
100
AcDbEntity
  8
LAYER_1
 62
     7
100
AcDbPolyline
 90
        4
 70
     1
 43
0.0
 10
-0.6614583333333333
 20
10.7376736111111
 10
0.6614583333333333
 20
10.7376736111111
 10
0.6614583333333333
 20
-10.7376736111111
 10
-0.6614583333333333
 20
-10.7376736111111
  0
HATCH
  5
392
330
390
100
AcDbEntity
  8
LAYER_1
 62
     7
100
AcDbHatch
 10
0.0
 20
0.0
 30
0.0
210
0.0
220
0.0
230
1.0
  2
SOLID
 70
     1
 71
     0
 91
        1
 92
        3
 72
     0
 73
     1
 93
        4
 10
-0.6614583333333333
 20
10.7376736111111
 10
0.6614583333333333
 20
10.7376736111111
 10
0.6614583333333333
 20
-10.7376736111111
 10
-0.6614583333333333
 20
-10.7376736111111
 97
        0
 75
     2
 76
     1
 98
        1
 10
0.0
 20
0.0
  0
ENDBLK
  5
394
330
390
100
AcDbEntity
  8
0
100
AcDbBlockEnd
  0
BLOCK
  5
397
330
395
100
AcDbEntity
  8
0
 62
     7
100
AcDbBlockBegin
  2
AI9-BLK6
 70
     0
 10
0.0
 20
0.0
 30
0.0
  3
AI9-BLK6
  1

  0
SPLINE
  5
396
330
395
100
AcDbEntity
  8
LAYER_1
 62
     7
100
AcDbSpline
210
0.0
220
0.0
230
1.0
 70
    11
 71
     3
 72
    59
 73
    55
 74
     0
 42
0.0000000001
 43
0.0000000001
 40
0.0
 40
0.0
 40
0.0
 40
0.0
 40
1.0
 40
1.0
 40
1.0
 40
2.0
 40
2.0
 40
2.0
 40
3.0
 40
3.0
 40
3.0
 40
4.0
 40
4.0
 40
4.0
 40
5.0
 40
5.0
 40
5.0
 40
6.0
 40
6.0
 40
6.0
 40
7.0
 40
7.0
 40
7.0
 40
8.0
 40
8.0
 40
8.0
 40
9.0
 40
9.0
 40
9.0
 40
10.0
 40
10.0
 40
10.0
 40
11.0
 40
11.0
 40
11.0
 40
12.0
 40
12.0
 40
12.0
 40
13.0
 40
13.0
 40
13.0
 40
14.0
 40
14.0
 40
14.0
 40
15.0
 40
15.0
 40
15.0
 40
16.0
 40
16.0
 40
16.0
 40
17.0
 40
17.0
 40
17.0
 40
18.0
 40
18.0
 40
18.0
 40
18.0
 10
3.062689887152775
 20
9.168088107638887
 30
0.0
 10
3.735172526041666
 20
7.739062499999997
 30
0.0
 10
4.110687934027776
 20
6.116422526041666
 30
0.0
 10
4.189236111111108
 20
4.299479166666666
 30
0.0
 10
4.189236111111108
 20
4.299479166666666
 30
0.0
 10
2.866319444444443
 20
4.299479166666666
 30
0.0
 10
2.866319444444443
 20
4.299479166666666
 30
0.0
 10
2.720936414930555
 20
5.667871093749997
 30
0.0
 10
2.435682508680555
 20
6.752387152777776
 30
0.0
 10
2.009868706597218
 20
7.553027343749997
 30
0.0
 10
1.584054904513888
 20
8.352978515624997
 30
0.0
 10
0.9839192708333332
 20
8.753298611111111
 30
0.0
 10
0.2101508246527778
 20
8.753298611111111
 30
0.0
 10
-0.7386284722222222
 20
8.753298611111111
 30
0.0
 10
-1.503439670138888
 20
8.010536024305555
 30
0.0
 10
-2.083593749999999
 20
6.526388888888886
 30
0.0
 10
-2.664436848958333
 20
5.042241753472221
 30
0.0
 10
-2.954513888888888
 20
2.767100694444443
 30
0.0
 10
-2.954513888888888
 20
-0.2990342881944444
 30
0.0
 10
-2.954513888888888
 20
-2.811197916666666
 30
0.0
 10
-2.693375651041666
 20
-4.847938368055555
 30
0.0
 10
-2.17041015625
 20
-6.409944661458332
 30
0.0
 10
-1.648133680555553
 20
-7.972639973958332
 30
0.0
 10
-0.8640299479166666
 20
-8.753298611111111
 30
0.0
 10
0.1812120225694444
 20
-8.753298611111111
 30
0.0
 10
1.138948567708333
 20
-8.753298611111111
 30
0.0
 10
1.865174696180553
 20
-7.927853732638887
 30
0.0
 10
2.359201388888884
 20
-6.275585937499998
 30
0.0
 10
2.62998589409722
 20
-5.406043836805555
 30
0.0
 10
2.828423394097221
 20
-4.262272135416666
 30
0.0
 10
2.954513888888888
 20
-2.844270833333331
 30
0.0
 10
2.954513888888888
 20
-2.844270833333331
 30
0.0
 10
4.277430555555555
 20
-2.844270833333331
 30
0.0
 10
4.277430555555555
 20
-2.844270833333331
 30
0.0
 10
4.169943576388888
 20
-5.109765624999996
 30
0.0
 10
3.795117187499998
 20
-7.009391276041665
 30
0.0
 10
3.151573350694443
 20
-8.542458767361106
 30
0.0
 10
2.381249999999999
 20
-10.38834092881943
 30
0.0
 10
1.347721354166665
 20
-11.3109375
 30
0.0
 10
0.0509874131944445
 20
-11.3109375
 30
0.0
 10
-1.07004665798611
 20
-11.3109375
 30
0.0
 10
-2.010557725694444
 20
-10.55577256944443
 30
0.0
 10
-2.771234809027776
 20
-9.04475368923611
 30
0.0
 10
-3.775824652777775
 20
-7.046598307291666
 30
0.0
 10
-4.277430555555555
 20
-3.961170789930555
 30
0.0
 10
-4.277430555555555
 20
0.2115288628472222
 30
0.0
 10
-4.277430555555555
 20
3.379638671874998
 30
0.0
 10
-3.902604166666666
 20
5.977929687499997
 30
0.0
 10
-3.151573350694443
 20
8.005712890624996
 30
0.0
 10
-2.333018663194443
 20
10.20919596354165
 30
0.0
 10
-1.20647243923611
 20
11.3109375
 30
0.0
 10
0.2266872829861111
 20
11.3109375
 30
0.0
 10
1.444873046875
 20
11.3109375
 30
0.0
 10
2.390207248263884
 20
10.59642469618055
 30
0.0
 10
3.062689887152775
 20
9.168088107638887
 30
0.0
  0
ENDBLK
  5
398
330
395
100
AcDbEntity
  8
0
100
AcDbBlockEnd
  0
BLOCK
  5
39C
330
399
100
AcDbEntity
  8
0
 62
     7
100
AcDbBlockBegin
  2
AI9-BLK5
 70
     0
 10
0.0
 20
0.0
 30
0.0
  3
AI9-BLK5
  1

  0
SPLINE
  5
39A
330
399
100
AcDbEntity
  8
LAYER_1
 62
     7
100
AcDbSpline
210
0.0
220
0.0
230
1.0
 70
    11
 71
     3
 72
    32
 73
    28
 74
     0
 42
0.0000000001
 43
0.0000000001
 40
0.0
 40
0.0
 40
0.0
 40
0.0
 40
1.0
 40
1.0
 40
1.0
 40
2.0
 40
2.0
 40
2.0
 40
3.0
 40
3.0
 40
3.0
 40
4.0
 40
4.0
 40
4.0
 40
5.0
 40
5.0
 40
5.0
 40
6.0
 40
6.0
 40
6.0
 40
7.0
 40
7.0
 40
7.0
 40
8.0
 40
8.0
 40
8.0
 40
9.0
 40
9.0
 40
9.0
 40
9.0
 10
-2.62378472222222
 20
-8.268229166666666
 30
0.0
 10
-2.62378472222222
 20
-8.268229166666666
 30
0.0
 10
-2.62378472222222
 20
8.180034722222217
 30
0.0
 10
-2.62378472222222
 20
8.180034722222217
 30
0.0
 10
-2.62378472222222
 20
8.180034722222217
 30
0.0
 10
-0.3376193576388888
 20
8.180034722222217
 30
0.0
 10
-0.3376193576388888
 20
8.180034722222217
 30
0.0
 10
0.6972873263888888
 20
8.180034722222217
 30
0.0
 10
1.449007161458333
 20
7.445540364583332
 30
0.0
 10
1.918918185763885
 20
5.977929687499997
 30
0.0
 10
2.388829210069443
 20
4.510319010416666
 30
0.0
 10
2.62378472222222
 20
2.449462890624999
 30
0.0
 10
2.62378472222222
 20
-0.204638671875
 30
0.0
 10
2.62378472222222
 20
-0.8950358072916666
 30
0.0
 10
2.590022786458332
 20
-1.643310546874999
 30
0.0
 10
2.523187934027772
 20
-2.45015190972222
 30
0.0
 10
2.408121744791666
 20
-3.80200737847222
 30
0.0
 10
2.226220703124999
 20
-4.909950086805555
 30
0.0
 10
1.976795789930553
 20
-5.774669053819441
 30
0.0
 10
1.659847005208333
 20
-6.853672960069442
 30
0.0
 10
1.252636718749998
 20
-7.583344184027778
 30
0.0
 10
0.7544759114583333
 20
-7.962304687499997
 30
0.0
 10
0.4664659288194444
 20
-8.166254340277777
 30
0.0
 10
0.1074869791666666
 20
-8.268229166666666
 30
0.0
 10
-0.3231499565972222
 20
-8.268229166666666
 30
0.0
 10
-0.3231499565972222
 20
-8.268229166666666
 30
0.0
 10
-2.62378472222222
 20
-8.268229166666666
 30
0.0
 10
-2.62378472222222
 20
-8.268229166666666
 30
0.0
  0
SPLINE
  5
39B
330
399
100
AcDbEntity
  8
LAYER_1
 62
     7
100
AcDbSpline
210
0.0
220
0.0
230
1.0
 70
    11
 71
     3
 72
    26
 73
    22
 74
     0
 42
0.0000000001
 43
0.0000000001
 40
0.0
 40
0.0
 40
0.0
 40
0.0
 40
1.0
 40
1.0
 40
1.0
 40
2.0
 40
2.0
 40
2.0
 40
3.0
 40
3.0
 40
3.0
 40
4.0
 40
4.0
 40
4.0
 40
5.0
 40
5.0
 40
5.0
 40
6.0
 40
6.0
 40
6.0
 40
7.0
 40
7.0
 40
7.0
 40
7.0
 10
-3.946701388888888
 20
-10.7376736111111
 30
0.0
 10
-3.946701388888888
 20
-10.7376736111111
 30
0.0
 10
-0.0943956163194444
 20
-10.7376736111111
 30
0.0
 10
-0.0943956163194444
 20
-10.7376736111111
 30
0.0
 10
1.546847873263885
 20
-10.7376736111111
 30
0.0
 10
2.705777994791666
 20
-9.11021050347222
 30
0.0
 10
3.381705729166666
 20
-5.854595269097222
 30
0.0
 10
3.757910156249999
 20
-4.01284722222222
 30
0.0
 10
3.946701388888888
 20
-1.951991102430555
 30
0.0
 10
3.946701388888888
 20
0.328662109375
 30
0.0
 10
3.946701388888888
 20
3.281797960069443
 30
0.0
 10
3.622862413194443
 20
5.703700086805552
 30
0.0
 10
2.976562499999998
 20
7.594368489583332
 30
0.0
 10
2.25171440972222
 20
9.689675564236106
 30
0.0
 10
1.233344184027777
 20
10.7376736111111
 30
0.0
 10
-0.0799262152777778
 20
10.7376736111111
 30
0.0
 10
-0.0799262152777778
 20
10.7376736111111
 30
0.0
 10
-3.946701388888888
 20
10.7376736111111
 30
0.0
 10
-3.946701388888888
 20
10.7376736111111
 30
0.0
 10
-3.946701388888888
 20
10.7376736111111
 30
0.0
 10
-3.946701388888888
 20
-10.7376736111111
 30
0.0
 10
-3.946701388888888
 20
-10.7376736111111
 30
0.0
  0
ENDBLK
  5
39D
330
399
100
AcDbEntity
  8
0
100
AcDbBlockEnd
  0
BLOCK
  5
3A1
330
39E
100
AcDbEntity
  8
0
 62
     7
100
AcDbBlockBegin
  2
AI9-BLK4
 70
     0
 10
0.0
 20
0.0
 30
0.0
  3
AI9-BLK4
  1

  0
SPLINE
  5
39F
330
39E
100
AcDbEntity
  8
LAYER_1
 62
     7
100
AcDbSpline
210
0.0
220
0.0
230
1.0
 70
    11
 71
     3
 72
    26
 73
    22
 74
     0
 42
0.0000000001
 43
0.0000000001
 40
0.0
 40
0.0
 40
0.0
 40
0.0
 40
1.0
 40
1.0
 40
1.0
 40
2.0
 40
2.0
 40
2.0
 40
3.0
 40
3.0
 40
3.0
 40
4.0
 40
4.0
 40
4.0
 40
5.0
 40
5.0
 40
5.0
 40
6.0
 40
6.0
 40
6.0
 40
7.0
 40
7.0
 40
7.0
 40
7.0
 10
-2.645833333333333
 20
0.9039930555555551
 30
0.0
 10
-2.645833333333333
 20
0.9039930555555551
 30
0.0
 10
-2.645833333333333
 20
8.180034722222217
 30
0.0
 10
-2.645833333333333
 20
8.180034722222217
 30
0.0
 10
-2.645833333333333
 20
8.180034722222217
 30
0.0
 10
0.465087890625
 20
8.180034722222217
 30
0.0
 10
0.465087890625
 20
8.180034722222217
 30
0.0
 10
0.9026150173611108
 20
8.180034722222217
 30
0.0
 10
1.24988064236111
 20
8.034651692708331
 30
0.0
 10
1.506884765625
 20
7.745263671874997
 30
0.0
 10
2.001600477430554
 20
7.194048394097221
 30
0.0
 10
2.248958333333332
 20
6.160519748263887
 30
0.0
 10
2.248958333333332
 20
4.643299696180553
 30
0.0
 10
2.248958333333332
 20
3.232188585069443
 30
0.0
 10
2.072569444444444
 20
2.256537543402775
 30
0.0
 10
1.720480685763888
 20
1.715657552083333
 30
0.0
 10
1.368391927083333
 20
1.174088541666665
 30
0.0
 10
0.8929687499999998
 20
0.9039930555555551
 30
0.0
 10
0.2942111545138888
 20
0.9039930555555551
 30
0.0
 10
0.2942111545138888
 20
0.9039930555555551
 30
0.0
 10
-2.645833333333333
 20
0.9039930555555551
 30
0.0
 10
-2.645833333333333
 20
0.9039930555555551
 30
0.0
  0
SPLINE
  5
3A0
330
39E
100
AcDbEntity
  8
LAYER_1
 62
     7
100
AcDbSpline
210
0.0
220
0.0
230
1.0
 70
    11
 71
     3
 72
    68
 73
    64
 74
     0
 42
0.0000000001
 43
0.0000000001
 40
0.0
 40
0.0
 40
0.0
 40
0.0
 40
1.0
 40
1.0
 40
1.0
 40
2.0
 40
2.0
 40
2.0
 40
3.0
 40
3.0
 40
3.0
 40
4.0
 40
4.0
 40
4.0
 40
5.0
 40
5.0
 40
5.0
 40
6.0
 40
6.0
 40
6.0
 40
7.0
 40
7.0
 40
7.0
 40
8.0
 40
8.0
 40
8.0
 40
9.0
 40
9.0
 40
9.0
 40
10.0
 40
10.0
 40
10.0
 40
11.0
 40
11.0
 40
11.0
 40
12.0
 40
12.0
 40
12.0
 40
13.0
 40
13.0
 40
13.0
 40
14.0
 40
14.0
 40
14.0
 40
15.0
 40
15.0
 40
15.0
 40
16.0
 40
16.0
 40
16.0
 40
17.0
 40
17.0
 40
17.0
 40
18.0
 40
18.0
 40
18.0
 40
19.0
 40
19.0
 40
19.0
 40
20.0
 40
20.0
 40
20.0
 40
21.0
 40
21.0
 40
21.0
 40
21.0
 10
-3.968749999999998
 20
-10.7376736111111
 30
0.0
 10
-3.968749999999998
 20
-10.7376736111111
 30
0.0
 10
-2.645833333333333
 20
-10.7376736111111
 30
0.0
 10
-2.645833333333333
 20
-10.7376736111111
 30
0.0
 10
-2.645833333333333
 20
-10.7376736111111
 30
0.0
 10
-2.645833333333333
 20
-1.521354166666665
 30
0.0
 10
-2.645833333333333
 20
-1.521354166666665
 30
0.0
 10
-2.645833333333333
 20
-1.521354166666665
 30
0.0
 10
0.2390896267361111
 20
-1.521354166666665
 30
0.0
 10
0.2390896267361111
 20
-1.521354166666665
 30
0.0
 10
0.7599880642361111
 20
-1.521354166666665
 30
0.0
 10
1.143771701388887
 20
-1.65295681423611
 30
0.0
 10
1.390440538194444
 20
-1.916162109374999
 30
0.0
 10
1.816254340277773
 20
-2.39434136284722
 30
0.0
 10
2.04363064236111
 20
-3.335541449652775
 30
0.0
 10
2.072569444444444
 20
-4.739762369791666
 30
0.0
 10
2.072569444444444
 20
-4.739762369791666
 30
0.0
 10
2.160763888888888
 20
-8.324039713541665
 30
0.0
 10
2.160763888888888
 20
-8.324039713541665
 30
0.0
 10
2.18005642361111
 20
-9.163264973958332
 30
0.0
 10
2.202794053819443
 20
-9.728949652777775
 30
0.0
 10
2.227598741319444
 20
-10.02109374999998
 30
0.0
 10
2.252403428819443
 20
-10.31392686631944
 30
0.0
 10
2.28892144097222
 20
-10.55301649305555
 30
0.0
 10
2.33853081597222
 20
-10.7376736111111
 30
0.0
 10
2.33853081597222
 20
-10.7376736111111
 30
0.0
 10
3.968749999999998
 20
-10.7376736111111
 30
0.0
 10
3.968749999999998
 20
-10.7376736111111
 30
0.0
 10
3.968749999999998
 20
-10.7376736111111
 30
0.0
 10
3.968749999999998
 20
-10.25260416666666
 30
0.0
 10
3.968749999999998
 20
-10.25260416666666
 30
0.0
 10
3.766867404513888
 20
-10.05830078125
 30
0.0
 10
3.625618489583333
 20
-9.621462673611112
 30
0.0
 10
3.545692274305555
 20
-8.942089843749997
 30
0.0
 10
3.49470486111111
 20
-8.543836805555555
 30
0.0
 10
3.459564887152775
 20
-7.937499999999999
 30
0.0
 10
3.439583333333333
 20
-7.121701388888887
 30
0.0
 10
3.439583333333333
 20
-7.121701388888887
 30
0.0
 10
3.395486111111106
 20
-4.232644314236106
 30
0.0
 10
3.395486111111106
 20
-4.232644314236106
 30
0.0
 10
3.375504557291666
 20
-2.981385633680555
 30
0.0
 10
3.26870659722222
 20
-2.077392578125
 30
0.0
 10
3.075781249999999
 20
-1.522043185763888
 30
0.0
 10
2.882166883680555
 20
-0.9666937934027776
 30
0.0
 10
2.592089843749999
 20
-0.5188313802083333
 30
0.0
 10
2.204861111111105
 20
-0.1770779079861111
 30
0.0
 10
2.63618706597222
 20
0.3197048611111111
 30
0.0
 10
2.971739366319443
 20
0.9770290798611107
 30
0.0
 10
3.211518012152775
 20
1.79558376736111
 30
0.0
 10
3.451296657986107
 20
2.613449435763888
 30
0.0
 10
3.571874999999999
 20
3.66558159722222
 30
0.0
 10
3.571874999999999
 20
4.951291232638888
 30
0.0
 10
3.571874999999999
 20
7.415912543402777
 30
0.0
 10
3.124701605902775
 20
9.106076388888887
 30
0.0
 10
2.231043836805555
 20
10.02178276909722
 30
0.0
 10
1.759754774305553
 20
10.498583984375
 30
0.0
 10
1.163753255208332
 20
10.7376736111111
 30
0.0
 10
0.443039279513889
 20
10.7376736111111
 30
0.0
 10
0.443039279513889
 20
10.7376736111111
 30
0.0
 10
-3.968749999999998
 20
10.7376736111111
 30
0.0
 10
-3.968749999999998
 20
10.7376736111111
 30
0.0
 10
-3.968749999999998
 20
10.7376736111111
 30
0.0
 10
-3.968749999999998
 20
-10.7376736111111
 30
0.0
 10
-3.968749999999998
 20
-10.7376736111111
 30
0.0
  0
ENDBLK
  5
3A2
330
39E
100
AcDbEntity
  8
0
100
AcDbBlockEnd
  0
BLOCK
  5
3A6
330
3A3
100
AcDbEntity
  8
0
 62
     7
100
AcDbBlockBegin
  2
AI9-BLK3
 70
     0
 10
0.0
 20
0.0
 30
0.0
  3
AI9-BLK3
  1

  0
LWPOLYLINE
  5
3A4
330
3A3
100
AcDbEntity
  8
LAYER_1
 62
     7
100
AcDbPolyline
 90
        4
 70
     1
 43
0.0
 10
-0.6613722059461809
 20
10.7376736111111
 10
0.6613722059461809
 20
10.7376736111111
 10
0.6613722059461809
 20
-10.7376736111111
 10
-0.6613722059461809
 20
-10.7376736111111
  0
HATCH
  5
3A5
330
3A3
100
AcDbEntity
  8
LAYER_1
 62
     7
100
AcDbHatch
 10
0.0
 20
0.0
 30
0.0
210
0.0
220
0.0
230
1.0
  2
SOLID
 70
     1
 71
     0
 91
        1
 92
        3
 72
     0
 73
     1
 93
        4
 10
-0.6613722059461809
 20
10.7376736111111
 10
0.6613722059461809
 20
10.7376736111111
 10
0.6613722059461809
 20
-10.7376736111111
 10
-0.6613722059461809
 20
-10.7376736111111
 97
        0
 75
     2
 76
     1
 98
        1
 10
0.0
 20
0.0
  0
ENDBLK
  5
3A7
330
3A3
100
AcDbEntity
  8
0
100
AcDbBlockEnd
  0
BLOCK
  5
3AB
330
3A8
100
AcDbEntity
  8
0
 62
     7
100
AcDbBlockBegin
  2
AI9-BLK2
 70
     0
 10
0.0
 20
0.0
 30
0.0
  3
AI9-BLK2
  1

  0
LWPOLYLINE
  5
3A9
330
3A8
100
AcDbEntity
  8
LAYER_1
 62
     7
100
AcDbPolyline
 90
        7
 70
     1
 43
0.0
 10
-2.785704210069443
 20
10.7376736111111
 10
0.0
 20
-7.550960286458332
 10
2.771234809027776
 20
10.7376736111111
 10
4.233333333333331
 20
10.7376736111111
 10
0.6910861545138888
 20
-10.7376736111111
 10
-0.7055555555555558
 20
-10.7376736111111
 10
-4.233333333333331
 20
10.7376736111111
  0
HATCH
  5
3AA
330
3A8
100
AcDbEntity
  8
LAYER_1
 62
     7
100
AcDbHatch
 10
0.0
 20
0.0
 30
0.0
210
0.0
220
0.0
230
1.0
  2
SOLID
 70
     1
 71
     0
 91
        1
 92
        3
 72
     0
 73
     1
 93
        7
 10
-2.785704210069443
 20
10.7376736111111
 10
0.0
 20
-7.550960286458332
 10
2.771234809027776
 20
10.7376736111111
 10
4.233333333333331
 20
10.7376736111111
 10
0.6910861545138888
 20
-10.7376736111111
 10
-0.7055555555555558
 20
-10.7376736111111
 10
-4.233333333333331
 20
10.7376736111111
 97
        0
 75
     2
 76
     1
 98
        1
 10
0.0
 20
0.0
  0
ENDBLK
  5
3AC
330
3A8
100
AcDbEntity
  8
0
100
AcDbBlockEnd
  0
BLOCK
  5
3B0
330
3AD
100
AcDbEntity
  8
0
 62
     7
100
AcDbBlockBegin
  2
AI9-BLK1
 70
     0
 10
0.0
 20
0.0
 30
0.0
  3
AI9-BLK1
  1

  0
LWPOLYLINE
  5
3AE
330
3AD
100
AcDbEntity
  8
LAYER_1
 62
     7
100
AcDbPolyline
 90
       12
 70
     1
 43
0.0
 10
-3.571874999999999
 20
10.7376736111111
 10
3.483680555555555
 20
10.7376736111111
 10
3.483680555555555
 20
8.091840277777777
 10
-2.248958333333332
 20
8.091840277777777
 10
-2.248958333333332
 20
1.565451388888888
 10
3.042708333333333
 20
1.565451388888888
 10
3.042708333333333
 20
-0.9039930555555551
 10
-2.248958333333332
 20
-0.9039930555555551
 10
-2.248958333333332
 20
-8.180034722222217
 10
3.571874999999999
 20
-8.180034722222217
 10
3.571874999999999
 20
-10.7376736111111
 10
-3.571874999999999
 20
-10.7376736111111
  0
HATCH
  5
3AF
330
3AD
100
AcDbEntity
  8
LAYER_1
 62
     7
100
AcDbHatch
 10
0.0
 20
0.0
 30
0.0
210
0.0
220
0.0
230
1.0
  2
SOLID
 70
     1
 71
     0
 91
        1
 92
        3
 72
     0
 73
     1
 93
       12
 10
-3.571874999999999
 20
10.7376736111111
 10
3.483680555555555
 20
10.7376736111111
 10
3.483680555555555
 20
8.091840277777777
 10
-2.248958333333332
 20
8.091840277777777
 10
-2.248958333333332
 20
1.565451388888888
 10
3.042708333333333
 20
1.565451388888888
 10
3.042708333333333
 20
-0.9039930555555551
 10
-2.248958333333332
 20
-0.9039930555555551
 10
-2.248958333333332
 20
-8.180034722222217
 10
3.571874999999999
 20
-8.180034722222217
 10
3.571874999999999
 20
-10.7376736111111
 10
-3.571874999999999
 20
-10.7376736111111
 97
        0
 75
     2
 76
     1
 98
        1
 10
0.0
 20
0.0
  0
ENDBLK
  5
3B1
330
3AD
100
AcDbEntity
  8
0
100
AcDbBlockEnd
  0
BLOCK
  5
3D5
330
3B2
100
AcDbEntity
  8
0
100
AcDbBlockBegin
  2
HD_LLC_logo_OT5
 70
     0
 10
0.0
 20
0.0
 30
0.0
  3
HD_LLC_logo_OT5
  1

  0
SPLINE
  5
3B3
102
{ACAD_REACTORS
330
3D3
102
}
330
3B2
100
AcDbEntity
  8
LAYER_1
 62
     7
100
AcDbSpline
210
0.0
220
0.0
230
1.0
 70
    11
 71
     3
 72
   113
 73
   109
 74
     0
 42
0.0000000001
 43
0.0000000001
 40
0.0
 40
0.0
 40
0.0
 40
0.0
 40
1.0
 40
1.0
 40
1.0
 40
2.0
 40
2.0
 40
2.0
 40
3.0
 40
3.0
 40
3.0
 40
4.0
 40
4.0
 40
4.0
 40
5.0
 40
5.0
 40
5.0
 40
6.0
 40
6.0
 40
6.0
 40
7.0
 40
7.0
 40
7.0
 40
8.0
 40
8.0
 40
8.0
 40
9.0
 40
9.0
 40
9.0
 40
10.0
 40
10.0
 40
10.0
 40
11.0
 40
11.0
 40
11.0
 40
12.0
 40
12.0
 40
12.0
 40
13.0
 40
13.0
 40
13.0
 40
14.0
 40
14.0
 40
14.0
 40
15.0
 40
15.0
 40
15.0
 40
16.0
 40
16.0
 40
16.0
 40
17.0
 40
17.0
 40
17.0
 40
18.0
 40
18.0
 40
18.0
 40
19.0
 40
19.0
 40
19.0
 40
20.0
 40
20.0
 40
20.0
 40
21.0
 40
21.0
 40
21.0
 40
22.0
 40
22.0
 40
22.0
 40
23.0
 40
23.0
 40
23.0
 40
24.0
 40
24.0
 40
24.0
 40
25.0
 40
25.0
 40
25.0
 40
26.0
 40
26.0
 40
26.0
 40
27.0
 40
27.0
 40
27.0
 40
28.0
 40
28.0
 40
28.0
 40
29.0
 40
29.0
 40
29.0
 40
30.0
 40
30.0
 40
30.0
 40
31.0
 40
31.0
 40
31.0
 40
32.0
 40
32.0
 40
32.0
 40
33.0
 40
33.0
 40
33.0
 40
34.0
 40
34.0
 40
34.0
 40
35.0
 40
35.0
 40
35.0
 40
36.0
 40
36.0
 40
36.0
 40
36.0
 10
193.3039632161458
 20
186.1548733181423
 30
0.0
 10
193.3039632161458
 20
186.1860514322916
 30
0.0
 10
193.3039632161458
 20
219.6932223849826
 30
0.0
 10
193.3039632161458
 20
219.6932223849826
 30
0.0
 10
193.3039632161458
 20
219.6932223849826
 30
0.0
 10
193.2974175347219
 20
219.7488606770833
 30
0.0
 10
193.2974175347219
 20
219.7488606770833
 30
0.0
 10
191.5293945312499
 20
235.455740017361
 30
0.0
 10
175.1458984374999
 20
235.2467949761284
 30
0.0
 10
174.9808783637151
 20
235.2428331163193
 30
0.0
 10
174.9808783637151
 20
235.2428331163193
 30
0.0
 10
125.8827555338541
 20
235.2430053710937
 30
0.0
 10
125.8827555338541
 20
235.2430053710937
 30
0.0
 10
125.8827555338541
 20
235.2430053710937
 30
0.0
 10
125.8827555338541
 20
255.5278998480901
 30
0.0
 10
125.8827555338541
 20
255.5278998480901
 30
0.0
 10
125.8827555338541
 20
255.5278998480901
 30
0.0
 10
84.5626247829861
 20
255.5278998480901
 30
0.0
 10
84.5626247829861
 20
255.5278998480901
 30
0.0
 10
84.5626247829861
 20
255.5278998480901
 30
0.0
 10
84.55711263020829
 20
233.7919311523436
 30
0.0
 10
84.55711263020829
 20
233.7919311523436
 30
0.0
 10
84.55711263020829
 20
233.7919311523436
 30
0.0
 10
64.42052951388888
 20
233.7919311523436
 30
0.0
 10
64.42052951388888
 20
233.7919311523436
 30
0.0
 10
64.42052951388888
 20
233.7919311523436
 30
0.0
 10
64.41501736111111
 20
255.5278998480901
 30
0.0
 10
64.41501736111111
 20
255.5278998480901
 30
0.0
 10
64.41501736111111
 20
255.5278998480901
 30
0.0
 10
23.91757541232637
 20
255.5278998480901
 30
0.0
 10
23.91757541232637
 20
255.5278998480901
 30
0.0
 10
23.91757541232637
 20
255.5278998480901
 30
0.0
 10
23.91757541232637
 20
233.2393378363715
 30
0.0
 10
23.91757541232637
 20
233.2393378363715
 30
0.0
 10
23.91757541232637
 20
233.2393378363715
 30
0.0
 10
43.65624999999999
 20
233.2393378363715
 30
0.0
 10
43.65624999999999
 20
233.2393378363715
 30
0.0
 10
43.65624999999999
 20
233.2393378363715
 30
0.0
 10
43.65624999999999
 20
211.5188720703125
 30
0.0
 10
43.65624999999999
 20
211.5188720703125
 30
0.0
 10
43.65624999999999
 20
211.5188720703125
 30
0.0
 10
23.91757541232637
 20
211.5188720703125
 30
0.0
 10
23.91757541232637
 20
211.5188720703125
 30
0.0
 10
23.91757541232637
 20
211.5188720703125
 30
0.0
 10
23.91757541232637
 20
189.2303100585936
 30
0.0
 10
23.91757541232637
 20
189.2303100585936
 30
0.0
 10
23.91757541232637
 20
189.2303100585936
 30
0.0
 10
64.41501736111111
 20
189.2303100585936
 30
0.0
 10
64.41501736111111
 20
189.2303100585936
 30
0.0
 10
64.41501736111111
 20
189.2303100585936
 30
0.0
 10
64.42052951388888
 20
211.069976128472
 30
0.0
 10
64.42052951388888
 20
211.069976128472
 30
0.0
 10
64.42052951388888
 20
211.069976128472
 30
0.0
 10
84.55711263020829
 20
211.069976128472
 30
0.0
 10
84.55711263020829
 20
211.069976128472
 30
0.0
 10
84.55711263020829
 20
211.069976128472
 30
0.0
 10
84.5626247829861
 20
189.2303100585936
 30
0.0
 10
84.5626247829861
 20
189.2303100585936
 30
0.0
 10
84.5626247829861
 20
189.2303100585936
 30
0.0
 10
125.8827555338541
 20
189.2303100585936
 30
0.0
 10
125.8827555338541
 20
189.2303100585936
 30
0.0
 10
125.8827555338541
 20
189.2303100585936
 30
0.0
 10
125.8827555338541
 20
211.5188720703125
 30
0.0
 10
125.8827555338541
 20
211.5188720703125
 30
0.0
 10
125.8827555338541
 20
211.5188720703125
 30
0.0
 10
105.3213921440971
 20
211.5188720703125
 30
0.0
 10
105.3213921440971
 20
211.5188720703125
 30
0.0
 10
105.3213921440971
 20
211.5188720703125
 30
0.0
 10
105.3213921440971
 20
233.2393378363715
 30
0.0
 10
105.3213921440971
 20
233.2393378363715
 30
0.0
 10
105.3213921440971
 20
233.2393378363715
 30
0.0
 10
175.0046495225693
 20
233.243127441406
 30
0.0
 10
175.0046495225693
 20
233.243127441406
 30
0.0
 10
175.6268337673611
 20
233.2560465494791
 30
0.0
 10
189.7165852864583
 20
233.3962619357638
 30
0.0
 10
191.3037407769094
 20
219.5690266927083
 30
0.0
 10
191.3037407769094
 20
219.4332899305555
 30
0.0
 10
191.3037407769094
 20
186.1142211914062
 30
0.0
 10
191.3037407769094
 20
186.1142211914062
 30
0.0
 10
191.3037407769094
 20
186.1142211914062
 30
0.0
 10
191.3051188151039
 20
186.0880384657115
 30
0.0
 10
191.3051188151039
 20
186.0880384657115
 30
0.0
 10
191.3054633246526
 20
186.0787367078991
 30
0.0
 10
191.3109754774304
 20
185.9566080729166
 30
0.0
 10
191.3109754774304
 20
185.7399115668401
 30
0.0
 10
191.3109754774304
 20
184.2090833875865
 30
0.0
 10
191.0488037109374
 20
177.9643310546874
 30
0.0
 10
186.9866916232638
 20
173.5652886284722
 30
0.0
 10
184.2540418836804
 20
170.6064683702255
 30
0.0
 10
180.3224989149304
 20
169.0308539496526
 30
0.0
 10
175.300927734375
 20
168.8825425889756
 30
0.0
 10
175.300927734375
 20
168.8825425889756
 30
0.0
 10
107.0094889322916
 20
168.8828870985243
 30
0.0
 10
107.0094889322916
 20
168.8828870985243
 30
0.0
 10
107.0094889322916
 20
168.8828870985243
 30
0.0
 10
107.0094889322916
 20
166.8830091688368
 30
0.0
 10
107.0094889322916
 20
166.8830091688368
 30
0.0
 10
107.0094889322916
 20
166.8830091688368
 30
0.0
 10
175.3305555555555
 20
166.8830091688368
 30
0.0
 10
175.3305555555555
 20
166.8830091688368
 30
0.0
 10
180.9467502170138
 20
167.0485460069444
 30
0.0
 10
185.3571614583333
 20
168.8448187934026
 30
0.0
 10
188.4687717013888
 20
172.2223904079861
 30
0.0
 10
192.9649658203124
 20
177.1034016927083
 30
0.0
 10
193.3136094835069
 20
183.7202243381076
 30
0.0
 10
193.3136094835069
 20
185.6520616319443
 30
0.0
 10
193.3136094835069
 20
185.9247409396701
 30
0.0
 10
193.3070638020833
 20
186.0868326822916
 30
0.0
 10
193.3039632161458
 20
186.1548733181423
 30
0.0
  0
INSERT
  5
3B4
102
{ACAD_REACTORS
330
3D4
102
}
330
3B2
100
AcDbEntity
  8
LAYER_1
 62
     7
100
AcDbBlockReference
  2
AI9-BLK14
 10
159.5625257703993
 20
200.5118781195744
 30
0.0
  0
INSERT
  5
3B5
330
3B2
100
AcDbEntity
  8
LAYER_1
 62
     7
100
AcDbBlockReference
  2
AI9-BLK13
 10
27.69615614149305
 20
179.2145562065971
 30
0.0
 42
0.9200000000000001
  0
INSERT
  5
3B6
102
{ACAD_REACTORS
330
3C1
102
}
330
3B2
100
AcDbEntity
  8
LAYER_1
 62
     7
100
AcDbBlockReference
  2
AI9-BLK11
 10
44.76591525607638
 20
179.2145562065971
 30
0.0
 42
0.9200000000000001
  0
INSERT
  5
3B7
102
{ACAD_REACTORS
330
3CF
102
}
330
3B2
100
AcDbEntity
  8
LAYER_1
 62
     7
100
AcDbBlockReference
  2
AI9-BLK10
 10
54.04665798611111
 20
179.2145562065971
 30
0.0
 42
0.9200000000000001
  0
INSERT
  5
3B8
102
{ACAD_REACTORS
330
3CE
102
}
330
3B2
100
AcDbEntity
  8
LAYER_1
 62
     7
100
AcDbBlockReference
  2
AI9-BLK9
 10
62.79013807508679
 20
179.2145562065971
 30
0.0
 42
0.9
  0
INSERT
  5
3B9
330
3B2
100
AcDbEntity
  8
LAYER_1
 62
     7
100
AcDbBlockReference
  2
AI9-BLK8
 10
71.03046196831595
 20
179.2145562065971
 30
0.0
 42
0.9200000000000001
  0
INSERT
  5
3BA
330
3B2
100
AcDbEntity
  8
LAYER_1
 62
     7
100
AcDbBlockReference
  2
AI9-BLK7
 10
76.93793945312498
 20
179.2145562065971
 30
0.0
 42
0.9200000000000001
  0
INSERT
  5
3BB
102
{ACAD_REACTORS
330
3C2
102
}
330
3B2
100
AcDbEntity
  8
LAYER_1
 62
     7
100
AcDbBlockReference
  2
AI9-BLK6
 10
82.55602891710069
 20
179.2145562065971
 30
0.0
 42
0.9
  0
INSERT
  5
3BC
102
{ACAD_REACTORS
330
3D0
102
}
330
3B2
100
AcDbEntity
  8
LAYER_1
 62
     7
100
AcDbBlockReference
  2
AI9-BLK5
 10
94.32430284288193
 20
179.2145562065971
 30
0.0
 42
0.9200000000000001
  0
INSERT
  5
3BD
102
{ACAD_REACTORS
330
3D1
102
}
330
3B2
100
AcDbEntity
  8
LAYER_1
 62
     7
100
AcDbBlockReference
  2
AI9-BLK4
 10
103.2081705729166
 20
179.2145562065971
 30
0.0
 42
0.9200000000000001
  0
INSERT
  5
3BE
330
3B2
100
AcDbEntity
  8
LAYER_1
 62
     7
100
AcDbBlockReference
  2
AI9-BLK3
 10
108.850978597005
 20
179.2145562065971
 30
0.0
 42
0.9200000000000001
  0
INSERT
  5
3BF
330
3B2
100
AcDbEntity
  8
LAYER_1
 62
     7
100
AcDbBlockReference
  2
AI9-BLK2
 10
114.2045708550346
 20
179.2145562065971
 30
0.0
 42
0.9200000000000001
  0
INSERT
  5
3C0
330
3B2
100
AcDbEntity
  8
LAYER_1
 62
     7
100
AcDbBlockReference
  2
AI9-BLK1
 10
122.4125108506944
 20
179.2145562065971
 30
0.0
 42
0.9200000000000001
  0
HATCH
  5
3C1
330
3B2
100
AcDbEntity
  8
0
  6
Continuous
100
AcDbHatch
 10
0.0
 20
0.0
 30
0.0
210
0.0
220
0.0
230
1.0
  2
SOLID
 70
     1
 71
     1
 91
        2
 92
       16
 93
        1
 72
     4
 94
        3
 73
     0
 74
     0
 95
       26
 96
       22
 40
0.0
 40
0.0
 40
0.0
 40
0.0
 40
1.0
 40
1.0
 40
1.0
 40
2.0
 40
2.0
 40
2.0
 40
3.0
 40
3.0
 40
3.0
 40
4.0
 40
4.0
 40
4.0
 40
5.0
 40
5.0
 40
5.0
 40
6.0
 40
6.0
 40
6.0
 40
7.0
 40
7.0
 40
7.0
 40
7.0
 10
42.12008192274304
 20
180.0462298177082
 10
42.12008192274304
 20
180.0462298177082
 10
42.12008192274304
 20
186.7401881510415
 10
42.12008192274304
 20
186.7401881510415
 10
42.12008192274304
 20
186.7401881510415
 10
45.23100314670138
 20
186.7401881510415
 10
45.23100314670138
 20
186.7401881510415
 10
45.66853027343749
 20
186.7401881510415
 10
46.01579589843749
 20
186.6064357638887
 10
46.27280002170138
 20
186.340198784722
 10
46.76751573350694
 20
185.8330807291665
 10
47.01487358940972
 20
184.8822343749998
 10
47.01487358940972
 20
183.4863919270832
 10
47.01487358940972
 20
182.188169704861
 10
46.83848470052082
 20
181.2905707465276
 10
46.48639594184027
 20
180.7929611545137
 10
46.13430718315971
 20
180.2947176649304
 10
45.65888400607638
 20
180.0462298177082
 10
45.06012641059027
 20
180.0462298177082
 10
45.06012641059027
 20
180.0462298177082
 10
42.12008192274304
 20
180.0462298177082
 10
42.12008192274304
 20
180.0462298177082
 97
        1
330
3B6
 92
        1
 93
        1
 72
     4
 94
        3
 73
     0
 74
     0
 95
       68
 96
       64
 40
0.0
 40
0.0
 40
0.0
 40
0.0
 40
1.0
 40
1.0
 40
1.0
 40
2.0
 40
2.0
 40
2.0
 40
3.0
 40
3.0
 40
3.0
 40
4.0
 40
4.0
 40
4.0
 40
5.0
 40
5.0
 40
5.0
 40
6.0
 40
6.0
 40
6.0
 40
7.0
 40
7.0
 40
7.0
 40
8.0
 40
8.0
 40
8.0
 40
9.0
 40
9.0
 40
9.0
 40
10.0
 40
10.0
 40
10.0
 40
11.0
 40
11.0
 40
11.0
 40
12.0
 40
12.0
 40
12.0
 40
13.0
 40
13.0
 40
13.0
 40
14.0
 40
14.0
 40
14.0
 40
15.0
 40
15.0
 40
15.0
 40
16.0
 40
16.0
 40
16.0
 40
17.0
 40
17.0
 40
17.0
 40
18.0
 40
18.0
 40
18.0
 40
19.0
 40
19.0
 40
19.0
 40
20.0
 40
20.0
 40
20.0
 40
21.0
 40
21.0
 40
21.0
 40
21.0
 10
40.79716525607638
 20
169.3358964843748
 10
40.79716525607638
 20
169.3358964843748
 10
42.12008192274304
 20
169.3358964843748
 10
42.12008192274304
 20
169.3358964843748
 10
42.12008192274304
 20
169.3358964843748
 10
42.12008192274304
 20
177.8149103732637
 10
42.12008192274304
 20
177.8149103732637
 10
42.12008192274304
 20
177.8149103732637
 10
45.00500488281249
 20
177.8149103732637
 10
45.00500488281249
 20
177.8149103732637
 10
45.52590332031249
 20
177.8149103732637
 10
45.90968695746527
 20
177.6938359374998
 10
46.15635579427083
 20
177.4516870659721
 10
46.58216959635415
 20
177.0117621527776
 10
46.80954589843749
 20
176.1458580729165
 10
46.83848470052082
 20
174.8539748263887
 10
46.83848470052082
 20
174.8539748263887
 10
46.92667914496527
 20
171.5564396701387
 10
46.92667914496527
 20
171.5564396701387
 10
46.94597167968749
 20
170.7843524305554
 10
46.96870930989582
 20
170.2639225260415
 10
46.99351399739582
 20
169.9951499565971
 10
47.01831868489582
 20
169.7257434895832
 10
47.0548366970486
 20
169.5057810329859
 10
47.1044460720486
 20
169.3358964843748
 10
47.1044460720486
 20
169.3358964843748
 10
48.73466525607638
 20
169.3358964843748
 10
48.73466525607638
 20
169.3358964843748
 10
48.73466525607638
 20
169.3358964843748
 10
48.73466525607638
 20
169.7821603732637
 10
48.73466525607638
 20
169.7821603732637
 10
48.53278266059027
 20
169.9609194878471
 10
48.39153374565971
 20
170.3628105468748
 10
48.31160753038194
 20
170.9878335503471
 10
48.26062011718749
 20
171.3542263454859
 10
48.22548014322915
 20
171.9120562065971
 10
48.20549858940971
 20
172.6625909288193
 10
48.20549858940971
 20
172.6625909288193
 10
48.16140136718749
 20
175.3205234374999
 10
48.16140136718749
 20
175.3205234374999
 10
48.14141981336804
 20
176.4716814236109
 10
48.0346218532986
 20
177.303355034722
 10
47.84169650607638
 20
177.8142764756943
 10
47.64808213975693
 20
178.3251979166665
 10
47.35800509982638
 20
178.7372313368054
 10
46.97077636718749
 20
179.0516445312498
 10
47.4021023220486
 20
179.5086846788193
 10
47.73765462239582
 20
180.1134229600693
 10
47.97743326822915
 20
180.8664932725693
 10
48.21721191406249
 20
181.6189296874999
 10
48.33779025607638
 20
182.5868912760415
 10
48.33779025607638
 20
183.7697441406248
 10
48.33779025607638
 20
186.0371957465276
 10
47.89061686197915
 20
187.5921464843749
 10
46.99695909288194
 20
188.4345963541665
 10
46.52567003038194
 20
188.8732534722221
 10
45.92966851128472
 20
189.0932159288193
 10
45.20895453559027
 20
189.0932159288193
 10
45.20895453559027
 20
189.0932159288193
 10
40.79716525607638
 20
189.0932159288193
 10
40.79716525607638
 20
189.0932159288193
 10
40.79716525607638
 20
189.0932159288193
 10
40.79716525607638
 20
169.3358964843748
 10
40.79716525607638
 20
169.3358964843748
 97
        0
 75
     0
 76
     1
 98
        0
  0
HATCH
  5
3C2
330
3B2
100
AcDbEntity
  8
0
  6
Continuous
100
AcDbHatch
 10
0.0
 20
0.0
 30
0.0
210
0.0
220
0.0
230
1.0
  2
SOLID
 70
     1
 71
     1
 91
        1
 92
        1
 93
        1
 72
     4
 94
        3
 73
     0
 74
     0
 95
       59
 96
       55
 40
0.0
 40
0.0
 40
0.0
 40
0.0
 40
1.0
 40
1.0
 40
1.0
 40
2.0
 40
2.0
 40
2.0
 40
3.0
 40
3.0
 40
3.0
 40
4.0
 40
4.0
 40
4.0
 40
5.0
 40
5.0
 40
5.0
 40
6.0
 40
6.0
 40
6.0
 40
7.0
 40
7.0
 40
7.0
 40
8.0
 40
8.0
 40
8.0
 40
9.0
 40
9.0
 40
9.0
 40
10.0
 40
10.0
 40
10.0
 40
11.0
 40
11.0
 40
11.0
 40
12.0
 40
12.0
 40
12.0
 40
13.0
 40
13.0
 40
13.0
 40
14.0
 40
14.0
 40
14.0
 40
15.0
 40
15.0
 40
15.0
 40
16.0
 40
16.0
 40
16.0
 40
17.0
 40
17.0
 40
17.0
 40
18.0
 40
18.0
 40
18.0
 40
18.0
 10
85.61871880425346
 20
187.4658355034721
 10
86.29120144314235
 20
186.1797124565971
 10
86.66671685112847
 20
184.7193364800346
 10
86.7452650282118
 20
183.084087456597
 10
86.7452650282118
 20
183.084087456597
 10
85.42234836154513
 20
183.084087456597
 10
85.42234836154513
 20
183.084087456597
 10
85.27696533203124
 20
184.3156401909721
 10
84.99171142578125
 20
185.2917046440971
 10
84.56589762369791
 20
186.012280815972
 10
84.14008382161458
 20
186.7322368706596
 10
83.53994818793402
 20
187.0925249565971
 10
82.76617974175346
 20
187.0925249565971
 10
81.81740044487847
 20
187.0925249565971
 10
81.0525892469618
 20
186.4240386284721
 10
80.47243516710068
 20
185.0883062065971
 10
79.89159206814235
 20
183.752573784722
 10
79.6015150282118
 20
181.7049468315971
 10
79.6015150282118
 20
178.9454253472221
 10
79.6015150282118
 20
176.6844780815971
 10
79.86265326605902
 20
174.8514116753471
 10
80.38561876085069
 20
173.4456060112846
 10
80.90789523654512
 20
172.0391802300346
 10
81.69199896918403
 20
171.3365874565971
 10
82.73724093967013
 20
171.3365874565971
 10
83.69497748480902
 20
171.3365874565971
 10
84.42120361328125
 20
172.0794878472221
 10
84.91523030598958
 20
173.5665288628471
 10
85.18601481119791
 20
174.3491167534721
 10
85.38445231119791
 20
175.3785112847221
 10
85.51054280598958
 20
176.6547124565971
 10
85.51054280598958
 20
176.6547124565971
 10
86.83345947265625
 20
176.6547124565971
 10
86.83345947265625
 20
176.6547124565971
 10
86.72597249348958
 20
174.6157671440971
 10
86.35114610460069
 20
172.9061040581596
 10
85.70760226779514
 20
171.526343315972
 10
84.93727891710069
 20
169.8650493706596
 10
83.90375027126735
 20
169.0347124565971
 10
82.60701633029514
 20
169.0347124565971
 10
81.48598225911458
 20
169.0347124565971
 10
80.54547119140625
 20
169.7143608940971
 10
79.78479410807292
 20
171.0742778862846
 10
78.78020426432292
 20
172.8726177300346
 10
78.27859836154513
 20
175.6495024956596
 10
78.27859836154513
 20
179.4049321831596
 10
78.27859836154513
 20
182.2562310112846
 10
78.65342475043402
 20
184.5946929253471
 10
79.40445556640624
 20
186.4196978081596
 10
80.22301025390625
 20
188.4028325737846
 10
81.34955647786458
 20
189.3943999565971
 10
82.78271620008679
 20
189.3943999565971
 10
84.00090196397568
 20
189.3943999565971
 10
84.94623616536458
 20
188.7513384331596
 10
85.61871880425346
 20
187.4658355034721
 97
        1
330
3BB
 75
     0
 76
     1
 98
        1
 10
0.0
 20
0.0
  0
LINE
  5
3C3
102
{ACAD_REACTORS
330
3D2
102
}
330
3B2
100
AcDbEntity
  8
LAYER_1
 62
     7
100
AcDbLine
 10
34.65766059027778
 20
177.4497853732638
 30
0.0
 11
36.19830729166666
 21
186.1658769531249
 31
0.0
  0
LINE
  5
3C4
102
{ACAD_REACTORS
330
3D2
102
}
330
3B2
100
AcDbEntity
  8
LAYER_1
 62
     7
100
AcDbLine
 10
36.19830729166666
 20
186.1658769531249
 30
0.0
 11
37.67556423611111
 21
177.4497853732638
 31
0.0
  0
LINE
  5
3C5
102
{ACAD_REACTORS
330
3D2
102
}
330
3B2
100
AcDbEntity
  8
LAYER_1
 62
     7
100
AcDbLine
 10
37.67556423611111
 20
177.4497853732638
 30
0.0
 11
34.65766059027778
 21
177.4497853732638
 31
0.0
  0
LINE
  5
3C6
102
{ACAD_REACTORS
330
3D2
102
}
330
3B2
100
AcDbEntity
  8
LAYER_1
 62
     7
100
AcDbLine
 10
31.83957248263888
 20
169.3358964843748
 30
0.0
 11
33.22450086805555
 21
169.3358964843748
 31
0.0
  0
LINE
  5
3C7
102
{ACAD_REACTORS
330
3D2
102
}
330
3B2
100
AcDbEntity
  8
LAYER_1
 62
     7
100
AcDbLine
 10
33.22450086805555
 20
169.3358964843748
 30
0.0
 11
34.27043185763887
 21
175.2590353732638
 31
0.0
  0
LINE
  5
3C8
102
{ACAD_REACTORS
330
3D2
102
}
330
3B2
100
AcDbEntity
  8
LAYER_1
 62
     7
100
AcDbLine
 10
34.27043185763887
 20
175.2590353732638
 30
0.0
 11
38.04694552951389
 21
175.2590353732638
 31
0.0
  0
LINE
  5
3C9
102
{ACAD_REACTORS
330
3D2
102
}
330
3B2
100
AcDbEntity
  8
LAYER_1
 62
     7
100
AcDbLine
 10
38.04694552951389
 20
175.2590353732638
 30
0.0
 11
39.05015733506942
 21
169.3358964843748
 31
0.0
  0
LINE
  5
3CA
102
{ACAD_REACTORS
330
3D2
102
}
330
3B2
100
AcDbEntity
  8
LAYER_1
 62
     7
100
AcDbLine
 10
39.05015733506942
 20
169.3358964843748
 30
0.0
 11
40.43508572048611
 21
169.3358964843748
 31
0.0
  0
LINE
  5
3CB
102
{ACAD_REACTORS
330
3D2
102
}
330
3B2
100
AcDbEntity
  8
LAYER_1
 62
     7
100
AcDbLine
 10
40.43508572048611
 20
169.3358964843748
 30
0.0
 11
36.952783203125
 21
189.0932159288193
 31
0.0
  0
LINE
  5
3CC
102
{ACAD_REACTORS
330
3D2
102
}
330
3B2
100
AcDbEntity
  8
LAYER_1
 62
     7
100
AcDbLine
 10
36.952783203125
 20
189.0932159288193
 30
0.0
 11
35.47828233506943
 21
189.0932159288193
 31
0.0
  0
LINE
  5
3CD
102
{ACAD_REACTORS
330
3D2
102
}
330
3B2
100
AcDbEntity
  8
LAYER_1
 62
     7
100
AcDbLine
 10
35.47828233506943
 20
189.0932159288193
 30
0.0
 11
31.83957248263888
 21
169.3358964843748
 31
0.0
  0
HATCH
  5
3CE
330
3B2
100
AcDbEntity
  8
0
  6
Continuous
100
AcDbHatch
 10
0.0
 20
0.0
 30
0.0
210
0.0
220
0.0
230
1.0
  2
SOLID
 70
     1
 71
     1
 91
        2
 92
       16
 93
        1
 72
     4
 94
        3
 73
     0
 74
     0
 95
       29
 96
       25
 40
0.0
 40
0.0
 40
0.0
 40
0.0
 40
1.0
 40
1.0
 40
1.0
 40
2.0
 40
2.0
 40
2.0
 40
3.0
 40
3.0
 40
3.0
 40
4.0
 40
4.0
 40
4.0
 40
5.0
 40
5.0
 40
5.0
 40
6.0
 40
6.0
 40
6.0
 40
7.0
 40
7.0
 40
7.0
 40
8.0
 40
8.0
 40
8.0
 40
8.0
 10
62.85697292751734
 20
171.3365874565971
 10
61.88338894314235
 20
171.3365874565971
 10
61.18058946397567
 20
172.0714263237845
 10
60.74857449001734
 20
173.5411040581596
 10
60.31587049696178
 20
175.0107817925345
 10
60.10020751953123
 20
176.8165630425345
 10
60.10020751953123
 20
178.9578276909721
 10
60.10020751953123
 20
181.6342534722221
 10
60.35101047092013
 20
183.6589360894096
 10
60.85261637369789
 20
185.0324956597221
 10
61.35422227647567
 20
186.4054351128471
 10
62.00741238064234
 20
187.0925249565971
 10
62.81218668619789
 20
187.0925249565971
 10
63.6369425455729
 20
187.0925249565971
 10
64.28806559244789
 20
186.3992339409721
 10
64.76486680772568
 20
185.0126519097221
 10
65.24166802300346
 20
183.626069878472
 10
65.48006863064234
 20
181.7961040581596
 10
65.48006863064234
 20
179.5239946831596
 10
65.48006863064234
 20
177.3734282769096
 10
65.27336290147568
 20
175.4715288628471
 10
64.86132948133678
 20
173.8176763237846
 10
64.4492960611979
 20
172.1632036675346
 10
63.78094753689234
 20
171.3365874565971
 10
62.85697292751734
 20
171.3365874565971
 97
        1
330
3B8
 92
        1
 93
        1
 72
     4
 94
        3
 73
     0
 74
     0
 95
       29
 96
       25
 40
0.0
 40
0.0
 40
0.0
 40
0.0
 40
1.0
 40
1.0
 40
1.0
 40
2.0
 40
2.0
 40
2.0
 40
3.0
 40
3.0
 40
3.0
 40
4.0
 40
4.0
 40
4.0
 40
5.0
 40
5.0
 40
5.0
 40
6.0
 40
6.0
 40
6.0
 40
7.0
 40
7.0
 40
7.0
 40
8.0
 40
8.0
 40
8.0
 40
8.0
 10
62.76119927300346
 20
189.4340874565971
 10
61.47273356119789
 20
189.4340874565971
 10
60.50121663411457
 20
188.2397417534721
 10
59.84733751085068
 20
185.8516704644095
 10
59.3395304361979
 20
183.9900786675346
 10
59.08597140842012
 20
181.7514556206596
 10
59.08597140842012
 20
179.1351812065971
 10
59.08597140842012
 20
176.2379937065971
 10
59.38362765842012
 20
173.8412407769096
 10
59.97894015842012
 20
171.9449224175346
 10
60.64246554904512
 20
169.9779106987846
 10
61.56023898654512
 20
168.9950249565971
 10
62.7315714518229
 20
168.9950249565971
 10
63.9904093424479
 20
168.9950249565971
 10
64.95641411675345
 20
170.1186773003471
 10
65.63027479383679
 20
172.3659819878471
 10
66.20629475911457
 20
174.2796636284721
 10
66.49430474175345
 20
176.6813774956595
 10
66.49430474175345
 20
179.5698833550346
 10
66.49430474175345
 20
182.2388677300345
 10
66.24005669487845
 20
184.4291216362845
 10
65.73293863932289
 20
186.1412651909721
 10
65.08870578342012
 20
188.3364800347221
 10
64.09789632161457
 20
189.4340874565971
 10
62.76119927300346
 20
189.4340874565971
 97
        0
 75
     0
 76
     1
 98
        0
  0
HATCH
  5
3CF
330
3B2
100
AcDbEntity
  8
0
  6
Continuous
100
AcDbHatch
 10
0.0
 20
0.0
 30
0.0
210
0.0
220
0.0
230
1.0
  2
SOLID
 70
     1
 71
     1
 91
        1
 92
        1
 93
        1
 72
     4
 94
        3
 73
     0
 74
     0
 95
       59
 96
       55
 40
0.0
 40
0.0
 40
0.0
 40
0.0
 40
1.0
 40
1.0
 40
1.0
 40
2.0
 40
2.0
 40
2.0
 40
3.0
 40
3.0
 40
3.0
 40
4.0
 40
4.0
 40
4.0
 40
5.0
 40
5.0
 40
5.0
 40
6.0
 40
6.0
 40
6.0
 40
7.0
 40
7.0
 40
7.0
 40
8.0
 40
8.0
 40
8.0
 40
9.0
 40
9.0
 40
9.0
 40
10.0
 40
10.0
 40
10.0
 40
11.0
 40
11.0
 40
11.0
 40
12.0
 40
12.0
 40
12.0
 40
13.0
 40
13.0
 40
13.0
 40
14.0
 40
14.0
 40
14.0
 40
15.0
 40
15.0
 40
15.0
 40
16.0
 40
16.0
 40
16.0
 40
17.0
 40
17.0
 40
17.0
 40
18.0
 40
18.0
 40
18.0
 40
18.0
 10
49.39440104166666
 20
189.0932159288193
 10
49.39440104166666
 20
189.0932159288193
 10
51.24786241319444
 20
189.0932159288193
 10
51.24786241319444
 20
189.0932159288193
 10
51.24786241319444
 20
189.0932159288193
 10
54.04665798611111
 20
172.3887471788193
 10
54.04665798611111
 20
172.3887471788193
 10
54.04665798611111
 20
172.3887471788193
 10
56.83994140624999
 20
189.0932159288193
 10
56.83994140624999
 20
189.0932159288193
 10
56.83994140624999
 20
189.0932159288193
 10
58.69891493055555
 20
189.0932159288193
 10
58.69891493055555
 20
189.0932159288193
 10
58.69891493055555
 20
189.0932159288193
 10
58.69891493055555
 20
169.3358964843748
 10
58.69891493055555
 20
169.3358964843748
 10
58.69891493055555
 20
169.3358964843748
 10
57.46419270833333
 20
169.3358964843748
 10
57.46419270833333
 20
169.3358964843748
 10
57.46419270833333
 20
169.3358964843748
 10
57.46419270833333
 20
180.9964422743054
 10
57.46419270833333
 20
180.9964422743054
 10
57.46419270833333
 20
181.3996011284721
 10
57.47108289930555
 20
182.0677291666665
 10
57.48624131944444
 20
183.0001924913193
 10
57.5007107204861
 20
183.9326558159721
 10
57.50828993055555
 20
184.932312282986
 10
57.50828993055555
 20
185.9997957899304
 10
57.50828993055555
 20
185.9997957899304
 10
54.700537109375
 20
169.3358964843748
 10
54.700537109375
 20
169.3358964843748
 10
54.700537109375
 20
169.3358964843748
 10
53.38382161458333
 20
169.3358964843748
 10
53.38382161458333
 20
169.3358964843748
 10
53.38382161458333
 20
169.3358964843748
 10
50.58502604166666
 20
185.9997957899304
 10
50.58502604166666
 20
185.9997957899304
 10
50.58502604166666
 20
185.9997957899304
 10
50.58502604166666
 20
185.3944236111109
 10
50.58502604166666
 20
185.3944236111109
 10
50.58502604166666
 20
184.9101258680554
 10
50.59191623263888
 20
184.1729029947915
 10
50.60707465277777
 20
183.1821210937498
 10
50.62154405381944
 20
182.1913391927082
 10
50.62912326388889
 20
181.4629908854165
 10
50.62912326388889
 20
180.9964422743054
 10
50.62912326388889
 20
180.9964422743054
 10
50.62912326388889
 20
169.3358964843748
 10
50.62912326388889
 20
169.3358964843748
 10
50.62912326388889
 20
169.3358964843748
 10
49.39440104166666
 20
169.3358964843748
 10
49.39440104166666
 20
169.3358964843748
 10
49.39440104166666
 20
169.3358964843748
 10
49.39440104166666
 20
189.0932159288193
 10
49.39440104166666
 20
189.0932159288193
 97
        1
330
3B7
 75
     0
 76
     1
 98
        1
 10
0.0
 20
0.0
  0
HATCH
  5
3D0
330
3B2
100
AcDbEntity
  8
0
  6
Continuous
100
AcDbHatch
 10
0.0
 20
0.0
 30
0.0
210
0.0
220
0.0
230
1.0
  2
SOLID
 70
     1
 71
     1
 91
        2
 92
       16
 93
        1
 72
     4
 94
        3
 73
     0
 74
     0
 95
       32
 96
       28
 40
0.0
 40
0.0
 40
0.0
 40
0.0
 40
1.0
 40
1.0
 40
1.0
 40
2.0
 40
2.0
 40
2.0
 40
3.0
 40
3.0
 40
3.0
 40
4.0
 40
4.0
 40
4.0
 40
5.0
 40
5.0
 40
5.0
 40
6.0
 40
6.0
 40
6.0
 40
7.0
 40
7.0
 40
7.0
 40
8.0
 40
8.0
 40
8.0
 40
9.0
 40
9.0
 40
9.0
 40
9.0
 10
91.7005181206597
 20
171.6077853732637
 10
91.7005181206597
 20
171.6077853732637
 10
91.7005181206597
 20
186.7401881510415
 10
91.7005181206597
 20
186.7401881510415
 10
91.7005181206597
 20
186.7401881510415
 10
93.98668348524305
 20
186.7401881510415
 10
93.98668348524305
 20
186.7401881510415
 10
95.02159016927082
 20
186.7401881510415
 10
95.77331000434027
 20
186.0644533420137
 10
96.24322102864582
 20
184.714251519097
 10
96.71313205295138
 20
183.3640496961804
 10
96.94808756510417
 20
181.4680620659721
 10
96.94808756510417
 20
179.0262886284721
 10
96.94808756510417
 20
178.3911232638887
 10
96.91432562934027
 20
177.7027105034721
 10
96.84749077690971
 20
176.9604164496526
 10
96.73242458767361
 20
175.7167094184026
 10
96.55052354600693
 20
174.6974021267359
 10
96.30109863281248
 20
173.9018606770832
 10
95.98414984809027
 20
172.9091770833332
 10
95.57693956163193
 20
172.2378795572915
 10
95.07877875434026
 20
171.8892358940971
 10
94.79076877170138
 20
171.7016022135415
 10
94.43178982204861
 20
171.6077853732637
 10
94.00115288628471
 20
171.6077853732637
 10
94.00115288628471
 20
171.6077853732637
 10
91.7005181206597
 20
171.6077853732637
 10
91.7005181206597
 20
171.6077853732637
 97
        1
330
3BC
 92
        1
 93
        1
 72
     4
 94
        3
 73
     0
 74
     0
 95
       26
 96
       22
 40
0.0
 40
0.0
 40
0.0
 40
0.0
 40
1.0
 40
1.0
 40
1.0
 40
2.0
 40
2.0
 40
2.0
 40
3.0
 40
3.0
 40
3.0
 40
4.0
 40
4.0
 40
4.0
 40
5.0
 40
5.0
 40
5.0
 40
6.0
 40
6.0
 40
6.0
 40
7.0
 40
7.0
 40
7.0
 40
7.0
 10
90.37760145399305
 20
169.3358964843748
 10
90.37760145399305
 20
169.3358964843748
 10
94.22990722656249
 20
169.3358964843748
 10
94.22990722656249
 20
169.3358964843748
 10
95.87115071614581
 20
169.3358964843748
 10
97.03008083767359
 20
170.8331625434026
 10
97.70600857204861
 20
173.8283285590276
 10
98.08221299913194
 20
175.5227367621526
 10
98.27100423177082
 20
177.4187243923609
 10
98.27100423177082
 20
179.5169253472221
 10
98.27100423177082
 20
182.233810329861
 10
97.94716525607638
 20
184.4619602864582
 10
97.30086534288194
 20
186.2013752170137
 10
96.57601725260416
 20
188.1290577256943
 10
95.5576470269097
 20
189.0932159288193
 10
94.24437662760416
 20
189.0932159288193
 10
94.24437662760416
 20
189.0932159288193
 10
90.37760145399305
 20
189.0932159288193
 10
90.37760145399305
 20
189.0932159288193
 10
90.37760145399305
 20
189.0932159288193
 10
90.37760145399305
 20
169.3358964843748
 10
90.37760145399305
 20
169.3358964843748
 97
        0
 75
     0
 76
     1
 98
        0
  0
HATCH
  5
3D1
330
3B2
100
AcDbEntity
  8
0
  6
Continuous
100
AcDbHatch
 10
0.0
 20
0.0
 30
0.0
210
0.0
220
0.0
230
1.0
  2
SOLID
 70
     1
 71
     1
 91
        2
 92
       16
 93
        1
 72
     4
 94
        3
 73
     0
 74
     0
 95
       26
 96
       22
 40
0.0
 40
0.0
 40
0.0
 40
0.0
 40
1.0
 40
1.0
 40
1.0
 40
2.0
 40
2.0
 40
2.0
 40
3.0
 40
3.0
 40
3.0
 40
4.0
 40
4.0
 40
4.0
 40
5.0
 40
5.0
 40
5.0
 40
6.0
 40
6.0
 40
6.0
 40
7.0
 40
7.0
 40
7.0
 40
7.0
 10
100.5623372395832
 20
180.0462298177082
 10
100.5623372395832
 20
180.0462298177082
 10
100.5623372395832
 20
186.7401881510415
 10
100.5623372395832
 20
186.7401881510415
 10
100.5623372395832
 20
186.7401881510415
 10
103.6732584635416
 20
186.7401881510415
 10
103.6732584635416
 20
186.7401881510415
 10
104.1107855902777
 20
186.7401881510415
 10
104.4580512152777
 20
186.6064357638887
 10
104.7150553385415
 20
186.340198784722
 10
105.2097710503471
 20
185.8330807291665
 10
105.4571289062499
 20
184.8822343749998
 10
105.4571289062499
 20
183.4863919270832
 10
105.4571289062499
 20
182.188169704861
 10
105.280740017361
 20
181.2905707465276
 10
104.9286512586804
 20
180.7929611545137
 10
104.5765624999999
 20
180.2947176649304
 10
104.1011393229166
 20
180.0462298177082
 10
103.5023817274304
 20
180.0462298177082
 10
103.5023817274304
 20
180.0462298177082
 10
100.5623372395832
 20
180.0462298177082
 10
100.5623372395832
 20
180.0462298177082
 97
        1
330
3BD
 92
        1
 93
        1
 72
     4
 94
        3
 73
     0
 74
     0
 95
       68
 96
       64
 40
0.0
 40
0.0
 40
0.0
 40
0.0
 40
1.0
 40
1.0
 40
1.0
 40
2.0
 40
2.0
 40
2.0
 40
3.0
 40
3.0
 40
3.0
 40
4.0
 40
4.0
 40
4.0
 40
5.0
 40
5.0
 40
5.0
 40
6.0
 40
6.0
 40
6.0
 40
7.0
 40
7.0
 40
7.0
 40
8.0
 40
8.0
 40
8.0
 40
9.0
 40
9.0
 40
9.0
 40
10.0
 40
10.0
 40
10.0
 40
11.0
 40
11.0
 40
11.0
 40
12.0
 40
12.0
 40
12.0
 40
13.0
 40
13.0
 40
13.0
 40
14.0
 40
14.0
 40
14.0
 40
15.0
 40
15.0
 40
15.0
 40
16.0
 40
16.0
 40
16.0
 40
17.0
 40
17.0
 40
17.0
 40
18.0
 40
18.0
 40
18.0
 40
19.0
 40
19.0
 40
19.0
 40
20.0
 40
20.0
 40
20.0
 40
21.0
 40
21.0
 40
21.0
 40
21.0
 10
99.23942057291661
 20
169.3358964843748
 10
99.23942057291661
 20
169.3358964843748
 10
100.5623372395832
 20
169.3358964843748
 10
100.5623372395832
 20
169.3358964843748
 10
100.5623372395832
 20
169.3358964843748
 10
100.5623372395832
 20
177.8149103732637
 10
100.5623372395832
 20
177.8149103732637
 10
100.5623372395832
 20
177.8149103732637
 10
103.4472601996527
 20
177.8149103732637
 10
103.4472601996527
 20
177.8149103732637
 10
103.9681586371527
 20
177.8149103732637
 10
104.3519422743054
 20
177.6938359374998
 10
104.598611111111
 20
177.4516870659721
 10
105.0244249131943
 20
177.0117621527776
 10
105.2518012152777
 20
176.1458580729165
 10
105.280740017361
 20
174.8539748263887
 10
105.280740017361
 20
174.8539748263887
 10
105.3689344618054
 20
171.5564396701387
 10
105.3689344618054
 20
171.5564396701387
 10
105.3882269965277
 20
170.7843524305554
 10
105.410964626736
 20
170.2639225260415
 10
105.435769314236
 20
169.9951499565971
 10
105.460574001736
 20
169.7257434895832
 10
105.4970920138888
 20
169.5057810329859
 10
105.5467013888888
 20
169.3358964843748
 10
105.5467013888888
 20
169.3358964843748
 10
107.1769205729166
 20
169.3358964843748
 10
107.1769205729166
 20
169.3358964843748
 10
107.1769205729166
 20
169.3358964843748
 10
107.1769205729166
 20
169.7821603732637
 10
107.1769205729166
 20
169.7821603732637
 10
106.9750379774304
 20
169.9609194878471
 10
106.8337890624999
 20
170.3628105468748
 10
106.7538628472221
 20
170.9878335503471
 10
106.7028754340276
 20
171.3542263454859
 10
106.6677354600693
 20
171.9120562065971
 10
106.6477539062499
 20
172.6625909288193
 10
106.6477539062499
 20
172.6625909288193
 10
106.6036566840277
 20
175.3205234374999
 10
106.6036566840277
 20
175.3205234374999
 10
106.5836751302082
 20
176.4716814236109
 10
106.4768771701388
 20
177.303355034722
 10
106.2839518229166
 20
177.8142764756943
 10
106.0903374565971
 20
178.3251979166665
 10
105.8002604166666
 20
178.7372313368054
 10
105.4130316840276
 20
179.0516445312498
 10
105.8443576388888
 20
179.5086846788193
 10
106.179909939236
 20
180.1134229600693
 10
106.4196885850693
 20
180.8664932725693
 10
106.6594672309027
 20
181.6189296874999
 10
106.7800455729166
 20
182.5868912760415
 10
106.7800455729166
 20
183.7697441406248
 10
106.7800455729166
 20
186.0371957465276
 10
106.3328721788193
 20
187.5921464843749
 10
105.4392144097221
 20
188.4345963541665
 10
104.9679253472221
 20
188.8732534722221
 10
104.3719238281249
 20
189.0932159288193
 10
103.6512098524304
 20
189.0932159288193
 10
103.6512098524304
 20
189.0932159288193
 10
99.23942057291661
 20
189.0932159288193
 10
99.23942057291661
 20
189.0932159288193
 10
99.23942057291661
 20
189.0932159288193
 10
99.23942057291661
 20
169.3358964843748
 10
99.23942057291661
 20
169.3358964843748
 97
        0
 75
     0
 76
     1
 98
        0
  0
HATCH
  5
3D2
330
3B2
100
AcDbEntity
  8
0
  6
Continuous
100
AcDbHatch
 10
0.0
 20
0.0
 30
0.0
210
0.0
220
0.0
230
1.0
  2
SOLID
 70
     1
 71
     1
 91
        2
 92
        1
 93
        8
 72
     1
 10
35.47828233506943
 20
189.0932159288193
 11
31.83957248263888
 21
169.3358964843748
 72
     1
 10
31.83957248263888
 20
169.3358964843748
 11
33.22450086805555
 21
169.3358964843748
 72
     1
 10
33.22450086805555
 20
169.3358964843748
 11
34.27043185763887
 21
175.2590353732638
 72
     1
 10
34.27043185763887
 20
175.2590353732638
 11
38.04694552951389
 21
175.2590353732638
 72
     1
 10
38.04694552951389
 20
175.2590353732638
 11
39.05015733506942
 21
169.3358964843748
 72
     1
 10
39.05015733506942
 20
169.3358964843748
 11
40.43508572048611
 21
169.3358964843748
 72
     1
 10
40.43508572048611
 20
169.3358964843748
 11
36.952783203125
 21
189.0932159288193
 72
     1
 10
36.952783203125
 20
189.0932159288193
 11
35.47828233506943
 21
189.0932159288193
 97
        8
330
3CD
330
3C6
330
3C7
330
3C8
330
3C9
330
3CA
330
3CB
330
3CC
 92
       16
 93
        3
 72
     1
 10
37.67556423611111
 20
177.4497853732638
 11
34.65766059027778
 21
177.4497853732638
 72
     1
 10
34.65766059027778
 20
177.4497853732638
 11
36.19830729166666
 21
186.1658769531249
 72
     1
 10
36.19830729166666
 20
186.1658769531249
 11
37.67556423611111
 21
177.4497853732638
 97
        3
330
3C5
330
3C3
330
3C4
 75
     0
 76
     1
 98
        1
 10
0.0
 20
0.0
  0
HATCH
  5
3D3
330
3B2
100
AcDbEntity
  8
0
  6
Continuous
100
AcDbHatch
 10
0.0
 20
0.0
 30
0.0
210
0.0
220
0.0
230
1.0
  2
SOLID
 70
     1
 71
     1
 91
        1
 92
        1
 93
        1
 72
     4
 94
        3
 73
     0
 74
     0
 95
      113
 96
      109
 40
0.0
 40
0.0
 40
0.0
 40
0.0
 40
1.0
 40
1.0
 40
1.0
 40
2.0
 40
2.0
 40
2.0
 40
3.0
 40
3.0
 40
3.0
 40
4.0
 40
4.0
 40
4.0
 40
5.0
 40
5.0
 40
5.0
 40
6.0
 40
6.0
 40
6.0
 40
7.0
 40
7.0
 40
7.0
 40
8.0
 40
8.0
 40
8.0
 40
9.0
 40
9.0
 40
9.0
 40
10.0
 40
10.0
 40
10.0
 40
11.0
 40
11.0
 40
11.0
 40
12.0
 40
12.0
 40
12.0
 40
13.0
 40
13.0
 40
13.0
 40
14.0
 40
14.0
 40
14.0
 40
15.0
 40
15.0
 40
15.0
 40
16.0
 40
16.0
 40
16.0
 40
17.0
 40
17.0
 40
17.0
 40
18.0
 40
18.0
 40
18.0
 40
19.0
 40
19.0
 40
19.0
 40
20.0
 40
20.0
 40
20.0
 40
21.0
 40
21.0
 40
21.0
 40
22.0
 40
22.0
 40
22.0
 40
23.0
 40
23.0
 40
23.0
 40
24.0
 40
24.0
 40
24.0
 40
25.0
 40
25.0
 40
25.0
 40
26.0
 40
26.0
 40
26.0
 40
27.0
 40
27.0
 40
27.0
 40
28.0
 40
28.0
 40
28.0
 40
29.0
 40
29.0
 40
29.0
 40
30.0
 40
30.0
 40
30.0
 40
31.0
 40
31.0
 40
31.0
 40
32.0
 40
32.0
 40
32.0
 40
33.0
 40
33.0
 40
33.0
 40
34.0
 40
34.0
 40
34.0
 40
35.0
 40
35.0
 40
35.0
 40
36.0
 40
36.0
 40
36.0
 40
36.0
 10
193.3039632161458
 20
186.1548733181423
 10
193.3039632161458
 20
186.1860514322916
 10
193.3039632161458
 20
219.6932223849826
 10
193.3039632161458
 20
219.6932223849826
 10
193.3039632161458
 20
219.6932223849826
 10
193.2974175347219
 20
219.7488606770833
 10
193.2974175347219
 20
219.7488606770833
 10
191.5293945312499
 20
235.455740017361
 10
175.1458984374999
 20
235.2467949761284
 10
174.9808783637151
 20
235.2428331163193
 10
174.9808783637151
 20
235.2428331163193
 10
125.8827555338541
 20
235.2430053710937
 10
125.8827555338541
 20
235.2430053710937
 10
125.8827555338541
 20
235.2430053710937
 10
125.8827555338541
 20
255.5278998480901
 10
125.8827555338541
 20
255.5278998480901
 10
125.8827555338541
 20
255.5278998480901
 10
84.5626247829861
 20
255.5278998480901
 10
84.5626247829861
 20
255.5278998480901
 10
84.5626247829861
 20
255.5278998480901
 10
84.55711263020829
 20
233.7919311523436
 10
84.55711263020829
 20
233.7919311523436
 10
84.55711263020829
 20
233.7919311523436
 10
64.42052951388888
 20
233.7919311523436
 10
64.42052951388888
 20
233.7919311523436
 10
64.42052951388888
 20
233.7919311523436
 10
64.41501736111111
 20
255.5278998480901
 10
64.41501736111111
 20
255.5278998480901
 10
64.41501736111111
 20
255.5278998480901
 10
23.91757541232637
 20
255.5278998480901
 10
23.91757541232637
 20
255.5278998480901
 10
23.91757541232637
 20
255.5278998480901
 10
23.91757541232637
 20
233.2393378363715
 10
23.91757541232637
 20
233.2393378363715
 10
23.91757541232637
 20
233.2393378363715
 10
43.65624999999999
 20
233.2393378363715
 10
43.65624999999999
 20
233.2393378363715
 10
43.65624999999999
 20
233.2393378363715
 10
43.65624999999999
 20
211.5188720703125
 10
43.65624999999999
 20
211.5188720703125
 10
43.65624999999999
 20
211.5188720703125
 10
23.91757541232637
 20
211.5188720703125
 10
23.91757541232637
 20
211.5188720703125
 10
23.91757541232637
 20
211.5188720703125
 10
23.91757541232637
 20
189.2303100585936
 10
23.91757541232637
 20
189.2303100585936
 10
23.91757541232637
 20
189.2303100585936
 10
64.41501736111111
 20
189.2303100585936
 10
64.41501736111111
 20
189.2303100585936
 10
64.41501736111111
 20
189.2303100585936
 10
64.42052951388888
 20
211.069976128472
 10
64.42052951388888
 20
211.069976128472
 10
64.42052951388888
 20
211.069976128472
 10
84.55711263020829
 20
211.069976128472
 10
84.55711263020829
 20
211.069976128472
 10
84.55711263020829
 20
211.069976128472
 10
84.5626247829861
 20
189.2303100585936
 10
84.5626247829861
 20
189.2303100585936
 10
84.5626247829861
 20
189.2303100585936
 10
125.8827555338541
 20
189.2303100585936
 10
125.8827555338541
 20
189.2303100585936
 10
125.8827555338541
 20
189.2303100585936
 10
125.8827555338541
 20
211.5188720703125
 10
125.8827555338541
 20
211.5188720703125
 10
125.8827555338541
 20
211.5188720703125
 10
105.3213921440971
 20
211.5188720703125
 10
105.3213921440971
 20
211.5188720703125
 10
105.3213921440971
 20
211.5188720703125
 10
105.3213921440971
 20
233.2393378363715
 10
105.3213921440971
 20
233.2393378363715
 10
105.3213921440971
 20
233.2393378363715
 10
175.0046495225693
 20
233.243127441406
 10
175.0046495225693
 20
233.243127441406
 10
175.6268337673611
 20
233.2560465494791
 10
189.7165852864583
 20
233.3962619357638
 10
191.3037407769094
 20
219.5690266927083
 10
191.3037407769094
 20
219.4332899305555
 10
191.3037407769094
 20
186.1142211914062
 10
191.3037407769094
 20
186.1142211914062
 10
191.3037407769094
 20
186.1142211914062
 10
191.3051188151039
 20
186.0880384657115
 10
191.3051188151039
 20
186.0880384657115
 10
191.3054633246526
 20
186.0787367078991
 10
191.3109754774304
 20
185.9566080729166
 10
191.3109754774304
 20
185.7399115668401
 10
191.3109754774304
 20
184.2090833875865
 10
191.0488037109374
 20
177.9643310546874
 10
186.9866916232638
 20
173.5652886284722
 10
184.2540418836804
 20
170.6064683702255
 10
180.3224989149304
 20
169.0308539496526
 10
175.300927734375
 20
168.8825425889756
 10
175.300927734375
 20
168.8825425889756
 10
107.0094889322916
 20
168.8828870985243
 10
107.0094889322916
 20
168.8828870985243
 10
107.0094889322916
 20
168.8828870985243
 10
107.0094889322916
 20
166.8830091688368
 10
107.0094889322916
 20
166.8830091688368
 10
107.0094889322916
 20
166.8830091688368
 10
175.3305555555555
 20
166.8830091688368
 10
175.3305555555555
 20
166.8830091688368
 10
180.9467502170138
 20
167.0485460069444
 10
185.3571614583333
 20
168.8448187934026
 10
188.4687717013888
 20
172.2223904079861
 10
192.9649658203124
 20
177.1034016927083
 10
193.3136094835069
 20
183.7202243381076
 10
193.3136094835069
 20
185.6520616319443
 10
193.3136094835069
 20
185.9247409396701
 10
193.3070638020833
 20
186.0868326822916
 10
193.3039632161458
 20
186.1548733181423
 97
        1
330
3B3
 75
     0
 76
     1
 98
        1
 10
0.0
 20
0.0
  0
HATCH
  5
3D4
330
3B2
100
AcDbEntity
  8
0
  6
Continuous
100
AcDbHatch
 10
0.0
 20
0.0
 30
0.0
210
0.0
220
0.0
230
1.0
  2
SOLID
 70
     1
 71
     1
 91
        2
 92
        1
 93
        1
 72
     4
 94
        3
 73
     0
 74
     0
 95
       23
 96
       19
 40
0.0
 40
0.0
 40
0.0
 40
0.0
 40
1.0
 40
1.0
 40
1.0
 40
2.0
 40
2.0
 40
2.0
 40
3.0
 40
3.0
 40
3.0
 40
4.0
 40
4.0
 40
4.0
 40
5.0
 40
5.0
 40
5.0
 40
6.0
 40
6.0
 40
6.0
 40
6.0
 10
148.6593153211805
 20
211.3929538302948
 10
148.6593153211805
 20
211.3929538302948
 10
148.6593153211805
 20
189.6308024088539
 10
148.6593153211805
 20
189.6308024088539
 10
148.6593153211805
 20
189.6308024088539
 10
161.3152180989583
 20
189.6308024088539
 10
161.3152180989583
 20
189.6308024088539
 10
162.8431179470485
 20
189.6308024088539
 10
170.465736219618
 20
190.1880466037323
 10
170.465736219618
 20
201.1911648220483
 10
170.465736219618
 20
211.1288872612844
 10
162.3356553819444
 20
211.3914035373261
 10
162.2536621093749
 20
211.3927815755205
 10
162.2536621093749
 20
211.3927815755205
 10
149.6594265407986
 20
211.3929538302948
 10
149.6594265407986
 20
211.3929538302948
 10
149.6594265407986
 20
211.3929538302948
 10
148.6593153211805
 20
211.3929538302948
 10
148.6593153211805
 20
211.3929538302948
 97
        1
330
3B4
 92
       16
 93
        1
 72
     4
 94
        3
 73
     0
 74
     0
 95
       20
 96
       16
 40
0.0
 40
0.0
 40
0.0
 40
0.0
 40
1.0
 40
1.0
 40
1.0
 40
2.0
 40
2.0
 40
2.0
 40
3.0
 40
3.0
 40
3.0
 40
4.0
 40
4.0
 40
4.0
 40
5.0
 40
5.0
 40
5.0
 40
5.0
 10
162.2354031032986
 20
209.3930759006073
 10
162.4679470486111
 20
209.3861857096351
 10
168.4655137803819
 20
209.1283203124997
 10
168.4655137803819
 20
201.1911648220483
 10
168.4655137803819
 20
192.3202162000865
 10
162.9926350911458
 20
191.6306803385413
 10
161.3152180989583
 20
191.6306803385413
 10
161.3152180989583
 20
191.6306803385413
 10
152.3310980902777
 20
191.6306803385413
 10
150.6595377604166
 20
191.6306803385413
 10
150.6595377604166
 20
193.3373806423608
 10
150.6595377604166
 20
207.6863755967879
 10
150.6595377604166
 20
209.3930759006073
 10
152.3538357204861
 20
209.3930759006073
 10
162.2354031032986
 20
209.3930759006073
 10
162.2354031032986
 20
209.3930759006073
 97
        0
 75
     0
 76
     1
 98
        0
  0
ENDBLK
  5
3D6
330
3B2
100
AcDbEntity
  8
0
100
AcDbBlockEnd
  0
BLOCK
  5
3D9
330
3D7
100
AcDbEntity
  8
0
100
AcDbBlockBegin
  2
HD logo-new
 70
     0
 10
0.0
 20
0.0
 30
0.0
  3
HD logo-new
  1

  0
INSERT
  5
3D8
330
3D7
100
AcDbEntity
  8
0
 62
     3
100
AcDbBlockReference
  2
HD_LLC_logo_OT5
 10
-27.1607188578505
 20
-68.37367811463031
 30
0.0
 41
0.2999999999999971
 42
0.3000000000000007
 43
0.3
  0
ENDBLK
  5
3DA
330
3D7
100
AcDbEntity
  8
0
100
AcDbBlockEnd
  0
BLOCK
  5
3F0
330
3EE
100
AcDbEntity
  8
0
100
AcDbBlockBegin
  2
HD LLC
 70
     0
 10
0.0
 20
0.0
 30
0.0
  3
HD LLC
  1

  0
MTEXT
  5
3EF
330
3EE
100
AcDbEntity
  8
0
100
AcDbMText
 10
-2.314970886968865
 20
1.247205085865914
 30
0.0
 40
5.675387507387601
 41
236.1828726592229
 71
     5
 72
     5
  1
Harmonic Drive LLC\P800-921-3332\Pwww.harmonicdrive.net
 73
     1
 44
1.0
  0
ENDBLK
  5
3F1
330
3EE
100
AcDbEntity
  8
0
100
AcDbBlockEnd
  0
ENDSEC
  0
SECTION
  2
ENTITIES
  0
ARC
  5
344
330
A
100
AcDbEntity
  8
1
  6
Continuous
 62
     7
100
AcDbCircle
 10
-202.2481128699909
 20
141.334475525658
 30
0.0
 40
1.563
100
AcDbArc
 50
180.0
 51
-90.0
  0
ARC
  5
343
330
A
100
AcDbEntity
  8
1
  6
Continuous
 62
     7
100
AcDbCircle
 10
-202.2481128699909
 20
199.3424755256589
 30
0.0
 40
1.563
100
AcDbArc
 50
90.0
 51
180.0
  0
ARC
  5
342
330
A
100
AcDbEntity
  8
1
  6
Continuous
 62
     7
100
AcDbCircle
 10
-204.4371128699909
 20
190.588475525657
 30
0.0
 40
0.25
100
AcDbArc
 50
-90.0
 51
0.0
  0
ARC
  5
341
330
A
100
AcDbEntity
  8
1
  6
Continuous
 62
     7
100
AcDbCircle
 10
-204.4371128699909
 20
150.088475525657
 30
0.0
 40
0.25
100
AcDbArc
 50
0.0
 51
90.0
  0
ARC
  5
340
330
A
100
AcDbEntity
  8
1
  6
Continuous
 62
     7
100
AcDbCircle
 10
-202.374112869991
 20
141.08447552566
 30
0.0
 40
1.813
100
AcDbArc
 50
180.0
 51
-90.0
  0
ARC
  5
33F
330
A
100
AcDbEntity
  8
1
  6
Continuous
 62
     7
100
AcDbCircle
 10
-202.374112869991
 20
199.5924755256579
 30
0.0
 40
1.813000000000999
100
AcDbArc
 50
90.0
 51
180.0
  0
ARC
  5
33E
330
A
100
AcDbEntity
  8
1
  6
Continuous
 62
     7
100
AcDbCircle
 10
-191.61111286998
 20
207.0384748872269
 30
0.0
 40
0.2
100
AcDbArc
 50
180.0
 51
-90.0
  0
ARC
  5
33D
330
A
100
AcDbEntity
  8
1
  6
Continuous
 62
     7
100
AcDbCircle
 10
-191.61111286998
 20
133.6384761640879
 30
0.0
 40
0.2
100
AcDbArc
 50
90.0
 51
180.0
  0
SPLINE
  5
33C
330
A
100
AcDbEntity
  8
1
  6
Continuous
 62
     7
100
AcDbSpline
210
0.0
220
0.0
230
1.0
 70
    11
 71
     3
 72
    83
 73
    79
 74
    77
 42
0.0000000001
 43
0.0000000001
 44
0.00000000001
 40
0.0
 40
0.0
 40
0.0
 40
0.0
 40
0.0592750199773136
 40
0.1186678255969254
 40
0.1831110538381313
 40
0.2477283264010963
 40
0.3195052094849266
 40
0.3914432559656957
 40
0.4713956447061064
 40
0.5514637957921871
 40
0.6393217015482314
 40
0.727253728113682
 40
0.821952695196078
 40
0.9166965992351022
 40
1.016630939560182
 40
1.116590652003264
 40
1.219801670048963
 40
1.323024126773569
 40
1.427352675563455
 40
1.531681224353336
 40
1.634903681077774
 40
1.738114699123082
 40
1.838074411565608
 40
1.93800875189005
 40
2.032752655928711
 40
2.127451623010757
 40
2.215383649576488
 40
2.303241555332889
 40
2.383309706419626
 40
2.463262095160739
 40
2.53520014164145
 40
2.606977024724846
 40
2.67159429728747
 40
2.736037525528711
 40
2.79543033114861
 40
2.85470535112609
 40
2.912142458954813
 40
2.969579566783535
 40
3.028854586760732
 40
3.088247392380516
 40
3.152690620621979
 40
3.217307893184994
 40
3.289084776268748
 40
3.361022822749608
 40
3.440975211490312
 40
3.521043362576613
 40
3.608901268332721
 40
3.696833294898368
 40
3.791532261980344
 40
3.886276166018695
 40
3.986210506343014
 40
4.086170218785522
 40
4.189381236831525
 40
4.292603693556659
 40
4.396932242346683
 40
4.501260791136252
 40
4.604483247860593
 40
4.707694265906455
 40
4.807653978349682
 40
4.907588318674253
 40
5.00233222271246
 40
5.097031189794312
 40
5.18496321636016
 40
5.272821122116561
 40
5.35288927320323
 40
5.432841661944186
 40
5.50477970842498
 40
5.576556591508692
 40
5.641173864071406
 40
5.705617092312601
 40
5.7650098979323
 40
5.824284917909449
 40
5.881929620874888
 40
5.940006847969987
 40
5.969446505306589
 40
5.998886162643079
 40
6.028539898403977
 40
6.057337320467265
 40
6.057337320467265
 40
6.057337320467265
 40
6.057337320467265
 10
-205.1038723925268
 20
133.8432344932562
 30
0.0
 10
-205.0844939795886
 20
133.8473071828191
 30
0.0
 10
-205.045698646786
 20
133.8554606548036
 30
0.0
 10
-204.9893215188931
 20
133.879732547852
 30
0.0
 10
-204.9350693049681
 20
133.9116586677632
 30
0.0
 10
-204.882136831172
 20
133.9529266073824
 30
0.0
 10
-204.8323436511489
 20
134.0015160810371
 30
0.0
 10
-204.7843528695513
 20
134.0587100037652
 30
0.0
 10
-204.7401015563505
 20
134.1222328700407
 30
0.0
 10
-204.698331374619
 20
134.1936086582215
 30
0.0
 10
-204.6607220939972
 20
134.2702352160547
 30
0.0
 10
-204.6263340587399
 20
134.3536437803253
 30
0.0
 10
-204.5964173760872
 20
134.4411880007357
 30
0.0
 10
-204.5703910246585
 20
134.5341177734731
 30
0.0
 10
-204.5490620173643
 20
134.6300342953701
 30
0.0
 10
-204.5321404733402
 20
134.7296837347325
 30
0.0
 10
-204.5200665370849
 20
134.8311399938403
 30
0.0
 10
-204.512723257302
 20
134.9345053027983
 30
0.0
 10
-204.5103031077506
 20
135.0384755256573
 30
0.0
 10
-204.5127232573013
 20
135.1424457485203
 30
0.0
 10
-204.5200665370863
 20
135.2458110574662
 30
0.0
 10
-204.5321404733344
 20
135.3472673166168
 30
0.0
 10
-204.5490620173846
 20
135.4469167558227
 30
0.0
 10
-204.570391024584
 20
135.5428332782867
 30
0.0
 10
-204.5964173763488
 20
135.6357630490117
 30
0.0
 10
-204.6263340577915
 20
135.7233072766648
 30
0.0
 10
-204.6607220972558
 20
135.8067158157563
 30
0.0
 10
-204.6983313628956
 20
135.8833424632599
 30
0.0
 10
-204.7401015957914
 20
135.9547179452119
 30
0.0
 10
-204.784352728376
 20
136.0182418925169
 30
0.0
 10
-204.8323441192688
 20
136.0754321684766
 30
0.0
 10
-204.8821351559644
 20
136.1240344704235
 30
0.0
 10
-204.9350748623568
 20
136.1652591213488
 30
0.0
 10
-204.9893014543102
 20
136.1973385944454
 30
0.0
 10
-205.0457669920529
 20
136.2210813349205
 30
0.0
 10
-205.1030196732026
 20
136.2350977290388
 30
0.0
 10
-205.1611128699906
 20
136.2401223417196
 30
0.0
 10
-205.2192060667784
 20
136.2350977290387
 30
0.0
 10
-205.2764587479279
 20
136.2210813349205
 30
0.0
 10
-205.3329242856706
 20
136.1973385944454
 30
0.0
 10
-205.3871508776241
 20
136.1652591213487
 30
0.0
 10
-205.4400905840166
 20
136.1240344704228
 30
0.0
 10
-205.4898816207122
 20
136.0754321684757
 30
0.0
 10
-205.537873011605
 20
136.0182418925158
 30
0.0
 10
-205.5821241441893
 20
135.9547179452111
 30
0.0
 10
-205.6238943770852
 20
135.8833424632593
 30
0.0
 10
-205.661503642725
 20
135.8067158157562
 30
0.0
 10
-205.6958916821893
 20
135.7233072766649
 30
0.0
 10
-205.7258083636321
 20
135.6357630490119
 30
0.0
 10
-205.7518347153971
 20
135.5428332782871
 30
0.0
 10
-205.7731637225968
 20
135.4469167558234
 30
0.0
 10
-205.7900852666468
 20
135.3472673166172
 30
0.0
 10
-205.8021592028946
 20
135.2458110574661
 30
0.0
 10
-205.8095024826797
 20
135.1424457485195
 30
0.0
 10
-205.8119226322297
 20
135.0384755256573
 30
0.0
 10
-205.8095024826809
 20
134.9345053027951
 30
0.0
 10
-205.8021592028898
 20
134.8311399938498
 30
0.0
 10
-205.7900852666649
 20
134.7296837346956
 30
0.0
 10
-205.7731637225315
 20
134.6300342955009
 30
0.0
 10
-205.7518347156352
 20
134.534117772994
 30
0.0
 10
-205.7258083627953
 20
134.4411880024211
 30
0.0
 10
-205.6958916852229
 20
134.3536437742209
 30
0.0
 10
-205.6615036323028
 20
134.2702352370324
 30
0.0
 10
-205.6238944145825
 20
134.1936085827523
 30
0.0
 10
-205.5821240180378
 20
134.1222331239428
 30
0.0
 10
-205.5378734631549
 20
134.0587090949415
 30
0.0
 10
-205.4898801234299
 20
134.0015190945781
 30
0.0
 10
-205.440095942171
 20
133.9529158231615
 30
0.0
 10
-205.3871331023117
 20
133.9116944436814
 30
0.0
 10
-205.3329884622621
 20
133.8796033812632
 30
0.0
 10
-205.2762401455152
 20
133.8559006303039
 30
0.0
 10
-205.2199453651766
 20
133.8417227065946
 30
0.0
 10
-205.1578310380983
 20
133.837217718127
 30
0.0
 10
-205.1210535930915
 20
133.8400127259217
 30
0.0
 10
-205.0587376820486
 20
133.8507935496528
 30
0.0
 10
-205.1032718582225
 20
133.843315178993
 30
0.0
 10
-205.1466647163441
 20
133.8361391051896
 30
0.0
 10
-205.1179965033332
 20
133.8408925768018
 30
0.0
 10
-205.1038723925268
 20
133.8432344932562
 30
0.0
 11
-205.1038723925268
 21
133.8432344932562
 31
0.0
 11
-205.0463008584104
 21
133.8573428756155
 31
0.0
 11
-204.9914462712982
 21
133.8801130234437
 31
0.0
 11
-204.9359020655205
 21
133.9127897869105
 31
0.0
 11
-204.8847753609569
 21
133.9523049990945
 31
0.0
 11
-204.8332584917322
 21
134.002284326126
 31
0.0
 11
-204.7868830311442
 21
134.0572788639158
 31
0.0
 11
-204.7410129359618
 21
134.1227641205256
 31
0.0
 11
-204.7004655243664
 21
134.1918062542648
 31
0.0
 11
-204.6616050438007
 21
134.2706026669626
 31
0.0
 11
-204.6280104636351
 21
134.351864253702
 31
0.0
 11
-204.5972703965468
 21
134.4414351342485
 31
0.0
 11
-204.5716669968132
 21
134.5326539550841
 31
0.0
 11
-204.5498913673124
 21
134.6301869973624
 31
0.0
 11
-204.5331295530741
 21
134.7287313310155
 31
0.0
 11
-204.5208811104481
 21
134.8312129874193
 31
0.0
 11
-204.5135641007811
 21
134.9341757813878
 31
0.0
 11
-204.5111126853168
 21
135.038475525658
 31
0.0
 11
-204.513564100781
 21
135.1427752699282
 31
0.0
 11
-204.5208811104479
 21
135.2457380638965
 31
0.0
 11
-204.533129553074
 21
135.3482197202999
 31
0.0
 11
-204.5498913673123
 21
135.4467640539525
 31
0.0
 11
-204.5716669968131
 21
135.5442970962301
 31
0.0
 11
-204.5972703965467
 21
135.6355159170653
 31
0.0
 11
-204.628010463635
 21
135.7250867976115
 31
0.0
 11
-204.6616050438007
 21
135.8063483843511
 31
0.0
 11
-204.7004655243664
 21
135.8851447970493
 31
0.0
 11
-204.7410129359619
 21
135.9541869307892
 31
0.0
 11
-204.7868830311445
 21
136.0196721873997
 31
0.0
 11
-204.8332584917325
 21
136.0746667251895
 31
0.0
 11
-204.8847753609571
 21
136.1246460522204
 31
0.0
 11
-204.9359020655207
 21
136.1641612644038
 31
0.0
 11
-204.9914462712982
 21
136.1968380278711
 31
0.0
 11
-205.0463008584104
 21
136.2196081757001
 31
0.0
 11
-205.103872392527
 21
136.2337165580592
 31
0.0
 11
-205.1611128699905
 21
136.2384651468471
 31
0.0
 11
-205.218353347454
 21
136.2337165580592
 31
0.0
 11
-205.2759248815704
 21
136.2196081757001
 31
0.0
 11
-205.3307794686825
 21
136.1968380278711
 31
0.0
 11
-205.3863236744601
 21
136.1641612644037
 31
0.0
 11
-205.4374503790238
 21
136.1246460522198
 31
0.0
 11
-205.4889672482486
 21
136.0746667251885
 31
0.0
 11
-205.5353427088366
 21
136.0196721873985
 31
0.0
 11
-205.5812128040189
 21
135.9541869307883
 31
0.0
 11
-205.6217602156143
 21
135.8851447970489
 31
0.0
 11
-205.66062069618
 21
135.806348384351
 31
0.0
 11
-205.6942152763458
 21
135.7250867976115
 31
0.0
 11
-205.7249553434342
 21
135.6355159170655
 31
0.0
 11
-205.750558743168
 21
135.5442970962306
 31
0.0
 11
-205.772334372669
 21
135.4467640539532
 31
0.0
 11
-205.7890961869071
 21
135.3482197203006
 31
0.0
 11
-205.8013446295332
 21
135.2457380638965
 31
0.0
 11
-205.8086616391999
 21
135.1427752699274
 31
0.0
 11
-205.8111130546641
 21
135.0384755256571
 31
0.0
 11
-205.8086616391999
 21
134.9341757813872
 31
0.0
 11
-205.8013446295332
 21
134.831212987419
 31
0.0
 11
-205.7890961869071
 21
134.7287313310151
 31
0.0
 11
-205.7723343726689
 21
134.6301869973618
 31
0.0
 11
-205.750558743168
 21
134.532653955084
 31
0.0
 11
-205.7249553434345
 21
134.4414351342493
 31
0.0
 11
-205.694215276346
 21
134.3518642537034
 31
0.0
 11
-205.6606206961801
 21
134.2706026669636
 31
0.0
 11
-205.6217602156143
 21
134.1918062542655
 31
0.0
 11
-205.5812128040189
 21
134.1227641205256
 31
0.0
 11
-205.5353427088365
 21
134.0572788639152
 31
0.0
 11
-205.4889672482484
 21
134.0022843261253
 31
0.0
 11
-205.4374503790238
 21
133.952304999094
 31
0.0
 11
-205.3863236744604
 21
133.9127897869103
 31
0.0
 11
-205.3307794686827
 21
133.8801130234433
 31
0.0
 11
-205.2759248815705
 21
133.8573428756148
 31
0.0
 11
-205.2183533474543
 21
133.8432344932557
 31
0.0
 11
-205.1609016787212
 21
133.8385209447239
 31
0.0
 11
-205.1030276274495
 21
133.8433746542804
 31
0.0
 11
-205.0739850061789
 21
133.8481933235807
 31
0.0
 11
-205.1030276274494
 21
133.8433746542804
 31
0.0
 11
-205.1322814399893
 21
133.8385209447241
 31
0.0
 11
-205.1038723925268
 21
133.8432344932562
 31
0.0
  0
SPLINE
  5
33B
330
A
100
AcDbEntity
  8
1
  6
Continuous
 62
     7
100
AcDbSpline
210
0.0
220
0.0
230
1.0
 70
    11
 71
     3
 72
    83
 73
    79
 74
    77
 42
0.0000000001
 43
0.0000000001
 44
0.00000000001
 40
0.0
 40
0.0
 40
0.0
 40
0.0
 40
0.0592750199772735
 40
0.1186678255969155
 40
0.1831110538384213
 40
0.2477283264015304
 40
0.3195052094853594
 40
0.3914432559661618
 40
0.4713956447065632
 40
0.551463795792605
 40
0.6393217015486492
 40
0.7272537281141524
 40
0.8219526951965224
 40
0.9166965992356058
 40
1.016630939560408
 40
1.116590652003022
 40
1.219801670048425
 40
1.323024126773371
 40
1.427352675563541
 40
1.531681224353195
 40
1.634903681077319
 40
1.738114699122764
 40
1.838074411565828
 40
1.9380087518906
 40
2.032752655929195
 40
2.127451623011179
 40
2.215383649576916
 40
2.303241555333279
 40
2.383309706419938
 40
2.463262095161061
 40
2.535200141641706
 40
2.606977024725102
 40
2.671594297287744
 40
2.736037525528981
 40
2.7954303311488
 40
2.854705351126198
 40
2.912142458954892
 40
2.969579566783622
 40
3.028854586760812
 40
3.088247392380421
 40
3.152690620621786
 40
3.21730789318456
 40
3.289084776268314
 40
3.361022822749173
 40
3.440975211489877
 40
3.521043362576238
 40
3.608901268332333
 40
3.696833294897928
 40
3.79153226197985
 40
3.886276166018229
 40
3.986210506342492
 40
4.086170218785027
 40
4.18938123683103
 40
4.292603693556108
 40
4.396932242346444
 40
4.501260791136525
 40
4.604483247861036
 40
4.707694265906789
 40
4.807653978349422
 40
4.907588318673587
 40
5.002332222712091
 40
5.097031189794533
 40
5.184963216360565
 40
5.272821122116762
 40
5.352889273203039
 40
5.432841661943822
 40
5.504779708424827
 40
5.57655659150846
 40
5.641173864071173
 40
5.705617092312368
 40
5.765009897932078
 40
5.824284917909254
 40
5.881929620874668
 40
5.940006847969735
 40
5.969446505306235
 40
5.998886162642707
 40
6.028539898403507
 40
6.057337320466749
 40
6.057337320466749
 40
6.057337320466749
 40
6.057337320466749
 10
-205.1038723925268
 20
206.8337165580582
 30
0.0
 10
-205.0844939795886
 20
206.8296438684954
 30
0.0
 10
-205.045698646786
 20
206.8214903965112
 30
0.0
 10
-204.9893215188931
 20
206.7972185034623
 30
0.0
 10
-204.9350693049682
 20
206.7652923835507
 30
0.0
 10
-204.882136831172
 20
206.7240244439314
 30
0.0
 10
-204.8323436511489
 20
206.6754349702766
 30
0.0
 10
-204.7843528695512
 20
206.6182410475486
 30
0.0
 10
-204.7401015563506
 20
206.5547181812731
 30
0.0
 10
-204.6983313746188
 20
206.4833423930922
 30
0.0
 10
-204.6607220939973
 20
206.406715835259
 30
0.0
 10
-204.62633405874
 20
206.3233072709884
 30
0.0
 10
-204.5964173760871
 20
206.235763050578
 30
0.0
 10
-204.5703910246585
 20
206.1428332778407
 30
0.0
 10
-204.5490620173643
 20
206.0469167559438
 30
0.0
 10
-204.5321404733403
 20
205.9472673165818
 30
0.0
 10
-204.5200665370849
 20
205.8458110574741
 30
0.0
 10
-204.5127232573019
 20
205.7424457485161
 30
0.0
 10
-204.5103031077506
 20
205.6384755256569
 30
0.0
 10
-204.5127232573013
 20
205.5345053027941
 30
0.0
 10
-204.5200665370864
 20
205.4311399938483
 30
0.0
 10
-204.5321404733343
 20
205.3296837346976
 30
0.0
 10
-204.5490620173845
 20
205.2300342954913
 30
0.0
 10
-204.570391024584
 20
205.1341177730271
 30
0.0
 10
-204.5964173763487
 20
205.0411880023019
 30
0.0
 10
-204.6263340577915
 20
204.9536437746489
 30
0.0
 10
-204.6607220972559
 20
204.8702352355575
 30
0.0
 10
-204.6983313628956
 20
204.7936085880539
 30
0.0
 10
-204.7401015957914
 20
204.7222331061019
 30
0.0
 10
-204.7843527283759
 20
204.658709158797
 30
0.0
 10
-204.8323441192688
 20
204.6015188828373
 30
0.0
 10
-204.8821351559644
 20
204.5529165808905
 30
0.0
 10
-204.9350748623568
 20
204.5116919299651
 30
0.0
 10
-204.9893014543102
 20
204.4796124568686
 30
0.0
 10
-205.0457669920529
 20
204.4558697163935
 30
0.0
 10
-205.1030196732026
 20
204.4418533222757
 30
0.0
 10
-205.1611128699905
 20
204.4368287095952
 30
0.0
 10
-205.2192060667784
 20
204.4418533222761
 30
0.0
 10
-205.2764587479278
 20
204.4558697163945
 30
0.0
 10
-205.3329242856707
 20
204.479612456869
 30
0.0
 10
-205.3871508776241
 20
204.5116919299653
 30
0.0
 10
-205.4400905840167
 20
204.552916580891
 30
0.0
 10
-205.4898816207122
 20
204.6015188828381
 30
0.0
 10
-205.537873011605
 20
204.658709158798
 30
0.0
 10
-205.5821241441894
 20
204.7222331061028
 30
0.0
 10
-205.6238943770852
 20
204.7936085880544
 30
0.0
 10
-205.6615036427249
 20
204.8702352355576
 30
0.0
 10
-205.6958916821893
 20
204.9536437746489
 30
0.0
 10
-205.725808363632
 20
205.0411880023018
 30
0.0
 10
-205.7518347153972
 20
205.1341177730267
 30
0.0
 10
-205.7731637225967
 20
205.2300342954903
 30
0.0
 10
-205.7900852666469
 20
205.3296837346965
 30
0.0
 10
-205.8021592028947
 20
205.4311399938475
 30
0.0
 10
-205.8095024826797
 20
205.5345053027942
 30
0.0
 10
-205.8119226322298
 20
205.6384755256568
 30
0.0
 10
-205.8095024826809
 20
205.7424457485192
 30
0.0
 10
-205.8021592028898
 20
205.8458110574648
 30
0.0
 10
-205.7900852666648
 20
205.9472673166188
 30
0.0
 10
-205.7731637225315
 20
206.0469167558131
 30
0.0
 10
-205.7518347156352
 20
206.1428332783198
 30
0.0
 10
-205.7258083627952
 20
206.2357630488928
 30
0.0
 10
-205.6958916852229
 20
206.3233072770934
 30
0.0
 10
-205.6615036323029
 20
206.4067158142822
 30
0.0
 10
-205.6238944145826
 20
206.4833424685621
 30
0.0
 10
-205.5821240180377
 20
206.5547179273712
 30
0.0
 10
-205.5378734631549
 20
206.6182419563723
 30
0.0
 10
-205.48988012343
 20
206.675431956736
 30
0.0
 10
-205.4400959421708
 20
206.7240352281525
 30
0.0
 10
-205.3871331023117
 20
206.7652566076325
 30
0.0
 10
-205.3329884622621
 20
206.7973476700507
 30
0.0
 10
-205.2762401455151
 20
206.8210504210102
 30
0.0
 10
-205.2199453651765
 20
206.8352283447193
 30
0.0
 10
-205.1578310380983
 20
206.8397333331869
 30
0.0
 10
-205.1210535930916
 20
206.8369383253925
 30
0.0
 10
-205.0587376820486
 20
206.826157501662
 30
0.0
 10
-205.1032718582226
 20
206.8336358723214
 30
0.0
 10
-205.1466647163441
 20
206.8408119461244
 30
0.0
 10
-205.1179965033333
 20
206.8360584745124
 30
0.0
 10
-205.1038723925268
 20
206.8337165580582
 30
0.0
 11
-205.1038723925268
 21
206.8337165580582
 31
0.0
 11
-205.0463008584104
 21
206.8196081756992
 31
0.0
 11
-204.9914462712983
 21
206.7968380278706
 31
0.0
 11
-204.9359020655205
 21
206.7641612644035
 31
0.0
 11
-204.8847753609568
 21
206.7246460522193
 31
0.0
 11
-204.8332584917322
 21
206.6746667251877
 31
0.0
 11
-204.7868830311442
 21
206.6196721873979
 31
0.0
 11
-204.7410129359618
 21
206.5541869307881
 31
0.0
 11
-204.7004655243664
 21
206.4851447970489
 31
0.0
 11
-204.6616050438007
 21
206.4063483843511
 31
0.0
 11
-204.6280104636351
 21
206.3250867976117
 31
0.0
 11
-204.5972703965467
 21
206.2355159170652
 31
0.0
 11
-204.5716669968132
 21
206.1442970962295
 31
0.0
 11
-204.5498913673124
 21
206.0467640539516
 31
0.0
 11
-204.5331295530742
 21
205.9482197202989
 31
0.0
 11
-204.5208811104481
 21
205.8457380638954
 31
0.0
 11
-204.5135641007811
 21
205.7427752699266
 31
0.0
 11
-204.5111126853168
 21
205.6384755256561
 31
0.0
 11
-204.513564100781
 21
205.5341757813861
 31
0.0
 11
-204.5208811104479
 21
205.4312129874181
 31
0.0
 11
-204.5331295530739
 21
205.3287313310146
 31
0.0
 11
-204.5498913673122
 21
205.2301869973614
 31
0.0
 11
-204.5716669968132
 21
205.1326539550835
 31
0.0
 11
-204.5972703965466
 21
205.0414351342483
 31
0.0
 11
-204.628010463635
 21
204.9518642537023
 31
0.0
 11
-204.6616050438008
 21
204.8706026669627
 31
0.0
 11
-204.7004655243664
 21
204.7918062542644
 31
0.0
 11
-204.7410129359618
 21
204.7227641205247
 31
0.0
 11
-204.7868830311445
 21
204.6572788639141
 31
0.0
 11
-204.8332584917325
 21
204.6022843261244
 31
0.0
 11
-204.8847753609571
 21
204.5523049990936
 31
0.0
 11
-204.9359020655207
 21
204.5127897869101
 31
0.0
 11
-204.9914462712982
 21
204.4801130234429
 31
0.0
 11
-205.0463008584104
 21
204.4573428756141
 31
0.0
 11
-205.103872392527
 21
204.4432344932552
 31
0.0
 11
-205.1611128699905
 21
204.4384859044677
 31
0.0
 11
-205.218353347454
 21
204.4432344932556
 31
0.0
 11
-205.2759248815704
 21
204.4573428756148
 31
0.0
 11
-205.3307794686825
 21
204.4801130234433
 31
0.0
 11
-205.3863236744602
 21
204.5127897869103
 31
0.0
 11
-205.4374503790238
 21
204.552304999094
 31
0.0
 11
-205.4889672482486
 21
204.6022843261253
 31
0.0
 11
-205.5353427088366
 21
204.6572788639152
 31
0.0
 11
-205.5812128040189
 21
204.7227641205255
 31
0.0
 11
-205.6217602156143
 21
204.7918062542649
 31
0.0
 11
-205.66062069618
 21
204.8706026669628
 31
0.0
 11
-205.6942152763458
 21
204.9518642537023
 31
0.0
 11
-205.7249553434342
 21
205.0414351342483
 31
0.0
 11
-205.750558743168
 21
205.1326539550831
 31
0.0
 11
-205.772334372669
 21
205.2301869973605
 31
0.0
 11
-205.7890961869071
 21
205.3287313310131
 31
0.0
 11
-205.8013446295332
 21
205.4312129874173
 31
0.0
 11
-205.8086616391999
 21
205.5341757813862
 31
0.0
 11
-205.8111130546641
 21
205.6384755256568
 31
0.0
 11
-205.8086616391999
 21
205.7427752699272
 31
0.0
 11
-205.8013446295332
 21
205.8457380638957
 31
0.0
 11
-205.7890961869071
 21
205.9482197202995
 31
0.0
 11
-205.7723343726689
 21
206.0467640539522
 31
0.0
 11
-205.750558743168
 21
206.1442970962295
 31
0.0
 11
-205.7249553434345
 21
206.2355159170646
 31
0.0
 11
-205.694215276346
 21
206.3250867976111
 31
0.0
 11
-205.6606206961801
 21
206.406348384351
 31
0.0
 11
-205.6217602156143
 21
206.4851447970489
 31
0.0
 11
-205.5812128040189
 21
206.5541869307883
 31
0.0
 11
-205.5353427088365
 21
206.6196721873986
 31
0.0
 11
-205.4889672482484
 21
206.6746667251887
 31
0.0
 11
-205.4374503790238
 21
206.7246460522199
 31
0.0
 11
-205.3863236744604
 21
206.7641612644036
 31
0.0
 11
-205.3307794686827
 21
206.7968380278706
 31
0.0
 11
-205.2759248815705
 21
206.8196081756991
 31
0.0
 11
-205.2183533474542
 21
206.8337165580582
 31
0.0
 11
-205.1609016787212
 21
206.83843010659
 31
0.0
 11
-205.1030276274495
 21
206.833576397034
 31
0.0
 11
-205.0739850061789
 21
206.8287577277339
 31
0.0
 11
-205.1030276274495
 21
206.833576397034
 31
0.0
 11
-205.1322814399894
 21
206.83843010659
 31
0.0
 11
-205.1038723925268
 21
206.8337165580582
 31
0.0
  0
CIRCLE
  5
33A
330
A
100
AcDbEntity
  8
1
  6
Continuous
 62
     3
100
AcDbCircle
 10
-295.1530459246009
 20
185.187717930574
 30
0.0
 40
4.0
  0
CIRCLE
  5
339
330
A
100
AcDbEntity
  8
1
  6
Continuous
 62
     7
100
AcDbCircle
 10
-295.1530459246009
 20
185.187717930574
 30
0.0
 40
3.2
  0
CIRCLE
  5
338
330
A
100
AcDbEntity
  8
1
  6
Continuous
 62
     3
100
AcDbCircle
 10
-289.0022883295189
 20
170.3384755256569
 30
0.0
 40
4.0
  0
CIRCLE
  5
337
330
A
100
AcDbEntity
  8
1
  6
Continuous
 62
     7
100
AcDbCircle
 10
-289.0022883295189
 20
170.3384755256569
 30
0.0
 40
3.2
  0
CIRCLE
  5
336
330
A
100
AcDbEntity
  8
1
  6
Continuous
 62
     3
100
AcDbCircle
 10
-295.1530459246019
 20
155.4892331207399
 30
0.0
 40
4.000000000001
  0
CIRCLE
  5
335
330
A
100
AcDbEntity
  8
1
  6
Continuous
 62
     7
100
AcDbCircle
 10
-295.1530459246019
 20
155.4892331207399
 30
0.0
 40
3.2
  0
CIRCLE
  5
334
330
A
100
AcDbEntity
  8
1
  6
Continuous
 62
     3
100
AcDbCircle
 10
-310.0022883295189
 20
149.3384755256569
 30
0.0
 40
4.0
  0
CIRCLE
  5
333
330
A
100
AcDbEntity
  8
1
  6
Continuous
 62
     7
100
AcDbCircle
 10
-310.0022883295189
 20
149.3384755256569
 30
0.0
 40
3.2
  0
CIRCLE
  5
332
330
A
100
AcDbEntity
  8
1
  6
Continuous
 62
     3
100
AcDbCircle
 10
-324.851530734437
 20
155.4892331207399
 30
0.0
 40
4.0
  0
CIRCLE
  5
331
330
A
100
AcDbEntity
  8
1
  6
Continuous
 62
     7
100
AcDbCircle
 10
-324.851530734437
 20
155.4892331207399
 30
0.0
 40
3.2
  0
CIRCLE
  5
330
330
A
100
AcDbEntity
  8
1
  6
Continuous
 62
     3
100
AcDbCircle
 10
-331.0022883295189
 20
170.3384755256569
 30
0.0
 40
4.0
  0
CIRCLE
  5
32F
330
A
100
AcDbEntity
  8
1
  6
Continuous
 62
     7
100
AcDbCircle
 10
-331.0022883295189
 20
170.3384755256569
 30
0.0
 40
3.2
  0
CIRCLE
  5
32E
330
A
100
AcDbEntity
  8
1
  6
Continuous
 62
     3
100
AcDbCircle
 10
-324.851530734437
 20
185.1877179305749
 30
0.0
 40
4.0
  0
CIRCLE
  5
32D
330
A
100
AcDbEntity
  8
1
  6
Continuous
 62
     7
100
AcDbCircle
 10
-324.851530734437
 20
185.1877179305749
 30
0.0
 40
3.199999999998999
  0
CIRCLE
  5
32C
330
A
100
AcDbEntity
  8
1
  6
Continuous
 62
     7
100
AcDbCircle
 10
-310.0022883295189
 20
191.338475525657
 30
0.0
 40
3.2
  0
CIRCLE
  5
32B
330
A
100
AcDbEntity
  8
1
  6
Continuous
 62
     3
100
AcDbCircle
 10
-310.0022883295189
 20
191.338475525657
 30
0.0
 40
4.0
  0
CIRCLE
  5
32A
330
A
100
AcDbEntity
  8
1
  6
DASH_CENTER
 62
     3
100
AcDbCircle
 10
-310.0022883295189
 20
170.3384755256569
 30
0.0
 40
21.0
  0
CIRCLE
  5
329
330
A
100
AcDbEntity
  8
1
  6
Continuous
 62
     7
100
AcDbCircle
 10
-296.4924926681549
 20
207.4563340466999
 30
0.0
 40
1.7
  0
CIRCLE
  5
328
330
A
100
AcDbEntity
  8
1
  6
Continuous
 62
     7
100
AcDbCircle
 10
-284.6121777468999
 20
200.597231028857
 30
0.0
 40
1.7
  0
CIRCLE
  5
327
330
A
100
AcDbEntity
  8
1
  6
Continuous
 62
     7
100
AcDbCircle
 10
-275.794284880034
 20
190.0884755256569
 30
0.0
 40
1.7
  0
CIRCLE
  5
326
330
A
100
AcDbEntity
  8
1
  6
Continuous
 62
     7
100
AcDbCircle
 10
-271.102382085536
 20
177.197578543501
 30
0.0
 40
1.7
  0
CIRCLE
  5
325
330
A
100
AcDbEntity
  8
1
  6
Continuous
 62
     7
100
AcDbCircle
 10
-271.102382085536
 20
163.4793725078129
 30
0.0
 40
1.7
  0
CIRCLE
  5
324
330
A
100
AcDbEntity
  8
1
  6
Continuous
 62
     7
100
AcDbCircle
 10
-275.7942848800329
 20
150.588475525657
 30
0.0
 40
1.7
  0
CIRCLE
  5
323
330
A
100
AcDbEntity
  8
1
  6
Continuous
 62
     7
100
AcDbCircle
 10
-284.6121777468999
 20
140.0797200224569
 30
0.0
 40
1.7
  0
CIRCLE
  5
322
330
A
100
AcDbEntity
  8
1
  6
Continuous
 62
     7
100
AcDbCircle
 10
-296.4924926681549
 20
133.2206170046129
 30
0.0
 40
1.7
  0
CIRCLE
  5
321
330
A
100
AcDbEntity
  8
1
  6
Continuous
 62
     7
100
AcDbCircle
 10
-310.0022883295189
 20
130.838475525657
 30
0.0
 40
1.7
  0
CIRCLE
  5
320
330
A
100
AcDbEntity
  8
1
  6
Continuous
 62
     7
100
AcDbCircle
 10
-323.512083990883
 20
133.2206170046139
 30
0.0
 40
1.7
  0
CIRCLE
  5
31F
330
A
100
AcDbEntity
  8
1
  6
Continuous
 62
     7
100
AcDbCircle
 10
-335.3923989121369
 20
140.0797200224569
 30
0.0
 40
1.7
  0
CIRCLE
  5
31E
330
A
100
AcDbEntity
  8
1
  6
Continuous
 62
     7
100
AcDbCircle
 10
-344.2102917790039
 20
150.588475525657
 30
0.0
 40
1.7
  0
CIRCLE
  5
31D
330
A
100
AcDbEntity
  8
1
  6
Continuous
 62
     7
100
AcDbCircle
 10
-348.902194573501
 20
163.4793725078129
 30
0.0
 40
1.7
  0
CIRCLE
  5
31C
330
A
100
AcDbEntity
  8
1
  6
Continuous
 62
     7
100
AcDbCircle
 10
-348.902194573501
 20
177.197578543501
 30
0.0
 40
1.7
  0
CIRCLE
  5
31B
330
A
100
AcDbEntity
  8
1
  6
Continuous
 62
     7
100
AcDbCircle
 10
-344.2102917790039
 20
190.0884755256569
 30
0.0
 40
1.7
  0
CIRCLE
  5
31A
330
A
100
AcDbEntity
  8
1
  6
Continuous
 62
     7
100
AcDbCircle
 10
-335.3923989121369
 20
200.597231028857
 30
0.0
 40
1.7
  0
CIRCLE
  5
319
330
A
100
AcDbEntity
  8
1
  6
Continuous
 62
     7
100
AcDbCircle
 10
-323.512083990883
 20
207.4563340466999
 30
0.0
 40
1.7
  0
CIRCLE
  5
318
330
A
100
AcDbEntity
  8
1
  6
Continuous
 62
     7
100
AcDbCircle
 10
-310.0022883295189
 20
209.8384755256569
 30
0.0
 40
1.7
  0
CIRCLE
  5
317
330
A
100
AcDbEntity
  8
1
  6
DASH_CENTER
 62
     3
100
AcDbCircle
 10
-310.0022883295189
 20
170.3384755256569
 30
0.0
 40
39.5
  0
CIRCLE
  5
316
330
A
100
AcDbEntity
  8
1
  6
Continuous
 62
     7
100
AcDbCircle
 10
-310.0022883295189
 20
170.3384755256569
 30
0.0
 40
42.499999361849
  0
CIRCLE
  5
315
330
A
100
AcDbEntity
  8
1
  6
Continuous
 62
     7
100
AcDbCircle
 10
-310.0022883295189
 20
170.3384755256569
 30
0.0
 40
35.0
  0
CIRCLE
  5
314
330
A
100
AcDbEntity
  8
1
  6
Continuous
 62
     7
100
AcDbCircle
 10
-310.0022883295189
 20
170.3384755256569
 30
0.0
 40
29.0
  0
CIRCLE
  5
313
330
A
100
AcDbEntity
  8
1
  6
Continuous
 62
     7
100
AcDbCircle
 10
-310.0022883295189
 20
170.3384755256569
 30
0.0
 40
12.0
  0
CIRCLE
  5
312
330
A
100
AcDbEntity
  8
1
  6
Continuous
 62
     7
100
AcDbCircle
 10
-77.32322654466199
 20
136.1304720761729
 30
0.0
 40
2.399999999999
  0
CIRCLE
  5
311
330
A
100
AcDbEntity
  8
1
  6
Continuous
 62
     7
100
AcDbCircle
 10
-116.823226544661
 20
136.1304720761729
 30
0.0
 40
2.399999999999
  0
CIRCLE
  5
310
330
A
100
AcDbEntity
  8
1
  6
Continuous
 62
     7
100
AcDbCircle
 10
-136.5732265446609
 20
170.3384755256579
 30
0.0
 40
2.399999999999999
  0
CIRCLE
  5
30F
330
A
100
AcDbEntity
  8
1
  6
Continuous
 62
     7
100
AcDbCircle
 10
-116.823226544661
 20
204.5464789751429
 30
0.0
 40
2.399999999999999
  0
CIRCLE
  5
30E
330
A
100
AcDbEntity
  8
1
  6
Continuous
 62
     7
100
AcDbCircle
 10
-77.32322654466099
 20
204.5464789751429
 30
0.0
 40
2.399999999999999
  0
CIRCLE
  5
30D
330
A
100
AcDbEntity
  8
1
  6
Continuous
 62
     7
100
AcDbCircle
 10
-57.573226544661
 20
170.3384755256579
 30
0.0
 40
2.399999999999999
  0
CIRCLE
  5
30C
330
A
100
AcDbEntity
  8
1
  6
Continuous
 62
     7
100
AcDbCircle
 10
-83.563430883259
 20
207.456334046687
 30
0.0
 40
1.7
  0
CIRCLE
  5
30B
330
A
100
AcDbEntity
  8
1
  6
Continuous
 62
     7
100
AcDbCircle
 10
-71.68311596201199
 20
200.597231028832
 30
0.0
 40
1.7
  0
CIRCLE
  5
30A
330
A
100
AcDbEntity
  8
1
  6
Continuous
 62
     7
100
AcDbCircle
 10
-62.865223095156
 20
190.088475525623
 30
0.0
 40
1.7
  0
CIRCLE
  5
309
330
A
100
AcDbEntity
  8
1
  6
Continuous
 62
     7
100
AcDbCircle
 10
-58.17332030067199
 20
177.1975785434619
 30
0.0
 40
1.7
  0
CIRCLE
  5
308
330
A
100
AcDbEntity
  8
1
  6
Continuous
 62
     7
100
AcDbCircle
 10
-58.17332030068599
 20
163.479372507775
 30
0.0
 40
1.7
  0
CIRCLE
  5
307
330
A
100
AcDbEntity
  8
1
  6
Continuous
 62
     7
100
AcDbCircle
 10
-62.865223095196
 20
150.588475525623
 30
0.0
 40
1.7
  0
CIRCLE
  5
306
330
A
100
AcDbEntity
  8
1
  6
Continuous
 62
     7
100
AcDbCircle
 10
-71.68311596207399
 20
140.079720022432
 30
0.0
 40
1.7
  0
CIRCLE
  5
305
330
A
100
AcDbEntity
  8
1
  6
Continuous
 62
     7
100
AcDbCircle
 10
-83.563430883336
 20
133.2206170045999
 30
0.0
 40
1.7
  0
CIRCLE
  5
304
330
A
100
AcDbEntity
  8
1
  6
Continuous
 62
     7
100
AcDbCircle
 10
-97.07322654470301
 20
130.8384755256579
 30
0.0
 40
1.7
  0
CIRCLE
  5
303
330
A
100
AcDbEntity
  8
1
  6
Continuous
 62
     7
100
AcDbCircle
 10
-110.5830222060639
 20
133.2206170046289
 30
0.0
 40
1.7
  0
CIRCLE
  5
302
330
A
100
AcDbEntity
  8
1
  6
Continuous
 62
     7
100
AcDbCircle
 10
-122.463337127311
 20
140.079720022485
 30
0.0
 40
1.700000000000999
  0
CIRCLE
  5
301
330
A
100
AcDbEntity
  8
1
  6
Continuous
 62
     7
100
AcDbCircle
 10
-131.281229994168
 20
150.588475525694
 30
0.0
 40
1.699999999999
  0
CIRCLE
  5
300
330
A
100
AcDbEntity
  8
1
  6
Continuous
 62
     7
100
AcDbCircle
 10
-135.973132788651
 20
163.479372507855
 30
0.0
 40
1.7
  0
CIRCLE
  5
2FF
330
A
100
AcDbEntity
  8
1
  6
Continuous
 62
     7
100
AcDbCircle
 10
-135.973132788636
 20
177.197578543543
 30
0.0
 40
1.7
  0
CIRCLE
  5
2FE
330
A
100
AcDbEntity
  8
1
  6
Continuous
 62
     7
100
AcDbCircle
 10
-131.2812299941259
 20
190.088475525694
 30
0.0
 40
1.7
  0
CIRCLE
  5
2FD
330
A
100
AcDbEntity
  8
1
  6
Continuous
 62
     7
100
AcDbCircle
 10
-122.4633371272479
 20
200.597231028884
 30
0.0
 40
1.7
  0
CIRCLE
  5
2FC
330
A
100
AcDbEntity
  8
1
  6
Continuous
 62
     7
100
AcDbCircle
 10
-110.5830222059859
 20
207.4563340467149
 30
0.0
 40
1.7
  0
CIRCLE
  5
2FB
330
A
100
AcDbEntity
  8
1
  6
Continuous
 62
     7
100
AcDbCircle
 10
-97.07322654462
 20
209.838475525658
 30
0.0
 40
1.7
  0
CIRCLE
  5
2FA
330
A
100
AcDbEntity
  8
1
  6
DASH_CENTER
 62
     3
100
AcDbCircle
 10
-97.07322654466102
 20
170.3384755256579
 30
0.0
 40
39.5
  0
CIRCLE
  5
2F9
330
A
100
AcDbEntity
  8
1
  6
Continuous
 62
     7
100
AcDbCircle
 10
-97.07322654462
 20
170.3384755256569
 30
0.0
 40
42.499999361849
  0
CIRCLE
  5
2F8
330
A
100
AcDbEntity
  8
1
  6
Continuous
 62
     7
100
AcDbCircle
 10
-97.07322654462
 20
170.3384755256569
 30
0.0
 40
36.49999936157
  0
CIRCLE
  5
2F7
330
A
100
AcDbEntity
  8
1
  6
Continuous
 62
     7
100
AcDbCircle
 10
-97.07322654462
 20
170.3384755256569
 30
0.0
 40
10.0
  0
CIRCLE
  5
2F6
330
A
100
AcDbEntity
  8
1
  6
Continuous
 62
     7
100
AcDbCircle
 10
-97.07322654462
 20
170.3384755256569
 30
0.0
 40
8.599999999999999
  0
CIRCLE
  5
2F5
330
A
100
AcDbEntity
  8
1
  6
Continuous
 62
     7
100
AcDbCircle
 10
-97.07322654462
 20
170.3384755256569
 30
0.0
 40
12.0
  0
CIRCLE
  5
2F4
330
A
100
AcDbEntity
  8
1
  6
DASH_CENTER
 62
     3
100
AcDbCircle
 10
-97.07322654462
 20
170.3384755256569
 30
0.0
 40
15.0
  0
CIRCLE
  5
2F3
330
A
100
AcDbEntity
  8
1
  6
Continuous
 62
     3
100
AcDbCircle
 10
-112.0732265446199
 20
170.3384755256579
 30
0.0
 40
1.5
  0
CIRCLE
  5
2F2
330
A
100
AcDbEntity
  8
1
  6
Continuous
 62
     7
100
AcDbCircle
 10
-112.0732265446199
 20
170.3384755256579
 30
0.0
 40
1.199999999999999
  0
CIRCLE
  5
2F1
330
A
100
AcDbEntity
  8
1
  6
Continuous
 62
     3
100
AcDbCircle
 10
-97.073226544621
 20
155.338475525658
 30
0.0
 40
1.499999999999
  0
CIRCLE
  5
2F0
330
A
100
AcDbEntity
  8
1
  6
Continuous
 62
     7
100
AcDbCircle
 10
-97.073226544621
 20
155.338475525658
 30
0.0
 40
1.199999999999999
  0
CIRCLE
  5
2EF
330
A
100
AcDbEntity
  8
1
  6
Continuous
 62
     3
100
AcDbCircle
 10
-82.07322654462
 20
170.3384755256579
 30
0.0
 40
1.5
  0
CIRCLE
  5
2EE
330
A
100
AcDbEntity
  8
1
  6
Continuous
 62
     7
100
AcDbCircle
 10
-82.07322654462
 20
170.3384755256579
 30
0.0
 40
1.200000000001
  0
CIRCLE
  5
2ED
330
A
100
AcDbEntity
  8
1
  6
Continuous
 62
     3
100
AcDbCircle
 10
-97.07322654462
 20
185.338475525658
 30
0.0
 40
1.5
  0
CIRCLE
  5
2EC
330
A
100
AcDbEntity
  8
1
  6
Continuous
 62
     7
100
AcDbCircle
 10
-97.07322654462
 20
185.338475525658
 30
0.0
 40
1.199999999999999
  0
CIRCLE
  5
2EB
330
A
100
AcDbEntity
  8
1
  6
Continuous
 62
     7
100
AcDbCircle
 10
-97.07322654462
 20
170.3384755256569
 30
0.0
 40
32.003000000001
  0
CIRCLE
  5
2EA
330
A
100
AcDbEntity
  8
1
  6
DASH_CENTER
 62
     3
100
AcDbCircle
 10
-97.07322654462
 20
170.3384755256569
 30
0.0
 40
31.750000000001
  0
CIRCLE
  5
2E9
330
A
100
AcDbEntity
  8
1
  6
Continuous
 62
     7
100
AcDbCircle
 10
-97.07322654462
 20
170.3384755256569
 30
0.0
 40
28.400000000001
  0
CIRCLE
  5
2E8
330
A
100
AcDbEntity
  8
1
  6
Continuous
 62
     7
100
AcDbCircle
 10
-97.07322654462
 20
170.3384755256569
 30
0.0
 40
24.835000000001
  0
CIRCLE
  5
2E7
330
A
100
AcDbEntity
  8
1
  6
DASH_CENTER
 62
     3
100
AcDbCircle
 10
-310.0022883295189
 20
170.3384755256569
 30
0.0
 40
15.0
  0
CIRCLE
  5
2E6
330
A
100
AcDbEntity
  8
1
  6
DASHED
 62
     7
100
AcDbCircle
 10
-315.7425398149949
 20
184.1966685133259
 30
0.0
 40
2.0
  0
CIRCLE
  5
2E5
330
A
100
AcDbEntity
  8
1
  6
DASHED
 62
     3
100
AcDbCircle
 10
-315.7425398149949
 20
184.1966685133259
 30
0.0
 40
2.5
  0
CIRCLE
  5
2E4
330
A
100
AcDbEntity
  8
1
  6
DASHED
 62
     3
100
AcDbCircle
 10
-323.8604813171879
 20
176.078727011133
 30
0.0
 40
2.5
  0
CIRCLE
  5
2E3
330
A
100
AcDbEntity
  8
1
  6
DASHED
 62
     7
100
AcDbCircle
 10
-323.8604813171879
 20
176.078727011133
 30
0.0
 40
2.0
  0
CIRCLE
  5
2E2
330
A
100
AcDbEntity
  8
1
  6
DASHED
 62
     3
100
AcDbCircle
 10
-323.8604813171879
 20
164.598224040181
 30
0.0
 40
2.5
  0
CIRCLE
  5
2E1
330
A
100
AcDbEntity
  8
1
  6
DASHED
 62
     7
100
AcDbCircle
 10
-323.8604813171879
 20
164.598224040181
 30
0.0
 40
2.0
  0
CIRCLE
  5
2E0
330
A
100
AcDbEntity
  8
1
  6
DASHED
 62
     3
100
AcDbCircle
 10
-315.7425398149949
 20
156.480282537988
 30
0.0
 40
2.5
  0
CIRCLE
  5
2DF
330
A
100
AcDbEntity
  8
1
  6
DASHED
 62
     7
100
AcDbCircle
 10
-315.7425398149949
 20
156.480282537988
 30
0.0
 40
2.0
  0
CIRCLE
  5
2DE
330
A
100
AcDbEntity
  8
1
  6
DASHED
 62
     3
100
AcDbCircle
 10
-304.262036844043
 20
156.480282537988
 30
0.0
 40
2.5
  0
CIRCLE
  5
2DD
330
A
100
AcDbEntity
  8
1
  6
DASHED
 62
     7
100
AcDbCircle
 10
-304.262036844043
 20
156.480282537988
 30
0.0
 40
2.0
  0
CIRCLE
  5
2DC
330
A
100
AcDbEntity
  8
1
  6
DASHED
 62
     3
100
AcDbCircle
 10
-296.14409534185
 20
164.598224040181
 30
0.0
 40
2.5
  0
CIRCLE
  5
2DB
330
A
100
AcDbEntity
  8
1
  6
DASHED
 62
     7
100
AcDbCircle
 10
-296.14409534185
 20
164.598224040181
 30
0.0
 40
2.0
  0
CIRCLE
  5
2DA
330
A
100
AcDbEntity
  8
1
  6
DASHED
 62
     3
100
AcDbCircle
 10
-296.14409534185
 20
176.078727011133
 30
0.0
 40
2.5
  0
CIRCLE
  5
2D9
330
A
100
AcDbEntity
  8
1
  6
DASHED
 62
     7
100
AcDbCircle
 10
-296.14409534185
 20
176.078727011133
 30
0.0
 40
2.0
  0
CIRCLE
  5
2D8
330
A
100
AcDbEntity
  8
1
  6
DASHED
 62
     3
100
AcDbCircle
 10
-304.262036844043
 20
184.1966685133259
 30
0.0
 40
2.5
  0
CIRCLE
  5
2D7
330
A
100
AcDbEntity
  8
1
  6
DASHED
 62
     7
100
AcDbCircle
 10
-304.262036844043
 20
184.1966685133259
 30
0.0
 40
2.0
  0
ARC
  5
2D6
330
A
100
AcDbEntity
  8
1
  6
Continuous
 62
     7
100
AcDbCircle
 10
-196.811112870288
 20
135.271475525659
 30
0.0
 40
4.0
100
AcDbArc
 50
49.99603866308199
 51
89.99999999531299
  0
ARC
  5
2D5
330
A
100
AcDbEntity
  8
1
  6
Continuous
 62
     7
100
AcDbCircle
 10
-196.811112870288
 20
205.405475525658
 30
0.0
 40
3.999999999998999
100
AcDbArc
 50
-90.0
 51
-49.996038663174
  0
LINE
  5
2D4
330
A
100
AcDbEntity
  8
1
  6
DASH_CENTER
 62
     3
100
AcDbLine
 10
-290.910405237482
 20
189.4303586176929
 30
0.0
 11
-299.39568661172
 21
180.945077243455
 31
0.0
  0
LINE
  5
2D3
330
A
100
AcDbEntity
  8
1
  6
DASH_CENTER
 62
     3
100
AcDbLine
 10
-290.9104052374829
 20
151.24659243362
 30
0.0
 11
-299.3956866117209
 21
159.7318738078589
 31
0.0
  0
LINE
  5
2D2
330
A
100
AcDbEntity
  8
1
  6
DASH_CENTER
 62
     3
100
AcDbLine
 10
-329.094171421556
 20
151.24659243362
 30
0.0
 11
-320.608890047317
 21
159.7318738078589
 31
0.0
  0
LINE
  5
2D1
330
A
100
AcDbEntity
  8
1
  6
DASH_CENTER
 62
     3
100
AcDbLine
 10
-329.094171421556
 20
189.430358617694
 30
0.0
 11
-320.608890047317
 21
180.945077243455
 31
0.0
  0
LINE
  5
2D0
330
A
100
AcDbEntity
  8
1
  6
DASH_CENTER
 62
     3
100
AcDbLine
 10
-295.620341302675
 20
209.852550229705
 30
0.0
 11
-297.364644033636
 21
205.060117863697
 31
0.0
  0
LINE
  5
2CF
330
A
100
AcDbEntity
  8
1
  6
DASH_CENTER
 62
     3
100
AcDbLine
 10
-282.9730693421999
 20
202.55064435881
 30
0.0
 11
-286.2512861516009
 21
198.643817698904
 31
0.0
  0
LINE
  5
2CE
330
A
100
AcDbEntity
  8
1
  6
DASH_CENTER
 62
     3
100
AcDbLine
 10
-273.585920100383
 20
191.363475525657
 30
0.0
 11
-278.0026496596839
 21
188.8134755256569
 31
0.0
  0
LINE
  5
2CD
330
A
100
AcDbEntity
  8
1
  6
DASH_CENTER
 62
     3
100
AcDbLine
 10
-268.5911223153549
 20
177.640381396552
 30
0.0
 11
-273.613641855718
 21
176.7547756904499
 31
0.0
  0
LINE
  5
2CC
330
A
100
AcDbEntity
  8
1
  6
DASH_CENTER
 62
     3
100
AcDbLine
 10
-268.5911223153549
 20
163.0365696547619
 30
0.0
 11
-273.6136418557169
 21
163.9221753608639
 31
0.0
  0
LINE
  5
2CB
330
A
100
AcDbEntity
  8
1
  6
DASH_CENTER
 62
     3
100
AcDbLine
 10
-273.585920100383
 20
149.3134755256569
 30
0.0
 11
-278.002649659683
 21
151.863475525657
 31
0.0
  0
LINE
  5
2CA
330
A
100
AcDbEntity
  8
1
  6
DASH_CENTER
 62
     3
100
AcDbLine
 10
-282.9730693421999
 20
138.1263066925029
 30
0.0
 11
-286.2512861516009
 21
142.03313335241
 31
0.0
  0
LINE
  5
2C9
330
A
100
AcDbEntity
  8
1
  6
DASH_CENTER
 62
     3
100
AcDbLine
 10
-295.6203413026739
 20
130.8244008216089
 30
0.0
 11
-297.364644033635
 21
135.616833187617
 31
0.0
  0
LINE
  5
2C8
330
A
100
AcDbEntity
  8
1
  6
DASH_CENTER
 62
     3
100
AcDbLine
 10
-324.3842353563629
 20
130.8244008216099
 30
0.0
 11
-322.6399326254019
 21
135.6168331876179
 31
0.0
  0
LINE
  5
2C7
330
A
100
AcDbEntity
  8
1
  6
DASH_CENTER
 62
     3
100
AcDbLine
 10
-337.0315073168379
 20
138.1263066925029
 30
0.0
 11
-333.7532905074359
 21
142.03313335241
 31
0.0
  0
LINE
  5
2C6
330
A
100
AcDbEntity
  8
1
  6
DASH_CENTER
 62
     3
100
AcDbLine
 10
-346.418656558655
 20
149.3134755256569
 30
0.0
 11
-342.0019269993539
 21
151.863475525657
 31
0.0
  0
LINE
  5
2C5
330
A
100
AcDbEntity
  8
1
  6
DASH_CENTER
 62
     3
100
AcDbLine
 10
-351.413454343682
 20
163.0365696547629
 30
0.0
 11
-346.39093480332
 21
163.9221753608639
 31
0.0
  0
LINE
  5
2C4
330
A
100
AcDbEntity
  8
1
  6
DASH_CENTER
 62
     3
100
AcDbLine
 10
-351.413454343682
 20
177.640381396552
 30
0.0
 11
-346.39093480332
 21
176.7547756904509
 31
0.0
  0
LINE
  5
2C3
330
A
100
AcDbEntity
  8
1
  6
DASH_CENTER
 62
     3
100
AcDbLine
 10
-346.418656558655
 20
191.363475525657
 30
0.0
 11
-342.0019269993539
 21
188.8134755256569
 31
0.0
  0
LINE
  5
2C2
330
A
100
AcDbEntity
  8
1
  6
DASH_CENTER
 62
     3
100
AcDbLine
 10
-337.0315073168379
 20
202.55064435881
 30
0.0
 11
-333.753290507437
 21
198.643817698904
 31
0.0
  0
LINE
  5
2C1
330
A
100
AcDbEntity
  8
1
  6
DASH_CENTER
 62
     3
100
AcDbLine
 10
-324.3842353563629
 20
209.852550229705
 30
0.0
 11
-322.6399326254029
 21
205.0601178636959
 31
0.0
  0
LINE
  5
2C0
330
A
100
AcDbEntity
  8
1
  6
DASH_CENTER
 62
     3
100
AcDbLine
 10
-75.52322654466199
 20
133.0127806225489
 30
0.0
 11
-79.123226544662
 21
139.248163529797
 31
0.0
  0
LINE
  5
2BF
330
A
100
AcDbEntity
  8
1
  6
DASH_CENTER
 62
     3
100
AcDbLine
 10
-118.623226544661
 20
133.0127806225499
 30
0.0
 11
-115.0232265446609
 21
139.248163529797
 31
0.0
  0
LINE
  5
2BE
330
A
100
AcDbEntity
  8
1
  6
DASH_CENTER
 62
     3
100
AcDbLine
 10
-118.623226544661
 20
207.664170428767
 30
0.0
 11
-115.0232265446609
 21
201.428787521519
 31
0.0
  0
LINE
  5
2BD
330
A
100
AcDbEntity
  8
1
  6
DASH_CENTER
 62
     3
100
AcDbLine
 10
-75.523226544661
 20
207.664170428767
 30
0.0
 11
-79.12322654466099
 21
201.428787521519
 31
0.0
  0
LINE
  5
2BC
330
A
100
AcDbEntity
  8
1
  6
DASH_CENTER
 62
     3
100
AcDbLine
 10
-82.69127951777599
 20
209.8525502296899
 30
0.0
 11
-84.435582248742
 21
205.060117863684
 31
0.0
  0
LINE
  5
2BB
330
A
100
AcDbEntity
  8
1
  6
DASH_CENTER
 62
     3
100
AcDbLine
 10
-70.044007557309
 20
202.550644358783
 30
0.0
 11
-73.322224366715
 21
198.64381769888
 31
0.0
  0
LINE
  5
2BA
330
A
100
AcDbEntity
  8
1
  6
DASH_CENTER
 62
     3
100
AcDbLine
 10
-60.656858315504
 20
191.3634755256209
 30
0.0
 11
-65.07358787480699
 21
188.8134755256249
 31
0.0
  0
LINE
  5
2B9
330
A
100
AcDbEntity
  8
1
  6
DASH_CENTER
 62
     3
100
AcDbLine
 10
-55.662060530491
 20
177.64038139651
 30
0.0
 11
-60.684580070854
 21
176.754775690414
 31
0.0
  0
LINE
  5
2B8
330
A
100
AcDbEntity
  8
1
  6
DASH_CENTER
 62
     3
100
AcDbLine
 10
-55.662060530506
 20
163.036569654721
 30
0.0
 11
-60.684580070867
 21
163.9221753608279
 31
0.0
  0
LINE
  5
2B7
330
A
100
AcDbEntity
  8
1
  6
DASH_CENTER
 62
     3
100
AcDbLine
 10
-60.65685831554699
 20
149.3134755256209
 30
0.0
 11
-65.073587874845
 21
151.863475525625
 31
0.0
  0
LINE
  5
2B6
330
A
100
AcDbEntity
  8
1
  6
DASH_CENTER
 62
     3
100
AcDbLine
 10
-70.04400755737499
 20
138.1263066924769
 30
0.0
 11
-73.322224366773
 21
142.033133352387
 31
0.0
  0
LINE
  5
2B5
330
A
100
AcDbEntity
  8
1
  6
DASH_CENTER
 62
     3
100
AcDbLine
 10
-82.69127951785801
 20
130.8244008215949
 30
0.0
 11
-84.435582248814
 21
135.616833187605
 31
0.0
  0
LINE
  5
2B4
330
A
100
AcDbEntity
  8
1
  6
DASH_CENTER
 62
     3
100
AcDbLine
 10
-111.4551735715469
 20
130.824400821626
 30
0.0
 11
-109.7108708405809
 21
135.616833187632
 31
0.0
  0
LINE
  5
2B3
330
A
100
AcDbEntity
  8
1
  6
DASH_CENTER
 62
     3
100
AcDbLine
 10
-124.1024455320139
 20
138.126306692533
 30
0.0
 11
-120.824228722609
 21
142.033133352436
 31
0.0
  0
LINE
  5
2B2
330
A
100
AcDbEntity
  8
1
  6
DASH_CENTER
 62
     3
100
AcDbLine
 10
-133.489594773819
 20
149.313475525696
 30
0.0
 11
-129.0728652145159
 21
151.8634755256919
 31
0.0
  0
LINE
  5
2B1
330
A
100
AcDbEntity
  8
1
  6
DASH_CENTER
 62
     3
100
AcDbLine
 10
-138.4843925588319
 20
163.0365696548069
 30
0.0
 11
-133.461873018469
 21
163.922175360903
 31
0.0
  0
LINE
  5
2B0
330
A
100
AcDbEntity
  8
1
  6
DASH_CENTER
 62
     3
100
AcDbLine
 10
-138.484392558817
 20
177.6403813965959
 30
0.0
 11
-133.461873018456
 21
176.75477569049
 31
0.0
  0
LINE
  5
2AF
330
A
100
AcDbEntity
  8
1
  6
DASH_CENTER
 62
     3
100
AcDbLine
 10
-133.4895947737749
 20
191.363475525696
 30
0.0
 11
-129.0728652144769
 21
188.8134755256919
 31
0.0
  0
LINE
  5
2AE
330
A
100
AcDbEntity
  8
1
  6
DASH_CENTER
 62
     3
100
AcDbLine
 10
-124.1024455319459
 20
202.5506443588399
 30
0.0
 11
-120.8242287225489
 21
198.6438176989289
 31
0.0
  0
LINE
  5
2AD
330
A
100
AcDbEntity
  8
1
  6
DASH_CENTER
 62
     3
100
AcDbLine
 10
-111.4551735714639
 20
209.852550229721
 30
0.0
 11
-109.710870840508
 21
205.060117863711
 31
0.0
  0
LINE
  5
2AC
330
A
100
AcDbEntity
  8
1
  6
Continuous
 62
     7
100
AcDbLine
 10
-188.81111287027
 20
133.838476164088
 30
0.0
 11
-188.811112869897
 21
138.5194755255309
 31
0.0
  0
LINE
  5
2AB
330
A
100
AcDbEntity
  8
1
  6
Continuous
 62
     7
100
AcDbLine
 10
-191.61111286998
 20
133.838476164088
 30
0.0
 11
-188.81111287027
 21
133.838476164088
 31
0.0
  0
LINE
  5
2AA
330
A
100
AcDbEntity
  8
0
  6
Continuous
 62
     7
100
AcDbLine
 10
-191.81111286998
 20
127.8384761640909
 30
0.0
 11
-202.5111128699899
 21
127.8384761638079
 31
0.0
  0
LINE
  5
2A9
330
A
100
AcDbEntity
  8
1
  6
Continuous
 62
     7
100
AcDbLine
 10
-194.11111286998
 20
132.0384761640879
 30
0.0
 11
-202.5111128699899
 21
132.0384761640879
 31
0.0
  0
LINE
  5
2A8
330
A
100
AcDbEntity
  8
1
  6
Continuous
 62
     7
100
AcDbLine
 10
-202.511112869991
 20
133.8384755256569
 30
0.0
 11
-202.511112869991
 21
131.838476164088
 31
0.0
  0
LINE
  5
2A7
330
A
100
AcDbEntity
  8
1
  6
DASH_CENTER
 62
     3
100
AcDbLine
 10
-189.4277037685419
 20
209.8384748872269
 30
0.0
 11
-227.027703768541
 21
209.8384748872269
 31
0.0
  0
LINE
  5
2A6
330
A
100
AcDbEntity
  8
1
  6
Continuous
 62
     7
100
AcDbLine
 10
-202.511112869991
 20
206.838475525657
 30
0.0
 11
-202.511112869991
 21
212.8384748875059
 31
0.0
  0
LINE
  5
2A5
330
A
100
AcDbEntity
  8
1
  6
Continuous
 62
     7
100
AcDbLine
 10
-191.81111286998
 20
207.0384748872269
 30
0.0
 11
-191.81111286998
 21
212.8384748875059
 31
0.0
  0
LINE
  5
2A4
330
A
100
AcDbEntity
  8
1
  6
Continuous
 62
     7
100
AcDbLine
 10
-202.511112869991
 20
208.1384748872259
 30
0.0
 11
-191.81111286998
 21
208.1384748872259
 31
0.0
  0
LINE
  5
2A3
330
A
100
AcDbEntity
  8
1
  6
Continuous
 62
     7
100
AcDbLine
 10
-202.511112869991
 20
211.5384748872269
 30
0.0
 11
-191.81111286998
 21
211.5384748872269
 31
0.0
  0
LINE
  5
2A2
330
A
100
AcDbEntity
  8
1
  6
Continuous
 62
     7
100
AcDbLine
 10
-204.511112869991
 20
206.838475525657
 30
0.0
 11
-202.511112869991
 21
206.838475525657
 31
0.0
  0
LINE
  5
2A1
330
A
100
AcDbEntity
  8
1
  6
Continuous
 62
     7
100
AcDbLine
 10
-204.5111128699899
 20
204.4384755256559
 30
0.0
 11
-204.511112869991
 21
206.838475525657
 31
0.0
  0
LINE
  5
2A0
330
A
100
AcDbEntity
  8
1
  6
Continuous
 62
     7
100
AcDbLine
 10
-194.11111286998
 20
129.6384761640879
 30
0.0
 11
-202.5111128699899
 21
129.6384761640879
 31
0.0
  0
LINE
  5
29F
330
A
100
AcDbEntity
  8
0
  6
Continuous
 62
     7
100
AcDbLine
 10
-191.81111286998
 20
212.8384748875059
 30
0.0
 11
-202.511112869991
 21
212.8384748875059
 31
0.0
  0
LINE
  5
29E
330
A
100
AcDbEntity
  8
1
  6
Continuous
 62
     7
100
AcDbLine
 10
-188.811112869985
 20
206.8384748872269
 30
0.0
 11
-191.61111286998
 21
206.8384748872269
 31
0.0
  0
LINE
  5
29D
330
A
100
AcDbEntity
  8
0
  6
Continuous
 62
     7
100
AcDbLine
 10
-197.8111128787789
 20
136.238475525657
 30
0.0
 11
-197.811112910382
 21
138.519475525658
 31
0.0
  0
LINE
  5
29C
330
A
100
AcDbEntity
  8
1
  6
Continuous
 62
     7
100
AcDbLine
 10
-197.8111128787789
 20
136.238475525657
 30
0.0
 11
-204.511112869991
 21
136.238475525657
 31
0.0
  0
LINE
  5
29B
330
A
100
AcDbEntity
  8
0
  6
Continuous
 62
     7
100
AcDbLine
 10
-197.811112875196
 20
204.4384755256559
 30
0.0
 11
-197.811112865259
 21
202.1574755256569
 31
0.0
  0
LINE
  5
29A
330
A
100
AcDbEntity
  8
1
  6
Continuous
 62
     7
100
AcDbLine
 10
-197.811112875196
 20
204.4384755256559
 30
0.0
 11
-204.5111128699899
 21
204.4384755256559
 31
0.0
  0
LINE
  5
299
330
A
100
AcDbEntity
  8
1
  6
Continuous
 62
     7
100
AcDbLine
 10
-205.811112869991
 20
150.638475525657
 30
0.0
 11
-205.811112869991
 21
160.03847552566
 31
0.0
  0
LINE
  5
298
330
A
100
AcDbEntity
  8
1
  6
Continuous
 62
     7
100
AcDbLine
 10
-203.811112869991
 20
141.334475525658
 30
0.0
 11
-203.811112869991
 21
182.638475525657
 31
0.0
  0
LINE
  5
297
330
A
100
AcDbEntity
  8
1
  6
Continuous
 62
     7
100
AcDbLine
 10
-195.511112869991
 20
192.940975525657
 30
0.0
 11
-195.511112869991
 21
170.3384755256569
 31
0.0
  0
LINE
  5
296
330
A
100
AcDbEntity
  8
1
  6
Continuous
 62
     7
100
AcDbLine
 10
-189.2111128699909
 20
147.735975525657
 30
0.0
 11
-189.2111128699909
 21
170.3384755256569
 31
0.0
  0
LINE
  5
295
330
A
100
AcDbEntity
  8
1
  6
Continuous
 62
     7
100
AcDbLine
 10
-195.511112869991
 20
158.338475525657
 30
0.0
 11
-189.2111128699909
 21
158.338475525657
 31
0.0
  0
LINE
  5
294
330
A
100
AcDbEntity
  8
1
  6
Continuous
 62
     7
100
AcDbLine
 10
-195.511112869991
 20
182.338475525657
 30
0.0
 11
-189.2111128699909
 21
182.338475525657
 31
0.0
  0
LINE
  5
293
330
A
100
AcDbEntity
  8
1
  6
Continuous
 62
     7
100
AcDbLine
 10
-195.511112869991
 20
147.735975525657
 30
0.0
 11
-189.2111128699909
 21
147.735975525657
 31
0.0
  0
LINE
  5
292
330
A
100
AcDbEntity
  8
1
  6
Continuous
 62
     7
100
AcDbLine
 10
-195.511112869991
 20
192.940975525657
 30
0.0
 11
-189.2111128699909
 21
192.940975525657
 31
0.0
  0
LINE
  5
291
330
A
100
AcDbEntity
  8
1
  6
Continuous
 62
     7
100
AcDbLine
 10
-188.811112869991
 20
139.213475525657
 30
0.0
 11
-189.6891128699909
 21
138.3354755256559
 31
0.0
  0
LINE
  5
290
330
A
100
AcDbEntity
  8
1
  6
Continuous
 62
     7
100
AcDbLine
 10
-188.811112869991
 20
138.3354755256559
 30
0.0
 11
-197.8111129078329
 21
138.3354755256559
 31
0.0
  0
LINE
  5
28F
330
A
100
AcDbEntity
  8
1
  6
Continuous
 62
     7
100
AcDbLine
 10
-196.81111286996
 20
139.271475525659
 30
0.0
 11
-202.374112869991
 21
139.271475525659
 31
0.0
  0
LINE
  5
28E
330
A
100
AcDbEntity
  8
1
  6
Continuous
 62
     7
100
AcDbLine
 10
-189.2111128699909
 20
201.757475525656
 30
0.0
 11
-197.4111128759629
 21
201.757475525656
 31
0.0
  0
LINE
  5
28D
330
A
100
AcDbEntity
  8
1
  6
Continuous
 62
     7
100
AcDbLine
 10
-188.811112869991
 20
139.719067746375
 30
0.0
 11
-188.811112869991
 21
139.213475525657
 31
0.0
  0
LINE
  5
28C
330
A
100
AcDbEntity
  8
1
  6
Continuous
 62
     7
100
AcDbLine
 10
-188.811112869991
 20
139.719067746375
 30
0.0
 11
-189.811112869991
 21
139.771475525659
 31
0.0
  0
LINE
  5
28B
330
A
100
AcDbEntity
  8
1
  6
Continuous
 62
     7
100
AcDbLine
 10
-204.1111128699909
 20
160.338475525657
 30
0.0
 11
-205.5111128699919
 21
160.338475525657
 31
0.0
  0
LINE
  5
28A
330
A
100
AcDbEntity
  8
1
  6
Continuous
 62
     7
100
AcDbLine
 10
-189.811112869991
 20
139.771475525659
 30
0.0
 11
-202.2481128699909
 21
139.771475525659
 31
0.0
  0
LINE
  5
289
330
A
100
AcDbEntity
  8
1
  6
Continuous
 62
     7
100
AcDbLine
 10
-205.5111128699909
 20
150.3384755256569
 30
0.0
 11
-205.811112869991
 21
150.638475525657
 31
0.0
  0
LINE
  5
288
330
A
100
AcDbEntity
  8
1
  6
Continuous
 62
     7
100
AcDbLine
 10
-205.5111128699909
 20
150.3384755256569
 30
0.0
 11
-204.4371128699909
 21
150.3384755256569
 31
0.0
  0
LINE
  5
287
330
A
100
AcDbEntity
  8
1
  6
Continuous
 62
     7
100
AcDbLine
 10
-188.811112869991
 20
201.463475525657
 30
0.0
 11
-188.811112869991
 21
200.9578833049419
 31
0.0
  0
LINE
  5
286
330
A
100
AcDbEntity
  8
1
  6
Continuous
 62
     7
100
AcDbLine
 10
-189.811112869991
 20
200.905475525659
 30
0.0
 11
-188.811112869991
 21
200.9578833049419
 31
0.0
  0
LINE
  5
285
330
A
100
AcDbEntity
  8
1
  6
Continuous
 62
     7
100
AcDbLine
 10
-202.2481128699909
 20
200.905475525659
 30
0.0
 11
-189.811112869991
 21
200.905475525659
 31
0.0
  0
LINE
  5
284
330
A
100
AcDbEntity
  8
1
  6
Continuous
 62
     7
100
AcDbLine
 10
-205.811112869991
 20
190.038475525656
 30
0.0
 11
-205.5111128699909
 21
190.338475525657
 31
0.0
  0
LINE
  5
283
330
A
100
AcDbEntity
  8
1
  6
Continuous
 62
     7
100
AcDbLine
 10
-204.4371128699909
 20
190.338475525657
 30
0.0
 11
-205.5111128699909
 21
190.338475525657
 31
0.0
  0
LINE
  5
282
330
A
100
AcDbEntity
  8
1
  6
DASH_CENTER
 62
     3
100
AcDbLine
 10
-186.622571181865
 20
170.3384755256569
 30
0.0
 11
-228.784644596067
 21
170.3384755256569
 31
0.0
  0
LINE
  5
281
330
A
100
AcDbEntity
  8
1
  6
Continuous
 62
     7
100
AcDbLine
 10
-189.6891128699909
 20
202.3414755256569
 30
0.0
 11
-188.811112869991
 21
201.463475525657
 31
0.0
  0
LINE
  5
280
330
A
100
AcDbEntity
  8
1
  6
Continuous
 62
     7
100
AcDbLine
 10
-197.4111129210189
 20
138.9194755256569
 30
0.0
 11
-197.811112910382
 21
138.519475525658
 31
0.0
  0
LINE
  5
27F
330
A
100
AcDbEntity
  8
1
  6
Continuous
 62
     7
100
AcDbLine
 10
-189.2111128699909
 20
138.9194755256569
 30
0.0
 11
-188.811112869897
 21
138.5194755255309
 31
0.0
  0
LINE
  5
27E
330
A
100
AcDbEntity
  8
1
  6
Continuous
 62
     7
100
AcDbLine
 10
-189.2111128699909
 20
138.9194755256569
 30
0.0
 11
-197.4111129210189
 21
138.9194755256569
 31
0.0
  0
LINE
  5
27D
330
A
100
AcDbEntity
  8
1
  6
Continuous
 62
     7
100
AcDbLine
 10
-189.2111128699909
 20
201.757475525656
 30
0.0
 11
-188.811112869991
 21
202.1574755256569
 31
0.0
  0
LINE
  5
27C
330
A
100
AcDbEntity
  8
1
  6
Continuous
 62
     7
100
AcDbLine
 10
-197.811112865259
 20
202.1574755256569
 30
0.0
 11
-197.4111128759629
 21
201.757475525656
 31
0.0
  0
LINE
  5
27B
330
A
100
AcDbEntity
  8
1
  6
Continuous
 62
     7
100
AcDbLine
 10
-188.811112869985
 20
206.8384748872269
 30
0.0
 11
-188.811112869991
 21
202.1574755256569
 31
0.0
  0
LINE
  5
27A
330
A
100
AcDbEntity
  8
1
  6
Continuous
 62
     7
100
AcDbLine
 10
-205.811112869991
 20
160.03847552566
 30
0.0
 11
-205.5111128699919
 21
160.338475525657
 31
0.0
  0
LINE
  5
279
330
A
100
AcDbEntity
  8
1
  6
Continuous
 62
     7
100
AcDbLine
 10
-204.1111128699909
 20
160.338475525657
 30
0.0
 11
-203.811112869991
 21
160.03847552566
 31
0.0
  0
LINE
  5
278
330
A
100
AcDbEntity
  8
1
  6
Continuous
 62
     7
100
AcDbLine
 10
-204.1871128699909
 20
190.588475525657
 30
0.0
 11
-204.1871128699909
 21
199.5924755256579
 31
0.0
  0
LINE
  5
277
330
A
100
AcDbEntity
  8
1
  6
Continuous
 62
     7
100
AcDbLine
 10
-204.1871128699909
 20
141.08447552566
 30
0.0
 11
-204.1871128699909
 21
150.088475525657
 31
0.0
  0
LINE
  5
276
330
A
100
AcDbEntity
  8
1
  6
Continuous
 62
     7
100
AcDbLine
 10
-205.811112869991
 20
188.088475525657
 30
0.0
 11
-205.811112869991
 21
190.038475525656
 31
0.0
  0
LINE
  5
275
330
A
100
AcDbEntity
  8
1
  6
Continuous
 62
     7
100
AcDbLine
 10
-203.811112869991
 20
182.588475525657
 30
0.0
 11
-203.811112869991
 21
199.3424755256589
 31
0.0
  0
LINE
  5
274
330
A
100
AcDbEntity
  8
1
  6
Continuous
 62
     3
100
AcDbLine
 10
-189.2111128699909
 20
156.838475525657
 30
0.0
 11
-195.511112869991
 21
156.838475525657
 31
0.0
  0
LINE
  5
273
330
A
100
AcDbEntity
  8
1
  6
Continuous
 62
     3
100
AcDbLine
 10
-189.2111128699909
 20
153.838475525657
 30
0.0
 11
-195.511112869991
 21
153.838475525657
 31
0.0
  0
LINE
  5
272
330
A
100
AcDbEntity
  8
1
  6
DASH_CENTER
 62
     3
100
AcDbLine
 10
-187.871112869991
 20
155.338475525657
 30
0.0
 11
-196.831112869991
 21
155.338475525657
 31
0.0
  0
LINE
  5
271
330
A
100
AcDbEntity
  8
1
  6
Continuous
 62
     7
100
AcDbLine
 10
-189.2111128699909
 20
156.538475525656
 30
0.0
 11
-195.511112869991
 21
156.538475525656
 31
0.0
  0
LINE
  5
270
330
A
100
AcDbEntity
  8
1
  6
Continuous
 62
     7
100
AcDbLine
 10
-189.2111128699909
 20
154.138475525657
 30
0.0
 11
-195.511112869991
 21
154.138475525657
 31
0.0
  0
LINE
  5
26F
330
A
100
AcDbEntity
  8
1
  6
DASH_CENTER
 62
     3
100
AcDbLine
 10
-198.4296899167929
 20
138.588475525657
 30
0.0
 11
-188.219133689547
 21
138.588475525657
 31
0.0
  0
LINE
  5
26E
330
A
100
AcDbEntity
  8
1
  6
DASH_CENTER
 62
     3
100
AcDbLine
 10
-188.219133689547
 20
202.0884755256569
 30
0.0
 11
-198.4296899167929
 21
202.0884755256569
 31
0.0
  0
LINE
  5
26D
330
A
100
AcDbEntity
  8
1
  6
Continuous
 62
     7
100
AcDbLine
 10
-205.811112869991
 20
182.588475525657
 30
0.0
 11
-205.8111128699919
 21
182.838475525656
 31
0.0
  0
LINE
  5
26C
330
A
100
AcDbEntity
  8
1
  6
Continuous
 62
     7
100
AcDbLine
 10
-203.811112869991
 20
182.588475525657
 30
0.0
 11
-205.9111128699909
 21
182.588475525657
 31
0.0
  0
LINE
  5
26B
330
A
100
AcDbEntity
  8
1
  6
Continuous
 62
     7
100
AcDbLine
 10
-203.811112869991
 20
188.088475525657
 30
0.0
 11
-205.9111128699909
 21
188.088475525657
 31
0.0
  0
LINE
  5
26A
330
A
100
AcDbEntity
  8
1
  6
Continuous
 62
     7
100
AcDbLine
 10
-205.5111128699909
 20
180.3384755256569
 30
0.0
 11
-204.1111128699909
 21
180.3384755256569
 31
0.0
  0
LINE
  5
269
330
A
100
AcDbEntity
  8
1
  6
Continuous
 62
     7
100
AcDbLine
 10
-205.5111128699909
 20
180.3384755256569
 30
0.0
 11
-205.811112869991
 21
180.638475525657
 31
0.0
  0
LINE
  5
268
330
A
100
AcDbEntity
  8
1
  6
Continuous
 62
     7
100
AcDbLine
 10
-203.811112869991
 20
180.638475525657
 30
0.0
 11
-204.1111128699909
 21
180.3384755256569
 31
0.0
  0
LINE
  5
267
330
A
100
AcDbEntity
  8
1
  6
Continuous
 62
     7
100
AcDbLine
 10
-191.81111286998
 20
133.6384761640879
 30
0.0
 11
-191.81111286998
 21
127.8384761640909
 31
0.0
  0
LINE
  5
266
330
A
100
AcDbEntity
  8
1
  6
Continuous
 62
     7
100
AcDbLine
 10
-205.8111128699919
 20
187.8384755256569
 30
0.0
 11
-205.811112869991
 21
188.088475525657
 31
0.0
  0
LINE
  5
265
330
A
100
AcDbEntity
  8
1
  6
Continuous
 62
     7
100
AcDbLine
 10
-202.511112869991
 20
129.838476164089
 30
0.0
 11
-202.5111128699899
 21
127.8384761638079
 31
0.0
  0
LINE
  5
264
330
A
100
AcDbEntity
  8
1
  6
Continuous
 62
     7
100
AcDbLine
 10
-194.11111286998
 20
133.238476164088
 30
0.0
 11
-191.81111286998
 21
133.238476164088
 31
0.0
  0
LINE
  5
263
330
A
100
AcDbEntity
  8
1
  6
Continuous
 62
     7
100
AcDbLine
 10
-194.11111286998
 20
133.238476164088
 30
0.0
 11
-194.11111286998
 21
128.438476164088
 31
0.0
  0
LINE
  5
262
330
A
100
AcDbEntity
  8
1
  6
Continuous
 62
     7
100
AcDbLine
 10
-194.11111286998
 20
128.438476164088
 30
0.0
 11
-191.81111286998
 21
128.438476164088
 31
0.0
  0
LINE
  5
261
330
A
100
AcDbEntity
  8
1
  6
Continuous
 62
     7
100
AcDbLine
 10
-204.511112869991
 20
133.8384755256569
 30
0.0
 11
-202.511112869991
 21
133.8384755256569
 31
0.0
  0
LINE
  5
260
330
A
100
AcDbEntity
  8
1
  6
Continuous
 62
     7
100
AcDbLine
 10
-204.511112869991
 20
136.238475525657
 30
0.0
 11
-204.511112869991
 21
133.8384755256569
 31
0.0
  0
LINE
  5
25F
330
A
100
AcDbEntity
  8
1
  6
Continuous
 62
     7
100
AcDbLine
 10
-205.811112869991
 20
150.3384755256569
 30
0.0
 11
-205.811112869991
 21
160.338475525657
 31
0.0
  0
LINE
  5
25E
330
A
100
AcDbEntity
  8
1
  6
Continuous
 62
     7
100
AcDbLine
 10
-205.91111286999
 20
150.3384755256569
 30
0.0
 11
-205.811112869991
 21
150.3384755256569
 31
0.0
  0
LINE
  5
25D
330
A
100
AcDbEntity
  8
1
  6
Continuous
 62
     7
100
AcDbLine
 10
-205.811112869991
 20
160.338475525657
 30
0.0
 11
-205.9111128699909
 21
160.338475525657
 31
0.0
  0
LINE
  5
25C
330
A
100
AcDbEntity
  8
1
  6
Continuous
 62
     7
100
AcDbLine
 10
-205.9111128699909
 20
160.338475525657
 30
0.0
 11
-205.91111286999
 21
150.3384755256569
 31
0.0
  0
LINE
  5
25B
330
A
100
AcDbEntity
  8
1
  6
Continuous
 62
     7
100
AcDbLine
 10
-205.811112869991
 20
190.338475525657
 30
0.0
 11
-205.9111128699909
 21
190.338475525657
 31
0.0
  0
LINE
  5
25A
330
A
100
AcDbEntity
  8
1
  6
Continuous
 62
     7
100
AcDbLine
 10
-205.811112869991
 20
190.338475525657
 30
0.0
 11
-205.811112869991
 21
188.088475525657
 31
0.0
  0
LINE
  5
259
330
A
100
AcDbEntity
  8
1
  6
Continuous
 62
     7
100
AcDbLine
 10
-205.9111128699909
 20
188.088475525657
 30
0.0
 11
-205.9111128699909
 21
190.338475525657
 31
0.0
  0
LINE
  5
258
330
A
100
AcDbEntity
  8
1
  6
Continuous
 62
     7
100
AcDbLine
 10
-205.9111128699909
 20
180.3384755256569
 30
0.0
 11
-205.811112869991
 21
180.3384755256569
 31
0.0
  0
LINE
  5
257
330
A
100
AcDbEntity
  8
1
  6
Continuous
 62
     7
100
AcDbLine
 10
-205.811112869991
 20
182.638475525657
 30
0.0
 11
-205.811112869991
 21
180.638475525657
 31
0.0
  0
LINE
  5
256
330
A
100
AcDbEntity
  8
1
  6
Continuous
 62
     7
100
AcDbLine
 10
-205.811112869991
 20
180.3384755256569
 30
0.0
 11
-205.811112869991
 21
182.588475525657
 31
0.0
  0
LINE
  5
255
330
A
100
AcDbEntity
  8
1
  6
Continuous
 62
     7
100
AcDbLine
 10
-205.9111128699909
 20
182.588475525657
 30
0.0
 11
-205.9111128699909
 21
180.3384755256569
 31
0.0
  0
LINE
  5
254
330
A
100
AcDbEntity
  8
1
  6
DASH_CENTER
 62
     3
100
AcDbLine
 10
-356.0101073677079
 20
170.3384755256569
 30
0.0
 11
-262.810107367708
 21
170.3384755256569
 31
0.0
  0
LINE
  5
253
330
A
100
AcDbEntity
  8
1
  6
DASH_CENTER
 62
     3
100
AcDbLine
 10
-310.0022883295189
 20
216.68656120138
 30
0.0
 11
-310.0022883295189
 21
121.98656120138
 31
0.0
  0
LINE
  5
252
330
A
100
AcDbEntity
  8
1
  6
DASH_CENTER
 62
     3
100
AcDbLine
 10
-144.33623125078
 20
170.3384755256569
 30
0.0
 11
-50.33623125078
 21
170.3384755256569
 31
0.0
  0
LINE
  5
251
330
A
100
AcDbEntity
  8
1
  6
DASH_CENTER
 62
     3
100
AcDbLine
 10
-97.07322654462
 20
217.12939413936
 30
0.0
 11
-97.07322654462
 21
123.52939413936
 31
0.0
  0
LINE
  5
250
330
A
100
AcDbEntity
  8
1
  6
Continuous
 62
     7
100
AcDbLine
 10
-202.374112869991
 20
201.4054755256589
 30
0.0
 11
-196.811112870288
 21
201.4054755256589
 31
0.0
  0
LINE
  5
24F
330
A
100
AcDbEntity
  8
1
  6
Continuous
 62
     7
100
AcDbLine
 10
-197.81111286606
 20
202.3414755256569
 30
0.0
 11
-188.811112869991
 21
202.3414755256569
 31
0.0
  0
LINE
  5
24E
330
A
100
AcDbEntity
  8
1
  6
Continuous
 62
     7
100
AcDbLine
 10
-195.511112869991
 20
170.3384755256569
 30
0.0
 11
-195.511112869991
 21
147.735975525657
 31
0.0
  0
LINE
  5
24D
330
A
100
AcDbEntity
  8
1
  6
Continuous
 62
     7
100
AcDbLine
 10
-189.2111128699909
 20
170.3384755256569
 30
0.0
 11
-189.2111128699909
 21
192.940975525657
 31
0.0
  0
LINE
  5
24C
330
A
100
AcDbEntity
  8
1
  6
DASH_CENTER
 62
     3
100
AcDbLine
 10
-316.9227910012789
 20
187.0460469342589
 30
0.0
 11
-314.415341078907
 21
180.9925273246959
 31
0.0
  0
LINE
  5
24B
330
A
100
AcDbEntity
  8
1
  6
DASH_CENTER
 62
     3
100
AcDbLine
 10
-326.709859738121
 20
177.2589781974169
 30
0.0
 11
-320.6563401285579
 21
174.751528275045
 31
0.0
  0
LINE
  5
24A
330
A
100
AcDbEntity
  8
1
  6
DASH_CENTER
 62
     3
100
AcDbLine
 10
-326.709859738121
 20
163.417972853897
 30
0.0
 11
-320.6563401285579
 21
165.9254227762699
 31
0.0
  0
LINE
  5
249
330
A
100
AcDbEntity
  8
1
  6
DASH_CENTER
 62
     3
100
AcDbLine
 10
-316.9227910012789
 20
153.6309041170549
 30
0.0
 11
-314.415341078907
 21
159.684423726618
 31
0.0
  0
LINE
  5
248
330
A
100
AcDbEntity
  8
1
  6
DASH_CENTER
 62
     3
100
AcDbLine
 10
-303.081785657759
 20
153.6309041170549
 30
0.0
 11
-305.5892355801319
 21
159.684423726618
 31
0.0
  0
LINE
  5
247
330
A
100
AcDbEntity
  8
1
  6
DASH_CENTER
 62
     3
100
AcDbLine
 10
-293.294716920917
 20
163.417972853897
 30
0.0
 11
-299.3482365304799
 21
165.9254227762699
 31
0.0
  0
LINE
  5
246
330
A
100
AcDbEntity
  8
1
  6
DASH_CENTER
 62
     3
100
AcDbLine
 10
-293.294716920917
 20
177.2589781974169
 30
0.0
 11
-299.3482365304799
 21
174.7515282750439
 31
0.0
  0
LINE
  5
245
330
A
100
AcDbEntity
  8
1
  6
DASH_CENTER
 62
     3
100
AcDbLine
 10
-303.081785657759
 20
187.0460469342589
 30
0.0
 11
-305.5892355801319
 21
180.9925273246959
 31
0.0
  0
LINE
  5
244
330
A
100
AcDbEntity
  8
1
  6
DASH_CENTER
 62
     3
100
AcDbLine
 10
-197.311112869991
 20
185.338475525657
 30
0.0
 11
-221.4503433545329
 21
185.338475525657
 31
0.0
  0
LINE
  5
243
330
A
100
AcDbEntity
  8
1
  6
DASH_CENTER
 62
     3
100
AcDbLine
 10
-191.71111286998
 20
130.838476164088
 30
0.0
 11
-212.1152580584229
 21
130.838476164088
 31
0.0
  0
INSERT
  5
4F
330
A
100
AcDbEntity
  8
0
100
AcDbBlockReference
  2
HEX_BOLT_SIDE__1
 10
0.0
 20
0.0
 30
0.0
  0
INSERT
  5
50
330
A
100
AcDbEntity
  8
0
100
AcDbBlockReference
  2
HEX_BOLT_SIDE__2
 10
0.0
 20
0.0
 30
0.0
  0
INSERT
  5
51
330
A
100
AcDbEntity
  8
0
100
AcDbBlockReference
  2
WB_025_R
 10
0.0
 20
0.0
 30
0.0
  0
INSERT
  5
52
330
A
100
AcDbEntity
  8
0
100
AcDbBlockReference
  2
CRB
 10
0.0
 20
0.0
 30
0.0
  0
INSERT
  5
53
330
A
100
AcDbEntity
  8
0
100
AcDbBlockReference
  2
WBG_025_F
 10
0.0
 20
0.0
 30
0.0
  0
INSERT
  5
54
330
A
100
AcDbEntity
  8
0
100
AcDbBlockReference
  2
HEX_BOLT_TOP__4
 10
0.0
 20
0.0
 30
0.0
  0
INSERT
  5
55
330
A
100
AcDbEntity
  8
0
100
AcDbBlockReference
  2
HEX_BOLT_TOP__5
 10
0.0
 20
0.0
 30
0.0
  0
INSERT
  5
56
330
A
100
AcDbEntity
  8
0
100
AcDbBlockReference
  2
HEX_BOLT_TOP__6
 10
0.0
 20
0.0
 30
0.0
  0
INSERT
  5
57
330
A
100
AcDbEntity
  8
0
100
AcDbBlockReference
  2
HEX_BOLT_TOP__7
 10
0.0
 20
0.0
 30
0.0
  0
INSERT
  5
58
330
A
100
AcDbEntity
  8
0
100
AcDbBlockReference
  2
HEX_BOLT_TOP__8
 10
0.0
 20
0.0
 30
0.0
  0
INSERT
  5
59
330
A
100
AcDbEntity
  8
0
100
AcDbBlockReference
  2
HEX_BOLT_TOP__9
 10
0.0
 20
0.0
 30
0.0
  0
MTEXT
  5
355
330
A
100
AcDbEntity
  8
1
 62
     0
100
AcDbMText
 10
-99.42697878500837
 20
100.8556325012333
 30
0.0
 40
5.424386689048979
 41
0.0
 71
     5
 72
     1
  1
CSD-25-XXX-2UH.dxf
  7
CONVERTER_2
 73
     1
 44
1.0
  0
INSERT
  5
372
330
A
100
AcDbEntity
  8
0
  6
ByBlock
370
    -2
100
AcDbBlockReference
  2
NTC
 10
-362.9658811387784
 20
66.9212194489691
 30
0.0
 41
0.4885354692671399
 42
0.4885354692671399
 43
0.4885354692671399
  0
INSERT
  5
3E1
330
A
100
AcDbEntity
  8
0
  6
ByBlock
370
    -2
100
AcDbBlockReference
  2
HD logo-new
 10
-173.8538834841709
 20
35.84285852412915
 30
0.0
  0
INSERT
  5
3F7
330
A
100
AcDbEntity
  8
0
  6
ByBlock
370
    -2
100
AcDbBlockReference
  2
HD LLC
 10
-85.25579555190352
 20
28.66514797691376
 30
0.0
 41
0.9
 42
0.9
 43
0.9
  0
ENDSEC
  0
SECTION
  2
OBJECTS
  0
DICTIONARY
  5
19
330
0
100
AcDbDictionary
281
     1
  3
ACAD_GROUP
350
1A
  3
ACAD_LAYOUT
350
34B
  3
ACAD_MLINESTYLE
350
1B
  3
ACAD_PLOTSETTINGS
350
34C
  3
ACAD_PLOTSTYLENAME
350
349
  3
AcDbVariableDictionary
350
3F8
  0
DICTIONARY
  5
1A
102
{ACAD_REACTORS
330
19
102
}
330
19
100
AcDbDictionary
281
     1
  0
DICTIONARY
  5
34B
102
{ACAD_REACTORS
330
19
102
}
330
19
100
AcDbDictionary
281
     1
  3
Layout1
350
34E
  3
Model
350
34D
  0
DICTIONARY
  5
1B
102
{ACAD_REACTORS
330
19
102
}
330
19
100
AcDbDictionary
281
     1
  3
STANDARD
350
1C
  0
DICTIONARY
  5
34C
102
{ACAD_REACTORS
330
19
102
}
330
19
100
AcDbDictionary
281
     1
  0
ACDBDICTIONARYWDFLT
  5
349
102
{ACAD_REACTORS
330
19
102
}
330
19
100
AcDbDictionary
281
     1
  3
Normal
350
34A
100
AcDbDictionaryWithDefault
340
34A
  0
DICTIONARY
  5
3F8
102
{ACAD_REACTORS
330
19
102
}
330
19
100
AcDbDictionary
281
     1
  3
DIMASSOC
350
3F9
  0
LAYOUT
  5
34E
102
{ACAD_REACTORS
330
34B
102
}
330
34B
100
AcDbPlotSettings
  1

  2
Adobe PDF
  4

  6

 40
0.0
 41
0.0
 42
0.0
 43
0.0
 44
0.0
 45
0.0
 46
0.0
 47
0.0
 48
0.0
 49
0.0
140
0.0
141
0.0
142
1.0
143
1.0
 70
   688
 72
     0
 73
     0
 74
     5
  7

 75
    16
147
1.0
148
0.0
149
0.0
100
AcDbLayout
  1
Layout1
 70
     0
 71
     1
 10
0.0
 20
0.0
 11
12.0
 21
9.0
 12
0.0
 22
0.0
 32
0.0
 14
1.000000000000000E+20
 24
1.000000000000000E+20
 34
1.000000000000000E+20
 15
-1.000000000000000E+20
 25
-1.000000000000000E+20
 35
-1.000000000000000E+20
146
0.0
 13
0.0
 23
0.0
 33
0.0
 16
1.0
 26
0.0
 36
0.0
 17
0.0
 27
1.0
 37
0.0
 76
     0
330
B
  0
LAYOUT
  5
34D
102
{ACAD_REACTORS
330
34B
102
}
330
34B
100
AcDbPlotSettings
  1

  2
Adobe PDF
  4

  6

 40
0.0
 41
0.0
 42
0.0
 43
0.0
 44
0.0
 45
0.0
 46
0.0
 47
0.0
 48
0.0
 49
0.0
140
0.0
141
0.0
142
1.0
143
1.0
 70
  1712
 72
     0
 73
     0
 74
     0
  7

 75
     0
147
1.0
148
0.0
149
0.0
100
AcDbLayout
  1
Model
 70
     1
 71
     0
 10
0.0
 20
0.0
 11
12.0
 21
9.0
 12
0.0
 22
0.0
 32
0.0
 14
0.0
 24
0.0
 34
0.0
 15
0.0
 25
0.0
 35
0.0
146
0.0
 13
0.0
 23
0.0
 33
0.0
 16
1.0
 26
0.0
 36
0.0
 17
0.0
 27
1.0
 37
0.0
 76
     0
330
A
  0
MLINESTYLE
  5
1C
102
{ACAD_REACTORS
330
1B
102
}
330
1B
100
AcDbMlineStyle
  2
STANDARD
 70
     0
  3

 62
     0
 51
90.0
 52
90.0
 71
     2
 49
0.5
 62
   256
  6
BYLAYER
 49
-0.5
 62
   256
  6
BYLAYER
  0
ACDBPLACEHOLDER
  5
34A
102
{ACAD_REACTORS
330
349
102
}
330
349
  0
DICTIONARYVAR
  5
3F9
102
{ACAD_REACTORS
330
3F8
102
}
330
3F8
100
DictionaryVariables
280
     0
  1
1
  0
ENDSEC
  0
EOF
