  0
SECTION
  2
HEADER
  9
$ACADVER
  1
AC1015
  9
$ACADMAINTVER
 70
    13
  9
$DWGCODEPAGE
  3
ANSI_1252
  9
$INSBASE
 10
0.0
 20
0.0
 30
0.0
  9
$EXTMIN
 10
-530.7128146453099
 20
21.59027219407981
 30
0.0
  9
$EXTMAX
 10
-92.85665763788648
 20
323.6561784896989
 30
0.0
  9
$LIMMIN
 10
0.0
 20
0.0
  9
$LIMMAX
 10
0.0
 20
0.0
  9
$ORTHOMODE
 70
     0
  9
$REGENMODE
 70
     1
  9
$FILLMODE
 70
     1
  9
$QTEXTMODE
 70
     0
  9
$MIRRTEXT
 70
     1
  9
$LTSCALE
 40
1.0
  9
$ATTMODE
 70
     1
  9
$TEXTSIZE
 40
0.0
  9
$TRACEWID
 40
0.05
  9
$TEXTSTYLE
  7
STANDARD
  9
$CLAYER
  8
0
  9
$CELTYPE
  6
BYBLOCK
  9
$CECOLOR
 62
   256
  9
$CELTSCALE
 40
1.0
  9
$DISPSILH
 70
     0
  9
$DIMSCALE
 40
1.0
  9
$DIMASZ
 40
0.18
  9
$DIMEXO
 40
0.0625
  9
$DIMDLI
 40
0.38
  9
$DIMRND
 40
0.0
  9
$DIMDLE
 40
0.0
  9
$DIMEXE
 40
0.18
  9
$DIMTP
 40
0.0
  9
$DIMTM
 40
0.0
  9
$DIMTXT
 40
0.18
  9
$DIMCEN
 40
0.09
  9
$DIMTSZ
 40
0.0
  9
$DIMTOL
 70
     0
  9
$DIMLIM
 70
     0
  9
$DIMTIH
 70
     1
  9
$DIMTOH
 70
     1
  9
$DIMSE1
 70
     0
  9
$DIMSE2
 70
     0
  9
$DIMTAD
 70
     0
  9
$DIMZIN
 70
     0
  9
$DIMBLK
  1

  9
$DIMASO
 70
     1
  9
$DIMSHO
 70
     1
  9
$DIMPOST
  1

  9
$DIMAPOST
  1

  9
$DIMALT
 70
     0
  9
$DIMALTD
 70
     2
  9
$DIMALTF
 40
25.4
  9
$DIMLFAC
 40
1.0
  9
$DIMTOFL
 70
     0
  9
$DIMTVP
 40
0.0
  9
$DIMTIX
 70
     0
  9
$DIMSOXD
 70
     0
  9
$DIMSAH
 70
     0
  9
$DIMBLK1
  1

  9
$DIMBLK2
  1

  9
$DIMSTYLE
  2
STANDARD
  9
$DIMCLRD
 70
     0
  9
$DIMCLRE
 70
     0
  9
$DIMCLRT
 70
     0
  9
$DIMTFAC
 40
1.0
  9
$DIMGAP
 40
0.09
  9
$DIMJUST
 70
     0
  9
$DIMSD1
 70
     0
  9
$DIMSD2
 70
     0
  9
$DIMTOLJ
 70
     1
  9
$DIMTZIN
 70
     0
  9
$DIMALTZ
 70
     0
  9
$DIMALTTZ
 70
     0
  9
$DIMUPT
 70
     0
  9
$DIMDEC
 70
     4
  9
$DIMTDEC
 70
     4
  9
$DIMALTU
 70
     2
  9
$DIMALTTD
 70
     2
  9
$DIMTXSTY
  7
STANDARD
  9
$DIMAUNIT
 70
     0
  9
$DIMADEC
 70
     0
  9
$DIMALTRND
 40
0.0
  9
$DIMAZIN
 70
     0
  9
$DIMDSEP
 70
    46
  9
$DIMATFIT
 70
     3
  9
$DIMFRAC
 70
     0
  9
$DIMLDRBLK
  1

  9
$DIMLUNIT
 70
     2
  9
$DIMLWD
 70
    -2
  9
$DIMLWE
 70
    -2
  9
$DIMTMOVE
 70
     0
  9
$LUNITS
 70
     2
  9
$LUPREC
 70
     4
  9
$SKETCHINC
 40
0.1
  9
$FILLETRAD
 40
0.0
  9
$AUNITS
 70
     0
  9
$AUPREC
 70
     0
  9
$MENU
  1
acad
  9
$ELEVATION
 40
0.0
  9
$PELEVATION
 40
0.0
  9
$THICKNESS
 40
0.0
  9
$LIMCHECK
 70
     0
  9
$CHAMFERA
 40
0.0
  9
$CHAMFERB
 40
0.0
  9
$CHAMFERC
 40
0.0
  9
$CHAMFERD
 40
0.0
  9
$SKPOLY
 70
     0
  9
$TDCREATE
 40
2311946.676466492
  9
$TDUCREATE
 40
2311946.843133160
  9
$TDUPDATE
 40
2454707.649545613
  9
$TDUUPDATE
 40
2454707.816212280
  9
$TDINDWG
 40
0.0042302778
  9
$TDUSRTIMER
 40
0.0042302778
  9
$USRTIMER
 70
     1
  9
$ANGBASE
 50
0.0
  9
$ANGDIR
 70
     0
  9
$PDMODE
 70
     0
  9
$PDSIZE
 40
0.0
  9
$PLINEWID
 40
0.0
  9
$SPLFRAME
 70
     0
  9
$SPLINETYPE
 70
     6
  9
$SPLINESEGS
 70
     8
  9
$HANDSEED
  5
40F
  9
$SURFTAB1
 70
     6
  9
$SURFTAB2
 70
     6
  9
$SURFTYPE
 70
     6
  9
$SURFU
 70
     6
  9
$SURFV
 70
     6
  9
$UCSBASE
  2

  9
$UCSNAME
  2

  9
$UCSORG
 10
0.0
 20
0.0
 30
0.0
  9
$UCSXDIR
 10
1.0
 20
0.0
 30
0.0
  9
$UCSYDIR
 10
0.0
 20
1.0
 30
0.0
  9
$UCSORTHOREF
  2

  9
$UCSORTHOVIEW
 70
     0
  9
$UCSORGTOP
 10
0.0
 20
0.0
 30
0.0
  9
$UCSORGBOTTOM
 10
0.0
 20
0.0
 30
0.0
  9
$UCSORGLEFT
 10
0.0
 20
0.0
 30
0.0
  9
$UCSORGRIGHT
 10
0.0
 20
0.0
 30
0.0
  9
$UCSORGFRONT
 10
0.0
 20
0.0
 30
0.0
  9
$UCSORGBACK
 10
0.0
 20
0.0
 30
0.0
  9
$PUCSBASE
  2

  9
$PUCSNAME
  2

  9
$PUCSORG
 10
0.0
 20
0.0
 30
0.0
  9
$PUCSXDIR
 10
1.0
 20
0.0
 30
0.0
  9
$PUCSYDIR
 10
0.0
 20
1.0
 30
0.0
  9
$PUCSORTHOREF
  2

  9
$PUCSORTHOVIEW
 70
     0
  9
$PUCSORGTOP
 10
0.0
 20
0.0
 30
0.0
  9
$PUCSORGBOTTOM
 10
0.0
 20
0.0
 30
0.0
  9
$PUCSORGLEFT
 10
0.0
 20
0.0
 30
0.0
  9
$PUCSORGRIGHT
 10
0.0
 20
0.0
 30
0.0
  9
$PUCSORGFRONT
 10
0.0
 20
0.0
 30
0.0
  9
$PUCSORGBACK
 10
0.0
 20
0.0
 30
0.0
  9
$USERI1
 70
     0
  9
$USERI2
 70
     0
  9
$USERI3
 70
     0
  9
$USERI4
 70
     0
  9
$USERI5
 70
     0
  9
$USERR1
 40
0.0
  9
$USERR2
 40
0.0
  9
$USERR3
 40
0.0
  9
$USERR4
 40
0.0
  9
$USERR5
 40
0.0
  9
$WORLDVIEW
 70
     1
  9
$SHADEDGE
 70
     3
  9
$SHADEDIF
 70
    70
  9
$TILEMODE
 70
     1
  9
$MAXACTVP
 70
    16
  9
$PINSBASE
 10
0.0
 20
0.0
 30
0.0
  9
$PLIMCHECK
 70
     0
  9
$PEXTMIN
 10
1.000000000000000E+20
 20
1.000000000000000E+20
 30
1.000000000000000E+20
  9
$PEXTMAX
 10
-1.000000000000000E+20
 20
-1.000000000000000E+20
 30
-1.000000000000000E+20
  9
$PLIMMIN
 10
0.0
 20
0.0
  9
$PLIMMAX
 10
12.0
 20
9.0
  9
$UNITMODE
 70
     0
  9
$VISRETAIN
 70
     0
  9
$PLINEGEN
 70
     1
  9
$PSLTSCALE
 70
     0
  9
$TREEDEPTH
 70
  3020
  9
$CMLSTYLE
  2
STANDARD
  9
$CMLJUST
 70
     0
  9
$CMLSCALE
 40
1.0
  9
$PROXYGRAPHICS
 70
     0
  9
$MEASUREMENT
 70
     0
  9
$CELWEIGHT
370
    -2
  9
$ENDCAPS
280
     0
  9
$JOINSTYLE
280
     0
  9
$LWDISPLAY
290
     0
  9
$INSUNITS
 70
     0
  9
$HYPERLINKBASE
  1

  9
$STYLESHEET
  1

  9
$XEDIT
290
     1
  9
$CEPSNTYPE
380
     0
  9
$PSTYLEMODE
290
     1
  9
$FINGERPRINTGUID
  2
{34DCFCBB-018C-4116-B1DB-4E4B22FB4B90}
  9
$VERSIONGUID
  2
{0DE8D490-24E9-4412-93F2-93B9253F7360}
  9
$EXTNAMES
290
     1
  9
$PSVPSCALE
 40
0.0
  9
$OLESTARTUP
290
     0
  0
ENDSEC
  0
SECTION
  2
CLASSES
  0
CLASS
  1
LWPOLYLINE
  2
AcDbPolyline
  3
AutoCAD 2000
 90
    32768
280
     0
281
     1
  0
CLASS
  1
IMAGE
  2
AcDbRasterImage
  3
ISM
 90
    32895
280
     0
281
     1
  0
CLASS
  1
OLE2FRAME
  2
AcDbOle2Frame
  3
AutoCAD 2000
 90
    32768
280
     0
281
     1
  0
CLASS
  1
HATCH
  2
AcDbHatch
  3
AutoCAD 2000
 90
    32768
280
     0
281
     1
  0
CLASS
  1
DICTIONARYVAR
  2
AcDbDictionaryVar
  3
AutoCAD 2000
 90
        0
280
     0
281
     0
  0
CLASS
  1
RASTERVARIABLES
  2
AcDbRasterVariables
  3
ISM
 90
    32768
280
     0
281
     0
  0
CLASS
  1
IMAGEDEF
  2
AcDbRasterImageDef
  3
ISM
 90
    32768
280
     0
281
     0
  0
CLASS
  1
IMAGEDEF_REACTOR
  2
AcDbRasterImageDefReactor
  3
ISM
 90
    32769
280
     0
281
     0
  0
CLASS
  1
IDBUFFER
  2
AcDbIdBuffer
  3
AutoCAD 2000
 90
    32768
280
     0
281
     0
  0
CLASS
  1
SPATIAL_FILTER
  2
AcDbSpatialFilter
  3
AutoCAD 2000
 90
    32768
280
     0
281
     0
  0
CLASS
  1
XRECORD
  2
AcDbXrecord
  3
AutoCAD 2000
 90
    32768
280
     0
281
     0
  0
CLASS
  1
SORTENTSTABLE
  2
AcDbSortentsTable
  3
AutoCAD 2000
 90
    32768
280
     0
281
     0
  0
CLASS
  1
LAYER_INDEX
  2
AcDbLayerIndex
  3
AutoCAD 2000
 90
    32768
280
     0
281
     0
  0
CLASS
  1
SPATIAL_INDEX
  2
AcDbSpatialIndex
  3
AutoCAD 2000
 90
    32768
280
     0
281
     0
  0
CLASS
  1
OBJECT_PTR
  2
CAseDLPNTableRecord
  3
"ASE-LPNTableRecord"
 90
    32769
280
     0
281
     0
  0
CLASS
  1
LAYOUT
  2
AcDbLayout
  3
AutoCAD 2000
 90
        0
280
     0
281
     0
  0
CLASS
  1
PLOTSETTINGS
  2
AcDbPlotSettings
  3
AutoCAD 2000
 90
    32768
280
     0
281
     0
  0
CLASS
  1
ACDBDICTIONARYWDFLT
  2
AcDbDictionaryWithDefault
  3
AutoCAD 2000
 90
        0
280
     0
281
     0
  0
CLASS
  1
ACDBPLACEHOLDER
  2
AcDbPlaceHolder
  3
AutoCAD 2000
 90
        0
280
     0
281
     0
  0
CLASS
  1
VBA_PROJECT
  2
AcDbVbaProject
  3
"acadvba"
 90
    32769
280
     0
281
     0
  0
CLASS
  1
WIPEOUT
  2
AcDbWipeout
  3
WipeOut|AutoCAD Express Tool|expresstools@autodesk.com
 90
    32895
280
     0
281
     1
  0
CLASS
  1
WIPEOUTVARIABLES
  2
AcDbWipeoutVariables
  3
WipeOut|AutoCAD Express Tool|expresstools@autodesk.com
 90
    32768
280
     0
281
     0
  0
CLASS
  1
RTEXT
  2
RText
  3
RText|AutoCAD Express Tool|expresstools@autodesk.com
 90
    32768
280
     0
281
     1
  0
CLASS
  1
ARCALIGNEDTEXT
  2
AcDbArcAlignedText
  3
ATEXT|AutoCAD Express Tool|expresstools@autodesk.com
 90
    32768
280
     0
281
     1
  0
ENDSEC
  0
SECTION
  2
TABLES
  0
TABLE
  2
VPORT
  5
7
330
0
100
AcDbSymbolTable
 70
     2
  0
VPORT
  5
40E
330
7
100
AcDbSymbolTableRecord
100
AcDbViewportTableRecord
  2
*Active
 70
     0
 10
0.0
 20
0.0
 11
1.0
 21
1.0
 12
-313.2886994069335
 22
196.0982089947332
 13
0.0
 23
0.0
 14
1.0
 24
1.0
 15
0.0
 25
0.0
 16
0.0
 26
0.0
 36
1.0
 17
0.0
 27
0.0
 37
0.0
 40
378.4791538505961
 41
1.241011984021304
 42
50.0
 43
0.0
 44
0.0
 50
0.0
 51
0.0
 71
     0
 72
   100
 73
     1
 74
     1
 75
     0
 76
     0
 77
     0
 78
     0
281
     0
 65
     1
110
0.0
120
0.0
130
0.0
111
1.0
121
0.0
131
0.0
112
0.0
122
1.0
132
0.0
 79
     0
146
0.0
  0
ENDTAB
  0
TABLE
  2
LTYPE
  5
4
330
0
100
AcDbSymbolTable
 70
     8
  0
LTYPE
  5
11
330
4
100
AcDbSymbolTableRecord
100
AcDbLinetypeTableRecord
  2
BYBLOCK
 70
     0
  3

 72
    65
 73
     0
 40
0.0
  0
LTYPE
  5
12
330
4
100
AcDbSymbolTableRecord
100
AcDbLinetypeTableRecord
  2
BYLAYER
 70
     0
  3

 72
    65
 73
     0
 40
0.0
  0
LTYPE
  5
13
330
4
100
AcDbSymbolTableRecord
100
AcDbLinetypeTableRecord
  2
CONTINUOUS
 70
     0
  3
Solid line
 72
    65
 73
     0
 40
0.0
  0
LTYPE
  5
1D
330
4
100
AcDbSymbolTableRecord
100
AcDbLinetypeTableRecord
  2
DASHED
 70
     0
  3
Dashed
 72
    65
 73
     2
 40
15.0
 49
12.0
 74
     0
 49
-3.0
 74
     0
  0
LTYPE
  5
1E
330
4
100
AcDbSymbolTableRecord
100
AcDbLinetypeTableRecord
  2
DOTTED
 70
     0
  3
Dotted
 72
    65
 73
     2
 40
3.5
 49
0.5
 74
     0
 49
-3.0
 74
     0
  0
LTYPE
  5
1F
330
4
100
AcDbSymbolTableRecord
100
AcDbLinetypeTableRecord
  2
DOT_CENTER
 70
     0
  3
Dot_Center
 72
    65
 73
     4
 40
2.0
 49
1.25
 74
     0
 49
-0.25
 74
     0
 49
0.25
 74
     0
 49
-0.25
 74
     0
  0
LTYPE
  5
20
330
4
100
AcDbSymbolTableRecord
100
AcDbLinetypeTableRecord
  2
LONG_DASHED
 70
     0
  3
Long_Dashed
 72
    65
 73
     2
 40
2.0
 49
1.5
 74
     0
 49
-0.5
 74
     0
  0
LTYPE
  5
21
330
4
100
AcDbSymbolTableRecord
100
AcDbLinetypeTableRecord
  2
DASH_CENTER
 70
     0
  3
Dash_Center
 72
    65
 73
     4
 40
36.0
 49
24.0
 74
     0
 49
-3.0
 74
     0
 49
6.0
 74
     0
 49
-3.0
 74
     0
  0
LTYPE
  5
22
330
4
100
AcDbSymbolTableRecord
100
AcDbLinetypeTableRecord
  2
PHANTOM
 70
     0
  3
Phantom
 72
    65
 73
     6
 40
2.5
 49
1.25
 74
     0
 49
-0.25
 74
     0
 49
0.25
 74
     0
 49
-0.25
 74
     0
 49
0.25
 74
     0
 49
-0.25
 74
     0
  0
LTYPE
  5
23
330
4
100
AcDbSymbolTableRecord
100
AcDbLinetypeTableRecord
  2
CENTER_DASH_DASH
 70
     0
  3
Center_Dash_Dash
 72
    65
 73
     6
 40
22.0
 49
12.0
 74
     0
 49
-3.0
 74
     0
 49
0.5
 74
     0
 49
-3.0
 74
     0
 49
0.5
 74
     0
 49
-3.0
 74
     0
  0
ENDTAB
  0
TABLE
  2
LAYER
  5
2
330
0
100
AcDbSymbolTable
 70
     3
  0
LAYER
  5
14
330
2
100
AcDbSymbolTableRecord
100
AcDbLayerTableRecord
  2
0
 70
     0
 62
     7
  6
CONTINUOUS
370
    -3
390
35E
  0
LAYER
  5
24
330
2
100
AcDbSymbolTableRecord
100
AcDbLayerTableRecord
  2
1
 70
     0
 62
     7
  6
CONTINUOUS
370
    -3
390
35E
  0
LAYER
  5
3EF
330
2
100
AcDbSymbolTableRecord
100
AcDbLayerTableRecord
  2
LAYER_1
 70
     0
 62
     5
  6
CONTINUOUS
370
    -3
390
35E
  0
ENDTAB
  0
TABLE
  2
STYLE
  5
3
330
0
100
AcDbSymbolTable
 70
     3
  0
STYLE
  5
17
330
3
100
AcDbSymbolTableRecord
100
AcDbTextStyleTableRecord
  2
STANDARD
 70
     0
 40
0.0
 41
1.0
 50
0.0
 71
     0
 42
0.0
  3
txt
  4

  0
STYLE
  5
65
330
3
100
AcDbSymbolTableRecord
100
AcDbTextStyleTableRecord
  2
CONVERTER_1
 70
     0
 40
0.0
 41
0.9
 50
0.0
 71
     0
 42
0.0
  3
txt.shx
  4

  0
STYLE
  5
67
330
3
100
AcDbSymbolTableRecord
100
AcDbTextStyleTableRecord
  2
CONVERTER_2
 70
     0
 40
0.0
 41
0.8100000000000001
 50
0.0
 71
     0
 42
0.0
  3
txt.shx
  4

  0
ENDTAB
  0
TABLE
  2
VIEW
  5
5
330
0
100
AcDbSymbolTable
 70
     0
  0
ENDTAB
  0
TABLE
  2
UCS
  5
6
330
0
100
AcDbSymbolTable
 70
     0
  0
ENDTAB
  0
TABLE
  2
APPID
  5
8
330
0
100
AcDbSymbolTable
 70
     1
  0
APPID
  5
16
330
8
100
AcDbSymbolTableRecord
100
AcDbRegAppTableRecord
  2
ACAD
 70
     0
  0
ENDTAB
  0
TABLE
  2
DIMSTYLE
  5
9
330
0
100
AcDbSymbolTable
 70
     1
100
AcDbDimStyleTable
 71
     0
  0
DIMSTYLE
105
18
330
9
100
AcDbSymbolTableRecord
100
AcDbDimStyleTableRecord
  2
STANDARD
 70
     0
340
17
  0
ENDTAB
  0
TABLE
  2
BLOCK_RECORD
  5
1
330
0
100
AcDbSymbolTable
 70
    38
  0
BLOCK_RECORD
  5
A
330
1
100
AcDbSymbolTableRecord
100
AcDbBlockTableRecord
  2
*MODEL_SPACE
340
361
  0
BLOCK_RECORD
  5
B
330
1
100
AcDbSymbolTableRecord
100
AcDbBlockTableRecord
  2
*PAPER_SPACE
340
362
  0
BLOCK_RECORD
  5
25
330
1
100
AcDbSymbolTableRecord
100
AcDbBlockTableRecord
  2
CSD_17_2UH
340
0
102
{BLKREFS
331
29
331
367
102
}
  0
BLOCK_RECORD
  5
27
330
1
100
AcDbSymbolTableRecord
100
AcDbBlockTableRecord
  2
100107378
340
0
102
{BLKREFS
331
2C
331
366
102
}
  0
BLOCK_RECORD
  5
2A
330
1
100
AcDbSymbolTableRecord
100
AcDbBlockTableRecord
  2
100107380
340
0
102
{BLKREFS
331
2F
331
365
102
}
  0
BLOCK_RECORD
  5
2D
330
1
100
AcDbSymbolTableRecord
100
AcDbBlockTableRecord
  2
C2A0372
340
0
102
{BLKREFS
331
32
331
364
102
}
  0
BLOCK_RECORD
  5
30
330
1
100
AcDbSymbolTableRecord
100
AcDbBlockTableRecord
  2
100107382
340
0
102
{BLKREFS
331
50
102
}
  0
BLOCK_RECORD
  5
33
330
1
100
AcDbSymbolTableRecord
100
AcDbBlockTableRecord
  2
WB_040_R
340
0
102
{BLKREFS
331
51
102
}
  0
BLOCK_RECORD
  5
35
330
1
100
AcDbSymbolTableRecord
100
AcDbBlockTableRecord
  2
CRB
340
0
102
{BLKREFS
331
52
102
}
  0
BLOCK_RECORD
  5
37
330
1
100
AcDbSymbolTableRecord
100
AcDbBlockTableRecord
  2
HEX_BOLT_SIDE__1
340
0
102
{BLKREFS
331
53
102
}
  0
BLOCK_RECORD
  5
39
330
1
100
AcDbSymbolTableRecord
100
AcDbBlockTableRecord
  2
HEX_BOLT_SIDE__2
340
0
102
{BLKREFS
331
54
102
}
  0
BLOCK_RECORD
  5
3B
330
1
100
AcDbSymbolTableRecord
100
AcDbBlockTableRecord
  2
HEX_BOLT_SIDE__3
340
0
102
{BLKREFS
331
55
102
}
  0
BLOCK_RECORD
  5
3D
330
1
100
AcDbSymbolTableRecord
100
AcDbBlockTableRecord
  2
RETAINER
340
0
102
{BLKREFS
331
41
102
}
  0
BLOCK_RECORD
  5
3F
330
1
100
AcDbSymbolTableRecord
100
AcDbBlockTableRecord
  2
WBG_040_F
340
0
102
{BLKREFS
331
56
102
}
  0
BLOCK_RECORD
  5
42
330
1
100
AcDbSymbolTableRecord
100
AcDbBlockTableRecord
  2
HEX_BOLT_TOP__4
340
0
102
{BLKREFS
331
57
102
}
  0
BLOCK_RECORD
  5
44
330
1
100
AcDbSymbolTableRecord
100
AcDbBlockTableRecord
  2
HEX_BOLT_TOP__5
340
0
102
{BLKREFS
331
58
102
}
  0
BLOCK_RECORD
  5
46
330
1
100
AcDbSymbolTableRecord
100
AcDbBlockTableRecord
  2
HEX_BOLT_TOP__6
340
0
102
{BLKREFS
331
59
102
}
  0
BLOCK_RECORD
  5
48
330
1
100
AcDbSymbolTableRecord
100
AcDbBlockTableRecord
  2
HEX_BOLT_TOP__7
340
0
102
{BLKREFS
331
5A
102
}
  0
BLOCK_RECORD
  5
4A
330
1
100
AcDbSymbolTableRecord
100
AcDbBlockTableRecord
  2
HEX_BOLT_TOP__8
340
0
102
{BLKREFS
331
5B
102
}
  0
BLOCK_RECORD
  5
4C
330
1
100
AcDbSymbolTableRecord
100
AcDbBlockTableRecord
  2
HEX_BOLT_TOP__9
340
0
102
{BLKREFS
331
5C
102
}
  0
BLOCK_RECORD
  5
37B
330
1
100
AcDbSymbolTableRecord
100
AcDbBlockTableRecord
  2
NTC
340
0
310
2800000020000000200000000100080000000000000400000000000000000000000000000000000000000000000080000080000000808000800000008000800080800000C0C0C000C0DCC000F0CAA6000020400000206000002080000020A0000020C0000020E00000400000004020000040400000406000004080000040A0
310
000040C0000040E00000600000006020000060400000606000006080000060A0000060C0000060E00000800000008020000080400000806000008080000080A0000080C0000080E00000A0000000A0200000A0400000A0600000A0800000A0A00000A0C00000A0E00000C0000000C0200000C0400000C0600000C0800000C0
310
A00000C0C00000C0E00000E0000000E0200000E0400000E0600000E0800000E0A00000E0C00000E0E00040000000400020004000400040006000400080004000A0004000C0004000E00040200000402020004020400040206000402080004020A0004020C0004020E000404000004040200040404000404060004040800040
310
40A0004040C0004040E00040600000406020004060400040606000406080004060A0004060C0004060E00040800000408020004080400040806000408080004080A0004080C0004080E00040A0000040A0200040A0400040A0600040A0800040A0A00040A0C00040A0E00040C0000040C0200040C0400040C0600040C08000
310
40C0A00040C0C00040C0E00040E0000040E0200040E0400040E0600040E0800040E0A00040E0C00040E0E00080000000800020008000400080006000800080008000A0008000C0008000E00080200000802020008020400080206000802080008020A0008020C0008020E00080400000804020008040400080406000804080
310
008040A0008040C0008040E00080600000806020008060400080606000806080008060A0008060C0008060E00080800000808020008080400080806000808080008080A0008080C0008080E00080A0000080A0200080A0400080A0600080A0800080A0A00080A0C00080A0E00080C0000080C0200080C0400080C0600080C0
310
800080C0A00080C0C00080C0E00080E0000080E0200080E0400080E0600080E0800080E0A00080E0C00080E0E000C0000000C0002000C0004000C0006000C0008000C000A000C000C000C000E000C0200000C0202000C0204000C0206000C0208000C020A000C020C000C020E000C0400000C0402000C0404000C0406000C0
310
408000C040A000C040C000C040E000C0600000C0602000C0604000C0606000C0608000C060A000C060C000C060E000C0800000C0802000C0804000C0806000C0808000C080A000C080C000C080E000C0A00000C0A02000C0A04000C0A06000C0A08000C0A0A000C0A0C000C0A0E000C0C00000C0C02000C0C04000C0C06000
310
C0C08000C0C0A000F0FBFF00A4A0A000808080000000FF0000FF000000FFFF00FF000000FF00FF00FFFF0000FFFFFF00FFFFFFFFFFFFFFFFFFFFFFFFFFFFFFFFFFFFFFFFFFFFFFFFFFFFFFFFFFFFFFFFFFFFFFFFFFFFFFFFFFFFFFFFFFFFFFFFFFFFFFFFFFFFFFFFFFFFFFFFFFFFFFFFFFFFFFFFFFFFFFFFFFFFFFFFFFFFFF
310
FFFFFFFFFFFFFFFFFFFFFFFFFFFFFFFFFFFFFFFFFFFFFFFFFFFFFFFFFFFFFFFFFFFFFFFFFFFFFFFFFFFFFFFFFFFFFFFFFFFFFFFFFFFFFFFFFFFFFFFFFFFFFFFFFFFFFFFFFFFFFFFFFFFFFFFFFFFFFFFFFFFFFFFFFFFFFFFFFFFFFFFFFFFFFFFFFFFFFFFFFFFFFFFFFFFFFFFFFFFFFFFFFFFFFFFFFFFFFFFFFFFFFFFFFFFFFF
310
FFFFFFFFFFFFFFFFFFFFFFFFFFFFFFFFFFFFFFFFFFFFFFFFFFFFFFFFFFFFFFFFFFFFFFFFFFFFFFFFFFFFFFFFFFFFFFFFFFFFFFFFFFFFFFFFFFFFFFFFFFFFFFFFFFFFFFFFFFFFFFFFFFFFFFFFFFFFFFFFFFFFFFFFFFFFFFFFFFFFFFFFFFFFFFFFFFFFFFFFFFFFFFFFFFFFFFFFFFFFFFFFFFFFFFFFFFFFFFFFFFFFFFFFFFFFFF
310
FFFFFFFFFFFFFFFFFFFFFFFFFFFFFFFFFFFFFFFF000000000000000000000000000000000000000000000000000000000000FFFF00FF0000000000000000FFFFFFFFFFFFFFFFFFFFFFFFFFFFFFFFFFFFFF00FFFF00FF0000000000000000FFFFFFFFFFFFFFFFFFFFFFFFFFFFFFFFFFFFFF00FFFF00FF000000000000000000
310
00000000000000000000000000FFFFFFFFFF00FFFF00FF0000000000000000000000000000000000000000000000000000FF00FFFF00FF0000000000000000000000000000000000000000000000000000FF00FFFF00FF0000000000000000000000000000000000000000000000000000FF00FFFF00FF0000000000000000
310
00000000000000000000000000000000FFFFFF00FFFF00FF0000000000FFFFFFFFFFFFFFFFFFFFFFFFFFFFFFFFFFFFFFFFFFFF00FFFF000000000000000000000000000000000000000000000000000000000000FFFFFFFFFFFFFFFFFFFFFFFFFFFFFFFFFFFFFFFFFFFFFFFFFFFFFFFFFFFFFFFFFFFFFFFFFFFFFFFFFFFFFF
310
FFFFFFFFFFFFFFFFFFFFFFFFFFFFFFFFFFFFFFFFFFFFFFFFFFFFFFFFFFFFFFFFFFFFFFFFFFFFFFFFFFFFFFFFFFFFFFFFFFFFFFFFFFFFFFFFFFFFFFFFFFFFFFFFFFFFFFFFFFFFFFFFFFFFFFFFFFFFFFFFFFFFFFFFFFFFFFFFFFFFFFFFFFFFFFFFFFFFFFFFFFFFFFFFFFFFFFFFFFFFFFFFFFFFFFFFFFFFFFFFFFFFFFFFFFFFFF
310
FFFFFFFFFFFFFFFFFFFFFFFFFFFFFFFFFFFFFFFFFFFFFFFFFFFFFFFFFFFFFFFFFFFFFFFFFFFFFFFFFFFFFFFFFFFFFFFFFFFFFFFFFFFFFFFFFFFFFFFFFFFFFFFFFFFFFFFFFFFFFFFFFFFFFFFFFFFFFFFFFFFFFFFFFFFFFFFFFFFFFFFFFFFFFFFFFFFFFFFFFFFFFFFFFFFFFFFFFFFFFFFFFFFFFFFFFFFFFFFFFFFFFFFFFFFFFF
310
FFFFFFFFFFFFFFFFFFFFFFFFFFFFFFFFFFFFFFFFFFFFFFFFFFFFFFFFFFFFFFFFFFFFFFFFFFFFFFFFFFFFFFFFFFFFFFFFFFFFFFFFFFFFFFFF
102
{BLKREFS
331
381
331
386
102
}
  0
BLOCK_RECORD
  5
387
330
1
100
AcDbSymbolTableRecord
100
AcDbBlockTableRecord
  2
AI9-BLK14
340
0
310
2800000020000000200000000100080000000000000400000000000000000000000000000000000000000000000080000080000000808000800000008000800080800000C0C0C000C0DCC000F0CAA6000020400000206000002080000020A0000020C0000020E00000400000004020000040400000406000004080000040A0
310
000040C0000040E00000600000006020000060400000606000006080000060A0000060C0000060E00000800000008020000080400000806000008080000080A0000080C0000080E00000A0000000A0200000A0400000A0600000A0800000A0A00000A0C00000A0E00000C0000000C0200000C0400000C0600000C0800000C0
310
A00000C0C00000C0E00000E0000000E0200000E0400000E0600000E0800000E0A00000E0C00000E0E00040000000400020004000400040006000400080004000A0004000C0004000E00040200000402020004020400040206000402080004020A0004020C0004020E000404000004040200040404000404060004040800040
310
40A0004040C0004040E00040600000406020004060400040606000406080004060A0004060C0004060E00040800000408020004080400040806000408080004080A0004080C0004080E00040A0000040A0200040A0400040A0600040A0800040A0A00040A0C00040A0E00040C0000040C0200040C0400040C0600040C08000
310
40C0A00040C0C00040C0E00040E0000040E0200040E0400040E0600040E0800040E0A00040E0C00040E0E00080000000800020008000400080006000800080008000A0008000C0008000E00080200000802020008020400080206000802080008020A0008020C0008020E00080400000804020008040400080406000804080
310
008040A0008040C0008040E00080600000806020008060400080606000806080008060A0008060C0008060E00080800000808020008080400080806000808080008080A0008080C0008080E00080A0000080A0200080A0400080A0600080A0800080A0A00080A0C00080A0E00080C0000080C0200080C0400080C0600080C0
310
800080C0A00080C0C00080C0E00080E0000080E0200080E0400080E0600080E0800080E0A00080E0C00080E0E000C0000000C0002000C0004000C0006000C0008000C000A000C000C000C000E000C0200000C0202000C0204000C0206000C0208000C020A000C020C000C020E000C0400000C0402000C0404000C0406000C0
310
408000C040A000C040C000C040E000C0600000C0602000C0604000C0606000C0608000C060A000C060C000C060E000C0800000C0802000C0804000C0806000C0808000C080A000C080C000C080E000C0A00000C0A02000C0A04000C0A06000C0A08000C0A0A000C0A0C000C0A0E000C0C00000C0C02000C0C04000C0C06000
310
C0C08000C0C0A000F0FBFF00A4A0A000808080000000FF0000FF000000FFFF00FF000000FF00FF00FFFF0000FFFFFF00FF00FFFFFFFF00FFFFFFFFFFFFFFFFFFFFFFFFFFFFFFFFFFFFFFFFFFFFFFFFFFFF00FFFFFFFF00FFFFFFFFFFFFFFFFFFFFFFFFFFFFFFFFFFFFFFFFFFFFFFFFFFFF00FFFFFFFF00FFFFFFFFFFFFFFFF
310
FFFFFFFFFFFFFFFFFFFFFFFFFFFFFFFFFFFF00FFFFFFFF00FFFFFFFFFFFFFFFFFFFFFFFFFFFFFFFFFFFFFFFFFFFFFFFFFFFF00FFFFFFFF00FFFFFFFFFFFFFFFFFFFFFFFFFFFFFFFFFFFFFFFFFFFFFFFFFFFF00FFFFFFFF00FFFFFFFFFFFFFFFFFFFFFFFFFFFFFFFFFFFFFFFFFFFFFFFFFFFF00FFFFFFFF00FFFFFFFFFFFFFF
310
FFFFFFFFFFFFFFFFFFFFFFFFFFFFFFFFFFFFFF00FFFFFFFF00FFFFFFFFFFFFFFFFFFFFFFFFFFFFFFFFFFFFFFFFFFFFFFFFFFFF00FFFFFFFF00FFFFFFFFFFFFFFFFFFFFFFFFFFFFFFFFFFFFFFFFFFFFFFFFFFFF00FFFFFFFF00FFFFFFFFFFFFFFFFFFFFFFFFFFFFFFFFFFFFFFFFFFFFFFFFFFFF00FFFFFFFF00FFFFFFFFFFFF
310
FFFFFFFFFFFFFFFFFFFFFFFFFFFFFFFFFFFFFFFF00FFFFFFFF00FFFFFFFFFFFFFFFFFFFFFFFFFFFFFFFFFFFFFFFFFFFFFFFFFFFF00FFFFFFFF00FFFFFFFFFFFFFFFFFFFFFFFFFFFFFFFFFFFFFFFFFFFFFFFFFFFF00FFFFFFFF0000000000000000000000000000000000000000000000000000FF00FFFFFFFFFFFFFFFFFFFF
310
FFFFFFFFFFFFFFFFFFFFFFFFFFFFFFFFFFFFFFFFFF00FFFFFFFFFFFFFFFFFFFFFFFFFFFFFFFFFFFFFFFFFFFFFFFFFFFFFFFFFFFFFF00FFFFFFFFFFFFFFFFFFFFFFFFFFFFFFFFFFFFFFFFFFFFFFFFFFFFFFFFFFFFFF00FFFFFFFFFFFFFFFFFFFFFFFFFFFFFFFFFFFFFFFFFFFFFFFFFFFFFFFFFF00FF00000000000000000000
310
0000000000000000000000000000000000000000FFFFFFFFFFFFFFFFFFFFFFFFFFFFFFFFFFFFFFFFFFFFFFFFFFFFFFFFFFFFFFFFFFFFFFFFFFFFFFFFFFFFFFFFFFFFFFFFFFFFFFFFFFFFFFFFFFFFFFFFFFFFFFFFFFFFFFFFFFFFFFFFFFFFFFFFFFFFFFFFFFFFFFFFFFFFFFFFFFFFFFFFFFFFFFFFFFFFFFFFFFFFFFFFFFFFFF
310
FFFFFFFFFFFFFFFFFFFFFFFFFFFFFFFFFFFFFFFFFFFFFFFFFFFFFFFFFFFFFFFFFFFFFFFFFFFFFFFFFFFFFFFFFFFFFFFFFFFFFFFFFFFFFFFFFFFFFFFFFFFFFFFFFFFFFFFFFFFFFFFFFFFFFFFFFFFFFFFFFFFFFFFFFFFFFFFFFFFFFFFFFFFFFFFFFFFFFFFFFFFFFFFFFFFFFFFFFFFFFFFFFFFFFFFFFFFFFFFFFFFFFFFFFFFFFF
310
FFFFFFFFFFFFFFFFFFFFFFFFFFFFFFFFFFFFFFFFFFFFFFFFFFFFFFFFFFFFFFFFFFFFFFFFFFFFFFFFFFFFFFFFFFFFFFFFFFFFFFFFFFFFFFFFFFFFFFFFFFFFFFFFFFFFFFFFFFFFFFFFFFFFFFFFFFFFFFFFFFFFFFFFFFFFFFFFFFFFFFFFFFFFFFFFFFFFFFFFFFFFFFFFFFFFFFFFFFFFFFFFFFFFFFFFFFFFFFFFFFFFFFFFFFFFFF
310
FFFFFFFFFFFFFFFFFFFFFFFFFFFFFFFFFFFFFFFFFFFFFFFFFFFFFFFFFFFFFFFFFFFFFFFFFFFFFFFFFFFFFFFFFFFFFFFFFFFFFFFFFFFFFFFF
102
{BLKREFS
331
3C8
102
}
  0
BLOCK_RECORD
  5
38C
330
1
100
AcDbSymbolTableRecord
100
AcDbBlockTableRecord
  2
AI9-BLK13
340
0
310
2800000020000000200000000100080000000000000400000000000000000000000000000000000000000000000080000080000000808000800000008000800080800000C0C0C000C0DCC000F0CAA6000020400000206000002080000020A0000020C0000020E00000400000004020000040400000406000004080000040A0
310
000040C0000040E00000600000006020000060400000606000006080000060A0000060C0000060E00000800000008020000080400000806000008080000080A0000080C0000080E00000A0000000A0200000A0400000A0600000A0800000A0A00000A0C00000A0E00000C0000000C0200000C0400000C0600000C0800000C0
310
A00000C0C00000C0E00000E0000000E0200000E0400000E0600000E0800000E0A00000E0C00000E0E00040000000400020004000400040006000400080004000A0004000C0004000E00040200000402020004020400040206000402080004020A0004020C0004020E000404000004040200040404000404060004040800040
310
40A0004040C0004040E00040600000406020004060400040606000406080004060A0004060C0004060E00040800000408020004080400040806000408080004080A0004080C0004080E00040A0000040A0200040A0400040A0600040A0800040A0A00040A0C00040A0E00040C0000040C0200040C0400040C0600040C08000
310
40C0A00040C0C00040C0E00040E0000040E0200040E0400040E0600040E0800040E0A00040E0C00040E0E00080000000800020008000400080006000800080008000A0008000C0008000E00080200000802020008020400080206000802080008020A0008020C0008020E00080400000804020008040400080406000804080
310
008040A0008040C0008040E00080600000806020008060400080606000806080008060A0008060C0008060E00080800000808020008080400080806000808080008080A0008080C0008080E00080A0000080A0200080A0400080A0600080A0800080A0A00080A0C00080A0E00080C0000080C0200080C0400080C0600080C0
310
800080C0A00080C0C00080C0E00080E0000080E0200080E0400080E0600080E0800080E0A00080E0C00080E0E000C0000000C0002000C0004000C0006000C0008000C000A000C000C000C000E000C0200000C0202000C0204000C0206000C0208000C020A000C020C000C020E000C0400000C0402000C0404000C0406000C0
310
408000C040A000C040C000C040E000C0600000C0602000C0604000C0606000C0608000C060A000C060C000C060E000C0800000C0802000C0804000C0806000C0808000C080A000C080C000C080E000C0A00000C0A02000C0A04000C0A06000C0A08000C0A0A000C0A0C000C0A0E000C0C00000C0C02000C0C04000C0C06000
310
C0C08000C0C0A000F0FBFF00A4A0A000808080000000FF0000FF000000FFFF00FF000000FF00FF00FFFF0000FFFFFF00FFFFFFFFFFFFFFFFFFFFFFFFFFFFFFFFFFFFFFFFFFFFFFFFFFFFFFFFFFFFFFFFFFFFFFFFFFFFFFFFFFFFFF0000FFFFFFFFFFFF0000FFFFFFFFFFFFFFFFFFFFFFFFFFFFFFFFFFFFFFFFFFFF0000FFFF
310
FFFFFFFF0000FFFFFFFFFFFFFFFFFFFFFFFFFFFFFFFFFFFFFFFFFFFF0000FFFFFFFFFFFF0000FFFFFFFFFFFFFFFFFFFFFFFFFFFFFFFFFFFFFFFFFFFF0000FFFFFFFFFFFF0000FFFFFFFFFFFFFFFFFFFFFFFFFFFFFFFFFFFFFFFFFFFF0000FFFFFFFFFFFF0000FFFFFFFFFFFFFFFFFFFFFFFFFFFFFFFFFFFFFFFFFFFF0000FF
310
FFFFFFFFFF0000FFFFFFFFFFFFFFFFFFFFFFFFFFFFFFFFFFFFFFFFFFFF0000FFFFFFFFFFFF0000FFFFFFFFFFFFFFFFFFFFFFFFFFFFFFFFFFFFFFFFFFFF0000FFFFFFFFFFFF0000FFFFFFFFFFFFFFFFFFFFFFFFFFFFFFFFFFFFFFFFFFFF0000FFFFFFFFFFFF0000FFFFFFFFFFFFFFFFFFFFFFFFFFFFFFFFFFFFFFFFFFFF0000
310
FFFFFFFFFFFF0000FFFFFFFFFFFFFFFFFFFFFFFFFFFFFFFFFFFFFFFFFFFF0000FFFFFFFFFFFF0000FFFFFFFFFFFFFFFFFFFFFFFFFFFFFFFFFFFFFFFFFFFF0000FFFFFFFFFFFF0000FFFFFFFFFFFFFFFFFFFFFFFFFFFFFFFFFFFFFFFFFFFF0000FFFFFFFFFFFF0000FFFFFFFFFFFFFFFFFFFFFFFFFFFFFFFFFFFFFFFFFFFF00
310
00FFFFFFFFFFFF0000FFFFFFFFFFFFFFFFFFFFFFFFFFFFFFFFFFFFFFFFFFFF00000000000000000000FFFFFFFFFFFFFFFFFFFFFFFFFFFFFFFFFFFFFFFFFFFF00FFFFFFFFFFFFFFFF00FFFFFFFFFFFFFFFFFFFFFFFFFFFFFFFFFFFFFFFFFFFF00FFFFFFFFFFFFFFFF00FFFFFFFFFFFFFFFFFFFFFFFFFFFFFFFFFFFFFFFFFFFF
310
00000000000000000000FFFFFFFFFFFFFFFFFFFFFFFFFFFFFFFFFFFFFFFFFFFF0000FFFFFFFFFFFF0000FFFFFFFFFFFFFFFFFFFFFFFFFFFFFFFFFFFFFFFFFFFF0000FFFFFFFFFFFF0000FFFFFFFFFFFFFFFFFFFFFFFFFFFFFFFFFFFFFFFFFFFF0000FFFFFFFFFFFF0000FFFFFFFFFFFFFFFFFFFFFFFFFFFFFFFFFFFFFFFFFF
310
FF0000FFFFFFFFFFFF0000FFFFFFFFFFFFFFFFFFFFFFFFFFFFFFFFFFFFFFFFFFFF0000FFFFFFFFFFFF0000FFFFFFFFFFFFFFFFFFFFFFFFFFFFFFFFFFFFFFFFFFFF0000FFFFFFFFFFFF0000FFFFFFFFFFFFFFFFFFFFFFFFFFFFFFFFFFFFFFFFFFFF0000FFFFFFFFFFFF0000FFFFFFFFFFFFFFFFFFFFFFFFFFFFFFFFFFFFFFFF
310
FFFF0000FFFFFFFFFFFF0000FFFFFFFFFFFFFFFFFFFFFFFFFFFFFFFFFFFFFFFFFFFF0000FFFFFFFFFFFF0000FFFFFFFFFFFFFFFFFFFFFFFFFFFFFFFFFFFFFFFFFFFF0000FFFFFFFFFFFF0000FFFFFFFFFFFFFFFFFFFFFFFFFFFFFFFFFFFFFFFFFFFF0000FFFFFFFFFFFF0000FFFFFFFFFFFFFFFFFFFFFFFFFFFFFFFFFFFFFF
310
FFFFFF0000FFFFFFFFFFFF0000FFFFFFFFFFFFFFFFFFFFFFFFFFFFFFFFFFFFFFFFFFFFFFFFFFFFFFFFFFFFFFFFFFFFFFFFFFFFFFFFFFFFFF
102
{BLKREFS
331
3C9
102
}
  0
BLOCK_RECORD
  5
391
330
1
100
AcDbSymbolTableRecord
100
AcDbBlockTableRecord
  2
AI9-BLK11
340
0
310
2800000020000000200000000100080000000000000400000000000000000000000000000000000000000000000080000080000000808000800000008000800080800000C0C0C000C0DCC000F0CAA6000020400000206000002080000020A0000020C0000020E00000400000004020000040400000406000004080000040A0
310
000040C0000040E00000600000006020000060400000606000006080000060A0000060C0000060E00000800000008020000080400000806000008080000080A0000080C0000080E00000A0000000A0200000A0400000A0600000A0800000A0A00000A0C00000A0E00000C0000000C0200000C0400000C0600000C0800000C0
310
A00000C0C00000C0E00000E0000000E0200000E0400000E0600000E0800000E0A00000E0C00000E0E00040000000400020004000400040006000400080004000A0004000C0004000E00040200000402020004020400040206000402080004020A0004020C0004020E000404000004040200040404000404060004040800040
310
40A0004040C0004040E00040600000406020004060400040606000406080004060A0004060C0004060E00040800000408020004080400040806000408080004080A0004080C0004080E00040A0000040A0200040A0400040A0600040A0800040A0A00040A0C00040A0E00040C0000040C0200040C0400040C0600040C08000
310
40C0A00040C0C00040C0E00040E0000040E0200040E0400040E0600040E0800040E0A00040E0C00040E0E00080000000800020008000400080006000800080008000A0008000C0008000E00080200000802020008020400080206000802080008020A0008020C0008020E00080400000804020008040400080406000804080
310
008040A0008040C0008040E00080600000806020008060400080606000806080008060A0008060C0008060E00080800000808020008080400080806000808080008080A0008080C0008080E00080A0000080A0200080A0400080A0600080A0800080A0A00080A0C00080A0E00080C0000080C0200080C0400080C0600080C0
310
800080C0A00080C0C00080C0E00080E0000080E0200080E0400080E0600080E0800080E0A00080E0C00080E0E000C0000000C0002000C0004000C0006000C0008000C000A000C000C000C000E000C0200000C0202000C0204000C0206000C0208000C020A000C020C000C020E000C0400000C0402000C0404000C0406000C0
310
408000C040A000C040C000C040E000C0600000C0602000C0604000C0606000C0608000C060A000C060C000C060E000C0800000C0802000C0804000C0806000C0808000C080A000C080C000C080E000C0A00000C0A02000C0A04000C0A06000C0A08000C0A0A000C0A0C000C0A0E000C0C00000C0C02000C0C04000C0C06000
310
C0C08000C0C0A000F0FBFF00A4A0A000808080000000FF0000FF000000FFFF00FF000000FF00FF00FFFF0000FFFFFF00FFFFFFFFFFFFFFFFFFFFFFFFFFFFFFFFFFFFFFFFFFFFFFFFFFFFFFFFFFFFFFFFFFFFFFFFFFFFFFFFFFFFFFFFFFFF00000000FFFFFFFFFFFFFFFFFFFFFF000000FFFFFFFFFFFFFFFFFFFFFFFFFFFF00
310
FFFF00FFFFFFFFFFFFFFFFFFFFFF00FFFFFFFFFFFFFFFFFFFFFFFFFFFFFFFF00FFFF00FFFFFFFFFFFFFFFFFFFFFF00FFFFFFFFFFFFFFFFFFFFFFFFFFFFFFFF00FFFF00FFFFFFFFFFFFFFFFFFFFFF00FFFFFFFFFFFFFFFFFFFFFFFFFFFFFFFF00FFFF00FFFFFFFFFFFFFFFFFFFFFF00FFFFFFFFFFFFFFFFFFFFFFFFFFFFFFFF
310
00FFFF00FFFFFFFFFFFFFFFFFFFFFF00FFFFFFFFFFFFFFFFFFFFFFFFFFFFFFFF00FFFF00FFFFFFFFFFFFFFFFFFFFFF00FFFFFFFFFFFFFFFFFFFFFFFFFFFFFFFF00FFFF00FFFFFFFFFFFFFFFFFFFFFF00FFFFFFFFFFFFFFFFFFFFFFFFFFFFFFFF00FFFF00FFFFFFFFFFFFFFFFFFFFFF00FFFFFFFFFFFFFFFFFFFFFFFFFFFFFF
310
FF00FFFF00FFFFFFFFFFFFFFFFFFFFFF00FFFFFFFFFFFFFFFFFFFFFFFFFFFFFFFF00FFFF00FFFFFFFFFFFFFFFFFFFFFF00FFFFFFFFFFFFFFFFFFFFFFFFFFFFFFFF00FFFF00FFFFFFFFFFFFFFFFFFFFFF00FFFFFFFFFFFFFFFFFFFFFFFFFFFFFFFF00FFFF00FFFFFFFFFFFFFFFFFFFFFF00FFFFFFFFFFFFFFFFFFFFFFFFFFFF
310
FFFF00FFFF00FFFFFFFFFFFFFFFFFFFFFF00FFFFFFFFFFFFFFFFFFFFFFFFFFFFFFFF00FFFF00FFFFFFFFFFFFFFFFFFFFFF00FFFFFFFFFFFFFFFFFFFFFFFFFFFFFFFF00FFFF00FFFFFFFFFFFFFFFFFFFFFF00FFFFFFFFFFFFFFFFFFFFFFFFFFFFFFFF00FFFF00FFFFFFFFFFFFFFFFFFFF00FFFFFFFFFFFFFFFFFFFFFFFFFFFF
310
FFFFFF00FFFF00FFFFFFFFFFFFFFFFFFFF00FFFFFFFFFFFFFFFFFFFFFFFFFFFFFFFFFF00FFFF00FFFFFFFFFFFFFFFFFFFF00FFFFFFFFFFFFFFFFFFFFFFFFFFFFFFFFFF00FFFF00FFFFFFFFFFFFFFFFFFFF00FFFFFFFFFFFFFFFFFFFFFFFFFFFFFFFFFF00FFFF00FFFFFFFFFFFFFFFFFFFF00FFFFFFFFFFFFFFFFFFFFFFFFFF
310
FFFFFFFF00FFFF00FFFFFFFFFFFFFFFFFF0000FFFF00FFFFFFFFFFFFFFFFFFFFFFFFFFFF00FFFF00FFFFFFFFFFFFFFFF0000FFFFFF00FFFFFFFFFFFFFFFFFFFFFFFFFFFF00FFFF00000000000000000000FFFFFFFF00FFFFFFFFFFFFFFFFFFFFFFFFFFFF00FFFFFFFFFFFFFFFFFFFFFFFFFFFFFF00FFFFFFFFFFFFFFFFFFFF
310
FFFFFFFFFF00FFFFFFFFFFFFFFFFFFFFFFFFFFFF00FFFFFFFFFFFFFFFFFFFFFFFFFFFFFFFF00FFFFFFFFFFFFFFFFFFFFFFFFFFFF00FFFFFFFFFFFFFFFFFFFFFFFFFFFFFFFF00FFFFFFFFFFFFFFFFFFFFFFFFFFFFFF00FFFFFFFFFFFFFFFFFFFFFFFFFFFFFF00FFFFFFFFFFFFFFFFFFFFFFFFFFFFFF00FFFFFFFFFFFFFFFFFF
310
FFFFFFFFFFFF00FFFF00000000000000000000FFFFFFFF00FFFFFFFFFFFFFFFFFFFFFFFFFFFF00FFFF00FFFFFFFFFFFFFFFFFF0000FFFF00
102
{BLKREFS
331
3CA
102
}
  0
BLOCK_RECORD
  5
396
330
1
100
AcDbSymbolTableRecord
100
AcDbBlockTableRecord
  2
AI9-BLK10
340
0
310
2800000020000000200000000100080000000000000400000000000000000000000000000000000000000000000080000080000000808000800000008000800080800000C0C0C000C0DCC000F0CAA6000020400000206000002080000020A0000020C0000020E00000400000004020000040400000406000004080000040A0
310
000040C0000040E00000600000006020000060400000606000006080000060A0000060C0000060E00000800000008020000080400000806000008080000080A0000080C0000080E00000A0000000A0200000A0400000A0600000A0800000A0A00000A0C00000A0E00000C0000000C0200000C0400000C0600000C0800000C0
310
A00000C0C00000C0E00000E0000000E0200000E0400000E0600000E0800000E0A00000E0C00000E0E00040000000400020004000400040006000400080004000A0004000C0004000E00040200000402020004020400040206000402080004020A0004020C0004020E000404000004040200040404000404060004040800040
310
40A0004040C0004040E00040600000406020004060400040606000406080004060A0004060C0004060E00040800000408020004080400040806000408080004080A0004080C0004080E00040A0000040A0200040A0400040A0600040A0800040A0A00040A0C00040A0E00040C0000040C0200040C0400040C0600040C08000
310
40C0A00040C0C00040C0E00040E0000040E0200040E0400040E0600040E0800040E0A00040E0C00040E0E00080000000800020008000400080006000800080008000A0008000C0008000E00080200000802020008020400080206000802080008020A0008020C0008020E00080400000804020008040400080406000804080
310
008040A0008040C0008040E00080600000806020008060400080606000806080008060A0008060C0008060E00080800000808020008080400080806000808080008080A0008080C0008080E00080A0000080A0200080A0400080A0600080A0800080A0A00080A0C00080A0E00080C0000080C0200080C0400080C0600080C0
310
800080C0A00080C0C00080C0E00080E0000080E0200080E0400080E0600080E0800080E0A00080E0C00080E0E000C0000000C0002000C0004000C0006000C0008000C000A000C000C000C000E000C0200000C0202000C0204000C0206000C0208000C020A000C020C000C020E000C0400000C0402000C0404000C0406000C0
310
408000C040A000C040C000C040E000C0600000C0602000C0604000C0606000C0608000C060A000C060C000C060E000C0800000C0802000C0804000C0806000C0808000C080A000C080C000C080E000C0A00000C0A02000C0A04000C0A06000C0A08000C0A0A000C0A0C000C0A0E000C0C00000C0C02000C0C04000C0C06000
310
C0C08000C0C0A000F0FBFF00A4A0A000808080000000FF0000FF000000FFFF00FF000000FF00FF00FFFF0000FFFFFF00FFFFFFFFFFFFFFFFFFFFFFFFFFFFFFFF00FFFFFFFFFFFFFFFFFFFFFFFF00FFFFFFFFFFFFFFFFFFFFFFFFFFFFFFFFFFFF00FFFFFFFFFFFFFFFFFFFFFF00FFFFFFFFFFFFFFFFFFFFFFFFFFFFFFFFFFFF
310
FF00FFFFFFFFFFFFFFFFFFFFFF00FFFFFFFFFFFFFFFFFFFFFFFFFFFFFFFFFFFFFF00FFFFFFFFFFFFFFFFFFFFFF00FFFFFFFFFFFFFFFFFFFFFFFFFFFFFFFFFFFFFF00FFFFFFFFFFFFFFFFFFFFFF00FFFFFFFFFFFFFFFFFFFFFFFFFFFFFFFFFFFFFF00FFFFFFFFFFFFFFFFFFFFFF00FFFFFFFFFFFFFFFFFFFFFFFFFFFFFFFFFF
310
FFFF00FFFFFFFFFFFFFFFFFFFFFF00FFFFFFFFFFFFFFFFFFFFFFFFFFFFFFFFFFFFFF00FFFFFFFFFFFFFFFFFFFF00FFFFFFFFFFFFFFFFFFFFFFFFFFFFFFFFFFFFFFFF00FFFFFFFFFFFFFFFFFFFF00FFFFFFFFFFFFFFFFFFFFFFFFFFFFFFFFFFFFFFFF00FFFFFFFFFFFFFFFFFFFF00FFFFFFFFFFFFFFFFFFFFFFFFFFFFFFFFFF
310
FFFFFF00FFFFFFFFFFFFFFFFFFFF00FFFFFFFFFFFFFFFFFFFFFFFFFFFFFFFFFFFFFFFF00FFFFFFFFFFFFFFFFFFFF00FFFFFFFFFFFFFFFFFFFFFFFFFFFFFFFFFFFFFFFF00FFFFFFFFFFFFFFFFFFFF00FFFFFFFFFFFFFFFFFFFFFFFFFFFFFFFFFFFFFFFF00FFFFFFFFFFFFFFFFFF00FFFFFFFFFFFFFFFFFFFFFFFFFFFFFFFFFF
310
FFFFFFFF00FFFFFFFFFFFFFFFFFF00FFFFFFFFFFFFFFFFFFFFFFFFFFFFFFFFFFFFFFFFFF00FFFFFFFFFFFFFFFFFF00FFFFFFFFFFFFFFFFFFFFFFFFFFFFFFFFFFFFFFFFFF0000000000000000000000FFFFFFFFFFFFFFFFFFFFFFFFFFFFFFFFFFFFFFFFFFFFFFFFFFFFFFFFFFFFFFFFFFFFFFFFFFFFFFFFFFFFFFFFFFFFFFFF
310
FFFFFFFFFFFFFFFFFFFFFFFFFFFFFFFFFFFFFFFFFFFFFFFFFFFFFFFFFFFFFFFFFFFFFFFFFFFFFFFFFFFFFFFFFFFFFFFFFFFFFFFFFFFFFFFFFFFFFFFFFFFFFFFFFFFFFFFFFFFFFFFFFFFFFFFFFFFFFFFFFFFFFFFFFFFFFFFFFFFFFFFFFFFFFFFFFFFFFFFFFFFFFFFFFFFFFFFFFFFFFFFFFFFFFFFFFFFFFFFFFFFFFFFFFFFFFF
310
FFFFFFFFFFFFFFFFFFFFFFFFFFFFFFFFFFFFFFFFFFFFFFFFFFFFFFFFFFFFFFFFFFFFFFFFFFFFFFFFFFFFFFFFFFFFFFFFFFFFFFFFFFFFFFFFFFFFFFFFFFFFFFFFFFFFFFFFFFFFFFFFFFFFFFFFFFFFFFFFFFFFFFFFFFFFFFFFFFFFFFFFFFFFFFFFFFFFFFFFFFFFFFFFFFFFFFFFFFFFFFFFFFFFFFFFFFFFFFFFFFFFFFFFFFFFFF
310
FFFFFFFFFFFFFFFFFFFFFFFFFFFFFFFFFFFFFFFFFFFFFFFFFFFFFFFFFFFFFFFFFFFFFFFFFFFFFFFFFFFFFFFFFFFFFFFFFFFFFFFFFFFFFFFFFFFFFFFFFFFFFFFFFFFFFFFFFFFFFFFFFFFFFFFFFFFFFFFFFFFFFFFFFFFFFFFFFFFFFFFFFFFFFFFFFFFFFFFFFFFFFFFFFFFFFFFFFFFFFFFFFFFFFFFFFFFFFFFFFFFFFFFFFFFFFF
310
FFFFFFFFFFFFFFFFFFFFFFFFFFFFFFFFFFFFFFFFFFFFFFFFFFFFFFFFFFFFFFFFFFFFFFFFFFFFFFFFFFFFFFFFFFFFFFFFFFFFFFFFFFFFFFFF
102
{BLKREFS
331
3CB
102
}
  0
BLOCK_RECORD
  5
39A
330
1
100
AcDbSymbolTableRecord
100
AcDbBlockTableRecord
  2
AI9-BLK9
340
0
310
2800000020000000200000000100080000000000000400000000000000000000000000000000000000000000000080000080000000808000800000008000800080800000C0C0C000C0DCC000F0CAA6000020400000206000002080000020A0000020C0000020E00000400000004020000040400000406000004080000040A0
310
000040C0000040E00000600000006020000060400000606000006080000060A0000060C0000060E00000800000008020000080400000806000008080000080A0000080C0000080E00000A0000000A0200000A0400000A0600000A0800000A0A00000A0C00000A0E00000C0000000C0200000C0400000C0600000C0800000C0
310
A00000C0C00000C0E00000E0000000E0200000E0400000E0600000E0800000E0A00000E0C00000E0E00040000000400020004000400040006000400080004000A0004000C0004000E00040200000402020004020400040206000402080004020A0004020C0004020E000404000004040200040404000404060004040800040
310
40A0004040C0004040E00040600000406020004060400040606000406080004060A0004060C0004060E00040800000408020004080400040806000408080004080A0004080C0004080E00040A0000040A0200040A0400040A0600040A0800040A0A00040A0C00040A0E00040C0000040C0200040C0400040C0600040C08000
310
40C0A00040C0C00040C0E00040E0000040E0200040E0400040E0600040E0800040E0A00040E0C00040E0E00080000000800020008000400080006000800080008000A0008000C0008000E00080200000802020008020400080206000802080008020A0008020C0008020E00080400000804020008040400080406000804080
310
008040A0008040C0008040E00080600000806020008060400080606000806080008060A0008060C0008060E00080800000808020008080400080806000808080008080A0008080C0008080E00080A0000080A0200080A0400080A0600080A0800080A0A00080A0C00080A0E00080C0000080C0200080C0400080C0600080C0
310
800080C0A00080C0C00080C0E00080E0000080E0200080E0400080E0600080E0800080E0A00080E0C00080E0E000C0000000C0002000C0004000C0006000C0008000C000A000C000C000C000E000C0200000C0202000C0204000C0206000C0208000C020A000C020C000C020E000C0400000C0402000C0404000C0406000C0
310
408000C040A000C040C000C040E000C0600000C0602000C0604000C0606000C0608000C060A000C060C000C060E000C0800000C0802000C0804000C0806000C0808000C080A000C080C000C080E000C0A00000C0A02000C0A04000C0A06000C0A08000C0A0A000C0A0C000C0A0E000C0C00000C0C02000C0C04000C0C06000
310
C0C08000C0C0A000F0FBFF00A4A0A000808080000000FF0000FF000000FFFF00FF000000FF00FF00FFFF0000FFFFFF00FFFFFFFFFFFFFFFFFFFFFFFFFFFFFFFFFFFFFFFFFFFFFFFFFFFFFFFFFFFFFFFFFFFFFFFFFFFFFFFFFFFFFFFFFFFFFF0000FFFFFFFFFFFFFFFFFFFFFFFFFFFFFFFFFFFFFFFFFFFFFFFFFFFFFFFF0000
310
FF0000FFFFFFFFFFFFFFFFFFFFFFFFFFFFFFFFFFFFFFFFFFFFFFFFFFFFFF00FFFFFF0000FFFFFFFFFFFFFFFFFFFFFFFFFFFFFFFFFFFFFFFFFFFFFFFFFFFF00FFFFFFFF0000FFFFFFFFFFFFFFFFFFFFFFFFFFFFFFFFFFFFFFFFFFFFFFFF00FF00000000FF00FFFFFFFFFFFFFFFFFFFFFFFFFFFFFFFFFFFFFFFFFFFFFFFF0000
310
00FFFF00FF00FFFFFFFFFFFFFFFFFFFFFFFFFFFFFFFFFFFFFFFFFFFFFFFF0000FFFFFFFF0000FFFFFFFFFFFFFFFFFFFFFFFFFFFFFFFFFFFFFFFFFFFFFFFF0000FFFFFFFF0000FFFFFFFFFFFFFFFFFFFFFFFFFFFFFFFFFFFFFFFFFFFFFF00FF00FFFFFFFF00FF00FFFFFFFFFFFFFFFFFFFFFFFFFFFFFFFFFFFFFFFFFFFF0000
310
FFFFFFFFFF00FF00FFFFFFFFFFFFFFFFFFFFFFFFFFFFFFFFFFFFFFFFFFFF0000FFFFFFFFFFFF0000FFFFFFFFFFFFFFFFFFFFFFFFFFFFFFFFFFFFFFFFFFFF0000FFFFFFFFFFFF0000FFFFFFFFFFFFFFFFFFFFFFFFFFFFFFFFFFFFFFFFFFFF0000FFFFFFFFFFFF0000FFFFFFFFFFFFFFFFFFFFFFFFFFFFFFFFFFFFFFFFFFFF00
310
00FFFFFFFFFFFF0000FFFFFFFFFFFFFFFFFFFFFFFFFFFFFFFFFFFFFFFFFFFF0000FFFFFFFFFFFF0000FFFFFFFFFFFFFFFFFFFFFFFFFFFFFFFFFFFFFFFFFFFF0000FFFFFFFFFFFF0000FFFFFFFFFFFFFFFFFFFFFFFFFFFFFFFFFFFFFFFFFFFF0000FFFFFFFFFFFF0000FFFFFFFFFFFFFFFFFFFFFFFFFFFFFFFFFFFFFFFFFFFF
310
0000FFFFFFFFFFFF0000FFFFFFFFFFFFFFFFFFFFFFFFFFFFFFFFFFFFFFFFFFFF0000FFFFFFFFFFFF0000FFFFFFFFFFFFFFFFFFFFFFFFFFFFFFFFFFFFFFFFFFFF0000FFFFFFFFFFFF0000FFFFFFFFFFFFFFFFFFFFFFFFFFFFFFFFFFFFFFFFFFFF00FF00FFFFFFFF00FF00FFFFFFFFFFFFFFFFFFFFFFFFFFFFFFFFFFFFFFFFFF
310
FF00FF00FFFFFFFF00FF00FFFFFFFFFFFFFFFFFFFFFFFFFFFFFFFFFFFFFFFFFFFF00FF00FFFFFFFF00FF00FFFFFFFFFFFFFFFFFFFFFFFFFFFFFFFFFFFFFFFFFFFFFF0000FFFFFFFF0000FFFFFFFFFFFFFFFFFFFFFFFFFFFFFFFFFFFFFFFFFFFFFFFF00FF00FFFF00FF00FFFFFFFFFFFFFFFFFFFFFFFFFFFFFFFFFFFFFFFFFF
310
FFFFFF00FF00000000FF00FFFFFFFFFFFFFFFFFFFFFFFFFFFFFFFFFFFFFFFFFFFFFFFFFF00FFFFFFFF0000FFFFFFFFFFFFFFFFFFFFFFFFFFFFFFFFFFFFFFFFFFFFFFFFFF00FFFFFFFF00FFFFFFFFFFFFFFFFFFFFFFFFFFFFFFFFFFFFFFFFFFFFFFFFFFFFFF00000000FFFFFFFFFFFFFFFFFFFFFFFFFFFFFFFFFFFFFFFFFFFF
310
FFFFFFFFFFFFFF0000FFFFFFFFFFFFFFFFFFFFFFFFFFFFFFFFFFFFFFFFFFFFFFFFFFFFFFFFFFFFFFFFFFFFFFFFFFFFFFFFFFFFFFFFFFFFFF
102
{BLKREFS
331
3CC
102
}
  0
BLOCK_RECORD
  5
39F
330
1
100
AcDbSymbolTableRecord
100
AcDbBlockTableRecord
  2
AI9-BLK8
340
0
310
2800000020000000200000000100080000000000000400000000000000000000000000000000000000000000000080000080000000808000800000008000800080800000C0C0C000C0DCC000F0CAA6000020400000206000002080000020A0000020C0000020E00000400000004020000040400000406000004080000040A0
310
000040C0000040E00000600000006020000060400000606000006080000060A0000060C0000060E00000800000008020000080400000806000008080000080A0000080C0000080E00000A0000000A0200000A0400000A0600000A0800000A0A00000A0C00000A0E00000C0000000C0200000C0400000C0600000C0800000C0
310
A00000C0C00000C0E00000E0000000E0200000E0400000E0600000E0800000E0A00000E0C00000E0E00040000000400020004000400040006000400080004000A0004000C0004000E00040200000402020004020400040206000402080004020A0004020C0004020E000404000004040200040404000404060004040800040
310
40A0004040C0004040E00040600000406020004060400040606000406080004060A0004060C0004060E00040800000408020004080400040806000408080004080A0004080C0004080E00040A0000040A0200040A0400040A0600040A0800040A0A00040A0C00040A0E00040C0000040C0200040C0400040C0600040C08000
310
40C0A00040C0C00040C0E00040E0000040E0200040E0400040E0600040E0800040E0A00040E0C00040E0E00080000000800020008000400080006000800080008000A0008000C0008000E00080200000802020008020400080206000802080008020A0008020C0008020E00080400000804020008040400080406000804080
310
008040A0008040C0008040E00080600000806020008060400080606000806080008060A0008060C0008060E00080800000808020008080400080806000808080008080A0008080C0008080E00080A0000080A0200080A0400080A0600080A0800080A0A00080A0C00080A0E00080C0000080C0200080C0400080C0600080C0
310
800080C0A00080C0C00080C0E00080E0000080E0200080E0400080E0600080E0800080E0A00080E0C00080E0E000C0000000C0002000C0004000C0006000C0008000C000A000C000C000C000E000C0200000C0202000C0204000C0206000C0208000C020A000C020C000C020E000C0400000C0402000C0404000C0406000C0
310
408000C040A000C040C000C040E000C0600000C0602000C0604000C0606000C0608000C060A000C060C000C060E000C0800000C0802000C0804000C0806000C0808000C080A000C080C000C080E000C0A00000C0A02000C0A04000C0A06000C0A08000C0A0A000C0A0C000C0A0E000C0C00000C0C02000C0C04000C0C06000
310
C0C08000C0C0A000F0FBFF00A4A0A000808080000000FF0000FF000000FFFF00FF000000FF00FF00FFFF0000FFFFFF00FFFFFFFFFFFFFFFFFFFFFFFFFFFFFFFFFFFFFFFFFFFFFFFFFFFFFFFFFFFFFFFFFFFFFFFFFFFFFFFFFFFFFF0000FFFFFFFFFFFF0000FFFFFFFFFFFFFFFFFFFFFFFFFFFFFFFFFFFFFFFFFFFF0000FFFF
310
FFFFFFFF0000FFFFFFFFFFFFFFFFFFFFFFFFFFFFFFFFFFFFFFFFFFFF0000FFFFFFFFFF00FF00FFFFFFFFFFFFFFFFFFFFFFFFFFFFFFFFFFFFFFFFFFFF0000FFFFFFFFFF00FF00FFFFFFFFFFFFFFFFFFFFFFFFFFFFFFFFFFFFFFFFFFFF0000FFFFFFFFFF00FF00FFFFFFFFFFFFFFFFFFFFFFFFFFFFFFFFFFFFFFFFFFFF0000FF
310
FFFFFF00FFFF00FFFFFFFFFFFFFFFFFFFFFFFFFFFFFFFFFFFFFFFFFFFF0000FFFFFFFF00FF0000FFFFFFFFFFFFFFFFFFFFFFFFFFFFFFFFFFFFFFFFFFFF0000FFFFFFFF00FF0000FFFFFFFFFFFFFFFFFFFFFFFFFFFFFFFFFFFFFFFFFFFF0000FFFFFFFF00000000FFFFFFFFFFFFFFFFFFFFFFFFFFFFFFFFFFFFFFFFFFFF0000
310
FFFFFF00FF000000FFFFFFFFFFFFFFFFFFFFFFFFFFFFFFFFFFFFFFFFFFFF0000FFFFFF00FF000000FFFFFFFFFFFFFFFFFFFFFFFFFFFFFFFFFFFFFFFFFFFF0000FFFFFF00FF000000FFFFFFFFFFFFFFFFFFFFFFFFFFFFFFFFFFFFFFFFFFFF0000FFFF00FF00FF0000FFFFFFFFFFFFFFFFFFFFFFFFFFFFFFFFFFFFFFFFFFFF00
310
00FFFF00FF00FF0000FFFFFFFFFFFFFFFFFFFFFFFFFFFFFFFFFFFFFFFFFFFF0000FFFF00FF00FF0000FFFFFFFFFFFFFFFFFFFFFFFFFFFFFFFFFFFFFFFFFFFF0000FF00FFFF00FF0000FFFFFFFFFFFFFFFFFFFFFFFFFFFFFFFFFFFFFFFFFFFF0000FF00FF00FFFF0000FFFFFFFFFFFFFFFFFFFFFFFFFFFFFFFFFFFFFFFFFFFF
310
0000FF00FF00FFFF0000FFFFFFFFFFFFFFFFFFFFFFFFFFFFFFFFFFFFFFFFFFFF0000FF00FF00FFFF0000FFFFFFFFFFFFFFFFFFFFFFFFFFFFFFFFFFFFFFFFFFFF000000FFFF00FFFF0000FFFFFFFFFFFFFFFFFFFFFFFFFFFFFFFFFFFFFFFFFFFF000000FF00FFFFFF0000FFFFFFFFFFFFFFFFFFFFFFFFFFFFFFFFFFFFFFFFFF
310
FF000000FF00FFFFFF0000FFFFFFFFFFFFFFFFFFFFFFFFFFFFFFFFFFFFFFFFFFFF0000FFFF00FFFFFF0000FFFFFFFFFFFFFFFFFFFFFFFFFFFFFFFFFFFFFFFFFFFF0000FFFF00FFFFFF0000FFFFFFFFFFFFFFFFFFFFFFFFFFFFFFFFFFFFFFFFFFFF00FFFF00FFFFFFFF0000FFFFFFFFFFFFFFFFFFFFFFFFFFFFFFFFFFFFFFFF
310
FFFF00FFFF00FFFFFFFF0000FFFFFFFFFFFFFFFFFFFFFFFFFFFFFFFFFFFFFFFFFFFF00FFFF00FFFFFFFF0000FFFFFFFFFFFFFFFFFFFFFFFFFFFFFFFFFFFFFFFFFFFF00FFFF00FFFFFFFF0000FFFFFFFFFFFFFFFFFFFFFFFFFFFFFFFFFFFFFFFFFFFF00FF00FFFFFFFFFF0000FFFFFFFFFFFFFFFFFFFFFFFFFFFFFFFFFFFFFF
310
FFFFFF000000FFFFFFFFFF0000FFFFFFFFFFFFFFFFFFFFFFFFFFFFFFFFFFFFFFFFFFFFFFFFFFFFFFFFFFFFFFFFFFFFFFFFFFFFFFFFFFFFFF
102
{BLKREFS
331
3CD
102
}
  0
BLOCK_RECORD
  5
3A4
330
1
100
AcDbSymbolTableRecord
100
AcDbBlockTableRecord
  2
AI9-BLK7
340
0
310
2800000020000000200000000100080000000000000400000000000000000000000000000000000000000000000080000080000000808000800000008000800080800000C0C0C000C0DCC000F0CAA6000020400000206000002080000020A0000020C0000020E00000400000004020000040400000406000004080000040A0
310
000040C0000040E00000600000006020000060400000606000006080000060A0000060C0000060E00000800000008020000080400000806000008080000080A0000080C0000080E00000A0000000A0200000A0400000A0600000A0800000A0A00000A0C00000A0E00000C0000000C0200000C0400000C0600000C0800000C0
310
A00000C0C00000C0E00000E0000000E0200000E0400000E0600000E0800000E0A00000E0C00000E0E00040000000400020004000400040006000400080004000A0004000C0004000E00040200000402020004020400040206000402080004020A0004020C0004020E000404000004040200040404000404060004040800040
310
40A0004040C0004040E00040600000406020004060400040606000406080004060A0004060C0004060E00040800000408020004080400040806000408080004080A0004080C0004080E00040A0000040A0200040A0400040A0600040A0800040A0A00040A0C00040A0E00040C0000040C0200040C0400040C0600040C08000
310
40C0A00040C0C00040C0E00040E0000040E0200040E0400040E0600040E0800040E0A00040E0C00040E0E00080000000800020008000400080006000800080008000A0008000C0008000E00080200000802020008020400080206000802080008020A0008020C0008020E00080400000804020008040400080406000804080
310
008040A0008040C0008040E00080600000806020008060400080606000806080008060A0008060C0008060E00080800000808020008080400080806000808080008080A0008080C0008080E00080A0000080A0200080A0400080A0600080A0800080A0A00080A0C00080A0E00080C0000080C0200080C0400080C0600080C0
310
800080C0A00080C0C00080C0E00080E0000080E0200080E0400080E0600080E0800080E0A00080E0C00080E0E000C0000000C0002000C0004000C0006000C0008000C000A000C000C000C000E000C0200000C0202000C0204000C0206000C0208000C020A000C020C000C020E000C0400000C0402000C0404000C0406000C0
310
408000C040A000C040C000C040E000C0600000C0602000C0604000C0606000C0608000C060A000C060C000C060E000C0800000C0802000C0804000C0806000C0808000C080A000C080C000C080E000C0A00000C0A02000C0A04000C0A06000C0A08000C0A0A000C0A0C000C0A0E000C0C00000C0C02000C0C04000C0C06000
310
C0C08000C0C0A000F0FBFF00A4A0A000808080000000FF0000FF000000FFFF00FF000000FF00FF00FFFF0000FFFFFF00FFFFFFFFFFFFFFFFFFFFFFFFFFFFFFFFFFFFFFFFFFFFFFFFFFFFFFFFFFFFFFFFFFFFFFFFFFFFFFFFFFFFFFFFFFFFFF0000FFFFFFFFFFFFFFFFFFFFFFFFFFFFFFFFFFFFFFFFFFFFFFFFFFFFFFFFFFFF
310
0000FFFFFFFFFFFFFFFFFFFFFFFFFFFFFFFFFFFFFFFFFFFFFFFFFFFFFFFFFFFF0000FFFFFFFFFFFFFFFFFFFFFFFFFFFFFFFFFFFFFFFFFFFFFFFFFFFFFFFFFFFF0000FFFFFFFFFFFFFFFFFFFFFFFFFFFFFFFFFFFFFFFFFFFFFFFFFFFFFFFFFFFF0000FFFFFFFFFFFFFFFFFFFFFFFFFFFFFFFFFFFFFFFFFFFFFFFFFFFFFFFFFF
310
FF0000FFFFFFFFFFFFFFFFFFFFFFFFFFFFFFFFFFFFFFFFFFFFFFFFFFFFFFFFFFFF0000FFFFFFFFFFFFFFFFFFFFFFFFFFFFFFFFFFFFFFFFFFFFFFFFFFFFFFFFFFFF0000FFFFFFFFFFFFFFFFFFFFFFFFFFFFFFFFFFFFFFFFFFFFFFFFFFFFFFFFFFFF0000FFFFFFFFFFFFFFFFFFFFFFFFFFFFFFFFFFFFFFFFFFFFFFFFFFFFFFFF
310
FFFF0000FFFFFFFFFFFFFFFFFFFFFFFFFFFFFFFFFFFFFFFFFFFFFFFFFFFFFFFFFFFF0000FFFFFFFFFFFFFFFFFFFFFFFFFFFFFFFFFFFFFFFFFFFFFFFFFFFFFFFFFFFF0000FFFFFFFFFFFFFFFFFFFFFFFFFFFFFFFFFFFFFFFFFFFFFFFFFFFFFFFFFFFF0000FFFFFFFFFFFFFFFFFFFFFFFFFFFFFFFFFFFFFFFFFFFFFFFFFFFFFF
310
FFFFFF0000FFFFFFFFFFFFFFFFFFFFFFFFFFFFFFFFFFFFFFFFFFFFFFFFFFFFFFFFFFFF0000FFFFFFFFFFFFFFFFFFFFFFFFFFFFFFFFFFFFFFFFFFFFFFFFFFFFFFFFFFFF0000FFFFFFFFFFFFFFFFFFFFFFFFFFFFFFFFFFFFFFFFFFFFFFFFFFFFFFFFFFFF0000FFFFFFFFFFFFFFFFFFFFFFFFFFFFFFFFFFFFFFFFFFFFFFFFFFFF
310
FFFFFFFF0000FFFFFFFFFFFFFFFFFFFFFFFFFFFFFFFFFFFFFFFFFFFFFFFFFFFFFFFFFFFF0000FFFFFFFFFFFFFFFFFFFFFFFFFFFFFFFFFFFFFFFFFFFFFFFFFFFFFFFFFFFF0000FFFFFFFFFFFFFFFFFFFFFFFFFFFFFFFFFFFFFFFFFFFFFFFFFFFFFFFFFFFF0000FFFFFFFFFFFFFFFFFFFFFFFFFFFFFFFFFFFFFFFFFFFFFFFFFF
310
FFFFFFFFFF0000FFFFFFFFFFFFFFFFFFFFFFFFFFFFFFFFFFFFFFFFFFFFFFFFFFFFFFFFFFFF0000FFFFFFFFFFFFFFFFFFFFFFFFFFFFFFFFFFFFFFFFFFFFFFFFFFFFFFFFFFFF0000FFFFFFFFFFFFFFFFFFFFFFFFFFFFFFFFFFFFFFFFFFFFFFFFFFFFFFFFFFFF0000FFFFFFFFFFFFFFFFFFFFFFFFFFFFFFFFFFFFFFFFFFFFFFFF
310
FFFFFFFFFFFF0000FFFFFFFFFFFFFFFFFFFFFFFFFFFFFFFFFFFFFFFFFFFFFFFFFFFFFFFFFFFF0000FFFFFFFFFFFFFFFFFFFFFFFFFFFFFFFFFFFFFFFFFFFFFFFFFFFFFFFFFFFF0000FFFFFFFFFFFFFFFFFFFFFFFFFFFFFFFFFFFFFFFFFFFFFFFFFFFFFFFFFFFF0000FFFFFFFFFFFFFFFFFFFFFFFFFFFFFFFFFFFFFFFFFFFFFF
310
FFFFFFFFFFFFFF0000FFFFFFFFFFFFFFFFFFFFFFFFFFFFFFFFFFFFFFFFFFFFFFFFFFFFFFFFFFFFFFFFFFFFFFFFFFFFFFFFFFFFFFFFFFFFFF
102
{BLKREFS
331
3CE
102
}
  0
BLOCK_RECORD
  5
3A9
330
1
100
AcDbSymbolTableRecord
100
AcDbBlockTableRecord
  2
AI9-BLK6
340
0
310
2800000020000000200000000100080000000000000400000000000000000000000000000000000000000000000080000080000000808000800000008000800080800000C0C0C000C0DCC000F0CAA6000020400000206000002080000020A0000020C0000020E00000400000004020000040400000406000004080000040A0
310
000040C0000040E00000600000006020000060400000606000006080000060A0000060C0000060E00000800000008020000080400000806000008080000080A0000080C0000080E00000A0000000A0200000A0400000A0600000A0800000A0A00000A0C00000A0E00000C0000000C0200000C0400000C0600000C0800000C0
310
A00000C0C00000C0E00000E0000000E0200000E0400000E0600000E0800000E0A00000E0C00000E0E00040000000400020004000400040006000400080004000A0004000C0004000E00040200000402020004020400040206000402080004020A0004020C0004020E000404000004040200040404000404060004040800040
310
40A0004040C0004040E00040600000406020004060400040606000406080004060A0004060C0004060E00040800000408020004080400040806000408080004080A0004080C0004080E00040A0000040A0200040A0400040A0600040A0800040A0A00040A0C00040A0E00040C0000040C0200040C0400040C0600040C08000
310
40C0A00040C0C00040C0E00040E0000040E0200040E0400040E0600040E0800040E0A00040E0C00040E0E00080000000800020008000400080006000800080008000A0008000C0008000E00080200000802020008020400080206000802080008020A0008020C0008020E00080400000804020008040400080406000804080
310
008040A0008040C0008040E00080600000806020008060400080606000806080008060A0008060C0008060E00080800000808020008080400080806000808080008080A0008080C0008080E00080A0000080A0200080A0400080A0600080A0800080A0A00080A0C00080A0E00080C0000080C0200080C0400080C0600080C0
310
800080C0A00080C0C00080C0E00080E0000080E0200080E0400080E0600080E0800080E0A00080E0C00080E0E000C0000000C0002000C0004000C0006000C0008000C000A000C000C000C000E000C0200000C0202000C0204000C0206000C0208000C020A000C020C000C020E000C0400000C0402000C0404000C0406000C0
310
408000C040A000C040C000C040E000C0600000C0602000C0604000C0606000C0608000C060A000C060C000C060E000C0800000C0802000C0804000C0806000C0808000C080A000C080C000C080E000C0A00000C0A02000C0A04000C0A06000C0A08000C0A0A000C0A0C000C0A0E000C0C00000C0C02000C0C04000C0C06000
310
C0C08000C0C0A000F0FBFF00A4A0A000808080000000FF0000FF000000FFFF00FF000000FF00FF00FFFF0000FFFFFF00FFFFFFFFFFFFFFFFFFFFFFFF00FFFFFFFFFFFFFF00FFFFFFFFFFFFFFFFFFFFFFFFFFFFFFFFFFFFFFFFFFFFFF00FFFFFFFFFFFFFF00FFFFFFFFFFFFFFFFFFFFFFFFFFFFFFFFFFFFFFFFFFFFFF00FFFF
310
FFFFFFFFFF00FFFFFFFFFFFFFFFFFFFFFFFFFFFFFFFFFFFFFFFFFFFF00FFFFFFFFFFFFFFFF00FFFFFFFFFFFFFFFFFFFFFFFFFFFFFFFFFFFFFFFFFFFF00FFFFFFFFFFFFFF00FFFFFFFFFFFFFFFFFFFFFFFFFFFFFFFFFFFFFFFFFFFFFF00FFFFFFFFFFFFFF00FFFFFFFFFFFFFFFFFFFFFFFFFFFFFFFFFFFFFFFFFFFF00FFFFFF
310
FFFFFFFFFF00FFFFFFFFFFFFFFFFFFFFFFFFFFFFFFFFFFFFFFFFFFFF00FFFFFFFFFFFFFF00FFFFFFFFFFFFFFFFFFFFFFFFFFFFFFFFFFFFFFFFFFFF00FFFFFFFFFFFFFFFF00FFFFFFFFFFFFFFFFFFFFFFFFFFFFFFFFFFFFFFFFFF00FFFFFFFFFFFFFFFFFF00FFFFFFFFFFFFFFFFFFFFFFFFFFFFFFFFFFFFFFFF00FFFFFFFFFF
310
FFFFFFFFFF00FFFFFFFFFFFFFFFFFFFFFFFFFFFFFFFFFFFFFF00FFFFFFFFFFFFFFFFFFFF00FFFFFFFFFFFFFFFFFFFFFFFFFFFFFFFFFFFF0000FFFFFFFFFFFFFFFFFFFFFF00FFFFFFFFFFFFFFFFFFFFFFFFFFFF00000000FFFFFFFFFFFFFFFFFFFFFFFFFF00FFFFFFFFFFFFFFFFFFFFFFFFFFFFFFFFFFFFFFFFFFFFFFFFFFFF
310
FFFFFFFF00FFFFFFFFFFFFFFFFFFFFFFFFFFFFFFFFFFFFFFFFFFFFFFFFFFFFFFFFFFFFFF00FFFFFFFFFFFFFFFFFFFFFFFFFFFFFFFFFFFFFFFFFFFFFFFFFFFFFFFFFFFFFF00FFFFFFFFFFFFFFFFFFFFFFFFFFFFFFFFFFFFFFFFFFFFFFFFFFFFFFFFFFFF00FFFFFFFFFFFFFFFFFFFFFFFFFFFFFFFFFFFFFFFFFFFFFFFFFFFFFF
310
FFFFFFFF00FFFFFFFFFFFFFFFFFFFFFFFFFFFFFFFFFFFFFFFFFFFFFFFFFFFFFFFFFFFF00FFFFFFFFFFFFFFFFFFFFFFFFFFFFFFFFFFFFFFFFFFFFFFFFFFFFFFFFFFFF00FFFFFFFFFFFFFFFFFFFFFFFFFFFFFFFFFFFFFFFFFFFFFFFFFFFFFFFFFFFF00FFFFFFFFFFFFFFFFFFFFFFFFFFFFFFFFFFFFFFFFFFFFFFFFFFFFFFFFFF
310
FF00FFFFFFFFFFFFFFFFFFFFFFFFFFFFFFFFFFFFFFFFFFFFFFFFFFFFFFFFFFFFFF00FFFFFFFFFFFFFFFFFFFFFFFFFFFFFFFFFFFFFFFFFFFFFFFFFFFFFFFFFFFF00FFFFFFFFFFFFFFFFFFFFFFFFFFFFFFFFFFFFFFFFFFFFFFFFFFFFFFFFFF0000FFFFFFFFFFFFFFFFFFFFFFFFFFFFFFFFFFFFFFFFFFFFFFFFFFFFFFFF0000FF
310
FFFFFFFFFFFFFFFFFFFFFFFFFFFFFFFFFFFFFFFFFFFFFFFFFF00000000FFFFFFFFFFFFFFFFFFFFFFFFFFFFFFFFFFFFFFFFFFFFFFFFFFFF0000FFFFFFFFFFFFFFFFFFFFFFFFFFFFFFFFFFFFFFFFFFFFFFFFFFFFFFFFFFFFFFFFFFFFFFFFFFFFFFFFFFFFFFFFFFFFFFFFFFFFFFFFFFFFFFFFFFFFFFFFFFFFFFFFFFFFFFFFFFFF
310
FFFFFFFFFFFFFFFFFFFFFFFFFFFFFFFFFFFFFFFFFFFFFFFFFFFFFFFFFFFFFFFFFFFFFFFFFFFFFFFFFFFFFFFFFFFFFFFFFFFFFFFFFFFFFFFF
102
{BLKREFS
331
3CF
102
}
  0
BLOCK_RECORD
  5
3AD
330
1
100
AcDbSymbolTableRecord
100
AcDbBlockTableRecord
  2
AI9-BLK5
340
0
310
2800000020000000200000000100080000000000000400000000000000000000000000000000000000000000000080000080000000808000800000008000800080800000C0C0C000C0DCC000F0CAA6000020400000206000002080000020A0000020C0000020E00000400000004020000040400000406000004080000040A0
310
000040C0000040E00000600000006020000060400000606000006080000060A0000060C0000060E00000800000008020000080400000806000008080000080A0000080C0000080E00000A0000000A0200000A0400000A0600000A0800000A0A00000A0C00000A0E00000C0000000C0200000C0400000C0600000C0800000C0
310
A00000C0C00000C0E00000E0000000E0200000E0400000E0600000E0800000E0A00000E0C00000E0E00040000000400020004000400040006000400080004000A0004000C0004000E00040200000402020004020400040206000402080004020A0004020C0004020E000404000004040200040404000404060004040800040
310
40A0004040C0004040E00040600000406020004060400040606000406080004060A0004060C0004060E00040800000408020004080400040806000408080004080A0004080C0004080E00040A0000040A0200040A0400040A0600040A0800040A0A00040A0C00040A0E00040C0000040C0200040C0400040C0600040C08000
310
40C0A00040C0C00040C0E00040E0000040E0200040E0400040E0600040E0800040E0A00040E0C00040E0E00080000000800020008000400080006000800080008000A0008000C0008000E00080200000802020008020400080206000802080008020A0008020C0008020E00080400000804020008040400080406000804080
310
008040A0008040C0008040E00080600000806020008060400080606000806080008060A0008060C0008060E00080800000808020008080400080806000808080008080A0008080C0008080E00080A0000080A0200080A0400080A0600080A0800080A0A00080A0C00080A0E00080C0000080C0200080C0400080C0600080C0
310
800080C0A00080C0C00080C0E00080E0000080E0200080E0400080E0600080E0800080E0A00080E0C00080E0E000C0000000C0002000C0004000C0006000C0008000C000A000C000C000C000E000C0200000C0202000C0204000C0206000C0208000C020A000C020C000C020E000C0400000C0402000C0404000C0406000C0
310
408000C040A000C040C000C040E000C0600000C0602000C0604000C0606000C0608000C060A000C060C000C060E000C0800000C0802000C0804000C0806000C0808000C080A000C080C000C080E000C0A00000C0A02000C0A04000C0A06000C0A08000C0A0A000C0A0C000C0A0E000C0C00000C0C02000C0C04000C0C06000
310
C0C08000C0C0A000F0FBFF00A4A0A000808080000000FF0000FF000000FFFF00FF000000FF00FF00FFFF0000FFFFFF00FFFFFFFFFFFFFFFFFFFFFFFFFFFFFFFFFFFFFFFFFFFFFFFFFFFFFFFFFFFFFFFFFFFFFFFFFFFFFFFF000000000000000000000000000000000000000000000000FFFFFFFFFFFFFFFF00FFFFFFFFFFFF
310
FFFFFFFFFFFFFFFFFFFFFFFFFFFFFFFFFFFFFFFFFFFFFFFFFF00FFFFFFFFFFFFFFFFFFFFFFFFFFFFFFFFFFFFFFFFFFFFFFFFFFFFFFFFFFFFFF00FFFFFFFFFFFFFFFFFFFFFFFFFFFFFFFFFFFFFFFFFFFFFFFFFFFFFFFFFFFFFF00FFFFFFFFFFFFFFFFFFFFFFFFFFFFFFFFFFFFFFFFFFFFFFFFFFFFFFFFFFFFFF00FFFFFFFFFF
310
FFFFFFFFFFFFFFFFFFFFFFFFFFFFFFFFFFFFFFFFFFFFFFFFFFFF00FFFFFFFFFFFFFFFFFFFFFFFFFFFFFFFFFFFFFFFFFFFFFFFFFFFFFFFFFFFFFF00FFFFFFFFFFFFFFFFFFFFFFFFFFFFFFFFFFFFFFFFFFFFFFFFFFFFFFFFFFFFFF00FFFFFFFFFFFFFFFFFFFFFFFFFFFFFFFFFFFFFFFFFFFFFFFFFFFFFFFFFFFFFF00FFFFFFFF
310
FFFFFFFFFFFFFFFFFFFFFFFFFFFFFFFFFFFFFFFFFFFFFFFFFFFFFF00FFFFFFFFFFFFFFFFFFFFFFFFFFFFFFFFFFFFFFFFFFFFFFFFFFFFFFFFFFFFFF00FFFFFFFFFFFFFFFFFFFFFFFFFFFFFFFFFFFFFFFFFFFFFFFFFFFFFFFFFFFFFF00FFFFFFFFFFFFFFFFFFFFFFFFFFFFFFFFFFFFFFFFFFFFFFFFFFFFFFFFFFFFFF00FFFFFF
310
FFFFFFFFFFFFFFFFFFFFFFFFFFFFFFFFFFFFFFFFFFFFFFFFFFFFFFFF00FFFFFFFFFFFFFFFFFFFFFFFFFFFFFFFFFFFFFFFFFFFFFFFFFFFFFFFFFFFFFF00FFFFFFFFFFFFFFFFFFFFFFFFFFFFFFFFFFFFFFFFFFFFFFFFFFFFFFFFFFFFFF00FFFFFFFFFFFFFFFFFFFFFFFFFFFFFFFFFFFFFFFFFFFFFFFFFFFFFFFFFFFFFF00FFFF
310
FFFFFFFFFFFFFFFFFFFFFFFFFFFFFFFFFFFFFFFFFFFFFFFFFFFFFFFFFF00FFFFFFFFFFFFFFFFFFFFFFFFFFFFFFFFFFFFFFFFFFFFFFFFFFFFFFFFFFFFFF00FFFFFFFFFFFFFFFFFFFFFFFFFFFFFFFFFFFFFFFFFFFFFFFFFFFFFFFFFFFFFF00FFFFFFFFFFFFFFFFFFFFFFFFFFFFFFFFFFFFFFFFFFFFFFFFFFFFFFFFFFFFFF00FF
310
FFFFFFFFFFFFFFFFFFFFFFFFFFFFFFFFFFFFFFFFFFFFFFFFFFFFFFFFFFFF00FFFFFFFFFFFFFFFFFFFFFFFFFFFFFFFFFFFFFFFFFFFFFFFFFFFFFFFFFFFFFF00FFFFFFFFFFFFFFFFFFFFFFFFFFFFFFFFFFFFFFFFFFFFFFFFFFFFFFFFFFFFFF00FFFFFFFFFFFFFFFFFFFFFFFFFFFFFFFFFFFFFFFFFFFFFFFFFFFFFFFFFFFFFF00
310
FFFFFFFFFFFFFFFFFFFFFFFFFFFFFFFFFFFFFFFFFFFFFFFFFFFFFFFFFFFFFF00FFFFFFFFFFFFFFFFFFFFFFFFFFFFFFFFFFFFFFFFFFFFFFFFFFFFFFFFFFFFFF00FFFFFFFFFFFFFFFFFFFFFFFFFFFFFFFFFFFFFFFFFFFFFFFFFFFFFFFFFFFFFF00FFFFFFFFFFFFFFFFFFFFFFFFFFFFFFFFFFFFFFFFFFFFFFFFFFFFFFFFFFFFFF
310
00FFFFFFFFFFFFFFFFFFFFFFFFFFFF000000000000000000FFFFFFFFFFFFFFFF00FFFFFFFFFFFFFFFFFFFFFFFFFFFF00FFFFFFFFFFFFFFFF
102
{BLKREFS
331
3D0
102
}
  0
BLOCK_RECORD
  5
3B2
330
1
100
AcDbSymbolTableRecord
100
AcDbBlockTableRecord
  2
AI9-BLK4
340
0
310
2800000020000000200000000100080000000000000400000000000000000000000000000000000000000000000080000080000000808000800000008000800080800000C0C0C000C0DCC000F0CAA6000020400000206000002080000020A0000020C0000020E00000400000004020000040400000406000004080000040A0
310
000040C0000040E00000600000006020000060400000606000006080000060A0000060C0000060E00000800000008020000080400000806000008080000080A0000080C0000080E00000A0000000A0200000A0400000A0600000A0800000A0A00000A0C00000A0E00000C0000000C0200000C0400000C0600000C0800000C0
310
A00000C0C00000C0E00000E0000000E0200000E0400000E0600000E0800000E0A00000E0C00000E0E00040000000400020004000400040006000400080004000A0004000C0004000E00040200000402020004020400040206000402080004020A0004020C0004020E000404000004040200040404000404060004040800040
310
40A0004040C0004040E00040600000406020004060400040606000406080004060A0004060C0004060E00040800000408020004080400040806000408080004080A0004080C0004080E00040A0000040A0200040A0400040A0600040A0800040A0A00040A0C00040A0E00040C0000040C0200040C0400040C0600040C08000
310
40C0A00040C0C00040C0E00040E0000040E0200040E0400040E0600040E0800040E0A00040E0C00040E0E00080000000800020008000400080006000800080008000A0008000C0008000E00080200000802020008020400080206000802080008020A0008020C0008020E00080400000804020008040400080406000804080
310
008040A0008040C0008040E00080600000806020008060400080606000806080008060A0008060C0008060E00080800000808020008080400080806000808080008080A0008080C0008080E00080A0000080A0200080A0400080A0600080A0800080A0A00080A0C00080A0E00080C0000080C0200080C0400080C0600080C0
310
800080C0A00080C0C00080C0E00080E0000080E0200080E0400080E0600080E0800080E0A00080E0C00080E0E000C0000000C0002000C0004000C0006000C0008000C000A000C000C000C000E000C0200000C0202000C0204000C0206000C0208000C020A000C020C000C020E000C0400000C0402000C0404000C0406000C0
310
408000C040A000C040C000C040E000C0600000C0602000C0604000C0606000C0608000C060A000C060C000C060E000C0800000C0802000C0804000C0806000C0808000C080A000C080C000C080E000C0A00000C0A02000C0A04000C0A06000C0A08000C0A0A000C0A0C000C0A0E000C0C00000C0C02000C0C04000C0C06000
310
C0C08000C0C0A000F0FBFF00A4A0A000808080000000FF0000FF000000FFFF00FF000000FF00FF00FFFF0000FFFFFF00FFFFFFFFFFFFFFFFFFFFFFFFFFFFFFFFFFFFFFFFFFFFFFFFFFFFFFFFFFFFFFFFFFFFFFFFFFFFFFFFFFFFFFFFFFFF00000000FFFFFFFFFFFFFFFFFFFFFF000000FFFFFFFFFFFFFFFFFFFFFFFFFFFF00
310
FFFF00FFFFFFFFFFFFFFFFFFFFFF00FFFFFFFFFFFFFFFFFFFFFFFFFFFFFFFF00FFFF00FFFFFFFFFFFFFFFFFFFFFF00FFFFFFFFFFFFFFFFFFFFFFFFFFFFFFFF00FFFF00FFFFFFFFFFFFFFFFFFFFFF00FFFFFFFFFFFFFFFFFFFFFFFFFFFFFFFF00FFFF00FFFFFFFFFFFFFFFFFFFFFF00FFFFFFFFFFFFFFFFFFFFFFFFFFFFFFFF
310
00FFFF00FFFFFFFFFFFFFFFFFFFFFF00FFFFFFFFFFFFFFFFFFFFFFFFFFFFFFFF00FFFF00FFFFFFFFFFFFFFFFFFFFFF00FFFFFFFFFFFFFFFFFFFFFFFFFFFFFFFF00FFFF00FFFFFFFFFFFFFFFFFFFFFF00FFFFFFFFFFFFFFFFFFFFFFFFFFFFFFFF00FFFF00FFFFFFFFFFFFFFFFFFFFFF00FFFFFFFFFFFFFFFFFFFFFFFFFFFFFF
310
FF00FFFF00FFFFFFFFFFFFFFFFFFFFFF00FFFFFFFFFFFFFFFFFFFFFFFFFFFFFFFF00FFFF00FFFFFFFFFFFFFFFFFFFFFF00FFFFFFFFFFFFFFFFFFFFFFFFFFFFFFFF00FFFF00FFFFFFFFFFFFFFFFFFFFFF00FFFFFFFFFFFFFFFFFFFFFFFFFFFFFFFF00FFFF00FFFFFFFFFFFFFFFFFFFFFF00FFFFFFFFFFFFFFFFFFFFFFFFFFFF
310
FFFF00FFFF00FFFFFFFFFFFFFFFFFFFFFF00FFFFFFFFFFFFFFFFFFFFFFFFFFFFFFFF00FFFF00FFFFFFFFFFFFFFFFFFFFFF00FFFFFFFFFFFFFFFFFFFFFFFFFFFFFFFF00FFFF00FFFFFFFFFFFFFFFFFFFFFF00FFFFFFFFFFFFFFFFFFFFFFFFFFFFFFFF00FFFF00FFFFFFFFFFFFFFFFFFFF00FFFFFFFFFFFFFFFFFFFFFFFFFFFF
310
FFFFFF00FFFF00FFFFFFFFFFFFFFFFFFFF00FFFFFFFFFFFFFFFFFFFFFFFFFFFFFFFFFF00FFFF00FFFFFFFFFFFFFFFFFFFF00FFFFFFFFFFFFFFFFFFFFFFFFFFFFFFFFFF00FFFF00FFFFFFFFFFFFFFFFFFFF00FFFFFFFFFFFFFFFFFFFFFFFFFFFFFFFFFF00FFFF00FFFFFFFFFFFFFFFFFFFF00FFFFFFFFFFFFFFFFFFFFFFFFFF
310
FFFFFFFF00FFFF00FFFFFFFFFFFFFFFFFF0000FFFF00FFFFFFFFFFFFFFFFFFFFFFFFFFFF00FFFF00FFFFFFFFFFFFFFFF0000FFFFFF00FFFFFFFFFFFFFFFFFFFFFFFFFFFF00FFFF00000000000000000000FFFFFFFF00FFFFFFFFFFFFFFFFFFFFFFFFFFFF00FFFFFFFFFFFFFFFFFFFFFFFFFFFFFF00FFFFFFFFFFFFFFFFFFFF
310
FFFFFFFFFF00FFFFFFFFFFFFFFFFFFFFFFFFFFFF00FFFFFFFFFFFFFFFFFFFFFFFFFFFFFFFF00FFFFFFFFFFFFFFFFFFFFFFFFFFFF00FFFFFFFFFFFFFFFFFFFFFFFFFFFFFFFF00FFFFFFFFFFFFFFFFFFFFFFFFFFFFFF00FFFFFFFFFFFFFFFFFFFFFFFFFFFFFF00FFFFFFFFFFFFFFFFFFFFFFFFFFFFFF00FFFFFFFFFFFFFFFFFF
310
FFFFFFFFFFFF00FFFF00000000000000000000FFFFFFFF00FFFFFFFFFFFFFFFFFFFFFFFFFFFF00FFFF00FFFFFFFFFFFFFFFFFF0000FFFF00
102
{BLKREFS
331
3D1
102
}
  0
BLOCK_RECORD
  5
3B7
330
1
100
AcDbSymbolTableRecord
100
AcDbBlockTableRecord
  2
AI9-BLK3
340
0
310
2800000020000000200000000100080000000000000400000000000000000000000000000000000000000000000080000080000000808000800000008000800080800000C0C0C000C0DCC000F0CAA6000020400000206000002080000020A0000020C0000020E00000400000004020000040400000406000004080000040A0
310
000040C0000040E00000600000006020000060400000606000006080000060A0000060C0000060E00000800000008020000080400000806000008080000080A0000080C0000080E00000A0000000A0200000A0400000A0600000A0800000A0A00000A0C00000A0E00000C0000000C0200000C0400000C0600000C0800000C0
310
A00000C0C00000C0E00000E0000000E0200000E0400000E0600000E0800000E0A00000E0C00000E0E00040000000400020004000400040006000400080004000A0004000C0004000E00040200000402020004020400040206000402080004020A0004020C0004020E000404000004040200040404000404060004040800040
310
40A0004040C0004040E00040600000406020004060400040606000406080004060A0004060C0004060E00040800000408020004080400040806000408080004080A0004080C0004080E00040A0000040A0200040A0400040A0600040A0800040A0A00040A0C00040A0E00040C0000040C0200040C0400040C0600040C08000
310
40C0A00040C0C00040C0E00040E0000040E0200040E0400040E0600040E0800040E0A00040E0C00040E0E00080000000800020008000400080006000800080008000A0008000C0008000E00080200000802020008020400080206000802080008020A0008020C0008020E00080400000804020008040400080406000804080
310
008040A0008040C0008040E00080600000806020008060400080606000806080008060A0008060C0008060E00080800000808020008080400080806000808080008080A0008080C0008080E00080A0000080A0200080A0400080A0600080A0800080A0A00080A0C00080A0E00080C0000080C0200080C0400080C0600080C0
310
800080C0A00080C0C00080C0E00080E0000080E0200080E0400080E0600080E0800080E0A00080E0C00080E0E000C0000000C0002000C0004000C0006000C0008000C000A000C000C000C000E000C0200000C0202000C0204000C0206000C0208000C020A000C020C000C020E000C0400000C0402000C0404000C0406000C0
310
408000C040A000C040C000C040E000C0600000C0602000C0604000C0606000C0608000C060A000C060C000C060E000C0800000C0802000C0804000C0806000C0808000C080A000C080C000C080E000C0A00000C0A02000C0A04000C0A06000C0A08000C0A0A000C0A0C000C0A0E000C0C00000C0C02000C0C04000C0C06000
310
C0C08000C0C0A000F0FBFF00A4A0A000808080000000FF0000FF000000FFFF00FF000000FF00FF00FFFF0000FFFFFF00FFFFFFFFFFFFFFFFFFFFFFFFFFFFFFFFFFFFFFFFFFFFFFFFFFFFFFFFFFFFFFFFFFFFFFFFFFFFFFFFFFFFFFFFFFFFFF0000FFFFFFFFFFFFFFFFFFFFFFFFFFFFFFFFFFFFFFFFFFFFFFFFFFFFFFFFFFFF
310
0000FFFFFFFFFFFFFFFFFFFFFFFFFFFFFFFFFFFFFFFFFFFFFFFFFFFFFFFFFFFF0000FFFFFFFFFFFFFFFFFFFFFFFFFFFFFFFFFFFFFFFFFFFFFFFFFFFFFFFFFFFF0000FFFFFFFFFFFFFFFFFFFFFFFFFFFFFFFFFFFFFFFFFFFFFFFFFFFFFFFFFFFF0000FFFFFFFFFFFFFFFFFFFFFFFFFFFFFFFFFFFFFFFFFFFFFFFFFFFFFFFFFF
310
FF0000FFFFFFFFFFFFFFFFFFFFFFFFFFFFFFFFFFFFFFFFFFFFFFFFFFFFFFFFFFFF0000FFFFFFFFFFFFFFFFFFFFFFFFFFFFFFFFFFFFFFFFFFFFFFFFFFFFFFFFFFFF0000FFFFFFFFFFFFFFFFFFFFFFFFFFFFFFFFFFFFFFFFFFFFFFFFFFFFFFFFFFFF0000FFFFFFFFFFFFFFFFFFFFFFFFFFFFFFFFFFFFFFFFFFFFFFFFFFFFFFFF
310
FFFF0000FFFFFFFFFFFFFFFFFFFFFFFFFFFFFFFFFFFFFFFFFFFFFFFFFFFFFFFFFFFF0000FFFFFFFFFFFFFFFFFFFFFFFFFFFFFFFFFFFFFFFFFFFFFFFFFFFFFFFFFFFF0000FFFFFFFFFFFFFFFFFFFFFFFFFFFFFFFFFFFFFFFFFFFFFFFFFFFFFFFFFFFF0000FFFFFFFFFFFFFFFFFFFFFFFFFFFFFFFFFFFFFFFFFFFFFFFFFFFFFF
310
FFFFFF0000FFFFFFFFFFFFFFFFFFFFFFFFFFFFFFFFFFFFFFFFFFFFFFFFFFFFFFFFFFFF0000FFFFFFFFFFFFFFFFFFFFFFFFFFFFFFFFFFFFFFFFFFFFFFFFFFFFFFFFFFFF0000FFFFFFFFFFFFFFFFFFFFFFFFFFFFFFFFFFFFFFFFFFFFFFFFFFFFFFFFFFFF0000FFFFFFFFFFFFFFFFFFFFFFFFFFFFFFFFFFFFFFFFFFFFFFFFFFFF
310
FFFFFFFF0000FFFFFFFFFFFFFFFFFFFFFFFFFFFFFFFFFFFFFFFFFFFFFFFFFFFFFFFFFFFF0000FFFFFFFFFFFFFFFFFFFFFFFFFFFFFFFFFFFFFFFFFFFFFFFFFFFFFFFFFFFF0000FFFFFFFFFFFFFFFFFFFFFFFFFFFFFFFFFFFFFFFFFFFFFFFFFFFFFFFFFFFF0000FFFFFFFFFFFFFFFFFFFFFFFFFFFFFFFFFFFFFFFFFFFFFFFFFF
310
FFFFFFFFFF0000FFFFFFFFFFFFFFFFFFFFFFFFFFFFFFFFFFFFFFFFFFFFFFFFFFFFFFFFFFFF0000FFFFFFFFFFFFFFFFFFFFFFFFFFFFFFFFFFFFFFFFFFFFFFFFFFFFFFFFFFFF0000FFFFFFFFFFFFFFFFFFFFFFFFFFFFFFFFFFFFFFFFFFFFFFFFFFFFFFFFFFFF0000FFFFFFFFFFFFFFFFFFFFFFFFFFFFFFFFFFFFFFFFFFFFFFFF
310
FFFFFFFFFFFF0000FFFFFFFFFFFFFFFFFFFFFFFFFFFFFFFFFFFFFFFFFFFFFFFFFFFFFFFFFFFF0000FFFFFFFFFFFFFFFFFFFFFFFFFFFFFFFFFFFFFFFFFFFFFFFFFFFFFFFFFFFF0000FFFFFFFFFFFFFFFFFFFFFFFFFFFFFFFFFFFFFFFFFFFFFFFFFFFFFFFFFFFF0000FFFFFFFFFFFFFFFFFFFFFFFFFFFFFFFFFFFFFFFFFFFFFF
310
FFFFFFFFFFFFFF0000FFFFFFFFFFFFFFFFFFFFFFFFFFFFFFFFFFFFFFFFFFFFFFFFFFFFFFFFFFFFFFFFFFFFFFFFFFFFFFFFFFFFFFFFFFFFFF
102
{BLKREFS
331
3D2
102
}
  0
BLOCK_RECORD
  5
3BC
330
1
100
AcDbSymbolTableRecord
100
AcDbBlockTableRecord
  2
AI9-BLK2
340
0
310
2800000020000000200000000100080000000000000400000000000000000000000000000000000000000000000080000080000000808000800000008000800080800000C0C0C000C0DCC000F0CAA6000020400000206000002080000020A0000020C0000020E00000400000004020000040400000406000004080000040A0
310
000040C0000040E00000600000006020000060400000606000006080000060A0000060C0000060E00000800000008020000080400000806000008080000080A0000080C0000080E00000A0000000A0200000A0400000A0600000A0800000A0A00000A0C00000A0E00000C0000000C0200000C0400000C0600000C0800000C0
310
A00000C0C00000C0E00000E0000000E0200000E0400000E0600000E0800000E0A00000E0C00000E0E00040000000400020004000400040006000400080004000A0004000C0004000E00040200000402020004020400040206000402080004020A0004020C0004020E000404000004040200040404000404060004040800040
310
40A0004040C0004040E00040600000406020004060400040606000406080004060A0004060C0004060E00040800000408020004080400040806000408080004080A0004080C0004080E00040A0000040A0200040A0400040A0600040A0800040A0A00040A0C00040A0E00040C0000040C0200040C0400040C0600040C08000
310
40C0A00040C0C00040C0E00040E0000040E0200040E0400040E0600040E0800040E0A00040E0C00040E0E00080000000800020008000400080006000800080008000A0008000C0008000E00080200000802020008020400080206000802080008020A0008020C0008020E00080400000804020008040400080406000804080
310
008040A0008040C0008040E00080600000806020008060400080606000806080008060A0008060C0008060E00080800000808020008080400080806000808080008080A0008080C0008080E00080A0000080A0200080A0400080A0600080A0800080A0A00080A0C00080A0E00080C0000080C0200080C0400080C0600080C0
310
800080C0A00080C0C00080C0E00080E0000080E0200080E0400080E0600080E0800080E0A00080E0C00080E0E000C0000000C0002000C0004000C0006000C0008000C000A000C000C000C000E000C0200000C0202000C0204000C0206000C0208000C020A000C020C000C020E000C0400000C0402000C0404000C0406000C0
310
408000C040A000C040C000C040E000C0600000C0602000C0604000C0606000C0608000C060A000C060C000C060E000C0800000C0802000C0804000C0806000C0808000C080A000C080C000C080E000C0A00000C0A02000C0A04000C0A06000C0A08000C0A0A000C0A0C000C0A0E000C0C00000C0C02000C0C04000C0C06000
310
C0C08000C0C0A000F0FBFF00A4A0A000808080000000FF0000FF000000FFFF00FF000000FF00FF00FFFF0000FFFFFF00FFFFFFFFFFFFFFFFFFFFFFFFFFFFFFFFFFFFFFFFFFFFFFFFFFFFFFFFFFFFFFFFFFFFFFFFFFFFFFFFFFFFFFFFFFFFFF0000FFFFFFFFFFFFFFFFFFFFFFFFFFFFFFFFFFFFFFFFFFFFFFFFFFFFFFFFFFFF
310
0000FFFFFFFFFFFFFFFFFFFFFFFFFFFFFFFFFFFFFFFFFFFFFFFFFFFFFFFFFFFF0000FFFFFFFFFFFFFFFFFFFFFFFFFFFFFFFFFFFFFFFFFFFFFFFFFFFFFFFFFF00FFFF00FFFFFFFFFFFFFFFFFFFFFFFFFFFFFFFFFFFFFFFFFFFFFFFFFFFFFFFF00FFFF00FFFFFFFFFFFFFFFFFFFFFFFFFFFFFFFFFFFFFFFFFFFFFFFFFFFFFFFF
310
00FF0000FFFFFFFFFFFFFFFFFFFFFFFFFFFFFFFFFFFFFFFFFFFFFFFFFFFFFFFF00FF0000FFFFFFFFFFFFFFFFFFFFFFFFFFFFFFFFFFFFFFFFFFFFFFFFFFFFFFFF00FF0000FFFFFFFFFFFFFFFFFFFFFFFFFFFFFFFFFFFFFFFFFFFFFFFFFFFFFFFF00000000FFFFFFFFFFFFFFFFFFFFFFFFFFFFFFFFFFFFFFFFFFFFFFFFFFFFFF
310
00FF00FF0000FFFFFFFFFFFFFFFFFFFFFFFFFFFFFFFFFFFFFFFFFFFFFFFFFFFF00FF00FF0000FFFFFFFFFFFFFFFFFFFFFFFFFFFFFFFFFFFFFFFFFFFFFFFFFFFF00FF00FF0000FFFFFFFFFFFFFFFFFFFFFFFFFFFFFFFFFFFFFFFFFFFFFFFFFFFF00FF00FF0000FFFFFFFFFFFFFFFFFFFFFFFFFFFFFFFFFFFFFFFFFFFFFFFFFF
310
FF00FF00FF0000FFFFFFFFFFFFFFFFFFFFFFFFFFFFFFFFFFFFFFFFFFFFFFFFFFFF0000FFFF0000FFFFFFFFFFFFFFFFFFFFFFFFFFFFFFFFFFFFFFFFFFFFFFFFFF00FF00FFFF00FF00FFFFFFFFFFFFFFFFFFFFFFFFFFFFFFFFFFFFFFFFFFFFFFFF00FF00FFFF00FF00FFFFFFFFFFFFFFFFFFFFFFFFFFFFFFFFFFFFFFFFFFFFFF
310
FF00FF00FFFFFF0000FFFFFFFFFFFFFFFFFFFFFFFFFFFFFFFFFFFFFFFFFFFFFFFF00FF00FFFFFF0000FFFFFFFFFFFFFFFFFFFFFFFFFFFFFFFFFFFFFFFFFFFFFFFF00FF00FFFFFF0000FFFFFFFFFFFFFFFFFFFFFFFFFFFFFFFFFFFFFFFFFFFFFFFF0000FFFFFFFF0000FFFFFFFFFFFFFFFFFFFFFFFFFFFFFFFFFFFFFFFFFFFF
310
FF00FF00FFFFFFFF00FF00FFFFFFFFFFFFFFFFFFFFFFFFFFFFFFFFFFFFFFFFFFFF00FF00FFFFFFFF00FF00FFFFFFFFFFFFFFFFFFFFFFFFFFFFFFFFFFFFFFFFFFFF00FF00FFFFFFFF00FF00FFFFFFFFFFFFFFFFFFFFFFFFFFFFFFFFFFFFFFFFFFFF00FF00FFFFFFFF00FF00FFFFFFFFFFFFFFFFFFFFFFFFFFFFFFFFFFFFFFFF
310
FFFF00FF00FFFFFFFFFF0000FFFFFFFFFFFFFFFFFFFFFFFFFFFFFFFFFFFFFFFFFFFF0000FFFFFFFFFFFF0000FFFFFFFFFFFFFFFFFFFFFFFFFFFFFFFFFFFFFFFFFF00FF00FFFFFFFFFFFF00FF00FFFFFFFFFFFFFFFFFFFFFFFFFFFFFFFFFFFFFFFF00FF00FFFFFFFFFFFF00FF00FFFFFFFFFFFFFFFFFFFFFFFFFFFFFFFFFFFF
310
FFFF000000FFFFFFFFFFFF000000FFFFFFFFFFFFFFFFFFFFFFFFFFFFFFFFFFFFFFFFFFFFFFFFFFFFFFFFFFFFFFFFFFFFFFFFFFFFFFFFFFFF
102
{BLKREFS
331
3D3
102
}
  0
BLOCK_RECORD
  5
3C1
330
1
100
AcDbSymbolTableRecord
100
AcDbBlockTableRecord
  2
AI9-BLK1
340
0
310
2800000020000000200000000100080000000000000400000000000000000000000000000000000000000000000080000080000000808000800000008000800080800000C0C0C000C0DCC000F0CAA6000020400000206000002080000020A0000020C0000020E00000400000004020000040400000406000004080000040A0
310
000040C0000040E00000600000006020000060400000606000006080000060A0000060C0000060E00000800000008020000080400000806000008080000080A0000080C0000080E00000A0000000A0200000A0400000A0600000A0800000A0A00000A0C00000A0E00000C0000000C0200000C0400000C0600000C0800000C0
310
A00000C0C00000C0E00000E0000000E0200000E0400000E0600000E0800000E0A00000E0C00000E0E00040000000400020004000400040006000400080004000A0004000C0004000E00040200000402020004020400040206000402080004020A0004020C0004020E000404000004040200040404000404060004040800040
310
40A0004040C0004040E00040600000406020004060400040606000406080004060A0004060C0004060E00040800000408020004080400040806000408080004080A0004080C0004080E00040A0000040A0200040A0400040A0600040A0800040A0A00040A0C00040A0E00040C0000040C0200040C0400040C0600040C08000
310
40C0A00040C0C00040C0E00040E0000040E0200040E0400040E0600040E0800040E0A00040E0C00040E0E00080000000800020008000400080006000800080008000A0008000C0008000E00080200000802020008020400080206000802080008020A0008020C0008020E00080400000804020008040400080406000804080
310
008040A0008040C0008040E00080600000806020008060400080606000806080008060A0008060C0008060E00080800000808020008080400080806000808080008080A0008080C0008080E00080A0000080A0200080A0400080A0600080A0800080A0A00080A0C00080A0E00080C0000080C0200080C0400080C0600080C0
310
800080C0A00080C0C00080C0E00080E0000080E0200080E0400080E0600080E0800080E0A00080E0C00080E0E000C0000000C0002000C0004000C0006000C0008000C000A000C000C000C000E000C0200000C0202000C0204000C0206000C0208000C020A000C020C000C020E000C0400000C0402000C0404000C0406000C0
310
408000C040A000C040C000C040E000C0600000C0602000C0604000C0606000C0608000C060A000C060C000C060E000C0800000C0802000C0804000C0806000C0808000C080A000C080C000C080E000C0A00000C0A02000C0A04000C0A06000C0A08000C0A0A000C0A0C000C0A0E000C0C00000C0C02000C0C04000C0C06000
310
C0C08000C0C0A000F0FBFF00A4A0A000808080000000FF0000FF000000FFFF00FF000000FF00FF00FFFF0000FFFFFF00FFFFFFFFFFFFFFFFFFFFFFFFFFFFFFFFFFFFFFFFFFFFFFFFFFFFFFFFFFFFFFFFFFFFFFFFFFFFFFFFFFFFFF00000000000000000000FFFFFFFFFFFFFFFFFFFFFFFFFFFFFFFFFFFFFFFFFFFF00FFFFFF
310
FFFFFFFFFF00FFFFFFFFFFFFFFFFFFFFFFFFFFFFFFFFFFFFFFFFFFFF00FFFFFFFFFFFFFFFF00FFFFFFFFFFFFFFFFFFFFFFFFFFFFFFFFFFFFFFFFFFFF00FFFFFFFFFFFFFFFF00FFFFFFFFFFFFFFFFFFFFFFFFFFFFFFFFFFFFFFFFFFFF00FF0000000000000000FFFFFFFFFFFFFFFFFFFFFFFFFFFFFFFFFFFFFFFFFFFF00FF00
310
FFFFFFFFFFFFFFFFFFFFFFFFFFFFFFFFFFFFFFFFFFFFFFFFFFFFFFFFFF00FF00FFFFFFFFFFFFFFFFFFFFFFFFFFFFFFFFFFFFFFFFFFFFFFFFFFFFFFFFFF00FF00FFFFFFFFFFFFFFFFFFFFFFFFFFFFFFFFFFFFFFFFFFFFFFFFFFFFFFFFFF00FF00FFFFFFFFFFFFFFFFFFFFFFFFFFFFFFFFFFFFFFFFFFFFFFFFFFFFFFFFFF00FF
310
00FFFFFFFFFFFFFFFFFFFFFFFFFFFFFFFFFFFFFFFFFFFFFFFFFFFFFFFFFF00FF00FFFFFFFFFFFFFFFFFFFFFFFFFFFFFFFFFFFFFFFFFFFFFFFFFFFFFFFFFF00FF00FFFFFFFFFFFFFFFFFFFFFFFFFFFFFFFFFFFFFFFFFFFFFFFFFFFFFFFFFF00FF00FFFFFFFFFFFFFFFFFFFFFFFFFFFFFFFFFFFFFFFFFFFFFFFFFFFFFFFFFF00
310
FF00000000000000FFFFFFFFFFFFFFFFFFFFFFFFFFFFFFFFFFFFFFFFFFFFFF00FFFFFFFFFFFFFF00FFFFFFFFFFFFFFFFFFFFFFFFFFFFFFFFFFFFFFFFFFFFFF00FFFFFFFFFFFFFF00FFFFFFFFFFFFFFFFFFFFFFFFFFFFFFFFFFFFFFFFFFFFFF00FFFFFFFFFFFFFF00FFFFFFFFFFFFFFFFFFFFFFFFFFFFFFFFFFFFFFFFFFFFFF
310
00FF00000000000000FFFFFFFFFFFFFFFFFFFFFFFFFFFFFFFFFFFFFFFFFFFFFF00FF00FFFFFFFFFFFFFFFFFFFFFFFFFFFFFFFFFFFFFFFFFFFFFFFFFFFFFFFFFF00FF00FFFFFFFFFFFFFFFFFFFFFFFFFFFFFFFFFFFFFFFFFFFFFFFFFFFFFFFFFF00FF00FFFFFFFFFFFFFFFFFFFFFFFFFFFFFFFFFFFFFFFFFFFFFFFFFFFFFFFF
310
FF00FF00FFFFFFFFFFFFFFFFFFFFFFFFFFFFFFFFFFFFFFFFFFFFFFFFFFFFFFFFFF00FF00FFFFFFFFFFFFFFFFFFFFFFFFFFFFFFFFFFFFFFFFFFFFFFFFFFFFFFFFFF00FF00FFFFFFFFFFFFFFFFFFFFFFFFFFFFFFFFFFFFFFFFFFFFFFFFFFFFFFFFFF00FF00FFFFFFFFFFFFFFFFFFFFFFFFFFFFFFFFFFFFFFFFFFFFFFFFFFFFFF
310
FFFF00FF0000000000000000FFFFFFFFFFFFFFFFFFFFFFFFFFFFFFFFFFFFFFFFFFFF00FFFFFFFFFFFFFFFF00FFFFFFFFFFFFFFFFFFFFFFFFFFFFFFFFFFFFFFFFFFFF00FFFFFFFFFFFFFFFF00FFFFFFFFFFFFFFFFFFFFFFFFFFFFFFFFFFFFFFFFFFFF00FFFFFFFFFFFFFFFF00FFFFFFFFFFFFFFFFFFFFFFFFFFFFFFFFFFFFFF
310
FFFFFF00000000000000000000FFFFFFFFFFFFFFFFFFFFFFFFFFFFFFFFFFFFFFFFFFFFFFFFFFFFFFFFFFFFFFFFFFFFFFFFFFFFFFFFFFFFFF
102
{BLKREFS
331
3D4
102
}
  0
BLOCK_RECORD
  5
3C6
330
1
100
AcDbSymbolTableRecord
100
AcDbBlockTableRecord
  2
HD_LLC_logo_OT5
340
0
310
2800000020000000200000000100080000000000000400000000000000000000000000000000000000000000000080000080000000808000800000008000800080800000C0C0C000C0DCC000F0CAA6000020400000206000002080000020A0000020C0000020E00000400000004020000040400000406000004080000040A0
310
000040C0000040E00000600000006020000060400000606000006080000060A0000060C0000060E00000800000008020000080400000806000008080000080A0000080C0000080E00000A0000000A0200000A0400000A0600000A0800000A0A00000A0C00000A0E00000C0000000C0200000C0400000C0600000C0800000C0
310
A00000C0C00000C0E00000E0000000E0200000E0400000E0600000E0800000E0A00000E0C00000E0E00040000000400020004000400040006000400080004000A0004000C0004000E00040200000402020004020400040206000402080004020A0004020C0004020E000404000004040200040404000404060004040800040
310
40A0004040C0004040E00040600000406020004060400040606000406080004060A0004060C0004060E00040800000408020004080400040806000408080004080A0004080C0004080E00040A0000040A0200040A0400040A0600040A0800040A0A00040A0C00040A0E00040C0000040C0200040C0400040C0600040C08000
310
40C0A00040C0C00040C0E00040E0000040E0200040E0400040E0600040E0800040E0A00040E0C00040E0E00080000000800020008000400080006000800080008000A0008000C0008000E00080200000802020008020400080206000802080008020A0008020C0008020E00080400000804020008040400080406000804080
310
008040A0008040C0008040E00080600000806020008060400080606000806080008060A0008060C0008060E00080800000808020008080400080806000808080008080A0008080C0008080E00080A0000080A0200080A0400080A0600080A0800080A0A00080A0C00080A0E00080C0000080C0200080C0400080C0600080C0
310
800080C0A00080C0C00080C0E00080E0000080E0200080E0400080E0600080E0800080E0A00080E0C00080E0E000C0000000C0002000C0004000C0006000C0008000C000A000C000C000C000E000C0200000C0202000C0204000C0206000C0208000C020A000C020C000C020E000C0400000C0402000C0404000C0406000C0
310
408000C040A000C040C000C040E000C0600000C0602000C0604000C0606000C0608000C060A000C060C000C060E000C0800000C0802000C0804000C0806000C0808000C080A000C080C000C080E000C0A00000C0A02000C0A04000C0A06000C0A08000C0A0A000C0A0C000C0A0E000C0C00000C0C02000C0C04000C0C06000
310
C0C08000C0C0A000F0FBFF00A4A0A000808080000000FF0000FF000000FFFF00FF000000FF00FF00FFFF0000FFFFFF00FFFFFFFFFFFFFFFFFFFFFFFFFFFFFFFFFFFFFFFFFFFFFFFFFFFFFFFFFFFFFFFFFFFFFFFFFFFFFFFFFFFFFFFFFFFFFFFFFFFFFFFFFFFFFFFFFFFFFFFFFFFFFFFFFFFFFFFFFFFFFFFFFFFFFFFFFFFFFF
310
FFFFFFFFFFFFFFFFFFFFFFFFFFFFFFFFFFFFFFFFFFFFFFFFFFFFFFFFFFFFFFFFFFFFFFFFFFFFFFFFFFFFFFFFFFFFFFFFFFFFFFFFFFFFFFFFFFFFFFFFFFFFFFFFFFFFFFFFFFFFFFFFFFFFFFFFFFFFFFFFFFFFFFFFFFFFFFFFFFFFFFFFFFFFFFFFFFFFFFFFFFFFFFFFFFFFFFFFFFFFFFFFFFFFFFFFFFFFFFFFFFFFFFFFFFFFFF
310
FFFFFFFFFFFFFFFFFFFFFFFFFFFFFFFFFFFFFFFFFFFFFFFFFFFFFFFFFFFFFFFFFFFFFFFFFFFFFFFFFFFFFFFFFFFFFFFFFFFFFFFFFFFFFFFFFFFFFFFFFFFFFFFFFFFFFFFFFFFFFFFFFFFFFFFFFFFFFFFFFFFFFFFFFFFFFFFFFFFFFFFFFFFFFFFFFFFFFFFFFFFFFFFFFFFFFFFFFFFFFFFFFFFFFFFFFFFFFFFFFFFFFFFFFFFFFF
310
FFFFFFFFFFFFFFFFFFFFFFFFFFFFFFFFFFFFFFFFFFFFFFFFFFFFFFFFFFFFFFFFFFFFFFFFFFFFFFFFFFFFFFFFFFFFFFFFFFFFFFFF0000000000000000000000000000000000000000000000000000000000FFFFFF0000000000000000000000000000000000FFFFFFFFFFFFFFFFFFFF0000FFFFFF0000000000000000000000
310
00000000000000FFFFFFFFFFFFFFFFFFFF0000FFFF000000000000000000000000000000000000FFFFFF00000000FFFFFF0000FFFF00FFFFFFFFFFFF00FFFFFF00FFFFFFFFFF00FFFFFF0000000000FFFF0000FFFF00FFFFFFFFFFFF00FFFFFF00FFFFFFFFFF00FFFFFF00FFFF0000FFFF0000FFFF00FFFFFFFFFFFF00FFFF
310
00FFFFFFFFFFFF00FFFFFF00FFFF0000FFFF0000FFFF0000000000FFFF00000000FFFFFF00000000FFFFFF00000000FFFFFF0000FFFFFFFFFFFF00FFFFFFFFFFFFFFFFFF00FFFFFFFFFFFFFFFFFFFFFFFFFF0000FFFFFFFFFFFF00FFFFFFFFFFFFFFFFFF00FFFFFFFFFFFFFFFFFFFFFFFFFF0000FFFFFFFFFFFF00FFFFFFFF
310
FFFFFFFFFF00FFFFFFFFFFFFFFFFFFFFFFFF0000FFFFFF0000000000FFFF00000000FFFFFF0000000000000000000000000000FFFFFFFF00FFFFFFFFFFFF00FFFF00FFFFFFFFFFFF00FFFFFFFFFFFFFFFFFFFFFFFFFFFF00FFFFFFFFFFFF00FFFFFF00FFFFFFFFFF00FFFFFFFFFFFFFFFFFFFFFFFFFFFF0000000000000000
310
FFFFFF00000000000000FFFFFFFFFFFFFFFFFFFFFFFFFFFFFFFFFFFFFFFFFFFFFFFFFFFFFFFFFFFFFFFFFFFFFFFFFFFFFFFFFFFFFFFFFFFFFFFFFFFFFFFFFFFFFFFFFFFFFFFFFFFFFFFFFFFFFFFFFFFFFFFFFFFFFFFFFFFFFFFFFFFFFFFFFFFFFFFFFFFFFFFFFFFFFFFFFFFFFFFFFFFFFFFFFFFFFFFFFFFFFFFFFFFFFFFFFF
310
FFFFFFFFFFFFFFFFFFFFFFFFFFFFFFFFFFFFFFFFFFFFFFFFFFFFFFFFFFFFFFFFFFFFFFFFFFFFFFFFFFFFFFFFFFFFFFFFFFFFFFFFFFFFFFFF
102
{BLKREFS
331
3EC
102
}
  0
BLOCK_RECORD
  5
3EB
330
1
100
AcDbSymbolTableRecord
100
AcDbBlockTableRecord
  2
HD logo-new
340
0
310
2800000020000000200000000100080000000000000400000000000000000000000000000000000000000000000080000080000000808000800000008000800080800000C0C0C000C0DCC000F0CAA6000020400000206000002080000020A0000020C0000020E00000400000004020000040400000406000004080000040A0
310
000040C0000040E00000600000006020000060400000606000006080000060A0000060C0000060E00000800000008020000080400000806000008080000080A0000080C0000080E00000A0000000A0200000A0400000A0600000A0800000A0A00000A0C00000A0E00000C0000000C0200000C0400000C0600000C0800000C0
310
A00000C0C00000C0E00000E0000000E0200000E0400000E0600000E0800000E0A00000E0C00000E0E00040000000400020004000400040006000400080004000A0004000C0004000E00040200000402020004020400040206000402080004020A0004020C0004020E000404000004040200040404000404060004040800040
310
40A0004040C0004040E00040600000406020004060400040606000406080004060A0004060C0004060E00040800000408020004080400040806000408080004080A0004080C0004080E00040A0000040A0200040A0400040A0600040A0800040A0A00040A0C00040A0E00040C0000040C0200040C0400040C0600040C08000
310
40C0A00040C0C00040C0E00040E0000040E0200040E0400040E0600040E0800040E0A00040E0C00040E0E00080000000800020008000400080006000800080008000A0008000C0008000E00080200000802020008020400080206000802080008020A0008020C0008020E00080400000804020008040400080406000804080
310
008040A0008040C0008040E00080600000806020008060400080606000806080008060A0008060C0008060E00080800000808020008080400080806000808080008080A0008080C0008080E00080A0000080A0200080A0400080A0600080A0800080A0A00080A0C00080A0E00080C0000080C0200080C0400080C0600080C0
310
800080C0A00080C0C00080C0E00080E0000080E0200080E0400080E0600080E0800080E0A00080E0C00080E0E000C0000000C0002000C0004000C0006000C0008000C000A000C000C000C000E000C0200000C0202000C0204000C0206000C0208000C020A000C020C000C020E000C0400000C0402000C0404000C0406000C0
310
408000C040A000C040C000C040E000C0600000C0602000C0604000C0606000C0608000C060A000C060C000C060E000C0800000C0802000C0804000C0806000C0808000C080A000C080C000C080E000C0A00000C0A02000C0A04000C0A06000C0A08000C0A0A000C0A0C000C0A0E000C0C00000C0C02000C0C04000C0C06000
310
C0C08000C0C0A000F0FBFF00A4A0A000808080000000FF0000FF000000FFFF00FF000000FF00FF00FFFF0000FFFFFF00FFFFFFFFFFFFFFFFFFFFFFFFFFFFFFFFFFFFFFFFFFFFFFFFFFFFFFFFFFFFFFFFFFFFFFFFFFFFFFFFFFFFFFFFFFFFFFFFFFFFFFFFFFFFFFFFFFFFFFFFFFFFFFFFFFFFFFFFFFFFFFFFFFFFFFFFFFFFFF
310
FFFFFFFFFFFFFFFFFFFFFFFFFFFFFFFFFFFFFFFFFFFFFFFFFFFFFFFFFFFFFFFFFFFFFFFFFFFFFFFFFFFFFFFFFFFFFFFFFFFFFFFFFFFFFFFFFFFFFFFFFFFFFFFFFFFFFFFFFFFFFFFFFFFFFFFFFFFFFFFFFFFFFFFFFFFFFFFFFFFFFFFFFFFFFFFFFFFFFFFFFFFFFFFFFFFFFFFFFFFFFFFFFFFFFFFFFFFFFFFFFFFFFFFFFFFFFF
310
FFFFFFFFFFFFFFFFFFFFFFFFFFFFFFFFFFFFFFFFFFFFFFFFFFFFFFFFFFFFFFFFFFFFFFFFFFFFFFFFFFFFFFFFFFFFFFFFFFFFFFFFFFFFFFFFFFFFFFFFFFFFFFFFFFFFFFFFFFFFFFFFFFFFFFFFFFFFFFFFFFFFFFFFFFFFFFFFFFFFFFFFFFFFFFFFFFFFFFFFFFFFFFFFFFFFFFFFFFFFFFFFFFFFFFFFFFFFFFFFFFFFFFFFFFFFFF
310
FFFFFFFFFFFFFFFFFFFFFFFFFFFFFFFFFFFFFFFFFFFFFFFFFFFFFFFFFFFFFFFFFFFFFFFFFFFFFFFFFFFFFFFFFFFFFFFFFFFFFFFF0000000000000000000000000000000000000000000000000000000000FFFFFF0000000000000000000000000000000000FFFFFFFFFFFFFFFFFFFF0000FFFFFF0000000000000000000000
310
00000000000000FFFFFFFFFFFFFFFFFFFF0000FFFF000000000000000000000000000000000000FFFFFF00000000FFFFFF0000FFFF00FFFFFFFFFFFF00FFFFFF00FFFFFFFFFF00FFFFFF0000000000FFFF0000FFFF00FFFFFFFFFFFF00FFFFFF00FFFFFFFFFF00FFFFFF00FFFF0000FFFF0000FFFF00FFFFFFFFFFFF00FFFF
310
00FFFFFFFFFFFF00FFFFFF00FFFF0000FFFF0000FFFF0000000000FFFF00000000FFFFFF00000000FFFFFF00000000FFFFFF0000FFFFFFFFFFFF00FFFFFFFFFFFFFFFFFF00FFFFFFFFFFFFFFFFFFFFFFFFFF0000FFFFFFFFFFFF00FFFFFFFFFFFFFFFFFF00FFFFFFFFFFFFFFFFFFFFFFFFFF0000FFFFFFFFFFFF00FFFFFFFF
310
FFFFFFFFFF00FFFFFFFFFFFFFFFFFFFFFFFF0000FFFFFF0000000000FFFF00000000FFFFFF0000000000000000000000000000FFFFFFFF00FFFFFFFFFFFF00FFFF00FFFFFFFFFFFF00FFFFFFFFFFFFFFFFFFFFFFFFFFFF00FFFFFFFFFFFF00FFFFFF00FFFFFFFFFF00FFFFFFFFFFFFFFFFFFFFFFFFFFFF0000000000000000
310
FFFFFF00000000000000FFFFFFFFFFFFFFFFFFFFFFFFFFFFFFFFFFFFFFFFFFFFFFFFFFFFFFFFFFFFFFFFFFFFFFFFFFFFFFFFFFFFFFFFFFFFFFFFFFFFFFFFFFFFFFFFFFFFFFFFFFFFFFFFFFFFFFFFFFFFFFFFFFFFFFFFFFFFFFFFFFFFFFFFFFFFFFFFFFFFFFFFFFFFFFFFFFFFFFFFFFFFFFFFFFFFFFFFFFFFFFFFFFFFFFFFFF
310
FFFFFFFFFFFFFFFFFFFFFFFFFFFFFFFFFFFFFFFFFFFFFFFFFFFFFFFFFFFFFFFFFFFFFFFFFFFFFFFFFFFFFFFFFFFFFFFFFFFFFFFFFFFFFFFF
102
{BLKREFS
331
3F1
331
3F5
102
}
  0
BLOCK_RECORD
  5
402
330
1
100
AcDbSymbolTableRecord
100
AcDbBlockTableRecord
  2
HD LLC
340
0
310
2800000020000000200000000100080000000000000400000000000000000000000000000000000000000000000080000080000000808000800000008000800080800000C0C0C000C0DCC000F0CAA6000020400000206000002080000020A0000020C0000020E00000400000004020000040400000406000004080000040A0
310
000040C0000040E00000600000006020000060400000606000006080000060A0000060C0000060E00000800000008020000080400000806000008080000080A0000080C0000080E00000A0000000A0200000A0400000A0600000A0800000A0A00000A0C00000A0E00000C0000000C0200000C0400000C0600000C0800000C0
310
A00000C0C00000C0E00000E0000000E0200000E0400000E0600000E0800000E0A00000E0C00000E0E00040000000400020004000400040006000400080004000A0004000C0004000E00040200000402020004020400040206000402080004020A0004020C0004020E000404000004040200040404000404060004040800040
310
40A0004040C0004040E00040600000406020004060400040606000406080004060A0004060C0004060E00040800000408020004080400040806000408080004080A0004080C0004080E00040A0000040A0200040A0400040A0600040A0800040A0A00040A0C00040A0E00040C0000040C0200040C0400040C0600040C08000
310
40C0A00040C0C00040C0E00040E0000040E0200040E0400040E0600040E0800040E0A00040E0C00040E0E00080000000800020008000400080006000800080008000A0008000C0008000E00080200000802020008020400080206000802080008020A0008020C0008020E00080400000804020008040400080406000804080
310
008040A0008040C0008040E00080600000806020008060400080606000806080008060A0008060C0008060E00080800000808020008080400080806000808080008080A0008080C0008080E00080A0000080A0200080A0400080A0600080A0800080A0A00080A0C00080A0E00080C0000080C0200080C0400080C0600080C0
310
800080C0A00080C0C00080C0E00080E0000080E0200080E0400080E0600080E0800080E0A00080E0C00080E0E000C0000000C0002000C0004000C0006000C0008000C000A000C000C000C000E000C0200000C0202000C0204000C0206000C0208000C020A000C020C000C020E000C0400000C0402000C0404000C0406000C0
310
408000C040A000C040C000C040E000C0600000C0602000C0604000C0606000C0608000C060A000C060C000C060E000C0800000C0802000C0804000C0806000C0808000C080A000C080C000C080E000C0A00000C0A02000C0A04000C0A06000C0A08000C0A0A000C0A0C000C0A0E000C0C00000C0C02000C0C04000C0C06000
310
C0C08000C0C0A000F0FBFF00A4A0A000808080000000FF0000FF000000FFFF00FF000000FF00FF00FFFF0000FFFFFF00FFFFFFFFFFFFFFFFFFFFFFFFFFFFFFFFFFFFFFFFFFFFFFFFFFFFFFFFFFFFFFFFFFFFFFFFFFFFFFFFFFFFFFFFFFFFFFFFFFFFFFFFFFFFFFFFFFFFFFFFFFFFFFFFFFFFFFFFFFFFFFFFFFFFFFFFFFFFFF
310
FFFFFFFFFFFFFFFFFFFFFFFFFFFFFFFFFFFFFFFFFFFFFFFFFFFFFFFFFFFFFFFFFFFFFFFFFFFFFFFFFFFFFFFFFFFFFFFFFFFFFFFFFFFFFFFFFFFFFFFFFFFFFFFFFFFFFFFFFFFFFFFFFFFFFFFFFFFFFFFFFFFFFFFFFFFFFFFFFFFFFFFFFFFFFFFFFFFFFFFFFFFFFFFFFFFFFFFFFFFFFFFFFFFFFFFFFFFFFFFFFFFFFFFFFFFFFF
310
FFFFFFFFFFFFFFFFFFFFFFFFFFFFFFFFFFFFFFFFFFFFFFFFFFFFFFFFFFFFFFFFFFFFFFFFFFFFFFFFFFFFFFFFFFFFFFFFFFFFFFFFFFFFFFFFFFFFFFFFFFFFFFFFFFFFFFFFFFFFFFFFFFFFFFFFFFFFFFFFFFFFFFFFFFFFFFFFFFFFFFFFFFFFFFFFFFFFFFFFFFFFFFFFFFFFFFFFFFFFFFFFFFFFFFFFFFFFFFFFFFFFFFFFFFFFFF
310
FFFFFFFFFFFFFFFFFFFFFFFFFFFFFFFFFFFFFFFFFFFFFFFFFFFFFFFFFFFFFFFFFFFFFFFFFFFFFFFFFFFFFFFFFFFFFFFFFFFFFFFFFFFFFFFFFFFFFFFFFFFFFFFFFFFFFFFFFFFFFFFFFFFFFFFFFFFFFFFFFFFFFFFFFFFFFFFFFFFFFFFFFFFFFFFFFFFFFFFFFFFFFFFFFFFFFFFFFFFFFFFFFFFFFFFFFFFFFFFFFFFFFFFFFFFF00
310
000000000000000000FFFFFFFFFFFFFFFFFFFFFFFFFFFFFFFFFFFFFFFFFFFF00000000000000000000FFFFFFFFFFFFFFFFFFFFFFFFFFFFFFFFFFFFFFFFFFFF00000000000000000000FFFFFFFFFFFFFFFFFFFFFFFFFFFFFFFFFFFFFFFFFFFF00000000000000000000FFFFFFFFFFFFFFFFFFFFFFFFFFFFFFFFFFFFFFFFFFFF
310
FFFFFFFFFFFFFFFFFFFFFFFFFFFFFFFFFFFFFFFFFFFFFFFFFFFFFFFFFFFFFFFFFFFFFFFFFFFFFFFFFFFFFFFFFFFFFFFFFFFFFFFFFFFFFFFFFFFFFFFFFFFFFFFFFFFFFFFFFFFFFFFFFFFFFFFFFFFFFFFFFFFFFFFFFFFFFFFFFFFFFFFFFFFFFFFFFFFFFFFFFFFFFFFFFFFFFFFFFFFFFFFFFFFFFFFFFFFFFFFFFFFFFFFFFFFFFF
310
FFFFFFFFFFFFFFFFFFFFFFFFFFFFFFFFFFFFFFFFFFFFFFFFFFFFFFFFFFFFFFFFFFFFFFFFFFFFFFFFFFFFFFFFFFFFFFFFFFFFFFFFFFFFFFFFFFFFFFFFFFFFFFFFFFFFFFFFFFFFFFFFFFFFFFFFFFFFFFFFFFFFFFFFFFFFFFFFFFFFFFFFFFFFFFFFFFFFFFFFFFFFFFFFFFFFFFFFFFFFFFFFFFFFFFFFFFFFFFFFFFFFFFFFFFFFFF
310
FFFFFFFFFFFFFFFFFFFFFFFFFFFFFFFFFFFFFFFFFFFFFFFFFFFFFFFFFFFFFFFFFFFFFFFFFFFFFFFFFFFFFFFFFFFFFFFFFFFFFFFFFFFFFFFFFFFFFFFFFFFFFFFFFFFFFFFFFFFFFFFFFFFFFFFFFFFFFFFFFFFFFFFFFFFFFFFFFFFFFFFFFFFFFFFFFFFFFFFFFFFFFFFFFFFFFFFFFFFFFFFFFFFFFFFFFFFFFFFFFFFFFFFFFFFFFF
310
FFFFFFFFFFFFFFFFFFFFFFFFFFFFFFFFFFFFFFFFFFFFFFFFFFFFFFFFFFFFFFFFFFFFFFFFFFFFFFFFFFFFFFFFFFFFFFFFFFFFFFFFFFFFFFFF
102
{BLKREFS
331
407
331
40B
102
}
  0
ENDTAB
  0
ENDSEC
  0
SECTION
  2
BLOCKS
  0
BLOCK
  5
D
330
A
100
AcDbEntity
  8
0
100
AcDbBlockBegin
  2
*MODEL_SPACE
 70
     0
 10
0.0
 20
0.0
 30
0.0
  3
*MODEL_SPACE
  1

  0
ENDBLK
  5
E
330
A
100
AcDbEntity
  8
0
100
AcDbBlockEnd
  0
BLOCK
  5
F
330
B
100
AcDbEntity
 67
     1
  8
0
100
AcDbBlockBegin
  2
*PAPER_SPACE
 70
     0
 10
0.0
 20
0.0
 30
0.0
  3
*PAPER_SPACE
  1

  0
ENDBLK
  5
10
330
B
100
AcDbEntity
 67
     1
  8
0
100
AcDbBlockEnd
  0
BLOCK
  5
26
330
25
100
AcDbEntity
  8
0
100
AcDbBlockBegin
  2
CSD_17_2UH
 70
     0
 10
0.0
 20
0.0
 30
0.0
  3
CSD_17_2UH
  1

  0
TEXT
  5
70
330
25
100
AcDbEntity
  8
1
 62
     7
100
AcDbText
 10
-449.628600039691
 20
134.22400803317
 30
0.0
 40
3.75
  1
The reference drawing
 41
0.8100000000000001
  7
CONVERTER_2
100
AcDbText
  0
TEXT
  5
6F
330
25
100
AcDbEntity
  8
1
 62
     3
100
AcDbText
 10
-450.006400241507
 20
131.164713253094
 30
0.0
 40
2.25
  1
All speciffcations and dimensions mentioned in the drawing are
 41
0.8100000000000001
  7
CONVERTER_2
100
AcDbText
  0
TEXT
  5
6E
330
25
100
AcDbEntity
  8
1
 62
     3
100
AcDbText
 10
-450.006400241507
 20
128.0982787714739
 30
0.0
 40
2.1
  1
subject to change without notification.
 41
0.8100000000000001
  7
CONVERTER_2
100
AcDbText
  0
TEXT
  5
6D
330
25
100
AcDbEntity
  8
1
 62
     3
100
AcDbText
 10
-450.006400241507
 20
124.1764121071279
 30
0.0
 40
2.25
  1
This drawing itself is also a property of Harmonic Drive Systems,Ins.
 41
0.8100000000000001
  7
CONVERTER_2
100
AcDbText
  0
TEXT
  5
6C
330
25
100
AcDbEntity
  8
1
 62
     3
100
AcDbText
 10
-450.006400241507
 20
120.7693270481769
 30
0.0
 40
2.25
  1
Harmonic Drive Systems,Inc.
 41
0.8100000000000001
  7
CONVERTER_2
100
AcDbText
  0
TEXT
  5
6B
330
25
100
AcDbEntity
  8
1
 62
     3
100
AcDbText
 10
-450.006400241507
 20
117.369419003799
 30
0.0
 40
2.25
  1
Believe Omori 7F Minamiohi 6-25-3 Shinagawa-ku, Tokyo 140-0013
 41
0.8100000000000001
  7
CONVERTER_2
100
AcDbText
  0
TEXT
  5
6A
330
25
100
AcDbEntity
  8
1
 62
     3
100
AcDbText
 10
-450.006400241507
 20
113.969510959421
 30
0.0
 40
2.25
  1
JAPAN
 41
0.8100000000000001
  7
CONVERTER_2
100
AcDbText
  0
TEXT
  5
69
330
25
100
AcDbEntity
  8
1
 62
     3
100
AcDbText
 10
-450.006400241507
 20
110.5696029150429
 30
0.0
 40
2.25
  1
Tel.03-5471-7800 Fax.03-5471-7811
 41
0.8100000000000001
  7
CONVERTER_2
100
AcDbText
  0
TEXT
  5
68
330
25
100
AcDbEntity
  8
1
 62
     3
100
AcDbText
 10
-450.006400241507
 20
107.169694870665
 30
0.0
 40
2.25
  1
http://www.hds.co.jp
 41
0.8100000000000001
  7
CONVERTER_2
100
AcDbText
  0
MTEXT
  5
66
330
25
100
AcDbEntity
  8
1
 62
     3
100
AcDbMText
 10
-207.926239572466
 20
121.220954947908
 30
0.0
 40
5.25
 41
0.0
 71
     5
 72
     1
  1
CSD-40-XXX-2UH.dxf
  7
CONVERTER_1
 73
     1
 44
1.0
  0
ARC
  5
64
330
25
100
AcDbEntity
  8
1
  6
PHANTOM
 62
     7
100
AcDbCircle
 10
-339.423912083473
 20
107.825859272542
 30
0.0
 40
3.0
100
AcDbArc
 50
-90.0
 51
0.0
  0
ARC
  5
63
330
25
100
AcDbEntity
  8
1
  6
PHANTOM
 62
     7
100
AcDbCircle
 10
-339.423912083473
 20
135.802115468402
 30
0.0
 40
3.0
100
AcDbArc
 50
0.0
 51
90.0
  0
ARC
  5
62
330
25
100
AcDbEntity
  8
1
  6
PHANTOM
 62
     7
100
AcDbCircle
 10
-449.006400241507
 20
135.802115468402
 30
0.0
 40
3.0
100
AcDbArc
 50
90.0
 51
180.0
  0
ARC
  5
61
330
25
100
AcDbEntity
  8
1
  6
PHANTOM
 62
     7
100
AcDbCircle
 10
-449.006400241507
 20
107.825859272542
 30
0.0
 40
3.0
100
AcDbArc
 50
180.0
 51
-90.0
  0
LINE
  5
60
330
25
100
AcDbEntity
  8
1
  6
PHANTOM
 62
     7
100
AcDbLine
 10
-339.423912083473
 20
138.802115468402
 30
0.0
 11
-449.006400241507
 21
138.802115468402
 31
0.0
  0
LINE
  5
5F
330
25
100
AcDbEntity
  8
1
  6
PHANTOM
 62
     7
100
AcDbLine
 10
-336.423912083473
 20
107.825859272542
 30
0.0
 11
-336.423912083473
 21
135.802115468402
 31
0.0
  0
LINE
  5
5E
330
25
100
AcDbEntity
  8
1
  6
PHANTOM
 62
     7
100
AcDbLine
 10
-449.006400241507
 20
104.8258592725419
 30
0.0
 11
-339.423912083473
 21
104.8258592725419
 31
0.0
  0
LINE
  5
5D
330
25
100
AcDbEntity
  8
1
  6
PHANTOM
 62
     7
100
AcDbLine
 10
-452.006400241507
 20
135.802115468402
 30
0.0
 11
-452.006400241507
 21
107.825859272542
 31
0.0
  0
ENDBLK
  5
71
330
25
100
AcDbEntity
  8
0
100
AcDbBlockEnd
  0
BLOCK
  5
28
330
27
100
AcDbEntity
  8
0
100
AcDbBlockBegin
  2
100107378
 70
     0
 10
0.0
 20
0.0
 30
0.0
  3
100107378
  1

  0
INSERT
  5
29
330
27
100
AcDbEntity
  8
0
100
AcDbBlockReference
  2
CSD_17_2UH
 10
0.0
 20
0.0
 30
0.0
  0
ENDBLK
  5
72
330
27
100
AcDbEntity
  8
0
100
AcDbBlockEnd
  0
BLOCK
  5
2B
330
2A
100
AcDbEntity
  8
0
100
AcDbBlockBegin
  2
100107380
 70
     0
 10
0.0
 20
0.0
 30
0.0
  3
100107380
  1

  0
INSERT
  5
2C
330
2A
100
AcDbEntity
  8
0
100
AcDbBlockReference
  2
100107378
 10
0.0
 20
0.0
 30
0.0
  0
ENDBLK
  5
73
330
2A
100
AcDbEntity
  8
0
100
AcDbBlockEnd
  0
BLOCK
  5
2E
330
2D
100
AcDbEntity
  8
0
100
AcDbBlockBegin
  2
C2A0372
 70
     0
 10
0.0
 20
0.0
 30
0.0
  3
C2A0372
  1

  0
INSERT
  5
2F
330
2D
100
AcDbEntity
  8
0
100
AcDbBlockReference
  2
100107380
 10
0.0
 20
0.0
 30
0.0
  0
ENDBLK
  5
74
330
2D
100
AcDbEntity
  8
0
100
AcDbBlockEnd
  0
BLOCK
  5
31
330
30
100
AcDbEntity
  8
0
100
AcDbBlockBegin
  2
100107382
 70
     0
 10
0.0
 20
0.0
 30
0.0
  3
100107382
  1

  0
INSERT
  5
32
330
30
100
AcDbEntity
  8
0
100
AcDbBlockReference
  2
C2A0372
 10
0.0
 20
0.0
 30
0.0
  0
ENDBLK
  5
75
330
30
100
AcDbEntity
  8
0
100
AcDbBlockEnd
  0
BLOCK
  5
34
330
33
100
AcDbEntity
  8
0
100
AcDbBlockBegin
  2
WB_040_R
 70
     0
 10
0.0
 20
0.0
 30
0.0
  3
WB_040_R
  1

  0
CIRCLE
  5
DB
330
33
100
AcDbEntity
  8
1
  6
Continuous
 62
     7
100
AcDbCircle
 10
-170.71052631579
 20
248.131008980646
 30
0.0
 40
45.419999999999
  0
CIRCLE
  5
DA
330
33
100
AcDbEntity
  8
1
  6
Continuous
 62
     7
100
AcDbCircle
 10
-170.71052631579
 20
248.131008980646
 30
0.0
 40
39.16
  0
ARC
  5
D9
330
33
100
AcDbEntity
  8
1
  6
Continuous
 62
     7
100
AcDbCircle
 10
-182.1310236388709
 20
288.8912977540779
 30
0.0
 40
4.7625
100
AcDbArc
 50
-47.89984537249
 51
-28.53047314673
  0
ARC
  5
D8
330
33
100
AcDbEntity
  8
1
  6
Continuous
 62
     7
100
AcDbCircle
 10
-182.1310236388709
 20
288.8912977540779
 30
0.0
 40
4.7625
100
AcDbArc
 50
133.045804990795
 51
157.609685296243
  0
ARC
  5
D7
330
33
100
AcDbEntity
  8
1
  6
Continuous
 62
     7
100
AcDbCircle
 10
-182.1310236388709
 20
288.8912977540779
 30
0.0
 40
4.762500000001
100
AcDbArc
 50
53.69466252984
 51
78.25854283529101
  0
ARC
  5
D6
330
33
100
AcDbEntity
  8
1
  6
Continuous
 62
     7
100
AcDbCircle
 10
-182.1310236388709
 20
288.8912977540779
 30
0.0
 40
4.7625
100
AcDbArc
 50
-120.165179027166
 51
-100.795806801408
  0
ARC
  5
D5
330
33
100
AcDbEntity
  8
1
  6
Continuous
 62
     7
100
AcDbCircle
 10
-192.704514920793
 20
284.298582375097
 30
0.0
 40
4.762499999999
100
AcDbArc
 50
-32.247671459443
 51
-12.878299233689
  0
ARC
  5
D4
330
33
100
AcDbEntity
  8
1
  6
Continuous
 62
     7
100
AcDbCircle
 10
-192.704514920793
 20
284.298582375097
 30
0.0
 40
4.762500000001
100
AcDbArc
 50
148.697978903845
 51
173.2618592092819
  0
ARC
  5
D3
330
33
100
AcDbEntity
  8
1
  6
Continuous
 62
     7
100
AcDbCircle
 10
-192.704514920793
 20
284.298582375097
 30
0.0
 40
4.762500000001
100
AcDbArc
 50
69.346836442897
 51
93.91071674833401
  0
ARC
  5
D2
330
33
100
AcDbEntity
  8
1
  6
Continuous
 62
     7
100
AcDbCircle
 10
-192.704514920793
 20
284.298582375097
 30
0.0
 40
4.7625
100
AcDbArc
 50
-104.513005114126
 51
-85.143632888366
  0
ARC
  5
D1
330
33
100
AcDbEntity
  8
1
  6
Continuous
 62
     7
100
AcDbCircle
 10
-201.6468126836859
 20
277.023483533089
 30
0.0
 40
4.7625
100
AcDbArc
 50
-16.59549754640299
 51
2.773874679366
  0
ARC
  5
D0
330
33
100
AcDbEntity
  8
1
  6
Continuous
 62
     7
100
AcDbCircle
 10
-201.6468126836859
 20
277.023483533089
 30
0.0
 40
4.7625
100
AcDbArc
 50
164.350152816871
 51
-171.0859668776689
  0
ARC
  5
CF
330
33
100
AcDbEntity
  8
1
  6
Continuous
 62
     7
100
AcDbCircle
 10
-201.6468126836859
 20
277.023483533089
 30
0.0
 40
4.762500000001
100
AcDbArc
 50
84.99901035591699
 51
109.562890661364
  0
ARC
  5
CE
330
33
100
AcDbEntity
  8
1
  6
Continuous
 62
     7
100
AcDbCircle
 10
-201.6468126836859
 20
277.023483533089
 30
0.0
 40
4.762499999999
100
AcDbArc
 50
-88.860831201074
 51
-69.491458975319
  0
ARC
  5
CD
330
33
100
AcDbEntity
  8
1
  6
Continuous
 62
     7
100
AcDbCircle
 10
-208.2947076107649
 20
267.605562027804
 30
0.0
 40
4.7625
100
AcDbArc
 50
-0.943323633385
 51
18.426048592376
  0
ARC
  5
CC
330
33
100
AcDbEntity
  8
1
  6
Continuous
 62
     7
100
AcDbCircle
 10
-208.2947076107649
 20
267.605562027804
 30
0.0
 40
4.7625
100
AcDbArc
 50
-179.9976732700519
 51
-155.433792964614
  0
ARC
  5
CB
330
33
100
AcDbEntity
  8
1
  6
Continuous
 62
     7
100
AcDbCircle
 10
-208.2947076107649
 20
267.605562027804
 30
0.0
 40
4.762499999999
100
AcDbArc
 50
100.6511842689669
 51
125.2150645744199
  0
ARC
  5
CA
330
33
100
AcDbEntity
  8
1
  6
Continuous
 62
     7
100
AcDbCircle
 10
-208.2947076107649
 20
267.605562027804
 30
0.0
 40
4.7625
100
AcDbArc
 50
-73.208657288037
 51
-53.83928506228699
  0
ARC
  5
C9
330
33
100
AcDbEntity
  8
1
  6
Continuous
 62
     7
100
AcDbCircle
 10
-212.1551557473849
 20
256.74330201316
 30
0.0
 40
4.762500000001
100
AcDbArc
 50
14.70885027969199
 51
34.078222505437
  0
ARC
  5
C8
330
33
100
AcDbEntity
  8
1
  6
Continuous
 62
     7
100
AcDbCircle
 10
-212.1551557473849
 20
256.74330201316
 30
0.0
 40
4.7625
100
AcDbArc
 50
-164.3454993570269
 51
-139.781619051575
  0
ARC
  5
C7
330
33
100
AcDbEntity
  8
1
  6
Continuous
 62
     7
100
AcDbCircle
 10
-212.1551557473849
 20
256.74330201316
 30
0.0
 40
4.762500000001999
100
AcDbArc
 50
116.303358181999
 51
140.8672384874519
  0
ARC
  5
C6
330
33
100
AcDbEntity
  8
1
  6
Continuous
 62
     7
100
AcDbCircle
 10
-212.1551557473849
 20
256.74330201316
 30
0.0
 40
4.7625
100
AcDbArc
 50
-57.55648337499001
 51
-38.187111149229
  0
ARC
  5
C5
330
33
100
AcDbEntity
  8
1
  6
Continuous
 62
     7
100
AcDbCircle
 10
-212.9418453156269
 20
245.2423076229159
 30
0.0
 40
4.7625
100
AcDbArc
 50
30.361024192719
 51
49.73039641848799
  0
ARC
  5
C4
330
33
100
AcDbEntity
  8
1
  6
Continuous
 62
     7
100
AcDbCircle
 10
-212.9418453156269
 20
245.2423076229159
 30
0.0
 40
4.762499999999
100
AcDbArc
 50
-148.693325443979
 51
-124.129445138538
  0
ARC
  5
C3
330
33
100
AcDbEntity
  8
1
  6
Continuous
 62
     7
100
AcDbCircle
 10
-212.9418453156269
 20
245.2423076229159
 30
0.0
 40
4.7625
100
AcDbArc
 50
131.955532095055
 51
156.5194124005039
  0
ARC
  5
C2
330
33
100
AcDbEntity
  8
1
  6
Continuous
 62
     7
100
AcDbCircle
 10
-212.9418453156269
 20
245.2423076229159
 30
0.0
 40
4.7625
100
AcDbArc
 50
-41.90430946194299
 51
-22.53493723616899
  0
ARC
  5
C1
330
33
100
AcDbEntity
  8
1
  6
Continuous
 62
     7
100
AcDbCircle
 10
-210.59643114908
 20
233.9555549974459
 30
0.0
 40
4.7625
100
AcDbArc
 50
46.013198105757
 51
65.382570331519
  0
ARC
  5
C0
330
33
100
AcDbEntity
  8
1
  6
Continuous
 62
     7
100
AcDbCircle
 10
-210.59643114908
 20
233.9555549974459
 30
0.0
 40
4.762500000001
100
AcDbArc
 50
-133.0411515309149
 51
-108.4772712254809
  0
ARC
  5
BF
330
33
100
AcDbEntity
  8
1
  6
Continuous
 62
     7
100
AcDbCircle
 10
-210.59643114908
 20
233.9555549974459
 30
0.0
 40
4.7625
100
AcDbArc
 50
147.607706008096
 51
172.171586313562
  0
ARC
  5
BE
330
33
100
AcDbEntity
  8
1
  6
Continuous
 62
     7
100
AcDbCircle
 10
-210.59643114908
 20
233.9555549974459
 30
0.0
 40
4.762500000001
100
AcDbArc
 50
-26.252135548925
 51
-6.882763323154
  0
ARC
  5
BD
330
33
100
AcDbEntity
  8
1
  6
Continuous
 62
     7
100
AcDbCircle
 10
-205.2928618869219
 20
223.720130945521
 30
0.0
 40
4.7625
100
AcDbArc
 50
61.66537201879699
 51
81.034744244558
  0
ARC
  5
BC
330
33
100
AcDbEntity
  8
1
  6
Continuous
 62
     7
100
AcDbCircle
 10
-205.2928618869219
 20
223.720130945521
 30
0.0
 40
4.7625
100
AcDbArc
 50
-117.3889776178969
 51
-92.825097312439
  0
ARC
  5
BB
330
33
100
AcDbEntity
  8
1
  6
Continuous
 62
     7
100
AcDbCircle
 10
-205.2928618869219
 20
223.720130945521
 30
0.0
 40
4.7625
100
AcDbArc
 50
163.259879921126
 51
-172.176239773411
  0
ARC
  5
BA
330
33
100
AcDbEntity
  8
1
  6
Continuous
 62
     7
100
AcDbCircle
 10
-205.2928618869219
 20
223.720130945521
 30
0.0
 40
4.7625
100
AcDbArc
 50
-10.599961635865
 51
8.769410589894
  0
ARC
  5
B9
330
33
100
AcDbEntity
  8
1
  6
Continuous
 62
     7
100
AcDbCircle
 10
-197.4244789991109
 20
215.295150045126
 30
0.0
 40
4.762500000001
100
AcDbArc
 50
77.317545931851
 51
96.68691815760599
  0
ARC
  5
B8
330
33
100
AcDbEntity
  8
1
  6
Continuous
 62
     7
100
AcDbCircle
 10
-197.4244789991109
 20
215.295150045126
 30
0.0
 40
4.7625
100
AcDbArc
 50
-101.7368037048469
 51
-77.172923399397
  0
ARC
  5
B7
330
33
100
AcDbEntity
  8
1
  6
Continuous
 62
     7
100
AcDbCircle
 10
-197.4244789991109
 20
215.295150045126
 30
0.0
 40
4.7625
100
AcDbArc
 50
178.912053834173
 51
-156.52406586036
  0
ARC
  5
B6
330
33
100
AcDbEntity
  8
1
  6
Continuous
 62
     7
100
AcDbCircle
 10
-197.4244789991109
 20
215.295150045126
 30
0.0
 40
4.7625
100
AcDbArc
 50
5.052212277189
 51
24.421584502933
  0
ARC
  5
B5
330
33
100
AcDbEntity
  8
1
  6
Continuous
 62
     7
100
AcDbCircle
 10
-187.57484444898
 20
209.305454587919
 30
0.0
 40
4.7625
100
AcDbArc
 50
92.969719844895
 51
112.339092070659
  0
ARC
  5
B4
330
33
100
AcDbEntity
  8
1
  6
Continuous
 62
     7
100
AcDbCircle
 10
-187.57484444898
 20
209.305454587919
 30
0.0
 40
4.762499999999
100
AcDbArc
 50
-86.08462979180702
 51
-61.520749486361
  0
ARC
  5
B3
330
33
100
AcDbEntity
  8
1
  6
Continuous
 62
     7
100
AcDbCircle
 10
-187.57484444898
 20
209.305454587919
 30
0.0
 40
4.7625
100
AcDbArc
 50
-165.435772252773
 51
-140.8718919473189
  0
ARC
  5
B2
330
33
100
AcDbEntity
  8
1
  6
Continuous
 62
     7
100
AcDbCircle
 10
-187.57484444898
 20
209.305454587919
 30
0.0
 40
4.7625
100
AcDbArc
 50
20.704386190219
 51
40.07375841599499
  0
ARC
  5
B1
330
33
100
AcDbEntity
  8
1
  6
Continuous
 62
     7
100
AcDbCircle
 10
-176.474460572033
 20
206.195272884927
 30
0.0
 40
4.762500000001
100
AcDbArc
 50
108.621893757921
 51
127.991265983689
  0
ARC
  5
B0
330
33
100
AcDbEntity
  8
1
  6
Continuous
 62
     7
100
AcDbCircle
 10
-176.474460572033
 20
206.195272884927
 30
0.0
 40
4.7625
100
AcDbArc
 50
-70.43245587875699
 51
-45.868575573303
  0
ARC
  5
AF
330
33
100
AcDbEntity
  8
1
  6
Continuous
 62
     7
100
AcDbCircle
 10
-176.474460572033
 20
206.195272884927
 30
0.0
 40
4.7625
100
AcDbArc
 50
-149.783598339733
 51
-125.219718034275
  0
ARC
  5
AE
330
33
100
AcDbEntity
  8
1
  6
Continuous
 62
     7
100
AcDbCircle
 10
-176.474460572033
 20
206.195272884927
 30
0.0
 40
4.762500000001
100
AcDbArc
 50
36.356560103267
 51
55.725932329028
  0
ARC
  5
AD
330
33
100
AcDbEntity
  8
1
  6
Continuous
 62
     7
100
AcDbCircle
 10
-164.946592059545
 20
206.195272884928
 30
0.0
 40
4.7625
100
AcDbArc
 50
124.274067670972
 51
143.6434398967409
  0
ARC
  5
AC
330
33
100
AcDbEntity
  8
1
  6
Continuous
 62
     7
100
AcDbCircle
 10
-164.946592059545
 20
206.195272884928
 30
0.0
 40
4.762500000001
100
AcDbArc
 50
-54.780281965722
 51
-30.216401660265
  0
ARC
  5
AB
330
33
100
AcDbEntity
  8
1
  6
Continuous
 62
     7
100
AcDbCircle
 10
-164.946592059545
 20
206.195272884928
 30
0.0
 40
4.762499999999
100
AcDbArc
 50
-134.1314244266959
 51
-109.5675441212369
  0
ARC
  5
AA
330
33
100
AcDbEntity
  8
1
  6
Continuous
 62
     7
100
AcDbCircle
 10
-164.946592059545
 20
206.195272884928
 30
0.0
 40
4.7625
100
AcDbArc
 50
52.00873401630399
 51
71.378106242079
  0
ARC
  5
A9
330
33
100
AcDbEntity
  8
1
  6
Continuous
 62
     7
100
AcDbCircle
 10
-153.8462081825979
 20
209.3054545879209
 30
0.0
 40
4.7625
100
AcDbArc
 50
139.9262415840229
 51
159.2956138097789
  0
ARC
  5
A8
330
33
100
AcDbEntity
  8
1
  6
Continuous
 62
     7
100
AcDbCircle
 10
-153.8462081825979
 20
209.3054545879209
 30
0.0
 40
4.7625
100
AcDbArc
 50
-39.128108052687
 51
-14.564227747227
  0
ARC
  5
A7
330
33
100
AcDbEntity
  8
1
  6
Continuous
 62
     7
100
AcDbCircle
 10
-153.8462081825979
 20
209.3054545879209
 30
0.0
 40
4.762499999999
100
AcDbArc
 50
-118.4792505136429
 51
-93.915370208192
  0
ARC
  5
A6
330
33
100
AcDbEntity
  8
1
  6
Continuous
 62
     7
100
AcDbCircle
 10
-153.8462081825979
 20
209.3054545879209
 30
0.0
 40
4.762499999999
100
AcDbArc
 50
67.66090792935199
 51
87.030280155116
  0
ARC
  5
A5
330
33
100
AcDbEntity
  8
1
  6
Continuous
 62
     7
100
AcDbCircle
 10
-143.996573632468
 20
215.2951500451279
 30
0.0
 40
4.7625
100
AcDbArc
 50
155.578415497069
 51
174.947787722823
  0
ARC
  5
A4
330
33
100
AcDbEntity
  8
1
  6
Continuous
 62
     7
100
AcDbCircle
 10
-143.996573632468
 20
215.2951500451279
 30
0.0
 40
4.762500000001
100
AcDbArc
 50
-23.475934139624
 51
1.087946165826999
  0
ARC
  5
A3
330
33
100
AcDbEntity
  8
1
  6
Continuous
 62
     7
100
AcDbCircle
 10
-143.996573632468
 20
215.2951500451279
 30
0.0
 40
4.7625
100
AcDbArc
 50
-102.827076600592
 51
-78.26319629513699
  0
ARC
  5
A2
330
33
100
AcDbEntity
  8
1
  6
Continuous
 62
     7
100
AcDbCircle
 10
-143.996573632468
 20
215.2951500451279
 30
0.0
 40
4.7625
100
AcDbArc
 50
83.31308184239402
 51
102.682454068163
  0
ARC
  5
A1
330
33
100
AcDbEntity
  8
1
  6
Continuous
 62
     7
100
AcDbCircle
 10
-136.1281907446579
 20
223.7201309455239
 30
0.0
 40
4.7625
100
AcDbArc
 50
171.230589410105
 51
-169.400038364134
  0
ARC
  5
A0
330
33
100
AcDbEntity
  8
1
  6
Continuous
 62
     7
100
AcDbCircle
 10
-136.1281907446579
 20
223.7201309455239
 30
0.0
 40
4.762500000001
100
AcDbArc
 50
-7.823760226598
 51
16.740120078874
  0
ARC
  5
9F
330
33
100
AcDbEntity
  8
1
  6
Continuous
 62
     7
100
AcDbCircle
 10
-136.1281907446579
 20
223.7201309455239
 30
0.0
 40
4.762499999999
100
AcDbArc
 50
-87.17490268754801
 51
-62.61102238209601
  0
ARC
  5
9E
330
33
100
AcDbEntity
  8
1
  6
Continuous
 62
     7
100
AcDbCircle
 10
-136.1281907446579
 20
223.7201309455239
 30
0.0
 40
4.762500000001
100
AcDbArc
 50
98.965255755427
 51
118.3346279812009
  0
ARC
  5
9D
330
33
100
AcDbEntity
  8
1
  6
Continuous
 62
     7
100
AcDbCircle
 10
-130.8246214825
 20
233.9555549974489
 30
0.0
 40
4.762500000001
100
AcDbArc
 50
-173.117236676845
 51
-153.747864451086
  0
ARC
  5
9C
330
33
100
AcDbEntity
  8
1
  6
Continuous
 62
     7
100
AcDbCircle
 10
-130.8246214825
 20
233.9555549974489
 30
0.0
 40
4.7625
100
AcDbArc
 50
7.82841368644
 51
32.392293991902
  0
ARC
  5
9B
330
33
100
AcDbEntity
  8
1
  6
Continuous
 62
     7
100
AcDbCircle
 10
-130.8246214825
 20
233.9555549974489
 30
0.0
 40
4.762500000001
100
AcDbArc
 50
-71.52272877451899
 51
-46.958848469052
  0
ARC
  5
9A
330
33
100
AcDbEntity
  8
1
  6
Continuous
 62
     7
100
AcDbCircle
 10
-130.8246214825
 20
233.9555549974489
 30
0.0
 40
4.7625
100
AcDbArc
 50
114.617429668487
 51
133.986801894243
  0
ARC
  5
99
330
33
100
AcDbEntity
  8
1
  6
Continuous
 62
     7
100
AcDbCircle
 10
-128.4792073159539
 20
245.242307622921
 30
0.0
 40
4.762500000001
100
AcDbArc
 50
-157.465062763807
 51
-138.095690538029
  0
ARC
  5
98
330
33
100
AcDbEntity
  8
1
  6
Continuous
 62
     7
100
AcDbCircle
 10
-128.4792073159539
 20
245.242307622921
 30
0.0
 40
4.762499999999
100
AcDbArc
 50
23.480587599478
 51
48.044467904946
  0
ARC
  5
97
330
33
100
AcDbEntity
  8
1
  6
Continuous
 62
     7
100
AcDbCircle
 10
-128.4792073159539
 20
245.242307622921
 30
0.0
 40
4.762500000001
100
AcDbArc
 50
-55.870554861482
 51
-31.30667455603
  0
ARC
  5
96
330
33
100
AcDbEntity
  8
1
  6
Continuous
 62
     7
100
AcDbCircle
 10
-128.4792073159539
 20
245.242307622921
 30
0.0
 40
4.7625
100
AcDbArc
 50
130.269603581527
 51
149.6389758072969
  0
ARC
  5
95
330
33
100
AcDbEntity
  8
1
  6
Continuous
 62
     7
100
AcDbCircle
 10
-129.265896884197
 20
256.743302013164
 30
0.0
 40
4.762500000001
100
AcDbArc
 50
-141.8128888507609
 51
-122.443516625002
  0
ARC
  5
94
330
33
100
AcDbEntity
  8
1
  6
Continuous
 62
     7
100
AcDbCircle
 10
-129.265896884197
 20
256.743302013164
 30
0.0
 40
4.762499999999
100
AcDbArc
 50
39.13276151253599
 51
63.696641817989
  0
ARC
  5
93
330
33
100
AcDbEntity
  8
1
  6
Continuous
 62
     7
100
AcDbCircle
 10
-129.265896884197
 20
256.743302013164
 30
0.0
 40
4.762499999999
100
AcDbArc
 50
-40.21838094842499
 51
-15.654500642962
  0
ARC
  5
92
330
33
100
AcDbEntity
  8
1
  6
Continuous
 62
     7
100
AcDbCircle
 10
-129.265896884197
 20
256.743302013164
 30
0.0
 40
4.762500000001
100
AcDbArc
 50
145.9217774945529
 51
165.2911497203309
  0
ARC
  5
91
330
33
100
AcDbEntity
  8
1
  6
Continuous
 62
     7
100
AcDbCircle
 10
-133.126345020818
 20
267.6055620278049
 30
0.0
 40
4.762499999999
100
AcDbArc
 50
-126.160714937726
 51
-106.7913427119499
  0
ARC
  5
90
330
33
100
AcDbEntity
  8
1
  6
Continuous
 62
     7
100
AcDbCircle
 10
-133.126345020818
 20
267.6055620278049
 30
0.0
 40
4.762500000001
100
AcDbArc
 50
54.784935425586
 51
79.348815731035
  0
ARC
  5
8F
330
33
100
AcDbEntity
  8
1
  6
Continuous
 62
     7
100
AcDbCircle
 10
-133.126345020818
 20
267.6055620278049
 30
0.0
 40
4.762500000001
100
AcDbArc
 50
-24.566207035366
 51
-0.002326729922
  0
ARC
  5
8E
330
33
100
AcDbEntity
  8
1
  6
Continuous
 62
     7
100
AcDbCircle
 10
-133.126345020818
 20
267.6055620278049
 30
0.0
 40
4.762499999999
100
AcDbArc
 50
161.573951407595
 51
-179.0566763666389
  0
ARC
  5
8D
330
33
100
AcDbEntity
  8
1
  6
Continuous
 62
     7
100
AcDbCircle
 10
-139.7742399478969
 20
277.023483533091
 30
0.0
 40
4.7625
100
AcDbArc
 50
-110.5085410246769
 51
-91.13916879891501
  0
ARC
  5
8C
330
33
100
AcDbEntity
  8
1
  6
Continuous
 62
     7
100
AcDbCircle
 10
-139.7742399478969
 20
277.023483533091
 30
0.0
 40
4.762500000001
100
AcDbArc
 50
70.437109338636
 51
95.000989644083
  0
ARC
  5
8B
330
33
100
AcDbEntity
  8
1
  6
Continuous
 62
     7
100
AcDbCircle
 10
-139.7742399478969
 20
277.023483533091
 30
0.0
 40
4.7625
100
AcDbArc
 50
-8.914033122328
 51
15.64984718312
  0
ARC
  5
8A
330
33
100
AcDbEntity
  8
1
  6
Continuous
 62
     7
100
AcDbCircle
 10
-139.7742399478969
 20
277.023483533091
 30
0.0
 40
4.7625
100
AcDbArc
 50
177.2261253206449
 51
-163.4045024535869
  0
ARC
  5
89
330
33
100
AcDbEntity
  8
1
  6
Continuous
 62
     7
100
AcDbCircle
 10
-148.7165377107899
 20
284.298582375098
 30
0.0
 40
4.762499999999
100
AcDbArc
 50
-94.856367111633
 51
-75.486994885873
  0
ARC
  5
88
330
33
100
AcDbEntity
  8
1
  6
Continuous
 62
     7
100
AcDbCircle
 10
-148.7165377107899
 20
284.298582375098
 30
0.0
 40
4.762500000001999
100
AcDbArc
 50
86.089283251666
 51
110.65316355712
  0
ARC
  5
87
330
33
100
AcDbEntity
  8
1
  6
Continuous
 62
     7
100
AcDbCircle
 10
-148.7165377107899
 20
284.298582375098
 30
0.0
 40
4.7625
100
AcDbArc
 50
6.738140790719
 51
31.302021096162
  0
ARC
  5
86
330
33
100
AcDbEntity
  8
1
  6
Continuous
 62
     7
100
AcDbCircle
 10
-148.7165377107899
 20
284.298582375098
 30
0.0
 40
4.7625
100
AcDbArc
 50
-167.121700766301
 51
-147.752328540549
  0
ARC
  5
85
330
33
100
AcDbEntity
  8
1
  6
Continuous
 62
     7
100
AcDbCircle
 10
-159.2900289927129
 20
288.891297754079
 30
0.0
 40
4.7625
100
AcDbArc
 50
-79.204193198594
 51
-59.834820972841
  0
ARC
  5
84
330
33
100
AcDbEntity
  8
1
  6
Continuous
 62
     7
100
AcDbCircle
 10
-159.2900289927129
 20
288.891297754079
 30
0.0
 40
4.7625
100
AcDbArc
 50
101.741457164715
 51
126.305337470168
  0
ARC
  5
83
330
33
100
AcDbEntity
  8
1
  6
Continuous
 62
     7
100
AcDbCircle
 10
-159.2900289927129
 20
288.891297754079
 30
0.0
 40
4.7625
100
AcDbArc
 50
22.390314703742
 51
46.95419500919999
  0
ARC
  5
82
330
33
100
AcDbEntity
  8
1
  6
Continuous
 62
     7
100
AcDbCircle
 10
-159.2900289927129
 20
288.891297754079
 30
0.0
 40
4.7625
100
AcDbArc
 50
-151.4695268532619
 51
-132.1001546274889
  0
ARC
  5
81
330
33
100
AcDbEntity
  8
1
  6
Continuous
 62
     7
100
AcDbCircle
 10
-170.71052631579
 20
290.4610089806459
 30
0.0
 40
4.7625
100
AcDbArc
 50
-63.552019285545
 51
-44.18264705979299
  0
ARC
  5
80
330
33
100
AcDbEntity
  8
1
  6
Continuous
 62
     7
100
AcDbCircle
 10
-170.71052631579
 20
290.4610089806459
 30
0.0
 40
4.7625
100
AcDbArc
 50
117.3936310777569
 51
141.9575113832159
  0
ARC
  5
7F
330
33
100
AcDbEntity
  8
1
  6
Continuous
 62
     7
100
AcDbCircle
 10
-170.71052631579
 20
290.4610089806459
 30
0.0
 40
4.7625
100
AcDbArc
 50
38.04248861678299
 51
62.60636892224201
  0
ARC
  5
7E
330
33
100
AcDbEntity
  8
1
  6
Continuous
 62
     7
100
AcDbCircle
 10
-170.71052631579
 20
290.4610089806459
 30
0.0
 40
4.762500000001
100
AcDbArc
 50
-135.817352940206
 51
-116.447980714454
  0
ARC
  5
7D
330
33
100
AcDbEntity
  8
1
  6
Continuous
 62
     7
100
AcDbCircle
 10
-170.71052631579
 20
248.131008980646
 30
0.0
 40
49.0855
100
AcDbArc
 50
0.0
 51
121.008987531907
  0
ARC
  5
7C
330
33
100
AcDbEntity
  8
1
  6
Continuous
 62
     7
100
AcDbCircle
 10
-170.71052631579
 20
248.131008980646
 30
0.0
 40
49.0855
100
AcDbArc
 50
121.008987531907
 51
0.0
  0
ARC
  5
7B
330
33
100
AcDbEntity
  8
1
  6
Continuous
 62
     7
100
AcDbCircle
 10
-170.71052631579
 20
248.131008980646
 30
0.0
 40
46.61
100
AcDbArc
 50
0.0
 51
122.8562935937179
  0
ARC
  5
7A
330
33
100
AcDbEntity
  8
1
  6
Continuous
 62
     7
100
AcDbCircle
 10
-170.71052631579
 20
248.131008980646
 30
0.0
 40
46.609999999999
100
AcDbArc
 50
122.8562935937179
 51
0.0
  0
ARC
  5
79
330
33
100
AcDbEntity
  8
1
  6
Continuous
 62
     7
100
AcDbCircle
 10
-170.71052631579
 20
248.131008980646
 30
0.0
 40
38.125
100
AcDbArc
 50
0.0
 51
131.5504082091109
  0
ARC
  5
78
330
33
100
AcDbEntity
  8
1
  6
Continuous
 62
     7
100
AcDbCircle
 10
-170.71052631579
 20
248.131008980646
 30
0.0
 40
38.125
100
AcDbArc
 50
131.5504082091109
 51
0.0
  0
ARC
  5
77
330
33
100
AcDbEntity
  8
1
  6
Continuous
 62
     7
100
AcDbCircle
 10
-170.71052631579
 20
248.131008980646
 30
0.0
 40
35.56
100
AcDbArc
 50
0.0
 51
135.326283957019
  0
ARC
  5
76
330
33
100
AcDbEntity
  8
1
  6
Continuous
 62
     7
100
AcDbCircle
 10
-170.71052631579
 20
248.131008980646
 30
0.0
 40
35.56
100
AcDbArc
 50
135.326283957019
 51
0.0
  0
ENDBLK
  5
DC
330
33
100
AcDbEntity
  8
0
100
AcDbBlockEnd
  0
BLOCK
  5
36
330
35
100
AcDbEntity
  8
0
100
AcDbBlockBegin
  2
CRB
 70
     0
 10
0.0
 20
0.0
 30
0.0
  3
CRB
  1

  0
LINE
  5
178
330
35
100
AcDbEntity
  8
1
  6
Continuous
 62
     7
100
AcDbLine
 10
-333.3762871926759
 20
248.131008980646
 30
0.0
 11
-334.5780084307319
 21
246.131008980646
 31
0.0
  0
LINE
  5
177
330
35
100
AcDbEntity
  8
1
  6
Continuous
 62
     7
100
AcDbLine
 10
-333.3762871926759
 20
248.131008980646
 30
0.0
 11
-334.5780084307319
 21
250.131008980646
 31
0.0
  0
LINE
  5
176
330
35
100
AcDbEntity
  8
1
  6
Continuous
 62
     7
100
AcDbLine
 10
-326.978008430732
 20
246.131008980646
 30
0.0
 11
-328.1797296687869
 21
248.131008980646
 31
0.0
  0
LINE
  5
175
330
35
100
AcDbEntity
  8
1
  6
Continuous
 62
     7
100
AcDbLine
 10
-326.978008430732
 20
250.131008980646
 30
0.0
 11
-328.1797296687869
 21
248.131008980646
 31
0.0
  0
LINE
  5
174
330
35
100
AcDbEntity
  8
1
  6
Continuous
 62
     7
100
AcDbLine
 10
-334.5780084307319
 20
266.131008980646
 30
0.0
 11
-334.5780084307319
 21
248.131008980646
 31
0.0
  0
LINE
  5
173
330
35
100
AcDbEntity
  8
1
  6
Continuous
 62
     7
100
AcDbLine
 10
-326.978008430732
 20
234.131008980646
 30
0.0
 11
-326.978008430732
 21
262.131008980646
 31
0.0
  0
LINE
  5
172
330
35
100
AcDbEntity
  8
1
  6
Continuous
 62
     7
100
AcDbLine
 10
-325.978008430732
 20
264.131008980646
 30
0.0
 11
-325.978008430732
 21
248.131008980646
 31
0.0
  0
LINE
  5
171
330
35
100
AcDbEntity
  8
1
  6
Continuous
 62
     7
100
AcDbLine
 10
-326.978008430732
 20
234.131008980646
 30
0.0
 11
-325.978008430732
 21
234.131008980646
 31
0.0
  0
LINE
  5
170
330
35
100
AcDbEntity
  8
1
  6
Continuous
 62
     7
100
AcDbLine
 10
-325.978008430732
 20
262.131008980646
 30
0.0
 11
-326.978008430732
 21
262.131008980646
 31
0.0
  0
LINE
  5
16F
330
35
100
AcDbEntity
  8
1
  6
Continuous
 62
     7
100
AcDbLine
 10
-315.877984382998
 20
193.3310089806449
 30
0.0
 11
-315.8779319141739
 21
193.3310089806449
 31
0.0
  0
LINE
  5
16E
330
35
100
AcDbEntity
  8
1
  6
Continuous
 62
     7
100
AcDbLine
 10
-317.2279319219049
 20
193.33111679743
 30
0.0
 11
-317.227931914497
 21
193.3310089806449
 31
0.0
  0
LINE
  5
16D
330
35
100
AcDbEntity
  8
1
  6
Continuous
 62
     7
100
AcDbLine
 10
-315.877984382998
 20
193.3310089806449
 30
0.0
 11
-315.8779319141739
 21
193.3310089806449
 31
0.0
  0
LINE
  5
16C
330
35
100
AcDbEntity
  8
1
  6
Continuous
 62
     7
100
AcDbLine
 10
-311.478008430732
 20
302.931008980646
 30
0.0
 11
-315.8780084307319
 21
302.931008980646
 31
0.0
  0
LINE
  5
16B
330
35
100
AcDbEntity
  8
1
  6
Continuous
 62
     7
100
AcDbLine
 10
-315.878079482265
 20
302.931008980646
 30
0.0
 11
-315.87809732362
 21
302.931008980646
 31
0.0
  0
LINE
  5
16A
330
35
100
AcDbEntity
  8
1
  6
Continuous
 62
     7
100
AcDbLine
 10
-323.628008430732
 20
195.3884089806459
 30
0.0
 11
-323.628008430732
 21
196.388368293526
 31
0.0
  0
LINE
  5
169
330
35
100
AcDbEntity
  8
1
  6
Continuous
 62
     7
100
AcDbLine
 10
-315.8780084307319
 20
296.631008980646
 30
0.0
 11
-320.385367743612
 21
296.631008980646
 31
0.0
  0
LINE
  5
168
330
35
100
AcDbEntity
  8
1
  6
Continuous
 62
     7
100
AcDbLine
 10
-323.628008430732
 20
300.873608980647
 30
0.0
 11
-323.628008430732
 21
299.873649667765
 31
0.0
  0
LINE
  5
167
330
35
100
AcDbEntity
  8
1
  6
Continuous
 62
     7
100
AcDbLine
 10
-340.5780084307319
 20
204.131008980646
 30
0.0
 11
-339.578008430732
 21
203.1310089806459
 31
0.0
  0
LINE
  5
166
330
35
100
AcDbEntity
  8
1
  6
Continuous
 62
     7
100
AcDbLine
 10
-339.578008430732
 20
293.131008980646
 30
0.0
 11
-340.5780084307319
 21
292.131008980646
 31
0.0
  0
LINE
  5
165
330
35
100
AcDbEntity
  8
1
  6
Continuous
 62
     7
100
AcDbLine
 10
-319.8853677436119
 20
296.131008980646
 30
0.0
 11
-324.1280084307319
 21
300.373649667765
 31
0.0
  0
LINE
  5
164
330
35
100
AcDbEntity
  8
1
  6
Continuous
 62
     7
100
AcDbLine
 10
-324.1280084307319
 20
300.373649667765
 30
0.0
 11
-328.370649117852
 21
296.131008980646
 31
0.0
  0
LINE
  5
163
330
35
100
AcDbEntity
  8
1
  6
Continuous
 62
     7
100
AcDbLine
 10
-328.370649117852
 20
296.131008980646
 30
0.0
 11
-324.1280084307319
 21
291.8883682935259
 31
0.0
  0
LINE
  5
162
330
35
100
AcDbEntity
  8
1
  6
Continuous
 62
     7
100
AcDbLine
 10
-324.1280084307319
 20
291.8883682935259
 30
0.0
 11
-319.8853677436119
 21
296.131008980646
 31
0.0
  0
LINE
  5
161
330
35
100
AcDbEntity
  8
1
  6
Continuous
 62
     7
100
AcDbLine
 10
-324.6280084307319
 20
299.873649667765
 30
0.0
 11
-324.6280084307319
 21
300.8736089806459
 31
0.0
  0
LINE
  5
160
330
35
100
AcDbEntity
  8
1
  6
Continuous
 62
     7
100
AcDbLine
 10
-324.6280084307319
 20
300.8736089806459
 30
0.0
 11
-323.628008430732
 21
300.873608980647
 31
0.0
  0
LINE
  5
15F
330
35
100
AcDbEntity
  8
1
  6
Continuous
 62
     7
100
AcDbLine
 10
-323.628008430732
 20
292.388368293526
 30
0.0
 11
-323.628008430732
 21
291.388368293526
 31
0.0
  0
LINE
  5
15E
330
35
100
AcDbEntity
  8
1
  6
Continuous
 62
     7
100
AcDbLine
 10
-323.628008430732
 20
291.388368293526
 30
0.0
 11
-324.6280084307319
 21
291.388368293526
 31
0.0
  0
LINE
  5
15D
330
35
100
AcDbEntity
  8
1
  6
Continuous
 62
     7
100
AcDbLine
 10
-324.6280084307319
 20
291.388368293526
 30
0.0
 11
-324.6280084307319
 21
292.388368293526
 31
0.0
  0
LINE
  5
15C
330
35
100
AcDbEntity
  8
1
  6
Continuous
 62
     7
100
AcDbLine
 10
-339.278008430732
 20
311.131008980646
 30
0.0
 11
-311.778008430732
 21
311.131008980646
 31
0.0
  0
LINE
  5
15B
330
35
100
AcDbEntity
  8
1
  6
Continuous
 62
     7
100
AcDbLine
 10
-320.385367743612
 20
295.631008980646
 30
0.0
 11
-315.978008430732
 21
295.631008980646
 31
0.0
  0
LINE
  5
15A
330
35
100
AcDbEntity
  8
1
  6
Continuous
 62
     7
100
AcDbLine
 10
-327.870649117852
 20
295.631008980646
 30
0.0
 11
-332.278008430732
 21
295.631008980646
 31
0.0
  0
LINE
  5
159
330
35
100
AcDbEntity
  8
1
  6
Continuous
 62
     7
100
AcDbLine
 10
-332.8780084307319
 20
296.631008980646
 30
0.0
 11
-327.870649117852
 21
296.631008980646
 31
0.0
  0
LINE
  5
158
330
35
100
AcDbEntity
  8
1
  6
Continuous
 62
     7
100
AcDbLine
 10
-333.078008430732
 20
293.131008980646
 30
0.0
 11
-333.078008430732
 21
300.631008980646
 31
0.0
  0
LINE
  5
157
330
35
100
AcDbEntity
  8
1
  6
Continuous
 62
     7
100
AcDbLine
 10
-332.8780084307319
 20
300.631008980646
 30
0.0
 11
-339.578008430732
 21
300.631008980646
 31
0.0
  0
LINE
  5
156
330
35
100
AcDbEntity
  8
1
  6
Continuous
 62
     7
100
AcDbLine
 10
-339.0780084307319
 20
300.631008980646
 30
0.0
 11
-339.0780084307319
 21
293.131008980646
 31
0.0
  0
LINE
  5
155
330
35
100
AcDbEntity
  8
1
  6
Continuous
 62
     7
100
AcDbLine
 10
-339.578008430732
 20
293.131008980646
 30
0.0
 11
-332.278008430732
 21
293.131008980646
 31
0.0
  0
LINE
  5
154
330
35
100
AcDbEntity
  8
1
  6
Continuous
 62
     7
100
AcDbLine
 10
-319.8853677436119
 20
200.131008980646
 30
0.0
 11
-324.1280084307319
 21
204.373649667765
 31
0.0
  0
LINE
  5
153
330
35
100
AcDbEntity
  8
1
  6
Continuous
 62
     7
100
AcDbLine
 10
-323.628008430732
 20
204.873649667765
 30
0.0
 11
-323.628008430732
 21
203.8736496677649
 31
0.0
  0
LINE
  5
152
330
35
100
AcDbEntity
  8
1
  6
Continuous
 62
     7
100
AcDbLine
 10
-324.6280084307319
 20
204.873649667765
 30
0.0
 11
-323.628008430732
 21
204.873649667765
 31
0.0
  0
LINE
  5
151
330
35
100
AcDbEntity
  8
1
  6
Continuous
 62
     7
100
AcDbLine
 10
-324.6280084307319
 20
203.8736496677649
 30
0.0
 11
-324.6280084307319
 21
204.873649667765
 31
0.0
  0
LINE
  5
150
330
35
100
AcDbEntity
  8
1
  6
Continuous
 62
     7
100
AcDbLine
 10
-324.1280084307319
 20
204.373649667765
 30
0.0
 11
-328.370649117852
 21
200.131008980646
 31
0.0
  0
LINE
  5
14F
330
35
100
AcDbEntity
  8
1
  6
Continuous
 62
     7
100
AcDbLine
 10
-328.370649117852
 20
200.131008980646
 30
0.0
 11
-324.1280084307319
 21
195.888368293526
 31
0.0
  0
LINE
  5
14E
330
35
100
AcDbEntity
  8
1
  6
Continuous
 62
     7
100
AcDbLine
 10
-324.1280084307319
 20
195.888368293526
 30
0.0
 11
-319.8853677436119
 21
200.131008980646
 31
0.0
  0
LINE
  5
14D
330
35
100
AcDbEntity
  8
1
  6
Continuous
 62
     7
100
AcDbLine
 10
-333.078008430732
 20
195.631008980646
 30
0.0
 11
-333.078008430732
 21
203.1310089806459
 31
0.0
  0
LINE
  5
14C
330
35
100
AcDbEntity
  8
1
  6
Continuous
 62
     7
100
AcDbLine
 10
-339.578008430732
 20
195.631008980646
 30
0.0
 11
-332.8780084307319
 21
195.631008980646
 31
0.0
  0
LINE
  5
14B
330
35
100
AcDbEntity
  8
1
  6
Continuous
 62
     7
100
AcDbLine
 10
-339.0780084307319
 20
203.1310089806459
 30
0.0
 11
-339.0780084307319
 21
195.631008980646
 31
0.0
  0
LINE
  5
14A
330
35
100
AcDbEntity
  8
1
  6
Continuous
 62
     7
100
AcDbLine
 10
-332.278008430732
 20
203.1310089806459
 30
0.0
 11
-339.578008430732
 21
203.1310089806459
 31
0.0
  0
LINE
  5
149
330
35
100
AcDbEntity
  8
1
  6
Continuous
 62
     7
100
AcDbLine
 10
-311.778008430732
 20
185.131008980646
 30
0.0
 11
-339.278008430732
 21
185.131008980646
 31
0.0
  0
LINE
  5
148
330
35
100
AcDbEntity
  8
1
  6
Continuous
 62
     7
100
AcDbLine
 10
-324.6280084307319
 20
195.3884089806459
 30
0.0
 11
-324.6280084307319
 21
196.388368293526
 31
0.0
  0
LINE
  5
147
330
35
100
AcDbEntity
  8
1
  6
Continuous
 62
     7
100
AcDbLine
 10
-323.628008430732
 20
195.3884089806459
 30
0.0
 11
-324.6280084307319
 21
195.3884089806459
 31
0.0
  0
LINE
  5
146
330
35
100
AcDbEntity
  8
1
  6
Continuous
 62
     7
100
AcDbLine
 10
-332.278008430732
 20
200.631008980646
 30
0.0
 11
-327.870649117852
 21
200.631008980646
 31
0.0
  0
LINE
  5
145
330
35
100
AcDbEntity
  8
1
  6
Continuous
 62
     7
100
AcDbLine
 10
-327.870649117852
 20
199.631008980646
 30
0.0
 11
-332.8780084307319
 21
199.631008980646
 31
0.0
  0
LINE
  5
144
330
35
100
AcDbEntity
  8
1
  6
Continuous
 62
     7
100
AcDbLine
 10
-320.385367743612
 20
199.631008980646
 30
0.0
 11
-315.8780084307319
 21
199.631008980646
 31
0.0
  0
LINE
  5
143
330
35
100
AcDbEntity
  8
1
  6
Continuous
 62
     7
100
AcDbLine
 10
-315.978008430732
 20
200.631008980646
 30
0.0
 11
-320.385367743612
 21
200.631008980646
 31
0.0
  0
LINE
  5
142
330
35
100
AcDbEntity
  8
1
  6
Continuous
 62
     7
100
AcDbLine
 10
-315.8780206323549
 20
268.131008980646
 30
0.0
 11
-315.8780206319629
 21
268.131008980646
 31
0.0
  0
LINE
  5
141
330
35
100
AcDbEntity
  8
0
  6
Continuous
 62
     7
100
AcDbLine
 10
-315.9780084307649
 20
264.131008980646
 30
0.0
 11
-315.978008430732
 21
264.131008980646
 31
0.0
  0
LINE
  5
140
330
35
100
AcDbEntity
  8
1
  6
Continuous
 62
     7
100
AcDbLine
 10
-340.5780084307319
 20
204.131008980646
 30
0.0
 11
-340.5780084307319
 21
248.131008980646
 31
0.0
  0
LINE
  5
13F
330
35
100
AcDbEntity
  8
1
  6
Continuous
 62
     7
100
AcDbLine
 10
-340.5780084307319
 20
217.131008980646
 30
0.0
 11
-340.5780084307319
 21
216.131008980646
 31
0.0
  0
LINE
  5
13E
330
35
100
AcDbEntity
  8
1
  6
Continuous
 62
     7
100
AcDbLine
 10
-339.578008430732
 20
304.131008980646
 30
0.0
 11
-311.478008430732
 21
304.131008980646
 31
0.0
  0
LINE
  5
13D
330
35
100
AcDbEntity
  8
1
  6
Continuous
 62
     7
100
AcDbLine
 10
-311.478008430732
 20
309.631008980645
 30
0.0
 11
-339.578008430732
 21
309.631008980646
 31
0.0
  0
LINE
  5
13C
330
35
100
AcDbEntity
  8
1
  6
Continuous
 62
     7
100
AcDbLine
 10
-311.478008430732
 20
302.931008980646
 30
0.0
 11
-311.478008430732
 21
310.8310089806459
 31
0.0
  0
LINE
  5
13B
330
35
100
AcDbEntity
  8
1
  6
Continuous
 62
     7
100
AcDbLine
 10
-315.8780084307319
 20
296.631008980646
 30
0.0
 11
-315.8780084307319
 21
302.931008980646
 31
0.0
  0
LINE
  5
13A
330
35
100
AcDbEntity
  8
1
  6
Continuous
 62
     7
100
AcDbLine
 10
-315.978008430732
 20
264.131008980646
 30
0.0
 11
-325.978008430732
 21
264.131008980646
 31
0.0
  0
LINE
  5
139
330
35
100
AcDbEntity
  8
1
  6
Continuous
 62
     7
100
AcDbLine
 10
-315.978002330183
 20
232.131008980646
 30
0.0
 11
-325.978008430732
 21
232.131008980646
 31
0.0
  0
LINE
  5
138
330
35
100
AcDbEntity
  8
1
  6
Continuous
 62
     7
100
AcDbLine
 10
-315.8780084307319
 20
193.3310089806449
 30
0.0
 11
-315.8780084307319
 21
199.631008980646
 31
0.0
  0
LINE
  5
137
330
35
100
AcDbEntity
  8
1
  6
Continuous
 62
     7
100
AcDbLine
 10
-311.478008430732
 20
185.431008980646
 30
0.0
 11
-311.478008430732
 21
188.281008980647
 31
0.0
  0
LINE
  5
136
330
35
100
AcDbEntity
  8
1
  6
Continuous
 62
     7
100
AcDbLine
 10
-315.878027013439
 20
193.3310089806449
 30
0.0
 11
-311.478008430732
 21
193.3310089806449
 31
0.0
  0
LINE
  5
135
330
35
100
AcDbEntity
  8
1
  6
Continuous
 62
     7
100
AcDbLine
 10
-317.2279319219049
 20
193.33111679743
 30
0.0
 11
-317.227931914497
 21
193.3310089806449
 31
0.0
  0
LINE
  5
134
330
35
100
AcDbEntity
  8
1
  6
Continuous
 62
     7
100
AcDbLine
 10
-315.87809732362
 20
193.3310089806449
 30
0.0
 11
-315.878079482265
 21
193.3310089806449
 31
0.0
  0
LINE
  5
133
330
35
100
AcDbEntity
  8
1
  6
Continuous
 62
     7
100
AcDbLine
 10
-311.478008430732
 20
190.481008980646
 30
0.0
 11
-311.478008430732
 21
193.3310089806449
 31
0.0
  0
LINE
  5
132
330
35
100
AcDbEntity
  8
1
  6
Continuous
 62
     7
100
AcDbLine
 10
-319.278008430732
 20
283.881008980646
 30
0.0
 11
-315.978008430732
 21
283.881008980646
 31
0.0
  0
LINE
  5
131
330
35
100
AcDbEntity
  8
1
  6
Continuous
 62
     7
100
AcDbLine
 10
-319.278008430732
 20
285.431008980646
 30
0.0
 11
-324.1280084307319
 21
285.431008980646
 31
0.0
  0
LINE
  5
130
330
35
100
AcDbEntity
  8
1
  6
Continuous
 62
     7
100
AcDbLine
 10
-324.1280084307319
 20
288.831008980647
 30
0.0
 11
-319.278008430732
 21
288.8310089806449
 31
0.0
  0
LINE
  5
12F
330
35
100
AcDbEntity
  8
1
  6
Continuous
 62
     7
100
AcDbLine
 10
-319.278008430732
 20
290.381008980646
 30
0.0
 11
-319.278008430732
 21
283.881008980646
 31
0.0
  0
LINE
  5
12E
330
35
100
AcDbEntity
  8
1
  6
Continuous
 62
     3
100
AcDbLine
 10
-324.1280084307319
 20
285.631008980646
 30
0.0
 11
-332.128008430732
 21
285.631008980646
 31
0.0
  0
LINE
  5
12D
330
35
100
AcDbEntity
  8
1
  6
Continuous
 62
     3
100
AcDbLine
 10
-332.128008430732
 20
285.631008980646
 30
0.0
 11
-332.82082875376
 21
286.031008980646
 31
0.0
  0
LINE
  5
12C
330
35
100
AcDbEntity
  8
1
  6
Continuous
 62
     7
100
AcDbLine
 10
-332.128008430732
 20
285.631008980646
 30
0.0
 11
-332.128008430732
 21
288.631008980646
 31
0.0
  0
LINE
  5
12B
330
35
100
AcDbEntity
  8
1
  6
Continuous
 62
     3
100
AcDbLine
 10
-332.820828753758
 20
288.231008980646
 30
0.0
 11
-332.128008430732
 21
288.631008980646
 31
0.0
  0
LINE
  5
12A
330
35
100
AcDbEntity
  8
1
  6
Continuous
 62
     3
100
AcDbLine
 10
-332.128008430732
 20
288.631008980646
 30
0.0
 11
-324.1280084307319
 21
288.631008980646
 31
0.0
  0
LINE
  5
129
330
35
100
AcDbEntity
  8
1
  6
Continuous
 62
     7
100
AcDbLine
 10
-333.328008430732
 20
286.031008980646
 30
0.0
 11
-333.328008430732
 21
288.231008980646
 31
0.0
  0
LINE
  5
128
330
35
100
AcDbEntity
  8
1
  6
Continuous
 62
     7
100
AcDbLine
 10
-333.328008430732
 20
288.231008980646
 30
0.0
 11
-331.278008430732
 21
288.231008980646
 31
0.0
  0
LINE
  5
127
330
35
100
AcDbEntity
  8
1
  6
Continuous
 62
     7
100
AcDbLine
 10
-333.328008430732
 20
286.031008980646
 30
0.0
 11
-333.963093726841
 21
287.131008980647
 31
0.0
  0
LINE
  5
126
330
35
100
AcDbEntity
  8
1
  6
Continuous
 62
     7
100
AcDbLine
 10
-333.963093726841
 20
287.131008980647
 30
0.0
 11
-333.328008430732
 21
288.231008980646
 31
0.0
  0
LINE
  5
125
330
35
100
AcDbEntity
  8
1
  6
DASH_CENTER
 62
     3
100
AcDbLine
 10
-315.378008430732
 20
287.131008980646
 30
0.0
 11
-334.62082875376
 21
287.131008980646
 31
0.0
  0
LINE
  5
124
330
35
100
AcDbEntity
  8
1
  6
Continuous
 62
     7
100
AcDbLine
 10
-324.1280084307319
 20
291.388368293526
 30
0.0
 11
-324.1280084307319
 21
288.231008980646
 31
0.0
  0
LINE
  5
123
330
35
100
AcDbEntity
  8
1
  6
Continuous
 62
     7
100
AcDbLine
 10
-324.1280084307319
 20
283.231008980646
 30
0.0
 11
-315.978008430732
 21
283.231008980646
 31
0.0
  0
LINE
  5
122
330
35
100
AcDbEntity
  8
1
  6
Continuous
 62
     7
100
AcDbLine
 10
-324.1280084307319
 20
286.031008980646
 30
0.0
 11
-324.1280084307319
 21
283.231008980646
 31
0.0
  0
LINE
  5
121
330
35
100
AcDbEntity
  8
1
  6
Continuous
 62
     7
100
AcDbLine
 10
-334.5780084307319
 20
266.131008980646
 30
0.0
 11
-340.5780084307319
 21
266.131008980646
 31
0.0
  0
LINE
  5
120
330
35
100
AcDbEntity
  8
1
  6
Continuous
 62
     7
100
AcDbLine
 10
-334.5780084307319
 20
230.131008980646
 30
0.0
 11
-340.5780084307319
 21
230.131008980646
 31
0.0
  0
LINE
  5
11F
330
35
100
AcDbEntity
  8
1
  6
Continuous
 62
     3
100
AcDbLine
 10
-311.478008430732
 20
187.881008980646
 30
0.0
 11
-321.478008430732
 21
187.881008980646
 31
0.0
  0
LINE
  5
11E
330
35
100
AcDbEntity
  8
1
  6
Continuous
 62
     3
100
AcDbLine
 10
-321.478008430732
 20
187.881008980646
 30
0.0
 11
-322.1708287537619
 21
188.281008980647
 31
0.0
  0
LINE
  5
11D
330
35
100
AcDbEntity
  8
1
  6
Continuous
 62
     7
100
AcDbLine
 10
-321.478008430732
 20
187.881008980646
 30
0.0
 11
-321.478008430732
 21
190.881008980646
 31
0.0
  0
LINE
  5
11C
330
35
100
AcDbEntity
  8
1
  6
Continuous
 62
     3
100
AcDbLine
 10
-322.1708287537619
 20
190.481008980646
 30
0.0
 11
-321.478008430732
 21
190.881008980646
 31
0.0
  0
LINE
  5
11B
330
35
100
AcDbEntity
  8
1
  6
Continuous
 62
     3
100
AcDbLine
 10
-321.478008430732
 20
190.881008980646
 30
0.0
 11
-311.478008430732
 21
190.881008980646
 31
0.0
  0
LINE
  5
11A
330
35
100
AcDbEntity
  8
1
  6
Continuous
 62
     7
100
AcDbLine
 10
-322.6780084307319
 20
188.281008980647
 30
0.0
 11
-322.6780084307319
 21
190.481008980646
 31
0.0
  0
LINE
  5
119
330
35
100
AcDbEntity
  8
1
  6
Continuous
 62
     7
100
AcDbLine
 10
-322.6780084307319
 20
190.481008980646
 30
0.0
 11
-321.478008430732
 21
190.481008980646
 31
0.0
  0
LINE
  5
118
330
35
100
AcDbEntity
  8
1
  6
Continuous
 62
     7
100
AcDbLine
 10
-322.6780084307319
 20
188.281008980647
 30
0.0
 11
-323.31309372684
 21
189.381008980646
 31
0.0
  0
LINE
  5
117
330
35
100
AcDbEntity
  8
1
  6
Continuous
 62
     7
100
AcDbLine
 10
-323.31309372684
 20
189.381008980646
 30
0.0
 11
-322.6780084307319
 21
190.481008980646
 31
0.0
  0
LINE
  5
116
330
35
100
AcDbEntity
  8
1
  6
Continuous
 62
     3
100
AcDbLine
 10
-340.5780084307319
 20
217.131008980646
 30
0.0
 11
-325.5780084307319
 21
217.131008980646
 31
0.0
  0
LINE
  5
115
330
35
100
AcDbEntity
  8
1
  6
Continuous
 62
     3
100
AcDbLine
 10
-325.5780084307319
 20
217.131008980646
 30
0.0
 11
-323.8459576231629
 21
216.131008980646
 31
0.0
  0
LINE
  5
114
330
35
100
AcDbEntity
  8
1
  6
Continuous
 62
     7
100
AcDbLine
 10
-325.5780084307319
 20
217.131008980646
 30
0.0
 11
-325.5780084307319
 21
207.131008980646
 31
0.0
  0
LINE
  5
113
330
35
100
AcDbEntity
  8
1
  6
Continuous
 62
     3
100
AcDbLine
 10
-323.8459576231629
 20
208.131008980646
 30
0.0
 11
-325.5780084307319
 21
207.131008980646
 31
0.0
  0
LINE
  5
112
330
35
100
AcDbEntity
  8
1
  6
Continuous
 62
     3
100
AcDbLine
 10
-325.5780084307319
 20
207.131008980646
 30
0.0
 11
-340.5780084307319
 21
207.131008980646
 31
0.0
  0
LINE
  5
111
330
35
100
AcDbEntity
  8
1
  6
Continuous
 62
     7
100
AcDbLine
 10
-340.5780084307319
 20
216.131008980646
 30
0.0
 11
-321.5780084307319
 21
216.131008980646
 31
0.0
  0
LINE
  5
110
330
35
100
AcDbEntity
  8
1
  6
Continuous
 62
     7
100
AcDbLine
 10
-321.5780084307319
 20
216.131008980646
 30
0.0
 11
-321.5780084307319
 21
208.131008980646
 31
0.0
  0
LINE
  5
10F
330
35
100
AcDbEntity
  8
1
  6
Continuous
 62
     7
100
AcDbLine
 10
-321.5780084307319
 20
208.131008980646
 30
0.0
 11
-340.5780084307319
 21
208.131008980646
 31
0.0
  0
LINE
  5
10E
330
35
100
AcDbEntity
  8
1
  6
Continuous
 62
     7
100
AcDbLine
 10
-321.5780084307319
 20
216.131008980646
 30
0.0
 11
-319.2686073539729
 21
212.131008980646
 31
0.0
  0
LINE
  5
10D
330
35
100
AcDbEntity
  8
1
  6
Continuous
 62
     7
100
AcDbLine
 10
-319.2686073539729
 20
212.131008980646
 30
0.0
 11
-321.5780084307319
 21
208.131008980646
 31
0.0
  0
LINE
  5
10C
330
35
100
AcDbEntity
  8
1
  6
DASH_CENTER
 62
     3
100
AcDbLine
 10
-342.0780084307319
 20
212.131008980646
 30
0.0
 11
-317.7686073539729
 21
212.131008980646
 31
0.0
  0
LINE
  5
10B
330
35
100
AcDbEntity
  8
1
  6
Continuous
 62
     7
100
AcDbLine
 10
-332.278008430732
 20
293.131008980646
 30
0.0
 11
-332.278008430732
 21
295.631008980646
 31
0.0
  0
LINE
  5
10A
330
35
100
AcDbEntity
  8
1
  6
Continuous
 62
     7
100
AcDbLine
 10
-332.278008430732
 20
203.1310089806459
 30
0.0
 11
-332.278008430732
 21
200.631008980646
 31
0.0
  0
LINE
  5
109
330
35
100
AcDbEntity
  8
1
  6
Continuous
 62
     3
100
AcDbLine
 10
-315.9780084307649
 20
268.131008980646
 30
0.0
 11
-329.878014531281
 21
268.131008980646
 31
0.0
  0
LINE
  5
108
330
35
100
AcDbEntity
  8
1
  6
Continuous
 62
     3
100
AcDbLine
 10
-329.878014531281
 20
268.131008980646
 30
0.0
 11
-331.61006533885
 21
269.131008980646
 31
0.0
  0
LINE
  5
107
330
35
100
AcDbEntity
  8
1
  6
Continuous
 62
     7
100
AcDbLine
 10
-329.878014531281
 20
268.131008980646
 30
0.0
 11
-329.878014531281
 21
276.131008980646
 31
0.0
  0
LINE
  5
106
330
35
100
AcDbEntity
  8
1
  6
Continuous
 62
     3
100
AcDbLine
 10
-331.610065338849
 20
275.131008980646
 30
0.0
 11
-329.878014531281
 21
276.131008980646
 31
0.0
  0
LINE
  5
105
330
35
100
AcDbEntity
  8
1
  6
Continuous
 62
     3
100
AcDbLine
 10
-329.878014531281
 20
276.131008980646
 30
0.0
 11
-315.9780084307649
 21
276.131008980646
 31
0.0
  0
LINE
  5
104
330
35
100
AcDbEntity
  8
1
  6
Continuous
 62
     7
100
AcDbLine
 10
-333.078014531281
 20
269.131008980646
 30
0.0
 11
-333.078014531281
 21
275.131008980646
 31
0.0
  0
LINE
  5
103
330
35
100
AcDbEntity
  8
1
  6
Continuous
 62
     7
100
AcDbLine
 10
-333.078014531281
 20
275.131008980646
 30
0.0
 11
-328.8780145312809
 21
275.131008980646
 31
0.0
  0
LINE
  5
102
330
35
100
AcDbEntity
  8
1
  6
Continuous
 62
     7
100
AcDbLine
 10
-333.078014531281
 20
269.131008980646
 30
0.0
 11
-334.8100653388499
 21
272.131008980646
 31
0.0
  0
LINE
  5
101
330
35
100
AcDbEntity
  8
1
  6
Continuous
 62
     7
100
AcDbLine
 10
-334.8100653388499
 20
272.131008980646
 30
0.0
 11
-333.078014531281
 21
275.131008980646
 31
0.0
  0
LINE
  5
100
330
35
100
AcDbEntity
  8
1
  6
Continuous
 62
     7
100
AcDbLine
 10
-339.0780084307319
 20
300.631008980646
 30
0.0
 11
-335.483237092932
 21
296.1375448083959
 31
0.0
  0
LINE
  5
FF
330
35
100
AcDbEntity
  8
1
  6
Continuous
 62
     7
100
AcDbLine
 10
-335.019960085348
 20
296.508166414463
 30
0.0
 11
-333.078008430732
 21
293.131008980646
 31
0.0
  0
LINE
  5
FE
330
35
100
AcDbEntity
  8
1
  6
Continuous
 62
     7
100
AcDbLine
 10
-333.078008430732
 20
293.131008980646
 30
0.0
 11
-335.946514100516
 21
295.7669232023279
 31
0.0
  0
LINE
  5
FD
330
35
100
AcDbEntity
  8
1
  6
Continuous
 62
     7
100
AcDbLine
 10
-335.946514100516
 20
295.7669232023279
 30
0.0
 11
-335.019960085348
 21
296.508166414463
 31
0.0
  0
LINE
  5
FC
330
35
100
AcDbEntity
  8
1
  6
Continuous
 62
     7
100
AcDbLine
 10
-335.483237092932
 20
200.1244731528959
 30
0.0
 11
-339.0780084307319
 21
195.631008980646
 31
0.0
  0
LINE
  5
FB
330
35
100
AcDbEntity
  8
1
  6
Continuous
 62
     7
100
AcDbLine
 10
-335.019960085348
 20
199.753851546829
 30
0.0
 11
-335.946514100516
 21
200.495094758964
 31
0.0
  0
LINE
  5
FA
330
35
100
AcDbEntity
  8
1
  6
Continuous
 62
     7
100
AcDbLine
 10
-333.078008430732
 20
203.1310089806459
 30
0.0
 11
-335.019960085348
 21
199.753851546829
 31
0.0
  0
LINE
  5
F9
330
35
100
AcDbEntity
  8
1
  6
Continuous
 62
     7
100
AcDbLine
 10
-335.019960085348
 20
199.753851546829
 30
0.0
 11
-335.946514100516
 21
200.495094758964
 31
0.0
  0
LINE
  5
F8
330
35
100
AcDbEntity
  8
1
  6
Continuous
 62
     7
100
AcDbLine
 10
-335.946514100516
 20
200.495094758964
 30
0.0
 11
-333.078008430732
 21
203.1310089806459
 31
0.0
  0
LINE
  5
F7
330
35
100
AcDbEntity
  8
1
  6
Continuous
 62
     7
100
AcDbLine
 10
-339.578008430732
 20
300.631008980646
 30
0.0
 11
-339.578008430732
 21
310.8310089806459
 31
0.0
  0
LINE
  5
F6
330
35
100
AcDbEntity
  8
1
  6
Continuous
 62
     7
100
AcDbLine
 10
-319.278008430732
 20
290.381008980646
 30
0.0
 11
-315.978008430732
 21
290.381008980646
 31
0.0
  0
LINE
  5
F5
330
35
100
AcDbEntity
  8
1
  6
Continuous
 62
     7
100
AcDbLine
 10
-315.978008430732
 20
295.631008980646
 30
0.0
 11
-315.978008430732
 21
275.131008980646
 31
0.0
  0
LINE
  5
F4
330
35
100
AcDbEntity
  8
1
  6
Continuous
 62
     7
100
AcDbLine
 10
-315.978008430732
 20
269.131008980646
 30
0.0
 11
-315.978008430732
 21
248.131008980646
 31
0.0
  0
LINE
  5
F3
330
35
100
AcDbEntity
  8
1
  6
Continuous
 62
     7
100
AcDbLine
 10
-339.578008430732
 20
195.631008980646
 30
0.0
 11
-339.578008430732
 21
185.431008980646
 31
0.0
  0
LINE
  5
F2
330
35
100
AcDbEntity
  8
1
  6
Continuous
 62
     7
100
AcDbLine
 10
-339.0780084307319
 20
293.131008980646
 30
0.0
 11
-337.1360567761169
 21
296.5081664144639
 31
0.0
  0
LINE
  5
F1
330
35
100
AcDbEntity
  8
1
  6
Continuous
 62
     7
100
AcDbLine
 10
-337.1360567761169
 20
296.5081664144639
 30
0.0
 11
-336.209502760948
 21
295.766923202329
 31
0.0
  0
LINE
  5
F0
330
35
100
AcDbEntity
  8
1
  6
Continuous
 62
     7
100
AcDbLine
 10
-336.209502760948
 20
295.766923202329
 30
0.0
 11
-339.0780084307319
 21
293.131008980646
 31
0.0
  0
LINE
  5
EF
330
35
100
AcDbEntity
  8
1
  6
Continuous
 62
     7
100
AcDbLine
 10
-336.0780084307319
 20
296.881008980646
 30
0.0
 11
-336.672779768532
 21
296.1375448083959
 31
0.0
  0
LINE
  5
EE
330
35
100
AcDbEntity
  8
1
  6
Continuous
 62
     7
100
AcDbLine
 10
-336.209502760948
 20
200.495094758964
 30
0.0
 11
-337.1360567761169
 21
199.753851546829
 31
0.0
  0
LINE
  5
ED
330
35
100
AcDbEntity
  8
1
  6
Continuous
 62
     7
100
AcDbLine
 10
-337.1360567761169
 20
199.753851546829
 30
0.0
 11
-339.0780084307319
 21
203.1310089806459
 31
0.0
  0
LINE
  5
EC
330
35
100
AcDbEntity
  8
1
  6
Continuous
 62
     7
100
AcDbLine
 10
-336.672779768532
 20
200.1244731528959
 30
0.0
 11
-336.0780084307319
 21
199.381008980646
 31
0.0
  0
LINE
  5
EB
330
35
100
AcDbEntity
  8
1
  6
Continuous
 62
     7
100
AcDbLine
 10
-339.0780084307319
 20
203.1310089806459
 30
0.0
 11
-336.209502760948
 21
200.495094758964
 31
0.0
  0
LINE
  5
EA
330
35
100
AcDbEntity
  8
1
  6
Continuous
 62
     7
100
AcDbLine
 10
-331.1735186593949
 20
286.031008980646
 30
0.0
 11
-333.328008430732
 21
286.031008980646
 31
0.0
  0
LINE
  5
E9
330
35
100
AcDbEntity
  8
1
  6
Continuous
 62
     7
100
AcDbLine
 10
-328.8780145312809
 20
269.131008980646
 30
0.0
 11
-333.078014531281
 21
269.131008980646
 31
0.0
  0
LINE
  5
E8
330
35
100
AcDbEntity
  8
1
  6
Continuous
 62
     7
100
AcDbLine
 10
-322.1708287537619
 20
190.481008980646
 30
0.0
 11
-320.178014531414
 21
190.481008980646
 31
0.0
  0
LINE
  5
E7
330
35
100
AcDbEntity
  8
1
  6
Continuous
 62
     7
100
AcDbLine
 10
-320.178014531414
 20
188.281008980647
 30
0.0
 11
-322.6780084307319
 21
188.281008980647
 31
0.0
  0
LINE
  5
E6
330
35
100
AcDbEntity
  8
1
  6
Continuous
 62
     7
100
AcDbLine
 10
-339.578008430732
 20
310.8310089806459
 30
0.0
 11
-339.278008430732
 21
311.131008980646
 31
0.0
  0
LINE
  5
E5
330
35
100
AcDbEntity
  8
1
  6
Continuous
 62
     7
100
AcDbLine
 10
-311.478008430732
 20
310.8310089806459
 30
0.0
 11
-311.778008430732
 21
311.131008980646
 31
0.0
  0
LINE
  5
E4
330
35
100
AcDbEntity
  8
1
  6
Continuous
 62
     7
100
AcDbLine
 10
-339.578008430732
 20
185.431008980646
 30
0.0
 11
-339.278008430732
 21
185.131008980646
 31
0.0
  0
LINE
  5
E3
330
35
100
AcDbEntity
  8
1
  6
Continuous
 62
     7
100
AcDbLine
 10
-311.478008430732
 20
185.431008980646
 30
0.0
 11
-311.778008430732
 21
185.131008980646
 31
0.0
  0
LINE
  5
E2
330
35
100
AcDbEntity
  8
1
  6
Continuous
 62
     7
100
AcDbLine
 10
-340.5780084307319
 20
248.131008980646
 30
0.0
 11
-340.5780084307319
 21
292.131008980646
 31
0.0
  0
LINE
  5
E1
330
35
100
AcDbEntity
  8
1
  6
Continuous
 62
     7
100
AcDbLine
 10
-334.5780084307319
 20
248.131008980646
 30
0.0
 11
-334.5780084307319
 21
230.131008980646
 31
0.0
  0
LINE
  5
E0
330
35
100
AcDbEntity
  8
1
  6
Continuous
 62
     7
100
AcDbLine
 10
-325.978008430732
 20
248.131008980646
 30
0.0
 11
-325.978008430732
 21
232.131008980646
 31
0.0
  0
LINE
  5
DF
330
35
100
AcDbEntity
  8
1
  6
Continuous
 62
     7
100
AcDbLine
 10
-315.978008430732
 20
248.131008980646
 30
0.0
 11
-315.978008430732
 21
200.631008980646
 31
0.0
  0
LINE
  5
DE
330
35
100
AcDbEntity
  8
1
  6
Continuous
 62
     7
100
AcDbLine
 10
-332.8780084307319
 20
296.631008980646
 30
0.0
 11
-332.8780084307319
 21
300.631008980646
 31
0.0
  0
LINE
  5
DD
330
35
100
AcDbEntity
  8
1
  6
Continuous
 62
     7
100
AcDbLine
 10
-332.8780084307319
 20
195.631008980646
 30
0.0
 11
-332.8780084307319
 21
199.631008980646
 31
0.0
  0
ENDBLK
  5
179
330
35
100
AcDbEntity
  8
0
100
AcDbBlockEnd
  0
BLOCK
  5
38
330
37
100
AcDbEntity
  8
0
100
AcDbBlockBegin
  2
HEX_BOLT_SIDE__1
 70
     0
 10
0.0
 20
0.0
 30
0.0
  3
HEX_BOLT_SIDE__1
  1

  0
ARC
  5
194
330
37
100
AcDbEntity
  8
1
  6
Continuous
 62
     7
100
AcDbCircle
 10
-319.378008430732
 20
288.731008980646
 30
0.0
 40
0.1
100
AcDbArc
 50
-90.0
 51
0.0
  0
ARC
  5
193
330
37
100
AcDbEntity
  8
1
  6
Continuous
 62
     7
100
AcDbCircle
 10
-319.378008430732
 20
285.5310089806459
 30
0.0
 40
0.1
100
AcDbArc
 50
0.0
 51
90.0
  0
LINE
  5
192
330
37
100
AcDbEntity
  8
1
  6
Continuous
 62
     7
100
AcDbLine
 10
-319.278008430732
 20
288.631008980646
 30
0.0
 11
-319.278008430732
 21
288.731008980646
 31
0.0
  0
LINE
  5
191
330
37
100
AcDbEntity
  8
1
  6
Continuous
 62
     7
100
AcDbLine
 10
-319.278008430732
 20
285.631008980646
 30
0.0
 11
-319.278008430732
 21
285.5310089806459
 31
0.0
  0
LINE
  5
190
330
37
100
AcDbEntity
  8
1
  6
Continuous
 62
     7
100
AcDbLine
 10
-316.478008430732
 20
284.381008980646
 30
0.0
 11
-316.478008430732
 21
289.881008980646
 31
0.0
  0
LINE
  5
18F
330
37
100
AcDbEntity
  8
1
  6
Continuous
 62
     7
100
AcDbLine
 10
-330.8780084307319
 20
288.631008980646
 30
0.0
 11
-330.8780084307319
 21
285.631008980646
 31
0.0
  0
LINE
  5
18E
330
37
100
AcDbEntity
  8
1
  6
Continuous
 62
     7
100
AcDbLine
 10
-320.278008430732
 20
285.631008980646
 30
0.0
 11
-319.378008430732
 21
285.631008980646
 31
0.0
  0
LINE
  5
18D
330
37
100
AcDbEntity
  8
1
  6
Continuous
 62
     7
100
AcDbLine
 10
-320.278008430732
 20
288.631008980646
 30
0.0
 11
-330.8780084307319
 21
288.631008980646
 31
0.0
  0
LINE
  5
18C
330
37
100
AcDbEntity
  8
1
  6
Continuous
 62
     7
100
AcDbLine
 10
-320.278008430732
 20
285.631008980646
 30
0.0
 11
-320.278008430732
 21
288.631008980646
 31
0.0
  0
LINE
  5
18B
330
37
100
AcDbEntity
  8
1
  6
Continuous
 62
     7
100
AcDbLine
 10
-319.278008430732
 20
285.5310089806459
 30
0.0
 11
-319.278008430732
 21
284.381008980646
 31
0.0
  0
LINE
  5
18A
330
37
100
AcDbEntity
  8
1
  6
Continuous
 62
     7
100
AcDbLine
 10
-330.8780084307319
 20
285.631008980646
 30
0.0
 11
-320.278008430732
 21
285.631008980646
 31
0.0
  0
LINE
  5
189
330
37
100
AcDbEntity
  8
1
  6
Continuous
 62
     7
100
AcDbLine
 10
-331.278008430732
 20
286.031008980646
 30
0.0
 11
-330.8780084307319
 21
285.631008980646
 31
0.0
  0
LINE
  5
188
330
37
100
AcDbEntity
  8
1
  6
Continuous
 62
     7
100
AcDbLine
 10
-331.278008430732
 20
288.231008980646
 30
0.0
 11
-331.278008430732
 21
286.031008980646
 31
0.0
  0
LINE
  5
187
330
37
100
AcDbEntity
  8
1
  6
Continuous
 62
     7
100
AcDbLine
 10
-330.8780084307319
 20
288.631008980646
 30
0.0
 11
-331.278008430732
 21
288.231008980646
 31
0.0
  0
LINE
  5
186
330
37
100
AcDbEntity
  8
1
  6
Continuous
 62
     7
100
AcDbLine
 10
-319.278008430732
 20
288.631008980646
 30
0.0
 11
-319.278008430732
 21
287.131008980646
 31
0.0
  0
LINE
  5
185
330
37
100
AcDbEntity
  8
1
  6
Continuous
 62
     7
100
AcDbLine
 10
-319.378008430732
 20
288.631008980646
 30
0.0
 11
-320.278008430732
 21
288.631008980646
 31
0.0
  0
LINE
  5
184
330
37
100
AcDbEntity
  8
1
  6
Continuous
 62
     7
100
AcDbLine
 10
-319.278008430732
 20
289.881008980646
 30
0.0
 11
-319.278008430732
 21
288.731008980646
 31
0.0
  0
LINE
  5
183
330
37
100
AcDbEntity
  8
1
  6
Continuous
 62
     7
100
AcDbLine
 10
-316.478008430732
 20
289.881008980646
 30
0.0
 11
-319.278008430732
 21
289.881008980646
 31
0.0
  0
LINE
  5
182
330
37
100
AcDbEntity
  8
1
  6
Continuous
 62
     7
100
AcDbLine
 10
-316.278008430732
 20
289.681008980646
 30
0.0
 11
-316.478008430732
 21
289.881008980646
 31
0.0
  0
LINE
  5
181
330
37
100
AcDbEntity
  8
1
  6
Continuous
 62
     7
100
AcDbLine
 10
-316.278008430732
 20
284.581008980646
 30
0.0
 11
-316.278008430732
 21
289.681008980646
 31
0.0
  0
LINE
  5
180
330
37
100
AcDbEntity
  8
1
  6
Continuous
 62
     7
100
AcDbLine
 10
-316.478008430732
 20
284.381008980646
 30
0.0
 11
-316.278008430732
 21
284.581008980646
 31
0.0
  0
LINE
  5
17F
330
37
100
AcDbEntity
  8
1
  6
Continuous
 62
     7
100
AcDbLine
 10
-319.278008430732
 20
284.381008980646
 30
0.0
 11
-316.478008430732
 21
284.381008980646
 31
0.0
  0
LINE
  5
17E
330
37
100
AcDbEntity
  8
1
  6
Continuous
 62
     7
100
AcDbLine
 10
-319.278008430732
 20
287.131008980646
 30
0.0
 11
-319.278008430732
 21
285.631008980646
 31
0.0
  0
LINE
  5
17D
330
37
100
AcDbEntity
  8
1
  6
Continuous
 62
     3
100
AcDbLine
 10
-320.278008430732
 20
288.231008980646
 30
0.0
 11
-319.585188107705
 21
288.631008980646
 31
0.0
  0
LINE
  5
17C
330
37
100
AcDbEntity
  8
1
  6
Continuous
 62
     3
100
AcDbLine
 10
-320.278008430732
 20
286.031008980646
 30
0.0
 11
-319.585188107705
 21
285.631008980646
 31
0.0
  0
LINE
  5
17B
330
37
100
AcDbEntity
  8
1
  6
Continuous
 62
     3
100
AcDbLine
 10
-320.278008430732
 20
288.231008980646
 30
0.0
 11
-331.278008430732
 21
288.231008980646
 31
0.0
  0
LINE
  5
17A
330
37
100
AcDbEntity
  8
1
  6
Continuous
 62
     3
100
AcDbLine
 10
-320.278008430732
 20
286.031008980646
 30
0.0
 11
-331.278008430732
 21
286.031008980646
 31
0.0
  0
ENDBLK
  5
195
330
37
100
AcDbEntity
  8
0
100
AcDbBlockEnd
  0
BLOCK
  5
3A
330
39
100
AcDbEntity
  8
0
100
AcDbBlockBegin
  2
HEX_BOLT_SIDE__2
 70
     0
 10
0.0
 20
0.0
 30
0.0
  3
HEX_BOLT_SIDE__2
  1

  0
ARC
  5
1B0
330
39
100
AcDbEntity
  8
1
  6
Continuous
 62
     7
100
AcDbCircle
 10
-313.278014531281
 20
267.731008980646
 30
0.0
 40
0.4
100
AcDbArc
 50
0.0
 51
90.0
  0
ARC
  5
1AF
330
39
100
AcDbEntity
  8
1
  6
Continuous
 62
     7
100
AcDbCircle
 10
-313.278014531281
 20
276.5310089806459
 30
0.0
 40
0.4
100
AcDbArc
 50
-90.0
 51
0.0
  0
LINE
  5
1AE
330
39
100
AcDbEntity
  8
1
  6
Continuous
 62
     3
100
AcDbLine
 10
-315.378014531281
 20
269.131008980646
 30
0.0
 11
-328.8780145312809
 21
269.131008980646
 31
0.0
  0
LINE
  5
1AD
330
39
100
AcDbEntity
  8
1
  6
Continuous
 62
     3
100
AcDbLine
 10
-315.378014531281
 20
275.131008980646
 30
0.0
 11
-328.8780145312809
 21
275.131008980646
 31
0.0
  0
LINE
  5
1AC
330
39
100
AcDbEntity
  8
1
  6
Continuous
 62
     3
100
AcDbLine
 10
-315.378014531281
 20
269.131008980646
 30
0.0
 11
-313.6459637237119
 21
268.131008980646
 31
0.0
  0
LINE
  5
1AB
330
39
100
AcDbEntity
  8
1
  6
Continuous
 62
     3
100
AcDbLine
 10
-315.378014531281
 20
275.131008980646
 30
0.0
 11
-313.6459637237119
 21
276.131008980646
 31
0.0
  0
LINE
  5
1AA
330
39
100
AcDbEntity
  8
1
  6
Continuous
 62
     7
100
AcDbLine
 10
-312.878014531281
 20
272.131008980646
 30
0.0
 11
-312.878014531281
 21
268.131008980646
 31
0.0
  0
LINE
  5
1A9
330
39
100
AcDbEntity
  8
1
  6
Continuous
 62
     7
100
AcDbLine
 10
-312.878014531281
 20
265.6310089806459
 30
0.0
 11
-305.3780145312809
 21
265.6310089806459
 31
0.0
  0
LINE
  5
1A8
330
39
100
AcDbEntity
  8
1
  6
Continuous
 62
     7
100
AcDbLine
 10
-305.3780145312809
 20
265.6310089806459
 30
0.0
 11
-304.878014531281
 21
266.131008980646
 31
0.0
  0
LINE
  5
1A7
330
39
100
AcDbEntity
  8
1
  6
Continuous
 62
     7
100
AcDbLine
 10
-304.878014531281
 20
266.131008980646
 30
0.0
 11
-304.878014531281
 21
278.1310089806459
 31
0.0
  0
LINE
  5
1A6
330
39
100
AcDbEntity
  8
1
  6
Continuous
 62
     7
100
AcDbLine
 10
-304.878014531281
 20
278.1310089806459
 30
0.0
 11
-305.3780145312809
 21
278.631008980646
 31
0.0
  0
LINE
  5
1A5
330
39
100
AcDbEntity
  8
1
  6
Continuous
 62
     7
100
AcDbLine
 10
-305.3780145312809
 20
278.631008980646
 30
0.0
 11
-312.878014531281
 21
278.631008980646
 31
0.0
  0
LINE
  5
1A4
330
39
100
AcDbEntity
  8
1
  6
Continuous
 62
     7
100
AcDbLine
 10
-312.878014531281
 20
278.631008980646
 30
0.0
 11
-312.878014531281
 21
276.5310089806459
 31
0.0
  0
LINE
  5
1A3
330
39
100
AcDbEntity
  8
1
  6
Continuous
 62
     7
100
AcDbLine
 10
-313.278014531281
 20
276.131008980646
 30
0.0
 11
-315.378014531281
 21
276.131008980646
 31
0.0
  0
LINE
  5
1A2
330
39
100
AcDbEntity
  8
1
  6
Continuous
 62
     7
100
AcDbLine
 10
-312.878014531281
 20
276.131008980646
 30
0.0
 11
-312.878014531281
 21
272.131008980646
 31
0.0
  0
LINE
  5
1A1
330
39
100
AcDbEntity
  8
1
  6
Continuous
 62
     7
100
AcDbLine
 10
-327.878014531281
 20
276.131008980646
 30
0.0
 11
-328.8780145312809
 21
275.131008980646
 31
0.0
  0
LINE
  5
1A0
330
39
100
AcDbEntity
  8
1
  6
Continuous
 62
     7
100
AcDbLine
 10
-328.8780145312809
 20
275.131008980646
 30
0.0
 11
-328.8780145312809
 21
269.131008980646
 31
0.0
  0
LINE
  5
19F
330
39
100
AcDbEntity
  8
1
  6
Continuous
 62
     7
100
AcDbLine
 10
-328.8780145312809
 20
269.131008980646
 30
0.0
 11
-327.878014531281
 21
268.131008980646
 31
0.0
  0
LINE
  5
19E
330
39
100
AcDbEntity
  8
1
  6
Continuous
 62
     7
100
AcDbLine
 10
-327.878014531281
 20
268.131008980646
 30
0.0
 11
-315.378014531281
 21
268.131008980646
 31
0.0
  0
LINE
  5
19D
330
39
100
AcDbEntity
  8
1
  6
Continuous
 62
     7
100
AcDbLine
 10
-312.878014531281
 20
267.731008980646
 30
0.0
 11
-312.878014531281
 21
265.6310089806459
 31
0.0
  0
LINE
  5
19C
330
39
100
AcDbEntity
  8
1
  6
Continuous
 62
     7
100
AcDbLine
 10
-315.378014531281
 20
268.131008980646
 30
0.0
 11
-315.378014531281
 21
276.131008980646
 31
0.0
  0
LINE
  5
19B
330
39
100
AcDbEntity
  8
1
  6
Continuous
 62
     7
100
AcDbLine
 10
-315.378014531281
 20
276.131008980646
 30
0.0
 11
-327.878014531281
 21
276.131008980646
 31
0.0
  0
LINE
  5
19A
330
39
100
AcDbEntity
  8
1
  6
Continuous
 62
     7
100
AcDbLine
 10
-315.378014531281
 20
268.131008980646
 30
0.0
 11
-313.278014531281
 21
268.131008980646
 31
0.0
  0
LINE
  5
199
330
39
100
AcDbEntity
  8
1
  6
Continuous
 62
     7
100
AcDbLine
 10
-327.878014531281
 20
276.131008980646
 30
0.0
 11
-327.878014531281
 21
268.131008980646
 31
0.0
  0
LINE
  5
198
330
39
100
AcDbEntity
  8
1
  6
Continuous
 62
     7
100
AcDbLine
 10
-305.3780145312809
 20
265.6310089806459
 30
0.0
 11
-305.3780145312809
 21
278.631008980646
 31
0.0
  0
LINE
  5
197
330
39
100
AcDbEntity
  8
1
  6
Continuous
 62
     7
100
AcDbLine
 10
-312.878014531281
 20
268.131008980646
 30
0.0
 11
-312.878014531281
 21
267.731008980646
 31
0.0
  0
LINE
  5
196
330
39
100
AcDbEntity
  8
1
  6
Continuous
 62
     7
100
AcDbLine
 10
-312.878014531281
 20
276.131008980646
 30
0.0
 11
-312.878014531281
 21
276.5310089806459
 31
0.0
  0
ENDBLK
  5
1B1
330
39
100
AcDbEntity
  8
0
100
AcDbBlockEnd
  0
BLOCK
  5
3C
330
3B
100
AcDbEntity
  8
0
100
AcDbBlockBegin
  2
HEX_BOLT_SIDE__3
 70
     0
 10
0.0
 20
0.0
 30
0.0
  3
HEX_BOLT_SIDE__3
  1

  0
ARC
  5
1CC
330
3B
100
AcDbEntity
  8
1
  6
Continuous
 62
     7
100
AcDbCircle
 10
-296.278014531361
 20
187.781008980646
 30
0.0
 40
0.1
100
AcDbArc
 50
0.0
 51
90.0
  0
ARC
  5
1CB
330
3B
100
AcDbEntity
  8
1
  6
Continuous
 62
     7
100
AcDbCircle
 10
-296.278014531361
 20
190.981008980646
 30
0.0
 40
0.1
100
AcDbArc
 50
-90.0
 51
0.0
  0
LINE
  5
1CA
330
3B
100
AcDbEntity
  8
1
  6
Continuous
 62
     3
100
AcDbLine
 10
-303.1780145313609
 20
188.281008980647
 30
0.0
 11
-321.178014531361
 21
188.281008980647
 31
0.0
  0
LINE
  5
1C9
330
3B
100
AcDbEntity
  8
1
  6
Continuous
 62
     3
100
AcDbLine
 10
-303.1780145313609
 20
190.481008980646
 30
0.0
 11
-321.178014531361
 21
190.481008980646
 31
0.0
  0
LINE
  5
1C8
330
3B
100
AcDbEntity
  8
1
  6
Continuous
 62
     3
100
AcDbLine
 10
-303.1780145313609
 20
188.281008980647
 30
0.0
 11
-302.485194208333
 21
187.881008980646
 31
0.0
  0
LINE
  5
1C7
330
3B
100
AcDbEntity
  8
1
  6
Continuous
 62
     3
100
AcDbLine
 10
-303.1780145313609
 20
190.481008980646
 30
0.0
 11
-302.485194208333
 21
190.881008980646
 31
0.0
  0
LINE
  5
1C6
330
3B
100
AcDbEntity
  8
1
  6
Continuous
 62
     7
100
AcDbLine
 10
-296.178014531361
 20
189.381008980646
 30
0.0
 11
-296.178014531361
 21
187.881008980646
 31
0.0
  0
LINE
  5
1C5
330
3B
100
AcDbEntity
  8
1
  6
Continuous
 62
     7
100
AcDbLine
 10
-296.178014531361
 20
186.631008980646
 30
0.0
 11
-293.378014531361
 21
186.631008980646
 31
0.0
  0
LINE
  5
1C4
330
3B
100
AcDbEntity
  8
1
  6
Continuous
 62
     7
100
AcDbLine
 10
-293.378014531361
 20
186.631008980646
 30
0.0
 11
-293.1780145313609
 21
186.8310089806469
 31
0.0
  0
LINE
  5
1C3
330
3B
100
AcDbEntity
  8
1
  6
Continuous
 62
     7
100
AcDbLine
 10
-293.1780145313609
 20
186.8310089806469
 30
0.0
 11
-293.1780145313609
 21
191.931008980646
 31
0.0
  0
LINE
  5
1C2
330
3B
100
AcDbEntity
  8
1
  6
Continuous
 62
     7
100
AcDbLine
 10
-293.1780145313609
 20
191.931008980646
 30
0.0
 11
-293.378014531361
 21
192.131008980646
 31
0.0
  0
LINE
  5
1C1
330
3B
100
AcDbEntity
  8
1
  6
Continuous
 62
     7
100
AcDbLine
 10
-293.378014531361
 20
192.131008980646
 30
0.0
 11
-296.178014531361
 21
192.131008980646
 31
0.0
  0
LINE
  5
1C0
330
3B
100
AcDbEntity
  8
1
  6
Continuous
 62
     7
100
AcDbLine
 10
-296.178014531361
 20
192.131008980646
 30
0.0
 11
-296.178014531361
 21
190.981008980646
 31
0.0
  0
LINE
  5
1BF
330
3B
100
AcDbEntity
  8
1
  6
Continuous
 62
     7
100
AcDbLine
 10
-296.278014531361
 20
190.881008980646
 30
0.0
 11
-303.1780145313609
 21
190.881008980646
 31
0.0
  0
LINE
  5
1BE
330
3B
100
AcDbEntity
  8
1
  6
Continuous
 62
     7
100
AcDbLine
 10
-296.178014531361
 20
190.881008980646
 30
0.0
 11
-296.178014531361
 21
189.381008980646
 31
0.0
  0
LINE
  5
1BD
330
3B
100
AcDbEntity
  8
1
  6
Continuous
 62
     7
100
AcDbLine
 10
-320.778014531361
 20
190.881008980646
 30
0.0
 11
-321.178014531361
 21
190.481008980646
 31
0.0
  0
LINE
  5
1BC
330
3B
100
AcDbEntity
  8
1
  6
Continuous
 62
     7
100
AcDbLine
 10
-321.178014531361
 20
190.481008980646
 30
0.0
 11
-321.178014531361
 21
188.281008980647
 31
0.0
  0
LINE
  5
1BB
330
3B
100
AcDbEntity
  8
1
  6
Continuous
 62
     7
100
AcDbLine
 10
-321.178014531361
 20
188.281008980647
 30
0.0
 11
-320.778014531361
 21
187.881008980646
 31
0.0
  0
LINE
  5
1BA
330
3B
100
AcDbEntity
  8
1
  6
Continuous
 62
     7
100
AcDbLine
 10
-320.778014531361
 20
187.881008980646
 30
0.0
 11
-303.1780145313609
 21
187.881008980646
 31
0.0
  0
LINE
  5
1B9
330
3B
100
AcDbEntity
  8
1
  6
Continuous
 62
     7
100
AcDbLine
 10
-296.178014531361
 20
187.781008980646
 30
0.0
 11
-296.178014531361
 21
186.631008980646
 31
0.0
  0
LINE
  5
1B8
330
3B
100
AcDbEntity
  8
1
  6
Continuous
 62
     7
100
AcDbLine
 10
-303.1780145313609
 20
187.881008980646
 30
0.0
 11
-303.1780145313609
 21
190.881008980646
 31
0.0
  0
LINE
  5
1B7
330
3B
100
AcDbEntity
  8
1
  6
Continuous
 62
     7
100
AcDbLine
 10
-303.1780145313609
 20
190.881008980646
 30
0.0
 11
-320.778014531361
 21
190.881008980646
 31
0.0
  0
LINE
  5
1B6
330
3B
100
AcDbEntity
  8
1
  6
Continuous
 62
     7
100
AcDbLine
 10
-303.1780145313609
 20
187.881008980646
 30
0.0
 11
-296.278014531361
 21
187.881008980646
 31
0.0
  0
LINE
  5
1B5
330
3B
100
AcDbEntity
  8
1
  6
Continuous
 62
     7
100
AcDbLine
 10
-320.778014531361
 20
190.881008980646
 30
0.0
 11
-320.778014531361
 21
187.881008980646
 31
0.0
  0
LINE
  5
1B4
330
3B
100
AcDbEntity
  8
1
  6
Continuous
 62
     7
100
AcDbLine
 10
-293.378014531361
 20
186.631008980646
 30
0.0
 11
-293.378014531361
 21
192.131008980646
 31
0.0
  0
LINE
  5
1B3
330
3B
100
AcDbEntity
  8
1
  6
Continuous
 62
     7
100
AcDbLine
 10
-296.178014531361
 20
187.881008980646
 30
0.0
 11
-296.178014531361
 21
187.781008980646
 31
0.0
  0
LINE
  5
1B2
330
3B
100
AcDbEntity
  8
1
  6
Continuous
 62
     7
100
AcDbLine
 10
-296.178014531361
 20
190.881008980646
 30
0.0
 11
-296.178014531361
 21
190.981008980646
 31
0.0
  0
ENDBLK
  5
1CD
330
3B
100
AcDbEntity
  8
0
100
AcDbBlockEnd
  0
BLOCK
  5
3E
330
3D
100
AcDbEntity
  8
0
100
AcDbBlockBegin
  2
RETAINER
 70
     0
 10
0.0
 20
0.0
 30
0.0
  3
RETAINER
  1

  0
HATCH
  5
1EF
330
3D
100
AcDbEntity
  8
0
  6
Continuous
 62
     5
100
AcDbHatch
 10
0.0
 20
0.0
 30
0.0
210
0.0
220
0.0
230
1.0
  2
USER
 70
     0
 71
     1
 91
        1
 92
        1
 93
        8
 72
     1
 10
-299.785514531281
 20
208.9710089806461
 11
-301.6855145312799
 21
208.9710089806461
 72
     2
 10
-301.6855145312799
 20
208.571008980646
 40
0.400000000000091
 50
90.0
 51
180.0
 73
     1
 72
     1
 10
-302.0855145312809
 20
208.571008980646
 11
-302.0855145312809
 21
203.1110089806461
 72
     2
 10
-301.6855145312799
 20
203.1110089806461
 40
0.4000000000010004
 50
180.0
 51
270.0
 73
     1
 72
     1
 10
-301.6855145312799
 20
202.711008980646
 11
-299.785514531281
 21
202.711008980646
 72
     2
 10
-299.785514531281
 20
203.1110089806461
 40
0.400000000000091
 50
-90.0
 51
0.0
 73
     1
 72
     1
 10
-299.3855145312808
 20
203.1110089806461
 11
-299.3855145312808
 21
208.571008980646
 72
     2
 10
-299.785514531281
 20
208.571008980646
 40
0.4000000000001478
 50
0.0
 51
90.0
 73
     1
 97
        8
330
1DC
330
1EA
330
1DF
330
1E9
330
1DE
330
1E8
330
1DD
330
1EB
 75
     1
 76
     0
 52
45.0
 41
1.5
 77
     0
 78
     1
 53
45.0
 43
0.0
 44
0.0
 45
-1.060660171779821
 46
1.060660171779821
 79
     0
 98
        1
 10
0.0
 20
0.0
  0
HATCH
  5
1EE
330
3D
100
AcDbEntity
  8
0
  6
Continuous
 62
     5
100
AcDbHatch
 10
0.0
 20
0.0
 30
0.0
210
0.0
220
0.0
230
1.0
  2
USER
 70
     0
 71
     1
 91
        1
 92
        1
 93
        7
 72
     1
 10
-287.62551453128
 20
208.9710089806461
 11
-289.4255145312808
 21
208.9710089806461
 72
     1
 10
-289.4255145312808
 20
208.9710089806461
 11
-289.4255145312808
 21
202.711008980646
 72
     1
 10
-289.4255145312808
 20
202.711008980646
 11
-287.8912582301459
 21
202.711008980646
 72
     2
 10
-287.8912582301459
 20
203.1110089806461
 40
0.400000000000091
 50
-90.0
 51
-5.000000000155
 73
     1
 72
     1
 10
-287.4927803509099
 20
203.076146683546
 11
-287.2255145312798
 21
206.1310089806461
 72
     1
 10
-287.2255145312798
 20
206.1310089806461
 11
-287.2255145312798
 21
208.571008980646
 72
     2
 10
-287.62551453128
 20
208.571008980646
 40
0.400000000000091
 50
0.0
 51
90.0
 73
     1
 97
        7
330
1D7
330
1DA
330
1D9
330
1E6
330
1DB
330
1D8
330
1E7
 75
     1
 76
     0
 52
45.0
 41
1.5
 77
     0
 78
     1
 53
45.0
 43
0.0
 44
0.0
 45
-1.060660171779821
 46
1.060660171779821
 79
     0
 98
        1
 10
0.0
 20
0.0
  0
HATCH
  5
1ED
330
3D
100
AcDbEntity
  8
0
  6
Continuous
 62
     5
100
AcDbHatch
 10
0.0
 20
0.0
 30
0.0
210
0.0
220
0.0
230
1.0
  2
USER
 70
     0
 71
     1
 91
        1
 92
        1
 93
        8
 72
     1
 10
-301.6855145312799
 20
287.2910089806461
 11
-299.785514531281
 21
287.2910089806461
 72
     2
 10
-301.6855145312799
 20
287.6910089806463
 40
0.4000000000010004
 50
180.0
 51
270.0
 73
     1
 72
     1
 10
-302.0855145312809
 20
293.151008980646
 11
-302.0855145312809
 21
287.6910089806463
 72
     2
 10
-301.6855145312799
 20
293.151008980646
 40
0.400000000000091
 50
90.0
 51
180.0
 73
     1
 72
     1
 10
-299.785514531281
 20
293.5510089806461
 11
-301.6855145312799
 21
293.5510089806461
 72
     2
 10
-299.785514531281
 20
293.151008980646
 40
0.4000000000001478
 50
0.0
 51
90.0
 73
     1
 72
     1
 10
-299.3855145312808
 20
287.6910089806461
 11
-299.3855145312808
 21
293.151008980646
 72
     2
 10
-299.785514531281
 20
287.6910089806461
 40
0.3999999999998636
 50
-90.0
 51
0.0
 73
     1
 97
        8
330
1D1
330
1E1
330
1CE
330
1E2
330
1CF
330
1E3
330
1D0
330
1E0
 75
     1
 76
     0
 52
45.0
 41
1.5
 77
     0
 78
     1
 53
45.0
 43
0.0
 44
0.0
 45
-1.060660171779821
 46
1.060660171779821
 79
     0
 98
        1
 10
0.0
 20
0.0
  0
HATCH
  5
1EC
330
3D
100
AcDbEntity
  8
0
  6
Continuous
 62
     5
100
AcDbHatch
 10
0.0
 20
0.0
 30
0.0
210
0.0
220
0.0
230
1.0
  2
USER
 70
     0
 71
     1
 91
        1
 92
        1
 93
        7
 72
     1
 10
-289.4255145312808
 20
287.2910089806461
 11
-287.62551453128
 21
287.2910089806461
 72
     1
 10
-289.4255145312808
 20
293.5510089806461
 11
-289.4255145312808
 21
287.2910089806461
 72
     1
 10
-287.8912582301459
 20
293.5510089806461
 11
-289.4255145312808
 21
293.5510089806461
 72
     2
 10
-287.8912582301459
 20
293.151008980646
 40
0.3999999999993889
 50
5.000000000151
 51
90.0
 73
     1
 72
     1
 10
-287.2255145312798
 20
290.1310089806461
 11
-287.4927803509099
 21
293.1858712777461
 72
     1
 10
-287.2255145312798
 20
287.6910089806463
 11
-287.2255145312798
 21
290.1310089806461
 72
     2
 10
-287.62551453128
 20
287.6910089806461
 40
0.3999999999998636
 50
-90.0
 51
0.000000000033
 73
     1
 97
        7
330
1D6
330
1D3
330
1D4
330
1E5
330
1D2
330
1D5
330
1E4
 75
     1
 76
     0
 52
45.0
 41
1.5
 77
     0
 78
     1
 53
45.0
 43
0.0
 44
0.0
 45
-1.060660171779821
 46
1.060660171779821
 79
     0
 98
        1
 10
0.0
 20
0.0
  0
ARC
  5
1EB
330
3D
100
AcDbEntity
  8
1
  6
Continuous
 62
     7
100
AcDbCircle
 10
-299.785514531281
 20
208.571008980646
 30
0.0
 40
0.4
100
AcDbArc
 50
0.0
 51
90.0
  0
ARC
  5
1EA
330
3D
100
AcDbEntity
  8
1
  6
Continuous
 62
     7
100
AcDbCircle
 10
-301.6855145312799
 20
208.571008980646
 30
0.0
 40
0.4
100
AcDbArc
 50
90.0
 51
180.0
  0
ARC
  5
1E9
330
3D
100
AcDbEntity
  8
1
  6
Continuous
 62
     7
100
AcDbCircle
 10
-301.6855145312799
 20
203.111008980646
 30
0.0
 40
0.400000000001
100
AcDbArc
 50
180.0
 51
-90.0
  0
ARC
  5
1E8
330
3D
100
AcDbEntity
  8
1
  6
Continuous
 62
     7
100
AcDbCircle
 10
-299.785514531281
 20
203.111008980646
 30
0.0
 40
0.4
100
AcDbArc
 50
-90.0
 51
0.0
  0
ARC
  5
1E7
330
3D
100
AcDbEntity
  8
1
  6
Continuous
 62
     7
100
AcDbCircle
 10
-287.62551453128
 20
208.571008980646
 30
0.0
 40
0.4
100
AcDbArc
 50
0.0
 51
90.0
  0
ARC
  5
1E6
330
3D
100
AcDbEntity
  8
1
  6
Continuous
 62
     7
100
AcDbCircle
 10
-287.8912582301459
 20
203.111008980646
 30
0.0
 40
0.4
100
AcDbArc
 50
-90.0
 51
-5.000000000155
  0
ARC
  5
1E5
330
3D
100
AcDbEntity
  8
1
  6
Continuous
 62
     7
100
AcDbCircle
 10
-287.8912582301459
 20
293.1510089806459
 30
0.0
 40
0.399999999999
100
AcDbArc
 50
5.000000000151
 51
90.0
  0
ARC
  5
1E4
330
3D
100
AcDbEntity
  8
1
  6
Continuous
 62
     7
100
AcDbCircle
 10
-287.62551453128
 20
287.691008980646
 30
0.0
 40
0.4
100
AcDbArc
 50
-90.0
 51
0.000000000033
  0
ARC
  5
1E3
330
3D
100
AcDbEntity
  8
1
  6
Continuous
 62
     7
100
AcDbCircle
 10
-299.785514531281
 20
293.1510089806459
 30
0.0
 40
0.4
100
AcDbArc
 50
0.0
 51
90.0
  0
ARC
  5
1E2
330
3D
100
AcDbEntity
  8
1
  6
Continuous
 62
     7
100
AcDbCircle
 10
-301.6855145312799
 20
293.1510089806459
 30
0.0
 40
0.4
100
AcDbArc
 50
90.0
 51
180.0
  0
ARC
  5
1E1
330
3D
100
AcDbEntity
  8
1
  6
Continuous
 62
     7
100
AcDbCircle
 10
-301.6855145312799
 20
287.691008980646
 30
0.0
 40
0.400000000001
100
AcDbArc
 50
180.0
 51
-90.0
  0
ARC
  5
1E0
330
3D
100
AcDbEntity
  8
1
  6
Continuous
 62
     7
100
AcDbCircle
 10
-299.785514531281
 20
287.691008980646
 30
0.0
 40
0.4
100
AcDbArc
 50
-90.0
 51
0.0
  0
LINE
  5
1DF
330
3D
100
AcDbEntity
  8
1
  6
Continuous
 62
     7
100
AcDbLine
 10
-302.085514531281
 20
208.571008980646
 30
0.0
 11
-302.085514531281
 21
203.111008980646
 31
0.0
  0
LINE
  5
1DE
330
3D
100
AcDbEntity
  8
1
  6
Continuous
 62
     7
100
AcDbLine
 10
-301.6855145312799
 20
202.711008980646
 30
0.0
 11
-299.785514531281
 21
202.711008980646
 31
0.0
  0
LINE
  5
1DD
330
3D
100
AcDbEntity
  8
1
  6
Continuous
 62
     7
100
AcDbLine
 10
-299.385514531281
 20
203.111008980646
 30
0.0
 11
-299.385514531281
 21
208.571008980646
 31
0.0
  0
LINE
  5
1DC
330
3D
100
AcDbEntity
  8
1
  6
Continuous
 62
     7
100
AcDbLine
 10
-299.785514531281
 20
208.971008980646
 30
0.0
 11
-301.6855145312799
 21
208.971008980646
 31
0.0
  0
LINE
  5
1DB
330
3D
100
AcDbEntity
  8
1
  6
Continuous
 62
     7
100
AcDbLine
 10
-287.4927803509099
 20
203.076146683546
 30
0.0
 11
-287.22551453128
 21
206.131008980646
 31
0.0
  0
LINE
  5
1DA
330
3D
100
AcDbEntity
  8
1
  6
Continuous
 62
     7
100
AcDbLine
 10
-289.425514531281
 20
208.971008980646
 30
0.0
 11
-289.425514531281
 21
202.711008980646
 31
0.0
  0
LINE
  5
1D9
330
3D
100
AcDbEntity
  8
1
  6
Continuous
 62
     7
100
AcDbLine
 10
-289.425514531281
 20
202.711008980646
 30
0.0
 11
-287.8912582301459
 21
202.711008980646
 31
0.0
  0
LINE
  5
1D8
330
3D
100
AcDbEntity
  8
1
  6
Continuous
 62
     7
100
AcDbLine
 10
-287.22551453128
 20
206.131008980646
 30
0.0
 11
-287.22551453128
 21
208.571008980646
 31
0.0
  0
LINE
  5
1D7
330
3D
100
AcDbEntity
  8
1
  6
Continuous
 62
     7
100
AcDbLine
 10
-287.62551453128
 20
208.971008980646
 30
0.0
 11
-289.425514531281
 21
208.971008980646
 31
0.0
  0
LINE
  5
1D6
330
3D
100
AcDbEntity
  8
1
  6
Continuous
 62
     7
100
AcDbLine
 10
-289.425514531281
 20
287.291008980646
 30
0.0
 11
-287.62551453128
 21
287.291008980646
 31
0.0
  0
LINE
  5
1D5
330
3D
100
AcDbEntity
  8
1
  6
Continuous
 62
     7
100
AcDbLine
 10
-287.22551453128
 20
287.691008980646
 30
0.0
 11
-287.22551453128
 21
290.131008980646
 31
0.0
  0
LINE
  5
1D4
330
3D
100
AcDbEntity
  8
1
  6
Continuous
 62
     7
100
AcDbLine
 10
-287.8912582301459
 20
293.551008980646
 30
0.0
 11
-289.425514531281
 21
293.551008980646
 31
0.0
  0
LINE
  5
1D3
330
3D
100
AcDbEntity
  8
1
  6
Continuous
 62
     7
100
AcDbLine
 10
-289.425514531281
 20
293.551008980646
 30
0.0
 11
-289.425514531281
 21
287.291008980646
 31
0.0
  0
LINE
  5
1D2
330
3D
100
AcDbEntity
  8
1
  6
Continuous
 62
     7
100
AcDbLine
 10
-287.22551453128
 20
290.131008980646
 30
0.0
 11
-287.4927803509099
 21
293.185871277746
 31
0.0
  0
LINE
  5
1D1
330
3D
100
AcDbEntity
  8
1
  6
Continuous
 62
     7
100
AcDbLine
 10
-301.6855145312799
 20
287.291008980646
 30
0.0
 11
-299.785514531281
 21
287.291008980646
 31
0.0
  0
LINE
  5
1D0
330
3D
100
AcDbEntity
  8
1
  6
Continuous
 62
     7
100
AcDbLine
 10
-299.385514531281
 20
287.691008980646
 30
0.0
 11
-299.385514531281
 21
293.1510089806459
 31
0.0
  0
LINE
  5
1CF
330
3D
100
AcDbEntity
  8
1
  6
Continuous
 62
     7
100
AcDbLine
 10
-299.785514531281
 20
293.551008980646
 30
0.0
 11
-301.6855145312799
 21
293.551008980646
 31
0.0
  0
LINE
  5
1CE
330
3D
100
AcDbEntity
  8
1
  6
Continuous
 62
     7
100
AcDbLine
 10
-302.085514531281
 20
293.1510089806459
 30
0.0
 11
-302.085514531281
 21
287.691008980646
 31
0.0
  0
ENDBLK
  5
1F0
330
3D
100
AcDbEntity
  8
0
100
AcDbBlockEnd
  0
BLOCK
  5
40
330
3F
100
AcDbEntity
  8
0
100
AcDbBlockBegin
  2
WBG_040_F
 70
     0
 10
0.0
 20
0.0
 30
0.0
  3
WBG_040_F
  1

  0
CIRCLE
  5
216
330
3F
100
AcDbEntity
  8
1
  6
Continuous
 62
     7
100
AcDbCircle
 10
-294.6230145312799
 20
290.431008980646
 30
0.0
 40
4.5
  0
CIRCLE
  5
215
330
3F
100
AcDbEntity
  8
1
  6
Continuous
 62
     7
100
AcDbCircle
 10
-294.6230145312799
 20
205.831008980646
 30
0.0
 40
4.5
  0
LINE
  5
214
330
3F
100
AcDbEntity
  8
1
  6
Continuous
 62
     7
100
AcDbLine
 10
-299.2680145312799
 20
283.685508980646
 30
0.0
 11
-289.9780145312799
 21
283.685508980646
 31
0.0
  0
LINE
  5
213
330
3F
100
AcDbEntity
  8
1
  6
Continuous
 62
     7
100
AcDbLine
 10
-299.2680145312799
 20
286.350508980646
 30
0.0
 11
-296.5202545661729
 21
286.350508980646
 31
0.0
  0
LINE
  5
212
330
3F
100
AcDbEntity
  8
1
  6
Continuous
 62
     7
100
AcDbLine
 10
-299.7680145312799
 20
284.185508980646
 30
0.0
 11
-299.2680145312799
 21
283.685508980646
 31
0.0
  0
LINE
  5
211
330
3F
100
AcDbEntity
  8
1
  6
Continuous
 62
     7
100
AcDbLine
 10
-299.2680145312799
 20
286.350508980646
 30
0.0
 11
-299.7680145312799
 21
285.850508980646
 31
0.0
  0
LINE
  5
210
330
3F
100
AcDbEntity
  8
1
  6
Continuous
 62
     7
100
AcDbLine
 10
-299.7680145312799
 20
284.185508980646
 30
0.0
 11
-299.7680145312799
 21
285.850508980646
 31
0.0
  0
LINE
  5
20F
330
3F
100
AcDbEntity
  8
1
  6
Continuous
 62
     7
100
AcDbLine
 10
-299.168014531281
 20
297.111008980646
 30
0.0
 11
-290.078014531281
 21
297.111008980646
 31
0.0
  0
LINE
  5
20E
330
3F
100
AcDbEntity
  8
1
  6
Continuous
 62
     7
100
AcDbLine
 10
-289.4780145312799
 20
294.935508980646
 30
0.0
 11
-289.4780145312799
 21
296.764598819131
 31
0.0
  0
LINE
  5
20D
330
3F
100
AcDbEntity
  8
1
  6
Continuous
 62
     7
100
AcDbLine
 10
-293.019212875835
 20
294.6355089806449
 30
0.0
 11
-289.778014531281
 21
294.6355089806449
 31
0.0
  0
LINE
  5
20C
330
3F
100
AcDbEntity
  8
1
  6
Continuous
 62
     7
100
AcDbLine
 10
-292.7257744963869
 20
286.350508980646
 30
0.0
 11
-289.9780145312799
 21
286.350508980646
 31
0.0
  0
LINE
  5
20B
330
3F
100
AcDbEntity
  8
1
  6
Continuous
 62
     7
100
AcDbLine
 10
-289.4780145312799
 20
285.850508980646
 30
0.0
 11
-289.4780145312799
 21
284.185508980646
 31
0.0
  0
LINE
  5
20A
330
3F
100
AcDbEntity
  8
1
  6
Continuous
 62
     7
100
AcDbLine
 10
-289.4780145312799
 20
285.850508980646
 30
0.0
 11
-289.9780145312799
 21
286.350508980646
 31
0.0
  0
LINE
  5
209
330
3F
100
AcDbEntity
  8
1
  6
Continuous
 62
     7
100
AcDbLine
 10
-289.9780145312799
 20
283.685508980646
 30
0.0
 11
-289.4780145312799
 21
284.185508980646
 31
0.0
  0
LINE
  5
208
330
3F
100
AcDbEntity
  8
1
  6
Continuous
 62
     7
100
AcDbLine
 10
-289.778014531281
 20
294.6355089806449
 30
0.0
 11
-289.4780145312799
 21
294.935508980646
 31
0.0
  0
LINE
  5
207
330
3F
100
AcDbEntity
  8
1
  6
Continuous
 62
     7
100
AcDbLine
 10
-290.078014531281
 20
297.111008980646
 30
0.0
 11
-289.4780145312799
 21
296.764598819131
 31
0.0
  0
LINE
  5
206
330
3F
100
AcDbEntity
  8
1
  6
Continuous
 62
     7
100
AcDbLine
 10
-299.7680145312799
 20
296.764598819131
 30
0.0
 11
-299.168014531281
 21
297.111008980646
 31
0.0
  0
LINE
  5
205
330
3F
100
AcDbEntity
  8
1
  6
Continuous
 62
     7
100
AcDbLine
 10
-299.7680145312799
 20
294.935508980646
 30
0.0
 11
-299.468014531281
 21
294.6355089806449
 31
0.0
  0
LINE
  5
204
330
3F
100
AcDbEntity
  8
1
  6
Continuous
 62
     7
100
AcDbLine
 10
-299.468014531281
 20
294.6355089806449
 30
0.0
 11
-296.226816186724
 21
294.6355089806449
 31
0.0
  0
LINE
  5
203
330
3F
100
AcDbEntity
  8
1
  6
Continuous
 62
     7
100
AcDbLine
 10
-299.7680145312799
 20
296.764598819131
 30
0.0
 11
-299.7680145312799
 21
294.935508980646
 31
0.0
  0
LINE
  5
202
330
3F
100
AcDbEntity
  8
1
  6
Continuous
 62
     7
100
AcDbLine
 10
-299.7680145312799
 20
201.326508980646
 30
0.0
 11
-299.7680145312799
 21
199.4974191421609
 31
0.0
  0
LINE
  5
201
330
3F
100
AcDbEntity
  8
1
  6
Continuous
 62
     7
100
AcDbLine
 10
-296.226816186724
 20
201.626508980647
 30
0.0
 11
-299.468014531281
 21
201.626508980647
 31
0.0
  0
LINE
  5
200
330
3F
100
AcDbEntity
  8
1
  6
Continuous
 62
     7
100
AcDbLine
 10
-299.468014531281
 20
201.626508980647
 30
0.0
 11
-299.7680145312799
 21
201.326508980646
 31
0.0
  0
LINE
  5
1FF
330
3F
100
AcDbEntity
  8
1
  6
Continuous
 62
     7
100
AcDbLine
 10
-299.168014531281
 20
199.151008980646
 30
0.0
 11
-299.7680145312799
 21
199.4974191421609
 31
0.0
  0
LINE
  5
1FE
330
3F
100
AcDbEntity
  8
1
  6
Continuous
 62
     7
100
AcDbLine
 10
-289.4780145312799
 20
199.4974191421609
 30
0.0
 11
-290.078014531281
 21
199.151008980646
 31
0.0
  0
LINE
  5
1FD
330
3F
100
AcDbEntity
  8
1
  6
Continuous
 62
     7
100
AcDbLine
 10
-289.4780145312799
 20
201.326508980646
 30
0.0
 11
-289.778014531281
 21
201.626508980647
 31
0.0
  0
LINE
  5
1FC
330
3F
100
AcDbEntity
  8
1
  6
Continuous
 62
     7
100
AcDbLine
 10
-289.4780145312799
 20
212.076508980646
 30
0.0
 11
-289.9780145312799
 21
212.576508980646
 31
0.0
  0
LINE
  5
1FB
330
3F
100
AcDbEntity
  8
1
  6
Continuous
 62
     7
100
AcDbLine
 10
-289.9780145312799
 20
209.9115089806459
 30
0.0
 11
-289.4780145312799
 21
210.411508980646
 31
0.0
  0
LINE
  5
1FA
330
3F
100
AcDbEntity
  8
1
  6
Continuous
 62
     7
100
AcDbLine
 10
-289.4780145312799
 20
212.076508980646
 30
0.0
 11
-289.4780145312799
 21
210.411508980646
 31
0.0
  0
LINE
  5
1F9
330
3F
100
AcDbEntity
  8
1
  6
Continuous
 62
     7
100
AcDbLine
 10
-289.9780145312799
 20
209.9115089806459
 30
0.0
 11
-292.7257744963869
 21
209.9115089806459
 31
0.0
  0
LINE
  5
1F8
330
3F
100
AcDbEntity
  8
1
  6
Continuous
 62
     7
100
AcDbLine
 10
-289.778014531281
 20
201.626508980647
 30
0.0
 11
-293.019212875835
 21
201.626508980647
 31
0.0
  0
LINE
  5
1F7
330
3F
100
AcDbEntity
  8
1
  6
Continuous
 62
     7
100
AcDbLine
 10
-289.4780145312799
 20
199.4974191421609
 30
0.0
 11
-289.4780145312799
 21
201.326508980646
 31
0.0
  0
LINE
  5
1F6
330
3F
100
AcDbEntity
  8
1
  6
Continuous
 62
     7
100
AcDbLine
 10
-290.078014531281
 20
199.151008980646
 30
0.0
 11
-299.168014531281
 21
199.151008980646
 31
0.0
  0
LINE
  5
1F5
330
3F
100
AcDbEntity
  8
1
  6
Continuous
 62
     7
100
AcDbLine
 10
-299.7680145312799
 20
210.411508980646
 30
0.0
 11
-299.7680145312799
 21
212.076508980646
 31
0.0
  0
LINE
  5
1F4
330
3F
100
AcDbEntity
  8
1
  6
Continuous
 62
     7
100
AcDbLine
 10
-299.7680145312799
 20
210.411508980646
 30
0.0
 11
-299.2680145312799
 21
209.9115089806459
 31
0.0
  0
LINE
  5
1F3
330
3F
100
AcDbEntity
  8
1
  6
Continuous
 62
     7
100
AcDbLine
 10
-299.2680145312799
 20
212.576508980646
 30
0.0
 11
-299.7680145312799
 21
212.076508980646
 31
0.0
  0
LINE
  5
1F2
330
3F
100
AcDbEntity
  8
1
  6
Continuous
 62
     7
100
AcDbLine
 10
-296.5202545661729
 20
209.9115089806459
 30
0.0
 11
-299.2680145312799
 21
209.9115089806459
 31
0.0
  0
LINE
  5
1F1
330
3F
100
AcDbEntity
  8
1
  6
Continuous
 62
     7
100
AcDbLine
 10
-289.9780145312799
 20
212.576508980646
 30
0.0
 11
-299.2680145312799
 21
212.576508980646
 31
0.0
  0
INSERT
  5
41
330
3F
100
AcDbEntity
  8
0
100
AcDbBlockReference
  2
RETAINER
 10
0.0
 20
0.0
 30
0.0
  0
ENDBLK
  5
217
330
3F
100
AcDbEntity
  8
0
100
AcDbBlockEnd
  0
BLOCK
  5
43
330
42
100
AcDbEntity
  8
0
100
AcDbBlockBegin
  2
HEX_BOLT_TOP__4
 70
     0
 10
0.0
 20
0.0
 30
0.0
  3
HEX_BOLT_TOP__4
  1

  0
CIRCLE
  5
21F
330
42
100
AcDbEntity
  8
1
  6
Continuous
 62
     7
100
AcDbCircle
 10
-111.9605263157899
 20
248.131008980646
 30
0.0
 40
2.403589838485999
  0
CIRCLE
  5
21E
330
42
100
AcDbEntity
  8
1
  6
Continuous
 62
     7
100
AcDbCircle
 10
-111.9605263157899
 20
248.131008980646
 30
0.0
 40
2.75
  0
LINE
  5
21D
330
42
100
AcDbEntity
  8
1
  6
Continuous
 62
     7
100
AcDbLine
 10
-110.7105263157899
 20
247.409321144159
 30
0.0
 11
-110.7105263157899
 21
248.852696817133
 31
0.0
  0
LINE
  5
21C
330
42
100
AcDbEntity
  8
1
  6
Continuous
 62
     7
100
AcDbLine
 10
-111.9605263157899
 20
246.687633307672
 30
0.0
 11
-110.7105263157899
 21
247.409321144159
 31
0.0
  0
LINE
  5
21B
330
42
100
AcDbEntity
  8
1
  6
Continuous
 62
     7
100
AcDbLine
 10
-113.2105263157899
 20
247.409321144159
 30
0.0
 11
-111.9605263157899
 21
246.687633307672
 31
0.0
  0
LINE
  5
21A
330
42
100
AcDbEntity
  8
1
  6
Continuous
 62
     7
100
AcDbLine
 10
-113.2105263157899
 20
248.852696817133
 30
0.0
 11
-113.2105263157899
 21
247.409321144159
 31
0.0
  0
LINE
  5
219
330
42
100
AcDbEntity
  8
1
  6
Continuous
 62
     7
100
AcDbLine
 10
-111.9605263157899
 20
249.57438465362
 30
0.0
 11
-113.2105263157899
 21
248.852696817133
 31
0.0
  0
LINE
  5
218
330
42
100
AcDbEntity
  8
1
  6
Continuous
 62
     7
100
AcDbLine
 10
-110.7105263157899
 20
248.852696817133
 30
0.0
 11
-111.9605263157899
 21
249.57438465362
 31
0.0
  0
ENDBLK
  5
220
330
42
100
AcDbEntity
  8
0
100
AcDbBlockEnd
  0
BLOCK
  5
45
330
44
100
AcDbEntity
  8
0
100
AcDbBlockBegin
  2
HEX_BOLT_TOP__5
 70
     0
 10
0.0
 20
0.0
 30
0.0
  3
HEX_BOLT_TOP__5
  1

  0
CIRCLE
  5
228
330
44
100
AcDbEntity
  8
1
  6
Continuous
 62
     7
100
AcDbCircle
 10
-141.3355263157899
 20
299.0100014529819
 30
0.0
 40
2.75
  0
CIRCLE
  5
227
330
44
100
AcDbEntity
  8
1
  6
Continuous
 62
     7
100
AcDbCircle
 10
-141.3355263157899
 20
299.0100014529819
 30
0.0
 40
2.403589838485999
  0
LINE
  5
226
330
44
100
AcDbEntity
  8
1
  6
Continuous
 62
     7
100
AcDbLine
 10
-141.3355263157909
 20
300.453377125956
 30
0.0
 11
-142.58552631579
 21
299.7316892894689
 31
0.0
  0
LINE
  5
225
330
44
100
AcDbEntity
  8
1
  6
Continuous
 62
     7
100
AcDbLine
 10
-142.58552631579
 20
299.7316892894689
 30
0.0
 11
-142.5855263157909
 21
298.288313616495
 31
0.0
  0
LINE
  5
224
330
44
100
AcDbEntity
  8
1
  6
Continuous
 62
     7
100
AcDbLine
 10
-142.5855263157909
 20
298.288313616495
 30
0.0
 11
-141.3355263157899
 21
297.5666257800079
 31
0.0
  0
LINE
  5
223
330
44
100
AcDbEntity
  8
1
  6
Continuous
 62
     7
100
AcDbLine
 10
-141.3355263157899
 20
297.5666257800079
 30
0.0
 11
-140.0855263157909
 21
298.288313616495
 31
0.0
  0
LINE
  5
222
330
44
100
AcDbEntity
  8
1
  6
Continuous
 62
     7
100
AcDbLine
 10
-140.0855263157909
 20
298.288313616495
 30
0.0
 11
-140.0855263157899
 21
299.7316892894689
 31
0.0
  0
LINE
  5
221
330
44
100
AcDbEntity
  8
1
  6
Continuous
 62
     7
100
AcDbLine
 10
-140.0855263157899
 20
299.7316892894689
 30
0.0
 11
-141.3355263157909
 21
300.453377125956
 31
0.0
  0
ENDBLK
  5
229
330
44
100
AcDbEntity
  8
0
100
AcDbBlockEnd
  0
BLOCK
  5
47
330
46
100
AcDbEntity
  8
0
100
AcDbBlockBegin
  2
HEX_BOLT_TOP__6
 70
     0
 10
0.0
 20
0.0
 30
0.0
  3
HEX_BOLT_TOP__6
  1

  0
CIRCLE
  5
231
330
46
100
AcDbEntity
  8
1
  6
Continuous
 62
     7
100
AcDbCircle
 10
-200.0855263157899
 20
299.0100014529819
 30
0.0
 40
2.403589838485999
  0
CIRCLE
  5
230
330
46
100
AcDbEntity
  8
1
  6
Continuous
 62
     7
100
AcDbCircle
 10
-200.0855263157899
 20
299.0100014529819
 30
0.0
 40
2.75
  0
LINE
  5
22F
330
46
100
AcDbEntity
  8
1
  6
Continuous
 62
     7
100
AcDbLine
 10
-200.0855263157899
 20
300.453377125956
 30
0.0
 11
-201.335526315791
 21
299.731689289468
 31
0.0
  0
LINE
  5
22E
330
46
100
AcDbEntity
  8
1
  6
Continuous
 62
     7
100
AcDbLine
 10
-198.835526315791
 20
299.731689289468
 30
0.0
 11
-200.0855263157899
 21
300.453377125956
 31
0.0
  0
LINE
  5
22D
330
46
100
AcDbEntity
  8
1
  6
Continuous
 62
     7
100
AcDbLine
 10
-198.83552631579
 20
298.288313616495
 30
0.0
 11
-198.835526315791
 21
299.731689289468
 31
0.0
  0
LINE
  5
22C
330
46
100
AcDbEntity
  8
1
  6
Continuous
 62
     7
100
AcDbLine
 10
-200.085526315791
 20
297.566625780007
 30
0.0
 11
-198.83552631579
 21
298.288313616495
 31
0.0
  0
LINE
  5
22B
330
46
100
AcDbEntity
  8
1
  6
Continuous
 62
     7
100
AcDbLine
 10
-201.33552631579
 20
298.288313616495
 30
0.0
 11
-200.085526315791
 21
297.566625780007
 31
0.0
  0
LINE
  5
22A
330
46
100
AcDbEntity
  8
1
  6
Continuous
 62
     7
100
AcDbLine
 10
-201.335526315791
 20
299.731689289468
 30
0.0
 11
-201.33552631579
 21
298.288313616495
 31
0.0
  0
ENDBLK
  5
232
330
46
100
AcDbEntity
  8
0
100
AcDbBlockEnd
  0
BLOCK
  5
49
330
48
100
AcDbEntity
  8
0
100
AcDbBlockBegin
  2
HEX_BOLT_TOP__7
 70
     0
 10
0.0
 20
0.0
 30
0.0
  3
HEX_BOLT_TOP__7
  1

  0
CIRCLE
  5
23A
330
48
100
AcDbEntity
  8
1
  6
Continuous
 62
     7
100
AcDbCircle
 10
-229.46052631579
 20
248.131008980646
 30
0.0
 40
2.75
  0
CIRCLE
  5
239
330
48
100
AcDbEntity
  8
1
  6
Continuous
 62
     7
100
AcDbCircle
 10
-229.46052631579
 20
248.131008980646
 30
0.0
 40
2.403589838485999
  0
LINE
  5
238
330
48
100
AcDbEntity
  8
1
  6
Continuous
 62
     7
100
AcDbLine
 10
-230.7105263157899
 20
247.409321144158
 30
0.0
 11
-229.46052631579
 21
246.687633307672
 31
0.0
  0
LINE
  5
237
330
48
100
AcDbEntity
  8
1
  6
Continuous
 62
     7
100
AcDbLine
 10
-229.46052631579
 20
246.687633307672
 30
0.0
 11
-228.2105263157899
 21
247.409321144158
 31
0.0
  0
LINE
  5
236
330
48
100
AcDbEntity
  8
1
  6
Continuous
 62
     7
100
AcDbLine
 10
-228.2105263157899
 20
247.409321144158
 30
0.0
 11
-228.2105263157899
 21
248.852696817133
 31
0.0
  0
LINE
  5
235
330
48
100
AcDbEntity
  8
1
  6
Continuous
 62
     7
100
AcDbLine
 10
-228.2105263157899
 20
248.852696817133
 30
0.0
 11
-229.46052631579
 21
249.574384653619
 31
0.0
  0
LINE
  5
234
330
48
100
AcDbEntity
  8
1
  6
Continuous
 62
     7
100
AcDbLine
 10
-229.46052631579
 20
249.574384653619
 30
0.0
 11
-230.7105263157899
 21
248.852696817133
 31
0.0
  0
LINE
  5
233
330
48
100
AcDbEntity
  8
1
  6
Continuous
 62
     7
100
AcDbLine
 10
-230.7105263157899
 20
248.852696817133
 30
0.0
 11
-230.7105263157899
 21
247.409321144158
 31
0.0
  0
ENDBLK
  5
23B
330
48
100
AcDbEntity
  8
0
100
AcDbBlockEnd
  0
BLOCK
  5
4B
330
4A
100
AcDbEntity
  8
0
100
AcDbBlockBegin
  2
HEX_BOLT_TOP__8
 70
     0
 10
0.0
 20
0.0
 30
0.0
  3
HEX_BOLT_TOP__8
  1

  0
CIRCLE
  5
243
330
4A
100
AcDbEntity
  8
1
  6
Continuous
 62
     7
100
AcDbCircle
 10
-200.0855263157899
 20
197.25201650831
 30
0.0
 40
2.403589838485999
  0
CIRCLE
  5
242
330
4A
100
AcDbEntity
  8
1
  6
Continuous
 62
     7
100
AcDbCircle
 10
-200.0855263157899
 20
197.25201650831
 30
0.0
 40
2.75
  0
LINE
  5
241
330
4A
100
AcDbEntity
  8
1
  6
Continuous
 62
     7
100
AcDbLine
 10
-201.33552631579
 20
196.530328671823
 30
0.0
 11
-200.085526315789
 21
195.8086408353359
 31
0.0
  0
LINE
  5
240
330
4A
100
AcDbEntity
  8
1
  6
Continuous
 62
     7
100
AcDbLine
 10
-201.3355263157889
 20
197.9737043447969
 30
0.0
 11
-201.33552631579
 21
196.530328671823
 31
0.0
  0
LINE
  5
23F
330
4A
100
AcDbEntity
  8
1
  6
Continuous
 62
     7
100
AcDbLine
 10
-200.0855263157899
 20
198.6953921812839
 30
0.0
 11
-201.3355263157889
 21
197.9737043447969
 31
0.0
  0
LINE
  5
23E
330
4A
100
AcDbEntity
  8
1
  6
Continuous
 62
     7
100
AcDbLine
 10
-198.835526315789
 20
197.9737043447969
 30
0.0
 11
-200.0855263157899
 21
198.6953921812839
 31
0.0
  0
LINE
  5
23D
330
4A
100
AcDbEntity
  8
1
  6
Continuous
 62
     7
100
AcDbLine
 10
-198.83552631579
 20
196.530328671823
 30
0.0
 11
-198.835526315789
 21
197.9737043447969
 31
0.0
  0
LINE
  5
23C
330
4A
100
AcDbEntity
  8
1
  6
Continuous
 62
     7
100
AcDbLine
 10
-200.085526315789
 20
195.8086408353359
 30
0.0
 11
-198.83552631579
 21
196.530328671823
 31
0.0
  0
ENDBLK
  5
244
330
4A
100
AcDbEntity
  8
0
100
AcDbBlockEnd
  0
BLOCK
  5
4D
330
4C
100
AcDbEntity
  8
0
100
AcDbBlockBegin
  2
HEX_BOLT_TOP__9
 70
     0
 10
0.0
 20
0.0
 30
0.0
  3
HEX_BOLT_TOP__9
  1

  0
CIRCLE
  5
24C
330
4C
100
AcDbEntity
  8
1
  6
Continuous
 62
     7
100
AcDbCircle
 10
-141.3355263157899
 20
197.25201650831
 30
0.0
 40
2.75
  0
CIRCLE
  5
24B
330
4C
100
AcDbEntity
  8
1
  6
Continuous
 62
     7
100
AcDbCircle
 10
-141.3355263157899
 20
197.25201650831
 30
0.0
 40
2.403589838485999
  0
LINE
  5
24A
330
4C
100
AcDbEntity
  8
1
  6
Continuous
 62
     7
100
AcDbLine
 10
-140.0855263157889
 20
196.530328671823
 30
0.0
 11
-140.0855263157899
 21
197.9737043447969
 31
0.0
  0
LINE
  5
249
330
4C
100
AcDbEntity
  8
1
  6
Continuous
 62
     7
100
AcDbLine
 10
-140.0855263157899
 20
197.9737043447969
 30
0.0
 11
-141.335526315789
 21
198.695392181285
 31
0.0
  0
LINE
  5
248
330
4C
100
AcDbEntity
  8
1
  6
Continuous
 62
     7
100
AcDbLine
 10
-141.335526315789
 20
198.695392181285
 30
0.0
 11
-142.58552631579
 21
197.9737043447969
 31
0.0
  0
LINE
  5
247
330
4C
100
AcDbEntity
  8
1
  6
Continuous
 62
     7
100
AcDbLine
 10
-142.58552631579
 20
197.9737043447969
 30
0.0
 11
-142.585526315789
 21
196.530328671823
 31
0.0
  0
LINE
  5
246
330
4C
100
AcDbEntity
  8
1
  6
Continuous
 62
     7
100
AcDbLine
 10
-142.585526315789
 20
196.530328671823
 30
0.0
 11
-141.3355263157899
 21
195.8086408353359
 31
0.0
  0
LINE
  5
245
330
4C
100
AcDbEntity
  8
1
  6
Continuous
 62
     7
100
AcDbLine
 10
-141.3355263157899
 20
195.8086408353359
 30
0.0
 11
-140.0855263157889
 21
196.530328671823
 31
0.0
  0
ENDBLK
  5
24D
330
4C
100
AcDbEntity
  8
0
100
AcDbBlockEnd
  0
BLOCK
  5
37E
330
37B
100
AcDbEntity
  8
0
100
AcDbBlockBegin
  2
NTC
 70
     0
 10
0.0
 20
0.0
 30
0.0
  3
NTC
  1

  0
LWPOLYLINE
  5
37C
330
37B
100
AcDbEntity
  8
0
100
AcDbPolyline
 90
        8
 70
     1
 43
0.0
 10
4.581008201925953
 20
-10.78862239032818
 10
319.3921777697513
 20
-10.78862239032818
 42
-0.4142135623730951
 10
324.9046777697513
 20
-16.30112239032816
 10
324.9046777697513
 20
-117.4075202476924
 42
-0.4142135623730951
 10
319.3921777697513
 20
-122.9200202476925
 10
4.581008201925837
 20
-122.9200202476925
 42
-0.4142135623730951
 10
-0.9314917980741483
 20
-117.4075202476924
 10
-0.9314917980740915
 20
-16.30112239032816
 42
-0.4142135623730951
  0
MTEXT
  5
37D
330
37B
100
AcDbEntity
  8
0
  6
Continuous
370
    30
100
AcDbMText
 10
21.65307678143926
 20
-17.4535155144544
 30
0.0
 40
8.75
 41
294.5432999999998
 71
     1
 72
     5
  3
{\fTxt|b1|i0|c0|p2;Notice:\P\Ftxt.shx;\H0.5714x;All specifications and dimensions shown in the drawing are subject to change without notice. This drawing is the property of Harmonic Drive LLC.   This data is believed to be accurate, however, Harmonic
  1
 Drive LLC assumes no liability for any errors or omissions in the specifications, models, or drawings.\P\PHarmonic Drive LLC\PTel: 800-921-3332\Pwww.harmonicdrive.net}
 73
     1
 44
1.0
  0
ENDBLK
  5
37F
330
37B
100
AcDbEntity
  8
0
100
AcDbBlockEnd
  0
BLOCK
  5
38A
330
387
100
AcDbEntity
  8
0
 62
     7
100
AcDbBlockBegin
  2
AI9-BLK14
 70
     0
 10
0.0
 20
0.0
 30
0.0
  3
AI9-BLK14
  1

  0
SPLINE
  5
388
330
387
100
AcDbEntity
  8
LAYER_1
 62
     7
100
AcDbSpline
210
0.0
220
0.0
230
1.0
 70
    11
 71
     3
 72
    23
 73
    19
 74
     0
 42
0.0000000001
 43
0.0000000001
 40
0.0
 40
0.0
 40
0.0
 40
0.0
 40
1.0
 40
1.0
 40
1.0
 40
2.0
 40
2.0
 40
2.0
 40
3.0
 40
3.0
 40
3.0
 40
4.0
 40
4.0
 40
4.0
 40
5.0
 40
5.0
 40
5.0
 40
6.0
 40
6.0
 40
6.0
 40
6.0
 10
-10.90321044921874
 20
10.88107571072048
 30
0.0
 10
-10.90321044921874
 20
10.88107571072048
 30
0.0
 10
-10.90321044921874
 20
-10.88107571072048
 30
0.0
 10
-10.90321044921874
 20
-10.88107571072048
 30
0.0
 10
-10.90321044921874
 20
-10.88107571072048
 30
0.0
 10
1.752692328559025
 20
-10.88107571072048
 30
0.0
 10
1.752692328559025
 20
-10.88107571072048
 30
0.0
 10
3.280592176649305
 20
-10.88107571072048
 30
0.0
 10
10.90321044921874
 20
-10.32383151584201
 30
0.0
 10
10.90321044921874
 20
0.6792867024739583
 30
0.0
 10
10.90321044921874
 20
10.61700914171006
 30
0.0
 10
2.773129611545138
 20
10.87952541775172
 30
0.0
 10
2.691136338975693
 20
10.88090345594618
 30
0.0
 10
2.691136338975693
 20
10.88090345594618
 30
0.0
 10
-9.903099229600693
 20
10.88107571072048
 30
0.0
 10
-9.903099229600693
 20
10.88107571072048
 30
0.0
 10
-9.903099229600693
 20
10.88107571072048
 30
0.0
 10
-10.90321044921874
 20
10.88107571072048
 30
0.0
 10
-10.90321044921874
 20
10.88107571072048
 30
0.0
  0
SPLINE
  5
389
330
387
100
AcDbEntity
  8
LAYER_1
 62
     7
100
AcDbSpline
210
0.0
220
0.0
230
1.0
 70
    11
 71
     3
 72
    20
 73
    16
 74
     0
 42
0.0000000001
 43
0.0000000001
 40
0.0
 40
0.0
 40
0.0
 40
0.0
 40
1.0
 40
1.0
 40
1.0
 40
2.0
 40
2.0
 40
2.0
 40
3.0
 40
3.0
 40
3.0
 40
4.0
 40
4.0
 40
4.0
 40
5.0
 40
5.0
 40
5.0
 40
5.0
 10
2.672877332899305
 20
8.881197781032986
 30
0.0
 10
2.905421278211805
 20
8.874307590060762
 30
0.0
 10
8.902988009982637
 20
8.616442192925347
 30
0.0
 10
8.902988009982637
 20
0.6792867024739583
 30
0.0
 10
8.902988009982637
 20
-8.191661919487842
 30
0.0
 10
3.430109320746526
 20
-8.881197781032986
 30
0.0
 10
1.752692328559025
 20
-8.881197781032986
 30
0.0
 10
1.752692328559025
 20
-8.881197781032986
 30
0.0
 10
-7.231427680121528
 20
-8.881197781032986
 30
0.0
 10
-8.902988009982637
 20
-8.881197781032986
 30
0.0
 10
-8.902988009982637
 20
-7.174497477213541
 30
0.0
 10
-8.902988009982637
 20
7.174497477213541
 30
0.0
 10
-8.902988009982637
 20
8.881197781032986
 30
0.0
 10
-7.208690049913191
 20
8.881197781032986
 30
0.0
 10
2.672877332899305
 20
8.881197781032986
 30
0.0
 10
2.672877332899305
 20
8.881197781032986
 30
0.0
  0
ENDBLK
  5
38B
330
387
100
AcDbEntity
  8
0
100
AcDbBlockEnd
  0
BLOCK
  5
38F
330
38C
100
AcDbEntity
  8
0
 62
     7
100
AcDbBlockBegin
  2
AI9-BLK13
 70
     0
 10
0.0
 20
0.0
 30
0.0
  3
AI9-BLK13
  1

  0
LWPOLYLINE
  5
38D
330
38C
100
AcDbEntity
  8
LAYER_1
 62
     7
100
AcDbPolyline
 90
       12
 70
     1
 43
0.0
 10
-3.792361111111107
 20
10.7376736111111
 10
-2.469444444444443
 20
10.7376736111111
 10
-2.469444444444443
 20
1.874131944444444
 10
2.469444444444443
 20
1.874131944444444
 10
2.469444444444443
 20
10.7376736111111
 10
3.792361111111107
 20
10.7376736111111
 10
3.792361111111107
 20
-10.7376736111111
 10
2.469444444444443
 20
-10.7376736111111
 10
2.469444444444443
 20
-0.6835069444444444
 10
-2.469444444444443
 20
-0.6835069444444444
 10
-2.469444444444443
 20
-10.7376736111111
 10
-3.792361111111107
 20
-10.7376736111111
  0
HATCH
  5
38E
330
38C
100
AcDbEntity
  8
LAYER_1
 62
     7
100
AcDbHatch
 10
0.0
 20
0.0
 30
0.0
210
0.0
220
0.0
230
1.0
  2
SOLID
 70
     1
 71
     0
 91
        1
 92
        3
 72
     0
 73
     1
 93
       12
 10
-3.792361111111107
 20
10.7376736111111
 10
-2.469444444444443
 20
10.7376736111111
 10
-2.469444444444443
 20
1.874131944444444
 10
2.469444444444443
 20
1.874131944444444
 10
2.469444444444443
 20
10.7376736111111
 10
3.792361111111107
 20
10.7376736111111
 10
3.792361111111107
 20
-10.7376736111111
 10
2.469444444444443
 20
-10.7376736111111
 10
2.469444444444443
 20
-0.6835069444444444
 10
-2.469444444444443
 20
-0.6835069444444444
 10
-2.469444444444443
 20
-10.7376736111111
 10
-3.792361111111107
 20
-10.7376736111111
 97
        0
 75
     2
 76
     1
 98
        1
 10
0.0
 20
0.0
  0
ENDBLK
  5
390
330
38C
100
AcDbEntity
  8
0
100
AcDbBlockEnd
  0
BLOCK
  5
394
330
391
100
AcDbEntity
  8
0
 62
     7
100
AcDbBlockBegin
  2
AI9-BLK11
 70
     0
 10
0.0
 20
0.0
 30
0.0
  3
AI9-BLK11
  1

  0
SPLINE
  5
392
330
391
100
AcDbEntity
  8
LAYER_1
 62
     7
100
AcDbSpline
210
0.0
220
0.0
230
1.0
 70
    11
 71
     3
 72
    26
 73
    22
 74
     0
 42
0.0000000001
 43
0.0000000001
 40
0.0
 40
0.0
 40
0.0
 40
0.0
 40
1.0
 40
1.0
 40
1.0
 40
2.0
 40
2.0
 40
2.0
 40
3.0
 40
3.0
 40
3.0
 40
4.0
 40
4.0
 40
4.0
 40
5.0
 40
5.0
 40
5.0
 40
6.0
 40
6.0
 40
6.0
 40
7.0
 40
7.0
 40
7.0
 40
7.0
 10
-2.645833333333333
 20
0.9039930555555551
 30
0.0
 10
-2.645833333333333
 20
0.9039930555555551
 30
0.0
 10
-2.645833333333333
 20
8.180034722222217
 30
0.0
 10
-2.645833333333333
 20
8.180034722222217
 30
0.0
 10
-2.645833333333333
 20
8.180034722222217
 30
0.0
 10
0.465087890625
 20
8.180034722222217
 30
0.0
 10
0.465087890625
 20
8.180034722222217
 30
0.0
 10
0.9026150173611108
 20
8.180034722222217
 30
0.0
 10
1.24988064236111
 20
8.034651692708331
 30
0.0
 10
1.506884765625
 20
7.745263671874997
 30
0.0
 10
2.001600477430554
 20
7.194048394097221
 30
0.0
 10
2.248958333333332
 20
6.160519748263887
 30
0.0
 10
2.248958333333332
 20
4.643299696180553
 30
0.0
 10
2.248958333333332
 20
3.232188585069443
 30
0.0
 10
2.072569444444444
 20
2.256537543402775
 30
0.0
 10
1.720480685763888
 20
1.715657552083333
 30
0.0
 10
1.368391927083333
 20
1.174088541666665
 30
0.0
 10
0.8929687499999998
 20
0.9039930555555551
 30
0.0
 10
0.2942111545138888
 20
0.9039930555555551
 30
0.0
 10
0.2942111545138888
 20
0.9039930555555551
 30
0.0
 10
-2.645833333333333
 20
0.9039930555555551
 30
0.0
 10
-2.645833333333333
 20
0.9039930555555551
 30
0.0
  0
SPLINE
  5
393
330
391
100
AcDbEntity
  8
LAYER_1
 62
     7
100
AcDbSpline
210
0.0
220
0.0
230
1.0
 70
    11
 71
     3
 72
    68
 73
    64
 74
     0
 42
0.0000000001
 43
0.0000000001
 40
0.0
 40
0.0
 40
0.0
 40
0.0
 40
1.0
 40
1.0
 40
1.0
 40
2.0
 40
2.0
 40
2.0
 40
3.0
 40
3.0
 40
3.0
 40
4.0
 40
4.0
 40
4.0
 40
5.0
 40
5.0
 40
5.0
 40
6.0
 40
6.0
 40
6.0
 40
7.0
 40
7.0
 40
7.0
 40
8.0
 40
8.0
 40
8.0
 40
9.0
 40
9.0
 40
9.0
 40
10.0
 40
10.0
 40
10.0
 40
11.0
 40
11.0
 40
11.0
 40
12.0
 40
12.0
 40
12.0
 40
13.0
 40
13.0
 40
13.0
 40
14.0
 40
14.0
 40
14.0
 40
15.0
 40
15.0
 40
15.0
 40
16.0
 40
16.0
 40
16.0
 40
17.0
 40
17.0
 40
17.0
 40
18.0
 40
18.0
 40
18.0
 40
19.0
 40
19.0
 40
19.0
 40
20.0
 40
20.0
 40
20.0
 40
21.0
 40
21.0
 40
21.0
 40
21.0
 10
-3.968749999999998
 20
-10.7376736111111
 30
0.0
 10
-3.968749999999998
 20
-10.7376736111111
 30
0.0
 10
-2.645833333333333
 20
-10.7376736111111
 30
0.0
 10
-2.645833333333333
 20
-10.7376736111111
 30
0.0
 10
-2.645833333333333
 20
-10.7376736111111
 30
0.0
 10
-2.645833333333333
 20
-1.521354166666665
 30
0.0
 10
-2.645833333333333
 20
-1.521354166666665
 30
0.0
 10
-2.645833333333333
 20
-1.521354166666665
 30
0.0
 10
0.2390896267361111
 20
-1.521354166666665
 30
0.0
 10
0.2390896267361111
 20
-1.521354166666665
 30
0.0
 10
0.7599880642361111
 20
-1.521354166666665
 30
0.0
 10
1.143771701388887
 20
-1.65295681423611
 30
0.0
 10
1.390440538194444
 20
-1.916162109374999
 30
0.0
 10
1.816254340277773
 20
-2.39434136284722
 30
0.0
 10
2.04363064236111
 20
-3.335541449652775
 30
0.0
 10
2.072569444444444
 20
-4.739762369791666
 30
0.0
 10
2.072569444444444
 20
-4.739762369791666
 30
0.0
 10
2.160763888888888
 20
-8.324039713541665
 30
0.0
 10
2.160763888888888
 20
-8.324039713541665
 30
0.0
 10
2.18005642361111
 20
-9.163264973958332
 30
0.0
 10
2.202794053819443
 20
-9.728949652777775
 30
0.0
 10
2.227598741319444
 20
-10.02109374999998
 30
0.0
 10
2.252403428819443
 20
-10.31392686631944
 30
0.0
 10
2.28892144097222
 20
-10.55301649305555
 30
0.0
 10
2.33853081597222
 20
-10.7376736111111
 30
0.0
 10
2.33853081597222
 20
-10.7376736111111
 30
0.0
 10
3.968749999999998
 20
-10.7376736111111
 30
0.0
 10
3.968749999999998
 20
-10.7376736111111
 30
0.0
 10
3.968749999999998
 20
-10.7376736111111
 30
0.0
 10
3.968749999999998
 20
-10.25260416666666
 30
0.0
 10
3.968749999999998
 20
-10.25260416666666
 30
0.0
 10
3.766867404513888
 20
-10.05830078125
 30
0.0
 10
3.625618489583333
 20
-9.621462673611112
 30
0.0
 10
3.545692274305555
 20
-8.942089843749997
 30
0.0
 10
3.49470486111111
 20
-8.543836805555555
 30
0.0
 10
3.459564887152775
 20
-7.937499999999999
 30
0.0
 10
3.439583333333333
 20
-7.121701388888887
 30
0.0
 10
3.439583333333333
 20
-7.121701388888887
 30
0.0
 10
3.395486111111106
 20
-4.232644314236106
 30
0.0
 10
3.395486111111106
 20
-4.232644314236106
 30
0.0
 10
3.375504557291666
 20
-2.981385633680555
 30
0.0
 10
3.26870659722222
 20
-2.077392578125
 30
0.0
 10
3.075781249999999
 20
-1.522043185763888
 30
0.0
 10
2.882166883680555
 20
-0.9666937934027776
 30
0.0
 10
2.592089843749999
 20
-0.5188313802083333
 30
0.0
 10
2.204861111111105
 20
-0.1770779079861111
 30
0.0
 10
2.63618706597222
 20
0.3197048611111111
 30
0.0
 10
2.971739366319443
 20
0.9770290798611107
 30
0.0
 10
3.211518012152775
 20
1.79558376736111
 30
0.0
 10
3.451296657986107
 20
2.613449435763888
 30
0.0
 10
3.571874999999999
 20
3.66558159722222
 30
0.0
 10
3.571874999999999
 20
4.951291232638888
 30
0.0
 10
3.571874999999999
 20
7.415912543402777
 30
0.0
 10
3.124701605902775
 20
9.106076388888887
 30
0.0
 10
2.231043836805555
 20
10.02178276909722
 30
0.0
 10
1.759754774305553
 20
10.498583984375
 30
0.0
 10
1.163753255208332
 20
10.7376736111111
 30
0.0
 10
0.443039279513889
 20
10.7376736111111
 30
0.0
 10
0.443039279513889
 20
10.7376736111111
 30
0.0
 10
-3.968749999999998
 20
10.7376736111111
 30
0.0
 10
-3.968749999999998
 20
10.7376736111111
 30
0.0
 10
-3.968749999999998
 20
10.7376736111111
 30
0.0
 10
-3.968749999999998
 20
-10.7376736111111
 30
0.0
 10
-3.968749999999998
 20
-10.7376736111111
 30
0.0
  0
ENDBLK
  5
395
330
391
100
AcDbEntity
  8
0
100
AcDbBlockEnd
  0
BLOCK
  5
398
330
396
100
AcDbEntity
  8
0
 62
     7
100
AcDbBlockBegin
  2
AI9-BLK10
 70
     0
 10
0.0
 20
0.0
 30
0.0
  3
AI9-BLK10
  1

  0
SPLINE
  5
397
330
396
100
AcDbEntity
  8
LAYER_1
 62
     7
100
AcDbSpline
210
0.0
220
0.0
230
1.0
 70
    11
 71
     3
 72
    59
 73
    55
 74
     0
 42
0.0000000001
 43
0.0000000001
 40
0.0
 40
0.0
 40
0.0
 40
0.0
 40
1.0
 40
1.0
 40
1.0
 40
2.0
 40
2.0
 40
2.0
 40
3.0
 40
3.0
 40
3.0
 40
4.0
 40
4.0
 40
4.0
 40
5.0
 40
5.0
 40
5.0
 40
6.0
 40
6.0
 40
6.0
 40
7.0
 40
7.0
 40
7.0
 40
8.0
 40
8.0
 40
8.0
 40
9.0
 40
9.0
 40
9.0
 40
10.0
 40
10.0
 40
10.0
 40
11.0
 40
11.0
 40
11.0
 40
12.0
 40
12.0
 40
12.0
 40
13.0
 40
13.0
 40
13.0
 40
14.0
 40
14.0
 40
14.0
 40
15.0
 40
15.0
 40
15.0
 40
16.0
 40
16.0
 40
16.0
 40
17.0
 40
17.0
 40
17.0
 40
18.0
 40
18.0
 40
18.0
 40
18.0
 10
-4.652256944444443
 20
10.7376736111111
 30
0.0
 10
-4.652256944444443
 20
10.7376736111111
 30
0.0
 10
-2.798795572916666
 20
10.7376736111111
 30
0.0
 10
-2.798795572916666
 20
10.7376736111111
 30
0.0
 10
-2.798795572916666
 20
10.7376736111111
 30
0.0
 10
0.0
 20
-7.419357638888887
 30
0.0
 10
0.0
 20
-7.419357638888887
 30
0.0
 10
0.0
 20
-7.419357638888887
 30
0.0
 10
2.793283420138888
 20
10.7376736111111
 30
0.0
 10
2.793283420138888
 20
10.7376736111111
 30
0.0
 10
2.793283420138888
 20
10.7376736111111
 30
0.0
 10
4.652256944444443
 20
10.7376736111111
 30
0.0
 10
4.652256944444443
 20
10.7376736111111
 30
0.0
 10
4.652256944444443
 20
10.7376736111111
 30
0.0
 10
4.652256944444443
 20
-10.7376736111111
 30
0.0
 10
4.652256944444443
 20
-10.7376736111111
 30
0.0
 10
4.652256944444443
 20
-10.7376736111111
 30
0.0
 10
3.41753472222222
 20
-10.7376736111111
 30
0.0
 10
3.41753472222222
 20
-10.7376736111111
 30
0.0
 10
3.41753472222222
 20
-10.7376736111111
 30
0.0
 10
3.41753472222222
 20
1.936832682291665
 30
0.0
 10
3.41753472222222
 20
1.936832682291665
 30
0.0
 10
3.41753472222222
 20
2.375048828124999
 30
0.0
 10
3.424424913194443
 20
3.101274956597221
 30
0.0
 10
3.439583333333333
 20
4.11482204861111
 30
0.0
 10
3.454052734374998
 20
5.128369140624998
 30
0.0
 10
3.461631944444443
 20
6.214952256944441
 30
0.0
 10
3.461631944444443
 20
7.375260416666666
 30
0.0
 10
3.461631944444443
 20
7.375260416666666
 30
0.0
 10
0.6538791232638889
 20
-10.7376736111111
 30
0.0
 10
0.6538791232638889
 20
-10.7376736111111
 30
0.0
 10
0.6538791232638889
 20
-10.7376736111111
 30
0.0
 10
-0.6628363715277778
 20
-10.7376736111111
 30
0.0
 10
-0.6628363715277778
 20
-10.7376736111111
 30
0.0
 10
-0.6628363715277778
 20
-10.7376736111111
 30
0.0
 10
-3.461631944444443
 20
7.375260416666666
 30
0.0
 10
-3.461631944444443
 20
7.375260416666666
 30
0.0
 10
-3.461631944444443
 20
7.375260416666666
 30
0.0
 10
-3.461631944444443
 20
6.717247178819441
 30
0.0
 10
-3.461631944444443
 20
6.717247178819441
 30
0.0
 10
-3.461631944444443
 20
6.190836588541666
 30
0.0
 10
-3.45474175347222
 20
5.389507378472222
 30
0.0
 10
-3.439583333333333
 20
4.312570529513888
 30
0.0
 10
-3.425113932291666
 20
3.235633680555555
 30
0.0
 10
-3.41753472222222
 20
2.44395073784722
 30
0.0
 10
-3.41753472222222
 20
1.936832682291665
 30
0.0
 10
-3.41753472222222
 20
1.936832682291665
 30
0.0
 10
-3.41753472222222
 20
-10.7376736111111
 30
0.0
 10
-3.41753472222222
 20
-10.7376736111111
 30
0.0
 10
-3.41753472222222
 20
-10.7376736111111
 30
0.0
 10
-4.652256944444443
 20
-10.7376736111111
 30
0.0
 10
-4.652256944444443
 20
-10.7376736111111
 30
0.0
 10
-4.652256944444443
 20
-10.7376736111111
 30
0.0
 10
-4.652256944444443
 20
10.7376736111111
 30
0.0
 10
-4.652256944444443
 20
10.7376736111111
 30
0.0
  0
ENDBLK
  5
399
330
396
100
AcDbEntity
  8
0
100
AcDbBlockEnd
  0
BLOCK
  5
39D
330
39A
100
AcDbEntity
  8
0
 62
     7
100
AcDbBlockBegin
  2
AI9-BLK9
 70
     0
 10
0.0
 20
0.0
 30
0.0
  3
AI9-BLK9
  1

  0
SPLINE
  5
39B
330
39A
100
AcDbEntity
  8
LAYER_1
 62
     7
100
AcDbSpline
210
0.0
220
0.0
230
1.0
 70
    11
 71
     3
 72
    29
 73
    25
 74
     0
 42
0.0000000001
 43
0.0000000001
 40
0.0
 40
0.0
 40
0.0
 40
0.0
 40
1.0
 40
1.0
 40
1.0
 40
2.0
 40
2.0
 40
2.0
 40
3.0
 40
3.0
 40
3.0
 40
4.0
 40
4.0
 40
4.0
 40
5.0
 40
5.0
 40
5.0
 40
6.0
 40
6.0
 40
6.0
 40
7.0
 40
7.0
 40
7.0
 40
8.0
 40
8.0
 40
8.0
 40
8.0
 10
0.0668348524305556
 20
-8.753298611111111
 30
0.0
 10
-0.9067491319444444
 20
-8.753298611111111
 30
0.0
 10
-1.60954861111111
 20
-7.936810980902778
 30
0.0
 10
-2.041563585069444
 20
-6.30383572048611
 30
0.0
 10
-2.474267578124999
 20
-4.670860460069443
 30
0.0
 10
-2.689930555555555
 20
-2.664436848958333
 30
0.0
 10
-2.689930555555555
 20
-0.28525390625
 30
0.0
 10
-2.689930555555555
 20
2.68855251736111
 30
0.0
 10
-2.439127604166666
 20
4.938199869791666
 30
0.0
 10
-1.937521701388888
 20
6.464377170138886
 30
0.0
 10
-1.43591579861111
 20
7.989865451388887
 30
0.0
 10
-0.7827256944444444
 20
8.753298611111111
 30
0.0
 10
0.0220486111111111
 20
8.753298611111111
 30
0.0
 10
0.8468044704861108
 20
8.753298611111111
 30
0.0
 10
1.49792751736111
 20
7.982975260416663
 30
0.0
 10
1.974728732638888
 20
6.442328559027776
 30
0.0
 10
2.451529947916665
 20
4.901681857638886
 30
0.0
 10
2.689930555555555
 20
2.868386501736111
 30
0.0
 10
2.689930555555555
 20
0.3438205295138888
 30
0.0
 10
2.689930555555555
 20
-2.045697699652774
 30
0.0
 10
2.483224826388884
 20
-4.15891927083333
 30
0.0
 10
2.071191406249999
 20
-5.996533203124998
 30
0.0
 10
1.65915798611111
 20
-7.834836154513887
 30
0.0
 10
0.9908094618055557
 20
-8.753298611111111
 30
0.0
 10
0.0668348524305556
 20
-8.753298611111111
 30
0.0
  0
SPLINE
  5
39C
330
39A
100
AcDbEntity
  8
LAYER_1
 62
     7
100
AcDbSpline
210
0.0
220
0.0
230
1.0
 70
    11
 71
     3
 72
    29
 73
    25
 74
     0
 42
0.0000000001
 43
0.0000000001
 40
0.0
 40
0.0
 40
0.0
 40
0.0
 40
1.0
 40
1.0
 40
1.0
 40
2.0
 40
2.0
 40
2.0
 40
3.0
 40
3.0
 40
3.0
 40
4.0
 40
4.0
 40
4.0
 40
5.0
 40
5.0
 40
5.0
 40
6.0
 40
6.0
 40
6.0
 40
7.0
 40
7.0
 40
7.0
 40
8.0
 40
8.0
 40
8.0
 40
8.0
 10
-0.0289388020833333
 20
11.35503472222222
 30
0.0
 10
-1.317404513888887
 20
11.35503472222222
 30
0.0
 10
-2.28892144097222
 20
10.02798394097222
 30
0.0
 10
-2.94280056423611
 20
7.374571397569441
 30
0.0
 10
-3.450607638888888
 20
5.30613606770833
 30
0.0
 10
-3.704166666666666
 20
2.81877712673611
 30
0.0
 10
-3.704166666666666
 20
-0.0881944444444445
 30
0.0
 10
-3.704166666666666
 20
-3.307291666666666
 30
0.0
 10
-3.406510416666666
 20
-5.97035047743055
 30
0.0
 10
-2.811197916666666
 20
-8.077370876736106
 30
0.0
 10
-2.147672526041664
 20
-10.26293945312499
 30
0.0
 10
-1.229899088541666
 20
-11.35503472222222
 30
0.0
 10
-0.0585666232638889
 20
-11.35503472222222
 30
0.0
 10
1.20027126736111
 20
-11.35503472222222
 30
0.0
 10
2.166276041666665
 20
-10.10653211805555
 30
0.0
 10
2.840136718749998
 20
-7.609526909722221
 30
0.0
 10
3.416156684027776
 20
-5.483213975694441
 30
0.0
 10
3.704166666666666
 20
-2.814643012152775
 30
0.0
 10
3.704166666666666
 20
0.3948079427083333
 30
0.0
 10
3.704166666666666
 20
3.360346137152776
 30
0.0
 10
3.449918619791666
 20
5.793961588541666
 30
0.0
 10
2.94280056423611
 20
7.696343315972222
 30
0.0
 10
2.298567708333333
 20
10.13547092013888
 30
0.0
 10
1.307758246527777
 20
11.35503472222222
 30
0.0
 10
-0.0289388020833333
 20
11.35503472222222
 30
0.0
  0
ENDBLK
  5
39E
330
39A
100
AcDbEntity
  8
0
100
AcDbBlockEnd
  0
BLOCK
  5
3A2
330
39F
100
AcDbEntity
  8
0
 62
     7
100
AcDbBlockBegin
  2
AI9-BLK8
 70
     0
 10
0.0
 20
0.0
 30
0.0
  3
AI9-BLK8
  1

  0
LWPOLYLINE
  5
3A0
330
39F
100
AcDbEntity
  8
LAYER_1
 62
     7
100
AcDbPolyline
 90
       10
 70
     1
 43
0.0
 10
-3.792361111111107
 20
10.7376736111111
 10
-2.268939887152773
 20
10.7376736111111
 10
2.557638888888888
 20
-6.505718315972222
 10
2.557638888888888
 20
10.7376736111111
 10
3.792361111111107
 20
10.7376736111111
 10
3.792361111111107
 20
-10.7376736111111
 10
2.32612847222222
 20
-10.7376736111111
 10
-2.557638888888888
 20
6.549815538194441
 10
-2.557638888888888
 20
-10.7376736111111
 10
-3.792361111111107
 20
-10.7376736111111
  0
HATCH
  5
3A1
330
39F
100
AcDbEntity
  8
LAYER_1
 62
     7
100
AcDbHatch
 10
0.0
 20
0.0
 30
0.0
210
0.0
220
0.0
230
1.0
  2
SOLID
 70
     1
 71
     0
 91
        1
 92
        3
 72
     0
 73
     1
 93
       10
 10
-3.792361111111107
 20
10.7376736111111
 10
-2.268939887152773
 20
10.7376736111111
 10
2.557638888888888
 20
-6.505718315972222
 10
2.557638888888888
 20
10.7376736111111
 10
3.792361111111107
 20
10.7376736111111
 10
3.792361111111107
 20
-10.7376736111111
 10
2.32612847222222
 20
-10.7376736111111
 10
-2.557638888888888
 20
6.549815538194441
 10
-2.557638888888888
 20
-10.7376736111111
 10
-3.792361111111107
 20
-10.7376736111111
 97
        0
 75
     2
 76
     1
 98
        1
 10
0.0
 20
0.0
  0
ENDBLK
  5
3A3
330
39F
100
AcDbEntity
  8
0
100
AcDbBlockEnd
  0
BLOCK
  5
3A7
330
3A4
100
AcDbEntity
  8
0
 62
     7
100
AcDbBlockBegin
  2
AI9-BLK7
 70
     0
 10
0.0
 20
0.0
 30
0.0
  3
AI9-BLK7
  1

  0
LWPOLYLINE
  5
3A5
330
3A4
100
AcDbEntity
  8
LAYER_1
 62
     7
100
AcDbPolyline
 90
        4
 70
     1
 43
0.0
 10
-0.6614583333333333
 20
10.7376736111111
 10
0.6614583333333333
 20
10.7376736111111
 10
0.6614583333333333
 20
-10.7376736111111
 10
-0.6614583333333333
 20
-10.7376736111111
  0
HATCH
  5
3A6
330
3A4
100
AcDbEntity
  8
LAYER_1
 62
     7
100
AcDbHatch
 10
0.0
 20
0.0
 30
0.0
210
0.0
220
0.0
230
1.0
  2
SOLID
 70
     1
 71
     0
 91
        1
 92
        3
 72
     0
 73
     1
 93
        4
 10
-0.6614583333333333
 20
10.7376736111111
 10
0.6614583333333333
 20
10.7376736111111
 10
0.6614583333333333
 20
-10.7376736111111
 10
-0.6614583333333333
 20
-10.7376736111111
 97
        0
 75
     2
 76
     1
 98
        1
 10
0.0
 20
0.0
  0
ENDBLK
  5
3A8
330
3A4
100
AcDbEntity
  8
0
100
AcDbBlockEnd
  0
BLOCK
  5
3AB
330
3A9
100
AcDbEntity
  8
0
 62
     7
100
AcDbBlockBegin
  2
AI9-BLK6
 70
     0
 10
0.0
 20
0.0
 30
0.0
  3
AI9-BLK6
  1

  0
SPLINE
  5
3AA
330
3A9
100
AcDbEntity
  8
LAYER_1
 62
     7
100
AcDbSpline
210
0.0
220
0.0
230
1.0
 70
    11
 71
     3
 72
    59
 73
    55
 74
     0
 42
0.0000000001
 43
0.0000000001
 40
0.0
 40
0.0
 40
0.0
 40
0.0
 40
1.0
 40
1.0
 40
1.0
 40
2.0
 40
2.0
 40
2.0
 40
3.0
 40
3.0
 40
3.0
 40
4.0
 40
4.0
 40
4.0
 40
5.0
 40
5.0
 40
5.0
 40
6.0
 40
6.0
 40
6.0
 40
7.0
 40
7.0
 40
7.0
 40
8.0
 40
8.0
 40
8.0
 40
9.0
 40
9.0
 40
9.0
 40
10.0
 40
10.0
 40
10.0
 40
11.0
 40
11.0
 40
11.0
 40
12.0
 40
12.0
 40
12.0
 40
13.0
 40
13.0
 40
13.0
 40
14.0
 40
14.0
 40
14.0
 40
15.0
 40
15.0
 40
15.0
 40
16.0
 40
16.0
 40
16.0
 40
17.0
 40
17.0
 40
17.0
 40
18.0
 40
18.0
 40
18.0
 40
18.0
 10
3.062689887152775
 20
9.168088107638887
 30
0.0
 10
3.735172526041666
 20
7.739062499999997
 30
0.0
 10
4.110687934027776
 20
6.116422526041666
 30
0.0
 10
4.189236111111108
 20
4.299479166666666
 30
0.0
 10
4.189236111111108
 20
4.299479166666666
 30
0.0
 10
2.866319444444443
 20
4.299479166666666
 30
0.0
 10
2.866319444444443
 20
4.299479166666666
 30
0.0
 10
2.720936414930555
 20
5.667871093749997
 30
0.0
 10
2.435682508680555
 20
6.752387152777776
 30
0.0
 10
2.009868706597218
 20
7.553027343749997
 30
0.0
 10
1.584054904513888
 20
8.352978515624997
 30
0.0
 10
0.9839192708333332
 20
8.753298611111111
 30
0.0
 10
0.2101508246527778
 20
8.753298611111111
 30
0.0
 10
-0.7386284722222222
 20
8.753298611111111
 30
0.0
 10
-1.503439670138888
 20
8.010536024305555
 30
0.0
 10
-2.083593749999999
 20
6.526388888888886
 30
0.0
 10
-2.664436848958333
 20
5.042241753472221
 30
0.0
 10
-2.954513888888888
 20
2.767100694444443
 30
0.0
 10
-2.954513888888888
 20
-0.2990342881944444
 30
0.0
 10
-2.954513888888888
 20
-2.811197916666666
 30
0.0
 10
-2.693375651041666
 20
-4.847938368055555
 30
0.0
 10
-2.17041015625
 20
-6.409944661458332
 30
0.0
 10
-1.648133680555553
 20
-7.972639973958332
 30
0.0
 10
-0.8640299479166666
 20
-8.753298611111111
 30
0.0
 10
0.1812120225694444
 20
-8.753298611111111
 30
0.0
 10
1.138948567708333
 20
-8.753298611111111
 30
0.0
 10
1.865174696180553
 20
-7.927853732638887
 30
0.0
 10
2.359201388888884
 20
-6.275585937499998
 30
0.0
 10
2.62998589409722
 20
-5.406043836805555
 30
0.0
 10
2.828423394097221
 20
-4.262272135416666
 30
0.0
 10
2.954513888888888
 20
-2.844270833333331
 30
0.0
 10
2.954513888888888
 20
-2.844270833333331
 30
0.0
 10
4.277430555555555
 20
-2.844270833333331
 30
0.0
 10
4.277430555555555
 20
-2.844270833333331
 30
0.0
 10
4.169943576388888
 20
-5.109765624999996
 30
0.0
 10
3.795117187499998
 20
-7.009391276041665
 30
0.0
 10
3.151573350694443
 20
-8.542458767361106
 30
0.0
 10
2.381249999999999
 20
-10.38834092881943
 30
0.0
 10
1.347721354166665
 20
-11.3109375
 30
0.0
 10
0.0509874131944445
 20
-11.3109375
 30
0.0
 10
-1.07004665798611
 20
-11.3109375
 30
0.0
 10
-2.010557725694444
 20
-10.55577256944443
 30
0.0
 10
-2.771234809027776
 20
-9.04475368923611
 30
0.0
 10
-3.775824652777775
 20
-7.046598307291666
 30
0.0
 10
-4.277430555555555
 20
-3.961170789930555
 30
0.0
 10
-4.277430555555555
 20
0.2115288628472222
 30
0.0
 10
-4.277430555555555
 20
3.379638671874998
 30
0.0
 10
-3.902604166666666
 20
5.977929687499997
 30
0.0
 10
-3.151573350694443
 20
8.005712890624996
 30
0.0
 10
-2.333018663194443
 20
10.20919596354165
 30
0.0
 10
-1.20647243923611
 20
11.3109375
 30
0.0
 10
0.2266872829861111
 20
11.3109375
 30
0.0
 10
1.444873046875
 20
11.3109375
 30
0.0
 10
2.390207248263884
 20
10.59642469618055
 30
0.0
 10
3.062689887152775
 20
9.168088107638887
 30
0.0
  0
ENDBLK
  5
3AC
330
3A9
100
AcDbEntity
  8
0
100
AcDbBlockEnd
  0
BLOCK
  5
3B0
330
3AD
100
AcDbEntity
  8
0
 62
     7
100
AcDbBlockBegin
  2
AI9-BLK5
 70
     0
 10
0.0
 20
0.0
 30
0.0
  3
AI9-BLK5
  1

  0
SPLINE
  5
3AE
330
3AD
100
AcDbEntity
  8
LAYER_1
 62
     7
100
AcDbSpline
210
0.0
220
0.0
230
1.0
 70
    11
 71
     3
 72
    32
 73
    28
 74
     0
 42
0.0000000001
 43
0.0000000001
 40
0.0
 40
0.0
 40
0.0
 40
0.0
 40
1.0
 40
1.0
 40
1.0
 40
2.0
 40
2.0
 40
2.0
 40
3.0
 40
3.0
 40
3.0
 40
4.0
 40
4.0
 40
4.0
 40
5.0
 40
5.0
 40
5.0
 40
6.0
 40
6.0
 40
6.0
 40
7.0
 40
7.0
 40
7.0
 40
8.0
 40
8.0
 40
8.0
 40
9.0
 40
9.0
 40
9.0
 40
9.0
 10
-2.62378472222222
 20
-8.268229166666666
 30
0.0
 10
-2.62378472222222
 20
-8.268229166666666
 30
0.0
 10
-2.62378472222222
 20
8.180034722222217
 30
0.0
 10
-2.62378472222222
 20
8.180034722222217
 30
0.0
 10
-2.62378472222222
 20
8.180034722222217
 30
0.0
 10
-0.3376193576388888
 20
8.180034722222217
 30
0.0
 10
-0.3376193576388888
 20
8.180034722222217
 30
0.0
 10
0.6972873263888888
 20
8.180034722222217
 30
0.0
 10
1.449007161458333
 20
7.445540364583332
 30
0.0
 10
1.918918185763885
 20
5.977929687499997
 30
0.0
 10
2.388829210069443
 20
4.510319010416666
 30
0.0
 10
2.62378472222222
 20
2.449462890624999
 30
0.0
 10
2.62378472222222
 20
-0.204638671875
 30
0.0
 10
2.62378472222222
 20
-0.8950358072916666
 30
0.0
 10
2.590022786458332
 20
-1.643310546874999
 30
0.0
 10
2.523187934027772
 20
-2.45015190972222
 30
0.0
 10
2.408121744791666
 20
-3.80200737847222
 30
0.0
 10
2.226220703124999
 20
-4.909950086805555
 30
0.0
 10
1.976795789930553
 20
-5.774669053819441
 30
0.0
 10
1.659847005208333
 20
-6.853672960069442
 30
0.0
 10
1.252636718749998
 20
-7.583344184027778
 30
0.0
 10
0.7544759114583333
 20
-7.962304687499997
 30
0.0
 10
0.4664659288194444
 20
-8.166254340277777
 30
0.0
 10
0.1074869791666666
 20
-8.268229166666666
 30
0.0
 10
-0.3231499565972222
 20
-8.268229166666666
 30
0.0
 10
-0.3231499565972222
 20
-8.268229166666666
 30
0.0
 10
-2.62378472222222
 20
-8.268229166666666
 30
0.0
 10
-2.62378472222222
 20
-8.268229166666666
 30
0.0
  0
SPLINE
  5
3AF
330
3AD
100
AcDbEntity
  8
LAYER_1
 62
     7
100
AcDbSpline
210
0.0
220
0.0
230
1.0
 70
    11
 71
     3
 72
    26
 73
    22
 74
     0
 42
0.0000000001
 43
0.0000000001
 40
0.0
 40
0.0
 40
0.0
 40
0.0
 40
1.0
 40
1.0
 40
1.0
 40
2.0
 40
2.0
 40
2.0
 40
3.0
 40
3.0
 40
3.0
 40
4.0
 40
4.0
 40
4.0
 40
5.0
 40
5.0
 40
5.0
 40
6.0
 40
6.0
 40
6.0
 40
7.0
 40
7.0
 40
7.0
 40
7.0
 10
-3.946701388888888
 20
-10.7376736111111
 30
0.0
 10
-3.946701388888888
 20
-10.7376736111111
 30
0.0
 10
-0.0943956163194444
 20
-10.7376736111111
 30
0.0
 10
-0.0943956163194444
 20
-10.7376736111111
 30
0.0
 10
1.546847873263885
 20
-10.7376736111111
 30
0.0
 10
2.705777994791666
 20
-9.11021050347222
 30
0.0
 10
3.381705729166666
 20
-5.854595269097222
 30
0.0
 10
3.757910156249999
 20
-4.01284722222222
 30
0.0
 10
3.946701388888888
 20
-1.951991102430555
 30
0.0
 10
3.946701388888888
 20
0.328662109375
 30
0.0
 10
3.946701388888888
 20
3.281797960069443
 30
0.0
 10
3.622862413194443
 20
5.703700086805552
 30
0.0
 10
2.976562499999998
 20
7.594368489583332
 30
0.0
 10
2.25171440972222
 20
9.689675564236106
 30
0.0
 10
1.233344184027777
 20
10.7376736111111
 30
0.0
 10
-0.0799262152777778
 20
10.7376736111111
 30
0.0
 10
-0.0799262152777778
 20
10.7376736111111
 30
0.0
 10
-3.946701388888888
 20
10.7376736111111
 30
0.0
 10
-3.946701388888888
 20
10.7376736111111
 30
0.0
 10
-3.946701388888888
 20
10.7376736111111
 30
0.0
 10
-3.946701388888888
 20
-10.7376736111111
 30
0.0
 10
-3.946701388888888
 20
-10.7376736111111
 30
0.0
  0
ENDBLK
  5
3B1
330
3AD
100
AcDbEntity
  8
0
100
AcDbBlockEnd
  0
BLOCK
  5
3B5
330
3B2
100
AcDbEntity
  8
0
 62
     7
100
AcDbBlockBegin
  2
AI9-BLK4
 70
     0
 10
0.0
 20
0.0
 30
0.0
  3
AI9-BLK4
  1

  0
SPLINE
  5
3B3
330
3B2
100
AcDbEntity
  8
LAYER_1
 62
     7
100
AcDbSpline
210
0.0
220
0.0
230
1.0
 70
    11
 71
     3
 72
    26
 73
    22
 74
     0
 42
0.0000000001
 43
0.0000000001
 40
0.0
 40
0.0
 40
0.0
 40
0.0
 40
1.0
 40
1.0
 40
1.0
 40
2.0
 40
2.0
 40
2.0
 40
3.0
 40
3.0
 40
3.0
 40
4.0
 40
4.0
 40
4.0
 40
5.0
 40
5.0
 40
5.0
 40
6.0
 40
6.0
 40
6.0
 40
7.0
 40
7.0
 40
7.0
 40
7.0
 10
-2.645833333333333
 20
0.9039930555555551
 30
0.0
 10
-2.645833333333333
 20
0.9039930555555551
 30
0.0
 10
-2.645833333333333
 20
8.180034722222217
 30
0.0
 10
-2.645833333333333
 20
8.180034722222217
 30
0.0
 10
-2.645833333333333
 20
8.180034722222217
 30
0.0
 10
0.465087890625
 20
8.180034722222217
 30
0.0
 10
0.465087890625
 20
8.180034722222217
 30
0.0
 10
0.9026150173611108
 20
8.180034722222217
 30
0.0
 10
1.24988064236111
 20
8.034651692708331
 30
0.0
 10
1.506884765625
 20
7.745263671874997
 30
0.0
 10
2.001600477430554
 20
7.194048394097221
 30
0.0
 10
2.248958333333332
 20
6.160519748263887
 30
0.0
 10
2.248958333333332
 20
4.643299696180553
 30
0.0
 10
2.248958333333332
 20
3.232188585069443
 30
0.0
 10
2.072569444444444
 20
2.256537543402775
 30
0.0
 10
1.720480685763888
 20
1.715657552083333
 30
0.0
 10
1.368391927083333
 20
1.174088541666665
 30
0.0
 10
0.8929687499999998
 20
0.9039930555555551
 30
0.0
 10
0.2942111545138888
 20
0.9039930555555551
 30
0.0
 10
0.2942111545138888
 20
0.9039930555555551
 30
0.0
 10
-2.645833333333333
 20
0.9039930555555551
 30
0.0
 10
-2.645833333333333
 20
0.9039930555555551
 30
0.0
  0
SPLINE
  5
3B4
330
3B2
100
AcDbEntity
  8
LAYER_1
 62
     7
100
AcDbSpline
210
0.0
220
0.0
230
1.0
 70
    11
 71
     3
 72
    68
 73
    64
 74
     0
 42
0.0000000001
 43
0.0000000001
 40
0.0
 40
0.0
 40
0.0
 40
0.0
 40
1.0
 40
1.0
 40
1.0
 40
2.0
 40
2.0
 40
2.0
 40
3.0
 40
3.0
 40
3.0
 40
4.0
 40
4.0
 40
4.0
 40
5.0
 40
5.0
 40
5.0
 40
6.0
 40
6.0
 40
6.0
 40
7.0
 40
7.0
 40
7.0
 40
8.0
 40
8.0
 40
8.0
 40
9.0
 40
9.0
 40
9.0
 40
10.0
 40
10.0
 40
10.0
 40
11.0
 40
11.0
 40
11.0
 40
12.0
 40
12.0
 40
12.0
 40
13.0
 40
13.0
 40
13.0
 40
14.0
 40
14.0
 40
14.0
 40
15.0
 40
15.0
 40
15.0
 40
16.0
 40
16.0
 40
16.0
 40
17.0
 40
17.0
 40
17.0
 40
18.0
 40
18.0
 40
18.0
 40
19.0
 40
19.0
 40
19.0
 40
20.0
 40
20.0
 40
20.0
 40
21.0
 40
21.0
 40
21.0
 40
21.0
 10
-3.968749999999998
 20
-10.7376736111111
 30
0.0
 10
-3.968749999999998
 20
-10.7376736111111
 30
0.0
 10
-2.645833333333333
 20
-10.7376736111111
 30
0.0
 10
-2.645833333333333
 20
-10.7376736111111
 30
0.0
 10
-2.645833333333333
 20
-10.7376736111111
 30
0.0
 10
-2.645833333333333
 20
-1.521354166666665
 30
0.0
 10
-2.645833333333333
 20
-1.521354166666665
 30
0.0
 10
-2.645833333333333
 20
-1.521354166666665
 30
0.0
 10
0.2390896267361111
 20
-1.521354166666665
 30
0.0
 10
0.2390896267361111
 20
-1.521354166666665
 30
0.0
 10
0.7599880642361111
 20
-1.521354166666665
 30
0.0
 10
1.143771701388887
 20
-1.65295681423611
 30
0.0
 10
1.390440538194444
 20
-1.916162109374999
 30
0.0
 10
1.816254340277773
 20
-2.39434136284722
 30
0.0
 10
2.04363064236111
 20
-3.335541449652775
 30
0.0
 10
2.072569444444444
 20
-4.739762369791666
 30
0.0
 10
2.072569444444444
 20
-4.739762369791666
 30
0.0
 10
2.160763888888888
 20
-8.324039713541665
 30
0.0
 10
2.160763888888888
 20
-8.324039713541665
 30
0.0
 10
2.18005642361111
 20
-9.163264973958332
 30
0.0
 10
2.202794053819443
 20
-9.728949652777775
 30
0.0
 10
2.227598741319444
 20
-10.02109374999998
 30
0.0
 10
2.252403428819443
 20
-10.31392686631944
 30
0.0
 10
2.28892144097222
 20
-10.55301649305555
 30
0.0
 10
2.33853081597222
 20
-10.7376736111111
 30
0.0
 10
2.33853081597222
 20
-10.7376736111111
 30
0.0
 10
3.968749999999998
 20
-10.7376736111111
 30
0.0
 10
3.968749999999998
 20
-10.7376736111111
 30
0.0
 10
3.968749999999998
 20
-10.7376736111111
 30
0.0
 10
3.968749999999998
 20
-10.25260416666666
 30
0.0
 10
3.968749999999998
 20
-10.25260416666666
 30
0.0
 10
3.766867404513888
 20
-10.05830078125
 30
0.0
 10
3.625618489583333
 20
-9.621462673611112
 30
0.0
 10
3.545692274305555
 20
-8.942089843749997
 30
0.0
 10
3.49470486111111
 20
-8.543836805555555
 30
0.0
 10
3.459564887152775
 20
-7.937499999999999
 30
0.0
 10
3.439583333333333
 20
-7.121701388888887
 30
0.0
 10
3.439583333333333
 20
-7.121701388888887
 30
0.0
 10
3.395486111111106
 20
-4.232644314236106
 30
0.0
 10
3.395486111111106
 20
-4.232644314236106
 30
0.0
 10
3.375504557291666
 20
-2.981385633680555
 30
0.0
 10
3.26870659722222
 20
-2.077392578125
 30
0.0
 10
3.075781249999999
 20
-1.522043185763888
 30
0.0
 10
2.882166883680555
 20
-0.9666937934027776
 30
0.0
 10
2.592089843749999
 20
-0.5188313802083333
 30
0.0
 10
2.204861111111105
 20
-0.1770779079861111
 30
0.0
 10
2.63618706597222
 20
0.3197048611111111
 30
0.0
 10
2.971739366319443
 20
0.9770290798611107
 30
0.0
 10
3.211518012152775
 20
1.79558376736111
 30
0.0
 10
3.451296657986107
 20
2.613449435763888
 30
0.0
 10
3.571874999999999
 20
3.66558159722222
 30
0.0
 10
3.571874999999999
 20
4.951291232638888
 30
0.0
 10
3.571874999999999
 20
7.415912543402777
 30
0.0
 10
3.124701605902775
 20
9.106076388888887
 30
0.0
 10
2.231043836805555
 20
10.02178276909722
 30
0.0
 10
1.759754774305553
 20
10.498583984375
 30
0.0
 10
1.163753255208332
 20
10.7376736111111
 30
0.0
 10
0.443039279513889
 20
10.7376736111111
 30
0.0
 10
0.443039279513889
 20
10.7376736111111
 30
0.0
 10
-3.968749999999998
 20
10.7376736111111
 30
0.0
 10
-3.968749999999998
 20
10.7376736111111
 30
0.0
 10
-3.968749999999998
 20
10.7376736111111
 30
0.0
 10
-3.968749999999998
 20
-10.7376736111111
 30
0.0
 10
-3.968749999999998
 20
-10.7376736111111
 30
0.0
  0
ENDBLK
  5
3B6
330
3B2
100
AcDbEntity
  8
0
100
AcDbBlockEnd
  0
BLOCK
  5
3BA
330
3B7
100
AcDbEntity
  8
0
 62
     7
100
AcDbBlockBegin
  2
AI9-BLK3
 70
     0
 10
0.0
 20
0.0
 30
0.0
  3
AI9-BLK3
  1

  0
LWPOLYLINE
  5
3B8
330
3B7
100
AcDbEntity
  8
LAYER_1
 62
     7
100
AcDbPolyline
 90
        4
 70
     1
 43
0.0
 10
-0.6613722059461809
 20
10.7376736111111
 10
0.6613722059461809
 20
10.7376736111111
 10
0.6613722059461809
 20
-10.7376736111111
 10
-0.6613722059461809
 20
-10.7376736111111
  0
HATCH
  5
3B9
330
3B7
100
AcDbEntity
  8
LAYER_1
 62
     7
100
AcDbHatch
 10
0.0
 20
0.0
 30
0.0
210
0.0
220
0.0
230
1.0
  2
SOLID
 70
     1
 71
     0
 91
        1
 92
        3
 72
     0
 73
     1
 93
        4
 10
-0.6613722059461809
 20
10.7376736111111
 10
0.6613722059461809
 20
10.7376736111111
 10
0.6613722059461809
 20
-10.7376736111111
 10
-0.6613722059461809
 20
-10.7376736111111
 97
        0
 75
     2
 76
     1
 98
        1
 10
0.0
 20
0.0
  0
ENDBLK
  5
3BB
330
3B7
100
AcDbEntity
  8
0
100
AcDbBlockEnd
  0
BLOCK
  5
3BF
330
3BC
100
AcDbEntity
  8
0
 62
     7
100
AcDbBlockBegin
  2
AI9-BLK2
 70
     0
 10
0.0
 20
0.0
 30
0.0
  3
AI9-BLK2
  1

  0
LWPOLYLINE
  5
3BD
330
3BC
100
AcDbEntity
  8
LAYER_1
 62
     7
100
AcDbPolyline
 90
        7
 70
     1
 43
0.0
 10
-2.785704210069443
 20
10.7376736111111
 10
0.0
 20
-7.550960286458332
 10
2.771234809027776
 20
10.7376736111111
 10
4.233333333333331
 20
10.7376736111111
 10
0.6910861545138888
 20
-10.7376736111111
 10
-0.7055555555555558
 20
-10.7376736111111
 10
-4.233333333333331
 20
10.7376736111111
  0
HATCH
  5
3BE
330
3BC
100
AcDbEntity
  8
LAYER_1
 62
     7
100
AcDbHatch
 10
0.0
 20
0.0
 30
0.0
210
0.0
220
0.0
230
1.0
  2
SOLID
 70
     1
 71
     0
 91
        1
 92
        3
 72
     0
 73
     1
 93
        7
 10
-2.785704210069443
 20
10.7376736111111
 10
0.0
 20
-7.550960286458332
 10
2.771234809027776
 20
10.7376736111111
 10
4.233333333333331
 20
10.7376736111111
 10
0.6910861545138888
 20
-10.7376736111111
 10
-0.7055555555555558
 20
-10.7376736111111
 10
-4.233333333333331
 20
10.7376736111111
 97
        0
 75
     2
 76
     1
 98
        1
 10
0.0
 20
0.0
  0
ENDBLK
  5
3C0
330
3BC
100
AcDbEntity
  8
0
100
AcDbBlockEnd
  0
BLOCK
  5
3C4
330
3C1
100
AcDbEntity
  8
0
 62
     7
100
AcDbBlockBegin
  2
AI9-BLK1
 70
     0
 10
0.0
 20
0.0
 30
0.0
  3
AI9-BLK1
  1

  0
LWPOLYLINE
  5
3C2
330
3C1
100
AcDbEntity
  8
LAYER_1
 62
     7
100
AcDbPolyline
 90
       12
 70
     1
 43
0.0
 10
-3.571874999999999
 20
10.7376736111111
 10
3.483680555555555
 20
10.7376736111111
 10
3.483680555555555
 20
8.091840277777777
 10
-2.248958333333332
 20
8.091840277777777
 10
-2.248958333333332
 20
1.565451388888888
 10
3.042708333333333
 20
1.565451388888888
 10
3.042708333333333
 20
-0.9039930555555551
 10
-2.248958333333332
 20
-0.9039930555555551
 10
-2.248958333333332
 20
-8.180034722222217
 10
3.571874999999999
 20
-8.180034722222217
 10
3.571874999999999
 20
-10.7376736111111
 10
-3.571874999999999
 20
-10.7376736111111
  0
HATCH
  5
3C3
330
3C1
100
AcDbEntity
  8
LAYER_1
 62
     7
100
AcDbHatch
 10
0.0
 20
0.0
 30
0.0
210
0.0
220
0.0
230
1.0
  2
SOLID
 70
     1
 71
     0
 91
        1
 92
        3
 72
     0
 73
     1
 93
       12
 10
-3.571874999999999
 20
10.7376736111111
 10
3.483680555555555
 20
10.7376736111111
 10
3.483680555555555
 20
8.091840277777777
 10
-2.248958333333332
 20
8.091840277777777
 10
-2.248958333333332
 20
1.565451388888888
 10
3.042708333333333
 20
1.565451388888888
 10
3.042708333333333
 20
-0.9039930555555551
 10
-2.248958333333332
 20
-0.9039930555555551
 10
-2.248958333333332
 20
-8.180034722222217
 10
3.571874999999999
 20
-8.180034722222217
 10
3.571874999999999
 20
-10.7376736111111
 10
-3.571874999999999
 20
-10.7376736111111
 97
        0
 75
     2
 76
     1
 98
        1
 10
0.0
 20
0.0
  0
ENDBLK
  5
3C5
330
3C1
100
AcDbEntity
  8
0
100
AcDbBlockEnd
  0
BLOCK
  5
3E9
330
3C6
100
AcDbEntity
  8
0
100
AcDbBlockBegin
  2
HD_LLC_logo_OT5
 70
     0
 10
0.0
 20
0.0
 30
0.0
  3
HD_LLC_logo_OT5
  1

  0
SPLINE
  5
3C7
102
{ACAD_REACTORS
330
3E7
102
}
330
3C6
100
AcDbEntity
  8
LAYER_1
 62
     7
100
AcDbSpline
210
0.0
220
0.0
230
1.0
 70
    11
 71
     3
 72
   113
 73
   109
 74
     0
 42
0.0000000001
 43
0.0000000001
 40
0.0
 40
0.0
 40
0.0
 40
0.0
 40
1.0
 40
1.0
 40
1.0
 40
2.0
 40
2.0
 40
2.0
 40
3.0
 40
3.0
 40
3.0
 40
4.0
 40
4.0
 40
4.0
 40
5.0
 40
5.0
 40
5.0
 40
6.0
 40
6.0
 40
6.0
 40
7.0
 40
7.0
 40
7.0
 40
8.0
 40
8.0
 40
8.0
 40
9.0
 40
9.0
 40
9.0
 40
10.0
 40
10.0
 40
10.0
 40
11.0
 40
11.0
 40
11.0
 40
12.0
 40
12.0
 40
12.0
 40
13.0
 40
13.0
 40
13.0
 40
14.0
 40
14.0
 40
14.0
 40
15.0
 40
15.0
 40
15.0
 40
16.0
 40
16.0
 40
16.0
 40
17.0
 40
17.0
 40
17.0
 40
18.0
 40
18.0
 40
18.0
 40
19.0
 40
19.0
 40
19.0
 40
20.0
 40
20.0
 40
20.0
 40
21.0
 40
21.0
 40
21.0
 40
22.0
 40
22.0
 40
22.0
 40
23.0
 40
23.0
 40
23.0
 40
24.0
 40
24.0
 40
24.0
 40
25.0
 40
25.0
 40
25.0
 40
26.0
 40
26.0
 40
26.0
 40
27.0
 40
27.0
 40
27.0
 40
28.0
 40
28.0
 40
28.0
 40
29.0
 40
29.0
 40
29.0
 40
30.0
 40
30.0
 40
30.0
 40
31.0
 40
31.0
 40
31.0
 40
32.0
 40
32.0
 40
32.0
 40
33.0
 40
33.0
 40
33.0
 40
34.0
 40
34.0
 40
34.0
 40
35.0
 40
35.0
 40
35.0
 40
36.0
 40
36.0
 40
36.0
 40
36.0
 10
193.3039632161458
 20
186.1548733181423
 30
0.0
 10
193.3039632161458
 20
186.1860514322916
 30
0.0
 10
193.3039632161458
 20
219.6932223849826
 30
0.0
 10
193.3039632161458
 20
219.6932223849826
 30
0.0
 10
193.3039632161458
 20
219.6932223849826
 30
0.0
 10
193.2974175347219
 20
219.7488606770833
 30
0.0
 10
193.2974175347219
 20
219.7488606770833
 30
0.0
 10
191.5293945312499
 20
235.455740017361
 30
0.0
 10
175.1458984374999
 20
235.2467949761284
 30
0.0
 10
174.9808783637151
 20
235.2428331163193
 30
0.0
 10
174.9808783637151
 20
235.2428331163193
 30
0.0
 10
125.8827555338541
 20
235.2430053710937
 30
0.0
 10
125.8827555338541
 20
235.2430053710937
 30
0.0
 10
125.8827555338541
 20
235.2430053710937
 30
0.0
 10
125.8827555338541
 20
255.5278998480901
 30
0.0
 10
125.8827555338541
 20
255.5278998480901
 30
0.0
 10
125.8827555338541
 20
255.5278998480901
 30
0.0
 10
84.5626247829861
 20
255.5278998480901
 30
0.0
 10
84.5626247829861
 20
255.5278998480901
 30
0.0
 10
84.5626247829861
 20
255.5278998480901
 30
0.0
 10
84.55711263020829
 20
233.7919311523436
 30
0.0
 10
84.55711263020829
 20
233.7919311523436
 30
0.0
 10
84.55711263020829
 20
233.7919311523436
 30
0.0
 10
64.42052951388888
 20
233.7919311523436
 30
0.0
 10
64.42052951388888
 20
233.7919311523436
 30
0.0
 10
64.42052951388888
 20
233.7919311523436
 30
0.0
 10
64.41501736111111
 20
255.5278998480901
 30
0.0
 10
64.41501736111111
 20
255.5278998480901
 30
0.0
 10
64.41501736111111
 20
255.5278998480901
 30
0.0
 10
23.91757541232637
 20
255.5278998480901
 30
0.0
 10
23.91757541232637
 20
255.5278998480901
 30
0.0
 10
23.91757541232637
 20
255.5278998480901
 30
0.0
 10
23.91757541232637
 20
233.2393378363715
 30
0.0
 10
23.91757541232637
 20
233.2393378363715
 30
0.0
 10
23.91757541232637
 20
233.2393378363715
 30
0.0
 10
43.65624999999999
 20
233.2393378363715
 30
0.0
 10
43.65624999999999
 20
233.2393378363715
 30
0.0
 10
43.65624999999999
 20
233.2393378363715
 30
0.0
 10
43.65624999999999
 20
211.5188720703125
 30
0.0
 10
43.65624999999999
 20
211.5188720703125
 30
0.0
 10
43.65624999999999
 20
211.5188720703125
 30
0.0
 10
23.91757541232637
 20
211.5188720703125
 30
0.0
 10
23.91757541232637
 20
211.5188720703125
 30
0.0
 10
23.91757541232637
 20
211.5188720703125
 30
0.0
 10
23.91757541232637
 20
189.2303100585936
 30
0.0
 10
23.91757541232637
 20
189.2303100585936
 30
0.0
 10
23.91757541232637
 20
189.2303100585936
 30
0.0
 10
64.41501736111111
 20
189.2303100585936
 30
0.0
 10
64.41501736111111
 20
189.2303100585936
 30
0.0
 10
64.41501736111111
 20
189.2303100585936
 30
0.0
 10
64.42052951388888
 20
211.069976128472
 30
0.0
 10
64.42052951388888
 20
211.069976128472
 30
0.0
 10
64.42052951388888
 20
211.069976128472
 30
0.0
 10
84.55711263020829
 20
211.069976128472
 30
0.0
 10
84.55711263020829
 20
211.069976128472
 30
0.0
 10
84.55711263020829
 20
211.069976128472
 30
0.0
 10
84.5626247829861
 20
189.2303100585936
 30
0.0
 10
84.5626247829861
 20
189.2303100585936
 30
0.0
 10
84.5626247829861
 20
189.2303100585936
 30
0.0
 10
125.8827555338541
 20
189.2303100585936
 30
0.0
 10
125.8827555338541
 20
189.2303100585936
 30
0.0
 10
125.8827555338541
 20
189.2303100585936
 30
0.0
 10
125.8827555338541
 20
211.5188720703125
 30
0.0
 10
125.8827555338541
 20
211.5188720703125
 30
0.0
 10
125.8827555338541
 20
211.5188720703125
 30
0.0
 10
105.3213921440971
 20
211.5188720703125
 30
0.0
 10
105.3213921440971
 20
211.5188720703125
 30
0.0
 10
105.3213921440971
 20
211.5188720703125
 30
0.0
 10
105.3213921440971
 20
233.2393378363715
 30
0.0
 10
105.3213921440971
 20
233.2393378363715
 30
0.0
 10
105.3213921440971
 20
233.2393378363715
 30
0.0
 10
175.0046495225693
 20
233.243127441406
 30
0.0
 10
175.0046495225693
 20
233.243127441406
 30
0.0
 10
175.6268337673611
 20
233.2560465494791
 30
0.0
 10
189.7165852864583
 20
233.3962619357638
 30
0.0
 10
191.3037407769094
 20
219.5690266927083
 30
0.0
 10
191.3037407769094
 20
219.4332899305555
 30
0.0
 10
191.3037407769094
 20
186.1142211914062
 30
0.0
 10
191.3037407769094
 20
186.1142211914062
 30
0.0
 10
191.3037407769094
 20
186.1142211914062
 30
0.0
 10
191.3051188151039
 20
186.0880384657115
 30
0.0
 10
191.3051188151039
 20
186.0880384657115
 30
0.0
 10
191.3054633246526
 20
186.0787367078991
 30
0.0
 10
191.3109754774304
 20
185.9566080729166
 30
0.0
 10
191.3109754774304
 20
185.7399115668401
 30
0.0
 10
191.3109754774304
 20
184.2090833875865
 30
0.0
 10
191.0488037109374
 20
177.9643310546874
 30
0.0
 10
186.9866916232638
 20
173.5652886284722
 30
0.0
 10
184.2540418836804
 20
170.6064683702255
 30
0.0
 10
180.3224989149304
 20
169.0308539496526
 30
0.0
 10
175.300927734375
 20
168.8825425889756
 30
0.0
 10
175.300927734375
 20
168.8825425889756
 30
0.0
 10
107.0094889322916
 20
168.8828870985243
 30
0.0
 10
107.0094889322916
 20
168.8828870985243
 30
0.0
 10
107.0094889322916
 20
168.8828870985243
 30
0.0
 10
107.0094889322916
 20
166.8830091688368
 30
0.0
 10
107.0094889322916
 20
166.8830091688368
 30
0.0
 10
107.0094889322916
 20
166.8830091688368
 30
0.0
 10
175.3305555555555
 20
166.8830091688368
 30
0.0
 10
175.3305555555555
 20
166.8830091688368
 30
0.0
 10
180.9467502170138
 20
167.0485460069444
 30
0.0
 10
185.3571614583333
 20
168.8448187934026
 30
0.0
 10
188.4687717013888
 20
172.2223904079861
 30
0.0
 10
192.9649658203124
 20
177.1034016927083
 30
0.0
 10
193.3136094835069
 20
183.7202243381076
 30
0.0
 10
193.3136094835069
 20
185.6520616319443
 30
0.0
 10
193.3136094835069
 20
185.9247409396701
 30
0.0
 10
193.3070638020833
 20
186.0868326822916
 30
0.0
 10
193.3039632161458
 20
186.1548733181423
 30
0.0
  0
INSERT
  5
3C8
102
{ACAD_REACTORS
330
3E8
102
}
330
3C6
100
AcDbEntity
  8
LAYER_1
 62
     7
100
AcDbBlockReference
  2
AI9-BLK14
 10
159.5625257703993
 20
200.5118781195744
 30
0.0
  0
INSERT
  5
3C9
330
3C6
100
AcDbEntity
  8
LAYER_1
 62
     7
100
AcDbBlockReference
  2
AI9-BLK13
 10
27.69615614149305
 20
179.2145562065971
 30
0.0
 42
0.9200000000000001
  0
INSERT
  5
3CA
102
{ACAD_REACTORS
330
3D5
102
}
330
3C6
100
AcDbEntity
  8
LAYER_1
 62
     7
100
AcDbBlockReference
  2
AI9-BLK11
 10
44.76591525607638
 20
179.2145562065971
 30
0.0
 42
0.9200000000000001
  0
INSERT
  5
3CB
102
{ACAD_REACTORS
330
3E3
102
}
330
3C6
100
AcDbEntity
  8
LAYER_1
 62
     7
100
AcDbBlockReference
  2
AI9-BLK10
 10
54.04665798611111
 20
179.2145562065971
 30
0.0
 42
0.9200000000000001
  0
INSERT
  5
3CC
102
{ACAD_REACTORS
330
3E2
102
}
330
3C6
100
AcDbEntity
  8
LAYER_1
 62
     7
100
AcDbBlockReference
  2
AI9-BLK9
 10
62.79013807508679
 20
179.2145562065971
 30
0.0
 42
0.9
  0
INSERT
  5
3CD
330
3C6
100
AcDbEntity
  8
LAYER_1
 62
     7
100
AcDbBlockReference
  2
AI9-BLK8
 10
71.03046196831595
 20
179.2145562065971
 30
0.0
 42
0.9200000000000001
  0
INSERT
  5
3CE
330
3C6
100
AcDbEntity
  8
LAYER_1
 62
     7
100
AcDbBlockReference
  2
AI9-BLK7
 10
76.93793945312498
 20
179.2145562065971
 30
0.0
 42
0.9200000000000001
  0
INSERT
  5
3CF
102
{ACAD_REACTORS
330
3D6
102
}
330
3C6
100
AcDbEntity
  8
LAYER_1
 62
     7
100
AcDbBlockReference
  2
AI9-BLK6
 10
82.55602891710069
 20
179.2145562065971
 30
0.0
 42
0.9
  0
INSERT
  5
3D0
102
{ACAD_REACTORS
330
3E4
102
}
330
3C6
100
AcDbEntity
  8
LAYER_1
 62
     7
100
AcDbBlockReference
  2
AI9-BLK5
 10
94.32430284288193
 20
179.2145562065971
 30
0.0
 42
0.9200000000000001
  0
INSERT
  5
3D1
102
{ACAD_REACTORS
330
3E5
102
}
330
3C6
100
AcDbEntity
  8
LAYER_1
 62
     7
100
AcDbBlockReference
  2
AI9-BLK4
 10
103.2081705729166
 20
179.2145562065971
 30
0.0
 42
0.9200000000000001
  0
INSERT
  5
3D2
330
3C6
100
AcDbEntity
  8
LAYER_1
 62
     7
100
AcDbBlockReference
  2
AI9-BLK3
 10
108.850978597005
 20
179.2145562065971
 30
0.0
 42
0.9200000000000001
  0
INSERT
  5
3D3
330
3C6
100
AcDbEntity
  8
LAYER_1
 62
     7
100
AcDbBlockReference
  2
AI9-BLK2
 10
114.2045708550346
 20
179.2145562065971
 30
0.0
 42
0.9200000000000001
  0
INSERT
  5
3D4
330
3C6
100
AcDbEntity
  8
LAYER_1
 62
     7
100
AcDbBlockReference
  2
AI9-BLK1
 10
122.4125108506944
 20
179.2145562065971
 30
0.0
 42
0.9200000000000001
  0
HATCH
  5
3D5
330
3C6
100
AcDbEntity
  8
0
  6
Continuous
100
AcDbHatch
 10
0.0
 20
0.0
 30
0.0
210
0.0
220
0.0
230
1.0
  2
SOLID
 70
     1
 71
     1
 91
        2
 92
       16
 93
        1
 72
     4
 94
        3
 73
     0
 74
     0
 95
       26
 96
       22
 40
0.0
 40
0.0
 40
0.0
 40
0.0
 40
1.0
 40
1.0
 40
1.0
 40
2.0
 40
2.0
 40
2.0
 40
3.0
 40
3.0
 40
3.0
 40
4.0
 40
4.0
 40
4.0
 40
5.0
 40
5.0
 40
5.0
 40
6.0
 40
6.0
 40
6.0
 40
7.0
 40
7.0
 40
7.0
 40
7.0
 10
42.12008192274304
 20
180.0462298177082
 10
42.12008192274304
 20
180.0462298177082
 10
42.12008192274304
 20
186.7401881510415
 10
42.12008192274304
 20
186.7401881510415
 10
42.12008192274304
 20
186.7401881510415
 10
45.23100314670138
 20
186.7401881510415
 10
45.23100314670138
 20
186.7401881510415
 10
45.66853027343749
 20
186.7401881510415
 10
46.01579589843749
 20
186.6064357638887
 10
46.27280002170138
 20
186.340198784722
 10
46.76751573350694
 20
185.8330807291665
 10
47.01487358940972
 20
184.8822343749998
 10
47.01487358940972
 20
183.4863919270832
 10
47.01487358940972
 20
182.188169704861
 10
46.83848470052082
 20
181.2905707465276
 10
46.48639594184027
 20
180.7929611545137
 10
46.13430718315971
 20
180.2947176649304
 10
45.65888400607638
 20
180.0462298177082
 10
45.06012641059027
 20
180.0462298177082
 10
45.06012641059027
 20
180.0462298177082
 10
42.12008192274304
 20
180.0462298177082
 10
42.12008192274304
 20
180.0462298177082
 97
        1
330
3CA
 92
        1
 93
        1
 72
     4
 94
        3
 73
     0
 74
     0
 95
       68
 96
       64
 40
0.0
 40
0.0
 40
0.0
 40
0.0
 40
1.0
 40
1.0
 40
1.0
 40
2.0
 40
2.0
 40
2.0
 40
3.0
 40
3.0
 40
3.0
 40
4.0
 40
4.0
 40
4.0
 40
5.0
 40
5.0
 40
5.0
 40
6.0
 40
6.0
 40
6.0
 40
7.0
 40
7.0
 40
7.0
 40
8.0
 40
8.0
 40
8.0
 40
9.0
 40
9.0
 40
9.0
 40
10.0
 40
10.0
 40
10.0
 40
11.0
 40
11.0
 40
11.0
 40
12.0
 40
12.0
 40
12.0
 40
13.0
 40
13.0
 40
13.0
 40
14.0
 40
14.0
 40
14.0
 40
15.0
 40
15.0
 40
15.0
 40
16.0
 40
16.0
 40
16.0
 40
17.0
 40
17.0
 40
17.0
 40
18.0
 40
18.0
 40
18.0
 40
19.0
 40
19.0
 40
19.0
 40
20.0
 40
20.0
 40
20.0
 40
21.0
 40
21.0
 40
21.0
 40
21.0
 10
40.79716525607638
 20
169.3358964843748
 10
40.79716525607638
 20
169.3358964843748
 10
42.12008192274304
 20
169.3358964843748
 10
42.12008192274304
 20
169.3358964843748
 10
42.12008192274304
 20
169.3358964843748
 10
42.12008192274304
 20
177.8149103732637
 10
42.12008192274304
 20
177.8149103732637
 10
42.12008192274304
 20
177.8149103732637
 10
45.00500488281249
 20
177.8149103732637
 10
45.00500488281249
 20
177.8149103732637
 10
45.52590332031249
 20
177.8149103732637
 10
45.90968695746527
 20
177.6938359374998
 10
46.15635579427083
 20
177.4516870659721
 10
46.58216959635415
 20
177.0117621527776
 10
46.80954589843749
 20
176.1458580729165
 10
46.83848470052082
 20
174.8539748263887
 10
46.83848470052082
 20
174.8539748263887
 10
46.92667914496527
 20
171.5564396701387
 10
46.92667914496527
 20
171.5564396701387
 10
46.94597167968749
 20
170.7843524305554
 10
46.96870930989582
 20
170.2639225260415
 10
46.99351399739582
 20
169.9951499565971
 10
47.01831868489582
 20
169.7257434895832
 10
47.0548366970486
 20
169.5057810329859
 10
47.1044460720486
 20
169.3358964843748
 10
47.1044460720486
 20
169.3358964843748
 10
48.73466525607638
 20
169.3358964843748
 10
48.73466525607638
 20
169.3358964843748
 10
48.73466525607638
 20
169.3358964843748
 10
48.73466525607638
 20
169.7821603732637
 10
48.73466525607638
 20
169.7821603732637
 10
48.53278266059027
 20
169.9609194878471
 10
48.39153374565971
 20
170.3628105468748
 10
48.31160753038194
 20
170.9878335503471
 10
48.26062011718749
 20
171.3542263454859
 10
48.22548014322915
 20
171.9120562065971
 10
48.20549858940971
 20
172.6625909288193
 10
48.20549858940971
 20
172.6625909288193
 10
48.16140136718749
 20
175.3205234374999
 10
48.16140136718749
 20
175.3205234374999
 10
48.14141981336804
 20
176.4716814236109
 10
48.0346218532986
 20
177.303355034722
 10
47.84169650607638
 20
177.8142764756943
 10
47.64808213975693
 20
178.3251979166665
 10
47.35800509982638
 20
178.7372313368054
 10
46.97077636718749
 20
179.0516445312498
 10
47.4021023220486
 20
179.5086846788193
 10
47.73765462239582
 20
180.1134229600693
 10
47.97743326822915
 20
180.8664932725693
 10
48.21721191406249
 20
181.6189296874999
 10
48.33779025607638
 20
182.5868912760415
 10
48.33779025607638
 20
183.7697441406248
 10
48.33779025607638
 20
186.0371957465276
 10
47.89061686197915
 20
187.5921464843749
 10
46.99695909288194
 20
188.4345963541665
 10
46.52567003038194
 20
188.8732534722221
 10
45.92966851128472
 20
189.0932159288193
 10
45.20895453559027
 20
189.0932159288193
 10
45.20895453559027
 20
189.0932159288193
 10
40.79716525607638
 20
189.0932159288193
 10
40.79716525607638
 20
189.0932159288193
 10
40.79716525607638
 20
189.0932159288193
 10
40.79716525607638
 20
169.3358964843748
 10
40.79716525607638
 20
169.3358964843748
 97
        0
 75
     0
 76
     1
 98
        0
  0
HATCH
  5
3D6
330
3C6
100
AcDbEntity
  8
0
  6
Continuous
100
AcDbHatch
 10
0.0
 20
0.0
 30
0.0
210
0.0
220
0.0
230
1.0
  2
SOLID
 70
     1
 71
     1
 91
        1
 92
        1
 93
        1
 72
     4
 94
        3
 73
     0
 74
     0
 95
       59
 96
       55
 40
0.0
 40
0.0
 40
0.0
 40
0.0
 40
1.0
 40
1.0
 40
1.0
 40
2.0
 40
2.0
 40
2.0
 40
3.0
 40
3.0
 40
3.0
 40
4.0
 40
4.0
 40
4.0
 40
5.0
 40
5.0
 40
5.0
 40
6.0
 40
6.0
 40
6.0
 40
7.0
 40
7.0
 40
7.0
 40
8.0
 40
8.0
 40
8.0
 40
9.0
 40
9.0
 40
9.0
 40
10.0
 40
10.0
 40
10.0
 40
11.0
 40
11.0
 40
11.0
 40
12.0
 40
12.0
 40
12.0
 40
13.0
 40
13.0
 40
13.0
 40
14.0
 40
14.0
 40
14.0
 40
15.0
 40
15.0
 40
15.0
 40
16.0
 40
16.0
 40
16.0
 40
17.0
 40
17.0
 40
17.0
 40
18.0
 40
18.0
 40
18.0
 40
18.0
 10
85.61871880425346
 20
187.4658355034721
 10
86.29120144314235
 20
186.1797124565971
 10
86.66671685112847
 20
184.7193364800346
 10
86.7452650282118
 20
183.084087456597
 10
86.7452650282118
 20
183.084087456597
 10
85.42234836154513
 20
183.084087456597
 10
85.42234836154513
 20
183.084087456597
 10
85.27696533203124
 20
184.3156401909721
 10
84.99171142578125
 20
185.2917046440971
 10
84.56589762369791
 20
186.012280815972
 10
84.14008382161458
 20
186.7322368706596
 10
83.53994818793402
 20
187.0925249565971
 10
82.76617974175346
 20
187.0925249565971
 10
81.81740044487847
 20
187.0925249565971
 10
81.0525892469618
 20
186.4240386284721
 10
80.47243516710068
 20
185.0883062065971
 10
79.89159206814235
 20
183.752573784722
 10
79.6015150282118
 20
181.7049468315971
 10
79.6015150282118
 20
178.9454253472221
 10
79.6015150282118
 20
176.6844780815971
 10
79.86265326605902
 20
174.8514116753471
 10
80.38561876085069
 20
173.4456060112846
 10
80.90789523654512
 20
172.0391802300346
 10
81.69199896918403
 20
171.3365874565971
 10
82.73724093967013
 20
171.3365874565971
 10
83.69497748480902
 20
171.3365874565971
 10
84.42120361328125
 20
172.0794878472221
 10
84.91523030598958
 20
173.5665288628471
 10
85.18601481119791
 20
174.3491167534721
 10
85.38445231119791
 20
175.3785112847221
 10
85.51054280598958
 20
176.6547124565971
 10
85.51054280598958
 20
176.6547124565971
 10
86.83345947265625
 20
176.6547124565971
 10
86.83345947265625
 20
176.6547124565971
 10
86.72597249348958
 20
174.6157671440971
 10
86.35114610460069
 20
172.9061040581596
 10
85.70760226779514
 20
171.526343315972
 10
84.93727891710069
 20
169.8650493706596
 10
83.90375027126735
 20
169.0347124565971
 10
82.60701633029514
 20
169.0347124565971
 10
81.48598225911458
 20
169.0347124565971
 10
80.54547119140625
 20
169.7143608940971
 10
79.78479410807292
 20
171.0742778862846
 10
78.78020426432292
 20
172.8726177300346
 10
78.27859836154513
 20
175.6495024956596
 10
78.27859836154513
 20
179.4049321831596
 10
78.27859836154513
 20
182.2562310112846
 10
78.65342475043402
 20
184.5946929253471
 10
79.40445556640624
 20
186.4196978081596
 10
80.22301025390625
 20
188.4028325737846
 10
81.34955647786458
 20
189.3943999565971
 10
82.78271620008679
 20
189.3943999565971
 10
84.00090196397568
 20
189.3943999565971
 10
84.94623616536458
 20
188.7513384331596
 10
85.61871880425346
 20
187.4658355034721
 97
        1
330
3CF
 75
     0
 76
     1
 98
        1
 10
0.0
 20
0.0
  0
LINE
  5
3D7
102
{ACAD_REACTORS
330
3E6
102
}
330
3C6
100
AcDbEntity
  8
LAYER_1
 62
     7
100
AcDbLine
 10
34.65766059027778
 20
177.4497853732638
 30
0.0
 11
36.19830729166666
 21
186.1658769531249
 31
0.0
  0
LINE
  5
3D8
102
{ACAD_REACTORS
330
3E6
102
}
330
3C6
100
AcDbEntity
  8
LAYER_1
 62
     7
100
AcDbLine
 10
36.19830729166666
 20
186.1658769531249
 30
0.0
 11
37.67556423611111
 21
177.4497853732638
 31
0.0
  0
LINE
  5
3D9
102
{ACAD_REACTORS
330
3E6
102
}
330
3C6
100
AcDbEntity
  8
LAYER_1
 62
     7
100
AcDbLine
 10
37.67556423611111
 20
177.4497853732638
 30
0.0
 11
34.65766059027778
 21
177.4497853732638
 31
0.0
  0
LINE
  5
3DA
102
{ACAD_REACTORS
330
3E6
102
}
330
3C6
100
AcDbEntity
  8
LAYER_1
 62
     7
100
AcDbLine
 10
31.83957248263888
 20
169.3358964843748
 30
0.0
 11
33.22450086805555
 21
169.3358964843748
 31
0.0
  0
LINE
  5
3DB
102
{ACAD_REACTORS
330
3E6
102
}
330
3C6
100
AcDbEntity
  8
LAYER_1
 62
     7
100
AcDbLine
 10
33.22450086805555
 20
169.3358964843748
 30
0.0
 11
34.27043185763887
 21
175.2590353732638
 31
0.0
  0
LINE
  5
3DC
102
{ACAD_REACTORS
330
3E6
102
}
330
3C6
100
AcDbEntity
  8
LAYER_1
 62
     7
100
AcDbLine
 10
34.27043185763887
 20
175.2590353732638
 30
0.0
 11
38.04694552951389
 21
175.2590353732638
 31
0.0
  0
LINE
  5
3DD
102
{ACAD_REACTORS
330
3E6
102
}
330
3C6
100
AcDbEntity
  8
LAYER_1
 62
     7
100
AcDbLine
 10
38.04694552951389
 20
175.2590353732638
 30
0.0
 11
39.05015733506942
 21
169.3358964843748
 31
0.0
  0
LINE
  5
3DE
102
{ACAD_REACTORS
330
3E6
102
}
330
3C6
100
AcDbEntity
  8
LAYER_1
 62
     7
100
AcDbLine
 10
39.05015733506942
 20
169.3358964843748
 30
0.0
 11
40.43508572048611
 21
169.3358964843748
 31
0.0
  0
LINE
  5
3DF
102
{ACAD_REACTORS
330
3E6
102
}
330
3C6
100
AcDbEntity
  8
LAYER_1
 62
     7
100
AcDbLine
 10
40.43508572048611
 20
169.3358964843748
 30
0.0
 11
36.952783203125
 21
189.0932159288193
 31
0.0
  0
LINE
  5
3E0
102
{ACAD_REACTORS
330
3E6
102
}
330
3C6
100
AcDbEntity
  8
LAYER_1
 62
     7
100
AcDbLine
 10
36.952783203125
 20
189.0932159288193
 30
0.0
 11
35.47828233506943
 21
189.0932159288193
 31
0.0
  0
LINE
  5
3E1
102
{ACAD_REACTORS
330
3E6
102
}
330
3C6
100
AcDbEntity
  8
LAYER_1
 62
     7
100
AcDbLine
 10
35.47828233506943
 20
189.0932159288193
 30
0.0
 11
31.83957248263888
 21
169.3358964843748
 31
0.0
  0
HATCH
  5
3E2
330
3C6
100
AcDbEntity
  8
0
  6
Continuous
100
AcDbHatch
 10
0.0
 20
0.0
 30
0.0
210
0.0
220
0.0
230
1.0
  2
SOLID
 70
     1
 71
     1
 91
        2
 92
       16
 93
        1
 72
     4
 94
        3
 73
     0
 74
     0
 95
       29
 96
       25
 40
0.0
 40
0.0
 40
0.0
 40
0.0
 40
1.0
 40
1.0
 40
1.0
 40
2.0
 40
2.0
 40
2.0
 40
3.0
 40
3.0
 40
3.0
 40
4.0
 40
4.0
 40
4.0
 40
5.0
 40
5.0
 40
5.0
 40
6.0
 40
6.0
 40
6.0
 40
7.0
 40
7.0
 40
7.0
 40
8.0
 40
8.0
 40
8.0
 40
8.0
 10
62.85697292751734
 20
171.3365874565971
 10
61.88338894314235
 20
171.3365874565971
 10
61.18058946397567
 20
172.0714263237845
 10
60.74857449001734
 20
173.5411040581596
 10
60.31587049696178
 20
175.0107817925345
 10
60.10020751953123
 20
176.8165630425345
 10
60.10020751953123
 20
178.9578276909721
 10
60.10020751953123
 20
181.6342534722221
 10
60.35101047092013
 20
183.6589360894096
 10
60.85261637369789
 20
185.0324956597221
 10
61.35422227647567
 20
186.4054351128471
 10
62.00741238064234
 20
187.0925249565971
 10
62.81218668619789
 20
187.0925249565971
 10
63.6369425455729
 20
187.0925249565971
 10
64.28806559244789
 20
186.3992339409721
 10
64.76486680772568
 20
185.0126519097221
 10
65.24166802300346
 20
183.626069878472
 10
65.48006863064234
 20
181.7961040581596
 10
65.48006863064234
 20
179.5239946831596
 10
65.48006863064234
 20
177.3734282769096
 10
65.27336290147568
 20
175.4715288628471
 10
64.86132948133678
 20
173.8176763237846
 10
64.4492960611979
 20
172.1632036675346
 10
63.78094753689234
 20
171.3365874565971
 10
62.85697292751734
 20
171.3365874565971
 97
        1
330
3CC
 92
        1
 93
        1
 72
     4
 94
        3
 73
     0
 74
     0
 95
       29
 96
       25
 40
0.0
 40
0.0
 40
0.0
 40
0.0
 40
1.0
 40
1.0
 40
1.0
 40
2.0
 40
2.0
 40
2.0
 40
3.0
 40
3.0
 40
3.0
 40
4.0
 40
4.0
 40
4.0
 40
5.0
 40
5.0
 40
5.0
 40
6.0
 40
6.0
 40
6.0
 40
7.0
 40
7.0
 40
7.0
 40
8.0
 40
8.0
 40
8.0
 40
8.0
 10
62.76119927300346
 20
189.4340874565971
 10
61.47273356119789
 20
189.4340874565971
 10
60.50121663411457
 20
188.2397417534721
 10
59.84733751085068
 20
185.8516704644095
 10
59.3395304361979
 20
183.9900786675346
 10
59.08597140842012
 20
181.7514556206596
 10
59.08597140842012
 20
179.1351812065971
 10
59.08597140842012
 20
176.2379937065971
 10
59.38362765842012
 20
173.8412407769096
 10
59.97894015842012
 20
171.9449224175346
 10
60.64246554904512
 20
169.9779106987846
 10
61.56023898654512
 20
168.9950249565971
 10
62.7315714518229
 20
168.9950249565971
 10
63.9904093424479
 20
168.9950249565971
 10
64.95641411675345
 20
170.1186773003471
 10
65.63027479383679
 20
172.3659819878471
 10
66.20629475911457
 20
174.2796636284721
 10
66.49430474175345
 20
176.6813774956595
 10
66.49430474175345
 20
179.5698833550346
 10
66.49430474175345
 20
182.2388677300345
 10
66.24005669487845
 20
184.4291216362845
 10
65.73293863932289
 20
186.1412651909721
 10
65.08870578342012
 20
188.3364800347221
 10
64.09789632161457
 20
189.4340874565971
 10
62.76119927300346
 20
189.4340874565971
 97
        0
 75
     0
 76
     1
 98
        0
  0
HATCH
  5
3E3
330
3C6
100
AcDbEntity
  8
0
  6
Continuous
100
AcDbHatch
 10
0.0
 20
0.0
 30
0.0
210
0.0
220
0.0
230
1.0
  2
SOLID
 70
     1
 71
     1
 91
        1
 92
        1
 93
        1
 72
     4
 94
        3
 73
     0
 74
     0
 95
       59
 96
       55
 40
0.0
 40
0.0
 40
0.0
 40
0.0
 40
1.0
 40
1.0
 40
1.0
 40
2.0
 40
2.0
 40
2.0
 40
3.0
 40
3.0
 40
3.0
 40
4.0
 40
4.0
 40
4.0
 40
5.0
 40
5.0
 40
5.0
 40
6.0
 40
6.0
 40
6.0
 40
7.0
 40
7.0
 40
7.0
 40
8.0
 40
8.0
 40
8.0
 40
9.0
 40
9.0
 40
9.0
 40
10.0
 40
10.0
 40
10.0
 40
11.0
 40
11.0
 40
11.0
 40
12.0
 40
12.0
 40
12.0
 40
13.0
 40
13.0
 40
13.0
 40
14.0
 40
14.0
 40
14.0
 40
15.0
 40
15.0
 40
15.0
 40
16.0
 40
16.0
 40
16.0
 40
17.0
 40
17.0
 40
17.0
 40
18.0
 40
18.0
 40
18.0
 40
18.0
 10
49.39440104166666
 20
189.0932159288193
 10
49.39440104166666
 20
189.0932159288193
 10
51.24786241319444
 20
189.0932159288193
 10
51.24786241319444
 20
189.0932159288193
 10
51.24786241319444
 20
189.0932159288193
 10
54.04665798611111
 20
172.3887471788193
 10
54.04665798611111
 20
172.3887471788193
 10
54.04665798611111
 20
172.3887471788193
 10
56.83994140624999
 20
189.0932159288193
 10
56.83994140624999
 20
189.0932159288193
 10
56.83994140624999
 20
189.0932159288193
 10
58.69891493055555
 20
189.0932159288193
 10
58.69891493055555
 20
189.0932159288193
 10
58.69891493055555
 20
189.0932159288193
 10
58.69891493055555
 20
169.3358964843748
 10
58.69891493055555
 20
169.3358964843748
 10
58.69891493055555
 20
169.3358964843748
 10
57.46419270833333
 20
169.3358964843748
 10
57.46419270833333
 20
169.3358964843748
 10
57.46419270833333
 20
169.3358964843748
 10
57.46419270833333
 20
180.9964422743054
 10
57.46419270833333
 20
180.9964422743054
 10
57.46419270833333
 20
181.3996011284721
 10
57.47108289930555
 20
182.0677291666665
 10
57.48624131944444
 20
183.0001924913193
 10
57.5007107204861
 20
183.9326558159721
 10
57.50828993055555
 20
184.932312282986
 10
57.50828993055555
 20
185.9997957899304
 10
57.50828993055555
 20
185.9997957899304
 10
54.700537109375
 20
169.3358964843748
 10
54.700537109375
 20
169.3358964843748
 10
54.700537109375
 20
169.3358964843748
 10
53.38382161458333
 20
169.3358964843748
 10
53.38382161458333
 20
169.3358964843748
 10
53.38382161458333
 20
169.3358964843748
 10
50.58502604166666
 20
185.9997957899304
 10
50.58502604166666
 20
185.9997957899304
 10
50.58502604166666
 20
185.9997957899304
 10
50.58502604166666
 20
185.3944236111109
 10
50.58502604166666
 20
185.3944236111109
 10
50.58502604166666
 20
184.9101258680554
 10
50.59191623263888
 20
184.1729029947915
 10
50.60707465277777
 20
183.1821210937498
 10
50.62154405381944
 20
182.1913391927082
 10
50.62912326388889
 20
181.4629908854165
 10
50.62912326388889
 20
180.9964422743054
 10
50.62912326388889
 20
180.9964422743054
 10
50.62912326388889
 20
169.3358964843748
 10
50.62912326388889
 20
169.3358964843748
 10
50.62912326388889
 20
169.3358964843748
 10
49.39440104166666
 20
169.3358964843748
 10
49.39440104166666
 20
169.3358964843748
 10
49.39440104166666
 20
169.3358964843748
 10
49.39440104166666
 20
189.0932159288193
 10
49.39440104166666
 20
189.0932159288193
 97
        1
330
3CB
 75
     0
 76
     1
 98
        1
 10
0.0
 20
0.0
  0
HATCH
  5
3E4
330
3C6
100
AcDbEntity
  8
0
  6
Continuous
100
AcDbHatch
 10
0.0
 20
0.0
 30
0.0
210
0.0
220
0.0
230
1.0
  2
SOLID
 70
     1
 71
     1
 91
        2
 92
       16
 93
        1
 72
     4
 94
        3
 73
     0
 74
     0
 95
       32
 96
       28
 40
0.0
 40
0.0
 40
0.0
 40
0.0
 40
1.0
 40
1.0
 40
1.0
 40
2.0
 40
2.0
 40
2.0
 40
3.0
 40
3.0
 40
3.0
 40
4.0
 40
4.0
 40
4.0
 40
5.0
 40
5.0
 40
5.0
 40
6.0
 40
6.0
 40
6.0
 40
7.0
 40
7.0
 40
7.0
 40
8.0
 40
8.0
 40
8.0
 40
9.0
 40
9.0
 40
9.0
 40
9.0
 10
91.7005181206597
 20
171.6077853732637
 10
91.7005181206597
 20
171.6077853732637
 10
91.7005181206597
 20
186.7401881510415
 10
91.7005181206597
 20
186.7401881510415
 10
91.7005181206597
 20
186.7401881510415
 10
93.98668348524305
 20
186.7401881510415
 10
93.98668348524305
 20
186.7401881510415
 10
95.02159016927082
 20
186.7401881510415
 10
95.77331000434027
 20
186.0644533420137
 10
96.24322102864582
 20
184.714251519097
 10
96.71313205295138
 20
183.3640496961804
 10
96.94808756510417
 20
181.4680620659721
 10
96.94808756510417
 20
179.0262886284721
 10
96.94808756510417
 20
178.3911232638887
 10
96.91432562934027
 20
177.7027105034721
 10
96.84749077690971
 20
176.9604164496526
 10
96.73242458767361
 20
175.7167094184026
 10
96.55052354600693
 20
174.6974021267359
 10
96.30109863281248
 20
173.9018606770832
 10
95.98414984809027
 20
172.9091770833332
 10
95.57693956163193
 20
172.2378795572915
 10
95.07877875434026
 20
171.8892358940971
 10
94.79076877170138
 20
171.7016022135415
 10
94.43178982204861
 20
171.6077853732637
 10
94.00115288628471
 20
171.6077853732637
 10
94.00115288628471
 20
171.6077853732637
 10
91.7005181206597
 20
171.6077853732637
 10
91.7005181206597
 20
171.6077853732637
 97
        1
330
3D0
 92
        1
 93
        1
 72
     4
 94
        3
 73
     0
 74
     0
 95
       26
 96
       22
 40
0.0
 40
0.0
 40
0.0
 40
0.0
 40
1.0
 40
1.0
 40
1.0
 40
2.0
 40
2.0
 40
2.0
 40
3.0
 40
3.0
 40
3.0
 40
4.0
 40
4.0
 40
4.0
 40
5.0
 40
5.0
 40
5.0
 40
6.0
 40
6.0
 40
6.0
 40
7.0
 40
7.0
 40
7.0
 40
7.0
 10
90.37760145399305
 20
169.3358964843748
 10
90.37760145399305
 20
169.3358964843748
 10
94.22990722656249
 20
169.3358964843748
 10
94.22990722656249
 20
169.3358964843748
 10
95.87115071614581
 20
169.3358964843748
 10
97.03008083767359
 20
170.8331625434026
 10
97.70600857204861
 20
173.8283285590276
 10
98.08221299913194
 20
175.5227367621526
 10
98.27100423177082
 20
177.4187243923609
 10
98.27100423177082
 20
179.5169253472221
 10
98.27100423177082
 20
182.233810329861
 10
97.94716525607638
 20
184.4619602864582
 10
97.30086534288194
 20
186.2013752170137
 10
96.57601725260416
 20
188.1290577256943
 10
95.5576470269097
 20
189.0932159288193
 10
94.24437662760416
 20
189.0932159288193
 10
94.24437662760416
 20
189.0932159288193
 10
90.37760145399305
 20
189.0932159288193
 10
90.37760145399305
 20
189.0932159288193
 10
90.37760145399305
 20
189.0932159288193
 10
90.37760145399305
 20
169.3358964843748
 10
90.37760145399305
 20
169.3358964843748
 97
        0
 75
     0
 76
     1
 98
        0
  0
HATCH
  5
3E5
330
3C6
100
AcDbEntity
  8
0
  6
Continuous
100
AcDbHatch
 10
0.0
 20
0.0
 30
0.0
210
0.0
220
0.0
230
1.0
  2
SOLID
 70
     1
 71
     1
 91
        2
 92
       16
 93
        1
 72
     4
 94
        3
 73
     0
 74
     0
 95
       26
 96
       22
 40
0.0
 40
0.0
 40
0.0
 40
0.0
 40
1.0
 40
1.0
 40
1.0
 40
2.0
 40
2.0
 40
2.0
 40
3.0
 40
3.0
 40
3.0
 40
4.0
 40
4.0
 40
4.0
 40
5.0
 40
5.0
 40
5.0
 40
6.0
 40
6.0
 40
6.0
 40
7.0
 40
7.0
 40
7.0
 40
7.0
 10
100.5623372395832
 20
180.0462298177082
 10
100.5623372395832
 20
180.0462298177082
 10
100.5623372395832
 20
186.7401881510415
 10
100.5623372395832
 20
186.7401881510415
 10
100.5623372395832
 20
186.7401881510415
 10
103.6732584635416
 20
186.7401881510415
 10
103.6732584635416
 20
186.7401881510415
 10
104.1107855902777
 20
186.7401881510415
 10
104.4580512152777
 20
186.6064357638887
 10
104.7150553385415
 20
186.340198784722
 10
105.2097710503471
 20
185.8330807291665
 10
105.4571289062499
 20
184.8822343749998
 10
105.4571289062499
 20
183.4863919270832
 10
105.4571289062499
 20
182.188169704861
 10
105.280740017361
 20
181.2905707465276
 10
104.9286512586804
 20
180.7929611545137
 10
104.5765624999999
 20
180.2947176649304
 10
104.1011393229166
 20
180.0462298177082
 10
103.5023817274304
 20
180.0462298177082
 10
103.5023817274304
 20
180.0462298177082
 10
100.5623372395832
 20
180.0462298177082
 10
100.5623372395832
 20
180.0462298177082
 97
        1
330
3D1
 92
        1
 93
        1
 72
     4
 94
        3
 73
     0
 74
     0
 95
       68
 96
       64
 40
0.0
 40
0.0
 40
0.0
 40
0.0
 40
1.0
 40
1.0
 40
1.0
 40
2.0
 40
2.0
 40
2.0
 40
3.0
 40
3.0
 40
3.0
 40
4.0
 40
4.0
 40
4.0
 40
5.0
 40
5.0
 40
5.0
 40
6.0
 40
6.0
 40
6.0
 40
7.0
 40
7.0
 40
7.0
 40
8.0
 40
8.0
 40
8.0
 40
9.0
 40
9.0
 40
9.0
 40
10.0
 40
10.0
 40
10.0
 40
11.0
 40
11.0
 40
11.0
 40
12.0
 40
12.0
 40
12.0
 40
13.0
 40
13.0
 40
13.0
 40
14.0
 40
14.0
 40
14.0
 40
15.0
 40
15.0
 40
15.0
 40
16.0
 40
16.0
 40
16.0
 40
17.0
 40
17.0
 40
17.0
 40
18.0
 40
18.0
 40
18.0
 40
19.0
 40
19.0
 40
19.0
 40
20.0
 40
20.0
 40
20.0
 40
21.0
 40
21.0
 40
21.0
 40
21.0
 10
99.23942057291661
 20
169.3358964843748
 10
99.23942057291661
 20
169.3358964843748
 10
100.5623372395832
 20
169.3358964843748
 10
100.5623372395832
 20
169.3358964843748
 10
100.5623372395832
 20
169.3358964843748
 10
100.5623372395832
 20
177.8149103732637
 10
100.5623372395832
 20
177.8149103732637
 10
100.5623372395832
 20
177.8149103732637
 10
103.4472601996527
 20
177.8149103732637
 10
103.4472601996527
 20
177.8149103732637
 10
103.9681586371527
 20
177.8149103732637
 10
104.3519422743054
 20
177.6938359374998
 10
104.598611111111
 20
177.4516870659721
 10
105.0244249131943
 20
177.0117621527776
 10
105.2518012152777
 20
176.1458580729165
 10
105.280740017361
 20
174.8539748263887
 10
105.280740017361
 20
174.8539748263887
 10
105.3689344618054
 20
171.5564396701387
 10
105.3689344618054
 20
171.5564396701387
 10
105.3882269965277
 20
170.7843524305554
 10
105.410964626736
 20
170.2639225260415
 10
105.435769314236
 20
169.9951499565971
 10
105.460574001736
 20
169.7257434895832
 10
105.4970920138888
 20
169.5057810329859
 10
105.5467013888888
 20
169.3358964843748
 10
105.5467013888888
 20
169.3358964843748
 10
107.1769205729166
 20
169.3358964843748
 10
107.1769205729166
 20
169.3358964843748
 10
107.1769205729166
 20
169.3358964843748
 10
107.1769205729166
 20
169.7821603732637
 10
107.1769205729166
 20
169.7821603732637
 10
106.9750379774304
 20
169.9609194878471
 10
106.8337890624999
 20
170.3628105468748
 10
106.7538628472221
 20
170.9878335503471
 10
106.7028754340276
 20
171.3542263454859
 10
106.6677354600693
 20
171.9120562065971
 10
106.6477539062499
 20
172.6625909288193
 10
106.6477539062499
 20
172.6625909288193
 10
106.6036566840277
 20
175.3205234374999
 10
106.6036566840277
 20
175.3205234374999
 10
106.5836751302082
 20
176.4716814236109
 10
106.4768771701388
 20
177.303355034722
 10
106.2839518229166
 20
177.8142764756943
 10
106.0903374565971
 20
178.3251979166665
 10
105.8002604166666
 20
178.7372313368054
 10
105.4130316840276
 20
179.0516445312498
 10
105.8443576388888
 20
179.5086846788193
 10
106.179909939236
 20
180.1134229600693
 10
106.4196885850693
 20
180.8664932725693
 10
106.6594672309027
 20
181.6189296874999
 10
106.7800455729166
 20
182.5868912760415
 10
106.7800455729166
 20
183.7697441406248
 10
106.7800455729166
 20
186.0371957465276
 10
106.3328721788193
 20
187.5921464843749
 10
105.4392144097221
 20
188.4345963541665
 10
104.9679253472221
 20
188.8732534722221
 10
104.3719238281249
 20
189.0932159288193
 10
103.6512098524304
 20
189.0932159288193
 10
103.6512098524304
 20
189.0932159288193
 10
99.23942057291661
 20
189.0932159288193
 10
99.23942057291661
 20
189.0932159288193
 10
99.23942057291661
 20
189.0932159288193
 10
99.23942057291661
 20
169.3358964843748
 10
99.23942057291661
 20
169.3358964843748
 97
        0
 75
     0
 76
     1
 98
        0
  0
HATCH
  5
3E6
330
3C6
100
AcDbEntity
  8
0
  6
Continuous
100
AcDbHatch
 10
0.0
 20
0.0
 30
0.0
210
0.0
220
0.0
230
1.0
  2
SOLID
 70
     1
 71
     1
 91
        2
 92
        1
 93
        8
 72
     1
 10
35.47828233506943
 20
189.0932159288193
 11
31.83957248263888
 21
169.3358964843748
 72
     1
 10
31.83957248263888
 20
169.3358964843748
 11
33.22450086805555
 21
169.3358964843748
 72
     1
 10
33.22450086805555
 20
169.3358964843748
 11
34.27043185763887
 21
175.2590353732638
 72
     1
 10
34.27043185763887
 20
175.2590353732638
 11
38.04694552951389
 21
175.2590353732638
 72
     1
 10
38.04694552951389
 20
175.2590353732638
 11
39.05015733506942
 21
169.3358964843748
 72
     1
 10
39.05015733506942
 20
169.3358964843748
 11
40.43508572048611
 21
169.3358964843748
 72
     1
 10
40.43508572048611
 20
169.3358964843748
 11
36.952783203125
 21
189.0932159288193
 72
     1
 10
36.952783203125
 20
189.0932159288193
 11
35.47828233506943
 21
189.0932159288193
 97
        8
330
3E1
330
3DA
330
3DB
330
3DC
330
3DD
330
3DE
330
3DF
330
3E0
 92
       16
 93
        3
 72
     1
 10
37.67556423611111
 20
177.4497853732638
 11
34.65766059027778
 21
177.4497853732638
 72
     1
 10
34.65766059027778
 20
177.4497853732638
 11
36.19830729166666
 21
186.1658769531249
 72
     1
 10
36.19830729166666
 20
186.1658769531249
 11
37.67556423611111
 21
177.4497853732638
 97
        3
330
3D9
330
3D7
330
3D8
 75
     0
 76
     1
 98
        1
 10
0.0
 20
0.0
  0
HATCH
  5
3E7
330
3C6
100
AcDbEntity
  8
0
  6
Continuous
100
AcDbHatch
 10
0.0
 20
0.0
 30
0.0
210
0.0
220
0.0
230
1.0
  2
SOLID
 70
     1
 71
     1
 91
        1
 92
        1
 93
        1
 72
     4
 94
        3
 73
     0
 74
     0
 95
      113
 96
      109
 40
0.0
 40
0.0
 40
0.0
 40
0.0
 40
1.0
 40
1.0
 40
1.0
 40
2.0
 40
2.0
 40
2.0
 40
3.0
 40
3.0
 40
3.0
 40
4.0
 40
4.0
 40
4.0
 40
5.0
 40
5.0
 40
5.0
 40
6.0
 40
6.0
 40
6.0
 40
7.0
 40
7.0
 40
7.0
 40
8.0
 40
8.0
 40
8.0
 40
9.0
 40
9.0
 40
9.0
 40
10.0
 40
10.0
 40
10.0
 40
11.0
 40
11.0
 40
11.0
 40
12.0
 40
12.0
 40
12.0
 40
13.0
 40
13.0
 40
13.0
 40
14.0
 40
14.0
 40
14.0
 40
15.0
 40
15.0
 40
15.0
 40
16.0
 40
16.0
 40
16.0
 40
17.0
 40
17.0
 40
17.0
 40
18.0
 40
18.0
 40
18.0
 40
19.0
 40
19.0
 40
19.0
 40
20.0
 40
20.0
 40
20.0
 40
21.0
 40
21.0
 40
21.0
 40
22.0
 40
22.0
 40
22.0
 40
23.0
 40
23.0
 40
23.0
 40
24.0
 40
24.0
 40
24.0
 40
25.0
 40
25.0
 40
25.0
 40
26.0
 40
26.0
 40
26.0
 40
27.0
 40
27.0
 40
27.0
 40
28.0
 40
28.0
 40
28.0
 40
29.0
 40
29.0
 40
29.0
 40
30.0
 40
30.0
 40
30.0
 40
31.0
 40
31.0
 40
31.0
 40
32.0
 40
32.0
 40
32.0
 40
33.0
 40
33.0
 40
33.0
 40
34.0
 40
34.0
 40
34.0
 40
35.0
 40
35.0
 40
35.0
 40
36.0
 40
36.0
 40
36.0
 40
36.0
 10
193.3039632161458
 20
186.1548733181423
 10
193.3039632161458
 20
186.1860514322916
 10
193.3039632161458
 20
219.6932223849826
 10
193.3039632161458
 20
219.6932223849826
 10
193.3039632161458
 20
219.6932223849826
 10
193.2974175347219
 20
219.7488606770833
 10
193.2974175347219
 20
219.7488606770833
 10
191.5293945312499
 20
235.455740017361
 10
175.1458984374999
 20
235.2467949761284
 10
174.9808783637151
 20
235.2428331163193
 10
174.9808783637151
 20
235.2428331163193
 10
125.8827555338541
 20
235.2430053710937
 10
125.8827555338541
 20
235.2430053710937
 10
125.8827555338541
 20
235.2430053710937
 10
125.8827555338541
 20
255.5278998480901
 10
125.8827555338541
 20
255.5278998480901
 10
125.8827555338541
 20
255.5278998480901
 10
84.5626247829861
 20
255.5278998480901
 10
84.5626247829861
 20
255.5278998480901
 10
84.5626247829861
 20
255.5278998480901
 10
84.55711263020829
 20
233.7919311523436
 10
84.55711263020829
 20
233.7919311523436
 10
84.55711263020829
 20
233.7919311523436
 10
64.42052951388888
 20
233.7919311523436
 10
64.42052951388888
 20
233.7919311523436
 10
64.42052951388888
 20
233.7919311523436
 10
64.41501736111111
 20
255.5278998480901
 10
64.41501736111111
 20
255.5278998480901
 10
64.41501736111111
 20
255.5278998480901
 10
23.91757541232637
 20
255.5278998480901
 10
23.91757541232637
 20
255.5278998480901
 10
23.91757541232637
 20
255.5278998480901
 10
23.91757541232637
 20
233.2393378363715
 10
23.91757541232637
 20
233.2393378363715
 10
23.91757541232637
 20
233.2393378363715
 10
43.65624999999999
 20
233.2393378363715
 10
43.65624999999999
 20
233.2393378363715
 10
43.65624999999999
 20
233.2393378363715
 10
43.65624999999999
 20
211.5188720703125
 10
43.65624999999999
 20
211.5188720703125
 10
43.65624999999999
 20
211.5188720703125
 10
23.91757541232637
 20
211.5188720703125
 10
23.91757541232637
 20
211.5188720703125
 10
23.91757541232637
 20
211.5188720703125
 10
23.91757541232637
 20
189.2303100585936
 10
23.91757541232637
 20
189.2303100585936
 10
23.91757541232637
 20
189.2303100585936
 10
64.41501736111111
 20
189.2303100585936
 10
64.41501736111111
 20
189.2303100585936
 10
64.41501736111111
 20
189.2303100585936
 10
64.42052951388888
 20
211.069976128472
 10
64.42052951388888
 20
211.069976128472
 10
64.42052951388888
 20
211.069976128472
 10
84.55711263020829
 20
211.069976128472
 10
84.55711263020829
 20
211.069976128472
 10
84.55711263020829
 20
211.069976128472
 10
84.5626247829861
 20
189.2303100585936
 10
84.5626247829861
 20
189.2303100585936
 10
84.5626247829861
 20
189.2303100585936
 10
125.8827555338541
 20
189.2303100585936
 10
125.8827555338541
 20
189.2303100585936
 10
125.8827555338541
 20
189.2303100585936
 10
125.8827555338541
 20
211.5188720703125
 10
125.8827555338541
 20
211.5188720703125
 10
125.8827555338541
 20
211.5188720703125
 10
105.3213921440971
 20
211.5188720703125
 10
105.3213921440971
 20
211.5188720703125
 10
105.3213921440971
 20
211.5188720703125
 10
105.3213921440971
 20
233.2393378363715
 10
105.3213921440971
 20
233.2393378363715
 10
105.3213921440971
 20
233.2393378363715
 10
175.0046495225693
 20
233.243127441406
 10
175.0046495225693
 20
233.243127441406
 10
175.6268337673611
 20
233.2560465494791
 10
189.7165852864583
 20
233.3962619357638
 10
191.3037407769094
 20
219.5690266927083
 10
191.3037407769094
 20
219.4332899305555
 10
191.3037407769094
 20
186.1142211914062
 10
191.3037407769094
 20
186.1142211914062
 10
191.3037407769094
 20
186.1142211914062
 10
191.3051188151039
 20
186.0880384657115
 10
191.3051188151039
 20
186.0880384657115
 10
191.3054633246526
 20
186.0787367078991
 10
191.3109754774304
 20
185.9566080729166
 10
191.3109754774304
 20
185.7399115668401
 10
191.3109754774304
 20
184.2090833875865
 10
191.0488037109374
 20
177.9643310546874
 10
186.9866916232638
 20
173.5652886284722
 10
184.2540418836804
 20
170.6064683702255
 10
180.3224989149304
 20
169.0308539496526
 10
175.300927734375
 20
168.8825425889756
 10
175.300927734375
 20
168.8825425889756
 10
107.0094889322916
 20
168.8828870985243
 10
107.0094889322916
 20
168.8828870985243
 10
107.0094889322916
 20
168.8828870985243
 10
107.0094889322916
 20
166.8830091688368
 10
107.0094889322916
 20
166.8830091688368
 10
107.0094889322916
 20
166.8830091688368
 10
175.3305555555555
 20
166.8830091688368
 10
175.3305555555555
 20
166.8830091688368
 10
180.9467502170138
 20
167.0485460069444
 10
185.3571614583333
 20
168.8448187934026
 10
188.4687717013888
 20
172.2223904079861
 10
192.9649658203124
 20
177.1034016927083
 10
193.3136094835069
 20
183.7202243381076
 10
193.3136094835069
 20
185.6520616319443
 10
193.3136094835069
 20
185.9247409396701
 10
193.3070638020833
 20
186.0868326822916
 10
193.3039632161458
 20
186.1548733181423
 97
        1
330
3C7
 75
     0
 76
     1
 98
        1
 10
0.0
 20
0.0
  0
HATCH
  5
3E8
330
3C6
100
AcDbEntity
  8
0
  6
Continuous
100
AcDbHatch
 10
0.0
 20
0.0
 30
0.0
210
0.0
220
0.0
230
1.0
  2
SOLID
 70
     1
 71
     1
 91
        2
 92
        1
 93
        1
 72
     4
 94
        3
 73
     0
 74
     0
 95
       23
 96
       19
 40
0.0
 40
0.0
 40
0.0
 40
0.0
 40
1.0
 40
1.0
 40
1.0
 40
2.0
 40
2.0
 40
2.0
 40
3.0
 40
3.0
 40
3.0
 40
4.0
 40
4.0
 40
4.0
 40
5.0
 40
5.0
 40
5.0
 40
6.0
 40
6.0
 40
6.0
 40
6.0
 10
148.6593153211805
 20
211.3929538302948
 10
148.6593153211805
 20
211.3929538302948
 10
148.6593153211805
 20
189.6308024088539
 10
148.6593153211805
 20
189.6308024088539
 10
148.6593153211805
 20
189.6308024088539
 10
161.3152180989583
 20
189.6308024088539
 10
161.3152180989583
 20
189.6308024088539
 10
162.8431179470485
 20
189.6308024088539
 10
170.465736219618
 20
190.1880466037323
 10
170.465736219618
 20
201.1911648220483
 10
170.465736219618
 20
211.1288872612844
 10
162.3356553819444
 20
211.3914035373261
 10
162.2536621093749
 20
211.3927815755205
 10
162.2536621093749
 20
211.3927815755205
 10
149.6594265407986
 20
211.3929538302948
 10
149.6594265407986
 20
211.3929538302948
 10
149.6594265407986
 20
211.3929538302948
 10
148.6593153211805
 20
211.3929538302948
 10
148.6593153211805
 20
211.3929538302948
 97
        1
330
3C8
 92
       16
 93
        1
 72
     4
 94
        3
 73
     0
 74
     0
 95
       20
 96
       16
 40
0.0
 40
0.0
 40
0.0
 40
0.0
 40
1.0
 40
1.0
 40
1.0
 40
2.0
 40
2.0
 40
2.0
 40
3.0
 40
3.0
 40
3.0
 40
4.0
 40
4.0
 40
4.0
 40
5.0
 40
5.0
 40
5.0
 40
5.0
 10
162.2354031032986
 20
209.3930759006073
 10
162.4679470486111
 20
209.3861857096351
 10
168.4655137803819
 20
209.1283203124997
 10
168.4655137803819
 20
201.1911648220483
 10
168.4655137803819
 20
192.3202162000865
 10
162.9926350911458
 20
191.6306803385413
 10
161.3152180989583
 20
191.6306803385413
 10
161.3152180989583
 20
191.6306803385413
 10
152.3310980902777
 20
191.6306803385413
 10
150.6595377604166
 20
191.6306803385413
 10
150.6595377604166
 20
193.3373806423608
 10
150.6595377604166
 20
207.6863755967879
 10
150.6595377604166
 20
209.3930759006073
 10
152.3538357204861
 20
209.3930759006073
 10
162.2354031032986
 20
209.3930759006073
 10
162.2354031032986
 20
209.3930759006073
 97
        0
 75
     0
 76
     1
 98
        0
  0
ENDBLK
  5
3EA
330
3C6
100
AcDbEntity
  8
0
100
AcDbBlockEnd
  0
BLOCK
  5
3ED
330
3EB
100
AcDbEntity
  8
0
100
AcDbBlockBegin
  2
HD logo-new
 70
     0
 10
0.0
 20
0.0
 30
0.0
  3
HD logo-new
  1

  0
INSERT
  5
3EC
330
3EB
100
AcDbEntity
  8
0
 62
     3
100
AcDbBlockReference
  2
HD_LLC_logo_OT5
 10
-27.1607188578505
 20
-68.37367811463031
 30
0.0
 41
0.2999999999999971
 42
0.3000000000000007
 43
0.3
  0
ENDBLK
  5
3EE
330
3EB
100
AcDbEntity
  8
0
100
AcDbBlockEnd
  0
BLOCK
  5
404
330
402
100
AcDbEntity
  8
0
100
AcDbBlockBegin
  2
HD LLC
 70
     0
 10
0.0
 20
0.0
 30
0.0
  3
HD LLC
  1

  0
MTEXT
  5
403
330
402
100
AcDbEntity
  8
0
100
AcDbMText
 10
-2.314970886968865
 20
1.247205085865914
 30
0.0
 40
5.675387507387601
 41
236.1828726592229
 71
     5
 72
     5
  1
Harmonic Drive LLC\P800-921-3332\Pwww.harmonicdrive.net
 73
     1
 44
1.0
  0
ENDBLK
  5
405
330
402
100
AcDbEntity
  8
0
100
AcDbBlockEnd
  0
ENDSEC
  0
SECTION
  2
ENTITIES
  0
ARC
  5
358
330
A
100
AcDbEntity
  8
1
  6
Continuous
 62
     7
100
AcDbCircle
 10
-289.078014531281
 20
198.4138516931199
 30
0.0
 40
0.2
100
AcDbArc
 50
-45.0
 51
0.0
  0
ARC
  5
357
330
A
100
AcDbEntity
  8
1
  6
Continuous
 62
     7
100
AcDbCircle
 10
-289.078014531281
 20
198.898326732163
 30
0.0
 40
0.2
100
AcDbArc
 50
0.0
 51
86.99999999988099
  0
ARC
  5
356
330
A
100
AcDbEntity
  8
1
  6
Continuous
 62
     7
100
AcDbCircle
 10
-310.580014531281
 20
201.2490089806449
 30
0.0
 40
2.899999999998999
100
AcDbArc
 50
180.0
 51
-90.0
  0
ARC
  5
355
330
A
100
AcDbEntity
  8
1
  6
Continuous
 62
     7
100
AcDbCircle
 10
-310.580014531281
 20
295.013008980646
 30
0.0
 40
2.9
100
AcDbArc
 50
90.0
 51
180.0
  0
ARC
  5
354
330
A
100
AcDbEntity
  8
1
  6
Continuous
 62
     7
100
AcDbCircle
 10
-310.378014531281
 20
294.611008980646
 30
0.0
 40
2.5
100
AcDbArc
 50
90.0
 51
180.0
  0
ARC
  5
353
330
A
100
AcDbEntity
  8
1
  6
Continuous
 62
     7
100
AcDbCircle
 10
-310.378014531281
 20
201.651008980646
 30
0.0
 40
2.5
100
AcDbArc
 50
180.0
 51
-90.0
  0
ARC
  5
352
330
A
100
AcDbEntity
  8
1
  6
Continuous
 62
     7
100
AcDbCircle
 10
-289.078014531281
 20
297.8481662681709
 30
0.0
 40
0.2
100
AcDbArc
 50
0.0
 51
45.000000000207
  0
ARC
  5
351
330
A
100
AcDbEntity
  8
1
  6
Continuous
 62
     7
100
AcDbCircle
 10
-289.078014531281
 20
297.363691229127
 30
0.0
 40
0.199999999998
100
AcDbArc
 50
-86.99999999985001
 51
0.0
  0
ARC
  5
350
330
A
100
AcDbEntity
  8
1
  6
Continuous
 62
     7
100
AcDbCircle
 10
-313.880014531281
 20
280.5310089806459
 30
0.0
 40
0.4
100
AcDbArc
 50
-90.0
 51
0.0
  0
ARC
  5
34F
330
A
100
AcDbEntity
  8
1
  6
Continuous
 62
     7
100
AcDbCircle
 10
-313.880014531281
 20
215.731008980645
 30
0.0
 40
0.400000000001
100
AcDbArc
 50
0.0
 51
90.0
  0
ARC
  5
34E
330
A
100
AcDbEntity
  8
1
  6
Continuous
 62
     7
100
AcDbCircle
 10
-311.6780084307329
 20
193.1310089806439
 30
0.0
 40
0.2
100
AcDbArc
 50
0.000000000033
 51
90.0
  0
ARC
  5
34D
330
A
100
AcDbEntity
  8
1
  6
Continuous
 62
     7
100
AcDbCircle
 10
-292.6780145313609
 20
193.681008980646
 30
0.0
 40
0.2
100
AcDbArc
 50
90.0
 51
180.0
  0
ARC
  5
34C
330
A
100
AcDbEntity
  8
1
  6
Continuous
 62
     7
100
AcDbCircle
 10
-311.678008430732
 20
303.131008980646
 30
0.0
 40
0.2
100
AcDbArc
 50
-90.0
 51
0.0
  0
ARC
  5
34B
330
A
100
AcDbEntity
  8
1
  6
Continuous
 62
     7
100
AcDbCircle
 10
-292.6780145313609
 20
302.5810089806459
 30
0.0
 40
0.2
100
AcDbArc
 50
180.0
 51
-90.0
  0
SPLINE
  5
34A
330
A
100
AcDbEntity
  8
1
  6
Continuous
 62
     7
100
AcDbSpline
210
0.0
220
0.0
230
1.0
 70
    11
 71
     3
 72
    83
 73
    79
 74
    77
 42
0.0000000001
 43
0.0000000001
 44
0.00000000001
 40
0.0
 40
0.0
 40
0.0
 40
0.0
 40
0.061287496405911
 40
0.1226814714456547
 40
0.188833009001528
 40
0.255144185656604
 40
0.3282383294581616
 40
0.4014839231513849
 40
0.4823674657515619
 40
0.5633633277846027
 40
0.6518221056670419
 40
0.7403547726290084
 40
0.8353958817842215
 40
0.9304826548303193
 40
1.030574808159768
 40
1.130693065854709
 40
1.233951759498755
 40
1.337222302572022
 40
1.441562029896618
 40
1.545901757221622
 40
1.64917230029587
 40
1.752430993940226
 40
1.852549251635164
 40
1.95264140496492
 40
2.047728178011258
 40
2.142769287166571
 40
2.231301954128299
 40
2.319760732010463
 40
2.400756594043479
 40
2.481640136643322
 40
2.554885730336208
 40
2.627979874137528
 40
2.694291050792763
 40
2.760442588348882
 40
2.821836563388657
 40
2.88312405979462
 40
2.942687142892815
 40
3.002250225991123
 40
3.063537722396992
 40
3.12493169743683
 40
3.191083234992822
 40
3.257394411647954
 40
3.330488555449398
 40
3.403734149142284
 40
3.484617691742093
 40
3.565613553774953
 40
3.654072331657499
 40
3.742604998619734
 40
3.837646107775238
 40
3.932732880821429
 40
4.032825034150341
 40
4.132943291844465
 40
4.236201985488793
 40
4.339472528563297
 40
4.443812255888875
 40
4.548151983213716
 40
4.651422526286917
 40
4.754681219930941
 40
4.854799477625832
 40
4.954891630955107
 40
5.049978404001407
 40
5.145019513156896
 40
5.233552180118773
 40
5.322010958000786
 40
5.403006820033579
 40
5.483890362634006
 40
5.557135956327321
 40
5.630230100128415
 40
5.696541276782958
 40
5.762692814338461
 40
5.824086789378321
 40
5.885374285784642
 40
5.945133480174859
 40
6.005299990006177
 40
6.035765536602679
 40
6.066231083199292
 40
6.096898387377767
 40
6.126758661228386
 40
6.126758661228386
 40
6.126758661228386
 40
6.126758661228386
 10
-315.1436446311076
 20
300.5357486112857
 30
0.0
 10
-315.1235796964684
 20
300.5398054472764
 30
0.0
 10
-315.0834149671132
 20
300.547926167455
 30
0.0
 10
-315.0249428894349
 20
300.5721134680265
 30
0.0
 10
-314.9685870967847
 20
300.6039989213596
 30
0.0
 10
-314.9136303641613
 20
300.6452099267053
 30
0.0
 10
-314.8618482242105
 20
300.6938064870709
 30
0.0
 10
-314.8120006061174
 20
300.7509767202193
 30
0.0
 10
-314.7659780087358
 20
300.814540323009
 30
0.0
 10
-314.7225889190286
 20
300.8859098215167
 30
0.0
 10
-314.683484769571
 20
300.9625861444185
 30
0.0
 10
-314.6477645303158
 20
301.0459970787065
 30
0.0
 10
-314.6166675760702
 20
301.1335876998073
 30
0.0
 10
-314.5896333897781
 20
301.2265254839427
 30
0.0
 10
-314.5674675533306
 20
301.3224810314369
 30
0.0
 10
-314.5498909143694
 20
301.4221434486852
 30
0.0
 10
-314.5373447043965
 20
301.5236309570966
 30
0.0
 10
-314.5297175522462
 20
301.6270145017108
 30
0.0
 10
-314.5272019975645
 20
301.7310089806446
 30
0.0
 10
-314.5297175522465
 20
301.8350034595826
 30
0.0
 10
-314.5373447043985
 20
301.9383870041862
 30
0.0
 10
-314.5498909143648
 20
302.039874512639
 30
0.0
 10
-314.5674675533493
 20
302.1395369297393
 30
0.0
 10
-314.58963338971
 20
302.2354924777746
 30
0.0
 10
-314.6166675763101
 20
302.3284302599879
 30
0.0
 10
-314.6477645294446
 20
302.4160208880199
 30
0.0
 10
-314.6834847725723
 20
302.4994317981398
 30
0.0
 10
-314.7225889082071
 20
302.5761082073009
 30
0.0
 10
-314.7659780453328
 20
302.6474774099132
 30
0.0
 10
-314.8120004747979
 20
302.7110420605216
 30
0.0
 10
-314.8618486628038
 20
302.7682087373471
 30
0.0
 10
-314.913628789848
 20
302.8168178584875
 30
0.0
 10
-314.9685923648712
 20
302.857986166447
 30
0.0
 10
-315.0249238146395
 20
302.8900235222499
 30
0.0
 10
-315.0834804523171
 20
302.913683158401
 30
0.0
 10
-315.1428384457434
 20
302.9276629991976
 30
0.0
 10
-315.2030195431419
 20
302.932644951341
 30
0.0
 10
-315.2632006405403
 20
302.9276629991974
 30
0.0
 10
-315.322558633967
 20
302.9136831584013
 30
0.0
 10
-315.3811152716442
 20
302.8900235222497
 30
0.0
 10
-315.4374467214126
 20
302.8579861664471
 30
0.0
 10
-315.4924102964355
 20
302.8168178584874
 30
0.0
 10
-315.54419042348
 20
302.7682087373473
 30
0.0
 10
-315.5940386114857
 20
302.7110420605216
 30
0.0
 10
-315.6400610409509
 20
302.6474774099132
 30
0.0
 10
-315.6834501780765
 20
302.5761082073008
 30
0.0
 10
-315.7225543137115
 20
302.4994317981396
 30
0.0
 10
-315.7582745568394
 20
302.4160208880193
 30
0.0
 10
-315.7893715099735
 20
302.3284302599871
 30
0.0
 10
-315.8164056965738
 20
302.2354924777741
 30
0.0
 10
-315.8385715329344
 20
302.1395369297393
 30
0.0
 10
-315.8561481719187
 20
302.0398745126395
 30
0.0
 10
-315.8686943818853
 20
301.9383870041871
 30
0.0
 10
-315.8763215340378
 20
301.835003459583
 30
0.0
 10
-315.8788370887196
 20
301.7310089806456
 30
0.0
 10
-315.8763215340391
 20
301.6270145017083
 30
0.0
 10
-315.8686943818802
 20
301.5236309571059
 30
0.0
 10
-315.8561481719367
 20
301.4221434486507
 30
0.0
 10
-315.8385715328701
 20
301.3224810315616
 30
0.0
 10
-315.8164056968088
 20
301.2265254834865
 30
0.0
 10
-315.7893715091453
 20
301.1335877014155
 30
0.0
 10
-315.7582745598447
 20
301.0459970728705
 30
0.0
 10
-315.7225543033489
 20
300.9625861645386
 30
0.0
 10
-315.6834502154261
 20
300.8859097489962
 30
0.0
 10
-315.6400609146345
 20
300.8145405682744
 30
0.0
 10
-315.5940390647403
 20
300.7509758401472
 30
0.0
 10
-315.544188909658
 20
300.6938094264201
 30
0.0
 10
-315.4924157302423
 20
300.6451993760258
 30
0.0
 10
-315.4374285383961
 20
300.6040342268481
 30
0.0
 10
-315.3811811090826
 20
300.5719856331988
 30
0.0
 10
-315.3223326091041
 20
300.5483650340139
 30
0.0
 10
-315.263971899473
 20
300.5342282183566
 30
0.0
 10
-315.1996468677759
 20
300.5297569001003
 30
0.0
 10
-315.1615595436129
 20
300.532523669872
 30
0.0
 10
-315.0969646604959
 20
300.5432574662367
 30
0.0
 10
-315.1430965470348
 20
300.5358170751999
 30
0.0
 10
-315.1880409130452
 20
300.528678460475
 30
0.0
 10
-315.1583112606274
 20
300.5334129363583
 30
0.0
 10
-315.1436446311076
 20
300.5357486112857
 30
0.0
 11
-315.1436446311076
 21
300.5357486112857
 31
0.0
 11
-315.0839929963519
 21
300.5498141609255
 31
0.0
 11
-315.026975814804
 21
300.5725795113405
 31
0.0
 11
-314.9694049975201
 21
300.6051621281516
 31
0.0
 11
-314.9161960383204
 21
300.644734578294
 31
0.0
 11
-314.8627660889127
 21
300.6946143774553
 31
0.0
 11
-314.8144990761286
 21
300.7497071398872
 31
0.0
 11
-314.7669058600299
 21
300.8151061708046
 31
0.0
 11
-314.7247243648759
 21
300.8842513162094
 31
0.0
 11
-314.6843919139756
 21
300.9629802739621
 31
0.0
 11
-314.6494608851748
 21
301.0443304819908
 31
0.0
 11
-314.6175489179773
 21
301.1338538799326
 31
0.0
 11
-314.590937547931
 21
301.2251409512657
 31
0.0
 11
-314.5683273794039
 21
301.3226459226123
 31
0.0
 11
-314.5509109126692
 21
301.4212376677554
 31
0.0
 11
-314.5381907865182
 21
301.5237098893756
 31
0.0
 11
-314.5305898879259
 21
301.6267003326567
 31
0.0
 11
-314.5280433897476
 21
301.7310089806452
 31
0.0
 11
-314.5305898879264
 21
301.8353176286341
 31
0.0
 11
-314.5381907865189
 21
301.9383080719162
 31
0.0
 11
-314.5509109126697
 21
302.0407802935368
 31
0.0
 11
-314.568327379404
 21
302.1393720386798
 31
0.0
 11
-314.590937547931
 21
302.2368770100268
 31
0.0
 11
-314.6175489179772
 21
302.3281640813602
 31
0.0
 11
-314.6494608851743
 21
302.4176874793022
 31
0.0
 11
-314.6843919139748
 21
302.4990376873308
 31
0.0
 11
-314.7247243648754
 21
302.5777666450831
 31
0.0
 11
-314.7669058600299
 21
302.6469117904875
 31
0.0
 11
-314.8144990761287
 21
302.7123108214045
 31
0.0
 11
-314.8627660889127
 21
302.7674035838359
 31
0.0
 11
-314.9161960383203
 21
302.817283382997
 31
0.0
 11
-314.9694049975201
 21
302.8568558331395
 31
0.0
 11
-315.0269758148041
 21
302.889438449951
 31
0.0
 11
-315.0839929963519
 21
302.9122038003663
 31
0.0
 11
-315.1436446311076
 21
302.9262693500063
 31
0.0
 11
-315.2030195431419
 21
302.9310001733057
 31
0.0
 11
-315.2623944551762
 21
302.9262693500063
 31
0.0
 11
-315.3220460899319
 21
302.9122038003665
 31
0.0
 11
-315.3790632714797
 21
302.889438449951
 31
0.0
 11
-315.4366340887637
 21
302.8568558331396
 31
0.0
 11
-315.4898430479633
 21
302.817283382997
 31
0.0
 11
-315.543272997371
 21
302.7674035838359
 31
0.0
 11
-315.591540010155
 21
302.7123108214045
 31
0.0
 11
-315.6391332262537
 21
302.6469117904875
 31
0.0
 11
-315.6813147214081
 21
302.5777666450832
 31
0.0
 11
-315.7216471723089
 21
302.4990376873306
 31
0.0
 11
-315.7565782011096
 21
302.4176874793015
 31
0.0
 11
-315.7884901683065
 21
302.3281640813592
 31
0.0
 11
-315.8151015383527
 21
302.236877010026
 31
0.0
 11
-315.8377117068797
 21
302.1393720386799
 31
0.0
 11
-315.8551281736138
 21
302.0407802935376
 31
0.0
 11
-315.8678482997649
 21
301.9383080719171
 31
0.0
 11
-315.8754491983577
 21
301.8353176286348
 31
0.0
 11
-315.8779956965368
 21
301.7310089806453
 31
0.0
 11
-315.8754491983577
 21
301.6267003326565
 31
0.0
 11
-315.8678482997648
 21
301.5237098893756
 31
0.0
 11
-315.8551281736139
 21
301.4212376677554
 31
0.0
 11
-315.8377117068795
 21
301.3226459226123
 31
0.0
 11
-315.8151015383527
 21
301.2251409512658
 31
0.0
 11
-315.7884901683065
 21
301.1338538799325
 31
0.0
 11
-315.7565782011094
 21
301.0443304819903
 31
0.0
 11
-315.7216471723089
 21
300.9629802739616
 31
0.0
 11
-315.6813147214082
 21
300.8842513162095
 31
0.0
 11
-315.6391332262537
 21
300.8151061708053
 31
0.0
 11
-315.5915400101549
 21
300.7497071398876
 31
0.0
 11
-315.5432729973709
 21
300.6946143774556
 31
0.0
 11
-315.4898430479631
 21
300.644734578295
 31
0.0
 11
-315.4366340887638
 21
300.6051621281532
 31
0.0
 11
-315.3790632714805
 21
300.5725795113416
 31
0.0
 11
-315.3220460899328
 21
300.5498141609258
 31
0.0
 11
-315.2623944551767
 21
300.5357486112857
 31
0.0
 11
-315.2028202994763
 21
300.531049538318
 31
0.0
 11
-315.1428476564448
 21
300.5358756126124
 31
0.0
 11
-315.1127617130963
 21
300.5406699365752
 31
0.0
 11
-315.1428476564449
 21
300.5358756126124
 31
0.0
 11
-315.173132843459
 21
300.5310495383179
 31
0.0
 11
-315.1436446311076
 21
300.5357486112857
 31
0.0
  0
SPLINE
  5
349
330
A
100
AcDbEntity
  8
1
  6
Continuous
 62
     7
100
AcDbSpline
210
0.0
220
0.0
230
1.0
 70
    11
 71
     3
 72
    83
 73
    79
 74
    77
 42
0.0000000001
 43
0.0000000001
 44
0.00000000001
 40
0.0
 40
0.0
 40
0.0
 40
0.0
 40
0.06128749640596
 40
0.1226814714457248
 40
0.1888330090016616
 40
0.2551441856568458
 40
0.3282383294582455
 40
0.4014839231510143
 40
0.4823674657510076
 40
0.5633633277842964
 40
0.6518221056670903
 40
0.7403547726294412
 40
0.8353958817844633
 40
0.9304826548307405
 40
1.030574808159636
 40
1.130693065853605
 40
1.233951759497298
 40
1.337222302571104
 40
1.441562029896552
 40
1.5459017572215
 40
1.649172300295379
 40
1.752430993939933
 40
1.85254925163517
 40
1.952641404964623
 40
2.047728178010771
 40
2.142769287166298
 40
2.231301954128335
 40
2.319760732010349
 40
2.400756594042791
 40
2.481640136642462
 40
2.554885730335247
 40
2.627979874136295
 40
2.69429105079153
 40
2.760442588347971
 40
2.821836563388147
 40
2.883124059794126
 40
2.942687142892298
 40
3.002250225990357
 40
3.063537722396284
 40
3.124931697436239
 40
3.19108323499237
 40
3.257394411647287
 40
3.330488555448673
 40
3.403734149141816
 40
3.484617691741809
 40
3.565613553774456
 40
3.654072331656368
 40
3.742604998618473
 40
3.837646107773942
 40
3.93273288082009
 40
4.032825034149531
 40
4.13294329184472
 40
4.236201985489344
 40
4.339472528563314
 40
4.443812255888124
 40
4.548151983213077
 40
4.651422526286731
 40
4.754681219930593
 40
4.854799477624867
 40
4.954891630953918
 40
5.049978404000174
 40
5.14501951315551
 40
5.233552180117902
 40
5.322010958000649
 40
5.403006820033951
 40
5.4838903626344
 40
5.55713595632719
 40
5.630230100128282
 40
5.696541276782785
 40
5.762692814338093
 40
5.824086789377837
 40
5.885374285784119
 40
5.945133480174585
 40
6.00529999000582
 40
6.035765536602353
 40
6.066231083198998
 40
6.096898387377668
 40
6.126758661228469
 40
6.126758661228469
 40
6.126758661228469
 40
6.126758661228469
 10
-315.1436446311076
 20
195.7262693500059
 30
0.0
 10
-315.1235796964685
 20
195.7222125140149
 30
0.0
 10
-315.0834149671134
 20
195.714091793836
 30
0.0
 10
-315.024942889435
 20
195.6899044932645
 30
0.0
 10
-314.9685870967845
 20
195.6580190399314
 30
0.0
 10
-314.9136303641613
 20
195.6168080345858
 30
0.0
 10
-314.8618482242105
 20
195.5682114742202
 30
0.0
 10
-314.8120006061176
 20
195.5110412410722
 30
0.0
 10
-314.7659780087357
 20
195.4474776382828
 30
0.0
 10
-314.7225889190288
 20
195.3761081397748
 30
0.0
 10
-314.6834847695708
 20
195.2994318168729
 30
0.0
 10
-314.6477645303157
 20
195.2160208825844
 30
0.0
 10
-314.6166675760703
 20
195.1284302614837
 30
0.0
 10
-314.5896333897781
 20
195.0354924773482
 30
0.0
 10
-314.5674675533307
 20
194.9395369298547
 30
0.0
 10
-314.5498909143695
 20
194.8398745126068
 30
0.0
 10
-314.5373447043963
 20
194.7383870041959
 30
0.0
 10
-314.5297175522463
 20
194.6350034595812
 30
0.0
 10
-314.5272019975645
 20
194.5310089806469
 30
0.0
 10
-314.5297175522464
 20
194.4270145017088
 30
0.0
 10
-314.5373447043985
 20
194.3236309571053
 30
0.0
 10
-314.5498909143648
 20
194.2221434486525
 30
0.0
 10
-314.5674675533494
 20
194.1224810315522
 30
0.0
 10
-314.58963338971
 20
194.0265254835169
 30
0.0
 10
-314.6166675763101
 20
193.9335877013036
 30
0.0
 10
-314.6477645294446
 20
193.8459970732716
 30
0.0
 10
-314.6834847725722
 20
193.7625861631515
 30
0.0
 10
-314.7225889082073
 20
193.6859097539907
 30
0.0
 10
-314.7659780453329
 20
193.6145405513787
 30
0.0
 10
-314.8120004747979
 20
193.5509759007705
 30
0.0
 10
-314.8618486628035
 20
193.4938092239451
 30
0.0
 10
-314.913628789848
 20
193.4452001028051
 30
0.0
 10
-314.9685923648713
 20
193.4040317948457
 30
0.0
 10
-315.0249238146393
 20
193.3719944390422
 30
0.0
 10
-315.0834804523169
 20
193.3483348028902
 30
0.0
 10
-315.1428384457435
 20
193.3343549620939
 30
0.0
 10
-315.2030195431421
 20
193.329373009951
 30
0.0
 10
-315.2632006405403
 20
193.334354962094
 30
0.0
 10
-315.3225586339668
 20
193.3483348028899
 30
0.0
 10
-315.3811152716444
 20
193.3719944390417
 30
0.0
 10
-315.4374467214124
 20
193.4040317948447
 30
0.0
 10
-315.4924102964356
 20
193.4452001028041
 30
0.0
 10
-315.5441904234801
 20
193.4938092239441
 30
0.0
 10
-315.5940386114857
 20
193.55097590077
 30
0.0
 10
-315.6400610409507
 20
193.6145405513787
 30
0.0
 10
-315.6834501780764
 20
193.6859097539906
 30
0.0
 10
-315.7225543137117
 20
193.7625861631516
 30
0.0
 10
-315.7582745568392
 20
193.8459970732715
 30
0.0
 10
-315.7893715099737
 20
193.9335877013038
 30
0.0
 10
-315.8164056965738
 20
194.0265254835168
 30
0.0
 10
-315.8385715329343
 20
194.1224810315522
 30
0.0
 10
-315.8561481719189
 20
194.2221434486525
 30
0.0
 10
-315.868694381885
 20
194.3236309571053
 30
0.0
 10
-315.8763215340379
 20
194.427014501709
 30
0.0
 10
-315.8788370887194
 20
194.531008980646
 30
0.0
 10
-315.876321534039
 20
194.6350034595833
 30
0.0
 10
-315.8686943818803
 20
194.7383870041858
 30
0.0
 10
-315.8561481719366
 20
194.839874512641
 30
0.0
 10
-315.8385715328702
 20
194.9395369297297
 30
0.0
 10
-315.8164056968088
 20
195.0354924778045
 30
0.0
 10
-315.7893715091453
 20
195.1284302598754
 30
0.0
 10
-315.7582745598447
 20
195.2160208884204
 30
0.0
 10
-315.7225543033488
 20
195.2994317967527
 30
0.0
 10
-315.6834502154261
 20
195.3761082122959
 30
0.0
 10
-315.6400609146346
 20
195.4474773930182
 30
0.0
 10
-315.5940390647403
 20
195.5110421211454
 30
0.0
 10
-315.5441889096578
 20
195.568208534872
 30
0.0
 10
-315.4924157302424
 20
195.6168185852662
 30
0.0
 10
-315.4374285383962
 20
195.6579837344438
 30
0.0
 10
-315.3811811090825
 20
195.6900323280928
 30
0.0
 10
-315.322332609104
 20
195.7136529272772
 30
0.0
 10
-315.263971899473
 20
195.7277897429349
 30
0.0
 10
-315.1996468677761
 20
195.7322610611917
 30
0.0
 10
-315.1615595436128
 20
195.7294942914196
 30
0.0
 10
-315.0969646604959
 20
195.7187604950543
 30
0.0
 10
-315.1430965470349
 20
195.7262008860916
 30
0.0
 10
-315.1880409130455
 20
195.7333395008167
 30
0.0
 10
-315.1583112606274
 20
195.7286050249333
 30
0.0
 10
-315.1436446311076
 20
195.7262693500059
 30
0.0
 11
-315.1436446311076
 21
195.7262693500059
 31
0.0
 11
-315.0839929963519
 21
195.7122038003656
 31
0.0
 11
-315.0269758148041
 21
195.6894384499505
 31
0.0
 11
-314.9694049975201
 21
195.6568558331394
 31
0.0
 11
-314.9161960383203
 21
195.617283382997
 31
0.0
 11
-314.8627660889126
 21
195.5674035838358
 31
0.0
 11
-314.8144990761287
 21
195.5123108214044
 31
0.0
 11
-314.76690586003
 21
195.4469117904872
 31
0.0
 11
-314.7247243648759
 21
195.3777666450822
 31
0.0
 11
-314.6843919139756
 21
195.2990376873291
 31
0.0
 11
-314.6494608851747
 21
195.2176874793
 31
0.0
 11
-314.6175489179774
 21
195.1281640813584
 31
0.0
 11
-314.590937547931
 21
195.0368770100251
 31
0.0
 11
-314.5683273794039
 21
194.939372038679
 31
0.0
 11
-314.5509109126694
 21
194.840780293537
 31
0.0
 11
-314.5381907865182
 21
194.7383080719172
 31
0.0
 11
-314.5305898879259
 21
194.6353176286355
 31
0.0
 11
-314.5280433897476
 21
194.5310089806461
 31
0.0
 11
-314.5305898879264
 21
194.4267003326572
 31
0.0
 11
-314.5381907865189
 21
194.3237098893755
 31
0.0
 11
-314.5509109126697
 21
194.2212376677548
 31
0.0
 11
-314.5683273794042
 21
194.1226459226114
 31
0.0
 11
-314.590937547931
 21
194.0251409512647
 31
0.0
 11
-314.6175489179772
 21
193.9338538799315
 31
0.0
 11
-314.6494608851743
 21
193.8443304819893
 31
0.0
 11
-314.6843919139749
 21
193.7629802739604
 31
0.0
 11
-314.7247243648756
 21
193.6842513162084
 31
0.0
 11
-314.7669058600299
 21
193.6151061708045
 31
0.0
 11
-314.8144990761286
 21
193.5497071398877
 31
0.0
 11
-314.8627660889126
 21
193.4946143774563
 31
0.0
 11
-314.9161960383202
 21
193.4447345782956
 31
0.0
 11
-314.9694049975199
 21
193.4051621281532
 31
0.0
 11
-315.026975814804
 21
193.372579511341
 31
0.0
 11
-315.0839929963519
 21
193.349814160925
 31
0.0
 11
-315.1436446311078
 21
193.3357486112852
 31
0.0
 11
-315.203019543142
 21
193.3310177879861
 31
0.0
 11
-315.2623944551761
 21
193.3357486112852
 31
0.0
 11
-315.3220460899319
 21
193.3498141609248
 31
0.0
 11
-315.3790632714798
 21
193.3725795113405
 31
0.0
 11
-315.4366340887637
 21
193.4051621281522
 31
0.0
 11
-315.4898430479633
 21
193.4447345782944
 31
0.0
 11
-315.543272997371
 21
193.4946143774554
 31
0.0
 11
-315.591540010155
 21
193.5497071398872
 31
0.0
 11
-315.6391332262537
 21
193.6151061708045
 31
0.0
 11
-315.6813147214082
 21
193.6842513162085
 31
0.0
 11
-315.7216471723089
 21
193.7629802739604
 31
0.0
 11
-315.7565782011096
 21
193.8443304819893
 31
0.0
 11
-315.7884901683065
 21
193.9338538799315
 31
0.0
 11
-315.8151015383527
 21
194.0251409512647
 31
0.0
 11
-315.8377117068795
 21
194.1226459226114
 31
0.0
 11
-315.8551281736139
 21
194.2212376677548
 31
0.0
 11
-315.8678482997648
 21
194.3237098893756
 31
0.0
 11
-315.8754491983577
 21
194.4267003326573
 31
0.0
 11
-315.8779956965368
 21
194.5310089806461
 31
0.0
 11
-315.8754491983577
 21
194.635317628635
 31
0.0
 11
-315.8678482997648
 21
194.7383080719164
 31
0.0
 11
-315.8551281736139
 21
194.8407802935364
 31
0.0
 11
-315.8377117068797
 21
194.9393720386789
 31
0.0
 11
-315.8151015383527
 21
195.0368770100251
 31
0.0
 11
-315.7884901683065
 21
195.1281640813584
 31
0.0
 11
-315.7565782011096
 21
195.2176874793005
 31
0.0
 11
-315.7216471723089
 21
195.2990376873297
 31
0.0
 11
-315.6813147214082
 21
195.3777666450826
 31
0.0
 11
-315.6391332262537
 21
195.4469117904874
 31
0.0
 11
-315.5915400101548
 21
195.512310821405
 31
0.0
 11
-315.5432729973709
 21
195.5674035838364
 31
0.0
 11
-315.4898430479632
 21
195.6172833829971
 31
0.0
 11
-315.4366340887638
 21
195.6568558331388
 31
0.0
 11
-315.3790632714805
 21
195.6894384499499
 31
0.0
 11
-315.3220460899328
 21
195.7122038003654
 31
0.0
 11
-315.2623944551768
 21
195.7262693500059
 31
0.0
 11
-315.2028202994762
 21
195.7309684229738
 31
0.0
 11
-315.1428476564448
 21
195.726142348679
 31
0.0
 11
-315.1127617130963
 21
195.7213480247161
 31
0.0
 11
-315.1428476564449
 21
195.726142348679
 31
0.0
 11
-315.1731328434592
 21
195.7309684229737
 31
0.0
 11
-315.1436446311076
 21
195.7262693500059
 31
0.0
  0
CIRCLE
  5
348
330
A
100
AcDbEntity
  8
1
  6
Continuous
 62
     3
100
AcDbCircle
 10
-436.0285181028209
 20
278.255620778144
 30
0.0
 40
5.0
  0
CIRCLE
  5
347
330
A
100
AcDbEntity
  8
1
  6
Continuous
 62
     7
100
AcDbCircle
 10
-436.0285181028209
 20
278.255620778144
 30
0.0
 40
4.0
  0
CIRCLE
  5
346
330
A
100
AcDbEntity
  8
1
  6
Continuous
 62
     3
100
AcDbCircle
 10
-422.950752598725
 20
260.255620778144
 30
0.0
 40
5.0
  0
CIRCLE
  5
345
330
A
100
AcDbEntity
  8
1
  6
Continuous
 62
     7
100
AcDbCircle
 10
-422.950752598725
 20
260.255620778144
 30
0.0
 40
4.0
  0
CIRCLE
  5
344
330
A
100
AcDbEntity
  8
1
  6
Continuous
 62
     3
100
AcDbCircle
 10
-422.950752598725
 20
238.0063971831479
 30
0.0
 40
5.0
  0
CIRCLE
  5
343
330
A
100
AcDbEntity
  8
1
  6
Continuous
 62
     7
100
AcDbCircle
 10
-422.950752598725
 20
238.0063971831479
 30
0.0
 40
4.0
  0
CIRCLE
  5
342
330
A
100
AcDbEntity
  8
1
  6
Continuous
 62
     3
100
AcDbCircle
 10
-436.0285181028209
 20
220.006397183149
 30
0.0
 40
5.000000000001
  0
CIRCLE
  5
341
330
A
100
AcDbEntity
  8
1
  6
Continuous
 62
     7
100
AcDbCircle
 10
-436.0285181028209
 20
220.006397183149
 30
0.0
 40
4.0
  0
CIRCLE
  5
340
330
A
100
AcDbEntity
  8
1
  6
Continuous
 62
     3
100
AcDbCircle
 10
-457.1887871853499
 20
213.131008980647
 30
0.0
 40
5.0
  0
CIRCLE
  5
33F
330
A
100
AcDbEntity
  8
1
  6
Continuous
 62
     7
100
AcDbCircle
 10
-457.1887871853499
 20
213.131008980647
 30
0.0
 40
4.0
  0
CIRCLE
  5
33E
330
A
100
AcDbEntity
  8
1
  6
Continuous
 62
     3
100
AcDbCircle
 10
-478.349056267879
 20
220.006397183149
 30
0.0
 40
5.0
  0
CIRCLE
  5
33D
330
A
100
AcDbEntity
  8
1
  6
Continuous
 62
     7
100
AcDbCircle
 10
-478.349056267879
 20
220.006397183149
 30
0.0
 40
3.999999999998999
  0
CIRCLE
  5
33C
330
A
100
AcDbEntity
  8
1
  6
Continuous
 62
     3
100
AcDbCircle
 10
-491.426821771975
 20
238.0063971831479
 30
0.0
 40
5.0
  0
CIRCLE
  5
33B
330
A
100
AcDbEntity
  8
1
  6
Continuous
 62
     7
100
AcDbCircle
 10
-491.426821771975
 20
238.0063971831479
 30
0.0
 40
4.0
  0
CIRCLE
  5
33A
330
A
100
AcDbEntity
  8
1
  6
Continuous
 62
     3
100
AcDbCircle
 10
-491.426821771975
 20
260.255620778144
 30
0.0
 40
5.0
  0
CIRCLE
  5
339
330
A
100
AcDbEntity
  8
1
  6
Continuous
 62
     7
100
AcDbCircle
 10
-491.426821771975
 20
260.255620778144
 30
0.0
 40
3.999999999998999
  0
CIRCLE
  5
338
330
A
100
AcDbEntity
  8
1
  6
Continuous
 62
     3
100
AcDbCircle
 10
-478.349056267879
 20
278.255620778144
 30
0.0
 40
5.0
  0
CIRCLE
  5
337
330
A
100
AcDbEntity
  8
1
  6
Continuous
 62
     7
100
AcDbCircle
 10
-478.349056267879
 20
278.255620778144
 30
0.0
 40
4.0
  0
CIRCLE
  5
336
330
A
100
AcDbEntity
  8
1
  6
Continuous
 62
     7
100
AcDbCircle
 10
-457.1887871853499
 20
285.131008980646
 30
0.0
 40
4.0
  0
CIRCLE
  5
335
330
A
100
AcDbEntity
  8
1
  6
Continuous
 62
     3
100
AcDbCircle
 10
-457.1887871853499
 20
285.131008980646
 30
0.0
 40
5.0
  0
CIRCLE
  5
334
330
A
100
AcDbEntity
  8
1
  6
DASH_CENTER
 62
     3
100
AcDbCircle
 10
-457.1887871853499
 20
249.131008980646
 30
0.0
 40
36.0
  0
CIRCLE
  5
333
330
A
100
AcDbEntity
  8
1
  6
Continuous
 62
     7
100
AcDbCircle
 10
-437.095103764968
 20
304.337950451815
 30
0.0
 40
2.75
  0
CIRCLE
  5
332
330
A
100
AcDbEntity
  8
1
  6
Continuous
 62
     7
100
AcDbCircle
 10
-419.4250151162679
 20
294.136120013883
 30
0.0
 40
2.75
  0
CIRCLE
  5
331
330
A
100
AcDbEntity
  8
1
  6
Continuous
 62
     7
100
AcDbCircle
 10
-406.3097947130169
 20
278.5060089806439
 30
0.0
 40
2.75
  0
CIRCLE
  5
330
330
A
100
AcDbEntity
  8
1
  6
Continuous
 62
     7
100
AcDbCircle
 10
-399.3313316958859
 20
259.332839418577
 30
0.0
 40
2.749999999998999
  0
CIRCLE
  5
32F
330
A
100
AcDbEntity
  8
1
  6
Continuous
 62
     7
100
AcDbCircle
 10
-399.331331695885
 20
238.9291785427139
 30
0.0
 40
2.749999999998999
  0
CIRCLE
  5
32E
330
A
100
AcDbEntity
  8
1
  6
Continuous
 62
     7
100
AcDbCircle
 10
-406.3097947130169
 20
219.7560089806469
 30
0.0
 40
2.75
  0
CIRCLE
  5
32D
330
A
100
AcDbEntity
  8
1
  6
Continuous
 62
     7
100
AcDbCircle
 10
-419.425015116267
 20
204.1258979474069
 30
0.0
 40
2.75
  0
CIRCLE
  5
32C
330
A
100
AcDbEntity
  8
1
  6
Continuous
 62
     7
100
AcDbCircle
 10
-437.095103764968
 20
193.9240675094749
 30
0.0
 40
2.75
  0
CIRCLE
  5
32B
330
A
100
AcDbEntity
  8
1
  6
Continuous
 62
     7
100
AcDbCircle
 10
-457.1887871853499
 20
190.381008980646
 30
0.0
 40
2.75
  0
CIRCLE
  5
32A
330
A
100
AcDbEntity
  8
1
  6
Continuous
 62
     7
100
AcDbCircle
 10
-477.2824706057329
 20
193.9240675094749
 30
0.0
 40
2.75
  0
CIRCLE
  5
329
330
A
100
AcDbEntity
  8
1
  6
Continuous
 62
     7
100
AcDbCircle
 10
-494.9525592544349
 20
204.1258979474069
 30
0.0
 40
2.75
  0
CIRCLE
  5
328
330
A
100
AcDbEntity
  8
1
  6
Continuous
 62
     7
100
AcDbCircle
 10
-508.067779657686
 20
219.7560089806469
 30
0.0
 40
2.75
  0
CIRCLE
  5
327
330
A
100
AcDbEntity
  8
1
  6
Continuous
 62
     7
100
AcDbCircle
 10
-515.046242674817
 20
238.9291785427139
 30
0.0
 40
2.750000000001
  0
CIRCLE
  5
326
330
A
100
AcDbEntity
  8
1
  6
Continuous
 62
     7
100
AcDbCircle
 10
-515.046242674817
 20
259.3328394185779
 30
0.0
 40
2.750000000001
  0
CIRCLE
  5
325
330
A
100
AcDbEntity
  8
1
  6
Continuous
 62
     7
100
AcDbCircle
 10
-508.067779657686
 20
278.506008980646
 30
0.0
 40
2.750000000001
  0
CIRCLE
  5
324
330
A
100
AcDbEntity
  8
1
  6
Continuous
 62
     7
100
AcDbCircle
 10
-494.952559254434
 20
294.136120013886
 30
0.0
 40
2.75
  0
CIRCLE
  5
323
330
A
100
AcDbEntity
  8
1
  6
Continuous
 62
     7
100
AcDbCircle
 10
-477.2824706057329
 20
304.337950451818
 30
0.0
 40
2.75
  0
CIRCLE
  5
322
330
A
100
AcDbEntity
  8
1
  6
Continuous
 62
     7
100
AcDbCircle
 10
-457.1887871853499
 20
307.881008980646
 30
0.0
 40
2.75
  0
CIRCLE
  5
321
330
A
100
AcDbEntity
  8
1
  6
DASH_CENTER
 62
     3
100
AcDbCircle
 10
-457.1887871853499
 20
249.131008980646
 30
0.0
 40
58.75
  0
CIRCLE
  5
320
330
A
100
AcDbEntity
  8
1
  6
Continuous
 62
     7
100
AcDbCircle
 10
-457.1887871853499
 20
249.131008980646
 30
0.0
 40
63.0
  0
CIRCLE
  5
31F
330
A
100
AcDbEntity
  8
1
  6
Continuous
 62
     7
100
AcDbCircle
 10
-457.1887871853499
 20
249.131008980646
 30
0.0
 40
52.5
  0
CIRCLE
  5
31E
330
A
100
AcDbEntity
  8
1
  6
Continuous
 62
     7
100
AcDbCircle
 10
-457.1887871853499
 20
249.131008980646
 30
0.0
 40
45.0
  0
CIRCLE
  5
31D
330
A
100
AcDbEntity
  8
1
  6
Continuous
 62
     7
100
AcDbCircle
 10
-457.1887871853499
 20
249.131008980646
 30
0.0
 40
18.0
  0
CIRCLE
  5
31C
330
A
100
AcDbEntity
  8
1
  6
Continuous
 62
     7
100
AcDbCircle
 10
-141.3355263157909
 20
197.25201650831
 30
0.0
 40
3.250000000001
  0
CIRCLE
  5
31B
330
A
100
AcDbEntity
  8
1
  6
Continuous
 62
     7
100
AcDbCircle
 10
-200.085526315791
 20
197.252016508311
 30
0.0
 40
3.25
  0
CIRCLE
  5
31A
330
A
100
AcDbEntity
  8
1
  6
Continuous
 62
     7
100
AcDbCircle
 10
-229.46052631579
 20
248.131008980646
 30
0.0
 40
3.25
  0
CIRCLE
  5
319
330
A
100
AcDbEntity
  8
1
  6
Continuous
 62
     7
100
AcDbCircle
 10
-200.0855263157899
 20
299.0100014529819
 30
0.0
 40
3.25
  0
CIRCLE
  5
318
330
A
100
AcDbEntity
  8
1
  6
Continuous
 62
     7
100
AcDbCircle
 10
-141.3355263157899
 20
299.0100014529819
 30
0.0
 40
3.25
  0
CIRCLE
  5
317
330
A
100
AcDbEntity
  8
1
  6
Continuous
 62
     7
100
AcDbCircle
 10
-111.9605263157899
 20
248.131008980646
 30
0.0
 40
3.25
  0
CIRCLE
  5
316
330
A
100
AcDbEntity
  8
1
  6
Continuous
 62
     7
100
AcDbCircle
 10
-150.616842895408
 20
303.3379504518169
 30
0.0
 40
2.75
  0
CIRCLE
  5
315
330
A
100
AcDbEntity
  8
1
  6
Continuous
 62
     7
100
AcDbCircle
 10
-132.946754246707
 20
293.1361200138849
 30
0.0
 40
2.75
  0
CIRCLE
  5
314
330
A
100
AcDbEntity
  8
1
  6
Continuous
 62
     7
100
AcDbCircle
 10
-119.831533843455
 20
277.506008980646
 30
0.0
 40
2.75
  0
CIRCLE
  5
313
330
A
100
AcDbEntity
  8
1
  6
Continuous
 62
     7
100
AcDbCircle
 10
-112.853070826324
 20
258.3328394185779
 30
0.0
 40
2.749999999998999
  0
CIRCLE
  5
312
330
A
100
AcDbEntity
  8
1
  6
Continuous
 62
     7
100
AcDbCircle
 10
-112.853070826324
 20
237.9291785427149
 30
0.0
 40
2.75
  0
CIRCLE
  5
311
330
A
100
AcDbEntity
  8
1
  6
Continuous
 62
     7
100
AcDbCircle
 10
-119.831533843455
 20
218.756008980647
 30
0.0
 40
2.75
  0
CIRCLE
  5
310
330
A
100
AcDbEntity
  8
1
  6
Continuous
 62
     7
100
AcDbCircle
 10
-132.946754246706
 20
203.125897947407
 30
0.0
 40
2.75
  0
CIRCLE
  5
30F
330
A
100
AcDbEntity
  8
1
  6
Continuous
 62
     7
100
AcDbCircle
 10
-150.616842895406
 20
192.9240675094739
 30
0.0
 40
2.75
  0
CIRCLE
  5
30E
330
A
100
AcDbEntity
  8
1
  6
Continuous
 62
     7
100
AcDbCircle
 10
-170.710526315789
 20
189.381008980645
 30
0.0
 40
2.75
  0
CIRCLE
  5
30D
330
A
100
AcDbEntity
  8
1
  6
Continuous
 62
     7
100
AcDbCircle
 10
-190.804209736173
 20
192.924067509473
 30
0.0
 40
2.75
  0
CIRCLE
  5
30C
330
A
100
AcDbEntity
  8
1
  6
Continuous
 62
     7
100
AcDbCircle
 10
-208.4742983848749
 20
203.125897947405
 30
0.0
 40
2.75
  0
CIRCLE
  5
30B
330
A
100
AcDbEntity
  8
1
  6
Continuous
 62
     7
100
AcDbCircle
 10
-221.589518788126
 20
218.7560089806459
 30
0.0
 40
2.75
  0
CIRCLE
  5
30A
330
A
100
AcDbEntity
  8
1
  6
Continuous
 62
     7
100
AcDbCircle
 10
-228.5679818052579
 20
237.929178542714
 30
0.0
 40
2.749999999998999
  0
CIRCLE
  5
309
330
A
100
AcDbEntity
  8
1
  6
Continuous
 62
     7
100
AcDbCircle
 10
-228.5679818052579
 20
258.3328394185779
 30
0.0
 40
2.75
  0
CIRCLE
  5
308
330
A
100
AcDbEntity
  8
1
  6
Continuous
 62
     7
100
AcDbCircle
 10
-221.589518788126
 20
277.506008980646
 30
0.0
 40
2.75
  0
CIRCLE
  5
307
330
A
100
AcDbEntity
  8
1
  6
Continuous
 62
     7
100
AcDbCircle
 10
-208.474298384874
 20
293.136120013886
 30
0.0
 40
2.75
  0
CIRCLE
  5
306
330
A
100
AcDbEntity
  8
1
  6
Continuous
 62
     7
100
AcDbCircle
 10
-190.804209736173
 20
303.337950451818
 30
0.0
 40
2.75
  0
CIRCLE
  5
305
330
A
100
AcDbEntity
  8
1
  6
Continuous
 62
     7
100
AcDbCircle
 10
-170.71052631579
 20
306.881008980646
 30
0.0
 40
2.75
  0
CIRCLE
  5
304
330
A
100
AcDbEntity
  8
1
  6
DASH_CENTER
 62
     3
100
AcDbCircle
 10
-170.71052631579
 20
248.131008980646
 30
0.0
 40
58.75
  0
CIRCLE
  5
303
330
A
100
AcDbEntity
  8
1
  6
Continuous
 62
     7
100
AcDbCircle
 10
-170.71052631579
 20
248.131008980646
 30
0.0
 40
63.0
  0
CIRCLE
  5
302
330
A
100
AcDbEntity
  8
1
  6
Continuous
 62
     7
100
AcDbCircle
 10
-170.71052631579
 20
248.131008980646
 30
0.0
 40
54.25
  0
CIRCLE
  5
301
330
A
100
AcDbEntity
  8
1
  6
Continuous
 62
     7
100
AcDbCircle
 10
-170.71052631579
 20
248.131008980646
 30
0.0
 40
16.0
  0
CIRCLE
  5
300
330
A
100
AcDbEntity
  8
1
  6
Continuous
 62
     7
100
AcDbCircle
 10
-170.71052631579
 20
248.131008980646
 30
0.0
 40
14.0
  0
CIRCLE
  5
2FF
330
A
100
AcDbEntity
  8
1
  6
Continuous
 62
     7
100
AcDbCircle
 10
-145.71052631579
 20
248.131008980646
 30
0.0
 40
2.0
  0
CIRCLE
  5
2FE
330
A
100
AcDbEntity
  8
1
  6
Continuous
 62
     3
100
AcDbCircle
 10
-145.71052631579
 20
248.131008980646
 30
0.0
 40
2.5
  0
CIRCLE
  5
2FD
330
A
100
AcDbEntity
  8
1
  6
Continuous
 62
     7
100
AcDbCircle
 10
-170.710526315791
 20
223.1310089806469
 30
0.0
 40
2.000000000001
  0
CIRCLE
  5
2FC
330
A
100
AcDbEntity
  8
1
  6
Continuous
 62
     3
100
AcDbCircle
 10
-170.710526315791
 20
223.1310089806469
 30
0.0
 40
2.5
  0
CIRCLE
  5
2FB
330
A
100
AcDbEntity
  8
1
  6
Continuous
 62
     7
100
AcDbCircle
 10
-170.710526315791
 20
273.131008980646
 30
0.0
 40
1.999999999999
  0
CIRCLE
  5
2FA
330
A
100
AcDbEntity
  8
1
  6
Continuous
 62
     3
100
AcDbCircle
 10
-170.710526315791
 20
273.131008980646
 30
0.0
 40
2.5
  0
CIRCLE
  5
2F9
330
A
100
AcDbEntity
  8
1
  6
DASH_CENTER
 62
     3
100
AcDbCircle
 10
-170.71052631579
 20
248.131008980646
 30
0.0
 40
25.0
  0
CIRCLE
  5
2F8
330
A
100
AcDbEntity
  8
1
  6
Continuous
 62
     7
100
AcDbCircle
 10
-170.71052631579
 20
248.131008980646
 30
0.0
 40
20.0
  0
CIRCLE
  5
2F7
330
A
100
AcDbEntity
  8
1
  6
DASH_CENTER
 62
     3
100
AcDbCircle
 10
-170.71052631579
 20
248.131008980646
 30
0.0
 40
50.8
  0
CIRCLE
  5
2F6
330
A
100
AcDbEntity
  8
1
  6
Continuous
 62
     3
100
AcDbCircle
 10
-195.710526315789
 20
248.131008980646
 30
0.0
 40
2.5
  0
CIRCLE
  5
2F5
330
A
100
AcDbEntity
  8
1
  6
Continuous
 62
     7
100
AcDbCircle
 10
-195.710526315789
 20
248.131008980646
 30
0.0
 40
2.000000000001
  0
CIRCLE
  5
2F4
330
A
100
AcDbEntity
  8
1
  6
DASH_CENTER
 62
     3
100
AcDbCircle
 10
-457.1887871853499
 20
249.131008980646
 30
0.0
 40
24.0
  0
CIRCLE
  5
2F3
330
A
100
AcDbEntity
  8
1
  6
DOTTED
 62
     3
100
AcDbCircle
 10
-481.18878718535
 20
249.131008980646
 30
0.0
 40
4.0
  0
CIRCLE
  5
2F2
330
A
100
AcDbEntity
  8
1
  6
DOTTED
 62
     7
100
AcDbCircle
 10
-481.18878718535
 20
249.131008980646
 30
0.0
 40
3.2
  0
CIRCLE
  5
2F1
330
A
100
AcDbEntity
  8
1
  6
DOTTED
 62
     7
100
AcDbCircle
 10
-469.1887871853499
 20
228.34639928982
 30
0.0
 40
3.2
  0
CIRCLE
  5
2F0
330
A
100
AcDbEntity
  8
1
  6
DOTTED
 62
     3
100
AcDbCircle
 10
-469.1887871853499
 20
228.34639928982
 30
0.0
 40
4.0
  0
CIRCLE
  5
2EF
330
A
100
AcDbEntity
  8
1
  6
DOTTED
 62
     7
100
AcDbCircle
 10
-445.1887871853489
 20
228.34639928982
 30
0.0
 40
3.2
  0
CIRCLE
  5
2EE
330
A
100
AcDbEntity
  8
1
  6
DOTTED
 62
     3
100
AcDbCircle
 10
-445.1887871853489
 20
228.34639928982
 30
0.0
 40
4.0
  0
CIRCLE
  5
2ED
330
A
100
AcDbEntity
  8
1
  6
DOTTED
 62
     7
100
AcDbCircle
 10
-433.18878718535
 20
249.131008980646
 30
0.0
 40
3.2
  0
CIRCLE
  5
2EC
330
A
100
AcDbEntity
  8
1
  6
DOTTED
 62
     3
100
AcDbCircle
 10
-433.18878718535
 20
249.131008980646
 30
0.0
 40
4.0
  0
CIRCLE
  5
2EB
330
A
100
AcDbEntity
  8
1
  6
DOTTED
 62
     7
100
AcDbCircle
 10
-445.1887871853499
 20
269.915618671473
 30
0.0
 40
3.2
  0
CIRCLE
  5
2EA
330
A
100
AcDbEntity
  8
1
  6
DOTTED
 62
     3
100
AcDbCircle
 10
-445.1887871853499
 20
269.915618671473
 30
0.0
 40
4.0
  0
CIRCLE
  5
2E9
330
A
100
AcDbEntity
  8
1
  6
DOTTED
 62
     7
100
AcDbCircle
 10
-469.1887871853499
 20
269.915618671473
 30
0.0
 40
3.2
  0
CIRCLE
  5
2E8
330
A
100
AcDbEntity
  8
1
  6
DOTTED
 62
     3
100
AcDbCircle
 10
-469.1887871853499
 20
269.915618671473
 30
0.0
 40
4.0
  0
ARC
  5
2E7
330
A
100
AcDbEntity
  8
1
  6
Continuous
 62
     7
100
AcDbCircle
 10
-303.481099791195
 20
191.849008980646
 30
0.0
 40
6.5
100
AcDbArc
 50
52.27615958964001
 51
90.0
  0
ARC
  5
2E6
330
A
100
AcDbEntity
  8
1
  6
Continuous
 62
     7
100
AcDbCircle
 10
-303.481099791195
 20
304.413008980646
 30
0.0
 40
6.5
100
AcDbArc
 50
-90.0
 51
-52.276159589644
  0
LINE
  5
2E5
330
A
100
AcDbEntity
  8
1
  6
DASH_CENTER
 62
     3
100
AcDbLine
 10
-431.6201287106279
 20
284.3232482359559
 30
0.0
 11
-440.436907495015
 21
272.1879933203319
 31
0.0
  0
LINE
  5
2E4
330
A
100
AcDbEntity
  8
1
  6
DASH_CENTER
 62
     3
100
AcDbLine
 10
-415.817828726512
 20
262.573248235956
 30
0.0
 11
-430.083676470939
 21
257.9379933203319
 31
0.0
  0
LINE
  5
2E3
330
A
100
AcDbEntity
  8
1
  6
DASH_CENTER
 62
     3
100
AcDbLine
 10
-415.817828726512
 20
235.6887697253359
 30
0.0
 11
-430.083676470939
 21
240.32402464096
 31
0.0
  0
LINE
  5
2E2
330
A
100
AcDbEntity
  8
1
  6
DASH_CENTER
 62
     3
100
AcDbLine
 10
-431.6201287106279
 20
213.938769725336
 30
0.0
 11
-440.436907495015
 21
226.074024640961
 31
0.0
  0
LINE
  5
2E1
330
A
100
AcDbEntity
  8
1
  6
DASH_CENTER
 62
     3
100
AcDbLine
 10
-482.757445660072
 20
213.938769725336
 30
0.0
 11
-473.9406668756849
 21
226.074024640961
 31
0.0
  0
LINE
  5
2E0
330
A
100
AcDbEntity
  8
1
  6
DASH_CENTER
 62
     3
100
AcDbLine
 10
-498.5597456441889
 20
235.6887697253359
 30
0.0
 11
-484.293897899762
 21
240.32402464096
 31
0.0
  0
LINE
  5
2DF
330
A
100
AcDbEntity
  8
1
  6
DASH_CENTER
 62
     3
100
AcDbLine
 10
-498.5597456441889
 20
262.573248235956
 30
0.0
 11
-484.293897899762
 21
257.9379933203319
 31
0.0
  0
LINE
  5
2DE
330
A
100
AcDbEntity
  8
1
  6
DASH_CENTER
 62
     3
100
AcDbLine
 10
-482.7574456600729
 20
284.3232482359559
 30
0.0
 11
-473.9406668756849
 21
272.1879933203319
 31
0.0
  0
LINE
  5
2DD
330
A
100
AcDbEntity
  8
1
  6
DASH_CENTER
 62
     3
100
AcDbLine
 10
-435.684270673749
 20
308.214182512557
 30
0.0
 11
-438.505936856186
 21
300.461718391073
 31
0.0
  0
LINE
  5
2DC
330
A
100
AcDbEntity
  8
1
  6
DASH_CENTER
 62
     3
100
AcDbLine
 10
-416.773516226311
 20
297.2960533417489
 30
0.0
 11
-422.0765140062249
 21
290.9761866860179
 31
0.0
  0
LINE
  5
2DB
330
A
100
AcDbEntity
  8
1
  6
DASH_CENTER
 62
     3
100
AcDbLine
 10
-402.737439922406
 20
280.5685089806439
 30
0.0
 11
-409.882149503628
 21
276.4435089806439
 31
0.0
  0
LINE
  5
2DA
330
A
100
AcDbEntity
  8
1
  6
DASH_CENTER
 62
     3
100
AcDbLine
 10
-395.2689997147099
 20
260.049138151453
 30
0.0
 11
-403.393663677061
 21
258.616540685701
 31
0.0
  0
LINE
  5
2D9
330
A
100
AcDbEntity
  8
1
  6
DASH_CENTER
 62
     3
100
AcDbLine
 10
-395.2689997147099
 20
238.212879809838
 30
0.0
 11
-403.39366367706
 21
239.6454772755899
 31
0.0
  0
LINE
  5
2D8
330
A
100
AcDbEntity
  8
1
  6
DASH_CENTER
 62
     3
100
AcDbLine
 10
-402.737439922406
 20
217.693508980647
 30
0.0
 11
-409.882149503628
 21
221.818508980647
 31
0.0
  0
LINE
  5
2D7
330
A
100
AcDbEntity
  8
1
  6
DASH_CENTER
 62
     3
100
AcDbLine
 10
-416.77351622631
 20
200.9659646195419
 30
0.0
 11
-422.076514006224
 21
207.285831275273
 31
0.0
  0
LINE
  5
2D6
330
A
100
AcDbEntity
  8
1
  6
DASH_CENTER
 62
     3
100
AcDbLine
 10
-435.6842706737499
 20
190.047835448733
 30
0.0
 11
-438.5059368561869
 21
197.800299570217
 31
0.0
  0
LINE
  5
2D5
330
A
100
AcDbEntity
  8
1
  6
DASH_CENTER
 62
     3
100
AcDbLine
 10
-478.693303696952
 20
190.047835448733
 30
0.0
 11
-475.871637514515
 21
197.800299570217
 31
0.0
  0
LINE
  5
2D4
330
A
100
AcDbEntity
  8
1
  6
DASH_CENTER
 62
     3
100
AcDbLine
 10
-497.604058144391
 20
200.965964619541
 30
0.0
 11
-492.301060364477
 21
207.2858312752719
 31
0.0
  0
LINE
  5
2D3
330
A
100
AcDbEntity
  8
1
  6
DASH_CENTER
 62
     3
100
AcDbLine
 10
-511.6401344482969
 20
217.693508980647
 30
0.0
 11
-504.4954248670749
 21
221.818508980647
 31
0.0
  0
LINE
  5
2D2
330
A
100
AcDbEntity
  8
1
  6
DASH_CENTER
 62
     3
100
AcDbLine
 10
-519.1085746559929
 20
238.212879809838
 30
0.0
 11
-510.9839106936419
 21
239.6454772755899
 31
0.0
  0
LINE
  5
2D1
330
A
100
AcDbEntity
  8
1
  6
DASH_CENTER
 62
     3
100
AcDbLine
 10
-519.1085746559929
 20
260.049138151454
 30
0.0
 11
-510.9839106936419
 21
258.616540685702
 31
0.0
  0
LINE
  5
2D0
330
A
100
AcDbEntity
  8
1
  6
DASH_CENTER
 62
     3
100
AcDbLine
 10
-511.6401344482969
 20
280.5685089806459
 30
0.0
 11
-504.4954248670749
 21
276.443508980646
 31
0.0
  0
LINE
  5
2CF
330
A
100
AcDbEntity
  8
1
  6
DASH_CENTER
 62
     3
100
AcDbLine
 10
-497.604058144391
 20
297.296053341752
 30
0.0
 11
-492.301060364477
 21
290.97618668602
 31
0.0
  0
LINE
  5
2CE
330
A
100
AcDbEntity
  8
1
  6
DASH_CENTER
 62
     3
100
AcDbLine
 10
-478.693303696952
 20
308.2141825125599
 30
0.0
 11
-475.871637514515
 21
300.461718391076
 31
0.0
  0
LINE
  5
2CD
330
A
100
AcDbEntity
  8
1
  6
DASH_CENTER
 62
     3
100
AcDbLine
 10
-138.8980263157909
 20
193.0301426648609
 30
0.0
 11
-143.7730263157909
 21
201.4738903517589
 31
0.0
  0
LINE
  5
2CC
330
A
100
AcDbEntity
  8
1
  6
DASH_CENTER
 62
     3
100
AcDbLine
 10
-202.523026315791
 20
193.0301426648619
 30
0.0
 11
-197.6480263157899
 21
201.47389035176
 31
0.0
  0
LINE
  5
2CB
330
A
100
AcDbEntity
  8
1
  6
DASH_CENTER
 62
     3
100
AcDbLine
 10
-202.52302631579
 20
303.231875296431
 30
0.0
 11
-197.6480263157899
 21
294.7881276095329
 31
0.0
  0
LINE
  5
2CA
330
A
100
AcDbEntity
  8
1
  6
DASH_CENTER
 62
     3
100
AcDbLine
 10
-138.89802631579
 20
303.231875296431
 30
0.0
 11
-143.7730263157899
 21
294.7881276095329
 31
0.0
  0
LINE
  5
2C9
330
A
100
AcDbEntity
  8
1
  6
DASH_CENTER
 62
     3
100
AcDbLine
 10
-149.2060098041889
 20
307.214182512559
 30
0.0
 11
-152.027675986626
 21
299.4617183910749
 31
0.0
  0
LINE
  5
2C8
330
A
100
AcDbEntity
  8
1
  6
DASH_CENTER
 62
     3
100
AcDbLine
 10
-130.29525535675
 20
296.2960533417509
 30
0.0
 11
-135.598253136664
 21
289.97618668602
 31
0.0
  0
LINE
  5
2C7
330
A
100
AcDbEntity
  8
1
  6
DASH_CENTER
 62
     3
100
AcDbLine
 10
-116.2591790528449
 20
279.568508980646
 30
0.0
 11
-123.403888634066
 21
275.443508980646
 31
0.0
  0
LINE
  5
2C6
330
A
100
AcDbEntity
  8
1
  6
DASH_CENTER
 62
     3
100
AcDbLine
 10
-108.790738845149
 20
259.0491381514549
 30
0.0
 11
-116.9154028075
 21
257.616540685702
 31
0.0
  0
LINE
  5
2C5
330
A
100
AcDbEntity
  8
1
  6
DASH_CENTER
 62
     3
100
AcDbLine
 10
-108.7907388451479
 20
237.2128798098379
 30
0.0
 11
-116.915402807499
 21
238.645477275591
 31
0.0
  0
LINE
  5
2C4
330
A
100
AcDbEntity
  8
1
  6
DASH_CENTER
 62
     3
100
AcDbLine
 10
-116.2591790528439
 20
216.693508980647
 30
0.0
 11
-123.403888634066
 21
220.818508980647
 31
0.0
  0
LINE
  5
2C3
330
A
100
AcDbEntity
  8
1
  6
DASH_CENTER
 62
     3
100
AcDbLine
 10
-130.295255356749
 20
199.965964619541
 30
0.0
 11
-135.598253136663
 21
206.285831275272
 31
0.0
  0
LINE
  5
2C2
330
A
100
AcDbEntity
  8
1
  6
DASH_CENTER
 62
     3
100
AcDbLine
 10
-149.206009804188
 20
189.047835448732
 30
0.0
 11
-152.027675986625
 21
196.800299570216
 31
0.0
  0
LINE
  5
2C1
330
A
100
AcDbEntity
  8
1
  6
DASH_CENTER
 62
     3
100
AcDbLine
 10
-192.215042827391
 20
189.047835448731
 30
0.0
 11
-189.3933766449549
 21
196.800299570215
 31
0.0
  0
LINE
  5
2C0
330
A
100
AcDbEntity
  8
1
  6
DASH_CENTER
 62
     3
100
AcDbLine
 10
-211.125797274831
 20
199.9659646195389
 30
0.0
 11
-205.8227994949179
 21
206.2858312752709
 31
0.0
  0
LINE
  5
2BF
330
A
100
AcDbEntity
  8
1
  6
DASH_CENTER
 62
     3
100
AcDbLine
 10
-225.1618735787369
 20
216.693508980646
 30
0.0
 11
-218.017163997516
 21
220.818508980646
 31
0.0
  0
LINE
  5
2BE
330
A
100
AcDbEntity
  8
1
  6
DASH_CENTER
 62
     3
100
AcDbLine
 10
-232.6303137864329
 20
237.2128798098379
 30
0.0
 11
-224.505649824082
 21
238.6454772755899
 31
0.0
  0
LINE
  5
2BD
330
A
100
AcDbEntity
  8
1
  6
DASH_CENTER
 62
     3
100
AcDbLine
 10
-232.6303137864329
 20
259.049138151454
 30
0.0
 11
-224.5056498240829
 21
257.616540685702
 31
0.0
  0
LINE
  5
2BC
330
A
100
AcDbEntity
  8
1
  6
DASH_CENTER
 62
     3
100
AcDbLine
 10
-225.1618735787369
 20
279.568508980646
 30
0.0
 11
-218.0171639975149
 21
275.443508980646
 31
0.0
  0
LINE
  5
2BB
330
A
100
AcDbEntity
  8
1
  6
DASH_CENTER
 62
     3
100
AcDbLine
 10
-211.125797274831
 20
296.296053341752
 30
0.0
 11
-205.8227994949169
 21
289.97618668602
 31
0.0
  0
LINE
  5
2BA
330
A
100
AcDbEntity
  8
1
  6
DASH_CENTER
 62
     3
100
AcDbLine
 10
-192.215042827392
 20
307.21418251256
 30
0.0
 11
-189.3933766449549
 21
299.461718391076
 31
0.0
  0
LINE
  5
2B9
330
A
100
AcDbEntity
  8
1
  6
Continuous
 62
     7
100
AcDbLine
 10
-292.878014531361
 20
302.5810089806459
 30
0.0
 11
-292.878014531361
 21
310.731008980646
 31
0.0
  0
LINE
  5
2B8
330
A
100
AcDbEntity
  8
1
  6
Continuous
 62
     7
100
AcDbLine
 10
-292.6780145313609
 20
302.381008980646
 30
0.0
 11
-289.2780145313939
 21
302.381008980646
 31
0.0
  0
LINE
  5
2B7
330
A
100
AcDbEntity
  8
1
  6
Continuous
 62
     7
100
AcDbLine
 10
-289.27801453142
 20
193.881008980645
 30
0.0
 11
-292.6780145313609
 21
193.881008980646
 31
0.0
  0
LINE
  5
2B6
330
A
100
AcDbEntity
  8
1
  6
Continuous
 62
     7
100
AcDbLine
 10
-311.478008430732
 20
187.881008980646
 30
0.0
 11
-311.478008430732
 21
185.531008980646
 31
0.0
  0
LINE
  5
2B5
330
A
100
AcDbEntity
  8
1
  6
Continuous
 62
     7
100
AcDbLine
 10
-311.0780084307319
 20
185.131008980646
 30
0.0
 11
-293.278014531361
 21
185.131008980646
 31
0.0
  0
LINE
  5
2B4
330
A
100
AcDbEntity
  8
1
  6
Continuous
 62
     7
100
AcDbLine
 10
-311.478008430733
 20
193.1310089806439
 30
0.0
 11
-311.478008430732
 21
190.881008980646
 31
0.0
  0
LINE
  5
2B3
330
A
100
AcDbEntity
  8
1
  6
Continuous
 62
     7
100
AcDbLine
 10
-314.1280084307319
 20
193.3310089806449
 30
0.0
 11
-311.6780084307329
 21
193.3310089806439
 31
0.0
  0
LINE
  5
2B2
330
A
100
AcDbEntity
  8
1
  6
Continuous
 62
     7
100
AcDbLine
 10
-311.0780084307319
 20
311.131008980646
 30
0.0
 11
-293.278014531361
 21
311.131008980646
 31
0.0
  0
LINE
  5
2B1
330
A
100
AcDbEntity
  8
1
  6
Continuous
 62
     7
100
AcDbLine
 10
-311.478008430732
 20
303.131008980646
 30
0.0
 11
-311.478008430732
 21
310.731008980646
 31
0.0
  0
LINE
  5
2B0
330
A
100
AcDbEntity
  8
1
  6
Continuous
 62
     7
100
AcDbLine
 10
-314.5279256383929
 20
302.931008980646
 30
0.0
 11
-311.678008430732
 21
302.931008980646
 31
0.0
  0
LINE
  5
2AF
330
A
100
AcDbEntity
  8
1
  6
Continuous
 62
     7
100
AcDbLine
 10
-302.878014531414
 20
300.5310089806449
 30
0.0
 11
-314.1280084307319
 21
300.5310089806449
 31
0.0
  0
LINE
  5
2AE
330
A
100
AcDbEntity
  8
1
  6
Continuous
 62
     7
100
AcDbLine
 10
-302.878014531414
 20
298.976694396794
 30
0.0
 11
-302.878014531414
 21
300.5310089806449
 31
0.0
  0
LINE
  5
2AD
330
A
100
AcDbEntity
  8
1
  6
Continuous
 62
     7
100
AcDbLine
 10
-314.528008430732
 20
195.7310089806449
 30
0.0
 11
-302.878014531414
 21
195.7310089806449
 31
0.0
  0
LINE
  5
2AC
330
A
100
AcDbEntity
  8
1
  6
Continuous
 62
     7
100
AcDbLine
 10
-302.878014531414
 20
197.285323564496
 30
0.0
 11
-302.878014531414
 21
195.7310089806449
 31
0.0
  0
LINE
  5
2AB
330
A
100
AcDbEntity
  8
0
  6
Continuous
 62
     7
100
AcDbLine
 10
-314.528008430732
 20
302.931008980646
 30
0.0
 11
-314.528008430732
 21
300.9310089806449
 31
0.0
  0
LINE
  5
2AA
330
A
100
AcDbEntity
  8
1
  6
Continuous
 62
     7
100
AcDbLine
 10
-312.878014531281
 20
232.131008980646
 30
0.0
 11
-312.878014531281
 21
201.651008980646
 31
0.0
  0
LINE
  5
2A9
330
A
100
AcDbEntity
  8
1
  6
Continuous
 62
     7
100
AcDbLine
 10
-315.378008430732
 20
280.131008980646
 30
0.0
 11
-313.880014531281
 21
280.131008980646
 31
0.0
  0
LINE
  5
2A8
330
A
100
AcDbEntity
  8
1
  6
DASH_CENTER
 62
     3
100
AcDbLine
 10
-336.778008430735
 20
272.131008980646
 30
0.0
 11
-303.678014531281
 21
272.131008980646
 31
0.0
  0
LINE
  5
2A7
330
A
100
AcDbEntity
  8
1
  6
Continuous
 62
     7
100
AcDbLine
 10
-315.978008430732
 20
276.631008980646
 30
0.0
 11
-312.878014531281
 21
276.631008980646
 31
0.0
  0
LINE
  5
2A6
330
A
100
AcDbEntity
  8
1
  6
Continuous
 62
     7
100
AcDbLine
 10
-289.4780145312799
 20
283.685508980646
 30
0.0
 11
-289.4780145312799
 21
248.131008980646
 31
0.0
  0
LINE
  5
2A5
330
A
100
AcDbEntity
  8
1
  6
Continuous
 62
     7
100
AcDbLine
 10
-289.4780145312799
 20
228.1310089806459
 30
0.0
 11
-299.77801453128
 21
228.1310089806459
 31
0.0
  0
LINE
  5
2A4
330
A
100
AcDbEntity
  8
1
  6
Continuous
 62
     7
100
AcDbLine
 10
-312.878014531281
 20
294.611008980646
 30
0.0
 11
-312.878014531281
 21
264.131008980646
 31
0.0
  0
LINE
  5
2A3
330
A
100
AcDbEntity
  8
1
  6
Continuous
 62
     7
100
AcDbLine
 10
-315.8780084307319
 20
267.631008980646
 30
0.0
 11
-315.8780084307319
 21
264.131008980646
 31
0.0
  0
LINE
  5
2A2
330
A
100
AcDbEntity
  8
1
  6
Continuous
 62
     7
100
AcDbLine
 10
-315.978008430732
 20
267.631008980646
 30
0.0
 11
-312.878014531281
 21
267.631008980646
 31
0.0
  0
LINE
  5
2A1
330
A
100
AcDbEntity
  8
1
  6
Continuous
 62
     7
100
AcDbLine
 10
-289.4780145314859
 20
221.131008980646
 30
0.0
 11
-299.77801453128
 21
221.131008980646
 31
0.0
  0
LINE
  5
2A0
330
A
100
AcDbEntity
  8
1
  6
Continuous
 62
     7
100
AcDbLine
 10
-289.4780145314859
 20
225.131008980646
 30
0.0
 11
-299.77801453128
 21
225.131008980646
 31
0.0
  0
LINE
  5
29F
330
A
100
AcDbEntity
  8
1
  6
DASH_CENTER
 62
     3
100
AcDbLine
 10
-287.300014532197
 20
223.131008980646
 30
0.0
 11
-301.856014531282
 21
223.131008980646
 31
0.0
  0
LINE
  5
29E
330
A
100
AcDbEntity
  8
1
  6
Continuous
 62
     3
100
AcDbLine
 10
-289.4780145314859
 20
220.631008980646
 30
0.0
 11
-299.77801453128
 21
220.631008980646
 31
0.0
  0
LINE
  5
29D
330
A
100
AcDbEntity
  8
1
  6
Continuous
 62
     3
100
AcDbLine
 10
-289.4780145314859
 20
225.631008980646
 30
0.0
 11
-299.77801453128
 21
225.631008980646
 31
0.0
  0
LINE
  5
29C
330
A
100
AcDbEntity
  8
1
  6
Continuous
 62
     7
100
AcDbLine
 10
-299.77801453128
 20
283.685508980646
 30
0.0
 11
-299.77801453128
 21
248.131008980646
 31
0.0
  0
LINE
  5
29B
330
A
100
AcDbEntity
  8
1
  6
Continuous
 62
     7
100
AcDbLine
 10
-299.77801453128
 20
268.131008980646
 30
0.0
 11
-289.4780145312799
 21
268.131008980646
 31
0.0
  0
LINE
  5
29A
330
A
100
AcDbEntity
  8
1
  6
Continuous
 62
     7
100
AcDbLine
 10
-289.4780145312799
 20
212.576508980645
 30
0.0
 11
-289.9780145312799
 21
212.576508980645
 31
0.0
  0
LINE
  5
299
330
A
100
AcDbEntity
  8
1
  6
Continuous
 62
     7
100
AcDbLine
 10
-299.77801453128
 20
212.576508980645
 30
0.0
 11
-299.27801453128
 21
212.576508980645
 31
0.0
  0
LINE
  5
298
330
A
100
AcDbEntity
  8
1
  6
Continuous
 62
     7
100
AcDbLine
 10
-299.77801453128
 20
283.685508980646
 30
0.0
 11
-289.4780145312799
 21
283.685508980646
 31
0.0
  0
LINE
  5
297
330
A
100
AcDbEntity
  8
1
  6
Continuous
 62
     7
100
AcDbLine
 10
-288.8780145314569
 20
196.990307558381
 30
0.0
 11
-302.878014531414
 21
196.990307558381
 31
0.0
  0
LINE
  5
296
330
A
100
AcDbEntity
  8
1
  6
Continuous
 62
     7
100
AcDbLine
 10
-303.481099791195
 20
198.3490089806459
 30
0.0
 11
-310.580014531281
 21
198.3490089806459
 31
0.0
  0
LINE
  5
295
330
A
100
AcDbEntity
  8
1
  6
Continuous
 62
     7
100
AcDbLine
 10
-302.878014531414
 20
299.2717104029109
 30
0.0
 11
-288.87801453146
 21
299.2717104029109
 31
0.0
  0
LINE
  5
294
330
A
100
AcDbEntity
  8
1
  6
DASH_CENTER
 62
     3
100
AcDbLine
 10
-287.878014533529
 20
197.5417001762069
 30
0.0
 11
-304.878014531414
 21
197.5417001762069
 31
0.0
  0
LINE
  5
293
330
A
100
AcDbEntity
  8
1
  6
DASH_CENTER
 62
     3
100
AcDbLine
 10
-304.878014531414
 20
298.7203177850839
 30
0.0
 11
-287.878014533529
 21
298.7203177850839
 31
0.0
  0
LINE
  5
292
330
A
100
AcDbEntity
  8
1
  6
DASH_CENTER
 62
     3
100
AcDbLine
 10
-346.078008430865
 20
248.131008980646
 30
0.0
 11
-282.8780145322269
 21
248.131008980646
 31
0.0
  0
LINE
  5
291
330
A
100
AcDbEntity
  8
1
  6
Continuous
 62
     7
100
AcDbLine
 10
-290.218715953544
 20
299.2717104029109
 30
0.0
 11
-288.9365931750439
 21
297.989587624409
 31
0.0
  0
LINE
  5
290
330
A
100
AcDbEntity
  8
0
  6
Continuous
 62
     7
100
AcDbLine
 10
-314.528008430732
 20
195.7310089806449
 30
0.0
 11
-314.528008430732
 21
193.731008980645
 31
0.0
  0
LINE
  5
28F
330
A
100
AcDbEntity
  8
1
  6
Continuous
 62
     7
100
AcDbLine
 10
-288.9365931750439
 20
198.272430336883
 30
0.0
 11
-290.218715953544
 21
196.990307558381
 31
0.0
  0
LINE
  5
28E
330
A
100
AcDbEntity
  8
1
  6
Continuous
 62
     7
100
AcDbLine
 10
-288.8780145312809
 20
198.898326732163
 30
0.0
 11
-288.8780145312809
 21
198.4138516931199
 31
0.0
  0
LINE
  5
28D
330
A
100
AcDbEntity
  8
1
  6
Continuous
 62
     7
100
AcDbLine
 10
-290.078014531281
 20
199.151008980646
 30
0.0
 11
-289.0675473400319
 21
199.0980526391139
 31
0.0
  0
LINE
  5
28C
330
A
100
AcDbEntity
  8
0
  6
Continuous
 62
     7
100
AcDbLine
 10
-302.3123291147669
 20
197.8510089806339
 30
0.0
 11
-302.878014531414
 21
197.285323564496
 31
0.0
  0
LINE
  5
28B
330
A
100
AcDbEntity
  8
0
  6
Continuous
 62
     7
100
AcDbLine
 10
-289.443699947853
 20
197.8510089808129
 30
0.0
 11
-302.3123291147669
 21
197.8510089806339
 31
0.0
  0
LINE
  5
28A
330
A
100
AcDbEntity
  8
0
  6
Continuous
 62
     7
100
AcDbLine
 10
-288.87801453142
 20
197.285323564458
 30
0.0
 11
-289.443699947853
 21
197.8510089808129
 31
0.0
  0
LINE
  5
289
330
A
100
AcDbEntity
  8
1
  6
Continuous
 62
     7
100
AcDbLine
 10
-315.8780084307319
 20
279.631008980646
 30
0.0
 11
-315.8780084307319
 21
276.131008980646
 31
0.0
  0
LINE
  5
288
330
A
100
AcDbEntity
  8
1
  6
Continuous
 62
     7
100
AcDbLine
 10
-310.580014531281
 20
297.913008980646
 30
0.0
 11
-303.481099791195
 21
297.913008980646
 31
0.0
  0
LINE
  5
287
330
A
100
AcDbEntity
  8
1
  6
Continuous
 62
     7
100
AcDbLine
 10
-315.378008430732
 20
280.131008980646
 30
0.0
 11
-315.8780084307319
 21
279.631008980646
 31
0.0
  0
LINE
  5
286
330
A
100
AcDbEntity
  8
1
  6
Continuous
 62
     7
100
AcDbLine
 10
-312.878014531281
 20
264.131008980646
 30
0.0
 11
-315.8780084307319
 21
264.131008980646
 31
0.0
  0
LINE
  5
285
330
A
100
AcDbEntity
  8
1
  6
Continuous
 62
     7
100
AcDbLine
 10
-288.8780145312809
 20
297.8481662681709
 30
0.0
 11
-288.8780145312809
 21
297.363691229127
 31
0.0
  0
LINE
  5
284
330
A
100
AcDbEntity
  8
1
  6
Continuous
 62
     7
100
AcDbLine
 10
-289.0675473400319
 20
297.163965322178
 30
0.0
 11
-290.078014531281
 21
297.111008980646
 31
0.0
  0
LINE
  5
283
330
A
100
AcDbEntity
  8
1
  6
Continuous
 62
     7
100
AcDbLine
 10
-290.078014531281
 20
297.111008980646
 30
0.0
 11
-310.378014531281
 21
297.111008980646
 31
0.0
  0
LINE
  5
282
330
A
100
AcDbEntity
  8
1
  6
Continuous
 62
     7
100
AcDbLine
 10
-313.880014531281
 20
216.131008980646
 30
0.0
 11
-315.378008430732
 21
216.131008980646
 31
0.0
  0
LINE
  5
281
330
A
100
AcDbEntity
  8
1
  6
Continuous
 62
     7
100
AcDbLine
 10
-315.8780084307319
 20
216.631008980646
 30
0.0
 11
-315.378008430732
 21
216.131008980646
 31
0.0
  0
LINE
  5
280
330
A
100
AcDbEntity
  8
1
  6
Continuous
 62
     7
100
AcDbLine
 10
-315.8780084307319
 20
232.131008980646
 30
0.0
 11
-312.878014531281
 21
232.131008980646
 31
0.0
  0
LINE
  5
27F
330
A
100
AcDbEntity
  8
1
  6
Continuous
 62
     7
100
AcDbLine
 10
-310.378014531281
 20
199.151008980646
 30
0.0
 11
-290.078014531281
 21
199.151008980646
 31
0.0
  0
LINE
  5
27E
330
A
100
AcDbEntity
  8
0
  6
Continuous
 62
     7
100
AcDbLine
 10
-288.8780145314659
 20
298.9766943967869
 30
0.0
 11
-288.8780145314029
 21
301.981008980646
 31
0.0
  0
LINE
  5
27D
330
A
100
AcDbEntity
  8
0
  6
Continuous
 62
     7
100
AcDbLine
 10
-302.878014531414
 20
298.976694396794
 30
0.0
 11
-302.3123291147669
 21
298.4110089806559
 31
0.0
  0
LINE
  5
27C
330
A
100
AcDbEntity
  8
0
  6
Continuous
 62
     7
100
AcDbLine
 10
-302.3123291147669
 20
298.4110089806559
 30
0.0
 11
-289.443699947853
 21
298.4110089804779
 31
0.0
  0
LINE
  5
27B
330
A
100
AcDbEntity
  8
0
  6
Continuous
 62
     7
100
AcDbLine
 10
-289.443699947853
 20
298.4110089804779
 30
0.0
 11
-288.8780145314659
 21
298.9766943967869
 31
0.0
  0
LINE
  5
27A
330
A
100
AcDbEntity
  8
1
  6
Continuous
 62
     7
100
AcDbLine
 10
-313.48001453128
 20
280.5310089806459
 30
0.0
 11
-313.48001453128
 21
295.013008980646
 31
0.0
  0
LINE
  5
279
330
A
100
AcDbEntity
  8
1
  6
Continuous
 62
     7
100
AcDbLine
 10
-313.48001453128
 20
201.2490089806449
 30
0.0
 11
-313.48001453128
 21
215.731008980645
 31
0.0
  0
LINE
  5
278
330
A
100
AcDbEntity
  8
1
  6
Continuous
 62
     7
100
AcDbLine
 10
-315.8780084307319
 20
267.631008980646
 30
0.0
 11
-315.8780084307319
 21
216.631008980651
 31
0.0
  0
LINE
  5
277
330
A
100
AcDbEntity
  8
1
  6
Continuous
 62
     7
100
AcDbLine
 10
-311.478008430732
 20
304.131008980646
 30
0.0
 11
-292.878014531361
 21
304.131008980646
 31
0.0
  0
LINE
  5
276
330
A
100
AcDbEntity
  8
1
  6
Continuous
 62
     7
100
AcDbLine
 10
-311.478002330183
 20
309.631008980646
 30
0.0
 11
-292.878014531335
 21
309.631008980646
 31
0.0
  0
LINE
  5
275
330
A
100
AcDbEntity
  8
1
  6
Continuous
 62
     7
100
AcDbLine
 10
-312.878014531281
 20
264.131008980646
 30
0.0
 11
-312.878014531281
 21
232.131008980646
 31
0.0
  0
LINE
  5
274
330
A
100
AcDbEntity
  8
1
  6
Continuous
 62
     7
100
AcDbLine
 10
-296.178014531361
 20
192.631008980647
 30
0.0
 11
-292.878014531361
 21
192.631008980646
 31
0.0
  0
LINE
  5
273
330
A
100
AcDbEntity
  8
1
  6
Continuous
 62
     7
100
AcDbLine
 10
-296.178014531361
 20
192.631008980647
 30
0.0
 11
-296.178014531361
 21
186.131008980646
 31
0.0
  0
LINE
  5
272
330
A
100
AcDbEntity
  8
1
  6
Continuous
 62
     7
100
AcDbLine
 10
-296.178014531361
 20
191.0810089806469
 30
0.0
 11
-311.478008430732
 21
191.081008980646
 31
0.0
  0
LINE
  5
271
330
A
100
AcDbEntity
  8
1
  6
Continuous
 62
     7
100
AcDbLine
 10
-296.178014531361
 20
187.681008980646
 30
0.0
 11
-311.478008430732
 21
187.681008980646
 31
0.0
  0
LINE
  5
270
330
A
100
AcDbEntity
  8
1
  6
DASH_CENTER
 62
     3
100
AcDbLine
 10
-290.4616629817029
 20
189.381008980646
 30
0.0
 11
-325.161576297485
 21
189.381008980646
 31
0.0
  0
LINE
  5
26F
330
A
100
AcDbEntity
  8
1
  6
Continuous
 62
     7
100
AcDbLine
 10
-292.878014531361
 20
186.131008980646
 30
0.0
 11
-296.178014531361
 21
186.131008980646
 31
0.0
  0
LINE
  5
26E
330
A
100
AcDbEntity
  8
1
  6
Continuous
 62
     7
100
AcDbLine
 10
-292.878014531361
 20
193.681008980646
 30
0.0
 11
-292.878014531361
 21
185.531008980646
 31
0.0
  0
LINE
  5
26D
330
A
100
AcDbEntity
  8
1
  6
Continuous
 62
     7
100
AcDbLine
 10
-315.8780084307319
 20
232.131008980646
 30
0.0
 11
-315.978008430732
 21
232.131008980646
 31
0.0
  0
LINE
  5
26C
330
A
100
AcDbEntity
  8
1
  6
Continuous
 62
     7
100
AcDbLine
 10
-315.978008430732
 20
216.131008980646
 30
0.0
 11
-315.8780084307319
 21
216.131008980646
 31
0.0
  0
LINE
  5
26B
330
A
100
AcDbEntity
  8
1
  6
Continuous
 62
     7
100
AcDbLine
 10
-315.8780084307319
 20
232.131008980646
 30
0.0
 11
-315.8780084307319
 21
216.131008980646
 31
0.0
  0
LINE
  5
26A
330
A
100
AcDbEntity
  8
1
  6
Continuous
 62
     7
100
AcDbLine
 10
-315.978008430732
 20
216.131008980646
 30
0.0
 11
-315.978008430732
 21
232.131008980646
 31
0.0
  0
LINE
  5
269
330
A
100
AcDbEntity
  8
1
  6
Continuous
 62
     7
100
AcDbLine
 10
-315.8780084307319
 20
280.131008980646
 30
0.0
 11
-315.978008430732
 21
280.131008980646
 31
0.0
  0
LINE
  5
268
330
A
100
AcDbEntity
  8
1
  6
Continuous
 62
     7
100
AcDbLine
 10
-315.978008430732
 20
280.131008980646
 30
0.0
 11
-315.978008430732
 21
276.631008980646
 31
0.0
  0
LINE
  5
267
330
A
100
AcDbEntity
  8
1
  6
Continuous
 62
     7
100
AcDbLine
 10
-315.8780084307319
 20
276.631008980646
 30
0.0
 11
-315.8780084307319
 21
280.131008980646
 31
0.0
  0
LINE
  5
266
330
A
100
AcDbEntity
  8
1
  6
Continuous
 62
     7
100
AcDbLine
 10
-315.8780084307319
 20
264.131008980646
 30
0.0
 11
-315.978008430732
 21
264.131008980646
 31
0.0
  0
LINE
  5
265
330
A
100
AcDbEntity
  8
1
  6
Continuous
 62
     7
100
AcDbLine
 10
-315.978008430732
 20
264.131008980646
 30
0.0
 11
-315.978008430732
 21
267.631008980646
 31
0.0
  0
LINE
  5
264
330
A
100
AcDbEntity
  8
1
  6
DASH_CENTER
 62
     3
100
AcDbLine
 10
-475.18878718535
 20
249.131008980646
 30
0.0
 11
-487.18878718535
 21
249.131008980646
 31
0.0
  0
LINE
  5
263
330
A
100
AcDbEntity
  8
1
  6
DASH_CENTER
 62
     3
100
AcDbLine
 10
-472.18878718535
 20
223.150246867113
 30
0.0
 11
-466.18878718535
 21
233.542551712526
 31
0.0
  0
LINE
  5
262
330
A
100
AcDbEntity
  8
1
  6
DASH_CENTER
 62
     3
100
AcDbLine
 10
-442.1887871853489
 20
223.150246867113
 30
0.0
 11
-448.188787185349
 21
233.542551712527
 31
0.0
  0
LINE
  5
261
330
A
100
AcDbEntity
  8
1
  6
DASH_CENTER
 62
     3
100
AcDbLine
 10
-427.18878718535
 20
249.131008980646
 30
0.0
 11
-439.18878718535
 21
249.131008980646
 31
0.0
  0
LINE
  5
260
330
A
100
AcDbEntity
  8
1
  6
DASH_CENTER
 62
     3
100
AcDbLine
 10
-442.18878718535
 20
275.1117710941799
 30
0.0
 11
-448.18878718535
 21
264.7194662487659
 31
0.0
  0
LINE
  5
25F
330
A
100
AcDbEntity
  8
1
  6
DASH_CENTER
 62
     3
100
AcDbLine
 10
-472.18878718535
 20
275.1117710941799
 30
0.0
 11
-466.18878718535
 21
264.7194662487659
 31
0.0
  0
LINE
  5
25E
330
A
100
AcDbEntity
  8
1
  6
DASH_CENTER
 62
     3
100
AcDbLine
 10
-290.7281343125359
 20
306.881008980646
 30
0.0
 11
-341.2279971717969
 21
306.881008980646
 31
0.0
  0
LINE
  5
25D
330
A
100
AcDbEntity
  8
1
  6
Continuous
 62
     7
100
AcDbLine
 10
-299.77801453128
 20
248.131008980646
 30
0.0
 11
-299.77801453128
 21
212.576508980645
 31
0.0
  0
LINE
  5
25C
330
A
100
AcDbEntity
  8
1
  6
Continuous
 62
     7
100
AcDbLine
 10
-289.4780145312799
 20
248.131008980646
 30
0.0
 11
-289.4780145312799
 21
212.5655089806449
 31
0.0
  0
LINE
  5
25B
330
A
100
AcDbEntity
  8
1
  6
Continuous
 62
     7
100
AcDbLine
 10
-292.878014531361
 20
185.531008980646
 30
0.0
 11
-293.278014531361
 21
185.131008980646
 31
0.0
  0
LINE
  5
25A
330
A
100
AcDbEntity
  8
1
  6
Continuous
 62
     7
100
AcDbLine
 10
-311.0780084307319
 20
185.131008980646
 30
0.0
 11
-311.478008430732
 21
185.531008980646
 31
0.0
  0
LINE
  5
259
330
A
100
AcDbEntity
  8
1
  6
Continuous
 62
     7
100
AcDbLine
 10
-314.528008430732
 20
193.731008980645
 30
0.0
 11
-314.1280084307319
 21
193.3310089806449
 31
0.0
  0
LINE
  5
258
330
A
100
AcDbEntity
  8
1
  6
Continuous
 62
     7
100
AcDbLine
 10
-311.478008430732
 20
310.731008980646
 30
0.0
 11
-311.0780084307319
 21
311.131008980646
 31
0.0
  0
LINE
  5
257
330
A
100
AcDbEntity
  8
1
  6
Continuous
 62
     7
100
AcDbLine
 10
-293.278014531361
 20
311.131008980646
 30
0.0
 11
-292.878014531361
 21
310.731008980646
 31
0.0
  0
LINE
  5
256
330
A
100
AcDbEntity
  8
1
  6
Continuous
 62
     7
100
AcDbLine
 10
-288.8780145314029
 20
301.981008980646
 30
0.0
 11
-289.2780145313939
 21
302.381008980646
 31
0.0
  0
LINE
  5
255
330
A
100
AcDbEntity
  8
1
  6
Continuous
 62
     7
100
AcDbLine
 10
-314.528008430732
 20
300.9310089806449
 30
0.0
 11
-314.1280084307319
 21
300.5310089806449
 31
0.0
  0
LINE
  5
254
330
A
100
AcDbEntity
  8
1
  6
Continuous
 62
     7
100
AcDbLine
 10
-288.87801453142
 20
197.285323564458
 30
0.0
 11
-288.87801453142
 21
194.2810089806449
 31
0.0
  0
LINE
  5
253
330
A
100
AcDbEntity
  8
1
  6
Continuous
 62
     7
100
AcDbLine
 10
-288.87801453142
 20
194.2810089806449
 30
0.0
 11
-289.27801453142
 21
193.881008980645
 31
0.0
  0
LINE
  5
252
330
A
100
AcDbEntity
  8
1
  6
DASH_CENTER
 62
     3
100
AcDbLine
 10
-457.1887871853499
 20
323.6561784896989
 30
0.0
 11
-457.1887871853499
 21
172.6561784896989
 31
0.0
  0
LINE
  5
251
330
A
100
AcDbEntity
  8
1
  6
DASH_CENTER
 62
     3
100
AcDbLine
 10
-383.71281464531
 20
249.131008980646
 30
0.0
 11
-530.7128146453099
 21
249.131008980646
 31
0.0
  0
LINE
  5
250
330
A
100
AcDbEntity
  8
1
  6
DASH_CENTER
 62
     3
100
AcDbLine
 10
-170.71052631579
 20
322.992821695654
 30
0.0
 11
-170.71052631579
 21
174.269196265637
 31
0.0
  0
LINE
  5
24F
330
A
100
AcDbEntity
  8
1
  6
DASH_CENTER
 62
     3
100
AcDbLine
 10
-247.5723390307989
 20
248.131008980646
 30
0.0
 11
-93.84871360078099
 21
248.131008980646
 31
0.0
  0
INSERT
  5
51
330
A
100
AcDbEntity
  8
0
100
AcDbBlockReference
  2
WB_040_R
 10
0.0
 20
0.0
 30
0.0
  0
INSERT
  5
52
330
A
100
AcDbEntity
  8
0
100
AcDbBlockReference
  2
CRB
 10
0.0
 20
0.0
 30
0.0
  0
INSERT
  5
53
330
A
100
AcDbEntity
  8
0
100
AcDbBlockReference
  2
HEX_BOLT_SIDE__1
 10
0.0
 20
0.0
 30
0.0
  0
INSERT
  5
54
330
A
100
AcDbEntity
  8
0
100
AcDbBlockReference
  2
HEX_BOLT_SIDE__2
 10
0.0
 20
0.0
 30
0.0
  0
INSERT
  5
55
330
A
100
AcDbEntity
  8
0
100
AcDbBlockReference
  2
HEX_BOLT_SIDE__3
 10
0.0
 20
0.0
 30
0.0
  0
INSERT
  5
56
330
A
100
AcDbEntity
  8
0
100
AcDbBlockReference
  2
WBG_040_F
 10
0.0
 20
0.0
 30
0.0
  0
INSERT
  5
57
330
A
100
AcDbEntity
  8
0
100
AcDbBlockReference
  2
HEX_BOLT_TOP__4
 10
0.0
 20
0.0
 30
0.0
  0
INSERT
  5
58
330
A
100
AcDbEntity
  8
0
100
AcDbBlockReference
  2
HEX_BOLT_TOP__5
 10
0.0
 20
0.0
 30
0.0
  0
INSERT
  5
59
330
A
100
AcDbEntity
  8
0
100
AcDbBlockReference
  2
HEX_BOLT_TOP__6
 10
0.0
 20
0.0
 30
0.0
  0
INSERT
  5
5A
330
A
100
AcDbEntity
  8
0
100
AcDbBlockReference
  2
HEX_BOLT_TOP__7
 10
0.0
 20
0.0
 30
0.0
  0
INSERT
  5
5B
330
A
100
AcDbEntity
  8
0
100
AcDbBlockReference
  2
HEX_BOLT_TOP__8
 10
0.0
 20
0.0
 30
0.0
  0
INSERT
  5
5C
330
A
100
AcDbEntity
  8
0
100
AcDbBlockReference
  2
HEX_BOLT_TOP__9
 10
0.0
 20
0.0
 30
0.0
  0
MTEXT
  5
372
330
A
100
AcDbEntity
  8
1
 62
     0
100
AcDbMText
 10
-169.6919027581893
 20
144.5115920971256
 30
0.0
 40
5.948259703516609
 41
0.0
 71
     5
 72
     1
  1
CSD-40-XXX-2UH.dxf
  7
CONVERTER_1
 73
     1
 44
1.0
  0
INSERT
  5
386
330
A
100
AcDbEntity
  8
0
  6
ByBlock
370
    -2
100
AcDbBlockReference
  2
NTC
 10
-527.7484984739857
 20
98.20699143708225
 30
0.0
 41
0.592980343497393
 42
0.592980343497393
 43
0.592980343497393
  0
INSERT
  5
3F5
330
A
100
AcDbEntity
  8
0
  6
ByBlock
370
    -2
100
AcDbBlockReference
  2
HD logo-new
 10
-288.1173610264022
 20
63.83182389546215
 30
0.0
 41
1.3
 42
1.3
 43
1.3
  0
INSERT
  5
40B
330
A
100
AcDbEntity
  8
0
  6
ByBlock
370
    -2
100
AcDbBlockReference
  2
HD LLC
 10
-165.2760935047123
 20
54.86023828607361
 30
0.0
 41
1.125637986557288
 42
1.125637986557288
 43
1.125637986557288
  0
ENDSEC
  0
SECTION
  2
OBJECTS
  0
DICTIONARY
  5
19
330
0
100
AcDbDictionary
281
     1
  3
ACAD_GROUP
350
1A
  3
ACAD_LAYOUT
350
35F
  3
ACAD_MLINESTYLE
350
1B
  3
ACAD_PLOTSETTINGS
350
360
  3
ACAD_PLOTSTYLENAME
350
35D
  3
AcDbVariableDictionary
350
40C
  0
DICTIONARY
  5
1A
102
{ACAD_REACTORS
330
19
102
}
330
19
100
AcDbDictionary
281
     1
  0
DICTIONARY
  5
35F
102
{ACAD_REACTORS
330
19
102
}
330
19
100
AcDbDictionary
281
     1
  3
Layout1
350
362
  3
Model
350
361
  0
DICTIONARY
  5
1B
102
{ACAD_REACTORS
330
19
102
}
330
19
100
AcDbDictionary
281
     1
  3
STANDARD
350
1C
  0
DICTIONARY
  5
360
102
{ACAD_REACTORS
330
19
102
}
330
19
100
AcDbDictionary
281
     1
  0
ACDBDICTIONARYWDFLT
  5
35D
102
{ACAD_REACTORS
330
19
102
}
330
19
100
AcDbDictionary
281
     1
  3
Normal
350
35E
100
AcDbDictionaryWithDefault
340
35E
  0
DICTIONARY
  5
40C
102
{ACAD_REACTORS
330
19
102
}
330
19
100
AcDbDictionary
281
     1
  3
DIMASSOC
350
40D
  0
LAYOUT
  5
362
102
{ACAD_REACTORS
330
35F
102
}
330
35F
100
AcDbPlotSettings
  1

  2
Adobe PDF
  4

  6

 40
0.0
 41
0.0
 42
0.0
 43
0.0
 44
0.0
 45
0.0
 46
0.0
 47
0.0
 48
0.0
 49
0.0
140
0.0
141
0.0
142
1.0
143
1.0
 70
   688
 72
     0
 73
     0
 74
     5
  7

 75
    16
147
1.0
148
0.0
149
0.0
100
AcDbLayout
  1
Layout1
 70
     0
 71
     1
 10
0.0
 20
0.0
 11
12.0
 21
9.0
 12
0.0
 22
0.0
 32
0.0
 14
1.000000000000000E+20
 24
1.000000000000000E+20
 34
1.000000000000000E+20
 15
-1.000000000000000E+20
 25
-1.000000000000000E+20
 35
-1.000000000000000E+20
146
0.0
 13
0.0
 23
0.0
 33
0.0
 16
1.0
 26
0.0
 36
0.0
 17
0.0
 27
1.0
 37
0.0
 76
     0
330
B
  0
LAYOUT
  5
361
102
{ACAD_REACTORS
330
35F
102
}
330
35F
100
AcDbPlotSettings
  1

  2
Adobe PDF
  4

  6

 40
0.0
 41
0.0
 42
0.0
 43
0.0
 44
0.0
 45
0.0
 46
0.0
 47
0.0
 48
0.0
 49
0.0
140
0.0
141
0.0
142
1.0
143
1.0
 70
  1712
 72
     0
 73
     0
 74
     0
  7

 75
     0
147
1.0
148
0.0
149
0.0
100
AcDbLayout
  1
Model
 70
     1
 71
     0
 10
0.0
 20
0.0
 11
12.0
 21
9.0
 12
0.0
 22
0.0
 32
0.0
 14
0.0
 24
0.0
 34
0.0
 15
0.0
 25
0.0
 35
0.0
146
0.0
 13
0.0
 23
0.0
 33
0.0
 16
1.0
 26
0.0
 36
0.0
 17
0.0
 27
1.0
 37
0.0
 76
     0
330
A
  0
MLINESTYLE
  5
1C
102
{ACAD_REACTORS
330
1B
102
}
330
1B
100
AcDbMlineStyle
  2
STANDARD
 70
     0
  3

 62
     0
 51
90.0
 52
90.0
 71
     2
 49
0.5
 62
   256
  6
BYLAYER
 49
-0.5
 62
   256
  6
BYLAYER
  0
ACDBPLACEHOLDER
  5
35E
102
{ACAD_REACTORS
330
35D
102
}
330
35D
  0
DICTIONARYVAR
  5
40D
102
{ACAD_REACTORS
330
40C
102
}
330
40C
100
DictionaryVariables
280
     0
  1
1
  0
ENDSEC
  0
EOF
