  0
SECTION
  2
HEADER
  9
$ACADVER
  1
AC1015
  9
$ACADMAINTVER
 70
    13
  9
$DWGCODEPAGE
  3
ANSI_1252
  9
$INSBASE
 10
0.0
 20
0.0
 30
0.0
  9
$EXTMIN
 10
-678.6277564023727
 20
47.36638741999295
 30
0.0
  9
$EXTMAX
 10
-158.8670555042061
 20
405.731801173554
 30
0.0
  9
$LIMMIN
 10
0.0
 20
0.0
  9
$LIMMAX
 10
0.0
 20
0.0
  9
$ORTHOMODE
 70
     0
  9
$REGENMODE
 70
     1
  9
$FILLMODE
 70
     1
  9
$QTEXTMODE
 70
     0
  9
$MIRRTEXT
 70
     1
  9
$LTSCALE
 40
1.0
  9
$ATTMODE
 70
     1
  9
$TEXTSIZE
 40
0.0
  9
$TRACEWID
 40
0.05
  9
$TEXTSTYLE
  7
STANDARD
  9
$CLAYER
  8
0
  9
$CELTYPE
  6
BYBLOCK
  9
$CECOLOR
 62
   256
  9
$CELTSCALE
 40
1.0
  9
$DISPSILH
 70
     0
  9
$DIMSCALE
 40
1.0
  9
$DIMASZ
 40
0.18
  9
$DIMEXO
 40
0.0625
  9
$DIMDLI
 40
0.38
  9
$DIMRND
 40
0.0
  9
$DIMDLE
 40
0.0
  9
$DIMEXE
 40
0.18
  9
$DIMTP
 40
0.0
  9
$DIMTM
 40
0.0
  9
$DIMTXT
 40
0.18
  9
$DIMCEN
 40
0.09
  9
$DIMTSZ
 40
0.0
  9
$DIMTOL
 70
     0
  9
$DIMLIM
 70
     0
  9
$DIMTIH
 70
     1
  9
$DIMTOH
 70
     1
  9
$DIMSE1
 70
     0
  9
$DIMSE2
 70
     0
  9
$DIMTAD
 70
     0
  9
$DIMZIN
 70
     0
  9
$DIMBLK
  1

  9
$DIMASO
 70
     1
  9
$DIMSHO
 70
     1
  9
$DIMPOST
  1

  9
$DIMAPOST
  1

  9
$DIMALT
 70
     0
  9
$DIMALTD
 70
     2
  9
$DIMALTF
 40
25.4
  9
$DIMLFAC
 40
1.0
  9
$DIMTOFL
 70
     0
  9
$DIMTVP
 40
0.0
  9
$DIMTIX
 70
     0
  9
$DIMSOXD
 70
     0
  9
$DIMSAH
 70
     0
  9
$DIMBLK1
  1

  9
$DIMBLK2
  1

  9
$DIMSTYLE
  2
STANDARD
  9
$DIMCLRD
 70
     0
  9
$DIMCLRE
 70
     0
  9
$DIMCLRT
 70
     0
  9
$DIMTFAC
 40
1.0
  9
$DIMGAP
 40
0.09
  9
$DIMJUST
 70
     0
  9
$DIMSD1
 70
     0
  9
$DIMSD2
 70
     0
  9
$DIMTOLJ
 70
     1
  9
$DIMTZIN
 70
     0
  9
$DIMALTZ
 70
     0
  9
$DIMALTTZ
 70
     0
  9
$DIMUPT
 70
     0
  9
$DIMDEC
 70
     4
  9
$DIMTDEC
 70
     4
  9
$DIMALTU
 70
     2
  9
$DIMALTTD
 70
     2
  9
$DIMTXSTY
  7
STANDARD
  9
$DIMAUNIT
 70
     0
  9
$DIMADEC
 70
     0
  9
$DIMALTRND
 40
0.0
  9
$DIMAZIN
 70
     0
  9
$DIMDSEP
 70
    46
  9
$DIMATFIT
 70
     3
  9
$DIMFRAC
 70
     0
  9
$DIMLDRBLK
  1

  9
$DIMLUNIT
 70
     2
  9
$DIMLWD
 70
    -2
  9
$DIMLWE
 70
    -2
  9
$DIMTMOVE
 70
     0
  9
$LUNITS
 70
     2
  9
$LUPREC
 70
     4
  9
$SKETCHINC
 40
0.1
  9
$FILLETRAD
 40
0.0
  9
$AUNITS
 70
     0
  9
$AUPREC
 70
     0
  9
$MENU
  1
acad
  9
$ELEVATION
 40
0.0
  9
$PELEVATION
 40
0.0
  9
$THICKNESS
 40
0.0
  9
$LIMCHECK
 70
     0
  9
$CHAMFERA
 40
0.0
  9
$CHAMFERB
 40
0.0
  9
$CHAMFERC
 40
0.0
  9
$CHAMFERD
 40
0.0
  9
$SKPOLY
 70
     0
  9
$TDCREATE
 40
2311946.676449710
  9
$TDUCREATE
 40
2311946.843116377
  9
$TDUPDATE
 40
2454707.655266227
  9
$TDUUPDATE
 40
2454707.821932893
  9
$TDINDWG
 40
0.0053328704
  9
$TDUSRTIMER
 40
0.0053328704
  9
$USRTIMER
 70
     1
  9
$ANGBASE
 50
0.0
  9
$ANGDIR
 70
     0
  9
$PDMODE
 70
     0
  9
$PDSIZE
 40
0.0
  9
$PLINEWID
 40
0.0
  9
$SPLFRAME
 70
     0
  9
$SPLINETYPE
 70
     6
  9
$SPLINESEGS
 70
     8
  9
$HANDSEED
  5
40F
  9
$SURFTAB1
 70
     6
  9
$SURFTAB2
 70
     6
  9
$SURFTYPE
 70
     6
  9
$SURFU
 70
     6
  9
$SURFV
 70
     6
  9
$UCSBASE
  2

  9
$UCSNAME
  2

  9
$UCSORG
 10
0.0
 20
0.0
 30
0.0
  9
$UCSXDIR
 10
1.0
 20
0.0
 30
0.0
  9
$UCSYDIR
 10
0.0
 20
1.0
 30
0.0
  9
$UCSORTHOREF
  2

  9
$UCSORTHOVIEW
 70
     0
  9
$UCSORGTOP
 10
0.0
 20
0.0
 30
0.0
  9
$UCSORGBOTTOM
 10
0.0
 20
0.0
 30
0.0
  9
$UCSORGLEFT
 10
0.0
 20
0.0
 30
0.0
  9
$UCSORGRIGHT
 10
0.0
 20
0.0
 30
0.0
  9
$UCSORGFRONT
 10
0.0
 20
0.0
 30
0.0
  9
$UCSORGBACK
 10
0.0
 20
0.0
 30
0.0
  9
$PUCSBASE
  2

  9
$PUCSNAME
  2

  9
$PUCSORG
 10
0.0
 20
0.0
 30
0.0
  9
$PUCSXDIR
 10
1.0
 20
0.0
 30
0.0
  9
$PUCSYDIR
 10
0.0
 20
1.0
 30
0.0
  9
$PUCSORTHOREF
  2

  9
$PUCSORTHOVIEW
 70
     0
  9
$PUCSORGTOP
 10
0.0
 20
0.0
 30
0.0
  9
$PUCSORGBOTTOM
 10
0.0
 20
0.0
 30
0.0
  9
$PUCSORGLEFT
 10
0.0
 20
0.0
 30
0.0
  9
$PUCSORGRIGHT
 10
0.0
 20
0.0
 30
0.0
  9
$PUCSORGFRONT
 10
0.0
 20
0.0
 30
0.0
  9
$PUCSORGBACK
 10
0.0
 20
0.0
 30
0.0
  9
$USERI1
 70
     0
  9
$USERI2
 70
     0
  9
$USERI3
 70
     0
  9
$USERI4
 70
     0
  9
$USERI5
 70
     0
  9
$USERR1
 40
0.0
  9
$USERR2
 40
0.0
  9
$USERR3
 40
0.0
  9
$USERR4
 40
0.0
  9
$USERR5
 40
0.0
  9
$WORLDVIEW
 70
     1
  9
$SHADEDGE
 70
     3
  9
$SHADEDIF
 70
    70
  9
$TILEMODE
 70
     1
  9
$MAXACTVP
 70
    16
  9
$PINSBASE
 10
0.0
 20
0.0
 30
0.0
  9
$PLIMCHECK
 70
     0
  9
$PEXTMIN
 10
1.000000000000000E+20
 20
1.000000000000000E+20
 30
1.000000000000000E+20
  9
$PEXTMAX
 10
-1.000000000000000E+20
 20
-1.000000000000000E+20
 30
-1.000000000000000E+20
  9
$PLIMMIN
 10
0.0
 20
0.0
  9
$PLIMMAX
 10
12.0
 20
9.0
  9
$UNITMODE
 70
     0
  9
$VISRETAIN
 70
     0
  9
$PLINEGEN
 70
     1
  9
$PSLTSCALE
 70
     0
  9
$TREEDEPTH
 70
  3020
  9
$CMLSTYLE
  2
STANDARD
  9
$CMLJUST
 70
     0
  9
$CMLSCALE
 40
1.0
  9
$PROXYGRAPHICS
 70
     0
  9
$MEASUREMENT
 70
     0
  9
$CELWEIGHT
370
    -2
  9
$ENDCAPS
280
     0
  9
$JOINSTYLE
280
     0
  9
$LWDISPLAY
290
     0
  9
$INSUNITS
 70
     0
  9
$HYPERLINKBASE
  1

  9
$STYLESHEET
  1

  9
$XEDIT
290
     1
  9
$CEPSNTYPE
380
     0
  9
$PSTYLEMODE
290
     1
  9
$FINGERPRINTGUID
  2
{C58ACA2B-A564-4291-9D82-808394A50884}
  9
$VERSIONGUID
  2
{430897D1-65AB-4996-A978-C723A5E6D5D6}
  9
$EXTNAMES
290
     1
  9
$PSVPSCALE
 40
0.0
  9
$OLESTARTUP
290
     0
  0
ENDSEC
  0
SECTION
  2
CLASSES
  0
CLASS
  1
LWPOLYLINE
  2
AcDbPolyline
  3
AutoCAD 2000
 90
    32768
280
     0
281
     1
  0
CLASS
  1
IMAGE
  2
AcDbRasterImage
  3
ISM
 90
    32895
280
     0
281
     1
  0
CLASS
  1
OLE2FRAME
  2
AcDbOle2Frame
  3
AutoCAD 2000
 90
    32768
280
     0
281
     1
  0
CLASS
  1
HATCH
  2
AcDbHatch
  3
AutoCAD 2000
 90
    32768
280
     0
281
     1
  0
CLASS
  1
DICTIONARYVAR
  2
AcDbDictionaryVar
  3
AutoCAD 2000
 90
        0
280
     0
281
     0
  0
CLASS
  1
RASTERVARIABLES
  2
AcDbRasterVariables
  3
ISM
 90
    32768
280
     0
281
     0
  0
CLASS
  1
IMAGEDEF
  2
AcDbRasterImageDef
  3
ISM
 90
    32768
280
     0
281
     0
  0
CLASS
  1
IMAGEDEF_REACTOR
  2
AcDbRasterImageDefReactor
  3
ISM
 90
    32769
280
     0
281
     0
  0
CLASS
  1
IDBUFFER
  2
AcDbIdBuffer
  3
AutoCAD 2000
 90
    32768
280
     0
281
     0
  0
CLASS
  1
SPATIAL_FILTER
  2
AcDbSpatialFilter
  3
AutoCAD 2000
 90
    32768
280
     0
281
     0
  0
CLASS
  1
XRECORD
  2
AcDbXrecord
  3
AutoCAD 2000
 90
    32768
280
     0
281
     0
  0
CLASS
  1
SORTENTSTABLE
  2
AcDbSortentsTable
  3
AutoCAD 2000
 90
    32768
280
     0
281
     0
  0
CLASS
  1
LAYER_INDEX
  2
AcDbLayerIndex
  3
AutoCAD 2000
 90
    32768
280
     0
281
     0
  0
CLASS
  1
SPATIAL_INDEX
  2
AcDbSpatialIndex
  3
AutoCAD 2000
 90
    32768
280
     0
281
     0
  0
CLASS
  1
OBJECT_PTR
  2
CAseDLPNTableRecord
  3
"ASE-LPNTableRecord"
 90
    32769
280
     0
281
     0
  0
CLASS
  1
LAYOUT
  2
AcDbLayout
  3
AutoCAD 2000
 90
        0
280
     0
281
     0
  0
CLASS
  1
PLOTSETTINGS
  2
AcDbPlotSettings
  3
AutoCAD 2000
 90
    32768
280
     0
281
     0
  0
CLASS
  1
ACDBDICTIONARYWDFLT
  2
AcDbDictionaryWithDefault
  3
AutoCAD 2000
 90
        0
280
     0
281
     0
  0
CLASS
  1
ACDBPLACEHOLDER
  2
AcDbPlaceHolder
  3
AutoCAD 2000
 90
        0
280
     0
281
     0
  0
CLASS
  1
VBA_PROJECT
  2
AcDbVbaProject
  3
"acadvba"
 90
    32769
280
     0
281
     0
  0
CLASS
  1
WIPEOUT
  2
AcDbWipeout
  3
WipeOut|AutoCAD Express Tool|expresstools@autodesk.com
 90
    32895
280
     0
281
     1
  0
CLASS
  1
WIPEOUTVARIABLES
  2
AcDbWipeoutVariables
  3
WipeOut|AutoCAD Express Tool|expresstools@autodesk.com
 90
    32768
280
     0
281
     0
  0
CLASS
  1
RTEXT
  2
RText
  3
RText|AutoCAD Express Tool|expresstools@autodesk.com
 90
    32768
280
     0
281
     1
  0
CLASS
  1
ARCALIGNEDTEXT
  2
AcDbArcAlignedText
  3
ATEXT|AutoCAD Express Tool|expresstools@autodesk.com
 90
    32768
280
     0
281
     1
  0
ENDSEC
  0
SECTION
  2
TABLES
  0
TABLE
  2
VPORT
  5
7
330
0
100
AcDbSymbolTable
 70
     2
  0
VPORT
  5
40E
330
7
100
AcDbSymbolTableRecord
100
AcDbViewportTableRecord
  2
*Active
 70
     0
 10
0.0
 20
0.0
 11
1.0
 21
1.0
 12
-420.3422900750389
 22
250.429253242242
 13
0.0
 23
0.0
 14
1.0
 24
1.0
 15
0.0
 25
0.0
 16
0.0
 26
0.0
 36
1.0
 17
0.0
 27
0.0
 37
0.0
 40
443.8292402045707
 41
1.241011984021304
 42
50.0
 43
0.0
 44
0.0
 50
0.0
 51
0.0
 71
     0
 72
   100
 73
     1
 74
     1
 75
     0
 76
     0
 77
     0
 78
     0
281
     0
 65
     1
110
0.0
120
0.0
130
0.0
111
1.0
121
0.0
131
0.0
112
0.0
122
1.0
132
0.0
 79
     0
146
0.0
  0
ENDTAB
  0
TABLE
  2
LTYPE
  5
4
330
0
100
AcDbSymbolTable
 70
     8
  0
LTYPE
  5
11
330
4
100
AcDbSymbolTableRecord
100
AcDbLinetypeTableRecord
  2
BYBLOCK
 70
     0
  3

 72
    65
 73
     0
 40
0.0
  0
LTYPE
  5
12
330
4
100
AcDbSymbolTableRecord
100
AcDbLinetypeTableRecord
  2
BYLAYER
 70
     0
  3

 72
    65
 73
     0
 40
0.0
  0
LTYPE
  5
13
330
4
100
AcDbSymbolTableRecord
100
AcDbLinetypeTableRecord
  2
CONTINUOUS
 70
     0
  3
Solid line
 72
    65
 73
     0
 40
0.0
  0
LTYPE
  5
1D
330
4
100
AcDbSymbolTableRecord
100
AcDbLinetypeTableRecord
  2
DASHED
 70
     0
  3
Dashed
 72
    65
 73
     2
 40
15.0
 49
12.0
 74
     0
 49
-3.0
 74
     0
  0
LTYPE
  5
1E
330
4
100
AcDbSymbolTableRecord
100
AcDbLinetypeTableRecord
  2
DOTTED
 70
     0
  3
Dotted
 72
    65
 73
     2
 40
3.5
 49
0.5
 74
     0
 49
-3.0
 74
     0
  0
LTYPE
  5
1F
330
4
100
AcDbSymbolTableRecord
100
AcDbLinetypeTableRecord
  2
DOT_CENTER
 70
     0
  3
Dot_Center
 72
    65
 73
     4
 40
2.0
 49
1.25
 74
     0
 49
-0.25
 74
     0
 49
0.25
 74
     0
 49
-0.25
 74
     0
  0
LTYPE
  5
20
330
4
100
AcDbSymbolTableRecord
100
AcDbLinetypeTableRecord
  2
LONG_DASHED
 70
     0
  3
Long_Dashed
 72
    65
 73
     2
 40
2.0
 49
1.5
 74
     0
 49
-0.5
 74
     0
  0
LTYPE
  5
21
330
4
100
AcDbSymbolTableRecord
100
AcDbLinetypeTableRecord
  2
DASH_CENTER
 70
     0
  3
Dash_Center
 72
    65
 73
     4
 40
36.0
 49
24.0
 74
     0
 49
-3.0
 74
     0
 49
6.0
 74
     0
 49
-3.0
 74
     0
  0
LTYPE
  5
22
330
4
100
AcDbSymbolTableRecord
100
AcDbLinetypeTableRecord
  2
PHANTOM
 70
     0
  3
Phantom
 72
    65
 73
     6
 40
2.5
 49
1.25
 74
     0
 49
-0.25
 74
     0
 49
0.25
 74
     0
 49
-0.25
 74
     0
 49
0.25
 74
     0
 49
-0.25
 74
     0
  0
LTYPE
  5
23
330
4
100
AcDbSymbolTableRecord
100
AcDbLinetypeTableRecord
  2
CENTER_DASH_DASH
 70
     0
  3
Center_Dash_Dash
 72
    65
 73
     6
 40
22.0
 49
12.0
 74
     0
 49
-3.0
 74
     0
 49
0.5
 74
     0
 49
-3.0
 74
     0
 49
0.5
 74
     0
 49
-3.0
 74
     0
  0
ENDTAB
  0
TABLE
  2
LAYER
  5
2
330
0
100
AcDbSymbolTable
 70
     3
  0
LAYER
  5
14
330
2
100
AcDbSymbolTableRecord
100
AcDbLayerTableRecord
  2
0
 70
     0
 62
     7
  6
CONTINUOUS
370
    -3
390
359
  0
LAYER
  5
24
330
2
100
AcDbSymbolTableRecord
100
AcDbLayerTableRecord
  2
1
 70
     0
 62
     7
  6
CONTINUOUS
370
    -3
390
359
  0
LAYER
  5
3EE
330
2
100
AcDbSymbolTableRecord
100
AcDbLayerTableRecord
  2
LAYER_1
 70
     0
 62
     5
  6
CONTINUOUS
370
    -3
390
359
  0
ENDTAB
  0
TABLE
  2
STYLE
  5
3
330
0
100
AcDbSymbolTable
 70
     3
  0
STYLE
  5
17
330
3
100
AcDbSymbolTableRecord
100
AcDbTextStyleTableRecord
  2
STANDARD
 70
     0
 40
0.0
 41
1.0
 50
0.0
 71
     0
 42
0.0
  3
txt
  4

  0
STYLE
  5
68
330
3
100
AcDbSymbolTableRecord
100
AcDbTextStyleTableRecord
  2
CONVERTER_1
 70
     0
 40
0.0
 41
0.8100000000000001
 50
0.0
 71
     0
 42
0.0
  3
txt.shx
  4

  0
STYLE
  5
72
330
3
100
AcDbSymbolTableRecord
100
AcDbTextStyleTableRecord
  2
CONVERTER_2
 70
     0
 40
0.0
 41
0.9
 50
0.0
 71
     0
 42
0.0
  3
txt.shx
  4

  0
ENDTAB
  0
TABLE
  2
VIEW
  5
5
330
0
100
AcDbSymbolTable
 70
     0
  0
ENDTAB
  0
TABLE
  2
UCS
  5
6
330
0
100
AcDbSymbolTable
 70
     0
  0
ENDTAB
  0
TABLE
  2
APPID
  5
8
330
0
100
AcDbSymbolTable
 70
     1
  0
APPID
  5
16
330
8
100
AcDbSymbolTableRecord
100
AcDbRegAppTableRecord
  2
ACAD
 70
     0
  0
ENDTAB
  0
TABLE
  2
DIMSTYLE
  5
9
330
0
100
AcDbSymbolTable
 70
     1
100
AcDbDimStyleTable
 71
     0
  0
DIMSTYLE
105
18
330
9
100
AcDbSymbolTableRecord
100
AcDbDimStyleTableRecord
  2
STANDARD
 70
     0
340
17
  0
ENDTAB
  0
TABLE
  2
BLOCK_RECORD
  5
1
330
0
100
AcDbSymbolTable
 70
    40
  0
BLOCK_RECORD
  5
A
330
1
100
AcDbSymbolTableRecord
100
AcDbBlockTableRecord
  2
*MODEL_SPACE
340
35C
  0
BLOCK_RECORD
  5
B
330
1
100
AcDbSymbolTableRecord
100
AcDbBlockTableRecord
  2
*PAPER_SPACE
340
35D
  0
BLOCK_RECORD
  5
25
330
1
100
AcDbSymbolTableRecord
100
AcDbBlockTableRecord
  2
CSD_17_2UH
340
0
102
{BLKREFS
331
29
331
363
102
}
  0
BLOCK_RECORD
  5
27
330
1
100
AcDbSymbolTableRecord
100
AcDbBlockTableRecord
  2
100107378
340
0
102
{BLKREFS
331
2C
331
362
102
}
  0
BLOCK_RECORD
  5
2A
330
1
100
AcDbSymbolTableRecord
100
AcDbBlockTableRecord
  2
100107380
340
0
102
{BLKREFS
331
2F
331
361
102
}
  0
BLOCK_RECORD
  5
2D
330
1
100
AcDbSymbolTableRecord
100
AcDbBlockTableRecord
  2
C2A0372
340
0
102
{BLKREFS
331
32
331
360
102
}
  0
BLOCK_RECORD
  5
30
330
1
100
AcDbSymbolTableRecord
100
AcDbBlockTableRecord
  2
100107382
340
0
102
{BLKREFS
331
35
331
35F
102
}
  0
BLOCK_RECORD
  5
33
330
1
100
AcDbSymbolTableRecord
100
AcDbBlockTableRecord
  2
C2A0375
340
0
102
{BLKREFS
331
56
102
}
  0
BLOCK_RECORD
  5
36
330
1
100
AcDbSymbolTableRecord
100
AcDbBlockTableRecord
  2
HEX_BOLT_SIDE__1
340
0
102
{BLKREFS
331
57
102
}
  0
BLOCK_RECORD
  5
38
330
1
100
AcDbSymbolTableRecord
100
AcDbBlockTableRecord
  2
HEX_BOLT_TOP__2
340
0
102
{BLKREFS
331
58
102
}
  0
BLOCK_RECORD
  5
3A
330
1
100
AcDbSymbolTableRecord
100
AcDbBlockTableRecord
  2
HEX_BOLT_TOP__3
340
0
102
{BLKREFS
331
59
102
}
  0
BLOCK_RECORD
  5
3C
330
1
100
AcDbSymbolTableRecord
100
AcDbBlockTableRecord
  2
HEX_BOLT_TOP__4
340
0
102
{BLKREFS
331
5A
102
}
  0
BLOCK_RECORD
  5
3E
330
1
100
AcDbSymbolTableRecord
100
AcDbBlockTableRecord
  2
HEX_BOLT_TOP__5
340
0
102
{BLKREFS
331
5B
102
}
  0
BLOCK_RECORD
  5
40
330
1
100
AcDbSymbolTableRecord
100
AcDbBlockTableRecord
  2
RETAINER__6
340
0
102
{BLKREFS
331
44
102
}
  0
BLOCK_RECORD
  5
42
330
1
100
AcDbSymbolTableRecord
100
AcDbBlockTableRecord
  2
WB_050_R
340
0
102
{BLKREFS
331
5C
102
}
  0
BLOCK_RECORD
  5
45
330
1
100
AcDbSymbolTableRecord
100
AcDbBlockTableRecord
  2
RETAINER__7
340
0
102
{BLKREFS
331
4B
102
}
  0
BLOCK_RECORD
  5
47
330
1
100
AcDbSymbolTableRecord
100
AcDbBlockTableRecord
  2
RETAINER__8
340
0
102
{BLKREFS
331
4C
102
}
  0
BLOCK_RECORD
  5
49
330
1
100
AcDbSymbolTableRecord
100
AcDbBlockTableRecord
  2
WBG_050_F
340
0
102
{BLKREFS
331
5D
102
}
  0
BLOCK_RECORD
  5
4D
330
1
100
AcDbSymbolTableRecord
100
AcDbBlockTableRecord
  2
HEX_BOLT_SIDE__9
340
0
102
{BLKREFS
331
5E
102
}
  0
BLOCK_RECORD
  5
4F
330
1
100
AcDbSymbolTableRecord
100
AcDbBlockTableRecord
  2
HEX_BOLT_SIDE__10
340
0
102
{BLKREFS
331
53
102
}
  0
BLOCK_RECORD
  5
51
330
1
100
AcDbSymbolTableRecord
100
AcDbBlockTableRecord
  2
CRB
340
0
102
{BLKREFS
331
5F
102
}
  0
BLOCK_RECORD
  5
376
330
1
100
AcDbSymbolTableRecord
100
AcDbBlockTableRecord
  2
NTC
340
0
310
2800000020000000200000000100080000000000000400000000000000000000000000000000000000000000000080000080000000808000800000008000800080800000C0C0C000C0DCC000F0CAA6000020400000206000002080000020A0000020C0000020E00000400000004020000040400000406000004080000040A0
310
000040C0000040E00000600000006020000060400000606000006080000060A0000060C0000060E00000800000008020000080400000806000008080000080A0000080C0000080E00000A0000000A0200000A0400000A0600000A0800000A0A00000A0C00000A0E00000C0000000C0200000C0400000C0600000C0800000C0
310
A00000C0C00000C0E00000E0000000E0200000E0400000E0600000E0800000E0A00000E0C00000E0E00040000000400020004000400040006000400080004000A0004000C0004000E00040200000402020004020400040206000402080004020A0004020C0004020E000404000004040200040404000404060004040800040
310
40A0004040C0004040E00040600000406020004060400040606000406080004060A0004060C0004060E00040800000408020004080400040806000408080004080A0004080C0004080E00040A0000040A0200040A0400040A0600040A0800040A0A00040A0C00040A0E00040C0000040C0200040C0400040C0600040C08000
310
40C0A00040C0C00040C0E00040E0000040E0200040E0400040E0600040E0800040E0A00040E0C00040E0E00080000000800020008000400080006000800080008000A0008000C0008000E00080200000802020008020400080206000802080008020A0008020C0008020E00080400000804020008040400080406000804080
310
008040A0008040C0008040E00080600000806020008060400080606000806080008060A0008060C0008060E00080800000808020008080400080806000808080008080A0008080C0008080E00080A0000080A0200080A0400080A0600080A0800080A0A00080A0C00080A0E00080C0000080C0200080C0400080C0600080C0
310
800080C0A00080C0C00080C0E00080E0000080E0200080E0400080E0600080E0800080E0A00080E0C00080E0E000C0000000C0002000C0004000C0006000C0008000C000A000C000C000C000E000C0200000C0202000C0204000C0206000C0208000C020A000C020C000C020E000C0400000C0402000C0404000C0406000C0
310
408000C040A000C040C000C040E000C0600000C0602000C0604000C0606000C0608000C060A000C060C000C060E000C0800000C0802000C0804000C0806000C0808000C080A000C080C000C080E000C0A00000C0A02000C0A04000C0A06000C0A08000C0A0A000C0A0C000C0A0E000C0C00000C0C02000C0C04000C0C06000
310
C0C08000C0C0A000F0FBFF00A4A0A000808080000000FF0000FF000000FFFF00FF000000FF00FF00FFFF0000FFFFFF00FFFFFFFFFFFFFFFFFFFFFFFFFFFFFFFFFFFFFFFFFFFFFFFFFFFFFFFFFFFFFFFFFFFFFFFFFFFFFFFFFFFFFFFFFFFFFFFFFFFFFFFFFFFFFFFFFFFFFFFFFFFFFFFFFFFFFFFFFFFFFFFFFFFFFFFFFFFFFF
310
FFFFFFFFFFFFFFFFFFFFFFFFFFFFFFFFFFFFFFFFFFFFFFFFFFFFFFFFFFFFFFFFFFFFFFFFFFFFFFFFFFFFFFFFFFFFFFFFFFFFFFFFFFFFFFFFFFFFFFFFFFFFFFFFFFFFFFFFFFFFFFFFFFFFFFFFFFFFFFFFFFFFFFFFFFFFFFFFFFFFFFFFFFFFFFFFFFFFFFFFFFFFFFFFFFFFFFFFFFFFFFFFFFFFFFFFFFFFFFFFFFFFFFFFFFFFFF
310
FFFFFFFFFFFFFFFFFFFFFFFFFFFFFFFFFFFFFFFFFFFFFFFFFFFFFFFFFFFFFFFFFFFFFFFFFFFFFFFFFFFFFFFFFFFFFFFFFFFFFFFFFFFFFFFFFFFFFFFFFFFFFFFFFFFFFFFFFFFFFFFFFFFFFFFFFFFFFFFFFFFFFFFFFFFFFFFFFFFFFFFFFFFFFFFFFFFFFFFFFFFFFFFFFFFFFFFFFFFFFFFFFFFFFFFFFFFFFFFFFFFFFFFFFFFFFF
310
FFFFFFFFFFFFFFFFFFFFFFFFFFFFFFFFFFFFFFFF000000000000000000000000000000000000000000000000000000000000FFFF00FF0000000000000000FFFFFFFFFFFFFFFFFFFFFFFFFFFFFFFFFFFFFF00FFFF00FF0000000000000000FFFFFFFFFFFFFFFFFFFFFFFFFFFFFFFFFFFFFF00FFFF00FF000000000000000000
310
00000000000000000000000000FFFFFFFFFF00FFFF00FF0000000000000000000000000000000000000000000000000000FF00FFFF00FF0000000000000000000000000000000000000000000000000000FF00FFFF00FF0000000000000000000000000000000000000000000000000000FF00FFFF00FF0000000000000000
310
00000000000000000000000000000000FFFFFF00FFFF00FF0000000000FFFFFFFFFFFFFFFFFFFFFFFFFFFFFFFFFFFFFFFFFFFF00FFFF000000000000000000000000000000000000000000000000000000000000FFFFFFFFFFFFFFFFFFFFFFFFFFFFFFFFFFFFFFFFFFFFFFFFFFFFFFFFFFFFFFFFFFFFFFFFFFFFFFFFFFFFFF
310
FFFFFFFFFFFFFFFFFFFFFFFFFFFFFFFFFFFFFFFFFFFFFFFFFFFFFFFFFFFFFFFFFFFFFFFFFFFFFFFFFFFFFFFFFFFFFFFFFFFFFFFFFFFFFFFFFFFFFFFFFFFFFFFFFFFFFFFFFFFFFFFFFFFFFFFFFFFFFFFFFFFFFFFFFFFFFFFFFFFFFFFFFFFFFFFFFFFFFFFFFFFFFFFFFFFFFFFFFFFFFFFFFFFFFFFFFFFFFFFFFFFFFFFFFFFFFF
310
FFFFFFFFFFFFFFFFFFFFFFFFFFFFFFFFFFFFFFFFFFFFFFFFFFFFFFFFFFFFFFFFFFFFFFFFFFFFFFFFFFFFFFFFFFFFFFFFFFFFFFFFFFFFFFFFFFFFFFFFFFFFFFFFFFFFFFFFFFFFFFFFFFFFFFFFFFFFFFFFFFFFFFFFFFFFFFFFFFFFFFFFFFFFFFFFFFFFFFFFFFFFFFFFFFFFFFFFFFFFFFFFFFFFFFFFFFFFFFFFFFFFFFFFFFFFFF
310
FFFFFFFFFFFFFFFFFFFFFFFFFFFFFFFFFFFFFFFFFFFFFFFFFFFFFFFFFFFFFFFFFFFFFFFFFFFFFFFFFFFFFFFFFFFFFFFFFFFFFFFFFFFFFFFF
102
{BLKREFS
331
37C
331
381
102
}
  0
BLOCK_RECORD
  5
382
330
1
100
AcDbSymbolTableRecord
100
AcDbBlockTableRecord
  2
AI9-BLK14
340
0
310
2800000020000000200000000100080000000000000400000000000000000000000000000000000000000000000080000080000000808000800000008000800080800000C0C0C000C0DCC000F0CAA6000020400000206000002080000020A0000020C0000020E00000400000004020000040400000406000004080000040A0
310
000040C0000040E00000600000006020000060400000606000006080000060A0000060C0000060E00000800000008020000080400000806000008080000080A0000080C0000080E00000A0000000A0200000A0400000A0600000A0800000A0A00000A0C00000A0E00000C0000000C0200000C0400000C0600000C0800000C0
310
A00000C0C00000C0E00000E0000000E0200000E0400000E0600000E0800000E0A00000E0C00000E0E00040000000400020004000400040006000400080004000A0004000C0004000E00040200000402020004020400040206000402080004020A0004020C0004020E000404000004040200040404000404060004040800040
310
40A0004040C0004040E00040600000406020004060400040606000406080004060A0004060C0004060E00040800000408020004080400040806000408080004080A0004080C0004080E00040A0000040A0200040A0400040A0600040A0800040A0A00040A0C00040A0E00040C0000040C0200040C0400040C0600040C08000
310
40C0A00040C0C00040C0E00040E0000040E0200040E0400040E0600040E0800040E0A00040E0C00040E0E00080000000800020008000400080006000800080008000A0008000C0008000E00080200000802020008020400080206000802080008020A0008020C0008020E00080400000804020008040400080406000804080
310
008040A0008040C0008040E00080600000806020008060400080606000806080008060A0008060C0008060E00080800000808020008080400080806000808080008080A0008080C0008080E00080A0000080A0200080A0400080A0600080A0800080A0A00080A0C00080A0E00080C0000080C0200080C0400080C0600080C0
310
800080C0A00080C0C00080C0E00080E0000080E0200080E0400080E0600080E0800080E0A00080E0C00080E0E000C0000000C0002000C0004000C0006000C0008000C000A000C000C000C000E000C0200000C0202000C0204000C0206000C0208000C020A000C020C000C020E000C0400000C0402000C0404000C0406000C0
310
408000C040A000C040C000C040E000C0600000C0602000C0604000C0606000C0608000C060A000C060C000C060E000C0800000C0802000C0804000C0806000C0808000C080A000C080C000C080E000C0A00000C0A02000C0A04000C0A06000C0A08000C0A0A000C0A0C000C0A0E000C0C00000C0C02000C0C04000C0C06000
310
C0C08000C0C0A000F0FBFF00A4A0A000808080000000FF0000FF000000FFFF00FF000000FF00FF00FFFF0000FFFFFF00FF00FFFFFFFF00FFFFFFFFFFFFFFFFFFFFFFFFFFFFFFFFFFFFFFFFFFFFFFFFFFFF00FFFFFFFF00FFFFFFFFFFFFFFFFFFFFFFFFFFFFFFFFFFFFFFFFFFFFFFFFFFFF00FFFFFFFF00FFFFFFFFFFFFFFFF
310
FFFFFFFFFFFFFFFFFFFFFFFFFFFFFFFFFFFF00FFFFFFFF00FFFFFFFFFFFFFFFFFFFFFFFFFFFFFFFFFFFFFFFFFFFFFFFFFFFF00FFFFFFFF00FFFFFFFFFFFFFFFFFFFFFFFFFFFFFFFFFFFFFFFFFFFFFFFFFFFF00FFFFFFFF00FFFFFFFFFFFFFFFFFFFFFFFFFFFFFFFFFFFFFFFFFFFFFFFFFFFF00FFFFFFFF00FFFFFFFFFFFFFF
310
FFFFFFFFFFFFFFFFFFFFFFFFFFFFFFFFFFFFFF00FFFFFFFF00FFFFFFFFFFFFFFFFFFFFFFFFFFFFFFFFFFFFFFFFFFFFFFFFFFFF00FFFFFFFF00FFFFFFFFFFFFFFFFFFFFFFFFFFFFFFFFFFFFFFFFFFFFFFFFFFFF00FFFFFFFF00FFFFFFFFFFFFFFFFFFFFFFFFFFFFFFFFFFFFFFFFFFFFFFFFFFFF00FFFFFFFF00FFFFFFFFFFFF
310
FFFFFFFFFFFFFFFFFFFFFFFFFFFFFFFFFFFFFFFF00FFFFFFFF00FFFFFFFFFFFFFFFFFFFFFFFFFFFFFFFFFFFFFFFFFFFFFFFFFFFF00FFFFFFFF00FFFFFFFFFFFFFFFFFFFFFFFFFFFFFFFFFFFFFFFFFFFFFFFFFFFF00FFFFFFFF0000000000000000000000000000000000000000000000000000FF00FFFFFFFFFFFFFFFFFFFF
310
FFFFFFFFFFFFFFFFFFFFFFFFFFFFFFFFFFFFFFFFFF00FFFFFFFFFFFFFFFFFFFFFFFFFFFFFFFFFFFFFFFFFFFFFFFFFFFFFFFFFFFFFF00FFFFFFFFFFFFFFFFFFFFFFFFFFFFFFFFFFFFFFFFFFFFFFFFFFFFFFFFFFFFFF00FFFFFFFFFFFFFFFFFFFFFFFFFFFFFFFFFFFFFFFFFFFFFFFFFFFFFFFFFF00FF00000000000000000000
310
0000000000000000000000000000000000000000FFFFFFFFFFFFFFFFFFFFFFFFFFFFFFFFFFFFFFFFFFFFFFFFFFFFFFFFFFFFFFFFFFFFFFFFFFFFFFFFFFFFFFFFFFFFFFFFFFFFFFFFFFFFFFFFFFFFFFFFFFFFFFFFFFFFFFFFFFFFFFFFFFFFFFFFFFFFFFFFFFFFFFFFFFFFFFFFFFFFFFFFFFFFFFFFFFFFFFFFFFFFFFFFFFFFFF
310
FFFFFFFFFFFFFFFFFFFFFFFFFFFFFFFFFFFFFFFFFFFFFFFFFFFFFFFFFFFFFFFFFFFFFFFFFFFFFFFFFFFFFFFFFFFFFFFFFFFFFFFFFFFFFFFFFFFFFFFFFFFFFFFFFFFFFFFFFFFFFFFFFFFFFFFFFFFFFFFFFFFFFFFFFFFFFFFFFFFFFFFFFFFFFFFFFFFFFFFFFFFFFFFFFFFFFFFFFFFFFFFFFFFFFFFFFFFFFFFFFFFFFFFFFFFFFF
310
FFFFFFFFFFFFFFFFFFFFFFFFFFFFFFFFFFFFFFFFFFFFFFFFFFFFFFFFFFFFFFFFFFFFFFFFFFFFFFFFFFFFFFFFFFFFFFFFFFFFFFFFFFFFFFFFFFFFFFFFFFFFFFFFFFFFFFFFFFFFFFFFFFFFFFFFFFFFFFFFFFFFFFFFFFFFFFFFFFFFFFFFFFFFFFFFFFFFFFFFFFFFFFFFFFFFFFFFFFFFFFFFFFFFFFFFFFFFFFFFFFFFFFFFFFFFFF
310
FFFFFFFFFFFFFFFFFFFFFFFFFFFFFFFFFFFFFFFFFFFFFFFFFFFFFFFFFFFFFFFFFFFFFFFFFFFFFFFFFFFFFFFFFFFFFFFFFFFFFFFFFFFFFFFF
102
{BLKREFS
331
3C3
102
}
  0
BLOCK_RECORD
  5
387
330
1
100
AcDbSymbolTableRecord
100
AcDbBlockTableRecord
  2
AI9-BLK13
340
0
310
2800000020000000200000000100080000000000000400000000000000000000000000000000000000000000000080000080000000808000800000008000800080800000C0C0C000C0DCC000F0CAA6000020400000206000002080000020A0000020C0000020E00000400000004020000040400000406000004080000040A0
310
000040C0000040E00000600000006020000060400000606000006080000060A0000060C0000060E00000800000008020000080400000806000008080000080A0000080C0000080E00000A0000000A0200000A0400000A0600000A0800000A0A00000A0C00000A0E00000C0000000C0200000C0400000C0600000C0800000C0
310
A00000C0C00000C0E00000E0000000E0200000E0400000E0600000E0800000E0A00000E0C00000E0E00040000000400020004000400040006000400080004000A0004000C0004000E00040200000402020004020400040206000402080004020A0004020C0004020E000404000004040200040404000404060004040800040
310
40A0004040C0004040E00040600000406020004060400040606000406080004060A0004060C0004060E00040800000408020004080400040806000408080004080A0004080C0004080E00040A0000040A0200040A0400040A0600040A0800040A0A00040A0C00040A0E00040C0000040C0200040C0400040C0600040C08000
310
40C0A00040C0C00040C0E00040E0000040E0200040E0400040E0600040E0800040E0A00040E0C00040E0E00080000000800020008000400080006000800080008000A0008000C0008000E00080200000802020008020400080206000802080008020A0008020C0008020E00080400000804020008040400080406000804080
310
008040A0008040C0008040E00080600000806020008060400080606000806080008060A0008060C0008060E00080800000808020008080400080806000808080008080A0008080C0008080E00080A0000080A0200080A0400080A0600080A0800080A0A00080A0C00080A0E00080C0000080C0200080C0400080C0600080C0
310
800080C0A00080C0C00080C0E00080E0000080E0200080E0400080E0600080E0800080E0A00080E0C00080E0E000C0000000C0002000C0004000C0006000C0008000C000A000C000C000C000E000C0200000C0202000C0204000C0206000C0208000C020A000C020C000C020E000C0400000C0402000C0404000C0406000C0
310
408000C040A000C040C000C040E000C0600000C0602000C0604000C0606000C0608000C060A000C060C000C060E000C0800000C0802000C0804000C0806000C0808000C080A000C080C000C080E000C0A00000C0A02000C0A04000C0A06000C0A08000C0A0A000C0A0C000C0A0E000C0C00000C0C02000C0C04000C0C06000
310
C0C08000C0C0A000F0FBFF00A4A0A000808080000000FF0000FF000000FFFF00FF000000FF00FF00FFFF0000FFFFFF00FFFFFFFFFFFFFFFFFFFFFFFFFFFFFFFFFFFFFFFFFFFFFFFFFFFFFFFFFFFFFFFFFFFFFFFFFFFFFFFFFFFFFF0000FFFFFFFFFFFF0000FFFFFFFFFFFFFFFFFFFFFFFFFFFFFFFFFFFFFFFFFFFF0000FFFF
310
FFFFFFFF0000FFFFFFFFFFFFFFFFFFFFFFFFFFFFFFFFFFFFFFFFFFFF0000FFFFFFFFFFFF0000FFFFFFFFFFFFFFFFFFFFFFFFFFFFFFFFFFFFFFFFFFFF0000FFFFFFFFFFFF0000FFFFFFFFFFFFFFFFFFFFFFFFFFFFFFFFFFFFFFFFFFFF0000FFFFFFFFFFFF0000FFFFFFFFFFFFFFFFFFFFFFFFFFFFFFFFFFFFFFFFFFFF0000FF
310
FFFFFFFFFF0000FFFFFFFFFFFFFFFFFFFFFFFFFFFFFFFFFFFFFFFFFFFF0000FFFFFFFFFFFF0000FFFFFFFFFFFFFFFFFFFFFFFFFFFFFFFFFFFFFFFFFFFF0000FFFFFFFFFFFF0000FFFFFFFFFFFFFFFFFFFFFFFFFFFFFFFFFFFFFFFFFFFF0000FFFFFFFFFFFF0000FFFFFFFFFFFFFFFFFFFFFFFFFFFFFFFFFFFFFFFFFFFF0000
310
FFFFFFFFFFFF0000FFFFFFFFFFFFFFFFFFFFFFFFFFFFFFFFFFFFFFFFFFFF0000FFFFFFFFFFFF0000FFFFFFFFFFFFFFFFFFFFFFFFFFFFFFFFFFFFFFFFFFFF0000FFFFFFFFFFFF0000FFFFFFFFFFFFFFFFFFFFFFFFFFFFFFFFFFFFFFFFFFFF0000FFFFFFFFFFFF0000FFFFFFFFFFFFFFFFFFFFFFFFFFFFFFFFFFFFFFFFFFFF00
310
00FFFFFFFFFFFF0000FFFFFFFFFFFFFFFFFFFFFFFFFFFFFFFFFFFFFFFFFFFF00000000000000000000FFFFFFFFFFFFFFFFFFFFFFFFFFFFFFFFFFFFFFFFFFFF00FFFFFFFFFFFFFFFF00FFFFFFFFFFFFFFFFFFFFFFFFFFFFFFFFFFFFFFFFFFFF00FFFFFFFFFFFFFFFF00FFFFFFFFFFFFFFFFFFFFFFFFFFFFFFFFFFFFFFFFFFFF
310
00000000000000000000FFFFFFFFFFFFFFFFFFFFFFFFFFFFFFFFFFFFFFFFFFFF0000FFFFFFFFFFFF0000FFFFFFFFFFFFFFFFFFFFFFFFFFFFFFFFFFFFFFFFFFFF0000FFFFFFFFFFFF0000FFFFFFFFFFFFFFFFFFFFFFFFFFFFFFFFFFFFFFFFFFFF0000FFFFFFFFFFFF0000FFFFFFFFFFFFFFFFFFFFFFFFFFFFFFFFFFFFFFFFFF
310
FF0000FFFFFFFFFFFF0000FFFFFFFFFFFFFFFFFFFFFFFFFFFFFFFFFFFFFFFFFFFF0000FFFFFFFFFFFF0000FFFFFFFFFFFFFFFFFFFFFFFFFFFFFFFFFFFFFFFFFFFF0000FFFFFFFFFFFF0000FFFFFFFFFFFFFFFFFFFFFFFFFFFFFFFFFFFFFFFFFFFF0000FFFFFFFFFFFF0000FFFFFFFFFFFFFFFFFFFFFFFFFFFFFFFFFFFFFFFF
310
FFFF0000FFFFFFFFFFFF0000FFFFFFFFFFFFFFFFFFFFFFFFFFFFFFFFFFFFFFFFFFFF0000FFFFFFFFFFFF0000FFFFFFFFFFFFFFFFFFFFFFFFFFFFFFFFFFFFFFFFFFFF0000FFFFFFFFFFFF0000FFFFFFFFFFFFFFFFFFFFFFFFFFFFFFFFFFFFFFFFFFFF0000FFFFFFFFFFFF0000FFFFFFFFFFFFFFFFFFFFFFFFFFFFFFFFFFFFFF
310
FFFFFF0000FFFFFFFFFFFF0000FFFFFFFFFFFFFFFFFFFFFFFFFFFFFFFFFFFFFFFFFFFFFFFFFFFFFFFFFFFFFFFFFFFFFFFFFFFFFFFFFFFFFF
102
{BLKREFS
331
3C4
102
}
  0
BLOCK_RECORD
  5
38C
330
1
100
AcDbSymbolTableRecord
100
AcDbBlockTableRecord
  2
AI9-BLK11
340
0
310
2800000020000000200000000100080000000000000400000000000000000000000000000000000000000000000080000080000000808000800000008000800080800000C0C0C000C0DCC000F0CAA6000020400000206000002080000020A0000020C0000020E00000400000004020000040400000406000004080000040A0
310
000040C0000040E00000600000006020000060400000606000006080000060A0000060C0000060E00000800000008020000080400000806000008080000080A0000080C0000080E00000A0000000A0200000A0400000A0600000A0800000A0A00000A0C00000A0E00000C0000000C0200000C0400000C0600000C0800000C0
310
A00000C0C00000C0E00000E0000000E0200000E0400000E0600000E0800000E0A00000E0C00000E0E00040000000400020004000400040006000400080004000A0004000C0004000E00040200000402020004020400040206000402080004020A0004020C0004020E000404000004040200040404000404060004040800040
310
40A0004040C0004040E00040600000406020004060400040606000406080004060A0004060C0004060E00040800000408020004080400040806000408080004080A0004080C0004080E00040A0000040A0200040A0400040A0600040A0800040A0A00040A0C00040A0E00040C0000040C0200040C0400040C0600040C08000
310
40C0A00040C0C00040C0E00040E0000040E0200040E0400040E0600040E0800040E0A00040E0C00040E0E00080000000800020008000400080006000800080008000A0008000C0008000E00080200000802020008020400080206000802080008020A0008020C0008020E00080400000804020008040400080406000804080
310
008040A0008040C0008040E00080600000806020008060400080606000806080008060A0008060C0008060E00080800000808020008080400080806000808080008080A0008080C0008080E00080A0000080A0200080A0400080A0600080A0800080A0A00080A0C00080A0E00080C0000080C0200080C0400080C0600080C0
310
800080C0A00080C0C00080C0E00080E0000080E0200080E0400080E0600080E0800080E0A00080E0C00080E0E000C0000000C0002000C0004000C0006000C0008000C000A000C000C000C000E000C0200000C0202000C0204000C0206000C0208000C020A000C020C000C020E000C0400000C0402000C0404000C0406000C0
310
408000C040A000C040C000C040E000C0600000C0602000C0604000C0606000C0608000C060A000C060C000C060E000C0800000C0802000C0804000C0806000C0808000C080A000C080C000C080E000C0A00000C0A02000C0A04000C0A06000C0A08000C0A0A000C0A0C000C0A0E000C0C00000C0C02000C0C04000C0C06000
310
C0C08000C0C0A000F0FBFF00A4A0A000808080000000FF0000FF000000FFFF00FF000000FF00FF00FFFF0000FFFFFF00FFFFFFFFFFFFFFFFFFFFFFFFFFFFFFFFFFFFFFFFFFFFFFFFFFFFFFFFFFFFFFFFFFFFFFFFFFFFFFFFFFFFFFFFFFFF00000000FFFFFFFFFFFFFFFFFFFFFF000000FFFFFFFFFFFFFFFFFFFFFFFFFFFF00
310
FFFF00FFFFFFFFFFFFFFFFFFFFFF00FFFFFFFFFFFFFFFFFFFFFFFFFFFFFFFF00FFFF00FFFFFFFFFFFFFFFFFFFFFF00FFFFFFFFFFFFFFFFFFFFFFFFFFFFFFFF00FFFF00FFFFFFFFFFFFFFFFFFFFFF00FFFFFFFFFFFFFFFFFFFFFFFFFFFFFFFF00FFFF00FFFFFFFFFFFFFFFFFFFFFF00FFFFFFFFFFFFFFFFFFFFFFFFFFFFFFFF
310
00FFFF00FFFFFFFFFFFFFFFFFFFFFF00FFFFFFFFFFFFFFFFFFFFFFFFFFFFFFFF00FFFF00FFFFFFFFFFFFFFFFFFFFFF00FFFFFFFFFFFFFFFFFFFFFFFFFFFFFFFF00FFFF00FFFFFFFFFFFFFFFFFFFFFF00FFFFFFFFFFFFFFFFFFFFFFFFFFFFFFFF00FFFF00FFFFFFFFFFFFFFFFFFFFFF00FFFFFFFFFFFFFFFFFFFFFFFFFFFFFF
310
FF00FFFF00FFFFFFFFFFFFFFFFFFFFFF00FFFFFFFFFFFFFFFFFFFFFFFFFFFFFFFF00FFFF00FFFFFFFFFFFFFFFFFFFFFF00FFFFFFFFFFFFFFFFFFFFFFFFFFFFFFFF00FFFF00FFFFFFFFFFFFFFFFFFFFFF00FFFFFFFFFFFFFFFFFFFFFFFFFFFFFFFF00FFFF00FFFFFFFFFFFFFFFFFFFFFF00FFFFFFFFFFFFFFFFFFFFFFFFFFFF
310
FFFF00FFFF00FFFFFFFFFFFFFFFFFFFFFF00FFFFFFFFFFFFFFFFFFFFFFFFFFFFFFFF00FFFF00FFFFFFFFFFFFFFFFFFFFFF00FFFFFFFFFFFFFFFFFFFFFFFFFFFFFFFF00FFFF00FFFFFFFFFFFFFFFFFFFFFF00FFFFFFFFFFFFFFFFFFFFFFFFFFFFFFFF00FFFF00FFFFFFFFFFFFFFFFFFFF00FFFFFFFFFFFFFFFFFFFFFFFFFFFF
310
FFFFFF00FFFF00FFFFFFFFFFFFFFFFFFFF00FFFFFFFFFFFFFFFFFFFFFFFFFFFFFFFFFF00FFFF00FFFFFFFFFFFFFFFFFFFF00FFFFFFFFFFFFFFFFFFFFFFFFFFFFFFFFFF00FFFF00FFFFFFFFFFFFFFFFFFFF00FFFFFFFFFFFFFFFFFFFFFFFFFFFFFFFFFF00FFFF00FFFFFFFFFFFFFFFFFFFF00FFFFFFFFFFFFFFFFFFFFFFFFFF
310
FFFFFFFF00FFFF00FFFFFFFFFFFFFFFFFF0000FFFF00FFFFFFFFFFFFFFFFFFFFFFFFFFFF00FFFF00FFFFFFFFFFFFFFFF0000FFFFFF00FFFFFFFFFFFFFFFFFFFFFFFFFFFF00FFFF00000000000000000000FFFFFFFF00FFFFFFFFFFFFFFFFFFFFFFFFFFFF00FFFFFFFFFFFFFFFFFFFFFFFFFFFFFF00FFFFFFFFFFFFFFFFFFFF
310
FFFFFFFFFF00FFFFFFFFFFFFFFFFFFFFFFFFFFFF00FFFFFFFFFFFFFFFFFFFFFFFFFFFFFFFF00FFFFFFFFFFFFFFFFFFFFFFFFFFFF00FFFFFFFFFFFFFFFFFFFFFFFFFFFFFFFF00FFFFFFFFFFFFFFFFFFFFFFFFFFFFFF00FFFFFFFFFFFFFFFFFFFFFFFFFFFFFF00FFFFFFFFFFFFFFFFFFFFFFFFFFFFFF00FFFFFFFFFFFFFFFFFF
310
FFFFFFFFFFFF00FFFF00000000000000000000FFFFFFFF00FFFFFFFFFFFFFFFFFFFFFFFFFFFF00FFFF00FFFFFFFFFFFFFFFFFF0000FFFF00
102
{BLKREFS
331
3C5
102
}
  0
BLOCK_RECORD
  5
391
330
1
100
AcDbSymbolTableRecord
100
AcDbBlockTableRecord
  2
AI9-BLK10
340
0
310
2800000020000000200000000100080000000000000400000000000000000000000000000000000000000000000080000080000000808000800000008000800080800000C0C0C000C0DCC000F0CAA6000020400000206000002080000020A0000020C0000020E00000400000004020000040400000406000004080000040A0
310
000040C0000040E00000600000006020000060400000606000006080000060A0000060C0000060E00000800000008020000080400000806000008080000080A0000080C0000080E00000A0000000A0200000A0400000A0600000A0800000A0A00000A0C00000A0E00000C0000000C0200000C0400000C0600000C0800000C0
310
A00000C0C00000C0E00000E0000000E0200000E0400000E0600000E0800000E0A00000E0C00000E0E00040000000400020004000400040006000400080004000A0004000C0004000E00040200000402020004020400040206000402080004020A0004020C0004020E000404000004040200040404000404060004040800040
310
40A0004040C0004040E00040600000406020004060400040606000406080004060A0004060C0004060E00040800000408020004080400040806000408080004080A0004080C0004080E00040A0000040A0200040A0400040A0600040A0800040A0A00040A0C00040A0E00040C0000040C0200040C0400040C0600040C08000
310
40C0A00040C0C00040C0E00040E0000040E0200040E0400040E0600040E0800040E0A00040E0C00040E0E00080000000800020008000400080006000800080008000A0008000C0008000E00080200000802020008020400080206000802080008020A0008020C0008020E00080400000804020008040400080406000804080
310
008040A0008040C0008040E00080600000806020008060400080606000806080008060A0008060C0008060E00080800000808020008080400080806000808080008080A0008080C0008080E00080A0000080A0200080A0400080A0600080A0800080A0A00080A0C00080A0E00080C0000080C0200080C0400080C0600080C0
310
800080C0A00080C0C00080C0E00080E0000080E0200080E0400080E0600080E0800080E0A00080E0C00080E0E000C0000000C0002000C0004000C0006000C0008000C000A000C000C000C000E000C0200000C0202000C0204000C0206000C0208000C020A000C020C000C020E000C0400000C0402000C0404000C0406000C0
310
408000C040A000C040C000C040E000C0600000C0602000C0604000C0606000C0608000C060A000C060C000C060E000C0800000C0802000C0804000C0806000C0808000C080A000C080C000C080E000C0A00000C0A02000C0A04000C0A06000C0A08000C0A0A000C0A0C000C0A0E000C0C00000C0C02000C0C04000C0C06000
310
C0C08000C0C0A000F0FBFF00A4A0A000808080000000FF0000FF000000FFFF00FF000000FF00FF00FFFF0000FFFFFF00FFFFFFFFFFFFFFFFFFFFFFFFFFFFFFFF00FFFFFFFFFFFFFFFFFFFFFFFF00FFFFFFFFFFFFFFFFFFFFFFFFFFFFFFFFFFFF00FFFFFFFFFFFFFFFFFFFFFF00FFFFFFFFFFFFFFFFFFFFFFFFFFFFFFFFFFFF
310
FF00FFFFFFFFFFFFFFFFFFFFFF00FFFFFFFFFFFFFFFFFFFFFFFFFFFFFFFFFFFFFF00FFFFFFFFFFFFFFFFFFFFFF00FFFFFFFFFFFFFFFFFFFFFFFFFFFFFFFFFFFFFF00FFFFFFFFFFFFFFFFFFFFFF00FFFFFFFFFFFFFFFFFFFFFFFFFFFFFFFFFFFFFF00FFFFFFFFFFFFFFFFFFFFFF00FFFFFFFFFFFFFFFFFFFFFFFFFFFFFFFFFF
310
FFFF00FFFFFFFFFFFFFFFFFFFFFF00FFFFFFFFFFFFFFFFFFFFFFFFFFFFFFFFFFFFFF00FFFFFFFFFFFFFFFFFFFF00FFFFFFFFFFFFFFFFFFFFFFFFFFFFFFFFFFFFFFFF00FFFFFFFFFFFFFFFFFFFF00FFFFFFFFFFFFFFFFFFFFFFFFFFFFFFFFFFFFFFFF00FFFFFFFFFFFFFFFFFFFF00FFFFFFFFFFFFFFFFFFFFFFFFFFFFFFFFFF
310
FFFFFF00FFFFFFFFFFFFFFFFFFFF00FFFFFFFFFFFFFFFFFFFFFFFFFFFFFFFFFFFFFFFF00FFFFFFFFFFFFFFFFFFFF00FFFFFFFFFFFFFFFFFFFFFFFFFFFFFFFFFFFFFFFF00FFFFFFFFFFFFFFFFFFFF00FFFFFFFFFFFFFFFFFFFFFFFFFFFFFFFFFFFFFFFF00FFFFFFFFFFFFFFFFFF00FFFFFFFFFFFFFFFFFFFFFFFFFFFFFFFFFF
310
FFFFFFFF00FFFFFFFFFFFFFFFFFF00FFFFFFFFFFFFFFFFFFFFFFFFFFFFFFFFFFFFFFFFFF00FFFFFFFFFFFFFFFFFF00FFFFFFFFFFFFFFFFFFFFFFFFFFFFFFFFFFFFFFFFFF0000000000000000000000FFFFFFFFFFFFFFFFFFFFFFFFFFFFFFFFFFFFFFFFFFFFFFFFFFFFFFFFFFFFFFFFFFFFFFFFFFFFFFFFFFFFFFFFFFFFFFFF
310
FFFFFFFFFFFFFFFFFFFFFFFFFFFFFFFFFFFFFFFFFFFFFFFFFFFFFFFFFFFFFFFFFFFFFFFFFFFFFFFFFFFFFFFFFFFFFFFFFFFFFFFFFFFFFFFFFFFFFFFFFFFFFFFFFFFFFFFFFFFFFFFFFFFFFFFFFFFFFFFFFFFFFFFFFFFFFFFFFFFFFFFFFFFFFFFFFFFFFFFFFFFFFFFFFFFFFFFFFFFFFFFFFFFFFFFFFFFFFFFFFFFFFFFFFFFFFF
310
FFFFFFFFFFFFFFFFFFFFFFFFFFFFFFFFFFFFFFFFFFFFFFFFFFFFFFFFFFFFFFFFFFFFFFFFFFFFFFFFFFFFFFFFFFFFFFFFFFFFFFFFFFFFFFFFFFFFFFFFFFFFFFFFFFFFFFFFFFFFFFFFFFFFFFFFFFFFFFFFFFFFFFFFFFFFFFFFFFFFFFFFFFFFFFFFFFFFFFFFFFFFFFFFFFFFFFFFFFFFFFFFFFFFFFFFFFFFFFFFFFFFFFFFFFFFFF
310
FFFFFFFFFFFFFFFFFFFFFFFFFFFFFFFFFFFFFFFFFFFFFFFFFFFFFFFFFFFFFFFFFFFFFFFFFFFFFFFFFFFFFFFFFFFFFFFFFFFFFFFFFFFFFFFFFFFFFFFFFFFFFFFFFFFFFFFFFFFFFFFFFFFFFFFFFFFFFFFFFFFFFFFFFFFFFFFFFFFFFFFFFFFFFFFFFFFFFFFFFFFFFFFFFFFFFFFFFFFFFFFFFFFFFFFFFFFFFFFFFFFFFFFFFFFFFF
310
FFFFFFFFFFFFFFFFFFFFFFFFFFFFFFFFFFFFFFFFFFFFFFFFFFFFFFFFFFFFFFFFFFFFFFFFFFFFFFFFFFFFFFFFFFFFFFFFFFFFFFFFFFFFFFFF
102
{BLKREFS
331
3C6
102
}
  0
BLOCK_RECORD
  5
395
330
1
100
AcDbSymbolTableRecord
100
AcDbBlockTableRecord
  2
AI9-BLK9
340
0
310
2800000020000000200000000100080000000000000400000000000000000000000000000000000000000000000080000080000000808000800000008000800080800000C0C0C000C0DCC000F0CAA6000020400000206000002080000020A0000020C0000020E00000400000004020000040400000406000004080000040A0
310
000040C0000040E00000600000006020000060400000606000006080000060A0000060C0000060E00000800000008020000080400000806000008080000080A0000080C0000080E00000A0000000A0200000A0400000A0600000A0800000A0A00000A0C00000A0E00000C0000000C0200000C0400000C0600000C0800000C0
310
A00000C0C00000C0E00000E0000000E0200000E0400000E0600000E0800000E0A00000E0C00000E0E00040000000400020004000400040006000400080004000A0004000C0004000E00040200000402020004020400040206000402080004020A0004020C0004020E000404000004040200040404000404060004040800040
310
40A0004040C0004040E00040600000406020004060400040606000406080004060A0004060C0004060E00040800000408020004080400040806000408080004080A0004080C0004080E00040A0000040A0200040A0400040A0600040A0800040A0A00040A0C00040A0E00040C0000040C0200040C0400040C0600040C08000
310
40C0A00040C0C00040C0E00040E0000040E0200040E0400040E0600040E0800040E0A00040E0C00040E0E00080000000800020008000400080006000800080008000A0008000C0008000E00080200000802020008020400080206000802080008020A0008020C0008020E00080400000804020008040400080406000804080
310
008040A0008040C0008040E00080600000806020008060400080606000806080008060A0008060C0008060E00080800000808020008080400080806000808080008080A0008080C0008080E00080A0000080A0200080A0400080A0600080A0800080A0A00080A0C00080A0E00080C0000080C0200080C0400080C0600080C0
310
800080C0A00080C0C00080C0E00080E0000080E0200080E0400080E0600080E0800080E0A00080E0C00080E0E000C0000000C0002000C0004000C0006000C0008000C000A000C000C000C000E000C0200000C0202000C0204000C0206000C0208000C020A000C020C000C020E000C0400000C0402000C0404000C0406000C0
310
408000C040A000C040C000C040E000C0600000C0602000C0604000C0606000C0608000C060A000C060C000C060E000C0800000C0802000C0804000C0806000C0808000C080A000C080C000C080E000C0A00000C0A02000C0A04000C0A06000C0A08000C0A0A000C0A0C000C0A0E000C0C00000C0C02000C0C04000C0C06000
310
C0C08000C0C0A000F0FBFF00A4A0A000808080000000FF0000FF000000FFFF00FF000000FF00FF00FFFF0000FFFFFF00FFFFFFFFFFFFFFFFFFFFFFFFFFFFFFFFFFFFFFFFFFFFFFFFFFFFFFFFFFFFFFFFFFFFFFFFFFFFFFFFFFFFFFFFFFFFFF0000FFFFFFFFFFFFFFFFFFFFFFFFFFFFFFFFFFFFFFFFFFFFFFFFFFFFFFFF0000
310
FF0000FFFFFFFFFFFFFFFFFFFFFFFFFFFFFFFFFFFFFFFFFFFFFFFFFFFFFF00FFFFFF0000FFFFFFFFFFFFFFFFFFFFFFFFFFFFFFFFFFFFFFFFFFFFFFFFFFFF00FFFFFFFF0000FFFFFFFFFFFFFFFFFFFFFFFFFFFFFFFFFFFFFFFFFFFFFFFF00FF00000000FF00FFFFFFFFFFFFFFFFFFFFFFFFFFFFFFFFFFFFFFFFFFFFFFFF0000
310
00FFFF00FF00FFFFFFFFFFFFFFFFFFFFFFFFFFFFFFFFFFFFFFFFFFFFFFFF0000FFFFFFFF0000FFFFFFFFFFFFFFFFFFFFFFFFFFFFFFFFFFFFFFFFFFFFFFFF0000FFFFFFFF0000FFFFFFFFFFFFFFFFFFFFFFFFFFFFFFFFFFFFFFFFFFFFFF00FF00FFFFFFFF00FF00FFFFFFFFFFFFFFFFFFFFFFFFFFFFFFFFFFFFFFFFFFFF0000
310
FFFFFFFFFF00FF00FFFFFFFFFFFFFFFFFFFFFFFFFFFFFFFFFFFFFFFFFFFF0000FFFFFFFFFFFF0000FFFFFFFFFFFFFFFFFFFFFFFFFFFFFFFFFFFFFFFFFFFF0000FFFFFFFFFFFF0000FFFFFFFFFFFFFFFFFFFFFFFFFFFFFFFFFFFFFFFFFFFF0000FFFFFFFFFFFF0000FFFFFFFFFFFFFFFFFFFFFFFFFFFFFFFFFFFFFFFFFFFF00
310
00FFFFFFFFFFFF0000FFFFFFFFFFFFFFFFFFFFFFFFFFFFFFFFFFFFFFFFFFFF0000FFFFFFFFFFFF0000FFFFFFFFFFFFFFFFFFFFFFFFFFFFFFFFFFFFFFFFFFFF0000FFFFFFFFFFFF0000FFFFFFFFFFFFFFFFFFFFFFFFFFFFFFFFFFFFFFFFFFFF0000FFFFFFFFFFFF0000FFFFFFFFFFFFFFFFFFFFFFFFFFFFFFFFFFFFFFFFFFFF
310
0000FFFFFFFFFFFF0000FFFFFFFFFFFFFFFFFFFFFFFFFFFFFFFFFFFFFFFFFFFF0000FFFFFFFFFFFF0000FFFFFFFFFFFFFFFFFFFFFFFFFFFFFFFFFFFFFFFFFFFF0000FFFFFFFFFFFF0000FFFFFFFFFFFFFFFFFFFFFFFFFFFFFFFFFFFFFFFFFFFF00FF00FFFFFFFF00FF00FFFFFFFFFFFFFFFFFFFFFFFFFFFFFFFFFFFFFFFFFF
310
FF00FF00FFFFFFFF00FF00FFFFFFFFFFFFFFFFFFFFFFFFFFFFFFFFFFFFFFFFFFFF00FF00FFFFFFFF00FF00FFFFFFFFFFFFFFFFFFFFFFFFFFFFFFFFFFFFFFFFFFFFFF0000FFFFFFFF0000FFFFFFFFFFFFFFFFFFFFFFFFFFFFFFFFFFFFFFFFFFFFFFFF00FF00FFFF00FF00FFFFFFFFFFFFFFFFFFFFFFFFFFFFFFFFFFFFFFFFFF
310
FFFFFF00FF00000000FF00FFFFFFFFFFFFFFFFFFFFFFFFFFFFFFFFFFFFFFFFFFFFFFFFFF00FFFFFFFF0000FFFFFFFFFFFFFFFFFFFFFFFFFFFFFFFFFFFFFFFFFFFFFFFFFF00FFFFFFFF00FFFFFFFFFFFFFFFFFFFFFFFFFFFFFFFFFFFFFFFFFFFFFFFFFFFFFF00000000FFFFFFFFFFFFFFFFFFFFFFFFFFFFFFFFFFFFFFFFFFFF
310
FFFFFFFFFFFFFF0000FFFFFFFFFFFFFFFFFFFFFFFFFFFFFFFFFFFFFFFFFFFFFFFFFFFFFFFFFFFFFFFFFFFFFFFFFFFFFFFFFFFFFFFFFFFFFF
102
{BLKREFS
331
3C7
102
}
  0
BLOCK_RECORD
  5
39A
330
1
100
AcDbSymbolTableRecord
100
AcDbBlockTableRecord
  2
AI9-BLK8
340
0
310
2800000020000000200000000100080000000000000400000000000000000000000000000000000000000000000080000080000000808000800000008000800080800000C0C0C000C0DCC000F0CAA6000020400000206000002080000020A0000020C0000020E00000400000004020000040400000406000004080000040A0
310
000040C0000040E00000600000006020000060400000606000006080000060A0000060C0000060E00000800000008020000080400000806000008080000080A0000080C0000080E00000A0000000A0200000A0400000A0600000A0800000A0A00000A0C00000A0E00000C0000000C0200000C0400000C0600000C0800000C0
310
A00000C0C00000C0E00000E0000000E0200000E0400000E0600000E0800000E0A00000E0C00000E0E00040000000400020004000400040006000400080004000A0004000C0004000E00040200000402020004020400040206000402080004020A0004020C0004020E000404000004040200040404000404060004040800040
310
40A0004040C0004040E00040600000406020004060400040606000406080004060A0004060C0004060E00040800000408020004080400040806000408080004080A0004080C0004080E00040A0000040A0200040A0400040A0600040A0800040A0A00040A0C00040A0E00040C0000040C0200040C0400040C0600040C08000
310
40C0A00040C0C00040C0E00040E0000040E0200040E0400040E0600040E0800040E0A00040E0C00040E0E00080000000800020008000400080006000800080008000A0008000C0008000E00080200000802020008020400080206000802080008020A0008020C0008020E00080400000804020008040400080406000804080
310
008040A0008040C0008040E00080600000806020008060400080606000806080008060A0008060C0008060E00080800000808020008080400080806000808080008080A0008080C0008080E00080A0000080A0200080A0400080A0600080A0800080A0A00080A0C00080A0E00080C0000080C0200080C0400080C0600080C0
310
800080C0A00080C0C00080C0E00080E0000080E0200080E0400080E0600080E0800080E0A00080E0C00080E0E000C0000000C0002000C0004000C0006000C0008000C000A000C000C000C000E000C0200000C0202000C0204000C0206000C0208000C020A000C020C000C020E000C0400000C0402000C0404000C0406000C0
310
408000C040A000C040C000C040E000C0600000C0602000C0604000C0606000C0608000C060A000C060C000C060E000C0800000C0802000C0804000C0806000C0808000C080A000C080C000C080E000C0A00000C0A02000C0A04000C0A06000C0A08000C0A0A000C0A0C000C0A0E000C0C00000C0C02000C0C04000C0C06000
310
C0C08000C0C0A000F0FBFF00A4A0A000808080000000FF0000FF000000FFFF00FF000000FF00FF00FFFF0000FFFFFF00FFFFFFFFFFFFFFFFFFFFFFFFFFFFFFFFFFFFFFFFFFFFFFFFFFFFFFFFFFFFFFFFFFFFFFFFFFFFFFFFFFFFFF0000FFFFFFFFFFFF0000FFFFFFFFFFFFFFFFFFFFFFFFFFFFFFFFFFFFFFFFFFFF0000FFFF
310
FFFFFFFF0000FFFFFFFFFFFFFFFFFFFFFFFFFFFFFFFFFFFFFFFFFFFF0000FFFFFFFFFF00FF00FFFFFFFFFFFFFFFFFFFFFFFFFFFFFFFFFFFFFFFFFFFF0000FFFFFFFFFF00FF00FFFFFFFFFFFFFFFFFFFFFFFFFFFFFFFFFFFFFFFFFFFF0000FFFFFFFFFF00FF00FFFFFFFFFFFFFFFFFFFFFFFFFFFFFFFFFFFFFFFFFFFF0000FF
310
FFFFFF00FFFF00FFFFFFFFFFFFFFFFFFFFFFFFFFFFFFFFFFFFFFFFFFFF0000FFFFFFFF00FF0000FFFFFFFFFFFFFFFFFFFFFFFFFFFFFFFFFFFFFFFFFFFF0000FFFFFFFF00FF0000FFFFFFFFFFFFFFFFFFFFFFFFFFFFFFFFFFFFFFFFFFFF0000FFFFFFFF00000000FFFFFFFFFFFFFFFFFFFFFFFFFFFFFFFFFFFFFFFFFFFF0000
310
FFFFFF00FF000000FFFFFFFFFFFFFFFFFFFFFFFFFFFFFFFFFFFFFFFFFFFF0000FFFFFF00FF000000FFFFFFFFFFFFFFFFFFFFFFFFFFFFFFFFFFFFFFFFFFFF0000FFFFFF00FF000000FFFFFFFFFFFFFFFFFFFFFFFFFFFFFFFFFFFFFFFFFFFF0000FFFF00FF00FF0000FFFFFFFFFFFFFFFFFFFFFFFFFFFFFFFFFFFFFFFFFFFF00
310
00FFFF00FF00FF0000FFFFFFFFFFFFFFFFFFFFFFFFFFFFFFFFFFFFFFFFFFFF0000FFFF00FF00FF0000FFFFFFFFFFFFFFFFFFFFFFFFFFFFFFFFFFFFFFFFFFFF0000FF00FFFF00FF0000FFFFFFFFFFFFFFFFFFFFFFFFFFFFFFFFFFFFFFFFFFFF0000FF00FF00FFFF0000FFFFFFFFFFFFFFFFFFFFFFFFFFFFFFFFFFFFFFFFFFFF
310
0000FF00FF00FFFF0000FFFFFFFFFFFFFFFFFFFFFFFFFFFFFFFFFFFFFFFFFFFF0000FF00FF00FFFF0000FFFFFFFFFFFFFFFFFFFFFFFFFFFFFFFFFFFFFFFFFFFF000000FFFF00FFFF0000FFFFFFFFFFFFFFFFFFFFFFFFFFFFFFFFFFFFFFFFFFFF000000FF00FFFFFF0000FFFFFFFFFFFFFFFFFFFFFFFFFFFFFFFFFFFFFFFFFF
310
FF000000FF00FFFFFF0000FFFFFFFFFFFFFFFFFFFFFFFFFFFFFFFFFFFFFFFFFFFF0000FFFF00FFFFFF0000FFFFFFFFFFFFFFFFFFFFFFFFFFFFFFFFFFFFFFFFFFFF0000FFFF00FFFFFF0000FFFFFFFFFFFFFFFFFFFFFFFFFFFFFFFFFFFFFFFFFFFF00FFFF00FFFFFFFF0000FFFFFFFFFFFFFFFFFFFFFFFFFFFFFFFFFFFFFFFF
310
FFFF00FFFF00FFFFFFFF0000FFFFFFFFFFFFFFFFFFFFFFFFFFFFFFFFFFFFFFFFFFFF00FFFF00FFFFFFFF0000FFFFFFFFFFFFFFFFFFFFFFFFFFFFFFFFFFFFFFFFFFFF00FFFF00FFFFFFFF0000FFFFFFFFFFFFFFFFFFFFFFFFFFFFFFFFFFFFFFFFFFFF00FF00FFFFFFFFFF0000FFFFFFFFFFFFFFFFFFFFFFFFFFFFFFFFFFFFFF
310
FFFFFF000000FFFFFFFFFF0000FFFFFFFFFFFFFFFFFFFFFFFFFFFFFFFFFFFFFFFFFFFFFFFFFFFFFFFFFFFFFFFFFFFFFFFFFFFFFFFFFFFFFF
102
{BLKREFS
331
3C8
102
}
  0
BLOCK_RECORD
  5
39F
330
1
100
AcDbSymbolTableRecord
100
AcDbBlockTableRecord
  2
AI9-BLK7
340
0
310
2800000020000000200000000100080000000000000400000000000000000000000000000000000000000000000080000080000000808000800000008000800080800000C0C0C000C0DCC000F0CAA6000020400000206000002080000020A0000020C0000020E00000400000004020000040400000406000004080000040A0
310
000040C0000040E00000600000006020000060400000606000006080000060A0000060C0000060E00000800000008020000080400000806000008080000080A0000080C0000080E00000A0000000A0200000A0400000A0600000A0800000A0A00000A0C00000A0E00000C0000000C0200000C0400000C0600000C0800000C0
310
A00000C0C00000C0E00000E0000000E0200000E0400000E0600000E0800000E0A00000E0C00000E0E00040000000400020004000400040006000400080004000A0004000C0004000E00040200000402020004020400040206000402080004020A0004020C0004020E000404000004040200040404000404060004040800040
310
40A0004040C0004040E00040600000406020004060400040606000406080004060A0004060C0004060E00040800000408020004080400040806000408080004080A0004080C0004080E00040A0000040A0200040A0400040A0600040A0800040A0A00040A0C00040A0E00040C0000040C0200040C0400040C0600040C08000
310
40C0A00040C0C00040C0E00040E0000040E0200040E0400040E0600040E0800040E0A00040E0C00040E0E00080000000800020008000400080006000800080008000A0008000C0008000E00080200000802020008020400080206000802080008020A0008020C0008020E00080400000804020008040400080406000804080
310
008040A0008040C0008040E00080600000806020008060400080606000806080008060A0008060C0008060E00080800000808020008080400080806000808080008080A0008080C0008080E00080A0000080A0200080A0400080A0600080A0800080A0A00080A0C00080A0E00080C0000080C0200080C0400080C0600080C0
310
800080C0A00080C0C00080C0E00080E0000080E0200080E0400080E0600080E0800080E0A00080E0C00080E0E000C0000000C0002000C0004000C0006000C0008000C000A000C000C000C000E000C0200000C0202000C0204000C0206000C0208000C020A000C020C000C020E000C0400000C0402000C0404000C0406000C0
310
408000C040A000C040C000C040E000C0600000C0602000C0604000C0606000C0608000C060A000C060C000C060E000C0800000C0802000C0804000C0806000C0808000C080A000C080C000C080E000C0A00000C0A02000C0A04000C0A06000C0A08000C0A0A000C0A0C000C0A0E000C0C00000C0C02000C0C04000C0C06000
310
C0C08000C0C0A000F0FBFF00A4A0A000808080000000FF0000FF000000FFFF00FF000000FF00FF00FFFF0000FFFFFF00FFFFFFFFFFFFFFFFFFFFFFFFFFFFFFFFFFFFFFFFFFFFFFFFFFFFFFFFFFFFFFFFFFFFFFFFFFFFFFFFFFFFFFFFFFFFFF0000FFFFFFFFFFFFFFFFFFFFFFFFFFFFFFFFFFFFFFFFFFFFFFFFFFFFFFFFFFFF
310
0000FFFFFFFFFFFFFFFFFFFFFFFFFFFFFFFFFFFFFFFFFFFFFFFFFFFFFFFFFFFF0000FFFFFFFFFFFFFFFFFFFFFFFFFFFFFFFFFFFFFFFFFFFFFFFFFFFFFFFFFFFF0000FFFFFFFFFFFFFFFFFFFFFFFFFFFFFFFFFFFFFFFFFFFFFFFFFFFFFFFFFFFF0000FFFFFFFFFFFFFFFFFFFFFFFFFFFFFFFFFFFFFFFFFFFFFFFFFFFFFFFFFF
310
FF0000FFFFFFFFFFFFFFFFFFFFFFFFFFFFFFFFFFFFFFFFFFFFFFFFFFFFFFFFFFFF0000FFFFFFFFFFFFFFFFFFFFFFFFFFFFFFFFFFFFFFFFFFFFFFFFFFFFFFFFFFFF0000FFFFFFFFFFFFFFFFFFFFFFFFFFFFFFFFFFFFFFFFFFFFFFFFFFFFFFFFFFFF0000FFFFFFFFFFFFFFFFFFFFFFFFFFFFFFFFFFFFFFFFFFFFFFFFFFFFFFFF
310
FFFF0000FFFFFFFFFFFFFFFFFFFFFFFFFFFFFFFFFFFFFFFFFFFFFFFFFFFFFFFFFFFF0000FFFFFFFFFFFFFFFFFFFFFFFFFFFFFFFFFFFFFFFFFFFFFFFFFFFFFFFFFFFF0000FFFFFFFFFFFFFFFFFFFFFFFFFFFFFFFFFFFFFFFFFFFFFFFFFFFFFFFFFFFF0000FFFFFFFFFFFFFFFFFFFFFFFFFFFFFFFFFFFFFFFFFFFFFFFFFFFFFF
310
FFFFFF0000FFFFFFFFFFFFFFFFFFFFFFFFFFFFFFFFFFFFFFFFFFFFFFFFFFFFFFFFFFFF0000FFFFFFFFFFFFFFFFFFFFFFFFFFFFFFFFFFFFFFFFFFFFFFFFFFFFFFFFFFFF0000FFFFFFFFFFFFFFFFFFFFFFFFFFFFFFFFFFFFFFFFFFFFFFFFFFFFFFFFFFFF0000FFFFFFFFFFFFFFFFFFFFFFFFFFFFFFFFFFFFFFFFFFFFFFFFFFFF
310
FFFFFFFF0000FFFFFFFFFFFFFFFFFFFFFFFFFFFFFFFFFFFFFFFFFFFFFFFFFFFFFFFFFFFF0000FFFFFFFFFFFFFFFFFFFFFFFFFFFFFFFFFFFFFFFFFFFFFFFFFFFFFFFFFFFF0000FFFFFFFFFFFFFFFFFFFFFFFFFFFFFFFFFFFFFFFFFFFFFFFFFFFFFFFFFFFF0000FFFFFFFFFFFFFFFFFFFFFFFFFFFFFFFFFFFFFFFFFFFFFFFFFF
310
FFFFFFFFFF0000FFFFFFFFFFFFFFFFFFFFFFFFFFFFFFFFFFFFFFFFFFFFFFFFFFFFFFFFFFFF0000FFFFFFFFFFFFFFFFFFFFFFFFFFFFFFFFFFFFFFFFFFFFFFFFFFFFFFFFFFFF0000FFFFFFFFFFFFFFFFFFFFFFFFFFFFFFFFFFFFFFFFFFFFFFFFFFFFFFFFFFFF0000FFFFFFFFFFFFFFFFFFFFFFFFFFFFFFFFFFFFFFFFFFFFFFFF
310
FFFFFFFFFFFF0000FFFFFFFFFFFFFFFFFFFFFFFFFFFFFFFFFFFFFFFFFFFFFFFFFFFFFFFFFFFF0000FFFFFFFFFFFFFFFFFFFFFFFFFFFFFFFFFFFFFFFFFFFFFFFFFFFFFFFFFFFF0000FFFFFFFFFFFFFFFFFFFFFFFFFFFFFFFFFFFFFFFFFFFFFFFFFFFFFFFFFFFF0000FFFFFFFFFFFFFFFFFFFFFFFFFFFFFFFFFFFFFFFFFFFFFF
310
FFFFFFFFFFFFFF0000FFFFFFFFFFFFFFFFFFFFFFFFFFFFFFFFFFFFFFFFFFFFFFFFFFFFFFFFFFFFFFFFFFFFFFFFFFFFFFFFFFFFFFFFFFFFFF
102
{BLKREFS
331
3C9
102
}
  0
BLOCK_RECORD
  5
3A4
330
1
100
AcDbSymbolTableRecord
100
AcDbBlockTableRecord
  2
AI9-BLK6
340
0
310
2800000020000000200000000100080000000000000400000000000000000000000000000000000000000000000080000080000000808000800000008000800080800000C0C0C000C0DCC000F0CAA6000020400000206000002080000020A0000020C0000020E00000400000004020000040400000406000004080000040A0
310
000040C0000040E00000600000006020000060400000606000006080000060A0000060C0000060E00000800000008020000080400000806000008080000080A0000080C0000080E00000A0000000A0200000A0400000A0600000A0800000A0A00000A0C00000A0E00000C0000000C0200000C0400000C0600000C0800000C0
310
A00000C0C00000C0E00000E0000000E0200000E0400000E0600000E0800000E0A00000E0C00000E0E00040000000400020004000400040006000400080004000A0004000C0004000E00040200000402020004020400040206000402080004020A0004020C0004020E000404000004040200040404000404060004040800040
310
40A0004040C0004040E00040600000406020004060400040606000406080004060A0004060C0004060E00040800000408020004080400040806000408080004080A0004080C0004080E00040A0000040A0200040A0400040A0600040A0800040A0A00040A0C00040A0E00040C0000040C0200040C0400040C0600040C08000
310
40C0A00040C0C00040C0E00040E0000040E0200040E0400040E0600040E0800040E0A00040E0C00040E0E00080000000800020008000400080006000800080008000A0008000C0008000E00080200000802020008020400080206000802080008020A0008020C0008020E00080400000804020008040400080406000804080
310
008040A0008040C0008040E00080600000806020008060400080606000806080008060A0008060C0008060E00080800000808020008080400080806000808080008080A0008080C0008080E00080A0000080A0200080A0400080A0600080A0800080A0A00080A0C00080A0E00080C0000080C0200080C0400080C0600080C0
310
800080C0A00080C0C00080C0E00080E0000080E0200080E0400080E0600080E0800080E0A00080E0C00080E0E000C0000000C0002000C0004000C0006000C0008000C000A000C000C000C000E000C0200000C0202000C0204000C0206000C0208000C020A000C020C000C020E000C0400000C0402000C0404000C0406000C0
310
408000C040A000C040C000C040E000C0600000C0602000C0604000C0606000C0608000C060A000C060C000C060E000C0800000C0802000C0804000C0806000C0808000C080A000C080C000C080E000C0A00000C0A02000C0A04000C0A06000C0A08000C0A0A000C0A0C000C0A0E000C0C00000C0C02000C0C04000C0C06000
310
C0C08000C0C0A000F0FBFF00A4A0A000808080000000FF0000FF000000FFFF00FF000000FF00FF00FFFF0000FFFFFF00FFFFFFFFFFFFFFFFFFFFFFFF00FFFFFFFFFFFFFF00FFFFFFFFFFFFFFFFFFFFFFFFFFFFFFFFFFFFFFFFFFFFFF00FFFFFFFFFFFFFF00FFFFFFFFFFFFFFFFFFFFFFFFFFFFFFFFFFFFFFFFFFFFFF00FFFF
310
FFFFFFFFFF00FFFFFFFFFFFFFFFFFFFFFFFFFFFFFFFFFFFFFFFFFFFF00FFFFFFFFFFFFFFFF00FFFFFFFFFFFFFFFFFFFFFFFFFFFFFFFFFFFFFFFFFFFF00FFFFFFFFFFFFFF00FFFFFFFFFFFFFFFFFFFFFFFFFFFFFFFFFFFFFFFFFFFFFF00FFFFFFFFFFFFFF00FFFFFFFFFFFFFFFFFFFFFFFFFFFFFFFFFFFFFFFFFFFF00FFFFFF
310
FFFFFFFFFF00FFFFFFFFFFFFFFFFFFFFFFFFFFFFFFFFFFFFFFFFFFFF00FFFFFFFFFFFFFF00FFFFFFFFFFFFFFFFFFFFFFFFFFFFFFFFFFFFFFFFFFFF00FFFFFFFFFFFFFFFF00FFFFFFFFFFFFFFFFFFFFFFFFFFFFFFFFFFFFFFFFFF00FFFFFFFFFFFFFFFFFF00FFFFFFFFFFFFFFFFFFFFFFFFFFFFFFFFFFFFFFFF00FFFFFFFFFF
310
FFFFFFFFFF00FFFFFFFFFFFFFFFFFFFFFFFFFFFFFFFFFFFFFF00FFFFFFFFFFFFFFFFFFFF00FFFFFFFFFFFFFFFFFFFFFFFFFFFFFFFFFFFF0000FFFFFFFFFFFFFFFFFFFFFF00FFFFFFFFFFFFFFFFFFFFFFFFFFFF00000000FFFFFFFFFFFFFFFFFFFFFFFFFF00FFFFFFFFFFFFFFFFFFFFFFFFFFFFFFFFFFFFFFFFFFFFFFFFFFFF
310
FFFFFFFF00FFFFFFFFFFFFFFFFFFFFFFFFFFFFFFFFFFFFFFFFFFFFFFFFFFFFFFFFFFFFFF00FFFFFFFFFFFFFFFFFFFFFFFFFFFFFFFFFFFFFFFFFFFFFFFFFFFFFFFFFFFFFF00FFFFFFFFFFFFFFFFFFFFFFFFFFFFFFFFFFFFFFFFFFFFFFFFFFFFFFFFFFFF00FFFFFFFFFFFFFFFFFFFFFFFFFFFFFFFFFFFFFFFFFFFFFFFFFFFFFF
310
FFFFFFFF00FFFFFFFFFFFFFFFFFFFFFFFFFFFFFFFFFFFFFFFFFFFFFFFFFFFFFFFFFFFF00FFFFFFFFFFFFFFFFFFFFFFFFFFFFFFFFFFFFFFFFFFFFFFFFFFFFFFFFFFFF00FFFFFFFFFFFFFFFFFFFFFFFFFFFFFFFFFFFFFFFFFFFFFFFFFFFFFFFFFFFF00FFFFFFFFFFFFFFFFFFFFFFFFFFFFFFFFFFFFFFFFFFFFFFFFFFFFFFFFFF
310
FF00FFFFFFFFFFFFFFFFFFFFFFFFFFFFFFFFFFFFFFFFFFFFFFFFFFFFFFFFFFFFFF00FFFFFFFFFFFFFFFFFFFFFFFFFFFFFFFFFFFFFFFFFFFFFFFFFFFFFFFFFFFF00FFFFFFFFFFFFFFFFFFFFFFFFFFFFFFFFFFFFFFFFFFFFFFFFFFFFFFFFFF0000FFFFFFFFFFFFFFFFFFFFFFFFFFFFFFFFFFFFFFFFFFFFFFFFFFFFFFFF0000FF
310
FFFFFFFFFFFFFFFFFFFFFFFFFFFFFFFFFFFFFFFFFFFFFFFFFF00000000FFFFFFFFFFFFFFFFFFFFFFFFFFFFFFFFFFFFFFFFFFFFFFFFFFFF0000FFFFFFFFFFFFFFFFFFFFFFFFFFFFFFFFFFFFFFFFFFFFFFFFFFFFFFFFFFFFFFFFFFFFFFFFFFFFFFFFFFFFFFFFFFFFFFFFFFFFFFFFFFFFFFFFFFFFFFFFFFFFFFFFFFFFFFFFFFFF
310
FFFFFFFFFFFFFFFFFFFFFFFFFFFFFFFFFFFFFFFFFFFFFFFFFFFFFFFFFFFFFFFFFFFFFFFFFFFFFFFFFFFFFFFFFFFFFFFFFFFFFFFFFFFFFFFF
102
{BLKREFS
331
3CA
102
}
  0
BLOCK_RECORD
  5
3A8
330
1
100
AcDbSymbolTableRecord
100
AcDbBlockTableRecord
  2
AI9-BLK5
340
0
310
2800000020000000200000000100080000000000000400000000000000000000000000000000000000000000000080000080000000808000800000008000800080800000C0C0C000C0DCC000F0CAA6000020400000206000002080000020A0000020C0000020E00000400000004020000040400000406000004080000040A0
310
000040C0000040E00000600000006020000060400000606000006080000060A0000060C0000060E00000800000008020000080400000806000008080000080A0000080C0000080E00000A0000000A0200000A0400000A0600000A0800000A0A00000A0C00000A0E00000C0000000C0200000C0400000C0600000C0800000C0
310
A00000C0C00000C0E00000E0000000E0200000E0400000E0600000E0800000E0A00000E0C00000E0E00040000000400020004000400040006000400080004000A0004000C0004000E00040200000402020004020400040206000402080004020A0004020C0004020E000404000004040200040404000404060004040800040
310
40A0004040C0004040E00040600000406020004060400040606000406080004060A0004060C0004060E00040800000408020004080400040806000408080004080A0004080C0004080E00040A0000040A0200040A0400040A0600040A0800040A0A00040A0C00040A0E00040C0000040C0200040C0400040C0600040C08000
310
40C0A00040C0C00040C0E00040E0000040E0200040E0400040E0600040E0800040E0A00040E0C00040E0E00080000000800020008000400080006000800080008000A0008000C0008000E00080200000802020008020400080206000802080008020A0008020C0008020E00080400000804020008040400080406000804080
310
008040A0008040C0008040E00080600000806020008060400080606000806080008060A0008060C0008060E00080800000808020008080400080806000808080008080A0008080C0008080E00080A0000080A0200080A0400080A0600080A0800080A0A00080A0C00080A0E00080C0000080C0200080C0400080C0600080C0
310
800080C0A00080C0C00080C0E00080E0000080E0200080E0400080E0600080E0800080E0A00080E0C00080E0E000C0000000C0002000C0004000C0006000C0008000C000A000C000C000C000E000C0200000C0202000C0204000C0206000C0208000C020A000C020C000C020E000C0400000C0402000C0404000C0406000C0
310
408000C040A000C040C000C040E000C0600000C0602000C0604000C0606000C0608000C060A000C060C000C060E000C0800000C0802000C0804000C0806000C0808000C080A000C080C000C080E000C0A00000C0A02000C0A04000C0A06000C0A08000C0A0A000C0A0C000C0A0E000C0C00000C0C02000C0C04000C0C06000
310
C0C08000C0C0A000F0FBFF00A4A0A000808080000000FF0000FF000000FFFF00FF000000FF00FF00FFFF0000FFFFFF00FFFFFFFFFFFFFFFFFFFFFFFFFFFFFFFFFFFFFFFFFFFFFFFFFFFFFFFFFFFFFFFFFFFFFFFFFFFFFFFF000000000000000000000000000000000000000000000000FFFFFFFFFFFFFFFF00FFFFFFFFFFFF
310
FFFFFFFFFFFFFFFFFFFFFFFFFFFFFFFFFFFFFFFFFFFFFFFFFF00FFFFFFFFFFFFFFFFFFFFFFFFFFFFFFFFFFFFFFFFFFFFFFFFFFFFFFFFFFFFFF00FFFFFFFFFFFFFFFFFFFFFFFFFFFFFFFFFFFFFFFFFFFFFFFFFFFFFFFFFFFFFF00FFFFFFFFFFFFFFFFFFFFFFFFFFFFFFFFFFFFFFFFFFFFFFFFFFFFFFFFFFFFFF00FFFFFFFFFF
310
FFFFFFFFFFFFFFFFFFFFFFFFFFFFFFFFFFFFFFFFFFFFFFFFFFFF00FFFFFFFFFFFFFFFFFFFFFFFFFFFFFFFFFFFFFFFFFFFFFFFFFFFFFFFFFFFFFF00FFFFFFFFFFFFFFFFFFFFFFFFFFFFFFFFFFFFFFFFFFFFFFFFFFFFFFFFFFFFFF00FFFFFFFFFFFFFFFFFFFFFFFFFFFFFFFFFFFFFFFFFFFFFFFFFFFFFFFFFFFFFF00FFFFFFFF
310
FFFFFFFFFFFFFFFFFFFFFFFFFFFFFFFFFFFFFFFFFFFFFFFFFFFFFF00FFFFFFFFFFFFFFFFFFFFFFFFFFFFFFFFFFFFFFFFFFFFFFFFFFFFFFFFFFFFFF00FFFFFFFFFFFFFFFFFFFFFFFFFFFFFFFFFFFFFFFFFFFFFFFFFFFFFFFFFFFFFF00FFFFFFFFFFFFFFFFFFFFFFFFFFFFFFFFFFFFFFFFFFFFFFFFFFFFFFFFFFFFFF00FFFFFF
310
FFFFFFFFFFFFFFFFFFFFFFFFFFFFFFFFFFFFFFFFFFFFFFFFFFFFFFFF00FFFFFFFFFFFFFFFFFFFFFFFFFFFFFFFFFFFFFFFFFFFFFFFFFFFFFFFFFFFFFF00FFFFFFFFFFFFFFFFFFFFFFFFFFFFFFFFFFFFFFFFFFFFFFFFFFFFFFFFFFFFFF00FFFFFFFFFFFFFFFFFFFFFFFFFFFFFFFFFFFFFFFFFFFFFFFFFFFFFFFFFFFFFF00FFFF
310
FFFFFFFFFFFFFFFFFFFFFFFFFFFFFFFFFFFFFFFFFFFFFFFFFFFFFFFFFF00FFFFFFFFFFFFFFFFFFFFFFFFFFFFFFFFFFFFFFFFFFFFFFFFFFFFFFFFFFFFFF00FFFFFFFFFFFFFFFFFFFFFFFFFFFFFFFFFFFFFFFFFFFFFFFFFFFFFFFFFFFFFF00FFFFFFFFFFFFFFFFFFFFFFFFFFFFFFFFFFFFFFFFFFFFFFFFFFFFFFFFFFFFFF00FF
310
FFFFFFFFFFFFFFFFFFFFFFFFFFFFFFFFFFFFFFFFFFFFFFFFFFFFFFFFFFFF00FFFFFFFFFFFFFFFFFFFFFFFFFFFFFFFFFFFFFFFFFFFFFFFFFFFFFFFFFFFFFF00FFFFFFFFFFFFFFFFFFFFFFFFFFFFFFFFFFFFFFFFFFFFFFFFFFFFFFFFFFFFFF00FFFFFFFFFFFFFFFFFFFFFFFFFFFFFFFFFFFFFFFFFFFFFFFFFFFFFFFFFFFFFF00
310
FFFFFFFFFFFFFFFFFFFFFFFFFFFFFFFFFFFFFFFFFFFFFFFFFFFFFFFFFFFFFF00FFFFFFFFFFFFFFFFFFFFFFFFFFFFFFFFFFFFFFFFFFFFFFFFFFFFFFFFFFFFFF00FFFFFFFFFFFFFFFFFFFFFFFFFFFFFFFFFFFFFFFFFFFFFFFFFFFFFFFFFFFFFF00FFFFFFFFFFFFFFFFFFFFFFFFFFFFFFFFFFFFFFFFFFFFFFFFFFFFFFFFFFFFFF
310
00FFFFFFFFFFFFFFFFFFFFFFFFFFFF000000000000000000FFFFFFFFFFFFFFFF00FFFFFFFFFFFFFFFFFFFFFFFFFFFF00FFFFFFFFFFFFFFFF
102
{BLKREFS
331
3CB
102
}
  0
BLOCK_RECORD
  5
3AD
330
1
100
AcDbSymbolTableRecord
100
AcDbBlockTableRecord
  2
AI9-BLK4
340
0
310
2800000020000000200000000100080000000000000400000000000000000000000000000000000000000000000080000080000000808000800000008000800080800000C0C0C000C0DCC000F0CAA6000020400000206000002080000020A0000020C0000020E00000400000004020000040400000406000004080000040A0
310
000040C0000040E00000600000006020000060400000606000006080000060A0000060C0000060E00000800000008020000080400000806000008080000080A0000080C0000080E00000A0000000A0200000A0400000A0600000A0800000A0A00000A0C00000A0E00000C0000000C0200000C0400000C0600000C0800000C0
310
A00000C0C00000C0E00000E0000000E0200000E0400000E0600000E0800000E0A00000E0C00000E0E00040000000400020004000400040006000400080004000A0004000C0004000E00040200000402020004020400040206000402080004020A0004020C0004020E000404000004040200040404000404060004040800040
310
40A0004040C0004040E00040600000406020004060400040606000406080004060A0004060C0004060E00040800000408020004080400040806000408080004080A0004080C0004080E00040A0000040A0200040A0400040A0600040A0800040A0A00040A0C00040A0E00040C0000040C0200040C0400040C0600040C08000
310
40C0A00040C0C00040C0E00040E0000040E0200040E0400040E0600040E0800040E0A00040E0C00040E0E00080000000800020008000400080006000800080008000A0008000C0008000E00080200000802020008020400080206000802080008020A0008020C0008020E00080400000804020008040400080406000804080
310
008040A0008040C0008040E00080600000806020008060400080606000806080008060A0008060C0008060E00080800000808020008080400080806000808080008080A0008080C0008080E00080A0000080A0200080A0400080A0600080A0800080A0A00080A0C00080A0E00080C0000080C0200080C0400080C0600080C0
310
800080C0A00080C0C00080C0E00080E0000080E0200080E0400080E0600080E0800080E0A00080E0C00080E0E000C0000000C0002000C0004000C0006000C0008000C000A000C000C000C000E000C0200000C0202000C0204000C0206000C0208000C020A000C020C000C020E000C0400000C0402000C0404000C0406000C0
310
408000C040A000C040C000C040E000C0600000C0602000C0604000C0606000C0608000C060A000C060C000C060E000C0800000C0802000C0804000C0806000C0808000C080A000C080C000C080E000C0A00000C0A02000C0A04000C0A06000C0A08000C0A0A000C0A0C000C0A0E000C0C00000C0C02000C0C04000C0C06000
310
C0C08000C0C0A000F0FBFF00A4A0A000808080000000FF0000FF000000FFFF00FF000000FF00FF00FFFF0000FFFFFF00FFFFFFFFFFFFFFFFFFFFFFFFFFFFFFFFFFFFFFFFFFFFFFFFFFFFFFFFFFFFFFFFFFFFFFFFFFFFFFFFFFFFFFFFFFFF00000000FFFFFFFFFFFFFFFFFFFFFF000000FFFFFFFFFFFFFFFFFFFFFFFFFFFF00
310
FFFF00FFFFFFFFFFFFFFFFFFFFFF00FFFFFFFFFFFFFFFFFFFFFFFFFFFFFFFF00FFFF00FFFFFFFFFFFFFFFFFFFFFF00FFFFFFFFFFFFFFFFFFFFFFFFFFFFFFFF00FFFF00FFFFFFFFFFFFFFFFFFFFFF00FFFFFFFFFFFFFFFFFFFFFFFFFFFFFFFF00FFFF00FFFFFFFFFFFFFFFFFFFFFF00FFFFFFFFFFFFFFFFFFFFFFFFFFFFFFFF
310
00FFFF00FFFFFFFFFFFFFFFFFFFFFF00FFFFFFFFFFFFFFFFFFFFFFFFFFFFFFFF00FFFF00FFFFFFFFFFFFFFFFFFFFFF00FFFFFFFFFFFFFFFFFFFFFFFFFFFFFFFF00FFFF00FFFFFFFFFFFFFFFFFFFFFF00FFFFFFFFFFFFFFFFFFFFFFFFFFFFFFFF00FFFF00FFFFFFFFFFFFFFFFFFFFFF00FFFFFFFFFFFFFFFFFFFFFFFFFFFFFF
310
FF00FFFF00FFFFFFFFFFFFFFFFFFFFFF00FFFFFFFFFFFFFFFFFFFFFFFFFFFFFFFF00FFFF00FFFFFFFFFFFFFFFFFFFFFF00FFFFFFFFFFFFFFFFFFFFFFFFFFFFFFFF00FFFF00FFFFFFFFFFFFFFFFFFFFFF00FFFFFFFFFFFFFFFFFFFFFFFFFFFFFFFF00FFFF00FFFFFFFFFFFFFFFFFFFFFF00FFFFFFFFFFFFFFFFFFFFFFFFFFFF
310
FFFF00FFFF00FFFFFFFFFFFFFFFFFFFFFF00FFFFFFFFFFFFFFFFFFFFFFFFFFFFFFFF00FFFF00FFFFFFFFFFFFFFFFFFFFFF00FFFFFFFFFFFFFFFFFFFFFFFFFFFFFFFF00FFFF00FFFFFFFFFFFFFFFFFFFFFF00FFFFFFFFFFFFFFFFFFFFFFFFFFFFFFFF00FFFF00FFFFFFFFFFFFFFFFFFFF00FFFFFFFFFFFFFFFFFFFFFFFFFFFF
310
FFFFFF00FFFF00FFFFFFFFFFFFFFFFFFFF00FFFFFFFFFFFFFFFFFFFFFFFFFFFFFFFFFF00FFFF00FFFFFFFFFFFFFFFFFFFF00FFFFFFFFFFFFFFFFFFFFFFFFFFFFFFFFFF00FFFF00FFFFFFFFFFFFFFFFFFFF00FFFFFFFFFFFFFFFFFFFFFFFFFFFFFFFFFF00FFFF00FFFFFFFFFFFFFFFFFFFF00FFFFFFFFFFFFFFFFFFFFFFFFFF
310
FFFFFFFF00FFFF00FFFFFFFFFFFFFFFFFF0000FFFF00FFFFFFFFFFFFFFFFFFFFFFFFFFFF00FFFF00FFFFFFFFFFFFFFFF0000FFFFFF00FFFFFFFFFFFFFFFFFFFFFFFFFFFF00FFFF00000000000000000000FFFFFFFF00FFFFFFFFFFFFFFFFFFFFFFFFFFFF00FFFFFFFFFFFFFFFFFFFFFFFFFFFFFF00FFFFFFFFFFFFFFFFFFFF
310
FFFFFFFFFF00FFFFFFFFFFFFFFFFFFFFFFFFFFFF00FFFFFFFFFFFFFFFFFFFFFFFFFFFFFFFF00FFFFFFFFFFFFFFFFFFFFFFFFFFFF00FFFFFFFFFFFFFFFFFFFFFFFFFFFFFFFF00FFFFFFFFFFFFFFFFFFFFFFFFFFFFFF00FFFFFFFFFFFFFFFFFFFFFFFFFFFFFF00FFFFFFFFFFFFFFFFFFFFFFFFFFFFFF00FFFFFFFFFFFFFFFFFF
310
FFFFFFFFFFFF00FFFF00000000000000000000FFFFFFFF00FFFFFFFFFFFFFFFFFFFFFFFFFFFF00FFFF00FFFFFFFFFFFFFFFFFF0000FFFF00
102
{BLKREFS
331
3CC
102
}
  0
BLOCK_RECORD
  5
3B2
330
1
100
AcDbSymbolTableRecord
100
AcDbBlockTableRecord
  2
AI9-BLK3
340
0
310
2800000020000000200000000100080000000000000400000000000000000000000000000000000000000000000080000080000000808000800000008000800080800000C0C0C000C0DCC000F0CAA6000020400000206000002080000020A0000020C0000020E00000400000004020000040400000406000004080000040A0
310
000040C0000040E00000600000006020000060400000606000006080000060A0000060C0000060E00000800000008020000080400000806000008080000080A0000080C0000080E00000A0000000A0200000A0400000A0600000A0800000A0A00000A0C00000A0E00000C0000000C0200000C0400000C0600000C0800000C0
310
A00000C0C00000C0E00000E0000000E0200000E0400000E0600000E0800000E0A00000E0C00000E0E00040000000400020004000400040006000400080004000A0004000C0004000E00040200000402020004020400040206000402080004020A0004020C0004020E000404000004040200040404000404060004040800040
310
40A0004040C0004040E00040600000406020004060400040606000406080004060A0004060C0004060E00040800000408020004080400040806000408080004080A0004080C0004080E00040A0000040A0200040A0400040A0600040A0800040A0A00040A0C00040A0E00040C0000040C0200040C0400040C0600040C08000
310
40C0A00040C0C00040C0E00040E0000040E0200040E0400040E0600040E0800040E0A00040E0C00040E0E00080000000800020008000400080006000800080008000A0008000C0008000E00080200000802020008020400080206000802080008020A0008020C0008020E00080400000804020008040400080406000804080
310
008040A0008040C0008040E00080600000806020008060400080606000806080008060A0008060C0008060E00080800000808020008080400080806000808080008080A0008080C0008080E00080A0000080A0200080A0400080A0600080A0800080A0A00080A0C00080A0E00080C0000080C0200080C0400080C0600080C0
310
800080C0A00080C0C00080C0E00080E0000080E0200080E0400080E0600080E0800080E0A00080E0C00080E0E000C0000000C0002000C0004000C0006000C0008000C000A000C000C000C000E000C0200000C0202000C0204000C0206000C0208000C020A000C020C000C020E000C0400000C0402000C0404000C0406000C0
310
408000C040A000C040C000C040E000C0600000C0602000C0604000C0606000C0608000C060A000C060C000C060E000C0800000C0802000C0804000C0806000C0808000C080A000C080C000C080E000C0A00000C0A02000C0A04000C0A06000C0A08000C0A0A000C0A0C000C0A0E000C0C00000C0C02000C0C04000C0C06000
310
C0C08000C0C0A000F0FBFF00A4A0A000808080000000FF0000FF000000FFFF00FF000000FF00FF00FFFF0000FFFFFF00FFFFFFFFFFFFFFFFFFFFFFFFFFFFFFFFFFFFFFFFFFFFFFFFFFFFFFFFFFFFFFFFFFFFFFFFFFFFFFFFFFFFFFFFFFFFFF0000FFFFFFFFFFFFFFFFFFFFFFFFFFFFFFFFFFFFFFFFFFFFFFFFFFFFFFFFFFFF
310
0000FFFFFFFFFFFFFFFFFFFFFFFFFFFFFFFFFFFFFFFFFFFFFFFFFFFFFFFFFFFF0000FFFFFFFFFFFFFFFFFFFFFFFFFFFFFFFFFFFFFFFFFFFFFFFFFFFFFFFFFFFF0000FFFFFFFFFFFFFFFFFFFFFFFFFFFFFFFFFFFFFFFFFFFFFFFFFFFFFFFFFFFF0000FFFFFFFFFFFFFFFFFFFFFFFFFFFFFFFFFFFFFFFFFFFFFFFFFFFFFFFFFF
310
FF0000FFFFFFFFFFFFFFFFFFFFFFFFFFFFFFFFFFFFFFFFFFFFFFFFFFFFFFFFFFFF0000FFFFFFFFFFFFFFFFFFFFFFFFFFFFFFFFFFFFFFFFFFFFFFFFFFFFFFFFFFFF0000FFFFFFFFFFFFFFFFFFFFFFFFFFFFFFFFFFFFFFFFFFFFFFFFFFFFFFFFFFFF0000FFFFFFFFFFFFFFFFFFFFFFFFFFFFFFFFFFFFFFFFFFFFFFFFFFFFFFFF
310
FFFF0000FFFFFFFFFFFFFFFFFFFFFFFFFFFFFFFFFFFFFFFFFFFFFFFFFFFFFFFFFFFF0000FFFFFFFFFFFFFFFFFFFFFFFFFFFFFFFFFFFFFFFFFFFFFFFFFFFFFFFFFFFF0000FFFFFFFFFFFFFFFFFFFFFFFFFFFFFFFFFFFFFFFFFFFFFFFFFFFFFFFFFFFF0000FFFFFFFFFFFFFFFFFFFFFFFFFFFFFFFFFFFFFFFFFFFFFFFFFFFFFF
310
FFFFFF0000FFFFFFFFFFFFFFFFFFFFFFFFFFFFFFFFFFFFFFFFFFFFFFFFFFFFFFFFFFFF0000FFFFFFFFFFFFFFFFFFFFFFFFFFFFFFFFFFFFFFFFFFFFFFFFFFFFFFFFFFFF0000FFFFFFFFFFFFFFFFFFFFFFFFFFFFFFFFFFFFFFFFFFFFFFFFFFFFFFFFFFFF0000FFFFFFFFFFFFFFFFFFFFFFFFFFFFFFFFFFFFFFFFFFFFFFFFFFFF
310
FFFFFFFF0000FFFFFFFFFFFFFFFFFFFFFFFFFFFFFFFFFFFFFFFFFFFFFFFFFFFFFFFFFFFF0000FFFFFFFFFFFFFFFFFFFFFFFFFFFFFFFFFFFFFFFFFFFFFFFFFFFFFFFFFFFF0000FFFFFFFFFFFFFFFFFFFFFFFFFFFFFFFFFFFFFFFFFFFFFFFFFFFFFFFFFFFF0000FFFFFFFFFFFFFFFFFFFFFFFFFFFFFFFFFFFFFFFFFFFFFFFFFF
310
FFFFFFFFFF0000FFFFFFFFFFFFFFFFFFFFFFFFFFFFFFFFFFFFFFFFFFFFFFFFFFFFFFFFFFFF0000FFFFFFFFFFFFFFFFFFFFFFFFFFFFFFFFFFFFFFFFFFFFFFFFFFFFFFFFFFFF0000FFFFFFFFFFFFFFFFFFFFFFFFFFFFFFFFFFFFFFFFFFFFFFFFFFFFFFFFFFFF0000FFFFFFFFFFFFFFFFFFFFFFFFFFFFFFFFFFFFFFFFFFFFFFFF
310
FFFFFFFFFFFF0000FFFFFFFFFFFFFFFFFFFFFFFFFFFFFFFFFFFFFFFFFFFFFFFFFFFFFFFFFFFF0000FFFFFFFFFFFFFFFFFFFFFFFFFFFFFFFFFFFFFFFFFFFFFFFFFFFFFFFFFFFF0000FFFFFFFFFFFFFFFFFFFFFFFFFFFFFFFFFFFFFFFFFFFFFFFFFFFFFFFFFFFF0000FFFFFFFFFFFFFFFFFFFFFFFFFFFFFFFFFFFFFFFFFFFFFF
310
FFFFFFFFFFFFFF0000FFFFFFFFFFFFFFFFFFFFFFFFFFFFFFFFFFFFFFFFFFFFFFFFFFFFFFFFFFFFFFFFFFFFFFFFFFFFFFFFFFFFFFFFFFFFFF
102
{BLKREFS
331
3CD
102
}
  0
BLOCK_RECORD
  5
3B7
330
1
100
AcDbSymbolTableRecord
100
AcDbBlockTableRecord
  2
AI9-BLK2
340
0
310
2800000020000000200000000100080000000000000400000000000000000000000000000000000000000000000080000080000000808000800000008000800080800000C0C0C000C0DCC000F0CAA6000020400000206000002080000020A0000020C0000020E00000400000004020000040400000406000004080000040A0
310
000040C0000040E00000600000006020000060400000606000006080000060A0000060C0000060E00000800000008020000080400000806000008080000080A0000080C0000080E00000A0000000A0200000A0400000A0600000A0800000A0A00000A0C00000A0E00000C0000000C0200000C0400000C0600000C0800000C0
310
A00000C0C00000C0E00000E0000000E0200000E0400000E0600000E0800000E0A00000E0C00000E0E00040000000400020004000400040006000400080004000A0004000C0004000E00040200000402020004020400040206000402080004020A0004020C0004020E000404000004040200040404000404060004040800040
310
40A0004040C0004040E00040600000406020004060400040606000406080004060A0004060C0004060E00040800000408020004080400040806000408080004080A0004080C0004080E00040A0000040A0200040A0400040A0600040A0800040A0A00040A0C00040A0E00040C0000040C0200040C0400040C0600040C08000
310
40C0A00040C0C00040C0E00040E0000040E0200040E0400040E0600040E0800040E0A00040E0C00040E0E00080000000800020008000400080006000800080008000A0008000C0008000E00080200000802020008020400080206000802080008020A0008020C0008020E00080400000804020008040400080406000804080
310
008040A0008040C0008040E00080600000806020008060400080606000806080008060A0008060C0008060E00080800000808020008080400080806000808080008080A0008080C0008080E00080A0000080A0200080A0400080A0600080A0800080A0A00080A0C00080A0E00080C0000080C0200080C0400080C0600080C0
310
800080C0A00080C0C00080C0E00080E0000080E0200080E0400080E0600080E0800080E0A00080E0C00080E0E000C0000000C0002000C0004000C0006000C0008000C000A000C000C000C000E000C0200000C0202000C0204000C0206000C0208000C020A000C020C000C020E000C0400000C0402000C0404000C0406000C0
310
408000C040A000C040C000C040E000C0600000C0602000C0604000C0606000C0608000C060A000C060C000C060E000C0800000C0802000C0804000C0806000C0808000C080A000C080C000C080E000C0A00000C0A02000C0A04000C0A06000C0A08000C0A0A000C0A0C000C0A0E000C0C00000C0C02000C0C04000C0C06000
310
C0C08000C0C0A000F0FBFF00A4A0A000808080000000FF0000FF000000FFFF00FF000000FF00FF00FFFF0000FFFFFF00FFFFFFFFFFFFFFFFFFFFFFFFFFFFFFFFFFFFFFFFFFFFFFFFFFFFFFFFFFFFFFFFFFFFFFFFFFFFFFFFFFFFFFFFFFFFFF0000FFFFFFFFFFFFFFFFFFFFFFFFFFFFFFFFFFFFFFFFFFFFFFFFFFFFFFFFFFFF
310
0000FFFFFFFFFFFFFFFFFFFFFFFFFFFFFFFFFFFFFFFFFFFFFFFFFFFFFFFFFFFF0000FFFFFFFFFFFFFFFFFFFFFFFFFFFFFFFFFFFFFFFFFFFFFFFFFFFFFFFFFF00FFFF00FFFFFFFFFFFFFFFFFFFFFFFFFFFFFFFFFFFFFFFFFFFFFFFFFFFFFFFF00FFFF00FFFFFFFFFFFFFFFFFFFFFFFFFFFFFFFFFFFFFFFFFFFFFFFFFFFFFFFF
310
00FF0000FFFFFFFFFFFFFFFFFFFFFFFFFFFFFFFFFFFFFFFFFFFFFFFFFFFFFFFF00FF0000FFFFFFFFFFFFFFFFFFFFFFFFFFFFFFFFFFFFFFFFFFFFFFFFFFFFFFFF00FF0000FFFFFFFFFFFFFFFFFFFFFFFFFFFFFFFFFFFFFFFFFFFFFFFFFFFFFFFF00000000FFFFFFFFFFFFFFFFFFFFFFFFFFFFFFFFFFFFFFFFFFFFFFFFFFFFFF
310
00FF00FF0000FFFFFFFFFFFFFFFFFFFFFFFFFFFFFFFFFFFFFFFFFFFFFFFFFFFF00FF00FF0000FFFFFFFFFFFFFFFFFFFFFFFFFFFFFFFFFFFFFFFFFFFFFFFFFFFF00FF00FF0000FFFFFFFFFFFFFFFFFFFFFFFFFFFFFFFFFFFFFFFFFFFFFFFFFFFF00FF00FF0000FFFFFFFFFFFFFFFFFFFFFFFFFFFFFFFFFFFFFFFFFFFFFFFFFF
310
FF00FF00FF0000FFFFFFFFFFFFFFFFFFFFFFFFFFFFFFFFFFFFFFFFFFFFFFFFFFFF0000FFFF0000FFFFFFFFFFFFFFFFFFFFFFFFFFFFFFFFFFFFFFFFFFFFFFFFFF00FF00FFFF00FF00FFFFFFFFFFFFFFFFFFFFFFFFFFFFFFFFFFFFFFFFFFFFFFFF00FF00FFFF00FF00FFFFFFFFFFFFFFFFFFFFFFFFFFFFFFFFFFFFFFFFFFFFFF
310
FF00FF00FFFFFF0000FFFFFFFFFFFFFFFFFFFFFFFFFFFFFFFFFFFFFFFFFFFFFFFF00FF00FFFFFF0000FFFFFFFFFFFFFFFFFFFFFFFFFFFFFFFFFFFFFFFFFFFFFFFF00FF00FFFFFF0000FFFFFFFFFFFFFFFFFFFFFFFFFFFFFFFFFFFFFFFFFFFFFFFF0000FFFFFFFF0000FFFFFFFFFFFFFFFFFFFFFFFFFFFFFFFFFFFFFFFFFFFF
310
FF00FF00FFFFFFFF00FF00FFFFFFFFFFFFFFFFFFFFFFFFFFFFFFFFFFFFFFFFFFFF00FF00FFFFFFFF00FF00FFFFFFFFFFFFFFFFFFFFFFFFFFFFFFFFFFFFFFFFFFFF00FF00FFFFFFFF00FF00FFFFFFFFFFFFFFFFFFFFFFFFFFFFFFFFFFFFFFFFFFFF00FF00FFFFFFFF00FF00FFFFFFFFFFFFFFFFFFFFFFFFFFFFFFFFFFFFFFFF
310
FFFF00FF00FFFFFFFFFF0000FFFFFFFFFFFFFFFFFFFFFFFFFFFFFFFFFFFFFFFFFFFF0000FFFFFFFFFFFF0000FFFFFFFFFFFFFFFFFFFFFFFFFFFFFFFFFFFFFFFFFF00FF00FFFFFFFFFFFF00FF00FFFFFFFFFFFFFFFFFFFFFFFFFFFFFFFFFFFFFFFF00FF00FFFFFFFFFFFF00FF00FFFFFFFFFFFFFFFFFFFFFFFFFFFFFFFFFFFF
310
FFFF000000FFFFFFFFFFFF000000FFFFFFFFFFFFFFFFFFFFFFFFFFFFFFFFFFFFFFFFFFFFFFFFFFFFFFFFFFFFFFFFFFFFFFFFFFFFFFFFFFFF
102
{BLKREFS
331
3CE
102
}
  0
BLOCK_RECORD
  5
3BC
330
1
100
AcDbSymbolTableRecord
100
AcDbBlockTableRecord
  2
AI9-BLK1
340
0
310
2800000020000000200000000100080000000000000400000000000000000000000000000000000000000000000080000080000000808000800000008000800080800000C0C0C000C0DCC000F0CAA6000020400000206000002080000020A0000020C0000020E00000400000004020000040400000406000004080000040A0
310
000040C0000040E00000600000006020000060400000606000006080000060A0000060C0000060E00000800000008020000080400000806000008080000080A0000080C0000080E00000A0000000A0200000A0400000A0600000A0800000A0A00000A0C00000A0E00000C0000000C0200000C0400000C0600000C0800000C0
310
A00000C0C00000C0E00000E0000000E0200000E0400000E0600000E0800000E0A00000E0C00000E0E00040000000400020004000400040006000400080004000A0004000C0004000E00040200000402020004020400040206000402080004020A0004020C0004020E000404000004040200040404000404060004040800040
310
40A0004040C0004040E00040600000406020004060400040606000406080004060A0004060C0004060E00040800000408020004080400040806000408080004080A0004080C0004080E00040A0000040A0200040A0400040A0600040A0800040A0A00040A0C00040A0E00040C0000040C0200040C0400040C0600040C08000
310
40C0A00040C0C00040C0E00040E0000040E0200040E0400040E0600040E0800040E0A00040E0C00040E0E00080000000800020008000400080006000800080008000A0008000C0008000E00080200000802020008020400080206000802080008020A0008020C0008020E00080400000804020008040400080406000804080
310
008040A0008040C0008040E00080600000806020008060400080606000806080008060A0008060C0008060E00080800000808020008080400080806000808080008080A0008080C0008080E00080A0000080A0200080A0400080A0600080A0800080A0A00080A0C00080A0E00080C0000080C0200080C0400080C0600080C0
310
800080C0A00080C0C00080C0E00080E0000080E0200080E0400080E0600080E0800080E0A00080E0C00080E0E000C0000000C0002000C0004000C0006000C0008000C000A000C000C000C000E000C0200000C0202000C0204000C0206000C0208000C020A000C020C000C020E000C0400000C0402000C0404000C0406000C0
310
408000C040A000C040C000C040E000C0600000C0602000C0604000C0606000C0608000C060A000C060C000C060E000C0800000C0802000C0804000C0806000C0808000C080A000C080C000C080E000C0A00000C0A02000C0A04000C0A06000C0A08000C0A0A000C0A0C000C0A0E000C0C00000C0C02000C0C04000C0C06000
310
C0C08000C0C0A000F0FBFF00A4A0A000808080000000FF0000FF000000FFFF00FF000000FF00FF00FFFF0000FFFFFF00FFFFFFFFFFFFFFFFFFFFFFFFFFFFFFFFFFFFFFFFFFFFFFFFFFFFFFFFFFFFFFFFFFFFFFFFFFFFFFFFFFFFFF00000000000000000000FFFFFFFFFFFFFFFFFFFFFFFFFFFFFFFFFFFFFFFFFFFF00FFFFFF
310
FFFFFFFFFF00FFFFFFFFFFFFFFFFFFFFFFFFFFFFFFFFFFFFFFFFFFFF00FFFFFFFFFFFFFFFF00FFFFFFFFFFFFFFFFFFFFFFFFFFFFFFFFFFFFFFFFFFFF00FFFFFFFFFFFFFFFF00FFFFFFFFFFFFFFFFFFFFFFFFFFFFFFFFFFFFFFFFFFFF00FF0000000000000000FFFFFFFFFFFFFFFFFFFFFFFFFFFFFFFFFFFFFFFFFFFF00FF00
310
FFFFFFFFFFFFFFFFFFFFFFFFFFFFFFFFFFFFFFFFFFFFFFFFFFFFFFFFFF00FF00FFFFFFFFFFFFFFFFFFFFFFFFFFFFFFFFFFFFFFFFFFFFFFFFFFFFFFFFFF00FF00FFFFFFFFFFFFFFFFFFFFFFFFFFFFFFFFFFFFFFFFFFFFFFFFFFFFFFFFFF00FF00FFFFFFFFFFFFFFFFFFFFFFFFFFFFFFFFFFFFFFFFFFFFFFFFFFFFFFFFFF00FF
310
00FFFFFFFFFFFFFFFFFFFFFFFFFFFFFFFFFFFFFFFFFFFFFFFFFFFFFFFFFF00FF00FFFFFFFFFFFFFFFFFFFFFFFFFFFFFFFFFFFFFFFFFFFFFFFFFFFFFFFFFF00FF00FFFFFFFFFFFFFFFFFFFFFFFFFFFFFFFFFFFFFFFFFFFFFFFFFFFFFFFFFF00FF00FFFFFFFFFFFFFFFFFFFFFFFFFFFFFFFFFFFFFFFFFFFFFFFFFFFFFFFFFF00
310
FF00000000000000FFFFFFFFFFFFFFFFFFFFFFFFFFFFFFFFFFFFFFFFFFFFFF00FFFFFFFFFFFFFF00FFFFFFFFFFFFFFFFFFFFFFFFFFFFFFFFFFFFFFFFFFFFFF00FFFFFFFFFFFFFF00FFFFFFFFFFFFFFFFFFFFFFFFFFFFFFFFFFFFFFFFFFFFFF00FFFFFFFFFFFFFF00FFFFFFFFFFFFFFFFFFFFFFFFFFFFFFFFFFFFFFFFFFFFFF
310
00FF00000000000000FFFFFFFFFFFFFFFFFFFFFFFFFFFFFFFFFFFFFFFFFFFFFF00FF00FFFFFFFFFFFFFFFFFFFFFFFFFFFFFFFFFFFFFFFFFFFFFFFFFFFFFFFFFF00FF00FFFFFFFFFFFFFFFFFFFFFFFFFFFFFFFFFFFFFFFFFFFFFFFFFFFFFFFFFF00FF00FFFFFFFFFFFFFFFFFFFFFFFFFFFFFFFFFFFFFFFFFFFFFFFFFFFFFFFF
310
FF00FF00FFFFFFFFFFFFFFFFFFFFFFFFFFFFFFFFFFFFFFFFFFFFFFFFFFFFFFFFFF00FF00FFFFFFFFFFFFFFFFFFFFFFFFFFFFFFFFFFFFFFFFFFFFFFFFFFFFFFFFFF00FF00FFFFFFFFFFFFFFFFFFFFFFFFFFFFFFFFFFFFFFFFFFFFFFFFFFFFFFFFFF00FF00FFFFFFFFFFFFFFFFFFFFFFFFFFFFFFFFFFFFFFFFFFFFFFFFFFFFFF
310
FFFF00FF0000000000000000FFFFFFFFFFFFFFFFFFFFFFFFFFFFFFFFFFFFFFFFFFFF00FFFFFFFFFFFFFFFF00FFFFFFFFFFFFFFFFFFFFFFFFFFFFFFFFFFFFFFFFFFFF00FFFFFFFFFFFFFFFF00FFFFFFFFFFFFFFFFFFFFFFFFFFFFFFFFFFFFFFFFFFFF00FFFFFFFFFFFFFFFF00FFFFFFFFFFFFFFFFFFFFFFFFFFFFFFFFFFFFFF
310
FFFFFF00000000000000000000FFFFFFFFFFFFFFFFFFFFFFFFFFFFFFFFFFFFFFFFFFFFFFFFFFFFFFFFFFFFFFFFFFFFFFFFFFFFFFFFFFFFFF
102
{BLKREFS
331
3CF
102
}
  0
BLOCK_RECORD
  5
3C1
330
1
100
AcDbSymbolTableRecord
100
AcDbBlockTableRecord
  2
HD_LLC_logo_OT5
340
0
310
2800000020000000200000000100080000000000000400000000000000000000000000000000000000000000000080000080000000808000800000008000800080800000C0C0C000C0DCC000F0CAA6000020400000206000002080000020A0000020C0000020E00000400000004020000040400000406000004080000040A0
310
000040C0000040E00000600000006020000060400000606000006080000060A0000060C0000060E00000800000008020000080400000806000008080000080A0000080C0000080E00000A0000000A0200000A0400000A0600000A0800000A0A00000A0C00000A0E00000C0000000C0200000C0400000C0600000C0800000C0
310
A00000C0C00000C0E00000E0000000E0200000E0400000E0600000E0800000E0A00000E0C00000E0E00040000000400020004000400040006000400080004000A0004000C0004000E00040200000402020004020400040206000402080004020A0004020C0004020E000404000004040200040404000404060004040800040
310
40A0004040C0004040E00040600000406020004060400040606000406080004060A0004060C0004060E00040800000408020004080400040806000408080004080A0004080C0004080E00040A0000040A0200040A0400040A0600040A0800040A0A00040A0C00040A0E00040C0000040C0200040C0400040C0600040C08000
310
40C0A00040C0C00040C0E00040E0000040E0200040E0400040E0600040E0800040E0A00040E0C00040E0E00080000000800020008000400080006000800080008000A0008000C0008000E00080200000802020008020400080206000802080008020A0008020C0008020E00080400000804020008040400080406000804080
310
008040A0008040C0008040E00080600000806020008060400080606000806080008060A0008060C0008060E00080800000808020008080400080806000808080008080A0008080C0008080E00080A0000080A0200080A0400080A0600080A0800080A0A00080A0C00080A0E00080C0000080C0200080C0400080C0600080C0
310
800080C0A00080C0C00080C0E00080E0000080E0200080E0400080E0600080E0800080E0A00080E0C00080E0E000C0000000C0002000C0004000C0006000C0008000C000A000C000C000C000E000C0200000C0202000C0204000C0206000C0208000C020A000C020C000C020E000C0400000C0402000C0404000C0406000C0
310
408000C040A000C040C000C040E000C0600000C0602000C0604000C0606000C0608000C060A000C060C000C060E000C0800000C0802000C0804000C0806000C0808000C080A000C080C000C080E000C0A00000C0A02000C0A04000C0A06000C0A08000C0A0A000C0A0C000C0A0E000C0C00000C0C02000C0C04000C0C06000
310
C0C08000C0C0A000F0FBFF00A4A0A000808080000000FF0000FF000000FFFF00FF000000FF00FF00FFFF0000FFFFFF00FFFFFFFFFFFFFFFFFFFFFFFFFFFFFFFFFFFFFFFFFFFFFFFFFFFFFFFFFFFFFFFFFFFFFFFFFFFFFFFFFFFFFFFFFFFFFFFFFFFFFFFFFFFFFFFFFFFFFFFFFFFFFFFFFFFFFFFFFFFFFFFFFFFFFFFFFFFFFF
310
FFFFFFFFFFFFFFFFFFFFFFFFFFFFFFFFFFFFFFFFFFFFFFFFFFFFFFFFFFFFFFFFFFFFFFFFFFFFFFFFFFFFFFFFFFFFFFFFFFFFFFFFFFFFFFFFFFFFFFFFFFFFFFFFFFFFFFFFFFFFFFFFFFFFFFFFFFFFFFFFFFFFFFFFFFFFFFFFFFFFFFFFFFFFFFFFFFFFFFFFFFFFFFFFFFFFFFFFFFFFFFFFFFFFFFFFFFFFFFFFFFFFFFFFFFFFFF
310
FFFFFFFFFFFFFFFFFFFFFFFFFFFFFFFFFFFFFFFFFFFFFFFFFFFFFFFFFFFFFFFFFFFFFFFFFFFFFFFFFFFFFFFFFFFFFFFFFFFFFFFFFFFFFFFFFFFFFFFFFFFFFFFFFFFFFFFFFFFFFFFFFFFFFFFFFFFFFFFFFFFFFFFFFFFFFFFFFFFFFFFFFFFFFFFFFFFFFFFFFFFFFFFFFFFFFFFFFFFFFFFFFFFFFFFFFFFFFFFFFFFFFFFFFFFFFF
310
FFFFFFFFFFFFFFFFFFFFFFFFFFFFFFFFFFFFFFFFFFFFFFFFFFFFFFFFFFFFFFFFFFFFFFFFFFFFFFFFFFFFFFFFFFFFFFFFFFFFFFFF0000000000000000000000000000000000000000000000000000000000FFFFFF0000000000000000000000000000000000FFFFFFFFFFFFFFFFFFFF0000FFFFFF0000000000000000000000
310
00000000000000FFFFFFFFFFFFFFFFFFFF0000FFFF000000000000000000000000000000000000FFFFFF00000000FFFFFF0000FFFF00FFFFFFFFFFFF00FFFFFF00FFFFFFFFFF00FFFFFF0000000000FFFF0000FFFF00FFFFFFFFFFFF00FFFFFF00FFFFFFFFFF00FFFFFF00FFFF0000FFFF0000FFFF00FFFFFFFFFFFF00FFFF
310
00FFFFFFFFFFFF00FFFFFF00FFFF0000FFFF0000FFFF0000000000FFFF00000000FFFFFF00000000FFFFFF00000000FFFFFF0000FFFFFFFFFFFF00FFFFFFFFFFFFFFFFFF00FFFFFFFFFFFFFFFFFFFFFFFFFF0000FFFFFFFFFFFF00FFFFFFFFFFFFFFFFFF00FFFFFFFFFFFFFFFFFFFFFFFFFF0000FFFFFFFFFFFF00FFFFFFFF
310
FFFFFFFFFF00FFFFFFFFFFFFFFFFFFFFFFFF0000FFFFFF0000000000FFFF00000000FFFFFF0000000000000000000000000000FFFFFFFF00FFFFFFFFFFFF00FFFF00FFFFFFFFFFFF00FFFFFFFFFFFFFFFFFFFFFFFFFFFF00FFFFFFFFFFFF00FFFFFF00FFFFFFFFFF00FFFFFFFFFFFFFFFFFFFFFFFFFFFF0000000000000000
310
FFFFFF00000000000000FFFFFFFFFFFFFFFFFFFFFFFFFFFFFFFFFFFFFFFFFFFFFFFFFFFFFFFFFFFFFFFFFFFFFFFFFFFFFFFFFFFFFFFFFFFFFFFFFFFFFFFFFFFFFFFFFFFFFFFFFFFFFFFFFFFFFFFFFFFFFFFFFFFFFFFFFFFFFFFFFFFFFFFFFFFFFFFFFFFFFFFFFFFFFFFFFFFFFFFFFFFFFFFFFFFFFFFFFFFFFFFFFFFFFFFFFF
310
FFFFFFFFFFFFFFFFFFFFFFFFFFFFFFFFFFFFFFFFFFFFFFFFFFFFFFFFFFFFFFFFFFFFFFFFFFFFFFFFFFFFFFFFFFFFFFFFFFFFFFFFFFFFFFFF
102
{BLKREFS
331
3E7
102
}
  0
BLOCK_RECORD
  5
3E6
330
1
100
AcDbSymbolTableRecord
100
AcDbBlockTableRecord
  2
HD logo-new
340
0
310
2800000020000000200000000100080000000000000400000000000000000000000000000000000000000000000080000080000000808000800000008000800080800000C0C0C000C0DCC000F0CAA6000020400000206000002080000020A0000020C0000020E00000400000004020000040400000406000004080000040A0
310
000040C0000040E00000600000006020000060400000606000006080000060A0000060C0000060E00000800000008020000080400000806000008080000080A0000080C0000080E00000A0000000A0200000A0400000A0600000A0800000A0A00000A0C00000A0E00000C0000000C0200000C0400000C0600000C0800000C0
310
A00000C0C00000C0E00000E0000000E0200000E0400000E0600000E0800000E0A00000E0C00000E0E00040000000400020004000400040006000400080004000A0004000C0004000E00040200000402020004020400040206000402080004020A0004020C0004020E000404000004040200040404000404060004040800040
310
40A0004040C0004040E00040600000406020004060400040606000406080004060A0004060C0004060E00040800000408020004080400040806000408080004080A0004080C0004080E00040A0000040A0200040A0400040A0600040A0800040A0A00040A0C00040A0E00040C0000040C0200040C0400040C0600040C08000
310
40C0A00040C0C00040C0E00040E0000040E0200040E0400040E0600040E0800040E0A00040E0C00040E0E00080000000800020008000400080006000800080008000A0008000C0008000E00080200000802020008020400080206000802080008020A0008020C0008020E00080400000804020008040400080406000804080
310
008040A0008040C0008040E00080600000806020008060400080606000806080008060A0008060C0008060E00080800000808020008080400080806000808080008080A0008080C0008080E00080A0000080A0200080A0400080A0600080A0800080A0A00080A0C00080A0E00080C0000080C0200080C0400080C0600080C0
310
800080C0A00080C0C00080C0E00080E0000080E0200080E0400080E0600080E0800080E0A00080E0C00080E0E000C0000000C0002000C0004000C0006000C0008000C000A000C000C000C000E000C0200000C0202000C0204000C0206000C0208000C020A000C020C000C020E000C0400000C0402000C0404000C0406000C0
310
408000C040A000C040C000C040E000C0600000C0602000C0604000C0606000C0608000C060A000C060C000C060E000C0800000C0802000C0804000C0806000C0808000C080A000C080C000C080E000C0A00000C0A02000C0A04000C0A06000C0A08000C0A0A000C0A0C000C0A0E000C0C00000C0C02000C0C04000C0C06000
310
C0C08000C0C0A000F0FBFF00A4A0A000808080000000FF0000FF000000FFFF00FF000000FF00FF00FFFF0000FFFFFF00FFFFFFFFFFFFFFFFFFFFFFFFFFFFFFFFFFFFFFFFFFFFFFFFFFFFFFFFFFFFFFFFFFFFFFFFFFFFFFFFFFFFFFFFFFFFFFFFFFFFFFFFFFFFFFFFFFFFFFFFFFFFFFFFFFFFFFFFFFFFFFFFFFFFFFFFFFFFFF
310
FFFFFFFFFFFFFFFFFFFFFFFFFFFFFFFFFFFFFFFFFFFFFFFFFFFFFFFFFFFFFFFFFFFFFFFFFFFFFFFFFFFFFFFFFFFFFFFFFFFFFFFFFFFFFFFFFFFFFFFFFFFFFFFFFFFFFFFFFFFFFFFFFFFFFFFFFFFFFFFFFFFFFFFFFFFFFFFFFFFFFFFFFFFFFFFFFFFFFFFFFFFFFFFFFFFFFFFFFFFFFFFFFFFFFFFFFFFFFFFFFFFFFFFFFFFFFF
310
FFFFFFFFFFFFFFFFFFFFFFFFFFFFFFFFFFFFFFFFFFFFFFFFFFFFFFFFFFFFFFFFFFFFFFFFFFFFFFFFFFFFFFFFFFFFFFFFFFFFFFFFFFFFFFFFFFFFFFFFFFFFFFFFFFFFFFFFFFFFFFFFFFFFFFFFFFFFFFFFFFFFFFFFFFFFFFFFFFFFFFFFFFFFFFFFFFFFFFFFFFFFFFFFFFFFFFFFFFFFFFFFFFFFFFFFFFFFFFFFFFFFFFFFFFFFFF
310
FFFFFFFFFFFFFFFFFFFFFFFFFFFFFFFFFFFFFFFFFFFFFFFFFFFFFFFFFFFFFFFFFFFFFFFFFFFFFFFFFFFFFFFFFFFFFFFFFFFFFFFF0000000000000000000000000000000000000000000000000000000000FFFFFF0000000000000000000000000000000000FFFFFFFFFFFFFFFFFFFF0000FFFFFF0000000000000000000000
310
00000000000000FFFFFFFFFFFFFFFFFFFF0000FFFF000000000000000000000000000000000000FFFFFF00000000FFFFFF0000FFFF00FFFFFFFFFFFF00FFFFFF00FFFFFFFFFF00FFFFFF0000000000FFFF0000FFFF00FFFFFFFFFFFF00FFFFFF00FFFFFFFFFF00FFFFFF00FFFF0000FFFF0000FFFF00FFFFFFFFFFFF00FFFF
310
00FFFFFFFFFFFF00FFFFFF00FFFF0000FFFF0000FFFF0000000000FFFF00000000FFFFFF00000000FFFFFF00000000FFFFFF0000FFFFFFFFFFFF00FFFFFFFFFFFFFFFFFF00FFFFFFFFFFFFFFFFFFFFFFFFFF0000FFFFFFFFFFFF00FFFFFFFFFFFFFFFFFF00FFFFFFFFFFFFFFFFFFFFFFFFFF0000FFFFFFFFFFFF00FFFFFFFF
310
FFFFFFFFFF00FFFFFFFFFFFFFFFFFFFFFFFF0000FFFFFF0000000000FFFF00000000FFFFFF0000000000000000000000000000FFFFFFFF00FFFFFFFFFFFF00FFFF00FFFFFFFFFFFF00FFFFFFFFFFFFFFFFFFFFFFFFFFFF00FFFFFFFFFFFF00FFFFFF00FFFFFFFFFF00FFFFFFFFFFFFFFFFFFFFFFFFFFFF0000000000000000
310
FFFFFF00000000000000FFFFFFFFFFFFFFFFFFFFFFFFFFFFFFFFFFFFFFFFFFFFFFFFFFFFFFFFFFFFFFFFFFFFFFFFFFFFFFFFFFFFFFFFFFFFFFFFFFFFFFFFFFFFFFFFFFFFFFFFFFFFFFFFFFFFFFFFFFFFFFFFFFFFFFFFFFFFFFFFFFFFFFFFFFFFFFFFFFFFFFFFFFFFFFFFFFFFFFFFFFFFFFFFFFFFFFFFFFFFFFFFFFFFFFFFFF
310
FFFFFFFFFFFFFFFFFFFFFFFFFFFFFFFFFFFFFFFFFFFFFFFFFFFFFFFFFFFFFFFFFFFFFFFFFFFFFFFFFFFFFFFFFFFFFFFFFFFFFFFFFFFFFFFF
102
{BLKREFS
331
3EB
102
}
  0
BLOCK_RECORD
  5
3EA
330
1
100
AcDbSymbolTableRecord
100
AcDbBlockTableRecord
  2
HD Logo
340
0
310
2800000020000000200000000100080000000000000400000000000000000000000000000000000000000000000080000080000000808000800000008000800080800000C0C0C000C0DCC000F0CAA6000020400000206000002080000020A0000020C0000020E00000400000004020000040400000406000004080000040A0
310
000040C0000040E00000600000006020000060400000606000006080000060A0000060C0000060E00000800000008020000080400000806000008080000080A0000080C0000080E00000A0000000A0200000A0400000A0600000A0800000A0A00000A0C00000A0E00000C0000000C0200000C0400000C0600000C0800000C0
310
A00000C0C00000C0E00000E0000000E0200000E0400000E0600000E0800000E0A00000E0C00000E0E00040000000400020004000400040006000400080004000A0004000C0004000E00040200000402020004020400040206000402080004020A0004020C0004020E000404000004040200040404000404060004040800040
310
40A0004040C0004040E00040600000406020004060400040606000406080004060A0004060C0004060E00040800000408020004080400040806000408080004080A0004080C0004080E00040A0000040A0200040A0400040A0600040A0800040A0A00040A0C00040A0E00040C0000040C0200040C0400040C0600040C08000
310
40C0A00040C0C00040C0E00040E0000040E0200040E0400040E0600040E0800040E0A00040E0C00040E0E00080000000800020008000400080006000800080008000A0008000C0008000E00080200000802020008020400080206000802080008020A0008020C0008020E00080400000804020008040400080406000804080
310
008040A0008040C0008040E00080600000806020008060400080606000806080008060A0008060C0008060E00080800000808020008080400080806000808080008080A0008080C0008080E00080A0000080A0200080A0400080A0600080A0800080A0A00080A0C00080A0E00080C0000080C0200080C0400080C0600080C0
310
800080C0A00080C0C00080C0E00080E0000080E0200080E0400080E0600080E0800080E0A00080E0C00080E0E000C0000000C0002000C0004000C0006000C0008000C000A000C000C000C000E000C0200000C0202000C0204000C0206000C0208000C020A000C020C000C020E000C0400000C0402000C0404000C0406000C0
310
408000C040A000C040C000C040E000C0600000C0602000C0604000C0606000C0608000C060A000C060C000C060E000C0800000C0802000C0804000C0806000C0808000C080A000C080C000C080E000C0A00000C0A02000C0A04000C0A06000C0A08000C0A0A000C0A0C000C0A0E000C0C00000C0C02000C0C04000C0C06000
310
C0C08000C0C0A000F0FBFF00A4A0A000808080000000FF0000FF000000FFFF00FF000000FF00FF00FFFF0000FFFFFF00FFFFFFFFFFFFFFFFFFFFFFFFFFFFFFFFFFFFFFFFFFFFFFFFFFFFFFFFFFFFFFFFFFFFFFFFFFFFFFFFFFFFFFFFFFFFFFFFFFFFFFFFFFFFFFFFFFFFFFFFFFFFFFFFFFFFFFFFFFFFFFFFFFFFFFFFFFFFFF
310
FFFFFFFFFFFFFFFFFFFFFFFFFFFFFFFFFFFFFFFFFFFFFFFFFFFFFFFFFFFFFFFFFFFFFFFFFFFFFFFFFFFFFFFFFFFFFFFFFFFFFFFFFFFFFFFFFFFFFFFFFFFFFFFFFFFFFFFFFFFFFFFFFFFFFFFFFFFFFFFFFFFFFFFFFFFFFFFFFFFFFFFFFFFFFFFFFFFFFFFFFFFFFFFFFFFFFFFFFFFFFFFFFFFFFFFFFFFFFFFFFFFFFFFFFFFFFF
310
FFFFFFFFFFFFFFFFFFFFFFFFFFFFFFFFFFFFFFFFFFFFFFFFFFFFFFFFFFFFFFFFFFFFFFFFFFFFFFFFFFFFFFFFFFFFFFFFFFFFFFFFFFFFFFFFFFFFFFFFFFFFFFFFFFFFFFFFFFFFFFFFFFFFFFFFFFFFFFFFFFFFFFFFFFFFFFFFFFFFFFFFFFFFFFFFFFFFFFFFFFFFFFFFFFFFFFFFFFFFFFFFFFFFFFFFFFFFFFFFFFFFFFFFFFFFFF
310
FFFFFFFFFFFFFFFFFFFFFFFFFFFFFFFFFFFFFFFFFFFFFFFFFFFFFFFFFFFFFFFFFFFFFFFFFFFFFFFFFFFFFFFFFFFFFFFFFFFFFFFF0000000000000000000000000000000000000000000000000000000000FFFFFF0000000000000000000000000000000000FFFFFFFFFFFFFFFFFFFF0000FFFFFF0000000000000000000000
310
00000000000000FFFFFFFFFFFFFFFFFFFF0000FFFF000000000000000000000000000000000000FFFFFF00000000FFFFFF0000FFFF00FFFFFFFFFFFF00FFFFFF00FFFFFFFFFF00FFFFFF0000000000FFFF0000FFFF00FFFFFFFFFFFF00FFFFFF00FFFFFFFFFF00FFFFFF00FFFF0000FFFF0000FFFF00FFFFFFFFFFFF00FFFF
310
00FFFFFFFFFFFF00FFFFFF00FFFF0000FFFF0000FFFF0000000000FFFF00000000FFFFFF00000000FFFFFF00000000FFFFFF0000FFFFFFFFFFFF00FFFFFFFFFFFFFFFFFF00FFFFFFFFFFFFFFFFFFFFFFFFFF0000FFFFFFFFFFFF00FFFFFFFFFFFFFFFFFF00FFFFFFFFFFFFFFFFFFFFFFFFFF0000FFFFFFFFFFFF00FFFFFFFF
310
FFFFFFFFFF00FFFFFFFFFFFFFFFFFFFFFFFF0000FFFFFF0000000000FFFF00000000FFFFFF0000000000000000000000000000FFFFFFFF00FFFFFFFFFFFF00FFFF00FFFFFFFFFFFF00FFFFFFFFFFFFFFFFFFFFFFFFFFFF00FFFFFFFFFFFF00FFFFFF00FFFFFFFFFF00FFFFFFFFFFFFFFFFFFFFFFFFFFFF0000000000000000
310
FFFFFF00000000000000FFFFFFFFFFFFFFFFFFFFFFFFFFFFFFFFFFFFFFFFFFFFFFFFFFFFFFFFFFFFFFFFFFFFFFFFFFFFFFFFFFFFFFFFFFFFFFFFFFFFFFFFFFFFFFFFFFFFFFFFFFFFFFFFFFFFFFFFFFFFFFFFFFFFFFFFFFFFFFFFFFFFFFFFFFFFFFFFFFFFFFFFFFFFFFFFFFFFFFFFFFFFFFFFFFFFFFFFFFFFFFFFFFFFFFFFFF
310
FFFFFFFFFFFFFFFFFFFFFFFFFFFFFFFFFFFFFFFFFFFFFFFFFFFFFFFFFFFFFFFFFFFFFFFFFFFFFFFFFFFFFFFFFFFFFFFFFFFFFFFFFFFFFFFF
102
{BLKREFS
331
3F0
331
3F4
102
}
  0
BLOCK_RECORD
  5
401
330
1
100
AcDbSymbolTableRecord
100
AcDbBlockTableRecord
  2
HD LLC
340
0
310
2800000020000000200000000100080000000000000400000000000000000000000000000000000000000000000080000080000000808000800000008000800080800000C0C0C000C0DCC000F0CAA6000020400000206000002080000020A0000020C0000020E00000400000004020000040400000406000004080000040A0
310
000040C0000040E00000600000006020000060400000606000006080000060A0000060C0000060E00000800000008020000080400000806000008080000080A0000080C0000080E00000A0000000A0200000A0400000A0600000A0800000A0A00000A0C00000A0E00000C0000000C0200000C0400000C0600000C0800000C0
310
A00000C0C00000C0E00000E0000000E0200000E0400000E0600000E0800000E0A00000E0C00000E0E00040000000400020004000400040006000400080004000A0004000C0004000E00040200000402020004020400040206000402080004020A0004020C0004020E000404000004040200040404000404060004040800040
310
40A0004040C0004040E00040600000406020004060400040606000406080004060A0004060C0004060E00040800000408020004080400040806000408080004080A0004080C0004080E00040A0000040A0200040A0400040A0600040A0800040A0A00040A0C00040A0E00040C0000040C0200040C0400040C0600040C08000
310
40C0A00040C0C00040C0E00040E0000040E0200040E0400040E0600040E0800040E0A00040E0C00040E0E00080000000800020008000400080006000800080008000A0008000C0008000E00080200000802020008020400080206000802080008020A0008020C0008020E00080400000804020008040400080406000804080
310
008040A0008040C0008040E00080600000806020008060400080606000806080008060A0008060C0008060E00080800000808020008080400080806000808080008080A0008080C0008080E00080A0000080A0200080A0400080A0600080A0800080A0A00080A0C00080A0E00080C0000080C0200080C0400080C0600080C0
310
800080C0A00080C0C00080C0E00080E0000080E0200080E0400080E0600080E0800080E0A00080E0C00080E0E000C0000000C0002000C0004000C0006000C0008000C000A000C000C000C000E000C0200000C0202000C0204000C0206000C0208000C020A000C020C000C020E000C0400000C0402000C0404000C0406000C0
310
408000C040A000C040C000C040E000C0600000C0602000C0604000C0606000C0608000C060A000C060C000C060E000C0800000C0802000C0804000C0806000C0808000C080A000C080C000C080E000C0A00000C0A02000C0A04000C0A06000C0A08000C0A0A000C0A0C000C0A0E000C0C00000C0C02000C0C04000C0C06000
310
C0C08000C0C0A000F0FBFF00A4A0A000808080000000FF0000FF000000FFFF00FF000000FF00FF00FFFF0000FFFFFF00FFFFFFFFFFFFFFFFFFFFFFFFFFFFFFFFFFFFFFFFFFFFFFFFFFFFFFFFFFFFFFFFFFFFFFFFFFFFFFFFFFFFFFFFFFFFFFFFFFFFFFFFFFFFFFFFFFFFFFFFFFFFFFFFFFFFFFFFFFFFFFFFFFFFFFFFFFFFFF
310
FFFFFFFFFFFFFFFFFFFFFFFFFFFFFFFFFFFFFFFFFFFFFFFFFFFFFFFFFFFFFFFFFFFFFFFFFFFFFFFFFFFFFFFFFFFFFFFFFFFFFFFFFFFFFFFFFFFFFFFFFFFFFFFFFFFFFFFFFFFFFFFFFFFFFFFFFFFFFFFFFFFFFFFFFFFFFFFFFFFFFFFFFFFFFFFFFFFFFFFFFFFFFFFFFFFFFFFFFFFFFFFFFFFFFFFFFFFFFFFFFFFFFFFFFFFFFF
310
FFFFFFFFFFFFFFFFFFFFFFFFFFFFFFFFFFFFFFFFFFFFFFFFFFFFFFFFFFFFFFFFFFFFFFFFFFFFFFFFFFFFFFFFFFFFFFFFFFFFFFFFFFFFFFFFFFFFFFFFFFFFFFFFFFFFFFFFFFFFFFFFFFFFFFFFFFFFFFFFFFFFFFFFFFFFFFFFFFFFFFFFFFFFFFFFFFFFFFFFFFFFFFFFFFFFFFFFFFFFFFFFFFFFFFFFFFFFFFFFFFFFFFFFFFFFFF
310
FFFFFFFFFFFFFFFFFFFFFFFFFFFFFFFFFFFFFFFFFFFFFFFFFFFFFFFFFFFFFFFFFFFFFFFFFFFFFFFFFFFFFFFFFFFFFFFFFFFFFFFFFFFFFFFFFFFFFFFFFFFFFFFFFFFFFFFFFFFFFFFFFFFFFFFFFFFFFFFFFFFFFFFFFFFFFFFFFFFFFFFFFFFFFFFFFFFFFFFFFFFFFFFFFFFFFFFFFFFFFFFFFFFFFFFFFFFFFFFFFFFFFFFFFFFF00
310
000000000000000000FFFFFFFFFFFFFFFFFFFFFFFFFFFFFFFFFFFFFFFFFFFF00000000000000000000FFFFFFFFFFFFFFFFFFFFFFFFFFFFFFFFFFFFFFFFFFFF00000000000000000000FFFFFFFFFFFFFFFFFFFFFFFFFFFFFFFFFFFFFFFFFFFF00000000000000000000FFFFFFFFFFFFFFFFFFFFFFFFFFFFFFFFFFFFFFFFFFFF
310
FFFFFFFFFFFFFFFFFFFFFFFFFFFFFFFFFFFFFFFFFFFFFFFFFFFFFFFFFFFFFFFFFFFFFFFFFFFFFFFFFFFFFFFFFFFFFFFFFFFFFFFFFFFFFFFFFFFFFFFFFFFFFFFFFFFFFFFFFFFFFFFFFFFFFFFFFFFFFFFFFFFFFFFFFFFFFFFFFFFFFFFFFFFFFFFFFFFFFFFFFFFFFFFFFFFFFFFFFFFFFFFFFFFFFFFFFFFFFFFFFFFFFFFFFFFFFF
310
FFFFFFFFFFFFFFFFFFFFFFFFFFFFFFFFFFFFFFFFFFFFFFFFFFFFFFFFFFFFFFFFFFFFFFFFFFFFFFFFFFFFFFFFFFFFFFFFFFFFFFFFFFFFFFFFFFFFFFFFFFFFFFFFFFFFFFFFFFFFFFFFFFFFFFFFFFFFFFFFFFFFFFFFFFFFFFFFFFFFFFFFFFFFFFFFFFFFFFFFFFFFFFFFFFFFFFFFFFFFFFFFFFFFFFFFFFFFFFFFFFFFFFFFFFFFFF
310
FFFFFFFFFFFFFFFFFFFFFFFFFFFFFFFFFFFFFFFFFFFFFFFFFFFFFFFFFFFFFFFFFFFFFFFFFFFFFFFFFFFFFFFFFFFFFFFFFFFFFFFFFFFFFFFFFFFFFFFFFFFFFFFFFFFFFFFFFFFFFFFFFFFFFFFFFFFFFFFFFFFFFFFFFFFFFFFFFFFFFFFFFFFFFFFFFFFFFFFFFFFFFFFFFFFFFFFFFFFFFFFFFFFFFFFFFFFFFFFFFFFFFFFFFFFFFF
310
FFFFFFFFFFFFFFFFFFFFFFFFFFFFFFFFFFFFFFFFFFFFFFFFFFFFFFFFFFFFFFFFFFFFFFFFFFFFFFFFFFFFFFFFFFFFFFFFFFFFFFFFFFFFFFFF
102
{BLKREFS
331
406
331
40A
102
}
  0
ENDTAB
  0
ENDSEC
  0
SECTION
  2
BLOCKS
  0
BLOCK
  5
D
330
A
100
AcDbEntity
  8
0
100
AcDbBlockBegin
  2
*MODEL_SPACE
 70
     0
 10
0.0
 20
0.0
 30
0.0
  3
*MODEL_SPACE
  1

  0
ENDBLK
  5
E
330
A
100
AcDbEntity
  8
0
100
AcDbBlockEnd
  0
BLOCK
  5
F
330
B
100
AcDbEntity
 67
     1
  8
0
100
AcDbBlockBegin
  2
*PAPER_SPACE
 70
     0
 10
0.0
 20
0.0
 30
0.0
  3
*PAPER_SPACE
  1

  0
ENDBLK
  5
10
330
B
100
AcDbEntity
 67
     1
  8
0
100
AcDbBlockEnd
  0
BLOCK
  5
26
330
25
100
AcDbEntity
  8
0
100
AcDbBlockBegin
  2
CSD_17_2UH
 70
     0
 10
0.0
 20
0.0
 30
0.0
  3
CSD_17_2UH
  1

  0
MTEXT
  5
73
330
25
100
AcDbEntity
  8
1
 62
     3
100
AcDbMText
 10
-306.459247307923
 20
145.616924780519
 30
0.0
 40
7.0
 41
0.0
 71
     5
 72
     1
  1
CSD-50-XXX-2UH.dxf
  7
CONVERTER_2
 73
     1
 44
1.0
  0
TEXT
  5
71
330
25
100
AcDbEntity
  8
1
 62
     3
100
AcDbText
 10
-621.539407976964
 20
130.5656647032749
 30
0.0
 40
3.6
  1
http://www.hds.co.jp
 41
0.8100000000000001
  7
CONVERTER_1
100
AcDbText
  0
TEXT
  5
70
330
25
100
AcDbEntity
  8
1
 62
     3
100
AcDbText
 10
-621.539407976964
 20
135.9655727476529
 30
0.0
 40
3.6
  1
Tel.03-5471-7800 Fax.03-5471-7811
 41
0.8100000000000001
  7
CONVERTER_1
100
AcDbText
  0
TEXT
  5
6F
330
25
100
AcDbEntity
  8
1
 62
     3
100
AcDbText
 10
-621.539407976964
 20
141.365480792031
 30
0.0
 40
3.0
  1
JAPAN
 41
0.8100000000000001
  7
CONVERTER_1
100
AcDbText
  0
TEXT
  5
6E
330
25
100
AcDbEntity
  8
1
 62
     3
100
AcDbText
 10
-621.539407976964
 20
145.7653888364089
 30
0.0
 40
3.6
  1
Believe Omori 7F Minamiohi 6-25-3 Shinagawa-ku, Tokyo 140-0013
 41
0.8100000000000001
  7
CONVERTER_1
100
AcDbText
  0
TEXT
  5
6D
330
25
100
AcDbEntity
  8
1
 62
     3
100
AcDbText
 10
-621.539407976964
 20
151.1652968807869
 30
0.0
 40
3.0
  1
Harmonic Drive Systems,Inc.
 41
0.8100000000000001
  7
CONVERTER_1
100
AcDbText
  0
TEXT
  5
6C
330
25
100
AcDbEntity
  8
1
 62
     3
100
AcDbText
 10
-621.539407976964
 20
155.5723819397389
 30
0.0
 40
3.6
  1
This drawing itself is also a property of Harmonic Drive Systems,Ins.
 41
0.8100000000000001
  7
CONVERTER_1
100
AcDbText
  0
TEXT
  5
6B
330
25
100
AcDbEntity
  8
1
 62
     3
100
AcDbText
 10
-621.539407976964
 20
160.494248604085
 30
0.0
 40
3.6
  1
subject to change without notification.
 41
0.8100000000000001
  7
CONVERTER_1
100
AcDbText
  0
TEXT
  5
6A
330
25
100
AcDbEntity
  8
1
 62
     3
100
AcDbText
 10
-621.539407976964
 20
165.5606830857049
 30
0.0
 40
3.6
  1
All speciffcations and dimensions mentioned in the drawing are
 41
0.8100000000000001
  7
CONVERTER_1
100
AcDbText
  0
TEXT
  5
69
330
25
100
AcDbEntity
  8
1
 62
     7
100
AcDbText
 10
-621.161607775147
 20
170.619977865781
 30
0.0
 40
4.4
  1
The reference drawing
 41
0.8100000000000001
  7
CONVERTER_1
100
AcDbText
  0
ARC
  5
67
330
25
100
AcDbEntity
  8
1
  6
PHANTOM
 62
     7
100
AcDbCircle
 10
-620.539407976964
 20
131.2218291051519
 30
0.0
 40
3.0
100
AcDbArc
 50
180.0
 51
-90.000000000002
  0
ARC
  5
66
330
25
100
AcDbEntity
  8
1
  6
PHANTOM
 62
     7
100
AcDbCircle
 10
-620.539407976964
 20
173.198085301012
 30
0.0
 40
3.0
100
AcDbArc
 50
90.0
 51
180.0
  0
ARC
  5
65
330
25
100
AcDbEntity
  8
1
  6
PHANTOM
 62
     7
100
AcDbCircle
 10
-450.9569198189299
 20
173.198085301012
 30
0.0
 40
3.0
100
AcDbArc
 50
0.0
 51
90.0
  0
ARC
  5
64
330
25
100
AcDbEntity
  8
1
  6
PHANTOM
 62
     7
100
AcDbCircle
 10
-450.9569198189299
 20
131.2218291051519
 30
0.0
 40
3.0
100
AcDbArc
 50
-89.999999999999
 51
0.0
  0
LINE
  5
63
330
25
100
AcDbEntity
  8
1
  6
PHANTOM
 62
     7
100
AcDbLine
 10
-623.539407976964
 20
173.198085301012
 30
0.0
 11
-623.539407976964
 21
131.2218291051519
 31
0.0
  0
LINE
  5
62
330
25
100
AcDbEntity
  8
1
  6
PHANTOM
 62
     7
100
AcDbLine
 10
-620.539407976964
 20
128.2218291051519
 30
0.0
 11
-450.9569198189299
 21
128.2218291051519
 31
0.0
  0
LINE
  5
61
330
25
100
AcDbEntity
  8
1
  6
PHANTOM
 62
     7
100
AcDbLine
 10
-447.95691981893
 20
131.2218291051519
 30
0.0
 11
-447.95691981893
 21
173.198085301012
 31
0.0
  0
LINE
  5
60
330
25
100
AcDbEntity
  8
1
  6
PHANTOM
 62
     7
100
AcDbLine
 10
-450.9569198189299
 20
176.198085301012
 30
0.0
 11
-620.539407976964
 21
176.198085301012
 31
0.0
  0
ENDBLK
  5
74
330
25
100
AcDbEntity
  8
0
100
AcDbBlockEnd
  0
BLOCK
  5
28
330
27
100
AcDbEntity
  8
0
100
AcDbBlockBegin
  2
100107378
 70
     0
 10
0.0
 20
0.0
 30
0.0
  3
100107378
  1

  0
INSERT
  5
29
330
27
100
AcDbEntity
  8
0
100
AcDbBlockReference
  2
CSD_17_2UH
 10
0.0
 20
0.0
 30
0.0
  0
ENDBLK
  5
75
330
27
100
AcDbEntity
  8
0
100
AcDbBlockEnd
  0
BLOCK
  5
2B
330
2A
100
AcDbEntity
  8
0
100
AcDbBlockBegin
  2
100107380
 70
     0
 10
0.0
 20
0.0
 30
0.0
  3
100107380
  1

  0
INSERT
  5
2C
330
2A
100
AcDbEntity
  8
0
100
AcDbBlockReference
  2
100107378
 10
0.0
 20
0.0
 30
0.0
  0
ENDBLK
  5
76
330
2A
100
AcDbEntity
  8
0
100
AcDbBlockEnd
  0
BLOCK
  5
2E
330
2D
100
AcDbEntity
  8
0
100
AcDbBlockBegin
  2
C2A0372
 70
     0
 10
0.0
 20
0.0
 30
0.0
  3
C2A0372
  1

  0
INSERT
  5
2F
330
2D
100
AcDbEntity
  8
0
100
AcDbBlockReference
  2
100107380
 10
0.0
 20
0.0
 30
0.0
  0
ENDBLK
  5
77
330
2D
100
AcDbEntity
  8
0
100
AcDbBlockEnd
  0
BLOCK
  5
31
330
30
100
AcDbEntity
  8
0
100
AcDbBlockBegin
  2
100107382
 70
     0
 10
0.0
 20
0.0
 30
0.0
  3
100107382
  1

  0
INSERT
  5
32
330
30
100
AcDbEntity
  8
0
100
AcDbBlockReference
  2
C2A0372
 10
0.0
 20
0.0
 30
0.0
  0
ENDBLK
  5
78
330
30
100
AcDbEntity
  8
0
100
AcDbBlockEnd
  0
BLOCK
  5
34
330
33
100
AcDbEntity
  8
0
100
AcDbBlockBegin
  2
C2A0375
 70
     0
 10
0.0
 20
0.0
 30
0.0
  3
C2A0375
  1

  0
INSERT
  5
35
330
33
100
AcDbEntity
  8
0
100
AcDbBlockReference
  2
100107382
 10
0.0
 20
0.0
 30
0.0
  0
ENDBLK
  5
79
330
33
100
AcDbEntity
  8
0
100
AcDbBlockEnd
  0
BLOCK
  5
37
330
36
100
AcDbEntity
  8
0
100
AcDbBlockBegin
  2
HEX_BOLT_SIDE__1
 70
     0
 10
0.0
 20
0.0
 30
0.0
  3
HEX_BOLT_SIDE__1
  1

  0
ARC
  5
8D
330
36
100
AcDbEntity
  8
1
  6
Continuous
 62
     7
100
AcDbCircle
 10
-420.0900873207739
 20
345.231876242946
 30
0.0
 40
0.4
100
AcDbArc
 50
0.0
 51
90.0
  0
ARC
  5
8C
330
36
100
AcDbEntity
  8
1
  6
Continuous
 62
     7
100
AcDbCircle
 10
-420.0900873207739
 20
356.031876242946
 30
0.0
 40
0.4
100
AcDbArc
 50
-90.0
 51
0.0
  0
LINE
  5
8B
330
36
100
AcDbEntity
  8
1
  6
Continuous
 62
     3
100
AcDbLine
 10
-422.690087320774
 20
346.631876242946
 30
0.0
 11
-439.690087320774
 21
346.631876242946
 31
0.0
  0
LINE
  5
8A
330
36
100
AcDbEntity
  8
1
  6
Continuous
 62
     3
100
AcDbLine
 10
-422.690087320774
 20
354.631876242946
 30
0.0
 11
-439.690087320774
 21
354.631876242946
 31
0.0
  0
LINE
  5
89
330
36
100
AcDbEntity
  8
1
  6
Continuous
 62
     3
100
AcDbLine
 10
-422.690087320774
 20
346.631876242946
 30
0.0
 11
-420.958036513205
 21
345.631876242946
 31
0.0
  0
LINE
  5
88
330
36
100
AcDbEntity
  8
1
  6
Continuous
 62
     3
100
AcDbLine
 10
-422.690087320774
 20
354.631876242946
 30
0.0
 11
-420.958036513205
 21
355.631876242946
 31
0.0
  0
LINE
  5
87
330
36
100
AcDbEntity
  8
1
  6
Continuous
 62
     7
100
AcDbLine
 10
-419.690087320774
 20
342.631876242946
 30
0.0
 11
-410.2900873207739
 21
342.631876242946
 31
0.0
  0
LINE
  5
86
330
36
100
AcDbEntity
  8
1
  6
Continuous
 62
     7
100
AcDbLine
 10
-410.2900873207739
 20
342.631876242946
 30
0.0
 11
-409.690087320774
 21
343.2318762429459
 31
0.0
  0
LINE
  5
85
330
36
100
AcDbEntity
  8
1
  6
Continuous
 62
     7
100
AcDbLine
 10
-409.690087320774
 20
343.2318762429459
 30
0.0
 11
-409.690087320774
 21
358.031876242946
 31
0.0
  0
LINE
  5
84
330
36
100
AcDbEntity
  8
1
  6
Continuous
 62
     7
100
AcDbLine
 10
-409.690087320774
 20
358.031876242946
 30
0.0
 11
-410.2900873207739
 21
358.631876242946
 31
0.0
  0
LINE
  5
83
330
36
100
AcDbEntity
  8
1
  6
Continuous
 62
     7
100
AcDbLine
 10
-410.2900873207739
 20
358.631876242946
 30
0.0
 11
-419.690087320774
 21
358.631876242946
 31
0.0
  0
LINE
  5
82
330
36
100
AcDbEntity
  8
1
  6
Continuous
 62
     7
100
AcDbLine
 10
-438.690087320774
 20
355.631876242946
 30
0.0
 11
-439.690087320774
 21
354.631876242946
 31
0.0
  0
LINE
  5
81
330
36
100
AcDbEntity
  8
1
  6
Continuous
 62
     7
100
AcDbLine
 10
-439.690087320774
 20
354.631876242946
 30
0.0
 11
-439.690087320774
 21
346.631876242946
 31
0.0
  0
LINE
  5
80
330
36
100
AcDbEntity
  8
1
  6
Continuous
 62
     7
100
AcDbLine
 10
-439.690087320774
 20
346.631876242946
 30
0.0
 11
-438.690087320774
 21
345.631876242946
 31
0.0
  0
LINE
  5
7F
330
36
100
AcDbEntity
  8
1
  6
Continuous
 62
     7
100
AcDbLine
 10
-422.690087320774
 20
345.631876242946
 30
0.0
 11
-422.690087320774
 21
355.631876242946
 31
0.0
  0
LINE
  5
7E
330
36
100
AcDbEntity
  8
1
  6
Continuous
 62
     7
100
AcDbLine
 10
-420.0900873207739
 20
355.631876242946
 30
0.0
 11
-438.690087320774
 21
355.631876242946
 31
0.0
  0
LINE
  5
7D
330
36
100
AcDbEntity
  8
1
  6
Continuous
 62
     7
100
AcDbLine
 10
-438.690087320774
 20
345.631876242946
 30
0.0
 11
-420.0900873207739
 21
345.631876242946
 31
0.0
  0
LINE
  5
7C
330
36
100
AcDbEntity
  8
1
  6
Continuous
 62
     7
100
AcDbLine
 10
-438.690087320774
 20
355.631876242946
 30
0.0
 11
-438.690087320774
 21
345.631876242946
 31
0.0
  0
LINE
  5
7B
330
36
100
AcDbEntity
  8
1
  6
Continuous
 62
     7
100
AcDbLine
 10
-410.2900873207739
 20
342.631876242946
 30
0.0
 11
-410.2900873207739
 21
358.631876242946
 31
0.0
  0
LINE
  5
7A
330
36
100
AcDbEntity
  8
1
  6
Continuous
 62
     7
100
AcDbLine
 10
-419.690087320774
 20
342.631876242946
 30
0.0
 11
-419.690087320774
 21
358.631876242946
 31
0.0
  0
ENDBLK
  5
8E
330
36
100
AcDbEntity
  8
0
100
AcDbBlockEnd
  0
BLOCK
  5
39
330
38
100
AcDbEntity
  8
0
100
AcDbBlockBegin
  2
HEX_BOLT_TOP__2
 70
     0
 10
0.0
 20
0.0
 30
0.0
  3
HEX_BOLT_TOP__2
  1

  0
CIRCLE
  5
96
330
38
100
AcDbEntity
  8
1
  6
Continuous
 62
     7
100
AcDbCircle
 10
-267.1089291350929
 20
390.996099823822
 30
0.0
 40
2.98038475773
  0
CIRCLE
  5
95
330
38
100
AcDbEntity
  8
1
  6
Continuous
 62
     7
100
AcDbCircle
 10
-267.1089291350929
 20
390.996099823822
 30
0.0
 40
3.5
  0
LINE
  5
94
330
38
100
AcDbEntity
  8
1
  6
Continuous
 62
     7
100
AcDbLine
 10
-265.6089291350929
 20
390.130074420038
 30
0.0
 11
-265.6089291350929
 21
391.8621252276069
 31
0.0
  0
LINE
  5
93
330
38
100
AcDbEntity
  8
1
  6
Continuous
 62
     7
100
AcDbLine
 10
-267.1089291350929
 20
389.2640490162529
 30
0.0
 11
-265.6089291350929
 21
390.130074420038
 31
0.0
  0
LINE
  5
92
330
38
100
AcDbEntity
  8
1
  6
Continuous
 62
     7
100
AcDbLine
 10
-268.6089291350929
 20
390.130074420038
 30
0.0
 11
-267.1089291350929
 21
389.2640490162529
 31
0.0
  0
LINE
  5
91
330
38
100
AcDbEntity
  8
1
  6
Continuous
 62
     7
100
AcDbLine
 10
-268.6089291350929
 20
391.8621252276069
 30
0.0
 11
-268.6089291350929
 21
390.130074420038
 31
0.0
  0
LINE
  5
90
330
38
100
AcDbEntity
  8
1
  6
Continuous
 62
     7
100
AcDbLine
 10
-267.1089291350929
 20
392.7281506313909
 30
0.0
 11
-268.6089291350929
 21
391.8621252276069
 31
0.0
  0
LINE
  5
8F
330
38
100
AcDbEntity
  8
1
  6
Continuous
 62
     7
100
AcDbLine
 10
-265.6089291350929
 20
391.8621252276069
 30
0.0
 11
-267.1089291350929
 21
392.7281506313909
 31
0.0
  0
ENDBLK
  5
97
330
38
100
AcDbEntity
  8
0
100
AcDbBlockEnd
  0
BLOCK
  5
3B
330
3A
100
AcDbEntity
  8
0
100
AcDbBlockBegin
  2
HEX_BOLT_TOP__3
 70
     0
 10
0.0
 20
0.0
 30
0.0
  3
HEX_BOLT_TOP__3
  1

  0
CIRCLE
  5
9F
330
3A
100
AcDbEntity
  8
1
  6
Continuous
 62
     7
100
AcDbCircle
 10
-231.9295264853109
 20
248.267652662072
 30
0.0
 40
2.980384757729
  0
CIRCLE
  5
9E
330
3A
100
AcDbEntity
  8
1
  6
Continuous
 62
     7
100
AcDbCircle
 10
-231.9295264853109
 20
248.267652662072
 30
0.0
 40
3.5
  0
LINE
  5
9D
330
3A
100
AcDbEntity
  8
1
  6
Continuous
 62
     7
100
AcDbLine
 10
-230.429526485311
 20
247.401627258288
 30
0.0
 11
-230.429526485311
 21
249.133678065857
 31
0.0
  0
LINE
  5
9C
330
3A
100
AcDbEntity
  8
1
  6
Continuous
 62
     7
100
AcDbLine
 10
-231.9295264853109
 20
246.5356018545029
 30
0.0
 11
-230.429526485311
 21
247.401627258288
 31
0.0
  0
LINE
  5
9B
330
3A
100
AcDbEntity
  8
1
  6
Continuous
 62
     7
100
AcDbLine
 10
-233.429526485311
 20
247.401627258288
 30
0.0
 11
-231.9295264853109
 21
246.5356018545029
 31
0.0
  0
LINE
  5
9A
330
3A
100
AcDbEntity
  8
1
  6
Continuous
 62
     7
100
AcDbLine
 10
-233.429526485311
 20
249.133678065857
 30
0.0
 11
-233.429526485311
 21
247.401627258288
 31
0.0
  0
LINE
  5
99
330
3A
100
AcDbEntity
  8
1
  6
Continuous
 62
     7
100
AcDbLine
 10
-231.9295264853109
 20
249.9997034696409
 30
0.0
 11
-233.429526485311
 21
249.133678065857
 31
0.0
  0
LINE
  5
98
330
3A
100
AcDbEntity
  8
1
  6
Continuous
 62
     7
100
AcDbLine
 10
-230.429526485311
 20
249.133678065857
 30
0.0
 11
-231.9295264853109
 21
249.9997034696409
 31
0.0
  0
ENDBLK
  5
A0
330
3A
100
AcDbEntity
  8
0
100
AcDbBlockEnd
  0
BLOCK
  5
3D
330
3C
100
AcDbEntity
  8
0
100
AcDbBlockBegin
  2
HEX_BOLT_TOP__4
 70
     0
 10
0.0
 20
0.0
 30
0.0
  3
HEX_BOLT_TOP__4
  1

  0
CIRCLE
  5
A8
330
3C
100
AcDbEntity
  8
1
  6
Continuous
 62
     7
100
AcDbCircle
 10
-322.4833300564399
 20
310.772430244433
 30
0.0
 40
2.98038475773
  0
CIRCLE
  5
A7
330
3C
100
AcDbEntity
  8
1
  6
Continuous
 62
     7
100
AcDbCircle
 10
-322.4833300564399
 20
310.772430244433
 30
0.0
 40
3.5
  0
LINE
  5
A6
330
3C
100
AcDbEntity
  8
1
  6
Continuous
 62
     7
100
AcDbLine
 10
-320.9833300564399
 20
309.9064048406479
 30
0.0
 11
-320.9833300564399
 21
311.6384556482179
 31
0.0
  0
LINE
  5
A5
330
3C
100
AcDbEntity
  8
1
  6
Continuous
 62
     7
100
AcDbLine
 10
-322.4833300564399
 20
309.0403794368639
 30
0.0
 11
-320.9833300564399
 21
309.9064048406479
 31
0.0
  0
LINE
  5
A4
330
3C
100
AcDbEntity
  8
1
  6
Continuous
 62
     7
100
AcDbLine
 10
-323.9833300564399
 20
309.9064048406479
 30
0.0
 11
-322.4833300564399
 21
309.0403794368639
 31
0.0
  0
LINE
  5
A3
330
3C
100
AcDbEntity
  8
1
  6
Continuous
 62
     7
100
AcDbLine
 10
-323.9833300564399
 20
311.6384556482179
 30
0.0
 11
-323.9833300564399
 21
309.9064048406479
 31
0.0
  0
LINE
  5
A2
330
3C
100
AcDbEntity
  8
1
  6
Continuous
 62
     7
100
AcDbLine
 10
-322.4833300564399
 20
312.5044810520019
 30
0.0
 11
-323.9833300564399
 21
311.6384556482179
 31
0.0
  0
LINE
  5
A1
330
3C
100
AcDbEntity
  8
1
  6
Continuous
 62
     7
100
AcDbLine
 10
-320.9833300564399
 20
311.6384556482179
 30
0.0
 11
-322.4833300564399
 21
312.5044810520019
 31
0.0
  0
ENDBLK
  5
A9
330
3C
100
AcDbEntity
  8
0
100
AcDbBlockEnd
  0
BLOCK
  5
3F
330
3E
100
AcDbEntity
  8
0
100
AcDbBlockBegin
  2
HEX_BOLT_TOP__5
 70
     0
 10
0.0
 20
0.0
 30
0.0
  3
HEX_BOLT_TOP__5
  1

  0
CIRCLE
  5
B1
330
3E
100
AcDbEntity
  8
1
  6
Continuous
 62
     7
100
AcDbCircle
 10
-176.5551255639639
 20
328.4913222414609
 30
0.0
 40
2.980384757729
  0
CIRCLE
  5
B0
330
3E
100
AcDbEntity
  8
1
  6
Continuous
 62
     7
100
AcDbCircle
 10
-176.5551255639639
 20
328.4913222414609
 30
0.0
 40
3.5
  0
LINE
  5
AF
330
3E
100
AcDbEntity
  8
1
  6
Continuous
 62
     7
100
AcDbLine
 10
-175.055125563964
 20
327.625296837677
 30
0.0
 11
-175.055125563964
 21
329.357347645246
 31
0.0
  0
LINE
  5
AE
330
3E
100
AcDbEntity
  8
1
  6
Continuous
 62
     7
100
AcDbLine
 10
-176.5551255639639
 20
326.7592714338919
 30
0.0
 11
-175.055125563964
 21
327.625296837677
 31
0.0
  0
LINE
  5
AD
330
3E
100
AcDbEntity
  8
1
  6
Continuous
 62
     7
100
AcDbLine
 10
-178.055125563964
 20
327.625296837677
 30
0.0
 11
-176.5551255639639
 21
326.7592714338919
 31
0.0
  0
LINE
  5
AC
330
3E
100
AcDbEntity
  8
1
  6
Continuous
 62
     7
100
AcDbLine
 10
-178.055125563964
 20
329.357347645246
 30
0.0
 11
-178.055125563964
 21
327.625296837677
 31
0.0
  0
LINE
  5
AB
330
3E
100
AcDbEntity
  8
1
  6
Continuous
 62
     7
100
AcDbLine
 10
-176.5551255639639
 20
330.22337304903
 30
0.0
 11
-178.055125563964
 21
329.357347645246
 31
0.0
  0
LINE
  5
AA
330
3E
100
AcDbEntity
  8
1
  6
Continuous
 62
     7
100
AcDbLine
 10
-175.055125563964
 20
329.357347645246
 30
0.0
 11
-176.5551255639639
 21
330.22337304903
 31
0.0
  0
ENDBLK
  5
B2
330
3E
100
AcDbEntity
  8
0
100
AcDbBlockEnd
  0
BLOCK
  5
41
330
40
100
AcDbEntity
  8
0
100
AcDbBlockBegin
  2
RETAINER__6
 70
     0
 10
0.0
 20
0.0
 30
0.0
  3
RETAINER__6
  1

  0
ARC
  5
B6
330
40
100
AcDbEntity
  8
1
  6
Continuous
 62
     7
100
AcDbCircle
 10
-249.51922780995
 20
319.6318762429469
 30
0.0
 40
57.01
100
AcDbArc
 50
90.0
 51
-90.0
  0
ARC
  5
B5
330
40
100
AcDbEntity
  8
1
  6
Continuous
 62
     7
100
AcDbCircle
 10
-249.51922780995
 20
319.6318762429469
 30
0.0
 40
48.654999999999
100
AcDbArc
 50
90.0
 51
-90.0
  0
ARC
  5
B4
330
40
100
AcDbEntity
  8
1
  6
Continuous
 62
     7
100
AcDbCircle
 10
-249.51922780995
 20
319.6318762429469
 30
0.0
 40
48.654999999999
100
AcDbArc
 50
-90.0
 51
90.0
  0
ARC
  5
B3
330
40
100
AcDbEntity
  8
1
  6
Continuous
 62
     7
100
AcDbCircle
 10
-249.51922780995
 20
319.6318762429469
 30
0.0
 40
57.01
100
AcDbArc
 50
-90.0
 51
90.0
  0
ENDBLK
  5
B7
330
40
100
AcDbEntity
  8
0
100
AcDbBlockEnd
  0
BLOCK
  5
43
330
42
100
AcDbEntity
  8
0
100
AcDbBlockBegin
  2
WB_050_R
 70
     0
 10
0.0
 20
0.0
 30
0.0
  3
WB_050_R
  1

  0
ARC
  5
123
330
42
100
AcDbEntity
  8
1
  6
Continuous
 62
     7
100
AcDbCircle
 10
-256.7238052136169
 20
267.214682838163
 30
0.0
 40
5.953125
100
AcDbArc
 50
-146.5916881605369
 51
-124.402086903713
  0
ARC
  5
122
330
42
100
AcDbEntity
  8
1
  6
Continuous
 62
     7
100
AcDbCircle
 10
-270.598629473702
 20
271.102226280288
 30
0.0
 40
5.953125
100
AcDbArc
 50
-162.2438620735819
 51
-140.054260816758
  0
ARC
  5
121
330
42
100
AcDbEntity
  8
1
  6
Continuous
 62
     7
100
AcDbCircle
 10
-270.598629473702
 20
271.102226280288
 30
0.0
 40
5.953124999998999
100
AcDbArc
 50
-86.902260922334
 51
-64.71265966550901
  0
ARC
  5
120
330
42
100
AcDbEntity
  8
1
  6
Continuous
 62
     7
100
AcDbCircle
 10
-270.598629473702
 20
271.102226280288
 30
0.0
 40
5.953124999998999
100
AcDbArc
 50
24.44669386566999
 51
40.638825813212
  0
ARC
  5
11F
330
42
100
AcDbEntity
  8
1
  6
Continuous
 62
     7
100
AcDbCircle
 10
-270.598629473702
 20
271.102226280288
 30
0.0
 40
5.953125
100
AcDbArc
 50
92.40465244769101
 51
108.5967843952519
  0
ARC
  5
11E
330
42
100
AcDbEntity
  8
1
  6
Continuous
 62
     7
100
AcDbCircle
 10
-282.9100909442329
 20
278.588991851768
 30
0.0
 40
5.953124999998999
100
AcDbArc
 50
-177.896035986631
 51
-155.706434729799
  0
ARC
  5
11D
330
42
100
AcDbEntity
  8
1
  6
Continuous
 62
     7
100
AcDbCircle
 10
-282.9100909442329
 20
278.588991851768
 30
0.0
 40
5.953124999998999
100
AcDbArc
 50
-102.5544348353659
 51
-80.36483357854701
  0
ARC
  5
11C
330
42
100
AcDbEntity
  8
1
  6
Continuous
 62
     7
100
AcDbCircle
 10
-282.9100909442329
 20
278.588991851768
 30
0.0
 40
5.953125
100
AcDbArc
 50
8.794519952614999
 51
24.986651900163
  0
ARC
  5
11B
330
42
100
AcDbEntity
  8
1
  6
Continuous
 62
     7
100
AcDbCircle
 10
-282.9100909442329
 20
278.588991851768
 30
0.0
 40
5.953125
100
AcDbArc
 50
76.752478534635
 51
92.94461048219201
  0
ARC
  5
11A
330
42
100
AcDbEntity
  8
1
  6
Continuous
 62
     7
100
AcDbCircle
 10
-292.745104849127
 20
289.11972039984
 30
0.0
 40
5.953125
100
AcDbArc
 50
166.4517901003289
 51
-171.358608642849
  0
ARC
  5
119
330
42
100
AcDbEntity
  8
1
  6
Continuous
 62
     7
100
AcDbCircle
 10
-292.745104849127
 20
289.11972039984
 30
0.0
 40
5.953124999998999
100
AcDbArc
 50
-118.206608748425
 51
-96.01700749159599
  0
ARC
  5
118
330
42
100
AcDbEntity
  8
1
  6
Continuous
 62
     7
100
AcDbCircle
 10
-292.745104849127
 20
289.11972039984
 30
0.0
 40
5.953125
100
AcDbArc
 50
-6.857653960426
 51
9.334477987117999
  0
ARC
  5
117
330
42
100
AcDbEntity
  8
1
  6
Continuous
 62
     7
100
AcDbCircle
 10
-292.745104849127
 20
289.11972039984
 30
0.0
 40
5.953125
100
AcDbArc
 50
61.100304621596
 51
77.292436569149
  0
ARC
  5
116
330
42
100
AcDbEntity
  8
1
  6
Continuous
 62
     7
100
AcDbCircle
 10
-299.374253199255
 20
301.9133959629709
 30
0.0
 40
5.953125
100
AcDbArc
 50
150.79961618728
 51
172.9892174441059
  0
ARC
  5
115
330
42
100
AcDbEntity
  8
1
  6
Continuous
 62
     7
100
AcDbCircle
 10
-299.374253199255
 20
301.9133959629709
 30
0.0
 40
5.953125
100
AcDbArc
 50
-133.858782661465
 51
-111.669181404636
  0
ARC
  5
114
330
42
100
AcDbEntity
  8
1
  6
Continuous
 62
     7
100
AcDbCircle
 10
-299.374253199255
 20
301.9133959629709
 30
0.0
 40
5.953125
100
AcDbArc
 50
-22.509827873465
 51
-6.317695925931
  0
ARC
  5
113
330
42
100
AcDbEntity
  8
1
  6
Continuous
 62
     7
100
AcDbCircle
 10
-299.374253199255
 20
301.9133959629709
 30
0.0
 40
5.953125
100
AcDbArc
 50
45.44813070854999
 51
61.640262656105
  0
ARC
  5
112
330
42
100
AcDbEntity
  8
1
  6
Continuous
 62
     7
100
AcDbCircle
 10
-302.3058823878229
 20
316.0211701518139
 30
0.0
 40
5.953125
100
AcDbArc
 50
135.14744227423
 51
157.33704353105
  0
ARC
  5
111
330
42
100
AcDbEntity
  8
1
  6
Continuous
 62
     7
100
AcDbCircle
 10
-302.3058823878229
 20
316.0211701518139
 30
0.0
 40
5.953124999998999
100
AcDbArc
 50
-149.510956574504
 51
-127.321355317683
  0
ARC
  5
110
330
42
100
AcDbEntity
  8
1
  6
Continuous
 62
     7
100
AcDbCircle
 10
-302.3058823878229
 20
316.0211701518139
 30
0.0
 40
5.953125
100
AcDbArc
 50
-38.162001786513
 51
-21.969869838975
  0
ARC
  5
10F
330
42
100
AcDbEntity
  8
1
  6
Continuous
 62
     7
100
AcDbCircle
 10
-302.3058823878229
 20
316.0211701518139
 30
0.0
 40
5.953125
100
AcDbArc
 50
29.79595679550799
 51
45.988088743057
  0
ARC
  5
10E
330
42
100
AcDbEntity
  8
1
  6
Continuous
 62
     7
100
AcDbCircle
 10
-301.322566889225
 20
330.3967338935559
 30
0.0
 40
5.953124999998999
100
AcDbArc
 50
119.4952683611949
 51
141.684869618008
  0
ARC
  5
10D
330
42
100
AcDbEntity
  8
1
  6
Continuous
 62
     7
100
AcDbCircle
 10
-301.322566889225
 20
330.3967338935559
 30
0.0
 40
5.953125
100
AcDbArc
 50
-165.163130487545
 51
-142.9735292307209
  0
ARC
  5
10C
330
42
100
AcDbEntity
  8
1
  6
Continuous
 62
     7
100
AcDbCircle
 10
-301.322566889225
 20
330.3967338935559
 30
0.0
 40
5.953125
100
AcDbArc
 50
-53.814175699558
 51
-37.622043752018
  0
ARC
  5
10B
330
42
100
AcDbEntity
  8
1
  6
Continuous
 62
     7
100
AcDbCircle
 10
-301.322566889225
 20
330.3967338935559
 30
0.0
 40
5.953125
100
AcDbArc
 50
14.14378288245
 51
30.33591483001099
  0
ARC
  5
10A
330
42
100
AcDbEntity
  8
1
  6
Continuous
 62
     7
100
AcDbCircle
 10
-296.497234715624
 20
343.973917389298
 30
0.0
 40
5.953125
100
AcDbArc
 50
-69.4663496126
 51
-53.274217665055
  0
ARC
  5
109
330
42
100
AcDbEntity
  8
1
  6
Continuous
 62
     7
100
AcDbCircle
 10
-296.497234715624
 20
343.973917389298
 30
0.0
 40
5.953124999998999
100
AcDbArc
 50
103.8430944481389
 51
126.032695704961
  0
ARC
  5
108
330
42
100
AcDbEntity
  8
1
  6
Continuous
 62
     7
100
AcDbCircle
 10
-296.497234715624
 20
343.973917389298
 30
0.0
 40
5.953125
100
AcDbArc
 50
-1.508391030589
 51
14.68374091696899
  0
ARC
  5
107
330
42
100
AcDbEntity
  8
1
  6
Continuous
 62
     7
100
AcDbCircle
 10
-296.497234715624
 20
343.973917389298
 30
0.0
 40
5.953124999998999
100
AcDbArc
 50
179.1846955994039
 51
-158.6257031437769
  0
ARC
  5
106
330
42
100
AcDbEntity
  8
1
  6
Continuous
 62
     7
100
AcDbCircle
 10
-288.18775867991
 20
355.7457630506439
 30
0.0
 40
5.953125000001
100
AcDbArc
 50
-85.11852352564
 51
-68.92639157810799
  0
ARC
  5
105
330
42
100
AcDbEntity
  8
1
  6
Continuous
 62
     7
100
AcDbCircle
 10
-288.18775867991
 20
355.7457630506439
 30
0.0
 40
5.953125
100
AcDbArc
 50
88.19092053509599
 51
110.380521791919
  0
ARC
  5
104
330
42
100
AcDbEntity
  8
1
  6
Continuous
 62
     7
100
AcDbCircle
 10
-288.18775867991
 20
355.7457630506439
 30
0.0
 40
5.953125000001
100
AcDbArc
 50
-17.160564943631
 51
-0.9684329960830002
  0
ARC
  5
103
330
42
100
AcDbEntity
  8
1
  6
Continuous
 62
     7
100
AcDbCircle
 10
-288.18775867991
 20
355.7457630506439
 30
0.0
 40
5.953124999998999
100
AcDbArc
 50
163.5325216863579
 51
-174.277877056817
  0
ARC
  5
102
330
42
100
AcDbEntity
  8
1
  6
Continuous
 62
     7
100
AcDbCircle
 10
-277.010414606328
 20
364.839206937501
 30
0.0
 40
5.953125
100
AcDbArc
 50
-100.770697438691
 51
-84.57856549114401
  0
ARC
  5
101
330
42
100
AcDbEntity
  8
1
  6
Continuous
 62
     7
100
AcDbCircle
 10
-277.010414606328
 20
364.839206937501
 30
0.0
 40
5.953125
100
AcDbArc
 50
72.53874662204999
 51
94.72834787886801
  0
ARC
  5
100
330
42
100
AcDbEntity
  8
1
  6
Continuous
 62
     7
100
AcDbCircle
 10
-277.010414606328
 20
364.839206937501
 30
0.0
 40
5.953125000001
100
AcDbArc
 50
-32.812738856672
 51
-16.620606909118
  0
ARC
  5
FF
330
42
100
AcDbEntity
  8
1
  6
Continuous
 62
     7
100
AcDbCircle
 10
-277.010414606328
 20
364.839206937501
 30
0.0
 40
5.953125
100
AcDbArc
 50
147.880347773317
 51
170.069949030128
  0
ARC
  5
FE
330
42
100
AcDbEntity
  8
1
  6
Continuous
 62
     7
100
AcDbCircle
 10
-263.79417497187
 20
370.579829916519
 30
0.0
 40
5.953124999998999
100
AcDbArc
 50
-116.422871351736
 51
-100.230739404193
  0
ARC
  5
FD
330
42
100
AcDbEntity
  8
1
  6
Continuous
 62
     7
100
AcDbCircle
 10
-263.79417497187
 20
370.579829916519
 30
0.0
 40
5.953125
100
AcDbArc
 50
56.886572708999
 51
79.07617396582399
  0
ARC
  5
FC
330
42
100
AcDbEntity
  8
1
  6
Continuous
 62
     7
100
AcDbCircle
 10
-263.79417497187
 20
370.579829916519
 30
0.0
 40
5.953125
100
AcDbArc
 50
132.2281738602649
 51
154.4177751170829
  0
ARC
  5
FB
330
42
100
AcDbEntity
  8
1
  6
Continuous
 62
     7
100
AcDbCircle
 10
-249.51922780995
 20
319.6318762429469
 30
0.0
 40
44.45
100
AcDbArc
 50
180.0
 51
-90.0
  0
ARC
  5
FA
330
42
100
AcDbEntity
  8
1
  6
Continuous
 62
     7
100
AcDbCircle
 10
-249.51922780995
 20
319.6318762429469
 30
0.0
 40
47.625
100
AcDbArc
 50
180.0
 51
-90.0
  0
ARC
  5
F9
330
42
100
AcDbEntity
  8
1
  6
Continuous
 62
     7
100
AcDbCircle
 10
-249.51922780995
 20
319.6318762429469
 30
0.0
 40
58.295
100
AcDbArc
 50
180.0
 51
-90.0
  0
ARC
  5
F8
330
42
100
AcDbEntity
  8
1
  6
Continuous
 62
     7
100
AcDbCircle
 10
-249.51922780995
 20
319.6318762429469
 30
0.0
 40
61.35349999999999
100
AcDbArc
 50
180.0
 51
-90.0
  0
ARC
  5
F7
330
42
100
AcDbEntity
  8
1
  6
Continuous
 62
     7
100
AcDbCircle
 10
-249.51922780995
 20
319.6318762429469
 30
0.0
 40
44.44999999999899
100
AcDbArc
 50
90.0
 51
180.0
  0
ARC
  5
F6
330
42
100
AcDbEntity
  8
1
  6
Continuous
 62
     7
100
AcDbCircle
 10
-249.51922780995
 20
319.6318762429469
 30
0.0
 40
47.625
100
AcDbArc
 50
90.0
 51
180.0
  0
ARC
  5
F5
330
42
100
AcDbEntity
  8
1
  6
Continuous
 62
     7
100
AcDbCircle
 10
-249.51922780995
 20
319.6318762429469
 30
0.0
 40
58.295
100
AcDbArc
 50
90.0
 51
180.0
  0
ARC
  5
F4
330
42
100
AcDbEntity
  8
1
  6
Continuous
 62
     7
100
AcDbCircle
 10
-249.51922780995
 20
319.6318762429469
 30
0.0
 40
61.35349999999999
100
AcDbArc
 50
90.0
 51
180.0
  0
ARC
  5
F3
330
42
100
AcDbEntity
  8
1
  6
Continuous
 62
     7
100
AcDbCircle
 10
-249.51922780995
 20
372.541876242947
 30
0.0
 40
5.953125
100
AcDbArc
 50
116.575999947215
 51
138.765601204036
  0
ARC
  5
F2
330
42
100
AcDbEntity
  8
1
  6
Continuous
 62
     7
100
AcDbCircle
 10
-249.51922780995
 20
372.541876242947
 30
0.0
 40
5.953125
100
AcDbArc
 50
-132.0750452647859
 51
-115.8829133172389
  0
ARC
  5
F1
330
42
100
AcDbEntity
  8
1
  6
Continuous
 62
     7
100
AcDbCircle
 10
-263.79417497187
 20
370.579829916519
 30
0.0
 40
5.953125
100
AcDbArc
 50
-48.46491276971501
 51
-32.272780822162
  0
ARC
  5
F0
330
42
100
AcDbEntity
  8
1
  6
Continuous
 62
     7
100
AcDbCircle
 10
-256.7238052136169
 20
267.214682838163
 30
0.0
 40
5.953124999998999
100
AcDbArc
 50
108.0568263607379
 51
124.2489583082939
  0
ARC
  5
EF
330
42
100
AcDbEntity
  8
1
  6
Continuous
 62
     7
100
AcDbCircle
 10
-256.7238052136169
 20
267.214682838163
 30
0.0
 40
5.953124999998999
100
AcDbArc
 50
40.09886777870899
 51
56.29099972626
  0
ARC
  5
EE
330
42
100
AcDbEntity
  8
1
  6
Continuous
 62
     7
100
AcDbCircle
 10
-256.7238052136169
 20
267.214682838163
 30
0.0
 40
5.953124999998999
100
AcDbArc
 50
-71.250087009286
 51
-49.06048575246199
  0
ARC
  5
ED
330
42
100
AcDbEntity
  8
1
  6
Continuous
 62
     7
100
AcDbCircle
 10
-242.314650406283
 20
267.214682838163
 30
0.0
 40
5.953125000001
100
AcDbArc
 50
-130.939514247537
 51
-108.7499129907129
  0
ARC
  5
EC
330
42
100
AcDbEntity
  8
1
  6
Continuous
 62
     7
100
AcDbCircle
 10
-242.314650406283
 20
267.214682838163
 30
0.0
 40
5.953125
100
AcDbArc
 50
123.7090002737389
 51
139.901132221291
  0
ARC
  5
EB
330
42
100
AcDbEntity
  8
1
  6
Continuous
 62
     7
100
AcDbCircle
 10
-242.314650406283
 20
267.214682838163
 30
0.0
 40
5.953124999998999
100
AcDbArc
 50
55.751041691706
 51
71.94317363926299
  0
ARC
  5
EA
330
42
100
AcDbEntity
  8
1
  6
Continuous
 62
     7
100
AcDbCircle
 10
-235.2442806480299
 20
370.579829916519
 30
0.0
 40
5.953125
100
AcDbArc
 50
-147.727219177838
 51
-131.5350872302849
  0
ARC
  5
E9
330
42
100
AcDbEntity
  8
1
  6
Continuous
 62
     7
100
AcDbCircle
 10
-249.51922780995
 20
372.541876242947
 30
0.0
 40
5.953124999998999
100
AcDbArc
 50
-64.117086682761
 51
-47.92495473521301
  0
ARC
  5
E8
330
42
100
AcDbEntity
  8
1
  6
Continuous
 62
     7
100
AcDbCircle
 10
-249.51922780995
 20
372.541876242947
 30
0.0
 40
5.953125
100
AcDbArc
 50
41.234398795963
 51
63.424000052783
  0
ARC
  5
E7
330
42
100
AcDbEntity
  8
1
  6
Continuous
 62
     7
100
AcDbCircle
 10
-249.51922780995
 20
319.6318762429469
 30
0.0
 40
61.35349999999999
100
AcDbArc
 50
0.0
 51
90.0
  0
ARC
  5
E6
330
42
100
AcDbEntity
  8
1
  6
Continuous
 62
     7
100
AcDbCircle
 10
-249.51922780995
 20
319.6318762429469
 30
0.0
 40
58.295
100
AcDbArc
 50
0.0
 51
90.0
  0
ARC
  5
E5
330
42
100
AcDbEntity
  8
1
  6
Continuous
 62
     7
100
AcDbCircle
 10
-249.51922780995
 20
319.6318762429469
 30
0.0
 40
47.625
100
AcDbArc
 50
0.0
 51
90.0
  0
ARC
  5
E4
330
42
100
AcDbEntity
  8
1
  6
Continuous
 62
     7
100
AcDbCircle
 10
-249.51922780995
 20
319.6318762429469
 30
0.0
 40
44.45
100
AcDbArc
 50
0.0
 51
90.0
  0
ARC
  5
E3
330
42
100
AcDbEntity
  8
1
  6
Continuous
 62
     7
100
AcDbCircle
 10
-249.51922780995
 20
319.6318762429469
 30
0.0
 40
61.35349999999999
100
AcDbArc
 50
-90.0
 51
0.0
  0
ARC
  5
E2
330
42
100
AcDbEntity
  8
1
  6
Continuous
 62
     7
100
AcDbCircle
 10
-249.51922780995
 20
319.6318762429469
 30
0.0
 40
58.295
100
AcDbArc
 50
-90.0
 51
0.0
  0
ARC
  5
E1
330
42
100
AcDbEntity
  8
1
  6
Continuous
 62
     7
100
AcDbCircle
 10
-249.51922780995
 20
319.6318762429469
 30
0.0
 40
47.625
100
AcDbArc
 50
-90.0
 51
0.0
  0
ARC
  5
E0
330
42
100
AcDbEntity
  8
1
  6
Continuous
 62
     7
100
AcDbCircle
 10
-249.51922780995
 20
319.6318762429469
 30
0.0
 40
44.45
100
AcDbArc
 50
-90.0
 51
0.0
  0
ARC
  5
DF
330
42
100
AcDbEntity
  8
1
  6
Continuous
 62
     7
100
AcDbCircle
 10
-235.2442806480299
 20
370.579829916519
 30
0.0
 40
5.953125
100
AcDbArc
 50
25.582224882917
 51
47.771826139735
  0
ARC
  5
DE
330
42
100
AcDbEntity
  8
1
  6
Continuous
 62
     7
100
AcDbCircle
 10
-235.2442806480299
 20
370.579829916519
 30
0.0
 40
5.953125
100
AcDbArc
 50
100.9238260341769
 51
123.1134272909979
  0
ARC
  5
DD
330
42
100
AcDbEntity
  8
1
  6
Continuous
 62
     7
100
AcDbCircle
 10
-235.2442806480299
 20
370.579829916519
 30
0.0
 40
5.953125
100
AcDbArc
 50
-79.769260595807
 51
-63.577128648264
  0
ARC
  5
DC
330
42
100
AcDbEntity
  8
1
  6
Continuous
 62
     7
100
AcDbCircle
 10
-222.0280410135719
 20
364.839206937501
 30
0.0
 40
5.953125
100
AcDbArc
 50
9.930050969871
 51
32.119652226682
  0
ARC
  5
DB
330
42
100
AcDbEntity
  8
1
  6
Continuous
 62
     7
100
AcDbCircle
 10
-222.0280410135719
 20
364.839206937501
 30
0.0
 40
5.953125
100
AcDbArc
 50
-163.3793930908819
 51
-147.187261143327
  0
ARC
  5
DA
330
42
100
AcDbEntity
  8
1
  6
Continuous
 62
     7
100
AcDbCircle
 10
-222.0280410135719
 20
364.839206937501
 30
0.0
 40
5.953124999998999
100
AcDbArc
 50
85.27165212113201
 51
107.461253377951
  0
ARC
  5
D9
330
42
100
AcDbEntity
  8
1
  6
Continuous
 62
     7
100
AcDbCircle
 10
-222.0280410135719
 20
364.839206937501
 30
0.0
 40
5.953125
100
AcDbArc
 50
-95.421434508855
 51
-79.229302561309
  0
ARC
  5
D8
330
42
100
AcDbEntity
  8
1
  6
Continuous
 62
     7
100
AcDbCircle
 10
-210.85069693999
 20
355.7457630506439
 30
0.0
 40
5.953124999998999
100
AcDbArc
 50
-5.722122943181999
 51
16.467478313642
  0
ARC
  5
D7
330
42
100
AcDbEntity
  8
1
  6
Continuous
 62
     7
100
AcDbCircle
 10
-210.85069693999
 20
355.7457630506439
 30
0.0
 40
5.953125000001
100
AcDbArc
 50
-179.031567003917
 51
-162.839435056369
  0
ARC
  5
D6
330
42
100
AcDbEntity
  8
1
  6
Continuous
 62
     7
100
AcDbCircle
 10
-210.85069693999
 20
355.7457630506439
 30
0.0
 40
5.953124999998999
100
AcDbArc
 50
69.619478208082
 51
91.809079464904
  0
ARC
  5
D5
330
42
100
AcDbEntity
  8
1
  6
Continuous
 62
     7
100
AcDbCircle
 10
-210.85069693999
 20
355.7457630506439
 30
0.0
 40
5.953125000001
100
AcDbArc
 50
-111.073608421892
 51
-94.88147647435999
  0
ARC
  5
D4
330
42
100
AcDbEntity
  8
1
  6
Continuous
 62
     7
100
AcDbCircle
 10
-202.541220904276
 20
343.973917389298
 30
0.0
 40
5.953125
100
AcDbArc
 50
-21.37429685622199
 51
0.815304400596
  0
ARC
  5
D3
330
42
100
AcDbEntity
  8
1
  6
Continuous
 62
     7
100
AcDbCircle
 10
-202.541220904276
 20
343.973917389298
 30
0.0
 40
5.953125
100
AcDbArc
 50
165.31625908303
 51
-178.491608969411
  0
ARC
  5
D2
330
42
100
AcDbEntity
  8
1
  6
Continuous
 62
     7
100
AcDbCircle
 10
-202.541220904276
 20
343.973917389298
 30
0.0
 40
5.953124999998999
100
AcDbArc
 50
53.96730429503899
 51
76.15690555185999
  0
ARC
  5
D1
330
42
100
AcDbEntity
  8
1
  6
Continuous
 62
     7
100
AcDbCircle
 10
-202.541220904276
 20
343.973917389298
 30
0.0
 40
5.953125000001
100
AcDbArc
 50
-126.725782334944
 51
-110.533650387399
  0
ARC
  5
D0
330
42
100
AcDbEntity
  8
1
  6
Continuous
 62
     7
100
AcDbCircle
 10
-197.715888730675
 20
330.3967338935559
 30
0.0
 40
5.953125
100
AcDbArc
 50
149.6640851699899
 51
165.8562171175499
  0
ARC
  5
CF
330
42
100
AcDbEntity
  8
1
  6
Continuous
 62
     7
100
AcDbCircle
 10
-197.715888730675
 20
330.3967338935559
 30
0.0
 40
5.953125000001
100
AcDbArc
 50
-142.3779562479809
 51
-126.185824300442
  0
ARC
  5
CE
330
42
100
AcDbEntity
  8
1
  6
Continuous
 62
     7
100
AcDbCircle
 10
-197.715888730675
 20
330.3967338935559
 30
0.0
 40
5.953125000001
100
AcDbArc
 50
-37.026470769279
 51
-14.836869512455
  0
ARC
  5
CD
330
42
100
AcDbEntity
  8
1
  6
Continuous
 62
     7
100
AcDbCircle
 10
-197.715888730675
 20
330.3967338935559
 30
0.0
 40
5.953124999998999
100
AcDbArc
 50
38.31513038199199
 51
60.504731638805
  0
ARC
  5
CC
330
42
100
AcDbEntity
  8
1
  6
Continuous
 62
     7
100
AcDbCircle
 10
-196.732573232077
 20
316.0211701518139
 30
0.0
 40
5.953125
100
AcDbArc
 50
134.011911256942
 51
150.204043204492
  0
ARC
  5
CB
330
42
100
AcDbEntity
  8
1
  6
Continuous
 62
     7
100
AcDbCircle
 10
-196.732573232077
 20
316.0211701518139
 30
0.0
 40
5.953125
100
AcDbArc
 50
-158.030130161024
 51
-141.8379982134869
  0
ARC
  5
CA
330
42
100
AcDbEntity
  8
1
  6
Continuous
 62
     7
100
AcDbCircle
 10
-196.732573232077
 20
316.0211701518139
 30
0.0
 40
5.953124999998999
100
AcDbArc
 50
-52.67864468231699
 51
-30.489043425495
  0
ARC
  5
C9
330
42
100
AcDbEntity
  8
1
  6
Continuous
 62
     7
100
AcDbCircle
 10
-196.732573232077
 20
316.0211701518139
 30
0.0
 40
5.953124999998999
100
AcDbArc
 50
22.66295646895
 51
44.85255772576899
  0
ARC
  5
C8
330
42
100
AcDbEntity
  8
1
  6
Continuous
 62
     7
100
AcDbCircle
 10
-199.6642024206449
 20
301.9133959629709
 30
0.0
 40
5.953124999998999
100
AcDbArc
 50
118.359737343894
 51
134.551869291447
  0
ARC
  5
C7
330
42
100
AcDbEntity
  8
1
  6
Continuous
 62
     7
100
AcDbCircle
 10
-199.6642024206449
 20
301.9133959629709
 30
0.0
 40
5.953125
100
AcDbArc
 50
-173.6823040740679
 51
-157.490172126535
  0
ARC
  5
C6
330
42
100
AcDbEntity
  8
1
  6
Continuous
 62
     7
100
AcDbCircle
 10
-199.6642024206449
 20
301.9133959629709
 30
0.0
 40
5.953125
100
AcDbArc
 50
-68.33081859536299
 51
-46.141217338535
  0
ARC
  5
C5
330
42
100
AcDbEntity
  8
1
  6
Continuous
 62
     7
100
AcDbCircle
 10
-199.6642024206449
 20
301.9133959629709
 30
0.0
 40
5.953124999998999
100
AcDbArc
 50
7.010782555894
 51
29.200383812719
  0
ARC
  5
C4
330
42
100
AcDbEntity
  8
1
  6
Continuous
 62
     7
100
AcDbCircle
 10
-206.293350770773
 20
289.11972039984
 30
0.0
 40
5.953124999998999
100
AcDbArc
 50
102.707563430848
 51
118.899695378404
  0
ARC
  5
C3
330
42
100
AcDbEntity
  8
1
  6
Continuous
 62
     7
100
AcDbCircle
 10
-206.293350770773
 20
289.11972039984
 30
0.0
 40
5.953125
100
AcDbArc
 50
170.665522012882
 51
-173.142346039574
  0
ARC
  5
C2
330
42
100
AcDbEntity
  8
1
  6
Continuous
 62
     7
100
AcDbCircle
 10
-206.293350770773
 20
289.11972039984
 30
0.0
 40
5.953125000001
100
AcDbArc
 50
-83.982992508405
 51
-61.79339125157601
  0
ARC
  5
C1
330
42
100
AcDbEntity
  8
1
  6
Continuous
 62
     7
100
AcDbCircle
 10
-206.293350770773
 20
289.11972039984
 30
0.0
 40
5.953124999998999
100
AcDbArc
 50
-8.64139135715
 51
13.54820989967
  0
ARC
  5
C0
330
42
100
AcDbEntity
  8
1
  6
Continuous
 62
     7
100
AcDbCircle
 10
-216.128364675667
 20
278.588991851768
 30
0.0
 40
5.953124999998999
100
AcDbArc
 50
87.055389517809
 51
103.247521465365
  0
ARC
  5
BF
330
42
100
AcDbEntity
  8
1
  6
Continuous
 62
     7
100
AcDbCircle
 10
-216.128364675667
 20
278.588991851768
 30
0.0
 40
5.953125000001
100
AcDbArc
 50
155.0133480998369
 51
171.2054800473839
  0
ARC
  5
BE
330
42
100
AcDbEntity
  8
1
  6
Continuous
 62
     7
100
AcDbCircle
 10
-216.128364675667
 20
278.588991851768
 30
0.0
 40
5.953125
100
AcDbArc
 50
-99.63516642145201
 51
-77.44556516463401
  0
ARC
  5
BD
330
42
100
AcDbEntity
  8
1
  6
Continuous
 62
     7
100
AcDbCircle
 10
-216.128364675667
 20
278.588991851768
 30
0.0
 40
5.953124999998999
100
AcDbArc
 50
-24.29356527019999
 51
-2.103964013369
  0
ARC
  5
BC
330
42
100
AcDbEntity
  8
1
  6
Continuous
 62
     7
100
AcDbCircle
 10
-228.4398261461979
 20
271.102226280288
 30
0.0
 40
5.953124999998999
100
AcDbArc
 50
71.40321560474901
 51
87.595347552309
  0
ARC
  5
BB
330
42
100
AcDbEntity
  8
1
  6
Continuous
 62
     7
100
AcDbCircle
 10
-228.4398261461979
 20
271.102226280288
 30
0.0
 40
5.953125
100
AcDbArc
 50
139.3611741867869
 51
155.55330613433
  0
ARC
  5
BA
330
42
100
AcDbEntity
  8
1
  6
Continuous
 62
     7
100
AcDbCircle
 10
-228.4398261461979
 20
271.102226280288
 30
0.0
 40
5.953125000001
100
AcDbArc
 50
-115.287340334491
 51
-93.09773907766599
  0
ARC
  5
B9
330
42
100
AcDbEntity
  8
1
  6
Continuous
 62
     7
100
AcDbCircle
 10
-228.4398261461979
 20
271.102226280288
 30
0.0
 40
5.953125
100
AcDbArc
 50
-39.945739183242
 51
-17.756137926418
  0
ARC
  5
B8
330
42
100
AcDbEntity
  8
1
  6
Continuous
 62
     7
100
AcDbCircle
 10
-242.314650406283
 20
267.214682838163
 30
0.0
 40
5.953125
100
AcDbArc
 50
-55.597913096286
 51
-33.408311839462
  0
INSERT
  5
44
330
42
100
AcDbEntity
  8
0
100
AcDbBlockReference
  2
RETAINER__6
 10
0.0
 20
0.0
 30
0.0
  0
ENDBLK
  5
124
330
42
100
AcDbEntity
  8
0
100
AcDbBlockEnd
  0
BLOCK
  5
46
330
45
100
AcDbEntity
  8
0
100
AcDbBlockBegin
  2
RETAINER__7
 70
     0
 10
0.0
 20
0.0
 30
0.0
  3
RETAINER__7
  1

  0
HATCH
  5
12E
330
45
100
AcDbEntity
  8
0
  6
Continuous
 62
     5
100
AcDbHatch
 10
0.0
 20
0.0
 30
0.0
210
0.0
220
0.0
230
1.0
  2
USER
 70
     0
 71
     1
 91
        1
 92
        1
 93
        4
 72
     1
 10
-403.2932123207741
 20
262.7668762429448
 11
-406.693212320774
 21
262.7668762429448
 72
     1
 10
-406.693212320774
 20
262.7668762429448
 11
-406.693212320774
 21
270.7418762429468
 72
     1
 10
-403.2932123207741
 20
270.7418762429468
 11
-406.693212320774
 21
270.7418762429468
 72
     1
 10
-403.2932123207741
 20
270.7418762429468
 11
-403.2932123207741
 21
262.7668762429448
 97
        4
330
12C
330
129
330
12A
330
12B
 75
     1
 76
     0
 52
45.0
 41
2.5
 77
     0
 78
     1
 53
45.0
 43
0.0
 44
0.0
 45
-1.767766952966368
 46
1.767766952966368
 79
     0
 98
        1
 10
0.0
 20
0.0
  0
HATCH
  5
12D
330
45
100
AcDbEntity
  8
0
  6
Continuous
 62
     5
100
AcDbHatch
 10
0.0
 20
0.0
 30
0.0
210
0.0
220
0.0
230
1.0
  2
USER
 70
     0
 71
     1
 91
        1
 92
        1
 93
        4
 72
     1
 10
-406.693212320774
 20
376.4968762429477
 11
-403.2932123207741
 21
376.4968762429477
 72
     1
 10
-406.693212320774
 20
368.5218762429457
 11
-406.693212320774
 21
376.4968762429477
 72
     1
 10
-406.693212320774
 20
368.5218762429457
 11
-403.2932123207741
 21
368.5218762429457
 72
     1
 10
-403.2932123207741
 20
376.4968762429477
 11
-403.2932123207741
 21
368.5218762429457
 97
        4
330
128
330
125
330
126
330
127
 75
     1
 76
     0
 52
45.0
 41
2.5
 77
     0
 78
     1
 53
45.0
 43
0.0
 44
0.0
 45
-1.767766952966368
 46
1.767766952966368
 79
     0
 98
        1
 10
0.0
 20
0.0
  0
LINE
  5
12C
330
45
100
AcDbEntity
  8
1
  6
Continuous
 62
     7
100
AcDbLine
 10
-403.2932123207739
 20
262.766876242945
 30
0.0
 11
-406.693212320774
 21
262.766876242945
 31
0.0
  0
LINE
  5
12B
330
45
100
AcDbEntity
  8
1
  6
Continuous
 62
     7
100
AcDbLine
 10
-403.2932123207739
 20
270.7418762429469
 30
0.0
 11
-403.2932123207739
 21
262.766876242945
 31
0.0
  0
LINE
  5
12A
330
45
100
AcDbEntity
  8
1
  6
Continuous
 62
     7
100
AcDbLine
 10
-403.2932123207739
 20
270.7418762429469
 30
0.0
 11
-406.693212320774
 21
270.7418762429469
 31
0.0
  0
LINE
  5
129
330
45
100
AcDbEntity
  8
1
  6
Continuous
 62
     7
100
AcDbLine
 10
-406.693212320774
 20
262.766876242945
 30
0.0
 11
-406.693212320774
 21
270.7418762429469
 31
0.0
  0
LINE
  5
128
330
45
100
AcDbEntity
  8
1
  6
Continuous
 62
     7
100
AcDbLine
 10
-406.693212320774
 20
376.496876242948
 30
0.0
 11
-403.2932123207739
 21
376.496876242948
 31
0.0
  0
LINE
  5
127
330
45
100
AcDbEntity
  8
1
  6
Continuous
 62
     7
100
AcDbLine
 10
-403.2932123207739
 20
376.496876242948
 30
0.0
 11
-403.2932123207739
 21
368.521876242946
 31
0.0
  0
LINE
  5
126
330
45
100
AcDbEntity
  8
1
  6
Continuous
 62
     7
100
AcDbLine
 10
-406.693212320774
 20
368.521876242946
 30
0.0
 11
-403.2932123207739
 21
368.521876242946
 31
0.0
  0
LINE
  5
125
330
45
100
AcDbEntity
  8
1
  6
Continuous
 62
     7
100
AcDbLine
 10
-406.693212320774
 20
368.521876242946
 30
0.0
 11
-406.693212320774
 21
376.496876242948
 31
0.0
  0
ENDBLK
  5
12F
330
45
100
AcDbEntity
  8
0
100
AcDbBlockEnd
  0
BLOCK
  5
48
330
47
100
AcDbEntity
  8
0
100
AcDbBlockBegin
  2
RETAINER__8
 70
     0
 10
0.0
 20
0.0
 30
0.0
  3
RETAINER__8
  1

  0
HATCH
  5
143
330
47
100
AcDbEntity
  8
0
  6
Continuous
 62
     5
100
AcDbHatch
 10
0.0
 20
0.0
 30
0.0
210
0.0
220
0.0
230
1.0
  2
USER
 70
     0
 71
     1
 91
        1
 92
        1
 93
        5
 72
     1
 10
-390.8629016306199
 20
262.7668762429448
 11
-388.4447896469101
 21
262.7668762429448
 72
     1
 10
-390.8629016306199
 20
270.7418762429468
 11
-390.8629016306199
 21
262.7668762429448
 72
     1
 10
-388.0629016306199
 20
270.7418762429468
 11
-390.8629016306199
 21
270.7418762429468
 72
     1
 10
-388.0629016306199
 20
267.1318762429468
 11
-388.0629016306199
 21
270.7418762429468
 72
     1
 10
-388.4447896469101
 20
262.7668762429448
 11
-388.0629016306199
 21
267.1318762429468
 97
        5
330
13B
330
13F
330
13E
330
13D
330
13C
 75
     1
 76
     0
 52
45.0
 41
2.5
 77
     0
 78
     1
 53
45.0
 43
0.0
 44
0.0
 45
-1.767766952966368
 46
1.767766952966368
 79
     0
 98
        1
 10
0.0
 20
0.0
  0
HATCH
  5
142
330
47
100
AcDbEntity
  8
0
  6
Continuous
 62
     5
100
AcDbHatch
 10
0.0
 20
0.0
 30
0.0
210
0.0
220
0.0
230
1.0
  2
USER
 70
     0
 71
     1
 91
        1
 92
        1
 93
        5
 72
     1
 10
-388.4447896469101
 20
376.4968762429477
 11
-390.8629016306199
 21
376.4968762429477
 72
     1
 10
-390.8629016306199
 20
376.4968762429477
 11
-390.8629016306199
 21
368.5218762429457
 72
     1
 10
-390.8629016306199
 20
368.5218762429457
 11
-388.0629016306199
 21
368.5218762429457
 72
     1
 10
-388.0629016306199
 20
368.5218762429457
 11
-388.0629016306199
 21
372.1318762429469
 72
     1
 10
-388.0629016306199
 20
372.1318762429469
 11
-388.4447896469101
 21
376.4968762429477
 97
        5
330
130
330
134
330
133
330
132
330
131
 75
     1
 76
     0
 52
45.0
 41
2.5
 77
     0
 78
     1
 53
45.0
 43
0.0
 44
0.0
 45
-1.767766952966368
 46
1.767766952966368
 79
     0
 98
        1
 10
0.0
 20
0.0
  0
LINE
  5
141
330
47
100
AcDbEntity
  8
1
  6
Continuous
 62
     7
100
AcDbLine
 10
-390.86290163062
 20
270.7418762429469
 30
0.0
 11
-392.949267663167
 21
270.7418762429469
 31
0.0
  0
LINE
  5
140
330
47
100
AcDbEntity
  8
1
  6
Continuous
 62
     7
100
AcDbLine
 10
-390.86290163062
 20
262.766876242945
 30
0.0
 11
-392.8906297959049
 21
262.766876242945
 31
0.0
  0
LINE
  5
13F
330
47
100
AcDbEntity
  8
1
  6
Continuous
 62
     7
100
AcDbLine
 10
-390.86290163062
 20
270.7418762429469
 30
0.0
 11
-390.86290163062
 21
262.766876242945
 31
0.0
  0
LINE
  5
13E
330
47
100
AcDbEntity
  8
1
  6
Continuous
 62
     7
100
AcDbLine
 10
-388.06290163062
 20
270.7418762429469
 30
0.0
 11
-390.86290163062
 21
270.7418762429469
 31
0.0
  0
LINE
  5
13D
330
47
100
AcDbEntity
  8
1
  6
Continuous
 62
     7
100
AcDbLine
 10
-388.06290163062
 20
267.131876242947
 30
0.0
 11
-388.06290163062
 21
270.7418762429469
 31
0.0
  0
LINE
  5
13C
330
47
100
AcDbEntity
  8
1
  6
Continuous
 62
     7
100
AcDbLine
 10
-388.4447896469099
 20
262.766876242945
 30
0.0
 11
-388.06290163062
 21
267.131876242947
 31
0.0
  0
LINE
  5
13B
330
47
100
AcDbEntity
  8
1
  6
Continuous
 62
     7
100
AcDbLine
 10
-390.86290163062
 20
262.766876242945
 30
0.0
 11
-388.4447896469099
 21
262.766876242945
 31
0.0
  0
LINE
  5
13A
330
47
100
AcDbEntity
  8
1
  6
Continuous
 62
     7
100
AcDbLine
 10
-401.789544845644
 20
262.766876242945
 30
0.0
 11
-403.293212320775
 21
262.766876242945
 31
0.0
  0
LINE
  5
139
330
47
100
AcDbEntity
  8
1
  6
Continuous
 62
     7
100
AcDbLine
 10
-401.7309069783809
 20
270.7418762429469
 30
0.0
 11
-403.2932123207739
 21
270.7418762429469
 31
0.0
  0
LINE
  5
138
330
47
100
AcDbEntity
  8
1
  6
Continuous
 62
     7
100
AcDbLine
 10
-392.949267663167
 20
368.521876242946
 30
0.0
 11
-390.86290163062
 21
368.521876242946
 31
0.0
  0
LINE
  5
137
330
47
100
AcDbEntity
  8
1
  6
Continuous
 62
     7
100
AcDbLine
 10
-392.8906297959049
 20
376.496876242948
 30
0.0
 11
-390.86290163062
 21
376.496876242948
 31
0.0
  0
LINE
  5
136
330
47
100
AcDbEntity
  8
1
  6
Continuous
 62
     7
100
AcDbLine
 10
-403.2932123207739
 20
376.496876242948
 30
0.0
 11
-401.789544845644
 21
376.496876242948
 31
0.0
  0
LINE
  5
135
330
47
100
AcDbEntity
  8
1
  6
Continuous
 62
     7
100
AcDbLine
 10
-403.2932123207729
 20
368.521876242946
 30
0.0
 11
-401.7309069783809
 21
368.521876242946
 31
0.0
  0
LINE
  5
134
330
47
100
AcDbEntity
  8
1
  6
Continuous
 62
     7
100
AcDbLine
 10
-390.86290163062
 20
376.496876242948
 30
0.0
 11
-390.86290163062
 21
368.521876242946
 31
0.0
  0
LINE
  5
133
330
47
100
AcDbEntity
  8
1
  6
Continuous
 62
     7
100
AcDbLine
 10
-390.86290163062
 20
368.521876242946
 30
0.0
 11
-388.06290163062
 21
368.521876242946
 31
0.0
  0
LINE
  5
132
330
47
100
AcDbEntity
  8
1
  6
Continuous
 62
     7
100
AcDbLine
 10
-388.06290163062
 20
368.521876242946
 30
0.0
 11
-388.06290163062
 21
372.1318762429469
 31
0.0
  0
LINE
  5
131
330
47
100
AcDbEntity
  8
1
  6
Continuous
 62
     7
100
AcDbLine
 10
-388.06290163062
 20
372.1318762429469
 30
0.0
 11
-388.4447896469099
 21
376.496876242948
 31
0.0
  0
LINE
  5
130
330
47
100
AcDbEntity
  8
1
  6
Continuous
 62
     7
100
AcDbLine
 10
-388.4447896469099
 20
376.496876242948
 30
0.0
 11
-390.86290163062
 21
376.496876242948
 31
0.0
  0
ENDBLK
  5
144
330
47
100
AcDbEntity
  8
0
100
AcDbBlockEnd
  0
BLOCK
  5
4A
330
49
100
AcDbEntity
  8
0
100
AcDbBlockBegin
  2
WBG_050_F
 70
     0
 10
0.0
 20
0.0
 30
0.0
  3
WBG_050_F
  1

  0
CIRCLE
  5
16A
330
49
100
AcDbEntity
  8
1
  6
Continuous
 62
     7
100
AcDbCircle
 10
-397.340087320774
 20
372.6318762429469
 30
0.0
 40
5.7
  0
CIRCLE
  5
169
330
49
100
AcDbEntity
  8
1
  6
Continuous
 62
     7
100
AcDbCircle
 10
-397.340087320774
 20
266.6318762429469
 30
0.0
 40
5.7
  0
LINE
  5
168
330
49
100
AcDbEntity
  8
1
  6
Continuous
 62
     7
100
AcDbLine
 10
-391.690087320774
 20
258.32537624617
 30
0.0
 11
-402.990087320774
 21
258.32537624617
 31
0.0
  0
LINE
  5
167
330
49
100
AcDbEntity
  8
1
  6
Continuous
 62
     7
100
AcDbLine
 10
-403.690087320774
 20
261.08387624617
 30
0.0
 11
-403.690087320774
 21
258.7295214346029
 31
0.0
  0
LINE
  5
166
330
49
100
AcDbEntity
  8
1
  6
Continuous
 62
     7
100
AcDbLine
 10
-390.990087320774
 20
261.08387624617
 30
0.0
 11
-390.990087320774
 21
258.7295214346029
 31
0.0
  0
LINE
  5
165
330
49
100
AcDbEntity
  8
1
  6
Continuous
 62
     7
100
AcDbLine
 10
-403.690087320774
 20
258.7295214346029
 30
0.0
 11
-402.990087320774
 21
258.32537624617
 31
0.0
  0
LINE
  5
164
330
49
100
AcDbEntity
  8
1
  6
Continuous
 62
     7
100
AcDbLine
 10
-390.990087320774
 20
258.7295214346029
 30
0.0
 11
-391.690087320774
 21
258.32537624617
 31
0.0
  0
LINE
  5
163
330
49
100
AcDbEntity
  8
1
  6
Continuous
 62
     7
100
AcDbLine
 10
-403.390087320773
 20
261.38387624617
 30
0.0
 11
-403.690087320774
 21
261.08387624617
 31
0.0
  0
LINE
  5
162
330
49
100
AcDbEntity
  8
1
  6
Continuous
 62
     7
100
AcDbLine
 10
-399.5646088499639
 20
261.38387624617
 30
0.0
 11
-403.390087320773
 21
261.38387624617
 31
0.0
  0
LINE
  5
161
330
49
100
AcDbEntity
  8
1
  6
Continuous
 62
     7
100
AcDbLine
 10
-390.990087320774
 20
261.08387624617
 30
0.0
 11
-391.2900873207739
 21
261.38387624617
 31
0.0
  0
LINE
  5
160
330
49
100
AcDbEntity
  8
1
  6
Continuous
 62
     7
100
AcDbLine
 10
-395.115565791584
 20
261.38387624617
 30
0.0
 11
-391.2900873207739
 21
261.38387624617
 31
0.0
  0
LINE
  5
15F
330
49
100
AcDbEntity
  8
1
  6
Continuous
 62
     7
100
AcDbLine
 10
-390.990087320774
 20
272.706876242947
 30
0.0
 11
-391.7900873207739
 21
271.906876242948
 31
0.0
  0
LINE
  5
15E
330
49
100
AcDbEntity
  8
1
  6
Continuous
 62
     7
100
AcDbLine
 10
-395.1803709042069
 20
271.906876242948
 30
0.0
 11
-391.7900873207739
 21
271.906876242948
 31
0.0
  0
LINE
  5
15D
330
49
100
AcDbEntity
  8
1
  6
Continuous
 62
     7
100
AcDbLine
 10
-391.7900873207739
 20
275.181876242946
 30
0.0
 11
-390.990087320774
 21
274.3818762429469
 31
0.0
  0
LINE
  5
15C
330
49
100
AcDbEntity
  8
1
  6
Continuous
 62
     7
100
AcDbLine
 10
-390.990087320774
 20
272.706876242947
 30
0.0
 11
-390.990087320774
 21
274.3818762429469
 31
0.0
  0
LINE
  5
15B
330
49
100
AcDbEntity
  8
1
  6
Continuous
 62
     7
100
AcDbLine
 10
-403.690087320774
 20
274.3818762429469
 30
0.0
 11
-402.890087320773
 21
275.181876242946
 31
0.0
  0
LINE
  5
15A
330
49
100
AcDbEntity
  8
1
  6
Continuous
 62
     7
100
AcDbLine
 10
-391.7900873207739
 20
275.181876242946
 30
0.0
 11
-402.890087320773
 21
275.181876242946
 31
0.0
  0
LINE
  5
159
330
49
100
AcDbEntity
  8
1
  6
Continuous
 62
     7
100
AcDbLine
 10
-402.890087320773
 20
271.906876242948
 30
0.0
 11
-403.690087320774
 21
272.706876242947
 31
0.0
  0
LINE
  5
158
330
49
100
AcDbEntity
  8
1
  6
Continuous
 62
     7
100
AcDbLine
 10
-399.4998037373409
 20
271.906876242948
 30
0.0
 11
-402.890087320773
 21
271.906876242948
 31
0.0
  0
LINE
  5
157
330
49
100
AcDbEntity
  8
1
  6
Continuous
 62
     7
100
AcDbLine
 10
-403.690087320774
 20
274.3818762429469
 30
0.0
 11
-403.690087320774
 21
272.706876242947
 31
0.0
  0
LINE
  5
156
330
49
100
AcDbEntity
  8
1
  6
Continuous
 62
     7
100
AcDbLine
 10
-403.690087320774
 20
366.556876242947
 30
0.0
 11
-403.690087320774
 21
364.881876242947
 31
0.0
  0
LINE
  5
155
330
49
100
AcDbEntity
  8
1
  6
Continuous
 62
     7
100
AcDbLine
 10
-402.890087320773
 20
367.3568762429459
 30
0.0
 11
-399.4998037373409
 21
367.3568762429459
 31
0.0
  0
LINE
  5
154
330
49
100
AcDbEntity
  8
1
  6
Continuous
 62
     7
100
AcDbLine
 10
-403.690087320774
 20
366.556876242947
 30
0.0
 11
-402.890087320773
 21
367.3568762429459
 31
0.0
  0
LINE
  5
153
330
49
100
AcDbEntity
  8
1
  6
Continuous
 62
     7
100
AcDbLine
 10
-402.890087320773
 20
364.0818762429479
 30
0.0
 11
-391.7900873207739
 21
364.0818762429479
 31
0.0
  0
LINE
  5
152
330
49
100
AcDbEntity
  8
1
  6
Continuous
 62
     7
100
AcDbLine
 10
-402.890087320773
 20
364.0818762429479
 30
0.0
 11
-403.690087320774
 21
364.881876242947
 31
0.0
  0
LINE
  5
151
330
49
100
AcDbEntity
  8
1
  6
Continuous
 62
     7
100
AcDbLine
 10
-390.990087320774
 20
364.881876242947
 30
0.0
 11
-390.990087320774
 21
366.556876242947
 31
0.0
  0
LINE
  5
150
330
49
100
AcDbEntity
  8
1
  6
Continuous
 62
     7
100
AcDbLine
 10
-390.990087320774
 20
364.881876242947
 30
0.0
 11
-391.7900873207739
 21
364.0818762429479
 31
0.0
  0
LINE
  5
14F
330
49
100
AcDbEntity
  8
1
  6
Continuous
 62
     7
100
AcDbLine
 10
-391.7900873207739
 20
367.3568762429459
 30
0.0
 11
-395.1803709042069
 21
367.3568762429459
 31
0.0
  0
LINE
  5
14E
330
49
100
AcDbEntity
  8
1
  6
Continuous
 62
     7
100
AcDbLine
 10
-391.7900873207739
 20
367.3568762429459
 30
0.0
 11
-390.990087320774
 21
366.556876242947
 31
0.0
  0
LINE
  5
14D
330
49
100
AcDbEntity
  8
1
  6
Continuous
 62
     7
100
AcDbLine
 10
-391.2900873207739
 20
377.8798762397239
 30
0.0
 11
-395.115565791584
 21
377.8798762397239
 31
0.0
  0
LINE
  5
14C
330
49
100
AcDbEntity
  8
1
  6
Continuous
 62
     7
100
AcDbLine
 10
-391.2900873207739
 20
377.8798762397239
 30
0.0
 11
-390.990087320774
 21
378.1798762397239
 31
0.0
  0
LINE
  5
14B
330
49
100
AcDbEntity
  8
1
  6
Continuous
 62
     7
100
AcDbLine
 10
-403.390087320773
 20
377.8798762397239
 30
0.0
 11
-399.5646088499639
 21
377.8798762397239
 31
0.0
  0
LINE
  5
14A
330
49
100
AcDbEntity
  8
1
  6
Continuous
 62
     7
100
AcDbLine
 10
-403.690087320774
 20
378.1798762397239
 30
0.0
 11
-403.390087320773
 21
377.8798762397239
 31
0.0
  0
LINE
  5
149
330
49
100
AcDbEntity
  8
1
  6
Continuous
 62
     7
100
AcDbLine
 10
-391.690087320774
 20
380.9383762397239
 30
0.0
 11
-390.990087320774
 21
380.534231051291
 31
0.0
  0
LINE
  5
148
330
49
100
AcDbEntity
  8
1
  6
Continuous
 62
     7
100
AcDbLine
 10
-402.990087320774
 20
380.9383762397239
 30
0.0
 11
-403.690087320774
 21
380.534231051291
 31
0.0
  0
LINE
  5
147
330
49
100
AcDbEntity
  8
1
  6
Continuous
 62
     7
100
AcDbLine
 10
-390.990087320774
 20
380.534231051291
 30
0.0
 11
-390.990087320774
 21
378.1798762397239
 31
0.0
  0
LINE
  5
146
330
49
100
AcDbEntity
  8
1
  6
Continuous
 62
     7
100
AcDbLine
 10
-403.690087320774
 20
380.534231051291
 30
0.0
 11
-403.690087320774
 21
378.1798762397239
 31
0.0
  0
LINE
  5
145
330
49
100
AcDbEntity
  8
1
  6
Continuous
 62
     7
100
AcDbLine
 10
-402.990087320774
 20
380.9383762397239
 30
0.0
 11
-391.690087320774
 21
380.9383762397239
 31
0.0
  0
INSERT
  5
4B
330
49
100
AcDbEntity
  8
0
100
AcDbBlockReference
  2
RETAINER__7
 10
0.0
 20
0.0
 30
0.0
  0
INSERT
  5
4C
330
49
100
AcDbEntity
  8
0
100
AcDbBlockReference
  2
RETAINER__8
 10
0.0
 20
0.0
 30
0.0
  0
ENDBLK
  5
16B
330
49
100
AcDbEntity
  8
0
100
AcDbBlockEnd
  0
BLOCK
  5
4E
330
4D
100
AcDbEntity
  8
0
100
AcDbBlockBegin
  2
HEX_BOLT_SIDE__9
 70
     0
 10
0.0
 20
0.0
 30
0.0
  3
HEX_BOLT_SIDE__9
  1

  0
ARC
  5
17F
330
4D
100
AcDbEntity
  8
1
  6
Continuous
 62
     7
100
AcDbCircle
 10
-398.7900873207739
 20
248.331877520281
 30
0.0
 40
0.2
100
AcDbArc
 50
-90.0
 51
0.0
  0
ARC
  5
17E
330
4D
100
AcDbEntity
  8
1
  6
Continuous
 62
     7
100
AcDbCircle
 10
-398.7900873207739
 20
243.931877520281
 30
0.0
 40
0.2
100
AcDbArc
 50
0.0
 51
90.0
  0
LINE
  5
17D
330
4D
100
AcDbEntity
  8
1
  6
Continuous
 62
     7
100
AcDbLine
 10
-394.8900873207739
 20
242.631877520281
 30
0.0
 11
-394.8900873207739
 21
249.6318775202809
 31
0.0
  0
LINE
  5
17C
330
4D
100
AcDbEntity
  8
1
  6
Continuous
 62
     7
100
AcDbLine
 10
-427.990087320774
 20
248.1318775202809
 30
0.0
 11
-427.990087320774
 21
244.1318775202809
 31
0.0
  0
LINE
  5
17B
330
4D
100
AcDbEntity
  8
1
  6
Continuous
 62
     7
100
AcDbLine
 10
-408.5900873207739
 20
244.1318775202809
 30
0.0
 11
-408.5900873207739
 21
248.1318775202809
 31
0.0
  0
LINE
  5
17A
330
4D
100
AcDbEntity
  8
1
  6
Continuous
 62
     7
100
AcDbLine
 10
-427.990087320774
 20
244.1318775202809
 30
0.0
 11
-398.7900873207739
 21
244.1318775202809
 31
0.0
  0
LINE
  5
179
330
4D
100
AcDbEntity
  8
1
  6
Continuous
 62
     7
100
AcDbLine
 10
-428.5900873207739
 20
244.731877520281
 30
0.0
 11
-427.990087320774
 21
244.1318775202809
 31
0.0
  0
LINE
  5
178
330
4D
100
AcDbEntity
  8
1
  6
Continuous
 62
     7
100
AcDbLine
 10
-428.5900873207739
 20
247.531877520281
 30
0.0
 11
-428.5900873207739
 21
244.731877520281
 31
0.0
  0
LINE
  5
177
330
4D
100
AcDbEntity
  8
1
  6
Continuous
 62
     7
100
AcDbLine
 10
-427.990087320774
 20
248.1318775202809
 30
0.0
 11
-428.5900873207739
 21
247.531877520281
 31
0.0
  0
LINE
  5
176
330
4D
100
AcDbEntity
  8
1
  6
Continuous
 62
     7
100
AcDbLine
 10
-398.7900873207739
 20
248.1318775202809
 30
0.0
 11
-427.990087320774
 21
248.1318775202809
 31
0.0
  0
LINE
  5
175
330
4D
100
AcDbEntity
  8
1
  6
Continuous
 62
     7
100
AcDbLine
 10
-394.8900873207739
 20
249.6318775202809
 30
0.0
 11
-398.5900873207739
 21
249.6318775202809
 31
0.0
  0
LINE
  5
174
330
4D
100
AcDbEntity
  8
1
  6
Continuous
 62
     7
100
AcDbLine
 10
-394.5900873207739
 20
249.3318775202809
 30
0.0
 11
-394.8900873207739
 21
249.6318775202809
 31
0.0
  0
LINE
  5
173
330
4D
100
AcDbEntity
  8
1
  6
Continuous
 62
     7
100
AcDbLine
 10
-394.5900873207739
 20
242.9318775202809
 30
0.0
 11
-394.5900873207739
 21
249.3318775202809
 31
0.0
  0
LINE
  5
172
330
4D
100
AcDbEntity
  8
1
  6
Continuous
 62
     7
100
AcDbLine
 10
-394.8900873207739
 20
242.631877520281
 30
0.0
 11
-394.5900873207739
 21
242.9318775202809
 31
0.0
  0
LINE
  5
171
330
4D
100
AcDbEntity
  8
1
  6
Continuous
 62
     7
100
AcDbLine
 10
-398.5900873207739
 20
242.631877520281
 30
0.0
 11
-394.8900873207739
 21
242.631877520281
 31
0.0
  0
LINE
  5
170
330
4D
100
AcDbEntity
  8
1
  6
Continuous
 62
     7
100
AcDbLine
 10
-398.5900873207739
 20
249.6318775202809
 30
0.0
 11
-398.5900873207739
 21
242.631877520281
 31
0.0
  0
LINE
  5
16F
330
4D
100
AcDbEntity
  8
1
  6
Continuous
 62
     3
100
AcDbLine
 10
-408.5900873207739
 20
247.531877520281
 30
0.0
 11
-407.5508568362329
 21
248.1318775202809
 31
0.0
  0
LINE
  5
16E
330
4D
100
AcDbEntity
  8
1
  6
Continuous
 62
     3
100
AcDbLine
 10
-408.5900873207739
 20
244.731877520281
 30
0.0
 11
-407.5508568362329
 21
244.1318775202809
 31
0.0
  0
LINE
  5
16D
330
4D
100
AcDbEntity
  8
1
  6
Continuous
 62
     3
100
AcDbLine
 10
-408.5900873207739
 20
247.531877520281
 30
0.0
 11
-428.5900873207739
 21
247.531877520281
 31
0.0
  0
LINE
  5
16C
330
4D
100
AcDbEntity
  8
1
  6
Continuous
 62
     3
100
AcDbLine
 10
-408.5900873207739
 20
244.731877520281
 30
0.0
 11
-428.5900873207739
 21
244.731877520281
 31
0.0
  0
ENDBLK
  5
180
330
4D
100
AcDbEntity
  8
0
100
AcDbBlockEnd
  0
BLOCK
  5
50
330
4F
100
AcDbEntity
  8
0
100
AcDbBlockBegin
  2
HEX_BOLT_SIDE__10
 70
     0
 10
0.0
 20
0.0
 30
0.0
  3
HEX_BOLT_SIDE__10
  1

  0
ARC
  5
19B
330
4F
100
AcDbEntity
  8
1
  6
Continuous
 62
     7
100
AcDbCircle
 10
-427.890087320774
 20
369.831876242947
 30
0.0
 40
0.2
100
AcDbArc
 50
-90.0
 51
0.0
  0
ARC
  5
19A
330
4F
100
AcDbEntity
  8
1
  6
Continuous
 62
     7
100
AcDbCircle
 10
-427.890087320774
 20
365.431876242947
 30
0.0
 40
0.2
100
AcDbArc
 50
0.0
 51
90.0
  0
LINE
  5
199
330
4F
100
AcDbEntity
  8
1
  6
Continuous
 62
     7
100
AcDbLine
 10
-427.690087320774
 20
369.6318762429469
 30
0.0
 11
-427.690087320774
 21
369.831876242947
 31
0.0
  0
LINE
  5
198
330
4F
100
AcDbEntity
  8
1
  6
Continuous
 62
     7
100
AcDbLine
 10
-427.690087320774
 20
365.6318762429469
 30
0.0
 11
-427.690087320774
 21
365.431876242947
 31
0.0
  0
LINE
  5
197
330
4F
100
AcDbEntity
  8
1
  6
Continuous
 62
     7
100
AcDbLine
 10
-423.990087320774
 20
364.1318762429469
 30
0.0
 11
-423.990087320774
 21
371.131876242947
 31
0.0
  0
LINE
  5
196
330
4F
100
AcDbEntity
  8
1
  6
Continuous
 62
     7
100
AcDbLine
 10
-441.0900873207739
 20
369.6318762429469
 30
0.0
 11
-441.0900873207739
 21
365.6318762429469
 31
0.0
  0
LINE
  5
195
330
4F
100
AcDbEntity
  8
1
  6
Continuous
 62
     7
100
AcDbLine
 10
-429.0900873207739
 20
365.6318762429469
 30
0.0
 11
-427.890087320774
 21
365.6318762429469
 31
0.0
  0
LINE
  5
194
330
4F
100
AcDbEntity
  8
1
  6
Continuous
 62
     7
100
AcDbLine
 10
-429.0900873207739
 20
369.6318762429469
 30
0.0
 11
-441.0900873207739
 21
369.6318762429469
 31
0.0
  0
LINE
  5
193
330
4F
100
AcDbEntity
  8
1
  6
Continuous
 62
     7
100
AcDbLine
 10
-429.0900873207739
 20
365.6318762429469
 30
0.0
 11
-429.0900873207739
 21
369.6318762429469
 31
0.0
  0
LINE
  5
192
330
4F
100
AcDbEntity
  8
1
  6
Continuous
 62
     7
100
AcDbLine
 10
-427.690087320774
 20
365.431876242947
 30
0.0
 11
-427.690087320774
 21
364.1318762429469
 31
0.0
  0
LINE
  5
191
330
4F
100
AcDbEntity
  8
1
  6
Continuous
 62
     7
100
AcDbLine
 10
-441.0900873207739
 20
365.6318762429469
 30
0.0
 11
-429.0900873207739
 21
365.6318762429469
 31
0.0
  0
LINE
  5
190
330
4F
100
AcDbEntity
  8
1
  6
Continuous
 62
     7
100
AcDbLine
 10
-441.6900873207739
 20
366.231876242947
 30
0.0
 11
-441.0900873207739
 21
365.6318762429469
 31
0.0
  0
LINE
  5
18F
330
4F
100
AcDbEntity
  8
1
  6
Continuous
 62
     7
100
AcDbLine
 10
-441.6900873207739
 20
369.031876242947
 30
0.0
 11
-441.6900873207739
 21
366.231876242947
 31
0.0
  0
LINE
  5
18E
330
4F
100
AcDbEntity
  8
1
  6
Continuous
 62
     7
100
AcDbLine
 10
-441.0900873207739
 20
369.6318762429469
 30
0.0
 11
-441.6900873207739
 21
369.031876242947
 31
0.0
  0
LINE
  5
18D
330
4F
100
AcDbEntity
  8
1
  6
Continuous
 62
     7
100
AcDbLine
 10
-427.690087320774
 20
369.6318762429469
 30
0.0
 11
-427.690087320774
 21
367.6318762429469
 31
0.0
  0
LINE
  5
18C
330
4F
100
AcDbEntity
  8
1
  6
Continuous
 62
     7
100
AcDbLine
 10
-427.890087320774
 20
369.6318762429469
 30
0.0
 11
-429.0900873207739
 21
369.6318762429469
 31
0.0
  0
LINE
  5
18B
330
4F
100
AcDbEntity
  8
1
  6
Continuous
 62
     7
100
AcDbLine
 10
-427.690087320774
 20
371.131876242947
 30
0.0
 11
-427.690087320774
 21
369.831876242947
 31
0.0
  0
LINE
  5
18A
330
4F
100
AcDbEntity
  8
1
  6
Continuous
 62
     7
100
AcDbLine
 10
-423.990087320774
 20
371.131876242947
 30
0.0
 11
-427.690087320774
 21
371.131876242947
 31
0.0
  0
LINE
  5
189
330
4F
100
AcDbEntity
  8
1
  6
Continuous
 62
     7
100
AcDbLine
 10
-423.690087320774
 20
370.831876242947
 30
0.0
 11
-423.990087320774
 21
371.131876242947
 31
0.0
  0
LINE
  5
188
330
4F
100
AcDbEntity
  8
1
  6
Continuous
 62
     7
100
AcDbLine
 10
-423.690087320774
 20
364.4318762429469
 30
0.0
 11
-423.690087320774
 21
370.831876242947
 31
0.0
  0
LINE
  5
187
330
4F
100
AcDbEntity
  8
1
  6
Continuous
 62
     7
100
AcDbLine
 10
-423.990087320774
 20
364.1318762429469
 30
0.0
 11
-423.690087320774
 21
364.4318762429469
 31
0.0
  0
LINE
  5
186
330
4F
100
AcDbEntity
  8
1
  6
Continuous
 62
     7
100
AcDbLine
 10
-427.690087320774
 20
364.1318762429469
 30
0.0
 11
-423.990087320774
 21
364.1318762429469
 31
0.0
  0
LINE
  5
185
330
4F
100
AcDbEntity
  8
1
  6
Continuous
 62
     7
100
AcDbLine
 10
-427.690087320774
 20
367.6318762429469
 30
0.0
 11
-427.690087320774
 21
365.6318762429469
 31
0.0
  0
LINE
  5
184
330
4F
100
AcDbEntity
  8
1
  6
Continuous
 62
     3
100
AcDbLine
 10
-429.0900873207739
 20
369.031876242947
 30
0.0
 11
-428.0508568362329
 21
369.6318762429469
 31
0.0
  0
LINE
  5
183
330
4F
100
AcDbEntity
  8
1
  6
Continuous
 62
     3
100
AcDbLine
 10
-429.0900873207739
 20
366.231876242947
 30
0.0
 11
-428.0508568362329
 21
365.6318762429469
 31
0.0
  0
LINE
  5
182
330
4F
100
AcDbEntity
  8
1
  6
Continuous
 62
     3
100
AcDbLine
 10
-429.0900873207739
 20
369.031876242947
 30
0.0
 11
-441.6900873207739
 21
369.031876242947
 31
0.0
  0
LINE
  5
181
330
4F
100
AcDbEntity
  8
1
  6
Continuous
 62
     3
100
AcDbLine
 10
-429.0900873207739
 20
366.231876242947
 30
0.0
 11
-441.6900873207739
 21
366.231876242947
 31
0.0
  0
ENDBLK
  5
19C
330
4F
100
AcDbEntity
  8
0
100
AcDbBlockEnd
  0
BLOCK
  5
52
330
51
100
AcDbEntity
  8
0
100
AcDbBlockBegin
  2
CRB
 70
     0
 10
0.0
 20
0.0
 30
0.0
  3
CRB
  1

  0
ARC
  5
22C
330
51
100
AcDbEntity
  8
1
  6
Continuous
 62
     7
100
AcDbCircle
 10
-433.490087320774
 20
374.1492860621659
 30
0.0
 40
0.2999999999989999
100
AcDbArc
 50
-134.9999999998539
 51
-45.000000000015
  0
ARC
  5
22B
330
51
100
AcDbEntity
  8
1
  6
Continuous
 62
     7
100
AcDbCircle
 10
-433.490087320774
 20
384.6144664237259
 30
0.0
 40
0.300000000001
100
AcDbArc
 50
45.000000000261
 51
134.999999999608
  0
ARC
  5
22A
330
51
100
AcDbEntity
  8
1
  6
Continuous
 62
     7
100
AcDbCircle
 10
-438.722677501554
 20
379.381876242947
 30
0.0
 40
0.2999999999989999
100
AcDbArc
 50
135.000000000161
 51
-135.000000000007
  0
ARC
  5
229
330
51
100
AcDbEntity
  8
1
  6
Continuous
 62
     7
100
AcDbCircle
 10
-428.257497139993
 20
379.381876242947
 30
0.0
 40
0.3
100
AcDbArc
 50
-45.0
 51
44.999999999846
  0
ARC
  5
228
330
51
100
AcDbEntity
  8
1
  6
Continuous
 62
     7
100
AcDbCircle
 10
-433.490087320774
 20
265.114466423726
 30
0.0
 40
0.300000000001
100
AcDbArc
 50
45.000000000261
 51
134.999999999608
  0
ARC
  5
227
330
51
100
AcDbEntity
  8
1
  6
Continuous
 62
     7
100
AcDbCircle
 10
-433.490087320774
 20
254.6492860621659
 30
0.0
 40
0.2999999999989999
100
AcDbArc
 50
-134.9999999998539
 51
-45.000000000015
  0
ARC
  5
226
330
51
100
AcDbEntity
  8
1
  6
Continuous
 62
     7
100
AcDbCircle
 10
-438.722677501554
 20
259.8818762429469
 30
0.0
 40
0.2999999999989999
100
AcDbArc
 50
135.000000000161
 51
-135.000000000007
  0
ARC
  5
225
330
51
100
AcDbEntity
  8
1
  6
Continuous
 62
     7
100
AcDbCircle
 10
-428.257497139993
 20
259.8818762429469
 30
0.0
 40
0.3
100
AcDbArc
 50
-45.0
 51
44.999999999846
  0
LINE
  5
224
330
51
100
AcDbEntity
  8
1
  6
Continuous
 62
     7
100
AcDbLine
 10
-448.567675100466
 20
260.260203388266
 30
0.0
 11
-447.690087320774
 21
259.131876242947
 31
0.0
  0
LINE
  5
223
330
51
100
AcDbEntity
  8
1
  6
Continuous
 62
     7
100
AcDbLine
 10
-428.5900873207739
 20
247.531877520281
 30
0.0
 11
-432.890365425425
 21
247.531877520281
 31
0.0
  0
LINE
  5
222
330
51
100
AcDbEntity
  8
1
  6
Continuous
 62
     7
100
AcDbLine
 10
-418.690087320774
 20
250.631876242947
 30
0.0
 11
-418.690087320774
 21
247.531877520281
 31
0.0
  0
LINE
  5
221
330
51
100
AcDbEntity
  8
1
  6
Continuous
 62
     7
100
AcDbLine
 10
-433.698655802291
 20
246.1318775202809
 30
0.0
 11
-432.890365425425
 21
244.731877520281
 31
0.0
  0
LINE
  5
220
330
51
100
AcDbEntity
  8
1
  6
Continuous
 62
     7
100
AcDbLine
 10
-432.890365425425
 20
247.531877520281
 30
0.0
 11
-433.698655802291
 21
246.1318775202809
 31
0.0
  0
LINE
  5
21F
330
51
100
AcDbEntity
  8
1
  6
Continuous
 62
     7
100
AcDbLine
 10
-432.890365425425
 20
247.531877520281
 30
0.0
 11
-432.890365425425
 21
244.731877520281
 31
0.0
  0
LINE
  5
21E
330
51
100
AcDbEntity
  8
1
  6
Continuous
 62
     3
100
AcDbLine
 10
-427.990087320774
 20
248.1318775202809
 30
0.0
 11
-429.690365425425
 21
248.1318775202809
 31
0.0
  0
LINE
  5
21D
330
51
100
AcDbEntity
  8
1
  6
Continuous
 62
     7
100
AcDbLine
 10
-429.690365425425
 20
248.1318775202809
 30
0.0
 11
-429.690365425425
 21
244.1318775202809
 31
0.0
  0
LINE
  5
21C
330
51
100
AcDbEntity
  8
1
  6
Continuous
 62
     7
100
AcDbLine
 10
-432.890365425425
 20
244.731877520281
 30
0.0
 11
-428.5900873207739
 21
244.731877520281
 31
0.0
  0
LINE
  5
21B
330
51
100
AcDbEntity
  8
1
  6
Continuous
 62
     3
100
AcDbLine
 10
-429.690365425425
 20
244.1318775202809
 30
0.0
 11
-427.990087320774
 21
244.1318775202809
 31
0.0
  0
LINE
  5
21A
330
51
100
AcDbEntity
  8
1
  6
Continuous
 62
     7
100
AcDbLine
 10
-441.6900873207739
 20
369.031876242947
 30
0.0
 11
-446.690087320774
 21
369.031876242947
 31
0.0
  0
LINE
  5
219
330
51
100
AcDbEntity
  8
1
  6
Continuous
 62
     3
100
AcDbLine
 10
-443.490087320774
 20
365.6318762429469
 30
0.0
 11
-441.0900873207739
 21
365.6318762429469
 31
0.0
  0
LINE
  5
218
330
51
100
AcDbEntity
  8
1
  6
Continuous
 62
     3
100
AcDbLine
 10
-441.0900873207739
 20
369.6318762429469
 30
0.0
 11
-443.490087320774
 21
369.6318762429469
 31
0.0
  0
LINE
  5
217
330
51
100
AcDbEntity
  8
1
  6
Continuous
 62
     7
100
AcDbLine
 10
-443.490087320774
 20
369.6318762429469
 30
0.0
 11
-443.490087320774
 21
365.6318762429469
 31
0.0
  0
LINE
  5
216
330
51
100
AcDbEntity
  8
1
  6
Continuous
 62
     7
100
AcDbLine
 10
-447.49837769764
 20
367.6318762429469
 30
0.0
 11
-446.690087320774
 21
366.231876242947
 31
0.0
  0
LINE
  5
215
330
51
100
AcDbEntity
  8
1
  6
Continuous
 62
     7
100
AcDbLine
 10
-446.690087320774
 20
369.031876242947
 30
0.0
 11
-447.49837769764
 21
367.6318762429469
 31
0.0
  0
LINE
  5
214
330
51
100
AcDbEntity
  8
1
  6
Continuous
 62
     7
100
AcDbLine
 10
-446.690087320774
 20
366.231876242947
 30
0.0
 11
-441.6900873207739
 21
366.231876242947
 31
0.0
  0
LINE
  5
213
330
51
100
AcDbEntity
  8
1
  6
Continuous
 62
     7
100
AcDbLine
 10
-446.690087320774
 20
369.031876242947
 30
0.0
 11
-446.690087320774
 21
366.231876242947
 31
0.0
  0
LINE
  5
212
330
51
100
AcDbEntity
  8
1
  6
Continuous
 62
     7
100
AcDbLine
 10
-446.267918342814
 20
259.8366402340579
 30
0.0
 11
-447.357080739349
 21
260.6837665424739
 31
0.0
  0
LINE
  5
211
330
51
100
AcDbEntity
  8
1
  6
Continuous
 62
     7
100
AcDbLine
 10
-447.357080739349
 20
260.6837665424739
 30
0.0
 11
-444.190087320774
 21
263.6318762429469
 31
0.0
  0
LINE
  5
210
330
51
100
AcDbEntity
  8
1
  6
Continuous
 62
     7
100
AcDbLine
 10
-444.190087320774
 20
263.6318762429469
 30
0.0
 11
-446.267918342814
 21
259.8366402340579
 31
0.0
  0
LINE
  5
20F
330
51
100
AcDbEntity
  8
1
  6
Continuous
 62
     7
100
AcDbLine
 10
-446.812499541081
 20
260.260203388266
 30
0.0
 11
-451.190087320774
 21
254.631876242947
 31
0.0
  0
LINE
  5
20E
330
51
100
AcDbEntity
  8
1
  6
Continuous
 62
     7
100
AcDbLine
 10
-448.023093902199
 20
260.6837665424739
 30
0.0
 11
-449.112256298734
 21
259.8366402340579
 31
0.0
  0
LINE
  5
20D
330
51
100
AcDbEntity
  8
1
  6
Continuous
 62
     7
100
AcDbLine
 10
-449.112256298734
 20
259.8366402340579
 30
0.0
 11
-451.190087320774
 21
263.6318762429469
 31
0.0
  0
LINE
  5
20C
330
51
100
AcDbEntity
  8
1
  6
Continuous
 62
     7
100
AcDbLine
 10
-451.190087320774
 20
263.6318762429469
 30
0.0
 11
-448.023093902199
 21
260.6837665424739
 31
0.0
  0
LINE
  5
20B
330
51
100
AcDbEntity
  8
1
  6
Continuous
 62
     7
100
AcDbLine
 10
-447.690087320774
 20
380.1318762429469
 30
0.0
 11
-448.567675100466
 21
379.003549097628
 31
0.0
  0
LINE
  5
20A
330
51
100
AcDbEntity
  8
1
  6
Continuous
 62
     7
100
AcDbLine
 10
-448.023093902199
 20
378.57998594342
 30
0.0
 11
-451.190087320774
 21
375.631876242947
 31
0.0
  0
LINE
  5
209
330
51
100
AcDbEntity
  8
1
  6
Continuous
 62
     7
100
AcDbLine
 10
-449.112256298734
 20
379.427112251836
 30
0.0
 11
-448.023093902199
 21
378.57998594342
 31
0.0
  0
LINE
  5
208
330
51
100
AcDbEntity
  8
1
  6
Continuous
 62
     7
100
AcDbLine
 10
-451.190087320774
 20
375.631876242947
 30
0.0
 11
-449.112256298734
 21
379.427112251836
 31
0.0
  0
LINE
  5
207
330
51
100
AcDbEntity
  8
1
  6
Continuous
 62
     7
100
AcDbLine
 10
-447.357080739349
 20
378.57998594342
 30
0.0
 11
-446.267918342814
 21
379.427112251836
 31
0.0
  0
LINE
  5
206
330
51
100
AcDbEntity
  8
1
  6
Continuous
 62
     7
100
AcDbLine
 10
-444.190087320774
 20
375.631876242947
 30
0.0
 11
-447.357080739349
 21
378.57998594342
 31
0.0
  0
LINE
  5
205
330
51
100
AcDbEntity
  8
1
  6
Continuous
 62
     7
100
AcDbLine
 10
-446.267918342814
 20
379.427112251836
 30
0.0
 11
-444.190087320774
 21
375.631876242947
 31
0.0
  0
LINE
  5
204
330
51
100
AcDbEntity
  8
1
  6
Continuous
 62
     7
100
AcDbLine
 10
-451.190087320774
 20
384.6318762429469
 30
0.0
 11
-446.812499541081
 21
379.003549097628
 31
0.0
  0
LINE
  5
203
330
51
100
AcDbEntity
  8
1
  6
Continuous
 62
     7
100
AcDbLine
 10
-436.2900873207739
 20
317.6318762429469
 30
0.0
 11
-437.49180855883
 21
319.6318762429469
 31
0.0
  0
LINE
  5
202
330
51
100
AcDbEntity
  8
1
  6
Continuous
 62
     7
100
AcDbLine
 10
-444.4883660827179
 20
319.6318762429469
 30
0.0
 11
-445.6900873207739
 21
321.631876242947
 31
0.0
  0
LINE
  5
201
330
51
100
AcDbEntity
  8
1
  6
Continuous
 62
     7
100
AcDbLine
 10
-444.4883660827179
 20
319.6318762429469
 30
0.0
 11
-445.6900873207739
 21
317.6318762429469
 31
0.0
  0
LINE
  5
200
330
51
100
AcDbEntity
  8
1
  6
Continuous
 62
     7
100
AcDbLine
 10
-436.2900873207739
 20
321.631876242947
 30
0.0
 11
-437.49180855883
 21
319.6318762429469
 31
0.0
  0
LINE
  5
1FF
330
51
100
AcDbEntity
  8
1
  6
Continuous
 62
     7
100
AcDbLine
 10
-436.2900873207739
 20
299.6318762429469
 30
0.0
 11
-436.2900873207739
 21
339.6318762429469
 31
0.0
  0
LINE
  5
1FE
330
51
100
AcDbEntity
  8
1
  6
Continuous
 62
     7
100
AcDbLine
 10
-435.2900873207739
 20
341.6318762429469
 30
0.0
 11
-435.2900873207739
 21
297.6318762429469
 31
0.0
  0
LINE
  5
1FD
330
51
100
AcDbEntity
  8
1
  6
Continuous
 62
     7
100
AcDbLine
 10
-436.2900873207739
 20
299.6318762429469
 30
0.0
 11
-435.2900873207739
 21
299.6318762429469
 31
0.0
  0
LINE
  5
1FC
330
51
100
AcDbEntity
  8
1
  6
Continuous
 62
     7
100
AcDbLine
 10
-436.2900873207739
 20
339.6318762429469
 30
0.0
 11
-435.2900873207739
 21
339.6318762429469
 31
0.0
  0
LINE
  5
1FB
330
51
100
AcDbEntity
  8
1
  6
Continuous
 62
     7
100
AcDbLine
 10
-445.6900873207739
 20
343.6318762429469
 30
0.0
 11
-445.6900873207739
 21
295.6318762429469
 31
0.0
  0
LINE
  5
1FA
330
51
100
AcDbEntity
  8
1
  6
Continuous
 62
     7
100
AcDbLine
 10
-423.190087320774
 20
380.381876242947
 30
0.0
 11
-428.8332330712809
 21
380.381876242947
 31
0.0
  0
LINE
  5
1F9
330
51
100
AcDbEntity
  8
0
  6
Continuous
 62
     7
100
AcDbLine
 10
-423.2900873207739
 20
345.631876242946
 30
0.0
 11
-423.2900873207739
 21
341.6318762429469
 31
0.0
  0
LINE
  5
1F8
330
51
100
AcDbEntity
  8
1
  6
Continuous
 62
     7
100
AcDbLine
 10
-418.690087320774
 20
244.731877520281
 30
0.0
 11
-418.690087320774
 21
241.13187751976
 31
0.0
  0
LINE
  5
1F7
330
51
100
AcDbEntity
  8
1
  6
Continuous
 62
     7
100
AcDbLine
 10
-433.490087320774
 20
366.231876242947
 30
0.0
 11
-433.490087320774
 21
362.4318762429469
 31
0.0
  0
LINE
  5
1F6
330
51
100
AcDbEntity
  8
1
  6
Continuous
 62
     7
100
AcDbLine
 10
-433.490087320774
 20
362.4318762429469
 30
0.0
 11
-423.2900873207739
 21
362.4318762429469
 31
0.0
  0
LINE
  5
1F5
330
51
100
AcDbEntity
  8
1
  6
Continuous
 62
     7
100
AcDbLine
 10
-433.490087320774
 20
373.381876242947
 30
0.0
 11
-433.490087320774
 21
369.031876242947
 31
0.0
  0
LINE
  5
1F4
330
51
100
AcDbEntity
  8
1
  6
Continuous
 62
     7
100
AcDbLine
 10
-427.690087320774
 20
371.631876242947
 30
0.0
 11
-427.690087320774
 21
363.6318762429469
 31
0.0
  0
LINE
  5
1F3
330
51
100
AcDbEntity
  8
1
  6
Continuous
 62
     7
100
AcDbLine
 10
-427.690087320774
 20
369.8818762429469
 30
0.0
 11
-433.490087320774
 21
369.8818762429469
 31
0.0
  0
LINE
  5
1F2
330
51
100
AcDbEntity
  8
1
  6
Continuous
 62
     7
100
AcDbLine
 10
-427.690087320774
 20
365.381876242947
 30
0.0
 11
-433.490087320774
 21
365.381876242947
 31
0.0
  0
LINE
  5
1F1
330
51
100
AcDbEntity
  8
1
  6
Continuous
 62
     7
100
AcDbLine
 10
-427.690087320774
 20
363.6318762429469
 30
0.0
 11
-423.2900873207739
 21
363.6318762429469
 31
0.0
  0
LINE
  5
1F0
330
51
100
AcDbEntity
  8
1
  6
Continuous
 62
     7
100
AcDbLine
 10
-427.690087320774
 20
371.631876242947
 30
0.0
 11
-423.2900873207739
 21
371.631876242947
 31
0.0
  0
LINE
  5
1EF
330
51
100
AcDbEntity
  8
1
  6
Continuous
 62
     7
100
AcDbLine
 10
-423.2900873207739
 20
341.6318762429469
 30
0.0
 11
-423.2900873207739
 21
297.6318762429469
 31
0.0
  0
LINE
  5
1EE
330
51
100
AcDbEntity
  8
1
  6
Continuous
 62
     7
100
AcDbLine
 10
-423.190087320774
 20
385.931876242947
 30
0.0
 11
-423.190087320774
 21
388.6318762429469
 31
0.0
  0
LINE
  5
1ED
330
51
100
AcDbEntity
  8
0
  6
Continuous
 62
     7
100
AcDbLine
 10
-423.2900873207739
 20
297.6318762429469
 30
0.0
 11
-423.2900873207739
 21
260.881876242947
 31
0.0
  0
LINE
  5
1EC
330
51
100
AcDbEntity
  8
1
  6
Continuous
 62
     7
100
AcDbLine
 10
-423.2900873207739
 20
362.4318762429469
 30
0.0
 11
-423.2900873207739
 21
362.431875649765
 31
0.0
  0
LINE
  5
1EB
330
51
100
AcDbEntity
  8
1
  6
Continuous
 62
     7
100
AcDbLine
 10
-452.690087320774
 20
264.1318762429469
 30
0.0
 11
-452.190087320774
 21
263.6318762429469
 31
0.0
  0
LINE
  5
1EA
330
51
100
AcDbEntity
  8
1
  6
Continuous
 62
     7
100
AcDbLine
 10
-452.190087320774
 20
375.631876242947
 30
0.0
 11
-452.690087320774
 21
375.131876242947
 31
0.0
  0
LINE
  5
1E9
330
51
100
AcDbEntity
  8
1
  6
Continuous
 62
     7
100
AcDbLine
 10
-443.690087320774
 20
375.631876242947
 30
0.0
 11
-452.190087320774
 21
375.631876242947
 31
0.0
  0
LINE
  5
1E8
330
51
100
AcDbEntity
  8
1
  6
Continuous
 62
     7
100
AcDbLine
 10
-451.190087320774
 20
263.6318762429469
 30
0.0
 11
-451.190087320774
 21
254.631876242947
 31
0.0
  0
LINE
  5
1E7
330
51
100
AcDbEntity
  8
1
  6
Continuous
 62
     7
100
AcDbLine
 10
-451.690087320774
 20
254.631876242947
 30
0.0
 11
-444.190087320774
 21
254.631876242947
 31
0.0
  0
LINE
  5
1E6
330
51
100
AcDbEntity
  8
1
  6
Continuous
 62
     7
100
AcDbLine
 10
-444.190087320774
 20
254.631876242947
 30
0.0
 11
-444.190087320774
 21
263.6318762429469
 31
0.0
  0
LINE
  5
1E5
330
51
100
AcDbEntity
  8
1
  6
Continuous
 62
     7
100
AcDbLine
 10
-444.190087320774
 20
263.6318762429469
 30
0.0
 11
-452.190087320774
 21
263.6318762429469
 31
0.0
  0
LINE
  5
1E4
330
51
100
AcDbEntity
  8
1
  6
Continuous
 62
     7
100
AcDbLine
 10
-432.740087320774
 20
253.881876242947
 30
0.0
 11
-434.240087320774
 21
253.881876242947
 31
0.0
  0
LINE
  5
1E3
330
51
100
AcDbEntity
  8
1
  6
Continuous
 62
     7
100
AcDbLine
 10
-451.690087320774
 20
254.631876242947
 30
0.0
 11
-451.6900873207729
 21
241.13187751976
 31
0.0
  0
LINE
  5
1E2
330
51
100
AcDbEntity
  8
1
  6
Continuous
 62
     7
100
AcDbLine
 10
-418.690087320774
 20
241.13187751976
 30
0.0
 11
-451.6900873207729
 21
241.13187751976
 31
0.0
  0
LINE
  5
1E1
330
51
100
AcDbEntity
  8
1
  6
Continuous
 62
     7
100
AcDbLine
 10
-451.190087320774
 20
384.6318762429469
 30
0.0
 11
-451.190087320774
 21
375.631876242947
 31
0.0
  0
LINE
  5
1E0
330
51
100
AcDbEntity
  8
1
  6
Continuous
 62
     7
100
AcDbLine
 10
-444.190087320774
 20
384.6318762429469
 30
0.0
 11
-451.690087320774
 21
384.6318762429469
 31
0.0
  0
LINE
  5
1DF
330
51
100
AcDbEntity
  8
1
  6
Continuous
 62
     7
100
AcDbLine
 10
-444.190087320774
 20
375.631876242947
 30
0.0
 11
-444.190087320774
 21
384.6318762429469
 31
0.0
  0
LINE
  5
1DE
330
51
100
AcDbEntity
  8
1
  6
Continuous
 62
     7
100
AcDbLine
 10
-434.240087320774
 20
385.3818762429469
 30
0.0
 11
-432.740087320774
 21
385.3818762429469
 31
0.0
  0
LINE
  5
1DD
330
51
100
AcDbEntity
  8
1
  6
Continuous
 62
     7
100
AcDbLine
 10
-432.740087320774
 20
385.3818762429469
 30
0.0
 11
-432.740087320774
 21
384.2887304924389
 31
0.0
  0
LINE
  5
1DC
330
51
100
AcDbEntity
  8
1
  6
Continuous
 62
     7
100
AcDbLine
 10
-434.240087320774
 20
385.3818762429469
 30
0.0
 11
-434.240087320774
 21
384.2887304924389
 31
0.0
  0
LINE
  5
1DB
330
51
100
AcDbEntity
  8
1
  6
Continuous
 62
     7
100
AcDbLine
 10
-418.690087320774
 20
389.831874965612
 30
0.0
 11
-451.690087320774
 21
389.831874965612
 31
0.0
  0
LINE
  5
1DA
330
51
100
AcDbEntity
  8
1
  6
Continuous
 62
     7
100
AcDbLine
 10
-418.690087320774
 20
396.431874965662
 30
0.0
 11
-451.690087320774
 21
396.4318749654959
 31
0.0
  0
LINE
  5
1D9
330
51
100
AcDbEntity
  8
1
  6
Continuous
 62
     7
100
AcDbLine
 10
-451.690087320774
 20
398.131874966134
 30
0.0
 11
-418.690087320774
 21
398.131874966134
 31
0.0
  0
LINE
  5
1D8
330
51
100
AcDbEntity
  8
1
  6
Continuous
 62
     7
100
AcDbLine
 10
-444.190087320774
 20
380.381876242947
 30
0.0
 11
-438.146941570266
 21
380.381876242947
 31
0.0
  0
LINE
  5
1D7
330
51
100
AcDbEntity
  8
1
  6
Continuous
 62
     7
100
AcDbLine
 10
-443.690087320774
 20
378.3818762429469
 30
0.0
 11
-438.146941570266
 21
378.3818762429469
 31
0.0
  0
LINE
  5
1D6
330
51
100
AcDbEntity
  8
1
  6
Continuous
 62
     7
100
AcDbLine
 10
-428.0453651056369
 20
379.594008277302
 30
0.0
 11
-433.2779552864179
 21
384.826598458084
 31
0.0
  0
LINE
  5
1D5
330
51
100
AcDbEntity
  8
1
  6
Continuous
 62
     7
100
AcDbLine
 10
-433.7022193551289
 20
384.826598458084
 30
0.0
 11
-438.9348095359101
 21
379.594008277302
 31
0.0
  0
LINE
  5
1D4
330
51
100
AcDbEntity
  8
0
  6
Continuous
 62
     7
100
AcDbLine
 10
-423.2900873207739
 20
378.3818762429469
 30
0.0
 11
-423.2900873207739
 21
355.631876242946
 31
0.0
  0
LINE
  5
1D3
330
51
100
AcDbEntity
  8
1
  6
Continuous
 62
     7
100
AcDbLine
 10
-428.8332330712809
 20
258.881876242947
 30
0.0
 11
-423.190087320774
 21
258.881876242947
 31
0.0
  0
LINE
  5
1D2
330
51
100
AcDbEntity
  8
1
  6
Continuous
 62
     7
100
AcDbLine
 10
-434.240087320774
 20
373.381876242947
 30
0.0
 11
-432.740087320774
 21
373.381876242947
 31
0.0
  0
LINE
  5
1D1
330
51
100
AcDbEntity
  8
1
  6
Continuous
 62
     7
100
AcDbLine
 10
-434.240087320774
 20
373.381876242947
 30
0.0
 11
-434.240087320774
 21
374.4750219934549
 31
0.0
  0
LINE
  5
1D0
330
51
100
AcDbEntity
  8
1
  6
Continuous
 62
     7
100
AcDbLine
 10
-438.9348095359101
 20
379.169744208591
 30
0.0
 11
-433.7022193551289
 21
373.9371540278099
 31
0.0
  0
LINE
  5
1CF
330
51
100
AcDbEntity
  8
1
  6
Continuous
 62
     7
100
AcDbLine
 10
-432.740087320774
 20
373.381876242947
 30
0.0
 11
-432.740087320774
 21
374.4750219934549
 31
0.0
  0
LINE
  5
1CE
330
51
100
AcDbEntity
  8
1
  6
Continuous
 62
     7
100
AcDbLine
 10
-433.2779552864179
 20
373.9371540278099
 30
0.0
 11
-428.0453651056369
 21
379.169744208591
 31
0.0
  0
LINE
  5
1CD
330
51
100
AcDbEntity
  8
1
  6
Continuous
 62
     7
100
AcDbLine
 10
-438.146941570266
 20
258.881876242947
 30
0.0
 11
-444.190087320774
 21
258.881876242947
 31
0.0
  0
LINE
  5
1CC
330
51
100
AcDbEntity
  8
1
  6
Continuous
 62
     7
100
AcDbLine
 10
-428.8332330712809
 20
260.881876242947
 30
0.0
 11
-423.2900873207739
 21
260.881876242947
 31
0.0
  0
LINE
  5
1CB
330
51
100
AcDbEntity
  8
1
  6
Continuous
 62
     7
100
AcDbLine
 10
-433.2779552864179
 20
254.4371540278099
 30
0.0
 11
-428.0453651056369
 21
259.6697442085909
 31
0.0
  0
LINE
  5
1CA
330
51
100
AcDbEntity
  8
1
  6
Continuous
 62
     7
100
AcDbLine
 10
-438.9348095359101
 20
259.6697442085909
 30
0.0
 11
-433.7022193551289
 21
254.4371540278099
 31
0.0
  0
LINE
  5
1C9
330
51
100
AcDbEntity
  8
1
  6
Continuous
 62
     7
100
AcDbLine
 10
-432.740087320774
 20
265.8818762429469
 30
0.0
 11
-434.240087320774
 21
265.8818762429469
 31
0.0
  0
LINE
  5
1C8
330
51
100
AcDbEntity
  8
1
  6
Continuous
 62
     7
100
AcDbLine
 10
-434.240087320774
 20
264.788730492439
 30
0.0
 11
-434.240087320774
 21
265.8818762429469
 31
0.0
  0
LINE
  5
1C7
330
51
100
AcDbEntity
  8
1
  6
Continuous
 62
     7
100
AcDbLine
 10
-433.7022193551289
 20
265.326598458084
 30
0.0
 11
-438.9348095359101
 21
260.094008277302
 31
0.0
  0
LINE
  5
1C6
330
51
100
AcDbEntity
  8
1
  6
Continuous
 62
     7
100
AcDbLine
 10
-432.740087320774
 20
264.788730492439
 30
0.0
 11
-432.740087320774
 21
265.8818762429469
 31
0.0
  0
LINE
  5
1C5
330
51
100
AcDbEntity
  8
1
  6
Continuous
 62
     7
100
AcDbLine
 10
-428.0453651056369
 20
260.094008277302
 30
0.0
 11
-433.2779552864179
 21
265.326598458084
 31
0.0
  0
LINE
  5
1C4
330
51
100
AcDbEntity
  8
1
  6
Continuous
 62
     7
100
AcDbLine
 10
-434.240087320774
 20
254.975021993455
 30
0.0
 11
-434.240087320774
 21
253.881876242947
 31
0.0
  0
LINE
  5
1C3
330
51
100
AcDbEntity
  8
1
  6
Continuous
 62
     7
100
AcDbLine
 10
-432.740087320774
 20
254.975021993455
 30
0.0
 11
-432.740087320774
 21
253.881876242947
 31
0.0
  0
LINE
  5
1C2
330
51
100
AcDbEntity
  8
1
  6
Continuous
 62
     7
100
AcDbLine
 10
-443.690087320774
 20
260.881876242947
 30
0.0
 11
-438.146941570266
 21
260.881876242947
 31
0.0
  0
LINE
  5
1C1
330
51
100
AcDbEntity
  8
1
  6
Continuous
 62
     7
100
AcDbLine
 10
-451.690087320774
 20
384.6318762429469
 30
0.0
 11
-451.690087320774
 21
398.131874966134
 31
0.0
  0
LINE
  5
1C0
330
51
100
AcDbEntity
  8
1
  6
Continuous
 62
     7
100
AcDbLine
 10
-423.2900873207739
 20
378.3818762429469
 30
0.0
 11
-428.8332330712809
 21
378.3818762429469
 31
0.0
  0
LINE
  5
1BF
330
51
100
AcDbEntity
  8
1
  6
Continuous
 62
     7
100
AcDbLine
 10
-423.190087320774
 20
385.931876242947
 30
0.0
 11
-423.190087320774
 21
380.381876242947
 31
0.0
  0
LINE
  5
1BE
330
51
100
AcDbEntity
  8
1
  6
Continuous
 62
     7
100
AcDbLine
 10
-423.190087320774
 20
250.631876242947
 30
0.0
 11
-423.190087320774
 21
258.881876242947
 31
0.0
  0
LINE
  5
1BD
330
51
100
AcDbEntity
  8
1
  6
Continuous
 62
     7
100
AcDbLine
 10
-418.690087320774
 20
388.6318762429469
 30
0.0
 11
-423.190087320774
 21
388.6318762429469
 31
0.0
  0
LINE
  5
1BC
330
51
100
AcDbEntity
  8
1
  6
Continuous
 62
     7
100
AcDbLine
 10
-423.190087320774
 20
388.6318762429469
 30
0.0
 11
-423.190087320774
 21
385.931876242947
 31
0.0
  0
LINE
  5
1BB
330
51
100
AcDbEntity
  8
1
  6
Continuous
 62
     7
100
AcDbLine
 10
-418.690087320774
 20
388.6318762429469
 30
0.0
 11
-418.690087320774
 21
398.131874966134
 31
0.0
  0
LINE
  5
1BA
330
51
100
AcDbEntity
  8
1
  6
Continuous
 62
     7
100
AcDbLine
 10
-418.690087320774
 20
250.631876242947
 30
0.0
 11
-423.190087320774
 21
250.631876242947
 31
0.0
  0
LINE
  5
1B9
330
51
100
AcDbEntity
  8
1
  6
Continuous
 62
     7
100
AcDbLine
 10
-423.2900873207739
 20
341.6318762429469
 30
0.0
 11
-435.2900873207739
 21
341.6318762429469
 31
0.0
  0
LINE
  5
1B8
330
51
100
AcDbEntity
  8
1
  6
Continuous
 62
     7
100
AcDbLine
 10
-423.2900873207739
 20
297.6318762429469
 30
0.0
 11
-435.2900873207739
 21
297.6318762429469
 31
0.0
  0
LINE
  5
1B7
330
51
100
AcDbEntity
  8
1
  6
Continuous
 62
     7
100
AcDbLine
 10
-445.6900873207739
 20
343.6318762429469
 30
0.0
 11
-452.690087320774
 21
343.6318762429469
 31
0.0
  0
LINE
  5
1B6
330
51
100
AcDbEntity
  8
1
  6
Continuous
 62
     7
100
AcDbLine
 10
-445.6900873207739
 20
295.6318762429469
 30
0.0
 11
-452.690087320774
 21
295.6318762429469
 31
0.0
  0
LINE
  5
1B5
330
51
100
AcDbEntity
  8
1
  6
Continuous
 62
     3
100
AcDbLine
 10
-452.690087320774
 20
281.631876242947
 30
0.0
 11
-434.690087320774
 21
281.631876242947
 31
0.0
  0
LINE
  5
1B4
330
51
100
AcDbEntity
  8
1
  6
Continuous
 62
     3
100
AcDbLine
 10
-434.690087320774
 20
281.631876242947
 30
0.0
 11
-432.6116263516909
 21
280.431876242947
 31
0.0
  0
LINE
  5
1B3
330
51
100
AcDbEntity
  8
1
  6
Continuous
 62
     3
100
AcDbLine
 10
-432.6116263516909
 20
270.831876242947
 30
0.0
 11
-434.690087320774
 21
269.6318762429469
 31
0.0
  0
LINE
  5
1B2
330
51
100
AcDbEntity
  8
1
  6
Continuous
 62
     3
100
AcDbLine
 10
-434.690087320774
 20
269.6318762429469
 30
0.0
 11
-452.690087320774
 21
269.6318762429469
 31
0.0
  0
LINE
  5
1B1
330
51
100
AcDbEntity
  8
1
  6
Continuous
 62
     7
100
AcDbLine
 10
-452.690087320774
 20
280.431876242947
 30
0.0
 11
-429.890087320774
 21
280.431876242947
 31
0.0
  0
LINE
  5
1B0
330
51
100
AcDbEntity
  8
1
  6
Continuous
 62
     7
100
AcDbLine
 10
-429.890087320774
 20
280.431876242947
 30
0.0
 11
-429.890087320774
 21
270.831876242947
 31
0.0
  0
LINE
  5
1AF
330
51
100
AcDbEntity
  8
1
  6
Continuous
 62
     7
100
AcDbLine
 10
-434.690087320774
 20
281.631876242947
 30
0.0
 11
-434.690087320774
 21
269.6318762429469
 31
0.0
  0
LINE
  5
1AE
330
51
100
AcDbEntity
  8
1
  6
Continuous
 62
     7
100
AcDbLine
 10
-429.890087320774
 20
270.831876242947
 30
0.0
 11
-452.690087320774
 21
270.831876242947
 31
0.0
  0
LINE
  5
1AD
330
51
100
AcDbEntity
  8
1
  6
Continuous
 62
     7
100
AcDbLine
 10
-452.690087320774
 20
375.131876242947
 30
0.0
 11
-452.690087320774
 21
264.1318762429469
 31
0.0
  0
LINE
  5
1AC
330
51
100
AcDbEntity
  8
1
  6
Continuous
 62
     7
100
AcDbLine
 10
-429.890087320774
 20
280.431876242947
 30
0.0
 11
-427.118806028664
 21
275.631876242947
 31
0.0
  0
LINE
  5
1AB
330
51
100
AcDbEntity
  8
1
  6
Continuous
 62
     7
100
AcDbLine
 10
-427.118806028664
 20
275.631876242947
 30
0.0
 11
-429.890087320774
 21
270.831876242947
 31
0.0
  0
LINE
  5
1AA
330
51
100
AcDbEntity
  8
1
  6
DASH_CENTER
 62
     3
100
AcDbLine
 10
-454.490087320774
 20
275.631876242947
 30
0.0
 11
-425.318806028664
 21
275.631876242947
 31
0.0
  0
LINE
  5
1A9
330
51
100
AcDbEntity
  8
1
  6
Continuous
 62
     3
100
AcDbLine
 10
-423.2900873207739
 20
345.631876242946
 30
0.0
 11
-441.2900873207739
 21
345.631876242946
 31
0.0
  0
LINE
  5
1A8
330
51
100
AcDbEntity
  8
1
  6
Continuous
 62
     3
100
AcDbLine
 10
-441.2900873207739
 20
345.631876242946
 30
0.0
 11
-443.022138128343
 21
346.631876242946
 31
0.0
  0
LINE
  5
1A7
330
51
100
AcDbEntity
  8
1
  6
Continuous
 62
     3
100
AcDbLine
 10
-443.022138128343
 20
354.631876242946
 30
0.0
 11
-441.2900873207739
 21
355.631876242946
 31
0.0
  0
LINE
  5
1A6
330
51
100
AcDbEntity
  8
1
  6
Continuous
 62
     3
100
AcDbLine
 10
-441.2900873207739
 20
355.631876242946
 30
0.0
 11
-423.2900873207739
 21
355.631876242946
 31
0.0
  0
LINE
  5
1A5
330
51
100
AcDbEntity
  8
1
  6
Continuous
 62
     7
100
AcDbLine
 10
-439.690087320774
 20
346.631876242946
 30
0.0
 11
-445.2900873207739
 21
346.631876242946
 31
0.0
  0
LINE
  5
1A4
330
51
100
AcDbEntity
  8
1
  6
Continuous
 62
     7
100
AcDbLine
 10
-445.2900873207739
 20
346.631876242946
 30
0.0
 11
-445.2900873207739
 21
354.631876242946
 31
0.0
  0
LINE
  5
1A3
330
51
100
AcDbEntity
  8
1
  6
Continuous
 62
     7
100
AcDbLine
 10
-441.2900873207739
 20
345.631876242946
 30
0.0
 11
-441.2900873207739
 21
355.631876242946
 31
0.0
  0
LINE
  5
1A2
330
51
100
AcDbEntity
  8
1
  6
Continuous
 62
     7
100
AcDbLine
 10
-445.2900873207739
 20
354.631876242946
 30
0.0
 11
-439.690087320774
 21
354.631876242946
 31
0.0
  0
LINE
  5
1A1
330
51
100
AcDbEntity
  8
1
  6
Continuous
 62
     7
100
AcDbLine
 10
-445.2900873207739
 20
346.631876242946
 30
0.0
 11
-447.5994883975319
 21
350.631876242946
 31
0.0
  0
LINE
  5
1A0
330
51
100
AcDbEntity
  8
1
  6
Continuous
 62
     7
100
AcDbLine
 10
-447.5994883975319
 20
350.631876242946
 30
0.0
 11
-445.2900873207739
 21
354.631876242946
 31
0.0
  0
LINE
  5
19F
330
51
100
AcDbEntity
  8
1
  6
Continuous
 62
     7
100
AcDbLine
 10
-443.690087320774
 20
378.3818762429469
 30
0.0
 11
-443.690087320774
 21
375.631876242947
 31
0.0
  0
LINE
  5
19E
330
51
100
AcDbEntity
  8
1
  6
Continuous
 62
     7
100
AcDbLine
 10
-443.690087320774
 20
260.881876242947
 30
0.0
 11
-443.690087320774
 21
263.6318762429469
 31
0.0
  0
LINE
  5
19D
330
51
100
AcDbEntity
  8
1
  6
Continuous
 62
     7
100
AcDbLine
 10
-443.690087320774
 20
263.6318762429469
 30
0.0
 11
-444.190087320774
 21
263.6318762429469
 31
0.0
  0
INSERT
  5
53
330
51
100
AcDbEntity
  8
0
100
AcDbBlockReference
  2
HEX_BOLT_SIDE__10
 10
0.0
 20
0.0
 30
0.0
  0
ENDBLK
  5
22D
330
51
100
AcDbEntity
  8
0
100
AcDbBlockEnd
  0
BLOCK
  5
379
330
376
100
AcDbEntity
  8
0
100
AcDbBlockBegin
  2
NTC
 70
     0
 10
0.0
 20
0.0
 30
0.0
  3
NTC
  1

  0
LWPOLYLINE
  5
377
330
376
100
AcDbEntity
  8
0
100
AcDbPolyline
 90
        8
 70
     1
 43
0.0
 10
4.581008201925953
 20
-10.78862239032818
 10
319.3921777697513
 20
-10.78862239032818
 42
-0.4142135623730951
 10
324.9046777697513
 20
-16.30112239032816
 10
324.9046777697513
 20
-117.4075202476924
 42
-0.4142135623730951
 10
319.3921777697513
 20
-122.9200202476925
 10
4.581008201925837
 20
-122.9200202476925
 42
-0.4142135623730951
 10
-0.9314917980741483
 20
-117.4075202476924
 10
-0.9314917980740915
 20
-16.30112239032816
 42
-0.4142135623730951
  0
MTEXT
  5
378
330
376
100
AcDbEntity
  8
0
  6
Continuous
370
    30
100
AcDbMText
 10
21.65307678143926
 20
-17.4535155144544
 30
0.0
 40
8.75
 41
294.5432999999998
 71
     1
 72
     5
  3
{\fTxt|b1|i0|c0|p2;Notice:\P\Ftxt.shx;\H0.5714x;All specifications and dimensions shown in the drawing are subject to change without notice. This drawing is the property of Harmonic Drive LLC.   This data is believed to be accurate, however, Harmonic
  1
 Drive LLC assumes no liability for any errors or omissions in the specifications, models, or drawings.\P\PHarmonic Drive LLC\PTel: 800-921-3332\Pwww.harmonicdrive.net}
 73
     1
 44
1.0
  0
ENDBLK
  5
37A
330
376
100
AcDbEntity
  8
0
100
AcDbBlockEnd
  0
BLOCK
  5
385
330
382
100
AcDbEntity
  8
0
 62
     7
100
AcDbBlockBegin
  2
AI9-BLK14
 70
     0
 10
0.0
 20
0.0
 30
0.0
  3
AI9-BLK14
  1

  0
SPLINE
  5
383
330
382
100
AcDbEntity
  8
LAYER_1
 62
     7
100
AcDbSpline
210
0.0
220
0.0
230
1.0
 70
    11
 71
     3
 72
    23
 73
    19
 74
     0
 42
0.0000000001
 43
0.0000000001
 40
0.0
 40
0.0
 40
0.0
 40
0.0
 40
1.0
 40
1.0
 40
1.0
 40
2.0
 40
2.0
 40
2.0
 40
3.0
 40
3.0
 40
3.0
 40
4.0
 40
4.0
 40
4.0
 40
5.0
 40
5.0
 40
5.0
 40
6.0
 40
6.0
 40
6.0
 40
6.0
 10
-10.90321044921874
 20
10.88107571072048
 30
0.0
 10
-10.90321044921874
 20
10.88107571072048
 30
0.0
 10
-10.90321044921874
 20
-10.88107571072048
 30
0.0
 10
-10.90321044921874
 20
-10.88107571072048
 30
0.0
 10
-10.90321044921874
 20
-10.88107571072048
 30
0.0
 10
1.752692328559025
 20
-10.88107571072048
 30
0.0
 10
1.752692328559025
 20
-10.88107571072048
 30
0.0
 10
3.280592176649305
 20
-10.88107571072048
 30
0.0
 10
10.90321044921874
 20
-10.32383151584201
 30
0.0
 10
10.90321044921874
 20
0.6792867024739583
 30
0.0
 10
10.90321044921874
 20
10.61700914171006
 30
0.0
 10
2.773129611545138
 20
10.87952541775172
 30
0.0
 10
2.691136338975693
 20
10.88090345594618
 30
0.0
 10
2.691136338975693
 20
10.88090345594618
 30
0.0
 10
-9.903099229600693
 20
10.88107571072048
 30
0.0
 10
-9.903099229600693
 20
10.88107571072048
 30
0.0
 10
-9.903099229600693
 20
10.88107571072048
 30
0.0
 10
-10.90321044921874
 20
10.88107571072048
 30
0.0
 10
-10.90321044921874
 20
10.88107571072048
 30
0.0
  0
SPLINE
  5
384
330
382
100
AcDbEntity
  8
LAYER_1
 62
     7
100
AcDbSpline
210
0.0
220
0.0
230
1.0
 70
    11
 71
     3
 72
    20
 73
    16
 74
     0
 42
0.0000000001
 43
0.0000000001
 40
0.0
 40
0.0
 40
0.0
 40
0.0
 40
1.0
 40
1.0
 40
1.0
 40
2.0
 40
2.0
 40
2.0
 40
3.0
 40
3.0
 40
3.0
 40
4.0
 40
4.0
 40
4.0
 40
5.0
 40
5.0
 40
5.0
 40
5.0
 10
2.672877332899305
 20
8.881197781032986
 30
0.0
 10
2.905421278211805
 20
8.874307590060762
 30
0.0
 10
8.902988009982637
 20
8.616442192925347
 30
0.0
 10
8.902988009982637
 20
0.6792867024739583
 30
0.0
 10
8.902988009982637
 20
-8.191661919487842
 30
0.0
 10
3.430109320746526
 20
-8.881197781032986
 30
0.0
 10
1.752692328559025
 20
-8.881197781032986
 30
0.0
 10
1.752692328559025
 20
-8.881197781032986
 30
0.0
 10
-7.231427680121528
 20
-8.881197781032986
 30
0.0
 10
-8.902988009982637
 20
-8.881197781032986
 30
0.0
 10
-8.902988009982637
 20
-7.174497477213541
 30
0.0
 10
-8.902988009982637
 20
7.174497477213541
 30
0.0
 10
-8.902988009982637
 20
8.881197781032986
 30
0.0
 10
-7.208690049913191
 20
8.881197781032986
 30
0.0
 10
2.672877332899305
 20
8.881197781032986
 30
0.0
 10
2.672877332899305
 20
8.881197781032986
 30
0.0
  0
ENDBLK
  5
386
330
382
100
AcDbEntity
  8
0
100
AcDbBlockEnd
  0
BLOCK
  5
38A
330
387
100
AcDbEntity
  8
0
 62
     7
100
AcDbBlockBegin
  2
AI9-BLK13
 70
     0
 10
0.0
 20
0.0
 30
0.0
  3
AI9-BLK13
  1

  0
LWPOLYLINE
  5
388
330
387
100
AcDbEntity
  8
LAYER_1
 62
     7
100
AcDbPolyline
 90
       12
 70
     1
 43
0.0
 10
-3.792361111111107
 20
10.7376736111111
 10
-2.469444444444443
 20
10.7376736111111
 10
-2.469444444444443
 20
1.874131944444444
 10
2.469444444444443
 20
1.874131944444444
 10
2.469444444444443
 20
10.7376736111111
 10
3.792361111111107
 20
10.7376736111111
 10
3.792361111111107
 20
-10.7376736111111
 10
2.469444444444443
 20
-10.7376736111111
 10
2.469444444444443
 20
-0.6835069444444444
 10
-2.469444444444443
 20
-0.6835069444444444
 10
-2.469444444444443
 20
-10.7376736111111
 10
-3.792361111111107
 20
-10.7376736111111
  0
HATCH
  5
389
330
387
100
AcDbEntity
  8
LAYER_1
 62
     7
100
AcDbHatch
 10
0.0
 20
0.0
 30
0.0
210
0.0
220
0.0
230
1.0
  2
SOLID
 70
     1
 71
     0
 91
        1
 92
        3
 72
     0
 73
     1
 93
       12
 10
-3.792361111111107
 20
10.7376736111111
 10
-2.469444444444443
 20
10.7376736111111
 10
-2.469444444444443
 20
1.874131944444444
 10
2.469444444444443
 20
1.874131944444444
 10
2.469444444444443
 20
10.7376736111111
 10
3.792361111111107
 20
10.7376736111111
 10
3.792361111111107
 20
-10.7376736111111
 10
2.469444444444443
 20
-10.7376736111111
 10
2.469444444444443
 20
-0.6835069444444444
 10
-2.469444444444443
 20
-0.6835069444444444
 10
-2.469444444444443
 20
-10.7376736111111
 10
-3.792361111111107
 20
-10.7376736111111
 97
        0
 75
     2
 76
     1
 98
        1
 10
0.0
 20
0.0
  0
ENDBLK
  5
38B
330
387
100
AcDbEntity
  8
0
100
AcDbBlockEnd
  0
BLOCK
  5
38F
330
38C
100
AcDbEntity
  8
0
 62
     7
100
AcDbBlockBegin
  2
AI9-BLK11
 70
     0
 10
0.0
 20
0.0
 30
0.0
  3
AI9-BLK11
  1

  0
SPLINE
  5
38D
330
38C
100
AcDbEntity
  8
LAYER_1
 62
     7
100
AcDbSpline
210
0.0
220
0.0
230
1.0
 70
    11
 71
     3
 72
    26
 73
    22
 74
     0
 42
0.0000000001
 43
0.0000000001
 40
0.0
 40
0.0
 40
0.0
 40
0.0
 40
1.0
 40
1.0
 40
1.0
 40
2.0
 40
2.0
 40
2.0
 40
3.0
 40
3.0
 40
3.0
 40
4.0
 40
4.0
 40
4.0
 40
5.0
 40
5.0
 40
5.0
 40
6.0
 40
6.0
 40
6.0
 40
7.0
 40
7.0
 40
7.0
 40
7.0
 10
-2.645833333333333
 20
0.9039930555555551
 30
0.0
 10
-2.645833333333333
 20
0.9039930555555551
 30
0.0
 10
-2.645833333333333
 20
8.180034722222217
 30
0.0
 10
-2.645833333333333
 20
8.180034722222217
 30
0.0
 10
-2.645833333333333
 20
8.180034722222217
 30
0.0
 10
0.465087890625
 20
8.180034722222217
 30
0.0
 10
0.465087890625
 20
8.180034722222217
 30
0.0
 10
0.9026150173611108
 20
8.180034722222217
 30
0.0
 10
1.24988064236111
 20
8.034651692708331
 30
0.0
 10
1.506884765625
 20
7.745263671874997
 30
0.0
 10
2.001600477430554
 20
7.194048394097221
 30
0.0
 10
2.248958333333332
 20
6.160519748263887
 30
0.0
 10
2.248958333333332
 20
4.643299696180553
 30
0.0
 10
2.248958333333332
 20
3.232188585069443
 30
0.0
 10
2.072569444444444
 20
2.256537543402775
 30
0.0
 10
1.720480685763888
 20
1.715657552083333
 30
0.0
 10
1.368391927083333
 20
1.174088541666665
 30
0.0
 10
0.8929687499999998
 20
0.9039930555555551
 30
0.0
 10
0.2942111545138888
 20
0.9039930555555551
 30
0.0
 10
0.2942111545138888
 20
0.9039930555555551
 30
0.0
 10
-2.645833333333333
 20
0.9039930555555551
 30
0.0
 10
-2.645833333333333
 20
0.9039930555555551
 30
0.0
  0
SPLINE
  5
38E
330
38C
100
AcDbEntity
  8
LAYER_1
 62
     7
100
AcDbSpline
210
0.0
220
0.0
230
1.0
 70
    11
 71
     3
 72
    68
 73
    64
 74
     0
 42
0.0000000001
 43
0.0000000001
 40
0.0
 40
0.0
 40
0.0
 40
0.0
 40
1.0
 40
1.0
 40
1.0
 40
2.0
 40
2.0
 40
2.0
 40
3.0
 40
3.0
 40
3.0
 40
4.0
 40
4.0
 40
4.0
 40
5.0
 40
5.0
 40
5.0
 40
6.0
 40
6.0
 40
6.0
 40
7.0
 40
7.0
 40
7.0
 40
8.0
 40
8.0
 40
8.0
 40
9.0
 40
9.0
 40
9.0
 40
10.0
 40
10.0
 40
10.0
 40
11.0
 40
11.0
 40
11.0
 40
12.0
 40
12.0
 40
12.0
 40
13.0
 40
13.0
 40
13.0
 40
14.0
 40
14.0
 40
14.0
 40
15.0
 40
15.0
 40
15.0
 40
16.0
 40
16.0
 40
16.0
 40
17.0
 40
17.0
 40
17.0
 40
18.0
 40
18.0
 40
18.0
 40
19.0
 40
19.0
 40
19.0
 40
20.0
 40
20.0
 40
20.0
 40
21.0
 40
21.0
 40
21.0
 40
21.0
 10
-3.968749999999998
 20
-10.7376736111111
 30
0.0
 10
-3.968749999999998
 20
-10.7376736111111
 30
0.0
 10
-2.645833333333333
 20
-10.7376736111111
 30
0.0
 10
-2.645833333333333
 20
-10.7376736111111
 30
0.0
 10
-2.645833333333333
 20
-10.7376736111111
 30
0.0
 10
-2.645833333333333
 20
-1.521354166666665
 30
0.0
 10
-2.645833333333333
 20
-1.521354166666665
 30
0.0
 10
-2.645833333333333
 20
-1.521354166666665
 30
0.0
 10
0.2390896267361111
 20
-1.521354166666665
 30
0.0
 10
0.2390896267361111
 20
-1.521354166666665
 30
0.0
 10
0.7599880642361111
 20
-1.521354166666665
 30
0.0
 10
1.143771701388887
 20
-1.65295681423611
 30
0.0
 10
1.390440538194444
 20
-1.916162109374999
 30
0.0
 10
1.816254340277773
 20
-2.39434136284722
 30
0.0
 10
2.04363064236111
 20
-3.335541449652775
 30
0.0
 10
2.072569444444444
 20
-4.739762369791666
 30
0.0
 10
2.072569444444444
 20
-4.739762369791666
 30
0.0
 10
2.160763888888888
 20
-8.324039713541665
 30
0.0
 10
2.160763888888888
 20
-8.324039713541665
 30
0.0
 10
2.18005642361111
 20
-9.163264973958332
 30
0.0
 10
2.202794053819443
 20
-9.728949652777775
 30
0.0
 10
2.227598741319444
 20
-10.02109374999998
 30
0.0
 10
2.252403428819443
 20
-10.31392686631944
 30
0.0
 10
2.28892144097222
 20
-10.55301649305555
 30
0.0
 10
2.33853081597222
 20
-10.7376736111111
 30
0.0
 10
2.33853081597222
 20
-10.7376736111111
 30
0.0
 10
3.968749999999998
 20
-10.7376736111111
 30
0.0
 10
3.968749999999998
 20
-10.7376736111111
 30
0.0
 10
3.968749999999998
 20
-10.7376736111111
 30
0.0
 10
3.968749999999998
 20
-10.25260416666666
 30
0.0
 10
3.968749999999998
 20
-10.25260416666666
 30
0.0
 10
3.766867404513888
 20
-10.05830078125
 30
0.0
 10
3.625618489583333
 20
-9.621462673611112
 30
0.0
 10
3.545692274305555
 20
-8.942089843749997
 30
0.0
 10
3.49470486111111
 20
-8.543836805555555
 30
0.0
 10
3.459564887152775
 20
-7.937499999999999
 30
0.0
 10
3.439583333333333
 20
-7.121701388888887
 30
0.0
 10
3.439583333333333
 20
-7.121701388888887
 30
0.0
 10
3.395486111111106
 20
-4.232644314236106
 30
0.0
 10
3.395486111111106
 20
-4.232644314236106
 30
0.0
 10
3.375504557291666
 20
-2.981385633680555
 30
0.0
 10
3.26870659722222
 20
-2.077392578125
 30
0.0
 10
3.075781249999999
 20
-1.522043185763888
 30
0.0
 10
2.882166883680555
 20
-0.9666937934027776
 30
0.0
 10
2.592089843749999
 20
-0.5188313802083333
 30
0.0
 10
2.204861111111105
 20
-0.1770779079861111
 30
0.0
 10
2.63618706597222
 20
0.3197048611111111
 30
0.0
 10
2.971739366319443
 20
0.9770290798611107
 30
0.0
 10
3.211518012152775
 20
1.79558376736111
 30
0.0
 10
3.451296657986107
 20
2.613449435763888
 30
0.0
 10
3.571874999999999
 20
3.66558159722222
 30
0.0
 10
3.571874999999999
 20
4.951291232638888
 30
0.0
 10
3.571874999999999
 20
7.415912543402777
 30
0.0
 10
3.124701605902775
 20
9.106076388888887
 30
0.0
 10
2.231043836805555
 20
10.02178276909722
 30
0.0
 10
1.759754774305553
 20
10.498583984375
 30
0.0
 10
1.163753255208332
 20
10.7376736111111
 30
0.0
 10
0.443039279513889
 20
10.7376736111111
 30
0.0
 10
0.443039279513889
 20
10.7376736111111
 30
0.0
 10
-3.968749999999998
 20
10.7376736111111
 30
0.0
 10
-3.968749999999998
 20
10.7376736111111
 30
0.0
 10
-3.968749999999998
 20
10.7376736111111
 30
0.0
 10
-3.968749999999998
 20
-10.7376736111111
 30
0.0
 10
-3.968749999999998
 20
-10.7376736111111
 30
0.0
  0
ENDBLK
  5
390
330
38C
100
AcDbEntity
  8
0
100
AcDbBlockEnd
  0
BLOCK
  5
393
330
391
100
AcDbEntity
  8
0
 62
     7
100
AcDbBlockBegin
  2
AI9-BLK10
 70
     0
 10
0.0
 20
0.0
 30
0.0
  3
AI9-BLK10
  1

  0
SPLINE
  5
392
330
391
100
AcDbEntity
  8
LAYER_1
 62
     7
100
AcDbSpline
210
0.0
220
0.0
230
1.0
 70
    11
 71
     3
 72
    59
 73
    55
 74
     0
 42
0.0000000001
 43
0.0000000001
 40
0.0
 40
0.0
 40
0.0
 40
0.0
 40
1.0
 40
1.0
 40
1.0
 40
2.0
 40
2.0
 40
2.0
 40
3.0
 40
3.0
 40
3.0
 40
4.0
 40
4.0
 40
4.0
 40
5.0
 40
5.0
 40
5.0
 40
6.0
 40
6.0
 40
6.0
 40
7.0
 40
7.0
 40
7.0
 40
8.0
 40
8.0
 40
8.0
 40
9.0
 40
9.0
 40
9.0
 40
10.0
 40
10.0
 40
10.0
 40
11.0
 40
11.0
 40
11.0
 40
12.0
 40
12.0
 40
12.0
 40
13.0
 40
13.0
 40
13.0
 40
14.0
 40
14.0
 40
14.0
 40
15.0
 40
15.0
 40
15.0
 40
16.0
 40
16.0
 40
16.0
 40
17.0
 40
17.0
 40
17.0
 40
18.0
 40
18.0
 40
18.0
 40
18.0
 10
-4.652256944444443
 20
10.7376736111111
 30
0.0
 10
-4.652256944444443
 20
10.7376736111111
 30
0.0
 10
-2.798795572916666
 20
10.7376736111111
 30
0.0
 10
-2.798795572916666
 20
10.7376736111111
 30
0.0
 10
-2.798795572916666
 20
10.7376736111111
 30
0.0
 10
0.0
 20
-7.419357638888887
 30
0.0
 10
0.0
 20
-7.419357638888887
 30
0.0
 10
0.0
 20
-7.419357638888887
 30
0.0
 10
2.793283420138888
 20
10.7376736111111
 30
0.0
 10
2.793283420138888
 20
10.7376736111111
 30
0.0
 10
2.793283420138888
 20
10.7376736111111
 30
0.0
 10
4.652256944444443
 20
10.7376736111111
 30
0.0
 10
4.652256944444443
 20
10.7376736111111
 30
0.0
 10
4.652256944444443
 20
10.7376736111111
 30
0.0
 10
4.652256944444443
 20
-10.7376736111111
 30
0.0
 10
4.652256944444443
 20
-10.7376736111111
 30
0.0
 10
4.652256944444443
 20
-10.7376736111111
 30
0.0
 10
3.41753472222222
 20
-10.7376736111111
 30
0.0
 10
3.41753472222222
 20
-10.7376736111111
 30
0.0
 10
3.41753472222222
 20
-10.7376736111111
 30
0.0
 10
3.41753472222222
 20
1.936832682291665
 30
0.0
 10
3.41753472222222
 20
1.936832682291665
 30
0.0
 10
3.41753472222222
 20
2.375048828124999
 30
0.0
 10
3.424424913194443
 20
3.101274956597221
 30
0.0
 10
3.439583333333333
 20
4.11482204861111
 30
0.0
 10
3.454052734374998
 20
5.128369140624998
 30
0.0
 10
3.461631944444443
 20
6.214952256944441
 30
0.0
 10
3.461631944444443
 20
7.375260416666666
 30
0.0
 10
3.461631944444443
 20
7.375260416666666
 30
0.0
 10
0.6538791232638889
 20
-10.7376736111111
 30
0.0
 10
0.6538791232638889
 20
-10.7376736111111
 30
0.0
 10
0.6538791232638889
 20
-10.7376736111111
 30
0.0
 10
-0.6628363715277778
 20
-10.7376736111111
 30
0.0
 10
-0.6628363715277778
 20
-10.7376736111111
 30
0.0
 10
-0.6628363715277778
 20
-10.7376736111111
 30
0.0
 10
-3.461631944444443
 20
7.375260416666666
 30
0.0
 10
-3.461631944444443
 20
7.375260416666666
 30
0.0
 10
-3.461631944444443
 20
7.375260416666666
 30
0.0
 10
-3.461631944444443
 20
6.717247178819441
 30
0.0
 10
-3.461631944444443
 20
6.717247178819441
 30
0.0
 10
-3.461631944444443
 20
6.190836588541666
 30
0.0
 10
-3.45474175347222
 20
5.389507378472222
 30
0.0
 10
-3.439583333333333
 20
4.312570529513888
 30
0.0
 10
-3.425113932291666
 20
3.235633680555555
 30
0.0
 10
-3.41753472222222
 20
2.44395073784722
 30
0.0
 10
-3.41753472222222
 20
1.936832682291665
 30
0.0
 10
-3.41753472222222
 20
1.936832682291665
 30
0.0
 10
-3.41753472222222
 20
-10.7376736111111
 30
0.0
 10
-3.41753472222222
 20
-10.7376736111111
 30
0.0
 10
-3.41753472222222
 20
-10.7376736111111
 30
0.0
 10
-4.652256944444443
 20
-10.7376736111111
 30
0.0
 10
-4.652256944444443
 20
-10.7376736111111
 30
0.0
 10
-4.652256944444443
 20
-10.7376736111111
 30
0.0
 10
-4.652256944444443
 20
10.7376736111111
 30
0.0
 10
-4.652256944444443
 20
10.7376736111111
 30
0.0
  0
ENDBLK
  5
394
330
391
100
AcDbEntity
  8
0
100
AcDbBlockEnd
  0
BLOCK
  5
398
330
395
100
AcDbEntity
  8
0
 62
     7
100
AcDbBlockBegin
  2
AI9-BLK9
 70
     0
 10
0.0
 20
0.0
 30
0.0
  3
AI9-BLK9
  1

  0
SPLINE
  5
396
330
395
100
AcDbEntity
  8
LAYER_1
 62
     7
100
AcDbSpline
210
0.0
220
0.0
230
1.0
 70
    11
 71
     3
 72
    29
 73
    25
 74
     0
 42
0.0000000001
 43
0.0000000001
 40
0.0
 40
0.0
 40
0.0
 40
0.0
 40
1.0
 40
1.0
 40
1.0
 40
2.0
 40
2.0
 40
2.0
 40
3.0
 40
3.0
 40
3.0
 40
4.0
 40
4.0
 40
4.0
 40
5.0
 40
5.0
 40
5.0
 40
6.0
 40
6.0
 40
6.0
 40
7.0
 40
7.0
 40
7.0
 40
8.0
 40
8.0
 40
8.0
 40
8.0
 10
0.0668348524305556
 20
-8.753298611111111
 30
0.0
 10
-0.9067491319444444
 20
-8.753298611111111
 30
0.0
 10
-1.60954861111111
 20
-7.936810980902778
 30
0.0
 10
-2.041563585069444
 20
-6.30383572048611
 30
0.0
 10
-2.474267578124999
 20
-4.670860460069443
 30
0.0
 10
-2.689930555555555
 20
-2.664436848958333
 30
0.0
 10
-2.689930555555555
 20
-0.28525390625
 30
0.0
 10
-2.689930555555555
 20
2.68855251736111
 30
0.0
 10
-2.439127604166666
 20
4.938199869791666
 30
0.0
 10
-1.937521701388888
 20
6.464377170138886
 30
0.0
 10
-1.43591579861111
 20
7.989865451388887
 30
0.0
 10
-0.7827256944444444
 20
8.753298611111111
 30
0.0
 10
0.0220486111111111
 20
8.753298611111111
 30
0.0
 10
0.8468044704861108
 20
8.753298611111111
 30
0.0
 10
1.49792751736111
 20
7.982975260416663
 30
0.0
 10
1.974728732638888
 20
6.442328559027776
 30
0.0
 10
2.451529947916665
 20
4.901681857638886
 30
0.0
 10
2.689930555555555
 20
2.868386501736111
 30
0.0
 10
2.689930555555555
 20
0.3438205295138888
 30
0.0
 10
2.689930555555555
 20
-2.045697699652774
 30
0.0
 10
2.483224826388884
 20
-4.15891927083333
 30
0.0
 10
2.071191406249999
 20
-5.996533203124998
 30
0.0
 10
1.65915798611111
 20
-7.834836154513887
 30
0.0
 10
0.9908094618055557
 20
-8.753298611111111
 30
0.0
 10
0.0668348524305556
 20
-8.753298611111111
 30
0.0
  0
SPLINE
  5
397
330
395
100
AcDbEntity
  8
LAYER_1
 62
     7
100
AcDbSpline
210
0.0
220
0.0
230
1.0
 70
    11
 71
     3
 72
    29
 73
    25
 74
     0
 42
0.0000000001
 43
0.0000000001
 40
0.0
 40
0.0
 40
0.0
 40
0.0
 40
1.0
 40
1.0
 40
1.0
 40
2.0
 40
2.0
 40
2.0
 40
3.0
 40
3.0
 40
3.0
 40
4.0
 40
4.0
 40
4.0
 40
5.0
 40
5.0
 40
5.0
 40
6.0
 40
6.0
 40
6.0
 40
7.0
 40
7.0
 40
7.0
 40
8.0
 40
8.0
 40
8.0
 40
8.0
 10
-0.0289388020833333
 20
11.35503472222222
 30
0.0
 10
-1.317404513888887
 20
11.35503472222222
 30
0.0
 10
-2.28892144097222
 20
10.02798394097222
 30
0.0
 10
-2.94280056423611
 20
7.374571397569441
 30
0.0
 10
-3.450607638888888
 20
5.30613606770833
 30
0.0
 10
-3.704166666666666
 20
2.81877712673611
 30
0.0
 10
-3.704166666666666
 20
-0.0881944444444445
 30
0.0
 10
-3.704166666666666
 20
-3.307291666666666
 30
0.0
 10
-3.406510416666666
 20
-5.97035047743055
 30
0.0
 10
-2.811197916666666
 20
-8.077370876736106
 30
0.0
 10
-2.147672526041664
 20
-10.26293945312499
 30
0.0
 10
-1.229899088541666
 20
-11.35503472222222
 30
0.0
 10
-0.0585666232638889
 20
-11.35503472222222
 30
0.0
 10
1.20027126736111
 20
-11.35503472222222
 30
0.0
 10
2.166276041666665
 20
-10.10653211805555
 30
0.0
 10
2.840136718749998
 20
-7.609526909722221
 30
0.0
 10
3.416156684027776
 20
-5.483213975694441
 30
0.0
 10
3.704166666666666
 20
-2.814643012152775
 30
0.0
 10
3.704166666666666
 20
0.3948079427083333
 30
0.0
 10
3.704166666666666
 20
3.360346137152776
 30
0.0
 10
3.449918619791666
 20
5.793961588541666
 30
0.0
 10
2.94280056423611
 20
7.696343315972222
 30
0.0
 10
2.298567708333333
 20
10.13547092013888
 30
0.0
 10
1.307758246527777
 20
11.35503472222222
 30
0.0
 10
-0.0289388020833333
 20
11.35503472222222
 30
0.0
  0
ENDBLK
  5
399
330
395
100
AcDbEntity
  8
0
100
AcDbBlockEnd
  0
BLOCK
  5
39D
330
39A
100
AcDbEntity
  8
0
 62
     7
100
AcDbBlockBegin
  2
AI9-BLK8
 70
     0
 10
0.0
 20
0.0
 30
0.0
  3
AI9-BLK8
  1

  0
LWPOLYLINE
  5
39B
330
39A
100
AcDbEntity
  8
LAYER_1
 62
     7
100
AcDbPolyline
 90
       10
 70
     1
 43
0.0
 10
-3.792361111111107
 20
10.7376736111111
 10
-2.268939887152773
 20
10.7376736111111
 10
2.557638888888888
 20
-6.505718315972222
 10
2.557638888888888
 20
10.7376736111111
 10
3.792361111111107
 20
10.7376736111111
 10
3.792361111111107
 20
-10.7376736111111
 10
2.32612847222222
 20
-10.7376736111111
 10
-2.557638888888888
 20
6.549815538194441
 10
-2.557638888888888
 20
-10.7376736111111
 10
-3.792361111111107
 20
-10.7376736111111
  0
HATCH
  5
39C
330
39A
100
AcDbEntity
  8
LAYER_1
 62
     7
100
AcDbHatch
 10
0.0
 20
0.0
 30
0.0
210
0.0
220
0.0
230
1.0
  2
SOLID
 70
     1
 71
     0
 91
        1
 92
        3
 72
     0
 73
     1
 93
       10
 10
-3.792361111111107
 20
10.7376736111111
 10
-2.268939887152773
 20
10.7376736111111
 10
2.557638888888888
 20
-6.505718315972222
 10
2.557638888888888
 20
10.7376736111111
 10
3.792361111111107
 20
10.7376736111111
 10
3.792361111111107
 20
-10.7376736111111
 10
2.32612847222222
 20
-10.7376736111111
 10
-2.557638888888888
 20
6.549815538194441
 10
-2.557638888888888
 20
-10.7376736111111
 10
-3.792361111111107
 20
-10.7376736111111
 97
        0
 75
     2
 76
     1
 98
        1
 10
0.0
 20
0.0
  0
ENDBLK
  5
39E
330
39A
100
AcDbEntity
  8
0
100
AcDbBlockEnd
  0
BLOCK
  5
3A2
330
39F
100
AcDbEntity
  8
0
 62
     7
100
AcDbBlockBegin
  2
AI9-BLK7
 70
     0
 10
0.0
 20
0.0
 30
0.0
  3
AI9-BLK7
  1

  0
LWPOLYLINE
  5
3A0
330
39F
100
AcDbEntity
  8
LAYER_1
 62
     7
100
AcDbPolyline
 90
        4
 70
     1
 43
0.0
 10
-0.6614583333333333
 20
10.7376736111111
 10
0.6614583333333333
 20
10.7376736111111
 10
0.6614583333333333
 20
-10.7376736111111
 10
-0.6614583333333333
 20
-10.7376736111111
  0
HATCH
  5
3A1
330
39F
100
AcDbEntity
  8
LAYER_1
 62
     7
100
AcDbHatch
 10
0.0
 20
0.0
 30
0.0
210
0.0
220
0.0
230
1.0
  2
SOLID
 70
     1
 71
     0
 91
        1
 92
        3
 72
     0
 73
     1
 93
        4
 10
-0.6614583333333333
 20
10.7376736111111
 10
0.6614583333333333
 20
10.7376736111111
 10
0.6614583333333333
 20
-10.7376736111111
 10
-0.6614583333333333
 20
-10.7376736111111
 97
        0
 75
     2
 76
     1
 98
        1
 10
0.0
 20
0.0
  0
ENDBLK
  5
3A3
330
39F
100
AcDbEntity
  8
0
100
AcDbBlockEnd
  0
BLOCK
  5
3A6
330
3A4
100
AcDbEntity
  8
0
 62
     7
100
AcDbBlockBegin
  2
AI9-BLK6
 70
     0
 10
0.0
 20
0.0
 30
0.0
  3
AI9-BLK6
  1

  0
SPLINE
  5
3A5
330
3A4
100
AcDbEntity
  8
LAYER_1
 62
     7
100
AcDbSpline
210
0.0
220
0.0
230
1.0
 70
    11
 71
     3
 72
    59
 73
    55
 74
     0
 42
0.0000000001
 43
0.0000000001
 40
0.0
 40
0.0
 40
0.0
 40
0.0
 40
1.0
 40
1.0
 40
1.0
 40
2.0
 40
2.0
 40
2.0
 40
3.0
 40
3.0
 40
3.0
 40
4.0
 40
4.0
 40
4.0
 40
5.0
 40
5.0
 40
5.0
 40
6.0
 40
6.0
 40
6.0
 40
7.0
 40
7.0
 40
7.0
 40
8.0
 40
8.0
 40
8.0
 40
9.0
 40
9.0
 40
9.0
 40
10.0
 40
10.0
 40
10.0
 40
11.0
 40
11.0
 40
11.0
 40
12.0
 40
12.0
 40
12.0
 40
13.0
 40
13.0
 40
13.0
 40
14.0
 40
14.0
 40
14.0
 40
15.0
 40
15.0
 40
15.0
 40
16.0
 40
16.0
 40
16.0
 40
17.0
 40
17.0
 40
17.0
 40
18.0
 40
18.0
 40
18.0
 40
18.0
 10
3.062689887152775
 20
9.168088107638887
 30
0.0
 10
3.735172526041666
 20
7.739062499999997
 30
0.0
 10
4.110687934027776
 20
6.116422526041666
 30
0.0
 10
4.189236111111108
 20
4.299479166666666
 30
0.0
 10
4.189236111111108
 20
4.299479166666666
 30
0.0
 10
2.866319444444443
 20
4.299479166666666
 30
0.0
 10
2.866319444444443
 20
4.299479166666666
 30
0.0
 10
2.720936414930555
 20
5.667871093749997
 30
0.0
 10
2.435682508680555
 20
6.752387152777776
 30
0.0
 10
2.009868706597218
 20
7.553027343749997
 30
0.0
 10
1.584054904513888
 20
8.352978515624997
 30
0.0
 10
0.9839192708333332
 20
8.753298611111111
 30
0.0
 10
0.2101508246527778
 20
8.753298611111111
 30
0.0
 10
-0.7386284722222222
 20
8.753298611111111
 30
0.0
 10
-1.503439670138888
 20
8.010536024305555
 30
0.0
 10
-2.083593749999999
 20
6.526388888888886
 30
0.0
 10
-2.664436848958333
 20
5.042241753472221
 30
0.0
 10
-2.954513888888888
 20
2.767100694444443
 30
0.0
 10
-2.954513888888888
 20
-0.2990342881944444
 30
0.0
 10
-2.954513888888888
 20
-2.811197916666666
 30
0.0
 10
-2.693375651041666
 20
-4.847938368055555
 30
0.0
 10
-2.17041015625
 20
-6.409944661458332
 30
0.0
 10
-1.648133680555553
 20
-7.972639973958332
 30
0.0
 10
-0.8640299479166666
 20
-8.753298611111111
 30
0.0
 10
0.1812120225694444
 20
-8.753298611111111
 30
0.0
 10
1.138948567708333
 20
-8.753298611111111
 30
0.0
 10
1.865174696180553
 20
-7.927853732638887
 30
0.0
 10
2.359201388888884
 20
-6.275585937499998
 30
0.0
 10
2.62998589409722
 20
-5.406043836805555
 30
0.0
 10
2.828423394097221
 20
-4.262272135416666
 30
0.0
 10
2.954513888888888
 20
-2.844270833333331
 30
0.0
 10
2.954513888888888
 20
-2.844270833333331
 30
0.0
 10
4.277430555555555
 20
-2.844270833333331
 30
0.0
 10
4.277430555555555
 20
-2.844270833333331
 30
0.0
 10
4.169943576388888
 20
-5.109765624999996
 30
0.0
 10
3.795117187499998
 20
-7.009391276041665
 30
0.0
 10
3.151573350694443
 20
-8.542458767361106
 30
0.0
 10
2.381249999999999
 20
-10.38834092881943
 30
0.0
 10
1.347721354166665
 20
-11.3109375
 30
0.0
 10
0.0509874131944445
 20
-11.3109375
 30
0.0
 10
-1.07004665798611
 20
-11.3109375
 30
0.0
 10
-2.010557725694444
 20
-10.55577256944443
 30
0.0
 10
-2.771234809027776
 20
-9.04475368923611
 30
0.0
 10
-3.775824652777775
 20
-7.046598307291666
 30
0.0
 10
-4.277430555555555
 20
-3.961170789930555
 30
0.0
 10
-4.277430555555555
 20
0.2115288628472222
 30
0.0
 10
-4.277430555555555
 20
3.379638671874998
 30
0.0
 10
-3.902604166666666
 20
5.977929687499997
 30
0.0
 10
-3.151573350694443
 20
8.005712890624996
 30
0.0
 10
-2.333018663194443
 20
10.20919596354165
 30
0.0
 10
-1.20647243923611
 20
11.3109375
 30
0.0
 10
0.2266872829861111
 20
11.3109375
 30
0.0
 10
1.444873046875
 20
11.3109375
 30
0.0
 10
2.390207248263884
 20
10.59642469618055
 30
0.0
 10
3.062689887152775
 20
9.168088107638887
 30
0.0
  0
ENDBLK
  5
3A7
330
3A4
100
AcDbEntity
  8
0
100
AcDbBlockEnd
  0
BLOCK
  5
3AB
330
3A8
100
AcDbEntity
  8
0
 62
     7
100
AcDbBlockBegin
  2
AI9-BLK5
 70
     0
 10
0.0
 20
0.0
 30
0.0
  3
AI9-BLK5
  1

  0
SPLINE
  5
3A9
330
3A8
100
AcDbEntity
  8
LAYER_1
 62
     7
100
AcDbSpline
210
0.0
220
0.0
230
1.0
 70
    11
 71
     3
 72
    32
 73
    28
 74
     0
 42
0.0000000001
 43
0.0000000001
 40
0.0
 40
0.0
 40
0.0
 40
0.0
 40
1.0
 40
1.0
 40
1.0
 40
2.0
 40
2.0
 40
2.0
 40
3.0
 40
3.0
 40
3.0
 40
4.0
 40
4.0
 40
4.0
 40
5.0
 40
5.0
 40
5.0
 40
6.0
 40
6.0
 40
6.0
 40
7.0
 40
7.0
 40
7.0
 40
8.0
 40
8.0
 40
8.0
 40
9.0
 40
9.0
 40
9.0
 40
9.0
 10
-2.62378472222222
 20
-8.268229166666666
 30
0.0
 10
-2.62378472222222
 20
-8.268229166666666
 30
0.0
 10
-2.62378472222222
 20
8.180034722222217
 30
0.0
 10
-2.62378472222222
 20
8.180034722222217
 30
0.0
 10
-2.62378472222222
 20
8.180034722222217
 30
0.0
 10
-0.3376193576388888
 20
8.180034722222217
 30
0.0
 10
-0.3376193576388888
 20
8.180034722222217
 30
0.0
 10
0.6972873263888888
 20
8.180034722222217
 30
0.0
 10
1.449007161458333
 20
7.445540364583332
 30
0.0
 10
1.918918185763885
 20
5.977929687499997
 30
0.0
 10
2.388829210069443
 20
4.510319010416666
 30
0.0
 10
2.62378472222222
 20
2.449462890624999
 30
0.0
 10
2.62378472222222
 20
-0.204638671875
 30
0.0
 10
2.62378472222222
 20
-0.8950358072916666
 30
0.0
 10
2.590022786458332
 20
-1.643310546874999
 30
0.0
 10
2.523187934027772
 20
-2.45015190972222
 30
0.0
 10
2.408121744791666
 20
-3.80200737847222
 30
0.0
 10
2.226220703124999
 20
-4.909950086805555
 30
0.0
 10
1.976795789930553
 20
-5.774669053819441
 30
0.0
 10
1.659847005208333
 20
-6.853672960069442
 30
0.0
 10
1.252636718749998
 20
-7.583344184027778
 30
0.0
 10
0.7544759114583333
 20
-7.962304687499997
 30
0.0
 10
0.4664659288194444
 20
-8.166254340277777
 30
0.0
 10
0.1074869791666666
 20
-8.268229166666666
 30
0.0
 10
-0.3231499565972222
 20
-8.268229166666666
 30
0.0
 10
-0.3231499565972222
 20
-8.268229166666666
 30
0.0
 10
-2.62378472222222
 20
-8.268229166666666
 30
0.0
 10
-2.62378472222222
 20
-8.268229166666666
 30
0.0
  0
SPLINE
  5
3AA
330
3A8
100
AcDbEntity
  8
LAYER_1
 62
     7
100
AcDbSpline
210
0.0
220
0.0
230
1.0
 70
    11
 71
     3
 72
    26
 73
    22
 74
     0
 42
0.0000000001
 43
0.0000000001
 40
0.0
 40
0.0
 40
0.0
 40
0.0
 40
1.0
 40
1.0
 40
1.0
 40
2.0
 40
2.0
 40
2.0
 40
3.0
 40
3.0
 40
3.0
 40
4.0
 40
4.0
 40
4.0
 40
5.0
 40
5.0
 40
5.0
 40
6.0
 40
6.0
 40
6.0
 40
7.0
 40
7.0
 40
7.0
 40
7.0
 10
-3.946701388888888
 20
-10.7376736111111
 30
0.0
 10
-3.946701388888888
 20
-10.7376736111111
 30
0.0
 10
-0.0943956163194444
 20
-10.7376736111111
 30
0.0
 10
-0.0943956163194444
 20
-10.7376736111111
 30
0.0
 10
1.546847873263885
 20
-10.7376736111111
 30
0.0
 10
2.705777994791666
 20
-9.11021050347222
 30
0.0
 10
3.381705729166666
 20
-5.854595269097222
 30
0.0
 10
3.757910156249999
 20
-4.01284722222222
 30
0.0
 10
3.946701388888888
 20
-1.951991102430555
 30
0.0
 10
3.946701388888888
 20
0.328662109375
 30
0.0
 10
3.946701388888888
 20
3.281797960069443
 30
0.0
 10
3.622862413194443
 20
5.703700086805552
 30
0.0
 10
2.976562499999998
 20
7.594368489583332
 30
0.0
 10
2.25171440972222
 20
9.689675564236106
 30
0.0
 10
1.233344184027777
 20
10.7376736111111
 30
0.0
 10
-0.0799262152777778
 20
10.7376736111111
 30
0.0
 10
-0.0799262152777778
 20
10.7376736111111
 30
0.0
 10
-3.946701388888888
 20
10.7376736111111
 30
0.0
 10
-3.946701388888888
 20
10.7376736111111
 30
0.0
 10
-3.946701388888888
 20
10.7376736111111
 30
0.0
 10
-3.946701388888888
 20
-10.7376736111111
 30
0.0
 10
-3.946701388888888
 20
-10.7376736111111
 30
0.0
  0
ENDBLK
  5
3AC
330
3A8
100
AcDbEntity
  8
0
100
AcDbBlockEnd
  0
BLOCK
  5
3B0
330
3AD
100
AcDbEntity
  8
0
 62
     7
100
AcDbBlockBegin
  2
AI9-BLK4
 70
     0
 10
0.0
 20
0.0
 30
0.0
  3
AI9-BLK4
  1

  0
SPLINE
  5
3AE
330
3AD
100
AcDbEntity
  8
LAYER_1
 62
     7
100
AcDbSpline
210
0.0
220
0.0
230
1.0
 70
    11
 71
     3
 72
    26
 73
    22
 74
     0
 42
0.0000000001
 43
0.0000000001
 40
0.0
 40
0.0
 40
0.0
 40
0.0
 40
1.0
 40
1.0
 40
1.0
 40
2.0
 40
2.0
 40
2.0
 40
3.0
 40
3.0
 40
3.0
 40
4.0
 40
4.0
 40
4.0
 40
5.0
 40
5.0
 40
5.0
 40
6.0
 40
6.0
 40
6.0
 40
7.0
 40
7.0
 40
7.0
 40
7.0
 10
-2.645833333333333
 20
0.9039930555555551
 30
0.0
 10
-2.645833333333333
 20
0.9039930555555551
 30
0.0
 10
-2.645833333333333
 20
8.180034722222217
 30
0.0
 10
-2.645833333333333
 20
8.180034722222217
 30
0.0
 10
-2.645833333333333
 20
8.180034722222217
 30
0.0
 10
0.465087890625
 20
8.180034722222217
 30
0.0
 10
0.465087890625
 20
8.180034722222217
 30
0.0
 10
0.9026150173611108
 20
8.180034722222217
 30
0.0
 10
1.24988064236111
 20
8.034651692708331
 30
0.0
 10
1.506884765625
 20
7.745263671874997
 30
0.0
 10
2.001600477430554
 20
7.194048394097221
 30
0.0
 10
2.248958333333332
 20
6.160519748263887
 30
0.0
 10
2.248958333333332
 20
4.643299696180553
 30
0.0
 10
2.248958333333332
 20
3.232188585069443
 30
0.0
 10
2.072569444444444
 20
2.256537543402775
 30
0.0
 10
1.720480685763888
 20
1.715657552083333
 30
0.0
 10
1.368391927083333
 20
1.174088541666665
 30
0.0
 10
0.8929687499999998
 20
0.9039930555555551
 30
0.0
 10
0.2942111545138888
 20
0.9039930555555551
 30
0.0
 10
0.2942111545138888
 20
0.9039930555555551
 30
0.0
 10
-2.645833333333333
 20
0.9039930555555551
 30
0.0
 10
-2.645833333333333
 20
0.9039930555555551
 30
0.0
  0
SPLINE
  5
3AF
330
3AD
100
AcDbEntity
  8
LAYER_1
 62
     7
100
AcDbSpline
210
0.0
220
0.0
230
1.0
 70
    11
 71
     3
 72
    68
 73
    64
 74
     0
 42
0.0000000001
 43
0.0000000001
 40
0.0
 40
0.0
 40
0.0
 40
0.0
 40
1.0
 40
1.0
 40
1.0
 40
2.0
 40
2.0
 40
2.0
 40
3.0
 40
3.0
 40
3.0
 40
4.0
 40
4.0
 40
4.0
 40
5.0
 40
5.0
 40
5.0
 40
6.0
 40
6.0
 40
6.0
 40
7.0
 40
7.0
 40
7.0
 40
8.0
 40
8.0
 40
8.0
 40
9.0
 40
9.0
 40
9.0
 40
10.0
 40
10.0
 40
10.0
 40
11.0
 40
11.0
 40
11.0
 40
12.0
 40
12.0
 40
12.0
 40
13.0
 40
13.0
 40
13.0
 40
14.0
 40
14.0
 40
14.0
 40
15.0
 40
15.0
 40
15.0
 40
16.0
 40
16.0
 40
16.0
 40
17.0
 40
17.0
 40
17.0
 40
18.0
 40
18.0
 40
18.0
 40
19.0
 40
19.0
 40
19.0
 40
20.0
 40
20.0
 40
20.0
 40
21.0
 40
21.0
 40
21.0
 40
21.0
 10
-3.968749999999998
 20
-10.7376736111111
 30
0.0
 10
-3.968749999999998
 20
-10.7376736111111
 30
0.0
 10
-2.645833333333333
 20
-10.7376736111111
 30
0.0
 10
-2.645833333333333
 20
-10.7376736111111
 30
0.0
 10
-2.645833333333333
 20
-10.7376736111111
 30
0.0
 10
-2.645833333333333
 20
-1.521354166666665
 30
0.0
 10
-2.645833333333333
 20
-1.521354166666665
 30
0.0
 10
-2.645833333333333
 20
-1.521354166666665
 30
0.0
 10
0.2390896267361111
 20
-1.521354166666665
 30
0.0
 10
0.2390896267361111
 20
-1.521354166666665
 30
0.0
 10
0.7599880642361111
 20
-1.521354166666665
 30
0.0
 10
1.143771701388887
 20
-1.65295681423611
 30
0.0
 10
1.390440538194444
 20
-1.916162109374999
 30
0.0
 10
1.816254340277773
 20
-2.39434136284722
 30
0.0
 10
2.04363064236111
 20
-3.335541449652775
 30
0.0
 10
2.072569444444444
 20
-4.739762369791666
 30
0.0
 10
2.072569444444444
 20
-4.739762369791666
 30
0.0
 10
2.160763888888888
 20
-8.324039713541665
 30
0.0
 10
2.160763888888888
 20
-8.324039713541665
 30
0.0
 10
2.18005642361111
 20
-9.163264973958332
 30
0.0
 10
2.202794053819443
 20
-9.728949652777775
 30
0.0
 10
2.227598741319444
 20
-10.02109374999998
 30
0.0
 10
2.252403428819443
 20
-10.31392686631944
 30
0.0
 10
2.28892144097222
 20
-10.55301649305555
 30
0.0
 10
2.33853081597222
 20
-10.7376736111111
 30
0.0
 10
2.33853081597222
 20
-10.7376736111111
 30
0.0
 10
3.968749999999998
 20
-10.7376736111111
 30
0.0
 10
3.968749999999998
 20
-10.7376736111111
 30
0.0
 10
3.968749999999998
 20
-10.7376736111111
 30
0.0
 10
3.968749999999998
 20
-10.25260416666666
 30
0.0
 10
3.968749999999998
 20
-10.25260416666666
 30
0.0
 10
3.766867404513888
 20
-10.05830078125
 30
0.0
 10
3.625618489583333
 20
-9.621462673611112
 30
0.0
 10
3.545692274305555
 20
-8.942089843749997
 30
0.0
 10
3.49470486111111
 20
-8.543836805555555
 30
0.0
 10
3.459564887152775
 20
-7.937499999999999
 30
0.0
 10
3.439583333333333
 20
-7.121701388888887
 30
0.0
 10
3.439583333333333
 20
-7.121701388888887
 30
0.0
 10
3.395486111111106
 20
-4.232644314236106
 30
0.0
 10
3.395486111111106
 20
-4.232644314236106
 30
0.0
 10
3.375504557291666
 20
-2.981385633680555
 30
0.0
 10
3.26870659722222
 20
-2.077392578125
 30
0.0
 10
3.075781249999999
 20
-1.522043185763888
 30
0.0
 10
2.882166883680555
 20
-0.9666937934027776
 30
0.0
 10
2.592089843749999
 20
-0.5188313802083333
 30
0.0
 10
2.204861111111105
 20
-0.1770779079861111
 30
0.0
 10
2.63618706597222
 20
0.3197048611111111
 30
0.0
 10
2.971739366319443
 20
0.9770290798611107
 30
0.0
 10
3.211518012152775
 20
1.79558376736111
 30
0.0
 10
3.451296657986107
 20
2.613449435763888
 30
0.0
 10
3.571874999999999
 20
3.66558159722222
 30
0.0
 10
3.571874999999999
 20
4.951291232638888
 30
0.0
 10
3.571874999999999
 20
7.415912543402777
 30
0.0
 10
3.124701605902775
 20
9.106076388888887
 30
0.0
 10
2.231043836805555
 20
10.02178276909722
 30
0.0
 10
1.759754774305553
 20
10.498583984375
 30
0.0
 10
1.163753255208332
 20
10.7376736111111
 30
0.0
 10
0.443039279513889
 20
10.7376736111111
 30
0.0
 10
0.443039279513889
 20
10.7376736111111
 30
0.0
 10
-3.968749999999998
 20
10.7376736111111
 30
0.0
 10
-3.968749999999998
 20
10.7376736111111
 30
0.0
 10
-3.968749999999998
 20
10.7376736111111
 30
0.0
 10
-3.968749999999998
 20
-10.7376736111111
 30
0.0
 10
-3.968749999999998
 20
-10.7376736111111
 30
0.0
  0
ENDBLK
  5
3B1
330
3AD
100
AcDbEntity
  8
0
100
AcDbBlockEnd
  0
BLOCK
  5
3B5
330
3B2
100
AcDbEntity
  8
0
 62
     7
100
AcDbBlockBegin
  2
AI9-BLK3
 70
     0
 10
0.0
 20
0.0
 30
0.0
  3
AI9-BLK3
  1

  0
LWPOLYLINE
  5
3B3
330
3B2
100
AcDbEntity
  8
LAYER_1
 62
     7
100
AcDbPolyline
 90
        4
 70
     1
 43
0.0
 10
-0.6613722059461809
 20
10.7376736111111
 10
0.6613722059461809
 20
10.7376736111111
 10
0.6613722059461809
 20
-10.7376736111111
 10
-0.6613722059461809
 20
-10.7376736111111
  0
HATCH
  5
3B4
330
3B2
100
AcDbEntity
  8
LAYER_1
 62
     7
100
AcDbHatch
 10
0.0
 20
0.0
 30
0.0
210
0.0
220
0.0
230
1.0
  2
SOLID
 70
     1
 71
     0
 91
        1
 92
        3
 72
     0
 73
     1
 93
        4
 10
-0.6613722059461809
 20
10.7376736111111
 10
0.6613722059461809
 20
10.7376736111111
 10
0.6613722059461809
 20
-10.7376736111111
 10
-0.6613722059461809
 20
-10.7376736111111
 97
        0
 75
     2
 76
     1
 98
        1
 10
0.0
 20
0.0
  0
ENDBLK
  5
3B6
330
3B2
100
AcDbEntity
  8
0
100
AcDbBlockEnd
  0
BLOCK
  5
3BA
330
3B7
100
AcDbEntity
  8
0
 62
     7
100
AcDbBlockBegin
  2
AI9-BLK2
 70
     0
 10
0.0
 20
0.0
 30
0.0
  3
AI9-BLK2
  1

  0
LWPOLYLINE
  5
3B8
330
3B7
100
AcDbEntity
  8
LAYER_1
 62
     7
100
AcDbPolyline
 90
        7
 70
     1
 43
0.0
 10
-2.785704210069443
 20
10.7376736111111
 10
0.0
 20
-7.550960286458332
 10
2.771234809027776
 20
10.7376736111111
 10
4.233333333333331
 20
10.7376736111111
 10
0.6910861545138888
 20
-10.7376736111111
 10
-0.7055555555555558
 20
-10.7376736111111
 10
-4.233333333333331
 20
10.7376736111111
  0
HATCH
  5
3B9
330
3B7
100
AcDbEntity
  8
LAYER_1
 62
     7
100
AcDbHatch
 10
0.0
 20
0.0
 30
0.0
210
0.0
220
0.0
230
1.0
  2
SOLID
 70
     1
 71
     0
 91
        1
 92
        3
 72
     0
 73
     1
 93
        7
 10
-2.785704210069443
 20
10.7376736111111
 10
0.0
 20
-7.550960286458332
 10
2.771234809027776
 20
10.7376736111111
 10
4.233333333333331
 20
10.7376736111111
 10
0.6910861545138888
 20
-10.7376736111111
 10
-0.7055555555555558
 20
-10.7376736111111
 10
-4.233333333333331
 20
10.7376736111111
 97
        0
 75
     2
 76
     1
 98
        1
 10
0.0
 20
0.0
  0
ENDBLK
  5
3BB
330
3B7
100
AcDbEntity
  8
0
100
AcDbBlockEnd
  0
BLOCK
  5
3BF
330
3BC
100
AcDbEntity
  8
0
 62
     7
100
AcDbBlockBegin
  2
AI9-BLK1
 70
     0
 10
0.0
 20
0.0
 30
0.0
  3
AI9-BLK1
  1

  0
LWPOLYLINE
  5
3BD
330
3BC
100
AcDbEntity
  8
LAYER_1
 62
     7
100
AcDbPolyline
 90
       12
 70
     1
 43
0.0
 10
-3.571874999999999
 20
10.7376736111111
 10
3.483680555555555
 20
10.7376736111111
 10
3.483680555555555
 20
8.091840277777777
 10
-2.248958333333332
 20
8.091840277777777
 10
-2.248958333333332
 20
1.565451388888888
 10
3.042708333333333
 20
1.565451388888888
 10
3.042708333333333
 20
-0.9039930555555551
 10
-2.248958333333332
 20
-0.9039930555555551
 10
-2.248958333333332
 20
-8.180034722222217
 10
3.571874999999999
 20
-8.180034722222217
 10
3.571874999999999
 20
-10.7376736111111
 10
-3.571874999999999
 20
-10.7376736111111
  0
HATCH
  5
3BE
330
3BC
100
AcDbEntity
  8
LAYER_1
 62
     7
100
AcDbHatch
 10
0.0
 20
0.0
 30
0.0
210
0.0
220
0.0
230
1.0
  2
SOLID
 70
     1
 71
     0
 91
        1
 92
        3
 72
     0
 73
     1
 93
       12
 10
-3.571874999999999
 20
10.7376736111111
 10
3.483680555555555
 20
10.7376736111111
 10
3.483680555555555
 20
8.091840277777777
 10
-2.248958333333332
 20
8.091840277777777
 10
-2.248958333333332
 20
1.565451388888888
 10
3.042708333333333
 20
1.565451388888888
 10
3.042708333333333
 20
-0.9039930555555551
 10
-2.248958333333332
 20
-0.9039930555555551
 10
-2.248958333333332
 20
-8.180034722222217
 10
3.571874999999999
 20
-8.180034722222217
 10
3.571874999999999
 20
-10.7376736111111
 10
-3.571874999999999
 20
-10.7376736111111
 97
        0
 75
     2
 76
     1
 98
        1
 10
0.0
 20
0.0
  0
ENDBLK
  5
3C0
330
3BC
100
AcDbEntity
  8
0
100
AcDbBlockEnd
  0
BLOCK
  5
3E4
330
3C1
100
AcDbEntity
  8
0
100
AcDbBlockBegin
  2
HD_LLC_logo_OT5
 70
     0
 10
0.0
 20
0.0
 30
0.0
  3
HD_LLC_logo_OT5
  1

  0
SPLINE
  5
3C2
102
{ACAD_REACTORS
330
3E2
102
}
330
3C1
100
AcDbEntity
  8
LAYER_1
 62
     7
100
AcDbSpline
210
0.0
220
0.0
230
1.0
 70
    11
 71
     3
 72
   113
 73
   109
 74
     0
 42
0.0000000001
 43
0.0000000001
 40
0.0
 40
0.0
 40
0.0
 40
0.0
 40
1.0
 40
1.0
 40
1.0
 40
2.0
 40
2.0
 40
2.0
 40
3.0
 40
3.0
 40
3.0
 40
4.0
 40
4.0
 40
4.0
 40
5.0
 40
5.0
 40
5.0
 40
6.0
 40
6.0
 40
6.0
 40
7.0
 40
7.0
 40
7.0
 40
8.0
 40
8.0
 40
8.0
 40
9.0
 40
9.0
 40
9.0
 40
10.0
 40
10.0
 40
10.0
 40
11.0
 40
11.0
 40
11.0
 40
12.0
 40
12.0
 40
12.0
 40
13.0
 40
13.0
 40
13.0
 40
14.0
 40
14.0
 40
14.0
 40
15.0
 40
15.0
 40
15.0
 40
16.0
 40
16.0
 40
16.0
 40
17.0
 40
17.0
 40
17.0
 40
18.0
 40
18.0
 40
18.0
 40
19.0
 40
19.0
 40
19.0
 40
20.0
 40
20.0
 40
20.0
 40
21.0
 40
21.0
 40
21.0
 40
22.0
 40
22.0
 40
22.0
 40
23.0
 40
23.0
 40
23.0
 40
24.0
 40
24.0
 40
24.0
 40
25.0
 40
25.0
 40
25.0
 40
26.0
 40
26.0
 40
26.0
 40
27.0
 40
27.0
 40
27.0
 40
28.0
 40
28.0
 40
28.0
 40
29.0
 40
29.0
 40
29.0
 40
30.0
 40
30.0
 40
30.0
 40
31.0
 40
31.0
 40
31.0
 40
32.0
 40
32.0
 40
32.0
 40
33.0
 40
33.0
 40
33.0
 40
34.0
 40
34.0
 40
34.0
 40
35.0
 40
35.0
 40
35.0
 40
36.0
 40
36.0
 40
36.0
 40
36.0
 10
193.3039632161458
 20
186.1548733181423
 30
0.0
 10
193.3039632161458
 20
186.1860514322916
 30
0.0
 10
193.3039632161458
 20
219.6932223849826
 30
0.0
 10
193.3039632161458
 20
219.6932223849826
 30
0.0
 10
193.3039632161458
 20
219.6932223849826
 30
0.0
 10
193.2974175347219
 20
219.7488606770833
 30
0.0
 10
193.2974175347219
 20
219.7488606770833
 30
0.0
 10
191.5293945312499
 20
235.455740017361
 30
0.0
 10
175.1458984374999
 20
235.2467949761284
 30
0.0
 10
174.9808783637151
 20
235.2428331163193
 30
0.0
 10
174.9808783637151
 20
235.2428331163193
 30
0.0
 10
125.8827555338541
 20
235.2430053710937
 30
0.0
 10
125.8827555338541
 20
235.2430053710937
 30
0.0
 10
125.8827555338541
 20
235.2430053710937
 30
0.0
 10
125.8827555338541
 20
255.5278998480901
 30
0.0
 10
125.8827555338541
 20
255.5278998480901
 30
0.0
 10
125.8827555338541
 20
255.5278998480901
 30
0.0
 10
84.5626247829861
 20
255.5278998480901
 30
0.0
 10
84.5626247829861
 20
255.5278998480901
 30
0.0
 10
84.5626247829861
 20
255.5278998480901
 30
0.0
 10
84.55711263020829
 20
233.7919311523436
 30
0.0
 10
84.55711263020829
 20
233.7919311523436
 30
0.0
 10
84.55711263020829
 20
233.7919311523436
 30
0.0
 10
64.42052951388888
 20
233.7919311523436
 30
0.0
 10
64.42052951388888
 20
233.7919311523436
 30
0.0
 10
64.42052951388888
 20
233.7919311523436
 30
0.0
 10
64.41501736111111
 20
255.5278998480901
 30
0.0
 10
64.41501736111111
 20
255.5278998480901
 30
0.0
 10
64.41501736111111
 20
255.5278998480901
 30
0.0
 10
23.91757541232637
 20
255.5278998480901
 30
0.0
 10
23.91757541232637
 20
255.5278998480901
 30
0.0
 10
23.91757541232637
 20
255.5278998480901
 30
0.0
 10
23.91757541232637
 20
233.2393378363715
 30
0.0
 10
23.91757541232637
 20
233.2393378363715
 30
0.0
 10
23.91757541232637
 20
233.2393378363715
 30
0.0
 10
43.65624999999999
 20
233.2393378363715
 30
0.0
 10
43.65624999999999
 20
233.2393378363715
 30
0.0
 10
43.65624999999999
 20
233.2393378363715
 30
0.0
 10
43.65624999999999
 20
211.5188720703125
 30
0.0
 10
43.65624999999999
 20
211.5188720703125
 30
0.0
 10
43.65624999999999
 20
211.5188720703125
 30
0.0
 10
23.91757541232637
 20
211.5188720703125
 30
0.0
 10
23.91757541232637
 20
211.5188720703125
 30
0.0
 10
23.91757541232637
 20
211.5188720703125
 30
0.0
 10
23.91757541232637
 20
189.2303100585936
 30
0.0
 10
23.91757541232637
 20
189.2303100585936
 30
0.0
 10
23.91757541232637
 20
189.2303100585936
 30
0.0
 10
64.41501736111111
 20
189.2303100585936
 30
0.0
 10
64.41501736111111
 20
189.2303100585936
 30
0.0
 10
64.41501736111111
 20
189.2303100585936
 30
0.0
 10
64.42052951388888
 20
211.069976128472
 30
0.0
 10
64.42052951388888
 20
211.069976128472
 30
0.0
 10
64.42052951388888
 20
211.069976128472
 30
0.0
 10
84.55711263020829
 20
211.069976128472
 30
0.0
 10
84.55711263020829
 20
211.069976128472
 30
0.0
 10
84.55711263020829
 20
211.069976128472
 30
0.0
 10
84.5626247829861
 20
189.2303100585936
 30
0.0
 10
84.5626247829861
 20
189.2303100585936
 30
0.0
 10
84.5626247829861
 20
189.2303100585936
 30
0.0
 10
125.8827555338541
 20
189.2303100585936
 30
0.0
 10
125.8827555338541
 20
189.2303100585936
 30
0.0
 10
125.8827555338541
 20
189.2303100585936
 30
0.0
 10
125.8827555338541
 20
211.5188720703125
 30
0.0
 10
125.8827555338541
 20
211.5188720703125
 30
0.0
 10
125.8827555338541
 20
211.5188720703125
 30
0.0
 10
105.3213921440971
 20
211.5188720703125
 30
0.0
 10
105.3213921440971
 20
211.5188720703125
 30
0.0
 10
105.3213921440971
 20
211.5188720703125
 30
0.0
 10
105.3213921440971
 20
233.2393378363715
 30
0.0
 10
105.3213921440971
 20
233.2393378363715
 30
0.0
 10
105.3213921440971
 20
233.2393378363715
 30
0.0
 10
175.0046495225693
 20
233.243127441406
 30
0.0
 10
175.0046495225693
 20
233.243127441406
 30
0.0
 10
175.6268337673611
 20
233.2560465494791
 30
0.0
 10
189.7165852864583
 20
233.3962619357638
 30
0.0
 10
191.3037407769094
 20
219.5690266927083
 30
0.0
 10
191.3037407769094
 20
219.4332899305555
 30
0.0
 10
191.3037407769094
 20
186.1142211914062
 30
0.0
 10
191.3037407769094
 20
186.1142211914062
 30
0.0
 10
191.3037407769094
 20
186.1142211914062
 30
0.0
 10
191.3051188151039
 20
186.0880384657115
 30
0.0
 10
191.3051188151039
 20
186.0880384657115
 30
0.0
 10
191.3054633246526
 20
186.0787367078991
 30
0.0
 10
191.3109754774304
 20
185.9566080729166
 30
0.0
 10
191.3109754774304
 20
185.7399115668401
 30
0.0
 10
191.3109754774304
 20
184.2090833875865
 30
0.0
 10
191.0488037109374
 20
177.9643310546874
 30
0.0
 10
186.9866916232638
 20
173.5652886284722
 30
0.0
 10
184.2540418836804
 20
170.6064683702255
 30
0.0
 10
180.3224989149304
 20
169.0308539496526
 30
0.0
 10
175.300927734375
 20
168.8825425889756
 30
0.0
 10
175.300927734375
 20
168.8825425889756
 30
0.0
 10
107.0094889322916
 20
168.8828870985243
 30
0.0
 10
107.0094889322916
 20
168.8828870985243
 30
0.0
 10
107.0094889322916
 20
168.8828870985243
 30
0.0
 10
107.0094889322916
 20
166.8830091688368
 30
0.0
 10
107.0094889322916
 20
166.8830091688368
 30
0.0
 10
107.0094889322916
 20
166.8830091688368
 30
0.0
 10
175.3305555555555
 20
166.8830091688368
 30
0.0
 10
175.3305555555555
 20
166.8830091688368
 30
0.0
 10
180.9467502170138
 20
167.0485460069444
 30
0.0
 10
185.3571614583333
 20
168.8448187934026
 30
0.0
 10
188.4687717013888
 20
172.2223904079861
 30
0.0
 10
192.9649658203124
 20
177.1034016927083
 30
0.0
 10
193.3136094835069
 20
183.7202243381076
 30
0.0
 10
193.3136094835069
 20
185.6520616319443
 30
0.0
 10
193.3136094835069
 20
185.9247409396701
 30
0.0
 10
193.3070638020833
 20
186.0868326822916
 30
0.0
 10
193.3039632161458
 20
186.1548733181423
 30
0.0
  0
INSERT
  5
3C3
102
{ACAD_REACTORS
330
3E3
102
}
330
3C1
100
AcDbEntity
  8
LAYER_1
 62
     7
100
AcDbBlockReference
  2
AI9-BLK14
 10
159.5625257703993
 20
200.5118781195744
 30
0.0
  0
INSERT
  5
3C4
330
3C1
100
AcDbEntity
  8
LAYER_1
 62
     7
100
AcDbBlockReference
  2
AI9-BLK13
 10
27.69615614149305
 20
179.2145562065971
 30
0.0
 42
0.9200000000000001
  0
INSERT
  5
3C5
102
{ACAD_REACTORS
330
3D0
102
}
330
3C1
100
AcDbEntity
  8
LAYER_1
 62
     7
100
AcDbBlockReference
  2
AI9-BLK11
 10
44.76591525607638
 20
179.2145562065971
 30
0.0
 42
0.9200000000000001
  0
INSERT
  5
3C6
102
{ACAD_REACTORS
330
3DE
102
}
330
3C1
100
AcDbEntity
  8
LAYER_1
 62
     7
100
AcDbBlockReference
  2
AI9-BLK10
 10
54.04665798611111
 20
179.2145562065971
 30
0.0
 42
0.9200000000000001
  0
INSERT
  5
3C7
102
{ACAD_REACTORS
330
3DD
102
}
330
3C1
100
AcDbEntity
  8
LAYER_1
 62
     7
100
AcDbBlockReference
  2
AI9-BLK9
 10
62.79013807508679
 20
179.2145562065971
 30
0.0
 42
0.9
  0
INSERT
  5
3C8
330
3C1
100
AcDbEntity
  8
LAYER_1
 62
     7
100
AcDbBlockReference
  2
AI9-BLK8
 10
71.03046196831595
 20
179.2145562065971
 30
0.0
 42
0.9200000000000001
  0
INSERT
  5
3C9
330
3C1
100
AcDbEntity
  8
LAYER_1
 62
     7
100
AcDbBlockReference
  2
AI9-BLK7
 10
76.93793945312498
 20
179.2145562065971
 30
0.0
 42
0.9200000000000001
  0
INSERT
  5
3CA
102
{ACAD_REACTORS
330
3D1
102
}
330
3C1
100
AcDbEntity
  8
LAYER_1
 62
     7
100
AcDbBlockReference
  2
AI9-BLK6
 10
82.55602891710069
 20
179.2145562065971
 30
0.0
 42
0.9
  0
INSERT
  5
3CB
102
{ACAD_REACTORS
330
3DF
102
}
330
3C1
100
AcDbEntity
  8
LAYER_1
 62
     7
100
AcDbBlockReference
  2
AI9-BLK5
 10
94.32430284288193
 20
179.2145562065971
 30
0.0
 42
0.9200000000000001
  0
INSERT
  5
3CC
102
{ACAD_REACTORS
330
3E0
102
}
330
3C1
100
AcDbEntity
  8
LAYER_1
 62
     7
100
AcDbBlockReference
  2
AI9-BLK4
 10
103.2081705729166
 20
179.2145562065971
 30
0.0
 42
0.9200000000000001
  0
INSERT
  5
3CD
330
3C1
100
AcDbEntity
  8
LAYER_1
 62
     7
100
AcDbBlockReference
  2
AI9-BLK3
 10
108.850978597005
 20
179.2145562065971
 30
0.0
 42
0.9200000000000001
  0
INSERT
  5
3CE
330
3C1
100
AcDbEntity
  8
LAYER_1
 62
     7
100
AcDbBlockReference
  2
AI9-BLK2
 10
114.2045708550346
 20
179.2145562065971
 30
0.0
 42
0.9200000000000001
  0
INSERT
  5
3CF
330
3C1
100
AcDbEntity
  8
LAYER_1
 62
     7
100
AcDbBlockReference
  2
AI9-BLK1
 10
122.4125108506944
 20
179.2145562065971
 30
0.0
 42
0.9200000000000001
  0
HATCH
  5
3D0
330
3C1
100
AcDbEntity
  8
0
  6
Continuous
100
AcDbHatch
 10
0.0
 20
0.0
 30
0.0
210
0.0
220
0.0
230
1.0
  2
SOLID
 70
     1
 71
     1
 91
        2
 92
       16
 93
        1
 72
     4
 94
        3
 73
     0
 74
     0
 95
       26
 96
       22
 40
0.0
 40
0.0
 40
0.0
 40
0.0
 40
1.0
 40
1.0
 40
1.0
 40
2.0
 40
2.0
 40
2.0
 40
3.0
 40
3.0
 40
3.0
 40
4.0
 40
4.0
 40
4.0
 40
5.0
 40
5.0
 40
5.0
 40
6.0
 40
6.0
 40
6.0
 40
7.0
 40
7.0
 40
7.0
 40
7.0
 10
42.12008192274304
 20
180.0462298177082
 10
42.12008192274304
 20
180.0462298177082
 10
42.12008192274304
 20
186.7401881510415
 10
42.12008192274304
 20
186.7401881510415
 10
42.12008192274304
 20
186.7401881510415
 10
45.23100314670138
 20
186.7401881510415
 10
45.23100314670138
 20
186.7401881510415
 10
45.66853027343749
 20
186.7401881510415
 10
46.01579589843749
 20
186.6064357638887
 10
46.27280002170138
 20
186.340198784722
 10
46.76751573350694
 20
185.8330807291665
 10
47.01487358940972
 20
184.8822343749998
 10
47.01487358940972
 20
183.4863919270832
 10
47.01487358940972
 20
182.188169704861
 10
46.83848470052082
 20
181.2905707465276
 10
46.48639594184027
 20
180.7929611545137
 10
46.13430718315971
 20
180.2947176649304
 10
45.65888400607638
 20
180.0462298177082
 10
45.06012641059027
 20
180.0462298177082
 10
45.06012641059027
 20
180.0462298177082
 10
42.12008192274304
 20
180.0462298177082
 10
42.12008192274304
 20
180.0462298177082
 97
        1
330
3C5
 92
        1
 93
        1
 72
     4
 94
        3
 73
     0
 74
     0
 95
       68
 96
       64
 40
0.0
 40
0.0
 40
0.0
 40
0.0
 40
1.0
 40
1.0
 40
1.0
 40
2.0
 40
2.0
 40
2.0
 40
3.0
 40
3.0
 40
3.0
 40
4.0
 40
4.0
 40
4.0
 40
5.0
 40
5.0
 40
5.0
 40
6.0
 40
6.0
 40
6.0
 40
7.0
 40
7.0
 40
7.0
 40
8.0
 40
8.0
 40
8.0
 40
9.0
 40
9.0
 40
9.0
 40
10.0
 40
10.0
 40
10.0
 40
11.0
 40
11.0
 40
11.0
 40
12.0
 40
12.0
 40
12.0
 40
13.0
 40
13.0
 40
13.0
 40
14.0
 40
14.0
 40
14.0
 40
15.0
 40
15.0
 40
15.0
 40
16.0
 40
16.0
 40
16.0
 40
17.0
 40
17.0
 40
17.0
 40
18.0
 40
18.0
 40
18.0
 40
19.0
 40
19.0
 40
19.0
 40
20.0
 40
20.0
 40
20.0
 40
21.0
 40
21.0
 40
21.0
 40
21.0
 10
40.79716525607638
 20
169.3358964843748
 10
40.79716525607638
 20
169.3358964843748
 10
42.12008192274304
 20
169.3358964843748
 10
42.12008192274304
 20
169.3358964843748
 10
42.12008192274304
 20
169.3358964843748
 10
42.12008192274304
 20
177.8149103732637
 10
42.12008192274304
 20
177.8149103732637
 10
42.12008192274304
 20
177.8149103732637
 10
45.00500488281249
 20
177.8149103732637
 10
45.00500488281249
 20
177.8149103732637
 10
45.52590332031249
 20
177.8149103732637
 10
45.90968695746527
 20
177.6938359374998
 10
46.15635579427083
 20
177.4516870659721
 10
46.58216959635415
 20
177.0117621527776
 10
46.80954589843749
 20
176.1458580729165
 10
46.83848470052082
 20
174.8539748263887
 10
46.83848470052082
 20
174.8539748263887
 10
46.92667914496527
 20
171.5564396701387
 10
46.92667914496527
 20
171.5564396701387
 10
46.94597167968749
 20
170.7843524305554
 10
46.96870930989582
 20
170.2639225260415
 10
46.99351399739582
 20
169.9951499565971
 10
47.01831868489582
 20
169.7257434895832
 10
47.0548366970486
 20
169.5057810329859
 10
47.1044460720486
 20
169.3358964843748
 10
47.1044460720486
 20
169.3358964843748
 10
48.73466525607638
 20
169.3358964843748
 10
48.73466525607638
 20
169.3358964843748
 10
48.73466525607638
 20
169.3358964843748
 10
48.73466525607638
 20
169.7821603732637
 10
48.73466525607638
 20
169.7821603732637
 10
48.53278266059027
 20
169.9609194878471
 10
48.39153374565971
 20
170.3628105468748
 10
48.31160753038194
 20
170.9878335503471
 10
48.26062011718749
 20
171.3542263454859
 10
48.22548014322915
 20
171.9120562065971
 10
48.20549858940971
 20
172.6625909288193
 10
48.20549858940971
 20
172.6625909288193
 10
48.16140136718749
 20
175.3205234374999
 10
48.16140136718749
 20
175.3205234374999
 10
48.14141981336804
 20
176.4716814236109
 10
48.0346218532986
 20
177.303355034722
 10
47.84169650607638
 20
177.8142764756943
 10
47.64808213975693
 20
178.3251979166665
 10
47.35800509982638
 20
178.7372313368054
 10
46.97077636718749
 20
179.0516445312498
 10
47.4021023220486
 20
179.5086846788193
 10
47.73765462239582
 20
180.1134229600693
 10
47.97743326822915
 20
180.8664932725693
 10
48.21721191406249
 20
181.6189296874999
 10
48.33779025607638
 20
182.5868912760415
 10
48.33779025607638
 20
183.7697441406248
 10
48.33779025607638
 20
186.0371957465276
 10
47.89061686197915
 20
187.5921464843749
 10
46.99695909288194
 20
188.4345963541665
 10
46.52567003038194
 20
188.8732534722221
 10
45.92966851128472
 20
189.0932159288193
 10
45.20895453559027
 20
189.0932159288193
 10
45.20895453559027
 20
189.0932159288193
 10
40.79716525607638
 20
189.0932159288193
 10
40.79716525607638
 20
189.0932159288193
 10
40.79716525607638
 20
189.0932159288193
 10
40.79716525607638
 20
169.3358964843748
 10
40.79716525607638
 20
169.3358964843748
 97
        0
 75
     0
 76
     1
 98
        0
  0
HATCH
  5
3D1
330
3C1
100
AcDbEntity
  8
0
  6
Continuous
100
AcDbHatch
 10
0.0
 20
0.0
 30
0.0
210
0.0
220
0.0
230
1.0
  2
SOLID
 70
     1
 71
     1
 91
        1
 92
        1
 93
        1
 72
     4
 94
        3
 73
     0
 74
     0
 95
       59
 96
       55
 40
0.0
 40
0.0
 40
0.0
 40
0.0
 40
1.0
 40
1.0
 40
1.0
 40
2.0
 40
2.0
 40
2.0
 40
3.0
 40
3.0
 40
3.0
 40
4.0
 40
4.0
 40
4.0
 40
5.0
 40
5.0
 40
5.0
 40
6.0
 40
6.0
 40
6.0
 40
7.0
 40
7.0
 40
7.0
 40
8.0
 40
8.0
 40
8.0
 40
9.0
 40
9.0
 40
9.0
 40
10.0
 40
10.0
 40
10.0
 40
11.0
 40
11.0
 40
11.0
 40
12.0
 40
12.0
 40
12.0
 40
13.0
 40
13.0
 40
13.0
 40
14.0
 40
14.0
 40
14.0
 40
15.0
 40
15.0
 40
15.0
 40
16.0
 40
16.0
 40
16.0
 40
17.0
 40
17.0
 40
17.0
 40
18.0
 40
18.0
 40
18.0
 40
18.0
 10
85.61871880425346
 20
187.4658355034721
 10
86.29120144314235
 20
186.1797124565971
 10
86.66671685112847
 20
184.7193364800346
 10
86.7452650282118
 20
183.084087456597
 10
86.7452650282118
 20
183.084087456597
 10
85.42234836154513
 20
183.084087456597
 10
85.42234836154513
 20
183.084087456597
 10
85.27696533203124
 20
184.3156401909721
 10
84.99171142578125
 20
185.2917046440971
 10
84.56589762369791
 20
186.012280815972
 10
84.14008382161458
 20
186.7322368706596
 10
83.53994818793402
 20
187.0925249565971
 10
82.76617974175346
 20
187.0925249565971
 10
81.81740044487847
 20
187.0925249565971
 10
81.0525892469618
 20
186.4240386284721
 10
80.47243516710068
 20
185.0883062065971
 10
79.89159206814235
 20
183.752573784722
 10
79.6015150282118
 20
181.7049468315971
 10
79.6015150282118
 20
178.9454253472221
 10
79.6015150282118
 20
176.6844780815971
 10
79.86265326605902
 20
174.8514116753471
 10
80.38561876085069
 20
173.4456060112846
 10
80.90789523654512
 20
172.0391802300346
 10
81.69199896918403
 20
171.3365874565971
 10
82.73724093967013
 20
171.3365874565971
 10
83.69497748480902
 20
171.3365874565971
 10
84.42120361328125
 20
172.0794878472221
 10
84.91523030598958
 20
173.5665288628471
 10
85.18601481119791
 20
174.3491167534721
 10
85.38445231119791
 20
175.3785112847221
 10
85.51054280598958
 20
176.6547124565971
 10
85.51054280598958
 20
176.6547124565971
 10
86.83345947265625
 20
176.6547124565971
 10
86.83345947265625
 20
176.6547124565971
 10
86.72597249348958
 20
174.6157671440971
 10
86.35114610460069
 20
172.9061040581596
 10
85.70760226779514
 20
171.526343315972
 10
84.93727891710069
 20
169.8650493706596
 10
83.90375027126735
 20
169.0347124565971
 10
82.60701633029514
 20
169.0347124565971
 10
81.48598225911458
 20
169.0347124565971
 10
80.54547119140625
 20
169.7143608940971
 10
79.78479410807292
 20
171.0742778862846
 10
78.78020426432292
 20
172.8726177300346
 10
78.27859836154513
 20
175.6495024956596
 10
78.27859836154513
 20
179.4049321831596
 10
78.27859836154513
 20
182.2562310112846
 10
78.65342475043402
 20
184.5946929253471
 10
79.40445556640624
 20
186.4196978081596
 10
80.22301025390625
 20
188.4028325737846
 10
81.34955647786458
 20
189.3943999565971
 10
82.78271620008679
 20
189.3943999565971
 10
84.00090196397568
 20
189.3943999565971
 10
84.94623616536458
 20
188.7513384331596
 10
85.61871880425346
 20
187.4658355034721
 97
        1
330
3CA
 75
     0
 76
     1
 98
        1
 10
0.0
 20
0.0
  0
LINE
  5
3D2
102
{ACAD_REACTORS
330
3E1
102
}
330
3C1
100
AcDbEntity
  8
LAYER_1
 62
     7
100
AcDbLine
 10
34.65766059027778
 20
177.4497853732638
 30
0.0
 11
36.19830729166666
 21
186.1658769531249
 31
0.0
  0
LINE
  5
3D3
102
{ACAD_REACTORS
330
3E1
102
}
330
3C1
100
AcDbEntity
  8
LAYER_1
 62
     7
100
AcDbLine
 10
36.19830729166666
 20
186.1658769531249
 30
0.0
 11
37.67556423611111
 21
177.4497853732638
 31
0.0
  0
LINE
  5
3D4
102
{ACAD_REACTORS
330
3E1
102
}
330
3C1
100
AcDbEntity
  8
LAYER_1
 62
     7
100
AcDbLine
 10
37.67556423611111
 20
177.4497853732638
 30
0.0
 11
34.65766059027778
 21
177.4497853732638
 31
0.0
  0
LINE
  5
3D5
102
{ACAD_REACTORS
330
3E1
102
}
330
3C1
100
AcDbEntity
  8
LAYER_1
 62
     7
100
AcDbLine
 10
31.83957248263888
 20
169.3358964843748
 30
0.0
 11
33.22450086805555
 21
169.3358964843748
 31
0.0
  0
LINE
  5
3D6
102
{ACAD_REACTORS
330
3E1
102
}
330
3C1
100
AcDbEntity
  8
LAYER_1
 62
     7
100
AcDbLine
 10
33.22450086805555
 20
169.3358964843748
 30
0.0
 11
34.27043185763887
 21
175.2590353732638
 31
0.0
  0
LINE
  5
3D7
102
{ACAD_REACTORS
330
3E1
102
}
330
3C1
100
AcDbEntity
  8
LAYER_1
 62
     7
100
AcDbLine
 10
34.27043185763887
 20
175.2590353732638
 30
0.0
 11
38.04694552951389
 21
175.2590353732638
 31
0.0
  0
LINE
  5
3D8
102
{ACAD_REACTORS
330
3E1
102
}
330
3C1
100
AcDbEntity
  8
LAYER_1
 62
     7
100
AcDbLine
 10
38.04694552951389
 20
175.2590353732638
 30
0.0
 11
39.05015733506942
 21
169.3358964843748
 31
0.0
  0
LINE
  5
3D9
102
{ACAD_REACTORS
330
3E1
102
}
330
3C1
100
AcDbEntity
  8
LAYER_1
 62
     7
100
AcDbLine
 10
39.05015733506942
 20
169.3358964843748
 30
0.0
 11
40.43508572048611
 21
169.3358964843748
 31
0.0
  0
LINE
  5
3DA
102
{ACAD_REACTORS
330
3E1
102
}
330
3C1
100
AcDbEntity
  8
LAYER_1
 62
     7
100
AcDbLine
 10
40.43508572048611
 20
169.3358964843748
 30
0.0
 11
36.952783203125
 21
189.0932159288193
 31
0.0
  0
LINE
  5
3DB
102
{ACAD_REACTORS
330
3E1
102
}
330
3C1
100
AcDbEntity
  8
LAYER_1
 62
     7
100
AcDbLine
 10
36.952783203125
 20
189.0932159288193
 30
0.0
 11
35.47828233506943
 21
189.0932159288193
 31
0.0
  0
LINE
  5
3DC
102
{ACAD_REACTORS
330
3E1
102
}
330
3C1
100
AcDbEntity
  8
LAYER_1
 62
     7
100
AcDbLine
 10
35.47828233506943
 20
189.0932159288193
 30
0.0
 11
31.83957248263888
 21
169.3358964843748
 31
0.0
  0
HATCH
  5
3DD
330
3C1
100
AcDbEntity
  8
0
  6
Continuous
100
AcDbHatch
 10
0.0
 20
0.0
 30
0.0
210
0.0
220
0.0
230
1.0
  2
SOLID
 70
     1
 71
     1
 91
        2
 92
       16
 93
        1
 72
     4
 94
        3
 73
     0
 74
     0
 95
       29
 96
       25
 40
0.0
 40
0.0
 40
0.0
 40
0.0
 40
1.0
 40
1.0
 40
1.0
 40
2.0
 40
2.0
 40
2.0
 40
3.0
 40
3.0
 40
3.0
 40
4.0
 40
4.0
 40
4.0
 40
5.0
 40
5.0
 40
5.0
 40
6.0
 40
6.0
 40
6.0
 40
7.0
 40
7.0
 40
7.0
 40
8.0
 40
8.0
 40
8.0
 40
8.0
 10
62.85697292751734
 20
171.3365874565971
 10
61.88338894314235
 20
171.3365874565971
 10
61.18058946397567
 20
172.0714263237845
 10
60.74857449001734
 20
173.5411040581596
 10
60.31587049696178
 20
175.0107817925345
 10
60.10020751953123
 20
176.8165630425345
 10
60.10020751953123
 20
178.9578276909721
 10
60.10020751953123
 20
181.6342534722221
 10
60.35101047092013
 20
183.6589360894096
 10
60.85261637369789
 20
185.0324956597221
 10
61.35422227647567
 20
186.4054351128471
 10
62.00741238064234
 20
187.0925249565971
 10
62.81218668619789
 20
187.0925249565971
 10
63.6369425455729
 20
187.0925249565971
 10
64.28806559244789
 20
186.3992339409721
 10
64.76486680772568
 20
185.0126519097221
 10
65.24166802300346
 20
183.626069878472
 10
65.48006863064234
 20
181.7961040581596
 10
65.48006863064234
 20
179.5239946831596
 10
65.48006863064234
 20
177.3734282769096
 10
65.27336290147568
 20
175.4715288628471
 10
64.86132948133678
 20
173.8176763237846
 10
64.4492960611979
 20
172.1632036675346
 10
63.78094753689234
 20
171.3365874565971
 10
62.85697292751734
 20
171.3365874565971
 97
        1
330
3C7
 92
        1
 93
        1
 72
     4
 94
        3
 73
     0
 74
     0
 95
       29
 96
       25
 40
0.0
 40
0.0
 40
0.0
 40
0.0
 40
1.0
 40
1.0
 40
1.0
 40
2.0
 40
2.0
 40
2.0
 40
3.0
 40
3.0
 40
3.0
 40
4.0
 40
4.0
 40
4.0
 40
5.0
 40
5.0
 40
5.0
 40
6.0
 40
6.0
 40
6.0
 40
7.0
 40
7.0
 40
7.0
 40
8.0
 40
8.0
 40
8.0
 40
8.0
 10
62.76119927300346
 20
189.4340874565971
 10
61.47273356119789
 20
189.4340874565971
 10
60.50121663411457
 20
188.2397417534721
 10
59.84733751085068
 20
185.8516704644095
 10
59.3395304361979
 20
183.9900786675346
 10
59.08597140842012
 20
181.7514556206596
 10
59.08597140842012
 20
179.1351812065971
 10
59.08597140842012
 20
176.2379937065971
 10
59.38362765842012
 20
173.8412407769096
 10
59.97894015842012
 20
171.9449224175346
 10
60.64246554904512
 20
169.9779106987846
 10
61.56023898654512
 20
168.9950249565971
 10
62.7315714518229
 20
168.9950249565971
 10
63.9904093424479
 20
168.9950249565971
 10
64.95641411675345
 20
170.1186773003471
 10
65.63027479383679
 20
172.3659819878471
 10
66.20629475911457
 20
174.2796636284721
 10
66.49430474175345
 20
176.6813774956595
 10
66.49430474175345
 20
179.5698833550346
 10
66.49430474175345
 20
182.2388677300345
 10
66.24005669487845
 20
184.4291216362845
 10
65.73293863932289
 20
186.1412651909721
 10
65.08870578342012
 20
188.3364800347221
 10
64.09789632161457
 20
189.4340874565971
 10
62.76119927300346
 20
189.4340874565971
 97
        0
 75
     0
 76
     1
 98
        0
  0
HATCH
  5
3DE
330
3C1
100
AcDbEntity
  8
0
  6
Continuous
100
AcDbHatch
 10
0.0
 20
0.0
 30
0.0
210
0.0
220
0.0
230
1.0
  2
SOLID
 70
     1
 71
     1
 91
        1
 92
        1
 93
        1
 72
     4
 94
        3
 73
     0
 74
     0
 95
       59
 96
       55
 40
0.0
 40
0.0
 40
0.0
 40
0.0
 40
1.0
 40
1.0
 40
1.0
 40
2.0
 40
2.0
 40
2.0
 40
3.0
 40
3.0
 40
3.0
 40
4.0
 40
4.0
 40
4.0
 40
5.0
 40
5.0
 40
5.0
 40
6.0
 40
6.0
 40
6.0
 40
7.0
 40
7.0
 40
7.0
 40
8.0
 40
8.0
 40
8.0
 40
9.0
 40
9.0
 40
9.0
 40
10.0
 40
10.0
 40
10.0
 40
11.0
 40
11.0
 40
11.0
 40
12.0
 40
12.0
 40
12.0
 40
13.0
 40
13.0
 40
13.0
 40
14.0
 40
14.0
 40
14.0
 40
15.0
 40
15.0
 40
15.0
 40
16.0
 40
16.0
 40
16.0
 40
17.0
 40
17.0
 40
17.0
 40
18.0
 40
18.0
 40
18.0
 40
18.0
 10
49.39440104166666
 20
189.0932159288193
 10
49.39440104166666
 20
189.0932159288193
 10
51.24786241319444
 20
189.0932159288193
 10
51.24786241319444
 20
189.0932159288193
 10
51.24786241319444
 20
189.0932159288193
 10
54.04665798611111
 20
172.3887471788193
 10
54.04665798611111
 20
172.3887471788193
 10
54.04665798611111
 20
172.3887471788193
 10
56.83994140624999
 20
189.0932159288193
 10
56.83994140624999
 20
189.0932159288193
 10
56.83994140624999
 20
189.0932159288193
 10
58.69891493055555
 20
189.0932159288193
 10
58.69891493055555
 20
189.0932159288193
 10
58.69891493055555
 20
189.0932159288193
 10
58.69891493055555
 20
169.3358964843748
 10
58.69891493055555
 20
169.3358964843748
 10
58.69891493055555
 20
169.3358964843748
 10
57.46419270833333
 20
169.3358964843748
 10
57.46419270833333
 20
169.3358964843748
 10
57.46419270833333
 20
169.3358964843748
 10
57.46419270833333
 20
180.9964422743054
 10
57.46419270833333
 20
180.9964422743054
 10
57.46419270833333
 20
181.3996011284721
 10
57.47108289930555
 20
182.0677291666665
 10
57.48624131944444
 20
183.0001924913193
 10
57.5007107204861
 20
183.9326558159721
 10
57.50828993055555
 20
184.932312282986
 10
57.50828993055555
 20
185.9997957899304
 10
57.50828993055555
 20
185.9997957899304
 10
54.700537109375
 20
169.3358964843748
 10
54.700537109375
 20
169.3358964843748
 10
54.700537109375
 20
169.3358964843748
 10
53.38382161458333
 20
169.3358964843748
 10
53.38382161458333
 20
169.3358964843748
 10
53.38382161458333
 20
169.3358964843748
 10
50.58502604166666
 20
185.9997957899304
 10
50.58502604166666
 20
185.9997957899304
 10
50.58502604166666
 20
185.9997957899304
 10
50.58502604166666
 20
185.3944236111109
 10
50.58502604166666
 20
185.3944236111109
 10
50.58502604166666
 20
184.9101258680554
 10
50.59191623263888
 20
184.1729029947915
 10
50.60707465277777
 20
183.1821210937498
 10
50.62154405381944
 20
182.1913391927082
 10
50.62912326388889
 20
181.4629908854165
 10
50.62912326388889
 20
180.9964422743054
 10
50.62912326388889
 20
180.9964422743054
 10
50.62912326388889
 20
169.3358964843748
 10
50.62912326388889
 20
169.3358964843748
 10
50.62912326388889
 20
169.3358964843748
 10
49.39440104166666
 20
169.3358964843748
 10
49.39440104166666
 20
169.3358964843748
 10
49.39440104166666
 20
169.3358964843748
 10
49.39440104166666
 20
189.0932159288193
 10
49.39440104166666
 20
189.0932159288193
 97
        1
330
3C6
 75
     0
 76
     1
 98
        1
 10
0.0
 20
0.0
  0
HATCH
  5
3DF
330
3C1
100
AcDbEntity
  8
0
  6
Continuous
100
AcDbHatch
 10
0.0
 20
0.0
 30
0.0
210
0.0
220
0.0
230
1.0
  2
SOLID
 70
     1
 71
     1
 91
        2
 92
       16
 93
        1
 72
     4
 94
        3
 73
     0
 74
     0
 95
       32
 96
       28
 40
0.0
 40
0.0
 40
0.0
 40
0.0
 40
1.0
 40
1.0
 40
1.0
 40
2.0
 40
2.0
 40
2.0
 40
3.0
 40
3.0
 40
3.0
 40
4.0
 40
4.0
 40
4.0
 40
5.0
 40
5.0
 40
5.0
 40
6.0
 40
6.0
 40
6.0
 40
7.0
 40
7.0
 40
7.0
 40
8.0
 40
8.0
 40
8.0
 40
9.0
 40
9.0
 40
9.0
 40
9.0
 10
91.7005181206597
 20
171.6077853732637
 10
91.7005181206597
 20
171.6077853732637
 10
91.7005181206597
 20
186.7401881510415
 10
91.7005181206597
 20
186.7401881510415
 10
91.7005181206597
 20
186.7401881510415
 10
93.98668348524305
 20
186.7401881510415
 10
93.98668348524305
 20
186.7401881510415
 10
95.02159016927082
 20
186.7401881510415
 10
95.77331000434027
 20
186.0644533420137
 10
96.24322102864582
 20
184.714251519097
 10
96.71313205295138
 20
183.3640496961804
 10
96.94808756510417
 20
181.4680620659721
 10
96.94808756510417
 20
179.0262886284721
 10
96.94808756510417
 20
178.3911232638887
 10
96.91432562934027
 20
177.7027105034721
 10
96.84749077690971
 20
176.9604164496526
 10
96.73242458767361
 20
175.7167094184026
 10
96.55052354600693
 20
174.6974021267359
 10
96.30109863281248
 20
173.9018606770832
 10
95.98414984809027
 20
172.9091770833332
 10
95.57693956163193
 20
172.2378795572915
 10
95.07877875434026
 20
171.8892358940971
 10
94.79076877170138
 20
171.7016022135415
 10
94.43178982204861
 20
171.6077853732637
 10
94.00115288628471
 20
171.6077853732637
 10
94.00115288628471
 20
171.6077853732637
 10
91.7005181206597
 20
171.6077853732637
 10
91.7005181206597
 20
171.6077853732637
 97
        1
330
3CB
 92
        1
 93
        1
 72
     4
 94
        3
 73
     0
 74
     0
 95
       26
 96
       22
 40
0.0
 40
0.0
 40
0.0
 40
0.0
 40
1.0
 40
1.0
 40
1.0
 40
2.0
 40
2.0
 40
2.0
 40
3.0
 40
3.0
 40
3.0
 40
4.0
 40
4.0
 40
4.0
 40
5.0
 40
5.0
 40
5.0
 40
6.0
 40
6.0
 40
6.0
 40
7.0
 40
7.0
 40
7.0
 40
7.0
 10
90.37760145399305
 20
169.3358964843748
 10
90.37760145399305
 20
169.3358964843748
 10
94.22990722656249
 20
169.3358964843748
 10
94.22990722656249
 20
169.3358964843748
 10
95.87115071614581
 20
169.3358964843748
 10
97.03008083767359
 20
170.8331625434026
 10
97.70600857204861
 20
173.8283285590276
 10
98.08221299913194
 20
175.5227367621526
 10
98.27100423177082
 20
177.4187243923609
 10
98.27100423177082
 20
179.5169253472221
 10
98.27100423177082
 20
182.233810329861
 10
97.94716525607638
 20
184.4619602864582
 10
97.30086534288194
 20
186.2013752170137
 10
96.57601725260416
 20
188.1290577256943
 10
95.5576470269097
 20
189.0932159288193
 10
94.24437662760416
 20
189.0932159288193
 10
94.24437662760416
 20
189.0932159288193
 10
90.37760145399305
 20
189.0932159288193
 10
90.37760145399305
 20
189.0932159288193
 10
90.37760145399305
 20
189.0932159288193
 10
90.37760145399305
 20
169.3358964843748
 10
90.37760145399305
 20
169.3358964843748
 97
        0
 75
     0
 76
     1
 98
        0
  0
HATCH
  5
3E0
330
3C1
100
AcDbEntity
  8
0
  6
Continuous
100
AcDbHatch
 10
0.0
 20
0.0
 30
0.0
210
0.0
220
0.0
230
1.0
  2
SOLID
 70
     1
 71
     1
 91
        2
 92
       16
 93
        1
 72
     4
 94
        3
 73
     0
 74
     0
 95
       26
 96
       22
 40
0.0
 40
0.0
 40
0.0
 40
0.0
 40
1.0
 40
1.0
 40
1.0
 40
2.0
 40
2.0
 40
2.0
 40
3.0
 40
3.0
 40
3.0
 40
4.0
 40
4.0
 40
4.0
 40
5.0
 40
5.0
 40
5.0
 40
6.0
 40
6.0
 40
6.0
 40
7.0
 40
7.0
 40
7.0
 40
7.0
 10
100.5623372395832
 20
180.0462298177082
 10
100.5623372395832
 20
180.0462298177082
 10
100.5623372395832
 20
186.7401881510415
 10
100.5623372395832
 20
186.7401881510415
 10
100.5623372395832
 20
186.7401881510415
 10
103.6732584635416
 20
186.7401881510415
 10
103.6732584635416
 20
186.7401881510415
 10
104.1107855902777
 20
186.7401881510415
 10
104.4580512152777
 20
186.6064357638887
 10
104.7150553385415
 20
186.340198784722
 10
105.2097710503471
 20
185.8330807291665
 10
105.4571289062499
 20
184.8822343749998
 10
105.4571289062499
 20
183.4863919270832
 10
105.4571289062499
 20
182.188169704861
 10
105.280740017361
 20
181.2905707465276
 10
104.9286512586804
 20
180.7929611545137
 10
104.5765624999999
 20
180.2947176649304
 10
104.1011393229166
 20
180.0462298177082
 10
103.5023817274304
 20
180.0462298177082
 10
103.5023817274304
 20
180.0462298177082
 10
100.5623372395832
 20
180.0462298177082
 10
100.5623372395832
 20
180.0462298177082
 97
        1
330
3CC
 92
        1
 93
        1
 72
     4
 94
        3
 73
     0
 74
     0
 95
       68
 96
       64
 40
0.0
 40
0.0
 40
0.0
 40
0.0
 40
1.0
 40
1.0
 40
1.0
 40
2.0
 40
2.0
 40
2.0
 40
3.0
 40
3.0
 40
3.0
 40
4.0
 40
4.0
 40
4.0
 40
5.0
 40
5.0
 40
5.0
 40
6.0
 40
6.0
 40
6.0
 40
7.0
 40
7.0
 40
7.0
 40
8.0
 40
8.0
 40
8.0
 40
9.0
 40
9.0
 40
9.0
 40
10.0
 40
10.0
 40
10.0
 40
11.0
 40
11.0
 40
11.0
 40
12.0
 40
12.0
 40
12.0
 40
13.0
 40
13.0
 40
13.0
 40
14.0
 40
14.0
 40
14.0
 40
15.0
 40
15.0
 40
15.0
 40
16.0
 40
16.0
 40
16.0
 40
17.0
 40
17.0
 40
17.0
 40
18.0
 40
18.0
 40
18.0
 40
19.0
 40
19.0
 40
19.0
 40
20.0
 40
20.0
 40
20.0
 40
21.0
 40
21.0
 40
21.0
 40
21.0
 10
99.23942057291661
 20
169.3358964843748
 10
99.23942057291661
 20
169.3358964843748
 10
100.5623372395832
 20
169.3358964843748
 10
100.5623372395832
 20
169.3358964843748
 10
100.5623372395832
 20
169.3358964843748
 10
100.5623372395832
 20
177.8149103732637
 10
100.5623372395832
 20
177.8149103732637
 10
100.5623372395832
 20
177.8149103732637
 10
103.4472601996527
 20
177.8149103732637
 10
103.4472601996527
 20
177.8149103732637
 10
103.9681586371527
 20
177.8149103732637
 10
104.3519422743054
 20
177.6938359374998
 10
104.598611111111
 20
177.4516870659721
 10
105.0244249131943
 20
177.0117621527776
 10
105.2518012152777
 20
176.1458580729165
 10
105.280740017361
 20
174.8539748263887
 10
105.280740017361
 20
174.8539748263887
 10
105.3689344618054
 20
171.5564396701387
 10
105.3689344618054
 20
171.5564396701387
 10
105.3882269965277
 20
170.7843524305554
 10
105.410964626736
 20
170.2639225260415
 10
105.435769314236
 20
169.9951499565971
 10
105.460574001736
 20
169.7257434895832
 10
105.4970920138888
 20
169.5057810329859
 10
105.5467013888888
 20
169.3358964843748
 10
105.5467013888888
 20
169.3358964843748
 10
107.1769205729166
 20
169.3358964843748
 10
107.1769205729166
 20
169.3358964843748
 10
107.1769205729166
 20
169.3358964843748
 10
107.1769205729166
 20
169.7821603732637
 10
107.1769205729166
 20
169.7821603732637
 10
106.9750379774304
 20
169.9609194878471
 10
106.8337890624999
 20
170.3628105468748
 10
106.7538628472221
 20
170.9878335503471
 10
106.7028754340276
 20
171.3542263454859
 10
106.6677354600693
 20
171.9120562065971
 10
106.6477539062499
 20
172.6625909288193
 10
106.6477539062499
 20
172.6625909288193
 10
106.6036566840277
 20
175.3205234374999
 10
106.6036566840277
 20
175.3205234374999
 10
106.5836751302082
 20
176.4716814236109
 10
106.4768771701388
 20
177.303355034722
 10
106.2839518229166
 20
177.8142764756943
 10
106.0903374565971
 20
178.3251979166665
 10
105.8002604166666
 20
178.7372313368054
 10
105.4130316840276
 20
179.0516445312498
 10
105.8443576388888
 20
179.5086846788193
 10
106.179909939236
 20
180.1134229600693
 10
106.4196885850693
 20
180.8664932725693
 10
106.6594672309027
 20
181.6189296874999
 10
106.7800455729166
 20
182.5868912760415
 10
106.7800455729166
 20
183.7697441406248
 10
106.7800455729166
 20
186.0371957465276
 10
106.3328721788193
 20
187.5921464843749
 10
105.4392144097221
 20
188.4345963541665
 10
104.9679253472221
 20
188.8732534722221
 10
104.3719238281249
 20
189.0932159288193
 10
103.6512098524304
 20
189.0932159288193
 10
103.6512098524304
 20
189.0932159288193
 10
99.23942057291661
 20
189.0932159288193
 10
99.23942057291661
 20
189.0932159288193
 10
99.23942057291661
 20
189.0932159288193
 10
99.23942057291661
 20
169.3358964843748
 10
99.23942057291661
 20
169.3358964843748
 97
        0
 75
     0
 76
     1
 98
        0
  0
HATCH
  5
3E1
330
3C1
100
AcDbEntity
  8
0
  6
Continuous
100
AcDbHatch
 10
0.0
 20
0.0
 30
0.0
210
0.0
220
0.0
230
1.0
  2
SOLID
 70
     1
 71
     1
 91
        2
 92
        1
 93
        8
 72
     1
 10
35.47828233506943
 20
189.0932159288193
 11
31.83957248263888
 21
169.3358964843748
 72
     1
 10
31.83957248263888
 20
169.3358964843748
 11
33.22450086805555
 21
169.3358964843748
 72
     1
 10
33.22450086805555
 20
169.3358964843748
 11
34.27043185763887
 21
175.2590353732638
 72
     1
 10
34.27043185763887
 20
175.2590353732638
 11
38.04694552951389
 21
175.2590353732638
 72
     1
 10
38.04694552951389
 20
175.2590353732638
 11
39.05015733506942
 21
169.3358964843748
 72
     1
 10
39.05015733506942
 20
169.3358964843748
 11
40.43508572048611
 21
169.3358964843748
 72
     1
 10
40.43508572048611
 20
169.3358964843748
 11
36.952783203125
 21
189.0932159288193
 72
     1
 10
36.952783203125
 20
189.0932159288193
 11
35.47828233506943
 21
189.0932159288193
 97
        8
330
3DC
330
3D5
330
3D6
330
3D7
330
3D8
330
3D9
330
3DA
330
3DB
 92
       16
 93
        3
 72
     1
 10
37.67556423611111
 20
177.4497853732638
 11
34.65766059027778
 21
177.4497853732638
 72
     1
 10
34.65766059027778
 20
177.4497853732638
 11
36.19830729166666
 21
186.1658769531249
 72
     1
 10
36.19830729166666
 20
186.1658769531249
 11
37.67556423611111
 21
177.4497853732638
 97
        3
330
3D4
330
3D2
330
3D3
 75
     0
 76
     1
 98
        1
 10
0.0
 20
0.0
  0
HATCH
  5
3E2
330
3C1
100
AcDbEntity
  8
0
  6
Continuous
100
AcDbHatch
 10
0.0
 20
0.0
 30
0.0
210
0.0
220
0.0
230
1.0
  2
SOLID
 70
     1
 71
     1
 91
        1
 92
        1
 93
        1
 72
     4
 94
        3
 73
     0
 74
     0
 95
      113
 96
      109
 40
0.0
 40
0.0
 40
0.0
 40
0.0
 40
1.0
 40
1.0
 40
1.0
 40
2.0
 40
2.0
 40
2.0
 40
3.0
 40
3.0
 40
3.0
 40
4.0
 40
4.0
 40
4.0
 40
5.0
 40
5.0
 40
5.0
 40
6.0
 40
6.0
 40
6.0
 40
7.0
 40
7.0
 40
7.0
 40
8.0
 40
8.0
 40
8.0
 40
9.0
 40
9.0
 40
9.0
 40
10.0
 40
10.0
 40
10.0
 40
11.0
 40
11.0
 40
11.0
 40
12.0
 40
12.0
 40
12.0
 40
13.0
 40
13.0
 40
13.0
 40
14.0
 40
14.0
 40
14.0
 40
15.0
 40
15.0
 40
15.0
 40
16.0
 40
16.0
 40
16.0
 40
17.0
 40
17.0
 40
17.0
 40
18.0
 40
18.0
 40
18.0
 40
19.0
 40
19.0
 40
19.0
 40
20.0
 40
20.0
 40
20.0
 40
21.0
 40
21.0
 40
21.0
 40
22.0
 40
22.0
 40
22.0
 40
23.0
 40
23.0
 40
23.0
 40
24.0
 40
24.0
 40
24.0
 40
25.0
 40
25.0
 40
25.0
 40
26.0
 40
26.0
 40
26.0
 40
27.0
 40
27.0
 40
27.0
 40
28.0
 40
28.0
 40
28.0
 40
29.0
 40
29.0
 40
29.0
 40
30.0
 40
30.0
 40
30.0
 40
31.0
 40
31.0
 40
31.0
 40
32.0
 40
32.0
 40
32.0
 40
33.0
 40
33.0
 40
33.0
 40
34.0
 40
34.0
 40
34.0
 40
35.0
 40
35.0
 40
35.0
 40
36.0
 40
36.0
 40
36.0
 40
36.0
 10
193.3039632161458
 20
186.1548733181423
 10
193.3039632161458
 20
186.1860514322916
 10
193.3039632161458
 20
219.6932223849826
 10
193.3039632161458
 20
219.6932223849826
 10
193.3039632161458
 20
219.6932223849826
 10
193.2974175347219
 20
219.7488606770833
 10
193.2974175347219
 20
219.7488606770833
 10
191.5293945312499
 20
235.455740017361
 10
175.1458984374999
 20
235.2467949761284
 10
174.9808783637151
 20
235.2428331163193
 10
174.9808783637151
 20
235.2428331163193
 10
125.8827555338541
 20
235.2430053710937
 10
125.8827555338541
 20
235.2430053710937
 10
125.8827555338541
 20
235.2430053710937
 10
125.8827555338541
 20
255.5278998480901
 10
125.8827555338541
 20
255.5278998480901
 10
125.8827555338541
 20
255.5278998480901
 10
84.5626247829861
 20
255.5278998480901
 10
84.5626247829861
 20
255.5278998480901
 10
84.5626247829861
 20
255.5278998480901
 10
84.55711263020829
 20
233.7919311523436
 10
84.55711263020829
 20
233.7919311523436
 10
84.55711263020829
 20
233.7919311523436
 10
64.42052951388888
 20
233.7919311523436
 10
64.42052951388888
 20
233.7919311523436
 10
64.42052951388888
 20
233.7919311523436
 10
64.41501736111111
 20
255.5278998480901
 10
64.41501736111111
 20
255.5278998480901
 10
64.41501736111111
 20
255.5278998480901
 10
23.91757541232637
 20
255.5278998480901
 10
23.91757541232637
 20
255.5278998480901
 10
23.91757541232637
 20
255.5278998480901
 10
23.91757541232637
 20
233.2393378363715
 10
23.91757541232637
 20
233.2393378363715
 10
23.91757541232637
 20
233.2393378363715
 10
43.65624999999999
 20
233.2393378363715
 10
43.65624999999999
 20
233.2393378363715
 10
43.65624999999999
 20
233.2393378363715
 10
43.65624999999999
 20
211.5188720703125
 10
43.65624999999999
 20
211.5188720703125
 10
43.65624999999999
 20
211.5188720703125
 10
23.91757541232637
 20
211.5188720703125
 10
23.91757541232637
 20
211.5188720703125
 10
23.91757541232637
 20
211.5188720703125
 10
23.91757541232637
 20
189.2303100585936
 10
23.91757541232637
 20
189.2303100585936
 10
23.91757541232637
 20
189.2303100585936
 10
64.41501736111111
 20
189.2303100585936
 10
64.41501736111111
 20
189.2303100585936
 10
64.41501736111111
 20
189.2303100585936
 10
64.42052951388888
 20
211.069976128472
 10
64.42052951388888
 20
211.069976128472
 10
64.42052951388888
 20
211.069976128472
 10
84.55711263020829
 20
211.069976128472
 10
84.55711263020829
 20
211.069976128472
 10
84.55711263020829
 20
211.069976128472
 10
84.5626247829861
 20
189.2303100585936
 10
84.5626247829861
 20
189.2303100585936
 10
84.5626247829861
 20
189.2303100585936
 10
125.8827555338541
 20
189.2303100585936
 10
125.8827555338541
 20
189.2303100585936
 10
125.8827555338541
 20
189.2303100585936
 10
125.8827555338541
 20
211.5188720703125
 10
125.8827555338541
 20
211.5188720703125
 10
125.8827555338541
 20
211.5188720703125
 10
105.3213921440971
 20
211.5188720703125
 10
105.3213921440971
 20
211.5188720703125
 10
105.3213921440971
 20
211.5188720703125
 10
105.3213921440971
 20
233.2393378363715
 10
105.3213921440971
 20
233.2393378363715
 10
105.3213921440971
 20
233.2393378363715
 10
175.0046495225693
 20
233.243127441406
 10
175.0046495225693
 20
233.243127441406
 10
175.6268337673611
 20
233.2560465494791
 10
189.7165852864583
 20
233.3962619357638
 10
191.3037407769094
 20
219.5690266927083
 10
191.3037407769094
 20
219.4332899305555
 10
191.3037407769094
 20
186.1142211914062
 10
191.3037407769094
 20
186.1142211914062
 10
191.3037407769094
 20
186.1142211914062
 10
191.3051188151039
 20
186.0880384657115
 10
191.3051188151039
 20
186.0880384657115
 10
191.3054633246526
 20
186.0787367078991
 10
191.3109754774304
 20
185.9566080729166
 10
191.3109754774304
 20
185.7399115668401
 10
191.3109754774304
 20
184.2090833875865
 10
191.0488037109374
 20
177.9643310546874
 10
186.9866916232638
 20
173.5652886284722
 10
184.2540418836804
 20
170.6064683702255
 10
180.3224989149304
 20
169.0308539496526
 10
175.300927734375
 20
168.8825425889756
 10
175.300927734375
 20
168.8825425889756
 10
107.0094889322916
 20
168.8828870985243
 10
107.0094889322916
 20
168.8828870985243
 10
107.0094889322916
 20
168.8828870985243
 10
107.0094889322916
 20
166.8830091688368
 10
107.0094889322916
 20
166.8830091688368
 10
107.0094889322916
 20
166.8830091688368
 10
175.3305555555555
 20
166.8830091688368
 10
175.3305555555555
 20
166.8830091688368
 10
180.9467502170138
 20
167.0485460069444
 10
185.3571614583333
 20
168.8448187934026
 10
188.4687717013888
 20
172.2223904079861
 10
192.9649658203124
 20
177.1034016927083
 10
193.3136094835069
 20
183.7202243381076
 10
193.3136094835069
 20
185.6520616319443
 10
193.3136094835069
 20
185.9247409396701
 10
193.3070638020833
 20
186.0868326822916
 10
193.3039632161458
 20
186.1548733181423
 97
        1
330
3C2
 75
     0
 76
     1
 98
        1
 10
0.0
 20
0.0
  0
HATCH
  5
3E3
330
3C1
100
AcDbEntity
  8
0
  6
Continuous
100
AcDbHatch
 10
0.0
 20
0.0
 30
0.0
210
0.0
220
0.0
230
1.0
  2
SOLID
 70
     1
 71
     1
 91
        2
 92
        1
 93
        1
 72
     4
 94
        3
 73
     0
 74
     0
 95
       23
 96
       19
 40
0.0
 40
0.0
 40
0.0
 40
0.0
 40
1.0
 40
1.0
 40
1.0
 40
2.0
 40
2.0
 40
2.0
 40
3.0
 40
3.0
 40
3.0
 40
4.0
 40
4.0
 40
4.0
 40
5.0
 40
5.0
 40
5.0
 40
6.0
 40
6.0
 40
6.0
 40
6.0
 10
148.6593153211805
 20
211.3929538302948
 10
148.6593153211805
 20
211.3929538302948
 10
148.6593153211805
 20
189.6308024088539
 10
148.6593153211805
 20
189.6308024088539
 10
148.6593153211805
 20
189.6308024088539
 10
161.3152180989583
 20
189.6308024088539
 10
161.3152180989583
 20
189.6308024088539
 10
162.8431179470485
 20
189.6308024088539
 10
170.465736219618
 20
190.1880466037323
 10
170.465736219618
 20
201.1911648220483
 10
170.465736219618
 20
211.1288872612844
 10
162.3356553819444
 20
211.3914035373261
 10
162.2536621093749
 20
211.3927815755205
 10
162.2536621093749
 20
211.3927815755205
 10
149.6594265407986
 20
211.3929538302948
 10
149.6594265407986
 20
211.3929538302948
 10
149.6594265407986
 20
211.3929538302948
 10
148.6593153211805
 20
211.3929538302948
 10
148.6593153211805
 20
211.3929538302948
 97
        1
330
3C3
 92
       16
 93
        1
 72
     4
 94
        3
 73
     0
 74
     0
 95
       20
 96
       16
 40
0.0
 40
0.0
 40
0.0
 40
0.0
 40
1.0
 40
1.0
 40
1.0
 40
2.0
 40
2.0
 40
2.0
 40
3.0
 40
3.0
 40
3.0
 40
4.0
 40
4.0
 40
4.0
 40
5.0
 40
5.0
 40
5.0
 40
5.0
 10
162.2354031032986
 20
209.3930759006073
 10
162.4679470486111
 20
209.3861857096351
 10
168.4655137803819
 20
209.1283203124997
 10
168.4655137803819
 20
201.1911648220483
 10
168.4655137803819
 20
192.3202162000865
 10
162.9926350911458
 20
191.6306803385413
 10
161.3152180989583
 20
191.6306803385413
 10
161.3152180989583
 20
191.6306803385413
 10
152.3310980902777
 20
191.6306803385413
 10
150.6595377604166
 20
191.6306803385413
 10
150.6595377604166
 20
193.3373806423608
 10
150.6595377604166
 20
207.6863755967879
 10
150.6595377604166
 20
209.3930759006073
 10
152.3538357204861
 20
209.3930759006073
 10
162.2354031032986
 20
209.3930759006073
 10
162.2354031032986
 20
209.3930759006073
 97
        0
 75
     0
 76
     1
 98
        0
  0
ENDBLK
  5
3E5
330
3C1
100
AcDbEntity
  8
0
100
AcDbBlockEnd
  0
BLOCK
  5
3E8
330
3E6
100
AcDbEntity
  8
0
100
AcDbBlockBegin
  2
HD logo-new
 70
     0
 10
0.0
 20
0.0
 30
0.0
  3
HD logo-new
  1

  0
INSERT
  5
3E7
330
3E6
100
AcDbEntity
  8
0
 62
     3
100
AcDbBlockReference
  2
HD_LLC_logo_OT5
 10
-27.1607188578505
 20
-68.37367811463031
 30
0.0
 41
0.2999999999999971
 42
0.3000000000000007
 43
0.3
  0
ENDBLK
  5
3E9
330
3E6
100
AcDbEntity
  8
0
100
AcDbBlockEnd
  0
BLOCK
  5
3EC
330
3EA
100
AcDbEntity
  8
0
100
AcDbBlockBegin
  2
HD Logo
 70
     0
 10
0.0
 20
0.0
 30
0.0
  3
HD Logo
  1

  0
INSERT
  5
3EB
330
3EA
100
AcDbEntity
  8
0
100
AcDbBlockReference
  2
HD logo-new
 10
0.9700256734946606
 20
7.273795608420527
 30
0.0
  0
ENDBLK
  5
3ED
330
3EA
100
AcDbEntity
  8
0
100
AcDbBlockEnd
  0
BLOCK
  5
403
330
401
100
AcDbEntity
  8
0
100
AcDbBlockBegin
  2
HD LLC
 70
     0
 10
0.0
 20
0.0
 30
0.0
  3
HD LLC
  1

  0
MTEXT
  5
402
330
401
100
AcDbEntity
  8
0
100
AcDbMText
 10
-2.314970886968865
 20
1.247205085865914
 30
0.0
 40
5.675387507387601
 41
236.1828726592229
 71
     5
 72
     5
  1
Harmonic Drive LLC\P800-921-3332\Pwww.harmonicdrive.net
 73
     1
 44
1.0
  0
ENDBLK
  5
404
330
401
100
AcDbEntity
  8
0
100
AcDbBlockEnd
  0
ENDSEC
  0
SECTION
  2
ENTITIES
  0
LEADER
  5
353
330
A
100
AcDbEntity
  8
1
  6
Continuous
 62
     3
100
AcDbLeader
  3
STANDARD
 71
     0
 76
     2
 10
-569.842792954044
 20
390.996099823762
 30
0.0
 10
-569.792792954044
 20
390.996099823762
 30
0.0
  0
LEADER
  5
350
330
A
100
AcDbEntity
  8
1
  6
Continuous
 62
     3
100
AcDbLeader
  3
STANDARD
 71
     0
 76
     2
 10
-514.468392032973
 20
310.772430244182
 30
0.0
 10
-514.46236519896
 20
310.722794800477
 30
0.0
  0
LEADER
  5
34D
330
A
100
AcDbEntity
  8
1
  6
Continuous
 62
     3
100
AcDbLeader
  3
STANDARD
 71
     0
 76
     2
 10
-605.022195604316
 20
248.2676526621319
 30
0.0
 10
-605.072195604316
 20
248.2676526621319
 30
0.0
  0
LEADER
  5
34A
330
A
100
AcDbEntity
  8
1
  6
Continuous
 62
     3
100
AcDbLeader
  3
STANDARD
 71
     0
 76
     2
 10
-660.3965965253869
 20
328.491322241712
 30
0.0
 10
-660.4026233593999
 20
328.5409576854169
 30
0.0
  0
ARC
  5
347
330
A
100
AcDbEntity
  8
1
  6
Continuous
 62
     7
100
AcDbCircle
 10
-416.818087320774
 20
261.364821252402
 30
0.0
 40
3.825
100
AcDbArc
 50
180.0
 51
-90.0
  0
ARC
  5
346
330
A
100
AcDbEntity
  8
1
  6
Continuous
 62
     7
100
AcDbCircle
 10
-416.6900873207739
 20
261.3253762461699
 30
0.0
 40
3.0
100
AcDbArc
 50
180.0
 51
-90.0
  0
ARC
  5
345
330
A
100
AcDbEntity
  8
1
  6
Continuous
 62
     7
100
AcDbCircle
 10
-421.1430873207739
 20
279.131876242951
 30
0.0
 40
0.5
100
AcDbArc
 50
0.0
 51
90.0
  0
ARC
  5
344
330
A
100
AcDbEntity
  8
1
  6
Continuous
 62
     7
100
AcDbCircle
 10
-416.6900873207739
 20
377.938376239724
 30
0.0
 40
3.0
100
AcDbArc
 50
90.0
 51
180.0
  0
ARC
  5
343
330
A
100
AcDbEntity
  8
1
  6
Continuous
 62
     7
100
AcDbCircle
 10
-421.1430873207739
 20
360.1318762429429
 30
0.0
 40
0.5
100
AcDbArc
 50
-90.0
 51
0.0
  0
ARC
  5
342
330
A
100
AcDbEntity
  8
1
  6
Continuous
 62
     7
100
AcDbCircle
 10
-416.818087320774
 20
377.8989312334919
 30
0.0
 40
3.825
100
AcDbArc
 50
90.0
 51
180.0
  0
ARC
  5
341
330
A
100
AcDbEntity
  8
1
  6
Continuous
 62
     7
100
AcDbCircle
 10
-393.990087320774
 20
251.4318775202809
 30
0.0
 40
0.2
100
AcDbArc
 50
90.0
 51
180.0
  0
ARC
  5
340
330
A
100
AcDbEntity
  8
1
  6
Continuous
 62
     7
100
AcDbCircle
 10
-393.990087320774
 20
387.831874965612
 30
0.0
 40
0.2
100
AcDbArc
 50
180.0
 51
-90.0
  0
SPLINE
  5
33F
330
A
100
AcDbEntity
  8
1
  6
Continuous
 62
     7
100
AcDbSpline
210
0.0
220
0.0
230
1.0
 70
    11
 71
     3
 72
    83
 73
    79
 74
    77
 42
0.0000000001
 43
0.0000000001
 44
0.00000000001
 40
0.0
 40
0.0
 40
0.0
 40
0.0
 40
0.0681942241677186
 40
0.1365123484783426
 40
0.2102912861946397
 40
0.2842550938729493
 40
0.3659900278688387
 40
0.44789895841844
 40
0.5385414845089054
 40
0.6293117142247278
 40
0.7286006463921661
 40
0.827972842100182
 40
0.9347645741192811
 40
1.041607436723153
 40
1.154151324006029
 40
1.266724319983383
 40
1.382872277674715
 40
1.499033418348689
 40
1.616411370869057
 40
1.733789323389766
 40
1.849950464064108
 40
1.966098421755424
 40
2.078671417732314
 40
2.191215305014965
 40
2.29805816761872
 40
2.404849899637502
 40
2.504222095345374
 40
2.603511027513042
 40
2.694281257229089
 40
2.784923783319233
 40
2.866832713868537
 40
2.948567647864676
 40
3.022531455543479
 40
3.096310393259606
 40
3.164628517570156
 40
3.232822741737748
 40
3.299035092098263
 40
3.365247442458607
 40
3.433441666626447
 40
3.501759790937028
 40
3.57553872865293
 40
3.649502536331148
 40
3.731237470327299
 40
3.813146400877351
 40
3.903788926967773
 40
3.994559156682977
 40
4.093848088849781
 40
4.193220284557593
 40
4.300012016577142
 40
4.406854879181469
 40
4.51939876646403
 40
4.631971762440955
 40
4.748119720132132
 40
4.864280860806299
 40
4.981658813327229
 40
5.099036765848044
 40
5.215197906522119
 40
5.331345864213316
 40
5.443918860190346
 40
5.556462747473106
 40
5.663305610077087
 40
5.770097342096025
 40
5.869469537803736
 40
5.968758469970866
 40
6.059528699686605
 40
6.150171225777193
 40
6.232080156327119
 40
6.313815090323213
 40
6.387778898001352
 40
6.461557835717303
 40
6.52987596002801
 40
6.598070184195726
 40
6.664507432451081
 40
6.731412253858217
 40
6.765301600235713
 40
6.799190946613209
 40
6.833311841007947
 40
6.866506543333983
 40
6.866506543333983
 40
6.866506543333983
 40
6.866506543333983
 10
-422.3740897336644
 20
253.3265371933424
 30
0.0
 10
-422.3517737882386
 20
253.3219675234896
 30
0.0
 10
-422.3071013521817
 20
253.3128198812811
 30
0.0
 10
-422.2421039629403
 20
253.2855781624895
 30
0.0
 10
-422.1794903351804
 20
253.2496919696972
 30
0.0
 10
-422.1184210511417
 20
253.2033081350902
 30
0.0
 10
-422.060910192478
 20
253.1486391344656
 30
0.0
 10
-422.0055263673634
 20
253.0843133648245
 30
0.0
 10
-421.9544140615401
 20
253.0128190618488
 30
0.0
 10
-421.9062072798808
 20
252.9325257636162
 30
0.0
 10
-421.8627749493091
 20
252.8462833096146
 30
0.0
 10
-421.8230883896316
 20
252.7524467795312
 30
0.0
 10
-421.788546370653
 20
252.6539246863756
 30
0.0
 10
-421.7585102158407
 20
252.5493726570443
 30
0.0
 10
-421.7338870629537
 20
252.4414373623981
 30
0.0
 10
-421.7143585989831
 20
252.3293220430761
 30
0.0
 10
-421.7004209846972
 20
252.215160413739
 30
0.0
 10
-421.6919467105635
 20
252.0988608381292
 30
0.0
 10
-421.6891524527742
 20
251.9818762429463
 30
0.0
 10
-421.6919467105633
 20
251.864891647759
 30
0.0
 10
-421.7004209846985
 20
251.7485920721618
 30
0.0
 10
-421.7143585989778
 20
251.634430442778
 30
0.0
 10
-421.733887062976
 20
251.5223151236259
 30
0.0
 10
-421.7585102157629
 20
251.4143798283618
 30
0.0
 10
-421.7885463709315
 20
251.309827801226
 30
0.0
 10
-421.8230883886241
 20
251.2113057001593
 30
0.0
 10
-421.8627749527779
 20
251.117469197633
 30
0.0
 10
-421.9062072673827
 20
251.031226645348
 30
0.0
 10
-421.9544141037327
 20
250.9509336837572
 30
0.0
 10
-422.0055262160882
 20
250.8794381899047
 30
0.0
 10
-422.0609106965154
 20
250.8151164540095
 30
0.0
 10
-422.1184192437114
 20
250.7604332252546
 30
0.0
 10
-422.1794963662388
 20
250.7140976400865
 30
0.0
 10
-422.2420821458873
 20
250.6780400295784
 30
0.0
 10
-422.3071760616311
 20
250.6513924750441
 30
0.0
 10
-422.3731656307781
 20
250.6356519467462
 30
0.0
 10
-422.440087320774
 20
250.6300318453631
 30
0.0
 10
-422.50700901077
 20
250.6356519467461
 30
0.0
 10
-422.5729985799167
 20
250.6513924750443
 30
0.0
 10
-422.6380924956609
 20
250.6780400295784
 30
0.0
 10
-422.7006782753091
 20
250.7140976400863
 30
0.0
 10
-422.761755397836
 20
250.7604332252546
 30
0.0
 10
-422.819263945032
 20
250.8151164540099
 30
0.0
 10
-422.8746484254591
 20
250.8794381899052
 30
0.0
 10
-422.9257605378153
 20
250.9509336837576
 30
0.0
 10
-422.9739673741646
 20
251.031226645348
 30
0.0
 10
-423.0173996887691
 20
251.1174691976324
 30
0.0
 10
-423.0570862529234
 20
251.2113057001586
 30
0.0
 10
-423.091628270616
 20
251.3098278012258
 30
0.0
 10
-423.1216644257856
 20
251.4143798283617
 30
0.0
 10
-423.1462875785728
 20
251.5223151236259
 30
0.0
 10
-423.1658160425706
 20
251.6344304427781
 30
0.0
 10
-423.1797536568494
 20
251.7485920721618
 30
0.0
 10
-423.1882279309845
 20
251.8648916477592
 30
0.0
 10
-423.1910221887724
 20
251.9818762429457
 30
0.0
 10
-423.188227930986
 20
252.0988608381326
 30
0.0
 10
-423.1797536568437
 20
252.215160413729
 30
0.0
 10
-423.1658160425904
 20
252.3293220431161
 30
0.0
 10
-423.1462875784993
 20
252.4414373622557
 30
0.0
 10
-423.1216644260506
 20
252.549372657566
 30
0.0
 10
-423.091628269681
 20
252.6539246845384
 30
0.0
 10
-423.0570862563149
 20
252.7524467861944
 30
0.0
 10
-423.0173996770899
 20
252.8462832866676
 30
0.0
 10
-422.9739674162359
 20
252.932525846274
 30
0.0
 10
-422.9257603957823
 20
253.0128187827879
 30
0.0
 10
-422.874648934698
 20
253.084314365351
 30
0.0
 10
-422.8192622482765
 20
253.148635800764
 30
0.0
 10
-422.7617614822254
 20
253.2033200894009
 30
0.0
 10
-422.7006579728266
 20
253.2496520803725
 30
0.0
 10
-422.6381659388772
 20
253.2857224601271
 30
0.0
 10
-422.5727470838855
 20
253.3123257541835
 30
0.0
 10
-422.5078647100472
 20
253.3282445291021
 30
0.0
 10
-422.4363271303089
 20
253.3332869080245
 30
0.0
 10
-422.3939695714174
 20
253.3301640989765
 30
0.0
 10
-422.3221535976336
 20
253.3180715778705
 30
0.0
 10
-422.3734536367745
 20
253.3264557406173
 30
0.0
 10
-422.4234349994313
 20
253.3345002169716
 30
0.0
 10
-422.3903865850703
 20
253.3291670750708
 30
0.0
 10
-422.3740897336644
 20
253.3265371933424
 30
0.0
 11
-422.3740897336644
 21
253.3265371933424
 31
0.0
 11
-422.3077604821953
 21
253.3106979190728
 31
0.0
 11
-422.2444252934947
 21
253.2850850320513
 31
0.0
 11
-422.1804161110317
 21
253.248395030539
 31
0.0
 11
-422.1213352641743
 21
253.2038967341571
 31
0.0
 11
-422.0619418920559
 21
253.1477449150973
 31
0.0
 11
-422.0083498532309
 21
253.0858016646308
 31
0.0
 11
-421.9554519385225
 21
253.0121954274252
 31
0.0
 11
-421.9086099189696
 21
252.9344454447444
 31
0.0
 11
-421.8637865640767
 21
252.8458499657001
 31
0.0
 11
-421.8249898205549
 21
252.7543641964683
 31
0.0
 11
-421.7895273470322
 21
252.6536324388181
 31
0.0
 11
-421.7599671051023
 21
252.5509601962867
 31
0.0
 11
-421.7348429834503
 21
252.441256481327
 31
0.0
 11
-421.7154946190625
 21
252.3303586895598
 31
0.0
 11
-421.7013610321798
 21
252.2150738692334
 31
0.0
 11
-421.6929163123664
 21
252.0992200936801
 31
0.0
 11
-421.6900871017521
 21
251.9818762429457
 31
0.0
 11
-421.6929163123664
 21
251.864532392211
 31
0.0
 11
-421.7013610321798
 21
251.7486786166573
 31
0.0
 11
-421.7154946190631
 21
251.633393796331
 31
0.0
 11
-421.7348429834511
 21
251.5224960045643
 31
0.0
 11
-421.7599671051032
 21
251.4127922896049
 31
0.0
 11
-421.7895273470329
 21
251.3101200470735
 31
0.0
 11
-421.8249898205548
 21
251.2093882894234
 31
0.0
 11
-421.8637865640761
 21
251.1179025201915
 31
0.0
 11
-421.9086099189691
 21
251.029307041147
 31
0.0
 11
-421.9554519385225
 21
250.9515570584662
 31
0.0
 11
-422.0083498532303
 21
250.8779508212606
 31
0.0
 11
-422.0619418920549
 21
250.8160075707941
 31
0.0
 11
-422.1213352641736
 21
250.7598557517344
 31
0.0
 11
-422.1804161110317
 21
250.7153574553526
 31
0.0
 11
-422.2444252934947
 21
250.6786674538406
 31
0.0
 11
-422.3077604821953
 21
250.6530545668194
 31
0.0
 11
-422.3740897336642
 21
250.6372152925496
 31
0.0
 11
-422.440087320774
 21
250.6318867058757
 31
0.0
 11
-422.5060849078837
 21
250.6372152925496
 31
0.0
 11
-422.5724141593529
 21
250.6530545668195
 31
0.0
 11
-422.6357493480535
 21
250.6786674538407
 31
0.0
 11
-422.6997585305163
 21
250.7153574553526
 31
0.0
 11
-422.7588393773737
 21
250.7598557517342
 31
0.0
 11
-422.8182327494923
 21
250.8160075707942
 31
0.0
 11
-422.8718247883172
 21
250.8779508212613
 31
0.0
 11
-422.9247227030255
 21
250.951557058467
 31
0.0
 11
-422.9715647225783
 21
251.0293070411471
 31
0.0
 11
-423.0163880774711
 21
251.1179025201908
 31
0.0
 11
-423.0551848209925
 21
251.2093882894226
 31
0.0
 11
-423.0906472945148
 21
251.3101200470733
 31
0.0
 11
-423.1202075364453
 21
251.4127922896051
 31
0.0
 11
-423.1453316580976
 21
251.5224960045644
 31
0.0
 11
-423.1646800224853
 21
251.6333937963311
 31
0.0
 11
-423.1788136093682
 21
251.7486786166573
 31
0.0
 11
-423.1872583291812
 21
251.8645323922109
 31
0.0
 11
-423.1900875397951
 21
251.9818762429458
 31
0.0
 11
-423.1872583291812
 21
252.0992200936807
 31
0.0
 11
-423.178813609368
 21
252.2150738692341
 31
0.0
 11
-423.1646800224849
 21
252.3303586895603
 31
0.0
 11
-423.1453316580969
 21
252.4412564813271
 31
0.0
 11
-423.1202075364447
 21
252.5509601962867
 31
0.0
 11
-423.0906472945148
 21
252.6536324388182
 31
0.0
 11
-423.0551848209926
 21
252.7543641964684
 31
0.0
 11
-423.0163880774713
 21
252.8458499657001
 31
0.0
 11
-422.971564722579
 21
252.9344454447444
 31
0.0
 11
-422.9247227030262
 21
253.0121954274251
 31
0.0
 11
-422.8718247883177
 21
253.0858016646308
 31
0.0
 11
-422.8182327494923
 21
253.1477449150974
 31
0.0
 11
-422.7588393773737
 21
253.2038967341573
 31
0.0
 11
-422.6997585305163
 21
253.2483950305388
 31
0.0
 11
-422.6357493480535
 21
253.2850850320507
 31
0.0
 11
-422.5724141593527
 21
253.310697919072
 31
0.0
 11
-422.5060849078837
 21
253.3265371933418
 31
0.0
 11
-422.439858733806
 21
253.3318288681976
 31
0.0
 11
-422.3731753857924
 21
253.3263895460692
 31
0.0
 11
-422.3397194183018
 21
253.320987135759
 31
0.0
 11
-422.3731753857924
 21
253.3263895460692
 31
0.0
 11
-422.4068599402511
 21
253.3318288681978
 31
0.0
 11
-422.3740897336644
 21
253.3265371933424
 31
0.0
  0
SPLINE
  5
33E
330
A
100
AcDbEntity
  8
1
  6
Continuous
 62
     7
100
AcDbSpline
210
0.0
220
0.0
230
1.0
 70
    11
 71
     3
 72
    83
 73
    79
 74
    77
 42
0.0000000001
 43
0.0000000001
 44
0.00000000001
 40
0.0
 40
0.0
 40
0.0
 40
0.0
 40
0.0681942241676121
 40
0.1365123484781189
 40
0.2102912861942537
 40
0.2842550938724718
 40
0.3659900278683807
 40
0.4478989584179391
 40
0.5385414845085199
 40
0.6293117142242205
 40
0.7286006463917602
 40
0.8279728420996976
 40
0.9347645741187701
 40
1.041607436722615
 40
1.154151324005684
 40
1.266724319982983
 40
1.382872277674187
 40
1.499033418348181
 40
1.616411370868578
 40
1.733789323389428
 40
1.849950464063666
 40
1.966098421755025
 40
2.078671417731858
 40
2.191215305014565
 40
2.298058167618504
 40
2.404849899637294
 40
2.504222095345017
 40
2.603511027512558
 40
2.694281257228444
 40
2.784923783318687
 40
2.86683271386812
 40
2.948567647864279
 40
3.022531455543099
 40
3.096310393259474
 40
3.164628517570013
 40
3.232822741737725
 40
3.299035092097998
 40
3.36524744245827
 40
3.433441666626147
 40
3.501759790936792
 40
3.575538728652969
 40
3.649502536331211
 40
3.731237470327402
 40
3.813146400877439
 40
3.903788926967815
 40
3.994559156683107
 40
4.093848088849859
 40
4.193220284557619
 40
4.300012016577149
 40
4.406854879181517
 40
4.519398766464066
 40
4.631971762440992
 40
4.748119720132232
 40
4.864280860806318
 40
4.981658813327219
 40
5.099036765848064
 40
5.215197906522273
 40
5.331345864213449
 40
5.443918860190394
 40
5.556462747473126
 40
5.663305610077135
 40
5.770097342096019
 40
5.869469537803735
 40
5.968758469970866
 40
6.059528699686653
 40
6.150171225777287
 40
6.232080156327149
 40
6.313815090323223
 40
6.387778898001475
 40
6.461557835717433
 40
6.529875960028162
 40
6.598070184195845
 40
6.664507432451125
 40
6.731412253858336
 40
6.765301600235943
 40
6.79919094661355
 40
6.83331184100832
 40
6.866506543334456
 40
6.866506543334456
 40
6.866506543334456
 40
6.866506543334456
 10
-422.3740897336643
 20
385.9372152925506
 30
0.0
 10
-422.3517737882384
 20
385.9417849624035
 30
0.0
 10
-422.3071013521815
 20
385.9509326046122
 30
0.0
 10
-422.2421039629404
 20
385.9781743234033
 30
0.0
 10
-422.1794903351803
 20
386.0140605161955
 30
0.0
 10
-422.1184210511417
 20
386.0604443508022
 30
0.0
 10
-422.0609101924781
 20
386.1151133514269
 30
0.0
 10
-422.0055263673632
 20
386.1794391210679
 30
0.0
 10
-421.9544140615402
 20
386.2509334240439
 30
0.0
 10
-421.9062072798807
 20
386.3312267222763
 30
0.0
 10
-421.8627749493093
 20
386.4174691762779
 30
0.0
 10
-421.8230883896314
 20
386.5113057063613
 30
0.0
 10
-421.7885463706531
 20
386.6098277995167
 30
0.0
 10
-421.7585102158407
 20
386.7143798288484
 30
0.0
 10
-421.7338870629536
 20
386.8223151234942
 30
0.0
 10
-421.7143585989832
 20
386.9344304428164
 30
0.0
 10
-421.700420984697
 20
387.0485920721534
 30
0.0
 10
-421.6919467105635
 20
387.1648916477632
 30
0.0
 10
-421.6891524527742
 20
387.2818762429461
 30
0.0
 10
-421.6919467105632
 20
387.3988608381336
 30
0.0
 10
-421.7004209846987
 20
387.5151604137307
 30
0.0
 10
-421.7143585989779
 20
387.6293220431146
 30
0.0
 10
-421.7338870629761
 20
387.7414373622667
 30
0.0
 10
-421.7585102157628
 20
387.8493726575308
 30
0.0
 10
-421.7885463709318
 20
387.9539246846667
 30
0.0
 10
-421.823088388624
 20
388.0524467857333
 30
0.0
 10
-421.8627749527778
 20
388.1462832882597
 30
0.0
 10
-421.9062072673828
 20
388.2325258405445
 30
0.0
 10
-421.9544141037325
 20
388.3128188021354
 30
0.0
 10
-422.0055262160882
 20
388.3843142959877
 30
0.0
 10
-422.0609106965153
 20
388.448636031883
 30
0.0
 10
-422.1184192437114
 20
388.503319260638
 30
0.0
 10
-422.1794963662389
 20
388.5496548458061
 30
0.0
 10
-422.2420821458872
 20
388.5857124563145
 30
0.0
 10
-422.3071760616312
 20
388.6123600108491
 30
0.0
 10
-422.3731656307779
 20
388.6281005391467
 30
0.0
 10
-422.440087320774
 20
388.6337206405295
 30
0.0
 10
-422.50700901077
 20
388.6281005391467
 30
0.0
 10
-422.572998579917
 20
388.6123600108491
 30
0.0
 10
-422.6380924956607
 20
388.5857124563146
 30
0.0
 10
-422.7006782753091
 20
388.5496548458063
 30
0.0
 10
-422.761755397836
 20
388.5033192606379
 30
0.0
 10
-422.819263945032
 20
388.4486360318827
 30
0.0
 10
-422.8746484254591
 20
388.3843142959872
 30
0.0
 10
-422.9257605378152
 20
388.3128188021349
 30
0.0
 10
-422.9739673741648
 20
388.2325258405445
 30
0.0
 10
-423.0173996887693
 20
388.1462832882599
 30
0.0
 10
-423.0570862529234
 20
388.0524467857339
 30
0.0
 10
-423.0916282706159
 20
387.9539246846668
 30
0.0
 10
-423.1216644257855
 20
387.8493726575308
 30
0.0
 10
-423.1462875785727
 20
387.7414373622666
 30
0.0
 10
-423.1658160425709
 20
387.6293220431146
 30
0.0
 10
-423.1797536568492
 20
387.5151604137307
 30
0.0
 10
-423.1882279309847
 20
387.3988608381334
 30
0.0
 10
-423.1910221887723
 20
387.2818762429468
 30
0.0
 10
-423.1882279309858
 20
387.1648916477599
 30
0.0
 10
-423.1797536568437
 20
387.0485920721636
 30
0.0
 10
-423.1658160425904
 20
386.9344304427763
 30
0.0
 10
-423.1462875784993
 20
386.8223151236369
 30
0.0
 10
-423.1216644260507
 20
386.7143798283265
 30
0.0
 10
-423.0916282696809
 20
386.6098278013542
 30
0.0
 10
-423.0570862563148
 20
386.5113056996982
 30
0.0
 10
-423.0173996770901
 20
386.417469199225
 30
0.0
 10
-422.9739674162358
 20
386.3312266396185
 30
0.0
 10
-422.9257603957824
 20
386.2509337031048
 30
0.0
 10
-422.874648934698
 20
386.1794381205415
 30
0.0
 10
-422.8192622482766
 20
386.1151166851286
 30
0.0
 10
-422.7617614822255
 20
386.0604323964917
 30
0.0
 10
-422.7006579728264
 20
386.0141004055199
 30
0.0
 10
-422.638165938877
 20
385.9780300257651
 30
0.0
 10
-422.5727470838857
 20
385.9514267317089
 30
0.0
 10
-422.507864710047
 20
385.9355079567903
 30
0.0
 10
-422.4363271303091
 20
385.9304655778681
 30
0.0
 10
-422.3939695714175
 20
385.9335883869161
 30
0.0
 10
-422.3221535976334
 20
385.9456809080229
 30
0.0
 10
-422.3734536367746
 20
385.9372967452756
 30
0.0
 10
-422.4234349994311
 20
385.929252268921
 30
0.0
 10
-422.3903865850703
 20
385.9345854108221
 30
0.0
 10
-422.3740897336643
 20
385.9372152925506
 30
0.0
 11
-422.3740897336642
 21
385.9372152925506
 31
0.0
 11
-422.3077604821953
 21
385.9530545668205
 31
0.0
 11
-422.2444252934947
 21
385.9786674538416
 31
0.0
 11
-422.1804161110317
 21
386.0153574553537
 31
0.0
 11
-422.1213352641743
 21
386.0598557517353
 31
0.0
 11
-422.0619418920559
 21
386.1160075707952
 31
0.0
 11
-422.0083498532309
 21
386.1779508212616
 31
0.0
 11
-421.9554519385225
 21
386.2515570584674
 31
0.0
 11
-421.9086099189696
 21
386.329307041148
 31
0.0
 11
-421.8637865640767
 21
386.4179025201925
 31
0.0
 11
-421.8249898205549
 21
386.5093882894242
 31
0.0
 11
-421.7895273470322
 21
386.6101200470743
 31
0.0
 11
-421.7599671051023
 21
386.7127922896057
 31
0.0
 11
-421.7348429834503
 21
386.8224960045656
 31
0.0
 11
-421.7154946190625
 21
386.9333937963327
 31
0.0
 11
-421.7013610321797
 21
387.048678616659
 31
0.0
 11
-421.6929163123664
 21
387.1645323922123
 31
0.0
 11
-421.6900871017521
 21
387.2818762429468
 31
0.0
 11
-421.6929163123664
 21
387.3992200936816
 31
0.0
 11
-421.7013610321798
 21
387.5150738692352
 31
0.0
 11
-421.7154946190631
 21
387.6303586895616
 31
0.0
 11
-421.7348429834511
 21
387.7412564813282
 31
0.0
 11
-421.7599671051032
 21
387.8509601962877
 31
0.0
 11
-421.7895273470331
 21
387.9536324388192
 31
0.0
 11
-421.8249898205549
 21
388.0543641964693
 31
0.0
 11
-421.8637865640761
 21
388.1458499657011
 31
0.0
 11
-421.9086099189691
 21
388.2344454447454
 31
0.0
 11
-421.9554519385223
 21
388.3121954274262
 31
0.0
 11
-422.0083498532303
 21
388.3858016646318
 31
0.0
 11
-422.0619418920549
 21
388.4477449150985
 31
0.0
 11
-422.1213352641736
 21
388.5038967341582
 31
0.0
 11
-422.1804161110317
 21
388.54839503054
 31
0.0
 11
-422.2444252934947
 21
388.5850850320524
 31
0.0
 11
-422.3077604821953
 21
388.6106979190738
 31
0.0
 11
-422.3740897336644
 21
388.6265371933433
 31
0.0
 11
-422.440087320774
 21
388.6318657800171
 31
0.0
 11
-422.5060849078836
 21
388.6265371933433
 31
0.0
 11
-422.5724141593529
 21
388.6106979190738
 31
0.0
 11
-422.6357493480535
 21
388.5850850320524
 31
0.0
 11
-422.6997585305163
 21
388.54839503054
 31
0.0
 11
-422.7588393773737
 21
388.5038967341583
 31
0.0
 11
-422.8182327494923
 21
388.4477449150983
 31
0.0
 11
-422.8718247883172
 21
388.3858016646311
 31
0.0
 11
-422.9247227030255
 21
388.3121954274256
 31
0.0
 11
-422.9715647225785
 21
388.2344454447454
 31
0.0
 11
-423.0163880774711
 21
388.1458499657017
 31
0.0
 11
-423.0551848209925
 21
388.05436419647
 31
0.0
 11
-423.0906472945148
 21
387.9536324388192
 31
0.0
 11
-423.1202075364453
 21
387.8509601962874
 31
0.0
 11
-423.1453316580976
 21
387.7412564813282
 31
0.0
 11
-423.1646800224855
 21
387.6303586895614
 31
0.0
 11
-423.1788136093681
 21
387.5150738692351
 31
0.0
 11
-423.1872583291812
 21
387.3992200936817
 31
0.0
 11
-423.1900875397951
 21
387.2818762429468
 31
0.0
 11
-423.1872583291811
 21
387.1645323922119
 31
0.0
 11
-423.178813609368
 21
387.0486786166583
 31
0.0
 11
-423.1646800224849
 21
386.9333937963321
 31
0.0
 11
-423.1453316580969
 21
386.8224960045654
 31
0.0
 11
-423.1202075364447
 21
386.7127922896059
 31
0.0
 11
-423.0906472945148
 21
386.6101200470743
 31
0.0
 11
-423.0551848209926
 21
386.5093882894242
 31
0.0
 11
-423.0163880774714
 21
386.4179025201925
 31
0.0
 11
-422.971564722579
 21
386.3293070411482
 31
0.0
 11
-422.9247227030262
 21
386.2515570584674
 31
0.0
 11
-422.8718247883177
 21
386.1779508212617
 31
0.0
 11
-422.8182327494923
 21
386.1160075707952
 31
0.0
 11
-422.7588393773737
 21
386.0598557517353
 31
0.0
 11
-422.6997585305163
 21
386.0153574553537
 31
0.0
 11
-422.6357493480535
 21
385.9786674538416
 31
0.0
 11
-422.5724141593527
 21
385.9530545668203
 31
0.0
 11
-422.5060849078837
 21
385.9372152925506
 31
0.0
 11
-422.4398587338061
 21
385.9319236176951
 31
0.0
 11
-422.3731753857924
 21
385.9373629398236
 31
0.0
 11
-422.3397194183018
 21
385.9427653501342
 31
0.0
 11
-422.3731753857924
 21
385.9373629398236
 31
0.0
 11
-422.4068599402511
 21
385.9319236176949
 31
0.0
 11
-422.3740897336643
 21
385.9372152925506
 31
0.0
  0
CIRCLE
  5
33D
330
A
100
AcDbEntity
  8
1
  6
DASHED
 62
     7
100
AcDbCircle
 10
-560.585706761863
 20
335.131876242946
 30
0.0
 40
4.0
  0
CIRCLE
  5
33C
330
A
100
AcDbEntity
  8
1
  6
DASHED
 62
     3
100
AcDbCircle
 10
-560.585706761863
 20
335.131876242946
 30
0.0
 40
5.0
  0
CIRCLE
  5
33B
330
A
100
AcDbEntity
  8
1
  6
DASHED
 62
     7
100
AcDbCircle
 10
-560.585706761863
 20
304.1318762429479
 30
0.0
 40
4.0
  0
CIRCLE
  5
33A
330
A
100
AcDbEntity
  8
1
  6
DASHED
 62
     3
100
AcDbCircle
 10
-560.585706761863
 20
304.1318762429479
 30
0.0
 40
5.0
  0
CIRCLE
  5
339
330
A
100
AcDbEntity
  8
1
  6
DASHED
 62
     7
100
AcDbCircle
 10
-587.4324942791799
 20
288.631876242948
 30
0.0
 40
4.0
  0
CIRCLE
  5
338
330
A
100
AcDbEntity
  8
1
  6
DASHED
 62
     3
100
AcDbCircle
 10
-587.4324942791799
 20
288.631876242948
 30
0.0
 40
5.0
  0
CIRCLE
  5
337
330
A
100
AcDbEntity
  8
1
  6
DASHED
 62
     7
100
AcDbCircle
 10
-614.279281796497
 20
304.1318762429469
 30
0.0
 40
4.0
  0
CIRCLE
  5
336
330
A
100
AcDbEntity
  8
1
  6
DASHED
 62
     3
100
AcDbCircle
 10
-614.279281796497
 20
304.1318762429469
 30
0.0
 40
5.0
  0
CIRCLE
  5
335
330
A
100
AcDbEntity
  8
1
  6
DASHED
 62
     7
100
AcDbCircle
 10
-614.279281796497
 20
335.131876242946
 30
0.0
 40
4.0
  0
CIRCLE
  5
334
330
A
100
AcDbEntity
  8
1
  6
DASHED
 62
     3
100
AcDbCircle
 10
-614.279281796497
 20
335.131876242946
 30
0.0
 40
5.0
  0
CIRCLE
  5
333
330
A
100
AcDbEntity
  8
1
  6
DASHED
 62
     3
100
AcDbCircle
 10
-587.4324942791799
 20
350.631876242946
 30
0.0
 40
5.0
  0
CIRCLE
  5
332
330
A
100
AcDbEntity
  8
1
  6
DASHED
 62
     7
100
AcDbCircle
 10
-587.4324942791799
 20
350.631876242946
 30
0.0
 40
4.0
  0
CIRCLE
  5
331
330
A
100
AcDbEntity
  8
1
  6
DASH_CENTER
 62
     3
100
AcDbCircle
 10
-587.4324942791799
 20
319.6318762429469
 30
0.0
 40
30.999999999999
  0
CIRCLE
  5
330
330
A
100
AcDbEntity
  8
1
  6
DASH_CENTER
 62
     3
100
AcDbCircle
 10
-249.51922780995
 20
319.6318762429469
 30
0.0
 40
63.5
  0
CIRCLE
  5
32F
330
A
100
AcDbEntity
  8
1
  6
Continuous
 62
     7
100
AcDbCircle
 10
-249.51922780995
 20
319.6318762429469
 30
0.0
 40
62.852999999994
  0
CIRCLE
  5
32E
330
A
100
AcDbEntity
  8
1
  6
Continuous
 62
     7
100
AcDbCircle
 10
-279.51922780991
 20
319.631876242943
 30
0.0
 40
2.399999999999999
  0
CIRCLE
  5
32D
330
A
100
AcDbEntity
  8
1
  6
Continuous
 62
     3
100
AcDbCircle
 10
-279.51922780991
 20
319.631876242943
 30
0.0
 40
3.000000000001
  0
CIRCLE
  5
32C
330
A
100
AcDbEntity
  8
1
  6
Continuous
 62
     7
100
AcDbCircle
 10
-249.5192278102019
 20
319.6318762429469
 30
0.0
 40
25.0
  0
CIRCLE
  5
32B
330
A
100
AcDbEntity
  8
1
  6
DASH_CENTER
 62
     3
100
AcDbCircle
 10
-249.5192278102019
 20
319.6318762429469
 30
0.0
 40
30.0
  0
CIRCLE
  5
32A
330
A
100
AcDbEntity
  8
1
  6
Continuous
 62
     3
100
AcDbCircle
 10
-249.5192278099469
 20
349.6318762429
 30
0.0
 40
3.000000000001
  0
CIRCLE
  5
329
330
A
100
AcDbEntity
  8
1
  6
Continuous
 62
     7
100
AcDbCircle
 10
-249.5192278099469
 20
349.6318762429
 30
0.0
 40
2.399999999999999
  0
CIRCLE
  5
328
330
A
100
AcDbEntity
  8
1
  6
Continuous
 62
     3
100
AcDbCircle
 10
-249.5192278099469
 20
289.631876242986
 30
0.0
 40
3.0
  0
CIRCLE
  5
327
330
A
100
AcDbEntity
  8
1
  6
Continuous
 62
     7
100
AcDbCircle
 10
-249.5192278099469
 20
289.631876242986
 30
0.0
 40
2.399999999999999
  0
CIRCLE
  5
326
330
A
100
AcDbEntity
  8
1
  6
Continuous
 62
     3
100
AcDbCircle
 10
-219.51922780999
 20
319.631876242943
 30
0.0
 40
3.000000000001
  0
CIRCLE
  5
325
330
A
100
AcDbEntity
  8
1
  6
Continuous
 62
     7
100
AcDbCircle
 10
-219.51922780999
 20
319.631876242943
 30
0.0
 40
2.399999999999999
  0
CIRCLE
  5
324
330
A
100
AcDbEntity
  8
1
  6
Continuous
 62
     7
100
AcDbCircle
 10
-249.51922780995
 20
319.6318762429469
 30
0.0
 40
20.0
  0
CIRCLE
  5
323
330
A
100
AcDbEntity
  8
1
  6
Continuous
 62
     7
100
AcDbCircle
 10
-249.51922780995
 20
319.6318762429469
 30
0.0
 40
22.0
  0
CIRCLE
  5
322
330
A
100
AcDbEntity
  8
1
  6
Continuous
 62
     7
100
AcDbCircle
 10
-249.51922780995
 20
319.6318762429469
 30
0.0
 40
67.999998722665
  0
CIRCLE
  5
321
330
A
100
AcDbEntity
  8
1
  6
DASH_CENTER
 62
     3
100
AcDbCircle
 10
-249.5192278102019
 20
319.6318762429469
 30
0.0
 40
73.5
  0
CIRCLE
  5
320
330
A
100
AcDbEntity
  8
1
  6
Continuous
 62
     7
100
AcDbCircle
 10
-283.676380955196
 20
384.7128941285749
 30
0.0
 40
3.299999999999999
  0
CIRCLE
  5
31F
330
A
100
AcDbEntity
  8
1
  6
Continuous
 62
     7
100
AcDbCircle
 10
-298.258743190712
 20
374.6474162336899
 30
0.0
 40
3.299999999999999
  0
CIRCLE
  5
31E
330
A
100
AcDbEntity
  8
1
  6
Continuous
 62
     7
100
AcDbCircle
 10
-310.0085419532429
 20
361.3846351278949
 30
0.0
 40
3.299999999999999
  0
CIRCLE
  5
31D
330
A
100
AcDbEntity
  8
1
  6
Continuous
 62
     7
100
AcDbCircle
 10
-318.242921647491
 20
345.6953354408089
 30
0.0
 40
3.299999999999999
  0
CIRCLE
  5
31C
330
A
100
AcDbEntity
  8
1
  6
Continuous
 62
     7
100
AcDbCircle
 10
-322.483330056379
 20
328.491322241963
 30
0.0
 40
3.300000000001
  0
CIRCLE
  5
31B
330
A
100
AcDbEntity
  8
1
  6
Continuous
 62
     7
100
AcDbCircle
 10
-318.24292164767
 20
293.5684170455559
 30
0.0
 40
3.299999999998999
  0
CIRCLE
  5
31A
330
A
100
AcDbEntity
  8
1
  6
Continuous
 62
     7
100
AcDbCircle
 10
-310.008541953529
 20
277.879117358414
 30
0.0
 40
3.299999999999999
  0
CIRCLE
  5
319
330
A
100
AcDbEntity
  8
1
  6
Continuous
 62
     7
100
AcDbCircle
 10
-298.2587431910889
 20
264.616336252538
 30
0.0
 40
3.299999999999999
  0
CIRCLE
  5
318
330
A
100
AcDbEntity
  8
1
  6
Continuous
 62
     7
100
AcDbCircle
 10
-283.6763809556419
 20
254.550858357553
 30
0.0
 40
3.300000000001
  0
CIRCLE
  5
317
330
A
100
AcDbEntity
  8
1
  6
Continuous
 62
     7
100
AcDbCircle
 10
-267.108929135582
 20
248.2676526621919
 30
0.0
 40
3.299999999999999
  0
CIRCLE
  5
316
330
A
100
AcDbEntity
  8
1
  6
Continuous
 62
     7
100
AcDbCircle
 10
-215.362074665209
 20
254.550858357319
 30
0.0
 40
3.300000000001
  0
CIRCLE
  5
315
330
A
100
AcDbEntity
  8
1
  6
Continuous
 62
     7
100
AcDbCircle
 10
-200.779712429693
 20
264.6163362522039
 30
0.0
 40
3.299999999999999
  0
CIRCLE
  5
314
330
A
100
AcDbEntity
  8
1
  6
Continuous
 62
     7
100
AcDbCircle
 10
-189.029913667163
 20
277.8791173579989
 30
0.0
 40
3.299999999999999
  0
CIRCLE
  5
313
330
A
100
AcDbEntity
  8
1
  6
Continuous
 62
     7
100
AcDbCircle
 10
-180.7955339729149
 20
293.568417045084
 30
0.0
 40
3.299999999999999
  0
CIRCLE
  5
312
330
A
100
AcDbEntity
  8
1
  6
Continuous
 62
     7
100
AcDbCircle
 10
-176.5551255640269
 20
310.7724302439289
 30
0.0
 40
3.299999999999999
  0
CIRCLE
  5
311
330
A
100
AcDbEntity
  8
1
  6
Continuous
 62
     7
100
AcDbCircle
 10
-180.795533972736
 20
345.695335440336
 30
0.0
 40
3.299999999999999
  0
CIRCLE
  5
310
330
A
100
AcDbEntity
  8
1
  6
Continuous
 62
     7
100
AcDbCircle
 10
-189.0299136668759
 20
361.384635127477
 30
0.0
 40
3.299999999998999
  0
CIRCLE
  5
30F
330
A
100
AcDbEntity
  8
1
  6
Continuous
 62
     7
100
AcDbCircle
 10
-200.7797124293159
 20
374.6474162333529
 30
0.0
 40
3.299999999999999
  0
CIRCLE
  5
30E
330
A
100
AcDbEntity
  8
1
  6
Continuous
 62
     7
100
AcDbCircle
 10
-215.3620746647619
 20
384.712894128337
 30
0.0
 40
3.299999999999999
  0
CIRCLE
  5
30D
330
A
100
AcDbEntity
  8
1
  6
Continuous
 62
     7
100
AcDbCircle
 10
-231.9295264853109
 20
248.267652662072
 30
0.0
 40
4.0
  0
CIRCLE
  5
30C
330
A
100
AcDbEntity
  8
1
  6
Continuous
 62
     7
100
AcDbCircle
 10
-176.5551255639639
 20
328.4913222414609
 30
0.0
 40
4.0
  0
CIRCLE
  5
30B
330
A
100
AcDbEntity
  8
1
  6
Continuous
 62
     7
100
AcDbCircle
 10
-322.4833300564399
 20
310.772430244433
 30
0.0
 40
4.0
  0
CIRCLE
  5
30A
330
A
100
AcDbEntity
  8
1
  6
Continuous
 62
     3
100
AcDbCircle
 10
-561.5699431783109
 20
355.228623995445
 30
0.0
 40
6.0
  0
CIRCLE
  5
309
330
A
100
AcDbEntity
  8
1
  6
Continuous
 62
     7
100
AcDbCircle
 10
-561.5699431783109
 20
355.228623995445
 30
0.0
 40
4.799999999999999
  0
CIRCLE
  5
308
330
A
100
AcDbEntity
  8
1
  6
Continuous
 62
     3
100
AcDbCircle
 10
-545.586007562193
 20
333.2286239954449
 30
0.0
 40
6.0
  0
CIRCLE
  5
307
330
A
100
AcDbEntity
  8
1
  6
Continuous
 62
     7
100
AcDbCircle
 10
-545.586007562193
 20
333.2286239954449
 30
0.0
 40
4.800000000000999
  0
CIRCLE
  5
306
330
A
100
AcDbEntity
  8
1
  6
Continuous
 62
     3
100
AcDbCircle
 10
-545.586007562193
 20
306.035128490449
 30
0.0
 40
6.0
  0
CIRCLE
  5
305
330
A
100
AcDbEntity
  8
1
  6
Continuous
 62
     7
100
AcDbCircle
 10
-545.586007562193
 20
306.035128490449
 30
0.0
 40
4.799999999999999
  0
CIRCLE
  5
304
330
A
100
AcDbEntity
  8
1
  6
Continuous
 62
     3
100
AcDbCircle
 10
-561.5699431783109
 20
284.0351284904489
 30
0.0
 40
6.0
  0
CIRCLE
  5
303
330
A
100
AcDbEntity
  8
1
  6
Continuous
 62
     7
100
AcDbCircle
 10
-561.5699431783109
 20
284.0351284904489
 30
0.0
 40
4.800000000000999
  0
CIRCLE
  5
302
330
A
100
AcDbEntity
  8
1
  6
Continuous
 62
     3
100
AcDbCircle
 10
-587.4324942791799
 20
275.631876242946
 30
0.0
 40
6.0
  0
CIRCLE
  5
301
330
A
100
AcDbEntity
  8
1
  6
Continuous
 62
     7
100
AcDbCircle
 10
-587.4324942791799
 20
275.631876242946
 30
0.0
 40
4.799999999999999
  0
CIRCLE
  5
300
330
A
100
AcDbEntity
  8
1
  6
Continuous
 62
     3
100
AcDbCircle
 10
-613.295045380049
 20
284.035128490448
 30
0.0
 40
6.000000000001
  0
CIRCLE
  5
2FF
330
A
100
AcDbEntity
  8
1
  6
Continuous
 62
     7
100
AcDbCircle
 10
-613.295045380049
 20
284.035128490448
 30
0.0
 40
4.799999999999999
  0
CIRCLE
  5
2FE
330
A
100
AcDbEntity
  8
1
  6
Continuous
 62
     3
100
AcDbCircle
 10
-629.278980996167
 20
306.035128490449
 30
0.0
 40
5.999999999998999
  0
CIRCLE
  5
2FD
330
A
100
AcDbEntity
  8
1
  6
Continuous
 62
     7
100
AcDbCircle
 10
-629.278980996167
 20
306.035128490449
 30
0.0
 40
4.799999999998999
  0
CIRCLE
  5
2FC
330
A
100
AcDbEntity
  8
1
  6
Continuous
 62
     3
100
AcDbCircle
 10
-629.278980996167
 20
333.2286239954449
 30
0.0
 40
6.0
  0
CIRCLE
  5
2FB
330
A
100
AcDbEntity
  8
1
  6
Continuous
 62
     7
100
AcDbCircle
 10
-629.278980996167
 20
333.2286239954449
 30
0.0
 40
4.799999999999999
  0
CIRCLE
  5
2FA
330
A
100
AcDbEntity
  8
1
  6
Continuous
 62
     3
100
AcDbCircle
 10
-613.295045380049
 20
355.228623995445
 30
0.0
 40
6.0
  0
CIRCLE
  5
2F9
330
A
100
AcDbEntity
  8
1
  6
Continuous
 62
     7
100
AcDbCircle
 10
-613.295045380049
 20
355.228623995445
 30
0.0
 40
4.799999999999999
  0
CIRCLE
  5
2F8
330
A
100
AcDbEntity
  8
1
  6
Continuous
 62
     7
100
AcDbCircle
 10
-587.4324942791799
 20
363.6318762429469
 30
0.0
 40
4.799999999999999
  0
CIRCLE
  5
2F7
330
A
100
AcDbEntity
  8
1
  6
Continuous
 62
     3
100
AcDbCircle
 10
-587.4324942791799
 20
363.6318762429469
 30
0.0
 40
6.0
  0
CIRCLE
  5
2F6
330
A
100
AcDbEntity
  8
1
  6
DASH_CENTER
 62
     3
100
AcDbCircle
 10
-587.4324942791799
 20
319.6318762429469
 30
0.0
 40
44.0
  0
CIRCLE
  5
2F5
330
A
100
AcDbEntity
  8
1
  6
Continuous
 62
     7
100
AcDbCircle
 10
-553.275341133963
 20
384.712894128457
 30
0.0
 40
3.300000000001
  0
CIRCLE
  5
2F4
330
A
100
AcDbEntity
  8
1
  6
Continuous
 62
     7
100
AcDbCircle
 10
-538.692978898481
 20
374.647416233522
 30
0.0
 40
3.299999999999999
  0
CIRCLE
  5
2F3
330
A
100
AcDbEntity
  8
1
  6
Continuous
 62
     7
100
AcDbCircle
 10
-526.943180135996
 20
361.384635127686
 30
0.0
 40
3.299999999998999
  0
CIRCLE
  5
2F2
330
A
100
AcDbEntity
  8
1
  6
Continuous
 62
     7
100
AcDbCircle
 10
-518.7088004418019
 20
345.6953354405719
 30
0.0
 40
3.299999999998999
  0
CIRCLE
  5
2F1
330
A
100
AcDbEntity
  8
1
  6
Continuous
 62
     7
100
AcDbCircle
 10
-514.468392032973
 20
328.491322241712
 30
0.0
 40
3.299999999998999
  0
CIRCLE
  5
2F0
330
A
100
AcDbEntity
  8
1
  6
Continuous
 62
     7
100
AcDbCircle
 10
-518.7088004418019
 20
293.56841704532
 30
0.0
 40
3.299999999999999
  0
CIRCLE
  5
2EF
330
A
100
AcDbEntity
  8
1
  6
Continuous
 62
     7
100
AcDbCircle
 10
-526.9431801359969
 20
277.8791173582059
 30
0.0
 40
3.299999999999999
  0
CIRCLE
  5
2EE
330
A
100
AcDbEntity
  8
1
  6
Continuous
 62
     7
100
AcDbCircle
 10
-538.692978898482
 20
264.61633625237
 30
0.0
 40
3.299999999999999
  0
CIRCLE
  5
2ED
330
A
100
AcDbEntity
  8
1
  6
Continuous
 62
     7
100
AcDbCircle
 10
-553.275341133964
 20
254.5508583574359
 30
0.0
 40
3.299999999999999
  0
CIRCLE
  5
2EC
330
A
100
AcDbEntity
  8
1
  6
Continuous
 62
     7
100
AcDbCircle
 10
-569.842792954045
 20
248.2676526621319
 30
0.0
 40
3.299999999999999
  0
CIRCLE
  5
2EB
330
A
100
AcDbEntity
  8
1
  6
Continuous
 62
     7
100
AcDbCircle
 10
-587.432494279181
 20
246.131876242947
 30
0.0
 40
3.299999999999999
  0
CIRCLE
  5
2EA
330
A
100
AcDbEntity
  8
1
  6
Continuous
 62
     7
100
AcDbCircle
 10
-621.5896474243979
 20
254.550858357437
 30
0.0
 40
3.299999999998999
  0
CIRCLE
  5
2E9
330
A
100
AcDbEntity
  8
1
  6
Continuous
 62
     7
100
AcDbCircle
 10
-636.172009659879
 20
264.616336252371
 30
0.0
 40
3.300000000001
  0
CIRCLE
  5
2E8
330
A
100
AcDbEntity
  8
1
  6
Continuous
 62
     7
100
AcDbCircle
 10
-647.9218084223639
 20
277.879117358207
 30
0.0
 40
3.299999999999999
  0
CIRCLE
  5
2E7
330
A
100
AcDbEntity
  8
1
  6
Continuous
 62
     7
100
AcDbCircle
 10
-656.1561881165589
 20
293.5684170453209
 30
0.0
 40
3.299999999999999
  0
CIRCLE
  5
2E6
330
A
100
AcDbEntity
  8
1
  6
Continuous
 62
     7
100
AcDbCircle
 10
-660.396596525388
 20
310.7724302441809
 30
0.0
 40
3.299999999998999
  0
CIRCLE
  5
2E5
330
A
100
AcDbEntity
  8
1
  6
Continuous
 62
     7
100
AcDbCircle
 10
-656.156188116558
 20
345.695335440574
 30
0.0
 40
3.299999999998999
  0
CIRCLE
  5
2E4
330
A
100
AcDbEntity
  8
1
  6
Continuous
 62
     7
100
AcDbCircle
 10
-647.9218084223639
 20
361.3846351276869
 30
0.0
 40
3.299999999999999
  0
CIRCLE
  5
2E3
330
A
100
AcDbEntity
  8
1
  6
Continuous
 62
     7
100
AcDbCircle
 10
-636.172009659879
 20
374.647416233523
 30
0.0
 40
3.299999999999999
  0
CIRCLE
  5
2E2
330
A
100
AcDbEntity
  8
1
  6
Continuous
 62
     7
100
AcDbCircle
 10
-621.5896474243969
 20
384.712894128458
 30
0.0
 40
3.299999999999999
  0
CIRCLE
  5
2E1
330
A
100
AcDbEntity
  8
1
  6
Continuous
 62
     7
100
AcDbCircle
 10
-605.022195604315
 20
390.996099823762
 30
0.0
 40
3.299999999999999
  0
CIRCLE
  5
2E0
330
A
100
AcDbEntity
  8
1
  6
Continuous
 62
     7
100
AcDbCircle
 10
-587.4324942791799
 20
393.1318762429469
 30
0.0
 40
3.299999999999999
  0
CIRCLE
  5
2DF
330
A
100
AcDbEntity
  8
1
  6
DASH_CENTER
 62
     3
100
AcDbCircle
 10
-587.4324942791799
 20
319.6318762429469
 30
0.0
 40
73.5
  0
CIRCLE
  5
2DE
330
A
100
AcDbEntity
  8
1
  6
Continuous
 62
     7
100
AcDbCircle
 10
-587.4324942791799
 20
319.6318762429469
 30
0.0
 40
78.49999872318701
  0
CIRCLE
  5
2DD
330
A
100
AcDbEntity
  8
1
  6
Continuous
 62
     7
100
AcDbCircle
 10
-587.4324942791799
 20
319.6318762429469
 30
0.0
 40
65.0
  0
CIRCLE
  5
2DC
330
A
100
AcDbEntity
  8
1
  6
Continuous
 62
     7
100
AcDbCircle
 10
-587.4324942791799
 20
319.6318762429469
 30
0.0
 40
56.0
  0
CIRCLE
  5
2DB
330
A
100
AcDbEntity
  8
1
  6
Continuous
 62
     7
100
AcDbCircle
 10
-587.4324942791799
 20
319.6318762429469
 30
0.0
 40
24.0
  0
CIRCLE
  5
2DA
330
A
100
AcDbEntity
  8
1
  6
Continuous
 62
     7
100
AcDbCircle
 10
-267.1089291350929
 20
390.996099823822
 30
0.0
 40
4.0
  0
CIRCLE
  5
2D9
330
A
100
AcDbEntity
  8
1
  6
Continuous
 62
     7
100
AcDbCircle
 10
-231.929526484821
 20
390.996099823699
 30
0.0
 40
3.299999999999999
  0
CIRCLE
  5
2D8
330
A
100
AcDbEntity
  8
1
  6
Continuous
 62
     7
100
AcDbCircle
 10
-249.519227810455
 20
246.131876242947
 30
0.0
 40
3.299999999999999
  0
CIRCLE
  5
2D7
330
A
100
AcDbEntity
  8
1
  6
Continuous
 62
     7
100
AcDbCircle
 10
-249.51922780995
 20
393.1318762429469
 30
0.0
 40
3.299999999999999
  0
CIRCLE
  5
2D6
330
A
100
AcDbEntity
  8
1
  6
Continuous
 62
     7
100
AcDbCircle
 10
-249.51922780995
 20
319.6318762429469
 30
0.0
 40
78.49999872318701
  0
ARC
  5
2D5
330
A
100
AcDbEntity
  8
1
  6
Continuous
 62
     7
100
AcDbCircle
 10
-406.22212737837
 20
251.954466252817
 30
0.0
 40
5.586282810853999
100
AcDbArc
 50
65.000000000002
 51
91.04426808102502
  0
ARC
  5
2D4
330
A
100
AcDbEntity
  8
1
  6
Continuous
 62
     7
100
AcDbCircle
 10
-406.22212737837
 20
387.309286233077
 30
0.0
 40
5.586282810853999
100
AcDbArc
 50
-91.04426808102502
 51
-65.000000000002
  0
LINE
  5
2D3
330
A
100
AcDbEntity
  8
1
  6
Continuous
 62
     7
100
AcDbLine
 10
-403.861262247255
 20
257.017357864883
 30
0.0
 11
-400.890087320773
 21
255.631876242947
 31
0.0
  0
LINE
  5
2D2
330
A
100
AcDbEntity
  8
1
  6
Continuous
 62
     7
100
AcDbLine
 10
-405.5900432091
 20
256.7318762429469
 30
0.0
 11
-391.290087320773
 21
256.7318762429469
 31
0.0
  0
LINE
  5
2D1
330
A
100
AcDbEntity
  8
1
  6
Continuous
 62
     7
100
AcDbLine
 10
-406.6900432091
 20
255.631876242947
 30
0.0
 11
-405.5900432091
 21
256.7318762429469
 31
0.0
  0
LINE
  5
2D0
330
A
100
AcDbEntity
  8
1
  6
Continuous
 62
     7
100
AcDbLine
 10
-390.190087320774
 20
255.631876242947
 30
0.0
 11
-406.6900432091
 21
255.631876242947
 31
0.0
  0
LINE
  5
2CF
330
A
100
AcDbEntity
  8
1
  6
Continuous
 62
     7
100
AcDbLine
 10
-390.190087320774
 20
257.1318762429469
 30
0.0
 11
-391.690087320774
 21
255.631876242947
 31
0.0
  0
LINE
  5
2CE
330
A
100
AcDbEntity
  8
1
  6
Continuous
 62
     7
100
AcDbLine
 10
-390.190087320774
 20
258.32537624617
 30
0.0
 11
-390.190087320774
 21
257.1318762429469
 31
0.0
  0
LINE
  5
2CD
330
A
100
AcDbEntity
  8
1
  6
DASH_CENTER
 62
     3
100
AcDbLine
 10
-390.190087320774
 20
256.1318762429469
 30
0.0
 11
-406.784717476881
 21
256.1318762429469
 31
0.0
  0
LINE
  5
2CC
330
A
100
AcDbEntity
  8
1
  6
Continuous
 62
     7
100
AcDbLine
 10
-390.190087320774
 20
255.631876242947
 30
0.0
 11
-391.290087320773
 21
256.7318762429469
 31
0.0
  0
LINE
  5
2CB
330
A
100
AcDbEntity
  8
1
  6
Continuous
 62
     7
100
AcDbLine
 10
-406.3239368644389
 20
257.539821252402
 30
0.0
 11
-416.818087320774
 21
257.539821252402
 31
0.0
  0
LINE
  5
2CA
330
A
100
AcDbEntity
  8
1
  6
Continuous
 62
     7
100
AcDbLine
 10
-416.6900873207739
 20
258.32537624617
 30
0.0
 11
-390.190087320774
 21
258.32537624617
 31
0.0
  0
LINE
  5
2C9
330
A
100
AcDbEntity
  8
1
  6
Continuous
 62
     7
100
AcDbLine
 10
-420.643087320774
 20
279.131876242951
 30
0.0
 11
-420.643087320774
 21
261.364821252402
 31
0.0
  0
LINE
  5
2C8
330
A
100
AcDbEntity
  8
1
  6
Continuous
 62
     7
100
AcDbLine
 10
-391.290087320773
 20
382.531876242947
 30
0.0
 11
-390.190087320774
 21
383.631876242947
 31
0.0
  0
LINE
  5
2C7
330
A
100
AcDbEntity
  8
1
  6
Continuous
 62
     7
100
AcDbLine
 10
-420.643087320774
 20
377.8989312334919
 30
0.0
 11
-420.643087320774
 21
360.1318762429429
 31
0.0
  0
LINE
  5
2C6
330
A
100
AcDbEntity
  8
1
  6
Continuous
 62
     7
100
AcDbLine
 10
-416.818087320774
 20
381.7239312334919
 30
0.0
 11
-406.3239368644389
 21
381.7239312334919
 31
0.0
  0
LINE
  5
2C5
330
A
100
AcDbEntity
  8
1
  6
DASH_CENTER
 62
     3
100
AcDbLine
 10
-406.784717476881
 20
383.1318762429469
 30
0.0
 11
-390.190087320774
 21
383.1318762429469
 31
0.0
  0
LINE
  5
2C4
330
A
100
AcDbEntity
  8
1
  6
DASH_CENTER
 62
     3
100
AcDbLine
 10
-422.490087320773
 20
367.6318762429469
 30
0.0
 11
-448.69837769764
 21
367.6318762429469
 31
0.0
  0
LINE
  5
2C3
330
A
100
AcDbEntity
  8
1
  6
DASH_CENTER
 62
     3
100
AcDbLine
 10
-408.450087320774
 20
350.631876242946
 30
0.0
 11
-448.7394883975319
 21
350.631876242946
 31
0.0
  0
LINE
  5
2C2
330
A
100
AcDbEntity
  8
1
  6
Continuous
 62
     7
100
AcDbLine
 10
-390.990087320774
 20
319.6318762429469
 30
0.0
 11
-390.990087320774
 21
275.181876242945
 31
0.0
  0
LINE
  5
2C1
330
A
100
AcDbEntity
  8
1
  6
Continuous
 62
     7
100
AcDbLine
 10
-403.690087320774
 20
319.6318762429469
 30
0.0
 11
-403.690087320774
 21
364.0818762429479
 31
0.0
  0
LINE
  5
2C0
330
A
100
AcDbEntity
  8
1
  6
DASH_CENTER
 62
     3
100
AcDbLine
 10
-609.0537284571341
 20
307.1488508700929
 30
0.0
 11
-619.964316523542
 21
300.8496199129359
 31
0.0
  0
LINE
  5
2BF
330
A
100
AcDbEntity
  8
1
  6
DASH_CENTER
 62
     3
100
AcDbLine
 10
-619.964316523542
 20
338.414132572958
 30
0.0
 11
-609.0537284571341
 21
332.1149016158
 31
0.0
  0
LINE
  5
2BE
330
A
100
AcDbEntity
  8
1
  6
DASH_CENTER
 62
     3
100
AcDbLine
 10
-554.9006720348179
 20
300.8496199129359
 30
0.0
 11
-565.8112601012259
 21
307.1488508700929
 31
0.0
  0
LINE
  5
2BD
330
A
100
AcDbEntity
  8
1
  6
DASH_CENTER
 62
     3
100
AcDbLine
 10
-565.8112601012259
 20
332.1149016158
 30
0.0
 11
-554.9006720348179
 21
338.414132572958
 31
0.0
  0
LINE
  5
2BC
330
A
100
AcDbEntity
  8
1
  6
DASH_CENTER
 62
     3
100
AcDbLine
 10
-675.4890791703079
 20
319.6318762429469
 30
0.0
 11
-499.9890791703079
 21
319.6318762429469
 31
0.0
  0
LINE
  5
2BB
330
A
100
AcDbEntity
  8
1
  6
DASH_CENTER
 62
     3
100
AcDbLine
 10
-393.390087320774
 20
246.1318775202809
 30
0.0
 11
-434.898655802291
 21
246.1318775202809
 31
0.0
  0
LINE
  5
2BA
330
A
100
AcDbEntity
  8
1
  6
DASH_CENTER
 62
     3
100
AcDbLine
 10
-587.4324942791799
 20
405.731801173554
 30
0.0
 11
-587.4324942791799
 21
231.131801173554
 31
0.0
  0
LINE
  5
2B9
330
A
100
AcDbEntity
  8
1
  6
DASH_CENTER
 62
     3
100
AcDbLine
 10
-249.5192278099469
 20
404.0237867627389
 30
0.0
 11
-249.5192278099469
 21
235.0237867627389
 31
0.0
  0
LINE
  5
2B8
330
A
100
AcDbEntity
  8
1
  6
DASH_CENTER
 62
     3
100
AcDbLine
 10
-334.313530471384
 20
319.6318762429469
 30
0.0
 11
-164.013530471384
 21
319.6318762429469
 31
0.0
  0
LINE
  5
2B7
330
A
100
AcDbEntity
  8
1
  6
DASH_CENTER
 62
     3
100
AcDbLine
 10
-285.976760656797
 20
389.095901455567
 30
0.0
 11
-281.376001253594
 21
380.329886801584
 31
0.0
  0
LINE
  5
2B6
330
A
100
AcDbEntity
  8
1
  6
DASH_CENTER
 62
     3
100
AcDbLine
 10
-301.541200348991
 20
378.3525444371489
 30
0.0
 11
-294.976286032433
 21
370.942288030232
 31
0.0
  0
LINE
  5
2B5
330
A
100
AcDbEntity
  8
1
  6
DASH_CENTER
 62
     3
100
AcDbLine
 10
-314.082312089407
 20
364.1965556242279
 30
0.0
 11
-305.934771817079
 21
358.5727146315609
 31
0.0
  0
LINE
  5
2B4
330
A
100
AcDbEntity
  8
1
  6
DASH_CENTER
 62
     3
100
AcDbLine
 10
-322.8712520487779
 20
347.450629631686
 30
0.0
 11
-313.614591246204
 21
343.940041249933
 31
0.0
  0
LINE
  5
2B3
330
A
100
AcDbEntity
  8
1
  6
DASH_CENTER
 62
     3
100
AcDbLine
 10
-327.397238983162
 20
329.087978809244
 30
0.0
 11
-317.5694211295959
 21
327.8946656746829
 31
0.0
  0
LINE
  5
2B2
330
A
100
AcDbEntity
  8
1
  6
DASH_CENTER
 62
     3
100
AcDbLine
 10
-322.871252048968
 20
291.813122854711
 30
0.0
 11
-313.6145912463709
 21
295.3237112364009
 31
0.0
  0
LINE
  5
2B1
330
A
100
AcDbEntity
  8
1
  6
DASH_CENTER
 62
     3
100
AcDbLine
 10
-314.082312089712
 20
275.0671968621089
 30
0.0
 11
-305.934771817346
 21
280.691037854719
 31
0.0
  0
LINE
  5
2B0
330
A
100
AcDbEntity
  8
1
  6
DASH_CENTER
 62
     3
100
AcDbLine
 10
-301.5412003493939
 20
260.9112080491019
 30
0.0
 11
-294.976286032784
 21
268.321464455974
 31
0.0
  0
LINE
  5
2AF
330
A
100
AcDbEntity
  8
1
  6
DASH_CENTER
 62
     3
100
AcDbLine
 10
-285.976760657274
 20
250.1678510305779
 30
0.0
 11
-281.37600125401
 21
258.933865684528
 31
0.0
  0
LINE
  5
2AE
330
A
100
AcDbEntity
  8
1
  6
DASH_CENTER
 62
     3
100
AcDbLine
 10
-213.061694963608
 20
250.1678510303269
 30
0.0
 11
-217.6624543668109
 21
258.93386568431
 31
0.0
  0
LINE
  5
2AD
330
A
100
AcDbEntity
  8
1
  6
DASH_CENTER
 62
     3
100
AcDbLine
 10
-197.4972552714149
 20
260.9112080487449
 30
0.0
 11
-204.062169587973
 21
268.321464455662
 31
0.0
  0
LINE
  5
2AC
330
A
100
AcDbEntity
  8
1
  6
DASH_CENTER
 62
     3
100
AcDbLine
 10
-184.9561435309999
 20
275.0671968616659
 30
0.0
 11
-193.1036838033269
 21
280.691037854332
 31
0.0
  0
LINE
  5
2AB
330
A
100
AcDbEntity
  8
1
  6
DASH_CENTER
 62
     3
100
AcDbLine
 10
-176.1672035716289
 20
291.813122854208
 30
0.0
 11
-185.423864374202
 21
295.32371123596
 31
0.0
  0
LINE
  5
2AA
330
A
100
AcDbEntity
  8
1
  6
DASH_CENTER
 62
     3
100
AcDbLine
 10
-171.6412166372439
 20
310.1757736766479
 30
0.0
 11
-181.4690344908109
 21
311.36908681121
 31
0.0
  0
LINE
  5
2A9
330
A
100
AcDbEntity
  8
1
  6
DASH_CENTER
 62
     3
100
AcDbLine
 10
-176.1672035714379
 20
347.4506296311799
 30
0.0
 11
-185.423864374035
 21
343.9400412494909
 31
0.0
  0
LINE
  5
2A8
330
A
100
AcDbEntity
  8
1
  6
DASH_CENTER
 62
     3
100
AcDbLine
 10
-184.956143530693
 20
364.196555623782
 30
0.0
 11
-193.10368380306
 21
358.5727146311719
 31
0.0
  0
LINE
  5
2A7
330
A
100
AcDbEntity
  8
1
  6
DASH_CENTER
 62
     3
100
AcDbLine
 10
-197.497255271011
 20
378.352544436788
 30
0.0
 11
-204.06216958762
 21
370.942288029917
 31
0.0
  0
LINE
  5
2A6
330
A
100
AcDbEntity
  8
1
  6
DASH_CENTER
 62
     3
100
AcDbLine
 10
-213.06169496313
 20
389.095901455313
 30
0.0
 11
-217.662454366393
 21
380.329886801362
 31
0.0
  0
LINE
  5
2A5
330
A
100
AcDbEntity
  8
1
  6
DASH_CENTER
 62
     3
100
AcDbLine
 10
-170.598872319374
 20
329.214542322973
 30
0.0
 11
-182.5113788085549
 21
327.7681021599499
 31
0.0
  0
LINE
  5
2A4
330
A
100
AcDbEntity
  8
1
  6
DASH_CENTER
 62
     3
100
AcDbLine
 10
-328.4395833010299
 20
310.049210162922
 30
0.0
 11
-316.5270768118489
 21
311.4956503259439
 31
0.0
  0
LINE
  5
2A3
330
A
100
AcDbEntity
  8
1
  6
DASH_CENTER
 62
     3
100
AcDbLine
 10
-556.2798759076789
 20
362.50977694482
 30
0.0
 11
-566.860010448943
 21
347.947471046071
 31
0.0
  0
LINE
  5
2A2
330
A
100
AcDbEntity
  8
1
  6
DASH_CENTER
 62
     3
100
AcDbLine
 10
-537.0264989155359
 20
336.009776944819
 30
0.0
 11
-554.145516208849
 21
330.4474710460699
 31
0.0
  0
LINE
  5
2A1
330
A
100
AcDbEntity
  8
1
  6
DASH_CENTER
 62
     3
100
AcDbLine
 10
-537.0264989155359
 20
303.253975541074
 30
0.0
 11
-554.145516208849
 21
308.816281439823
 31
0.0
  0
LINE
  5
2A0
330
A
100
AcDbEntity
  8
1
  6
DASH_CENTER
 62
     3
100
AcDbLine
 10
-556.2798759076789
 20
276.7539755410739
 30
0.0
 11
-566.860010448943
 21
291.316281439823
 31
0.0
  0
LINE
  5
29F
330
A
100
AcDbEntity
  8
1
  6
DASH_CENTER
 62
     3
100
AcDbLine
 10
-618.585112650681
 20
276.7539755410739
 30
0.0
 11
-608.004978109417
 21
291.316281439823
 31
0.0
  0
LINE
  5
29E
330
A
100
AcDbEntity
  8
1
  6
DASH_CENTER
 62
     3
100
AcDbLine
 10
-637.8384896428229
 20
303.253975541074
 30
0.0
 11
-620.7194723495111
 21
308.816281439823
 31
0.0
  0
LINE
  5
29D
330
A
100
AcDbEntity
  8
1
  6
DASH_CENTER
 62
     3
100
AcDbLine
 10
-637.8384896428229
 20
336.00977694482
 30
0.0
 11
-620.7194723495111
 21
330.4474710460699
 31
0.0
  0
LINE
  5
29C
330
A
100
AcDbEntity
  8
1
  6
DASH_CENTER
 62
     3
100
AcDbLine
 10
-618.585112650681
 20
362.509776944819
 30
0.0
 11
-608.004978109417
 21
347.94747104607
 31
0.0
  0
LINE
  5
29B
330
A
100
AcDbEntity
  8
1
  6
DASH_CENTER
 62
     3
100
AcDbLine
 10
-550.9749614323459
 20
389.09590145544
 30
0.0
 11
-555.575720835579
 21
380.3298868014739
 31
0.0
  0
LINE
  5
29A
330
A
100
AcDbEntity
  8
1
  6
DASH_CENTER
 62
     3
100
AcDbLine
 10
-535.4105217401889
 20
378.3525444369689
 30
0.0
 11
-541.9754360567729
 21
370.942288030075
 31
0.0
  0
LINE
  5
299
330
A
100
AcDbEntity
  8
1
  6
DASH_CENTER
 62
     3
100
AcDbLine
 10
-522.869409999823
 20
364.1965556240049
 30
0.0
 11
-531.0169502721699
 21
358.572714631367
 31
0.0
  0
LINE
  5
298
330
A
100
AcDbEntity
  8
1
  6
DASH_CENTER
 62
     3
100
AcDbLine
 10
-514.080470040509
 20
347.450629631433
 30
0.0
 11
-523.337130843095
 21
343.940041249712
 31
0.0
  0
LINE
  5
297
330
A
100
AcDbEntity
  8
1
  6
DASH_CENTER
 62
     3
100
AcDbLine
 10
-509.554483106187
 20
329.087978808976
 30
0.0
 11
-519.382300959758
 21
327.894665674448
 31
0.0
  0
LINE
  5
296
330
A
100
AcDbEntity
  8
1
  6
DASH_CENTER
 62
     3
100
AcDbLine
 10
-514.080470040509
 20
291.8131228544589
 30
0.0
 11
-523.337130843095
 21
295.3237112361799
 31
0.0
  0
LINE
  5
295
330
A
100
AcDbEntity
  8
1
  6
DASH_CENTER
 62
     3
100
AcDbLine
 10
-522.869409999823
 20
275.067196861887
 30
0.0
 11
-531.0169502721699
 21
280.6910378545259
 31
0.0
  0
LINE
  5
294
330
A
100
AcDbEntity
  8
1
  6
DASH_CENTER
 62
     3
100
AcDbLine
 10
-535.4105217401909
 20
260.9112080489239
 30
0.0
 11
-541.975436056774
 21
268.321464455818
 31
0.0
  0
LINE
  5
293
330
A
100
AcDbEntity
  8
1
  6
DASH_CENTER
 62
     3
100
AcDbLine
 10
-550.974961432347
 20
250.167851030452
 30
0.0
 11
-555.575720835581
 21
258.933865684419
 31
0.0
  0
LINE
  5
292
330
A
100
AcDbEntity
  8
1
  6
DASH_CENTER
 62
     3
100
AcDbLine
 10
-568.658180415822
 20
243.4614906658729
 30
0.0
 11
-571.0274054922689
 21
253.073814658391
 31
0.0
  0
LINE
  5
291
330
A
100
AcDbEntity
  8
1
  6
DASH_CENTER
 62
     3
100
AcDbLine
 10
-623.890027126014
 20
250.1678510304529
 30
0.0
 11
-619.289267722781
 21
258.93386568442
 31
0.0
  0
LINE
  5
290
330
A
100
AcDbEntity
  8
1
  6
DASH_CENTER
 62
     3
100
AcDbLine
 10
-639.4544668181709
 20
260.911208048925
 30
0.0
 11
-632.889552501587
 21
268.321464455819
 31
0.0
  0
LINE
  5
28F
330
A
100
AcDbEntity
  8
1
  6
DASH_CENTER
 62
     3
100
AcDbLine
 10
-651.995578558538
 20
275.067196861888
 30
0.0
 11
-643.848038286191
 21
280.6910378545259
 31
0.0
  0
LINE
  5
28E
330
A
100
AcDbEntity
  8
1
  6
DASH_CENTER
 62
     3
100
AcDbLine
 10
-660.784518517851
 20
291.8131228544599
 30
0.0
 11
-651.527857715266
 21
295.323711236181
 31
0.0
  0
LINE
  5
28D
330
A
100
AcDbEntity
  8
1
  6
DASH_CENTER
 62
     3
100
AcDbLine
 10
-665.3105054521731
 20
310.175773676917
 30
0.0
 11
-655.4826875986019
 21
311.369086811445
 31
0.0
  0
LINE
  5
28C
330
A
100
AcDbEntity
  8
1
  6
DASH_CENTER
 62
     3
100
AcDbLine
 10
-660.784518517851
 20
347.450629631434
 30
0.0
 11
-651.527857715266
 21
343.9400412497129
 31
0.0
  0
LINE
  5
28B
330
A
100
AcDbEntity
  8
1
  6
DASH_CENTER
 62
     3
100
AcDbLine
 10
-651.9955785585369
 20
364.196555624007
 30
0.0
 11
-643.8480382861899
 21
358.572714631368
 31
0.0
  0
LINE
  5
28A
330
A
100
AcDbEntity
  8
1
  6
DASH_CENTER
 62
     3
100
AcDbLine
 10
-639.4544668181709
 20
378.35254443697
 30
0.0
 11
-632.889552501587
 21
370.9422880300759
 31
0.0
  0
LINE
  5
289
330
A
100
AcDbEntity
  8
1
  6
DASH_CENTER
 62
     3
100
AcDbLine
 10
-623.890027126014
 20
389.0959014554419
 30
0.0
 11
-619.2892677227799
 21
380.3298868014749
 31
0.0
  0
LINE
  5
288
330
A
100
AcDbEntity
  8
1
  6
DASH_CENTER
 62
     3
100
AcDbLine
 10
-606.2068081425389
 20
395.8022618200209
 30
0.0
 11
-603.8375830660919
 21
386.189937827503
 31
0.0
  0
LINE
  5
287
330
A
100
AcDbEntity
  8
1
  6
DASH_CENTER
 62
     3
100
AcDbLine
 10
-230.4936324996059
 20
242.4420017575109
 30
0.0
 11
-233.3654204710169
 21
254.0933035666329
 31
0.0
  0
LINE
  5
286
330
A
100
AcDbEntity
  8
1
  6
DASH_CENTER
 62
     3
100
AcDbLine
 10
-268.544823120798
 20
396.821750728383
 30
0.0
 11
-265.673035149387
 21
385.170448919261
 31
0.0
  0
LINE
  5
285
330
A
100
AcDbEntity
  8
1
  6
DASH_CENTER
 62
     3
100
AcDbLine
 10
-230.744913946581
 20
395.8022618199539
 30
0.0
 11
-233.114139023061
 21
386.189937827444
 31
0.0
  0
LINE
  5
284
330
A
100
AcDbEntity
  8
1
  6
DASH_CENTER
 62
     3
100
AcDbLine
 10
-268.293541673822
 20
243.461490665937
 30
0.0
 11
-265.9243165973419
 21
253.0738146584469
 31
0.0
  0
LINE
  5
283
330
A
100
AcDbEntity
  8
1
  6
Continuous
 62
     7
100
AcDbLine
 10
-393.990087320774
 20
251.6318775202809
 30
0.0
 11
-390.190087320774
 21
251.6318775202809
 31
0.0
  0
LINE
  5
282
330
A
100
AcDbEntity
  8
1
  6
Continuous
 62
     7
100
AcDbLine
 10
-393.990087320774
 20
387.631874965612
 30
0.0
 11
-390.190087320774
 21
387.631874965612
 31
0.0
  0
LINE
  5
281
330
A
100
AcDbEntity
  8
1
  6
Continuous
 62
     7
100
AcDbLine
 10
-418.690087320774
 20
398.131874966134
 30
0.0
 11
-394.190087320774
 21
398.131874966134
 31
0.0
  0
LINE
  5
280
330
A
100
AcDbEntity
  8
1
  6
Continuous
 62
     7
100
AcDbLine
 10
-418.690087320774
 20
388.6318762429469
 30
0.0
 11
-421.6900873207739
 21
388.6318762429469
 31
0.0
  0
LINE
  5
27F
330
A
100
AcDbEntity
  8
1
  6
Continuous
 62
     7
100
AcDbLine
 10
-418.690087320774
 20
250.631876242947
 30
0.0
 11
-421.6900873207739
 21
250.631876242947
 31
0.0
  0
LINE
  5
27E
330
A
100
AcDbEntity
  8
1
  6
Continuous
 62
     7
100
AcDbLine
 10
-390.190087320774
 20
387.631874965612
 30
0.0
 11
-390.190087320774
 21
383.631876242947
 31
0.0
  0
LINE
  5
27D
330
A
100
AcDbEntity
  8
1
  6
Continuous
 62
     7
100
AcDbLine
 10
-421.6900873207739
 20
253.3318762429459
 30
0.0
 11
-421.6900873207739
 21
250.631876242947
 31
0.0
  0
LINE
  5
27C
330
A
100
AcDbEntity
  8
1
  6
Continuous
 62
     7
100
AcDbLine
 10
-421.6900873207739
 20
385.931876242947
 30
0.0
 11
-421.6900873207739
 21
388.6318762429469
 31
0.0
  0
LINE
  5
27B
330
A
100
AcDbEntity
  8
1
  6
Continuous
 62
     7
100
AcDbLine
 10
-406.6900432091
 20
253.3318762429459
 30
0.0
 11
-406.6900432091
 21
255.631876242947
 31
0.0
  0
LINE
  5
27A
330
A
100
AcDbEntity
  8
1
  6
Continuous
 62
     7
100
AcDbLine
 10
-406.6900432091
 20
253.3318762429459
 30
0.0
 11
-421.6900873207739
 21
253.3318762429459
 31
0.0
  0
LINE
  5
279
330
A
100
AcDbEntity
  8
1
  6
Continuous
 62
     7
100
AcDbLine
 10
-406.6900432091
 20
385.931876242947
 30
0.0
 11
-421.6900873207739
 21
385.931876242947
 31
0.0
  0
LINE
  5
278
330
A
100
AcDbEntity
  8
1
  6
Continuous
 62
     7
100
AcDbLine
 10
-419.690087320774
 20
282.6318762429499
 30
0.0
 11
-423.190087320774
 21
282.6318762429499
 31
0.0
  0
LINE
  5
277
330
A
100
AcDbEntity
  8
1
  6
DASH_CENTER
 62
     3
100
AcDbLine
 10
-417.690087320774
 20
287.1318762429499
 30
0.0
 11
-425.1900873207739
 21
287.1318762429499
 31
0.0
  0
LINE
  5
276
330
A
100
AcDbEntity
  8
1
  6
Continuous
 62
     7
100
AcDbLine
 10
-419.690087320774
 20
291.6318762429499
 30
0.0
 11
-423.190087320774
 21
291.6318762429499
 31
0.0
  0
LINE
  5
275
330
A
100
AcDbEntity
  8
1
  6
Continuous
 62
     7
100
AcDbLine
 10
-423.190087320774
 20
297.631876242946
 30
0.0
 11
-423.190087320774
 21
280.13187624295
 31
0.0
  0
LINE
  5
274
330
A
100
AcDbEntity
  8
1
  6
Continuous
 62
     7
100
AcDbLine
 10
-390.190087320774
 20
255.631876242947
 30
0.0
 11
-390.190087320774
 21
251.6318775202809
 31
0.0
  0
LINE
  5
273
330
A
100
AcDbEntity
  8
1
  6
Continuous
 62
     7
100
AcDbLine
 10
-390.990087320774
 20
275.181876242945
 30
0.0
 11
-403.690087320774
 21
275.181876242945
 31
0.0
  0
LINE
  5
272
330
A
100
AcDbEntity
  8
1
  6
Continuous
 62
     7
100
AcDbLine
 10
-403.690087320774
 20
292.031876242947
 30
0.0
 11
-390.990087320774
 21
292.031876242947
 31
0.0
  0
LINE
  5
271
330
A
100
AcDbEntity
  8
1
  6
Continuous
 62
     7
100
AcDbLine
 10
-403.690087320774
 20
287.2318762429459
 30
0.0
 11
-390.990087320774
 21
287.2318762429459
 31
0.0
  0
LINE
  5
270
330
A
100
AcDbEntity
  8
1
  6
DASH_CENTER
 62
     3
100
AcDbLine
 10
-405.140087320773
 20
289.6318762429469
 30
0.0
 11
-390.0400873207739
 21
289.6318762429469
 31
0.0
  0
LINE
  5
26F
330
A
100
AcDbEntity
  8
1
  6
Continuous
 62
     3
100
AcDbLine
 10
-403.690087320774
 20
292.6318762429469
 30
0.0
 11
-390.990087320774
 21
292.6318762429469
 31
0.0
  0
LINE
  5
26E
330
A
100
AcDbEntity
  8
1
  6
Continuous
 62
     3
100
AcDbLine
 10
-403.690087320774
 20
286.631876242947
 30
0.0
 11
-390.990087320774
 21
286.631876242947
 31
0.0
  0
LINE
  5
26D
330
A
100
AcDbEntity
  8
1
  6
Continuous
 62
     7
100
AcDbLine
 10
-419.690087320774
 20
356.1318762429429
 30
0.0
 11
-419.690087320774
 21
345.131876242946
 31
0.0
  0
LINE
  5
26C
330
A
100
AcDbEntity
  8
1
  6
Continuous
 62
     7
100
AcDbLine
 10
-390.190087320774
 20
382.131876242947
 30
0.0
 11
-390.190087320774
 21
380.9383762397239
 31
0.0
  0
LINE
  5
26B
330
A
100
AcDbEntity
  8
1
  6
Continuous
 62
     7
100
AcDbLine
 10
-391.690087320774
 20
383.631876242947
 30
0.0
 11
-390.190087320774
 21
382.131876242947
 31
0.0
  0
LINE
  5
26A
330
A
100
AcDbEntity
  8
1
  6
Continuous
 62
     7
100
AcDbLine
 10
-390.190087320774
 20
380.9383762397239
 30
0.0
 11
-416.6900873207739
 21
380.9383762397239
 31
0.0
  0
LINE
  5
269
330
A
100
AcDbEntity
  8
1
  6
Continuous
 62
     7
100
AcDbLine
 10
-406.6900432091
 20
383.631876242947
 30
0.0
 11
-390.190087320774
 21
383.631876242947
 31
0.0
  0
LINE
  5
268
330
A
100
AcDbEntity
  8
1
  6
Continuous
 62
     7
100
AcDbLine
 10
-405.5900432091
 20
382.531876242947
 30
0.0
 11
-406.6900432091
 21
383.631876242947
 31
0.0
  0
LINE
  5
267
330
A
100
AcDbEntity
  8
1
  6
Continuous
 62
     7
100
AcDbLine
 10
-406.6900432091
 20
383.631876242947
 30
0.0
 11
-406.6900432091
 21
385.931876242947
 31
0.0
  0
LINE
  5
266
330
A
100
AcDbEntity
  8
1
  6
Continuous
 62
     7
100
AcDbLine
 10
-391.290087320773
 20
382.531876242947
 30
0.0
 11
-405.5900432091
 21
382.531876242947
 31
0.0
  0
LINE
  5
265
330
A
100
AcDbEntity
  8
1
  6
DASH_CENTER
 62
     3
100
AcDbLine
 10
-458.790087320774
 20
319.6318762429469
 30
0.0
 11
-385.2900873207739
 21
319.6318762429469
 31
0.0
  0
LINE
  5
264
330
A
100
AcDbEntity
  8
1
  6
Continuous
 62
     7
100
AcDbLine
 10
-423.190087320774
 20
359.1318762429429
 30
0.0
 11
-422.690087320774
 21
359.6318762429429
 31
0.0
  0
LINE
  5
263
330
A
100
AcDbEntity
  8
1
  6
Continuous
 62
     7
100
AcDbLine
 10
-421.1430873207739
 20
359.6318762429429
 30
0.0
 11
-422.690087320774
 21
359.6318762429429
 31
0.0
  0
LINE
  5
262
330
A
100
AcDbEntity
  8
1
  6
Continuous
 62
     7
100
AcDbLine
 10
-400.890087320773
 20
383.631876242947
 30
0.0
 11
-403.861262247255
 21
382.2463946210109
 31
0.0
  0
LINE
  5
261
330
A
100
AcDbEntity
  8
1
  6
Continuous
 62
     7
100
AcDbLine
 10
-419.690087320774
 20
377.938376239724
 30
0.0
 11
-419.690087320774
 21
356.1318762429429
 31
0.0
  0
LINE
  5
260
330
A
100
AcDbEntity
  8
1
  6
Continuous
 62
     7
100
AcDbLine
 10
-403.690087320774
 20
364.0818762429479
 30
0.0
 11
-390.990087320774
 21
364.0818762429479
 31
0.0
  0
LINE
  5
25F
330
A
100
AcDbEntity
  8
1
  6
Continuous
 62
     7
100
AcDbLine
 10
-423.190087320774
 20
345.131876242946
 30
0.0
 11
-419.690087320774
 21
345.131876242946
 31
0.0
  0
LINE
  5
25E
330
A
100
AcDbEntity
  8
1
  6
Continuous
 62
     7
100
AcDbLine
 10
-419.690087320774
 20
345.131876242946
 30
0.0
 11
-419.690087320774
 21
261.3253762461699
 31
0.0
  0
LINE
  5
25D
330
A
100
AcDbEntity
  8
1
  6
Continuous
 62
     7
100
AcDbLine
 10
-423.190087320774
 20
356.1318762429429
 30
0.0
 11
-419.690087320774
 21
356.1318762429429
 31
0.0
  0
LINE
  5
25C
330
A
100
AcDbEntity
  8
1
  6
Continuous
 62
     7
100
AcDbLine
 10
-422.6900873207729
 20
279.6318762429499
 30
0.0
 11
-423.190087320774
 21
280.13187624295
 31
0.0
  0
LINE
  5
25B
330
A
100
AcDbEntity
  8
1
  6
Continuous
 62
     7
100
AcDbLine
 10
-422.6900873207729
 20
279.6318762429499
 30
0.0
 11
-421.1430873207739
 21
279.6318762429499
 31
0.0
  0
LINE
  5
25A
330
A
100
AcDbEntity
  8
1
  6
Continuous
 62
     7
100
AcDbLine
 10
-423.190087320774
 20
359.1318762429429
 30
0.0
 11
-423.190087320774
 21
355.6318762429429
 31
0.0
  0
LINE
  5
259
330
A
100
AcDbEntity
  8
1
  6
Continuous
 62
     7
100
AcDbLine
 10
-403.190087320774
 20
344.6318762429429
 30
0.0
 11
-403.690087320774
 21
345.1318762429429
 31
0.0
  0
LINE
  5
258
330
A
100
AcDbEntity
  8
1
  6
Continuous
 62
     7
100
AcDbLine
 10
-403.190087320774
 20
344.6318762429429
 30
0.0
 11
-391.490087320774
 21
344.6318762429429
 31
0.0
  0
LINE
  5
257
330
A
100
AcDbEntity
  8
1
  6
Continuous
 62
     7
100
AcDbLine
 10
-403.690087320774
 20
275.181876242945
 30
0.0
 11
-403.690087320774
 21
319.6318762429469
 31
0.0
  0
LINE
  5
256
330
A
100
AcDbEntity
  8
1
  6
Continuous
 62
     7
100
AcDbLine
 10
-391.490087320774
 20
344.6318762429429
 30
0.0
 11
-390.990087320774
 21
345.1318762429429
 31
0.0
  0
LINE
  5
255
330
A
100
AcDbEntity
  8
1
  6
Continuous
 62
     7
100
AcDbLine
 10
-423.190087320774
 20
297.631876242946
 30
0.0
 11
-419.690087320774
 21
297.6318762429489
 31
0.0
  0
LINE
  5
254
330
A
100
AcDbEntity
  8
1
  6
Continuous
 62
     7
100
AcDbLine
 10
-419.690087320774
 20
341.6318762429469
 30
0.0
 11
-423.190087320774
 21
341.6318762429469
 31
0.0
  0
LINE
  5
253
330
A
100
AcDbEntity
  8
1
  6
Continuous
 62
     7
100
AcDbLine
 10
-390.990087320774
 20
364.0818762429479
 30
0.0
 11
-390.990087320774
 21
319.6318762429469
 31
0.0
  0
LINE
  5
252
330
A
100
AcDbEntity
  8
1
  6
Continuous
 62
     7
100
AcDbLine
 10
-391.490087320774
 20
294.631876242947
 30
0.0
 11
-390.990087320774
 21
294.131876242947
 31
0.0
  0
LINE
  5
251
330
A
100
AcDbEntity
  8
1
  6
Continuous
 62
     7
100
AcDbLine
 10
-391.490087320774
 20
344.6318762429429
 30
0.0
 11
-391.490087320774
 21
294.631876242947
 31
0.0
  0
LINE
  5
250
330
A
100
AcDbEntity
  8
1
  6
Continuous
 62
     7
100
AcDbLine
 10
-403.190087320774
 20
344.6318762429429
 30
0.0
 11
-403.190087320774
 21
294.63187624295
 31
0.0
  0
LINE
  5
24F
330
A
100
AcDbEntity
  8
1
  6
Continuous
 62
     7
100
AcDbLine
 10
-391.490087320774
 20
294.631876242947
 30
0.0
 11
-403.190087320774
 21
294.63187624295
 31
0.0
  0
LINE
  5
24E
330
A
100
AcDbEntity
  8
1
  6
Continuous
 62
     7
100
AcDbLine
 10
-403.190087320774
 20
294.63187624295
 30
0.0
 11
-403.690087320774
 21
294.131876242947
 31
0.0
  0
LINE
  5
24D
330
A
100
AcDbEntity
  8
1
  6
Continuous
 62
     7
100
AcDbLine
 10
-398.5900873207739
 20
250.1318775202809
 30
0.0
 11
-394.190087320774
 21
250.1318775202809
 31
0.0
  0
LINE
  5
24C
330
A
100
AcDbEntity
  8
1
  6
Continuous
 62
     7
100
AcDbLine
 10
-398.5900873207739
 20
248.3818775202809
 30
0.0
 11
-418.690087320774
 21
248.3818775202809
 31
0.0
  0
LINE
  5
24B
330
A
100
AcDbEntity
  8
1
  6
Continuous
 62
     7
100
AcDbLine
 10
-418.690087320774
 20
250.631876242947
 30
0.0
 11
-418.690087320774
 21
248.3818775202809
 31
0.0
  0
LINE
  5
24A
330
A
100
AcDbEntity
  8
1
  6
Continuous
 62
     7
100
AcDbLine
 10
-398.5900873207739
 20
243.8818775202809
 30
0.0
 11
-418.690087320774
 21
243.8818775202809
 31
0.0
  0
LINE
  5
249
330
A
100
AcDbEntity
  8
1
  6
Continuous
 62
     7
100
AcDbLine
 10
-398.5900873207739
 20
250.1318775202809
 30
0.0
 11
-398.5900873207739
 21
242.1318775202809
 31
0.0
  0
LINE
  5
248
330
A
100
AcDbEntity
  8
1
  6
Continuous
 62
     7
100
AcDbLine
 10
-394.190087320774
 20
241.13187751976
 30
0.0
 11
-418.690087320774
 21
241.13187751976
 31
0.0
  0
LINE
  5
247
330
A
100
AcDbEntity
  8
1
  6
Continuous
 62
     7
100
AcDbLine
 10
-394.190087320774
 20
396.431874965612
 30
0.0
 11
-418.690087320774
 21
396.431874965612
 31
0.0
  0
LINE
  5
246
330
A
100
AcDbEntity
  8
1
  6
Continuous
 62
     7
100
AcDbLine
 10
-394.190087320774
 20
389.831874965613
 30
0.0
 11
-418.690087320774
 21
389.831874965613
 31
0.0
  0
LINE
  5
245
330
A
100
AcDbEntity
  8
1
  6
Continuous
 62
     7
100
AcDbLine
 10
-418.690087320774
 20
388.6318762429469
 30
0.0
 11
-418.690087320774
 21
398.131874966134
 31
0.0
  0
LINE
  5
244
330
A
100
AcDbEntity
  8
1
  6
Continuous
 62
     7
100
AcDbLine
 10
-394.190087320774
 20
387.831874965612
 30
0.0
 11
-394.190087320774
 21
398.131874966134
 31
0.0
  0
LINE
  5
243
330
A
100
AcDbEntity
  8
1
  6
DASH_CENTER
 62
     3
100
AcDbLine
 10
-391.196815161306
 20
393.131874965613
 30
0.0
 11
-454.696815161306
 21
393.131874965613
 31
0.0
  0
LINE
  5
242
330
A
100
AcDbEntity
  8
1
  6
Continuous
 62
     7
100
AcDbLine
 10
-423.190087320774
 20
345.631876242946
 30
0.0
 11
-423.190087320774
 21
341.6318762429469
 31
0.0
  0
LINE
  5
241
330
A
100
AcDbEntity
  8
1
  6
Continuous
 62
     7
100
AcDbLine
 10
-418.690087320774
 20
243.8818775202809
 30
0.0
 11
-418.690087320774
 21
241.13187751976
 31
0.0
  0
LINE
  5
240
330
A
100
AcDbEntity
  8
1
  6
Continuous
 62
     7
100
AcDbLine
 10
-398.5900873207739
 20
242.1318775202809
 30
0.0
 11
-394.190087320774
 21
242.1318775202809
 31
0.0
  0
LINE
  5
23F
330
A
100
AcDbEntity
  8
1
  6
Continuous
 62
     7
100
AcDbLine
 10
-394.190087320774
 20
251.4318775202809
 30
0.0
 11
-394.190087320774
 21
241.13187751976
 31
0.0
  0
LINE
  5
23E
330
A
100
AcDbEntity
  8
1
  6
Continuous
 62
     7
100
AcDbLine
 10
-423.190087320774
 20
359.6318762429429
 30
0.0
 11
-423.2900873207739
 21
359.6318762429429
 31
0.0
  0
LINE
  5
23D
330
A
100
AcDbEntity
  8
1
  6
Continuous
 62
     7
100
AcDbLine
 10
-423.2900873207739
 20
359.6318762429429
 30
0.0
 11
-423.2900873207739
 21
356.1318762429429
 31
0.0
  0
LINE
  5
23C
330
A
100
AcDbEntity
  8
1
  6
Continuous
 62
     7
100
AcDbLine
 10
-423.2900873207739
 20
356.1318762429429
 30
0.0
 11
-423.190087320774
 21
356.1318762429429
 31
0.0
  0
LINE
  5
23B
330
A
100
AcDbEntity
  8
1
  6
Continuous
 62
     7
100
AcDbLine
 10
-423.190087320774
 20
356.1318762429429
 30
0.0
 11
-423.190087320774
 21
359.6318762429429
 31
0.0
  0
LINE
  5
23A
330
A
100
AcDbEntity
  8
1
  6
Continuous
 62
     7
100
AcDbLine
 10
-423.190087320774
 20
345.131876242946
 30
0.0
 11
-423.2900873207739
 21
345.131876242946
 31
0.0
  0
LINE
  5
239
330
A
100
AcDbEntity
  8
1
  6
Continuous
 62
     7
100
AcDbLine
 10
-423.2900873207739
 20
345.131876242946
 30
0.0
 11
-423.2900873207739
 21
341.6318762429469
 31
0.0
  0
LINE
  5
238
330
A
100
AcDbEntity
  8
1
  6
Continuous
 62
     7
100
AcDbLine
 10
-423.2900873207739
 20
341.6318762429469
 30
0.0
 11
-423.190087320774
 21
341.6318762429469
 31
0.0
  0
LINE
  5
237
330
A
100
AcDbEntity
  8
1
  6
Continuous
 62
     7
100
AcDbLine
 10
-423.190087320774
 20
341.6318762429469
 30
0.0
 11
-423.190087320774
 21
345.131876242946
 31
0.0
  0
LINE
  5
236
330
A
100
AcDbEntity
  8
1
  6
Continuous
 62
     7
100
AcDbLine
 10
-423.190087320774
 20
297.631876242946
 30
0.0
 11
-423.2900873207739
 21
297.6318762429469
 31
0.0
  0
LINE
  5
235
330
A
100
AcDbEntity
  8
1
  6
Continuous
 62
     7
100
AcDbLine
 10
-423.2900873207739
 20
297.6318762429469
 30
0.0
 11
-423.2900873207739
 21
279.6318762429499
 31
0.0
  0
LINE
  5
234
330
A
100
AcDbEntity
  8
1
  6
Continuous
 62
     7
100
AcDbLine
 10
-423.2900873207739
 20
279.6318762429499
 30
0.0
 11
-423.190087320774
 21
279.6318762429499
 31
0.0
  0
LINE
  5
233
330
A
100
AcDbEntity
  8
1
  6
Continuous
 62
     7
100
AcDbLine
 10
-423.190087320774
 20
279.6318762429499
 30
0.0
 11
-423.190087320774
 21
297.631876242946
 31
0.0
  0
LINE
  5
232
330
A
100
AcDbEntity
  8
1
  6
DASH_CENTER
 62
     3
100
AcDbLine
 10
-571.027405492268
 20
386.189937827503
 30
0.0
 11
-568.6581804158209
 21
395.8022618200209
 31
0.0
  0
LINE
  5
231
330
A
100
AcDbEntity
  8
1
  6
DASH_CENTER
 62
     3
100
AcDbLine
 10
-519.382300959758
 20
311.3690868114459
 30
0.0
 11
-509.554483106187
 21
310.1757736769179
 31
0.0
  0
LINE
  5
230
330
A
100
AcDbEntity
  8
1
  6
DASH_CENTER
 62
     3
100
AcDbLine
 10
-603.8375830660919
 20
253.073814658391
 30
0.0
 11
-606.2068081425389
 21
243.4614906658729
 31
0.0
  0
LINE
  5
22F
330
A
100
AcDbEntity
  8
1
  6
DASH_CENTER
 62
     3
100
AcDbLine
 10
-655.4826875986019
 20
327.894665674448
 30
0.0
 11
-665.3105054521731
 21
329.087978808976
 31
0.0
  0
INSERT
  5
57
330
A
100
AcDbEntity
  8
0
100
AcDbBlockReference
  2
HEX_BOLT_SIDE__1
 10
0.0
 20
0.0
 30
0.0
  0
INSERT
  5
58
330
A
100
AcDbEntity
  8
0
100
AcDbBlockReference
  2
HEX_BOLT_TOP__2
 10
0.0
 20
0.0
 30
0.0
  0
INSERT
  5
59
330
A
100
AcDbEntity
  8
0
100
AcDbBlockReference
  2
HEX_BOLT_TOP__3
 10
0.0
 20
0.0
 30
0.0
  0
INSERT
  5
5A
330
A
100
AcDbEntity
  8
0
100
AcDbBlockReference
  2
HEX_BOLT_TOP__4
 10
0.0
 20
0.0
 30
0.0
  0
INSERT
  5
5B
330
A
100
AcDbEntity
  8
0
100
AcDbBlockReference
  2
HEX_BOLT_TOP__5
 10
0.0
 20
0.0
 30
0.0
  0
INSERT
  5
5C
330
A
100
AcDbEntity
  8
0
100
AcDbBlockReference
  2
WB_050_R
 10
0.0
 20
0.0
 30
0.0
  0
INSERT
  5
5D
330
A
100
AcDbEntity
  8
0
100
AcDbBlockReference
  2
WBG_050_F
 10
0.0
 20
0.0
 30
0.0
  0
INSERT
  5
5E
330
A
100
AcDbEntity
  8
0
100
AcDbBlockReference
  2
HEX_BOLT_SIDE__9
 10
0.0
 20
0.0
 30
0.0
  0
INSERT
  5
5F
330
A
100
AcDbEntity
  8
0
100
AcDbBlockReference
  2
CRB
 10
0.0
 20
0.0
 30
0.0
  0
CIRCLE
  5
348
330
A
100
AcDbEntity
  8
0
 62
     3
100
AcDbCircle
 10
-660.3965965253869
 20
328.491322241712
 30
0.0
 40
1.0
  0
HATCH
  5
349
330
A
100
AcDbEntity
  8
0
 62
     3
100
AcDbHatch
 10
0.0
 20
0.0
 30
0.0
210
0.0
220
0.0
230
1.0
  2
SOLID
 70
     1
 71
     1
 91
        1
 92
        1
 93
        1
 72
     2
 10
-660.3965965253872
 20
328.4913222417118
 40
1.0
 50
-180.0
 51
180.0
 73
     1
 97
        1
330
348
 75
     0
 76
     1
 98
        1
 10
0.0
 20
0.0
  0
CIRCLE
  5
34B
330
A
100
AcDbEntity
  8
0
 62
     3
100
AcDbCircle
 10
-605.022195604316
 20
248.2676526621319
 30
0.0
 40
1.0
  0
HATCH
  5
34C
330
A
100
AcDbEntity
  8
0
 62
     3
100
AcDbHatch
 10
0.0
 20
0.0
 30
0.0
210
0.0
220
0.0
230
1.0
  2
SOLID
 70
     1
 71
     1
 91
        1
 92
        1
 93
        1
 72
     2
 10
-605.0221956043157
 20
248.2676526621321
 40
1.0
 50
-180.0
 51
180.0
 73
     1
 97
        1
330
34B
 75
     0
 76
     1
 98
        1
 10
0.0
 20
0.0
  0
CIRCLE
  5
34E
330
A
100
AcDbEntity
  8
0
 62
     3
100
AcDbCircle
 10
-514.468392032973
 20
310.772430244182
 30
0.0
 40
1.0
  0
HATCH
  5
34F
330
A
100
AcDbEntity
  8
0
 62
     3
100
AcDbHatch
 10
0.0
 20
0.0
 30
0.0
210
0.0
220
0.0
230
1.0
  2
SOLID
 70
     1
 71
     1
 91
        1
 92
        1
 93
        1
 72
     2
 10
-514.4683920329729
 20
310.772430244182
 40
1.0
 50
-180.0
 51
180.0
 73
     1
 97
        1
330
34E
 75
     0
 76
     1
 98
        1
 10
0.0
 20
0.0
  0
CIRCLE
  5
351
330
A
100
AcDbEntity
  8
0
 62
     3
100
AcDbCircle
 10
-569.842792954044
 20
390.996099823762
 30
0.0
 40
1.0
  0
HATCH
  5
352
330
A
100
AcDbEntity
  8
0
 62
     3
100
AcDbHatch
 10
0.0
 20
0.0
 30
0.0
210
0.0
220
0.0
230
1.0
  2
SOLID
 70
     1
 71
     1
 91
        1
 92
        1
 93
        1
 72
     2
 10
-569.8427929540444
 20
390.9960998237616
 40
1.0
 50
-180.0
 51
180.0
 73
     1
 97
        1
330
351
 75
     0
 76
     1
 98
        1
 10
0.0
 20
0.0
  0
MTEXT
  5
364
330
A
100
AcDbEntity
  8
1
 62
     0
100
AcDbMText
 10
-257.4054361194594
 20
198.1966896493628
 30
0.0
 40
9.239980149469278
 41
0.0
 71
     5
 72
     1
  1
CSD-50-XXX-2UH.dxf
  7
CONVERTER_2
 73
     1
 44
1.0
  0
INSERT
  5
381
330
A
100
AcDbEntity
  8
0
  6
ByBlock
370
    -2
100
AcDbBlockReference
  2
NTC
 10
-675.3738872059589
 20
136.2258512755237
 30
0.0
 41
0.7020000000000001
 42
0.7020000000000001
 43
0.7020000000000001
  0
INSERT
  5
3F4
330
A
100
AcDbEntity
  8
0
  6
ByBlock
370
    -2
100
AcDbBlockReference
  2
HD Logo
 10
-385.9838677429086
 20
87.53447881937395
 30
0.0
 41
1.8
 42
1.8
 43
1.8
  0
INSERT
  5
40A
330
A
100
AcDbEntity
  8
0
  6
ByBlock
370
    -2
100
AcDbBlockReference
  2
HD LLC
 10
-233.791399991732
 20
83.69818894437413
 30
0.0
 41
1.335639500447034
 42
1.335639500447034
 43
1.335639500447034
  0
ENDSEC
  0
SECTION
  2
OBJECTS
  0
DICTIONARY
  5
19
330
0
100
AcDbDictionary
281
     1
  3
ACAD_GROUP
350
1A
  3
ACAD_LAYOUT
350
35A
  3
ACAD_MLINESTYLE
350
1B
  3
ACAD_PLOTSETTINGS
350
35B
  3
ACAD_PLOTSTYLENAME
350
358
  3
AcDbVariableDictionary
350
40C
  0
DICTIONARY
  5
1A
102
{ACAD_REACTORS
330
19
102
}
330
19
100
AcDbDictionary
281
     1
  0
DICTIONARY
  5
35A
102
{ACAD_REACTORS
330
19
102
}
330
19
100
AcDbDictionary
281
     1
  3
Layout1
350
35D
  3
Model
350
35C
  0
DICTIONARY
  5
1B
102
{ACAD_REACTORS
330
19
102
}
330
19
100
AcDbDictionary
281
     1
  3
STANDARD
350
1C
  0
DICTIONARY
  5
35B
102
{ACAD_REACTORS
330
19
102
}
330
19
100
AcDbDictionary
281
     1
  0
ACDBDICTIONARYWDFLT
  5
358
102
{ACAD_REACTORS
330
19
102
}
330
19
100
AcDbDictionary
281
     1
  3
Normal
350
359
100
AcDbDictionaryWithDefault
340
359
  0
DICTIONARY
  5
40C
102
{ACAD_REACTORS
330
19
102
}
330
19
100
AcDbDictionary
281
     1
  3
DIMASSOC
350
40D
  0
LAYOUT
  5
35D
102
{ACAD_REACTORS
330
35A
102
}
330
35A
100
AcDbPlotSettings
  1

  2
Adobe PDF
  4

  6

 40
0.0
 41
0.0
 42
0.0
 43
0.0
 44
0.0
 45
0.0
 46
0.0
 47
0.0
 48
0.0
 49
0.0
140
0.0
141
0.0
142
1.0
143
1.0
 70
   688
 72
     0
 73
     0
 74
     5
  7

 75
    16
147
1.0
148
0.0
149
0.0
100
AcDbLayout
  1
Layout1
 70
     0
 71
     1
 10
0.0
 20
0.0
 11
12.0
 21
9.0
 12
0.0
 22
0.0
 32
0.0
 14
1.000000000000000E+20
 24
1.000000000000000E+20
 34
1.000000000000000E+20
 15
-1.000000000000000E+20
 25
-1.000000000000000E+20
 35
-1.000000000000000E+20
146
0.0
 13
0.0
 23
0.0
 33
0.0
 16
1.0
 26
0.0
 36
0.0
 17
0.0
 27
1.0
 37
0.0
 76
     0
330
B
  0
LAYOUT
  5
35C
102
{ACAD_REACTORS
330
35A
102
}
330
35A
100
AcDbPlotSettings
  1

  2
Adobe PDF
  4

  6

 40
0.0
 41
0.0
 42
0.0
 43
0.0
 44
0.0
 45
0.0
 46
0.0
 47
0.0
 48
0.0
 49
0.0
140
0.0
141
0.0
142
1.0
143
1.0
 70
  1712
 72
     0
 73
     0
 74
     0
  7

 75
     0
147
1.0
148
0.0
149
0.0
100
AcDbLayout
  1
Model
 70
     1
 71
     0
 10
0.0
 20
0.0
 11
12.0
 21
9.0
 12
0.0
 22
0.0
 32
0.0
 14
0.0
 24
0.0
 34
0.0
 15
0.0
 25
0.0
 35
0.0
146
0.0
 13
0.0
 23
0.0
 33
0.0
 16
1.0
 26
0.0
 36
0.0
 17
0.0
 27
1.0
 37
0.0
 76
     0
330
A
  0
MLINESTYLE
  5
1C
102
{ACAD_REACTORS
330
1B
102
}
330
1B
100
AcDbMlineStyle
  2
STANDARD
 70
     0
  3

 62
     0
 51
90.0
 52
90.0
 71
     2
 49
0.5
 62
   256
  6
BYLAYER
 49
-0.5
 62
   256
  6
BYLAYER
  0
ACDBPLACEHOLDER
  5
359
102
{ACAD_REACTORS
330
358
102
}
330
358
  0
DICTIONARYVAR
  5
40D
102
{ACAD_REACTORS
330
40C
102
}
330
40C
100
DictionaryVariables
280
     0
  1
1
  0
ENDSEC
  0
EOF
